  0
SECTION
  2
HEADER
  9
$ACADVER
  1
AC1015
  9
$ACADMAINTVER
 70
    20
  9
$DWGCODEPAGE
  3
ANSI_1250
  9
$INSBASE
 10
0.0
 20
0.0
 30
0.0
  9
$EXTMIN
 10
-7.499999999999994
 20
-34.0
 30
-0.0000000000000009
  9
$EXTMAX
 10
7.5
 20
0.0
 30
52.0
  9
$LIMMIN
 10
0.0
 20
0.0
  9
$LIMMAX
 10
420.0
 20
297.0
  9
$ORTHOMODE
 70
     0
  9
$REGENMODE
 70
     1
  9
$FILLMODE
 70
     1
  9
$QTEXTMODE
 70
     0
  9
$MIRRTEXT
 70
     0
  9
$LTSCALE
 40
1.0
  9
$ATTMODE
 70
     1
  9
$TEXTSIZE
 40
2.5
  9
$TRACEWID
 40
1.0
  9
$TEXTSTYLE
  7
STANDARD
  9
$CLAYER
  8
TLESO1
  9
$CELTYPE
  6
ByLayer
  9
$CECOLOR
 62
   256
  9
$CELTSCALE
 40
1.0
  9
$DISPSILH
 70
     0
  9
$DIMSCALE
 40
1.0
  9
$DIMASZ
 40
3.5
  9
$DIMEXO
 40
1.0
  9
$DIMDLI
 40
10.0
  9
$DIMRND
 40
0.0
  9
$DIMDLE
 40
0.0
  9
$DIMEXE
 40
1.0
  9
$DIMTP
 40
0.1
  9
$DIMTM
 40
0.1
  9
$DIMTXT
 40
3.5
  9
$DIMCEN
 40
0.0
  9
$DIMTSZ
 40
0.0
  9
$DIMTOL
 70
     0
  9
$DIMLIM
 70
     0
  9
$DIMTIH
 70
     0
  9
$DIMTOH
 70
     0
  9
$DIMSE1
 70
     0
  9
$DIMSE2
 70
     0
  9
$DIMTAD
 70
     1
  9
$DIMZIN
 70
     8
  9
$DIMBLK
  1

  9
$DIMASO
 70
     1
  9
$DIMSHO
 70
     1
  9
$DIMPOST
  1

  9
$DIMAPOST
  1
"
  9
$DIMALT
 70
     0
  9
$DIMALTD
 70
     2
  9
$DIMALTF
 40
0.0393701
  9
$DIMLFAC
 40
1.0
  9
$DIMTOFL
 70
     1
  9
$DIMTVP
 40
0.0
  9
$DIMTIX
 70
     0
  9
$DIMSOXD
 70
     0
  9
$DIMSAH
 70
     0
  9
$DIMBLK1
  1

  9
$DIMBLK2
  1

  9
$DIMSTYLE
  2
AM_ISO
  9
$DIMCLRD
 70
   256
  9
$DIMCLRE
 70
   256
  9
$DIMCLRT
 70
   140
  9
$DIMTFAC
 40
0.71
  9
$DIMGAP
 40
1.5
  9
$DIMJUST
 70
     0
  9
$DIMSD1
 70
     0
  9
$DIMSD2
 70
     0
  9
$DIMTOLJ
 70
     0
  9
$DIMTZIN
 70
     8
  9
$DIMALTZ
 70
     0
  9
$DIMALTTZ
 70
     0
  9
$DIMUPT
 70
     0
  9
$DIMDEC
 70
     2
  9
$DIMTDEC
 70
     3
  9
$DIMALTU
 70
     2
  9
$DIMALTTD
 70
     4
  9
$DIMTXSTY
  7
STANDARD
  9
$DIMAUNIT
 70
     0
  9
$DIMADEC
 70
     0
  9
$DIMALTRND
 40
0.0
  9
$DIMAZIN
 70
     2
  9
$DIMDSEP
 70
    46
  9
$DIMATFIT
 70
     3
  9
$DIMFRAC
 70
     0
  9
$DIMLDRBLK
  1

  9
$DIMLUNIT
 70
     2
  9
$DIMLWD
 70
    -1
  9
$DIMLWE
 70
    -1
  9
$DIMTMOVE
 70
     0
  9
$LUNITS
 70
     2
  9
$LUPREC
 70
     2
  9
$SKETCHINC
 40
1.0
  9
$FILLETRAD
 40
2.5
  9
$AUNITS
 70
     0
  9
$AUPREC
 70
     0
  9
$MENU
  1
.
  9
$ELEVATION
 40
0.0
  9
$PELEVATION
 40
0.0
  9
$THICKNESS
 40
0.0
  9
$LIMCHECK
 70
     0
  9
$CHAMFERA
 40
2.5
  9
$CHAMFERB
 40
2.5
  9
$CHAMFERC
 40
20.0
  9
$CHAMFERD
 40
0.0
  9
$SKPOLY
 70
     0
  9
$TDCREATE
 40
2456048.377707581
  9
$TDUCREATE
 40
2456048.294374248
  9
$TDUPDATE
 40
2456048.380118542
  9
$TDUUPDATE
 40
2456048.296785208
  9
$TDINDWG
 40
0.0024237037
  9
$TDUSRTIMER
 40
0.0024116667
  9
$USRTIMER
 70
     1
  9
$ANGBASE
 50
0.0
  9
$ANGDIR
 70
     0
  9
$PDMODE
 70
     0
  9
$PDSIZE
 40
0.0
  9
$PLINEWID
 40
0.0
  9
$SPLFRAME
 70
     0
  9
$SPLINETYPE
 70
     6
  9
$SPLINESEGS
 70
     8
  9
$HANDSEED
  5
91F
  9
$SURFTAB1
 70
     6
  9
$SURFTAB2
 70
     6
  9
$SURFTYPE
 70
     6
  9
$SURFU
 70
     6
  9
$SURFV
 70
     6
  9
$UCSBASE
  2

  9
$UCSNAME
  2

  9
$UCSORG
 10
0.0
 20
0.0
 30
0.0
  9
$UCSXDIR
 10
1.0
 20
0.0
 30
0.0
  9
$UCSYDIR
 10
0.0
 20
1.0
 30
0.0
  9
$UCSORTHOREF
  2

  9
$UCSORTHOVIEW
 70
     0
  9
$UCSORGTOP
 10
0.0
 20
0.0
 30
0.0
  9
$UCSORGBOTTOM
 10
0.0
 20
0.0
 30
0.0
  9
$UCSORGLEFT
 10
0.0
 20
0.0
 30
0.0
  9
$UCSORGRIGHT
 10
0.0
 20
0.0
 30
0.0
  9
$UCSORGFRONT
 10
0.0
 20
0.0
 30
0.0
  9
$UCSORGBACK
 10
0.0
 20
0.0
 30
0.0
  9
$PUCSBASE
  2

  9
$PUCSNAME
  2

  9
$PUCSORG
 10
0.0
 20
0.0
 30
0.0
  9
$PUCSXDIR
 10
1.0
 20
0.0
 30
0.0
  9
$PUCSYDIR
 10
0.0
 20
1.0
 30
0.0
  9
$PUCSORTHOREF
  2

  9
$PUCSORTHOVIEW
 70
     0
  9
$PUCSORGTOP
 10
0.0
 20
0.0
 30
0.0
  9
$PUCSORGBOTTOM
 10
0.0
 20
0.0
 30
0.0
  9
$PUCSORGLEFT
 10
0.0
 20
0.0
 30
0.0
  9
$PUCSORGRIGHT
 10
0.0
 20
0.0
 30
0.0
  9
$PUCSORGFRONT
 10
0.0
 20
0.0
 30
0.0
  9
$PUCSORGBACK
 10
0.0
 20
0.0
 30
0.0
  9
$USERI1
 70
     0
  9
$USERI2
 70
     0
  9
$USERI3
 70
     0
  9
$USERI4
 70
     0
  9
$USERI5
 70
     0
  9
$USERR1
 40
0.0
  9
$USERR2
 40
0.0
  9
$USERR3
 40
0.0
  9
$USERR4
 40
0.0
  9
$USERR5
 40
0.0
  9
$WORLDVIEW
 70
     1
  9
$SHADEDGE
 70
     3
  9
$SHADEDIF
 70
    70
  9
$TILEMODE
 70
     1
  9
$MAXACTVP
 70
    64
  9
$PINSBASE
 10
0.0
 20
0.0
 30
0.0
  9
$PLIMCHECK
 70
     0
  9
$PEXTMIN
 10
1.000000000000000E+20
 20
1.000000000000000E+20
 30
1.000000000000000E+20
  9
$PEXTMAX
 10
-1.000000000000000E+20
 20
-1.000000000000000E+20
 30
-1.000000000000000E+20
  9
$PLIMMIN
 10
0.0
 20
0.0
  9
$PLIMMAX
 10
420.0
 20
297.0
  9
$UNITMODE
 70
     0
  9
$VISRETAIN
 70
     1
  9
$PLINEGEN
 70
     0
  9
$PSLTSCALE
 70
     1
  9
$TREEDEPTH
 70
  3020
  9
$CMLSTYLE
  2
Standard
  9
$CMLJUST
 70
     0
  9
$CMLSCALE
 40
20.0
  9
$PROXYGRAPHICS
 70
     1
  9
$MEASUREMENT
 70
     1
  9
$CELWEIGHT
370
    -1
  9
$ENDCAPS
280
     0
  9
$JOINSTYLE
280
     0
  9
$LWDISPLAY
290
     0
  9
$INSUNITS
 70
     4
  9
$HYPERLINKBASE
  1

  9
$STYLESHEET
  1

  9
$XEDIT
290
     1
  9
$CEPSNTYPE
380
     0
  9
$PSTYLEMODE
290
     1
  9
$FINGERPRINTGUID
  2
{30B03843-0B63-49BC-A6BB-BC73AD5DB6FA}
  9
$VERSIONGUID
  2
{79EEBB43-1E55-4640-89E7-FB0EAF5CBD72}
  9
$EXTNAMES
290
     1
  9
$PSVPSCALE
 40
0.0
  9
$OLESTARTUP
290
     0
  0
ENDSEC
  0
SECTION
  2
CLASSES
  0
CLASS
  1
ACDBDICTIONARYWDFLT
  2
AcDbDictionaryWithDefault
  3
ObjectDBX Classes
 90
        0
280
     0
281
     0
  0
CLASS
  1
ACDBPLACEHOLDER
  2
AcDbPlaceHolder
  3
ObjectDBX Classes
 90
        0
280
     0
281
     0
  0
CLASS
  1
LAYOUT
  2
AcDbLayout
  3
ObjectDBX Classes
 90
        0
280
     0
281
     0
  0
CLASS
  1
ACME_DOCUMENT
  2
AcMeDbDoc
  3
AcMeServices
 90
     1024
280
     0
281
     0
  0
CLASS
  1
AMGSETTINGSOBJ
  2
AmgSettingsObj
  3
"AcadM|Product Description: AutoCAD Mechanical|Company: Autodesk, Inc."
 90
     1024
280
     0
281
     0
  0
CLASS
  1
ACMESCOPE
  2
AcMeScope
  3
AcMeServices
 90
     1024
280
     0
281
     0
  0
CLASS
  1
ACMECOMMANDHISTORY
  2
AcMeCommandHistory
  3
AcMeServices
 90
     1024
280
     0
281
     0
  0
CLASS
  1
ACIMSYSVARMAN
  2
AcImSysVarManager
  3
AcMeServices
 90
     1024
280
     0
281
     0
  0
CLASS
  1
ACIMREALSYSVAR
  2
AcImRealSysVar
  3
AcMeServices
 90
     1024
280
     0
281
     0
  0
CLASS
  1
ACIMINTSYSVAR
  2
AcImIntSysVar
  3
AcMeServices
 90
     1024
280
     0
281
     0
  0
CLASS
  1
ACMEDRAWINGMAN
  2
AcMeDrawingMan
  3
AcMeServices
 90
     1024
280
     0
281
     0
  0
CLASS
  1
ACMEVIEW
  2
AcMeView
  3
AcMeServices
 90
     1024
280
     0
281
     0
  0
CLASS
  1
ACDBENTITYCACHE
  2
AcMeEntityCache
  3
AcMeServices
 90
     1024
280
     0
281
     0
  0
CLASS
  1
GSMANAGER
  2
AcMeGSManager
  3
AcMeServices
 90
    33792
280
     0
281
     0
  0
CLASS
  1
AMDTINTERNALREACTOR
  2
AmdtInternalReactor
  3
AcMeServices
 90
     1024
280
     0
281
     0
  0
CLASS
  1
ACMESTATEMGR
  2
AcMeStateMgr
  3
AcMeServices
 90
     1024
280
     0
281
     0
  0
CLASS
  1
ACGREFMASTER
  2
AcGrefMaster
  3
AcAttribServices
 90
     1024
280
     0
281
     0
  0
CLASS
  1
ACME_DATABASE
  2
AcMeDbDatabase
  3
AcMeServices
 90
     1024
280
     0
281
     0
  0
CLASS
  1
ACRFINSADJUSTERMGR
  2
AcRfInsAdjusterMgr
  3
AcMeServices
 90
     1024
280
     0
281
     0
  0
CLASS
  1
ACGREFACADMASTER
  2
AcGrefacadMaster
  3
AcGrefServices
 90
     1024
280
     0
281
     0
  0
CLASS
  1
AMIMASTER
  2
AmiMaster
  3
AmiServices
 90
     1024
280
     0
281
     0
  0
CLASS
  1
ACMDATADICTIONARY
  2
AcmDataDictionary
  3
"AcmSymBB|Product Description: AutoCAD Mechanical|Company: Autodesk, Inc."
 90
     1024
280
     0
281
     0
  0
CLASS
  1
ACMDATAENTRYBLOCK
  2
AcmDataEntryBlock
  3
AcmSymBB|Product Description: AutoCAD Mechanical|Company: Autodesk, Inc.
 90
     1024
280
     0
281
     0
  0
CLASS
  1
ACIMSTRSYSVAR
  2
AcImStrSysVar
  3
AcMeServices
 90
     1024
280
     0
281
     0
  0
CLASS
  1
ACMSTANDARDISO
  2
AcmStandardISO
  3
"Amdt_StdImp|Product Description: AutoCAD Mechanical|Company: Autodesk, Inc."
 90
     1024
280
     0
281
     0
  0
CLASS
  1
AMGOBJPROPCFG
  2
AmgObjPropCfg
  3
"AmgLay|Product Description: AutoCAD Mechanical|Company: Autodesk, Inc."
 90
     1025
280
     0
281
     0
  0
CLASS
  1
AMDTEDGESTANDARDISO
  2
AmdtEdgeStdISO
  3
"Amdt_StdImp|Product Description: AutoCAD Mechanical|Company: Autodesk, Inc."
 90
    33792
280
     0
281
     0
  0
CLASS
  1
ACMSURFSTANDARDISO
  2
AcmSurfTextStdISO
  3
"Amdt_StdImp|Product Description: AutoCAD Mechanical|Company: Autodesk, Inc."
 90
    33792
280
     0
281
     0
  0
CLASS
  1
ACMFCFSTANDARDISO
  2
AcmFCFStdISO
  3
"Amdt_StdImp|Product Description: AutoCAD Mechanical|Company: Autodesk, Inc."
 90
     1024
280
     0
281
     0
  0
CLASS
  1
ACMWELDSTANDARDISO
  2
AcmWeldingStdISO
  3
"Amdt_StdImp|Product Description: AutoCAD Mechanical|Company: Autodesk, Inc."
 90
     1024
280
     0
281
     0
  0
CLASS
  1
ACMIDSTANDARDISO
  2
AcmIdStdISO
  3
"Amdt_StdImp|Product Description: AutoCAD Mechanical|Company: Autodesk, Inc."
 90
     1024
280
     0
281
     0
  0
CLASS
  1
ACMDATUMSTANDARDISO
  2
AcmDatumStdISO
  3
"Amdt_StdImp|Product Description: AutoCAD Mechanical|Company: Autodesk, Inc."
 90
     1024
280
     0
281
     0
  0
CLASS
  1
ACMBOMSTANDARDISO
  2
AcmBOMStdISO
  3
"Amdt_StdImp|Product Description: AutoCAD Mechanical|Company: Autodesk, Inc."
 90
     1024
280
     0
281
     0
  0
CLASS
  1
ACMDETAILSTANDARDISO
  2
AmdtDetailSymStdISO
  3
"Amdt_StdImp|Product Description: AutoCAD Mechanical|Company: Autodesk, Inc."
 90
     1024
280
     0
281
     0
  0
CLASS
  1
ACMSECTIONSTANDARDISO
  2
AmdtSectionSymStdISO
  3
"Amdt_StdImp|Product Description: AutoCAD Mechanical|Company: Autodesk, Inc."
 90
    33792
280
     0
281
     0
  0
CLASS
  1
ACMCENTERLINESTANDARDISO
  2
AmdtCenterLineStdISO
  3
"Amdt_StdImp|Product Description: AutoCAD Mechanical|Company: Autodesk, Inc."
 90
     1024
280
     0
281
     0
  0
CLASS
  1
ACMNOTESTANDARDISO
  2
AmdtNoteStdISO
  3
"Amdt_StdImp|Product Description: AutoCAD Mechanical|Company: Autodesk, Inc."
 90
     1024
280
     0
281
     0
  0
CLASS
  1
ACAMGLAYSTD
  2
AcAmgLayStd
  3
"AmgLay|Product Description: AutoCAD Mechanical|Company: Autodesk, Inc."
 90
     1024
280
     0
281
     0
  0
CLASS
  1
ACAMGDIMSTD
  2
AcAmgDimStd
  3
"AmgDim|Product Description: AutoCAD Mechanical|Company: Autodesk, Inc."
 90
     1024
280
     0
281
     0
  0
CLASS
  1
ACAMGHOLECHARTSTDISO
  2
AcAmgHoleChartStdISO
  3
AmgDim|Product Description: AutoCAD Mechanical|Company: Autodesk, Inc.
 90
     1024
280
     0
281
     0
  0
CLASS
  1
ACAMGTITLESTD
  2
AcAmgTitleStd
  3
"AmgTitle|Product Description: AutoCAD Mechanical|Company: Autodesk, Inc."
 90
     4095
280
     0
281
     0
  0
CLASS
  1
LAYER_INDEX
  2
AcDbLayerIndex
  3
ObjectDBX Classes
 90
    32768
280
     0
281
     0
  0
CLASS
  1
IDBUFFER
  2
AcDbIdBuffer
  3
ObjectDBX Classes
 90
    32768
280
     0
281
     0
  0
CLASS
  1
DICTIONARYVAR
  2
AcDbDictionaryVar
  3
ObjectDBX Classes
 90
        0
280
     0
281
     0
  0
CLASS
  1
AM_DRAWING_MGR
  2
AcDmDwgMgr
  3
AcMechDwgViewMgmt
 90
     1024
280
     0
281
     0
  0
CLASS
  1
AM_DWG_DOCUMENT
  2
AcDmDwgDocument
  3
AcMechDwgViewMgmt
 90
     1024
280
     0
281
     0
  0
CLASS
  1
AM_DWG_SHEET
  2
AcDmSheet
  3
AcMechDwgViewMgmt
 90
     1024
280
     0
281
     0
  0
CLASS
  1
AM_VIEWDIMPARMAP
  2
AcDmViewDimParMap
  3
AcMechDwgViewMgmt
 90
     1024
280
     0
281
     0
  0
CLASS
  1
AM_DWGMGR_NAME
  2
AcDmDwgMgrName
  3
AcMechDwgViewMgmt
 90
     1024
280
     0
281
     0
  0
CLASS
  1
AMDTMENUSTATEMGR
  2
AmdtMenuStateMgr
  3
McadcomServices
 90
     1024
280
     0
281
     0
  0
CLASS
  1
AMDTMCOMMENUSTATE
  2
AmdtMcomMenuState
  3
McadcomServices
 90
     1024
280
     0
281
     0
  0
CLASS
  1
MAPIAMMOUDLE
  2
MApiAmModule
  3
MApiAmServices
 90
     1024
280
     0
281
     0
  0
CLASS
  1
AMDTADMENUSTATE
  2
AmdtAdMenuState
  3
DesignerServices
 90
     1024
280
     0
281
     0
  0
CLASS
  1
ADAPPL
  2
AcAdAppl
  3
DesignerServices
 90
     1024
280
     0
281
     0
  0
CLASS
  1
DEPMGR
  2
AcAdDepMgr
  3
DesignerServices
 90
     1024
280
     0
281
     0
  0
CLASS
  1
PARAMMGR
  2
AcAdParamMgr
  3
DesignerServices
 90
     1024
280
     0
281
     0
  0
CLASS
  1
PARAMSCOPE
  2
AcAdParamScope
  3
DesignerServices
 90
     1024
280
     0
281
     0
  0
CLASS
  1
NAMEDAPPL
  2
AcAdNamedAppl
  3
DesignerServices
 90
     1024
280
     0
281
     0
  0
CLASS
  1
AMDTDMMENUSTATE
  2
AmdtDmMenuState
  3
AcMechDwgViewMgmt
 90
     1024
280
     0
281
     0
  0
CLASS
  1
AMDTAMMENUSTATE
  2
AmdtAmMenuState
  3
DesignerAssemblies
 90
     1024
280
     0
281
     0
  0
CLASS
  1
ACAMPROJECT
  2
AcAmProject
  3
DesignerAssemblies
 90
     1024
280
     0
281
     0
  0
CLASS
  1
ACAMGRCOMPDEF
  2
AcAmGrCompDef
  3
DesignerAssemblies
 90
     1024
280
     0
281
     0
  0
CLASS
  1
ACCMCONTEXT
  2
AcCmContext
  3
DesignerAssemblies
 90
     1024
280
     0
281
     0
  0
CLASS
  1
ACAMCOMPDEF
  2
AcAmCompDef
  3
DesignerAssemblies
 90
     1024
280
     0
281
     0
  0
CLASS
  1
ACAMCOMPDEFMGR
  2
AcAmCompDefMgr
  3
DesignerAssemblies
 90
     1024
280
     0
281
     0
  0
CLASS
  1
AMCONTEXTMGR
  2
AcAmContextMgr
  3
DesignerAssemblies
 90
     1024
280
     0
281
     0
  0
CLASS
  1
ACAMCONTEXTMODELER
  2
AcAmContextModeler
  3
DesignerAssemblies
 90
     1024
280
     0
281
     0
  0
CLASS
  1
ACMTHREADLINESTANDARDISO
  2
AmdtThreadLineStdISO
  3
"Amdt_StdImp|Product Description: AutoCAD Mechanical|Company: Autodesk, Inc."
 90
     1024
280
     0
281
     0
  0
CLASS
  1
CATALOGSTATE
  2
AcAmCatalogState
  3
DesignerAssemblies
 90
     1024
280
     0
281
     0
  0
CLASS
  1
ACAMGRCOMPDEFSET
  2
AcAmGrCompDefSet
  3
DesignerAssemblies
 90
     1024
280
     0
281
     0
  0
CLASS
  1
AMDTBROWSERDBTAB
  2
AmdtBrowserDbTab
  3
McadcomServices
 90
     1024
280
     0
281
     0
  0
CLASS
  1
CBROWSERAPPOBJECT
  2
CBrowserAppObject
  3
McadcomServices
 90
     1024
280
     0
281
     0
  0
CLASS
  1
DM_PLACEHOLDER
  2
AcDmSelsetPlaceholder
  3
AcMechDwgViewMgmt
 90
     1024
280
     0
281
     0
  0
CLASS
  1
TABLESTYLE
  2
AcDbTableStyle
  3
ObjectDBX Classes
 90
     4095
280
     0
281
     0
  0
CLASS
  1
VAACXREFPANELOBJECT
  2
VaAcXREFPanelObject
  3
VAAC_ADDIN
 90
    32768
280
     0
281
     0
  0
CLASS
  1
VAACIMAGEINVENTORY
  2
VaAcImageInventory
  3
VAAC_ADDIN
 90
    32768
280
     0
281
     0
  0
CLASS
  1
AMDTNOTETEMPLATEDB
  2
AmdtNoteTemplateDB
  3
AcmSymBB|Product Description: AutoCAD Mechanical|Company: Autodesk, Inc.
 90
     1024
280
     0
281
     0
  0
CLASS
  1
MATERIAL
  2
AcDbMaterial
  3
ObjectDBX Classes
 90
     1153
280
     0
281
     0
  0
CLASS
  1
VISUALSTYLE
  2
AcDbVisualStyle
  3
ObjectDBX Classes
 90
     4095
280
     0
281
     0
  0
CLASS
  1
ACRFATTGENMGR
  2
AcRfAttGeneralMgr
  3
AcAttribServices
 90
     1024
280
     0
281
     0
  0
CLASS
  1
ACRFOBJATTMGR
  2
AcRfObjAttGroupMgr
  3
AcAttribServices
 90
     1024
280
     0
281
     0
  0
CLASS
  1
ACRFMCADAPIATTHOLDER
  2
AcRfMCADAPIAttHolder
  3
AcAttribServices
 90
     1024
280
     0
281
     0
  0
CLASS
  1
AMDTSYSATTR
  2
AmdtSystemAttribute
  3
AcAttribServices
 90
     1024
280
     0
281
     0
  0
CLASS
  1
ACMTAPERSTANDARDISO
  2
AcmTaperStdISO
  3
"Amdt_StdImp|Product Description: AutoCAD Mechanical|Company: Autodesk, Inc."
 90
     1024
280
     0
281
     0
  0
CLASS
  1
CAMSSTRUCTBTNSTATE
  2
StructBtnState
  3
DesignerAssemblies
 90
     1024
280
     0
281
     0
  0
CLASS
  1
SCALE
  2
AcDbScale
  3
ObjectDBX Classes
 90
     1153
280
     0
281
     0
  0
CLASS
  1
MLEADERSTYLE
  2
AcDbMLeaderStyle
  3
ACDB_MLEADERSTYLE_CLASS
 90
     4095
280
     0
281
     0
  0
CLASS
  1
ACMANOOTATIONVIEWSTANDARDISO
  2
AmdtAnViewStdISO
  3
"Amdt_StdImp|Product Description: AutoCAD Mechanical|Company: Autodesk, Inc."
 90
     1024
280
     0
281
     0
  0
CLASS
  1
ACMSURFSTANDARDISO2002
  2
AcmSurfTextStdISO2002
  3
"Amdt_StdImp|Product Description: AutoCAD Mechanical|Company: Autodesk, Inc."
 90
     1024
280
     0
281
     0
  0
CLASS
  1
CELLSTYLEMAP
  2
AcDbCellStyleMap
  3
ObjectDBX Classes
 90
     1152
280
     0
281
     0
  0
CLASS
  1
ACMSECTIONSTANDARDISO2001
  2
AmdtSectionSymStdISO2001
  3
"Amdt_StdImp|Product Description: AutoCAD Mechanical|Company: Autodesk, Inc."
 90
     1024
280
     0
281
     0
  0
CLASS
  1
EXACXREFPANELOBJECT
  2
ExAcXREFPanelObject
  3
EXAC_ESW
 90
    33793
280
     0
281
     0
  0
CLASS
  1
NPOCOLLECTION
  2
AcDbImpNonPersistentObjectsCollection
  3
ObjectDBX Classes
 90
     1153
280
     0
281
     0
  0
CLASS
  1
AMDTEDGESTANDARDISO13715
  2
AmdtEdgeStdISO13715
  3
"Amdt_StdImp|Product Description: AutoCAD Mechanical|Company: Autodesk, Inc."
 90
     1024
280
     0
281
     0
  0
CLASS
  1
ACAMGFILTERDAT
  2
AcAmgFilterDat
  3
"AcadM|Product Description: AutoCAD Mechanical|Company: Autodesk, Inc."
 90
     1024
280
     0
281
     0
  0
CLASS
  1
ACMBOM
  2
AcmBom
  3
"AcmSymBB|Product Description: AutoCAD Mechanical|Company: Autodesk, Inc."
 90
    33792
280
     0
281
     0
  0
CLASS
  1
AMDTFORMULAUPDATEDISPATCHER
  2
AmdtFormulaUpdateDispatcher
  3
AcMeServices
 90
    33792
280
     0
281
     0
  0
CLASS
  1
SOLID_BACKGROUND
  2
AcDbSolidBackground
  3
SCENEOE
 90
     4095
280
     0
281
     0
  0
ENDSEC
  0
SECTION
  2
TABLES
  0
TABLE
  2
VPORT
  5
8
330
0
100
AcDbSymbolTable
 70
     1
  0
VPORT
  5
269
330
8
100
AcDbSymbolTableRecord
100
AcDbViewportTableRecord
  2
*Active
 70
     0
 10
0.0
 20
0.0
 11
1.0
 21
1.0
 12
-12.02081528017131
 22
14.2886901662352
 13
0.0
 23
0.0
 14
2.5
 24
2.5
 15
10.0
 25
10.0
 16
1.0
 26
-1.0
 36
1.0
 17
0.0
 27
0.0
 37
0.0
 40
62.87157525042003
 41
1.768052516411378
 42
50.0
 43
0.0
 44
0.0
 50
0.0
 51
0.0
 71
     0
 72
   100
 73
     1
 74
     3
 75
     0
 76
     0
 77
     0
 78
     0
281
     0
 65
     1
110
0.0
120
0.0
130
0.0
111
1.0
121
0.0
131
0.0
112
0.0
122
1.0
132
0.0
 79
     0
146
0.0
  0
ENDTAB
  0
TABLE
  2
LTYPE
  5
5
330
0
100
AcDbSymbolTable
 70
    14
  0
LTYPE
  5
14
330
5
100
AcDbSymbolTableRecord
100
AcDbLinetypeTableRecord
  2
ByBlock
 70
     0
  3

 72
    65
 73
     0
 40
0.0
  0
LTYPE
  5
15
330
5
100
AcDbSymbolTableRecord
100
AcDbLinetypeTableRecord
  2
ByLayer
 70
     0
  3

 72
    65
 73
     0
 40
0.0
  0
LTYPE
  5
16
330
5
100
AcDbSymbolTableRecord
100
AcDbLinetypeTableRecord
  2
Continuous
 70
     0
  3
Solid line
 72
    65
 73
     0
 40
0.0
  0
LTYPE
  5
64
330
5
100
AcDbSymbolTableRecord
100
AcDbLinetypeTableRecord
  2
AM_ISO02W050
 70
     0
  3
__ __ __ __ __ __ __ __ __ __ __ __ __ __ __
 72
    65
 73
     2
 40
7.5
 49
6.0
 74
     0
 49
-1.5
 74
     0
  0
LTYPE
  5
65
330
5
100
AcDbSymbolTableRecord
100
AcDbLinetypeTableRecord
  2
AM_ISO08W050
 70
     0
  3
____ . ____ . ____ . ____ . ____ . ____ . ____
 72
    65
 73
     4
 40
18.0
 49
12.0
 74
     0
 49
-1.5
 74
     0
 49
3.0
 74
     0
 49
-1.5
 74
     0
  0
LTYPE
  5
66
330
5
100
AcDbSymbolTableRecord
100
AcDbLinetypeTableRecord
  2
AM_ISO09W050
 70
     0
  3
_____ . . _____ . . _____ . . ____ .. ____
 72
    65
 73
     6
 40
22.5
 49
12.0
 74
     0
 49
-1.5
 74
     0
 49
3.0
 74
     0
 49
-1.5
 74
     0
 49
3.0
 74
     0
 49
-1.5
 74
     0
  0
LTYPE
  5
67
330
5
100
AcDbSymbolTableRecord
100
AcDbLinetypeTableRecord
  2
Amconstr
 70
     0
  3
_______________________
 72
    65
 73
     2
 40
9999.0
 49
9999.0
 74
     0
 49
0.0
 74
     0
  0
LTYPE
  5
68
330
5
100
AcDbSymbolTableRecord
100
AcDbLinetypeTableRecord
  2
AM_ISO08W050x2
 70
     0
  3
__ . __ . __ . __ . __ . __
 72
    65
 73
     4
 40
9.0
 49
6.0
 74
     0
 49
-0.75
 74
     0
 49
1.5
 74
     0
 49
-0.75
 74
     0
  0
LTYPE
  5
69
330
5
100
AcDbSymbolTableRecord
100
AcDbLinetypeTableRecord
  2
AM_ISO02W050x2
 70
     0
  3
 _ _ _ _ _ _ _ _ _ _ _ _
 72
    65
 73
     2
 40
3.75
 49
3.0
 74
     0
 49
-0.75
 74
     0
  0
LTYPE
  5
6C
330
5
100
AcDbSymbolTableRecord
100
AcDbLinetypeTableRecord
  2
Amzigzag
 70
     0
  3
/\/-/\/-/\/-/\/-/\/-/\/
 72
    65
 73
     2
 40
11.0001
 49
0.0001
 74
     4
 75
   136
340
22C
 46
0.04
 50
0.0
 44
0.0
 45
0.0
 49
-11.0
 74
     0
  0
LTYPE
  5
7A
330
5
100
AcDbSymbolTableRecord
100
AcDbLinetypeTableRecord
  2
ACISOWELD
 70
     0
  3
_ _ _ _ _
 72
    65
 73
     2
 40
2.0
 49
2.0
 74
     0
 49
-1.0
 74
     0
  0
LTYPE
  5
7B
330
5
100
AcDbSymbolTableRecord
100
AcDbLinetypeTableRecord
  2
ACISOTGB
 70
     0
  3
__ . . __ . .
 72
    65
 73
     6
 40
9.0
 49
4.0
 74
     0
 49
-1.0
 74
     0
 49
1.0
 74
     0
 49
-1.0
 74
     0
 49
1.0
 74
     0
 49
-1.0
 74
     0
  0
LTYPE
  5
7C
330
5
100
AcDbSymbolTableRecord
100
AcDbLinetypeTableRecord
  2
ACISOTGL
 70
     0
  3
_ _ _ _ _
 72
    65
 73
     2
 40
3.0
 49
2.0
 74
     0
 49
-1.0
 74
     0
  0
LTYPE
  5
7E
330
5
100
AcDbSymbolTableRecord
100
AcDbLinetypeTableRecord
  2
CENTER
 70
     0
  3
__ . __
 72
    65
 73
     4
 40
7.0
 49
4.0
 74
     0
 49
-1.0
 74
     0
 49
1.0
 74
     0
 49
-1.0
 74
     0
  0
LTYPE
  5
D8
330
5
100
AcDbSymbolTableRecord
100
AcDbLinetypeTableRecord
  2
HIDDEN
 70
     0
  3
Hidden __ __ __ __ __ __ __ __ __ __ __ __ __ _
 72
    65
 73
     2
 40
9.524999999999998
 49
6.349999999999999
 74
     0
 49
-3.174999999999999
 74
     0
  0
LTYPE
  5
D9
330
5
100
AcDbSymbolTableRecord
100
AcDbLinetypeTableRecord
  2
PHANTOM2
 70
     0
  3
Phantom (.5x) ___ _ _ ___ _ _ ___ _ _ ___ _ _
 72
    65
 73
     6
 40
31.75
 49
15.875
 74
     0
 49
-3.174999999999999
 74
     0
 49
3.174999999999999
 74
     0
 49
-3.174999999999999
 74
     0
 49
3.174999999999999
 74
     0
 49
-3.174999999999999
 74
     0
  0
ENDTAB
  0
TABLE
  2
LAYER
  5
2
102
{ACAD_XDICTIONARY
360
3CC
102
}
330
0
100
AcDbSymbolTable
 70
     3
  0
LAYER
  5
10
102
{ACAD_XDICTIONARY
360
8D9
102
}
330
2
100
AcDbSymbolTableRecord
100
AcDbLayerTableRecord
  2
0
 70
     0
 62
     7
  6
Continuous
370
    -3
390
F
  0
LAYER
  5
412
102
{ACAD_XDICTIONARY
360
8DB
102
}
330
2
100
AcDbSymbolTableRecord
100
AcDbLayerTableRecord
  2
ASHADE
 70
     0
 62
     7
  6
Continuous
370
    -3
390
F
  0
LAYER
  5
42A
102
{ACAD_XDICTIONARY
360
8DD
102
}
330
2
100
AcDbSymbolTableRecord
100
AcDbLayerTableRecord
  2
TLESO1
 70
     0
 62
   252
  6
Continuous
370
    -3
390
F
  0
ENDTAB
  0
TABLE
  2
STYLE
  5
3
330
0
100
AcDbSymbolTable
 70
     9
  0
STYLE
  5
11
330
3
100
AcDbSymbolTableRecord
100
AcDbTextStyleTableRecord
  2
STANDARD
 70
     0
 40
0.0
 41
1.0
 50
0.0
 71
     0
 42
2.5
  3
ISOCP.SHX
  4

  0
STYLE
  5
79
330
3
100
AcDbSymbolTableRecord
100
AcDbTextStyleTableRecord
  2
ACISOGDT
 70
     0
 40
0.0
 41
1.0
 50
0.0
 71
     0
 42
2.5
  3
amgdt.shx
  4

  0
STYLE
  5
22C
330
3
100
AcDbSymbolTableRecord
100
AcDbTextStyleTableRecord
  2

 70
     1
 40
0.0
 41
1.0
 50
0.0
 71
     0
 42
2.5
  3
genltshp.shx
  4

  0
ENDTAB
  0
TABLE
  2
VIEW
  5
6
330
0
100
AcDbSymbolTable
 70
     1
  0
ENDTAB
  0
TABLE
  2
UCS
  5
7
330
0
100
AcDbSymbolTable
 70
     1
  0
ENDTAB
  0
TABLE
  2
APPID
  5
9
330
0
100
AcDbSymbolTable
 70
    23
  0
APPID
  5
12
330
9
100
AcDbSymbolTableRecord
100
AcDbRegAppTableRecord
  2
ACAD
 70
     0
  0
APPID
  5
46
330
9
100
AcDbSymbolTableRecord
100
AcDbRegAppTableRecord
  2
MCAD_NO_VIS
 70
     0
  0
APPID
  5
47
330
9
100
AcDbSymbolTableRecord
100
AcDbRegAppTableRecord
  2
ACAD_TEMP_GRAPHIC
 70
     0
  0
APPID
  5
58
330
9
100
AcDbSymbolTableRecord
100
AcDbRegAppTableRecord
  2
ACATTRIBSERVICES
 70
     0
  0
APPID
  5
EE
330
9
100
AcDbSymbolTableRecord
100
AcDbRegAppTableRecord
  2
AD_DRAW
 70
     0
  0
APPID
  5
10C
330
9
100
AcDbSymbolTableRecord
100
AcDbRegAppTableRecord
  2
DESIGNERASSEMBLIES
 70
     0
  0
APPID
  5
111
330
9
100
AcDbSymbolTableRecord
100
AcDbRegAppTableRecord
  2
ACADM_DIM_EDIT
 70
     0
  0
APPID
  5
112
330
9
100
AcDbSymbolTableRecord
100
AcDbRegAppTableRecord
  2
AMDT_DM_ADJ
 70
     0
  0
APPID
  5
1A3
330
9
100
AcDbSymbolTableRecord
100
AcDbRegAppTableRecord
  2
ACAD_DSTYLE_DIMARC_LENGTH_SYMBOL
 70
     0
  0
APPID
  5
1A4
330
9
100
AcDbSymbolTableRecord
100
AcDbRegAppTableRecord
  2
ACAD_DSTYLE_DIMJOGGED_JOGANGLE_SYMBOL
 70
     0
  0
APPID
  5
2C6
330
9
100
AcDbSymbolTableRecord
100
AcDbRegAppTableRecord
  2
ACAD_MLEADERVER
 70
     0
  0
APPID
  5
368
330
9
100
AcDbSymbolTableRecord
100
AcDbRegAppTableRecord
  2
ACAD_DSTYLE_DIMJAG
 70
     0
  0
APPID
  5
369
330
9
100
AcDbSymbolTableRecord
100
AcDbRegAppTableRecord
  2
ACAD_DSTYLE_DIMBREAK
 70
     0
  0
APPID
  5
385
330
9
100
AcDbSymbolTableRecord
100
AcDbRegAppTableRecord
  2
ACAD_PSEXT
 70
     0
  0
APPID
  5
3AB
330
9
100
AcDbSymbolTableRecord
100
AcDbRegAppTableRecord
  2
ACAD_EXEMPT_FROM_CAD_STANDARDS
 70
     0
  0
APPID
  5
410
330
9
100
AcDbSymbolTableRecord
100
AcDbRegAppTableRecord
  2
AVE_RENDER
 70
     0
  0
APPID
  5
411
330
9
100
AcDbSymbolTableRecord
100
AcDbRegAppTableRecord
  2
AVE_ENTITY_MATERIAL
 70
     0
  0
APPID
  5
41E
330
9
100
AcDbSymbolTableRecord
100
AcDbRegAppTableRecord
  2
AVE_FINISH
 70
     0
  0
APPID
  5
41F
330
9
100
AcDbSymbolTableRecord
100
AcDbRegAppTableRecord
  2
AVE_MATERIAL
 70
     0
  0
APPID
  5
420
330
9
100
AcDbSymbolTableRecord
100
AcDbRegAppTableRecord
  2
AVE_GLOBAL
 70
     0
  0
APPID
  5
8EE
330
9
100
AcDbSymbolTableRecord
100
AcDbRegAppTableRecord
  2
ACAD_DSTYLE_DIM_LINETYPE
 70
     0
  0
APPID
  5
8EF
330
9
100
AcDbSymbolTableRecord
100
AcDbRegAppTableRecord
  2
ACAD_DSTYLE_DIM_EXT1_LINETYPE
 70
     0
  0
APPID
  5
8F0
330
9
100
AcDbSymbolTableRecord
100
AcDbRegAppTableRecord
  2
ACAD_DSTYLE_DIM_EXT2_LINETYPE
 70
     0
  0
ENDTAB
  0
TABLE
  2
DIMSTYLE
  5
A
330
0
100
AcDbSymbolTable
 70
     8
100
AcDbDimStyleTable
 71
     1
340
81
  0
DIMSTYLE
105
81
102
{ACAD_REACTORS
330
62
102
}
330
A
100
AcDbSymbolTableRecord
100
AcDbDimStyleTableRecord
  2
AM_ISO
 70
     0
  4
"
 41
3.5
 42
1.0
 43
10.0
 44
1.0
 47
0.1
 48
0.1
 73
     0
 74
     0
 77
     1
 78
     8
 79
     2
140
3.5
141
0.0
143
0.0393701
146
0.71
147
1.5
172
     1
176
   256
177
   256
178
   140
271
     2
272
     3
274
     4
283
     0
284
     8
340
11
371
    -1
372
    -1
1001
ACAD_DSTYLE_DIMJOGGED_JOGANGLE_SYMBOL
1070
   384
1040
0.7853981633974483
1001
ACAD_DSTYLE_DIMJAG
1070
   388
1040
1.5
1001
ACAD_DSTYLE_DIMBREAK
1070
   391
1040
3.75
1001
ACAD_DSTYLE_DIMARC_LENGTH_SYMBOL
1070
   379
1070
     1
1001
ACAD_DSTYLE_DIM_LINETYPE
1070
   380
1005
14
1001
ACAD_DSTYLE_DIM_EXT1_LINETYPE
1070
   381
1005
14
1001
ACAD_DSTYLE_DIM_EXT2_LINETYPE
1070
   382
1005
14
  0
DIMSTYLE
105
82
330
A
100
AcDbSymbolTableRecord
100
AcDbDimStyleTableRecord
  2
AM_ISO$3
 70
     0
  4
"
 41
3.5
 42
1.0
 43
10.0
 44
1.0
 47
0.1
 48
0.1
 73
     0
 77
     1
 78
     8
 79
     2
140
3.5
141
0.0
143
0.0393701
146
0.71
147
1.5
176
   256
177
   256
178
   140
271
     2
272
     3
274
     4
283
     0
284
     8
288
     1
289
     0
340
11
371
    -1
372
    -1
1001
ACAD_DSTYLE_DIMJOGGED_JOGANGLE_SYMBOL
1070
   384
1040
0.7853981633974483
1001
ACAD_DSTYLE_DIMBREAK
1070
   391
1040
3.75
1001
ACAD_DSTYLE_DIMJAG
1070
   388
1040
1.5
1001
ACAD_DSTYLE_DIMARC_LENGTH_SYMBOL
1070
   379
1070
     1
1001
ACAD_DSTYLE_DIM_LINETYPE
1070
   380
1005
14
1001
ACAD_DSTYLE_DIM_EXT1_LINETYPE
1070
   381
1005
14
1001
ACAD_DSTYLE_DIM_EXT2_LINETYPE
1070
   382
1005
14
  0
DIMSTYLE
105
83
330
A
100
AcDbSymbolTableRecord
100
AcDbDimStyleTableRecord
  2
AM_ISO$4
 70
     0
  4
"
 41
3.5
 42
1.0
 43
10.0
 44
1.0
 47
0.1
 48
0.1
 73
     0
 74
     0
 77
     1
 78
     8
 79
     2
140
3.5
141
0.0
143
0.0393701
146
0.71
147
1.5
172
     1
176
   256
177
   256
178
   140
271
     2
272
     3
274
     4
283
     0
284
     8
340
11
371
    -1
372
    -1
1001
ACAD_DSTYLE_DIMJOGGED_JOGANGLE_SYMBOL
1070
   384
1040
0.7853981633974483
1001
ACAD_DSTYLE_DIMBREAK
1070
   391
1040
3.75
1001
ACAD_DSTYLE_DIMJAG
1070
   388
1040
1.5
1001
ACAD_DSTYLE_DIMARC_LENGTH_SYMBOL
1070
   379
1070
     1
1001
ACAD_DSTYLE_DIM_LINETYPE
1070
   380
1005
14
1001
ACAD_DSTYLE_DIM_EXT1_LINETYPE
1070
   381
1005
14
1001
ACAD_DSTYLE_DIM_EXT2_LINETYPE
1070
   382
1005
14
  0
DIMSTYLE
105
84
330
A
100
AcDbSymbolTableRecord
100
AcDbDimStyleTableRecord
  2
AM_ISO$6
 70
     0
  4
"
 41
3.5
 42
1.0
 43
10.0
 44
1.0
 47
0.1
 48
0.1
 73
     0
 74
     0
 78
     8
 79
     2
140
3.5
141
0.0
143
0.0393701
146
0.71
147
1.5
172
     1
176
   256
177
   256
178
   140
271
     2
272
     3
274
     4
283
     0
284
     8
340
11
371
    -1
372
    -1
1001
ACAD_DSTYLE_DIMJOGGED_JOGANGLE_SYMBOL
1070
   384
1040
0.7853981633974483
1001
ACAD_DSTYLE_DIMBREAK
1070
   391
1040
3.75
1001
ACAD_DSTYLE_DIMJAG
1070
   388
1040
1.5
1001
ACAD_DSTYLE_DIMARC_LENGTH_SYMBOL
1070
   379
1070
     1
1001
ACAD_DSTYLE_DIM_LINETYPE
1070
   380
1005
14
1001
ACAD_DSTYLE_DIM_EXT1_LINETYPE
1070
   381
1005
14
1001
ACAD_DSTYLE_DIM_EXT2_LINETYPE
1070
   382
1005
14
  0
DIMSTYLE
105
85
330
A
100
AcDbSymbolTableRecord
100
AcDbDimStyleTableRecord
  2
AM_ISO$7
 70
     0
  4
"
 41
3.5
 42
1.0
 43
10.0
 44
1.0
 47
0.1
 48
0.1
 73
     0
 74
     0
 77
     1
 78
     8
 79
     2
140
3.5
141
0.0
143
0.0393701
146
0.71
147
1.5
172
     1
176
   256
177
   256
178
   140
271
     2
272
     3
274
     4
283
     0
284
     8
340
11
371
    -1
372
    -1
1001
ACAD_DSTYLE_DIMJOGGED_JOGANGLE_SYMBOL
1070
   384
1040
0.7853981633974483
1001
ACAD_DSTYLE_DIMBREAK
1070
   391
1040
3.75
1001
ACAD_DSTYLE_DIMJAG
1070
   388
1040
1.5
1001
ACAD_DSTYLE_DIMARC_LENGTH_SYMBOL
1070
   379
1070
     1
1001
ACAD_DSTYLE_DIM_LINETYPE
1070
   380
1005
14
1001
ACAD_DSTYLE_DIM_EXT1_LINETYPE
1070
   381
1005
14
1001
ACAD_DSTYLE_DIM_EXT2_LINETYPE
1070
   382
1005
14
  0
DIMSTYLE
105
86
330
A
100
AcDbSymbolTableRecord
100
AcDbDimStyleTableRecord
  2
AM_ISO$SF
 70
     0
  4
"
 41
3.5
 42
1.0
 43
10.0
 44
1.0
 47
0.1
 48
0.1
 73
     0
 74
     0
 75
     1
 76
     1
 77
     1
 78
     8
 79
     2
140
3.5
141
0.0
143
0.0393701
146
0.71
147
1.5
172
     1
176
   256
177
   256
178
   140
271
     2
272
     3
274
     4
283
     0
284
     8
340
11
371
    -1
372
    -1
1001
ACAD_DSTYLE_DIMJOGGED_JOGANGLE_SYMBOL
1070
   384
1040
0.7853981633974483
1001
ACAD_DSTYLE_DIMBREAK
1070
   391
1040
3.75
1001
ACAD_DSTYLE_DIMJAG
1070
   388
1040
1.5
1001
ACAD_DSTYLE_DIMARC_LENGTH_SYMBOL
1070
   379
1070
     1
1001
ACAD_DSTYLE_DIM_LINETYPE
1070
   380
1005
14
1001
ACAD_DSTYLE_DIM_EXT1_LINETYPE
1070
   381
1005
14
1001
ACAD_DSTYLE_DIM_EXT2_LINETYPE
1070
   382
1005
14
  0
DIMSTYLE
105
8B
330
A
100
AcDbSymbolTableRecord
100
AcDbDimStyleTableRecord
  2
AM_ISO$SH
 70
     0
  4
"
 41
3.5
 42
1.0
 43
10.0
 44
1.0
 47
0.1
 48
0.1
 73
     0
 74
     0
 75
     1
 76
     1
 77
     1
 78
     8
 79
     2
140
3.5
141
0.0
143
0.0393701
144
2.0
146
0.71
147
1.5
172
     1
173
     1
176
   256
177
   256
178
   140
271
     2
272
     3
274
     4
283
     0
284
     8
340
11
343
87
371
    -1
372
    -1
1001
ACAD_DSTYLE_DIMJOGGED_JOGANGLE_SYMBOL
1070
   384
1040
0.7853981633974483
1001
ACAD_DSTYLE_DIMBREAK
1070
   391
1040
3.75
1001
ACAD_DSTYLE_DIMJAG
1070
   388
1040
1.5
1001
ACAD_DSTYLE_DIMARC_LENGTH_SYMBOL
1070
   379
1070
     1
1001
ACAD_DSTYLE_DIM_LINETYPE
1070
   380
1005
14
1001
ACAD_DSTYLE_DIM_EXT1_LINETYPE
1070
   381
1005
14
1001
ACAD_DSTYLE_DIM_EXT2_LINETYPE
1070
   382
1005
14
  0
ENDTAB
  0
TABLE
  2
BLOCK_RECORD
  5
1
330
0
100
AcDbSymbolTable
 70
     6
  0
BLOCK_RECORD
  5
1F
102
{ACAD_XDICTIONARY
360
8F
102
}
330
1
100
AcDbSymbolTableRecord
100
AcDbBlockTableRecord
  2
*Model_Space
340
22
  0
BLOCK_RECORD
  5
1B
330
1
100
AcDbSymbolTableRecord
100
AcDbBlockTableRecord
  2
*Paper_Space
340
1E
  0
BLOCK_RECORD
  5
23
330
1
100
AcDbSymbolTableRecord
100
AcDbBlockTableRecord
  2
*Paper_Space0
340
26
  0
BLOCK_RECORD
  5
87
330
1
100
AcDbSymbolTableRecord
100
AcDbBlockTableRecord
  2
GENAXEH
340
0
  0
BLOCK_RECORD
  5
413
330
1
100
AcDbSymbolTableRecord
100
AcDbBlockTableRecord
  2
AVE_RENDER
340
0
102
{BLKREFS
331
416
331
417
331
418
331
419
331
41A
331
41B
331
41C
331
41D
102
}
  0
BLOCK_RECORD
  5
421
330
1
100
AcDbSymbolTableRecord
100
AcDbBlockTableRecord
  2
AVE_GLOBAL
340
0
102
{BLKREFS
331
424
102
}
  0
BLOCK_RECORD
  5
897
330
1
100
AcDbSymbolTableRecord
100
AcDbBlockTableRecord
  2
RM_SDB
340
0
102
{BLKREFS
331
8B1
102
}
  0
ENDTAB
  0
ENDSEC
  0
SECTION
  2
BLOCKS
  0
BLOCK
  5
20
330
1F
100
AcDbEntity
  8
0
100
AcDbBlockBegin
  2
*Model_Space
 70
     0
 10
0.0
 20
0.0
 30
0.0
  3
*Model_Space
  1

  0
ENDBLK
  5
21
330
1F
100
AcDbEntity
  8
0
100
AcDbBlockEnd
  0
BLOCK
  5
1C
330
1B
100
AcDbEntity
 67
     1
  8
0
100
AcDbBlockBegin
  2
*Paper_Space
 70
     0
 10
0.0
 20
0.0
 30
0.0
  3
*Paper_Space
  1

  0
ENDBLK
  5
1D
330
1B
100
AcDbEntity
 67
     1
  8
0
100
AcDbBlockEnd
  0
BLOCK
  5
24
330
23
100
AcDbEntity
 67
     1
  8
0
100
AcDbBlockBegin
  2
*Paper_Space0
 70
     0
 10
0.0
 20
0.0
 30
0.0
  3
*Paper_Space0
  1

  0
ENDBLK
  5
25
330
23
100
AcDbEntity
 67
     1
  8
0
100
AcDbBlockEnd
  0
BLOCK
  5
89
330
87
100
AcDbEntity
  8
0
100
AcDbBlockBegin
  2
GENAXEH
 70
     0
 10
0.0
 20
0.0
 30
0.0
  3
GENAXEH
  1

  0
LINE
  5
88
330
87
100
AcDbEntity
  8
0
100
AcDbLine
 10
-1.0
 20
0.0
 30
0.0
 11
1.0
 21
0.0
 31
0.0
  0
ENDBLK
  5
8A
330
87
100
AcDbEntity
  8
0
100
AcDbBlockEnd
  0
BLOCK
  5
414
330
413
100
AcDbEntity
  8
ASHADE
100
AcDbBlockBegin
  2
AVE_RENDER
 70
     0
 10
0.0
 20
0.0
 30
0.0
  3
AVE_RENDER
  1
AVE_RENDER
  0
ENDBLK
  5
415
330
413
100
AcDbEntity
  8
0
100
AcDbBlockEnd
  0
BLOCK
  5
422
330
421
100
AcDbEntity
  8
ASHADE
100
AcDbBlockBegin
  2
AVE_GLOBAL
 70
     0
 10
0.0
 20
0.0
 30
0.0
  3
AVE_GLOBAL
  1
AVE_GLOBAL
  0
ENDBLK
  5
423
330
421
100
AcDbEntity
  8
0
100
AcDbBlockEnd
  0
BLOCK
  5
898
330
897
100
AcDbEntity
  8
ASHADE
100
AcDbBlockBegin
  2
RM_SDB
 70
     2
 10
0.0
 20
0.0
 30
0.0
  3
RM_SDB
  1
RM_SDB
  0
ATTDEF
  5
899
330
897
100
AcDbEntity
  8
0
100
AcDbText
 10
0.0
 20
0.0
 30
0.0
 40
0.2
  1

100
AcDbAttributeDefinition
  3

  2
NAME
 70
     1
  0
ATTDEF
  5
89A
330
897
100
AcDbEntity
  8
0
100
AcDbText
 10
0.0
 20
0.0
 30
0.0
 40
0.2
  1

100
AcDbAttributeDefinition
  3

  2
ACADCOLOR
 70
     1
  0
ATTDEF
  5
89B
330
897
100
AcDbEntity
  8
0
100
AcDbText
 10
0.0
 20
0.0
 30
0.0
 40
0.2
  1

100
AcDbAttributeDefinition
  3

  2
COLOR
 70
     1
  0
ATTDEF
  5
89C
330
897
100
AcDbEntity
  8
0
100
AcDbText
 10
0.0
 20
0.0
 30
0.0
 40
0.2
  1

100
AcDbAttributeDefinition
  3

  2
OPACITY
 70
     1
  0
ATTDEF
  5
89D
330
897
100
AcDbEntity
  8
0
100
AcDbText
 10
0.0
 20
0.0
 30
0.0
 40
0.2
  1

100
AcDbAttributeDefinition
  3

  2
SURFACE
 70
     1
  0
ATTDEF
  5
89E
330
897
100
AcDbEntity
  8
0
100
AcDbText
 10
0.0
 20
0.0
 30
0.0
 40
0.2
  1

100
AcDbAttributeDefinition
  3

  2
SURF1
 70
     1
  0
ATTDEF
  5
89F
330
897
100
AcDbEntity
  8
0
100
AcDbText
 10
0.0
 20
0.0
 30
0.0
 40
0.2
  1

100
AcDbAttributeDefinition
  3

  2
SURF2
 70
     1
  0
ATTDEF
  5
8A0
330
897
100
AcDbEntity
  8
0
100
AcDbText
 10
0.0
 20
0.0
 30
0.0
 40
0.2
  1

100
AcDbAttributeDefinition
  3

  2
SURF3
 70
     1
  0
ATTDEF
  5
8A1
330
897
100
AcDbEntity
  8
0
100
AcDbText
 10
0.0
 20
0.0
 30
0.0
 40
0.2
  1

100
AcDbAttributeDefinition
  3

  2
SURF4
 70
     1
  0
ATTDEF
  5
8A2
330
897
100
AcDbEntity
  8
0
100
AcDbText
 10
0.0
 20
0.0
 30
0.0
 40
0.2
  1

100
AcDbAttributeDefinition
  3

  2
SHADINGRATE
 70
     1
  0
ATTDEF
  5
8A3
330
897
100
AcDbEntity
  8
0
100
AcDbText
 10
0.0
 20
0.0
 30
0.0
 40
0.2
  1

100
AcDbAttributeDefinition
  3

  2
DISPLACEMENT
 70
     1
  0
ATTDEF
  5
8A4
330
897
100
AcDbEntity
  8
0
100
AcDbText
 10
0.0
 20
0.0
 30
0.0
 40
0.2
  1

100
AcDbAttributeDefinition
  3

  2
DISP1
 70
     1
  0
ATTDEF
  5
8A5
330
897
100
AcDbEntity
  8
0
100
AcDbText
 10
0.0
 20
0.0
 30
0.0
 40
0.2
  1

100
AcDbAttributeDefinition
  3

  2
DISP2
 70
     1
  0
ATTDEF
  5
8A6
330
897
100
AcDbEntity
  8
0
100
AcDbText
 10
0.0
 20
0.0
 30
0.0
 40
0.2
  1

100
AcDbAttributeDefinition
  3

  2
DISP3
 70
     1
  0
ATTDEF
  5
8A7
330
897
100
AcDbEntity
  8
0
100
AcDbText
 10
0.0
 20
0.0
 30
0.0
 40
0.2
  1

100
AcDbAttributeDefinition
  3

  2
DISP4
 70
     1
  0
ATTDEF
  5
8A8
330
897
100
AcDbEntity
  8
0
100
AcDbText
 10
0.0
 20
0.0
 30
0.0
 40
0.2
  1

100
AcDbAttributeDefinition
  3

  2
DBOUND
 70
     1
  0
ATTDEF
  5
8A9
330
897
100
AcDbEntity
  8
0
100
AcDbText
 10
0.0
 20
0.0
 30
0.0
 40
0.2
  1

100
AcDbAttributeDefinition
  3

  2
SMOOTH
 70
     1
  0
ATTDEF
  5
8AA
330
897
100
AcDbEntity
  8
0
100
AcDbText
 10
0.0
 20
0.0
 30
0.0
 40
0.2
  1

100
AcDbAttributeDefinition
  3

  2
ATMOSHPERE
 70
     1
  0
ATTDEF
  5
8AB
330
897
100
AcDbEntity
  8
0
100
AcDbText
 10
0.0
 20
0.0
 30
0.0
 40
0.2
  1

100
AcDbAttributeDefinition
  3

  2
ATMO1
 70
     1
  0
ATTDEF
  5
8AC
330
897
100
AcDbEntity
  8
0
100
AcDbText
 10
0.0
 20
0.0
 30
0.0
 40
0.2
  1

100
AcDbAttributeDefinition
  3

  2
ATMO2
 70
     1
  0
ATTDEF
  5
8AD
330
897
100
AcDbEntity
  8
0
100
AcDbText
 10
0.0
 20
0.0
 30
0.0
 40
0.2
  1

100
AcDbAttributeDefinition
  3

  2
ATMO3
 70
     1
  0
ATTDEF
  5
8AE
330
897
100
AcDbEntity
  8
0
100
AcDbText
 10
0.0
 20
0.0
 30
0.0
 40
0.2
  1

100
AcDbAttributeDefinition
  3

  2
ATMO4
 70
     1
  0
ATTDEF
  5
8AF
330
897
100
AcDbEntity
  8
0
100
AcDbText
 10
0.0
 20
0.0
 30
0.0
 40
0.2
  1

100
AcDbAttributeDefinition
  3

  2
TCCORD
 70
     1
  0
ENDBLK
  5
8B0
330
897
100
AcDbEntity
  8
0
100
AcDbBlockEnd
  0
ENDSEC
  0
SECTION
  2
ENTITIES
  0
INSERT
  5
416
330
1F
100
AcDbEntity
  8
ASHADE
 62
     1
100
AcDbBlockReference
  2
AVE_RENDER
 10
0.0
 20
0.0
 30
0.0
1001
AVE_RENDER
1002
{
1070
     7
1000
Pref
1070
    50
1070
    20
1070
     1
1070
     0
1000

1070
    10
1070
     1
1070
    10
1040
1.0
1070
     1
1040
0.6999999880790711
1040
1.0
1040
0.2000000029802322
1040
2.0
1010
-1.0
1020
-1.0
1030
-1.0
1040
0.3000000119209289
1070
    49
1070
     0
1070
     0
1010
1.0
1020
1.0
1030
1.0
1040
45.0
1070
     1
1070
     0
1000
WCS
1040
0.0
1070
     0
1040
10.0
1002
}
  0
INSERT
  5
417
330
1F
100
AcDbEntity
  8
ASHADE
 62
     3
100
AcDbBlockReference
  2
AVE_RENDER
 10
0.0
 20
0.0
 30
0.0
1001
AVE_RENDER
1002
{
1070
     0
1000
Full Opt
1070
     0
1070
     1
1070
     1
1070
     1
1070
     0
1070
     0
1070
     0
1070
     1
1070
     1
1040
0.0001
1040
0.0001
1002
}
  0
INSERT
  5
418
330
1F
100
AcDbEntity
  8
ASHADE
 62
     4
100
AcDbBlockReference
  2
AVE_RENDER
 10
0.0
 20
0.0
 30
0.0
1001
AVE_RENDER
1002
{
1070
     0
1000
Quick Opt
1070
     0
1070
     1
1070
     1
1070
     1
1070
     0
1070
     0
1070
     1
1002
}
  0
INSERT
  5
419
330
1F
100
AcDbEntity
  8
ASHADE
 62
     5
100
AcDbBlockReference
  2
AVE_RENDER
 10
0.0
 20
0.0
 30
0.0
1001
AVE_RENDER
1002
{
1070
     1
1000
Scanl Opt
1070
     2
1070
     0
1070
     2
1040
2.0
1040
4.0
1070
     0
1070
     1
1070
     0
1040
0.03
1002
}
  0
INSERT
  5
41A
330
1F
100
AcDbEntity
  8
ASHADE
 62
     6
100
AcDbBlockReference
  2
AVE_RENDER
 10
0.0
 20
0.0
 30
0.0
1001
AVE_RENDER
1002
{
1070
     2
1000
Raytr Opt
1070
     2
1070
     0
1070
     2
1040
2.0
1040
4.0
1070
     0
1070
     1
1070
     1
1040
0.03
1070
     3
1040
0.03
1002
}
  0
INSERT
  5
41B
330
1F
100
AcDbEntity
  8
ASHADE
 62
     7
100
AcDbBlockReference
  2
AVE_RENDER
 10
0.0
 20
0.0
 30
0.0
1001
AVE_RENDER
1002
{
1070
     0
1000
RFile Opt
1070
     1
1070
   640
1070
   480
1070
 10000
1070
     1
1070
     8
1070
     8
1070
     0
1070
     0
1070
     0
1070
     0
1070
     0
1070
     0
1070
     0
1002
}
  0
INSERT
  5
41C
330
1F
100
AcDbEntity
  8
ASHADE
 62
     8
100
AcDbBlockReference
  2
AVE_RENDER
 10
0.0
 20
0.0
 30
0.0
1001
AVE_RENDER
1002
{
1070
     0
1000
Fog Opt
1070
     0
1070
     0
1040
0.0
1040
1.0
1040
0.0
1040
1.0
1010
0.5
1020
0.5
1030
0.5
1002
}
  0
INSERT
  5
41D
330
1F
100
AcDbEntity
  8
ASHADE
 62
     9
100
AcDbBlockReference
  2
AVE_RENDER
 10
0.0
 20
0.0
 30
0.0
1001
AVE_RENDER
1002
{
1070
     0
1000
BG Opt
1070
     0
1070
     1
1010
0.0
1020
0.0
1030
0.0
1010
0.0
1020
0.0
1030
1.0
1010
0.0
1020
1.0
1030
0.0
1010
1.0
1020
0.0
1030
0.0
1040
0.5
1040
0.5
1040
0.0
1000

1070
     1
1000

1070
     1
1070
     1
1040
1.0
1040
1.0
1040
0.0
1040
0.0
1070
     0
1002
}
  0
INSERT
  5
424
330
1F
100
AcDbEntity
  8
ASHADE
 62
     1
100
AcDbBlockReference
  2
AVE_GLOBAL
 10
0.0
 20
0.0
 30
0.0
1001
AVE_MATERIAL
1002
{
1000
*GLOBAL*
1000
2
1000
Globální povrch.
1002
{
1002
}
1002
{
1070
    63
1002
{
1002
{
1010
-1.0
1020
-1.0
1030
-1.0
1002
}
1040
0.6999999880790711
1000

1040
0.0
1002
{
1002
}
1040
0.0
1002
{
1002
}
1040
0.0
1002
}
1002
{
1002
{
1010
-1.0
1020
-1.0
1030
-1.0
1002
}
1040
1.0
1000

1040
0.0
1002
{
1002
}
1040
0.0
1002
{
1002
}
1040
0.0
1002
}
1002
{
1002
{
1010
-1.0
1020
-1.0
1030
-1.0
1002
}
1040
0.2000000029802322
1000

1040
0.0
1002
{
1002
}
1040
0.0
1002
{
1002
}
1040
0.0
1002
}
1002
{
1070
     0
1002
{
1070
     1
1002
{
1040
1.0
1040
1.0
1000

1040
0.0
1002
{
1002
}
1040
0.0
1002
{
1002
}
1040
0.0
1002
}
1002
}
1040
1.0
1040
0.0
1040
0.0
1002
}
1002
{
1040
1.0
1040
1.0
1000

1040
0.0
1002
{
1002
}
1040
0.0
1002
{
1002
}
1040
0.0
1002
}
1002
{
1040
0.5
1040
1.0
1000

1040
0.0
1002
{
1002
}
1040
0.0
1002
{
1002
}
1040
0.0
1002
}
1002
{
1070
     0
1040
0.0
1002
{
1002
}
1040
1.0
1002
{
1002
}
1040
0.0
1002
}
1002
{
1040
0.0
1002
{
1002
{
1010
0.0
1020
0.0
1030
0.0
1002
}
1040
1.0
1000

1040
0.0
1002
{
1002
}
1040
0.0
1002
{
1002
}
1040
0.0
1002
}
1002
}
1002
{
1002
{
1070
     1
1002
{
1040
0.0
1040
1.0
1000

1040
0.0
1002
{
1002
}
1040
0.0
1002
{
1002
}
1040
0.0
1002
}
1002
}
1040
0.0
1002
{
1002
}
1010
1.0
1020
0.0
1030
0.0
1010
0.0
1020
1.0
1030
0.0
1010
0.0
1020
0.0
1030
1.0
1070
     0
1002
}
1002
{
1002
{
1040
1.0
1040
1.0
1002
{
1070
     1
1002
{
1040
1.0
1040
1.0
1000

1040
0.0
1002
{
1002
}
1040
0.0
1002
{
1002
}
1040
0.0
1002
}
1002
}
1002
}
1070
     0
1040
0.0
1002
{
1002
}
1002
}
1002
{
1002
}
1002
}
1002
{
1071
        3
1070
     3
1070
     0
1002
{
1070
     2
1070
     0
1070
     0
1040
0.0
1002
}
1070
     0
1070
     2
1002
{
1002
}
1002
}
1002
{
1040
8030.0
1040
190.3000030517578
1040
0.3050000071525574
1040
228.0
1040
545.0
1040
14.0
1040
17.39999961853027
1040
0.4560000002384186
1002
}
1000

1002
}
  0
POLYLINE
  5
42B
330
1F
100
AcDbEntity
  8
TLESO1
100
AcDbPolyFaceMesh
 66
     1
 10
0.0
 20
0.0
 30
0.0
 70
    64
 71
   604
 72
   526
1001
AVE_ENTITY_MATERIAL
1002
{
1000

1002
{
1071
        0
1070
     0
1070
     0
1002
{
1070
     0
1070
     0
1070
     0
1040
0.0
1002
}
1070
     0
1070
     0
1002
{
1002
}
1002
}
1002
{
1002
}
1002
{
1002
}
1011
-7.5
1021
-29.0
1031
0.0000000000000009
1011
-6.5
1021
-29.0
1031
0.0000000000000009
1011
-7.5
1021
-28.0
1031
0.0000000000000009
1011
-7.5
1021
-29.0
1031
1.0
1002
}
  0
VERTEX
  5
42C
330
42B
100
AcDbEntity
  8
TLESO1
100
AcDbVertex
100
AcDbPolyFaceMeshVertex
 10
7.5
 20
-28.89999999850989
 30
0.2000000029802332
 70
   192
  0
VERTEX
  5
42D
330
42B
100
AcDbEntity
  8
TLESO1
100
AcDbVertex
100
AcDbPolyFaceMeshVertex
 10
7.441421508789062
 20
-28.89999999850989
 30
0.0585786439478407
 70
   192
  0
VERTEX
  5
42E
330
42B
100
AcDbEntity
  8
TLESO1
100
AcDbVertex
100
AcDbPolyFaceMeshVertex
 10
7.5
 20
-14.44999980926513
 30
0.2000000029802332
 70
   192
  0
VERTEX
  5
42F
330
42B
100
AcDbEntity
  8
TLESO1
100
AcDbVertex
100
AcDbPolyFaceMeshVertex
 10
7.300000190734863
 20
-28.89999999850989
 30
0.0000000000000002
 70
   192
  0
VERTEX
  5
430
330
42B
100
AcDbEntity
  8
TLESO1
100
AcDbVertex
100
AcDbPolyFaceMeshVertex
 10
7.300000190734863
 20
-14.44999980926513
 30
-0.0000000000000003
 70
   192
  0
VERTEX
  5
431
330
42B
100
AcDbEntity
  8
TLESO1
100
AcDbVertex
100
AcDbPolyFaceMeshVertex
 10
7.300000190734863
 20
0.0
 30
-0.0000000000000009
 70
   192
  0
VERTEX
  5
432
330
42B
100
AcDbEntity
  8
TLESO1
100
AcDbVertex
100
AcDbPolyFaceMeshVertex
 10
7.441421508789062
 20
0.0
 30
0.0585786439478407
 70
   192
  0
VERTEX
  5
433
330
42B
100
AcDbEntity
  8
TLESO1
100
AcDbVertex
100
AcDbPolyFaceMeshVertex
 10
7.5
 20
0.0
 30
0.2000000029802332
 70
   192
  0
VERTEX
  5
434
330
42B
100
AcDbEntity
  8
TLESO1
100
AcDbVertex
100
AcDbPolyFaceMeshVertex
 10
7.300000190734863
 20
0.0
 30
-0.0000000000000009
 70
   192
  0
VERTEX
  5
435
330
42B
100
AcDbEntity
  8
TLESO1
100
AcDbVertex
100
AcDbPolyFaceMeshVertex
 10
7.300000190734863
 20
-14.44999980926513
 30
-0.0000000000000003
 70
   192
  0
VERTEX
  5
436
330
42B
100
AcDbEntity
  8
TLESO1
100
AcDbVertex
100
AcDbPolyFaceMeshVertex
 10
3.649999618530273
 20
0.0
 30
-0.0000000000000005
 70
   192
  0
VERTEX
  5
437
330
42B
100
AcDbEntity
  8
TLESO1
100
AcDbVertex
100
AcDbPolyFaceMeshVertex
 10
7.300000190734863
 20
-28.89999999850989
 30
0.0000000000000002
 70
   192
  0
VERTEX
  5
438
330
42B
100
AcDbEntity
  8
TLESO1
100
AcDbVertex
100
AcDbPolyFaceMeshVertex
 10
3.649999618530273
 20
-28.89999999850989
 30
0.0000000000000004
 70
   192
  0
VERTEX
  5
439
330
42B
100
AcDbEntity
  8
TLESO1
100
AcDbVertex
100
AcDbPolyFaceMeshVertex
 10
0.0
 20
-28.89999999850989
 30
0.0000000000000006
 70
   192
  0
VERTEX
  5
43A
330
42B
100
AcDbEntity
  8
TLESO1
100
AcDbVertex
100
AcDbPolyFaceMeshVertex
 10
-3.650000095367431
 20
-28.89999999850989
 30
0.0000000000000007
 70
   192
  0
VERTEX
  5
43B
330
42B
100
AcDbEntity
  8
TLESO1
100
AcDbVertex
100
AcDbPolyFaceMeshVertex
 10
-7.299999997019767
 20
-14.44999980926513
 30
0.0000000000000009
 70
   192
  0
VERTEX
  5
43C
330
42B
100
AcDbEntity
  8
TLESO1
100
AcDbVertex
100
AcDbPolyFaceMeshVertex
 10
-7.299999997019767
 20
-28.89999999850989
 30
0.0000000000000009
 70
   192
  0
VERTEX
  5
43D
330
42B
100
AcDbEntity
  8
TLESO1
100
AcDbVertex
100
AcDbPolyFaceMeshVertex
 10
-7.299999997019767
 20
0.0
 30
0.0000000000000009
 70
   192
  0
VERTEX
  5
43E
330
42B
100
AcDbEntity
  8
TLESO1
100
AcDbVertex
100
AcDbPolyFaceMeshVertex
 10
-3.650000095367431
 20
0.0
 30
0.0000000000000005
 70
   192
  0
VERTEX
  5
43F
330
42B
100
AcDbEntity
  8
TLESO1
100
AcDbVertex
100
AcDbPolyFaceMeshVertex
 10
0.0
 20
0.0
 30
0.0
 70
   192
  0
VERTEX
  5
440
330
42B
100
AcDbEntity
  8
TLESO1
100
AcDbVertex
100
AcDbPolyFaceMeshVertex
 10
7.5
 20
-28.89999999850989
 30
0.2000000029802332
 70
   192
  0
VERTEX
  5
441
330
42B
100
AcDbEntity
  8
TLESO1
100
AcDbVertex
100
AcDbPolyFaceMeshVertex
 10
7.300000190734863
 20
-28.89999999850989
 30
0.0000000000000002
 70
   192
  0
VERTEX
  5
442
330
42B
100
AcDbEntity
  8
TLESO1
100
AcDbVertex
100
AcDbPolyFaceMeshVertex
 10
7.441421508789062
 20
-28.89999999850989
 30
0.0585786439478407
 70
   192
  0
VERTEX
  5
443
330
42B
100
AcDbEntity
  8
TLESO1
100
AcDbVertex
100
AcDbPolyFaceMeshVertex
 10
7.0
 20
-28.89999999850989
 30
0.5000000000000009
 70
   192
  0
VERTEX
  5
444
330
42B
100
AcDbEntity
  8
TLESO1
100
AcDbVertex
100
AcDbPolyFaceMeshVertex
 10
3.649999618530273
 20
-28.89999999850989
 30
0.0000000000000004
 70
   192
  0
VERTEX
  5
445
330
42B
100
AcDbEntity
  8
TLESO1
100
AcDbVertex
100
AcDbPolyFaceMeshVertex
 10
3.5
 20
-28.89999999850989
 30
0.5000000000000009
 70
   192
  0
VERTEX
  5
446
330
42B
100
AcDbEntity
  8
TLESO1
100
AcDbVertex
100
AcDbPolyFaceMeshVertex
 10
0.0
 20
-28.89999999850989
 30
0.0000000000000006
 70
   192
  0
VERTEX
  5
447
330
42B
100
AcDbEntity
  8
TLESO1
100
AcDbVertex
100
AcDbPolyFaceMeshVertex
 10
-3.5
 20
-28.89999999850989
 30
0.5000000000000009
 70
   192
  0
VERTEX
  5
448
330
42B
100
AcDbEntity
  8
TLESO1
100
AcDbVertex
100
AcDbPolyFaceMeshVertex
 10
-3.650000095367431
 20
-28.89999999850989
 30
0.0000000000000007
 70
   192
  0
VERTEX
  5
449
330
42B
100
AcDbEntity
  8
TLESO1
100
AcDbVertex
100
AcDbPolyFaceMeshVertex
 10
-7.0
 20
-28.89999999850989
 30
0.5000000000000009
 70
   192
  0
VERTEX
  5
44A
330
42B
100
AcDbEntity
  8
TLESO1
100
AcDbVertex
100
AcDbPolyFaceMeshVertex
 10
-7.299999997019767
 20
-28.89999999850989
 30
0.0000000000000009
 70
   192
  0
VERTEX
  5
44B
330
42B
100
AcDbEntity
  8
TLESO1
100
AcDbVertex
100
AcDbPolyFaceMeshVertex
 10
7.5
 20
-28.89999999850989
 30
37.79999923706055
 70
   192
  0
VERTEX
  5
44C
330
42B
100
AcDbEntity
  8
TLESO1
100
AcDbVertex
100
AcDbPolyFaceMeshVertex
 10
7.0
 20
-28.89999999850989
 30
37.5
 70
   192
  0
VERTEX
  5
44D
330
42B
100
AcDbEntity
  8
TLESO1
100
AcDbVertex
100
AcDbPolyFaceMeshVertex
 10
7.5
 20
-28.89999999850989
 30
34.04000091552735
 70
   192
  0
VERTEX
  5
44E
330
42B
100
AcDbEntity
  8
TLESO1
100
AcDbVertex
100
AcDbPolyFaceMeshVertex
 10
7.0
 20
-28.89999999850989
 30
33.79999923706055
 70
   192
  0
VERTEX
  5
44F
330
42B
100
AcDbEntity
  8
TLESO1
100
AcDbVertex
100
AcDbPolyFaceMeshVertex
 10
7.5
 20
-28.89999999850989
 30
30.28000068664551
 70
   192
  0
VERTEX
  5
450
330
42B
100
AcDbEntity
  8
TLESO1
100
AcDbVertex
100
AcDbPolyFaceMeshVertex
 10
7.0
 20
-28.89999999850989
 30
30.10000038146973
 70
   192
  0
VERTEX
  5
451
330
42B
100
AcDbEntity
  8
TLESO1
100
AcDbVertex
100
AcDbPolyFaceMeshVertex
 10
7.5
 20
-28.89999999850989
 30
26.52000045776367
 70
   192
  0
VERTEX
  5
452
330
42B
100
AcDbEntity
  8
TLESO1
100
AcDbVertex
100
AcDbPolyFaceMeshVertex
 10
7.0
 20
-28.89999999850989
 30
26.39999961853027
 70
   192
  0
VERTEX
  5
453
330
42B
100
AcDbEntity
  8
TLESO1
100
AcDbVertex
100
AcDbPolyFaceMeshVertex
 10
7.5
 20
-28.89999999850989
 30
22.76000022888184
 70
   192
  0
VERTEX
  5
454
330
42B
100
AcDbEntity
  8
TLESO1
100
AcDbVertex
100
AcDbPolyFaceMeshVertex
 10
7.0
 20
-28.89999999850989
 30
22.70000076293945
 70
   192
  0
VERTEX
  5
455
330
42B
100
AcDbEntity
  8
TLESO1
100
AcDbVertex
100
AcDbPolyFaceMeshVertex
 10
7.5
 20
-28.89999999850989
 30
19.0
 70
   192
  0
VERTEX
  5
456
330
42B
100
AcDbEntity
  8
TLESO1
100
AcDbVertex
100
AcDbPolyFaceMeshVertex
 10
7.0
 20
-28.89999999850989
 30
15.30000019073486
 70
   192
  0
VERTEX
  5
457
330
42B
100
AcDbEntity
  8
TLESO1
100
AcDbVertex
100
AcDbPolyFaceMeshVertex
 10
7.5
 20
-28.89999999850989
 30
15.23999977111816
 70
   192
  0
VERTEX
  5
458
330
42B
100
AcDbEntity
  8
TLESO1
100
AcDbVertex
100
AcDbPolyFaceMeshVertex
 10
7.0
 20
-28.89999999850989
 30
11.60000038146972
 70
   192
  0
VERTEX
  5
459
330
42B
100
AcDbEntity
  8
TLESO1
100
AcDbVertex
100
AcDbPolyFaceMeshVertex
 10
7.5
 20
-28.89999999850989
 30
11.47999954223632
 70
   192
  0
VERTEX
  5
45A
330
42B
100
AcDbEntity
  8
TLESO1
100
AcDbVertex
100
AcDbPolyFaceMeshVertex
 10
7.0
 20
-28.89999999850989
 30
7.900000095367432
 70
   192
  0
VERTEX
  5
45B
330
42B
100
AcDbEntity
  8
TLESO1
100
AcDbVertex
100
AcDbPolyFaceMeshVertex
 10
7.5
 20
-28.89999999850989
 30
7.719999790191651
 70
   192
  0
VERTEX
  5
45C
330
42B
100
AcDbEntity
  8
TLESO1
100
AcDbVertex
100
AcDbPolyFaceMeshVertex
 10
7.0
 20
-28.89999999850989
 30
4.199999809265137
 70
   192
  0
VERTEX
  5
45D
330
42B
100
AcDbEntity
  8
TLESO1
100
AcDbVertex
100
AcDbPolyFaceMeshVertex
 10
7.5
 20
-28.89999999850989
 30
3.960000038146973
 70
   192
  0
VERTEX
  5
45E
330
42B
100
AcDbEntity
  8
TLESO1
100
AcDbVertex
100
AcDbPolyFaceMeshVertex
 10
7.300000190734863
 20
-28.89999999850989
 30
38.0
 70
   192
  0
VERTEX
  5
45F
330
42B
100
AcDbEntity
  8
TLESO1
100
AcDbVertex
100
AcDbPolyFaceMeshVertex
 10
7.441421508789062
 20
-28.89999999850989
 30
37.94142150878907
 70
   192
  0
VERTEX
  5
460
330
42B
100
AcDbEntity
  8
TLESO1
100
AcDbVertex
100
AcDbPolyFaceMeshVertex
 10
-7.299999997019767
 20
-28.89999999850989
 30
38.0
 70
   192
  0
VERTEX
  5
461
330
42B
100
AcDbEntity
  8
TLESO1
100
AcDbVertex
100
AcDbPolyFaceMeshVertex
 10
-7.0
 20
-28.89999999850989
 30
37.5
 70
   192
  0
VERTEX
  5
462
330
42B
100
AcDbEntity
  8
TLESO1
100
AcDbVertex
100
AcDbPolyFaceMeshVertex
 10
-3.650000095367431
 20
-28.89999999850989
 30
38.0
 70
   192
  0
VERTEX
  5
463
330
42B
100
AcDbEntity
  8
TLESO1
100
AcDbVertex
100
AcDbPolyFaceMeshVertex
 10
-3.5
 20
-28.89999999850989
 30
37.5
 70
   192
  0
VERTEX
  5
464
330
42B
100
AcDbEntity
  8
TLESO1
100
AcDbVertex
100
AcDbPolyFaceMeshVertex
 10
0.0
 20
-28.89999999850989
 30
38.0
 70
   192
  0
VERTEX
  5
465
330
42B
100
AcDbEntity
  8
TLESO1
100
AcDbVertex
100
AcDbPolyFaceMeshVertex
 10
3.5
 20
-28.89999999850989
 30
37.5
 70
   192
  0
VERTEX
  5
466
330
42B
100
AcDbEntity
  8
TLESO1
100
AcDbVertex
100
AcDbPolyFaceMeshVertex
 10
3.649999618530273
 20
-28.89999999850989
 30
38.0
 70
   192
  0
VERTEX
  5
467
330
42B
100
AcDbEntity
  8
TLESO1
100
AcDbVertex
100
AcDbPolyFaceMeshVertex
 10
-7.49999999999998
 20
-28.89999999850989
 30
37.79999923706055
 70
   192
  0
VERTEX
  5
468
330
42B
100
AcDbEntity
  8
TLESO1
100
AcDbVertex
100
AcDbPolyFaceMeshVertex
 10
-7.44142135605216
 20
-28.89999999850989
 30
37.94142150878907
 70
   192
  0
VERTEX
  5
469
330
42B
100
AcDbEntity
  8
TLESO1
100
AcDbVertex
100
AcDbPolyFaceMeshVertex
 10
-7.499999999999992
 20
-28.89999999850989
 30
0.2000000029802332
 70
   192
  0
VERTEX
  5
46A
330
42B
100
AcDbEntity
  8
TLESO1
100
AcDbVertex
100
AcDbPolyFaceMeshVertex
 10
-7.499999999999991
 20
-28.89999999850989
 30
3.960000038146973
 70
   192
  0
VERTEX
  5
46B
330
42B
100
AcDbEntity
  8
TLESO1
100
AcDbVertex
100
AcDbPolyFaceMeshVertex
 10
-7.0
 20
-28.89999999850989
 30
4.199999809265137
 70
   192
  0
VERTEX
  5
46C
330
42B
100
AcDbEntity
  8
TLESO1
100
AcDbVertex
100
AcDbPolyFaceMeshVertex
 10
-7.49999999999999
 20
-28.89999999850989
 30
7.719999790191651
 70
   192
  0
VERTEX
  5
46D
330
42B
100
AcDbEntity
  8
TLESO1
100
AcDbVertex
100
AcDbPolyFaceMeshVertex
 10
-7.0
 20
-28.89999999850989
 30
7.900000095367432
 70
   192
  0
VERTEX
  5
46E
330
42B
100
AcDbEntity
  8
TLESO1
100
AcDbVertex
100
AcDbPolyFaceMeshVertex
 10
-7.499999999999989
 20
-28.89999999850989
 30
11.47999954223632
 70
   192
  0
VERTEX
  5
46F
330
42B
100
AcDbEntity
  8
TLESO1
100
AcDbVertex
100
AcDbPolyFaceMeshVertex
 10
-7.0
 20
-28.89999999850989
 30
11.60000038146972
 70
   192
  0
VERTEX
  5
470
330
42B
100
AcDbEntity
  8
TLESO1
100
AcDbVertex
100
AcDbPolyFaceMeshVertex
 10
-7.499999999999987
 20
-28.89999999850989
 30
15.23999977111816
 70
   192
  0
VERTEX
  5
471
330
42B
100
AcDbEntity
  8
TLESO1
100
AcDbVertex
100
AcDbPolyFaceMeshVertex
 10
-7.0
 20
-28.89999999850989
 30
15.30000019073486
 70
   192
  0
VERTEX
  5
472
330
42B
100
AcDbEntity
  8
TLESO1
100
AcDbVertex
100
AcDbPolyFaceMeshVertex
 10
-7.499999999999986
 20
-28.89999999850989
 30
19.0
 70
   192
  0
VERTEX
  5
473
330
42B
100
AcDbEntity
  8
TLESO1
100
AcDbVertex
100
AcDbPolyFaceMeshVertex
 10
-7.0
 20
-28.89999999850989
 30
22.70000076293945
 70
   192
  0
VERTEX
  5
474
330
42B
100
AcDbEntity
  8
TLESO1
100
AcDbVertex
100
AcDbPolyFaceMeshVertex
 10
-7.499999999999985
 20
-28.89999999850989
 30
22.76000022888184
 70
   192
  0
VERTEX
  5
475
330
42B
100
AcDbEntity
  8
TLESO1
100
AcDbVertex
100
AcDbPolyFaceMeshVertex
 10
-7.0
 20
-28.89999999850989
 30
26.39999961853027
 70
   192
  0
VERTEX
  5
476
330
42B
100
AcDbEntity
  8
TLESO1
100
AcDbVertex
100
AcDbPolyFaceMeshVertex
 10
-7.499999999999984
 20
-28.89999999850989
 30
26.52000045776367
 70
   192
  0
VERTEX
  5
477
330
42B
100
AcDbEntity
  8
TLESO1
100
AcDbVertex
100
AcDbPolyFaceMeshVertex
 10
-7.0
 20
-28.89999999850989
 30
30.10000038146973
 70
   192
  0
VERTEX
  5
478
330
42B
100
AcDbEntity
  8
TLESO1
100
AcDbVertex
100
AcDbPolyFaceMeshVertex
 10
-7.499999999999983
 20
-28.89999999850989
 30
30.28000068664551
 70
   192
  0
VERTEX
  5
479
330
42B
100
AcDbEntity
  8
TLESO1
100
AcDbVertex
100
AcDbPolyFaceMeshVertex
 10
-7.0
 20
-28.89999999850989
 30
33.79999923706055
 70
   192
  0
VERTEX
  5
47A
330
42B
100
AcDbEntity
  8
TLESO1
100
AcDbVertex
100
AcDbPolyFaceMeshVertex
 10
-7.499999999999981
 20
-28.89999999850989
 30
34.04000091552735
 70
   192
  0
VERTEX
  5
47B
330
42B
100
AcDbEntity
  8
TLESO1
100
AcDbVertex
100
AcDbPolyFaceMeshVertex
 10
-7.44142135605216
 20
-28.89999999850989
 30
0.0585786439478407
 70
   192
  0
VERTEX
  5
47C
330
42B
100
AcDbEntity
  8
TLESO1
100
AcDbVertex
100
AcDbPolyFaceMeshVertex
 10
-7.0
 20
-28.89999999850989
 30
19.0
 70
   192
  0
VERTEX
  5
47D
330
42B
100
AcDbEntity
  8
TLESO1
100
AcDbVertex
100
AcDbPolyFaceMeshVertex
 10
0.0
 20
-28.89999999850989
 30
37.5
 70
   192
  0
VERTEX
  5
47E
330
42B
100
AcDbEntity
  8
TLESO1
100
AcDbVertex
100
AcDbPolyFaceMeshVertex
 10
7.0
 20
-28.89999999850989
 30
19.0
 70
   192
  0
VERTEX
  5
47F
330
42B
100
AcDbEntity
  8
TLESO1
100
AcDbVertex
100
AcDbPolyFaceMeshVertex
 10
0.0
 20
-28.89999999850989
 30
0.5000000000000009
 70
   192
  0
VERTEX
  5
480
330
42B
100
AcDbEntity
  8
TLESO1
100
AcDbVertex
100
AcDbPolyFaceMeshVertex
 10
7.5
 20
-29.20000000298023
 30
51.79999923706055
 70
   192
  0
VERTEX
  5
481
330
42B
100
AcDbEntity
  8
TLESO1
100
AcDbVertex
100
AcDbPolyFaceMeshVertex
 10
7.473204612731933
 20
-29.10000000149011
 30
51.79999923706055
 70
   192
  0
VERTEX
  5
482
330
42B
100
AcDbEntity
  8
TLESO1
100
AcDbVertex
100
AcDbPolyFaceMeshVertex
 10
7.473204612731933
 20
-29.20000000298023
 30
51.90000152587891
 70
   192
  0
VERTEX
  5
483
330
42B
100
AcDbEntity
  8
TLESO1
100
AcDbVertex
100
AcDbPolyFaceMeshVertex
 10
7.399999618530273
 20
-29.02679491974414
 30
51.79999923706055
 70
   192
  0
VERTEX
  5
484
330
42B
100
AcDbEntity
  8
TLESO1
100
AcDbVertex
100
AcDbPolyFaceMeshVertex
 10
7.300000190734863
 20
-29.02679491974414
 30
51.90000152587891
 70
   192
  0
VERTEX
  5
485
330
42B
100
AcDbEntity
  8
TLESO1
100
AcDbVertex
100
AcDbPolyFaceMeshVertex
 10
7.300000190734863
 20
-29.0
 30
51.79999923706055
 70
   192
  0
VERTEX
  5
486
330
42B
100
AcDbEntity
  8
TLESO1
100
AcDbVertex
100
AcDbPolyFaceMeshVertex
 10
7.300000190734863
 20
-29.10000000149011
 30
51.97320556640625
 70
   192
  0
VERTEX
  5
487
330
42B
100
AcDbEntity
  8
TLESO1
100
AcDbVertex
100
AcDbPolyFaceMeshVertex
 10
7.300000190734863
 20
-29.20000000298023
 30
52.0
 70
   192
  0
VERTEX
  5
488
330
42B
100
AcDbEntity
  8
TLESO1
100
AcDbVertex
100
AcDbPolyFaceMeshVertex
 10
7.399999618530273
 20
-29.20000000298023
 30
51.97320556640625
 70
   192
  0
VERTEX
  5
489
330
42B
100
AcDbEntity
  8
TLESO1
100
AcDbVertex
100
AcDbPolyFaceMeshVertex
 10
7.300000190734863
 20
-34.0
 30
51.79999923706055
 70
   192
  0
VERTEX
  5
48A
330
42B
100
AcDbEntity
  8
TLESO1
100
AcDbVertex
100
AcDbPolyFaceMeshVertex
 10
7.399999618530273
 20
-33.97320508956909
 30
51.79999923706055
 70
   192
  0
VERTEX
  5
48B
330
42B
100
AcDbEntity
  8
TLESO1
100
AcDbVertex
100
AcDbPolyFaceMeshVertex
 10
7.300000190734863
 20
-33.97320508956909
 30
51.90000152587891
 70
   192
  0
VERTEX
  5
48C
330
42B
100
AcDbEntity
  8
TLESO1
100
AcDbVertex
100
AcDbPolyFaceMeshVertex
 10
7.473204612731933
 20
-33.90000009536743
 30
51.79999923706055
 70
   192
  0
VERTEX
  5
48D
330
42B
100
AcDbEntity
  8
TLESO1
100
AcDbVertex
100
AcDbPolyFaceMeshVertex
 10
7.5
 20
-33.80000019073487
 30
51.79999923706055
 70
   192
  0
VERTEX
  5
48E
330
42B
100
AcDbEntity
  8
TLESO1
100
AcDbVertex
100
AcDbPolyFaceMeshVertex
 10
7.473204612731933
 20
-33.80000019073487
 30
51.90000152587891
 70
   192
  0
VERTEX
  5
48F
330
42B
100
AcDbEntity
  8
TLESO1
100
AcDbVertex
100
AcDbPolyFaceMeshVertex
 10
7.300000190734863
 20
-33.90000009536743
 30
51.97320556640625
 70
   192
  0
VERTEX
  5
490
330
42B
100
AcDbEntity
  8
TLESO1
100
AcDbVertex
100
AcDbPolyFaceMeshVertex
 10
7.300000190734863
 20
-33.80000019073487
 30
52.0
 70
   192
  0
VERTEX
  5
491
330
42B
100
AcDbEntity
  8
TLESO1
100
AcDbVertex
100
AcDbPolyFaceMeshVertex
 10
7.399999618530273
 20
-33.80000019073487
 30
51.97320556640625
 70
   192
  0
VERTEX
  5
492
330
42B
100
AcDbEntity
  8
TLESO1
100
AcDbVertex
100
AcDbPolyFaceMeshVertex
 10
7.5
 20
-29.20000000298023
 30
51.79999923706055
 70
   192
  0
VERTEX
  5
493
330
42B
100
AcDbEntity
  8
TLESO1
100
AcDbVertex
100
AcDbPolyFaceMeshVertex
 10
7.473204612731933
 20
-29.20000000298023
 30
51.90000152587891
 70
   192
  0
VERTEX
  5
494
330
42B
100
AcDbEntity
  8
TLESO1
100
AcDbVertex
100
AcDbPolyFaceMeshVertex
 10
7.5
 20
-31.5
 30
51.79999923706055
 70
   192
  0
VERTEX
  5
495
330
42B
100
AcDbEntity
  8
TLESO1
100
AcDbVertex
100
AcDbPolyFaceMeshVertex
 10
7.399999618530273
 20
-29.20000000298023
 30
51.97320556640625
 70
   192
  0
VERTEX
  5
496
330
42B
100
AcDbEntity
  8
TLESO1
100
AcDbVertex
100
AcDbPolyFaceMeshVertex
 10
7.300000190734863
 20
-31.5
 30
52.0
 70
   192
  0
VERTEX
  5
497
330
42B
100
AcDbEntity
  8
TLESO1
100
AcDbVertex
100
AcDbPolyFaceMeshVertex
 10
7.300000190734863
 20
-29.20000000298023
 30
52.0
 70
   192
  0
VERTEX
  5
498
330
42B
100
AcDbEntity
  8
TLESO1
100
AcDbVertex
100
AcDbPolyFaceMeshVertex
 10
7.300000190734863
 20
-33.80000019073487
 30
52.0
 70
   192
  0
VERTEX
  5
499
330
42B
100
AcDbEntity
  8
TLESO1
100
AcDbVertex
100
AcDbPolyFaceMeshVertex
 10
7.399999618530273
 20
-33.80000019073487
 30
51.97320556640625
 70
   192
  0
VERTEX
  5
49A
330
42B
100
AcDbEntity
  8
TLESO1
100
AcDbVertex
100
AcDbPolyFaceMeshVertex
 10
7.473204612731933
 20
-33.80000019073487
 30
51.90000152587891
 70
   192
  0
VERTEX
  5
49B
330
42B
100
AcDbEntity
  8
TLESO1
100
AcDbVertex
100
AcDbPolyFaceMeshVertex
 10
7.5
 20
-33.80000019073487
 30
51.79999923706055
 70
   192
  0
VERTEX
  5
49C
330
42B
100
AcDbEntity
  8
TLESO1
100
AcDbVertex
100
AcDbPolyFaceMeshVertex
 10
-7.499999999999973
 20
-29.20000000298023
 30
51.79999923706055
 70
   192
  0
VERTEX
  5
49D
330
42B
100
AcDbEntity
  8
TLESO1
100
AcDbVertex
100
AcDbPolyFaceMeshVertex
 10
-7.473205080255866
 20
-29.20000000298023
 30
51.90000152587891
 70
   192
  0
VERTEX
  5
49E
330
42B
100
AcDbEntity
  8
TLESO1
100
AcDbVertex
100
AcDbPolyFaceMeshVertex
 10
-7.473205080255866
 20
-29.10000000149011
 30
51.79999923706055
 70
   192
  0
VERTEX
  5
49F
330
42B
100
AcDbEntity
  8
TLESO1
100
AcDbVertex
100
AcDbPolyFaceMeshVertex
 10
-7.399999998509883
 20
-29.20000000298023
 30
51.97320556640625
 70
   192
  0
VERTEX
  5
4A0
330
42B
100
AcDbEntity
  8
TLESO1
100
AcDbVertex
100
AcDbPolyFaceMeshVertex
 10
-7.299999997019767
 20
-29.20000000298023
 30
52.0
 70
   192
  0
VERTEX
  5
4A1
330
42B
100
AcDbEntity
  8
TLESO1
100
AcDbVertex
100
AcDbPolyFaceMeshVertex
 10
-7.299999997019767
 20
-29.10000000149011
 30
51.97320556640625
 70
   192
  0
VERTEX
  5
4A2
330
42B
100
AcDbEntity
  8
TLESO1
100
AcDbVertex
100
AcDbPolyFaceMeshVertex
 10
-7.299999997019767
 20
-29.02679491974414
 30
51.90000152587891
 70
   192
  0
VERTEX
  5
4A3
330
42B
100
AcDbEntity
  8
TLESO1
100
AcDbVertex
100
AcDbPolyFaceMeshVertex
 10
-7.299999997019767
 20
-29.0
 30
51.79999923706055
 70
   192
  0
VERTEX
  5
4A4
330
42B
100
AcDbEntity
  8
TLESO1
100
AcDbVertex
100
AcDbPolyFaceMeshVertex
 10
-7.399999998509883
 20
-29.02679491974414
 30
51.79999923706055
 70
   192
  0
VERTEX
  5
4A5
330
42B
100
AcDbEntity
  8
TLESO1
100
AcDbVertex
100
AcDbPolyFaceMeshVertex
 10
7.300000190734863
 20
-29.20000000298023
 30
52.0
 70
   192
  0
VERTEX
  5
4A6
330
42B
100
AcDbEntity
  8
TLESO1
100
AcDbVertex
100
AcDbPolyFaceMeshVertex
 10
7.300000190734863
 20
-29.10000000149011
 30
51.97320556640625
 70
   192
  0
VERTEX
  5
4A7
330
42B
100
AcDbEntity
  8
TLESO1
100
AcDbVertex
100
AcDbPolyFaceMeshVertex
 10
0.0
 20
-29.20000000298023
 30
52.0
 70
   192
  0
VERTEX
  5
4A8
330
42B
100
AcDbEntity
  8
TLESO1
100
AcDbVertex
100
AcDbPolyFaceMeshVertex
 10
7.300000190734863
 20
-29.02679491974414
 30
51.90000152587891
 70
   192
  0
VERTEX
  5
4A9
330
42B
100
AcDbEntity
  8
TLESO1
100
AcDbVertex
100
AcDbPolyFaceMeshVertex
 10
2.433333396911621
 20
-29.0
 30
51.79999923706055
 70
   192
  0
VERTEX
  5
4AA
330
42B
100
AcDbEntity
  8
TLESO1
100
AcDbVertex
100
AcDbPolyFaceMeshVertex
 10
7.300000190734863
 20
-29.0
 30
51.79999923706055
 70
   192
  0
VERTEX
  5
4AB
330
42B
100
AcDbEntity
  8
TLESO1
100
AcDbVertex
100
AcDbPolyFaceMeshVertex
 10
-7.299999997019767
 20
-29.0
 30
51.79999923706055
 70
   192
  0
VERTEX
  5
4AC
330
42B
100
AcDbEntity
  8
TLESO1
100
AcDbVertex
100
AcDbPolyFaceMeshVertex
 10
-7.299999997019767
 20
-29.02679491974414
 30
51.90000152587891
 70
   192
  0
VERTEX
  5
4AD
330
42B
100
AcDbEntity
  8
TLESO1
100
AcDbVertex
100
AcDbPolyFaceMeshVertex
 10
-2.433333396911621
 20
-29.0
 30
51.79999923706055
 70
   192
  0
VERTEX
  5
4AE
330
42B
100
AcDbEntity
  8
TLESO1
100
AcDbVertex
100
AcDbPolyFaceMeshVertex
 10
-7.299999997019767
 20
-29.10000000149011
 30
51.97320556640625
 70
   192
  0
VERTEX
  5
4AF
330
42B
100
AcDbEntity
  8
TLESO1
100
AcDbVertex
100
AcDbPolyFaceMeshVertex
 10
-7.299999997019767
 20
-29.20000000298023
 30
52.0
 70
   192
  0
VERTEX
  5
4B0
330
42B
100
AcDbEntity
  8
TLESO1
100
AcDbVertex
100
AcDbPolyFaceMeshVertex
 10
-7.299999997019767
 20
-34.0
 30
51.79999923706055
 70
   192
  0
VERTEX
  5
4B1
330
42B
100
AcDbEntity
  8
TLESO1
100
AcDbVertex
100
AcDbPolyFaceMeshVertex
 10
-7.299999997019767
 20
-33.97320508956909
 30
51.90000152587891
 70
   192
  0
VERTEX
  5
4B2
330
42B
100
AcDbEntity
  8
TLESO1
100
AcDbVertex
100
AcDbPolyFaceMeshVertex
 10
-7.399999998509883
 20
-33.97320508956909
 30
51.79999923706055
 70
   192
  0
VERTEX
  5
4B3
330
42B
100
AcDbEntity
  8
TLESO1
100
AcDbVertex
100
AcDbPolyFaceMeshVertex
 10
-7.299999997019767
 20
-33.90000009536743
 30
51.97320556640625
 70
   192
  0
VERTEX
  5
4B4
330
42B
100
AcDbEntity
  8
TLESO1
100
AcDbVertex
100
AcDbPolyFaceMeshVertex
 10
-7.299999997019767
 20
-33.80000019073487
 30
52.0
 70
   192
  0
VERTEX
  5
4B5
330
42B
100
AcDbEntity
  8
TLESO1
100
AcDbVertex
100
AcDbPolyFaceMeshVertex
 10
-7.399999998509883
 20
-33.80000019073487
 30
51.97320556640625
 70
   192
  0
VERTEX
  5
4B6
330
42B
100
AcDbEntity
  8
TLESO1
100
AcDbVertex
100
AcDbPolyFaceMeshVertex
 10
-7.473205080255866
 20
-33.80000019073487
 30
51.90000152587891
 70
   192
  0
VERTEX
  5
4B7
330
42B
100
AcDbEntity
  8
TLESO1
100
AcDbVertex
100
AcDbPolyFaceMeshVertex
 10
-7.499999999999973
 20
-33.80000019073487
 30
51.79999923706055
 70
   192
  0
VERTEX
  5
4B8
330
42B
100
AcDbEntity
  8
TLESO1
100
AcDbVertex
100
AcDbPolyFaceMeshVertex
 10
-7.473205080255866
 20
-33.90000009536743
 30
51.79999923706055
 70
   192
  0
VERTEX
  5
4B9
330
42B
100
AcDbEntity
  8
TLESO1
100
AcDbVertex
100
AcDbPolyFaceMeshVertex
 10
-7.299999997019767
 20
-29.20000000298023
 30
52.0
 70
   192
  0
VERTEX
  5
4BA
330
42B
100
AcDbEntity
  8
TLESO1
100
AcDbVertex
100
AcDbPolyFaceMeshVertex
 10
-7.399999998509883
 20
-29.20000000298023
 30
51.97320556640625
 70
   192
  0
VERTEX
  5
4BB
330
42B
100
AcDbEntity
  8
TLESO1
100
AcDbVertex
100
AcDbPolyFaceMeshVertex
 10
-7.299999997019767
 20
-31.5
 30
52.0
 70
   192
  0
VERTEX
  5
4BC
330
42B
100
AcDbEntity
  8
TLESO1
100
AcDbVertex
100
AcDbPolyFaceMeshVertex
 10
-7.473205080255866
 20
-29.20000000298023
 30
51.90000152587891
 70
   192
  0
VERTEX
  5
4BD
330
42B
100
AcDbEntity
  8
TLESO1
100
AcDbVertex
100
AcDbPolyFaceMeshVertex
 10
-7.499999999999973
 20
-29.20000000298023
 30
51.79999923706055
 70
   192
  0
VERTEX
  5
4BE
330
42B
100
AcDbEntity
  8
TLESO1
100
AcDbVertex
100
AcDbPolyFaceMeshVertex
 10
-7.499999999999973
 20
-31.5
 30
51.79999923706055
 70
   192
  0
VERTEX
  5
4BF
330
42B
100
AcDbEntity
  8
TLESO1
100
AcDbVertex
100
AcDbPolyFaceMeshVertex
 10
-7.499999999999973
 20
-33.80000019073487
 30
51.79999923706055
 70
   192
  0
VERTEX
  5
4C0
330
42B
100
AcDbEntity
  8
TLESO1
100
AcDbVertex
100
AcDbPolyFaceMeshVertex
 10
-7.473205080255866
 20
-33.80000019073487
 30
51.90000152587891
 70
   192
  0
VERTEX
  5
4C1
330
42B
100
AcDbEntity
  8
TLESO1
100
AcDbVertex
100
AcDbPolyFaceMeshVertex
 10
-7.399999998509883
 20
-33.80000019073487
 30
51.97320556640625
 70
   192
  0
VERTEX
  5
4C2
330
42B
100
AcDbEntity
  8
TLESO1
100
AcDbVertex
100
AcDbPolyFaceMeshVertex
 10
-7.299999997019767
 20
-33.80000019073487
 30
52.0
 70
   192
  0
VERTEX
  5
4C3
330
42B
100
AcDbEntity
  8
TLESO1
100
AcDbVertex
100
AcDbPolyFaceMeshVertex
 10
7.300000190734863
 20
-33.80000019073487
 30
-0.0000000000000004
 70
   192
  0
VERTEX
  5
4C4
330
42B
100
AcDbEntity
  8
TLESO1
100
AcDbVertex
100
AcDbPolyFaceMeshVertex
 10
7.399999618530273
 20
-33.80000019073487
 30
0.0267949197441349
 70
   192
  0
VERTEX
  5
4C5
330
42B
100
AcDbEntity
  8
TLESO1
100
AcDbVertex
100
AcDbPolyFaceMeshVertex
 10
7.300000190734863
 20
-33.90000009536743
 30
0.0267949197441349
 70
   192
  0
VERTEX
  5
4C6
330
42B
100
AcDbEntity
  8
TLESO1
100
AcDbVertex
100
AcDbPolyFaceMeshVertex
 10
7.473204612731933
 20
-33.80000019073487
 30
0.100000001490117
 70
   192
  0
VERTEX
  5
4C7
330
42B
100
AcDbEntity
  8
TLESO1
100
AcDbVertex
100
AcDbPolyFaceMeshVertex
 10
7.399999618530273
 20
-33.97320508956909
 30
0.2000000029802332
 70
   192
  0
VERTEX
  5
4C8
330
42B
100
AcDbEntity
  8
TLESO1
100
AcDbVertex
100
AcDbPolyFaceMeshVertex
 10
7.5
 20
-33.80000019073487
 30
0.2000000029802332
 70
   192
  0
VERTEX
  5
4C9
330
42B
100
AcDbEntity
  8
TLESO1
100
AcDbVertex
100
AcDbPolyFaceMeshVertex
 10
7.473204612731933
 20
-33.90000009536743
 30
0.2000000029802332
 70
   192
  0
VERTEX
  5
4CA
330
42B
100
AcDbEntity
  8
TLESO1
100
AcDbVertex
100
AcDbPolyFaceMeshVertex
 10
7.300000190734863
 20
-34.0
 30
0.2000000029802332
 70
   192
  0
VERTEX
  5
4CB
330
42B
100
AcDbEntity
  8
TLESO1
100
AcDbVertex
100
AcDbPolyFaceMeshVertex
 10
7.300000190734863
 20
-33.97320508956909
 30
0.100000001490117
 70
   192
  0
VERTEX
  5
4CC
330
42B
100
AcDbEntity
  8
TLESO1
100
AcDbVertex
100
AcDbPolyFaceMeshVertex
 10
7.5
 20
-33.80000019073487
 30
0.2000000029802332
 70
   192
  0
VERTEX
  5
4CD
330
42B
100
AcDbEntity
  8
TLESO1
100
AcDbVertex
100
AcDbPolyFaceMeshVertex
 10
7.473204612731933
 20
-33.80000019073487
 30
0.100000001490117
 70
   192
  0
VERTEX
  5
4CE
330
42B
100
AcDbEntity
  8
TLESO1
100
AcDbVertex
100
AcDbPolyFaceMeshVertex
 10
7.5
 20
-31.5
 30
0.2000000029802332
 70
   192
  0
VERTEX
  5
4CF
330
42B
100
AcDbEntity
  8
TLESO1
100
AcDbVertex
100
AcDbPolyFaceMeshVertex
 10
7.399999618530273
 20
-33.80000019073487
 30
0.0267949197441349
 70
   192
  0
VERTEX
  5
4D0
330
42B
100
AcDbEntity
  8
TLESO1
100
AcDbVertex
100
AcDbPolyFaceMeshVertex
 10
7.300000190734863
 20
-33.80000019073487
 30
-0.0000000000000004
 70
   192
  0
VERTEX
  5
4D1
330
42B
100
AcDbEntity
  8
TLESO1
100
AcDbVertex
100
AcDbPolyFaceMeshVertex
 10
7.300000190734863
 20
-31.40000009536743
 30
-0.0000000000000002
 70
   192
  0
VERTEX
  5
4D2
330
42B
100
AcDbEntity
  8
TLESO1
100
AcDbVertex
100
AcDbPolyFaceMeshVertex
 10
7.5
 20
-29.20000000298023
 30
0.2000000029802332
 70
   192
  0
VERTEX
  5
4D3
330
42B
100
AcDbEntity
  8
TLESO1
100
AcDbVertex
100
AcDbPolyFaceMeshVertex
 10
7.440218925476074
 20
-29.06098781526089
 30
0.0609878152608881
 70
   192
  0
VERTEX
  5
4D4
330
42B
100
AcDbEntity
  8
TLESO1
100
AcDbVertex
100
AcDbPolyFaceMeshVertex
 10
7.300000190734863
 20
-29.0
 30
0.0
 70
   192
  0
VERTEX
  5
4D5
330
42B
100
AcDbEntity
  8
TLESO1
100
AcDbVertex
100
AcDbPolyFaceMeshVertex
 10
7.376495361328125
 20
-29.01662043109536
 30
0.0166204310953626
 70
   192
  0
VERTEX
  5
4D6
330
42B
100
AcDbEntity
  8
TLESO1
100
AcDbVertex
100
AcDbPolyFaceMeshVertex
 10
7.5
 20
-33.80000019073487
 30
51.79999923706055
 70
   192
  0
VERTEX
  5
4D7
330
42B
100
AcDbEntity
  8
TLESO1
100
AcDbVertex
100
AcDbPolyFaceMeshVertex
 10
7.473204612731933
 20
-33.90000009536743
 30
51.79999923706055
 70
   192
  0
VERTEX
  5
4D8
330
42B
100
AcDbEntity
  8
TLESO1
100
AcDbVertex
100
AcDbPolyFaceMeshVertex
 10
7.5
 20
-33.80000019073487
 30
26.0
 70
   192
  0
VERTEX
  5
4D9
330
42B
100
AcDbEntity
  8
TLESO1
100
AcDbVertex
100
AcDbPolyFaceMeshVertex
 10
7.399999618530273
 20
-33.97320508956909
 30
51.79999923706055
 70
   192
  0
VERTEX
  5
4DA
330
42B
100
AcDbEntity
  8
TLESO1
100
AcDbVertex
100
AcDbPolyFaceMeshVertex
 10
7.300000190734863
 20
-34.0
 30
26.0
 70
   192
  0
VERTEX
  5
4DB
330
42B
100
AcDbEntity
  8
TLESO1
100
AcDbVertex
100
AcDbPolyFaceMeshVertex
 10
7.300000190734863
 20
-34.0
 30
51.79999923706055
 70
   192
  0
VERTEX
  5
4DC
330
42B
100
AcDbEntity
  8
TLESO1
100
AcDbVertex
100
AcDbPolyFaceMeshVertex
 10
7.300000190734863
 20
-34.0
 30
0.2000000029802332
 70
   192
  0
VERTEX
  5
4DD
330
42B
100
AcDbEntity
  8
TLESO1
100
AcDbVertex
100
AcDbPolyFaceMeshVertex
 10
7.399999618530273
 20
-33.97320508956909
 30
0.2000000029802332
 70
   192
  0
VERTEX
  5
4DE
330
42B
100
AcDbEntity
  8
TLESO1
100
AcDbVertex
100
AcDbPolyFaceMeshVertex
 10
7.473204612731933
 20
-33.90000009536743
 30
0.2000000029802332
 70
   192
  0
VERTEX
  5
4DF
330
42B
100
AcDbEntity
  8
TLESO1
100
AcDbVertex
100
AcDbPolyFaceMeshVertex
 10
7.5
 20
-33.80000019073487
 30
0.2000000029802332
 70
   192
  0
VERTEX
  5
4E0
330
42B
100
AcDbEntity
  8
TLESO1
100
AcDbVertex
100
AcDbPolyFaceMeshVertex
 10
-7.499999999999973
 20
-29.20000000298023
 30
51.79999923706055
 70
   192
  0
VERTEX
  5
4E1
330
42B
100
AcDbEntity
  8
TLESO1
100
AcDbVertex
100
AcDbPolyFaceMeshVertex
 10
-7.473205080255866
 20
-29.10000000149011
 30
51.79999923706055
 70
   192
  0
VERTEX
  5
4E2
330
42B
100
AcDbEntity
  8
TLESO1
100
AcDbVertex
100
AcDbPolyFaceMeshVertex
 10
-7.299999997019767
 20
-29.0
 30
46.61999893188476
 70
   192
  0
VERTEX
  5
4E3
330
42B
100
AcDbEntity
  8
TLESO1
100
AcDbVertex
100
AcDbPolyFaceMeshVertex
 10
-7.399999998509883
 20
-29.02679491974414
 30
51.79999923706055
 70
   192
  0
VERTEX
  5
4E4
330
42B
100
AcDbEntity
  8
TLESO1
100
AcDbVertex
100
AcDbPolyFaceMeshVertex
 10
-7.299999997019767
 20
-29.0
 30
51.79999923706055
 70
   192
  0
VERTEX
  5
4E5
330
42B
100
AcDbEntity
  8
TLESO1
100
AcDbVertex
100
AcDbPolyFaceMeshVertex
 10
-7.499999999999992
 20
-29.20000000298023
 30
0.2000000029802332
 70
   192
  0
VERTEX
  5
4E6
330
42B
100
AcDbEntity
  8
TLESO1
100
AcDbVertex
100
AcDbPolyFaceMeshVertex
 10
-7.499999999999983
 20
-29.20000000298023
 30
26.0
 70
   192
  0
VERTEX
  5
4E7
330
42B
100
AcDbEntity
  8
TLESO1
100
AcDbVertex
100
AcDbPolyFaceMeshVertex
 10
-7.299999997019767
 20
-29.0
 30
15.53999996185303
 70
   192
  0
VERTEX
  5
4E8
330
42B
100
AcDbEntity
  8
TLESO1
100
AcDbVertex
100
AcDbPolyFaceMeshVertex
 10
-7.299999997019767
 20
-29.0
 30
41.43999862670898
 70
   192
  0
VERTEX
  5
4E9
330
42B
100
AcDbEntity
  8
TLESO1
100
AcDbVertex
100
AcDbPolyFaceMeshVertex
 10
-7.299999997019767
 20
-29.0
 30
36.25999832153321
 70
   192
  0
VERTEX
  5
4EA
330
42B
100
AcDbEntity
  8
TLESO1
100
AcDbVertex
100
AcDbPolyFaceMeshVertex
 10
-7.299999997019767
 20
-29.0
 30
31.07999992370606
 70
   192
  0
VERTEX
  5
4EB
330
42B
100
AcDbEntity
  8
TLESO1
100
AcDbVertex
100
AcDbPolyFaceMeshVertex
 10
-7.299999997019767
 20
-29.0
 30
25.89999961853028
 70
   192
  0
VERTEX
  5
4EC
330
42B
100
AcDbEntity
  8
TLESO1
100
AcDbVertex
100
AcDbPolyFaceMeshVertex
 10
-7.299999997019767
 20
-29.0
 30
20.71999931335449
 70
   192
  0
VERTEX
  5
4ED
330
42B
100
AcDbEntity
  8
TLESO1
100
AcDbVertex
100
AcDbPolyFaceMeshVertex
 10
-7.299999997019767
 20
-29.0
 30
10.35999965667724
 70
   192
  0
VERTEX
  5
4EE
330
42B
100
AcDbEntity
  8
TLESO1
100
AcDbVertex
100
AcDbPolyFaceMeshVertex
 10
-7.299999997019767
 20
-29.0
 30
5.179999828338623
 70
   192
  0
VERTEX
  5
4EF
330
42B
100
AcDbEntity
  8
TLESO1
100
AcDbVertex
100
AcDbPolyFaceMeshVertex
 10
-7.440218459814786
 20
-29.06098781526089
 30
0.0609878152608881
 70
   192
  0
VERTEX
  5
4F0
330
42B
100
AcDbEntity
  8
TLESO1
100
AcDbVertex
100
AcDbPolyFaceMeshVertex
 10
-7.299999997019767
 20
-29.0
 30
0.0000000000000009
 70
   192
  0
VERTEX
  5
4F1
330
42B
100
AcDbEntity
  8
TLESO1
100
AcDbVertex
100
AcDbPolyFaceMeshVertex
 10
-7.376495763659477
 20
-29.01662043109536
 30
0.0166204310953626
 70
   192
  0
VERTEX
  5
4F2
330
42B
100
AcDbEntity
  8
TLESO1
100
AcDbVertex
100
AcDbPolyFaceMeshVertex
 10
-7.299999997019767
 20
-34.0
 30
0.2000000029802332
 70
   192
  0
VERTEX
  5
4F3
330
42B
100
AcDbEntity
  8
TLESO1
100
AcDbVertex
100
AcDbPolyFaceMeshVertex
 10
-7.399999998509883
 20
-33.97320508956909
 30
0.2000000029802332
 70
   192
  0
VERTEX
  5
4F4
330
42B
100
AcDbEntity
  8
TLESO1
100
AcDbVertex
100
AcDbPolyFaceMeshVertex
 10
-7.299999997019767
 20
-33.97320508956909
 30
0.100000001490117
 70
   192
  0
VERTEX
  5
4F5
330
42B
100
AcDbEntity
  8
TLESO1
100
AcDbVertex
100
AcDbPolyFaceMeshVertex
 10
-7.473205080255866
 20
-33.90000009536743
 30
0.2000000029802332
 70
   192
  0
VERTEX
  5
4F6
330
42B
100
AcDbEntity
  8
TLESO1
100
AcDbVertex
100
AcDbPolyFaceMeshVertex
 10
-7.499999999999994
 20
-33.80000019073487
 30
0.2000000029802332
 70
   192
  0
VERTEX
  5
4F7
330
42B
100
AcDbEntity
  8
TLESO1
100
AcDbVertex
100
AcDbPolyFaceMeshVertex
 10
-7.473205080255866
 20
-33.80000019073487
 30
0.100000001490117
 70
   192
  0
VERTEX
  5
4F8
330
42B
100
AcDbEntity
  8
TLESO1
100
AcDbVertex
100
AcDbPolyFaceMeshVertex
 10
-7.399999998509883
 20
-33.80000019073487
 30
0.0267949197441349
 70
   192
  0
VERTEX
  5
4F9
330
42B
100
AcDbEntity
  8
TLESO1
100
AcDbVertex
100
AcDbPolyFaceMeshVertex
 10
-7.299999997019767
 20
-33.80000019073487
 30
0.000000000000001
 70
   192
  0
VERTEX
  5
4FA
330
42B
100
AcDbEntity
  8
TLESO1
100
AcDbVertex
100
AcDbPolyFaceMeshVertex
 10
-7.299999997019767
 20
-33.90000009536743
 30
0.0267949197441349
 70
   192
  0
VERTEX
  5
4FB
330
42B
100
AcDbEntity
  8
TLESO1
100
AcDbVertex
100
AcDbPolyFaceMeshVertex
 10
-7.499999999999992
 20
-29.20000000298023
 30
0.2000000029802332
 70
   192
  0
VERTEX
  5
4FC
330
42B
100
AcDbEntity
  8
TLESO1
100
AcDbVertex
100
AcDbPolyFaceMeshVertex
 10
-7.440218459814786
 20
-29.06098781526089
 30
0.0609878152608881
 70
   192
  0
VERTEX
  5
4FD
330
42B
100
AcDbEntity
  8
TLESO1
100
AcDbVertex
100
AcDbPolyFaceMeshVertex
 10
-7.499999999999993
 20
-31.5
 30
0.2000000029802332
 70
   192
  0
VERTEX
  5
4FE
330
42B
100
AcDbEntity
  8
TLESO1
100
AcDbVertex
100
AcDbPolyFaceMeshVertex
 10
-7.376495763659477
 20
-29.01662043109536
 30
0.0166204310953626
 70
   192
  0
VERTEX
  5
4FF
330
42B
100
AcDbEntity
  8
TLESO1
100
AcDbVertex
100
AcDbPolyFaceMeshVertex
 10
-7.299999997019767
 20
-31.40000009536743
 30
0.000000000000001
 70
   192
  0
VERTEX
  5
500
330
42B
100
AcDbEntity
  8
TLESO1
100
AcDbVertex
100
AcDbPolyFaceMeshVertex
 10
-7.299999997019767
 20
-29.0
 30
0.0000000000000009
 70
   192
  0
VERTEX
  5
501
330
42B
100
AcDbEntity
  8
TLESO1
100
AcDbVertex
100
AcDbPolyFaceMeshVertex
 10
-7.299999997019767
 20
-33.80000019073487
 30
0.000000000000001
 70
   192
  0
VERTEX
  5
502
330
42B
100
AcDbEntity
  8
TLESO1
100
AcDbVertex
100
AcDbPolyFaceMeshVertex
 10
-7.399999998509883
 20
-33.80000019073487
 30
0.0267949197441349
 70
   192
  0
VERTEX
  5
503
330
42B
100
AcDbEntity
  8
TLESO1
100
AcDbVertex
100
AcDbPolyFaceMeshVertex
 10
-7.473205080255866
 20
-33.80000019073487
 30
0.100000001490117
 70
   192
  0
VERTEX
  5
504
330
42B
100
AcDbEntity
  8
TLESO1
100
AcDbVertex
100
AcDbPolyFaceMeshVertex
 10
-7.499999999999994
 20
-33.80000019073487
 30
0.2000000029802332
 70
   192
  0
VERTEX
  5
505
330
42B
100
AcDbEntity
  8
TLESO1
100
AcDbVertex
100
AcDbPolyFaceMeshVertex
 10
7.300000190734863
 20
-33.80000019073487
 30
-0.0000000000000004
 70
   192
  0
VERTEX
  5
506
330
42B
100
AcDbEntity
  8
TLESO1
100
AcDbVertex
100
AcDbPolyFaceMeshVertex
 10
7.300000190734863
 20
-33.90000009536743
 30
0.0267949197441349
 70
   192
  0
VERTEX
  5
507
330
42B
100
AcDbEntity
  8
TLESO1
100
AcDbVertex
100
AcDbPolyFaceMeshVertex
 10
0.0
 20
-33.80000019073487
 30
0.0000000000000003
 70
   192
  0
VERTEX
  5
508
330
42B
100
AcDbEntity
  8
TLESO1
100
AcDbVertex
100
AcDbPolyFaceMeshVertex
 10
7.300000190734863
 20
-33.97320508956909
 30
0.100000001490117
 70
   192
  0
VERTEX
  5
509
330
42B
100
AcDbEntity
  8
TLESO1
100
AcDbVertex
100
AcDbPolyFaceMeshVertex
 10
7.300000190734863
 20
-34.0
 30
0.2000000029802332
 70
   192
  0
VERTEX
  5
50A
330
42B
100
AcDbEntity
  8
TLESO1
100
AcDbVertex
100
AcDbPolyFaceMeshVertex
 10
0.0
 20
-34.0
 30
0.2000000029802332
 70
   192
  0
VERTEX
  5
50B
330
42B
100
AcDbEntity
  8
TLESO1
100
AcDbVertex
100
AcDbPolyFaceMeshVertex
 10
-7.299999997019767
 20
-34.0
 30
0.2000000029802332
 70
   192
  0
VERTEX
  5
50C
330
42B
100
AcDbEntity
  8
TLESO1
100
AcDbVertex
100
AcDbPolyFaceMeshVertex
 10
-7.299999997019767
 20
-33.97320508956909
 30
0.100000001490117
 70
   192
  0
VERTEX
  5
50D
330
42B
100
AcDbEntity
  8
TLESO1
100
AcDbVertex
100
AcDbPolyFaceMeshVertex
 10
-7.299999997019767
 20
-33.90000009536743
 30
0.0267949197441349
 70
   192
  0
VERTEX
  5
50E
330
42B
100
AcDbEntity
  8
TLESO1
100
AcDbVertex
100
AcDbPolyFaceMeshVertex
 10
-7.299999997019767
 20
-33.80000019073487
 30
0.000000000000001
 70
   192
  0
VERTEX
  5
50F
330
42B
100
AcDbEntity
  8
TLESO1
100
AcDbVertex
100
AcDbPolyFaceMeshVertex
 10
-7.299999997019767
 20
-34.0
 30
51.79999923706055
 70
   192
  0
VERTEX
  5
510
330
42B
100
AcDbEntity
  8
TLESO1
100
AcDbVertex
100
AcDbPolyFaceMeshVertex
 10
-7.399999998509883
 20
-33.97320508956909
 30
51.79999923706055
 70
   192
  0
VERTEX
  5
511
330
42B
100
AcDbEntity
  8
TLESO1
100
AcDbVertex
100
AcDbPolyFaceMeshVertex
 10
-7.299999997019767
 20
-34.0
 30
26.0
 70
   192
  0
VERTEX
  5
512
330
42B
100
AcDbEntity
  8
TLESO1
100
AcDbVertex
100
AcDbPolyFaceMeshVertex
 10
-7.473205080255866
 20
-33.90000009536743
 30
51.79999923706055
 70
   192
  0
VERTEX
  5
513
330
42B
100
AcDbEntity
  8
TLESO1
100
AcDbVertex
100
AcDbPolyFaceMeshVertex
 10
-7.499999999999984
 20
-33.80000019073487
 30
26.0
 70
   192
  0
VERTEX
  5
514
330
42B
100
AcDbEntity
  8
TLESO1
100
AcDbVertex
100
AcDbPolyFaceMeshVertex
 10
-7.499999999999973
 20
-33.80000019073487
 30
51.79999923706055
 70
   192
  0
VERTEX
  5
515
330
42B
100
AcDbEntity
  8
TLESO1
100
AcDbVertex
100
AcDbPolyFaceMeshVertex
 10
-7.499999999999994
 20
-33.80000019073487
 30
0.2000000029802332
 70
   192
  0
VERTEX
  5
516
330
42B
100
AcDbEntity
  8
TLESO1
100
AcDbVertex
100
AcDbPolyFaceMeshVertex
 10
-7.473205080255866
 20
-33.90000009536743
 30
0.2000000029802332
 70
   192
  0
VERTEX
  5
517
330
42B
100
AcDbEntity
  8
TLESO1
100
AcDbVertex
100
AcDbPolyFaceMeshVertex
 10
-7.399999998509883
 20
-33.97320508956909
 30
0.2000000029802332
 70
   192
  0
VERTEX
  5
518
330
42B
100
AcDbEntity
  8
TLESO1
100
AcDbVertex
100
AcDbPolyFaceMeshVertex
 10
-7.299999997019767
 20
-34.0
 30
0.2000000029802332
 70
   192
  0
VERTEX
  5
519
330
42B
100
AcDbEntity
  8
TLESO1
100
AcDbVertex
100
AcDbPolyFaceMeshVertex
 10
7.300000190734863
 20
-34.0
 30
51.79999923706055
 70
   192
  0
VERTEX
  5
51A
330
42B
100
AcDbEntity
  8
TLESO1
100
AcDbVertex
100
AcDbPolyFaceMeshVertex
 10
7.300000190734863
 20
-33.97320508956909
 30
51.90000152587891
 70
   192
  0
VERTEX
  5
51B
330
42B
100
AcDbEntity
  8
TLESO1
100
AcDbVertex
100
AcDbPolyFaceMeshVertex
 10
0.0
 20
-34.0
 30
51.79999923706055
 70
   192
  0
VERTEX
  5
51C
330
42B
100
AcDbEntity
  8
TLESO1
100
AcDbVertex
100
AcDbPolyFaceMeshVertex
 10
7.300000190734863
 20
-33.90000009536743
 30
51.97320556640625
 70
   192
  0
VERTEX
  5
51D
330
42B
100
AcDbEntity
  8
TLESO1
100
AcDbVertex
100
AcDbPolyFaceMeshVertex
 10
7.300000190734863
 20
-33.80000019073487
 30
52.0
 70
   192
  0
VERTEX
  5
51E
330
42B
100
AcDbEntity
  8
TLESO1
100
AcDbVertex
100
AcDbPolyFaceMeshVertex
 10
0.0
 20
-33.80000019073487
 30
52.0
 70
   192
  0
VERTEX
  5
51F
330
42B
100
AcDbEntity
  8
TLESO1
100
AcDbVertex
100
AcDbPolyFaceMeshVertex
 10
-7.299999997019767
 20
-33.80000019073487
 30
52.0
 70
   192
  0
VERTEX
  5
520
330
42B
100
AcDbEntity
  8
TLESO1
100
AcDbVertex
100
AcDbPolyFaceMeshVertex
 10
-7.299999997019767
 20
-33.90000009536743
 30
51.97320556640625
 70
   192
  0
VERTEX
  5
521
330
42B
100
AcDbEntity
  8
TLESO1
100
AcDbVertex
100
AcDbPolyFaceMeshVertex
 10
-7.299999997019767
 20
-33.97320508956909
 30
51.90000152587891
 70
   192
  0
VERTEX
  5
522
330
42B
100
AcDbEntity
  8
TLESO1
100
AcDbVertex
100
AcDbPolyFaceMeshVertex
 10
-7.299999997019767
 20
-34.0
 30
51.79999923706055
 70
   192
  0
VERTEX
  5
523
330
42B
100
AcDbEntity
  8
TLESO1
100
AcDbVertex
100
AcDbPolyFaceMeshVertex
 10
7.300000190734863
 20
-29.0
 30
51.79999923706055
 70
   192
  0
VERTEX
  5
524
330
42B
100
AcDbEntity
  8
TLESO1
100
AcDbVertex
100
AcDbPolyFaceMeshVertex
 10
7.399999618530273
 20
-29.02679491974414
 30
51.79999923706055
 70
   192
  0
VERTEX
  5
525
330
42B
100
AcDbEntity
  8
TLESO1
100
AcDbVertex
100
AcDbPolyFaceMeshVertex
 10
7.300000190734863
 20
-29.0
 30
46.61999893188476
 70
   192
  0
VERTEX
  5
526
330
42B
100
AcDbEntity
  8
TLESO1
100
AcDbVertex
100
AcDbPolyFaceMeshVertex
 10
7.473204612731933
 20
-29.10000000149011
 30
51.79999923706055
 70
   192
  0
VERTEX
  5
527
330
42B
100
AcDbEntity
  8
TLESO1
100
AcDbVertex
100
AcDbPolyFaceMeshVertex
 10
7.5
 20
-29.20000000298023
 30
51.79999923706055
 70
   192
  0
VERTEX
  5
528
330
42B
100
AcDbEntity
  8
TLESO1
100
AcDbVertex
100
AcDbPolyFaceMeshVertex
 10
7.5
 20
-29.20000000298023
 30
0.2000000029802332
 70
   192
  0
VERTEX
  5
529
330
42B
100
AcDbEntity
  8
TLESO1
100
AcDbVertex
100
AcDbPolyFaceMeshVertex
 10
7.440218925476074
 20
-29.06098781526089
 30
0.0609878152608881
 70
   192
  0
VERTEX
  5
52A
330
42B
100
AcDbEntity
  8
TLESO1
100
AcDbVertex
100
AcDbPolyFaceMeshVertex
 10
7.300000190734863
 20
-29.0
 30
5.179999828338623
 70
   192
  0
VERTEX
  5
52B
330
42B
100
AcDbEntity
  8
TLESO1
100
AcDbVertex
100
AcDbPolyFaceMeshVertex
 10
7.376495361328125
 20
-29.01662043109536
 30
0.0166204310953626
 70
   192
  0
VERTEX
  5
52C
330
42B
100
AcDbEntity
  8
TLESO1
100
AcDbVertex
100
AcDbPolyFaceMeshVertex
 10
7.300000190734863
 20
-29.0
 30
0.0
 70
   192
  0
VERTEX
  5
52D
330
42B
100
AcDbEntity
  8
TLESO1
100
AcDbVertex
100
AcDbPolyFaceMeshVertex
 10
7.300000190734863
 20
-29.0
 30
10.35999965667724
 70
   192
  0
VERTEX
  5
52E
330
42B
100
AcDbEntity
  8
TLESO1
100
AcDbVertex
100
AcDbPolyFaceMeshVertex
 10
7.300000190734863
 20
-29.0
 30
15.53999996185303
 70
   192
  0
VERTEX
  5
52F
330
42B
100
AcDbEntity
  8
TLESO1
100
AcDbVertex
100
AcDbPolyFaceMeshVertex
 10
7.300000190734863
 20
-29.0
 30
20.71999931335449
 70
   192
  0
VERTEX
  5
530
330
42B
100
AcDbEntity
  8
TLESO1
100
AcDbVertex
100
AcDbPolyFaceMeshVertex
 10
7.5
 20
-29.20000000298023
 30
26.0
 70
   192
  0
VERTEX
  5
531
330
42B
100
AcDbEntity
  8
TLESO1
100
AcDbVertex
100
AcDbPolyFaceMeshVertex
 10
7.300000190734863
 20
-29.0
 30
25.89999961853028
 70
   192
  0
VERTEX
  5
532
330
42B
100
AcDbEntity
  8
TLESO1
100
AcDbVertex
100
AcDbPolyFaceMeshVertex
 10
7.300000190734863
 20
-29.0
 30
31.07999992370606
 70
   192
  0
VERTEX
  5
533
330
42B
100
AcDbEntity
  8
TLESO1
100
AcDbVertex
100
AcDbPolyFaceMeshVertex
 10
7.300000190734863
 20
-29.0
 30
36.25999832153321
 70
   192
  0
VERTEX
  5
534
330
42B
100
AcDbEntity
  8
TLESO1
100
AcDbVertex
100
AcDbPolyFaceMeshVertex
 10
7.300000190734863
 20
-29.0
 30
41.43999862670898
 70
   192
  0
VERTEX
  5
535
330
42B
100
AcDbEntity
  8
TLESO1
100
AcDbVertex
100
AcDbPolyFaceMeshVertex
 10
-7.299999997019767
 20
-29.0
 30
0.0000000000000009
 70
   192
  0
VERTEX
  5
536
330
42B
100
AcDbEntity
  8
TLESO1
100
AcDbVertex
100
AcDbPolyFaceMeshVertex
 10
-7.299999997019767
 20
-29.0
 30
5.179999828338623
 70
   192
  0
VERTEX
  5
537
330
42B
100
AcDbEntity
  8
TLESO1
100
AcDbVertex
100
AcDbPolyFaceMeshVertex
 10
-7.0
 20
-29.0
 30
0.5000000000000009
 70
   192
  0
VERTEX
  5
538
330
42B
100
AcDbEntity
  8
TLESO1
100
AcDbVertex
100
AcDbPolyFaceMeshVertex
 10
-7.299999997019767
 20
-29.0
 30
10.35999965667724
 70
   192
  0
VERTEX
  5
539
330
42B
100
AcDbEntity
  8
TLESO1
100
AcDbVertex
100
AcDbPolyFaceMeshVertex
 10
-7.0
 20
-29.0
 30
5.785714149475098
 70
   192
  0
VERTEX
  5
53A
330
42B
100
AcDbEntity
  8
TLESO1
100
AcDbVertex
100
AcDbPolyFaceMeshVertex
 10
-7.299999997019767
 20
-29.0
 30
15.53999996185303
 70
   192
  0
VERTEX
  5
53B
330
42B
100
AcDbEntity
  8
TLESO1
100
AcDbVertex
100
AcDbPolyFaceMeshVertex
 10
-7.0
 20
-29.0
 30
11.07142829895019
 70
   192
  0
VERTEX
  5
53C
330
42B
100
AcDbEntity
  8
TLESO1
100
AcDbVertex
100
AcDbPolyFaceMeshVertex
 10
-7.299999997019767
 20
-29.0
 30
20.71999931335449
 70
   192
  0
VERTEX
  5
53D
330
42B
100
AcDbEntity
  8
TLESO1
100
AcDbVertex
100
AcDbPolyFaceMeshVertex
 10
-7.0
 20
-29.0
 30
16.35714340209961
 70
   192
  0
VERTEX
  5
53E
330
42B
100
AcDbEntity
  8
TLESO1
100
AcDbVertex
100
AcDbPolyFaceMeshVertex
 10
-7.299999997019767
 20
-29.0
 30
25.89999961853028
 70
   192
  0
VERTEX
  5
53F
330
42B
100
AcDbEntity
  8
TLESO1
100
AcDbVertex
100
AcDbPolyFaceMeshVertex
 10
-7.0
 20
-29.0
 30
21.64285659790039
 70
   192
  0
VERTEX
  5
540
330
42B
100
AcDbEntity
  8
TLESO1
100
AcDbVertex
100
AcDbPolyFaceMeshVertex
 10
-7.299999997019767
 20
-29.0
 30
31.07999992370606
 70
   192
  0
VERTEX
  5
541
330
42B
100
AcDbEntity
  8
TLESO1
100
AcDbVertex
100
AcDbPolyFaceMeshVertex
 10
-7.0
 20
-29.0
 30
26.92857170104981
 70
   192
  0
VERTEX
  5
542
330
42B
100
AcDbEntity
  8
TLESO1
100
AcDbVertex
100
AcDbPolyFaceMeshVertex
 10
-7.299999997019767
 20
-29.0
 30
36.25999832153321
 70
   192
  0
VERTEX
  5
543
330
42B
100
AcDbEntity
  8
TLESO1
100
AcDbVertex
100
AcDbPolyFaceMeshVertex
 10
-7.0
 20
-29.0
 30
32.21428680419922
 70
   192
  0
VERTEX
  5
544
330
42B
100
AcDbEntity
  8
TLESO1
100
AcDbVertex
100
AcDbPolyFaceMeshVertex
 10
-7.299999997019767
 20
-29.0
 30
41.43999862670898
 70
   192
  0
VERTEX
  5
545
330
42B
100
AcDbEntity
  8
TLESO1
100
AcDbVertex
100
AcDbPolyFaceMeshVertex
 10
-7.0
 20
-29.0
 30
37.5
 70
   192
  0
VERTEX
  5
546
330
42B
100
AcDbEntity
  8
TLESO1
100
AcDbVertex
100
AcDbPolyFaceMeshVertex
 10
-7.299999997019767
 20
-29.0
 30
46.61999893188476
 70
   192
  0
VERTEX
  5
547
330
42B
100
AcDbEntity
  8
TLESO1
100
AcDbVertex
100
AcDbPolyFaceMeshVertex
 10
-7.299999997019767
 20
-29.0
 30
51.79999923706055
 70
   192
  0
VERTEX
  5
548
330
42B
100
AcDbEntity
  8
TLESO1
100
AcDbVertex
100
AcDbPolyFaceMeshVertex
 10
-2.433333396911621
 20
-29.0
 30
51.79999923706055
 70
   192
  0
VERTEX
  5
549
330
42B
100
AcDbEntity
  8
TLESO1
100
AcDbVertex
100
AcDbPolyFaceMeshVertex
 10
2.433333396911621
 20
-29.0
 30
51.79999923706055
 70
   192
  0
VERTEX
  5
54A
330
42B
100
AcDbEntity
  8
TLESO1
100
AcDbVertex
100
AcDbPolyFaceMeshVertex
 10
-2.333333492279052
 20
-29.0
 30
37.5
 70
   192
  0
VERTEX
  5
54B
330
42B
100
AcDbEntity
  8
TLESO1
100
AcDbVertex
100
AcDbPolyFaceMeshVertex
 10
7.300000190734863
 20
-29.0
 30
51.79999923706055
 70
   192
  0
VERTEX
  5
54C
330
42B
100
AcDbEntity
  8
TLESO1
100
AcDbVertex
100
AcDbPolyFaceMeshVertex
 10
7.300000190734863
 20
-29.0
 30
46.61999893188476
 70
   192
  0
VERTEX
  5
54D
330
42B
100
AcDbEntity
  8
TLESO1
100
AcDbVertex
100
AcDbPolyFaceMeshVertex
 10
7.300000190734863
 20
-29.0
 30
41.43999862670898
 70
   192
  0
VERTEX
  5
54E
330
42B
100
AcDbEntity
  8
TLESO1
100
AcDbVertex
100
AcDbPolyFaceMeshVertex
 10
7.0
 20
-29.0
 30
37.5
 70
   192
  0
VERTEX
  5
54F
330
42B
100
AcDbEntity
  8
TLESO1
100
AcDbVertex
100
AcDbPolyFaceMeshVertex
 10
7.300000190734863
 20
-29.0
 30
36.25999832153321
 70
   192
  0
VERTEX
  5
550
330
42B
100
AcDbEntity
  8
TLESO1
100
AcDbVertex
100
AcDbPolyFaceMeshVertex
 10
7.300000190734863
 20
-29.0
 30
31.07999992370606
 70
   192
  0
VERTEX
  5
551
330
42B
100
AcDbEntity
  8
TLESO1
100
AcDbVertex
100
AcDbPolyFaceMeshVertex
 10
7.0
 20
-29.0
 30
32.21428680419922
 70
   192
  0
VERTEX
  5
552
330
42B
100
AcDbEntity
  8
TLESO1
100
AcDbVertex
100
AcDbPolyFaceMeshVertex
 10
7.300000190734863
 20
-29.0
 30
25.89999961853028
 70
   192
  0
VERTEX
  5
553
330
42B
100
AcDbEntity
  8
TLESO1
100
AcDbVertex
100
AcDbPolyFaceMeshVertex
 10
7.0
 20
-29.0
 30
26.92857170104981
 70
   192
  0
VERTEX
  5
554
330
42B
100
AcDbEntity
  8
TLESO1
100
AcDbVertex
100
AcDbPolyFaceMeshVertex
 10
7.300000190734863
 20
-29.0
 30
20.71999931335449
 70
   192
  0
VERTEX
  5
555
330
42B
100
AcDbEntity
  8
TLESO1
100
AcDbVertex
100
AcDbPolyFaceMeshVertex
 10
7.0
 20
-29.0
 30
21.64285659790039
 70
   192
  0
VERTEX
  5
556
330
42B
100
AcDbEntity
  8
TLESO1
100
AcDbVertex
100
AcDbPolyFaceMeshVertex
 10
7.300000190734863
 20
-29.0
 30
15.53999996185303
 70
   192
  0
VERTEX
  5
557
330
42B
100
AcDbEntity
  8
TLESO1
100
AcDbVertex
100
AcDbPolyFaceMeshVertex
 10
7.0
 20
-29.0
 30
16.35714340209961
 70
   192
  0
VERTEX
  5
558
330
42B
100
AcDbEntity
  8
TLESO1
100
AcDbVertex
100
AcDbPolyFaceMeshVertex
 10
7.300000190734863
 20
-29.0
 30
10.35999965667724
 70
   192
  0
VERTEX
  5
559
330
42B
100
AcDbEntity
  8
TLESO1
100
AcDbVertex
100
AcDbPolyFaceMeshVertex
 10
7.0
 20
-29.0
 30
11.07142829895019
 70
   192
  0
VERTEX
  5
55A
330
42B
100
AcDbEntity
  8
TLESO1
100
AcDbVertex
100
AcDbPolyFaceMeshVertex
 10
7.300000190734863
 20
-29.0
 30
5.179999828338623
 70
   192
  0
VERTEX
  5
55B
330
42B
100
AcDbEntity
  8
TLESO1
100
AcDbVertex
100
AcDbPolyFaceMeshVertex
 10
7.0
 20
-29.0
 30
5.785714149475098
 70
   192
  0
VERTEX
  5
55C
330
42B
100
AcDbEntity
  8
TLESO1
100
AcDbVertex
100
AcDbPolyFaceMeshVertex
 10
7.300000190734863
 20
-29.0
 30
0.0
 70
   192
  0
VERTEX
  5
55D
330
42B
100
AcDbEntity
  8
TLESO1
100
AcDbVertex
100
AcDbPolyFaceMeshVertex
 10
7.0
 20
-29.0
 30
0.5000000000000009
 70
   192
  0
VERTEX
  5
55E
330
42B
100
AcDbEntity
  8
TLESO1
100
AcDbVertex
100
AcDbPolyFaceMeshVertex
 10
-2.333333492279052
 20
-29.0
 30
0.5000000000000009
 70
   192
  0
VERTEX
  5
55F
330
42B
100
AcDbEntity
  8
TLESO1
100
AcDbVertex
100
AcDbPolyFaceMeshVertex
 10
-2.433333396911621
 20
-29.0
 30
0.0000000000000006
 70
   192
  0
VERTEX
  5
560
330
42B
100
AcDbEntity
  8
TLESO1
100
AcDbVertex
100
AcDbPolyFaceMeshVertex
 10
2.333333015441894
 20
-29.0
 30
0.5000000000000009
 70
   192
  0
VERTEX
  5
561
330
42B
100
AcDbEntity
  8
TLESO1
100
AcDbVertex
100
AcDbPolyFaceMeshVertex
 10
2.433333396911621
 20
-29.0
 30
0.0000000000000003
 70
   192
  0
VERTEX
  5
562
330
42B
100
AcDbEntity
  8
TLESO1
100
AcDbVertex
100
AcDbPolyFaceMeshVertex
 10
2.333333015441894
 20
-29.0
 30
37.5
 70
   192
  0
VERTEX
  5
563
330
42B
100
AcDbEntity
  8
TLESO1
100
AcDbVertex
100
AcDbPolyFaceMeshVertex
 10
7.300000190734863
 20
-29.20000000298023
 30
52.0
 70
   192
  0
VERTEX
  5
564
330
42B
100
AcDbEntity
  8
TLESO1
100
AcDbVertex
100
AcDbPolyFaceMeshVertex
 10
0.0
 20
-29.20000000298023
 30
52.0
 70
   192
  0
VERTEX
  5
565
330
42B
100
AcDbEntity
  8
TLESO1
100
AcDbVertex
100
AcDbPolyFaceMeshVertex
 10
7.300000190734863
 20
-31.5
 30
52.0
 70
   192
  0
VERTEX
  5
566
330
42B
100
AcDbEntity
  8
TLESO1
100
AcDbVertex
100
AcDbPolyFaceMeshVertex
 10
-7.299999997019767
 20
-29.20000000298023
 30
52.0
 70
   192
  0
VERTEX
  5
567
330
42B
100
AcDbEntity
  8
TLESO1
100
AcDbVertex
100
AcDbPolyFaceMeshVertex
 10
-7.299999997019767
 20
-31.5
 30
52.0
 70
   192
  0
VERTEX
  5
568
330
42B
100
AcDbEntity
  8
TLESO1
100
AcDbVertex
100
AcDbPolyFaceMeshVertex
 10
-7.299999997019767
 20
-33.80000019073487
 30
52.0
 70
   192
  0
VERTEX
  5
569
330
42B
100
AcDbEntity
  8
TLESO1
100
AcDbVertex
100
AcDbPolyFaceMeshVertex
 10
0.0
 20
-33.80000019073487
 30
52.0
 70
   192
  0
VERTEX
  5
56A
330
42B
100
AcDbEntity
  8
TLESO1
100
AcDbVertex
100
AcDbPolyFaceMeshVertex
 10
7.300000190734863
 20
-33.80000019073487
 30
52.0
 70
   192
  0
VERTEX
  5
56B
330
42B
100
AcDbEntity
  8
TLESO1
100
AcDbVertex
100
AcDbPolyFaceMeshVertex
 10
-7.499999999999973
 20
-33.80000019073487
 30
51.79999923706055
 70
   192
  0
VERTEX
  5
56C
330
42B
100
AcDbEntity
  8
TLESO1
100
AcDbVertex
100
AcDbPolyFaceMeshVertex
 10
-7.499999999999973
 20
-31.5
 30
51.79999923706055
 70
   192
  0
VERTEX
  5
56D
330
42B
100
AcDbEntity
  8
TLESO1
100
AcDbVertex
100
AcDbPolyFaceMeshVertex
 10
-7.499999999999984
 20
-33.80000019073487
 30
26.0
 70
   192
  0
VERTEX
  5
56E
330
42B
100
AcDbEntity
  8
TLESO1
100
AcDbVertex
100
AcDbPolyFaceMeshVertex
 10
-7.499999999999973
 20
-29.20000000298023
 30
51.79999923706055
 70
   192
  0
VERTEX
  5
56F
330
42B
100
AcDbEntity
  8
TLESO1
100
AcDbVertex
100
AcDbPolyFaceMeshVertex
 10
-7.499999999999983
 20
-29.20000000298023
 30
26.0
 70
   192
  0
VERTEX
  5
570
330
42B
100
AcDbEntity
  8
TLESO1
100
AcDbVertex
100
AcDbPolyFaceMeshVertex
 10
-7.499999999999992
 20
-29.20000000298023
 30
0.2000000029802332
 70
   192
  0
VERTEX
  5
571
330
42B
100
AcDbEntity
  8
TLESO1
100
AcDbVertex
100
AcDbPolyFaceMeshVertex
 10
-7.499999999999993
 20
-31.5
 30
0.2000000029802332
 70
   192
  0
VERTEX
  5
572
330
42B
100
AcDbEntity
  8
TLESO1
100
AcDbVertex
100
AcDbPolyFaceMeshVertex
 10
-7.499999999999994
 20
-33.80000019073487
 30
0.2000000029802332
 70
   192
  0
VERTEX
  5
573
330
42B
100
AcDbEntity
  8
TLESO1
100
AcDbVertex
100
AcDbPolyFaceMeshVertex
 10
7.5
 20
-29.20000000298023
 30
51.79999923706055
 70
   192
  0
VERTEX
  5
574
330
42B
100
AcDbEntity
  8
TLESO1
100
AcDbVertex
100
AcDbPolyFaceMeshVertex
 10
7.5
 20
-31.5
 30
51.79999923706055
 70
   192
  0
VERTEX
  5
575
330
42B
100
AcDbEntity
  8
TLESO1
100
AcDbVertex
100
AcDbPolyFaceMeshVertex
 10
7.5
 20
-29.20000000298023
 30
26.0
 70
   192
  0
VERTEX
  5
576
330
42B
100
AcDbEntity
  8
TLESO1
100
AcDbVertex
100
AcDbPolyFaceMeshVertex
 10
7.5
 20
-33.80000019073487
 30
51.79999923706055
 70
   192
  0
VERTEX
  5
577
330
42B
100
AcDbEntity
  8
TLESO1
100
AcDbVertex
100
AcDbPolyFaceMeshVertex
 10
7.5
 20
-33.80000019073487
 30
26.0
 70
   192
  0
VERTEX
  5
578
330
42B
100
AcDbEntity
  8
TLESO1
100
AcDbVertex
100
AcDbPolyFaceMeshVertex
 10
7.5
 20
-33.80000019073487
 30
0.2000000029802332
 70
   192
  0
VERTEX
  5
579
330
42B
100
AcDbEntity
  8
TLESO1
100
AcDbVertex
100
AcDbPolyFaceMeshVertex
 10
7.5
 20
-31.5
 30
0.2000000029802332
 70
   192
  0
VERTEX
  5
57A
330
42B
100
AcDbEntity
  8
TLESO1
100
AcDbVertex
100
AcDbPolyFaceMeshVertex
 10
7.5
 20
-29.20000000298023
 30
0.2000000029802332
 70
   192
  0
VERTEX
  5
57B
330
42B
100
AcDbEntity
  8
TLESO1
100
AcDbVertex
100
AcDbPolyFaceMeshVertex
 10
7.300000190734863
 20
-34.0
 30
0.2000000029802332
 70
   192
  0
VERTEX
  5
57C
330
42B
100
AcDbEntity
  8
TLESO1
100
AcDbVertex
100
AcDbPolyFaceMeshVertex
 10
7.300000190734863
 20
-34.0
 30
26.0
 70
   192
  0
VERTEX
  5
57D
330
42B
100
AcDbEntity
  8
TLESO1
100
AcDbVertex
100
AcDbPolyFaceMeshVertex
 10
0.0
 20
-34.0
 30
0.2000000029802332
 70
   192
  0
VERTEX
  5
57E
330
42B
100
AcDbEntity
  8
TLESO1
100
AcDbVertex
100
AcDbPolyFaceMeshVertex
 10
-7.299999997019767
 20
-34.0
 30
26.0
 70
   192
  0
VERTEX
  5
57F
330
42B
100
AcDbEntity
  8
TLESO1
100
AcDbVertex
100
AcDbPolyFaceMeshVertex
 10
-7.299999997019767
 20
-34.0
 30
0.2000000029802332
 70
   192
  0
VERTEX
  5
580
330
42B
100
AcDbEntity
  8
TLESO1
100
AcDbVertex
100
AcDbPolyFaceMeshVertex
 10
7.300000190734863
 20
-34.0
 30
51.79999923706055
 70
   192
  0
VERTEX
  5
581
330
42B
100
AcDbEntity
  8
TLESO1
100
AcDbVertex
100
AcDbPolyFaceMeshVertex
 10
0.0
 20
-34.0
 30
51.79999923706055
 70
   192
  0
VERTEX
  5
582
330
42B
100
AcDbEntity
  8
TLESO1
100
AcDbVertex
100
AcDbPolyFaceMeshVertex
 10
-7.299999997019767
 20
-34.0
 30
51.79999923706055
 70
   192
  0
VERTEX
  5
583
330
42B
100
AcDbEntity
  8
TLESO1
100
AcDbVertex
100
AcDbPolyFaceMeshVertex
 10
-7.299999997019767
 20
0.0
 30
0.0000000000000009
 70
   192
  0
VERTEX
  5
584
330
42B
100
AcDbEntity
  8
TLESO1
100
AcDbVertex
100
AcDbPolyFaceMeshVertex
 10
-7.299999997019767
 20
-14.44999980926513
 30
0.0000000000000009
 70
   192
  0
VERTEX
  5
585
330
42B
100
AcDbEntity
  8
TLESO1
100
AcDbVertex
100
AcDbPolyFaceMeshVertex
 10
-7.44142135605216
 20
0.0
 30
0.0585786439478407
 70
   192
  0
VERTEX
  5
586
330
42B
100
AcDbEntity
  8
TLESO1
100
AcDbVertex
100
AcDbPolyFaceMeshVertex
 10
-7.299999997019767
 20
-28.89999999850989
 30
0.0000000000000009
 70
   192
  0
VERTEX
  5
587
330
42B
100
AcDbEntity
  8
TLESO1
100
AcDbVertex
100
AcDbPolyFaceMeshVertex
 10
-7.44142135605216
 20
-28.89999999850989
 30
0.0585786439478407
 70
   192
  0
VERTEX
  5
588
330
42B
100
AcDbEntity
  8
TLESO1
100
AcDbVertex
100
AcDbPolyFaceMeshVertex
 10
-7.499999999999992
 20
-28.89999999850989
 30
0.2000000029802332
 70
   192
  0
VERTEX
  5
589
330
42B
100
AcDbEntity
  8
TLESO1
100
AcDbVertex
100
AcDbPolyFaceMeshVertex
 10
-7.499999999999992
 20
-14.44999980926513
 30
0.2000000029802332
 70
   192
  0
VERTEX
  5
58A
330
42B
100
AcDbEntity
  8
TLESO1
100
AcDbVertex
100
AcDbPolyFaceMeshVertex
 10
-7.499999999999992
 20
0.0
 30
0.2000000029802332
 70
   192
  0
VERTEX
  5
58B
330
42B
100
AcDbEntity
  8
TLESO1
100
AcDbVertex
100
AcDbPolyFaceMeshVertex
 10
-7.499999999999992
 20
-28.89999999850989
 30
0.2000000029802332
 70
   192
  0
VERTEX
  5
58C
330
42B
100
AcDbEntity
  8
TLESO1
100
AcDbVertex
100
AcDbPolyFaceMeshVertex
 10
-7.499999999999991
 20
-28.89999999850989
 30
3.960000038146973
 70
   192
  0
VERTEX
  5
58D
330
42B
100
AcDbEntity
  8
TLESO1
100
AcDbVertex
100
AcDbPolyFaceMeshVertex
 10
-7.499999999999992
 20
-14.44999980926513
 30
0.2000000029802332
 70
   192
  0
VERTEX
  5
58E
330
42B
100
AcDbEntity
  8
TLESO1
100
AcDbVertex
100
AcDbPolyFaceMeshVertex
 10
-7.49999999999999
 20
-28.89999999850989
 30
7.719999790191651
 70
   192
  0
VERTEX
  5
58F
330
42B
100
AcDbEntity
  8
TLESO1
100
AcDbVertex
100
AcDbPolyFaceMeshVertex
 10
-7.499999999999989
 20
-28.89999999850989
 30
11.47999954223632
 70
   192
  0
VERTEX
  5
590
330
42B
100
AcDbEntity
  8
TLESO1
100
AcDbVertex
100
AcDbPolyFaceMeshVertex
 10
-7.499999999999987
 20
-28.89999999850989
 30
15.23999977111816
 70
   192
  0
VERTEX
  5
591
330
42B
100
AcDbEntity
  8
TLESO1
100
AcDbVertex
100
AcDbPolyFaceMeshVertex
 10
-7.499999999999986
 20
-28.89999999850989
 30
19.0
 70
   192
  0
VERTEX
  5
592
330
42B
100
AcDbEntity
  8
TLESO1
100
AcDbVertex
100
AcDbPolyFaceMeshVertex
 10
-7.499999999999986
 20
0.0
 30
19.0
 70
   192
  0
VERTEX
  5
593
330
42B
100
AcDbEntity
  8
TLESO1
100
AcDbVertex
100
AcDbPolyFaceMeshVertex
 10
-7.499999999999985
 20
-28.89999999850989
 30
22.76000022888184
 70
   192
  0
VERTEX
  5
594
330
42B
100
AcDbEntity
  8
TLESO1
100
AcDbVertex
100
AcDbPolyFaceMeshVertex
 10
-7.499999999999985
 20
0.0
 30
22.76000022888184
 70
   192
  0
VERTEX
  5
595
330
42B
100
AcDbEntity
  8
TLESO1
100
AcDbVertex
100
AcDbPolyFaceMeshVertex
 10
-7.499999999999984
 20
-28.89999999850989
 30
26.52000045776367
 70
   192
  0
VERTEX
  5
596
330
42B
100
AcDbEntity
  8
TLESO1
100
AcDbVertex
100
AcDbPolyFaceMeshVertex
 10
-7.49999999999998
 20
-14.44999980926513
 30
37.79999923706055
 70
   192
  0
VERTEX
  5
597
330
42B
100
AcDbEntity
  8
TLESO1
100
AcDbVertex
100
AcDbPolyFaceMeshVertex
 10
-7.499999999999983
 20
-28.89999999850989
 30
30.28000068664551
 70
   192
  0
VERTEX
  5
598
330
42B
100
AcDbEntity
  8
TLESO1
100
AcDbVertex
100
AcDbPolyFaceMeshVertex
 10
-7.499999999999981
 20
-28.89999999850989
 30
34.04000091552735
 70
   192
  0
VERTEX
  5
599
330
42B
100
AcDbEntity
  8
TLESO1
100
AcDbVertex
100
AcDbPolyFaceMeshVertex
 10
-7.49999999999998
 20
-28.89999999850989
 30
37.79999923706055
 70
   192
  0
VERTEX
  5
59A
330
42B
100
AcDbEntity
  8
TLESO1
100
AcDbVertex
100
AcDbPolyFaceMeshVertex
 10
-7.499999999999992
 20
0.0
 30
0.2000000029802332
 70
   192
  0
VERTEX
  5
59B
330
42B
100
AcDbEntity
  8
TLESO1
100
AcDbVertex
100
AcDbPolyFaceMeshVertex
 10
-7.499999999999992
 20
0.0
 30
3.960000038146973
 70
   192
  0
VERTEX
  5
59C
330
42B
100
AcDbEntity
  8
TLESO1
100
AcDbVertex
100
AcDbPolyFaceMeshVertex
 10
-7.49999999999998
 20
0.0
 30
37.79999923706055
 70
   192
  0
VERTEX
  5
59D
330
42B
100
AcDbEntity
  8
TLESO1
100
AcDbVertex
100
AcDbPolyFaceMeshVertex
 10
-7.499999999999982
 20
0.0
 30
34.04000091552735
 70
   192
  0
VERTEX
  5
59E
330
42B
100
AcDbEntity
  8
TLESO1
100
AcDbVertex
100
AcDbPolyFaceMeshVertex
 10
-7.499999999999983
 20
0.0
 30
30.28000068664551
 70
   192
  0
VERTEX
  5
59F
330
42B
100
AcDbEntity
  8
TLESO1
100
AcDbVertex
100
AcDbPolyFaceMeshVertex
 10
-7.499999999999984
 20
0.0
 30
26.52000045776367
 70
   192
  0
VERTEX
  5
5A0
330
42B
100
AcDbEntity
  8
TLESO1
100
AcDbVertex
100
AcDbPolyFaceMeshVertex
 10
-7.499999999999988
 20
0.0
 30
15.23999977111816
 70
   192
  0
VERTEX
  5
5A1
330
42B
100
AcDbEntity
  8
TLESO1
100
AcDbVertex
100
AcDbPolyFaceMeshVertex
 10
-7.499999999999989
 20
0.0
 30
11.47999954223632
 70
   192
  0
VERTEX
  5
5A2
330
42B
100
AcDbEntity
  8
TLESO1
100
AcDbVertex
100
AcDbPolyFaceMeshVertex
 10
-7.49999999999999
 20
0.0
 30
7.719999790191651
 70
   192
  0
VERTEX
  5
5A3
330
42B
100
AcDbEntity
  8
TLESO1
100
AcDbVertex
100
AcDbPolyFaceMeshVertex
 10
-7.49999999999998
 20
-28.89999999850989
 30
37.79999923706055
 70
   192
  0
VERTEX
  5
5A4
330
42B
100
AcDbEntity
  8
TLESO1
100
AcDbVertex
100
AcDbPolyFaceMeshVertex
 10
-7.44142135605216
 20
-28.89999999850989
 30
37.94142150878907
 70
   192
  0
VERTEX
  5
5A5
330
42B
100
AcDbEntity
  8
TLESO1
100
AcDbVertex
100
AcDbPolyFaceMeshVertex
 10
-7.49999999999998
 20
-14.44999980926513
 30
37.79999923706055
 70
   192
  0
VERTEX
  5
5A6
330
42B
100
AcDbEntity
  8
TLESO1
100
AcDbVertex
100
AcDbPolyFaceMeshVertex
 10
-7.299999997019767
 20
-28.89999999850989
 30
38.0
 70
   192
  0
VERTEX
  5
5A7
330
42B
100
AcDbEntity
  8
TLESO1
100
AcDbVertex
100
AcDbPolyFaceMeshVertex
 10
-7.299999997019767
 20
-14.44999980926513
 30
38.0
 70
   192
  0
VERTEX
  5
5A8
330
42B
100
AcDbEntity
  8
TLESO1
100
AcDbVertex
100
AcDbPolyFaceMeshVertex
 10
-7.49999999999998
 20
0.0
 30
37.79999923706055
 70
   192
  0
VERTEX
  5
5A9
330
42B
100
AcDbEntity
  8
TLESO1
100
AcDbVertex
100
AcDbPolyFaceMeshVertex
 10
-7.44142135605216
 20
0.0
 30
37.94142150878907
 70
   192
  0
VERTEX
  5
5AA
330
42B
100
AcDbEntity
  8
TLESO1
100
AcDbVertex
100
AcDbPolyFaceMeshVertex
 10
-7.299999997019767
 20
0.0
 30
38.0
 70
   192
  0
VERTEX
  5
5AB
330
42B
100
AcDbEntity
  8
TLESO1
100
AcDbVertex
100
AcDbPolyFaceMeshVertex
 10
-7.299999997019767
 20
-28.89999999850989
 30
38.0
 70
   192
  0
VERTEX
  5
5AC
330
42B
100
AcDbEntity
  8
TLESO1
100
AcDbVertex
100
AcDbPolyFaceMeshVertex
 10
-3.650000095367431
 20
-28.89999999850989
 30
38.0
 70
   192
  0
VERTEX
  5
5AD
330
42B
100
AcDbEntity
  8
TLESO1
100
AcDbVertex
100
AcDbPolyFaceMeshVertex
 10
-7.299999997019767
 20
-14.44999980926513
 30
38.0
 70
   192
  0
VERTEX
  5
5AE
330
42B
100
AcDbEntity
  8
TLESO1
100
AcDbVertex
100
AcDbPolyFaceMeshVertex
 10
0.0
 20
-28.89999999850989
 30
38.0
 70
   192
  0
VERTEX
  5
5AF
330
42B
100
AcDbEntity
  8
TLESO1
100
AcDbVertex
100
AcDbPolyFaceMeshVertex
 10
3.649999618530273
 20
-28.89999999850989
 30
38.0
 70
   192
  0
VERTEX
  5
5B0
330
42B
100
AcDbEntity
  8
TLESO1
100
AcDbVertex
100
AcDbPolyFaceMeshVertex
 10
7.300000190734863
 20
-14.44999980926513
 30
38.0
 70
   192
  0
VERTEX
  5
5B1
330
42B
100
AcDbEntity
  8
TLESO1
100
AcDbVertex
100
AcDbPolyFaceMeshVertex
 10
7.300000190734863
 20
-28.89999999850989
 30
38.0
 70
   192
  0
VERTEX
  5
5B2
330
42B
100
AcDbEntity
  8
TLESO1
100
AcDbVertex
100
AcDbPolyFaceMeshVertex
 10
-7.299999997019767
 20
0.0
 30
38.0
 70
   192
  0
VERTEX
  5
5B3
330
42B
100
AcDbEntity
  8
TLESO1
100
AcDbVertex
100
AcDbPolyFaceMeshVertex
 10
-3.650000095367431
 20
0.0
 30
38.0
 70
   192
  0
VERTEX
  5
5B4
330
42B
100
AcDbEntity
  8
TLESO1
100
AcDbVertex
100
AcDbPolyFaceMeshVertex
 10
7.300000190734863
 20
0.0
 30
38.0
 70
   192
  0
VERTEX
  5
5B5
330
42B
100
AcDbEntity
  8
TLESO1
100
AcDbVertex
100
AcDbPolyFaceMeshVertex
 10
3.649999618530273
 20
0.0
 30
38.0
 70
   192
  0
VERTEX
  5
5B6
330
42B
100
AcDbEntity
  8
TLESO1
100
AcDbVertex
100
AcDbPolyFaceMeshVertex
 10
0.0
 20
0.0
 30
38.0
 70
   192
  0
VERTEX
  5
5B7
330
42B
100
AcDbEntity
  8
TLESO1
100
AcDbVertex
100
AcDbPolyFaceMeshVertex
 10
7.300000190734863
 20
-28.89999999850989
 30
38.0
 70
   192
  0
VERTEX
  5
5B8
330
42B
100
AcDbEntity
  8
TLESO1
100
AcDbVertex
100
AcDbPolyFaceMeshVertex
 10
7.441421508789062
 20
-28.89999999850989
 30
37.94142150878907
 70
   192
  0
VERTEX
  5
5B9
330
42B
100
AcDbEntity
  8
TLESO1
100
AcDbVertex
100
AcDbPolyFaceMeshVertex
 10
7.300000190734863
 20
-14.44999980926513
 30
38.0
 70
   192
  0
VERTEX
  5
5BA
330
42B
100
AcDbEntity
  8
TLESO1
100
AcDbVertex
100
AcDbPolyFaceMeshVertex
 10
7.5
 20
-28.89999999850989
 30
37.79999923706055
 70
   192
  0
VERTEX
  5
5BB
330
42B
100
AcDbEntity
  8
TLESO1
100
AcDbVertex
100
AcDbPolyFaceMeshVertex
 10
7.5
 20
-14.44999980926513
 30
37.79999923706055
 70
   192
  0
VERTEX
  5
5BC
330
42B
100
AcDbEntity
  8
TLESO1
100
AcDbVertex
100
AcDbPolyFaceMeshVertex
 10
7.300000190734863
 20
0.0
 30
38.0
 70
   192
  0
VERTEX
  5
5BD
330
42B
100
AcDbEntity
  8
TLESO1
100
AcDbVertex
100
AcDbPolyFaceMeshVertex
 10
7.441421508789062
 20
0.0
 30
37.94142150878907
 70
   192
  0
VERTEX
  5
5BE
330
42B
100
AcDbEntity
  8
TLESO1
100
AcDbVertex
100
AcDbPolyFaceMeshVertex
 10
7.5
 20
0.0
 30
37.79999923706055
 70
   192
  0
VERTEX
  5
5BF
330
42B
100
AcDbEntity
  8
TLESO1
100
AcDbVertex
100
AcDbPolyFaceMeshVertex
 10
7.5
 20
-28.89999999850989
 30
0.2000000029802332
 70
   192
  0
VERTEX
  5
5C0
330
42B
100
AcDbEntity
  8
TLESO1
100
AcDbVertex
100
AcDbPolyFaceMeshVertex
 10
7.5
 20
-14.44999980926513
 30
0.2000000029802332
 70
   192
  0
VERTEX
  5
5C1
330
42B
100
AcDbEntity
  8
TLESO1
100
AcDbVertex
100
AcDbPolyFaceMeshVertex
 10
7.5
 20
-28.89999999850989
 30
3.960000038146973
 70
   192
  0
VERTEX
  5
5C2
330
42B
100
AcDbEntity
  8
TLESO1
100
AcDbVertex
100
AcDbPolyFaceMeshVertex
 10
7.5
 20
0.0
 30
0.2000000029802332
 70
   192
  0
VERTEX
  5
5C3
330
42B
100
AcDbEntity
  8
TLESO1
100
AcDbVertex
100
AcDbPolyFaceMeshVertex
 10
7.5
 20
0.0
 30
3.960000038146973
 70
   192
  0
VERTEX
  5
5C4
330
42B
100
AcDbEntity
  8
TLESO1
100
AcDbVertex
100
AcDbPolyFaceMeshVertex
 10
7.5
 20
-28.89999999850989
 30
37.79999923706055
 70
   192
  0
VERTEX
  5
5C5
330
42B
100
AcDbEntity
  8
TLESO1
100
AcDbVertex
100
AcDbPolyFaceMeshVertex
 10
7.5
 20
-28.89999999850989
 30
34.04000091552735
 70
   192
  0
VERTEX
  5
5C6
330
42B
100
AcDbEntity
  8
TLESO1
100
AcDbVertex
100
AcDbPolyFaceMeshVertex
 10
7.5
 20
-14.44999980926513
 30
37.79999923706055
 70
   192
  0
VERTEX
  5
5C7
330
42B
100
AcDbEntity
  8
TLESO1
100
AcDbVertex
100
AcDbPolyFaceMeshVertex
 10
7.5
 20
-28.89999999850989
 30
30.28000068664551
 70
   192
  0
VERTEX
  5
5C8
330
42B
100
AcDbEntity
  8
TLESO1
100
AcDbVertex
100
AcDbPolyFaceMeshVertex
 10
7.5
 20
-28.89999999850989
 30
26.52000045776367
 70
   192
  0
VERTEX
  5
5C9
330
42B
100
AcDbEntity
  8
TLESO1
100
AcDbVertex
100
AcDbPolyFaceMeshVertex
 10
7.5
 20
-28.89999999850989
 30
22.76000022888184
 70
   192
  0
VERTEX
  5
5CA
330
42B
100
AcDbEntity
  8
TLESO1
100
AcDbVertex
100
AcDbPolyFaceMeshVertex
 10
7.5
 20
-28.89999999850989
 30
19.0
 70
   192
  0
VERTEX
  5
5CB
330
42B
100
AcDbEntity
  8
TLESO1
100
AcDbVertex
100
AcDbPolyFaceMeshVertex
 10
7.5
 20
0.0
 30
19.0
 70
   192
  0
VERTEX
  5
5CC
330
42B
100
AcDbEntity
  8
TLESO1
100
AcDbVertex
100
AcDbPolyFaceMeshVertex
 10
7.5
 20
-28.89999999850989
 30
15.23999977111816
 70
   192
  0
VERTEX
  5
5CD
330
42B
100
AcDbEntity
  8
TLESO1
100
AcDbVertex
100
AcDbPolyFaceMeshVertex
 10
7.5
 20
0.0
 30
15.23999977111816
 70
   192
  0
VERTEX
  5
5CE
330
42B
100
AcDbEntity
  8
TLESO1
100
AcDbVertex
100
AcDbPolyFaceMeshVertex
 10
7.5
 20
-28.89999999850989
 30
11.47999954223632
 70
   192
  0
VERTEX
  5
5CF
330
42B
100
AcDbEntity
  8
TLESO1
100
AcDbVertex
100
AcDbPolyFaceMeshVertex
 10
7.5
 20
-28.89999999850989
 30
7.719999790191651
 70
   192
  0
VERTEX
  5
5D0
330
42B
100
AcDbEntity
  8
TLESO1
100
AcDbVertex
100
AcDbPolyFaceMeshVertex
 10
7.5
 20
0.0
 30
37.79999923706055
 70
   192
  0
VERTEX
  5
5D1
330
42B
100
AcDbEntity
  8
TLESO1
100
AcDbVertex
100
AcDbPolyFaceMeshVertex
 10
7.5
 20
0.0
 30
34.04000091552735
 70
   192
  0
VERTEX
  5
5D2
330
42B
100
AcDbEntity
  8
TLESO1
100
AcDbVertex
100
AcDbPolyFaceMeshVertex
 10
7.5
 20
0.0
 30
7.719999790191651
 70
   192
  0
VERTEX
  5
5D3
330
42B
100
AcDbEntity
  8
TLESO1
100
AcDbVertex
100
AcDbPolyFaceMeshVertex
 10
7.5
 20
0.0
 30
11.47999954223632
 70
   192
  0
VERTEX
  5
5D4
330
42B
100
AcDbEntity
  8
TLESO1
100
AcDbVertex
100
AcDbPolyFaceMeshVertex
 10
7.5
 20
0.0
 30
22.76000022888184
 70
   192
  0
VERTEX
  5
5D5
330
42B
100
AcDbEntity
  8
TLESO1
100
AcDbVertex
100
AcDbPolyFaceMeshVertex
 10
7.5
 20
0.0
 30
26.52000045776367
 70
   192
  0
VERTEX
  5
5D6
330
42B
100
AcDbEntity
  8
TLESO1
100
AcDbVertex
100
AcDbPolyFaceMeshVertex
 10
7.5
 20
0.0
 30
30.28000068664551
 70
   192
  0
VERTEX
  5
5D7
330
42B
100
AcDbEntity
  8
TLESO1
100
AcDbVertex
100
AcDbPolyFaceMeshVertex
 10
-7.0
 20
-28.89999999850989
 30
37.5
 70
   192
  0
VERTEX
  5
5D8
330
42B
100
AcDbEntity
  8
TLESO1
100
AcDbVertex
100
AcDbPolyFaceMeshVertex
 10
-7.0
 20
-28.89999999850989
 30
33.79999923706055
 70
   192
  0
VERTEX
  5
5D9
330
42B
100
AcDbEntity
  8
TLESO1
100
AcDbVertex
100
AcDbPolyFaceMeshVertex
 10
-7.0
 20
-29.0
 30
37.5
 70
   192
  0
VERTEX
  5
5DA
330
42B
100
AcDbEntity
  8
TLESO1
100
AcDbVertex
100
AcDbPolyFaceMeshVertex
 10
-7.0
 20
-28.89999999850989
 30
30.10000038146973
 70
   192
  0
VERTEX
  5
5DB
330
42B
100
AcDbEntity
  8
TLESO1
100
AcDbVertex
100
AcDbPolyFaceMeshVertex
 10
-7.0
 20
-29.0
 30
32.21428680419922
 70
   192
  0
VERTEX
  5
5DC
330
42B
100
AcDbEntity
  8
TLESO1
100
AcDbVertex
100
AcDbPolyFaceMeshVertex
 10
-7.0
 20
-28.89999999850989
 30
26.39999961853027
 70
   192
  0
VERTEX
  5
5DD
330
42B
100
AcDbEntity
  8
TLESO1
100
AcDbVertex
100
AcDbPolyFaceMeshVertex
 10
-7.0
 20
-29.0
 30
26.92857170104981
 70
   192
  0
VERTEX
  5
5DE
330
42B
100
AcDbEntity
  8
TLESO1
100
AcDbVertex
100
AcDbPolyFaceMeshVertex
 10
-7.0
 20
-28.89999999850989
 30
22.70000076293945
 70
   192
  0
VERTEX
  5
5DF
330
42B
100
AcDbEntity
  8
TLESO1
100
AcDbVertex
100
AcDbPolyFaceMeshVertex
 10
-7.0
 20
-28.89999999850989
 30
19.0
 70
   192
  0
VERTEX
  5
5E0
330
42B
100
AcDbEntity
  8
TLESO1
100
AcDbVertex
100
AcDbPolyFaceMeshVertex
 10
-7.0
 20
-29.0
 30
21.64285659790039
 70
   192
  0
VERTEX
  5
5E1
330
42B
100
AcDbEntity
  8
TLESO1
100
AcDbVertex
100
AcDbPolyFaceMeshVertex
 10
-7.0
 20
-28.89999999850989
 30
15.30000019073486
 70
   192
  0
VERTEX
  5
5E2
330
42B
100
AcDbEntity
  8
TLESO1
100
AcDbVertex
100
AcDbPolyFaceMeshVertex
 10
-7.0
 20
-29.0
 30
16.35714340209961
 70
   192
  0
VERTEX
  5
5E3
330
42B
100
AcDbEntity
  8
TLESO1
100
AcDbVertex
100
AcDbPolyFaceMeshVertex
 10
-7.0
 20
-28.89999999850989
 30
11.60000038146972
 70
   192
  0
VERTEX
  5
5E4
330
42B
100
AcDbEntity
  8
TLESO1
100
AcDbVertex
100
AcDbPolyFaceMeshVertex
 10
-7.0
 20
-29.0
 30
11.07142829895019
 70
   192
  0
VERTEX
  5
5E5
330
42B
100
AcDbEntity
  8
TLESO1
100
AcDbVertex
100
AcDbPolyFaceMeshVertex
 10
-7.0
 20
-28.89999999850989
 30
7.900000095367432
 70
   192
  0
VERTEX
  5
5E6
330
42B
100
AcDbEntity
  8
TLESO1
100
AcDbVertex
100
AcDbPolyFaceMeshVertex
 10
-7.0
 20
-28.89999999850989
 30
4.199999809265137
 70
   192
  0
VERTEX
  5
5E7
330
42B
100
AcDbEntity
  8
TLESO1
100
AcDbVertex
100
AcDbPolyFaceMeshVertex
 10
-7.0
 20
-29.0
 30
5.785714149475098
 70
   192
  0
VERTEX
  5
5E8
330
42B
100
AcDbEntity
  8
TLESO1
100
AcDbVertex
100
AcDbPolyFaceMeshVertex
 10
-7.0
 20
-28.89999999850989
 30
0.5000000000000009
 70
   192
  0
VERTEX
  5
5E9
330
42B
100
AcDbEntity
  8
TLESO1
100
AcDbVertex
100
AcDbPolyFaceMeshVertex
 10
-7.0
 20
-29.0
 30
0.5000000000000009
 70
   192
  0
VERTEX
  5
5EA
330
42B
100
AcDbEntity
  8
TLESO1
100
AcDbVertex
100
AcDbPolyFaceMeshVertex
 10
-7.0
 20
-28.89999999850989
 30
0.5000000000000009
 70
   192
  0
VERTEX
  5
5EB
330
42B
100
AcDbEntity
  8
TLESO1
100
AcDbVertex
100
AcDbPolyFaceMeshVertex
 10
-3.5
 20
-28.89999999850989
 30
0.5000000000000009
 70
   192
  0
VERTEX
  5
5EC
330
42B
100
AcDbEntity
  8
TLESO1
100
AcDbVertex
100
AcDbPolyFaceMeshVertex
 10
-7.0
 20
-29.0
 30
0.5000000000000009
 70
   192
  0
VERTEX
  5
5ED
330
42B
100
AcDbEntity
  8
TLESO1
100
AcDbVertex
100
AcDbPolyFaceMeshVertex
 10
0.0
 20
-28.89999999850989
 30
0.5000000000000009
 70
   192
  0
VERTEX
  5
5EE
330
42B
100
AcDbEntity
  8
TLESO1
100
AcDbVertex
100
AcDbPolyFaceMeshVertex
 10
-2.333333492279052
 20
-29.0
 30
0.5000000000000009
 70
   192
  0
VERTEX
  5
5EF
330
42B
100
AcDbEntity
  8
TLESO1
100
AcDbVertex
100
AcDbPolyFaceMeshVertex
 10
3.5
 20
-28.89999999850989
 30
0.5000000000000009
 70
   192
  0
VERTEX
  5
5F0
330
42B
100
AcDbEntity
  8
TLESO1
100
AcDbVertex
100
AcDbPolyFaceMeshVertex
 10
2.333333015441894
 20
-29.0
 30
0.5000000000000009
 70
   192
  0
VERTEX
  5
5F1
330
42B
100
AcDbEntity
  8
TLESO1
100
AcDbVertex
100
AcDbPolyFaceMeshVertex
 10
7.0
 20
-28.89999999850989
 30
0.5000000000000009
 70
   192
  0
VERTEX
  5
5F2
330
42B
100
AcDbEntity
  8
TLESO1
100
AcDbVertex
100
AcDbPolyFaceMeshVertex
 10
7.0
 20
-29.0
 30
0.5000000000000009
 70
   192
  0
VERTEX
  5
5F3
330
42B
100
AcDbEntity
  8
TLESO1
100
AcDbVertex
100
AcDbPolyFaceMeshVertex
 10
7.0
 20
-28.89999999850989
 30
0.5000000000000009
 70
   192
  0
VERTEX
  5
5F4
330
42B
100
AcDbEntity
  8
TLESO1
100
AcDbVertex
100
AcDbPolyFaceMeshVertex
 10
7.0
 20
-28.89999999850989
 30
4.199999809265137
 70
   192
  0
VERTEX
  5
5F5
330
42B
100
AcDbEntity
  8
TLESO1
100
AcDbVertex
100
AcDbPolyFaceMeshVertex
 10
7.0
 20
-29.0
 30
0.5000000000000009
 70
   192
  0
VERTEX
  5
5F6
330
42B
100
AcDbEntity
  8
TLESO1
100
AcDbVertex
100
AcDbPolyFaceMeshVertex
 10
7.0
 20
-28.89999999850989
 30
7.900000095367432
 70
   192
  0
VERTEX
  5
5F7
330
42B
100
AcDbEntity
  8
TLESO1
100
AcDbVertex
100
AcDbPolyFaceMeshVertex
 10
7.0
 20
-29.0
 30
5.785714149475098
 70
   192
  0
VERTEX
  5
5F8
330
42B
100
AcDbEntity
  8
TLESO1
100
AcDbVertex
100
AcDbPolyFaceMeshVertex
 10
7.0
 20
-28.89999999850989
 30
11.60000038146972
 70
   192
  0
VERTEX
  5
5F9
330
42B
100
AcDbEntity
  8
TLESO1
100
AcDbVertex
100
AcDbPolyFaceMeshVertex
 10
7.0
 20
-29.0
 30
11.07142829895019
 70
   192
  0
VERTEX
  5
5FA
330
42B
100
AcDbEntity
  8
TLESO1
100
AcDbVertex
100
AcDbPolyFaceMeshVertex
 10
7.0
 20
-28.89999999850989
 30
15.30000019073486
 70
   192
  0
VERTEX
  5
5FB
330
42B
100
AcDbEntity
  8
TLESO1
100
AcDbVertex
100
AcDbPolyFaceMeshVertex
 10
7.0
 20
-28.89999999850989
 30
19.0
 70
   192
  0
VERTEX
  5
5FC
330
42B
100
AcDbEntity
  8
TLESO1
100
AcDbVertex
100
AcDbPolyFaceMeshVertex
 10
7.0
 20
-29.0
 30
16.35714340209961
 70
   192
  0
VERTEX
  5
5FD
330
42B
100
AcDbEntity
  8
TLESO1
100
AcDbVertex
100
AcDbPolyFaceMeshVertex
 10
7.0
 20
-28.89999999850989
 30
22.70000076293945
 70
   192
  0
VERTEX
  5
5FE
330
42B
100
AcDbEntity
  8
TLESO1
100
AcDbVertex
100
AcDbPolyFaceMeshVertex
 10
7.0
 20
-29.0
 30
21.64285659790039
 70
   192
  0
VERTEX
  5
5FF
330
42B
100
AcDbEntity
  8
TLESO1
100
AcDbVertex
100
AcDbPolyFaceMeshVertex
 10
7.0
 20
-28.89999999850989
 30
26.39999961853027
 70
   192
  0
VERTEX
  5
600
330
42B
100
AcDbEntity
  8
TLESO1
100
AcDbVertex
100
AcDbPolyFaceMeshVertex
 10
7.0
 20
-29.0
 30
26.92857170104981
 70
   192
  0
VERTEX
  5
601
330
42B
100
AcDbEntity
  8
TLESO1
100
AcDbVertex
100
AcDbPolyFaceMeshVertex
 10
7.0
 20
-28.89999999850989
 30
30.10000038146973
 70
   192
  0
VERTEX
  5
602
330
42B
100
AcDbEntity
  8
TLESO1
100
AcDbVertex
100
AcDbPolyFaceMeshVertex
 10
7.0
 20
-28.89999999850989
 30
33.79999923706055
 70
   192
  0
VERTEX
  5
603
330
42B
100
AcDbEntity
  8
TLESO1
100
AcDbVertex
100
AcDbPolyFaceMeshVertex
 10
7.0
 20
-29.0
 30
32.21428680419922
 70
   192
  0
VERTEX
  5
604
330
42B
100
AcDbEntity
  8
TLESO1
100
AcDbVertex
100
AcDbPolyFaceMeshVertex
 10
7.0
 20
-28.89999999850989
 30
37.5
 70
   192
  0
VERTEX
  5
605
330
42B
100
AcDbEntity
  8
TLESO1
100
AcDbVertex
100
AcDbPolyFaceMeshVertex
 10
7.0
 20
-29.0
 30
37.5
 70
   192
  0
VERTEX
  5
606
330
42B
100
AcDbEntity
  8
TLESO1
100
AcDbVertex
100
AcDbPolyFaceMeshVertex
 10
7.0
 20
-28.89999999850989
 30
37.5
 70
   192
  0
VERTEX
  5
607
330
42B
100
AcDbEntity
  8
TLESO1
100
AcDbVertex
100
AcDbPolyFaceMeshVertex
 10
3.5
 20
-28.89999999850989
 30
37.5
 70
   192
  0
VERTEX
  5
608
330
42B
100
AcDbEntity
  8
TLESO1
100
AcDbVertex
100
AcDbPolyFaceMeshVertex
 10
7.0
 20
-29.0
 30
37.5
 70
   192
  0
VERTEX
  5
609
330
42B
100
AcDbEntity
  8
TLESO1
100
AcDbVertex
100
AcDbPolyFaceMeshVertex
 10
0.0
 20
-28.89999999850989
 30
37.5
 70
   192
  0
VERTEX
  5
60A
330
42B
100
AcDbEntity
  8
TLESO1
100
AcDbVertex
100
AcDbPolyFaceMeshVertex
 10
2.333333015441894
 20
-29.0
 30
37.5
 70
   192
  0
VERTEX
  5
60B
330
42B
100
AcDbEntity
  8
TLESO1
100
AcDbVertex
100
AcDbPolyFaceMeshVertex
 10
-3.5
 20
-28.89999999850989
 30
37.5
 70
   192
  0
VERTEX
  5
60C
330
42B
100
AcDbEntity
  8
TLESO1
100
AcDbVertex
100
AcDbPolyFaceMeshVertex
 10
-2.333333492279052
 20
-29.0
 30
37.5
 70
   192
  0
VERTEX
  5
60D
330
42B
100
AcDbEntity
  8
TLESO1
100
AcDbVertex
100
AcDbPolyFaceMeshVertex
 10
-7.0
 20
-28.89999999850989
 30
37.5
 70
   192
  0
VERTEX
  5
60E
330
42B
100
AcDbEntity
  8
TLESO1
100
AcDbVertex
100
AcDbPolyFaceMeshVertex
 10
-7.0
 20
-29.0
 30
37.5
 70
   192
  0
VERTEX
  5
60F
330
42B
100
AcDbEntity
  8
TLESO1
100
AcDbVertex
100
AcDbPolyFaceMeshVertex
 10
-6.0
 20
-24.0
 30
1.5
 70
   192
  0
VERTEX
  5
610
330
42B
100
AcDbEntity
  8
TLESO1
100
AcDbVertex
100
AcDbPolyFaceMeshVertex
 10
-6.0
 20
-24.0
 30
19.0
 70
   192
  0
VERTEX
  5
611
330
42B
100
AcDbEntity
  8
TLESO1
100
AcDbVertex
100
AcDbPolyFaceMeshVertex
 10
6.0
 20
-24.0
 30
19.0
 70
   192
  0
VERTEX
  5
612
330
42B
100
AcDbEntity
  8
TLESO1
100
AcDbVertex
100
AcDbPolyFaceMeshVertex
 10
-6.0
 20
-24.0
 30
36.5
 70
   192
  0
VERTEX
  5
613
330
42B
100
AcDbEntity
  8
TLESO1
100
AcDbVertex
100
AcDbPolyFaceMeshVertex
 10
6.0
 20
-24.0
 30
36.5
 70
   192
  0
VERTEX
  5
614
330
42B
100
AcDbEntity
  8
TLESO1
100
AcDbVertex
100
AcDbPolyFaceMeshVertex
 10
6.0
 20
-24.0
 30
1.5
 70
   192
  0
VERTEX
  5
615
330
42B
100
AcDbEntity
  8
TLESO1
100
AcDbVertex
100
AcDbPolyFaceMeshVertex
 10
6.0
 20
-24.0
 30
1.5
 70
   192
  0
VERTEX
  5
616
330
42B
100
AcDbEntity
  8
TLESO1
100
AcDbVertex
100
AcDbPolyFaceMeshVertex
 10
-6.0
 20
-12.0
 30
1.5
 70
   192
  0
VERTEX
  5
617
330
42B
100
AcDbEntity
  8
TLESO1
100
AcDbVertex
100
AcDbPolyFaceMeshVertex
 10
-6.0
 20
-24.0
 30
1.5
 70
   192
  0
VERTEX
  5
618
330
42B
100
AcDbEntity
  8
TLESO1
100
AcDbVertex
100
AcDbPolyFaceMeshVertex
 10
6.0
 20
0.0
 30
1.5
 70
   192
  0
VERTEX
  5
619
330
42B
100
AcDbEntity
  8
TLESO1
100
AcDbVertex
100
AcDbPolyFaceMeshVertex
 10
2.0
 20
0.0
 30
1.5
 70
   192
  0
VERTEX
  5
61A
330
42B
100
AcDbEntity
  8
TLESO1
100
AcDbVertex
100
AcDbPolyFaceMeshVertex
 10
6.0
 20
-12.0
 30
1.5
 70
   192
  0
VERTEX
  5
61B
330
42B
100
AcDbEntity
  8
TLESO1
100
AcDbVertex
100
AcDbPolyFaceMeshVertex
 10
-6.0
 20
0.0
 30
1.5
 70
   192
  0
VERTEX
  5
61C
330
42B
100
AcDbEntity
  8
TLESO1
100
AcDbVertex
100
AcDbPolyFaceMeshVertex
 10
-2.0
 20
0.0
 30
1.5
 70
   192
  0
VERTEX
  5
61D
330
42B
100
AcDbEntity
  8
TLESO1
100
AcDbVertex
100
AcDbPolyFaceMeshVertex
 10
6.0
 20
-24.0
 30
36.5
 70
   192
  0
VERTEX
  5
61E
330
42B
100
AcDbEntity
  8
TLESO1
100
AcDbVertex
100
AcDbPolyFaceMeshVertex
 10
6.0
 20
-12.0
 30
36.5
 70
   192
  0
VERTEX
  5
61F
330
42B
100
AcDbEntity
  8
TLESO1
100
AcDbVertex
100
AcDbPolyFaceMeshVertex
 10
6.0
 20
-24.0
 30
19.0
 70
   192
  0
VERTEX
  5
620
330
42B
100
AcDbEntity
  8
TLESO1
100
AcDbVertex
100
AcDbPolyFaceMeshVertex
 10
6.0
 20
-12.0
 30
1.5
 70
   192
  0
VERTEX
  5
621
330
42B
100
AcDbEntity
  8
TLESO1
100
AcDbVertex
100
AcDbPolyFaceMeshVertex
 10
6.0
 20
-24.0
 30
1.5
 70
   192
  0
VERTEX
  5
622
330
42B
100
AcDbEntity
  8
TLESO1
100
AcDbVertex
100
AcDbPolyFaceMeshVertex
 10
6.0
 20
0.0
 30
5.388888835906983
 70
   192
  0
VERTEX
  5
623
330
42B
100
AcDbEntity
  8
TLESO1
100
AcDbVertex
100
AcDbPolyFaceMeshVertex
 10
6.0
 20
0.0
 30
1.5
 70
   192
  0
VERTEX
  5
624
330
42B
100
AcDbEntity
  8
TLESO1
100
AcDbVertex
100
AcDbPolyFaceMeshVertex
 10
6.0
 20
0.0
 30
36.5
 70
   192
  0
VERTEX
  5
625
330
42B
100
AcDbEntity
  8
TLESO1
100
AcDbVertex
100
AcDbPolyFaceMeshVertex
 10
6.0
 20
0.0
 30
32.61111068725586
 70
   192
  0
VERTEX
  5
626
330
42B
100
AcDbEntity
  8
TLESO1
100
AcDbVertex
100
AcDbPolyFaceMeshVertex
 10
6.0
 20
0.0
 30
9.277777671813964
 70
   192
  0
VERTEX
  5
627
330
42B
100
AcDbEntity
  8
TLESO1
100
AcDbVertex
100
AcDbPolyFaceMeshVertex
 10
6.0
 20
0.0
 30
13.1666669845581
 70
   192
  0
VERTEX
  5
628
330
42B
100
AcDbEntity
  8
TLESO1
100
AcDbVertex
100
AcDbPolyFaceMeshVertex
 10
6.0
 20
0.0
 30
17.05555534362793
 70
   192
  0
VERTEX
  5
629
330
42B
100
AcDbEntity
  8
TLESO1
100
AcDbVertex
100
AcDbPolyFaceMeshVertex
 10
6.0
 20
0.0
 30
20.94444465637207
 70
   192
  0
VERTEX
  5
62A
330
42B
100
AcDbEntity
  8
TLESO1
100
AcDbVertex
100
AcDbPolyFaceMeshVertex
 10
6.0
 20
0.0
 30
24.83333396911621
 70
   192
  0
VERTEX
  5
62B
330
42B
100
AcDbEntity
  8
TLESO1
100
AcDbVertex
100
AcDbPolyFaceMeshVertex
 10
6.0
 20
0.0
 30
28.72222137451172
 70
   192
  0
VERTEX
  5
62C
330
42B
100
AcDbEntity
  8
TLESO1
100
AcDbVertex
100
AcDbPolyFaceMeshVertex
 10
-6.0
 20
-24.0
 30
1.5
 70
   192
  0
VERTEX
  5
62D
330
42B
100
AcDbEntity
  8
TLESO1
100
AcDbVertex
100
AcDbPolyFaceMeshVertex
 10
-6.0
 20
-12.0
 30
1.5
 70
   192
  0
VERTEX
  5
62E
330
42B
100
AcDbEntity
  8
TLESO1
100
AcDbVertex
100
AcDbPolyFaceMeshVertex
 10
-6.0
 20
-24.0
 30
19.0
 70
   192
  0
VERTEX
  5
62F
330
42B
100
AcDbEntity
  8
TLESO1
100
AcDbVertex
100
AcDbPolyFaceMeshVertex
 10
-6.0
 20
-12.0
 30
36.5
 70
   192
  0
VERTEX
  5
630
330
42B
100
AcDbEntity
  8
TLESO1
100
AcDbVertex
100
AcDbPolyFaceMeshVertex
 10
-6.0
 20
-24.0
 30
36.5
 70
   192
  0
VERTEX
  5
631
330
42B
100
AcDbEntity
  8
TLESO1
100
AcDbVertex
100
AcDbPolyFaceMeshVertex
 10
-6.0
 20
0.0
 30
1.5
 70
   192
  0
VERTEX
  5
632
330
42B
100
AcDbEntity
  8
TLESO1
100
AcDbVertex
100
AcDbPolyFaceMeshVertex
 10
-6.0
 20
0.0
 30
5.388888835906983
 70
   192
  0
VERTEX
  5
633
330
42B
100
AcDbEntity
  8
TLESO1
100
AcDbVertex
100
AcDbPolyFaceMeshVertex
 10
-6.0
 20
0.0
 30
36.5
 70
   192
  0
VERTEX
  5
634
330
42B
100
AcDbEntity
  8
TLESO1
100
AcDbVertex
100
AcDbPolyFaceMeshVertex
 10
-6.0
 20
0.0
 30
32.61111068725586
 70
   192
  0
VERTEX
  5
635
330
42B
100
AcDbEntity
  8
TLESO1
100
AcDbVertex
100
AcDbPolyFaceMeshVertex
 10
-6.0
 20
0.0
 30
28.72222137451172
 70
   192
  0
VERTEX
  5
636
330
42B
100
AcDbEntity
  8
TLESO1
100
AcDbVertex
100
AcDbPolyFaceMeshVertex
 10
-6.0
 20
0.0
 30
24.83333396911621
 70
   192
  0
VERTEX
  5
637
330
42B
100
AcDbEntity
  8
TLESO1
100
AcDbVertex
100
AcDbPolyFaceMeshVertex
 10
-6.0
 20
0.0
 30
20.94444465637207
 70
   192
  0
VERTEX
  5
638
330
42B
100
AcDbEntity
  8
TLESO1
100
AcDbVertex
100
AcDbPolyFaceMeshVertex
 10
-6.0
 20
0.0
 30
17.05555534362793
 70
   192
  0
VERTEX
  5
639
330
42B
100
AcDbEntity
  8
TLESO1
100
AcDbVertex
100
AcDbPolyFaceMeshVertex
 10
-6.0
 20
0.0
 30
13.1666669845581
 70
   192
  0
VERTEX
  5
63A
330
42B
100
AcDbEntity
  8
TLESO1
100
AcDbVertex
100
AcDbPolyFaceMeshVertex
 10
-6.0
 20
0.0
 30
9.277777671813964
 70
   192
  0
VERTEX
  5
63B
330
42B
100
AcDbEntity
  8
TLESO1
100
AcDbVertex
100
AcDbPolyFaceMeshVertex
 10
-6.0
 20
-24.0
 30
36.5
 70
   192
  0
VERTEX
  5
63C
330
42B
100
AcDbEntity
  8
TLESO1
100
AcDbVertex
100
AcDbPolyFaceMeshVertex
 10
6.0
 20
-12.0
 30
36.5
 70
   192
  0
VERTEX
  5
63D
330
42B
100
AcDbEntity
  8
TLESO1
100
AcDbVertex
100
AcDbPolyFaceMeshVertex
 10
6.0
 20
-24.0
 30
36.5
 70
   192
  0
VERTEX
  5
63E
330
42B
100
AcDbEntity
  8
TLESO1
100
AcDbVertex
100
AcDbPolyFaceMeshVertex
 10
2.0
 20
0.0
 30
36.5
 70
   192
  0
VERTEX
  5
63F
330
42B
100
AcDbEntity
  8
TLESO1
100
AcDbVertex
100
AcDbPolyFaceMeshVertex
 10
6.0
 20
0.0
 30
36.5
 70
   192
  0
VERTEX
  5
640
330
42B
100
AcDbEntity
  8
TLESO1
100
AcDbVertex
100
AcDbPolyFaceMeshVertex
 10
-6.0
 20
0.0
 30
36.5
 70
   192
  0
VERTEX
  5
641
330
42B
100
AcDbEntity
  8
TLESO1
100
AcDbVertex
100
AcDbPolyFaceMeshVertex
 10
-2.0
 20
0.0
 30
36.5
 70
   192
  0
VERTEX
  5
642
330
42B
100
AcDbEntity
  8
TLESO1
100
AcDbVertex
100
AcDbPolyFaceMeshVertex
 10
-6.0
 20
-12.0
 30
36.5
 70
   192
  0
VERTEX
  5
643
330
42B
100
AcDbEntity
  8
TLESO1
100
AcDbVertex
100
AcDbPolyFaceMeshVertex
 10
7.300000190734863
 20
-29.0
 30
0.0
 70
   192
  0
VERTEX
  5
644
330
42B
100
AcDbEntity
  8
TLESO1
100
AcDbVertex
100
AcDbPolyFaceMeshVertex
 10
7.300000190734863
 20
-31.40000009536743
 30
-0.0000000000000002
 70
   192
  0
VERTEX
  5
645
330
42B
100
AcDbEntity
  8
TLESO1
100
AcDbVertex
100
AcDbPolyFaceMeshVertex
 10
2.433333396911621
 20
-29.0
 30
0.0000000000000003
 70
   192
  0
VERTEX
  5
646
330
42B
100
AcDbEntity
  8
TLESO1
100
AcDbVertex
100
AcDbPolyFaceMeshVertex
 10
7.300000190734863
 20
-33.80000019073487
 30
-0.0000000000000004
 70
   192
  0
VERTEX
  5
647
330
42B
100
AcDbEntity
  8
TLESO1
100
AcDbVertex
100
AcDbPolyFaceMeshVertex
 10
-7.299999997019767
 20
-33.80000019073487
 30
0.000000000000001
 70
   192
  0
VERTEX
  5
648
330
42B
100
AcDbEntity
  8
TLESO1
100
AcDbVertex
100
AcDbPolyFaceMeshVertex
 10
-7.299999997019767
 20
-31.40000009536743
 30
0.000000000000001
 70
   192
  0
VERTEX
  5
649
330
42B
100
AcDbEntity
  8
TLESO1
100
AcDbVertex
100
AcDbPolyFaceMeshVertex
 10
-2.433333396911621
 20
-29.0
 30
0.0000000000000006
 70
   192
  0
VERTEX
  5
64A
330
42B
100
AcDbEntity
  8
TLESO1
100
AcDbVertex
100
AcDbPolyFaceMeshVertex
 10
-7.299999997019767
 20
-29.0
 30
0.0000000000000009
 70
   192
  0
VERTEX
  5
64B
330
42B
100
AcDbEntity
  8
TLESO1
100
AcDbVertex
100
AcDbPolyFaceMeshVertex
 10
0.0
 20
-33.80000019073487
 30
0.0000000000000003
 70
   192
  0
VERTEX
  5
64C
330
42B
100
AcDbEntity
  8
TLESO1
100
AcDbVertex
100
AcDbPolyFaceMeshVertex
 10
7.5
 20
0.0
 30
0.2000000029802332
 70
   192
  0
VERTEX
  5
64D
330
42B
100
AcDbEntity
  8
TLESO1
100
AcDbVertex
100
AcDbPolyFaceMeshVertex
 10
7.441421508789062
 20
0.0
 30
0.0585786439478407
 70
   192
  0
VERTEX
  5
64E
330
42B
100
AcDbEntity
  8
TLESO1
100
AcDbVertex
100
AcDbPolyFaceMeshVertex
 10
7.300000190734863
 20
0.0
 30
-0.0000000000000009
 70
   192
  0
VERTEX
  5
64F
330
42B
100
AcDbEntity
  8
TLESO1
100
AcDbVertex
100
AcDbPolyFaceMeshVertex
 10
3.649999618530273
 20
0.0
 30
-0.0000000000000005
 70
   192
  0
VERTEX
  5
650
330
42B
100
AcDbEntity
  8
TLESO1
100
AcDbVertex
100
AcDbPolyFaceMeshVertex
 10
6.0
 20
0.0
 30
1.5
 70
   192
  0
VERTEX
  5
651
330
42B
100
AcDbEntity
  8
TLESO1
100
AcDbVertex
100
AcDbPolyFaceMeshVertex
 10
0.0
 20
0.0
 30
0.0
 70
   192
  0
VERTEX
  5
652
330
42B
100
AcDbEntity
  8
TLESO1
100
AcDbVertex
100
AcDbPolyFaceMeshVertex
 10
2.0
 20
0.0
 30
1.5
 70
   192
  0
VERTEX
  5
653
330
42B
100
AcDbEntity
  8
TLESO1
100
AcDbVertex
100
AcDbPolyFaceMeshVertex
 10
-3.650000095367431
 20
0.0
 30
0.0000000000000005
 70
   192
  0
VERTEX
  5
654
330
42B
100
AcDbEntity
  8
TLESO1
100
AcDbVertex
100
AcDbPolyFaceMeshVertex
 10
-2.0
 20
0.0
 30
1.5
 70
   192
  0
VERTEX
  5
655
330
42B
100
AcDbEntity
  8
TLESO1
100
AcDbVertex
100
AcDbPolyFaceMeshVertex
 10
-7.299999997019767
 20
0.0
 30
0.0000000000000009
 70
   192
  0
VERTEX
  5
656
330
42B
100
AcDbEntity
  8
TLESO1
100
AcDbVertex
100
AcDbPolyFaceMeshVertex
 10
-6.0
 20
0.0
 30
1.5
 70
   192
  0
VERTEX
  5
657
330
42B
100
AcDbEntity
  8
TLESO1
100
AcDbVertex
100
AcDbPolyFaceMeshVertex
 10
-7.44142135605216
 20
0.0
 30
0.0585786439478407
 70
   192
  0
VERTEX
  5
658
330
42B
100
AcDbEntity
  8
TLESO1
100
AcDbVertex
100
AcDbPolyFaceMeshVertex
 10
-7.499999999999992
 20
0.0
 30
0.2000000029802332
 70
   192
  0
VERTEX
  5
659
330
42B
100
AcDbEntity
  8
TLESO1
100
AcDbVertex
100
AcDbPolyFaceMeshVertex
 10
-7.499999999999992
 20
0.0
 30
3.960000038146973
 70
   192
  0
VERTEX
  5
65A
330
42B
100
AcDbEntity
  8
TLESO1
100
AcDbVertex
100
AcDbPolyFaceMeshVertex
 10
-7.49999999999999
 20
0.0
 30
7.719999790191651
 70
   192
  0
VERTEX
  5
65B
330
42B
100
AcDbEntity
  8
TLESO1
100
AcDbVertex
100
AcDbPolyFaceMeshVertex
 10
-6.0
 20
0.0
 30
5.388888835906983
 70
   192
  0
VERTEX
  5
65C
330
42B
100
AcDbEntity
  8
TLESO1
100
AcDbVertex
100
AcDbPolyFaceMeshVertex
 10
-7.499999999999989
 20
0.0
 30
11.47999954223632
 70
   192
  0
VERTEX
  5
65D
330
42B
100
AcDbEntity
  8
TLESO1
100
AcDbVertex
100
AcDbPolyFaceMeshVertex
 10
-6.0
 20
0.0
 30
9.277777671813964
 70
   192
  0
VERTEX
  5
65E
330
42B
100
AcDbEntity
  8
TLESO1
100
AcDbVertex
100
AcDbPolyFaceMeshVertex
 10
-7.499999999999988
 20
0.0
 30
15.23999977111816
 70
   192
  0
VERTEX
  5
65F
330
42B
100
AcDbEntity
  8
TLESO1
100
AcDbVertex
100
AcDbPolyFaceMeshVertex
 10
-6.0
 20
0.0
 30
13.1666669845581
 70
   192
  0
VERTEX
  5
660
330
42B
100
AcDbEntity
  8
TLESO1
100
AcDbVertex
100
AcDbPolyFaceMeshVertex
 10
-7.499999999999986
 20
0.0
 30
19.0
 70
   192
  0
VERTEX
  5
661
330
42B
100
AcDbEntity
  8
TLESO1
100
AcDbVertex
100
AcDbPolyFaceMeshVertex
 10
-6.0
 20
0.0
 30
17.05555534362793
 70
   192
  0
VERTEX
  5
662
330
42B
100
AcDbEntity
  8
TLESO1
100
AcDbVertex
100
AcDbPolyFaceMeshVertex
 10
-7.499999999999985
 20
0.0
 30
22.76000022888184
 70
   192
  0
VERTEX
  5
663
330
42B
100
AcDbEntity
  8
TLESO1
100
AcDbVertex
100
AcDbPolyFaceMeshVertex
 10
-6.0
 20
0.0
 30
20.94444465637207
 70
   192
  0
VERTEX
  5
664
330
42B
100
AcDbEntity
  8
TLESO1
100
AcDbVertex
100
AcDbPolyFaceMeshVertex
 10
-7.499999999999984
 20
0.0
 30
26.52000045776367
 70
   192
  0
VERTEX
  5
665
330
42B
100
AcDbEntity
  8
TLESO1
100
AcDbVertex
100
AcDbPolyFaceMeshVertex
 10
-6.0
 20
0.0
 30
24.83333396911621
 70
   192
  0
VERTEX
  5
666
330
42B
100
AcDbEntity
  8
TLESO1
100
AcDbVertex
100
AcDbPolyFaceMeshVertex
 10
-7.499999999999983
 20
0.0
 30
30.28000068664551
 70
   192
  0
VERTEX
  5
667
330
42B
100
AcDbEntity
  8
TLESO1
100
AcDbVertex
100
AcDbPolyFaceMeshVertex
 10
-6.0
 20
0.0
 30
28.72222137451172
 70
   192
  0
VERTEX
  5
668
330
42B
100
AcDbEntity
  8
TLESO1
100
AcDbVertex
100
AcDbPolyFaceMeshVertex
 10
-7.499999999999982
 20
0.0
 30
34.04000091552735
 70
   192
  0
VERTEX
  5
669
330
42B
100
AcDbEntity
  8
TLESO1
100
AcDbVertex
100
AcDbPolyFaceMeshVertex
 10
-6.0
 20
0.0
 30
32.61111068725586
 70
   192
  0
VERTEX
  5
66A
330
42B
100
AcDbEntity
  8
TLESO1
100
AcDbVertex
100
AcDbPolyFaceMeshVertex
 10
-7.49999999999998
 20
0.0
 30
37.79999923706055
 70
   192
  0
VERTEX
  5
66B
330
42B
100
AcDbEntity
  8
TLESO1
100
AcDbVertex
100
AcDbPolyFaceMeshVertex
 10
-6.0
 20
0.0
 30
36.5
 70
   192
  0
VERTEX
  5
66C
330
42B
100
AcDbEntity
  8
TLESO1
100
AcDbVertex
100
AcDbPolyFaceMeshVertex
 10
-7.44142135605216
 20
0.0
 30
37.94142150878907
 70
   192
  0
VERTEX
  5
66D
330
42B
100
AcDbEntity
  8
TLESO1
100
AcDbVertex
100
AcDbPolyFaceMeshVertex
 10
-7.299999997019767
 20
0.0
 30
38.0
 70
   192
  0
VERTEX
  5
66E
330
42B
100
AcDbEntity
  8
TLESO1
100
AcDbVertex
100
AcDbPolyFaceMeshVertex
 10
-3.650000095367431
 20
0.0
 30
38.0
 70
   192
  0
VERTEX
  5
66F
330
42B
100
AcDbEntity
  8
TLESO1
100
AcDbVertex
100
AcDbPolyFaceMeshVertex
 10
0.0
 20
0.0
 30
38.0
 70
   192
  0
VERTEX
  5
670
330
42B
100
AcDbEntity
  8
TLESO1
100
AcDbVertex
100
AcDbPolyFaceMeshVertex
 10
-2.0
 20
0.0
 30
36.5
 70
   192
  0
VERTEX
  5
671
330
42B
100
AcDbEntity
  8
TLESO1
100
AcDbVertex
100
AcDbPolyFaceMeshVertex
 10
3.649999618530273
 20
0.0
 30
38.0
 70
   192
  0
VERTEX
  5
672
330
42B
100
AcDbEntity
  8
TLESO1
100
AcDbVertex
100
AcDbPolyFaceMeshVertex
 10
2.0
 20
0.0
 30
36.5
 70
   192
  0
VERTEX
  5
673
330
42B
100
AcDbEntity
  8
TLESO1
100
AcDbVertex
100
AcDbPolyFaceMeshVertex
 10
7.300000190734863
 20
0.0
 30
38.0
 70
   192
  0
VERTEX
  5
674
330
42B
100
AcDbEntity
  8
TLESO1
100
AcDbVertex
100
AcDbPolyFaceMeshVertex
 10
6.0
 20
0.0
 30
36.5
 70
   192
  0
VERTEX
  5
675
330
42B
100
AcDbEntity
  8
TLESO1
100
AcDbVertex
100
AcDbPolyFaceMeshVertex
 10
7.441421508789062
 20
0.0
 30
37.94142150878907
 70
   192
  0
VERTEX
  5
676
330
42B
100
AcDbEntity
  8
TLESO1
100
AcDbVertex
100
AcDbPolyFaceMeshVertex
 10
7.5
 20
0.0
 30
37.79999923706055
 70
   192
  0
VERTEX
  5
677
330
42B
100
AcDbEntity
  8
TLESO1
100
AcDbVertex
100
AcDbPolyFaceMeshVertex
 10
6.0
 20
0.0
 30
5.388888835906983
 70
   192
  0
VERTEX
  5
678
330
42B
100
AcDbEntity
  8
TLESO1
100
AcDbVertex
100
AcDbPolyFaceMeshVertex
 10
7.5
 20
0.0
 30
3.960000038146973
 70
   192
  0
VERTEX
  5
679
330
42B
100
AcDbEntity
  8
TLESO1
100
AcDbVertex
100
AcDbPolyFaceMeshVertex
 10
6.0
 20
0.0
 30
9.277777671813964
 70
   192
  0
VERTEX
  5
67A
330
42B
100
AcDbEntity
  8
TLESO1
100
AcDbVertex
100
AcDbPolyFaceMeshVertex
 10
7.5
 20
0.0
 30
7.719999790191651
 70
   192
  0
VERTEX
  5
67B
330
42B
100
AcDbEntity
  8
TLESO1
100
AcDbVertex
100
AcDbPolyFaceMeshVertex
 10
6.0
 20
0.0
 30
13.1666669845581
 70
   192
  0
VERTEX
  5
67C
330
42B
100
AcDbEntity
  8
TLESO1
100
AcDbVertex
100
AcDbPolyFaceMeshVertex
 10
7.5
 20
0.0
 30
11.47999954223632
 70
   192
  0
VERTEX
  5
67D
330
42B
100
AcDbEntity
  8
TLESO1
100
AcDbVertex
100
AcDbPolyFaceMeshVertex
 10
6.0
 20
0.0
 30
17.05555534362793
 70
   192
  0
VERTEX
  5
67E
330
42B
100
AcDbEntity
  8
TLESO1
100
AcDbVertex
100
AcDbPolyFaceMeshVertex
 10
7.5
 20
0.0
 30
15.23999977111816
 70
   192
  0
VERTEX
  5
67F
330
42B
100
AcDbEntity
  8
TLESO1
100
AcDbVertex
100
AcDbPolyFaceMeshVertex
 10
6.0
 20
0.0
 30
20.94444465637207
 70
   192
  0
VERTEX
  5
680
330
42B
100
AcDbEntity
  8
TLESO1
100
AcDbVertex
100
AcDbPolyFaceMeshVertex
 10
7.5
 20
0.0
 30
19.0
 70
   192
  0
VERTEX
  5
681
330
42B
100
AcDbEntity
  8
TLESO1
100
AcDbVertex
100
AcDbPolyFaceMeshVertex
 10
6.0
 20
0.0
 30
24.83333396911621
 70
   192
  0
VERTEX
  5
682
330
42B
100
AcDbEntity
  8
TLESO1
100
AcDbVertex
100
AcDbPolyFaceMeshVertex
 10
7.5
 20
0.0
 30
22.76000022888184
 70
   192
  0
VERTEX
  5
683
330
42B
100
AcDbEntity
  8
TLESO1
100
AcDbVertex
100
AcDbPolyFaceMeshVertex
 10
6.0
 20
0.0
 30
28.72222137451172
 70
   192
  0
VERTEX
  5
684
330
42B
100
AcDbEntity
  8
TLESO1
100
AcDbVertex
100
AcDbPolyFaceMeshVertex
 10
7.5
 20
0.0
 30
26.52000045776367
 70
   192
  0
VERTEX
  5
685
330
42B
100
AcDbEntity
  8
TLESO1
100
AcDbVertex
100
AcDbPolyFaceMeshVertex
 10
6.0
 20
0.0
 30
32.61111068725586
 70
   192
  0
VERTEX
  5
686
330
42B
100
AcDbEntity
  8
TLESO1
100
AcDbVertex
100
AcDbPolyFaceMeshVertex
 10
7.5
 20
0.0
 30
30.28000068664551
 70
   192
  0
VERTEX
  5
687
330
42B
100
AcDbEntity
  8
TLESO1
100
AcDbVertex
100
AcDbPolyFaceMeshVertex
 10
7.5
 20
0.0
 30
34.04000091552735
 70
   192
  0
VERTEX
  5
688
330
42B
100
AcDbEntity
  8
TLESO1
100
AcDbFaceRecord
 10
0.0
 20
0.0
 30
0.0
 70
   128
 71
     1
 72
     2
 73
     3
  0
VERTEX
  5
689
330
42B
100
AcDbEntity
  8
TLESO1
100
AcDbFaceRecord
 10
0.0
 20
0.0
 30
0.0
 70
   128
 71
     2
 72
     4
 73
     5
  0
VERTEX
  5
68A
330
42B
100
AcDbEntity
  8
TLESO1
100
AcDbFaceRecord
 10
0.0
 20
0.0
 30
0.0
 70
   128
 71
     5
 72
     6
 73
     7
  0
VERTEX
  5
68B
330
42B
100
AcDbEntity
  8
TLESO1
100
AcDbFaceRecord
 10
0.0
 20
0.0
 30
0.0
 70
   128
 71
     7
 72
     8
 73
     3
  0
VERTEX
  5
68C
330
42B
100
AcDbEntity
  8
TLESO1
100
AcDbFaceRecord
 10
0.0
 20
0.0
 30
0.0
 70
   128
 71
     3
 72
     2
 73
     5
  0
VERTEX
  5
68D
330
42B
100
AcDbEntity
  8
TLESO1
100
AcDbFaceRecord
 10
0.0
 20
0.0
 30
0.0
 70
   128
 71
     5
 72
     7
 73
     3
  0
VERTEX
  5
68E
330
42B
100
AcDbEntity
  8
TLESO1
100
AcDbFaceRecord
 10
0.0
 20
0.0
 30
0.0
 70
   128
 71
     9
 72
    10
 73
    11
  0
VERTEX
  5
68F
330
42B
100
AcDbEntity
  8
TLESO1
100
AcDbFaceRecord
 10
0.0
 20
0.0
 30
0.0
 70
   128
 71
    10
 72
    12
 73
    13
  0
VERTEX
  5
690
330
42B
100
AcDbEntity
  8
TLESO1
100
AcDbFaceRecord
 10
0.0
 20
0.0
 30
0.0
 70
   128
 71
    13
 72
    14
 73
    10
  0
VERTEX
  5
691
330
42B
100
AcDbEntity
  8
TLESO1
100
AcDbFaceRecord
 10
0.0
 20
0.0
 30
0.0
 70
   128
 71
    14
 72
    15
 73
    16
  0
VERTEX
  5
692
330
42B
100
AcDbEntity
  8
TLESO1
100
AcDbFaceRecord
 10
0.0
 20
0.0
 30
0.0
 70
   128
 71
    15
 72
    17
 73
    16
  0
VERTEX
  5
693
330
42B
100
AcDbEntity
  8
TLESO1
100
AcDbFaceRecord
 10
0.0
 20
0.0
 30
0.0
 70
   128
 71
    16
 72
    18
 73
    19
  0
VERTEX
  5
694
330
42B
100
AcDbEntity
  8
TLESO1
100
AcDbFaceRecord
 10
0.0
 20
0.0
 30
0.0
 70
   128
 71
    19
 72
    20
 73
    16
  0
VERTEX
  5
695
330
42B
100
AcDbEntity
  8
TLESO1
100
AcDbFaceRecord
 10
0.0
 20
0.0
 30
0.0
 70
   128
 71
    20
 72
    11
 73
    10
  0
VERTEX
  5
696
330
42B
100
AcDbEntity
  8
TLESO1
100
AcDbFaceRecord
 10
0.0
 20
0.0
 30
0.0
 70
   128
 71
    10
 72
    14
 73
    16
  0
VERTEX
  5
697
330
42B
100
AcDbEntity
  8
TLESO1
100
AcDbFaceRecord
 10
0.0
 20
0.0
 30
0.0
 70
   128
 71
    16
 72
    20
 73
    10
  0
VERTEX
  5
698
330
42B
100
AcDbEntity
  8
TLESO1
100
AcDbFaceRecord
 10
0.0
 20
0.0
 30
0.0
 70
   128
 71
    21
 72
    22
 73
    23
  0
VERTEX
  5
699
330
42B
100
AcDbEntity
  8
TLESO1
100
AcDbFaceRecord
 10
0.0
 20
0.0
 30
0.0
 70
   128
 71
    22
 72
    24
 73
    25
  0
VERTEX
  5
69A
330
42B
100
AcDbEntity
  8
TLESO1
100
AcDbFaceRecord
 10
0.0
 20
0.0
 30
0.0
 70
   128
 71
    25
 72
    26
 73
    27
  0
VERTEX
  5
69B
330
42B
100
AcDbEntity
  8
TLESO1
100
AcDbFaceRecord
 10
0.0
 20
0.0
 30
0.0
 70
   128
 71
    27
 72
    28
 73
    29
  0
VERTEX
  5
69C
330
42B
100
AcDbEntity
  8
TLESO1
100
AcDbFaceRecord
 10
0.0
 20
0.0
 30
0.0
 70
   128
 71
    29
 72
    30
 73
    31
  0
VERTEX
  5
69D
330
42B
100
AcDbEntity
  8
TLESO1
100
AcDbFaceRecord
 10
0.0
 20
0.0
 30
0.0
 70
   128
 71
    32
 72
    33
 73
    34
  0
VERTEX
  5
69E
330
42B
100
AcDbEntity
  8
TLESO1
100
AcDbFaceRecord
 10
0.0
 20
0.0
 30
0.0
 70
   128
 71
    34
 72
    35
 73
    36
  0
VERTEX
  5
69F
330
42B
100
AcDbEntity
  8
TLESO1
100
AcDbFaceRecord
 10
0.0
 20
0.0
 30
0.0
 70
   128
 71
    36
 72
    37
 73
    38
  0
VERTEX
  5
6A0
330
42B
100
AcDbEntity
  8
TLESO1
100
AcDbFaceRecord
 10
0.0
 20
0.0
 30
0.0
 70
   128
 71
    38
 72
    39
 73
    40
  0
VERTEX
  5
6A1
330
42B
100
AcDbEntity
  8
TLESO1
100
AcDbFaceRecord
 10
0.0
 20
0.0
 30
0.0
 70
   128
 71
    40
 72
    41
 73
    42
  0
VERTEX
  5
6A2
330
42B
100
AcDbEntity
  8
TLESO1
100
AcDbFaceRecord
 10
0.0
 20
0.0
 30
0.0
 70
   128
 71
    42
 72
    43
 73
    44
  0
VERTEX
  5
6A3
330
42B
100
AcDbEntity
  8
TLESO1
100
AcDbFaceRecord
 10
0.0
 20
0.0
 30
0.0
 70
   128
 71
    44
 72
    45
 73
    46
  0
VERTEX
  5
6A4
330
42B
100
AcDbEntity
  8
TLESO1
100
AcDbFaceRecord
 10
0.0
 20
0.0
 30
0.0
 70
   128
 71
    46
 72
    47
 73
    48
  0
VERTEX
  5
6A5
330
42B
100
AcDbEntity
  8
TLESO1
100
AcDbFaceRecord
 10
0.0
 20
0.0
 30
0.0
 70
   128
 71
    48
 72
    49
 73
    50
  0
VERTEX
  5
6A6
330
42B
100
AcDbEntity
  8
TLESO1
100
AcDbFaceRecord
 10
0.0
 20
0.0
 30
0.0
 70
   128
 71
    50
 72
    24
 73
    21
  0
VERTEX
  5
6A7
330
42B
100
AcDbEntity
  8
TLESO1
100
AcDbFaceRecord
 10
0.0
 20
0.0
 30
0.0
 70
   128
 71
    51
 72
    32
 73
    52
  0
VERTEX
  5
6A8
330
42B
100
AcDbEntity
  8
TLESO1
100
AcDbFaceRecord
 10
0.0
 20
0.0
 30
0.0
 70
   128
 71
    53
 72
    54
 73
    55
  0
VERTEX
  5
6A9
330
42B
100
AcDbEntity
  8
TLESO1
100
AcDbFaceRecord
 10
0.0
 20
0.0
 30
0.0
 70
   128
 71
    55
 72
    56
 73
    57
  0
VERTEX
  5
6AA
330
42B
100
AcDbEntity
  8
TLESO1
100
AcDbFaceRecord
 10
0.0
 20
0.0
 30
0.0
 70
   128
 71
    57
 72
    58
 73
    59
  0
VERTEX
  5
6AB
330
42B
100
AcDbEntity
  8
TLESO1
100
AcDbFaceRecord
 10
0.0
 20
0.0
 30
0.0
 70
   128
 71
    59
 72
    33
 73
    51
  0
VERTEX
  5
6AC
330
42B
100
AcDbEntity
  8
TLESO1
100
AcDbFaceRecord
 10
0.0
 20
0.0
 30
0.0
 70
   128
 71
    60
 72
    53
 73
    61
  0
VERTEX
  5
6AD
330
42B
100
AcDbEntity
  8
TLESO1
100
AcDbFaceRecord
 10
0.0
 20
0.0
 30
0.0
 70
   128
 71
    62
 72
    30
 73
    63
  0
VERTEX
  5
6AE
330
42B
100
AcDbEntity
  8
TLESO1
100
AcDbFaceRecord
 10
0.0
 20
0.0
 30
0.0
 70
   128
 71
    63
 72
    64
 73
    65
  0
VERTEX
  5
6AF
330
42B
100
AcDbEntity
  8
TLESO1
100
AcDbFaceRecord
 10
0.0
 20
0.0
 30
0.0
 70
   128
 71
    65
 72
    66
 73
    67
  0
VERTEX
  5
6B0
330
42B
100
AcDbEntity
  8
TLESO1
100
AcDbFaceRecord
 10
0.0
 20
0.0
 30
0.0
 70
   128
 71
    67
 72
    68
 73
    69
  0
VERTEX
  5
6B1
330
42B
100
AcDbEntity
  8
TLESO1
100
AcDbFaceRecord
 10
0.0
 20
0.0
 30
0.0
 70
   128
 71
    69
 72
    70
 73
    71
  0
VERTEX
  5
6B2
330
42B
100
AcDbEntity
  8
TLESO1
100
AcDbFaceRecord
 10
0.0
 20
0.0
 30
0.0
 70
   128
 71
    71
 72
    72
 73
    73
  0
VERTEX
  5
6B3
330
42B
100
AcDbEntity
  8
TLESO1
100
AcDbFaceRecord
 10
0.0
 20
0.0
 30
0.0
 70
   128
 71
    73
 72
    74
 73
    75
  0
VERTEX
  5
6B4
330
42B
100
AcDbEntity
  8
TLESO1
100
AcDbFaceRecord
 10
0.0
 20
0.0
 30
0.0
 70
   128
 71
    75
 72
    76
 73
    77
  0
VERTEX
  5
6B5
330
42B
100
AcDbEntity
  8
TLESO1
100
AcDbFaceRecord
 10
0.0
 20
0.0
 30
0.0
 70
   128
 71
    77
 72
    78
 73
    79
  0
VERTEX
  5
6B6
330
42B
100
AcDbEntity
  8
TLESO1
100
AcDbFaceRecord
 10
0.0
 20
0.0
 30
0.0
 70
   128
 71
    79
 72
    54
 73
    60
  0
VERTEX
  5
6B7
330
42B
100
AcDbEntity
  8
TLESO1
100
AcDbFaceRecord
 10
0.0
 20
0.0
 30
0.0
 70
   128
 71
    31
 72
    62
 73
    80
  0
VERTEX
  5
6B8
330
42B
100
AcDbEntity
  8
TLESO1
100
AcDbFaceRecord
 10
0.0
 20
0.0
 30
0.0
 70
   128
 71
    54
 72
    79
 73
    78
  0
VERTEX
  5
6B9
330
42B
100
AcDbEntity
  8
TLESO1
100
AcDbFaceRecord
 10
0.0
 20
0.0
 30
0.0
 70
   128
 71
    78
 72
    77
 73
    76
  0
VERTEX
  5
6BA
330
42B
100
AcDbEntity
  8
TLESO1
100
AcDbFaceRecord
 10
0.0
 20
0.0
 30
0.0
 70
   128
 71
    76
 72
    75
 73
    74
  0
VERTEX
  5
6BB
330
42B
100
AcDbEntity
  8
TLESO1
100
AcDbFaceRecord
 10
0.0
 20
0.0
 30
0.0
 70
   128
 71
    74
 72
    73
 73
    72
  0
VERTEX
  5
6BC
330
42B
100
AcDbEntity
  8
TLESO1
100
AcDbFaceRecord
 10
0.0
 20
0.0
 30
0.0
 70
   128
 71
    72
 72
    71
 73
    81
  0
VERTEX
  5
6BD
330
42B
100
AcDbEntity
  8
TLESO1
100
AcDbFaceRecord
 10
0.0
 20
0.0
 30
0.0
 70
   128
 71
    81
 72
    71
 73
    70
  0
VERTEX
  5
6BE
330
42B
100
AcDbEntity
  8
TLESO1
100
AcDbFaceRecord
 10
0.0
 20
0.0
 30
0.0
 70
   128
 71
    70
 72
    69
 73
    68
  0
VERTEX
  5
6BF
330
42B
100
AcDbEntity
  8
TLESO1
100
AcDbFaceRecord
 10
0.0
 20
0.0
 30
0.0
 70
   128
 71
    68
 72
    67
 73
    66
  0
VERTEX
  5
6C0
330
42B
100
AcDbEntity
  8
TLESO1
100
AcDbFaceRecord
 10
0.0
 20
0.0
 30
0.0
 70
   128
 71
    66
 72
    65
 73
    64
  0
VERTEX
  5
6C1
330
42B
100
AcDbEntity
  8
TLESO1
100
AcDbFaceRecord
 10
0.0
 20
0.0
 30
0.0
 70
   128
 71
    64
 72
    63
 73
    30
  0
VERTEX
  5
6C2
330
42B
100
AcDbEntity
  8
TLESO1
100
AcDbFaceRecord
 10
0.0
 20
0.0
 30
0.0
 70
   128
 71
    33
 72
    59
 73
    58
  0
VERTEX
  5
6C3
330
42B
100
AcDbEntity
  8
TLESO1
100
AcDbFaceRecord
 10
0.0
 20
0.0
 30
0.0
 70
   128
 71
    58
 72
    57
 73
    82
  0
VERTEX
  5
6C4
330
42B
100
AcDbEntity
  8
TLESO1
100
AcDbFaceRecord
 10
0.0
 20
0.0
 30
0.0
 70
   128
 71
    82
 72
    57
 73
    56
  0
VERTEX
  5
6C5
330
42B
100
AcDbEntity
  8
TLESO1
100
AcDbFaceRecord
 10
0.0
 20
0.0
 30
0.0
 70
   128
 71
    56
 72
    55
 73
    54
  0
VERTEX
  5
6C6
330
42B
100
AcDbEntity
  8
TLESO1
100
AcDbFaceRecord
 10
0.0
 20
0.0
 30
0.0
 70
   128
 71
    24
 72
    50
 73
    49
  0
VERTEX
  5
6C7
330
42B
100
AcDbEntity
  8
TLESO1
100
AcDbFaceRecord
 10
0.0
 20
0.0
 30
0.0
 70
   128
 71
    49
 72
    48
 73
    47
  0
VERTEX
  5
6C8
330
42B
100
AcDbEntity
  8
TLESO1
100
AcDbFaceRecord
 10
0.0
 20
0.0
 30
0.0
 70
   128
 71
    47
 72
    46
 73
    45
  0
VERTEX
  5
6C9
330
42B
100
AcDbEntity
  8
TLESO1
100
AcDbFaceRecord
 10
0.0
 20
0.0
 30
0.0
 70
   128
 71
    45
 72
    44
 73
    43
  0
VERTEX
  5
6CA
330
42B
100
AcDbEntity
  8
TLESO1
100
AcDbFaceRecord
 10
0.0
 20
0.0
 30
0.0
 70
   128
 71
    43
 72
    42
 73
    83
  0
VERTEX
  5
6CB
330
42B
100
AcDbEntity
  8
TLESO1
100
AcDbFaceRecord
 10
0.0
 20
0.0
 30
0.0
 70
   128
 71
    83
 72
    42
 73
    41
  0
VERTEX
  5
6CC
330
42B
100
AcDbEntity
  8
TLESO1
100
AcDbFaceRecord
 10
0.0
 20
0.0
 30
0.0
 70
   128
 71
    41
 72
    40
 73
    39
  0
VERTEX
  5
6CD
330
42B
100
AcDbEntity
  8
TLESO1
100
AcDbFaceRecord
 10
0.0
 20
0.0
 30
0.0
 70
   128
 71
    39
 72
    38
 73
    37
  0
VERTEX
  5
6CE
330
42B
100
AcDbEntity
  8
TLESO1
100
AcDbFaceRecord
 10
0.0
 20
0.0
 30
0.0
 70
   128
 71
    37
 72
    36
 73
    35
  0
VERTEX
  5
6CF
330
42B
100
AcDbEntity
  8
TLESO1
100
AcDbFaceRecord
 10
0.0
 20
0.0
 30
0.0
 70
   128
 71
    35
 72
    34
 73
    33
  0
VERTEX
  5
6D0
330
42B
100
AcDbEntity
  8
TLESO1
100
AcDbFaceRecord
 10
0.0
 20
0.0
 30
0.0
 70
   128
 71
    30
 72
    29
 73
    28
  0
VERTEX
  5
6D1
330
42B
100
AcDbEntity
  8
TLESO1
100
AcDbFaceRecord
 10
0.0
 20
0.0
 30
0.0
 70
   128
 71
    28
 72
    27
 73
    84
  0
VERTEX
  5
6D2
330
42B
100
AcDbEntity
  8
TLESO1
100
AcDbFaceRecord
 10
0.0
 20
0.0
 30
0.0
 70
   128
 71
    84
 72
    27
 73
    26
  0
VERTEX
  5
6D3
330
42B
100
AcDbEntity
  8
TLESO1
100
AcDbFaceRecord
 10
0.0
 20
0.0
 30
0.0
 70
   128
 71
    26
 72
    25
 73
    24
  0
VERTEX
  5
6D4
330
42B
100
AcDbEntity
  8
TLESO1
100
AcDbFaceRecord
 10
0.0
 20
0.0
 30
0.0
 70
   128
 71
    21
 72
    24
 73
    22
  0
VERTEX
  5
6D5
330
42B
100
AcDbEntity
  8
TLESO1
100
AcDbFaceRecord
 10
0.0
 20
0.0
 30
0.0
 70
   128
 71
    30
 72
    62
 73
    31
  0
VERTEX
  5
6D6
330
42B
100
AcDbEntity
  8
TLESO1
100
AcDbFaceRecord
 10
0.0
 20
0.0
 30
0.0
 70
   128
 71
    32
 72
    51
 73
    33
  0
VERTEX
  5
6D7
330
42B
100
AcDbEntity
  8
TLESO1
100
AcDbFaceRecord
 10
0.0
 20
0.0
 30
0.0
 70
   128
 71
    53
 72
    60
 73
    54
  0
VERTEX
  5
6D8
330
42B
100
AcDbEntity
  8
TLESO1
100
AcDbFaceRecord
 10
0.0
 20
0.0
 30
0.0
 70
   128
 71
    85
 72
    86
 73
    87
  0
VERTEX
  5
6D9
330
42B
100
AcDbEntity
  8
TLESO1
100
AcDbFaceRecord
 10
0.0
 20
0.0
 30
0.0
 70
   128
 71
    86
 72
    88
 73
    89
  0
VERTEX
  5
6DA
330
42B
100
AcDbEntity
  8
TLESO1
100
AcDbFaceRecord
 10
0.0
 20
0.0
 30
0.0
 70
   128
 71
    88
 72
    90
 73
    89
  0
VERTEX
  5
6DB
330
42B
100
AcDbEntity
  8
TLESO1
100
AcDbFaceRecord
 10
0.0
 20
0.0
 30
0.0
 70
   128
 71
    89
 72
    91
 73
    92
  0
VERTEX
  5
6DC
330
42B
100
AcDbEntity
  8
TLESO1
100
AcDbFaceRecord
 10
0.0
 20
0.0
 30
0.0
 70
   128
 71
    93
 72
    87
 73
    92
  0
VERTEX
  5
6DD
330
42B
100
AcDbEntity
  8
TLESO1
100
AcDbFaceRecord
 10
0.0
 20
0.0
 30
0.0
 70
   128
 71
    87
 72
    86
 73
    92
  0
VERTEX
  5
6DE
330
42B
100
AcDbEntity
  8
TLESO1
100
AcDbFaceRecord
 10
0.0
 20
0.0
 30
0.0
 70
   128
 71
    86
 72
    89
 73
    92
  0
VERTEX
  5
6DF
330
42B
100
AcDbEntity
  8
TLESO1
100
AcDbFaceRecord
 10
0.0
 20
0.0
 30
0.0
 70
   128
 71
    94
 72
    95
 73
    96
  0
VERTEX
  5
6E0
330
42B
100
AcDbEntity
  8
TLESO1
100
AcDbFaceRecord
 10
0.0
 20
0.0
 30
0.0
 70
   128
 71
    95
 72
    97
 73
    96
  0
VERTEX
  5
6E1
330
42B
100
AcDbEntity
  8
TLESO1
100
AcDbFaceRecord
 10
0.0
 20
0.0
 30
0.0
 70
   128
 71
    97
 72
    98
 73
    99
  0
VERTEX
  5
6E2
330
42B
100
AcDbEntity
  8
TLESO1
100
AcDbFaceRecord
 10
0.0
 20
0.0
 30
0.0
 70
   128
 71
   100
 72
    96
 73
   101
  0
VERTEX
  5
6E3
330
42B
100
AcDbEntity
  8
TLESO1
100
AcDbFaceRecord
 10
0.0
 20
0.0
 30
0.0
 70
   128
 71
    99
 72
   102
 73
   101
  0
VERTEX
  5
6E4
330
42B
100
AcDbEntity
  8
TLESO1
100
AcDbFaceRecord
 10
0.0
 20
0.0
 30
0.0
 70
   128
 71
    96
 72
    97
 73
   101
  0
VERTEX
  5
6E5
330
42B
100
AcDbEntity
  8
TLESO1
100
AcDbFaceRecord
 10
0.0
 20
0.0
 30
0.0
 70
   128
 71
    97
 72
    99
 73
   101
  0
VERTEX
  5
6E6
330
42B
100
AcDbEntity
  8
TLESO1
100
AcDbFaceRecord
 10
0.0
 20
0.0
 30
0.0
 70
   128
 71
   103
 72
   104
 73
   105
  0
VERTEX
  5
6E7
330
42B
100
AcDbEntity
  8
TLESO1
100
AcDbFaceRecord
 10
0.0
 20
0.0
 30
0.0
 70
   128
 71
   104
 72
   106
 73
   107
  0
VERTEX
  5
6E8
330
42B
100
AcDbEntity
  8
TLESO1
100
AcDbFaceRecord
 10
0.0
 20
0.0
 30
0.0
 70
   128
 71
   106
 72
   108
 73
   107
  0
VERTEX
  5
6E9
330
42B
100
AcDbEntity
  8
TLESO1
100
AcDbFaceRecord
 10
0.0
 20
0.0
 30
0.0
 70
   128
 71
   109
 72
   110
 73
   107
  0
VERTEX
  5
6EA
330
42B
100
AcDbEntity
  8
TLESO1
100
AcDbFaceRecord
 10
0.0
 20
0.0
 30
0.0
 70
   128
 71
   110
 72
   111
 73
   107
  0
VERTEX
  5
6EB
330
42B
100
AcDbEntity
  8
TLESO1
100
AcDbFaceRecord
 10
0.0
 20
0.0
 30
0.0
 70
   128
 71
   111
 72
   112
 73
   105
  0
VERTEX
  5
6EC
330
42B
100
AcDbEntity
  8
TLESO1
100
AcDbFaceRecord
 10
0.0
 20
0.0
 30
0.0
 70
   128
 71
   105
 72
   104
 73
   107
  0
VERTEX
  5
6ED
330
42B
100
AcDbEntity
  8
TLESO1
100
AcDbFaceRecord
 10
0.0
 20
0.0
 30
0.0
 70
   128
 71
   107
 72
   111
 73
   105
  0
VERTEX
  5
6EE
330
42B
100
AcDbEntity
  8
TLESO1
100
AcDbFaceRecord
 10
0.0
 20
0.0
 30
0.0
 70
   128
 71
   113
 72
   114
 73
   115
  0
VERTEX
  5
6EF
330
42B
100
AcDbEntity
  8
TLESO1
100
AcDbFaceRecord
 10
0.0
 20
0.0
 30
0.0
 70
   128
 71
   114
 72
   116
 73
   117
  0
VERTEX
  5
6F0
330
42B
100
AcDbEntity
  8
TLESO1
100
AcDbFaceRecord
 10
0.0
 20
0.0
 30
0.0
 70
   128
 71
   118
 72
   119
 73
   117
  0
VERTEX
  5
6F1
330
42B
100
AcDbEntity
  8
TLESO1
100
AcDbFaceRecord
 10
0.0
 20
0.0
 30
0.0
 70
   128
 71
   119
 72
   120
 73
   121
  0
VERTEX
  5
6F2
330
42B
100
AcDbEntity
  8
TLESO1
100
AcDbFaceRecord
 10
0.0
 20
0.0
 30
0.0
 70
   128
 71
   121
 72
   115
 73
   114
  0
VERTEX
  5
6F3
330
42B
100
AcDbEntity
  8
TLESO1
100
AcDbFaceRecord
 10
0.0
 20
0.0
 30
0.0
 70
   128
 71
   114
 72
   117
 73
   121
  0
VERTEX
  5
6F4
330
42B
100
AcDbEntity
  8
TLESO1
100
AcDbFaceRecord
 10
0.0
 20
0.0
 30
0.0
 70
   128
 71
   117
 72
   119
 73
   121
  0
VERTEX
  5
6F5
330
42B
100
AcDbEntity
  8
TLESO1
100
AcDbFaceRecord
 10
0.0
 20
0.0
 30
0.0
 70
   128
 71
   122
 72
   123
 73
   124
  0
VERTEX
  5
6F6
330
42B
100
AcDbEntity
  8
TLESO1
100
AcDbFaceRecord
 10
0.0
 20
0.0
 30
0.0
 70
   128
 71
   123
 72
   125
 73
   126
  0
VERTEX
  5
6F7
330
42B
100
AcDbEntity
  8
TLESO1
100
AcDbFaceRecord
 10
0.0
 20
0.0
 30
0.0
 70
   128
 71
   125
 72
   127
 73
   126
  0
VERTEX
  5
6F8
330
42B
100
AcDbEntity
  8
TLESO1
100
AcDbFaceRecord
 10
0.0
 20
0.0
 30
0.0
 70
   128
 71
   128
 72
   129
 73
   130
  0
VERTEX
  5
6F9
330
42B
100
AcDbEntity
  8
TLESO1
100
AcDbFaceRecord
 10
0.0
 20
0.0
 30
0.0
 70
   128
 71
   129
 72
   131
 73
   130
  0
VERTEX
  5
6FA
330
42B
100
AcDbEntity
  8
TLESO1
100
AcDbFaceRecord
 10
0.0
 20
0.0
 30
0.0
 70
   128
 71
   131
 72
   132
 73
   124
  0
VERTEX
  5
6FB
330
42B
100
AcDbEntity
  8
TLESO1
100
AcDbFaceRecord
 10
0.0
 20
0.0
 30
0.0
 70
   128
 71
   126
 72
   130
 73
   124
  0
VERTEX
  5
6FC
330
42B
100
AcDbEntity
  8
TLESO1
100
AcDbFaceRecord
 10
0.0
 20
0.0
 30
0.0
 70
   128
 71
   124
 72
   123
 73
   126
  0
VERTEX
  5
6FD
330
42B
100
AcDbEntity
  8
TLESO1
100
AcDbFaceRecord
 10
0.0
 20
0.0
 30
0.0
 70
   128
 71
   130
 72
   131
 73
   124
  0
VERTEX
  5
6FE
330
42B
100
AcDbEntity
  8
TLESO1
100
AcDbFaceRecord
 10
0.0
 20
0.0
 30
0.0
 70
   128
 71
   133
 72
   134
 73
   135
  0
VERTEX
  5
6FF
330
42B
100
AcDbEntity
  8
TLESO1
100
AcDbFaceRecord
 10
0.0
 20
0.0
 30
0.0
 70
   128
 71
   134
 72
   136
 73
   137
  0
VERTEX
  5
700
330
42B
100
AcDbEntity
  8
TLESO1
100
AcDbFaceRecord
 10
0.0
 20
0.0
 30
0.0
 70
   128
 71
   138
 72
   139
 73
   137
  0
VERTEX
  5
701
330
42B
100
AcDbEntity
  8
TLESO1
100
AcDbFaceRecord
 10
0.0
 20
0.0
 30
0.0
 70
   128
 71
   139
 72
   140
 73
   141
  0
VERTEX
  5
702
330
42B
100
AcDbEntity
  8
TLESO1
100
AcDbFaceRecord
 10
0.0
 20
0.0
 30
0.0
 70
   128
 71
   141
 72
   135
 73
   139
  0
VERTEX
  5
703
330
42B
100
AcDbEntity
  8
TLESO1
100
AcDbFaceRecord
 10
0.0
 20
0.0
 30
0.0
 70
   128
 71
   135
 72
   134
 73
   137
  0
VERTEX
  5
704
330
42B
100
AcDbEntity
  8
TLESO1
100
AcDbFaceRecord
 10
0.0
 20
0.0
 30
0.0
 70
   128
 71
   137
 72
   139
 73
   135
  0
VERTEX
  5
705
330
42B
100
AcDbEntity
  8
TLESO1
100
AcDbFaceRecord
 10
0.0
 20
0.0
 30
0.0
 70
   128
 71
   142
 72
   143
 73
   144
  0
VERTEX
  5
706
330
42B
100
AcDbEntity
  8
TLESO1
100
AcDbFaceRecord
 10
0.0
 20
0.0
 30
0.0
 70
   128
 71
   143
 72
   145
 73
   144
  0
VERTEX
  5
707
330
42B
100
AcDbEntity
  8
TLESO1
100
AcDbFaceRecord
 10
0.0
 20
0.0
 30
0.0
 70
   128
 71
   145
 72
   146
 73
   147
  0
VERTEX
  5
708
330
42B
100
AcDbEntity
  8
TLESO1
100
AcDbFaceRecord
 10
0.0
 20
0.0
 30
0.0
 70
   128
 71
   148
 72
   149
 73
   147
  0
VERTEX
  5
709
330
42B
100
AcDbEntity
  8
TLESO1
100
AcDbFaceRecord
 10
0.0
 20
0.0
 30
0.0
 70
   128
 71
   149
 72
   150
 73
   144
  0
VERTEX
  5
70A
330
42B
100
AcDbEntity
  8
TLESO1
100
AcDbFaceRecord
 10
0.0
 20
0.0
 30
0.0
 70
   128
 71
   150
 72
   151
 73
   144
  0
VERTEX
  5
70B
330
42B
100
AcDbEntity
  8
TLESO1
100
AcDbFaceRecord
 10
0.0
 20
0.0
 30
0.0
 70
   128
 71
   144
 72
   145
 73
   147
  0
VERTEX
  5
70C
330
42B
100
AcDbEntity
  8
TLESO1
100
AcDbFaceRecord
 10
0.0
 20
0.0
 30
0.0
 70
   128
 71
   147
 72
   149
 73
   144
  0
VERTEX
  5
70D
330
42B
100
AcDbEntity
  8
TLESO1
100
AcDbFaceRecord
 10
0.0
 20
0.0
 30
0.0
 70
   128
 71
   152
 72
   153
 73
   154
  0
VERTEX
  5
70E
330
42B
100
AcDbEntity
  8
TLESO1
100
AcDbFaceRecord
 10
0.0
 20
0.0
 30
0.0
 70
   128
 71
   153
 72
   155
 73
   156
  0
VERTEX
  5
70F
330
42B
100
AcDbEntity
  8
TLESO1
100
AcDbFaceRecord
 10
0.0
 20
0.0
 30
0.0
 70
   128
 71
   155
 72
   157
 73
   158
  0
VERTEX
  5
710
330
42B
100
AcDbEntity
  8
TLESO1
100
AcDbFaceRecord
 10
0.0
 20
0.0
 30
0.0
 70
   128
 71
   159
 72
   160
 73
   156
  0
VERTEX
  5
711
330
42B
100
AcDbEntity
  8
TLESO1
100
AcDbFaceRecord
 10
0.0
 20
0.0
 30
0.0
 70
   128
 71
   160
 72
   154
 73
   156
  0
VERTEX
  5
712
330
42B
100
AcDbEntity
  8
TLESO1
100
AcDbFaceRecord
 10
0.0
 20
0.0
 30
0.0
 70
   128
 71
   158
 72
   156
 73
   155
  0
VERTEX
  5
713
330
42B
100
AcDbEntity
  8
TLESO1
100
AcDbFaceRecord
 10
0.0
 20
0.0
 30
0.0
 70
   128
 71
   154
 72
   153
 73
   156
  0
VERTEX
  5
714
330
42B
100
AcDbEntity
  8
TLESO1
100
AcDbFaceRecord
 10
0.0
 20
0.0
 30
0.0
 70
   128
 71
   161
 72
   162
 73
   163
  0
VERTEX
  5
715
330
42B
100
AcDbEntity
  8
TLESO1
100
AcDbFaceRecord
 10
0.0
 20
0.0
 30
0.0
 70
   128
 71
   162
 72
   164
 73
   163
  0
VERTEX
  5
716
330
42B
100
AcDbEntity
  8
TLESO1
100
AcDbFaceRecord
 10
0.0
 20
0.0
 30
0.0
 70
   128
 71
   164
 72
   165
 73
   166
  0
VERTEX
  5
717
330
42B
100
AcDbEntity
  8
TLESO1
100
AcDbFaceRecord
 10
0.0
 20
0.0
 30
0.0
 70
   128
 71
   167
 72
   163
 73
   168
  0
VERTEX
  5
718
330
42B
100
AcDbEntity
  8
TLESO1
100
AcDbFaceRecord
 10
0.0
 20
0.0
 30
0.0
 70
   128
 71
   166
 72
   169
 73
   170
  0
VERTEX
  5
719
330
42B
100
AcDbEntity
  8
TLESO1
100
AcDbFaceRecord
 10
0.0
 20
0.0
 30
0.0
 70
   128
 71
   170
 72
   168
 73
   166
  0
VERTEX
  5
71A
330
42B
100
AcDbEntity
  8
TLESO1
100
AcDbFaceRecord
 10
0.0
 20
0.0
 30
0.0
 70
   128
 71
   163
 72
   164
 73
   166
  0
VERTEX
  5
71B
330
42B
100
AcDbEntity
  8
TLESO1
100
AcDbFaceRecord
 10
0.0
 20
0.0
 30
0.0
 70
   128
 71
   168
 72
   163
 73
   166
  0
VERTEX
  5
71C
330
42B
100
AcDbEntity
  8
TLESO1
100
AcDbFaceRecord
 10
0.0
 20
0.0
 30
0.0
 70
   128
 71
   171
 72
   172
 73
   173
  0
VERTEX
  5
71D
330
42B
100
AcDbEntity
  8
TLESO1
100
AcDbFaceRecord
 10
0.0
 20
0.0
 30
0.0
 70
   128
 71
   172
 72
   174
 73
   175
  0
VERTEX
  5
71E
330
42B
100
AcDbEntity
  8
TLESO1
100
AcDbFaceRecord
 10
0.0
 20
0.0
 30
0.0
 70
   128
 71
   174
 72
   176
 73
   175
  0
VERTEX
  5
71F
330
42B
100
AcDbEntity
  8
TLESO1
100
AcDbFaceRecord
 10
0.0
 20
0.0
 30
0.0
 70
   128
 71
   177
 72
   178
 73
   175
  0
VERTEX
  5
720
330
42B
100
AcDbEntity
  8
TLESO1
100
AcDbFaceRecord
 10
0.0
 20
0.0
 30
0.0
 70
   128
 71
   178
 72
   179
 73
   173
  0
VERTEX
  5
721
330
42B
100
AcDbEntity
  8
TLESO1
100
AcDbFaceRecord
 10
0.0
 20
0.0
 30
0.0
 70
   128
 71
   179
 72
   180
 73
   173
  0
VERTEX
  5
722
330
42B
100
AcDbEntity
  8
TLESO1
100
AcDbFaceRecord
 10
0.0
 20
0.0
 30
0.0
 70
   128
 71
   173
 72
   172
 73
   175
  0
VERTEX
  5
723
330
42B
100
AcDbEntity
  8
TLESO1
100
AcDbFaceRecord
 10
0.0
 20
0.0
 30
0.0
 70
   128
 71
   175
 72
   178
 73
   173
  0
VERTEX
  5
724
330
42B
100
AcDbEntity
  8
TLESO1
100
AcDbFaceRecord
 10
0.0
 20
0.0
 30
0.0
 70
   128
 71
   181
 72
   182
 73
   183
  0
VERTEX
  5
725
330
42B
100
AcDbEntity
  8
TLESO1
100
AcDbFaceRecord
 10
0.0
 20
0.0
 30
0.0
 70
   128
 71
   182
 72
   184
 73
   183
  0
VERTEX
  5
726
330
42B
100
AcDbEntity
  8
TLESO1
100
AcDbFaceRecord
 10
0.0
 20
0.0
 30
0.0
 70
   128
 71
   184
 72
   185
 73
   183
  0
VERTEX
  5
727
330
42B
100
AcDbEntity
  8
TLESO1
100
AcDbFaceRecord
 10
0.0
 20
0.0
 30
0.0
 70
   128
 71
   186
 72
   187
 73
   188
  0
VERTEX
  5
728
330
42B
100
AcDbEntity
  8
TLESO1
100
AcDbFaceRecord
 10
0.0
 20
0.0
 30
0.0
 70
   128
 71
   187
 72
   181
 73
   189
  0
VERTEX
  5
729
330
42B
100
AcDbEntity
  8
TLESO1
100
AcDbFaceRecord
 10
0.0
 20
0.0
 30
0.0
 70
   128
 71
   183
 72
   189
 73
   181
  0
VERTEX
  5
72A
330
42B
100
AcDbEntity
  8
TLESO1
100
AcDbFaceRecord
 10
0.0
 20
0.0
 30
0.0
 70
   128
 71
   189
 72
   190
 73
   187
  0
VERTEX
  5
72B
330
42B
100
AcDbEntity
  8
TLESO1
100
AcDbFaceRecord
 10
0.0
 20
0.0
 30
0.0
 70
   128
 71
   190
 72
   191
 73
   187
  0
VERTEX
  5
72C
330
42B
100
AcDbEntity
  8
TLESO1
100
AcDbFaceRecord
 10
0.0
 20
0.0
 30
0.0
 70
   128
 71
   191
 72
   192
 73
   187
  0
VERTEX
  5
72D
330
42B
100
AcDbEntity
  8
TLESO1
100
AcDbFaceRecord
 10
0.0
 20
0.0
 30
0.0
 70
   128
 71
   192
 72
   193
 73
   187
  0
VERTEX
  5
72E
330
42B
100
AcDbEntity
  8
TLESO1
100
AcDbFaceRecord
 10
0.0
 20
0.0
 30
0.0
 70
   128
 71
   193
 72
   188
 73
   187
  0
VERTEX
  5
72F
330
42B
100
AcDbEntity
  8
TLESO1
100
AcDbFaceRecord
 10
0.0
 20
0.0
 30
0.0
 70
   128
 71
   188
 72
   194
 73
   186
  0
VERTEX
  5
730
330
42B
100
AcDbEntity
  8
TLESO1
100
AcDbFaceRecord
 10
0.0
 20
0.0
 30
0.0
 70
   128
 71
   194
 72
   195
 73
   196
  0
VERTEX
  5
731
330
42B
100
AcDbEntity
  8
TLESO1
100
AcDbFaceRecord
 10
0.0
 20
0.0
 30
0.0
 70
   128
 71
   195
 72
   197
 73
   198
  0
VERTEX
  5
732
330
42B
100
AcDbEntity
  8
TLESO1
100
AcDbFaceRecord
 10
0.0
 20
0.0
 30
0.0
 70
   128
 71
   198
 72
   196
 73
   195
  0
VERTEX
  5
733
330
42B
100
AcDbEntity
  8
TLESO1
100
AcDbFaceRecord
 10
0.0
 20
0.0
 30
0.0
 70
   128
 71
   196
 72
   186
 73
   194
  0
VERTEX
  5
734
330
42B
100
AcDbEntity
  8
TLESO1
100
AcDbFaceRecord
 10
0.0
 20
0.0
 30
0.0
 70
   128
 71
   199
 72
   200
 73
   201
  0
VERTEX
  5
735
330
42B
100
AcDbEntity
  8
TLESO1
100
AcDbFaceRecord
 10
0.0
 20
0.0
 30
0.0
 70
   128
 71
   200
 72
   202
 73
   201
  0
VERTEX
  5
736
330
42B
100
AcDbEntity
  8
TLESO1
100
AcDbFaceRecord
 10
0.0
 20
0.0
 30
0.0
 70
   128
 71
   202
 72
   203
 73
   204
  0
VERTEX
  5
737
330
42B
100
AcDbEntity
  8
TLESO1
100
AcDbFaceRecord
 10
0.0
 20
0.0
 30
0.0
 70
   128
 71
   204
 72
   205
 73
   206
  0
VERTEX
  5
738
330
42B
100
AcDbEntity
  8
TLESO1
100
AcDbFaceRecord
 10
0.0
 20
0.0
 30
0.0
 70
   128
 71
   207
 72
   201
 73
   206
  0
VERTEX
  5
739
330
42B
100
AcDbEntity
  8
TLESO1
100
AcDbFaceRecord
 10
0.0
 20
0.0
 30
0.0
 70
   128
 71
   201
 72
   202
 73
   206
  0
VERTEX
  5
73A
330
42B
100
AcDbEntity
  8
TLESO1
100
AcDbFaceRecord
 10
0.0
 20
0.0
 30
0.0
 70
   128
 71
   202
 72
   204
 73
   206
  0
VERTEX
  5
73B
330
42B
100
AcDbEntity
  8
TLESO1
100
AcDbFaceRecord
 10
0.0
 20
0.0
 30
0.0
 70
   128
 71
   208
 72
   209
 73
   210
  0
VERTEX
  5
73C
330
42B
100
AcDbEntity
  8
TLESO1
100
AcDbFaceRecord
 10
0.0
 20
0.0
 30
0.0
 70
   128
 71
   209
 72
   211
 73
   212
  0
VERTEX
  5
73D
330
42B
100
AcDbEntity
  8
TLESO1
100
AcDbFaceRecord
 10
0.0
 20
0.0
 30
0.0
 70
   128
 71
   211
 72
   213
 73
   212
  0
VERTEX
  5
73E
330
42B
100
AcDbEntity
  8
TLESO1
100
AcDbFaceRecord
 10
0.0
 20
0.0
 30
0.0
 70
   128
 71
   214
 72
   215
 73
   212
  0
VERTEX
  5
73F
330
42B
100
AcDbEntity
  8
TLESO1
100
AcDbFaceRecord
 10
0.0
 20
0.0
 30
0.0
 70
   128
 71
   215
 72
   216
 73
   210
  0
VERTEX
  5
740
330
42B
100
AcDbEntity
  8
TLESO1
100
AcDbFaceRecord
 10
0.0
 20
0.0
 30
0.0
 70
   128
 71
   216
 72
   217
 73
   210
  0
VERTEX
  5
741
330
42B
100
AcDbEntity
  8
TLESO1
100
AcDbFaceRecord
 10
0.0
 20
0.0
 30
0.0
 70
   128
 71
   210
 72
   209
 73
   212
  0
VERTEX
  5
742
330
42B
100
AcDbEntity
  8
TLESO1
100
AcDbFaceRecord
 10
0.0
 20
0.0
 30
0.0
 70
   128
 71
   212
 72
   215
 73
   210
  0
VERTEX
  5
743
330
42B
100
AcDbEntity
  8
TLESO1
100
AcDbFaceRecord
 10
0.0
 20
0.0
 30
0.0
 70
   128
 71
   218
 72
   219
 73
   220
  0
VERTEX
  5
744
330
42B
100
AcDbEntity
  8
TLESO1
100
AcDbFaceRecord
 10
0.0
 20
0.0
 30
0.0
 70
   128
 71
   219
 72
   221
 73
   220
  0
VERTEX
  5
745
330
42B
100
AcDbEntity
  8
TLESO1
100
AcDbFaceRecord
 10
0.0
 20
0.0
 30
0.0
 70
   128
 71
   221
 72
   222
 73
   223
  0
VERTEX
  5
746
330
42B
100
AcDbEntity
  8
TLESO1
100
AcDbFaceRecord
 10
0.0
 20
0.0
 30
0.0
 70
   128
 71
   224
 72
   225
 73
   223
  0
VERTEX
  5
747
330
42B
100
AcDbEntity
  8
TLESO1
100
AcDbFaceRecord
 10
0.0
 20
0.0
 30
0.0
 70
   128
 71
   225
 72
   226
 73
   223
  0
VERTEX
  5
748
330
42B
100
AcDbEntity
  8
TLESO1
100
AcDbFaceRecord
 10
0.0
 20
0.0
 30
0.0
 70
   128
 71
   226
 72
   227
 73
   220
  0
VERTEX
  5
749
330
42B
100
AcDbEntity
  8
TLESO1
100
AcDbFaceRecord
 10
0.0
 20
0.0
 30
0.0
 70
   128
 71
   220
 72
   221
 73
   223
  0
VERTEX
  5
74A
330
42B
100
AcDbEntity
  8
TLESO1
100
AcDbFaceRecord
 10
0.0
 20
0.0
 30
0.0
 70
   128
 71
   223
 72
   226
 73
   220
  0
VERTEX
  5
74B
330
42B
100
AcDbEntity
  8
TLESO1
100
AcDbFaceRecord
 10
0.0
 20
0.0
 30
0.0
 70
   128
 71
   228
 72
   229
 73
   230
  0
VERTEX
  5
74C
330
42B
100
AcDbEntity
  8
TLESO1
100
AcDbFaceRecord
 10
0.0
 20
0.0
 30
0.0
 70
   128
 71
   229
 72
   231
 73
   232
  0
VERTEX
  5
74D
330
42B
100
AcDbEntity
  8
TLESO1
100
AcDbFaceRecord
 10
0.0
 20
0.0
 30
0.0
 70
   128
 71
   231
 72
   233
 73
   232
  0
VERTEX
  5
74E
330
42B
100
AcDbEntity
  8
TLESO1
100
AcDbFaceRecord
 10
0.0
 20
0.0
 30
0.0
 70
   128
 71
   234
 72
   235
 73
   232
  0
VERTEX
  5
74F
330
42B
100
AcDbEntity
  8
TLESO1
100
AcDbFaceRecord
 10
0.0
 20
0.0
 30
0.0
 70
   128
 71
   235
 72
   236
 73
   230
  0
VERTEX
  5
750
330
42B
100
AcDbEntity
  8
TLESO1
100
AcDbFaceRecord
 10
0.0
 20
0.0
 30
0.0
 70
   128
 71
   236
 72
   237
 73
   230
  0
VERTEX
  5
751
330
42B
100
AcDbEntity
  8
TLESO1
100
AcDbFaceRecord
 10
0.0
 20
0.0
 30
0.0
 70
   128
 71
   230
 72
   229
 73
   232
  0
VERTEX
  5
752
330
42B
100
AcDbEntity
  8
TLESO1
100
AcDbFaceRecord
 10
0.0
 20
0.0
 30
0.0
 70
   128
 71
   232
 72
   235
 73
   230
  0
VERTEX
  5
753
330
42B
100
AcDbEntity
  8
TLESO1
100
AcDbFaceRecord
 10
0.0
 20
0.0
 30
0.0
 70
   128
 71
   238
 72
   239
 73
   240
  0
VERTEX
  5
754
330
42B
100
AcDbEntity
  8
TLESO1
100
AcDbFaceRecord
 10
0.0
 20
0.0
 30
0.0
 70
   128
 71
   239
 72
   241
 73
   240
  0
VERTEX
  5
755
330
42B
100
AcDbEntity
  8
TLESO1
100
AcDbFaceRecord
 10
0.0
 20
0.0
 30
0.0
 70
   128
 71
   241
 72
   242
 73
   243
  0
VERTEX
  5
756
330
42B
100
AcDbEntity
  8
TLESO1
100
AcDbFaceRecord
 10
0.0
 20
0.0
 30
0.0
 70
   128
 71
   244
 72
   245
 73
   243
  0
VERTEX
  5
757
330
42B
100
AcDbEntity
  8
TLESO1
100
AcDbFaceRecord
 10
0.0
 20
0.0
 30
0.0
 70
   128
 71
   245
 72
   246
 73
   240
  0
VERTEX
  5
758
330
42B
100
AcDbEntity
  8
TLESO1
100
AcDbFaceRecord
 10
0.0
 20
0.0
 30
0.0
 70
   128
 71
   246
 72
   247
 73
   240
  0
VERTEX
  5
759
330
42B
100
AcDbEntity
  8
TLESO1
100
AcDbFaceRecord
 10
0.0
 20
0.0
 30
0.0
 70
   128
 71
   240
 72
   241
 73
   243
  0
VERTEX
  5
75A
330
42B
100
AcDbEntity
  8
TLESO1
100
AcDbFaceRecord
 10
0.0
 20
0.0
 30
0.0
 70
   128
 71
   243
 72
   245
 73
   240
  0
VERTEX
  5
75B
330
42B
100
AcDbEntity
  8
TLESO1
100
AcDbFaceRecord
 10
0.0
 20
0.0
 30
0.0
 70
   128
 71
   248
 72
   249
 73
   250
  0
VERTEX
  5
75C
330
42B
100
AcDbEntity
  8
TLESO1
100
AcDbFaceRecord
 10
0.0
 20
0.0
 30
0.0
 70
   128
 71
   249
 72
   251
 73
   250
  0
VERTEX
  5
75D
330
42B
100
AcDbEntity
  8
TLESO1
100
AcDbFaceRecord
 10
0.0
 20
0.0
 30
0.0
 70
   128
 71
   251
 72
   252
 73
   250
  0
VERTEX
  5
75E
330
42B
100
AcDbEntity
  8
TLESO1
100
AcDbFaceRecord
 10
0.0
 20
0.0
 30
0.0
 70
   128
 71
   253
 72
   254
 73
   255
  0
VERTEX
  5
75F
330
42B
100
AcDbEntity
  8
TLESO1
100
AcDbFaceRecord
 10
0.0
 20
0.0
 30
0.0
 70
   128
 71
   254
 72
   256
 73
   255
  0
VERTEX
  5
760
330
42B
100
AcDbEntity
  8
TLESO1
100
AcDbFaceRecord
 10
0.0
 20
0.0
 30
0.0
 70
   128
 71
   256
 72
   257
 73
   255
  0
VERTEX
  5
761
330
42B
100
AcDbEntity
  8
TLESO1
100
AcDbFaceRecord
 10
0.0
 20
0.0
 30
0.0
 70
   128
 71
   255
 72
   258
 73
   253
  0
VERTEX
  5
762
330
42B
100
AcDbEntity
  8
TLESO1
100
AcDbFaceRecord
 10
0.0
 20
0.0
 30
0.0
 70
   128
 71
   258
 72
   259
 73
   253
  0
VERTEX
  5
763
330
42B
100
AcDbEntity
  8
TLESO1
100
AcDbFaceRecord
 10
0.0
 20
0.0
 30
0.0
 70
   128
 71
   259
 72
   260
 73
   261
  0
VERTEX
  5
764
330
42B
100
AcDbEntity
  8
TLESO1
100
AcDbFaceRecord
 10
0.0
 20
0.0
 30
0.0
 70
   128
 71
   260
 72
   262
 73
   261
  0
VERTEX
  5
765
330
42B
100
AcDbEntity
  8
TLESO1
100
AcDbFaceRecord
 10
0.0
 20
0.0
 30
0.0
 70
   128
 71
   262
 72
   263
 73
   261
  0
VERTEX
  5
766
330
42B
100
AcDbEntity
  8
TLESO1
100
AcDbFaceRecord
 10
0.0
 20
0.0
 30
0.0
 70
   128
 71
   263
 72
   264
 73
   261
  0
VERTEX
  5
767
330
42B
100
AcDbEntity
  8
TLESO1
100
AcDbFaceRecord
 10
0.0
 20
0.0
 30
0.0
 70
   128
 71
   264
 72
   265
 73
   261
  0
VERTEX
  5
768
330
42B
100
AcDbEntity
  8
TLESO1
100
AcDbFaceRecord
 10
0.0
 20
0.0
 30
0.0
 70
   128
 71
   265
 72
   250
 73
   252
  0
VERTEX
  5
769
330
42B
100
AcDbEntity
  8
TLESO1
100
AcDbFaceRecord
 10
0.0
 20
0.0
 30
0.0
 70
   128
 71
   252
 72
   261
 73
   265
  0
VERTEX
  5
76A
330
42B
100
AcDbEntity
  8
TLESO1
100
AcDbFaceRecord
 10
0.0
 20
0.0
 30
0.0
 70
   128
 71
   261
 72
   253
 73
   259
  0
VERTEX
  5
76B
330
42B
100
AcDbEntity
  8
TLESO1
100
AcDbFaceRecord
 10
0.0
 20
0.0
 30
0.0
 70
   128
 71
   266
 72
   267
 73
   268
  0
VERTEX
  5
76C
330
42B
100
AcDbEntity
  8
TLESO1
100
AcDbFaceRecord
 10
0.0
 20
0.0
 30
0.0
 70
   128
 71
   267
 72
   269
 73
   270
  0
VERTEX
  5
76D
330
42B
100
AcDbEntity
  8
TLESO1
100
AcDbFaceRecord
 10
0.0
 20
0.0
 30
0.0
 70
   128
 71
   269
 72
   271
 73
   272
  0
VERTEX
  5
76E
330
42B
100
AcDbEntity
  8
TLESO1
100
AcDbFaceRecord
 10
0.0
 20
0.0
 30
0.0
 70
   128
 71
   271
 72
   273
 73
   274
  0
VERTEX
  5
76F
330
42B
100
AcDbEntity
  8
TLESO1
100
AcDbFaceRecord
 10
0.0
 20
0.0
 30
0.0
 70
   128
 71
   273
 72
   275
 73
   276
  0
VERTEX
  5
770
330
42B
100
AcDbEntity
  8
TLESO1
100
AcDbFaceRecord
 10
0.0
 20
0.0
 30
0.0
 70
   128
 71
   275
 72
   277
 73
   278
  0
VERTEX
  5
771
330
42B
100
AcDbEntity
  8
TLESO1
100
AcDbFaceRecord
 10
0.0
 20
0.0
 30
0.0
 70
   128
 71
   277
 72
   279
 73
   280
  0
VERTEX
  5
772
330
42B
100
AcDbEntity
  8
TLESO1
100
AcDbFaceRecord
 10
0.0
 20
0.0
 30
0.0
 70
   128
 71
   279
 72
   281
 73
   282
  0
VERTEX
  5
773
330
42B
100
AcDbEntity
  8
TLESO1
100
AcDbFaceRecord
 10
0.0
 20
0.0
 30
0.0
 70
   128
 71
   281
 72
   283
 73
   282
  0
VERTEX
  5
774
330
42B
100
AcDbEntity
  8
TLESO1
100
AcDbFaceRecord
 10
0.0
 20
0.0
 30
0.0
 70
   128
 71
   283
 72
   284
 73
   285
  0
VERTEX
  5
775
330
42B
100
AcDbEntity
  8
TLESO1
100
AcDbFaceRecord
 10
0.0
 20
0.0
 30
0.0
 70
   128
 71
   285
 72
   286
 73
   287
  0
VERTEX
  5
776
330
42B
100
AcDbEntity
  8
TLESO1
100
AcDbFaceRecord
 10
0.0
 20
0.0
 30
0.0
 70
   128
 71
   286
 72
   288
 73
   289
  0
VERTEX
  5
777
330
42B
100
AcDbEntity
  8
TLESO1
100
AcDbFaceRecord
 10
0.0
 20
0.0
 30
0.0
 70
   128
 71
   289
 72
   290
 73
   291
  0
VERTEX
  5
778
330
42B
100
AcDbEntity
  8
TLESO1
100
AcDbFaceRecord
 10
0.0
 20
0.0
 30
0.0
 70
   128
 71
   290
 72
   292
 73
   291
  0
VERTEX
  5
779
330
42B
100
AcDbEntity
  8
TLESO1
100
AcDbFaceRecord
 10
0.0
 20
0.0
 30
0.0
 70
   128
 71
   292
 72
   293
 73
   294
  0
VERTEX
  5
77A
330
42B
100
AcDbEntity
  8
TLESO1
100
AcDbFaceRecord
 10
0.0
 20
0.0
 30
0.0
 70
   128
 71
   293
 72
   295
 73
   296
  0
VERTEX
  5
77B
330
42B
100
AcDbEntity
  8
TLESO1
100
AcDbFaceRecord
 10
0.0
 20
0.0
 30
0.0
 70
   128
 71
   295
 72
   297
 73
   298
  0
VERTEX
  5
77C
330
42B
100
AcDbEntity
  8
TLESO1
100
AcDbFaceRecord
 10
0.0
 20
0.0
 30
0.0
 70
   128
 71
   297
 72
   299
 73
   300
  0
VERTEX
  5
77D
330
42B
100
AcDbEntity
  8
TLESO1
100
AcDbFaceRecord
 10
0.0
 20
0.0
 30
0.0
 70
   128
 71
   299
 72
   301
 73
   302
  0
VERTEX
  5
77E
330
42B
100
AcDbEntity
  8
TLESO1
100
AcDbFaceRecord
 10
0.0
 20
0.0
 30
0.0
 70
   128
 71
   301
 72
   303
 73
   304
  0
VERTEX
  5
77F
330
42B
100
AcDbEntity
  8
TLESO1
100
AcDbFaceRecord
 10
0.0
 20
0.0
 30
0.0
 70
   128
 71
   303
 72
   305
 73
   306
  0
VERTEX
  5
780
330
42B
100
AcDbEntity
  8
TLESO1
100
AcDbFaceRecord
 10
0.0
 20
0.0
 30
0.0
 70
   128
 71
   282
 72
   280
 73
   279
  0
VERTEX
  5
781
330
42B
100
AcDbEntity
  8
TLESO1
100
AcDbFaceRecord
 10
0.0
 20
0.0
 30
0.0
 70
   128
 71
   280
 72
   278
 73
   277
  0
VERTEX
  5
782
330
42B
100
AcDbEntity
  8
TLESO1
100
AcDbFaceRecord
 10
0.0
 20
0.0
 30
0.0
 70
   128
 71
   278
 72
   276
 73
   275
  0
VERTEX
  5
783
330
42B
100
AcDbEntity
  8
TLESO1
100
AcDbFaceRecord
 10
0.0
 20
0.0
 30
0.0
 70
   128
 71
   276
 72
   274
 73
   273
  0
VERTEX
  5
784
330
42B
100
AcDbEntity
  8
TLESO1
100
AcDbFaceRecord
 10
0.0
 20
0.0
 30
0.0
 70
   128
 71
   274
 72
   272
 73
   271
  0
VERTEX
  5
785
330
42B
100
AcDbEntity
  8
TLESO1
100
AcDbFaceRecord
 10
0.0
 20
0.0
 30
0.0
 70
   128
 71
   272
 72
   270
 73
   269
  0
VERTEX
  5
786
330
42B
100
AcDbEntity
  8
TLESO1
100
AcDbFaceRecord
 10
0.0
 20
0.0
 30
0.0
 70
   128
 71
   270
 72
   268
 73
   267
  0
VERTEX
  5
787
330
42B
100
AcDbEntity
  8
TLESO1
100
AcDbFaceRecord
 10
0.0
 20
0.0
 30
0.0
 70
   128
 71
   268
 72
   307
 73
   308
  0
VERTEX
  5
788
330
42B
100
AcDbEntity
  8
TLESO1
100
AcDbFaceRecord
 10
0.0
 20
0.0
 30
0.0
 70
   128
 71
   307
 72
   309
 73
   310
  0
VERTEX
  5
789
330
42B
100
AcDbEntity
  8
TLESO1
100
AcDbFaceRecord
 10
0.0
 20
0.0
 30
0.0
 70
   128
 71
   309
 72
   306
 73
   310
  0
VERTEX
  5
78A
330
42B
100
AcDbEntity
  8
TLESO1
100
AcDbFaceRecord
 10
0.0
 20
0.0
 30
0.0
 70
   128
 71
   306
 72
   304
 73
   303
  0
VERTEX
  5
78B
330
42B
100
AcDbEntity
  8
TLESO1
100
AcDbFaceRecord
 10
0.0
 20
0.0
 30
0.0
 70
   128
 71
   304
 72
   302
 73
   301
  0
VERTEX
  5
78C
330
42B
100
AcDbEntity
  8
TLESO1
100
AcDbFaceRecord
 10
0.0
 20
0.0
 30
0.0
 70
   128
 71
   302
 72
   300
 73
   299
  0
VERTEX
  5
78D
330
42B
100
AcDbEntity
  8
TLESO1
100
AcDbFaceRecord
 10
0.0
 20
0.0
 30
0.0
 70
   128
 71
   300
 72
   298
 73
   297
  0
VERTEX
  5
78E
330
42B
100
AcDbEntity
  8
TLESO1
100
AcDbFaceRecord
 10
0.0
 20
0.0
 30
0.0
 70
   128
 71
   298
 72
   296
 73
   295
  0
VERTEX
  5
78F
330
42B
100
AcDbEntity
  8
TLESO1
100
AcDbFaceRecord
 10
0.0
 20
0.0
 30
0.0
 70
   128
 71
   296
 72
   294
 73
   293
  0
VERTEX
  5
790
330
42B
100
AcDbEntity
  8
TLESO1
100
AcDbFaceRecord
 10
0.0
 20
0.0
 30
0.0
 70
   128
 71
   294
 72
   291
 73
   292
  0
VERTEX
  5
791
330
42B
100
AcDbEntity
  8
TLESO1
100
AcDbFaceRecord
 10
0.0
 20
0.0
 30
0.0
 70
   128
 71
   291
 72
   311
 73
   289
  0
VERTEX
  5
792
330
42B
100
AcDbEntity
  8
TLESO1
100
AcDbFaceRecord
 10
0.0
 20
0.0
 30
0.0
 70
   128
 71
   311
 72
   287
 73
   286
  0
VERTEX
  5
793
330
42B
100
AcDbEntity
  8
TLESO1
100
AcDbFaceRecord
 10
0.0
 20
0.0
 30
0.0
 70
   128
 71
   287
 72
   282
 73
   283
  0
VERTEX
  5
794
330
42B
100
AcDbEntity
  8
TLESO1
100
AcDbFaceRecord
 10
0.0
 20
0.0
 30
0.0
 70
   128
 71
   305
 72
   310
 73
   306
  0
VERTEX
  5
795
330
42B
100
AcDbEntity
  8
TLESO1
100
AcDbFaceRecord
 10
0.0
 20
0.0
 30
0.0
 70
   128
 71
   310
 72
   308
 73
   307
  0
VERTEX
  5
796
330
42B
100
AcDbEntity
  8
TLESO1
100
AcDbFaceRecord
 10
0.0
 20
0.0
 30
0.0
 70
   128
 71
   308
 72
   266
 73
   268
  0
VERTEX
  5
797
330
42B
100
AcDbEntity
  8
TLESO1
100
AcDbFaceRecord
 10
0.0
 20
0.0
 30
0.0
 70
   128
 71
   283
 72
   285
 73
   287
  0
VERTEX
  5
798
330
42B
100
AcDbEntity
  8
TLESO1
100
AcDbFaceRecord
 10
0.0
 20
0.0
 30
0.0
 70
   128
 71
   286
 72
   289
 73
   311
  0
VERTEX
  5
799
330
42B
100
AcDbEntity
  8
TLESO1
100
AcDbFaceRecord
 10
0.0
 20
0.0
 30
0.0
 70
   128
 71
   312
 72
   313
 73
   314
  0
VERTEX
  5
79A
330
42B
100
AcDbEntity
  8
TLESO1
100
AcDbFaceRecord
 10
0.0
 20
0.0
 30
0.0
 70
   128
 71
   313
 72
   315
 73
   316
  0
VERTEX
  5
79B
330
42B
100
AcDbEntity
  8
TLESO1
100
AcDbFaceRecord
 10
0.0
 20
0.0
 30
0.0
 70
   128
 71
   316
 72
   317
 73
   318
  0
VERTEX
  5
79C
330
42B
100
AcDbEntity
  8
TLESO1
100
AcDbFaceRecord
 10
0.0
 20
0.0
 30
0.0
 70
   128
 71
   318
 72
   319
 73
   314
  0
VERTEX
  5
79D
330
42B
100
AcDbEntity
  8
TLESO1
100
AcDbFaceRecord
 10
0.0
 20
0.0
 30
0.0
 70
   128
 71
   314
 72
   313
 73
   318
  0
VERTEX
  5
79E
330
42B
100
AcDbEntity
  8
TLESO1
100
AcDbFaceRecord
 10
0.0
 20
0.0
 30
0.0
 70
   128
 71
   313
 72
   316
 73
   318
  0
VERTEX
  5
79F
330
42B
100
AcDbEntity
  8
TLESO1
100
AcDbFaceRecord
 10
0.0
 20
0.0
 30
0.0
 70
   128
 71
   320
 72
   321
 73
   322
  0
VERTEX
  5
7A0
330
42B
100
AcDbEntity
  8
TLESO1
100
AcDbFaceRecord
 10
0.0
 20
0.0
 30
0.0
 70
   128
 71
   321
 72
   323
 73
   324
  0
VERTEX
  5
7A1
330
42B
100
AcDbEntity
  8
TLESO1
100
AcDbFaceRecord
 10
0.0
 20
0.0
 30
0.0
 70
   128
 71
   324
 72
   325
 73
   326
  0
VERTEX
  5
7A2
330
42B
100
AcDbEntity
  8
TLESO1
100
AcDbFaceRecord
 10
0.0
 20
0.0
 30
0.0
 70
   128
 71
   326
 72
   327
 73
   322
  0
VERTEX
  5
7A3
330
42B
100
AcDbEntity
  8
TLESO1
100
AcDbFaceRecord
 10
0.0
 20
0.0
 30
0.0
 70
   128
 71
   322
 72
   321
 73
   324
  0
VERTEX
  5
7A4
330
42B
100
AcDbEntity
  8
TLESO1
100
AcDbFaceRecord
 10
0.0
 20
0.0
 30
0.0
 70
   128
 71
   324
 72
   326
 73
   322
  0
VERTEX
  5
7A5
330
42B
100
AcDbEntity
  8
TLESO1
100
AcDbFaceRecord
 10
0.0
 20
0.0
 30
0.0
 70
   128
 71
   328
 72
   329
 73
   330
  0
VERTEX
  5
7A6
330
42B
100
AcDbEntity
  8
TLESO1
100
AcDbFaceRecord
 10
0.0
 20
0.0
 30
0.0
 70
   128
 71
   329
 72
   331
 73
   332
  0
VERTEX
  5
7A7
330
42B
100
AcDbEntity
  8
TLESO1
100
AcDbFaceRecord
 10
0.0
 20
0.0
 30
0.0
 70
   128
 71
   333
 72
   334
 73
   332
  0
VERTEX
  5
7A8
330
42B
100
AcDbEntity
  8
TLESO1
100
AcDbFaceRecord
 10
0.0
 20
0.0
 30
0.0
 70
   128
 71
   334
 72
   335
 73
   330
  0
VERTEX
  5
7A9
330
42B
100
AcDbEntity
  8
TLESO1
100
AcDbFaceRecord
 10
0.0
 20
0.0
 30
0.0
 70
   128
 71
   330
 72
   329
 73
   332
  0
VERTEX
  5
7AA
330
42B
100
AcDbEntity
  8
TLESO1
100
AcDbFaceRecord
 10
0.0
 20
0.0
 30
0.0
 70
   128
 71
   332
 72
   334
 73
   330
  0
VERTEX
  5
7AB
330
42B
100
AcDbEntity
  8
TLESO1
100
AcDbFaceRecord
 10
0.0
 20
0.0
 30
0.0
 70
   128
 71
   336
 72
   337
 73
   338
  0
VERTEX
  5
7AC
330
42B
100
AcDbEntity
  8
TLESO1
100
AcDbFaceRecord
 10
0.0
 20
0.0
 30
0.0
 70
   128
 71
   338
 72
   339
 73
   340
  0
VERTEX
  5
7AD
330
42B
100
AcDbEntity
  8
TLESO1
100
AcDbFaceRecord
 10
0.0
 20
0.0
 30
0.0
 70
   128
 71
   341
 72
   342
 73
   337
  0
VERTEX
  5
7AE
330
42B
100
AcDbEntity
  8
TLESO1
100
AcDbFaceRecord
 10
0.0
 20
0.0
 30
0.0
 70
   128
 71
   343
 72
   339
 73
   342
  0
VERTEX
  5
7AF
330
42B
100
AcDbEntity
  8
TLESO1
100
AcDbFaceRecord
 10
0.0
 20
0.0
 30
0.0
 70
   128
 71
   337
 72
   339
 73
   338
  0
VERTEX
  5
7B0
330
42B
100
AcDbEntity
  8
TLESO1
100
AcDbFaceRecord
 10
0.0
 20
0.0
 30
0.0
 70
   128
 71
   342
 72
   339
 73
   337
  0
VERTEX
  5
7B1
330
42B
100
AcDbEntity
  8
TLESO1
100
AcDbFaceRecord
 10
0.0
 20
0.0
 30
0.0
 70
   128
 71
   344
 72
   345
 73
   346
  0
VERTEX
  5
7B2
330
42B
100
AcDbEntity
  8
TLESO1
100
AcDbFaceRecord
 10
0.0
 20
0.0
 30
0.0
 70
   128
 71
   345
 72
   347
 73
   348
  0
VERTEX
  5
7B3
330
42B
100
AcDbEntity
  8
TLESO1
100
AcDbFaceRecord
 10
0.0
 20
0.0
 30
0.0
 70
   128
 71
   348
 72
   349
 73
   350
  0
VERTEX
  5
7B4
330
42B
100
AcDbEntity
  8
TLESO1
100
AcDbFaceRecord
 10
0.0
 20
0.0
 30
0.0
 70
   128
 71
   351
 72
   346
 73
   350
  0
VERTEX
  5
7B5
330
42B
100
AcDbEntity
  8
TLESO1
100
AcDbFaceRecord
 10
0.0
 20
0.0
 30
0.0
 70
   128
 71
   346
 72
   345
 73
   350
  0
VERTEX
  5
7B6
330
42B
100
AcDbEntity
  8
TLESO1
100
AcDbFaceRecord
 10
0.0
 20
0.0
 30
0.0
 70
   128
 71
   345
 72
   348
 73
   350
  0
VERTEX
  5
7B7
330
42B
100
AcDbEntity
  8
TLESO1
100
AcDbFaceRecord
 10
0.0
 20
0.0
 30
0.0
 70
   128
 71
   352
 72
   353
 73
   354
  0
VERTEX
  5
7B8
330
42B
100
AcDbEntity
  8
TLESO1
100
AcDbFaceRecord
 10
0.0
 20
0.0
 30
0.0
 70
   128
 71
   353
 72
   355
 73
   354
  0
VERTEX
  5
7B9
330
42B
100
AcDbEntity
  8
TLESO1
100
AcDbFaceRecord
 10
0.0
 20
0.0
 30
0.0
 70
   128
 71
   355
 72
   356
 73
   354
  0
VERTEX
  5
7BA
330
42B
100
AcDbEntity
  8
TLESO1
100
AcDbFaceRecord
 10
0.0
 20
0.0
 30
0.0
 70
   128
 71
   356
 72
   357
 73
   354
  0
VERTEX
  5
7BB
330
42B
100
AcDbEntity
  8
TLESO1
100
AcDbFaceRecord
 10
0.0
 20
0.0
 30
0.0
 70
   128
 71
   357
 72
   358
 73
   359
  0
VERTEX
  5
7BC
330
42B
100
AcDbEntity
  8
TLESO1
100
AcDbFaceRecord
 10
0.0
 20
0.0
 30
0.0
 70
   128
 71
   358
 72
   360
 73
   361
  0
VERTEX
  5
7BD
330
42B
100
AcDbEntity
  8
TLESO1
100
AcDbFaceRecord
 10
0.0
 20
0.0
 30
0.0
 70
   128
 71
   360
 72
   362
 73
   363
  0
VERTEX
  5
7BE
330
42B
100
AcDbEntity
  8
TLESO1
100
AcDbFaceRecord
 10
0.0
 20
0.0
 30
0.0
 70
   128
 71
   362
 72
   364
 73
   363
  0
VERTEX
  5
7BF
330
42B
100
AcDbEntity
  8
TLESO1
100
AcDbFaceRecord
 10
0.0
 20
0.0
 30
0.0
 70
   128
 71
   364
 72
   365
 73
   363
  0
VERTEX
  5
7C0
330
42B
100
AcDbEntity
  8
TLESO1
100
AcDbFaceRecord
 10
0.0
 20
0.0
 30
0.0
 70
   128
 71
   365
 72
   366
 73
   363
  0
VERTEX
  5
7C1
330
42B
100
AcDbEntity
  8
TLESO1
100
AcDbFaceRecord
 10
0.0
 20
0.0
 30
0.0
 70
   128
 71
   367
 72
   354
 73
   368
  0
VERTEX
  5
7C2
330
42B
100
AcDbEntity
  8
TLESO1
100
AcDbFaceRecord
 10
0.0
 20
0.0
 30
0.0
 70
   128
 71
   363
 72
   369
 73
   370
  0
VERTEX
  5
7C3
330
42B
100
AcDbEntity
  8
TLESO1
100
AcDbFaceRecord
 10
0.0
 20
0.0
 30
0.0
 70
   128
 71
   370
 72
   371
 73
   363
  0
VERTEX
  5
7C4
330
42B
100
AcDbEntity
  8
TLESO1
100
AcDbFaceRecord
 10
0.0
 20
0.0
 30
0.0
 70
   128
 71
   371
 72
   372
 73
   363
  0
VERTEX
  5
7C5
330
42B
100
AcDbEntity
  8
TLESO1
100
AcDbFaceRecord
 10
0.0
 20
0.0
 30
0.0
 70
   128
 71
   372
 72
   361
 73
   363
  0
VERTEX
  5
7C6
330
42B
100
AcDbEntity
  8
TLESO1
100
AcDbFaceRecord
 10
0.0
 20
0.0
 30
0.0
 70
   128
 71
   361
 72
   359
 73
   358
  0
VERTEX
  5
7C7
330
42B
100
AcDbEntity
  8
TLESO1
100
AcDbFaceRecord
 10
0.0
 20
0.0
 30
0.0
 70
   128
 71
   359
 72
   373
 73
   357
  0
VERTEX
  5
7C8
330
42B
100
AcDbEntity
  8
TLESO1
100
AcDbFaceRecord
 10
0.0
 20
0.0
 30
0.0
 70
   128
 71
   373
 72
   374
 73
   354
  0
VERTEX
  5
7C9
330
42B
100
AcDbEntity
  8
TLESO1
100
AcDbFaceRecord
 10
0.0
 20
0.0
 30
0.0
 70
   128
 71
   374
 72
   375
 73
   354
  0
VERTEX
  5
7CA
330
42B
100
AcDbEntity
  8
TLESO1
100
AcDbFaceRecord
 10
0.0
 20
0.0
 30
0.0
 70
   128
 71
   375
 72
   368
 73
   354
  0
VERTEX
  5
7CB
330
42B
100
AcDbEntity
  8
TLESO1
100
AcDbFaceRecord
 10
0.0
 20
0.0
 30
0.0
 70
   128
 71
   354
 72
   357
 73
   373
  0
VERTEX
  5
7CC
330
42B
100
AcDbEntity
  8
TLESO1
100
AcDbFaceRecord
 10
0.0
 20
0.0
 30
0.0
 70
   128
 71
   361
 72
   360
 73
   363
  0
VERTEX
  5
7CD
330
42B
100
AcDbEntity
  8
TLESO1
100
AcDbFaceRecord
 10
0.0
 20
0.0
 30
0.0
 70
   128
 71
   376
 72
   377
 73
   378
  0
VERTEX
  5
7CE
330
42B
100
AcDbEntity
  8
TLESO1
100
AcDbFaceRecord
 10
0.0
 20
0.0
 30
0.0
 70
   128
 71
   377
 72
   379
 73
   380
  0
VERTEX
  5
7CF
330
42B
100
AcDbEntity
  8
TLESO1
100
AcDbFaceRecord
 10
0.0
 20
0.0
 30
0.0
 70
   128
 71
   381
 72
   378
 73
   382
  0
VERTEX
  5
7D0
330
42B
100
AcDbEntity
  8
TLESO1
100
AcDbFaceRecord
 10
0.0
 20
0.0
 30
0.0
 70
   128
 71
   383
 72
   382
 73
   380
  0
VERTEX
  5
7D1
330
42B
100
AcDbEntity
  8
TLESO1
100
AcDbFaceRecord
 10
0.0
 20
0.0
 30
0.0
 70
   128
 71
   378
 72
   377
 73
   380
  0
VERTEX
  5
7D2
330
42B
100
AcDbEntity
  8
TLESO1
100
AcDbFaceRecord
 10
0.0
 20
0.0
 30
0.0
 70
   128
 71
   382
 72
   378
 73
   380
  0
VERTEX
  5
7D3
330
42B
100
AcDbEntity
  8
TLESO1
100
AcDbFaceRecord
 10
0.0
 20
0.0
 30
0.0
 70
   128
 71
   384
 72
   385
 73
   386
  0
VERTEX
  5
7D4
330
42B
100
AcDbEntity
  8
TLESO1
100
AcDbFaceRecord
 10
0.0
 20
0.0
 30
0.0
 70
   128
 71
   385
 72
   387
 73
   386
  0
VERTEX
  5
7D5
330
42B
100
AcDbEntity
  8
TLESO1
100
AcDbFaceRecord
 10
0.0
 20
0.0
 30
0.0
 70
   128
 71
   387
 72
   388
 73
   389
  0
VERTEX
  5
7D6
330
42B
100
AcDbEntity
  8
TLESO1
100
AcDbFaceRecord
 10
0.0
 20
0.0
 30
0.0
 70
   128
 71
   388
 72
   390
 73
   389
  0
VERTEX
  5
7D7
330
42B
100
AcDbEntity
  8
TLESO1
100
AcDbFaceRecord
 10
0.0
 20
0.0
 30
0.0
 70
   128
 71
   391
 72
   386
 73
   392
  0
VERTEX
  5
7D8
330
42B
100
AcDbEntity
  8
TLESO1
100
AcDbFaceRecord
 10
0.0
 20
0.0
 30
0.0
 70
   128
 71
   389
 72
   393
 73
   394
  0
VERTEX
  5
7D9
330
42B
100
AcDbEntity
  8
TLESO1
100
AcDbFaceRecord
 10
0.0
 20
0.0
 30
0.0
 70
   128
 71
   394
 72
   395
 73
   389
  0
VERTEX
  5
7DA
330
42B
100
AcDbEntity
  8
TLESO1
100
AcDbFaceRecord
 10
0.0
 20
0.0
 30
0.0
 70
   128
 71
   395
 72
   392
 73
   386
  0
VERTEX
  5
7DB
330
42B
100
AcDbEntity
  8
TLESO1
100
AcDbFaceRecord
 10
0.0
 20
0.0
 30
0.0
 70
   128
 71
   386
 72
   387
 73
   389
  0
VERTEX
  5
7DC
330
42B
100
AcDbEntity
  8
TLESO1
100
AcDbFaceRecord
 10
0.0
 20
0.0
 30
0.0
 70
   128
 71
   389
 72
   395
 73
   386
  0
VERTEX
  5
7DD
330
42B
100
AcDbEntity
  8
TLESO1
100
AcDbFaceRecord
 10
0.0
 20
0.0
 30
0.0
 70
   128
 71
   396
 72
   397
 73
   398
  0
VERTEX
  5
7DE
330
42B
100
AcDbEntity
  8
TLESO1
100
AcDbFaceRecord
 10
0.0
 20
0.0
 30
0.0
 70
   128
 71
   397
 72
   399
 73
   400
  0
VERTEX
  5
7DF
330
42B
100
AcDbEntity
  8
TLESO1
100
AcDbFaceRecord
 10
0.0
 20
0.0
 30
0.0
 70
   128
 71
   401
 72
   398
 73
   402
  0
VERTEX
  5
7E0
330
42B
100
AcDbEntity
  8
TLESO1
100
AcDbFaceRecord
 10
0.0
 20
0.0
 30
0.0
 70
   128
 71
   403
 72
   402
 73
   400
  0
VERTEX
  5
7E1
330
42B
100
AcDbEntity
  8
TLESO1
100
AcDbFaceRecord
 10
0.0
 20
0.0
 30
0.0
 70
   128
 71
   398
 72
   397
 73
   400
  0
VERTEX
  5
7E2
330
42B
100
AcDbEntity
  8
TLESO1
100
AcDbFaceRecord
 10
0.0
 20
0.0
 30
0.0
 70
   128
 71
   402
 72
   398
 73
   400
  0
VERTEX
  5
7E3
330
42B
100
AcDbEntity
  8
TLESO1
100
AcDbFaceRecord
 10
0.0
 20
0.0
 30
0.0
 70
   128
 71
   404
 72
   405
 73
   406
  0
VERTEX
  5
7E4
330
42B
100
AcDbEntity
  8
TLESO1
100
AcDbFaceRecord
 10
0.0
 20
0.0
 30
0.0
 70
   128
 71
   405
 72
   407
 73
   408
  0
VERTEX
  5
7E5
330
42B
100
AcDbEntity
  8
TLESO1
100
AcDbFaceRecord
 10
0.0
 20
0.0
 30
0.0
 70
   128
 71
   409
 72
   410
 73
   411
  0
VERTEX
  5
7E6
330
42B
100
AcDbEntity
  8
TLESO1
100
AcDbFaceRecord
 10
0.0
 20
0.0
 30
0.0
 70
   128
 71
   410
 72
   412
 73
   411
  0
VERTEX
  5
7E7
330
42B
100
AcDbEntity
  8
TLESO1
100
AcDbFaceRecord
 10
0.0
 20
0.0
 30
0.0
 70
   128
 71
   412
 72
   413
 73
   411
  0
VERTEX
  5
7E8
330
42B
100
AcDbEntity
  8
TLESO1
100
AcDbFaceRecord
 10
0.0
 20
0.0
 30
0.0
 70
   128
 71
   413
 72
   414
 73
   411
  0
VERTEX
  5
7E9
330
42B
100
AcDbEntity
  8
TLESO1
100
AcDbFaceRecord
 10
0.0
 20
0.0
 30
0.0
 70
   128
 71
   414
 72
   415
 73
   416
  0
VERTEX
  5
7EA
330
42B
100
AcDbEntity
  8
TLESO1
100
AcDbFaceRecord
 10
0.0
 20
0.0
 30
0.0
 70
   128
 71
   415
 72
   417
 73
   418
  0
VERTEX
  5
7EB
330
42B
100
AcDbEntity
  8
TLESO1
100
AcDbFaceRecord
 10
0.0
 20
0.0
 30
0.0
 70
   128
 71
   417
 72
   419
 73
   405
  0
VERTEX
  5
7EC
330
42B
100
AcDbEntity
  8
TLESO1
100
AcDbFaceRecord
 10
0.0
 20
0.0
 30
0.0
 70
   128
 71
   419
 72
   420
 73
   405
  0
VERTEX
  5
7ED
330
42B
100
AcDbEntity
  8
TLESO1
100
AcDbFaceRecord
 10
0.0
 20
0.0
 30
0.0
 70
   128
 71
   420
 72
   406
 73
   405
  0
VERTEX
  5
7EE
330
42B
100
AcDbEntity
  8
TLESO1
100
AcDbFaceRecord
 10
0.0
 20
0.0
 30
0.0
 70
   128
 71
   421
 72
   411
 73
   422
  0
VERTEX
  5
7EF
330
42B
100
AcDbEntity
  8
TLESO1
100
AcDbFaceRecord
 10
0.0
 20
0.0
 30
0.0
 70
   128
 71
   408
 72
   423
 73
   405
  0
VERTEX
  5
7F0
330
42B
100
AcDbEntity
  8
TLESO1
100
AcDbFaceRecord
 10
0.0
 20
0.0
 30
0.0
 70
   128
 71
   423
 72
   424
 73
   405
  0
VERTEX
  5
7F1
330
42B
100
AcDbEntity
  8
TLESO1
100
AcDbFaceRecord
 10
0.0
 20
0.0
 30
0.0
 70
   128
 71
   424
 72
   418
 73
   405
  0
VERTEX
  5
7F2
330
42B
100
AcDbEntity
  8
TLESO1
100
AcDbFaceRecord
 10
0.0
 20
0.0
 30
0.0
 70
   128
 71
   418
 72
   416
 73
   415
  0
VERTEX
  5
7F3
330
42B
100
AcDbEntity
  8
TLESO1
100
AcDbFaceRecord
 10
0.0
 20
0.0
 30
0.0
 70
   128
 71
   416
 72
   425
 73
   414
  0
VERTEX
  5
7F4
330
42B
100
AcDbEntity
  8
TLESO1
100
AcDbFaceRecord
 10
0.0
 20
0.0
 30
0.0
 70
   128
 71
   425
 72
   426
 73
   411
  0
VERTEX
  5
7F5
330
42B
100
AcDbEntity
  8
TLESO1
100
AcDbFaceRecord
 10
0.0
 20
0.0
 30
0.0
 70
   128
 71
   426
 72
   427
 73
   411
  0
VERTEX
  5
7F6
330
42B
100
AcDbEntity
  8
TLESO1
100
AcDbFaceRecord
 10
0.0
 20
0.0
 30
0.0
 70
   128
 71
   427
 72
   422
 73
   411
  0
VERTEX
  5
7F7
330
42B
100
AcDbEntity
  8
TLESO1
100
AcDbFaceRecord
 10
0.0
 20
0.0
 30
0.0
 70
   128
 71
   411
 72
   414
 73
   425
  0
VERTEX
  5
7F8
330
42B
100
AcDbEntity
  8
TLESO1
100
AcDbFaceRecord
 10
0.0
 20
0.0
 30
0.0
 70
   128
 71
   418
 72
   417
 73
   405
  0
VERTEX
  5
7F9
330
42B
100
AcDbEntity
  8
TLESO1
100
AcDbFaceRecord
 10
0.0
 20
0.0
 30
0.0
 70
   128
 71
   428
 72
   429
 73
   430
  0
VERTEX
  5
7FA
330
42B
100
AcDbEntity
  8
TLESO1
100
AcDbFaceRecord
 10
0.0
 20
0.0
 30
0.0
 70
   128
 71
   429
 72
   431
 73
   432
  0
VERTEX
  5
7FB
330
42B
100
AcDbEntity
  8
TLESO1
100
AcDbFaceRecord
 10
0.0
 20
0.0
 30
0.0
 70
   128
 71
   431
 72
   433
 73
   434
  0
VERTEX
  5
7FC
330
42B
100
AcDbEntity
  8
TLESO1
100
AcDbFaceRecord
 10
0.0
 20
0.0
 30
0.0
 70
   128
 71
   433
 72
   435
 73
   434
  0
VERTEX
  5
7FD
330
42B
100
AcDbEntity
  8
TLESO1
100
AcDbFaceRecord
 10
0.0
 20
0.0
 30
0.0
 70
   128
 71
   435
 72
   436
 73
   437
  0
VERTEX
  5
7FE
330
42B
100
AcDbEntity
  8
TLESO1
100
AcDbFaceRecord
 10
0.0
 20
0.0
 30
0.0
 70
   128
 71
   436
 72
   438
 73
   439
  0
VERTEX
  5
7FF
330
42B
100
AcDbEntity
  8
TLESO1
100
AcDbFaceRecord
 10
0.0
 20
0.0
 30
0.0
 70
   128
 71
   438
 72
   440
 73
   441
  0
VERTEX
  5
800
330
42B
100
AcDbEntity
  8
TLESO1
100
AcDbFaceRecord
 10
0.0
 20
0.0
 30
0.0
 70
   128
 71
   440
 72
   442
 73
   441
  0
VERTEX
  5
801
330
42B
100
AcDbEntity
  8
TLESO1
100
AcDbFaceRecord
 10
0.0
 20
0.0
 30
0.0
 70
   128
 71
   442
 72
   443
 73
   444
  0
VERTEX
  5
802
330
42B
100
AcDbEntity
  8
TLESO1
100
AcDbFaceRecord
 10
0.0
 20
0.0
 30
0.0
 70
   128
 71
   443
 72
   445
 73
   446
  0
VERTEX
  5
803
330
42B
100
AcDbEntity
  8
TLESO1
100
AcDbFaceRecord
 10
0.0
 20
0.0
 30
0.0
 70
   128
 71
   446
 72
   444
 73
   443
  0
VERTEX
  5
804
330
42B
100
AcDbEntity
  8
TLESO1
100
AcDbFaceRecord
 10
0.0
 20
0.0
 30
0.0
 70
   128
 71
   444
 72
   441
 73
   442
  0
VERTEX
  5
805
330
42B
100
AcDbEntity
  8
TLESO1
100
AcDbFaceRecord
 10
0.0
 20
0.0
 30
0.0
 70
   128
 71
   441
 72
   439
 73
   438
  0
VERTEX
  5
806
330
42B
100
AcDbEntity
  8
TLESO1
100
AcDbFaceRecord
 10
0.0
 20
0.0
 30
0.0
 70
   128
 71
   439
 72
   437
 73
   436
  0
VERTEX
  5
807
330
42B
100
AcDbEntity
  8
TLESO1
100
AcDbFaceRecord
 10
0.0
 20
0.0
 30
0.0
 70
   128
 71
   437
 72
   434
 73
   435
  0
VERTEX
  5
808
330
42B
100
AcDbEntity
  8
TLESO1
100
AcDbFaceRecord
 10
0.0
 20
0.0
 30
0.0
 70
   128
 71
   434
 72
   432
 73
   431
  0
VERTEX
  5
809
330
42B
100
AcDbEntity
  8
TLESO1
100
AcDbFaceRecord
 10
0.0
 20
0.0
 30
0.0
 70
   128
 71
   432
 72
   430
 73
   429
  0
VERTEX
  5
80A
330
42B
100
AcDbEntity
  8
TLESO1
100
AcDbFaceRecord
 10
0.0
 20
0.0
 30
0.0
 70
   128
 71
   447
 72
   448
 73
   449
  0
VERTEX
  5
80B
330
42B
100
AcDbEntity
  8
TLESO1
100
AcDbFaceRecord
 10
0.0
 20
0.0
 30
0.0
 70
   128
 71
   448
 72
   450
 73
   451
  0
VERTEX
  5
80C
330
42B
100
AcDbEntity
  8
TLESO1
100
AcDbFaceRecord
 10
0.0
 20
0.0
 30
0.0
 70
   128
 71
   450
 72
   452
 73
   453
  0
VERTEX
  5
80D
330
42B
100
AcDbEntity
  8
TLESO1
100
AcDbFaceRecord
 10
0.0
 20
0.0
 30
0.0
 70
   128
 71
   452
 72
   454
 73
   455
  0
VERTEX
  5
80E
330
42B
100
AcDbEntity
  8
TLESO1
100
AcDbFaceRecord
 10
0.0
 20
0.0
 30
0.0
 70
   128
 71
   455
 72
   453
 73
   452
  0
VERTEX
  5
80F
330
42B
100
AcDbEntity
  8
TLESO1
100
AcDbFaceRecord
 10
0.0
 20
0.0
 30
0.0
 70
   128
 71
   453
 72
   451
 73
   450
  0
VERTEX
  5
810
330
42B
100
AcDbEntity
  8
TLESO1
100
AcDbFaceRecord
 10
0.0
 20
0.0
 30
0.0
 70
   128
 71
   451
 72
   449
 73
   448
  0
VERTEX
  5
811
330
42B
100
AcDbEntity
  8
TLESO1
100
AcDbFaceRecord
 10
0.0
 20
0.0
 30
0.0
 70
   128
 71
   456
 72
   457
 73
   458
  0
VERTEX
  5
812
330
42B
100
AcDbEntity
  8
TLESO1
100
AcDbFaceRecord
 10
0.0
 20
0.0
 30
0.0
 70
   128
 71
   457
 72
   459
 73
   460
  0
VERTEX
  5
813
330
42B
100
AcDbEntity
  8
TLESO1
100
AcDbFaceRecord
 10
0.0
 20
0.0
 30
0.0
 70
   128
 71
   459
 72
   461
 73
   462
  0
VERTEX
  5
814
330
42B
100
AcDbEntity
  8
TLESO1
100
AcDbFaceRecord
 10
0.0
 20
0.0
 30
0.0
 70
   128
 71
   461
 72
   463
 73
   462
  0
VERTEX
  5
815
330
42B
100
AcDbEntity
  8
TLESO1
100
AcDbFaceRecord
 10
0.0
 20
0.0
 30
0.0
 70
   128
 71
   463
 72
   464
 73
   465
  0
VERTEX
  5
816
330
42B
100
AcDbEntity
  8
TLESO1
100
AcDbFaceRecord
 10
0.0
 20
0.0
 30
0.0
 70
   128
 71
   464
 72
   466
 73
   467
  0
VERTEX
  5
817
330
42B
100
AcDbEntity
  8
TLESO1
100
AcDbFaceRecord
 10
0.0
 20
0.0
 30
0.0
 70
   128
 71
   466
 72
   468
 73
   469
  0
VERTEX
  5
818
330
42B
100
AcDbEntity
  8
TLESO1
100
AcDbFaceRecord
 10
0.0
 20
0.0
 30
0.0
 70
   128
 71
   468
 72
   470
 73
   469
  0
VERTEX
  5
819
330
42B
100
AcDbEntity
  8
TLESO1
100
AcDbFaceRecord
 10
0.0
 20
0.0
 30
0.0
 70
   128
 71
   470
 72
   471
 73
   472
  0
VERTEX
  5
81A
330
42B
100
AcDbEntity
  8
TLESO1
100
AcDbFaceRecord
 10
0.0
 20
0.0
 30
0.0
 70
   128
 71
   471
 72
   473
 73
   474
  0
VERTEX
  5
81B
330
42B
100
AcDbEntity
  8
TLESO1
100
AcDbFaceRecord
 10
0.0
 20
0.0
 30
0.0
 70
   128
 71
   474
 72
   472
 73
   471
  0
VERTEX
  5
81C
330
42B
100
AcDbEntity
  8
TLESO1
100
AcDbFaceRecord
 10
0.0
 20
0.0
 30
0.0
 70
   128
 71
   472
 72
   469
 73
   470
  0
VERTEX
  5
81D
330
42B
100
AcDbEntity
  8
TLESO1
100
AcDbFaceRecord
 10
0.0
 20
0.0
 30
0.0
 70
   128
 71
   469
 72
   467
 73
   466
  0
VERTEX
  5
81E
330
42B
100
AcDbEntity
  8
TLESO1
100
AcDbFaceRecord
 10
0.0
 20
0.0
 30
0.0
 70
   128
 71
   467
 72
   465
 73
   464
  0
VERTEX
  5
81F
330
42B
100
AcDbEntity
  8
TLESO1
100
AcDbFaceRecord
 10
0.0
 20
0.0
 30
0.0
 70
   128
 71
   465
 72
   462
 73
   463
  0
VERTEX
  5
820
330
42B
100
AcDbEntity
  8
TLESO1
100
AcDbFaceRecord
 10
0.0
 20
0.0
 30
0.0
 70
   128
 71
   462
 72
   460
 73
   459
  0
VERTEX
  5
821
330
42B
100
AcDbEntity
  8
TLESO1
100
AcDbFaceRecord
 10
0.0
 20
0.0
 30
0.0
 70
   128
 71
   460
 72
   458
 73
   457
  0
VERTEX
  5
822
330
42B
100
AcDbEntity
  8
TLESO1
100
AcDbFaceRecord
 10
0.0
 20
0.0
 30
0.0
 70
   128
 71
   475
 72
   476
 73
   477
  0
VERTEX
  5
823
330
42B
100
AcDbEntity
  8
TLESO1
100
AcDbFaceRecord
 10
0.0
 20
0.0
 30
0.0
 70
   128
 71
   476
 72
   478
 73
   479
  0
VERTEX
  5
824
330
42B
100
AcDbEntity
  8
TLESO1
100
AcDbFaceRecord
 10
0.0
 20
0.0
 30
0.0
 70
   128
 71
   478
 72
   480
 73
   481
  0
VERTEX
  5
825
330
42B
100
AcDbEntity
  8
TLESO1
100
AcDbFaceRecord
 10
0.0
 20
0.0
 30
0.0
 70
   128
 71
   480
 72
   482
 73
   483
  0
VERTEX
  5
826
330
42B
100
AcDbEntity
  8
TLESO1
100
AcDbFaceRecord
 10
0.0
 20
0.0
 30
0.0
 70
   128
 71
   483
 72
   481
 73
   480
  0
VERTEX
  5
827
330
42B
100
AcDbEntity
  8
TLESO1
100
AcDbFaceRecord
 10
0.0
 20
0.0
 30
0.0
 70
   128
 71
   481
 72
   479
 73
   478
  0
VERTEX
  5
828
330
42B
100
AcDbEntity
  8
TLESO1
100
AcDbFaceRecord
 10
0.0
 20
0.0
 30
0.0
 70
   128
 71
   479
 72
   477
 73
   476
  0
VERTEX
  5
829
330
42B
100
AcDbEntity
  8
TLESO1
100
AcDbFaceRecord
 10
0.0
 20
0.0
 30
0.0
 70
   128
 71
   484
 72
   485
 73
   486
  0
VERTEX
  5
82A
330
42B
100
AcDbEntity
  8
TLESO1
100
AcDbFaceRecord
 10
0.0
 20
0.0
 30
0.0
 70
   128
 71
   485
 72
   487
 73
   488
  0
VERTEX
  5
82B
330
42B
100
AcDbEntity
  8
TLESO1
100
AcDbFaceRecord
 10
0.0
 20
0.0
 30
0.0
 70
   128
 71
   488
 72
   486
 73
   485
  0
VERTEX
  5
82C
330
42B
100
AcDbEntity
  8
TLESO1
100
AcDbFaceRecord
 10
0.0
 20
0.0
 30
0.0
 70
   128
 71
   486
 72
   489
 73
   484
  0
VERTEX
  5
82D
330
42B
100
AcDbEntity
  8
TLESO1
100
AcDbFaceRecord
 10
0.0
 20
0.0
 30
0.0
 70
   128
 71
   490
 72
   491
 73
   492
  0
VERTEX
  5
82E
330
42B
100
AcDbEntity
  8
TLESO1
100
AcDbFaceRecord
 10
0.0
 20
0.0
 30
0.0
 70
   128
 71
   493
 72
   494
 73
   495
  0
VERTEX
  5
82F
330
42B
100
AcDbEntity
  8
TLESO1
100
AcDbFaceRecord
 10
0.0
 20
0.0
 30
0.0
 70
   128
 71
   495
 72
   491
 73
   490
  0
VERTEX
  5
830
330
42B
100
AcDbEntity
  8
TLESO1
100
AcDbFaceRecord
 10
0.0
 20
0.0
 30
0.0
 70
   128
 71
   496
 72
   491
 73
   497
  0
VERTEX
  5
831
330
42B
100
AcDbEntity
  8
TLESO1
100
AcDbFaceRecord
 10
0.0
 20
0.0
 30
0.0
 70
   128
 71
   497
 72
   495
 73
   494
  0
VERTEX
  5
832
330
42B
100
AcDbEntity
  8
TLESO1
100
AcDbFaceRecord
 10
0.0
 20
0.0
 30
0.0
 70
   128
 71
   495
 72
   497
 73
   491
  0
VERTEX
  5
833
330
42B
100
AcDbEntity
  8
TLESO1
100
AcDbFaceRecord
 10
0.0
 20
0.0
 30
0.0
 70
   128
 71
   498
 72
   499
 73
   500
  0
VERTEX
  5
834
330
42B
100
AcDbEntity
  8
TLESO1
100
AcDbFaceRecord
 10
0.0
 20
0.0
 30
0.0
 70
   128
 71
   500
 72
   501
 73
   502
  0
VERTEX
  5
835
330
42B
100
AcDbEntity
  8
TLESO1
100
AcDbFaceRecord
 10
0.0
 20
0.0
 30
0.0
 70
   128
 71
   501
 72
   503
 73
   504
  0
VERTEX
  5
836
330
42B
100
AcDbEntity
  8
TLESO1
100
AcDbFaceRecord
 10
0.0
 20
0.0
 30
0.0
 70
   128
 71
   505
 72
   506
 73
   499
  0
VERTEX
  5
837
330
42B
100
AcDbEntity
  8
TLESO1
100
AcDbFaceRecord
 10
0.0
 20
0.0
 30
0.0
 70
   128
 71
   503
 72
   501
 73
   507
  0
VERTEX
  5
838
330
42B
100
AcDbEntity
  8
TLESO1
100
AcDbFaceRecord
 10
0.0
 20
0.0
 30
0.0
 70
   128
 71
   507
 72
   501
 73
   508
  0
VERTEX
  5
839
330
42B
100
AcDbEntity
  8
TLESO1
100
AcDbFaceRecord
 10
0.0
 20
0.0
 30
0.0
 70
   128
 71
   508
 72
   500
 73
   509
  0
VERTEX
  5
83A
330
42B
100
AcDbEntity
  8
TLESO1
100
AcDbFaceRecord
 10
0.0
 20
0.0
 30
0.0
 70
   128
 71
   509
 72
   500
 73
   510
  0
VERTEX
  5
83B
330
42B
100
AcDbEntity
  8
TLESO1
100
AcDbFaceRecord
 10
0.0
 20
0.0
 30
0.0
 70
   128
 71
   510
 72
   500
 73
   511
  0
VERTEX
  5
83C
330
42B
100
AcDbEntity
  8
TLESO1
100
AcDbFaceRecord
 10
0.0
 20
0.0
 30
0.0
 70
   128
 71
   511
 72
   499
 73
   512
  0
VERTEX
  5
83D
330
42B
100
AcDbEntity
  8
TLESO1
100
AcDbFaceRecord
 10
0.0
 20
0.0
 30
0.0
 70
   128
 71
   512
 72
   499
 73
   506
  0
VERTEX
  5
83E
330
42B
100
AcDbEntity
  8
TLESO1
100
AcDbFaceRecord
 10
0.0
 20
0.0
 30
0.0
 70
   128
 71
   499
 72
   511
 73
   500
  0
VERTEX
  5
83F
330
42B
100
AcDbEntity
  8
TLESO1
100
AcDbFaceRecord
 10
0.0
 20
0.0
 30
0.0
 70
   128
 71
   500
 72
   508
 73
   501
  0
VERTEX
  5
840
330
42B
100
AcDbEntity
  8
TLESO1
100
AcDbFaceRecord
 10
0.0
 20
0.0
 30
0.0
 70
   128
 71
   513
 72
   514
 73
   515
  0
VERTEX
  5
841
330
42B
100
AcDbEntity
  8
TLESO1
100
AcDbFaceRecord
 10
0.0
 20
0.0
 30
0.0
 70
   128
 71
   515
 72
   516
 73
   517
  0
VERTEX
  5
842
330
42B
100
AcDbEntity
  8
TLESO1
100
AcDbFaceRecord
 10
0.0
 20
0.0
 30
0.0
 70
   128
 71
   518
 72
   519
 73
   514
  0
VERTEX
  5
843
330
42B
100
AcDbEntity
  8
TLESO1
100
AcDbFaceRecord
 10
0.0
 20
0.0
 30
0.0
 70
   128
 71
   520
 72
   516
 73
   521
  0
VERTEX
  5
844
330
42B
100
AcDbEntity
  8
TLESO1
100
AcDbFaceRecord
 10
0.0
 20
0.0
 30
0.0
 70
   128
 71
   521
 72
   516
 73
   522
  0
VERTEX
  5
845
330
42B
100
AcDbEntity
  8
TLESO1
100
AcDbFaceRecord
 10
0.0
 20
0.0
 30
0.0
 70
   128
 71
   522
 72
   516
 73
   523
  0
VERTEX
  5
846
330
42B
100
AcDbEntity
  8
TLESO1
100
AcDbFaceRecord
 10
0.0
 20
0.0
 30
0.0
 70
   128
 71
   523
 72
   515
 73
   524
  0
VERTEX
  5
847
330
42B
100
AcDbEntity
  8
TLESO1
100
AcDbFaceRecord
 10
0.0
 20
0.0
 30
0.0
 70
   128
 71
   524
 72
   515
 73
   525
  0
VERTEX
  5
848
330
42B
100
AcDbEntity
  8
TLESO1
100
AcDbFaceRecord
 10
0.0
 20
0.0
 30
0.0
 70
   128
 71
   525
 72
   515
 73
   526
  0
VERTEX
  5
849
330
42B
100
AcDbEntity
  8
TLESO1
100
AcDbFaceRecord
 10
0.0
 20
0.0
 30
0.0
 70
   128
 71
   526
 72
   514
 73
   527
  0
VERTEX
  5
84A
330
42B
100
AcDbEntity
  8
TLESO1
100
AcDbFaceRecord
 10
0.0
 20
0.0
 30
0.0
 70
   128
 71
   527
 72
   514
 73
   519
  0
VERTEX
  5
84B
330
42B
100
AcDbEntity
  8
TLESO1
100
AcDbFaceRecord
 10
0.0
 20
0.0
 30
0.0
 70
   128
 71
   514
 72
   526
 73
   515
  0
VERTEX
  5
84C
330
42B
100
AcDbEntity
  8
TLESO1
100
AcDbFaceRecord
 10
0.0
 20
0.0
 30
0.0
 70
   128
 71
   515
 72
   523
 73
   516
  0
VERTEX
  5
84D
330
42B
100
AcDbEntity
  8
TLESO1
100
AcDbFaceRecord
 10
0.0
 20
0.0
 30
0.0
 70
   128
 71
   528
 72
   529
 73
   530
  0
VERTEX
  5
84E
330
42B
100
AcDbEntity
  8
TLESO1
100
AcDbFaceRecord
 10
0.0
 20
0.0
 30
0.0
 70
   128
 71
   529
 72
   531
 73
   532
  0
VERTEX
  5
84F
330
42B
100
AcDbEntity
  8
TLESO1
100
AcDbFaceRecord
 10
0.0
 20
0.0
 30
0.0
 70
   128
 71
   533
 72
   534
 73
   535
  0
VERTEX
  5
850
330
42B
100
AcDbEntity
  8
TLESO1
100
AcDbFaceRecord
 10
0.0
 20
0.0
 30
0.0
 70
   128
 71
   535
 72
   529
 73
   528
  0
VERTEX
  5
851
330
42B
100
AcDbEntity
  8
TLESO1
100
AcDbFaceRecord
 10
0.0
 20
0.0
 30
0.0
 70
   128
 71
   531
 72
   535
 73
   534
  0
VERTEX
  5
852
330
42B
100
AcDbEntity
  8
TLESO1
100
AcDbFaceRecord
 10
0.0
 20
0.0
 30
0.0
 70
   128
 71
   529
 72
   535
 73
   531
  0
VERTEX
  5
853
330
42B
100
AcDbEntity
  8
TLESO1
100
AcDbFaceRecord
 10
0.0
 20
0.0
 30
0.0
 70
   128
 71
   536
 72
   537
 73
   538
  0
VERTEX
  5
854
330
42B
100
AcDbEntity
  8
TLESO1
100
AcDbFaceRecord
 10
0.0
 20
0.0
 30
0.0
 70
   128
 71
   537
 72
   539
 73
   538
  0
VERTEX
  5
855
330
42B
100
AcDbEntity
  8
TLESO1
100
AcDbFaceRecord
 10
0.0
 20
0.0
 30
0.0
 70
   128
 71
   540
 72
   541
 73
   542
  0
VERTEX
  5
856
330
42B
100
AcDbEntity
  8
TLESO1
100
AcDbFaceRecord
 10
0.0
 20
0.0
 30
0.0
 70
   128
 71
   541
 72
   543
 73
   542
  0
VERTEX
  5
857
330
42B
100
AcDbEntity
  8
TLESO1
100
AcDbFaceRecord
 10
0.0
 20
0.0
 30
0.0
 70
   128
 71
   542
 72
   538
 73
   544
  0
VERTEX
  5
858
330
42B
100
AcDbEntity
  8
TLESO1
100
AcDbFaceRecord
 10
0.0
 20
0.0
 30
0.0
 70
   128
 71
   539
 72
   544
 73
   538
  0
VERTEX
  5
859
330
42B
100
AcDbEntity
  8
TLESO1
100
AcDbFaceRecord
 10
0.0
 20
0.0
 30
0.0
 70
   128
 71
   544
 72
   540
 73
   542
  0
VERTEX
  5
85A
330
42B
100
AcDbEntity
  8
TLESO1
100
AcDbFaceRecord
 10
0.0
 20
0.0
 30
0.0
 70
   128
 71
   545
 72
   546
 73
   547
  0
VERTEX
  5
85B
330
42B
100
AcDbEntity
  8
TLESO1
100
AcDbFaceRecord
 10
0.0
 20
0.0
 30
0.0
 70
   128
 71
   547
 72
   548
 73
   549
  0
VERTEX
  5
85C
330
42B
100
AcDbEntity
  8
TLESO1
100
AcDbFaceRecord
 10
0.0
 20
0.0
 30
0.0
 70
   128
 71
   548
 72
   550
 73
   551
  0
VERTEX
  5
85D
330
42B
100
AcDbEntity
  8
TLESO1
100
AcDbFaceRecord
 10
0.0
 20
0.0
 30
0.0
 70
   128
 71
   550
 72
   552
 73
   553
  0
VERTEX
  5
85E
330
42B
100
AcDbEntity
  8
TLESO1
100
AcDbFaceRecord
 10
0.0
 20
0.0
 30
0.0
 70
   128
 71
   552
 72
   554
 73
   555
  0
VERTEX
  5
85F
330
42B
100
AcDbEntity
  8
TLESO1
100
AcDbFaceRecord
 10
0.0
 20
0.0
 30
0.0
 70
   128
 71
   554
 72
   556
 73
   557
  0
VERTEX
  5
860
330
42B
100
AcDbEntity
  8
TLESO1
100
AcDbFaceRecord
 10
0.0
 20
0.0
 30
0.0
 70
   128
 71
   557
 72
   558
 73
   555
  0
VERTEX
  5
861
330
42B
100
AcDbEntity
  8
TLESO1
100
AcDbFaceRecord
 10
0.0
 20
0.0
 30
0.0
 70
   128
 71
   558
 72
   559
 73
   560
  0
VERTEX
  5
862
330
42B
100
AcDbEntity
  8
TLESO1
100
AcDbFaceRecord
 10
0.0
 20
0.0
 30
0.0
 70
   128
 71
   559
 72
   561
 73
   562
  0
VERTEX
  5
863
330
42B
100
AcDbEntity
  8
TLESO1
100
AcDbFaceRecord
 10
0.0
 20
0.0
 30
0.0
 70
   128
 71
   561
 72
   563
 73
   564
  0
VERTEX
  5
864
330
42B
100
AcDbEntity
  8
TLESO1
100
AcDbFaceRecord
 10
0.0
 20
0.0
 30
0.0
 70
   128
 71
   563
 72
   565
 73
   566
  0
VERTEX
  5
865
330
42B
100
AcDbEntity
  8
TLESO1
100
AcDbFaceRecord
 10
0.0
 20
0.0
 30
0.0
 70
   128
 71
   565
 72
   567
 73
   568
  0
VERTEX
  5
866
330
42B
100
AcDbEntity
  8
TLESO1
100
AcDbFaceRecord
 10
0.0
 20
0.0
 30
0.0
 70
   128
 71
   567
 72
   569
 73
   570
  0
VERTEX
  5
867
330
42B
100
AcDbEntity
  8
TLESO1
100
AcDbFaceRecord
 10
0.0
 20
0.0
 30
0.0
 70
   128
 71
   569
 72
   571
 73
   572
  0
VERTEX
  5
868
330
42B
100
AcDbEntity
  8
TLESO1
100
AcDbFaceRecord
 10
0.0
 20
0.0
 30
0.0
 70
   128
 71
   571
 72
   573
 73
   574
  0
VERTEX
  5
869
330
42B
100
AcDbEntity
  8
TLESO1
100
AcDbFaceRecord
 10
0.0
 20
0.0
 30
0.0
 70
   128
 71
   573
 72
   575
 73
   576
  0
VERTEX
  5
86A
330
42B
100
AcDbEntity
  8
TLESO1
100
AcDbFaceRecord
 10
0.0
 20
0.0
 30
0.0
 70
   128
 71
   575
 72
   577
 73
   578
  0
VERTEX
  5
86B
330
42B
100
AcDbEntity
  8
TLESO1
100
AcDbFaceRecord
 10
0.0
 20
0.0
 30
0.0
 70
   128
 71
   578
 72
   579
 73
   576
  0
VERTEX
  5
86C
330
42B
100
AcDbEntity
  8
TLESO1
100
AcDbFaceRecord
 10
0.0
 20
0.0
 30
0.0
 70
   128
 71
   579
 72
   580
 73
   581
  0
VERTEX
  5
86D
330
42B
100
AcDbEntity
  8
TLESO1
100
AcDbFaceRecord
 10
0.0
 20
0.0
 30
0.0
 70
   128
 71
   580
 72
   582
 73
   583
  0
VERTEX
  5
86E
330
42B
100
AcDbEntity
  8
TLESO1
100
AcDbFaceRecord
 10
0.0
 20
0.0
 30
0.0
 70
   128
 71
   582
 72
   584
 73
   585
  0
VERTEX
  5
86F
330
42B
100
AcDbEntity
  8
TLESO1
100
AcDbFaceRecord
 10
0.0
 20
0.0
 30
0.0
 70
   128
 71
   584
 72
   586
 73
   587
  0
VERTEX
  5
870
330
42B
100
AcDbEntity
  8
TLESO1
100
AcDbFaceRecord
 10
0.0
 20
0.0
 30
0.0
 70
   128
 71
   555
 72
   553
 73
   552
  0
VERTEX
  5
871
330
42B
100
AcDbEntity
  8
TLESO1
100
AcDbFaceRecord
 10
0.0
 20
0.0
 30
0.0
 70
   128
 71
   553
 72
   551
 73
   550
  0
VERTEX
  5
872
330
42B
100
AcDbEntity
  8
TLESO1
100
AcDbFaceRecord
 10
0.0
 20
0.0
 30
0.0
 70
   128
 71
   551
 72
   549
 73
   548
  0
VERTEX
  5
873
330
42B
100
AcDbEntity
  8
TLESO1
100
AcDbFaceRecord
 10
0.0
 20
0.0
 30
0.0
 70
   128
 71
   549
 72
   588
 73
   589
  0
VERTEX
  5
874
330
42B
100
AcDbEntity
  8
TLESO1
100
AcDbFaceRecord
 10
0.0
 20
0.0
 30
0.0
 70
   128
 71
   588
 72
   590
 73
   591
  0
VERTEX
  5
875
330
42B
100
AcDbEntity
  8
TLESO1
100
AcDbFaceRecord
 10
0.0
 20
0.0
 30
0.0
 70
   128
 71
   590
 72
   592
 73
   593
  0
VERTEX
  5
876
330
42B
100
AcDbEntity
  8
TLESO1
100
AcDbFaceRecord
 10
0.0
 20
0.0
 30
0.0
 70
   128
 71
   592
 72
   594
 73
   595
  0
VERTEX
  5
877
330
42B
100
AcDbEntity
  8
TLESO1
100
AcDbFaceRecord
 10
0.0
 20
0.0
 30
0.0
 70
   128
 71
   594
 72
   596
 73
   597
  0
VERTEX
  5
878
330
42B
100
AcDbEntity
  8
TLESO1
100
AcDbFaceRecord
 10
0.0
 20
0.0
 30
0.0
 70
   128
 71
   596
 72
   598
 73
   599
  0
VERTEX
  5
879
330
42B
100
AcDbEntity
  8
TLESO1
100
AcDbFaceRecord
 10
0.0
 20
0.0
 30
0.0
 70
   128
 71
   598
 72
   600
 73
   601
  0
VERTEX
  5
87A
330
42B
100
AcDbEntity
  8
TLESO1
100
AcDbFaceRecord
 10
0.0
 20
0.0
 30
0.0
 70
   128
 71
   600
 72
   602
 73
   603
  0
VERTEX
  5
87B
330
42B
100
AcDbEntity
  8
TLESO1
100
AcDbFaceRecord
 10
0.0
 20
0.0
 30
0.0
 70
   128
 71
   602
 72
   585
 73
   604
  0
VERTEX
  5
87C
330
42B
100
AcDbEntity
  8
TLESO1
100
AcDbFaceRecord
 10
0.0
 20
0.0
 30
0.0
 70
   128
 71
   576
 72
   574
 73
   573
  0
VERTEX
  5
87D
330
42B
100
AcDbEntity
  8
TLESO1
100
AcDbFaceRecord
 10
0.0
 20
0.0
 30
0.0
 70
   128
 71
   574
 72
   572
 73
   571
  0
VERTEX
  5
87E
330
42B
100
AcDbEntity
  8
TLESO1
100
AcDbFaceRecord
 10
0.0
 20
0.0
 30
0.0
 70
   128
 71
   572
 72
   570
 73
   569
  0
VERTEX
  5
87F
330
42B
100
AcDbEntity
  8
TLESO1
100
AcDbFaceRecord
 10
0.0
 20
0.0
 30
0.0
 70
   128
 71
   570
 72
   568
 73
   567
  0
VERTEX
  5
880
330
42B
100
AcDbEntity
  8
TLESO1
100
AcDbFaceRecord
 10
0.0
 20
0.0
 30
0.0
 70
   128
 71
   568
 72
   566
 73
   565
  0
VERTEX
  5
881
330
42B
100
AcDbEntity
  8
TLESO1
100
AcDbFaceRecord
 10
0.0
 20
0.0
 30
0.0
 70
   128
 71
   566
 72
   564
 73
   563
  0
VERTEX
  5
882
330
42B
100
AcDbEntity
  8
TLESO1
100
AcDbFaceRecord
 10
0.0
 20
0.0
 30
0.0
 70
   128
 71
   564
 72
   562
 73
   561
  0
VERTEX
  5
883
330
42B
100
AcDbEntity
  8
TLESO1
100
AcDbFaceRecord
 10
0.0
 20
0.0
 30
0.0
 70
   128
 71
   562
 72
   560
 73
   559
  0
VERTEX
  5
884
330
42B
100
AcDbEntity
  8
TLESO1
100
AcDbFaceRecord
 10
0.0
 20
0.0
 30
0.0
 70
   128
 71
   560
 72
   555
 73
   558
  0
VERTEX
  5
885
330
42B
100
AcDbEntity
  8
TLESO1
100
AcDbFaceRecord
 10
0.0
 20
0.0
 30
0.0
 70
   128
 71
   585
 72
   583
 73
   582
  0
VERTEX
  5
886
330
42B
100
AcDbEntity
  8
TLESO1
100
AcDbFaceRecord
 10
0.0
 20
0.0
 30
0.0
 70
   128
 71
   583
 72
   581
 73
   580
  0
VERTEX
  5
887
330
42B
100
AcDbEntity
  8
TLESO1
100
AcDbFaceRecord
 10
0.0
 20
0.0
 30
0.0
 70
   128
 71
   581
 72
   576
 73
   579
  0
VERTEX
  5
888
330
42B
100
AcDbEntity
  8
TLESO1
100
AcDbFaceRecord
 10
0.0
 20
0.0
 30
0.0
 70
   128
 71
   587
 72
   604
 73
   585
  0
VERTEX
  5
889
330
42B
100
AcDbEntity
  8
TLESO1
100
AcDbFaceRecord
 10
0.0
 20
0.0
 30
0.0
 70
   128
 71
   604
 72
   603
 73
   602
  0
VERTEX
  5
88A
330
42B
100
AcDbEntity
  8
TLESO1
100
AcDbFaceRecord
 10
0.0
 20
0.0
 30
0.0
 70
   128
 71
   603
 72
   601
 73
   600
  0
VERTEX
  5
88B
330
42B
100
AcDbEntity
  8
TLESO1
100
AcDbFaceRecord
 10
0.0
 20
0.0
 30
0.0
 70
   128
 71
   601
 72
   599
 73
   598
  0
VERTEX
  5
88C
330
42B
100
AcDbEntity
  8
TLESO1
100
AcDbFaceRecord
 10
0.0
 20
0.0
 30
0.0
 70
   128
 71
   599
 72
   597
 73
   596
  0
VERTEX
  5
88D
330
42B
100
AcDbEntity
  8
TLESO1
100
AcDbFaceRecord
 10
0.0
 20
0.0
 30
0.0
 70
   128
 71
   597
 72
   595
 73
   594
  0
VERTEX
  5
88E
330
42B
100
AcDbEntity
  8
TLESO1
100
AcDbFaceRecord
 10
0.0
 20
0.0
 30
0.0
 70
   128
 71
   595
 72
   593
 73
   592
  0
VERTEX
  5
88F
330
42B
100
AcDbEntity
  8
TLESO1
100
AcDbFaceRecord
 10
0.0
 20
0.0
 30
0.0
 70
   128
 71
   593
 72
   591
 73
   590
  0
VERTEX
  5
890
330
42B
100
AcDbEntity
  8
TLESO1
100
AcDbFaceRecord
 10
0.0
 20
0.0
 30
0.0
 70
   128
 71
   591
 72
   589
 73
   588
  0
VERTEX
  5
891
330
42B
100
AcDbEntity
  8
TLESO1
100
AcDbFaceRecord
 10
0.0
 20
0.0
 30
0.0
 70
   128
 71
   589
 72
   545
 73
   549
  0
VERTEX
  5
892
330
42B
100
AcDbEntity
  8
TLESO1
100
AcDbFaceRecord
 10
0.0
 20
0.0
 30
0.0
 70
   128
 71
   545
 72
   547
 73
   549
  0
VERTEX
  5
893
330
42B
100
AcDbEntity
  8
TLESO1
100
AcDbFaceRecord
 10
0.0
 20
0.0
 30
0.0
 70
   128
 71
   555
 72
   554
 73
   557
  0
VERTEX
  5
894
330
42B
100
AcDbEntity
  8
TLESO1
100
AcDbFaceRecord
 10
0.0
 20
0.0
 30
0.0
 70
   128
 71
   576
 72
   575
 73
   578
  0
VERTEX
  5
895
330
42B
100
AcDbEntity
  8
TLESO1
100
AcDbFaceRecord
 10
0.0
 20
0.0
 30
0.0
 70
   128
 71
   585
 72
   584
 73
   587
  0
SEQEND
  5
896
330
42B
100
AcDbEntity
  8
TLESO1
  0
INSERT
  5
8B1
330
1F
100
AcDbEntity
  8
0
100
AcDbBlockReference
 66
     1
  2
RM_SDB
 10
0.0
 20
0.0
 30
0.0
1001
AVE_MATERIAL
1002
{
1000
mat0
1000
2
1000

1002
{
1002
}
1002
{
1070
    39
1002
{
1002
{
1010
0.0
1020
0.0
1030
0.0
1002
}
1040
1.0
1000

1040
0.0
1002
{
1002
}
1040
0.0
1002
{
1002
}
1040
0.0
1002
}
1002
{
1002
{
1010
1.0
1020
1.0
1030
1.0
1002
}
1040
1.0
1000

1040
0.0
1002
{
1002
}
1040
0.0
1002
{
1002
}
1040
0.0
1002
}
1002
{
1002
{
1010
1.0
1020
1.0
1030
1.0
1002
}
1040
1.0
1000

1040
0.0
1002
{
1002
}
1040
0.0
1002
{
1002
}
1040
0.0
1002
}
1002
{
1070
     0
1002
{
1070
     1
1002
{
1040
1.0
1040
1.0
1000

1040
0.0
1002
{
1002
}
1040
0.0
1002
{
1002
}
1040
0.0
1002
}
1002
}
1040
0.0
1040
0.0
1040
0.0
1002
}
1002
{
1040
0.0
1040
0.0
1000

1040
0.0
1002
{
1002
}
1040
0.0
1002
{
1002
}
1040
0.0
1002
}
1002
{
1040
1.0
1040
1.0
1000

1040
0.0
1002
{
1002
}
1040
0.0
1002
{
1002
}
1040
0.0
1002
}
1002
{
1070
     0
1040
0.0
1002
{
1002
}
1040
0.0
1002
{
1002
}
1040
0.0
1002
}
1002
{
1040
0.0
1002
{
1002
{
1010
0.0
1020
0.0
1030
0.0
1002
}
1040
0.0
1000

1040
0.0
1002
{
1002
}
1040
0.0
1002
{
1002
}
1040
0.0
1002
}
1002
}
1002
{
1002
{
1070
     1
1002
{
1040
0.0
1040
1.0
1000

1040
0.0
1002
{
1002
}
1040
0.0
1002
{
1002
}
1040
0.0
1002
}
1002
}
1040
0.0
1002
{
1002
}
1010
0.0
1020
0.0
1030
0.0
1010
0.0
1020
0.0
1030
0.0
1010
0.0
1020
0.0
1030
0.0
1070
     0
1002
}
1002
{
1002
{
1040
0.0
1040
0.0
1002
{
1070
     0
1002
}
1002
}
1070
     0
1040
0.0
1002
{
1002
}
1002
}
1002
{
1002
}
1002
}
1002
{
1071
        0
1070
     3
1070
     0
1002
{
1070
     2
1070
     1
1070
     0
1040
0.0
1002
}
1070
     0
1070
     2
1002
{
1002
}
1002
}
1002
{
1040
8030.0
1040
190.3000030517578
1040
0.3050000071525574
1040
228.0
1040
545.0
1040
14.0
1040
17.39999961853027
1040
0.4560000002384186
1002
}
1000
8CA
1002
}
  0
ATTRIB
  5
8B2
330
8B1
100
AcDbEntity
  8
0
100
AcDbText
 10
0.0
 20
0.0
 30
0.0
 40
0.2
  1
mat0
100
AcDbAttribute
  2
NAME
 70
     1
  0
ATTRIB
  5
8B3
330
8B1
100
AcDbEntity
  8
0
100
AcDbText
 10
0.0
 20
0.0
 30
0.0
 40
0.2
  1

100
AcDbAttribute
  2
ACADCOLOR
 70
     1
  0
ATTRIB
  5
8B4
330
8B1
100
AcDbEntity
  8
0
100
AcDbText
 10
0.0
 20
0.0
 30
0.0
 40
0.2
  1
1.0000,1.0000,1.0000
100
AcDbAttribute
  2
COLOR
 70
     1
  0
ATTRIB
  5
8B5
330
8B1
100
AcDbEntity
  8
0
100
AcDbText
 10
0.0
 20
0.0
 30
0.0
 40
0.2
  1
1.0,1.0,1.0
100
AcDbAttribute
  2
OPACITY
 70
     1
  0
ATTRIB
  5
8B6
330
8B1
100
AcDbEntity
  8
0
100
AcDbText
 10
0.0
 20
0.0
 30
0.0
 40
0.2
  1
("nullsurf" "")
100
AcDbAttribute
  2
SURFACE
 70
     1
  0
ATTRIB
  5
8B7
330
8B1
100
AcDbEntity
  8
0
100
AcDbText
 10
0.0
 20
0.0
 30
0.0
 40
0.2
  1
(11 "Ka" "1")(11 "Kd" "1")(11 "Ks" "1")(11 "roughness" "1")
100
AcDbAttribute
  2
SURF1
 70
     1
  0
ATTRIB
  5
8B8
330
8B1
100
AcDbEntity
  8
0
100
AcDbText
 10
0.0
 20
0.0
 30
0.0
 40
0.2
  1

100
AcDbAttribute
  2
SURF2
 70
     1
  0
ATTRIB
  5
8B9
330
8B1
100
AcDbEntity
  8
0
100
AcDbText
 10
0.0
 20
0.0
 30
0.0
 40
0.2
  1

100
AcDbAttribute
  2
SURF3
 70
     1
  0
ATTRIB
  5
8BA
330
8B1
100
AcDbEntity
  8
0
100
AcDbText
 10
0.0
 20
0.0
 30
0.0
 40
0.2
  1

100
AcDbAttribute
  2
SURF4
 70
     1
  0
ATTRIB
  5
8BB
330
8B1
100
AcDbEntity
  8
0
100
AcDbText
 10
0.0
 20
0.0
 30
0.0
 40
0.2
  1
-1.0
100
AcDbAttribute
  2
SHADINGRATE
 70
     1
  0
ATTRIB
  5
8BC
330
8B1
100
AcDbEntity
  8
0
100
AcDbText
 10
0.0
 20
0.0
 30
0.0
 40
0.2
  1
("nulldisp" "")
100
AcDbAttribute
  2
DISPLACEMENT
 70
     1
  0
ATTRIB
  5
8BD
330
8B1
100
AcDbEntity
  8
0
100
AcDbText
 10
0.0
 20
0.0
 30
0.0
 40
0.2
  1

100
AcDbAttribute
  2
DISP1
 70
     1
  0
ATTRIB
  5
8BE
330
8B1
100
AcDbEntity
  8
0
100
AcDbText
 10
0.0
 20
0.0
 30
0.0
 40
0.2
  1

100
AcDbAttribute
  2
DISP2
 70
     1
  0
ATTRIB
  5
8BF
330
8B1
100
AcDbEntity
  8
0
100
AcDbText
 10
0.0
 20
0.0
 30
0.0
 40
0.2
  1

100
AcDbAttribute
  2
DISP3
 70
     1
  0
ATTRIB
  5
8C0
330
8B1
100
AcDbEntity
  8
0
100
AcDbText
 10
0.0
 20
0.0
 30
0.0
 40
0.2
  1

100
AcDbAttribute
  2
DISP4
 70
     1
  0
ATTRIB
  5
8C1
330
8B1
100
AcDbEntity
  8
0
100
AcDbText
 10
0.0
 20
0.0
 30
0.0
 40
0.2
  1
0.0
100
AcDbAttribute
  2
DBOUND
 70
     1
  0
ATTRIB
  5
8C2
330
8B1
100
AcDbEntity
  8
0
100
AcDbText
 10
0.0
 20
0.0
 30
0.0
 40
0.2
  1
0
100
AcDbAttribute
  2
SMOOTH
 70
     1
  0
ATTRIB
  5
8C3
330
8B1
100
AcDbEntity
  8
0
100
AcDbText
 10
0.0
 20
0.0
 30
0.0
 40
0.2
  1
("" "")
100
AcDbAttribute
  2
ATMOSHPERE
 70
     1
  0
ATTRIB
  5
8C4
330
8B1
100
AcDbEntity
  8
0
100
AcDbText
 10
0.0
 20
0.0
 30
0.0
 40
0.2
  1

100
AcDbAttribute
  2
ATMO1
 70
     1
  0
ATTRIB
  5
8C5
330
8B1
100
AcDbEntity
  8
0
100
AcDbText
 10
0.0
 20
0.0
 30
0.0
 40
0.2
  1

100
AcDbAttribute
  2
ATMO2
 70
     1
  0
ATTRIB
  5
8C6
330
8B1
100
AcDbEntity
  8
0
100
AcDbText
 10
0.0
 20
0.0
 30
0.0
 40
0.2
  1

100
AcDbAttribute
  2
ATMO3
 70
     1
  0
ATTRIB
  5
8C7
330
8B1
100
AcDbEntity
  8
0
100
AcDbText
 10
0.0
 20
0.0
 30
0.0
 40
0.2
  1

100
AcDbAttribute
  2
ATMO4
 70
     1
  0
ATTRIB
  5
8C8
330
8B1
100
AcDbEntity
  8
0
100
AcDbText
 10
0.0
 20
0.0
 30
0.0
 40
0.2
  1
0.0 0.0 1.0 0.0 0.0 1.0 1.0 1.0
100
AcDbAttribute
  2
TCCORD
 70
     1
  0
SEQEND
  5
8C9
330
8B1
100
AcDbEntity
  8
0
  0
ENDSEC
  0
SECTION
  2
OBJECTS
  0
DICTIONARY
  5
C
330
0
100
AcDbDictionary
281
     1
  3
ACAD_2007HEADERVARS_RT
350
8E4
  3
ACAD_BACKGROUND
350
8D6
  3
ACAD_COLOR
350
BE
  3
ACAD_GROUP
350
D
  3
ACAD_LAYOUT
350
1A
  3
ACAD_MATERIAL
350
BD
  3
ACAD_MLEADERSTYLE
350
2C4
  3
ACAD_MLINESTYLE
350
17
  3
ACAD_PLOTSETTINGS
350
19
  3
ACAD_PLOTSTYLENAME
350
E
  3
ACAD_SCALELIST
350
2A2
  3
ACAD_TABLESTYLE
350
11A
  3
ACAD_VISUALSTYLE
350
26E
  3
ACDB_RECOMPOSE_DATA
350
8E2
  3
AcDbVariableDictionary
350
94
  3
AcmDictionary
350
5B
  3
AMG
350
41
  3
AMGSNAPSETTINGS
350
3A1
  3
AVE_ACITABLE
350
8CB
  3
DWGPROPS
350
8E3
  0
DICTIONARY
  5
3CC
330
2
100
AcDbDictionary
280
     1
281
     1
  3
ACAD_LAYERSTATES
360
3CD
  0
DICTIONARY
  5
8D9
330
10
100
AcDbDictionary
280
     1
281
     1
  3
ADSK_XREC_LAYER_RECONCILED
360
8DA
  0
DICTIONARY
  5
8DB
330
412
100
AcDbDictionary
280
     1
281
     1
  3
ADSK_XREC_LAYER_RECONCILED
360
8DC
  0
DICTIONARY
  5
8DD
330
42A
100
AcDbDictionary
280
     1
281
     1
  3
ADSK_XREC_LAYER_RECONCILED
360
8DE
  0
DICTIONARY
  5
8F
330
1F
100
AcDbDictionary
280
     1
281
     1
  0
DICTIONARY
  5
8E4
102
{ACAD_REACTORS
330
C
102
}
330
C
100
AcDbDictionary
281
     1
  3
DIMARCSYM
350
8E5
  3
DIMLTEX1
350
8E7
  3
DIMLTEX2
350
8E8
  3
DIMLTYPE
350
8E6
  0
DICTIONARY
  5
8D6
102
{ACAD_REACTORS
330
C
102
}
330
C
100
AcDbDictionary
281
     1
  0
DICTIONARY
  5
BE
102
{ACAD_REACTORS
330
C
102
}
330
C
100
AcDbDictionary
281
     1
  0
DICTIONARY
  5
D
102
{ACAD_REACTORS
330
C
102
}
330
C
100
AcDbDictionary
281
     1
  0
DICTIONARY
  5
1A
102
{ACAD_REACTORS
330
C
102
}
330
C
100
AcDbDictionary
281
     1
  3
Model
350
22
  3
Rozvržení1
350
1E
  3
Rozvržení2
350
26
  0
DICTIONARY
  5
BD
102
{ACAD_REACTORS
330
C
102
}
330
C
100
AcDbDictionary
281
     1
  3
ByBlock
350
26C
  3
ByLayer
350
26B
  3
Global
350
26D
  3
mat0
350
8CA
  0
DICTIONARY
  5
2C4
102
{ACAD_REACTORS
330
C
102
}
330
C
100
AcDbDictionary
281
     1
  3
Standard
350
2C5
  0
DICTIONARY
  5
17
102
{ACAD_REACTORS
330
C
102
}
330
C
100
AcDbDictionary
281
     1
  3
Standard
350
18
  0
DICTIONARY
  5
19
102
{ACAD_REACTORS
330
C
102
}
330
C
100
AcDbDictionary
281
     1
  0
ACDBDICTIONARYWDFLT
  5
E
102
{ACAD_REACTORS
330
C
102
}
330
C
100
AcDbDictionary
281
     1
  3
Normal
350
F
100
AcDbDictionaryWithDefault
340
F
  0
DICTIONARY
  5
2A2
102
{ACAD_REACTORS
330
C
102
}
330
C
100
AcDbDictionary
281
     1
  3
A0
350
2A3
  3
A1
350
2A4
  3
A2
350
2A5
  3
A3
350
2A6
  3
A4
350
2A7
  3
A5
350
2A8
  3
A6
350
2A9
  3
A7
350
2AA
  3
A8
350
2AB
  3
A9
350
2AC
  3
B0
350
2AD
  3
B1
350
2AE
  3
B2
350
2AF
  3
B3
350
2B0
  3
B4
350
2B1
  3
B5
350
2B2
  3
B6
350
2B3
  3
B7
350
2B4
  3
B8
350
2B5
  3
B9
350
2B6
  3
C0
350
2B7
  3
C1
350
2B8
  3
C2
350
2B9
  3
C3
350
2BA
  3
C4
350
2BB
  3
C5
350
2BC
  3
C6
350
2BD
  3
C7
350
2BE
  3
C8
350
2BF
  3
C9
350
2C0
  3
D0
350
2C1
  3
D1
350
2C2
  3
D2
350
2C3
  0
DICTIONARY
  5
11A
102
{ACAD_REACTORS
330
C
102
}
330
C
100
AcDbDictionary
281
     1
  3
Standard
350
11B
  0
DICTIONARY
  5
26E
102
{ACAD_REACTORS
330
C
102
}
330
C
100
AcDbDictionary
281
     1
  3
2dWireframe
350
274
  3
3D Hidden
350
276
  3
3dWireframe
350
275
  3
Basic
350
273
  3
Brighten
350
27A
  3
ColorChange
350
27E
  3
Conceptual
350
277
  3
Dim
350
279
  3
EdgeColorOff
350
34B
  3
Facepattern
350
27D
  3
Flat
350
26F
  3
FlatWithEdges
350
270
  3
Gouraud
350
271
  3
GouraudWithEdges
350
272
  3
JitterOff
350
349
  3
Linepattern
350
27C
  3
OverhangOff
350
34A
  3
Realistic
350
278
  3
Thicken
350
27B
  0
XRECORD
  5
8E2
102
{ACAD_REACTORS
330
C
102
}
330
C
100
AcDbXrecord
280
     1
 90
        1
330
11B
  0
DICTIONARY
  5
94
102
{ACAD_REACTORS
330
C
102
}
330
C
100
AcDbDictionary
281
     1
  3
CANNOSCALE
350
2E9
  3
CMLEADERSTYLE
350
2E7
  3
CTABLESTYLE
350
138
  3
DIMASSOC
350
96
  3
INDEXCTL
350
95
  3
LAYEREVAL
350
346
  3
LAYERNOTIFY
350
347
  3
LIGHTINGUNITS
350
2EA
  3
MSLTSCALE
350
2E8
  3
SORTENTS
350
8DF
  3
XCLIPFRAME
350
8E0
  0
DICTIONARY
  5
5B
102
{ACAD_REACTORS
330
C
102
}
330
C
100
AcDbDictionary
281
     1
  3
AcmBOM
350
3A8
  3
AcmStdDictionary
350
61
  3
AMDTSECTSYM_ARROWCOLOR
350
123
  0
DICTIONARY
  5
41
102
{ACAD_REACTORS
330
C
102
}
330
C
100
AcDbDictionary
281
     1
  0
DICTIONARY
  5
3A1
102
{ACAD_REACTORS
330
C
102
}
330
C
100
AcDbDictionary
281
     1
  0
DICTIONARY
  5
8CB
102
{ACAD_REACTORS
330
C
102
}
330
C
100
AcDbDictionary
281
     1
  0
XRECORD
  5
8E3
102
{ACAD_REACTORS
330
C
102
}
330
C
100
AcDbXrecord
280
     1
  1
DWGPROPS COOKIE
  2

  3

  4

  6

  7

  8
dano
  9

300
AmdtFileType=84
301
=
302
=
303
=
304
=
305
=
306
=
307
=
308
=
309
=
 40
0.0024235185185185
 41
2456048.377707581
 42
2456048.380118542
  1

 90
        1
  0
DICTIONARY
  5
3CD
102
{ACAD_REACTORS
330
3CC
102
}
330
3CC
100
AcDbDictionary
281
     1
  0
XRECORD
  5
8DA
102
{ACAD_REACTORS
330
8D9
102
}
330
8D9
100
AcDbXrecord
280
     1
290
     1
  0
XRECORD
  5
8DC
102
{ACAD_REACTORS
330
8DB
102
}
330
8DB
100
AcDbXrecord
280
     1
290
     1
  0
XRECORD
  5
8DE
102
{ACAD_REACTORS
330
8DD
102
}
330
8DD
100
AcDbXrecord
280
     1
290
     1
  0
XRECORD
  5
8E5
102
{ACAD_REACTORS
330
8E4
102
}
330
8E4
100
AcDbXrecord
280
     1
 70
     1
  0
XRECORD
  5
8E7
102
{ACAD_REACTORS
330
8E4
102
}
330
8E4
100
AcDbXrecord
280
     1
340
14
  0
XRECORD
  5
8E8
102
{ACAD_REACTORS
330
8E4
102
}
330
8E4
100
AcDbXrecord
280
     1
340
14
  0
XRECORD
  5
8E6
102
{ACAD_REACTORS
330
8E4
102
}
330
8E4
100
AcDbXrecord
280
     1
340
14
  0
LAYOUT
  5
22
102
{ACAD_XDICTIONARY
360
3D2
102
}
102
{ACAD_REACTORS
330
1A
102
}
330
1A
100
AcDbPlotSettings
  1

  2
Microsoft XPS Document Writer
  4
A4 Small
  6

 40
3.174999952316284
 41
3.174999952316284
 42
3.175003051757812
 43
3.17498779296875
 44
210.0
 45
297.0
 46
0.0
 47
0.0
 48
0.0
 49
0.0
140
0.0
141
0.0
142
1.0
143
8.571590702772617
 70
 11952
 72
     1
 73
     1
 74
     0
  7

 75
     0
147
0.1166644599206696
148
1.591154049132228
149
-275.1363725668245
100
AcDbLayout
  1
Model
 70
     1
 71
     0
 10
0.0
 20
0.0
 11
12.0
 21
9.0
 12
0.0
 22
0.0
 32
0.0
 14
0.0
 24
0.0
 34
0.0
 15
0.0
 25
0.0
 35
0.0
146
0.0
 13
0.0
 23
0.0
 33
0.0
 16
1.0
 26
0.0
 36
0.0
 17
0.0
 27
1.0
 37
0.0
 76
     0
330
1F
331
269
1001
ACAD_PSEXT
1000
Microsoft XPS Document Writer
1000
Microsoft XPS Document Writer
1000
XPSPort:
1000

1070
     0
  0
LAYOUT
  5
1E
102
{ACAD_XDICTIONARY
360
8E9
102
}
102
{ACAD_REACTORS
330
1A
102
}
330
1A
100
AcDbPlotSettings
  1

  2

  4

  6

 40
0.0
 41
0.0
 42
0.0
 43
0.0
 44
0.0
 45
0.0
 46
0.0
 47
0.0
 48
0.0
 49
0.0
140
0.0
141
0.0
142
1.0
143
1.0
 70
   688
 72
     0
 73
     0
 74
     5
  7

 75
    16
147
1.0
148
0.0
149
0.0
100
AcDbLayout
  1
Rozvržení1
 70
     1
 71
     1
 10
0.0
 20
0.0
 11
420.0
 21
297.0
 12
0.0
 22
0.0
 32
0.0
 14
1.000000000000000E+20
 24
1.000000000000000E+20
 34
1.000000000000000E+20
 15
-1.000000000000000E+20
 25
-1.000000000000000E+20
 35
-1.000000000000000E+20
146
0.0
 13
0.0
 23
0.0
 33
0.0
 16
1.0
 26
0.0
 36
0.0
 17
0.0
 27
1.0
 37
0.0
 76
     0
330
1B
  0
LAYOUT
  5
26
102
{ACAD_XDICTIONARY
360
8EC
102
}
102
{ACAD_REACTORS
330
1A
102
}
330
1A
100
AcDbPlotSettings
  1

  2

  4

  6

 40
0.0
 41
0.0
 42
0.0
 43
0.0
 44
0.0
 45
0.0
 46
0.0
 47
0.0
 48
0.0
 49
0.0
140
0.0
141
0.0
142
1.0
143
1.0
 70
   688
 72
     0
 73
     0
 74
     5
  7

 75
    16
147
1.0
148
0.0
149
0.0
100
AcDbLayout
  1
Rozvržení2
 70
     1
 71
     2
 10
0.0
 20
0.0
 11
12.0
 21
9.0
 12
0.0
 22
0.0
 32
0.0
 14
0.0
 24
0.0
 34
0.0
 15
0.0
 25
0.0
 35
0.0
146
0.0
 13
0.0
 23
0.0
 33
0.0
 16
1.0
 26
0.0
 36
0.0
 17
0.0
 27
1.0
 37
0.0
 76
     0
330
23
  0
MATERIAL
  5
26C
102
{ACAD_XDICTIONARY
360
8F4
102
}
102
{ACAD_REACTORS
330
BD
102
}
330
BD
100
AcDbMaterial
  1
ByBlock
 73
     1
 78
     1
172
     1
176
     1
270
     1
274
     1
  0
MATERIAL
  5
26B
102
{ACAD_XDICTIONARY
360
8F2
102
}
102
{ACAD_REACTORS
330
BD
102
}
330
BD
100
AcDbMaterial
  1
ByLayer
 73
     1
 78
     1
172
     1
176
     1
270
     1
274
     1
  0
MATERIAL
  5
26D
102
{ACAD_XDICTIONARY
360
8F6
102
}
102
{ACAD_REACTORS
330
BD
102
}
330
BD
100
AcDbMaterial
  1
Global
 73
     1
 78
     1
172
     1
176
     1
270
     1
274
     1
  0
MATERIAL
  5
8CA
102
{ACAD_XDICTIONARY
360
8CC
102
}
102
{ACAD_REACTORS
330
BD
102
}
330
BD
100
AcDbMaterial
  1
mat0
 70
     1
 71
     1
 91
-1023410177
 72
     0
 44
0.0
 76
     1
 92
-1023410177
 77
     0
171
     0
175
     0
179
     0
  0
MLEADERSTYLE
  5
2C5
102
{ACAD_REACTORS
330
2C4
102
}
330
2C4
100
AcDbMLeaderStyle
170
     2
171
     1
172
     0
 90
        2
 40
0.0
 41
0.0
173
     1
 91
-1056964608
340
14
 92
       -2
290
     1
 42
2.0
291
     1
 43
0.36
  3
Standard
 44
4.0
300

342
11
174
     1
178
     6
175
     1
176
     0
 93
-1056964608
 45
4.0
292
     0
297
     0
 46
4.0
 94
-1056964608
 47
1.0
 49
1.0
140
1.0
293
     1
141
0.0
294
     1
177
     0
142
1.0
295
     0
296
     0
143
0.125
1001
ACAD_MLEADERVER
1070
     2
  0
MLINESTYLE
  5
18
102
{ACAD_REACTORS
330
17
102
}
330
17
100
AcDbMlineStyle
  2
STANDARD
 70
     0
  3

 62
   256
 51
90.0
 52
90.0
 71
     2
 49
0.5
 62
   256
  6
BYLAYER
 49
-0.5
 62
   256
  6
BYLAYER
  0
ACDBPLACEHOLDER
  5
F
102
{ACAD_REACTORS
330
E
102
}
330
E
  0
SCALE
  5
2A3
102
{ACAD_REACTORS
330
2A2
102
}
330
2A2
100
AcDbScale
 70
     0
300
1:1
140
1.0
141
1.0
290
     1
  0
SCALE
  5
2A4
102
{ACAD_REACTORS
330
2A2
102
}
330
2A2
100
AcDbScale
 70
     0
300
1:2
140
1.0
141
2.0
290
     0
  0
SCALE
  5
2A5
102
{ACAD_REACTORS
330
2A2
102
}
330
2A2
100
AcDbScale
 70
     0
300
1:4
140
1.0
141
4.0
290
     0
  0
SCALE
  5
2A6
102
{ACAD_REACTORS
330
2A2
102
}
330
2A2
100
AcDbScale
 70
     0
300
1:5
140
1.0
141
5.0
290
     0
  0
SCALE
  5
2A7
102
{ACAD_REACTORS
330
2A2
102
}
330
2A2
100
AcDbScale
 70
     0
300
1:8
140
1.0
141
8.0
290
     0
  0
SCALE
  5
2A8
102
{ACAD_REACTORS
330
2A2
102
}
330
2A2
100
AcDbScale
 70
     0
300
1:10
140
1.0
141
10.0
290
     0
  0
SCALE
  5
2A9
102
{ACAD_REACTORS
330
2A2
102
}
330
2A2
100
AcDbScale
 70
     0
300
1:16
140
1.0
141
16.0
290
     0
  0
SCALE
  5
2AA
102
{ACAD_REACTORS
330
2A2
102
}
330
2A2
100
AcDbScale
 70
     0
300
1:20
140
1.0
141
20.0
290
     0
  0
SCALE
  5
2AB
102
{ACAD_REACTORS
330
2A2
102
}
330
2A2
100
AcDbScale
 70
     0
300
1:30
140
1.0
141
30.0
290
     0
  0
SCALE
  5
2AC
102
{ACAD_REACTORS
330
2A2
102
}
330
2A2
100
AcDbScale
 70
     0
300
1:40
140
1.0
141
40.0
290
     0
  0
SCALE
  5
2AD
102
{ACAD_REACTORS
330
2A2
102
}
330
2A2
100
AcDbScale
 70
     0
300
1:50
140
1.0
141
50.0
290
     0
  0
SCALE
  5
2AE
102
{ACAD_REACTORS
330
2A2
102
}
330
2A2
100
AcDbScale
 70
     0
300
1:100
140
1.0
141
100.0
290
     0
  0
SCALE
  5
2AF
102
{ACAD_REACTORS
330
2A2
102
}
330
2A2
100
AcDbScale
 70
     0
300
2:1
140
2.0
141
1.0
290
     0
  0
SCALE
  5
2B0
102
{ACAD_REACTORS
330
2A2
102
}
330
2A2
100
AcDbScale
 70
     0
300
4:1
140
4.0
141
1.0
290
     0
  0
SCALE
  5
2B1
102
{ACAD_REACTORS
330
2A2
102
}
330
2A2
100
AcDbScale
 70
     0
300
8:1
140
8.0
141
1.0
290
     0
  0
SCALE
  5
2B2
102
{ACAD_REACTORS
330
2A2
102
}
330
2A2
100
AcDbScale
 70
     0
300
10:1
140
10.0
141
1.0
290
     0
  0
SCALE
  5
2B3
102
{ACAD_REACTORS
330
2A2
102
}
330
2A2
100
AcDbScale
 70
     0
300
100:1
140
100.0
141
1.0
290
     0
  0
SCALE
  5
2B4
102
{ACAD_REACTORS
330
2A2
102
}
330
2A2
100
AcDbScale
 70
     0
300
1/128" = 1'-0"
140
0.0078125
141
12.0
290
     0
  0
SCALE
  5
2B5
102
{ACAD_REACTORS
330
2A2
102
}
330
2A2
100
AcDbScale
 70
     0
300
1/64" = 1'-0"
140
0.015625
141
12.0
290
     0
  0
SCALE
  5
2B6
102
{ACAD_REACTORS
330
2A2
102
}
330
2A2
100
AcDbScale
 70
     0
300
1/32" = 1'-0"
140
0.03125
141
12.0
290
     0
  0
SCALE
  5
2B7
102
{ACAD_REACTORS
330
2A2
102
}
330
2A2
100
AcDbScale
 70
     0
300
1/16" = 1'-0"
140
0.0625
141
12.0
290
     0
  0
SCALE
  5
2B8
102
{ACAD_REACTORS
330
2A2
102
}
330
2A2
100
AcDbScale
 70
     0
300
3/32" = 1'-0"
140
0.09375
141
12.0
290
     0
  0
SCALE
  5
2B9
102
{ACAD_REACTORS
330
2A2
102
}
330
2A2
100
AcDbScale
 70
     0
300
1/8" = 1'-0"
140
0.125
141
12.0
290
     0
  0
SCALE
  5
2BA
102
{ACAD_REACTORS
330
2A2
102
}
330
2A2
100
AcDbScale
 70
     0
300
3/16" = 1'-0"
140
0.1875
141
12.0
290
     0
  0
SCALE
  5
2BB
102
{ACAD_REACTORS
330
2A2
102
}
330
2A2
100
AcDbScale
 70
     0
300
1/4" = 1'-0"
140
0.25
141
12.0
290
     0
  0
SCALE
  5
2BC
102
{ACAD_REACTORS
330
2A2
102
}
330
2A2
100
AcDbScale
 70
     0
300
3/8" = 1'-0"
140
0.375
141
12.0
290
     0
  0
SCALE
  5
2BD
102
{ACAD_REACTORS
330
2A2
102
}
330
2A2
100
AcDbScale
 70
     0
300
1/2" = 1'-0"
140
0.5
141
12.0
290
     0
  0
SCALE
  5
2BE
102
{ACAD_REACTORS
330
2A2
102
}
330
2A2
100
AcDbScale
 70
     0
300
3/4" = 1'-0"
140
0.75
141
12.0
290
     0
  0
SCALE
  5
2BF
102
{ACAD_REACTORS
330
2A2
102
}
330
2A2
100
AcDbScale
 70
     0
300
1" = 1'-0"
140
1.0
141
12.0
290
     0
  0
SCALE
  5
2C0
102
{ACAD_REACTORS
330
2A2
102
}
330
2A2
100
AcDbScale
 70
     0
300
1-1/2" = 1'-0"
140
1.5
141
12.0
290
     0
  0
SCALE
  5
2C1
102
{ACAD_REACTORS
330
2A2
102
}
330
2A2
100
AcDbScale
 70
     0
300
3" = 1'-0"
140
3.0
141
12.0
290
     0
  0
SCALE
  5
2C2
102
{ACAD_REACTORS
330
2A2
102
}
330
2A2
100
AcDbScale
 70
     0
300
6" = 1'-0"
140
6.0
141
12.0
290
     0
  0
SCALE
  5
2C3
102
{ACAD_REACTORS
330
2A2
102
}
330
2A2
100
AcDbScale
 70
     0
300
1'-0" = 1'-0"
140
12.0
141
12.0
290
     0
  0
TABLESTYLE
  5
11B
102
{ACAD_XDICTIONARY
360
2E4
102
}
102
{ACAD_REACTORS
330
11A
102
}
330
11A
100
AcDbTableStyle
  3
Standard
 70
     0
 71
     0
 40
1.5
 41
1.5
280
     0
281
     0
  7
STANDARD
140
4.5
170
     2
 62
     0
 63
     7
283
     0
274
    -2
284
     1
 64
     0
275
    -2
285
     1
 65
     0
276
    -2
286
     1
 66
     0
277
    -2
287
     1
 67
     0
278
    -2
288
     1
 68
     0
279
    -2
289
     1
 69
     0
  7
STANDARD
140
6.0
170
     5
 62
     0
 63
     7
283
     0
274
    -2
284
     1
 64
     0
275
    -2
285
     1
 65
     0
276
    -2
286
     1
 66
     0
277
    -2
287
     1
 67
     0
278
    -2
288
     1
 68
     0
279
    -2
289
     1
 69
     0
  7
STANDARD
140
4.5
170
     5
 62
     0
 63
     7
283
     0
274
    -2
284
     1
 64
     0
275
    -2
285
     1
 65
     0
276
    -2
286
     1
 66
     0
277
    -2
287
     1
 67
     0
278
    -2
288
     1
 68
     0
279
    -2
289
     1
 69
     0
  0
VISUALSTYLE
  5
274
102
{ACAD_XDICTIONARY
360
902
102
}
102
{ACAD_REACTORS
330
26E
102
}
330
26E
100
AcDbVisualStyle
  2
2dWireframe
 70
     4
 71
     0
 72
     2
 73
     0
 90
        0
 40
-0.6
 41
-30.0
 62
     5
 63
     7
 74
     1
 91
        4
 64
     7
 65
   257
 75
     1
175
     1
 42
1.0
 92
        0
 66
   257
 43
1.0
 76
     1
 77
     6
 78
     2
 67
     7
 79
     5
170
     0
171
     0
290
     0
174
     0
 93
        1
 44
0.0
173
     0
291
     0
 45
0.0
1001
ACAD
1000
AcDbSavedByObjectVersion
1070
     0
  0
VISUALSTYLE
  5
276
102
{ACAD_XDICTIONARY
360
906
102
}
102
{ACAD_REACTORS
330
26E
102
}
330
26E
100
AcDbVisualStyle
  2
3D Hidden
 70
     6
 71
     1
 72
     2
 73
     2
 90
        0
 40
-0.6
 41
-30.0
 62
     5
 63
     7
 74
     2
 91
        2
 64
     7
 65
   257
 75
     2
175
     1
 42
40.0
 92
        0
 66
   257
 43
1.0
 76
     1
 77
     6
 78
     2
 67
     7
 79
     3
170
     0
171
     0
290
     0
174
     0
 93
        1
 44
0.0
173
     0
291
     0
 45
0.0
1001
ACAD
1000
AcDbSavedByObjectVersion
1070
     0
  0
VISUALSTYLE
  5
275
102
{ACAD_XDICTIONARY
360
904
102
}
102
{ACAD_REACTORS
330
26E
102
}
330
26E
100
AcDbVisualStyle
  2
3dWireframe
 70
     5
 71
     0
 72
     2
 73
     0
 90
        0
 40
-0.6
 41
-30.0
 62
     5
 63
     7
 74
     1
 91
        4
 64
     7
 65
   257
 75
     1
175
     1
 42
1.0
 92
        0
 66
   257
 43
1.0
 76
     1
 77
     6
 78
     2
 67
     7
 79
     5
170
     0
171
     0
290
     0
174
     0
 93
        1
 44
0.0
173
     0
291
     0
 45
0.0
1001
ACAD
1000
AcDbSavedByObjectVersion
1070
     0
  0
VISUALSTYLE
  5
273
102
{ACAD_XDICTIONARY
360
900
102
}
102
{ACAD_REACTORS
330
26E
102
}
330
26E
100
AcDbVisualStyle
  2
Basic
 70
     7
 71
     1
 72
     0
 73
     1
 90
        0
 40
-0.6
 41
-30.0
 62
     5
 63
     7
 74
     0
 91
        4
 64
     7
 65
   257
 75
     1
175
     1
 42
1.0
 92
        8
 66
     7
 43
1.0
 76
     1
 77
     6
 78
     2
 67
     7
 79
     5
170
     0
171
     0
290
     0
174
     0
 93
        1
 44
0.0
173
     0
291
     1
 45
0.0
1001
ACAD
1000
AcDbSavedByObjectVersion
1070
     0
  0
VISUALSTYLE
  5
27A
102
{ACAD_XDICTIONARY
360
90E
102
}
102
{ACAD_REACTORS
330
26E
102
}
330
26E
100
AcDbVisualStyle
  2
Brighten
 70
    12
 71
     2
 72
     2
 73
     0
 90
        0
 40
-0.6
 41
-30.0
 62
     5
 63
     7
 74
     1
 91
        4
 64
     7
 65
   257
 75
     1
175
     1
 42
1.0
 92
        8
 66
     7
 43
1.0
 76
     1
 77
     6
 78
     2
 67
     7
 79
     5
170
     0
171
     0
290
     0
174
     0
 93
        1
 44
50.0
173
     0
291
     1
 45
0.0
1001
ACAD
1000
AcDbSavedByObjectVersion
1070
     0
  0
VISUALSTYLE
  5
27E
102
{ACAD_XDICTIONARY
360
916
102
}
102
{ACAD_REACTORS
330
26E
102
}
330
26E
100
AcDbVisualStyle
  2
ColorChange
 70
    16
 71
     2
 72
     2
 73
     3
 90
        0
 40
-0.6
 41
-30.0
 62
     5
 63
     8
 74
     1
 91
        4
 64
     7
 65
   257
 75
     1
175
     1
 42
1.0
 92
        8
 66
     8
 43
1.0
 76
     1
 77
     6
 78
     2
 67
     7
 79
     5
170
     0
171
     0
290
     0
174
     0
 93
        1
 44
0.0
173
     0
291
     1
 45
0.0
1001
ACAD
1000
AcDbSavedByObjectVersion
1070
     0
  0
VISUALSTYLE
  5
277
102
{ACAD_XDICTIONARY
360
908
102
}
102
{ACAD_REACTORS
330
26E
102
}
330
26E
100
AcDbVisualStyle
  2
Conceptual
 70
     9
 71
     3
 72
     2
 73
     0
 90
        0
 40
-0.6
 41
-30.0
 62
     5
 63
     7
 74
     2
 91
        2
 64
     7
 65
   257
 75
     1
175
     1
 42
40.0
 92
        8
 66
     7
 43
1.0
 76
     1
 77
     6
 78
     2
 67
     7
 79
     3
170
     0
171
     0
290
     0
174
     0
 93
        1
 44
0.0
173
     0
291
     0
 45
0.0
1001
ACAD
1000
AcDbSavedByObjectVersion
1070
     0
  0
VISUALSTYLE
  5
279
102
{ACAD_XDICTIONARY
360
90C
102
}
102
{ACAD_REACTORS
330
26E
102
}
330
26E
100
AcDbVisualStyle
  2
Dim
 70
    11
 71
     2
 72
     2
 73
     0
 90
        0
 40
-0.6
 41
-30.0
 62
     5
 63
     7
 74
     1
 91
        4
 64
     7
 65
   257
 75
     1
175
     1
 42
1.0
 92
        8
 66
     7
 43
1.0
 76
     1
 77
     6
 78
     2
 67
     7
 79
     5
170
     0
171
     0
290
     0
174
     0
 93
        1
 44
-50.0
173
     0
291
     1
 45
0.0
1001
ACAD
1000
AcDbSavedByObjectVersion
1070
     0
  0
VISUALSTYLE
  5
34B
102
{ACAD_XDICTIONARY
360
91C
102
}
102
{ACAD_REACTORS
330
26E
102
}
330
26E
100
AcDbVisualStyle
  2
EdgeColorOff
 70
    22
 71
     2
 72
     2
 73
     0
 90
        0
 40
-0.6
 41
-30.0
 62
     5
 63
     7
 74
     1
 91
        4
 64
     7
 65
   257
 75
     1
175
     1
 42
1.0
 92
        8
 66
     7
 43
1.0
 76
     1
 77
     6
 78
     2
 67
     7
 79
     5
170
     0
171
     0
290
     0
174
     0
 93
        1
 44
0.0
173
     0
291
     1
 45
0.0
1001
ACAD
1000
AcDbSavedByObjectVersion
1070
     0
  0
VISUALSTYLE
  5
27D
102
{ACAD_XDICTIONARY
360
914
102
}
102
{ACAD_REACTORS
330
26E
102
}
330
26E
100
AcDbVisualStyle
  2
Facepattern
 70
    15
 71
     2
 72
     2
 73
     0
 90
        0
 40
-0.6
 41
-30.0
 62
     5
 63
     7
 74
     1
 91
        4
 64
     7
 65
   257
 75
     1
175
     1
 42
1.0
 92
        8
 66
     7
 43
1.0
 76
     1
 77
     6
 78
     2
 67
     7
 79
     5
170
     0
171
     0
290
     0
174
     0
 93
        1
 44
0.0
173
     0
291
     1
 45
0.0
1001
ACAD
1000
AcDbSavedByObjectVersion
1070
     0
  0
VISUALSTYLE
  5
26F
102
{ACAD_XDICTIONARY
360
8F8
102
}
102
{ACAD_REACTORS
330
26E
102
}
330
26E
100
AcDbVisualStyle
  2
Flat
 70
     0
 71
     2
 72
     1
 73
     1
 90
        2
 40
-0.6
 41
30.0
 62
     5
 63
     7
 74
     0
 91
        4
 64
     7
 65
   257
 75
     1
175
     1
 42
1.0
 92
        8
 66
     7
 43
1.0
 76
     1
 77
     6
 78
     2
 67
     7
 79
     5
170
     0
171
     0
290
     0
174
     0
 93
       13
 44
0.0
173
     0
291
     1
 45
0.0
1001
ACAD
1000
AcDbSavedByObjectVersion
1070
     0
  0
VISUALSTYLE
  5
270
102
{ACAD_XDICTIONARY
360
8FA
102
}
102
{ACAD_REACTORS
330
26E
102
}
330
26E
100
AcDbVisualStyle
  2
FlatWithEdges
 70
     1
 71
     2
 72
     1
 73
     1
 90
        2
 40
-0.6
 41
30.0
 62
     5
 63
     7
 74
     1
 91
        4
 64
     7
 65
   257
 75
     1
175
     1
 42
1.0
 92
        0
 66
   257
 43
1.0
 76
     1
 77
     6
 78
     2
 67
     7
 79
     5
170
     0
171
     0
290
     0
174
     0
 93
       13
 44
0.0
173
     0
291
     1
 45
0.0
1001
ACAD
1000
AcDbSavedByObjectVersion
1070
     0
  0
VISUALSTYLE
  5
271
102
{ACAD_XDICTIONARY
360
8FC
102
}
102
{ACAD_REACTORS
330
26E
102
}
330
26E
100
AcDbVisualStyle
  2
Gouraud
 70
     2
 71
     2
 72
     2
 73
     1
 90
        2
 40
-0.6
 41
30.0
 62
     5
 63
     7
 74
     0
 91
        4
 64
     7
 65
   257
 75
     1
175
     1
 42
1.0
 92
        0
 66
     7
 43
1.0
 76
     1
 77
     6
 78
     2
 67
     7
 79
     5
170
     0
171
     0
290
     0
174
     0
 93
       13
 44
0.0
173
     0
291
     1
 45
0.0
1001
ACAD
1000
AcDbSavedByObjectVersion
1070
     0
  0
VISUALSTYLE
  5
272
102
{ACAD_XDICTIONARY
360
8FE
102
}
102
{ACAD_REACTORS
330
26E
102
}
330
26E
100
AcDbVisualStyle
  2
GouraudWithEdges
 70
     3
 71
     2
 72
     2
 73
     1
 90
        2
 40
-0.6
 41
30.0
 62
     5
 63
     7
 74
     1
 91
        4
 64
     7
 65
   257
 75
     1
175
     1
 42
1.0
 92
        0
 66
   257
 43
1.0
 76
     1
 77
     6
 78
     2
 67
     7
 79
     5
170
     0
171
     0
290
     0
174
     0
 93
       13
 44
0.0
173
     0
291
     1
 45
0.0
1001
ACAD
1000
AcDbSavedByObjectVersion
1070
     0
  0
VISUALSTYLE
  5
349
102
{ACAD_XDICTIONARY
360
918
102
}
102
{ACAD_REACTORS
330
26E
102
}
330
26E
100
AcDbVisualStyle
  2
JitterOff
 70
    20
 71
     2
 72
     2
 73
     0
 90
        0
 40
-0.6
 41
-30.0
 62
     5
 63
     7
 74
     1
 91
        4
 64
     7
 65
   257
 75
     1
175
     1
 42
1.0
 92
       10
 66
     7
 43
1.0
 76
     1
 77
     6
 78
     2
 67
     7
 79
     5
170
     0
171
     0
290
     0
174
     0
 93
        1
 44
0.0
173
     0
291
     1
 45
0.0
1001
ACAD
1000
AcDbSavedByObjectVersion
1070
     0
  0
VISUALSTYLE
  5
27C
102
{ACAD_XDICTIONARY
360
912
102
}
102
{ACAD_REACTORS
330
26E
102
}
330
26E
100
AcDbVisualStyle
  2
Linepattern
 70
    14
 71
     2
 72
     2
 73
     0
 90
        0
 40
-0.6
 41
-30.0
 62
     5
 63
     7
 74
     1
 91
        4
 64
     7
 65
   257
 75
     7
175
     7
 42
1.0
 92
        8
 66
     7
 43
1.0
 76
     1
 77
     6
 78
     2
 67
     7
 79
     5
170
     0
171
     0
290
     0
174
     0
 93
        1
 44
0.0
173
     0
291
     1
 45
0.0
1001
ACAD
1000
AcDbSavedByObjectVersion
1070
     0
  0
VISUALSTYLE
  5
34A
102
{ACAD_XDICTIONARY
360
91A
102
}
102
{ACAD_REACTORS
330
26E
102
}
330
26E
100
AcDbVisualStyle
  2
OverhangOff
 70
    21
 71
     2
 72
     2
 73
     0
 90
        0
 40
-0.6
 41
-30.0
 62
     5
 63
     7
 74
     1
 91
        4
 64
     7
 65
   257
 75
     1
175
     1
 42
1.0
 92
        9
 66
     7
 43
1.0
 76
     1
 77
     6
 78
     2
 67
     7
 79
     5
170
     0
171
     0
290
     0
174
     0
 93
        1
 44
0.0
173
     0
291
     1
 45
0.0
1001
ACAD
1000
AcDbSavedByObjectVersion
1070
     0
  0
VISUALSTYLE
  5
278
102
{ACAD_XDICTIONARY
360
90A
102
}
102
{ACAD_REACTORS
330
26E
102
}
330
26E
100
AcDbVisualStyle
  2
Realistic
 70
     8
 71
     2
 72
     2
 73
     0
 90
        0
 40
-0.6
 41
-30.0
 62
     5
 63
     7
 74
     1
 91
        0
 64
     7
 65
   257
 75
     1
175
     1
 42
1.0
 92
        8
 66
     8
 43
1.0
 76
     1
 77
     6
 78
     2
 67
     7
 79
     5
170
     0
171
     0
290
     0
174
     0
 93
       13
 44
0.0
173
     0
291
     0
 45
0.0
1001
ACAD
1000
AcDbSavedByObjectVersion
1070
     0
  0
VISUALSTYLE
  5
27B
102
{ACAD_XDICTIONARY
360
910
102
}
102
{ACAD_REACTORS
330
26E
102
}
330
26E
100
AcDbVisualStyle
  2
Thicken
 70
    13
 71
     2
 72
     2
 73
     0
 90
        0
 40
-0.6
 41
-30.0
 62
     5
 63
     7
 74
     1
 91
        4
 64
     7
 65
   257
 75
     1
175
     1
 42
1.0
 92
       12
 66
     7
 43
1.0
 76
     1
 77
     6
 78
     2
 67
     7
 79
     5
170
     0
171
     0
290
     0
174
     0
 93
        1
 44
0.0
173
     0
291
     1
 45
0.0
1001
ACAD
1000
AcDbSavedByObjectVersion
1070
     0
  0
DICTIONARYVAR
  5
2E9
102
{ACAD_REACTORS
330
94
102
}
330
94
100
DictionaryVariables
280
     0
  1
1:1
  0
DICTIONARYVAR
  5
2E7
102
{ACAD_REACTORS
330
94
102
}
330
94
100
DictionaryVariables
280
     0
  1
STANDARD
  0
DICTIONARYVAR
  5
138
102
{ACAD_REACTORS
330
94
102
}
330
94
100
DictionaryVariables
280
     0
  1
STANDARD
  0
DICTIONARYVAR
  5
96
102
{ACAD_REACTORS
330
94
102
}
330
94
100
DictionaryVariables
280
     0
  1
2
  0
DICTIONARYVAR
  5
95
102
{ACAD_REACTORS
330
94
102
}
330
94
100
DictionaryVariables
280
     0
  1
0
  0
DICTIONARYVAR
  5
346
102
{ACAD_REACTORS
330
94
102
}
330
94
100
DictionaryVariables
280
     0
  1
1
  0
DICTIONARYVAR
  5
347
102
{ACAD_REACTORS
330
94
102
}
330
94
100
DictionaryVariables
280
     0
  1
15
  0
DICTIONARYVAR
  5
2EA
102
{ACAD_REACTORS
330
94
102
}
330
94
100
DictionaryVariables
280
     0
  1
0
  0
DICTIONARYVAR
  5
2E8
102
{ACAD_REACTORS
330
94
102
}
330
94
100
DictionaryVariables
280
     0
  1
0
  0
DICTIONARYVAR
  5
8DF
102
{ACAD_REACTORS
330
94
102
}
330
94
100
DictionaryVariables
280
     0
  1
127
  0
DICTIONARYVAR
  5
8E0
102
{ACAD_REACTORS
330
94
102
}
330
94
100
DictionaryVariables
280
     0
  1
0
  0
DICTIONARY
  5
3A8
102
{ACAD_REACTORS
330
5B
102
}
330
5B
100
AcDbDictionary
281
     1
  0
DICTIONARY
  5
61
102
{ACAD_REACTORS
330
5B
102
}
330
5B
100
AcDbDictionary
281
     1
  0
XRECORD
  5
123
102
{ACAD_REACTORS
330
5B
102
}
330
5B
100
AcDbXrecord
280
     1
 90
-1023410169
  0
DICTIONARY
  5
3D2
330
22
100
AcDbDictionary
280
     1
281
     1
  3
ACAD_XREC_ROUNDTRIP
360
8EB
  3
ADSK_XREC_LAYOUTTHUMBNAIL
360
3D3
  0
DICTIONARY
  5
8E9
330
1E
100
AcDbDictionary
280
     1
281
     1
  3
ACAD_XREC_ROUNDTRIP
360
8EA
  0
DICTIONARY
  5
8EC
330
26
100
AcDbDictionary
280
     1
281
     1
  3
ACAD_XREC_ROUNDTRIP
360
8ED
  0
DICTIONARY
  5
8F4
330
26C
100
AcDbDictionary
280
     1
281
     1
  3
ACAD_XREC_ROUNDTRIP
360
8F5
  0
DICTIONARY
  5
8F2
330
26B
100
AcDbDictionary
280
     1
281
     1
  3
ACAD_XREC_ROUNDTRIP
360
8F3
  0
DICTIONARY
  5
8F6
330
26D
100
AcDbDictionary
280
     1
281
     1
  3
ACAD_XREC_ROUNDTRIP
360
8F7
  0
DICTIONARY
  5
8CC
330
8CA
100
AcDbDictionary
280
     1
281
     1
  3
ACAD_XREC_ROUNDTRIP
360
91E
  3
BUMPTILE
360
8D1
  3
DIFFUSETILE
360
8CD
  3
OPACITYTILE
360
8D0
  3
REFLECTIONTILE
360
8CF
  3
REFRACTIONTILE
360
8D2
  3
SPECULARTILE
360
8CE
  0
DICTIONARY
  5
2E4
330
11B
100
AcDbDictionary
280
     1
281
     1
  3
ACAD_ROUNDTRIP_2008_TABLESTYLE_CELLSTYLEMAP
360
8E1
  3
ACAD_XREC_ROUNDTRIP
360
8F1
  0
DICTIONARY
  5
902
330
274
100
AcDbDictionary
280
     1
281
     1
  3
ACAD_XREC_ROUNDTRIP
360
903
  0
DICTIONARY
  5
906
330
276
100
AcDbDictionary
280
     1
281
     1
  3
ACAD_XREC_ROUNDTRIP
360
907
  0
DICTIONARY
  5
904
330
275
100
AcDbDictionary
280
     1
281
     1
  3
ACAD_XREC_ROUNDTRIP
360
905
  0
DICTIONARY
  5
900
330
273
100
AcDbDictionary
280
     1
281
     1
  3
ACAD_XREC_ROUNDTRIP
360
901
  0
DICTIONARY
  5
90E
330
27A
100
AcDbDictionary
280
     1
281
     1
  3
ACAD_XREC_ROUNDTRIP
360
90F
  0
DICTIONARY
  5
916
330
27E
100
AcDbDictionary
280
     1
281
     1
  3
ACAD_XREC_ROUNDTRIP
360
917
  0
DICTIONARY
  5
908
330
277
100
AcDbDictionary
280
     1
281
     1
  3
ACAD_XREC_ROUNDTRIP
360
909
  0
DICTIONARY
  5
90C
330
279
100
AcDbDictionary
280
     1
281
     1
  3
ACAD_XREC_ROUNDTRIP
360
90D
  0
DICTIONARY
  5
91C
330
34B
100
AcDbDictionary
280
     1
281
     1
  3
ACAD_XREC_ROUNDTRIP
360
91D
  0
DICTIONARY
  5
914
330
27D
100
AcDbDictionary
280
     1
281
     1
  3
ACAD_XREC_ROUNDTRIP
360
915
  0
DICTIONARY
  5
8F8
330
26F
100
AcDbDictionary
280
     1
281
     1
  3
ACAD_XREC_ROUNDTRIP
360
8F9
  0
DICTIONARY
  5
8FA
330
270
100
AcDbDictionary
280
     1
281
     1
  3
ACAD_XREC_ROUNDTRIP
360
8FB
  0
DICTIONARY
  5
8FC
330
271
100
AcDbDictionary
280
     1
281
     1
  3
ACAD_XREC_ROUNDTRIP
360
8FD
  0
DICTIONARY
  5
8FE
330
272
100
AcDbDictionary
280
     1
281
     1
  3
ACAD_XREC_ROUNDTRIP
360
8FF
  0
DICTIONARY
  5
918
330
349
100
AcDbDictionary
280
     1
281
     1
  3
ACAD_XREC_ROUNDTRIP
360
919
  0
DICTIONARY
  5
912
330
27C
100
AcDbDictionary
280
     1
281
     1
  3
ACAD_XREC_ROUNDTRIP
360
913
  0
DICTIONARY
  5
91A
330
34A
100
AcDbDictionary
280
     1
281
     1
  3
ACAD_XREC_ROUNDTRIP
360
91B
  0
DICTIONARY
  5
90A
330
278
100
AcDbDictionary
280
     1
281
     1
  3
ACAD_XREC_ROUNDTRIP
360
90B
  0
DICTIONARY
  5
910
330
27B
100
AcDbDictionary
280
     1
281
     1
  3
ACAD_XREC_ROUNDTRIP
360
911
  0
XRECORD
  5
8EB
102
{ACAD_REACTORS
330
3D2
102
}
330
3D2
100
AcDbXrecord
280
     1
102
SHADEPLOT
 70
     0
102
SHADEPLOTRESLEVEL
 70
     2
102
SHADEPLOTCUSTOMDPI
 70
   300
  0
XRECORD
  5
3D3
102
{ACAD_REACTORS
330
3D2
102
}
330
3D2
100
AcDbXrecord
280
     1
310
28000000000100009700000001000800000000000097000000000000000000000001000000000000F0FCFE0000000000FFFFFF000000000000000000000000000000000000000000000000000000000000000000330000006600000099000000CC000000FF00000000330000333300006633000099330000CC330000FF3300
310
0000660000336600006666000099660000CC660000FF66000000990000339900006699000099990000CC990000FF99000000CC000033CC000066CC000099CC0000CCCC0000FFCC000000FF000033FF000066FF000099FF0000CCFF0000FFFF000000003300330033006600330099003300CC003300FF003300003333003333
310
33006633330099333300CC333300FF33330000663300336633006666330099663300CC663300FF66330000993300339933006699330099993300CC993300FF99330000CC330033CC330066CC330099CC3300CCCC3300FFCC330000FF330033FF330066FF330099FF3300CCFF3300FFFF330000006600330066006600660099
310
006600CC006600FF00660000336600333366006633660099336600CC336600FF33660000666600336666006666660099666600CC666600FF66660000996600339966006699660099996600CC996600FF99660000CC660033CC660066CC660099CC6600CCCC6600FFCC660000FF660033FF660066FF660099FF6600CCFF6600
310
FFFF660000009900330099006600990099009900CC009900FF00990000339900333399006633990099339900CC339900FF33990000669900336699006666990099669900CC669900FF66990000999900339999006699990099999900CC999900FF99990000CC990033CC990066CC990099CC9900CCCC9900FFCC990000FF99
310
0033FF990066FF990099FF9900CCFF9900FFFF99000000CC003300CC006600CC009900CC00CC00CC00FF00CC000033CC003333CC006633CC009933CC00CC33CC00FF33CC000066CC003366CC006666CC009966CC00CC66CC00FF66CC000099CC003399CC006699CC009999CC00CC99CC00FF99CC0000CCCC0033CCCC0066CC
310
CC0099CCCC00CCCCCC00FFCCCC0000FFCC0033FFCC0066FFCC0099FFCC00CCFFCC00FFFFCC000000FF003300FF006600FF009900FF00CC00FF00FF00FF000033FF003333FF006633FF009933FF00CC33FF00FF33FF000066FF003366FF006666FF009966FF00CC66FF00FF66FF000099FF003399FF006699FF009999FF00CC
310
99FF00FF99FF0000CCFF0033CCFF0066CCFF0099CCFF00CCCCFF00FFCCFF0000FFFF0033FFFF0066FFFF0099FFFF00CCFFFF00FFFFFF00000000000D0D0D001A1A1A00282828003535350043434300505050005D5D5D006B6B6B00787878008686860093939300A1A1A100AEAEAE00BBBBBB00C9C9C900D6D6D600E4E4E400
310
F1F1F100FFFFFF0000000000000000000000000000000000000000000000000000000000000000000000000000000000E1E1E1E1E1E1E1E1E1E1E1E1E1E1E1E1E1E1E1E1E1E1E1E1E1E1E1E1E1E1E1E1E1E1E1E1E1E1E1E1E1E1E1E1E1E1E1E1E1E1E1E1E1E1E1E1E1E1E1E1E1E1E1E1E1E1E1E1E1E1E1E1E1E1E1E1E1E1E1
310
E1E1E1E1E1E1E1E1E1E1E1E1E1E1E1E1E1E1E1E1E1E1E1E1E1E1E1E1E1E1E1E1E1E1E1E1E1E1E1E1E1E1E1E1E1E1E1E1E1E1E1E1E1E1E1E1E1E1E1E1E1E1E1E1E1E1E1E1E1E1E1E1E1E1E1E1E1E1E1E1E1E1E1E1E1E1E1E1E1E1E1E1E1E1E1E1E1E1E1E1E1E1E1E1E1E1E1E1E1E1E1E1E1E1E1E1E1E1E1E1E1E1E1E1E1E1E1
310
E1E1E1E1E1E1E1E1E1E1E1E1E1E1E1E1E1E1E1E1E1E1E1E1E1E1E1E1E1E1E1E1E1E1E1E1E1E1E1E1E1E1E1E1E1E1E1E1E1E1E1E1E1E1E1E1E1E1E1E1E1E1E1E1E1E1E1E1E1E1E1E1E1E1E1E1E1E1E1E1E1E1E1E1E1E1E1E1E1E1E1E1E1E1E1E1E1E1E1E1E1E1E1E1E1E1E1E1E1E1E1E1E1E1E1E1E1E1E1E1E1E1E1E1E1E1E1
310
E1E1E1E1E1E1E1E1E1E1E1E1E1E1E1E1E1E1E1E1E1E1E1E1E1E1E1E1E1E1E1E1E1E1E1E1E1E1E1E1E1E1E1E1E1E1E1E1E1E1E1E1E1E1E1E1E1E1E1E1E1E1E1E1E1E1E1E1E1E1E1E1E1E1E1E1E1E1E1E1E1E1E1E1E1E1E1E1E1E1E1E1E1E1E1E1E1E1E1E1E1E1E1E1E1E1E1E1E1E1E1E1E1E1E1E1E1E1E1E1E1E1E1E1E1E1E1
310
E1E1E1E1E1E1E1E1E1E1E1E1E1E1E1E1E1E1E1E1E1E1E1E1E1E1E1E1E1E1E1E1E1E1E1E1E1E1E1E1E1E1E1E1E1E1E1E1E1E1E1E1E1E1E1E1E1E1E1E1E1E1E1E1E1E1E1E1E1E1E1E1E1E1E1E1E1E1E1E1E1E1E1E1E1E1E1E1E1E1E1E1E1E1E1E1E1E1E1E1E1E1E1E1E1E1E1E1E1E1E1E1E1E1E1E1E1E1E1E1E1E1E1E1E1E1E1
310
E1E1E1E1E1E1E1E1E1E1E1E1E1E1E1E1E1E1E1E1E1E1E1E1E1E1E1E1E1E1E1E1E1E1E1E1E1E1E1E1E1E1E1E1E1E1E1E1E1E1E1E1E1E1E1E1E1E1E1E1E1E1E1E1E1E1E1E1E1E1E1E1E1E1E1E1E1E1E1E1E1E1E1E1E1E1E1E1E1E1E1E1E1E1E1E1E1E1E1E1E1E1E1E1E1E1E1E1E1E1E1E1E1E1E1E1E1E1E1E1E1E1E1E1E1E1E1
310
E1E1E1E1E1E1E1E1E1E1E1E1E1E1E1E1E1E1E1E1E1E1E1E1E1E1E1E1E1E1E1E1E1E1E1E1E1E1E1E1E1E1E1E1E1E1E1E1E1E1E1E1E1E1E1E1E1E1E1E1E1E1E1E1E1E1E1E1E1E1E1E1E1E1E1E1E1E1E1E1E1E1E1E1E1E1E1E1E1E1E1E1E1E1E1E1E1E1E1E1E1E1E1E1E1E1E1E1E1E1E1E1E1E1E1E1E1E1E1E1E1E1E1E1E1E1E1
310
E1E1E1E1E1E1E1E1E1E1E1E1E1E1E1E1E1E1E1E1E1E1E1E1E1E1E1E1E1E1E1E1E1E1E1E1E1E1E1E1E1E1E1E1E1E1E1E1E1E1E1E1E1E1E1E1E1E1E1E1E1E1E1E1E1E1E1E1E1E1E1E1E1E1E1E1E1E1E1E1E1E1E1E1E1E1E1E1E1E1E1E1E1E1E1E1E1E1E1E1E1E1E1E1E1E1E1E1E1E1E1E1E1E1E1E1E1E1E1E1E1E1E1E1E1E1E1
310
E1E1E1E1E1E1E1E1E1E1E1E1E1E1E1E1E1E1E1E1E1E1E1E1E1E1E1E1E1E1E1E1E1E1E1E1E1E1E1E1E1E1E1E1E1E1E1E1E1E1E1E1E1E1E1E1E1E1E1E1E1E1E1E1E1E1E1E1E1E1E1E1E1E1E1E1E1E1E1E1E1E1E1E1E1E1E1E1E1E1E1E1E1E1E1E1E1E1E1E1E1E1E1E1E1E1E1E1E1E1E1E1E1E1E1E1E1E1E1E1E1E1E1E1E1E1E1
310
E1E1E1E1E1E1E1E1E1E1E1E1E1E1E1E1E1E1E1E1E1E1E1E1E1E1E1E1E1E1E1E1E1E1E1E1E1E1E1E1E1E1E1E1E1E1E1E1E1E1E1E1E1E1E1E1E1E1E1E1E1E1E1E1E1E1E1E1E1E1E1E1E1E1E1E1E1E1E1E1E1E1E1E1E1E1E1E1E1E1E1E1E1E1E1E1E1E1E1E1E1E1E1E1E1E1E1E1E1E1E1E1E1E1E1E1E1E1E1E1E1E1E1E1E1E1E1
310
E1E1E1E1E1E1E1E1E1E1E1E1E1E1E1E1E1E1E1E1E1E1E1E1E1E1E1E1E1E1E1E1E1E1E1E1E1E1E1E1E1E1E1E1E1E1E1E1E1E1E1E1E1E1E1E1E1E1E1E1E1E1E1E1E1E1E1E1E1E1E1E1E1E1E1E1E1E1E1E1E1E1E1E1E1E1E1E1E1E1E1E1E1E1E1E1E1E1E1E1E1E1E1E1E1E1E1E1E1E1E1E1E1E1E1E1E1E1E1E1E1E1E1E1E1E1E1
310
E1E1E1E1E1E1E1E1E1E1E1E1E1E1E1E1E1E1E1E1E1E1E1E1E1E1E1E1E1E1E1E1E1E1E1E1E1E1E1E1E1E1E1E1E1E1E1E1E1E1E1E1E1E1E1E1E1E1E1E1E1E1E1E1E1E1E1E1E1E1E1E1E1E1E1E1E1E1E1E1E1E1E1E1E1E1E1E1E1E1E1E1E1E1E1E1E1E1E1E1E1E1E1E1E1E1E1E1E1E1E1E1E1E1E1E1E1E1E1E1E1E1E1E1E1E1E1
310
E1E1E1E1E1E1E1E1E1E1E1E1E1E1E1E1E1E1E1E1E1E1E1E1E1E1E1E1E1E1E1E1E1E1E1E1E1E1E1E1E1E1E1E1E1E1E1E1E1E1E1E1E1E1E1E1E1E1E1E1E1E1E1E1E1E1E1E1E1E1E1E1E1E1E1E1E1E1E1E1E1E1E1E1E1E1E1E1E1E1E1E1E1E1E1E1E1E1E1E1E1E1E1E1E1E1E1E1E1E1E1E1E1E1E1E1E1E1E1E1E1E1E1E1E1E1E1
310
E1E1E1E1E1E1E1E1E1E1E1E1E1E1E1E1E1E1E1E1E1E1E1E1E1E1E1E1E1E1E1E1E1E1E1E1E1E1E1E1E1E1E1E1E1E1E1E1E1E1E1E1E1E1E1E1E1E1E1E1E1E1E1E1E1E1E1E1E1E1E1E1E1E1E1E1E1E1E1E1E1E1E1E1E1E1E1E1E1E1E1E1E1E1E1E1E1E1E1E1E1E1E1E1E1E1E1E1E1E1E1E1E1E1E1E1E1E1E1E1E1E1E1E1E1E1E1
310
E1E1E1E1E1E1E1E1E1E1E1E1E1E1E1E1E1E1E1E1E1E1E1E1E1E1E1E1E1E1E1E1E1E1E1E1E1E1E1E1E1E1E1E1E1E1E1E1E1E1E1E1E1E1E1E1E1E1E1E1E1E1E1E1E1E1E1E1E1E1E1E1E1E1E1E1E1E1E1E1E1E1E1E1E1E1E1E1E1E1E1E1E1E1E1E1E1E1E1E1E1E1E1E1E1E1E1E1E1E1E1E1E1E1E1E1E1E1E1E1E1E1E1E1E1E1E1
310
E1E1E1E1E1E1E1E1E1E1E1E1E1E1E1E1E1E1E1E1E1E1E1E1E1E1E1E1E1E1E1E1E1E1E1E1E1E1E1E1E1E1E1E1E1E1E1E1E1E1E1E1E1E1E1E1E1E1E1E1E1E1E1E1E1E1E1E1E1E1E1E1E1E1E1E1E1E1E1E1E1E1E1E1E1E1E1E1E1E1E1E1E1E1E1E1E1E1E1E1E1E1E1E1E1E1E1E1E1E1E1E1E1E1E1E1E1E1E1E1E1E1E1E1E1E1E1
310
E1E1E1E1E1E1E1E1E1E1E1E1E1E1E1E1E1E1E1E1E1E1E1E1E1E1E1E1E1E1E1E1E1E1E1E1E1E1E1E1E1E1E1E1E1E1E1E1E1E1E1E1E1E1E1E1E1E1E1E1E1E1E1E1E1E1E1E1E1E1E1E1E1E1E1E1E1E1E1E1E1E1E1E1E1E1E1E1E1E1E1E1E1E1E1E1E1E1E1E1E1E1E1E1E1E1E1E1E1E1E1E1E1E1E1E1E1E1E1E1E1E1E1E1E1E1E1
310
E1E1E1E1E1E1E1E1E1E1E1E1E1E1E1E1E1E1E1E1E1E1E1E1E1E1E1E1E1E1E1E1E1E1E1E1E1E1E1E1E1E1E1E1E1E1E1E1E1E1E1E1E1E1E1E1E1E1E1E1E1E1E1E1E1E1E1E1E1E1E1E1E1E1E1E1E1E1E1E1E1E1E1E1E1E1E1E1E1E1E1E1E1E1E1E1E1E1E1E1E1E1E1E1E1E1E1E1E1E1E1E1E1E1E1E1E1E1E1E1E1E1E1E1E1E1E1
310
E1E1E1E1E1E1E1E1E1E1E1E1E1E1E1E1E1E1E1E1E1E1E1E1E1E1E1E1E1E1E1E1E1E1E1E1E1E1E1E1E1E1E1E1E1E1E1E1E1E1E1E1E1E1E1E1E1E1E1E1E1E1E1E1E1E1E1E1E1E1E1E1E1E1E1E1E1E1E1E1E1E1E1E1E1E1E1E1E1E1E1E1E1E1E1E1E1E1E1E1E1E1E1E1E1E1E1E1E1E1E1E1E1E1E1E1E1E1E1E1E1E1E1E1E1E1E1
310
E1E1E1E1E1E1E1E1E1E1E1E1E1E1E1E1E1E1E1E1E1E1E1E1E1E1E1E1E1E1E1E1E1E1E1E1E1E1E1E1E1E1E1E1E1E1E1E1E1E1E1E1E1E1E1E1E1E1E1E1E1E1E1E1E1E1E1E1E1E1E1E1E1E1E1E1E1E1E1E1E1E1E1E1E1E1E1E1E1E1E1E1E1E1E1E1E1E1E1E1E1E1E1E1E1E1E1E1E1E1E1E1E1E1E1E1E1E1E1E1E1E1E1E1E1E1E1
310
E1E1E1E1E1E1E1E1E1E1E1E1E1E1E1E1E1E1E1E1E1E1E1E1E1E1E1E1E1E1E1E1E1E1E1E1E1E1E1E1E1E1E1E1E1E1E1E1E1E1E1E1E1E1E1E1E1E1E1E1E1E1E1E1E1E1E1E1E1E1E1E1E1E1E1E1E1E1E1E1E1E1E1E1E1E1E1E1E1E1E1E1E1E1E1E1E1E1E1E1E1E1E1E1E1E1E1E1E1E1E1E1E1E1E1E1E1E1E1E1E1E1E1E1E1E1E1
310
E1E1E1E1E1E1E1E1E1E1E1E1E1E1E1E1E1E1E1E1E1E1E1E1E1E1E1E1E1E1E1E1E1E1E1E1E1E1E1E1E1E1E1E1E1E1E1E1E1E1E1E1E1E1E1E1E1E1E1E1E1E1E1E1E1E1E1E1E1E1E1E1E1E1E1E1E1E1E1E1E1E1E1E1E1E1E1E1E1E1E1E1E1E1E1E1E1E1E1E1E1E1E1E1E1E1E1E1E1E1E1E1E1E1E1E1E1E1E1E1E1E1E1E1E1E1E1
310
E1E1E1E1E1E1E1E1E1E1E1E1E1E1E1E1E1E1E1E1E1E1E1E1E1E1E1E1E1E1E1E1E1E1E1E1E1E1E1E1E1E1E1E1E1E1E1E1E1E1E1E1E1E1E1E1E1E1E1E1E1E1E1E1E1E1E1E1E1E1E1E1E1E1E1E1E1E1E1E1E1E1E1E1E1E1E1E1E1E1E1E1E1E1E1E1E1E1E1E1E1E1E1E1E1E1E1E1E1E1E1E1E1E1E1E1E1E1E1E1E1E1E1E1E1E1E1
310
E1E1E1E1E1E1E1E1E1E1E1E1E1E1E1E1E1E1E1E1E1E1E1E1E1E1E1E1E1E1E1E1E1E1E1E1E1E1E1E1E1E1E1E1E1E1E1E1E1E1E1E1E1E1E1E1E1E1E1E1E1E1E1E1E1E1E1E1E1E1E1E1E1E1E1E1E1E1E1E1E1E1E1E1E1E1E1E1E1E1E1E1E1E1E1E1E1E1E1E1E1E1E1E1E1E1E1E1E1E1E1E1E1E1E1E1E1E1E1E1E1E1E1E1E1E1E1
310
E1E1E1E1E1E1E1E1E1E1E1E1E1E1E1E1E1E1E1E1E1E1E1E1E1E1E1E1E1E1E1E1E1E1E1E1E1E1E1E1E1E1E1E1E1E1E1E1E1E1E1E1E1E1E1E1E1E1E1E1E1E1E1E1E1E1E1E1E1E1E1E1E1E1E1E1E1E1E1E1E1E1E1E1E1E1E1E1E1E1E1E1E1E1E1E1E1E1E1E1E1E1E1E1E1E1E1E1E1E1E1E1E1E1E1E1E1E1E1E1E1E1E1E1E1E1E1
310
E1E1E1E1E1E1E1E1E1E1E1E1E1E1E1E1E1E1E1E1E1E1E1E1E1E1E1E1E1E1E1E1E1E1E1E1E1E1E1E1E1E1E1E1E1E1E1E1E1E1E1E1E1E1E1E1E1E1E1E1E1E1E1E1E1E1E1E1E1E1E1E1E1E1E1E1E1E1E1E1E1E1E1E1E1E1E1E1E1E1E1E1E1E1E1E1E1E1E1E1E1E1E1E1E1E1E1E1E1E1E1E1E1E1E1E1E1E1E1E1E1E1E1E1E1E1E1
310
E1E1E1E1E1E1E1E1E1E1E1E1E1E1E1E1E1E1E1E1E1E1E1E1E1E1E1E1E1E1E1E1E1E1E1E1E1E1E1E1E1E1E1E1E1E1E1E1E1E1E1E1E1E1E1E1E1E1E1E1E1E1E1E1E1E1E1E1E1E1E1E1E1E1E1E1E1E1E1E1E1E1E1E1E1E1E1E1E1E1E1E1E1E1E1E1E1E1E1E1E1E1E1E1E1E1E1E1E1E1E1E1E1E1E1E1E1E1E1E1E1E1E1E1E1E1E1
310
E1E1E1E1E1E1E1E1E1E1E1E1E1E1E1E1E1E1E1E1E1E1E1E1E1E1E1E1E1E1E1E1E1E1E1E1E1E1E1E1E1E1E1E1E1E1E1E1E1E1E1E1E1E1E1E1E1E1E1E1E1E1E1E1E1E1E1E1E1E1E1E1E1E1E1E1E1E1E1E1E1E1E1E1E1E1E1E1E1E1E1E1E1E1E1E1E1E1E1E1E1E1E1E1E1E1E1E1E1E1E1E1E1E1E1E1E1E1E1E1E1E1E1E1E1E1E1
310
E1E1E1E1E1E1E1E1E1E1E1E1E1E1E1E1E1E1E1E1E1E1E1E1E1E1E1E1E1E1E1E1E1E1E1E1E1E1E1E1E1E1E1E1E1E1E1E1E1E1E1E1E1E1E1E1E1E1E1E1E1E1E1E1E1E1E1E1E1E1E1E1E1E1E1E1E1E1E1E1E1E1E1E1E1E1E1E1E1E1E1E1E1E1E1E1E1E1E1E1E1E1E1E1E1E1E1E1E1E1E1E1E1E1E1E1E1E1E1E1E1E1E1E1E1E1E1
310
E1E1E1E1E1E1E1E1E1E1E1E1E1E1E1E1E1E1E1E1E1E1E1E1E1E1E1E1E1E1E1E1E1E1E1E1E1E1E1E1E1E1E1E1E1E1E1E1E1E1E1E1E1E1E1E1E1E1E1E1E1E1E1E1E1E1E1E1E1E1E1E1E1E1E1E1E1E1E1E1E1E1E1E1E1E1E1E1E1E1E1E1E1E1E1E1E1E1E1E1E1E1E1E1E1E1E1E1E1E1E1E1E1E1E1E1E1E1E1E1E1E1E1E1E1E1E1
310
E1E1E1E1E1E1E1E1E1E1E1E1E1E1E1E1E1E1E1E1E1E1E1E1E1E1E1E1E1E1E1E1E1E1E1E1E1E1E1E1E1E1E1E1E1E1E1E1E1E1E1E1E1E1E1E1E1E1E1E1E1E1E1E1E1E1E1E1E1E1E1E1E1E1E1E1E1E1E1E1E1E1E1E1E1E1E1E1E1E1E1E1E1E1E1E1E1E1E1E1E1E1E1E1E1E1E1E1E1E1E1E1E1E1E1E1E1E1E1E1E1E1E1E1E1E1E1
310
E1E1E1E1E1E1E1E1E1E1E1E1E1E1E1E1E1E1E1E1E1E1E1E1E1E1E1E1E1E1E1E1E1E1E1E1E1E1E1E1E1E1E1E1E1E1E1E1E1E1E1E1E1E1E1E1E1E1E1E1E1E1E1E1E1E1E1E1E1E1E1E1E1E1E1E1E1E1E1E1E1E1E1E1E1E1E1E1E1E1E1E1E1E1E1E1E1E1E1E1E1E1E1E1E1E1E1E1E1E1E1E1E1E1E1E1E1E1E1E1E1E1E1E1E1E1E1
310
E1E1E1E1E1E1E1E1E1E1E1E1E1E1E1E1E1E1E1E1E1E1E1E1E1E1E1E1E1E1E1E1E1E1E1E1E1E1E1E1E1E1E1E1E1E1E1E1E1E1E1E1E1E1E1E1E1E1E1E1E1E1E1E1E1E1E1E1E1E1E1E1E1E1E1E1E1E1E1E1E1E1E1E1E1E1E1E1E1E1E1E1E1E1E1E1E1E1E1E1E1E1E1E1E1E1E1E1E1E1E1E1E1E1E1E1E1E1E1E1E1E1E1E1E1E1E1
310
E1E1E1E1E1E1E1E1E1E1E1E1E1E1E1E1E1E1E1E1E1E1E1E1E1E1E1E1E1E1E1E1E1E1E1E1E1E1E1E1E1E1E1E1E1E1E1E1E1E1E1E1E1E1E1E1E1E1E1E1E1E1E1E1E1E1E1E1E1E1E1E1E1E1E1E1E1E1E1E1E1E1E1E1E1E1E1E1E1E1E1E1E1E1E1E1E1E1E1E1E1E1E1E1E1E1E1E1E1E1E1E1E1E1E1E1E1E1E1E1E1E1E1E1E1E1E1
310
E1E1E1E1E1E1E1E1E1E1E1E1E1E1E1E1E1E1E1E1E1E1E1E1E1E1E1E1E1E1E1E1E1E1E1E1E1E1E1E1E1E1E1E1E1E1E1E1E1E1E1E1E1E1E1E1E1E1E1E1E1E1E1E1E1E1E1E1E1E1E1E1E1E1E1E1E1E1E1E1E1E1E1E1E1E1E1E1E1E1E1E1E1E1E1E1E1E1E1E1E1E1E1E1E1E1E1E1E1E1E1E1E1E1E1E1E1E1E1E1E1E1E1E1E1E1E1
310
E1E1E1E1E1E1E1E1E1E1E1E1E1E1E1E1E1E1E1E1E1E1E1E1E1E1E1E1E1E1E1E1E1E1E1E1E1E1E1E1E1E1E1E1E1E1E1E1E1E1E1E1E1E1E1E1E1E1E1E1E1E1E1E1E1E1E1E1E1E1E1E1E1E1E1E1E1E1E1E1E1E1E1E1E1E1E1E1E1E1E1E1E1E1E1E1E1E1E1E1E1E1E1E1E1E1E1E1E1E1E1E1E1E1E1E1E1E1E1E1E1E1E1E1E1E1E1
310
E1E1E1E1E1E1E1E1E1E1E1E1E1E1E1E1E1E1E1E1E1E1E1E1E1E1E1E1E1E1E1E1E1E1E1E1E1E1E1E1E1E1E1E1E1E1E1E1E1E1E1E1E1E1E1E1E1E1E1E1E1E1E1E1E1E1E1E1E1E1E1E1E1E1E1E1E1E1E1E1E1E1E1E1E1E1E1E1E1E1E1E1E1E1E1E1E1E1E1E1E1E1E1E1E1E1E1E1E1E1E1E1E1E1E1E1E1E1E1E1E1E1E1E1E1E1E1
310
E1E1E1E1E1E1E1E1E1E1E1E1E1E1E1E1E1E1E1E1E1E1E1E1E1E1E1E1E1E1E1E1E1E1E1E1E1E1E1E1E1E1E1E1E1E1E1E1E1E1E1E1E1E1E1E1E1E1E1E1E1E1E1E1E1E1E1E1E1E1E1E1E1E1E1E1E1E1E1E1E1E1E1E1E1E1E1E1E1E1E1E1E1E1E1E1E1E1E1E1E1E1E1E1E1E1E1E1E1E1E1E1E1E1E1E1E1E1E1E1E1E1E1E1E1E1E1
310
E1E1E1E1E1E1E1E1E1E1E1E1E1E1E1E1E1E1E1E1E1E1E1E1E1E1E1E1E1E1E1E1E1E1E1E1E1E1E1E1E1E1E1E1E1E1E1E1E1E1E1E1E1E1E1E1E1E1E1E1E1E1E1E1E1E1E1E1E1E1E1E1E1E1E1E1E1E1E1E1E1E1E1E1E1E1E1E1E1E1E1E1E1E1E1E1E1E1E1E1E1E1E1E1E1E1E1E1E1E1E1E1E1E1E1E1E1E1E1E1E1E1E1E1E1E1E1
310
E1E1E1E1E1E1E1E1E1E1E1E1E1E1E1E1E1E1E1E1E1E1E1E1E1E1E1E1E1E1E1E1E1E1E1E1E1E1E1E1E1E1E1E1E1E1E1E1E1E1E1E1E1E1E1E1E1E1E1E1E1E1E1E1E1E1E1E1E1E1E1E1E1E1E1E1E1E1E1E1E1E1E1E1E1E1E1E1E1E1E1E1E1E1E1E1E1E1E1E1E1E1E1E1E1E1E1E1E1E1E1E1E1E1E1E1E1E1E1E1E1E1E1E1E1E1E1
310
E1E1E1E1E1E1E1E1E1E1E1E1E1E1E1E1E1E1E1E1E1E1E1E1E1E1E1E1E1E1E1E1E1E1E1E1E1E1E1E1E1E1E1E1E1E1E1E1E1E1E1E1E1E1E1E1E1E1E1E1E1E1E1E1E1E1E1E1E1E1E1E1E1E1E1E1E1E1E1E1E1E1E1E1E1E1E1E1E1E1E1E1E1E1E1E1E1E1E1E1E1E1E1E1E1E1E1E1E1E1E1E1E1E1E1E1E1E1E1E1E1E1E1E1E1E1E1
310
E1E1E1E1E1E1E1E1E1E1E1E1E1E1E1E1E1E1E1E1E1E1E1E1E1E1E1E1E1E1E1E1E1E1E1E1E1E1E1E1E1E1E1E1E1E1E1E1E1E1E1E1E1E1E1E1E1E1E1E1E1E1E1E1E1E1E1E1E1E1E1E1E1E1E1E1E1E1E1E1E1E1E1E1E1E1E1E1E1E1E1E1E1E1E1E1E1E1E1E1E1E1E1E1E1E1E1E1E1E1E1E1E1E1E1E1E1E1E1E1E1E1E1E1E1E1E1
310
E1E1E1E1E1E1E1E1E1E1E1E1E1E1E1E1E1E1E1E1E1E1E1E1E1E1E1E1E1E1E1E1E1E1E1E1E1E1E1E1E1E1E1E1E1E1E1E1E1E1E1E1E1E1E1E1E1E1E1E1E1E1E1E1E1E1E1E1E1E1E1E1E1E1E1E1E1E1E1E1E1E1E1E1E1E1E1E1E1E1E1E1E1E1E1E1E1E1E1E1E1E1E1E1E1E1E1E1E1E1E1E1E1E1E1E1E1E1E1E1E1E1E1E1E1E1E1
310
E1E1E1E1E1E1E1E1E1E1E1E1E1E1E1E1E1E1E1E1E1E1E1E1E1E1E1E1E1E1E1E1E1E1E1E1E1E1E1E1E1E1E1E1E1E1E1E1E1E1E1E1E1E1E1E1E1E1E1E1E1E1E1E1E1E1E1E1E1E1E1E1E1E1E1E1E1E1E1E1E1E1E1E1E1E1E1E1E1E1E1E1E1E1E1E1E1E1E1E1E1E1E1E1E1E1E1E1E1E1E1E1E1E1E1E1E1E1E1E1E1E1E1E1E1E1E1
310
E1E1E1E1E1E1E1E1E1E1E1E1E1E1E1E1E1E1E1E1E1E1E1E1E1E1E1E1E1E1E1E1E1E1E1E1E1E1E1E1E1E1E1E1E1E1E1E1E1E1E1E1E1E1E1E1E1E1E1E1E1E1E1E1E1E1E1E1E1E1E1E1E1E1E1E1E1E1E1E1E1E1E1E1E1E1E1E1E1E1E1E1E1E1E1E1E1E1E1E1E1E1E1E1E1E1E1E1E1E1E1E1E1E1E1E1E1E1E1E1E1E1E1E1E1E1E1
310
E1E1E1E1E1E1E1E1E1E1E1E1E1E1E1E1E1E1E1E1E1E1E1E1E1E1E1E1E1E1E1E1E1E1E1E1E1E1E1E1E1E1E1E1E1E1E1E1E1E1E1E1E1E1E1E1E1E1E1E1E1E1E1E1E1E1E1E1E1E1E1E1E1E1E1E1E1E1E1E1E1E1E1E1E1E1E1E1E1E1E1E1E1E1E1E1E1E1E1E1E1E1E1E1E1E1E1E1E1E1E1E1E1E1E1E1E1E1E1E1E1E1E1E1E1E1E1
310
E1E1E1E1E1E1E1E1E1E1E1E1E1E1E1E1E1E1E1E1E1E1E1E1E1E1E1E1E1E1E1E1E1E1E1E1E1E1E1E1E1E1E1E1E1E1E1E1E1E1E1E1E1E1E1E1E1E1E1E1E1E1E1E1E1E1E1E1E1E1E1E1E1E1E1E1E1E1E1E1E1E1E1E1E1E1E1E1E1E1E1E1E1E1E1E1E1E1E1E1E1E1E1E1E1E1E1E1E1E1E1E1E1E1E1E1E1E1E1E1E1E1E1E1E1E1E1
310
E1E1E1E1E1E1E1E1E1E1E1E1E1E1E1E1E1E1E1E1E1E1E1E1E1E1E1E1E1E1E1E1E1E1E1E1E1E1E1E1E1E1E1E1E1E1E1E1E1E1E1E1E1E1E1E1E1E1E1E1E1E1E1E1E1E1E1E1E1E1E1E1E1E1E1E1E1E1E1E1E1E1E1E1E1E1E1E1E1E1E1E1E1E1E1E1E1E1E1E1E1E1E1E1E1E1E1E1E1E1E1E1E1E1E1E1E1E1E1E1E1E1E1E1E1E1E1
310
E1E1E1E1E1E1E1E1E1E1E1E1E1E1E1E1E1E1E1E1E1E1E1E1E1E1E1E1E1E1E1E1E1E1E1E1E1E1E1E1E1E1E1E1E1E1E1E1E1E1E1E1E1E1E1E1E1E1E1E1E1E1E1E1E1E1E1E1E1E1E1E1E1E1E1E1E1E1E1E1E1E1E1E1E1E1E1E1E1E1E1E1E1E1E1E1E1E1E1E1E1E1E1E1E1E1E1E1E1E1E1E1E1E1E1E1E1E1E1E1E1E1E1E1E1E1E1
310
E1E1E1E1E1E1E1E1E1E1E1E1E1E1E1E1E1E1E1E1E1E1E1E1E1E1E1E1E1E1E1E1E1E1E1E1E1E1E1E1E1E1E1E1E1E1E1E1E1E1E1E1E1E1E1E1E1E1E1E1E1E1E1E1E1E1E1E1E1E1E1E1E1E1E1E1E1E1E1E1E1E1E1E1E1E1E1E1E1E1E1E1E1E1E1E1E1E1E1E1E1E1E1E1E1E1E1E1E1E1E1E1E1E1E1E1E1E1E1E1E1E1E1E1E1E1E1
310
E1E1E1E1E1E1E1E1E1E1E1E1E1E1E1E1E1E1E1E1E1E1E1E1E1E1E1E1E1E1E1E1E1E1E1E1E1E1E1E1E1E1E1E1E1E1E1E1E1E1E1E1E1E1E1E1E1E1E1E1E1E1E1E1E1E1E1E1E1E1E1E1E1E1E1E1E1E1E1E1E1E1E1E1E1E1E1E1E1E1E1E1E1E1E1E1E1E1E1E1E1E1E1E1E1E1E1E1E1E1E1E1E1E1E1E1E1E1E1E1E1E1E1E1E1E1E1
310
E1E1E1E1E1E1E1E1E1E1E1E1E1E1E1E1E1E1E1E1E1E1E1E1E1E1E1E1E1E1E1E1E1E1E1E1E1E1E1E1E1E1E1E1E1E1E1E1E1E1E1E1E1E1E1E1E1E1E1E1E1E1E1E1E1E1E1E1E1E1E1E1E1E1E1E1E1E1E1E1E1E1E1E1E1E1E1E1E1E1E1E1E1E1E1E1E1E1E1E1E1E1E1E1E1E1E1E1E1E1E1E1E1E1E1E1E1E1E1E1E1E1E1E1E1E1E1
310
E1E1E1E1E1E1E1E1E1E1E1E1E1E1E1E1E1E1E1E1E1E1E1E1E1E1E1E1E1E1E1E1E1E1E1E1E1E1E1E1E1E1E1E1E1E1E1E1E1E1E1E1E1E1E1E1E1E1E1E1E1E1E1E1E1E1E1E1E1E1E1E1E1E1E1E1E1E1E1E1E1E1E1E1E1E1E1E1E1E1E1E1E1E1E1E1E1E1E1E1E1E1E1E1E1E1E1E1E1E1E1E1E1E1E1E1E1E1E1E1E1E1E1E1E1E1E1
310
E1E1E1E1E1E1E1E1E1E1E1E1E1E1E1E1E1E1E1E1E1E1E1E1E1E1E1E1E1E1E1E1E1E1E1E1E1E1E1E1E1E1E1E1E1E1E1E1E1E1E1E1E1E1E1E1E1E1E1E1E1E1E1E1E1E1E1E1E1E1E1E1E1E1E1E1E1E1E1E1E1E1E1E1E1E1E1E1E1E1E1E1E1E1E1E1E1E1E1E1E1E1E1E1E1E1E1E1E1E1E1E1E1E1E1E1E1E1E1E1E1E1E1E1E1E1E1
310
E1E1E1E1E1E1E1E1E1E1E1E1E1E1E1E1E1E1E1E1E1E1E1E1E1E1E1E1E1E1E1E1E1E1E1E1E1E1E1E1E1E1E1E1E1E1E1E1E1E1E1E1E1E1E1E1E1E1E1E1E1E1E1E1E1E1E1E1E1E1E1E1E1E1E1E1E1E1E1E1E1E1E1E1E1E1E1E1E1E1E1E1E1E1E1E1E1E1E1E1E1E1E1E1E1E1E1E1E1E1E1E1E1E1E1E1E1E1E1E1E1E1E1E1E1E1E1
310
E1E1E1E1E1E1E1E1E1E1E1E1E1E1E1E1E1E1E1E1E1E1E1E1E1E1E1E1E1E1E1E1E1E1E1E1E1E1E1E1E1E1E1E1E1E1E1E1E1E1E1E1E1E1E1E1E1E1E1E1E1E1E1E1E1E1E1E1E1E1E1E1E1E1E1E1E1E1E1E1E1E1E1E1E1E1E1E1E1E1E1E1E1E1E1E1E1E1E1E1E1E1E1E1E1E1E1E1E1E1E1E1E1E1E1E1E1E1E1E1E1E1E1E1E1E1E1
310
E1E1E1E1E1E1E1E1E1E1E1E1E1E1E1E1E1E1E1E1E1E1E1E1E1E1E1E1E1E1E1E1E1E1E1E1E1E1E1E1E1E1E1E1E1E1E1E1E1E1E1E1E1E1E1E1E1E1E1E1E1E1E1E1E1E1E1E1E1E1E1E1E1E1E1E1E1E1E1E1E1E1E1E1E1E1E1E1E1E1E1E1E1E1E1E1E1E1E1E1E1E1E1E1E1E1E1E1E1E1E1E1E1E1E1E1E1E1E1E1E1E1E1E1E1E1E1
310
E1E1E1E1E1E1E1E1E1E1E1E1E1E1E1E1E1E1E1E1E1E1E1E1E1E1E1E1E1E1E1E1E1E1E1E1E1E1E1E1E1E1E1E1E1E1E1E1E1E1E1E1E1E1E1E1E1E1E1E1E1E1E1E1E1E1E1E1E1E1E1E1E1E1E1E1E1E1E1E1E1E1E1E1E1E1E1E1E1E1E1E1E1E1E1E1E1E1E1E1E1E1E1E1E1E1E1E1E1E1E1E1E1E1E1E1E1E1E1E1E1E1E1E1E1E1E1
310
E1E1E1E1E1E1E1E1E1E1E1E1E1E1E1E1E1E1E1E1E1E1E1E1E1E1E1E1E1E1E1E1E1E1E1E1E1E1E1E1E1E1E1E1E1E1E1E1E1E1E1E1E1E1E1E1E1E1E1E1E1E1E1E1E1E1E1E1E1E1E1E1E1E1E1E1E1E1E1E1E1E1E1E1E1E1E1E1E1E1E1E1E1E1E1E1E1E1E1E1E1E1E1E1E1E1E1E1E1E1E1E1E1E1E1E1E1E1E1E1E1E1E1E1E1E1E1
310
E1E1E1E1E1E1E1E1E1E1E1E1E1E1E1E1E1E1E1E1E1E1E1E1E1E1E1E1E1E1E1E1E1E1E1E1E1E1E1E1E1E1E1E1E1E1E1E1E1E1E1E1E1E1E1E1E1E1E1E1E1E1E1E1E1E1E1E1E1E1E1E1E1E1E1E1E1E1E1E1E1E1E1E1E1E1E1E1E1E1E1E1E1E1E1E1E1E1E1E1E1E1E1E1E1E1E1E1E1E1E1E1E1E1E1E1E1E1E1E1E1E1E1E1E1E1E1
310
E1E1E1E1E1E1E1E1E1E1E1E1E1E1E1E1E1E1E1E1E1E1E1E1E1E1E1E1E1E1E1E1E1E1E1E1E1E1E1E1E1E1E1E1E1E1E1E1E1E1E1E1E1E1E1E1E1E1E1E1E1E1E1E1E1E1E1E1E1E1E1E1E1E1E1E1E1E1E1E1E1E1E1E1E1E1E1E1E1E1E1E1E1E1E1E1E1E1E1E1E1E1E1E1E1E1E1E1E1E1E1E1E1E1E1E1E1E1E1E1E1E1E1E1E1E1E1
310
E1E1E1E1E1E1E1E1E1E1E1E1E1E1E1E1E1E1E1E1E1E1E1E1E1E1E1E1E1E1E1E1E1E1E1E1E1E1E1E1E1E1E1E1E1E1E1E1E1E1E1E1E1E1E1E1E1E1E1E1E1E1E1E1E1E1E1E1E1E1E1E1E1E1E1E1E1E1E1E1E1E1E1E1E1E1E1E1E1E1E1E1E1E1E1E1E1E1E1E1E1E1E1E1E1E1E1E1E1E1E1E1E1E1E1E1E1E1E1E1E1E1E1E1E1E1E1
310
E1E1E1E1E1E1E1E1E1E1E1E1E1E1E1E1E1E1E1E1E1E1E1E1E1E1E1E1E1E1E1E1E1E1E1E1E1E1E1E1E1E1E1E1E1E1E1E1E1E1E1E1E1E1E1E1E1E1E1E1E1E1E1E1E1E1E1E1E1E1E1E1E1E1E1E1E1E1E1E1E1E1E1E1E1E1E1E1E1E1E1E1E1E1E1E1E1E1E1E1E1E1E1E1E1E1E1E1E1E1E1E1E1E1E1E1E1E1E1E1E1E1E1E1E1E1E1
310
E1E1E1E1E1E1E1E1E1E1E1E1E1E1E1E1E1E1E1E1E1E1E1E1E1E1E1E1E1E1E1E1E1E1E1E1E1E1E1E1E1E1E1E1E1E1E1E1E1E1E1E1E1E1E1E1E1E1E1E1E1E1E1E1E1E1E1E1E1E1E1E1E1E1E1E1E1E1E1E1E1E1E1E1E1E1E1E1E1E1E1E1E1E1E1E1E1E1E1E1E1E1E1E1E1E1E1E1E1E1E1E1E1E1E1E1E1E1E1E1E1E1E1E1E1E1E1
310
E1E1E1E1E1E1E1E1E1E1E1E1E1E1E1E1E1E1E1E1E1E1E1E1E1E1E1E1E1E1E1E1E1E1E1E1E1E1E1E1E1E1E1E1E1E1E1E1E1E1E1E1E1E1E1E1E1E1E1E1E1E1E1E1E1E1E1E1E1E1E1E1E1E1E1E1E1E1E1E1E1E1E1E1E1E1E1E1E1E1E1E1E1E1E1E1E1E1E1E1E1E1E1E1E1E1E1E1E1E1E1E1E1E1E1E1E1E1E1E1E1E1E1E1E1E1E1
310
E1E1E1E1E1E1E1E1E1E1E1E1E1E1E1E1E1E1E1E1E1E1E1E1E1E1E1E1E1E1E1E1E1E1E1E1E1E1E1E1E1E1E1E1E1E1E1E1E1E1E1E1E1E1E1E1E1E1E1E1E1E1E1E1E1E1E1E1E1E1E1E1E1E1E1E1E1E1E1E1E1E1E1E1E1E1E1E1E1E1E1E1E1E1E1E1E1E1E1E1E1E1E1E1E1E1E1E1E1E1E1E1E1E1E1E1E1E1E1E1E1E1E1E1E1E1E1
310
E1E1E1E1E1E1E1E1E1E1E1E1E1E1E1E1E1E1E1E1E1E1E1E1E1E1E1E1E1E1E1E1E1E1E1E1E1E1E1E1E1E1E1E1E1E1E1E1E1E1E1E1E1E1E1E1E1E1E1E1E1E1E1E1E1E1E1E1E1E1E1E1E1E1E1E1E1E1E1E1E1E1E1E1E1E1E1E1E1E1E1E1E1E1E1E1E1E1E1E1E1E1E1E1E1E1E1E1E1E1E1E1E1E1E1E1E1E1E1E1E1E1E1E1E1E1E1
310
E1E1E1E1E1E1E1E1E1E1E1E1E1E1E1E1E1E1E1E1E1E1E1E1E1E1E1E1E1E1E1E1E1E1E1E1E1E1E1E1E1E1E1E1E1E1E1E1E1E1E1E1E1E1E1E1E1E1E1E1E1E1E1E1E1E1E1E1E1E1E1E1E1E1E1E1E1E1E1E1E1E1E1E1E1E1E1E1E1E1E1E1E1E1E1E1E1E1E1E1E1E1E1E1E1E1E1E1E1E1E1E1E1E1E1E1E1E1E1E1E1E1E1E1E1E1E1
310
E1E1E1E1E1E1E1E1E1E1E1E1E1E1E1E1E1E1E1E1E1E1E1E1E1E1E1E1E1E1E1E1E1E1E1E1E1E1E1E1E1E1E1E1E1E1E1E1E1E1E1E1E1E1E1E1E1E1E1E1E1E1E1E1E1E1E1E1E1E1E1E1E1E1E1E1E1E1E1E1E1E1E1E1E1E1E1E1E1E1E1E1E1E1E1E1E1E1E1E1E1E1E1E1E1E1E1E1E1E1E1E1E1E1E1E1E1E1E1E1E1E1E1E1E1E1E1
310
E1E1E1E1E1E1E1E1E1E1E1E1E1E1E1E1E1E1E1E1E1E1E1E1E1E1E1E1E1E1E1E1E1E1E1E1E1E1E1E1E1E1E1E1E1E1E1E1E1E1E1E1E1E1E1E1E1E1E1E1E1E1E1E1E1E1E1E1E1E1E1E1E1E1E1E1E1E1E1E1E1E1E1E1E1E1E1E1E1E1E1E1E1E1E1E1E1E1E1E1E1E1E1E1E1E1E1E1E1E1E1E1E1E1E1E1E1E1E1E1E1E1E1E1E1E1E1
310
E1E1E1E1E1E1E1E1E1E1E1E1E1E1E1E1E1E1E1E1E1E1E1E1E1E1E1E1E1E1E1E1E1E1E1E1E1E1E1E1E1E1E1E1E1E1E1E1E1E1E1E1E1E1E1E1E1E1E1E1E1E1E1E1E1E1E1E1E1E1E1E1E1E1E1E1E1E1E1E1E1E1E1E1E1E1E1E1E1E1E1E1E1E1E1E1E1E1E1E1E1E1E1E1E1E1E1E1E1E1E1E1E1E1E1E1E1E1E1E1E1E1E1E1E1E1E1
310
E1E1E1E1E1E1E1E1E1E1E1E1E1E1E1E1E1E1E1E1E1E1E1E1E1E1E1E1E1E1E1E1E1E1E1E1E1E1E1E1E1E1E1E1E1E1E1E1E1E1E1E1E1E1E1E1E1E1E1E1E1E1E1E1E1E1E1E1E1E1E1E1E1E1E1E1E1E1E1E1E1E1E1E1E1E1E1E1E1E1E1E1E1E1E1E1E1E1E1E1E1E1E1E1E1E1E1E1E1E1E1E1E1E1E1E1E1E1E1E1E1E1E1E1E1E1E1
310
E1E1E1E1E1E1E1E1E1E1E1E1E1E1E1E1E1E1E1E1E1E1E1E1E1E1E1E1E1E1E1E1E1E1E1E1E1E1E1E1E1E1E1E1E1E1E1E1E1E1E1E1E1E1E1E1E1E1E1E1E1E1E1E1E1E1E1E1E1E1E1E1E1E1E1E1E1E1E1E1E1E1E1E1E1E1E1E1E1E1E1E1E1E1E1E1E1E1E1E1E1E1E1E1E1E1E1E1E1E1E1E1E1E1E1E1E1E1E1E1E1E1E1E1E1E1E1
310
E1E1E1E1E1E1E1E1E1E1E1E1E1E1E1E1E1E1E1E1E1E1E1E1E1E1E1E1E1E1E1E1E1E1E1E1E1E1E1E1E1E1E1E1E1E1E1E1E1E1E1E1E1E1E1E1E1E1E1E1E1E1E1E1E1E1E1E1E1E1E1E1E1E1E1E1E1E1E1E1E1E1E1E1E1E1E1E1E1E1E1E1E1E1E1E1E1E1E1E1E1E1E1E1E1E1E1E1E1E1E1E1E1E1E1E1E1E1E1E1E1E1E1E1E1E1E1
310
E1E1E1E1E1E1E1E1E1E1E1E1E1E1E1E1E1E1E1E1E1E1E1E1E1E1E1E1E1E1E1E1E1E1E1E1E1E1E1E1E1E1E1E1E1E1E1E1E1E1E1E1E1E1E1E1E1E1E1E1E1E1E1E1E1E1E1E1E1E1E1E1E1E1E1E1E1E1E1E1E1E1E1E1E1E1E1E1E1E1E1E1E1E1E1E1E1E1E1E1E1E1E1E1E1E1E1E1E1E1E1E1E1E1E1E1E1E1E1E1E1E1E1E1E1E1E1
310
E1E1E1E1E1E1E1E1E1E1E1E1E1E1E1E1E1E1E1E1E1E1E1E1E1E1E1E1E1E1E1E1E1E1E1E1E1E1E1E1E1E1E1E1E1E1E1E1E1E1E1E1E1E1E1E1E1E1E1E1E1E1E1E1E1E1E1E1E1E1E1E1E1E1E1E1E1E1E1E1E1E1E1E1E1E1E1E1E1E1E1E1E1E1E1E1E1E1E1E1E1E1E1E1E1E1E1E1E1E1E1E1E1E1E1E1E1E1E1E1E1E1E1E1E1E1E1
310
E1E1E1E1E1E1E1E1E1E1E1E1E1E1E1E1E1E1E1E1E1E1E1E1E1E1E1E1E1E1E1E1E1E1E1E1E1E1E1E1E1E1E1E1E1E1E1E1E1E1E1E1E1E1E1E1E1E1E1E1E1E1E1E1E1E1E1E1E1E1E1E1E1E1E1E1E1E1E1E1E1E1E1E1E1E1E1E1E1E1E1E1E1E1E1E1E1E1E1E1E1E1E1E1E1E1E1E1E1E1E1E1E1E1E1E1E1E1E1E1E1E1E1E1E1E1E1
310
E1E1E1E1E1E1E1E1E1E1E1E1E1E1E1E1E1E1E1E1E1E1E1E1E1E1E1E1E1E1E1E1E1E1E1E1E1E1E1E1E1E1E1E1E1E1E1E1E1E1E1E1E1E1E1E1E1E1E1E1E1E1E1E1E1E1E1E1E1E1E1E1E1E1E1E1E1E1E1E1E1E1E1E1E1E1E1E1E1E1E1E1E1E1E1E1E1E1E1E1E1E1E1E1E1E1E1E1E1E1E1E1E1E1E1E1E1E1E1E1E1E1E1E1E1E1E1
310
E1E1E1E1E1E1E1E1E1E1E1E1E1E1E1E1E1E1E1E1E1E1E1E1E1E1E1E1E1E1E1E1E1E1E1E1E1E1E1E1E1E1E1E1E1E1E1E1E1E1E1E1E1E1E1E1E1E1E1E1E1E1E1E1E1E1E1E1E1E1E1E1E1E1E1E1E1E1E1E1E1E1E1E1E1E1E1E1E1E1E1E1E1E1E1E1E1E1E1E1E1E1E1E1E1E1E1E1E1E1E1E1E1E1E1E1E1E1E1E1E1E1E1E1E1E1E1
310
E1E1E1E1E1E1E1E1E1E1E1E1E1E1E1E1E1E1E1E1E1E1E1E1E1E1E1E1E1E1E1E1E1E1E1E1E1E1E1E1E1E1E1E1E1E1E1E1E1E1E1E1E1E1E1E1E1E1E1E1E1E1E1E1E1E1E1E1E1E1E1E1E1E1E1E1E1E1E1E1E1E1E1E1E1E1E1E1E1E1E1E1E1E1E1E1E1E1E1E1E1E1E1E1E1E1E1E1E1E1E1E1E1E1E1E1E1E1E1E1E1E1E1E1E1E1E1
310
E1E1E1E1E1E1E1E1E1E1E1E1E1E1E1E1E1E1E1E1E1E1E1E1E1E1E1E1E1E1E1E1E1E1E1E1E1E1E1E1E1E1E1E1E1E1E1E1E1E1E1E1E1E1E1E1E1E1E1E1E1E1E1E1E1E1E1E1E1E1E1E1E1E1E1E1E1E1E1E1E1E1E1E1E1E1E1E1E1E1E1E1E1E1E1E1E1E1E1E1E1E1E1E1E1E1E1E1E1E1E1E1E1E1E1E1E1E1E1E1E1E1E1E1E1E1E1
310
E1E1E1E1E1E1E1E1E1E1E1E1E1E1E1E1E1E1E1E1E1E1E1E1E1E1E1E1E1E1E1E1E1E1E1E1E1E1E1E1E1E1E1E1E1E1E1E1E1E1E1E1E1E1E1E1E1E1E1E1E1E1E1E1E1E1E1E1E1E1E1E1E1E1E1E1E1E1E1E1E1E1E1E1E1E1E1E1E1E1E1E1E1E1E1E1E1E1E1E1E1E1E1E1E1E1E1E1E1E1E1E1E1E1E1E1E1E1E1E1E1E1E1E1E1E1E1
310
E1E1E1E1E1E1E1E1E1E1E1E1E1E1E1E1E1E1E1E1E1E1E1E1E1E1E1E1E1E1E1E1E1E1E1E1E1E1E1E1E1E1E1E1E1E1E1E1E1E1E1E1E1E1E1E1E1E1E1E1E1E1E1E1E1E1E1E1E1E1E1E1E1E1E1E1E1E1E1E1E1E1E1E1E1E1E1E1E1E1E1E1E1E1E1E1E1E1E1E1E1E1E1E1E1E1E1E1E1E1E1E1E1E1E1E1E1E1E1E1E1E1E1E1E1E1E1
310
E1E1E1E1E1E1E1E1E1E1E1E1E1E1E1E1E1E1E1E1E1E1E1E1E1E1E1E1E1E1E1E1E1E1E1E1E1E1E1E1E1E1E1E1E1E1E1E1E1E1E1E1E1E1E1E1E1E1E1E1E1E1E1E1E1E1E1E1E1E1E1E1E1E1E1E1E1E1E1E1E1E1E1E1E1E1E1E1E1E1E1E1E1E1E1E1E1E1E1E1E1E1E1E1E1E1E1E1E1E1E1E1E1E1E1E1E1E1E1E1E1E1E1E1E1E1E1
310
E1E1E1E1E1E1E1E1E1E1E1E1E1E1E1E1E1E1E1E1E1E1E1E1E1E1E1E1E1E1E1E1E1E1E1E1E1E1E1E1E1E1E1E1E1E1E1E1E1E1E1E1E1E1E1E1E1E1E1E1E1E1E1E1E1E1E1E1E1E1E1E1E1E1E1E1E1E1E1E1E1E1E1E1E1E1E1E1E1E1E1E1E1E1E1E1E1E1E1E1E1E1E1E1E1E1E1E1E1E1E1E1E1E1E1E1E1E1E1E1E1E1E1E1E1E1E1
310
E1E1E1E1E1E1E1E1E1E1E1E1E1E1E1E1E1E1E1E1E1E1E1E1E1E1E1E1E1E1E1E1E1E1E1E1E1E1E1E1E1E1E1E1E1E1E1E1E1E1E1E1E1E1E1E1E1E1E1E1E1E1E1E1E1E1E1E1E1E1E1E1E1E1E1E1E1E1E1E1E1E1E1E1E1E1E1E1E1E1E1E1E1E1E1E1E1E1E1E1E1E1E1E1E1E1E1E1E1E1E1E1E1E1E1E1E1E1E1E1E1E1E1E1E1E1E1
310
E1E1E1E1E1E1E1E1E1E1E1E1E1E1E1E1E1E1E1E1E1E1E1E1E1E1E1E1E1E1E1E1E1E1E1E1E1E1E1E1E1E1E1E1E1E1E1E1E1E1E1E1E1E1E1E1E1E1E1E1E1E1E1E1E1E1E1E1E1E1E1E1E1E1E1E1E1E1E1E1E1E1E1E1E1E1E1E1E1E1E1E1E1E1E1E1E1E1E1E1E1E1E1E1E1E1E1E1E1E1E1E1E1E1E1E1E1E1E1E1E1E1E1E1E1E1E1
310
E1E1E1E1E1E1E1E1E1E1E1E1E1E1E1E1E1E1E1E1E1E1E1E1E1E1E1E1E1E1E1E1E1E1E1E1E1E1E1E1E1E1E1E1E1E1E1E1E1E1E1E1E1E1E1E1E1E1E1E1E1E1E1E1E1E1E1E1E1E1E1E1E1E1E1E1E1E1E1E1E1E1E1E1E1E1E1E1E1E1E1E1E1E1E1E1E1E1E1E1E1E1E1E1E1E1E1E1E1E1E1E1E1E1E1E1E1E1E1E1E1E1E1E1E1E1E1
310
E1E1E1E1E1E1E1E1E1E1E1E1E1E1E1E1E1E1E1E1E1E1E1E1E1E1E1E1E1E1E1E1E1E1E1E1E1E1E1E1E1E1E1E1E1E1E1E1E1E1E1E1E1E1E1E1E1E1E1E1E1E1E1E1E1E1E1E1E1E1E1E1E1E1E1E1E1E1E1E1E1E1E1E1E1E1E1E1E1E1E1E1E1E1E1E1E1E1E1E1E1E1E1E1E1E1E1E1E1E1E1E1E1E1E1E1E1E1E1E1E1E1E1E1E1E1E1
310
E1E1E1E1E1E1E1E1E1E1E1E1E1E1E1E1E1E1E1E1E1E1E1E1E1E1E1E1E1E1E1E1E1E1E1E1E1E1E1E1E1E1E1E1E1E1E1E1E1E1E1E1E1E1E1E1E1E1E1E1E1E1E1E1E1E1E1E1E1E1E1E1E1E1E1E1E1E1E1E1E1E1E1E1E1E1E1E1E1E1E1E1E1E1E1E1E1E1E1E1E1E1E1E1E1E1E1E1E1E1E1E1E1E1E1E1E1E1E1E1E1E1E1E1E1E1E1
310
E1E1E1E1E1E1E1E1E1E1E1E1E1E1E1E1E1E1E1E1E1E1E1E1E1E1E1E1E1E1E1E1E1E1E1E1E1E1E1E1E1E1E1E1E1E1E1E1E1E1E1E1E1E1E1E1E1E1E1E1E1E1E1E1E1E1E1E1E1E1E1E1E1E1E1E1E1E1E1E1E1E1E1E1E1E1E1E1E1E1E1E1E1E1E1E1E1E1E1E1E1E1E1E1E1E1E1E1E1E1E1E1E1E1E1E1E1E1E1E1E1E1E1E1E1E1E1
310
E1E1E1E1E1E1E1E1E1E1E1E1E1E1E1E1E1E1E1E1E1E1E1E1E1E1E1E1E1E1E1E1E1E1E1E1E1E1E1E1E1E1E1E1E1E1E1E1E1E1E1E1E1E1E1E1E1E1E1E1E1E1E1E1E1E1E1E1E1E1E1E1E1E1E1E1E1E1E1E1E1E1E1E1E1E1E1E1E1E1E1E1E1E1E1E1E1E1E1E1E1E1E1E1E1E1E1E1E1E1E1E1E1E1E1E1E1E1E1E1E1E1E1E1E1E1E1
310
E1E1E1E1E1E1E1E1E1E1E1E1E1E1E1E1E1E1E1E1E1E1E1E1E1E1E1E1E1E1E1E1E1E1E1E1E1E1E1E1E1E1E1E1E1E1E1E1E1E1E1E1E1E1E1E1E1E1E1E1E1E1E1E1E1E1E1E1E1E1E1E1E1E1E1E1E1E1E1E1E1E1E1E1E1E1E1E1E1E1E1E1E1E1E1E1E1E1E1E1E1E1E1E1E1E1E1E1E1E1E1E1E1E1E1E1E1E1E1E1E1E1E1E1E1E1E1
310
E1E1E1E1E1E1E1E1E1E1E1E1E1E1E1E1E1E1E1E1E1E1E1E1E1E1E1E1E1E1E1E1E1E1E1E1E1E1E1E1E1E1E1E1E1E1E1E1E1E1E1E1E1E1E1E1E1E1E1E1E1E1E1E1E1E1E1E1E1E1E1E1E1E1E1E1E1E1E1E1E1E1E1E1E1E1E1E1E1E1E1E1E1E1E1E1E1E1E1E1E1E1E1E1E1E1E1E1E1E1E1E1E1E1E1E1E1E1E1E1E1E1E1E1E1E1E1
310
E1E1E1E1E1E1E1E1E1E1E1E1E1E1E1E1E1E1E1E1E1E1E1E1E1E1E1E1E1E1E1E1E1E1E1E1E1E1E1E1E1E1E1E1E1E1E1E1E1E1E1E1E1E1E1E1E1E1E1E1E1E1E1E1E1E1E1E1E1E1E1E1E1E1E1E1E1E1E1E1E1E1E1E1E1E1E1E1E1E1E1E1E1E1E1E1E1E1E1E1E1E1E1E1E1E1E1E1E1E1E1E1E1E1E1E1E1E1E1E1E1E1E1E1E1E1E1
310
E1E1E1E1E1E1E1E1E1E1E1E1E1E1E1E1E1E1E1E1E1E1E1E1E1E1E1E1E1E1E1E1E1E1E1E1E1E1E1E1E1E1E1E1E1E1E1E1E1E1E1E1E1E1E1E1E1E1E1E1E1E1E1E1E1E1E1E1E1E1E1E1E1E1E1E1E1E1E1E1E1E1E1E1E1E1E1E1E1E1E1E1E1E1E1E1E1E1E1E1E1E1E1E1E1E1E1E1E1E1E1E1E1E1E1E1E1E1E1E1E1E1E1E1E1E1E1
310
E1E1E1E1E1E1E1E1E1E1E1E1E1E1E1E1E1E1E1E1E1E1E1E1E1E1E1E1E1E1E1E1E1E1E1E1E1E1E1E1E1E1E1E1E1E1E1E1E1E1E1E1E1E1E1E1E1E1E1E1E1E1E1E1E1E1E1E1E1E1E1E1E1E1E1E1E1E1E1E1E1E1E1E1E1E1E1E1E1E1E1E1E1E1E1E1E1E1E1E1E1E1E1E1E1E1E1E1E1E1E1E1E1E1E1E1E1E1E1E1E1E1E1E1E1E1E1
310
E1E1E1E1E1E1E1E1E1E1E1E1E1E1E1E1E1E1E1E1E1E1E1E1E1E1E1E1E1E1E1E1E1E1E1E1E1E1E1E1E1E1E1E1E1E1E1E1E1E1E1E1E1E1E1E1E1E1E1E1E1E1E1E1E1E1E1E1E1E1E1E1E1E1E1E1E1E1E1E1E1E1E1E1E1E1E1E1E1E1E1E1E1E1E1E1E1E1E1E1E1E1E1E1E1E1E1E1E1E1E1E1E1E1E1E1E1E1E1E1E1E1E1E1E1E1E1
310
E1E1E1E1E1E1E1E1E1E1E1E1E1E1E1E1E1E1E1E1E1E1E1E1E1E1E1E1E1E1E1E1E1E1E1E1E1E1E1E1E1E1E1E1E1E1E1E1E1E1E1E1E1E1E1E1E1E1E1E1E1E1E1E1E1E1E1E1E1E1E1E1E1E1E1E1E1E1E1E1E1E1E1E1E1E1E1E1E1E1E1E1E1E1E1E1E1E1E1E1E1E1E1E1E1E1E1E1E1E1E1E1E1E1E1E1E1E1E1E1E1E1E1E1E1E1E1
310
E1E1E1E1E1E1E1E1E1E1E1E1E1E1E1E1E1E1E1E1E1E1E1E1E1E1E1E1E1E1E1E1E1E1E1E1E1E1E1E1E1E1E1E1E1E1E1E1E1E1E1E1E1E1E1E1E1E1E1E1E1E1E1E1E1E1E1E1E1E1E1E1E1E1E1E1E1E1E1E1E1E1E1E1E1E1E1E1E1E1E1E1E1E1E1E1E1E1E1E1E1E1E1E1E1E1E1E1E1E1E1E1E1E1E1E1E1E1E1E1E1E1E1E1E1E1E1
310
E1E1E1E1E1E1E1E1E1E1E1E1E1E1E1E1E1E1E1E1E1E1E1E1E1E1E1E1E1E1E1E1E1E1E1E1E1E1E1E1E1E1E1E1E1E1E1E1E1E1E1E1E1E1E1E1E1E1E1E1E1E1E1E1E1E1E1E1E1E1E1E1E1E1E1E1E1E1E1E1E1E1E1E1E1E1E1E1E1E1E1E1E1E1E1E1E1E1E1E1E1E1E1E1E1E1E1E1E1E1E1E1E1E1E1E1E1E1E1E1E1E1E1E1E1E1E1
310
E1E1E1E1E1E1E1E1E1E1E1E1E1E1E1E1E1E1E1E1E1E1E1E1E1E1E1E1E1E1E1E1E1E1E1E1E1E1E1E1E1E1E1E1E1E1E1E1E1E1E1E1E1E1E1E1E1E1E1E1E1E1E1E1E1E1E1E1E1E1E1E1E1E1E1E1E1E1E1E1E1E1E1E1E1E1E1E1E1E1E1E1E1E1E1E1E1E1E1E1E1E1E1E1E1E1E1E1E1E1E1E1E1E1E1E1E1E1E1E1E1E1E1E1E1E1E1
310
E1E1E1E1E1E1E1E1E1E1E1E1E1E1E1E1E1E1E1E1E1E1E1E1E1E1E1E1E1E1E1E1E1E1E1E1E1E1E1E1E1E1E1E1E1E1E1E1E1E1E1E1E1E1E1E1E1E1E1E1E1E1E1E1E1E1E1E1E1E1E1E1E1E1E1E1E1E1E1E1E1E1E1E1E1E1E1E1E1E1E1E1E1E1E1E1E1E1E1E1E1E1E1E1E1E1E1E1E1E1E1E1E1E1E1E1E1E1E1E1E1E1E1E1E1E1E1
310
E1E1E1E1E1E1E1E1E1E1E1E1E1E1E1E1E1E1E1E1E1E1E1E1E1E1E1E1E1E1E1E1E1E1E1E1E1E1E1E1E1E1E1E1E1E1E1E1E1E1E1E1E1E1E1E1E1E1E1E1E1E1E1E1E1E1E1E1E1E1E1E1E1E1E1E1E1E1E1E1E1E1E1E1E1E1E1E1E1E1E1E1E1E1E1E1E1E1E1E1E1E1E1E1E1E1E1E1E1E1E1E1E1E1E1E1E1E1E1E1E1E1E1E1E1E1E1
310
E1E1E1E1E1E1E1E1E1E1E1E1E1E1E1E1E1E1E1E1E1E1E1E1E1E1E1E1E1E1E1E1E1E1E1E1E1E1E1E1E1E1E1E1E1E1E1E1E1E1E1E1E1E1E1E1E1E1E1E1E1E1E1E1E1E1E1E1E1E1E1E1E1E1E1E1E1E1E1E1E1E1E1E1E1E1E1E1E1E1E1E1E1E1E1E1E1E1E1E1E1E1E1E1E1E1E1E1E1E1E1E1E1E1E1E1E1E1E1E1E1E1E1E1E1E1E1
310
E1E1E1E1E1E1E1E1E1E1E1E1E1E1E1E1E1E1E1E1E1E1E1E1E1E1E1E1E1E1E1E1E1E1E1E1E1E1E1E1E1E1E1E1E1E1E1E1E1E1E1E1E1E1E1E1E1E1E1E1E1E1E1E1E1E1E1E1E1E1E1E1E1E1E1E1E1E1E1E1E1E1E1E1E1E1E1E1E1E1E1E1E1E1E1E1E1E1E1E1E1E1E1E1E1E1E1E1E1E1E1E1E1E1E1E1E1E1E1E1E1E1E1E1E1E1E1
310
E1E1E1E1E1E1E1E1E1E1E1E1E1E1E1E1E1E1E1E1E1E1E1E1E1E1E1E1E1E1E1E1E1E1E1E1E1E1E1E1E1E1E1E1E1E1E1E1E1E1E1E1E1E1E1E1E1E1E1E1E1E1E1E1E1E1E1E1E1E1E1E1E1E1E1E1E1E1E1E1E1E1E1E1E1E1E1E1E1E1E1E1E1E1E1E1E1E1E1E1E1E1E1E1E1E1E1E1E1E1E1E1E1E1E1E1E1E1E1E1E1E1E1E1E1E1E1
310
E1E1E1E1E1E1E1E1E1E1E1E1E1E1E1E1E1E1E1E1E1E1E1E1E1E1E1E1E1E1E1E1E1E1E1E1E1E1E1E1E1E1E1E1E1E1E1E1E1E1E1E1E1E1E1E1E1E1E1E1E1E1E1E1E1E1E1E1E1E1E1E1E1E1E1E1E1E1E1E1E1E1E1E1E1E1E1E1E1E1E1E1E1E1E1E1E1E1E1E1E1E1E1E1E1E1E1E1E1E1E1E1E1E1E1E1E1E1E1E1E1E1E1E1E1E1E1
310
E1E1E1E1E1E1E1E1E1E1E1E1E1E1E1E1E1E1E1E1E1E1E1E1E1E1E1E1E1E1E1E1E1E1E1E1E1E1E1E1E1E1E1E1E1E1E1E1E1E1E1E1E1E1E1E1E1E1E1E1E1E1E1E1E1E1E1E1E1E1E1E1E1E1E1E1E1E1E1E1E1E1E1E1E1E1E1E1E1E1E1E1E1E1E1E1E1E1E1E1E1E1E1E1E1E1E1E1E1E1E1E1E1E1E1E1E1E1E1E1E1E1E1E1E1E1E1
310
E1E1E1E1E1E1E1E1E1E1E1E1E1E1E1E1E1E1E1E1E1E1E1E1E1E1E1E1E1E1E1E1E1E1E1E1E1E1E1E1E1E1E1E1E1E1E1E1E1E1E1E1E1E1E1E1E1E1E1E1E1E1E1E1E1E1E1E1E1E1E1E1E1E1E1E1E1E1E1E1E1E1E1E1E1E1E1E1E1E1E1E1E1E1E1E1E1E1E1E1E1E1E1E1E1E1E1E1E1E1E1E1E1E1E1E1E1E1E1E1E1E1E1E1E1E1E1
310
E1E1E1E1E1E1E1E1E1E1E1E1E1E1E1E1E1E1E1E1E1E1E1E1E1E1E1E1E1E1E1E1E1E1E1E1E1E1E1E1E1E1E1E1E1E1E1E1E1E1E1E1E1E1E1E1E1E1E1E1E1E1E1E1E1E1E1E1E1E1E1E1E1E1E1E1E1E1E1E1E1E1E1E1E1E1E1E1E1E1E1E1E1E1E1E1E1E1E1E1E1E1E1E1E1E1E1E1E1E1E1E1E1E1E1E1E1E1E1E1E1E1E1E1E1E1E1
310
E1E1E1E1E1E1E1E1E1E1E1E1E1E1E1E1E1E1E1E1E1E1E1E1E1E1E1E1E1E1E1E1E1E1E1E1E1E1E1E1E1E1E1E1E1E1E1E1E1E1E1E1E1E1E1E1E1E1E1E1E1E1E1E1E1E1E1E1E1E1E1E1E1E1E1E1E1E1E1E1E1E1E1E1E1E1E1E1E1E1E1E1E1E1E1E1E1E1E1E1E1E1E1E1E1E1E1E1E1E1E1E1E1E1E1E1E1E1E1E1E1E1E1E1E1E1E1
310
E1E1E1E1E1E1E1E1E1E1E1E1E1E1E1E1E1E1E1E1E1E1E1E1E1E1E1E1E1E1E1E1E1E1E1E1E1E1E1E1E1E1E1E1E1E1E1E1E1E1E1E1E1E1E1E1E1E1E1E1E1E1E1E1E1E1E1E1E1E1E1E1E1E1E1E1E1E1E1E1E1E1E1E1E1E1E1E1E1E1E1E1E1E1E1E1E1E1E1E1E1E1E1E1E1E1E1E1E1E1E1E1E1E1E1E1E1E1E1E1E1E1E1E1E1E1E1
310
E1E1E1E1E1E1E1E1E1E1E1E1E1E1E1E1E1E1E1E1E1E1E1E1E1E1E1E1E1E1E1E1E1E1E1E1E1E1E1E1E1E1E1E1E1E1E1E1E1E1E1E1E1E1E1E1E1E1E1E1E1E1E1E1E1E1E1E1E1E1E1E1E1E1E1E1E1E1E1E1E1E1E1E1E1E1E1E1E1E1E1E1E1E1E1E1E1E1E1E1E1E1E1E1E1E1E1E1E1E1E1E1E1E1E1E1E1E1E1E1E1E1E1E1E1E1E1
310
E1E1E1E1E1E1E1E1E1E1E1E1E1E1E1E1E1E1E1E1E1E1E1E1E1E1E1E1E1E1E1E1E1E1E1E1E1E1E1E1E1E1E1E1E1E1E1E1E1E1E1E1E1E1E1E1E1E1E1E1E1E1E1E1E1E1E1E1E1E1E1E1E1E1E1E1E1E1E1E1E1E1E1E1E1E1E1E1E1E1E1E1E1E1E1E1E1E1E1E1E1E1E1E1E1E1E1E1E1E1E1E1E1E1E1E1E1E1E1E1E1E1E1E1E1E1E1
310
E1E1E1E1E1E1E1E1E1E1E1E1E1E1E1E1E1E1E1E1E1E1E1E1E1E1E1E1E1E1E1E1E1E1E1E1E1E1E1E1E1E1E1E1E1E1E1E1E1E1E1E1E1E1E1E1E1E1E1E1E1E1E1E1E1E1E1E1E1E1E1E1E1E1E1E1E1E1E1E1E1E1E1E1E1E1E1E1E1E1E1E1E1E1E1E1E1E1E1E1E1E1E1E1E1E1E1E1E1E1E1E1E1E1E1E1E1E1E1E1E1E1E1E1E1E1E1
310
E1E1E1E1E1E1E1E1E1E1E1E1E1E1E1E1E1E1E1E1E1E1E1E1E1E1E1E1E1E1E1E1E1E1E1E1E1E1E1E1E1E1E1E1E1E1E1E1E1E1E1E1E1E1E1E1E1E1E1E1E1E1E1E1E1E1E1E1E1E1E1E1E1E1E1E1E1E1E1E1E1E1E1E1E1E1E1E1E1E1E1E1E1E1E1E1E1E1E1E1E1E1E1E1E1E1E1E1E1E1E1E1E1E1E1E1E1E1E1E1E1E1E1E1E1E1E1
310
E1E1E1E1E1E1E1E1E1E1E1E1E1E1E1E1E1E1E1E1E1E1E1E1E1E1E1E1E1E1E1E1E1E1E1E1E1E1E1E1E1E1E1E1E1E1E1E1E1E1E1E1E1E1E1E1E1E1E1E1E1E1E1E1E1E1E1E1E1E1E1E1E1E1E1E1E1E1E1E1E1E1E1E1E1E1E1E1E1E1E1E1E1E1E1E1E1E1E1E1E1E1E1E1E1E1E1E1E1E1E1E1E1E1E1E1E1E1E1E1E1E1E1E1E1E1E1
310
E1E1E1E1E1E1E1E1E1E1E1E1E1E1E1E1E1E1E1E1E1E1E1E1E1E1E1E1E1E1E1E1E1E1E1E1E1E1E1E1E1E1E1E1E1E1E1E1E1E1E1E1E1E1E1E1E1E1E1E1E1E1E1E1E1E1E1E1E1E1E1E1E1E1E1E1E1E1E1E1E1E1E1E1E1E1E1E1E1E1E1E1E1E1E1E1E1E1E1E1E1E1E1E1E1E1E1E1E1E1E1E1E1E1E1E1E1E1E1E1E1E1E1E1E1E1E1
310
E1E1E1E1E1E1E1E1E1E1E1E1E1E1E1E1E1E1E1E1E1E1E1E1E1E1E1E1E1E1E1E1E1E1E1E1E1E1E1E1E1E1E1E1E1E1E1E1E1E1E1E1E1E1E1E1E1E1E1E1E1E1E1E1E1E1E1E1E1E1E1E1E1E1E1E1E1E1E1E1E1E1E1E1E1E1E1E1E1E1E1E1E1E1E1E1E1E1E1E1E1E1E1E1E1E1E1E1E1E1E1E1E1E1E1E1E1E1E1E1E1E1E1E1E1E1E1
310
E1E1E1E1E1E1E1E1E1E1E1E1E1E1E1E1E1E1E1E1E1E1E1E1E1E1E1E1E1E1E1E1E1E1E1E1E1E1E1E1E1E1E1E1E1E1E1E1E1E1E1E1E1E1E1E1E1E1E1E1E1E1E1E1E1E1E1E1E1E1E1E1E1E1E1E1E1E1E1E1E1E1E1E1E1E1E1E1E1E1E1E1E1E1E1E1E1E1E1E1E1E1E1E1E1E1E1E1E1E1E1E1E1E1E1E1E1E1E1E1E1E1E1E1E1E1E1
310
E1E1E1E1E1E1E1E1E1E1E1E1E1E1E1E1E1E1E1E1E1E1E1E1E1E1E1E1E1E1E1E1E1E1E1E1E1E1E1E1E1E1E1E1E1E1E1E1E1E1E1E1E1E1E1E1E1E1E1E1E1E1E1E1E1E1E1E1E1E1E1E1E1E1E1E1E1E1E1E1E1E1E1E1E1E1E1E1E1E1E1E1E1E1E1E1E1E1E1E1E1E1E1E1E1E1E1E1E1E1E1E1E1E1E1E1E1E1E1E1E1E1E1E1E1E1E1
310
E1E1E1E1E1E1E1E1E1E1E1E1E1E1E1E1E1E1E1E1E1E1E1E1E1E1E1E1E1E1E1E1E1E1E1E1E1E1E1E1E1E1E1E1E1E1E1E1E1E1E1E1E1E1E1E1E1E1E1E1E1E1E1E1E1E1E1E1E1E1E1E1E1E1E1E1E1E1E1E1E1E1E1E1E1E1E1E1E1E1E1E1E1E1E1E1E1E1E1E1E1E1E1E1E1E1E1E1E1E1E1E1E1E1E1E1E1E1E1E1E1E1E1E1E1E1E1
310
E1E1E1E1E1E1E1E1E1E1E1E1E1E1E1E1E1E1E1E1E1E1E1E1E1E1E1E1E1E1E1E1E1E1E1E1E1E1E1E1E1E1E1E1E1E1E1E1E1E1E1E1E1E1E1E1E1E1E1E1E1E1E1E1E1E1E1E1E1E1E1E1E1E1E1E1E1E1E1E1E1E1E1E1E1E1E1E1E1E1E1E1E1E1E1E1E1E1E1E1E1E1E1E1E1E1E1E1E1E1E1E1E1E1E1E1E1E1E1E1E1E1E1E1E1E1E1
310
E1E1E1E1E1E1E1E1E1E1E1E1E1E1E1E1E1E1E1E1E1E1E1E1E1E1E1E1E1E1E1E1E1E1E1E1E1E1E1E1E1E1E1E1E1E1E1E1E1E1E1E1E1E1E1E1E1E1E1E1E1E1E1E1E1E1E1E1E1E1E1E1E1E1E1E1E1E1E1E1E1E1E1E1E1E1E1E1E1E1E1E1E1E1E1E1E1E1E1E1E1E1E1E1E1E1E1E1E1E1E1E1E1E1E1E1E1E1E1E1E1E1E1E1E1E1E1
310
E1E1E1E1E1E1E1E1E1E1E1E1E1E1E1E1E1E1E1E1E1E1E1E1E1E1E1E1E1E1E1E1E1E1E1E1E1E1E1E1E1E1E1E1E1E1E1E1E1E1E1E1E1E1E1E1E1E1E1E1E1E1E1E1E1E1E1E1E1E1E1E1E1E1E1E1E1E1E1E1E1E1E1E1E1E1E1E1E1E1E1E1E1E1E1E1E1E1E1E1E1E1E1E1E1E1E1E1E1E1E1E1E1E1E1E1E1E1E1E1E1E1E1E1E1E1E1
310
E1E1E1E1E1E1E1E1E1E1E1E1E1E1E1E1E1E1E1E1E1E1E1E1E1E1E1E1E1E1E1E1E1E1E1E1E1E1E1E1E1E1E1E1E1E1E1E1E1E1E1E1E1E1E1E1E1E1E1E1E1E1E1E1E1E1E1E1E1E1E1E1E1E1E1E1E1E1E1E1E1E1E1E1E1E1E1E1E1E1E1E1E1E1E1E1E1E1E1E1E1E1E1E1E1E1E1E1E1E1E1E1E1E1E1E1E1E1E1E1E1E1E1E1E1E1E1
310
E1E1E1E1E1E1E1E1E1E1E1E1E1E1E1E1E1E1E1E1E1E1E1E1E1E1E1E1E1E1E1E1E1E1E1E1E1E1E1E1E1E1E1E1E1E1E1E1E1E1E1E1E1E1E1E1E1E1E1E1E1E1E1E1E1E1E1E1E1E1E1E1E1E1E1E1E1E1E1E1E1E1E1E1E1E1E1E1E1E1E1E1E1E1E1E1E1E1E1E1E1E1E1E1E1E1E1E1E1E1E1E1E1E1E1E1E1E1E1E1E1E1E1E1E1E1E1
310
E1E1E1E1E1E1E1E1E1E1E1E1E1E1E1E1E1E1E1E1E1E1E1E1E1E1E1E1E1E1E1E1E1E1E1E1E1E1E1E1E1E1E1E1E1E1E1E1E1E1E1E1E1E1E1E1E1E1E1E1E1E1E1E1E1E1E1E1E1E1E1E1E1E1E1E1E1E1E1E1E1E1E1E1E1E1E1E1E1E1E1E1E1E1E1E1E1E1E1E1E1E1E1E1E1E1E1E1E1E1E1E1E1E1E1E1E1E1E1E1E1E1E1E1E1E1E1
310
E1E1E1E1E1E1E1E1E1E1E1E1E1E1E1E1E1E1E1E1E1E1E1E1E1E1E1E1E1E1E1E1E1E1E1E1E1E1E1E1E1E1E1E1E1E1E1E1E1E1E1E1E1E1E1E1E1E1E1E1E1E1E1E1E1E1E1E1E1E1E1E1E1E1E1E1E1E1E1E1E1E1E1E1E1E1E1E1E1E1E1E1E1E1E1E1E1E1E1E1E1E1E1E1E1E1E1E1E1E1E1E1E1E1E1E1E1E1E1E1E1E1E1E1E1E1E1
310
E1E1E1E1E1E1E1E1E1E1E1E1E1E1E1E1E1E1E1E1E1E1E1E1E1E1E1E1E1E1E1E1E1E1E1E1E1E1E1E1E1E1E1E1E1E1E1E1E1E1E1E1E1E1E1E1E1E1E1E1E1E1E1E1E1E1E1E1E1E1E1E1E1E1E1E1E1E1E1E1E1E1E1E1E1E1E1E1E1E1E1E1E1E1E1E1E1E1E1E1E1E1E1E1E1E1E1E1E1E1E1E1E1E1E1E1E1E1E1E1E1E1E1E1E1E1E1
310
E1E1E1E1E1E1E1E1E1E1E1E1E1E1E1E1E1E1E1E1E1E1E1E1E1E1E1E1E1E1E1E1E1E1E1E1E1E1E1E1E1E1E1E1E1E1E1E1E1E1E1E1E1E1E1E1E1E1E1E1E1E1E1E1E1E1E1E1E1E1E1E1E1E1E1E1E1E1E1E1E1E1E1E1E1E1E1E1E1E1E1E1E1E1E1E1E1E1E1E1E1E1E1E1E1E1E1E1E1E1E1E1E1E1E1E1E1E1E1E1E1E1E1E1E1E1E1
310
E1E1E1E1E1E1E1E1E1E1E1E1E1E1E1E1E1E1E1E1E1E1E1E1E1E1E1E1E1E1E1E1E1E1E1E1E1E1E1E1E1E1E1E1E1E1E1E1E1E1E1E1E1E1E1E1E1E1E1E1E1E1E1E1E1E1E1E1E1E1E1E1E1E1E1E1E1E1E1E1E1E1E1E1E1E1E1E1E1E1E1E1E1E1E1E1E1E1E1E1E1E1E1E1E1E1E1E1E1E1E1E1E1E1E1E1E1E1E1E1E1E1E1E1E1E1E1
310
E1E1E1E1E1E1E1E1E1E1E1E1E1E1E1E1E1E1E1E1E1E1E1E1E1E1E1E1E1E1E1E1E1E1E1E1E1E1E1E1E1E1E1E1E1E1E1E1E1E1E1E1E1E1E1E1E1E1E1E1E1E1E1E1E1E1E1E1E1E1E1E1E1E1E1E1E1E1E1E1E1E1E1E1E1E1E1E1E1E1E1E1E1E1E1E1E1E1E1E1E1E1E1E1E1E1E1E1E1E1E1E1E1E1E1E1E1E1E1E1E1E1E1E1E1E1E1
310
E1E1E1E1E1E1E1E1E1E1E1E1E1E1E1E1E1E1E1E1E1E1E1E1E1E1E1E1E1E1E1E1E1E1E1E1E1E1E1E1E1E1E1E1E1E1E1E1E1E1E1E1E1E1E1E1E1E1E1E1E1E1E1E1E1E1E1E1E1E1E1E1E1E1E1E1E1E1E1E1E1E1E1E1E1E1E1E1E1E1E1E1E1E1E1E1E1E1E1E1E1E1E1E1E1E1E1E1E1E1E1E1E1E1E1E1E1E1E1E1E1E1E1E1E1E1E1
310
E1E1E1E1E1E1E1E1E1E1E1E1E1E1E1E1E1E1E1E1E1E1E1E1E1E1E1E1E1E1E1E1E1E1E1E1E1E1E1E1E1E1E1E1E1E1E1E1E1E1E1E1E1E1E1E1E1E1E1E1E1E1E1E1E1E1E1E1E1E1E1E1E1E1E1E1E1E1E1E1E1E1E1E1E1E1E1E1E1E1E1E1E1E1E1E1E1E1E1E1E1E1E1E1E1E1E1E1E1E1E1E1E1E1E1E1E1E1E1E1E1E1E1E1E1E1E1
310
E1E1E1E1E1E1E1E1E1E1E1E1E1E1E1E1E1E1E1E1E1E1E1E1E1E1E1E1E1E1E1E1E1E1E1E1E1E1E1E1E1E1E1E1E1E1E1E1E1E1E1E1E1E1E1E1E1E1E1E1E1E1E1E1E1E1E1E1E1E1E1E1E1E1E1E1E1E1E1E1E1E1E1E1E1E1E1E1E1E1E1E1E1E1E1E1E1E1E1E1E1E1E1E1E1E1E1E1E1E1E1E1E1E1E1E1E1E1E1E1E1E1E1E1E1E1E1
310
E1E1E1E1E1E1E1E1E1E1E1E1E1E1E1E1E1E1E1E1E1E1E1E1E1E1E1E1E1E1E1E1E1E1E1E1E1E1E1E1E1E1E1E1E1E1E1E1E1E1E1E1E1E1E1E1E1E1E1E1E1E1E1E1E1E1E1E1E1E1E1E1E1E1E1E1E1E1E1E1E1E1E1E1E1E1E1E1E1E1E1E1E1E1E1E1E1E1E1E1E1E1E1E1E1E1E1E1E1E1E1E1E1E1E1E1E1E1E1E1E1E1E1E1E1E1E1
310
E1E1E1E1E1E1E1E1E1E1E1E1E1E1E1E1E1E1E1E1E1E1E1E1E1E1E1E1E1E1E1E1E1E1E1E1E1E1E1E1E1E1E1E1E1E1E1E1E1E1E1E1E1E1E1E1E1E1E1E1E1E1E1E1E1E1E1E1E1E1E1E1E1E1E1E1E1E1E1E1E1E1E1E1E1E1E1E1E1E1E1E1E1E1E1E1E1E1E1E1E1E1E1E1E1E1E1E1E1E1E1E1E1E1E1E1E1E1E1E1E1E1E1E1E1E1E1
310
E1E1E1E1E1E1E1E1E1E1E1E1E1E1E1E1E1E1E1E1E1E1E1E1E1E1E1E1E1E1E1E1E1E1E1E1E1E1E1E1E1E1E1E1E1E1E1E1E1E1E1E1E1E1E1E1E1E1E1E1E1E1E1E1E1E1E1E1E1E1E1E1E1E1E1E1E1E1E1E1E1E1E1E1E1E1E1E1E1E1E1E1E1E1E1E1E1E1E1E1E1E1E1E1E1E1E1E1E1E1E1E1E1E1E1E1E1E1E1E1E1E1E1E1E1E1E1
310
E1E1E1E1E1E1E1E1E1E1E1E1E1E1E1E1E1E1E1E1E1E1E1E1E1E1E1E1E1E1E1E1E1E1E1E1E1E1E1E1E1E1E1E1E1E1E1E1E1E1E1E1E1E1E1E1E1E1E1E1E1E1E1E1E1E1E1E1E1E1E1E1E1E1E1E1E1E1E1E1E1E1E1E1E1E1E1E1E1E1E1E1E1E1E1E1E1E1E1E1E1E1E1E1E1E1E1E1E1E1E1E1E1E1E1E1E1E1E1E1E1E1E1E1E1E1E1
310
E1E1E1E1E1E1E1E1E1E1E1E1E1E1E1E1E1E1E1E1E1E1E1E1E1E1E1E1E1E1E1E1E1E1E1E1E1E1E1E1E1E1E1E1E1E1E1E1E1E1E1E1E1E1E1E1E1E1E1E1E1E1E1E1E1E1E1E1E1E1E1E1E1E1E1E1E1E1E1E1E1E1E1E1E1E1E1E1E1E1E1E1E1E1E1E1E1E1E1E1E1E1E1E1E1E1E1E1E1E1E1E1E1E1E1E1E1E1E1E1E1E1E1E1E1E1E1
310
E1E1E1E1E1E1E1E1E1E1E1E1E1E1E1E1E1E1E1E1E1E1E1E1E1E1E1E1E1E1E1E1E1E1E1E1E1E1E1E1E1E1E1E1E1E1E1E1E1E1E1E1E1E1E1E1E1E1E1E1E1E1E1E1E1E1E1E1E1E1E1E1E1E1E1E1E1E1E1E1E1E1E1E1E1E1E1E1E1E1E1E1E1E1E1E1E1E1E1E1E1E1E1E1E1E1E1E1E1E1E1E1E1E1E1E1E1E1E1E1E1E1E1E1E1E1E1
310
E1E1E1E1E1E1E1E1E1E1E1E1E1E1E1E1E1E1E1E1E1E1E1E1E1E1E1E1E1E1E1E1E1E1E1E1E1E1E1E1E1E1E1E1E1E1E1E1E1E1E1E1E1E1E1E1E1E1E1E1E1E1E1E1E1E1E1E1E1E1E1E1E1E1E1E1E1E1E1E1E1E1E1E1E1E1E1E1E1E1E1E1E1E1E1E1E1E1E1E1E1E1E1E1E1E1E1E1E1E1E1E1E1E1E1E1E1E1E1E1E1E1E1E1E1E1E1
310
E1E1E1E1E1E1E1E1E1E1E1E1E1E1E1E1E1E1E1E1E1E1E1E1E1E1E1E1E1E1E1E1E1E1E1E1E1E1E1E1E1E1E1E1E1E1E1E1E1E1E1E1E1E1E1E1E1E1E1E1E1E1E1E1E1E1E1E1E1E1E1E1E1E1E1E1E1E1E1E1E1E1E1E1E1E1E1E1E1E1E1E1E1E1E1E1E1E1E1E1E1E1E1E1E1E1E1E1E1E1E1E1E1E1E1E1E1E1E1E1E1E1E1E1E1E1E1
310
E1E1E1E1E1E1E1E1E1E1E1E1E1E1E1E1E1E1E1E1E1E1E1E1E1E1E1E1E1E1E1E1E1E1E1E1E1E1E1E1E1E1E1E1E1E1E1E1E1E1E1E1E1E1E1E1E1E1E1E1E1E1E1E1E1E1E1E1E1E1E1E1E1E1E1E1E1E1E1E1E1E1E1E1E1E1E1E1E1E1E1E1E1E1E1E1E1E1E1E1E1E1E1E1E1E1E1E1E1E1E1E1E1E1E1E1E1E1E1E1E1E1E1E1E1E1E1
310
E1E1E1E1E1E1E1E1E1E1E1E1E1E1E1E1E1E1E1E1E1E1E1E1E1E1E1E1E1E1E1E1E1E1E1E1E1E1E1E1E1E1E1E1E1E1E1E1E1E1E1E1E1E1E1E1E1E1E1E1E1E1E1E1E1E1E1E1E1E1E1E1E1E1E1E1E1E1E1E1E1E1E1E1E1E1E1E1E1E1E1E1E1E1E1E1E1E1E1E1E1E1E1E1E1E1E1E1E1E1E1E1E1E1E1E1E1E1E1E1E1E1E1E1E1E1E1
310
E1E1E1E1E1E1E1E1E1E1E1E1E1E1E1E1E1E1E1E1E1E1E1E1E1E1E1E1E1E1E1E1E1E1E1E1E1E1E1E1E1E1E1E1E1E1E1E1E1E1E1E1E1E1E1E1E1E1E1E1E1E1E1E1E1E1E1E1E1E1E1E1E1E1E1E1E1E1E1E1E1E1E1E1E1E1E1E1E1E1E1E1E1E1E1E1E1E1E1E1E1E1E1E1E1E1E1E1E1E1E1E1E1E1E1E1E1E1E1E1E1E1E1E1E1E1E1
310
E1E1E1E1E1E1E1E1E1E1E1E1E1E1E1E1E1E1E1E1E1E1E1E1E1E1E1E1E1E1E1E1E1E1E1E1E1E1E1E1E1E1E1E1E1E1E1E1E1E1E1E1E1E1E1E1E1E1E1E1E1E1E1E1E1E1E1E1E1E1E1E1E1E1E1E1E1E1E1E1E1E1E1E1E1E1E1E1E1E1E1E1E1E1E1E1E1E1E1E1E1E1E1E1E1E1E1E1E1E1E1E1E1E1E1E1E1E1E1E1E1E1E1E1E1E1E1
310
E1E1E1E1E1E1E1E1E1E1E1E1E1E1E1E1E1E1E1E1E1E1E1E1E1E1E1E1E1E1E1E1E1E1E1E1E1E1E1E1E1E1E1E1E1E1E1E1E1E1E1E1E1E1E1E1E1E1E1E1E1E1E1E1E1E1E1E1E1E1E1E1E1E1E1E1E1E1E1E1E1E1E1E1E1E1E1E1E1E1E1E1E1E1E1E1E1E1E1E1E1E1E1E1E1E1E1E1E1E1E1E1E1E1E1E1E1E1E1E1E1E1E1E1E1E1E1
310
E1E1E1E1E1E1E1E1E1E1E1E1E1E1E1E1E1E1E1E1E1E1E1E1E1E1E1E1E1E1E1E1E1E1E1E1E1E1E1E1E1E1E1E1E1E1E1E1E1E1E1E1E1E1E1E1E1E1E1E1E1E1E1E1E1E1E1E1E1E1E1E1E1E1E1E1E1E1E1E1E1E1E1E1E1E1E1E1E1E1E1E1E1E1E1E1E1E1E1E1E1E1E1E1E1E1E1E1E1E1E1E1E1E1E1E1E1E1E1E1E1E1E1E1E1E1E1
310
E1E1E1E1E1E1E1E1E1E1E1E1E1E1E1E1E1E1E1E1E1E1E1E1E1E1E1E1E1E1E1E1E1E1E1E1E1E1E1E1E1E1E1E1E1E1E1E1E1E1E1E1E1E1E1E1E1E1E1E1E1E1E1E1E1E1E1E1E1E1E1E1E1E1E1E1E1E1E1E1E1E1E1E1E1E1E1E1E1E1E1E1E1E1E1E1E1E1E1E1E1E1E1E1E1E1E1E1E1E1E1E1E1E1E1E1E1E1E1E1E1E1E1E1E1E1E1
310
E1E1E1E1E1E1E1E1E1E1E1E1E1E1E1E1E1E1E1E1E1E1E1E1E1E1E1E1E1E1E1E1E1E1E1E1E1E1E1E1E1E1E1E1E1E1E1E1E1E1E1E1E1E1E1E1E1E1E1E1E1E1E1E1E1E1E1E1E1E1E1E1E1E1E1E1E1E1E1E1E1E1E1E1E1E1E1E1E1E1E1E1E1E1E1E1E1E1E1E1E1E1E1E1E1E1E1E1E1E1E1E1E1E1E1E1E1E1E1E1E1E1E1E1E1E1E1
310
E1E1E1E1E1E1E1E1E1E1E1E1E1E1E1E1E1E1E1E1E1E1E1E1E1E1E1E1E1E1E1E1E1E1E1E1E1E1E1E1E1E1E1E1E1E1E1E1E1E1E1E1E1E1E1E1E1E1E1E1E1E1E1E1E1E1E1E1E1E1E1E1E1E1E1E1E1E1E1E1E1E1E1E1E1E1E1E1E1E1E1E1E1E1E1E1E1E1E1E1E1E1E1E1E1E1E1E1E1E1E1E1E1E1E1E1E1E1E1E1E1E1E1E1E1E1E1
310
E1E1E1E1E1E1E1E1E1E1E1E1E1E1E1E1E1E1E1E1E1E1E1E1E1E1E1E1E1E1E1E1E1E1E1E1E1E1E1E1E1E1E1E1E1E1E1E1E1E1E1E1E1E1E1E1E1E1E1E1E1E1E1E1E1E1E1E1E1E1E1E1E1E1E1E1E1E1E1E1E1E1E1E1E1E1E1E1E1E1E1E1E1E1E1E1E1E1E1E1E1E1E1E1E1E1E1E1E1E1E1E1E1E1E1E1E1E1E1E1E1E1E1E1E1E1E1
310
E1E1E1E1E1E1E1E1E1E1E1E1E1E1E1E1E1E1E1E1E1E1E1E1E1E1E1E1E1E1E1E1E1E1E1E1E1E1E1E1E1E1E1E1E1E1E1E1E1E1E1E1E1E1E1E1E1E1E1E1E1E1E1E1E1E1E1E1E1E1E1E1E1E1E1E1E1E1E1E1E1E1E1E1E1E1E1E1E1E1E1E1E1E1E1E1E1E1E1E1E1E1E1E1E1E1E1E1E1E1E1E1E1E1E1E1E1E1E1E1E1E1E1E1E1E1E1
310
E1E1E1E1E1E1E1E1E1E1E1E1E1E1E1E1E1E1E1E1E1E1E1E1E1E1E1E1E1E1E1E1E1E1E1E1E1E1E1E1E1E1E1E1E1E1E1E1E1E1E1E1E1E1E1E1E1E1E1E1E1E1E1E1E1E1E1E1E1E1E1E1E1E1E1E1E1E1E1E1E1E1E1E1E1E1E1E1E1E1E1E1E1E1E1E1E1E1E1E1E1E1E1E1E1E1E1E1E1E1E1E1E1E1E1E1E1E1E1E1E1E1E1E1E1E1E1
310
E1E1E1E1E1E1E1E1E1E1E1E1E1E1E1E1E1E1E1E1E1E1E1E1E1E1E1E1E1E1E1E1E1E1E1E1E1E1E1E1E1E1E1E1E1E1E1E1E1E1E1E1E1E1E1E1E1E1E1E1E1E1E1E1E1E1E1E1E1E1E1E1E1E1E1E1E1E1E1E1E1E1E1E1E1E1E1E1E1E1E1E1E1E1E1E1E1E1E1E1E1E1E1E1E1E1E1E1E1E1E1E1E1E1E1E1E1E1E1E1E1E1E1E1E1E1E1
310
E1E1E1E1E1E1E1E1E1E1E1E1E1E1E1E1E1E1E1E1E1E1E1E1E1E1E1E1E1E1E1E1E1E1E1E1E1E1E1E1E1E1E1E1E1E1E1E1E1E1E1E1E1E1E1E1E1E1E1E1E1E1E1E1E1E1E1E1E1E1E1E1E1E1E1E1E1E1E1E1E1E1E1E1E1E1E1E1E1E1E1E1E1E1E1E1E1E1E1E1E1E1E1E1E1E1E1E1E1E1E1E1E1E1E1E1E1E1E1E1E1E1E1E1E1E1E1
310
E1E1E1E1E1E1E1E1E1E1E1E1E1E1E1E1E1E1E1E1E1E1E1E1E1E1E1E1E1E1E1E1E1E1E1E1E1E1E1E1E1E1E1E1E1E1E1E1E1E1E1E1E1E1E1E1E1E1E1E1E1E1E1E1E1E1E1E1E1E1E1E1E1E1E1E1E1E1E1E1E1E1E1E1E1E1E1E1E1E1E1E1E1E1E1E1E1E1E1E1E1E1E1E1E1E1E1E1E1E1E1E1E1E1E1E1E1E1E1E1E1E1E1E1E1E1E1
310
E1E1E1E1E1E1E1E1E1E1E1E1E1E1E1E1E1E1E1E1E1E1E1E1E1E1E1E1E1E1E1E1E1E1E1E1E1E1E1E1E1E1E1E1E1E1E1E1E1E1E1E1E1E1E1E1E1E1E1E1E1E1E1E1E1E1E1E1E1E1E1E1E1E1E1E1E1E1E1E1E1E1E1E1E1E1E1E1E1E1E1E1E1E1E1E1E1E1E1E1E1E1E1E1E1E1E1E1E1E1E1E1E1E1E1E1E1E1E1E1E1E1E1E1E1E1E1
310
E1E1E1E1E1E1E1E1E1E1E1E1E1E1E1E1E1E1E1E1E1E1E1E1E1E1E1E1E1E1E1E1E1E1E1E1E1E1E1E1E1E1E1E1E1E1E1E1E1E1E1E1E1E1E1E1E1E1E1E1E1E1E1E1E1E1E1E1E1E1E1E1E1E1E1E1E1E1E1E1E1E1E1E1E1E1E1E1E1E1E1E1E1E1E1E1E1E1E1E1E1E1E1E1E1E1E1E1E1E1E1E1E1E1E1E1E1E1E1E1E1E1E1E1E1E1E1
310
E1E1E1E1E1E1E1E1E1E1E1E1E1E1E1E1E1E1E1E1E1E1E1E1E1E1E1E1E1E1E1E1E1E1E1E1E1E1E1E1E1E1E1E1E1E1E1E1E1E1E1E1E1E1E1E1E1E1E1E1E1E1E1E1E1E1E1E1E1E1E1E1E1E1E1E1E1E1E1E1E1E1E1E1E1E1E1E1E1E1E1E1E1E1E1E1E1E1E1E1E1E1E1E1E1E1E1E1E1E1E1E1E1E1E1E1E1E1E1E1E1E1E1E1E1E1E1
310
E1E1E1E1E1E1E1E1E1E1E1E1E1E1E1E1E1E1E1E1E1E1E1E1E1E1E1E1E1E1E1E1E1E1E1E1E1E1E1E1E1E1E1E1E1E1E1E1E1E1E1E1E1E1E1E1E1E1E1E1E1E1E1E1E1E1E1E1E1E1E1E1E1E1E1E1E1E1E1E1E1E1E1E1E1E1E1E1E1E1E1E1E1E1E1E1E1E1E1E1E1E1E1E1E1E1E1E1E1E1E1E1E1E1E1E1E1E1E1E1E1E1E1E1E1E1E1
310
E1E1E1E1E1E1E1E1E1E1E1E1E1E1E1E1E1E1E1E1E1E1E1E1E1E1E1E1E1E1E1E1E1E1E1E1E1E1E1E1E1E1E1E1E1E1E1E1E1E1E1E1E1E1E1E1E1E1E1E1E1E1E1E1E1E1E1E1E1E1E1E1E1E1E1E1E1E1E1E1E1E1E1E1E1E1E1E1E1E1E1E1E1E1E1E1E1E1E1E1E1E1E1E1E1E1E1E1E1E1E1E1E1E1E1E1E1E1E1E1E1E1E1E1E1E1E1
310
E1E1E1E1E1E1E1E1E1E1E1E1E1E1E1E1E1E1E1E1E1E1E1E1E1E1E1E1E1E1E1E1E1E1E1E1E1E1E1E1E1E1E1E1E1E1E1E1E1E1E1E1E1E1E1E1E1E1E1E1E1E1E1E1E1E1E1E1E1E1E1E1E1E1E1E1E1E1E1E1E1E1E1E1E1E1E1E1E1E1E1E1E1E1E1E1E1E1E1E1E1E1E1E1E1E1E1E1E1E1E1E1E1E1E1E1E1E1E1E1E1E1E1E1E1E1E1
310
E1E1E1E1E1E1E1E1E1E1E1E1E1E1E1E1E1E1E1E1E1E1E1E1E1E1E1E1E1E1E1E1E1E1E1E1E1E1E1E1E1E1E1E1E1E1E1E1E1E1E1E1E1E1E1E1E1E1E1E1E1E1E1E1E1E1E1E1E1E1E1E1E1E1E1E1E1E1E1E1E1E1E1E1E1E1E1E1E1E1E1E1E1E1E1E1E1E1E1E1E1E1E1E1E1E1E1E1E1E1E1E1E1E1E1E1E1E1E1E1E1E1E1E1E1E1E1
310
E1E1E1E1E1E1E1E1E1E1E1E1E1E1E1E1E1E1E1E1E1E1E1E1E1E1E1E1E1E1E1E1E1E1E1E1E1E1E1E1E1E1E1E1E1E1E1E1E1E1E1E1E1E1E1E1E1E1E1E1E1E1E1E1E1E1E1E1E1E1E1E1E1E1E1E1E1E1E1E1E1E1E1E1E1E1E1E1E1E1E1E1E1E1E1E1E1E1E1E1E1E1E1E1E1E1E1E1E1E1E1E1E1E1E1E1E1E1E1E1E1E1E1E1E1E1E1
310
E1E1E1E1E1E1E1E1E1E1E1E1E1E1E1E1E1E1E1E1E1E1E1E1E1E1E1E1E1E1E1E1E1E1E1E1E1E1E1E1E1E1E1E1E1E1E1E1E1E1E1E1E1E1E1E1E1E1E1E1E1E1E1E1E1E1E1E1E1E1E1E1E1E1E1E1E1E1E1E1E1E1E1E1E1E1E1E1E1E1E1E1E1E1E1E1E1E1E1E1E1E1E1E1E1E1E1E1E1E1E1E1E1E1E1E1E1E1E1E1E1E1E1E1E1E1E1
310
E1E1E1E1E1E1E1E1E1E1E1E1E1E1E1E1E1E1E1E1E1E1E1E1E1E1E1E1E1E1E1E1E1E1E1E1E1E1E1E1E1E1E1E1E1E1E1E1E1E1E1E1E1E1E1E1E1E1E1E1E1E1E1E1E1E1E1E1E1E1E1E1E1E1E1E1E1E1E1E1E1E1E1E1E1E1E1E1E1E1E1E1E1E1E1E1E1E1E1E1E1E1E1E1E1E1E1E1E1E1E1E1E1E1E1E1E1E1E1E1E1E1E1E1E1E1E1
310
E1E1E1E1E1E1E1E1E1E1E1E1E1E1E1E1E1E1E1E1E1E1E1E1E1E1E1E1E1E1E1E1E1E1E1E1E1E1E1E1E1E1E1E1E1E1E1E1E1E1E1E1E1E1E1E1E1E1E1E1E1E1E1E1E1E1E1E1E1E1E1E1E1E1E1E1E1E1E1E1E1E1E1E1E1E1E1E1E1E1E1E1E1E1E1E1E1E1E1E1E1E1E1E1E1E1E1E1E1E1E1E1E1E1E1E1E1E1E1E1E1E1E1E1E1E1E1
310
E1E1E1E1E1E1E1E1E1E1E1E1E1E1E1E1E1E1E1E1E1E1E1E1E1E1E1E1E1E1E1E1E1E1E1E1E1E1E1E1E1E1E1E1E1E1E1E1E1E1E1E1E1E1E1E1E1E1E1E1E1E1E1E1E1E1E1E1E1E1E1E1E1E1E1E1E1E1E1E1E1E1E1E1E1E1E1E1E1E1E1E1E1E1E1E1E1E1E1E1E1E1E1E1E1E1E1E1E1E1E1E1E1E1E1E1E1E1E1E1E1E1E1E1E1E1E1
310
E1E1E1E1E1E1E1E1E1E1E1E1E1E1E1E1E1E1E1E1E1E1E1E1E1E1E1E1E1E1E1E1E1E1E1E1E1E1E1E1E1E1E1E1E1E1E1E1E1E1E1E1E1E1E1E1E1E1E1E1E1E1E1E1E1E1E1E1E1E1E1E1E1E1E1E1E1E1E1E1E1E1E1E1E1E1E1E1E1E1E1E1E1E1E1E1E1E1E1E1E1E1E1E1E1E1E1E1E1E1E1E1E1E1E1E1E1E1E1E1E1E1E1E1E1E1E1
310
E1E1E1E1E1E1E1E1E1E1E1E1E1E1E1E1E1E1E1E1E1E1E1E1E1E1E1E1E1E1E1E1E1E1E1E1E1E1E1E1E1E1E1E1E1E1E1E1E1E1E1E1E1E1E1E1E1E1E1E1E1E1E1E1E1E1E1E1E1E1E1E1E1E1E1E1E1E1E1E1E1E1E1E1E1E1E1E1E1E1E1E1E1E1E1E1E1E1E1E1E1E1E1E1E1E1E1E1E1E1E1E1E1E1E1E1E1E1E1E1E1E1E1E1E1E1E1
310
E1E1E1E1E1E1E1E1E1E1E1E1E1E1E1E1E1E1E1E1E1E1E1E1E1E1E1E1E1E1E1E1E1E1E1E1E1E1E1E1E1E1E1E1E1E1E1E1E1E1E1E1E1E1E1E1E1E1E1E1E1E1E1E1E1E1E1E1E1E1E1E1E1E1E1E1E1E1E1E1E1E1E1E1E1E1E1E1E1E1E1E1E1E1E1E1E1E1E1E1E1E1E1E1E1E1E1E1E1E1E1E1E1E1E1E1E1E1E1E1E1E1E1E1E1E1E1
310
E1E1E1E1E1E1E1E1E1E1E1E1E1E1E1E1E1E1E1E1E1E1E1E1E1E1E1E1E1E1E1E1E1E1E1E1E1E1E1E1E1E1E1E1E1E1E1E1E1E1E1E1E1E1E1E1E1E1E1E1E1E1E1E1E1E1E1E1E1E1E1E1E1E1E1E1E1E1E1E1E1E1E1E1E1E1E1E1E1E1E1E1E1E1E1E1E1E1E1E1E1E1E1E1E1E1E1E1E1E1E1E1E1E1E1E1E1E1E1E1E1E1E1E1E1E1E1
310
E1E1E1E1E1E1E1E1E1E1E1E1E1E1E1E1E1E1E1E1E1E1E1E1E1E1E1E1E1E1E1E1E1E1E1E1E1E1E1E1E1E1E1E1E1E1E1E1E1E1E1E1E1E1E1E1E1E1E1E1E1E1E1E1E1E1E1E1E1E1E1E1E1E1E1E1E1E1E1E1E1E1E1E1E1E1E1E1E1E1E1E1E1E1E1E1E1E1E1E1E1E1E1E1E1E1E1E1E1E1E1E1E1E1E1E1E1E1E1E1E1E1E1E1E1E1E1
310
E1E1E1E1E1E1E1E1E1E1E1E1E1E1E1E1E1E1E1E1E1E1E1E1E1E1E1E1E1E1E1E1E1E1E1E1E1E1E1E1E1E1E1E1E1E1E1E1E1E1E1E1E1E1E1E1E1E1E1E1E1E1E1E1E1E1E1E1E1E1E1E1E1E1E1E1E1E1E1E1E1E1E1E1E1E1E1E1E1E1E1E1E1E1E1E1E1E1E1E1E1E1E1E1E1E1E1E1E1E1E1E1E1E1E1E1E1E1E1E1E1E1E1E1E1E1E1
310
E1E1E1E1E1E1E1E1E1E1E1E1E1E1E1E1E1E1E1E1E1E1E1E1E1E1E1E1E1E1E1E1E1E1E1E1E1E1E1E1E1E1E1E1E1E1E1E1E1E1E1E1E1E1E1E1E1E1E1E1E1E1E1E1E1E1E1E1E1E1E1E1E1E1E1E1E1E1E1E1E1E1E1E1E1E1E1E1E1E1E1E1E1E1E1E1E1E1E1E1E1E1E1E1E1E1E1E1E1E1E1E1E1E1E1E1E1E1E1E1E1E1E1E1E1E1E1
310
E1E1E1E1E1E1E1E1E1E1E1E1E1E1E1E1E1E1E1E1E1E1E1E1E1E1E1E1E1E1E1E1E1E1E1E1E1E1E1E1E1E1E1E1E1E1E1E1E1E1E1E1E1E1E1E1E1E1E1E1E1E1E1E1E1E1E1E1E1E1E1E1E1E1E1E1E1E1E1E1E1E1E1E1E1E1E1E1E1E1E1E1E1E1E1E1E1E1E1E1E1E1E1E1E1E1E1E1E1E1E1E1E1E1E1E1E1E1E1E1E1E1E1E1E1E1E1
310
E1E1E1E1E1E1E1E1E1E1E1E1E1E1E1E1E1E1E1E1E1E1E1E1E1E1E1E1E1E1E1E1E1E1E1E1E1E1E1E1E1E1E1E1E1E1E1E1E1E1E1E1E1E1E1E1E1E1E1E1E1E1E1E1E1E1E1E1E1E1E1E1E1E1E1E1E1E1E1E1E1E1E1E1E1E1E1E1E1E1E1E1E1E1E1E1E1E1E1E1E1E1E1E1E1E1E1E1E1E1E1E1E1E1E1E1E1E1E1E1E1E1E1E1E1E1E1
310
E1E1E1E1E1E1E1E1E1E1E1E1E1E1E1E1E1E1E1E1E1E1E1E1E1E1E1E1E1E1E1E1E1E1E1E1E1E1E1E1E1E1E1E1E1E1E1E1E1E1E1E1E1E1E1E1E1E1E1E1E1E1E1E1E1E1E1E1E1E1E1E1E1E1E1E1E1E1E1E1E1E1E1E1E1E1E1E1E1E1E1E1E1E1E1E1E1E1E1E1E1E1E1E1E1E1E1E1E1E1E1E1E1E1E1E1E1E1E1E1E1E1E1E1E1E1E1
310
E1E1E1E1E1E1E1E1E1E1E1E1E1E1E1E1E1E1E1E1E1E1E1E1E1E1E1E1E1E1E1E1E1E1E1E1E1E1E1E1E1E1E1E1E1E1E1E1E1E1E1E1E1E1E1E1E1E1E1E1E1E1E1E1E1E1E1E1E1E1E1E1E1E1E1E1E1E1E1E1E1E1E1E1E1E1E1E1E1E1E1E1E1E1E1E1E1E1E1E1E1E1E1E1E1E1E1E1E1E1E1E1E1E1E1E1E1E1E1E1E1E1E1E1E1E1E1
310
E1E1E1E1E1E1E1E1E1E1E1E1E1E1E1E1E1E1E1E1E1E1E1E1E1E1E1E1E1E1E1E1E1E1E1E1E1E1E1E1E1E1E1E1E1E1E1E1E1E1E1E1E1E1E1E1E1E1E1E1E1E1E1E1E1E1E1E1E1E1E1E1E1E1E1E1E1E1E1E1E1E1E1E1E1E1E1E1E1E1E1E1E1E1E1E1E1E1E1E1E1E1E1E1E1E1E1E1E1E1E1E1E1E1E1E1E1E1E1E1E1E1E1E1E1E1E1
310
E1E1E1E1E1E1E1E1E1E1E1E1E1E1E1E1E1E1E1E1E1E1E1E1E1E1E1E1E1E1E1E1E1E1E1E1E1E1E1E1E1E1E1E1E1E1E1E1E1E1E1E1E1E1E1E1E1E1E1E1E1E1E1E1E1E1E1E1E1E1E1E1E1E1E1E1E1E1E1E1E1E1E1E1E1E1E1E1E1E1E1E1E1E1E1E1E1E1E1E1E1E1E1E1E1E1E1E1E1E1E1E1E1E1E1E1E1E1E1E1E1E1E1E1E1E1E1
310
E1E1E1E1E1E1E1E1E1E1E1E1E1E1E1E1E1E1E1E1E1E1E1E1E1E1E1E1E1E1E1E1E1E1E1E1E1E1E1E1E1E1E1E1E1E1E1E1E1E1E1E1E1E1E1E1E1E1E1E1E1E1E1E1E1E1E1E1E1E1E1E1E1E1E1E1E1E1E1E1E1E1E1E1E1E1E1E1E1E1E1E1E1E1E1E1E1E1E1E1E1E1E1E1E1E1E1E1E1E1E1E1E1E1E1E1E1E1E1E1E1E1E1E1E1E1E1
310
E1E1E1E1E1E1E1E1E1E1E1E1E1E1E1E1E1E1E1E1E1E1E1E1E1E1E1E1E1E1E1E1E1E1E1E1E1E1E1E1E1E1E1E1E1E1E1E1E1E1E1E1E1E1E1E1E1E1E1E1E1E1E1E1E1E1E1E1E1E1E1E1E1E1E1E1E1E1E1E1E1E1E1E1E1E1E1E1E1E1E1E1E1E1E1E1E1E1E1E1E1E1E1E1E1E1E1E1E1E1E1E1E1E1E1E1E1E1E1E1E1E1E1E1E1E1E1
310
E1E1E1E1E1E1E1E1E1E1E1E1E1E1E1E1E1E1E1E1E1E1E1E1E1E1E1E1E1E1E1E1E1E1E1E1E1E1E1E1E1E1E1E1E1E1E1E1E1E1E1E1E1E1E1E1E1E1E1E1E1E1E1E1E1E1E1E1E1E1E1E1E1E1E1E1E1E1E1E1E1E1E1E1E1E1E1E1E1E1E1E1E1E1E1E1E1E1E1E1E1E1E1E1E1E1E1E1E1E1E1E1E1E1E1E1E1E1E1E1E1E1E1E1E1E1E1
310
E1E1E1E1E1E1E1E1E1E1E1E1E1E1E1E1E1E1E1E1E1E1E1E1E1E1E1E1E1E1E1E1E1E1E1E1E1E1E1E1E1E1E1E1E1E1E1E1E1E1E1E1E1E1E1E1E1E1E1E1E1E1E1E1E1E1E1E1E1E1E1E1E1E1E1E1E1E1E1E1E1E1E1E1E1E1E1E1E1E1E1E1E1E1E1E1E1E1E1E1E1E1E1E1E1E1E1E1E1E1E1E1E1E1E1E1E1E1E1E1E1E1E1E1E1E1E1
310
E1E1E1E1E1E1E1E1E1E1E1E1E1E1E1E1E1E1E1E1E1E1E1E1E1E1E1E1E1E1E1E1E1E1E1E1E1E1E1E1E1E1E1E1E1E1E1E1E1E1E1E1E1E1E1E1E1E1E1E1E1E1E1E1E1E1E1E1E1E1E1E1E1E1E1E1E1E1E1E1E1E1E1E1E1E1E1E1E1E1E1E1E1E1E1E1E1E1E1E1E1E1E1E1E1E1E1E1E1E1E1E1E1E1E1E1E1E1E1E1E1E1E1E1E1E1E1
310
E1E1E1E1E1E1E1E1E1E1E1E1E1E1E1E1E1E1E1E1E1E1E1E1E1E1E1E1E1E1E1E1E1E1E1E1E1E1E1E1E1E1E1E1E1E1E1E1E1E1E1E1E1E1E1E1E1E1E1E1E1E1E1E1E1E1E1E1E1E1E1E1E1E1E1E1E1E1E1E1E1E1E1E1E1E1E1E1E1E1E1E1E1E1E1E1E1E1E1E1E1E1E1E1E1E1E1E1E1E1E1E1E1E1E1E1E1E1E1E1E1E1E1E1E1E1E1
310
E1E1E1E1E1E1E1E1E1E1E1E1E1E1E1E1E1E1E1E1E1E1E1E1E1E1E1E1E1E1E1E1E1E1E1E1E1E1E1E1E1E1E1E1E1E1E1E1E1E1E1E1E1E1E1E1E1E1E1E1E1E1E1E1E1E1E1E1E1E1E1E1E1E1E1E1E1E1E1E1E1E1E1E1E1E1E1E1E1E1E1E1E1E1E1E1E1E1E1E1E1E1E1E1E1E1E1E1E1E1E1E1E1E1E1E1E1E1E1E1E1E1E1E1E1E1E1
310
E1E1E1E1E1E1E1E1E1E1E1E1E1E1E1E1E1E1E1E1E1E1E1E1E1E1E1E1E1E1E1E1E1E1E1E1E1E1E1E1E1E1E1E1E1E1E1E1E1E1E1E1E1E1E1E1E1E1E1E1E1E1E1E1E1E1E1E1E1E1E1E1E1E1E1E1E1E1E1E1E1E1E1E1E1E1E1E1E1E1E1E1E1E1E1E1E1E1E1E1E1E1E1E1E1E1E1E1E1E1E1E1E1E1E1E1E1E1E1E1E1E1E1E1E1E1E1
310
E1E1E1E1E1E1E1E1E1E1E1E1E1E1E1E1E1E1E1E1E1E1E1E1E1E1E1E1E1E1E1E1E1E1E1E1E1E1E1E1E1E1E1E1E1E1E1E1E1E1E1E1E1E1E1E1E1E1E1E1E1E1E1E1E1E1E1E1E1E1E1E1E1E1E1E1E1E1E1E1E1E1E1E1E1E1E1E1E1E1E1E1E1E1E1E1E1E1E1E1E1E1E1E1E1E1E1E1E1E1E1E1E1E1E1E1E1E1E1E1E1E1E1E1E1E1E1
310
E1E1E1E1E1E1E1E1E1E1E1E1E1E1E1E1E1E1E1E1E1E1E1E1E1E1E1E1E1E1E1E1E1E1E1E1E1E1E1E1E1E1E1E1E1E1E1E1E1E1E1E1E1E1E1E1E1E1E1E1E1E1E1E1E1E1E1E1E1E1E1E1E1E1E1E1E1E1E1E1E1E1E1E1E1E1E1E1E1E1E1E1E1E1E1E1E1E1E1E1E1E1E1E1E1E1E1E1E1E1E1E1E1E1E1E1E1E1E1E1E1E1E1E1E1E1E1
310
E1E1E1E1E1E1E1E1E1E1E1E1E1E1E1E1E1E1E1E1E1E1E1E1E1E1E1E1E1E1E1E1E1E1E1E1E1E1E1E1E1E1E1E1E1E1E1E1E1E1E1E1E1E1E1E1E1E1E1E1E1E1E1E1E1E1E1E1E1E1E1E1E1E1E1E1E1E1E1E1E1E1E1E1E1E1E1E1E1E1E1E1E1E1E1E1E1E1E1E1E1E1E1E1E1E1E1E1E1E1E1E1E1E1E1E1E1E1E1E1E1E1E1E1E1E1E1
310
E1E1E1E1E1E1E1E1E1E1E1E1E1E1E1E1E1E1E1E1E1E1E1E1E1E1E1E1E1E1E1E1E1E1E1E1E1E1E1E1E1E1E1E1E1E1E1E1E1E1E1E1E1E1E1E1E1E1E1E1E1E1E1E1E1E1E1E1E1E1E1E1E1E1E1E1E1E1E1E1E1E1E1E1E1E1E1E1E1E1E1E1E1E1E1E1E1E1E1E1E1E1E1E1E1E1E1E1E1E1E1E1E1E1E1E1E1E1E1E1E1E1E1E1E1E1E1
310
E1E1E1E1E1E1E1E1E1E1E1E1E1E1E1E1E1E1E1E1E1E1E1E1E1E1E1E1E1E1E1E1E1E1E1E1E1E1E1E1E1E1E1E1E1E1E1E1E1E1E1E1E1E1E1E1E1E1E1E1E1E1E1E1E1E1E1E1E1E1E1E1E1E1E1E1E1E1E1E1E1E1E1E1E1E1E1E1E1E1E1E1E1E1E1E1E1E1E1E1E1E1E1E1E1E1E1E1E1E1E1E1E1E1E1E1E1E1E1E1E1E1E1E1E1E1E1
310
E1E1E1E1E1E1E1E1E1E1E1E1E1E1E1E1E1E1E1E1E1E1E1E1E1E1E1E1E1E1E1E1E1E1E1E1E1E1E1E1E1E1E1E1E1E1E1E1E1E1E1E1E1E1E1E1E1E1E1E1E1E1E1E1E1E1E1E1E1E1E1E1E1E1E1E1E1E1E1E1E1E1E1E1E1E1E1E1E1E1E1E1E1E1E1E1E1E1E1E1E1E1E1E1E1E1E1E1E1E1E1E1E1E1E1E1E1E1E1E1E1E1E1E1E1E1E1
310
E1E1E1E1E1E1E1E1E1E1E1E1E1E1E1E1E1E1E1E1E1E1E1E1E1E1E1E1E1E1E1E1E1E1E1E1E1E1E1E1E1E1E1E1E1E1E1E1E1E1E1E1E1E1E1E1E1E1E1E1E1E1E1E1E1E1E1E1E1E1E1E1E1E1E1E1E1E1E1E1E1E1E1E1E1E1E1E1E1E1E1E1E1E1E1E1E1E1E1E1E1E1E1E1E1E1E1E1E1E1E1E1E1E1E1E1E1E1E1E1E1E1E1E1E1E1E1
310
E1E1E1E1E1E1E1E1E1E1E1E1E1E1E1E1E1E1E1E1E1E1E1E1E1E1E1E1E1E1E1E1E1E1E1E1E1E1E1E1E1E1E1E1E1E1E1E1E1E1E1E1E1E1E1E1E1E1E1E1E1E1E1E1E1E1E1E1E1E1E1E1E1E1E1E1E1E1E1E1E1E1E1E1E1E1E1E1E1E1E1E1E1E1E1E1E1E1E1E1E1E1E1E1E1E1E1E1E1E1E1E1E1E1E1E1E1E1E1E1E1E1E1E1E1E1E1
310
E1E1E1E1E1E1E1E1E1E1E1E1E1E1E1E1E1E1E1E1E1E1E1E1E1E1E1E1E1E1E1E1E1E1E1E1E1E1E1E1E1E1E1E1E1E1E1E1E1E1E1E1E1E1E1E1E1E1E1E1E1E1E1E1E1E1E1E1E1E1E1E1E1E1E1E1E1E1E1E1E1E1E1E1E1E1E1E1E1E1E1E1E1E1E1E1E1E1E1E1E1E1E1E1E1E1E1E1E1E1E1E1E1E1E1E1E1E1E1E1E1E1E1E1E1E1E1
310
E1E1E1E1E1E1E1E1E1E1E1E1E1E1E1E1E1E1E1E1E1E1E1E1E1E1E1E1E1E1E1E1E1E1E1E1E1E1E1E1E1E1E1E1E1E1E1E1E1E1E1E1E1E1E1E1E1E1E1E1E1E1E1E1E1E1E1E1E1E1E1E1E1E1E1E1E1E1E1E1E1E1E1E1E1E1E1E1E1E1E1E1E1E1E1E1E1E1E1E1E1E1E1E1E1E1E1E1E1E1E1E1E1E1E1E1E1E1E1E1E1E1E1E1E1E1E1
310
E1E1E1E1E1E1E1E1E1E1E1E1E1E1E1E1E1E1E1E1E1E1E1E1E1E1E1E1E1E1E1E1E1E1E1E1E1E1E1E1E1E1E1E1E1E1E1E1E1E1E1E1E1E1E1E1E1E1E1E1E1E1E1E1E1E1E1E1E1E1E1E1E1E1E1E1E1E1E1E1E1E1E1E1E1E1E1E1E1E1E1E1E1E1E1E1E1E1E1E1E1E1E1E1E1E1E1E1E1E1E1E1E1E1E1E1E1E1E1E1E1E1E1E1E1E1E1
310
E1E1E1E1E1E1E1E1E1E1E1E1E1E1E1E1E1E1E1E1E1E1E1E1E1E1E1E1E1E1E1E1E1E1E1E1E1E1E1E1E1E1E1E1E1E1E1E1E1E1E1E1E1E1E1E1E1E1E1E1E1E1E1E1E1E1E1E1E1E1E1E1E1E1E1E1E1E1E1E1E1E1E1E1E1E1E1E1E1E1E1E1E1E1E1E1E1E1E1E1E1E1E1E1E1E1E1E1E1E1E1E1E1E1E1E1E1E1E1E1E1E1E1E1E1E1E1
310
E1E1E1E1E1E1E1E1E1E1E1E1E1E1E1E1E1E1E1E1E1E1E1E1E1E1E1E1E1E1E1E1E1E1E1E1E1E1E1E1E1E1E1E1E1E1E1E1E1E1E1E1E1E1E1E1E1E1E1E1E1E1E1E1E1E1E1E1E1E1E1E1E1E1E1E1E1E1E1E1E1E1E1E1E1E1E1E1E1E1E1E1E1E1E1E1E1E1E1E1E1E1E1E1E1E1E1E1E1E1E1E1E1E1E1E1E1E1E1E1E1E1E1E1E1E1E1
310
E1E1E1E1E1E1E1E1E1E1E1E1E1E1E1E1E1E1E1E1E1E1E1E1E1E1E1E1E1E1E1E1E1E1E1E1E1E1E1E1E1E1E1E1E1E1E1E1E1E1E1E1E1E1E1E1E1E1E1E1E1E1E1E1E1E1E1E1E1E1E1E1E1E1E1E1E1E1E1E1E1E1E1E1E1E1E1E1E1E1E1E1E1E1E1E1E1E1E1E1E1E1E1E1E1E1E1E1E1E1E1E1E1E1E1E1E1E1E1E1E1E1E1E1E1E1E1
310
E1E1E1E1E1E1E1E1E1E1E1E1E1E1E1E1E1E1E1E1E1E1E1E1E1E1E1E1E1E1E1E1E1E1E1E1E1E1E1E1E1E1E1E1E1E1E1E1E1E1E1E1E1E1E1E1E1E1E1E1E1E1E1E1E1E1E1E1E1E1E1E1E1E1E1E1E1E1E1E1E1E1E1E1E1E1E1E1E1E1E1E1E1E1E1E1E1E1E1E1E1E1E1E1E1E1E1E1E1E1E1E1E1E1E1E1E1E1E1E1E1E1E1E1E1E1E1
310
E1E1E1E1E1E1E1E1E1E1E1E1E1E1E1E1E1E1E1E1E1E1E1E1E1E1E1E1E1E1E1E1E1E1E1E1E1E1E1E1E1E1E1E1E1E1E1E1E1E1E1E1E1E1E1E1E1E1E1E1E1E1E1E1E1E1E1E1E1E1E1E1E1E1E1E1E1E1E1E1E1E1E1E1E1E1E1E1E1E1E1E1E1E1E1E1E1E1E1E1E1E1E1E1E1E1E1E1E1E1E1E1E1E1E1E1E1E1E1E1E1E1E1E1E1E1E1
310
E1E1E1E1E1E1E1E1E1E1E1E1E1E1E1E1E1E1E1E1E1E1E1E1E1E1E1E1E1E1E1E1E1E1E1E1E1E1E1E1E1E1E1E1E1E1E1E1E1E1E1E1E1E1E1E1E1E1E1E1E1E1E1E1E1E1E1E1E1E1E1E1E1E1E1E1E1E1E1E1E1E1E1E1E1E1E1E1E1E1E1E1E1E1E1E1E1E1E1E1E1E1E1E1E1E1E1E1E1E1E1E1E1E1E1E1E1E1E1E1E1E1E1E1E1E1E1
310
E1E1E1E1E1E1E1E1E1E1E1E1E1E1E1E1E1E1E1E1E1E1E1E1E1E1E1E1E1E1E1E1E1E1E1E1E1E1E1E1E1E1E1E1E1E1E1E1E1E1E1E1E1E1E1E1E1E1E1E1E1E1E1E1E1E1E1E1E1E1E1E1E1E1E1E1E1E1E1E1E1E1E1E1E1E1E1E1E1E1E1E1E1E1E1E1E1E1E1E1E1E1E1E1E1E1E1E1E1E1E1E1E1E1E1E1E1E1E1E1E1E1E1E1E1E1E1
310
E1E1E1E1E1E1E1E1E1E1E1E1E1E1E1E1E1E1E1E1E1E1E1E1E1E1E1E1E1E1E1E1E1E1E1E1E1E1E1E1E1E1E1E1E1E1E1E1E1E1E1E1E1E1E1E1E1E1E1E1E1E1E1E1E1E1E1E1E1E1E1E1E1E1E1E1E1E1E1E1E1E1E1E1E1E1E1E1E1E1E1E1E1E1E1E1E1E1E1E1E1E1E1E1E1E1E1E1E1E1E1E1E1E1E1E1E1E1E1E1E1E1E1E1E1E1E1
310
E1E1E1E1E1E1E1E1E1E1E1E1E1E1E1E1E1E1E1E1E1E1E1E1E1E1E1E1E1E1E1E1E1E1E1E1E1E1E1E1E1E1E1E1E1E1E1E1E1E1E1E1E1E1E1E1E1E1E1E1E1E1E1E1E1E1E1E1E1E1E1E1E1E1E1E1E1E1E1E1E1E1E1E1E1E1E1E1E1E1E1E1E1E1E1E1E1E1E1E1E1E1E1E1E1E1E1E1E1E1E1E1E1E1E1E1E1E1E1E1E1E1E1E1E1E1E1
310
E1E1E1E1E1E1E1E1E1E1E1E1E1E1E1E1E1E1E1E1E1E1E1E1E1E1E1E1E1E1E1E1E1E1E1E1E1E1E1E1E1E1E1E1E1E1E1E1E1E1E1E1E1E1E1E1E1E1E1E1E1E1E1E1E1E1E1E1E1E1E1E1E1E1E1E1E1E1E1E1E1E1E1E1E1E1E1E1E1E1E1E1E1E1E1E1E1E1E1E1E1E1E1E1E1E1E1E1E1E1E1E1E1E1E1E1E1E1E1E1E1E1E1E1E1E1E1
310
E1E1E1E1E1E1E1E1E1E1E1E1E1E1E1E1E1E1E1E1E1E1E1E1E1E1E1E1E1E1E1E1E1E1E1E1E1E1E1E1E1E1E1E1E1E1E1E1E1E1E1E1E1E1E1E1E1E1E1E1E1E1E1E1E1E1E1E1E1E1E1E1E1E1E1E1E1E1E1E1E1E1E1E1E1E1E1E1E1E1E1E1E1E1E1E1E1E1E1E1E1E1E1E1E1E1E1E1E1E1E1E1E1E1E1E1E1E1E1E1E1E1E1E1E1E1E1
310
E1E1E1E1E1E1E1E1E1E1E1E1E1E1E1E1E1E1E1E1E1E1E1E1E1E1E1E1E1E1E1E1E1E1E1E1E1E1E1E1E1E1E1E1E1E1E1E1E1E1E1E1E1E1E1E1E1E1E1E1E1E1E1E1E1E1E1E1E1E1E1E1E1E1E1E1E1E1E1E1E1E1E1E1E1E1E1E1E1E1E1E1E1E1E1E1E1E1E1E1E1E1E1E1E1E1E1E1E1E1E1E1E1E1E1E1E1E1E1E1E1E1E1E1E1E1E1
310
E1E1E1E1E1E1E1E1E1E1E1E1E1E1E1E1E1E1E1E1E1E1E1E1E1E1E1E1E1E1E1E1E1E1E1E1E1E1E1E1E1E1E1E1E1E1E1E1E1E1E1E1E1E1E1E1E1E1E1E1E1E1E1E1E1E1E1E1E1E1E1E1E1E1E1E1E1E1E1E1E1E1E1E1E1E1E1E1E1E1E1E1E1E1E1E1E1E1E1E1E1E1E1E1E1E1E1E1E1E1E1E1E1E1E1E1E1E1E1E1E1E1E1E1E1E1E1
310
E1E1E1E1E1E1E1E1E1E1E1E1E1E1E1E1E1E1E1E1E1E1E1E1E1E1E1E1E1E1E1E1E1E1E1E1E1E1E1E1E1E1E1E1E1E1E1E1E1E1E1E1E1E1E1E1E1E1E1E1E1E1E1E1E1E1E1E1E1E1E1E1E1E1E1E1E1E1E1E1E1E1E1E1E1E1E1E1E1E1E1E1E1E1E1E1E1E1E1E1E1E1E1E1E1E1E1E1E1E1E1E1E1E1E1E1E1E1E1E1E1E1E1E1E1E1E1
310
E1E1E1E1E1E1E1E1E1E1E1E1E1E1E1E1E1E1E1E1E1E1E1E1E1E1E1E1E1E1E1E1E1E1E1E1E1E1E1E1E1E1E1E1E1E1E1E1E1E1E1E1E1E1E1E1E1E1E1E1E1E1E1E1E1E1E1E1E1E1E1E1E1E1E1E1E1E1E1E1E1E1E1E1E1E1E1E1E1E1E1E1E1E1E1E1E1E1E1E1E1E1E1E1E1E1E1E1E1E1E1E1E1E1E1E1E1E1E1E1E1E1E1E1E1E1E1
310
E1E1E1E1E1E1E1E1E1E1E1E1E1E1E1E1E1E1E1E1E1E1E1E1E1E1E1E1E1E1E1E1E1E1E1E1E1E1E1E1E1E1E1E1E1E1E1E1E1E1E1E1E1E1E1E1E1E1E1E1E1E1E1E1E1E1E1E1E1E1E1E1E1E1E1E1E1E1E1E1E1E1E1E1E1E1E1E1E1E1E1E1E1E1E1E1E1E1E1E1E1E1E1E1E1E1E1E1E1E1E1E1E1E1E1E1E1E1E1E1E1E1E1E1E1E1E1
310
E1E1E1E1E1E1E1E1E1E1E1E1E1E1E1E1E1E1E1E1E1E1E1E1E1E1E1E1E1E1E1E1E1E1E1E1E1E1E1E1E1E1E1E1E1E1E1E1E1E1E1E1E1E1E1E1E1E1E1E1E1E1E1E1E1E1E1E1E1E1E1E1E1E1E1E1E1E1E1E1E1E1E1E1E1E1E1E1E1E1E1E1E1E1E1E1E1E1E1E1E1E1E1E1E1E1E1E1E1E1E1E1E1E1E1E1E1E1E1E1E1E1E1E1E1E1E1
310
E1E1E1E1E1E1E1E1E1E1E1E1E1E1E1E1E1E1E1E1E1E1E1E1E1E1E1E1E1E1E1E1E1E1E1E1E1E1E1E1E1E1E1E1E1E1E1E1E1E1E1E1E1E1E1E1E1E1E1E1E1E1E1E1E1E1E1E1E1E1E1E1E1E1E1E1E1E1E1E1E1E1E1E1E1E1E1E1E1E1E1E1E1E1E1E1E1E1E1E1E1E1E1E1E1E1E1E1E1E1E1E1E1E1E1E1E1E1E1E1E1E1E1E1E1E1E1
310
E1E1E1E1E1E1E1E1E1E1E1E1E1E1E1E1E1E1E1E1E1E1E1E1E1E1E1E1E1E1E1E1E1E1E1E1E1E1E1E1E1E1E1E1E1E1E1E1E1E1E1E1E1E1E1E1E1E1E1E1E1E1E1E1E1E1E1E1E1E1E1E1E1E1E1E1E1E1E1E1E1E1E1E1E1E1E1E1E1E1E1E1E1E1E1E1E1E1E1E1E1E1E1E1E1E1E1E1E1E1E1E1E1E1E1E1E1E1E1E1E1E1E1E1E1E1E1
310
E1E1E1E1E1E1E1E1E1E1E1E1E1E1E1E1E1E1E1E1E1E1E1E1E1E1E1E1E1E1E1E1E1E1E1E1E1E1E1E1E1E1E1E1E1E1E1E1E1E1E1E1E1E1E1E1E1E1E1E1E1E1E1E1E1E1E1E1E1E1E1E1E1E1E1E1E1E1E1E1E1E1E1E1E1E1E1E1E1E1E1E1E1E1E1E1E1E1E1E1E1E1E1E1E1E1E1E1E1E1E1E1E1E1E1E1E1E1E1E1E1E1E1E1E1E1E1
310
E1E1E1E1E1E1E1E1E1E1E1E1E1E1E1E1E1E1E1E1E1E1E1E1E1E1E1E1E1E1E1E1E1E1E1E1E1E1E1E1E1E1E1E1E1E1E1E1E1E1E1E1E1E1E1E1E1E1E1E1E1E1E1E1E1E1E1E1E1E1E1E1E1E1E1E1E1E1E1E1E1E1E1E1E1E1E1E1E1E1E1E1E1E1E1E1E1E1E1E1E1E1E1E1E1E1E1E1E1E1E1E1E1E1E1E1E1E1E1E1E1E1E1E1E1E1E1
310
E1E1E1E1E1E1E1E1E1E1E1E1E1E1E1E1E1E1E1E1E1E1E1E1E1E1E1E1E1E1E1E1E1E1E1E1E1E1E1E1E1E1E1E1E1E1E1E1E1E1E1E1E1E1E1E1E1E1E1E1E1E1E1E1E1E1E1E1E1E1E1E1E1E1E1E1E1E1E1E1E1E1E1E1E1E1E1E1E1E1E1E1E1E1E1E1E1E1E1E1E1E1E1E1E1E1E1E1E1E1E1E1E1E1E1E1E1E1E1E1E1E1E1E1E1E1E1
310
E1E1E1E1E1E1E1E1E1E1E1E1E1E1E1E1E1E1E1E1E1E1E1E1E1E1E1E1E1E1E1E1E1E1E1E1E1E1E1E1E1E1E1E1E1E1E1E1E1E1E1E1E1E1E1E1E1E1E1E1E1E1E1E1E1E1E1E1E1E1E1E1E1E1E1E1E1E1E1E1E1E1E1E1E1E1E1E1E1E1E1E1E1E1E1E1E1E1E1E1E1E1E1E1E1E1E1E1E1E1E1E1E1E1E1E1E1E1E1E1E1E1E1E1E1E1E1
310
E1E1E1E1E1E1E1E1E1E1E1E1E1E1E1E1E1E1E1E1E1E1E1E1E1E1E1E1E1E1E1E1E1E1E1E1E1E1E1E1E1E1E1E1E1E1E1E1E1E1E1E1E1E1E1E1E1E1E1E1E1E1E1E1E1E1E1E1E1E1E1E1E1E1E1E1E1E1E1E1E1E1E1E1E1E1E1E1E1E1E1E1E1E1E1E1E1E1E1E1E1E1E1E1E1E1E1E1E1E1E1E1E1E1E1E1E1E1E1E1E1E1E1E1E1E1E1
310
E1E1E1E1E1E1E1E1E1E1E1E1E1E1E1E1E1E1E1E1E1E1E1E1E1E1E1E1E1E1E1E1E1E1E1E1E1E1E1E1E1E1E1E1E1E1E1E1E1E1E1E1E1E1E1E1E1E1E1E1E1E1E1E1E1E1E1E1E1E1E1E1E1E1E1E1E1E1E1E1E1E1E1E1E1E1E1E1E1E1E1E1E1E1E1E1E1E1E1E1E1E1E1E1E1E1E1E1E1E1E1E1E1E1E1E1E1E1E1E1E1E1E1E1E1E1E1
310
E1E1E1E1E1E1E1E1E1E1E1E1E1E1E1E1E1E1E1E1E1E1E1E1E1E1E1E1E1E1E1E1E1E1E1E1E1E1E1E1E1E1E1E1E1E1E1E1E1E1E1E1E1E1E1E1E1E1E1E1E1E1E1E1E1E1E1E1E1E1E1E1E1E1E1E1E1E1E1E1E1E1E1E1E1E1E1E1E1E1E1E1E1E1E1E1E1E1E1E1E1E1E1E1E1E1E1E1E1E1E1E1E1E1E1E1E1E1E1E1E1E1E1E1E1E1E1
310
E1E1E1E1E1E1E1E1E1E1E1E1E1E1E1E1E1E1E1E1E1E1E1E1E1E1E1E1E1E1E1E1E1E1E1E1E1E1E1E1E1E1E1E1E1E1E1E1E1E1E1E1E1E1E1E1E1E1E1E1E1E1E1E1E1E1E1E1E1E1E1E1E1E1E1E1E1E1E1E1E1E1E1E1E1E1E1E1E1E1E1E1E1E1E1E1E1E1E1E1E1E1E1E1E1E1E1E1E1E1E1E1E1E1E1E1E1E1E1E1E1E1E1E1E1E1E1
310
E1E1E1E1E1E1E1E1E1E1E1E1E1E1E1E1E1E1E1E1E1E1E1E1E1E1E1E1E1E1E1E1E1E1E1E1E1E1E1E1E1E1E1E1E1E1E1E1E1E1E1E1E1E1E1E1E1E1E1E1E1E1E1E1E1E1E1E1E1E1E1E1E1E1E1E1E1E1E1E1E1E1E1E1E1E1E1E1E1E1E1E1E1E1E1E1E1E1E1E1E1E1E1E1E1E1E1E1E1E1E1E1E1E1E1E1E1E1E1E1E1E1E1E1E1E1E1
310
E1E1E1E1E1E1E1E1E1E1E1E1E1E1E1E1E1E1E1E1E1E1E1E1E1E1E1E1E1E1E1E1E1E1E1E1E1E1E1E1E1E1E1E1E1E1E1E1E1E1E1E1E1E1E1E1E1E1E1E1E1E1E1E1E1E1E1E1E1E1E1E1E1E1E1E1E1E1E1E1E1E1E1E1E1E1E1E1E1E1E1E1E1E1E1E1E1E1E1E1E1E1E1E1E1E1E1E1E1E1E1E1E1E1E1E1E1E1E1E1E1E1E1E1E1E1E1
310
E1E1E1E1E1E1E1E1E1E1E1E1E1E1E1E1E1E1E1E1E1E1E1E1E1E1E1E1E1E1E1E1E1E1E1E1E1E1E1E1E1E1E1E1E1E1E1E1E1E1E1E1E1E1E1E1E1E1E1E1E1E1E1E1E1E1E1E1E1E1E1E1E1E1E1E1E1E1E1E1E1E1E1E1E1E1E1E1E1E1E1E1E1E1E1E1E1E1E1E1E1E1E1E1E1E1E1E1E1E1E1E1E1E1E1E1E1E1E1E1E1E1E1E1E1E1E1
310
E1E1E1E1E1E1E1E1E1E1E1E1E1E1E1E1E1E1E1E1E1E1E1E1E1E1E1E1E1E1E1E1E1E1E1E1E1E1E1E1E1E1E1E1E1E1E1E1E1E1E1E1E1E1E1E1E1E1E1E1E1E1E1E1E1E1E1E1E1E1E1E1E1E1E1E1E1E1E1E1E1E1E1E1E1E1E1E1E1E1E1E1E1E1E1E1E1E1E1E1E1E1E1E1E1E1E1E1E1E1E1E1E1E1E1E1E1E1E1E1E1E1E1E1E1E1E1
310
E1E1E1E1E1E1E1E1E1E1E1E1E1E1E1E1E1E1E1E1E1E1E1E1E1E1E1E1E1E1E1E1E1E1E1E1E1E1E1E1E1E1E1E1E1E1E1E1E1E1E1E1E1E1E1E1E1E1E1E1E1E1E1E1E1E1E1E1E1E1E1E1E1E1E1E1E1E1E1E1E1E1E1E1E1E1E1E1E1E1E1E1E1E1E1E1E1E1E1E1E1E1E1E1E1E1E1E1E1E1E1E1E1E1E1E1E1E1E1E1E1E1E1E1E1E1E1
310
E1E1E1E1E1E1E1E1E1E1E1E1E1E1E1E1E1E1E1E1E1E1E1E1E1E1E1E1E1E1E1E1E1E1E1E1E1E1E1E1E1E1E1E1E1E1E1E1E1E1E1E1E1E1E1E1E1E1E1E1E1E1E1E1E1E1E1E1E1E1E1E1E1E1E1E1E1E1E1E1E1E1E1E1E1E1E1E1E1E1E1E1E1E1E1E1E1E1E1E1E1E1E1E1E1E1E1E1E1E1E1E1E1E1E1E1E1E1E1E1E1E1E1E1E1E1E1
310
E1E1E1E1E1E1E1E1E1E1E1E1E1E1E1E1E1E1E1E1E1E1E1E1E1E1E1E1E1E1E1E1E1E1E1E1E1E1E1E1E1E1E1E1E1E1E1E1E1E1E1E1E1E1E1E1E1E1E1E1E1E1E1E1E1E1E1E1E1E1E1E1E1E1E1E1E1E1E1E1E1E1E1E1E1E1E1E1E1E1E1E1E1E1E1E1E1E1E1E1E1E1E1E1E1E1E1E1E1E1E1E1E1E1E1E1E1E1E1E1E1E1E1E1E1E1E1
310
E1E1E1E1E1E1E1E1E1E1E1E1E1E1E1E1E1E1E1E1E1E1E1E1E1E1E1E1E1E1E1E1E1E1E1E1E1E1E1E1E1E1E1E1E1E1E1E1E1E1E1E1E1E1E1E1E1E1E1E1E1E1E1E1E1E1E1E1E1E1E1E1E1E1E1E1E1E1E1E1E1E1E1E1E1E1E1E1E1E1E1E1E1E1E1E1E1E1E1E1E1E1E1E1E1E1E1E1E1E1E1E1E1E1E1E1E1E1E1E1E1E1E1E1E1E1E1
310
E1E1E1E1E1E1E1E1E1E1E1E1E1E1E1E1E1E1E1E1E1E1E1E1E1E1E1E1E1E1E1E1E1E1E1E1E1E1E1E1E1E1E1E1E1E1E1E1E1E1E1E1E1E1E1E1E1E1E1E1E1E1E1E1E1E1E1E1E1E1E1E1E1E1E1E1E1E1E1E1E1E1E1E1E1E1E1E1E1E1E1E1E1E1E1E1E1E1E1E1E1E1E1E1E1E1E1E1E1E1E1E1E1E1E1E1E1E1E1E1E1E1E1E1E1E1E1
310
E1E1E1E1E1E1E1E1E1E1E1E1E1E1E1E1E1E1E1E1E1E1E1E1E1E1E1E1E1E1E1E1E1E1E1E1E1E1E1E1E1E1E1E1E1E1E1E1E1E1E1E1E1E1E1E1E1E1E1E1E1E1E1E1E1E1E1E1E1E1E1E1E1E1E1E1E1E1E1E1E1E1E1E1E1E1E1E1E1E1E1E1E1E1E1E1E1E1E1E1E1E1E1E1E1E1E1E1E1E1E1E1E1E1E1E1E1E1E1E1E1E1E1E1E1E1E1
310
E1E1E1E1E1E1E1E1E1E1E1E1E1E1E1E1E1E1E1E1E1E1E1E1E1E1E1E1E1E1E1E1E1E1E1E1E1E1E1E1E1E1E1E1E1E1E1E1E1E1E1E1E1E1E1E1E1E1E1E1E1E1E1E1E1E1E1E1E1E1E1E1E1E1E1E1E1E1E1E1E1E1E1E1E1E1E1E1E1E1E1E1E1E1E1E1E1E1E1E1E1E1E1E1E1E1E1E1E1E1E1E1E1E1E1E1E1E1E1E1E1E1E1E1E1E1E1
310
E1E1E1E1E1E1E1E1E1E1E1E1E1E1E1E1E1E1E1E1E1E1E1E1E1E1E1E1E1E1E1E1E1E1E1E1E1E1E1E1E1E1E1E1E1E1E1E1E1E1E1E1E1E1E1E1E1E1E1E1E1E1E1E1E1E1E1E1E1E1E1E1E1E1E1E1E1E1E1E1E1E1E1E1E1E1E1E1E1E1E1E1E1E1E1E1E1E1E1E1E1E1E1E1E1E1E1E1E1E1E1E1E1E1E1E1E1E1E1E1E1E1E1E1E1E1E1
310
E1E1E1E1E1E1E1E1E1E1E1E1E1E1E1E1E1E1E1E1E1E1E1E1E1E1E1E1E1E1E1E1E1E1E1E1E1E1E1E1E1E1E1E1E1E1E1E1E1E1E1E1E1E1E1E1E1E1E1E1E1E1E1E1E1E1E1E1E1E1E1E1E1E1E1E1E1E1E1E1E1E1E1E1E1E1E1E1E1E1E1E1E1E1E1E1E1E1E1E1E1E1E1E1E1E1E1E1E1E1E1E1E1E1E1E1E1E1E1E1E1E1E1E1E1E1E1
310
E1E1E1E1E1E1E1E1E1E1E1E1E1E1E1E1E1E1E1E1E1E1E1E1E1E1E1E1E1E1E1E1E1E1E1E1E1E1E1E1E1E1E1E1E1E1E1E1E1E1E1E1E1E1E1E1E1E1E1E1E1E1E1E1E1E1E1E1E1E1E1E1E1E1E1E1E1E1E1E1E1E1E1E1E1E1E1E1E1E1E1E1E1E1E1E1E1E1E1E1E1E1E1E1E1E1E1E1E1E1E1E1E1E1E1E1E1E1E1E1E1E1E1E1E1E1E1
310
E1E1E1E1E1E1E1E1E1E1E1E1E1E1E1E1E1E1E1E1E1E1E1E1E1E1E1E1E1E1E1E1E1E1E1E1E1E1E1E1E1E1E1E1E1E1E1E1E1E1E1E1E1E1E1E1E1E1E1E1E1E1E1E1E1E1E1E1E1E1E1E1E1E1E1E1E1E1E1E1E1E1E1E1E1E1E1E1E1E1E1E1E1E1E1E1E1E1E1E1E1E1E1E1E1E1E1E1E1E1E1E1E1E1E1E1E1E1E1E1E1E1E1E1E1E1E1
310
E1E1E1E1E1E1E1E1E1E1E1E1E1E1E1E1E1E1E1E1E1E1E1E1E1E1E1E1E1E1E1E1E1E1E1E1E1E1E1E1E1E1E1E1E1E1E1E1E1E1E1E1E1E1E1E1E1E1E1E1E1E1E1E1E1E1E1E1E1E1E1E1E1E1E1E1E1E1E1E1E1E1E1E1E1E1E1E1E1E1E1E1E1E1E1E1E1E1E1E1E1E1E1E1E1E1E1E1E1E1E1E1E1E1E1E1E1E1E1E1E1E1E1E1E1E1E1
310
E1E1E1E1E1E1E1E1E1E1E1E1E1E1E1E1E1E1E1E1E1E1E1E1E1E1E1E1E1E1E1E1E1E1E1E1E1E1E1E1E1E1E1E1E1E1E1E1E1E1E1E1E1E1E1E1E1E1E1E1E1E1E1E1E1E1E1E1E1E1E1E1E1E1E1E1E1E1E1E1E1E1E1E1E1E1E1E1E1E1E1E1E1E1E1E1E1E1E1E1E1E1E1E1E1E1E1E1E1E1E1E1E1E1E1E1E1E1E1E1E1E1E1E1E1E1E1
310
E1E1E1E1E1E1E1E1E1E1E1E1E1E1E1E1E1E1E1E1E1E1E1E1E1E1E1E1E1E1E1E1E1E1E1E1E1E1E1E1E1E1E1E1E1E1E1E1E1E1E1E1E1E1E1E1E1E1E1E1E1E1E1E1E1E1E1E1E1E1E1E1E1E1E1E1E1E1E1E1E1E1E1E1E1E1E1E1E1E1E1E1E1E1E1E1E1E1E1E1E1E1E1E1E1E1E1E1E1E1E1E1E1E1E1E1E1E1E1E1E1E1E1E1E1E1E1
310
E1E1E1E1E1E1E1E1E1E1E1E1E1E1E1E1E1E1E1E1E1E1E1E1E1E1E1E1E1E1E1E1E1E1E1E1E1E1E1E1E1E1E1E1E1E1E1E1E1E1E1E1E1E1E1E1E1E1E1E1E1E1E1E1E1E1E1E1E1E1E1E1E1E1E1E1E1E1E1E1E1E1E1E1E1E1E1E1E1E1E1E1E1E1E1E1E1E1E1E1E1E1E1E1E1E1E1E1E1E1E1E1E1E1E1E1E1E1E1E1E1E1E1E1E1E1E1
310
E1E1E1E1E1E1E1E1E1E1E1E1E1E1E1E1E1E1E1E1E1E1E1E1E1E1E1E1E1E1E1E1E1E1E1E1E1E1E1E1E1E1E1E1E1E1E1E1E1E1E1E1E1E1E1E1E1E1E1E1E1E1E1E1E1E1E1E1E1E1E1E1E1E1E1E1E1E1E1E1E1E1E1E1E1E1E1E1E1E1E1E1E1E1E1E1E1E1E1E1E1E1E1E1E1E1E1E1E1E1E1E1E1E1E1E1E1E1E1E1E1E1E1E1E1E1E1
310
E1E1E1E1E1E1E1E1E1E1E1E1E1E1E1E1E1E1E1E1E1E1E1E1E1E1E1E1E1E1E1E1E1E1E1E1E1E1E1E1E1E1E1E1E1E1E1E1E1E1E1E1E1E1E1E1E1E1E1E1E1E1E1E1E1E1E1E1E1E1E1E1E1E1E1E1E1E1E1E1E1E1E1E1E1E1E1E1E1E1E1E1E1E1E1E1E1E1E1E1E1E1E1E1E1E1E1E1E1E1E1E1E1E1E1E1E1E1E1E1E1E1E1E1E1E1E1
310
E1E1E1E1E1E1E1E1E1E1E1E1E1E1E1E1E1E1E1E1E1E1E1E1E1E1E1E1E1E1E1E1E1E1E1E1E1E1E1E1E1E1E1E1E1E1E1E1E1E1E1E1E1E1E1E1E1E1E1E1E1E1E1E1E1E1E1E1E1E1E1E1E1E1E1E1E1E1E1E1E1E1E1E1E1E1E1E1E1E1E1E1E1E1E1E1E1E1E1E1E1E1E1E1E1E1E1E1E1E1E1E1E1E1E1E1E1E1E1E1E1E1E1E1E1E1E1
310
E1E1E1E1E1E1E1E1E1E1E1E1E1E1E1E1E1E1E1E1E1E1E1E1E1E1E1E1E1E1E1E1E1E1E1E1E1E1E1E1E1E1E1E1E1E1E1E1E1E1E1E1E1E1E1E1E1E1E1E1E1E1E1E1E1E1E1E1E1E1E1E1E1E1E1E1E1E1E1E1E1E1E1E1E1E1E1E1E1E1E1E1E1E1E1E1E1E1E1E1E1E1E1E1E1E1E1E1E1E1E1E1E1E1E1E1E1E1E1E1E1E1E1E1E1E1E1
310
E1E1E1E1E1E1E1E1E1E1E1E1E1E1E1E1E1E1E1E1E1E1E1E1E1E1E1E1E1E1E1E1E1E1E1E1E1E1E1E1E1E1E1E1E1E1E1E1E1E1E1E1E1E1E1E1E1E1E1E1E1E1E1E1E1E1E1E1E1E1E1E1E1E1E1E1E1E1E1E1E1E1E1E1E1E1E1E1E1E1E1E1E1E1E1E1E1E1E1E1E1E1E1E1E1E1E1E1E1E1E1E1E1E1E1E1E1E1E1E1E1E1E1E1E1E1E1
310
E1E1E1E1E1E1E1E1E1E1E1E1E1E1E1E1E1E1E1E1E1E1E1E1E1E1E1E1E1E1E1E1E1E1E1E1E1E1E1E1E1E1E1E1E1E1E1E1E1E1E1E1E1E1E1E1E1E1E1E1E1E1E1E1E1E1E1E1E1E1E1E1E1E1E1E1E1E1E1E1E1E1E1E1E1E1E1E1E1E1E1E1E1E1E1E1E1E1E1E1E1E1E1E1E1E1E1E1E1E1E1E1E1E1E1E1E1E1E1E1E1E1E1E1E1E1E1
310
E1E1E1E1E1E1E1E1E1E1E1E1E1E1E1E1E1E1E1E1E1E1E1E1E1E1E1E1E1E1E1E1E1E1E1E1E1E1E1E1E1E1E1E1E1E1E1E1E1E1E1E1E1E1E1E1E1E1E1E1E1E1E1E1E1E1E1E1E1E1E1E1E1E1E1E1E1E1E1E1E1E1E1E1E1E1E1E1E1E1E1E1E1E1E1E1E1E1E1E1E1E1E1E1E1E1E1E1E1E1E1E1E1E1E1E1E1E1E1E1E1E1E1E1E1E1E1
310
E1E1E1E1E1E1E1E1E1E1E1E1E1E1E1E1E1E1E1E1E1E1E1E1E1E1E1E1E1E1E1E1E1E1E1E1E1E1E1E1E1E1E1E1E1E1E1E1E1E1E1E1E1E1E1E1E1E1E1E1E1E1E1E1E1E1E1E1E1E1E1E1E1E1E1E1E1E1E1E1E1E1E1E1E1E1E1E1E1E1E1E1E1E1E1E1E1E1E1E1E1E1E1E1E1E1E1E1E1E1E1E1E1E1E1E1E1E1E1E1E1E1E1E1E1E1E1
310
E1E1E1E1E1E1E1E1E1E1E1E1E1E1E1E1E1E1E1E1E1E1E1E1E1E1E1E1E1E1E1E1E1E1E1E1E1E1E1E1E1E1E1E1E1E1E1E1E1E1E1E1E1E1E1E1E1E1E1E1E1E1E1E1E1E1E1E1E1E1E1E1E1E1E1E1E1E1E1E1E1E1E1E1E1E1E1E1E1E1E1E1E1E1E1E1E1E1E1E1E1E1E1E1E1E1E1E1E1E1E1E1E1E1E1E1E1E1E1E1E1E1E1E1E1E1E1
310
E1E1E1E1E1E1E1E1E1E1E1E1E1E1E1E1E1E1E1E1E1E1E1E1E1E1E1E1E1E1E1E1E1E1E1E1E1E1E1E1E1E1E1E1E1E1E1E1E1E1E1E1E1E1E1E1E1E1E1E1E1E1E1E1E1E1E1E1E1E1E1E1E1E1E1E1E1E1E1E1E1E1E1E1E1E1E1E1E1E1E1E1E1E1E1E1E1E1E1E1E1E1E1E1E1E1E1E1E1E1E1E1E1E1E1E1E1E1E1E1E1E1E1E1E1E1E1
310
E1E1E1E1E1E1E1E1E1E1E1E1E1E1E1E1E1E1E1E1E1E1E1E1E1E1E1E1E1E1E1E1E1E1E1E1E1E1E1E1E1E1E1E1E1E1E1E1E1E1E1E1E1E1E1E1E1E1E1E1E1E1E1E1E1E1E1E1E1E1E1E1E1E1E1E1E1E1E1E1E1E1E1E1E1E1E1E1E1E1E1E1E1E1E1E1E1E1E1E1E1E1E1E1E1E1E1E1E1E1E1E1E1E1E1E1E1E1E1E1E1E1E1E1E1E1E1
310
E1E1E1E1E1E1E1E1E1E1E1E1E1E1E1E1E1E1E1E1E1E1E1E1E1E1E1E1E1E1E1E1E1E1E1E1E1E1E1E1E1E1E1E1E1E1E1E1E1E1E1E1E1E1E1E1E1E1E1E1E1E1E1E1E1E1E1E1E1E1E1E1E1E1E1E1E1E1E1E1E1E1E1E1E1E1E1E1E1E1E1E1E1E1E1E1E1E1E1E1E1E1E1E1E1E1E1E1E1E1E1E1E1E1E1E1E1E1E1E1E1E1E1E1E1E1E1
310
E1E1E1E1E1E1E1E1E1E1E1E1E1E1E1E1E1E1E1E1E1E1E1E1E1E1E1E1E1E1E1E1E1E1E1E1E1E1E1E1E1E1E1E1E1E1E1E1E1E1E1E1E1E1E1E1E1E1E1E1E1E1E1E1E1E1E1E1E1E1E1E1E1E1E1E1E1E1E1E1E1E1E1E1E1E1E1E1E1E1E1E1E1E1E1E1E1E1E1E1E1E1E1E1E1E1E1E1E1E1E1E1E1E1E1E1E1E1E1E1E1E1E1E1E1E1E1
310
E1E1E1E1E1E1E1E1E1E1E1E1E1E1E1E1E1E1E1E1E1E1E1E1E1E1E1E1E1E1E1E1E1E1E1E1E1E1E1E1E1E1E1E1E1E1E1E1E1E1E1E1E1E1E1E1E1E1E1E1E1E1E1E1E1E1E1E1E1E1E1E1E1E1E1E1E1E1E1E1E1E1E1E1E1E1E1E1E1E1E1E1E1E1E1E1E1E1E1E1E1E1E1E1E1E1E1E1E1E1E1E1E1E1E1E1E1E1E1E1E1E1E1E1E1E1E1
310
E1E1E1E1E1E1E1E1E1E1E1E1E1E1E1E1E1E1E1E1E1E1E1E1E1E1E1E1E1E1E1E1E1E1E1E1E1E1E1E1E1E1E1E1E1E1E1E1E1E1E1E1E1E1E1E1E1E1E1E1E1E1E1E1E1E1E1E1E1E1E1E1E1E1E1E1E1E1E1E1E1E1E1E1E1E1E1E1E1E1E1E1E1E1E1E1E1E1E1E1E1E1E1E1E1E1E1E1E1E1E1E1E1E1E1E1E1E1E1E1E1E1E1E1E1E1E1
310
E1E1E1E1E1E1E1E1E1E1E1E1E1E1E1E1E1E1E1E1E1E1E1E1E1E1E1E1E1E1E1E1E1E1E1E1E1E1E1E1E1E1E1E1E1E1E1E1E1E1E1E1E1E1E1E1E1E1E1E1E1E1E1E1E1E1E1E1E1E1E1E1E1E1E1E1E1E1E1E1E1E1E1E1E1E1E1E1E1E1E1E1E1E1E1E1E1E1E1E1E1E1E1E1E1E1E1E1E1E1E1E1E1E1E1E1E1E1E1E1E1E1E1E1E1E1E1
310
E1E1E1E1E1E1E1E1E1E1E1E1E1E1E1E1E1E1E1E1E1E1E1E1E1E1E1E1E1E1E1E1E1E1E1E1E1E1E1E1E1E1E1E1E1E1E1E1E1E1E1E1E1E1E1E1E1E1E1E1E1E1E1E1E1E1E1E1E1E1E1E1E1E1E1E1E1E1E1E1E1E1E1E1E1E1E1E1E1E1E1E1E1E1E1E1E1E1E1E1E1E1E1E1E1E1E1E1E1E1E1E1E1E1E1E1E1E1E1E1E1E1E1E1E1E1E1
310
E1E1E1E1E1E1E1E1E1E1E1E1E1E1E1E1E1E1E1E1E1E1E1E1E1E1E1E1E1E1E1E1E1E1E1E1E1E1E1E1E1E1E1E1E1E1E1E1E1E1E1E1E1E1E1E1E1E1E1E1E1E1E1E1E1E1E1E1E1E1E1E1E1E1E1E1E1E1E1E1E1E1E1E1E1E1E1E1E1E1E1E1E1E1E1E1E1E1E1E1E1E1E1E1E1E1E1E1E1E1E1E1E1E1E1E1E1E1E1E1E1E1E1E1E1E1E1
310
E1E1E1E1E1E1E1E1E1E1E1E1E1E1E1E1E1E1E1E1E1E1E1E1E1E1E1E1E1E1E1E1E1E1E1E1E1E1E1E1E1E1E1E1E1E1E1E1E1E1E1E1E1E1E1E1E1E1E1E1E1E1E1E1E1E1E1E1E1E1E1E1E1E1E1E1E1E1E1E1E1E1E1E1E1E1E1E1E1E1E1E1E1E1E1E1E1E1E1E1E1E1E1E1E1E1E1E1E1E1E1E1E1E1E1E1E1E1E1E1E1E1E1E1E1E1E1
310
E1E1E1E1E1E1E1E1E1E1E1E1E1E1E1E1E1E1E1E1E1E1E1E1E1E1E1E1E1E1E1E1E1E1E1E1E1E1E1E1E1E1E1E1E1E1E1E1E1E1E1E1E1E1E1E1E1E1E1E1E1E1E1E1E1E1E1E1E1E1E1E1E1E1E1E1E1E1E1E1E1E1E1E1E1E1E1E1E1E1E1E1E1E1E1E1E1E1E1E1E1E1E1E1E1E1E1E1E1E1E1E1E1E1E1E1E1E1E1E1E1E1E1E1E1E1E1
310
E1E1E1E1E1E1E1E1E1E1E1E1E1E1E1E1E1E1E1E1E1E1E1E1E1E1E1E1E1E1E1E1E1E1E1E1E1E1E1E1E1E1E1E1E1E1E1E1E1E1E1E1E1E1E1E1E1E1E1E1E1E1E1E1E1E1E1E1E1E1E1E1E1E1E1E1E1E1E1E1E1E1E1E1E1E1E1E1E1E1E1E1E1E1E1E1E1E1E1E1E1E1E1E1E1E1E1E1E1E1E1E1E1E1E1E1E1E1E1E1E1E1E1E1E1E1E1
310
E1E1E1E1E1E1E1E1E1E1E1E1E1E1E1E1E1E1E1E1E1E1E1E1E1E1E1E1E1E1E1E1E1E1E1E1E1E1E1E1E1E1E1E1E1E1E1E1E1E1E1E1E1E1E1E1E1E1E1E1E1E1E1E1E1E1E1E1E1E1E1E1E1E1E1E1E1E1E1E1E1E1E1E1E1E1E1E1E1E1E1E1E1E1E1E1E1E1E1E1E1E1E1E1E1E1E1E1E1E1E1E1E1E1E1E1E1E1E1E1E1E1E1E1E1E1E1
310
E1E1E1E1E1E1E1E1E1E1E1E1E1E1E1E1E1E1E1E1E1E1E1E1E1E1E1E1E1E1E1E1E1E1E1E1E1E1E1E1E1E1E1E1E1E1E1E1E1E1E1E1E1E1E1E1E1E1E1E1E1E1E1E1E1E1E1E1E1E1E1E1E1E1E1E1E1E1E1E1E1E1E1E1E1E1E1E1E1E1E1E1E1E1E1E1E1E1E1E1E1E1E1E1E1E1E1E1E1E1E1E1E1E1E1E1E1E1E1E1E1E1E1E1E1E1E1
310
E1E1E1E1E1E1E1E1E1E1E1E1E1E1E1E1E1E1E1E1E1E1E1E1E1E1E1E1E1E1E1E1E1E1E1E1E1E1E1E1E1E1E1E1E1E1E1E1E1E1E1E1E1E1E1E1E1E1E1E1E1E1E1E1E1E1E1E1E1E1E1E1E1E1E1E1E1E1E1E1E1E1E1E1E1E1E1E1E1E1E1E1E1E1E1E1E1E1E1E1E1E1E1E1E1E1E1E1E1E1E1E1E1E1E1E1E1E1E1E1E1E1E1E1E1E1E1
310
E1E1E1E1E1E1E1E1E1E1E1E1E1E1E1E1E1E1E1E1E1E1E1E1E1E1E1E1E1E1E1E1E1E1E1E1E1E1E1E1E1E1E1E1E1E1E1E1E1E1E1E1E1E1E1E1E1E1E1E1E1E1E1E1E1E1E1E1E1E1E1E1E1E1E1E1E1E1E1E1E1E1E1E1E1E1E1E1E1E1E1E1E1E1E1E1E1E1E1E1E1E1E1E1E1E1E1E1E1E1E1E1E1E1E1E1E1E1E1E1E1E1E1E1E1E1E1
310
E1E1E1E1E1E1E1E1E1E1E1E1E1E1E1E1E1E1E1E1E1E1E1E1E1E1E1E1E1E1E1E1E1E1E1E1E1E1E1E1E1E1E1E1E1E1E1E1E1E1E1E1E1E1E1E1E1E1E1E1E1E1E1E1E1E1E1E1E1E1E1E1E1E1E1E1E1E1E1E1E1E1E1E1E1E1E1E1E1E1E1E1E1E1E1E1E1E1E1E1E1E1E1E1E1E1E1E1E1E1E1E1E1E1E1E1E1E1E1E1E1E1E1E1E1E1E1
310
E1E1E1E1E1E1E1E1E1E1E1E1E1E1E1E1E1E1E1E1E1E1E1E1E1E1E1E1E1E1E1E1E1E1E1E1E1E1E1E1E1E1E1E1E1E1E1E1E1E1E1E1E1E1E1E1E1E1E1E1E1E1E1E1E1E1E1E1E1E1E1E1E1E1E1E1E1E1E1E1E1E1E1E1E1E1E1E1E1E1E1E1E1E1E1E1E1E1E1E1E1E1E1E1E1E1E1E1E1E1E1E1E1E1E1E1E1E1E1E1E1E1E1E1E1E1E1
310
E1E1E1E1E1E1E1E1E1E1E1E1E1E1E1E1E1E1E1E1E1E1E1E1E1E1E1E1E1E1E1E1E1E1E1E1E1E1E1E1E1E1E1E1E1E1E1E1E1E1E1E1E1E1E1E1E1E1E1E1E1E1E1E1E1E1E1E1E1E1E1E1E1E1E1E1E1E1E1E1E1E1E1E1E1E1E1E1E1E1E1E1E1E1E1E1E1E1E1E1E1E1E1E1E1E1E1E1E1E1E1E1E1E1E1E1E1E1E1E1E1E1E1E1E1E1E1
310
E1E1E1E1E1E1E1E1E1E1E1E1E1E1E1E1E1E1E1E1E1E1E1E1E1E1E1E1E1E1E1E1E1E1E1E1E1E1E1E1E1E1E1E1E1E1E1E1E1E1E1E1E1E1E1E1E1E1E1E1E1E1E1E1E1E1E1E1E1E1E1E1E1E1E1E1E1E1E1E1E1E1E1E1E1E1E1E1E1E1E1E1E1E1E1E1E1E1E1E1E1E1E1E1E1E1E1E1E1E1E1E1E1E1E1E1E1E1E1E1E1E1E1E1E1E1E1
310
E1E1E1E1E1E1E1E1E1E1E1E1E1E1E1E1E1E1E1E1E1E1E1E1E1E1E1E1E1E1E1E1E1E1E1E1E1E1E1E1E1E1E1E1E1E1E1E1E1E1E1E1E1E1E1E1E1E1E1E1E1E1E1E1E1E1E1E1E1E1E1E1E1E1E1E1E1E1E1E1E1E1E1E1E1E1E1E1E1E1E1E1E1E1E1E1E1E1E1E1E1E1E1E1E1E1E1E1E1E1E1E1E1E1E1E1E1E1E1E1E1E1E1E1E1E1E1
310
E1E1E1E1E1E1E1E1E1E1E1E1E1E1E1E1E1E1E1E1E1E1E1E1E1E1E1E1E1E1E1E1E1E1E1E1E1E1E1E1E1E1E1E1E1E1E1E1E1E1E1E1E1E1E1E1E1E1E1E1E1E1E1E1E1E1E1E1E1E1E1E1E1E1E1E1E1E1E1E1E1E1E1E1E1E1E1E1E1E1E1E1E1E1E1E1E1E1E1E1E1E1E1E1E1E1E1E1E1E1E1E1E1E1E1E1E1E1E1E1E1E1E1E1E1E1E1
310
E1E1E1E1E1E1E1E1E1E1E1E1E1E1E1E1E1E1E1E1E1E1E1E1E1E1E1E1E1E1E1E1E1E1E1E1E1E1E1E1E1E1E1E1E1E1E1E1E1E1E1E1E1E1E1E1E1E1E1E1E1E1E1E1E1E1E1E1E1E1E1E1E1E1E1E1E1E1E1E1E1E1E1E1E1E1E1E1E1E1E1E1E1E1E1E1E1E1E1E1E1E1E1E1E1E1E1E1E1E1E1E1E1E1E1E1E1E1E1E1E1E1E1E1E1E1E1
310
E1E1E1E1E1E1E1E1E1E1E1E1E1E1E1E1E1E1E1E1E1E1E1E1E1E1E1E1E1E1E1E1E1E1E1E1E1E1E1E1E1E1E1E1E1E1E1E1E1E1E1E1E1E1E1E1E1E1E1E1E1E1E1E1E1E1E1E1E1E1E1E1E1E1E1E1E1E1E1E1E1E1E1E1E1E1E1E1E1E1E1E1E1E1E1E1E1E1E1E1E1E1E1E1E1E1E1E1E1E1E1E1E1E1E1E1E1E1E1E1E1E1E1E1E1E1E1
310
E1E1E1E1E1E1E1E1E1E1E1E1E1E1E1E1E1E1E1E1E1E1E1E1E1E1E1E1E1E1E1E1E1E1E1E1E1E1E1E1E1E1E1E1E1E1E1E1E1E1E1E1E1E1E1E1E1E1E1E1E1E1E1E1E1E1E1E1E1E1E1E1E1E1E1E1E1E1E1E1E1E1E1E1E1E1E1E1E1E1E1E1E1E1E1E1E1E1E1E1E1E1E1E1E1E1E1E1E1E1E1E1E1E1E1E1E1E1E1E1E1E1E1E1E1E1E1
310
E1E1E1E1E1E1E1E1E1E1E1E1E1E1E1E1E1E1E1E1E1E1E1E1E1E1E1E1E1E1E1E1E1E1E1E1E1E1E1E1E1E1E1E1E1E1E1E1E1E1E1E1E1E1E1E1E1E1E1E1E1E1E1E1E1E1E1E1E1E1E1E1E1E1E1E1E1E1E1E1E1E1E1E1E1E1E1E1E1E1E1E1E1E1E1E1E1E1E1E1E1E1E1E1E1E1E1E1E1E1E1E1E1E1E1E1E1E1E1E1E1E1E1E1E1E1E1
310
E1E1E1E1E1E1E1E1E1E1E1E1E1E1E1E1E1E1E1E1E1E1E1E1E1E1E1E1E1E1E1E1E1E1E1E1E1E1E1E1E1E1E1E1E1E1E1E1E1E1E1E1E1E1E1E1E1E1E1E1E1E1E1E1E1E1E1E1E1E1E1E1E1E1E1E1E1E1E1E1E1E1E1E1E1E1E1E1E1E1E1E1E1E1E1E1E1E1E1E1E1E1E1E1E1E1E1E1E1E1E1E1E1E1E1E1E1E1E1E1E1E1E1E1E1E1E1
310
E1E1E1E1E1E1E1E1E1E1E1E1E1E1E1E1E1E1E1E1E1E1E1E1E1E1E1E1E1E1E1E1E1E1E1E1E1E1E1E1E1E1E1E1E1E1E1E1E1E1E1E1E1E1E1E1E1E1E1E1E1E1E1E1E1E1E1E1E1E1E1E1E1E1E1E1E1E1E1E1E1E1E1E1E1E1E1E1E1E1E1E1E1E1E1E1E1E1E1E1E1E1E1E1E1E1E1E1E1E1E1E1E1E1E1E1E1E1E1E1E1E1E1E1E1E1E1
310
E1E1E1E1E1E1E1E1E1E1E1E1E1E1E1E1E1E1E1E1E1E1E1E1E1E1E1E1E1E1E1E1E1E1E1E1E1E1E1E1E1E1E1E1E1E1E1E1E1E1E1E1E1E1E1E1E1E1E1E1E1E1E1E1E1E1E1E1E1E1E1E1E1E1E1E1E1E1E1E1E1E1E1E1E1E1E1E1E1E1E1E1E1E1E1E1E1E1E1E1E1E1E1E1E1E1E1E1E1E1E1E1E1E1E1E1E1E1E1E1E1E1E1E1E1E1E1
310
E1E1E1E1E1E1E1E1E1E1E1E1E1E1E1E1E1E1E1E1E1E1E1E1E1E1E1E1E1E1E1E1E1E1E1E1E1E1E1E1E1E1E1E1E1E1E1E1E1E1E1E1E1E1E1E1E1E1E1E1E1E1E1E1E1E1E1E1E1E1E1E1E1E1E1E1E1E1E1E1E1E1E1E1E1E1E1E1E1E1E1E1E1E1E1E1E1E1E1E1E1E1E1E1E1E1E1E1E1E1E1E1E1E1E1E1E1E1E1E1E1E1E1E1E1E1E1
310
E1E1E1E1E1E1E1E1E1E1E1E1E1E1E1E1E1E1E1E1E1E1E1E1E1E1E1E1E1E1E1E1E1E1E1E1E1E1E1E1E1E1E1E1E1E1E1E1E1E1E1E1E1E1E1E1E1E1E1E1E1E1E1E1E1E1E1E1E1E1E1E1E1E1E1E1E1E1E1E1E1E1E1E1E1E1E1E1E1E1E1E1E1E1E1E1E1E1E1E1E1E1E1E1E1E1E1E1E1E1E1E1E1E1E1E1E1E1E1E1E1E1E1E1E1E1E1
310
E1E1E1E1E1E1E1E1E1E1E1E1E1E1E1E1E1E1E1E1E1E1E1E1E1E1E1E1E1E1E1E1E1E1E1E1E1E1E1E1E1E1E1E1E1E1E1E1E1E1E1E1E1E1E1E1E1E1E1E1E1E1E1E1E1E1E1E1E1E1E1E1E1E1E1E1E1E1E1E1E1E1E1E1E1E1E1E1E1E1E1E1E1E1E1E1E1E1E1E1E1E1E1E1E1E1E1E1E1E1E1E1E1E1E1E1E1E1E1E1E1E1E1E1E1E1E1
310
E1E1E1E1E1E1E1E1E1E1E1E1E1E1E1E1E1E1E1E1E1E1E1E1E1E1E1E1E1E1E1E1E1E1E1E1E1E1E1E1E1E1E1E1E1E1E1E1E1E1E1E1E1E1E1E1E1E1E1E1E1E1E1E1E1E1E1E1E1E1E1E1E1E1E1E1E1E1E1E1E1E1E1E1E1E1E1E1E1E1E1E1E1E1E1E1E1E1E1E1E1E1E1E1E1E1E1E1E1E1E1E1E1E1E1E1E1E1E1E1E1E1E1E1E1E1E1
310
E1E1E1E1E1E1E1E1E1E1E1E1E1E1E1E1E1E1E1E1E1E1E1E1E1E1E1E1E1E1E1E1E1E1E1E1E1E1E1E1E1E1E1E1E1E1E1E1E1E1E1E1E1E1E1E1E1E1E1E1E1E1E1E1E1E1E1E1E1E1E1E1E1E1E1E1E1E1E1E1E1E1E1E1E1E1E1E1E1E1E1E1E1E1E1E1E1E1E1E1E1E1E1E1E1E1E1E1E1E1E1E1E1E1E1E1E1E1E1E1E1E1E1E1E1E1E1
310
E1E1E1E1E1E1E1E1E1E1E1E1E1E1E1E1E1E1E1E1E1E1E1E1E1E1E1E1E1E1E1E1E1E1E1E1E1E1E1E1E1E1E1E1E1E1E1E1E1E1E1E1E1E1E1E1E1E1E1E1E1E1E1E1E1E1E1E1E1E1E1E1E1E1E1E1E1E1E1E1E1E1E1E1E1E1E1E1E1E1E1E1E1E1E1E1E1E1E1E1E1E1E1E1E1E1E1E1E1E1E1E1E1E1E1E1E1E1E1E1E1E1E1E1E1E1E1
310
E1E1E1E1E1E1E1E1E1E1E1E1E1E1E1E1E1E1E1E1E1E1E1E1E1E1E1E1E1E1E1E1E1E1E1E1E1E1E1E1E1E1E1E1E1E1E1E1E1E1E1E1E1E1E1E1E1E1E1E1E1E1E1E1E1E1E1E1E1E1E1E1E1E1E1E1E1E1E1E1E1E1E1E1E1E1E1E1E1E1E1E1E1E1E1E1E1E1E1E1E1E1E1E1E1E1E1E1E1E1E1E1E1E1E1E1E1E1E1E1E1E1E1E1E1E1E1
310
E1E1E1E1E1E1E1E1E1E1E1E1E1E1E1E1E1E1E1E1E1E1E1E1E1E1E1E1E1E1E1E1E1E1E1E1E1E1E1E1E1E1E1E1E1E1E1E1E1E1E1E1E1E1E1E1E1E1E1E1E1E1E1E1E1E1E1E1E1E1E1E1E1E1E1E1E1E1E1E1E1E1E1E1E1E1E1E1E1E1E1E1E1E1E1E1E1E1E1E1E1E1E1E1E1E1E1E1E1E1E1E1E1E1E1E1E1E1E1E1E1E1E1E1E1E1E1
310
E1E1E1E1E1E1E1E1E1E1E1E1E1E1E1E1E1E1E1E1E1E1E1E1E1E1E1E1E1E1E1E1E1E1E1E1E1E1E1E1E1E1E1E1E1E1E1E1E1E1E1E1E1E1E1E1E1E1E1E1E1E1E1E1E1E1E1E1E1E1E1E1E1E1E1E1E1E1E1E1E1E1E1E1E1E1E1E1E1E1E1E1E1E1E1E1E1E1E1E1E1E1E1E1E1E1E1E1E1E1E1E1E1E1E1E1E1E1E1E1E1E1E1E1E1E1E1
310
E1E1E1E1E1E1E1E1E1E1E1E1E1E1E1E1E1E1E1E1E1E1E1E1E1E1E1E1E1E1E1E1E1E1E1E1E1E1E1E1E1E1E1E1E1E1E1E1E1E1E1E1E1E1E1E1E1E1E1E1E1E1E1E1E1E1E1E1E1E1E1E1E1E1E1E1E1E1E1E1E1E1E1E1E1E1E1E1E1E1E1E1E1E1E1E1E1E1E1E1E1E1E1E1E1E1E1E1E1E1E1E1E1E1E1E1E1E1E1E1E1E1E1E1E1E1E1
310
E1E1E1E1E1E1E1E1E1E1E1E1E1E1E1E1E1E1E1E1E1E1E1E1E1E1E1E1E1E1E1E1E1E1E1E1E1E1E1E1E1E1E1E1E1E1E1E1E1E1E1E1E1E1E1E1E1E1E1E1E1E1E1E1E1E1E1E1E1E1E1E1E1E1E1E1E1E1E1E1E1E1E1E1E1E1E1E1E1E1E1E1E1E1E1E1E1E1E1E1E1E1E1E1E1E1E1E1E1E1E1E1E1E1E1E1E1E1E1E1E1E1E1E1E1E1E1
310
E1E1E1E1E1E1E1E1E1E1E1E1E1E1E1E1E1E1E1E1E1E1E1E1E1E1E1E1E1E1E1E1E1E1E1E1E1E1E1E1E1E1E1E1E1E1E1E1E1E1E1E1E1E1E1E1E1E1E1E1E1E1E1E1E1E1E1E1E1E1E1E1E1E1E1E1E1E1E1E1E1E1E1E1E1E1E1E1E1E1E1E1E1E1E1E1E1E1E1E1E1E1E1E1E1E1E1E1E1E1E1E1E1E1E1E1E1E1E1E1E1E1E1E1E1E1E1
310
E1E1E1E1E1E1E1E1E1E1E1E1E1E1E1E1E1E1E1E1E1E1E1E1E1E1E1E1E1E1E1E1E1E1E1E1E1E1E1E1E1E1E1E1E1E1E1E1E1E1E1E1E1E1E1E1E1E1E1E1E1E1E1E1E1E1E1E1E1E1E1E1E1E1E1E1E1E1E1E1E1E1E1E1E1E1E1E1E1E1E1E1E1E1E1E1E1E1E1E1E1E1E1E1E1E1E1E1E1E1E1E1E1E1E1E1E1E1E1E1E1E1E1E1E1E1E1
310
E1E1E1E1E1E1E1E1E1E1E1E1E1E1E1E1E1E1E1E1E1E1E1E1E1E1E1E1E1E1E1E1E1E1E1E1E1E1E1E1E1E1E1E1E1E1E1E1E1E1E1E1E1E1E1E1E1E1E1E1E1E1E1E1E1E1E1E1E1E1E1E1E1E1E1E1E1E1E1E1E1E1E1E1E1E1E1E1E1E1E1E1E1E1E1E1E1E1E1E1E1E1E1E1E1E1E1E1E1E1E1E1E1E1E1E1E1E1E1E1E1E1E1E1E1E1E1
310
E1E1E1E1E1E1E1E1E1E1E1E1E1E1E1E1E1E1E1E1E1E1E1E1E1E1E1E1E1E1E1E1E1E1E1E1E1E1E1E1E1E1E1E1E1E1E1E1E1E1E1E1E1E1E1E1E1E1E1E1E1E1E1E1E1E1E1E1E1E1E1E1E1E1E1E1E1E1E1E1E1E1E1E1E1E1E1E1E1E1E1E1E1E1E1E1E1E1E1E1E1E1E1E1E1E1E1E1E1E1E1E1E1E1E1E1E1E1E1E1E1E1E1E1E1E1E1
310
E1E1E1E1E1E1E1E1E1E1E1E1E1E1E1E1E1E1E1E1E1E1E1E1E1E1E1E1E1E1E1E1E1E1E1E1E1E1E1E1E1E1E1E1E1E1E1E1E1E1E1E1E1E1E1E1E1E1E1E1E1E1E1E1E1E1E1E1E1E1E1E1E1E1E1E1E1E1E1E1E1E1E1E1E1E1E1E1E1E1E1E1E1E1E1E1E1E1E1E1E1E1E1E1E1E1E1E1E1E1E1E1E1E1E1E1E1E1E1E1E1E1E1E1E1E1E1
310
E1E1E1E1E1E1E1E1E1E1E1E1E1E1E1E1E1E1E1E1E1E1E1E1E1E1E1E1E1E1E1E1E1E1E1E1E1E1E1E1E1E1E1E1E1E1E1E1E1E1E1E1E1E1E1E1E1E1E1E1E1E1E1E1E1E1E1E1E1E1E1E1E1E1E1E1E1E1E1E1E1E1E1E1E1E1E1E1E1E1E1E1E1E1E1E1
  0
XRECORD
  5
8EA
102
{ACAD_REACTORS
330
8E9
102
}
330
8E9
100
AcDbXrecord
280
     1
102
SHADEPLOT
 70
     0
102
SHADEPLOTRESLEVEL
 70
     2
102
SHADEPLOTCUSTOMDPI
 70
   300
  0
XRECORD
  5
8ED
102
{ACAD_REACTORS
330
8EC
102
}
330
8EC
100
AcDbXrecord
280
     1
102
SHADEPLOT
 70
     0
102
SHADEPLOTRESLEVEL
 70
     2
102
SHADEPLOTCUSTOMDPI
 70
   300
  0
XRECORD
  5
8F5
102
{ACAD_REACTORS
330
8F4
102
}
330
8F4
100
AcDbXrecord
280
     1
102
MATERIAL
148
0.0
149
0.0
149
0.0
 93
        0
 94
       63
282
     0
 72
     1
 77
     1
171
     1
175
     1
179
     1
273
     0
  0
XRECORD
  5
8F3
102
{ACAD_REACTORS
330
8F2
102
}
330
8F2
100
AcDbXrecord
280
     1
102
MATERIAL
148
0.0
149
0.0
149
0.0
 93
        0
 94
       63
282
     0
 72
     1
 77
     1
171
     1
175
     1
179
     1
273
     0
  0
XRECORD
  5
8F7
102
{ACAD_REACTORS
330
8F6
102
}
330
8F6
100
AcDbXrecord
280
     1
102
MATERIAL
148
0.0
149
0.0
149
0.0
 93
        0
 94
       63
282
     0
 72
     1
 77
     1
171
     1
175
     1
179
     1
273
     0
  0
XRECORD
  5
91E
102
{ACAD_REACTORS
330
8CC
102
}
330
8CC
100
AcDbXrecord
280
     1
102
MATERIAL
148
0.0
149
0.0
149
0.0
 93
        0
 94
      127
282
     1
 72
     0
 77
     0
171
     0
175
     0
179
     0
273
     0
  0
XRECORD
  5
8D1
102
{ACAD_REACTORS
330
8CC
102
}
330
8CC
100
AcDbXrecord
280
     1
270
     1
271
     1
  0
XRECORD
  5
8CD
102
{ACAD_REACTORS
330
8CC
102
}
330
8CC
100
AcDbXrecord
280
     1
270
     1
271
     1
  0
XRECORD
  5
8D0
102
{ACAD_REACTORS
330
8CC
102
}
330
8CC
100
AcDbXrecord
280
     1
270
     1
271
     1
  0
XRECORD
  5
8CF
102
{ACAD_REACTORS
330
8CC
102
}
330
8CC
100
AcDbXrecord
280
     1
270
     1
271
     1
  0
XRECORD
  5
8D2
102
{ACAD_REACTORS
330
8CC
102
}
330
8CC
100
AcDbXrecord
280
     1
270
     1
271
     1
  0
XRECORD
  5
8CE
102
{ACAD_REACTORS
330
8CC
102
}
330
8CC
100
AcDbXrecord
280
     1
270
     1
271
     1
  0
CELLSTYLEMAP
  5
8E1
102
{ACAD_REACTORS
330
2E4
102
}
330
2E4
100
AcDbCellStyleMap
 90
        3
300
CELLSTYLE
  1
TABLEFORMAT_BEGIN
 90
        5
170
     1
 91
        0
 92
    32768
 62
   257
 93
        1
300
CONTENTFORMAT
  1
CONTENTFORMAT_BEGIN
 90
        0
 91
        0
 92
      512
 93
        0
300

 40
0.0
140
1.0
 94
        5
 62
     0
340
11
144
6.0
309
CONTENTFORMAT_END
171
     1
301
MARGIN
  1
CELLMARGIN_BEGIN
 40
1.5
 40
1.5
 40
1.5
 40
1.5
 40
0.18
 40
0.18
309
CELLMARGIN_END
 94
        6
 95
        1
302
GRIDFORMAT
  1
GRIDFORMAT_BEGIN
 90
        0
 91
        1
 62
     0
 92
       -2
340
0
 93
        0
 40
0.045
309
GRIDFORMAT_END
 95
        2
302
GRIDFORMAT
  1
GRIDFORMAT_BEGIN
 90
        0
 91
        1
 62
     0
 92
       -2
340
0
 93
        0
 40
0.045
309
GRIDFORMAT_END
 95
        4
302
GRIDFORMAT
  1
GRIDFORMAT_BEGIN
 90
        0
 91
        1
 62
     0
 92
       -2
340
0
 93
        0
 40
0.045
309
GRIDFORMAT_END
 95
        8
302
GRIDFORMAT
  1
GRIDFORMAT_BEGIN
 90
        0
 91
        1
 62
     0
 92
       -2
340
0
 93
        0
 40
0.045
309
GRIDFORMAT_END
 95
       16
302
GRIDFORMAT
  1
GRIDFORMAT_BEGIN
 90
        0
 91
        1
 62
     0
 92
       -2
340
0
 93
        0
 40
0.045
309
GRIDFORMAT_END
 95
       32
302
GRIDFORMAT
  1
GRIDFORMAT_BEGIN
 90
        0
 91
        1
 62
     0
 92
       -2
340
0
 93
        0
 40
0.045
309
GRIDFORMAT_END
309
TABLEFORMAT_END
  1
CELLSTYLE_BEGIN
 90
        1
 91
        1
300
_TITLE
309
CELLSTYLE_END
300
CELLSTYLE
  1
TABLEFORMAT_BEGIN
 90
        5
170
     1
 91
        0
 92
        0
 62
   257
 93
        1
300
CONTENTFORMAT
  1
CONTENTFORMAT_BEGIN
 90
        0
 91
        0
 92
      512
 93
        0
300

 40
0.0
140
1.0
 94
        5
 62
     0
340
11
144
4.5
309
CONTENTFORMAT_END
171
     1
301
MARGIN
  1
CELLMARGIN_BEGIN
 40
1.5
 40
1.5
 40
1.5
 40
1.5
 40
0.18
 40
0.18
309
CELLMARGIN_END
 94
        6
 95
        1
302
GRIDFORMAT
  1
GRIDFORMAT_BEGIN
 90
        0
 91
        1
 62
     0
 92
       -2
340
0
 93
        0
 40
0.045
309
GRIDFORMAT_END
 95
        2
302
GRIDFORMAT
  1
GRIDFORMAT_BEGIN
 90
        0
 91
        1
 62
     0
 92
       -2
340
0
 93
        0
 40
0.045
309
GRIDFORMAT_END
 95
        4
302
GRIDFORMAT
  1
GRIDFORMAT_BEGIN
 90
        0
 91
        1
 62
     0
 92
       -2
340
0
 93
        0
 40
0.045
309
GRIDFORMAT_END
 95
        8
302
GRIDFORMAT
  1
GRIDFORMAT_BEGIN
 90
        0
 91
        1
 62
     0
 92
       -2
340
0
 93
        0
 40
0.045
309
GRIDFORMAT_END
 95
       16
302
GRIDFORMAT
  1
GRIDFORMAT_BEGIN
 90
        0
 91
        1
 62
     0
 92
       -2
340
0
 93
        0
 40
0.045
309
GRIDFORMAT_END
 95
       32
302
GRIDFORMAT
  1
GRIDFORMAT_BEGIN
 90
        0
 91
        1
 62
     0
 92
       -2
340
0
 93
        0
 40
0.045
309
GRIDFORMAT_END
309
TABLEFORMAT_END
  1
CELLSTYLE_BEGIN
 90
        2
 91
        1
300
_HEADER
309
CELLSTYLE_END
300
CELLSTYLE
  1
TABLEFORMAT_BEGIN
 90
        5
170
     1
 91
        0
 92
        0
 62
   257
 93
        1
300
CONTENTFORMAT
  1
CONTENTFORMAT_BEGIN
 90
        0
 91
        0
 92
      512
 93
        0
300

 40
0.0
140
1.0
 94
        2
 62
     0
340
11
144
4.5
309
CONTENTFORMAT_END
171
     1
301
MARGIN
  1
CELLMARGIN_BEGIN
 40
1.5
 40
1.5
 40
1.5
 40
1.5
 40
0.18
 40
0.18
309
CELLMARGIN_END
 94
        6
 95
        1
302
GRIDFORMAT
  1
GRIDFORMAT_BEGIN
 90
        0
 91
        1
 62
     0
 92
       -2
340
0
 93
        0
 40
0.045
309
GRIDFORMAT_END
 95
        2
302
GRIDFORMAT
  1
GRIDFORMAT_BEGIN
 90
        0
 91
        1
 62
     0
 92
       -2
340
0
 93
        0
 40
0.045
309
GRIDFORMAT_END
 95
        4
302
GRIDFORMAT
  1
GRIDFORMAT_BEGIN
 90
        0
 91
        1
 62
     0
 92
       -2
340
0
 93
        0
 40
0.045
309
GRIDFORMAT_END
 95
        8
302
GRIDFORMAT
  1
GRIDFORMAT_BEGIN
 90
        0
 91
        1
 62
     0
 92
       -2
340
0
 93
        0
 40
0.045
309
GRIDFORMAT_END
 95
       16
302
GRIDFORMAT
  1
GRIDFORMAT_BEGIN
 90
        0
 91
        1
 62
     0
 92
       -2
340
0
 93
        0
 40
0.045
309
GRIDFORMAT_END
 95
       32
302
GRIDFORMAT
  1
GRIDFORMAT_BEGIN
 90
        0
 91
        1
 62
     0
 92
       -2
340
0
 93
        0
 40
0.045
309
GRIDFORMAT_END
309
TABLEFORMAT_END
  1
CELLSTYLE_BEGIN
 90
        3
 91
        2
300
_DATA
309
CELLSTYLE_END
  0
XRECORD
  5
8F1
102
{ACAD_REACTORS
330
2E4
102
}
330
2E4
100
AcDbXrecord
280
     1
102
ACAD_ROUNDTRIP_PRE2007_TABLESTYLE
 90
      512
 91
        0
  1

 92
      512
 93
        0
  2

 94
      512
 95
        0
  3

  0
XRECORD
  5
903
102
{ACAD_REACTORS
330
902
102
}
330
902
100
AcDbXrecord
280
     1
102
RTVSPropertyOp0
 70
     1
102
RTVSPropertyOp1
 70
     1
102
RTVSPropertyOp2
 70
     1
102
RTVSPropertyOp3
 70
     1
102
RTVSPropertyOp4
 70
     1
102
RTVSPropertyOp5
 70
     1
102
RTVSPropertyOp6
 70
     1
102
RTVSPropertyOp7
 70
     1
102
RTVSPropertyOp8
 70
     1
102
RTVSPropertyOp9
 70
     1
102
RTVSPropertyOp10
 70
     1
102
RTVSPropertyOp11
 70
     1
102
RTVSPropertyOp12
 70
     1
102
RTVSPropertyOp13
 70
     1
102
RTVSPropertyOp14
 70
     1
102
RTVSPropertyOp15
 70
     1
102
RTVSPropertyOp16
 70
     1
102
RTVSPropertyOp17
 70
     1
102
RTVSPropertyOp18
 70
     1
102
RTVSPropertyOp19
 70
     1
102
RTVSPropertyOp20
 70
     1
102
RTVSPropertyOp21
 70
     1
102
RTVSPropertyOp22
 70
     1
102
RTVSPropertyOp23
 70
     1
102
RTVSPropertyOp24
 70
     1
102
RTVSPropertyOp25
 70
     1
102
RTVSPropertyOp26
 70
     1
102
RTVSPropertyOp27
 70
     1
  0
XRECORD
  5
907
102
{ACAD_REACTORS
330
906
102
}
330
906
100
AcDbXrecord
280
     1
102
RTVSPropertyOp0
 70
     1
102
RTVSPropertyOp1
 70
     1
102
RTVSPropertyOp2
 70
     1
102
RTVSPropertyOp3
 70
     1
102
RTVSPropertyOp4
 70
     1
102
RTVSPropertyOp5
 70
     1
102
RTVSPropertyOp6
 70
     1
102
RTVSPropertyOp7
 70
     1
102
RTVSPropertyOp8
 70
     1
102
RTVSPropertyOp9
 70
     1
102
RTVSPropertyOp10
 70
     1
102
RTVSPropertyOp11
 70
     1
102
RTVSPropertyOp12
 70
     1
102
RTVSPropertyOp13
 70
     1
102
RTVSPropertyOp14
 70
     1
102
RTVSPropertyOp15
 70
     1
102
RTVSPropertyOp16
 70
     1
102
RTVSPropertyOp17
 70
     1
102
RTVSPropertyOp18
 70
     1
102
RTVSPropertyOp19
 70
     1
102
RTVSPropertyOp20
 70
     1
102
RTVSPropertyOp21
 70
     1
102
RTVSPropertyOp22
 70
     1
102
RTVSPropertyOp23
 70
     1
102
RTVSPropertyOp24
 70
     1
102
RTVSPropertyOp25
 70
     1
102
RTVSPropertyOp26
 70
     1
102
RTVSPropertyOp27
 70
     1
  0
XRECORD
  5
905
102
{ACAD_REACTORS
330
904
102
}
330
904
100
AcDbXrecord
280
     1
102
RTVSPropertyOp0
 70
     1
102
RTVSPropertyOp1
 70
     1
102
RTVSPropertyOp2
 70
     1
102
RTVSPropertyOp3
 70
     1
102
RTVSPropertyOp4
 70
     1
102
RTVSPropertyOp5
 70
     1
102
RTVSPropertyOp6
 70
     1
102
RTVSPropertyOp7
 70
     1
102
RTVSPropertyOp8
 70
     1
102
RTVSPropertyOp9
 70
     1
102
RTVSPropertyOp10
 70
     1
102
RTVSPropertyOp11
 70
     1
102
RTVSPropertyOp12
 70
     1
102
RTVSPropertyOp13
 70
     1
102
RTVSPropertyOp14
 70
     1
102
RTVSPropertyOp15
 70
     1
102
RTVSPropertyOp16
 70
     1
102
RTVSPropertyOp17
 70
     1
102
RTVSPropertyOp18
 70
     1
102
RTVSPropertyOp19
 70
     1
102
RTVSPropertyOp20
 70
     1
102
RTVSPropertyOp21
 70
     1
102
RTVSPropertyOp22
 70
     1
102
RTVSPropertyOp23
 70
     1
102
RTVSPropertyOp24
 70
     1
102
RTVSPropertyOp25
 70
     1
102
RTVSPropertyOp26
 70
     1
102
RTVSPropertyOp27
 70
     1
  0
XRECORD
  5
901
102
{ACAD_REACTORS
330
900
102
}
330
900
100
AcDbXrecord
280
     1
102
RTVSPropertyOp0
 70
     1
102
RTVSPropertyOp1
 70
     1
102
RTVSPropertyOp2
 70
     1
102
RTVSPropertyOp3
 70
     1
102
RTVSPropertyOp4
 70
     1
102
RTVSPropertyOp5
 70
     1
102
RTVSPropertyOp6
 70
     1
102
RTVSPropertyOp7
 70
     1
102
RTVSPropertyOp8
 70
     1
102
RTVSPropertyOp9
 70
     1
102
RTVSPropertyOp10
 70
     1
102
RTVSPropertyOp11
 70
     1
102
RTVSPropertyOp12
 70
     1
102
RTVSPropertyOp13
 70
     1
102
RTVSPropertyOp14
 70
     1
102
RTVSPropertyOp15
 70
     1
102
RTVSPropertyOp16
 70
     1
102
RTVSPropertyOp17
 70
     1
102
RTVSPropertyOp18
 70
     1
102
RTVSPropertyOp19
 70
     1
102
RTVSPropertyOp20
 70
     1
102
RTVSPropertyOp21
 70
     1
102
RTVSPropertyOp22
 70
     1
102
RTVSPropertyOp23
 70
     1
102
RTVSPropertyOp24
 70
     1
102
RTVSPropertyOp25
 70
     1
102
RTVSPropertyOp26
 70
     1
102
RTVSPropertyOp27
 70
     1
  0
XRECORD
  5
90F
102
{ACAD_REACTORS
330
90E
102
}
330
90E
100
AcDbXrecord
280
     1
102
RTVSPropertyOp0
 70
     1
102
RTVSPropertyOp1
 70
     1
102
RTVSPropertyOp2
 70
     1
102
RTVSPropertyOp3
 70
     1
102
RTVSPropertyOp4
 70
     1
102
RTVSPropertyOp5
 70
     1
102
RTVSPropertyOp6
 70
     1
102
RTVSPropertyOp7
 70
     1
102
RTVSPropertyOp8
 70
     1
102
RTVSPropertyOp9
 70
     1
102
RTVSPropertyOp10
 70
     1
102
RTVSPropertyOp11
 70
     1
102
RTVSPropertyOp12
 70
     1
102
RTVSPropertyOp13
 70
     1
102
RTVSPropertyOp14
 70
     1
102
RTVSPropertyOp15
 70
     1
102
RTVSPropertyOp16
 70
     1
102
RTVSPropertyOp17
 70
     1
102
RTVSPropertyOp18
 70
     1
102
RTVSPropertyOp19
 70
     1
102
RTVSPropertyOp20
 70
     1
102
RTVSPropertyOp21
 70
     1
102
RTVSPropertyOp22
 70
     1
102
RTVSPropertyOp23
 70
     1
102
RTVSPropertyOp24
 70
     1
102
RTVSPropertyOp25
 70
     1
102
RTVSPropertyOp26
 70
     1
102
RTVSPropertyOp27
 70
     1
  0
XRECORD
  5
917
102
{ACAD_REACTORS
330
916
102
}
330
916
100
AcDbXrecord
280
     1
102
RTVSPropertyOp0
 70
     1
102
RTVSPropertyOp1
 70
     1
102
RTVSPropertyOp2
 70
     1
102
RTVSPropertyOp3
 70
     1
102
RTVSPropertyOp4
 70
     1
102
RTVSPropertyOp5
 70
     1
102
RTVSPropertyOp6
 70
     1
102
RTVSPropertyOp7
 70
     1
102
RTVSPropertyOp8
 70
     1
102
RTVSPropertyOp9
 70
     1
102
RTVSPropertyOp10
 70
     1
102
RTVSPropertyOp11
 70
     1
102
RTVSPropertyOp12
 70
     1
102
RTVSPropertyOp13
 70
     1
102
RTVSPropertyOp14
 70
     1
102
RTVSPropertyOp15
 70
     1
102
RTVSPropertyOp16
 70
     1
102
RTVSPropertyOp17
 70
     1
102
RTVSPropertyOp18
 70
     1
102
RTVSPropertyOp19
 70
     1
102
RTVSPropertyOp20
 70
     1
102
RTVSPropertyOp21
 70
     1
102
RTVSPropertyOp22
 70
     1
102
RTVSPropertyOp23
 70
     1
102
RTVSPropertyOp24
 70
     1
102
RTVSPropertyOp25
 70
     1
102
RTVSPropertyOp26
 70
     1
102
RTVSPropertyOp27
 70
     1
  0
XRECORD
  5
909
102
{ACAD_REACTORS
330
908
102
}
330
908
100
AcDbXrecord
280
     1
102
RTVSPropertyOp0
 70
     1
102
RTVSPropertyOp1
 70
     1
102
RTVSPropertyOp2
 70
     1
102
RTVSPropertyOp3
 70
     1
102
RTVSPropertyOp4
 70
     1
102
RTVSPropertyOp5
 70
     1
102
RTVSPropertyOp6
 70
     1
102
RTVSPropertyOp7
 70
     1
102
RTVSPropertyOp8
 70
     1
102
RTVSPropertyOp9
 70
     1
102
RTVSPropertyOp10
 70
     1
102
RTVSPropertyOp11
 70
     1
102
RTVSPropertyOp12
 70
     1
102
RTVSPropertyOp13
 70
     1
102
RTVSPropertyOp14
 70
     1
102
RTVSPropertyOp15
 70
     1
102
RTVSPropertyOp16
 70
     1
102
RTVSPropertyOp17
 70
     1
102
RTVSPropertyOp18
 70
     1
102
RTVSPropertyOp19
 70
     1
102
RTVSPropertyOp20
 70
     1
102
RTVSPropertyOp21
 70
     1
102
RTVSPropertyOp22
 70
     1
102
RTVSPropertyOp23
 70
     1
102
RTVSPropertyOp24
 70
     1
102
RTVSPropertyOp25
 70
     1
102
RTVSPropertyOp26
 70
     1
102
RTVSPropertyOp27
 70
     1
  0
XRECORD
  5
90D
102
{ACAD_REACTORS
330
90C
102
}
330
90C
100
AcDbXrecord
280
     1
102
RTVSPropertyOp0
 70
     1
102
RTVSPropertyOp1
 70
     1
102
RTVSPropertyOp2
 70
     1
102
RTVSPropertyOp3
 70
     1
102
RTVSPropertyOp4
 70
     1
102
RTVSPropertyOp5
 70
     1
102
RTVSPropertyOp6
 70
     1
102
RTVSPropertyOp7
 70
     1
102
RTVSPropertyOp8
 70
     1
102
RTVSPropertyOp9
 70
     1
102
RTVSPropertyOp10
 70
     1
102
RTVSPropertyOp11
 70
     1
102
RTVSPropertyOp12
 70
     1
102
RTVSPropertyOp13
 70
     1
102
RTVSPropertyOp14
 70
     1
102
RTVSPropertyOp15
 70
     1
102
RTVSPropertyOp16
 70
     1
102
RTVSPropertyOp17
 70
     1
102
RTVSPropertyOp18
 70
     1
102
RTVSPropertyOp19
 70
     1
102
RTVSPropertyOp20
 70
     1
102
RTVSPropertyOp21
 70
     1
102
RTVSPropertyOp22
 70
     1
102
RTVSPropertyOp23
 70
     1
102
RTVSPropertyOp24
 70
     1
102
RTVSPropertyOp25
 70
     1
102
RTVSPropertyOp26
 70
     1
102
RTVSPropertyOp27
 70
     1
  0
XRECORD
  5
91D
102
{ACAD_REACTORS
330
91C
102
}
330
91C
100
AcDbXrecord
280
     1
102
RTVSPropertyOp0
 70
     0
102
RTVSPropertyOp1
 70
     0
102
RTVSPropertyOp2
 70
     0
102
RTVSPropertyOp3
 70
     0
102
RTVSPropertyOp4
 70
     0
102
RTVSPropertyOp5
 70
     0
102
RTVSPropertyOp6
 70
     0
102
RTVSPropertyOp7
 70
     0
102
RTVSPropertyOp8
 70
     0
102
RTVSPropertyOp9
 70
     0
102
RTVSPropertyOp10
 70
     0
102
RTVSPropertyOp11
 70
     0
102
RTVSPropertyOp12
 70
     0
102
RTVSPropertyOp13
 70
     0
102
RTVSPropertyOp14
 70
     2
102
RTVSPropertyOp15
 70
     0
102
RTVSPropertyOp16
 70
     0
102
RTVSPropertyOp17
 70
     0
102
RTVSPropertyOp18
 70
     0
102
RTVSPropertyOp19
 70
     0
102
RTVSPropertyOp20
 70
     0
102
RTVSPropertyOp21
 70
     0
102
RTVSPropertyOp22
 70
     0
102
RTVSPropertyOp23
 70
     0
102
RTVSPropertyOp24
 70
     0
102
RTVSPropertyOp25
 70
     0
102
RTVSPropertyOp26
 70
     0
102
RTVSPropertyOp27
 70
     0
  0
XRECORD
  5
915
102
{ACAD_REACTORS
330
914
102
}
330
914
100
AcDbXrecord
280
     1
102
RTVSPropertyOp0
 70
     1
102
RTVSPropertyOp1
 70
     1
102
RTVSPropertyOp2
 70
     1
102
RTVSPropertyOp3
 70
     1
102
RTVSPropertyOp4
 70
     1
102
RTVSPropertyOp5
 70
     1
102
RTVSPropertyOp6
 70
     1
102
RTVSPropertyOp7
 70
     1
102
RTVSPropertyOp8
 70
     1
102
RTVSPropertyOp9
 70
     1
102
RTVSPropertyOp10
 70
     1
102
RTVSPropertyOp11
 70
     1
102
RTVSPropertyOp12
 70
     1
102
RTVSPropertyOp13
 70
     1
102
RTVSPropertyOp14
 70
     1
102
RTVSPropertyOp15
 70
     1
102
RTVSPropertyOp16
 70
     1
102
RTVSPropertyOp17
 70
     1
102
RTVSPropertyOp18
 70
     1
102
RTVSPropertyOp19
 70
     1
102
RTVSPropertyOp20
 70
     1
102
RTVSPropertyOp21
 70
     1
102
RTVSPropertyOp22
 70
     1
102
RTVSPropertyOp23
 70
     1
102
RTVSPropertyOp24
 70
     1
102
RTVSPropertyOp25
 70
     1
102
RTVSPropertyOp26
 70
     1
102
RTVSPropertyOp27
 70
     1
  0
XRECORD
  5
8F9
102
{ACAD_REACTORS
330
8F8
102
}
330
8F8
100
AcDbXrecord
280
     1
102
RTVSPropertyOp0
 70
     1
102
RTVSPropertyOp1
 70
     1
102
RTVSPropertyOp2
 70
     1
102
RTVSPropertyOp3
 70
     1
102
RTVSPropertyOp4
 70
     1
102
RTVSPropertyOp5
 70
     1
102
RTVSPropertyOp6
 70
     1
102
RTVSPropertyOp7
 70
     1
102
RTVSPropertyOp8
 70
     1
102
RTVSPropertyOp9
 70
     1
102
RTVSPropertyOp10
 70
     1
102
RTVSPropertyOp11
 70
     1
102
RTVSPropertyOp12
 70
     1
102
RTVSPropertyOp13
 70
     1
102
RTVSPropertyOp14
 70
     1
102
RTVSPropertyOp15
 70
     1
102
RTVSPropertyOp16
 70
     1
102
RTVSPropertyOp17
 70
     1
102
RTVSPropertyOp18
 70
     1
102
RTVSPropertyOp19
 70
     1
102
RTVSPropertyOp20
 70
     1
102
RTVSPropertyOp21
 70
     1
102
RTVSPropertyOp22
 70
     1
102
RTVSPropertyOp23
 70
     1
102
RTVSPropertyOp24
 70
     1
102
RTVSPropertyOp25
 70
     1
102
RTVSPropertyOp26
 70
     1
102
RTVSPropertyOp27
 70
     1
  0
XRECORD
  5
8FB
102
{ACAD_REACTORS
330
8FA
102
}
330
8FA
100
AcDbXrecord
280
     1
102
RTVSPropertyOp0
 70
     1
102
RTVSPropertyOp1
 70
     1
102
RTVSPropertyOp2
 70
     1
102
RTVSPropertyOp3
 70
     1
102
RTVSPropertyOp4
 70
     1
102
RTVSPropertyOp5
 70
     1
102
RTVSPropertyOp6
 70
     1
102
RTVSPropertyOp7
 70
     1
102
RTVSPropertyOp8
 70
     1
102
RTVSPropertyOp9
 70
     1
102
RTVSPropertyOp10
 70
     1
102
RTVSPropertyOp11
 70
     1
102
RTVSPropertyOp12
 70
     1
102
RTVSPropertyOp13
 70
     1
102
RTVSPropertyOp14
 70
     1
102
RTVSPropertyOp15
 70
     1
102
RTVSPropertyOp16
 70
     1
102
RTVSPropertyOp17
 70
     1
102
RTVSPropertyOp18
 70
     1
102
RTVSPropertyOp19
 70
     1
102
RTVSPropertyOp20
 70
     1
102
RTVSPropertyOp21
 70
     1
102
RTVSPropertyOp22
 70
     1
102
RTVSPropertyOp23
 70
     1
102
RTVSPropertyOp24
 70
     1
102
RTVSPropertyOp25
 70
     1
102
RTVSPropertyOp26
 70
     1
102
RTVSPropertyOp27
 70
     1
  0
XRECORD
  5
8FD
102
{ACAD_REACTORS
330
8FC
102
}
330
8FC
100
AcDbXrecord
280
     1
102
RTVSPropertyOp0
 70
     1
102
RTVSPropertyOp1
 70
     1
102
RTVSPropertyOp2
 70
     1
102
RTVSPropertyOp3
 70
     1
102
RTVSPropertyOp4
 70
     1
102
RTVSPropertyOp5
 70
     1
102
RTVSPropertyOp6
 70
     1
102
RTVSPropertyOp7
 70
     1
102
RTVSPropertyOp8
 70
     1
102
RTVSPropertyOp9
 70
     1
102
RTVSPropertyOp10
 70
     1
102
RTVSPropertyOp11
 70
     1
102
RTVSPropertyOp12
 70
     1
102
RTVSPropertyOp13
 70
     1
102
RTVSPropertyOp14
 70
     1
102
RTVSPropertyOp15
 70
     1
102
RTVSPropertyOp16
 70
     1
102
RTVSPropertyOp17
 70
     1
102
RTVSPropertyOp18
 70
     1
102
RTVSPropertyOp19
 70
     1
102
RTVSPropertyOp20
 70
     1
102
RTVSPropertyOp21
 70
     1
102
RTVSPropertyOp22
 70
     1
102
RTVSPropertyOp23
 70
     1
102
RTVSPropertyOp24
 70
     1
102
RTVSPropertyOp25
 70
     1
102
RTVSPropertyOp26
 70
     1
102
RTVSPropertyOp27
 70
     1
  0
XRECORD
  5
8FF
102
{ACAD_REACTORS
330
8FE
102
}
330
8FE
100
AcDbXrecord
280
     1
102
RTVSPropertyOp0
 70
     1
102
RTVSPropertyOp1
 70
     1
102
RTVSPropertyOp2
 70
     1
102
RTVSPropertyOp3
 70
     1
102
RTVSPropertyOp4
 70
     1
102
RTVSPropertyOp5
 70
     1
102
RTVSPropertyOp6
 70
     1
102
RTVSPropertyOp7
 70
     1
102
RTVSPropertyOp8
 70
     1
102
RTVSPropertyOp9
 70
     1
102
RTVSPropertyOp10
 70
     1
102
RTVSPropertyOp11
 70
     1
102
RTVSPropertyOp12
 70
     1
102
RTVSPropertyOp13
 70
     1
102
RTVSPropertyOp14
 70
     1
102
RTVSPropertyOp15
 70
     1
102
RTVSPropertyOp16
 70
     1
102
RTVSPropertyOp17
 70
     1
102
RTVSPropertyOp18
 70
     1
102
RTVSPropertyOp19
 70
     1
102
RTVSPropertyOp20
 70
     1
102
RTVSPropertyOp21
 70
     1
102
RTVSPropertyOp22
 70
     1
102
RTVSPropertyOp23
 70
     1
102
RTVSPropertyOp24
 70
     1
102
RTVSPropertyOp25
 70
     1
102
RTVSPropertyOp26
 70
     1
102
RTVSPropertyOp27
 70
     1
  0
XRECORD
  5
919
102
{ACAD_REACTORS
330
918
102
}
330
918
100
AcDbXrecord
280
     1
102
RTVSPropertyOp0
 70
     0
102
RTVSPropertyOp1
 70
     0
102
RTVSPropertyOp2
 70
     0
102
RTVSPropertyOp3
 70
     0
102
RTVSPropertyOp4
 70
     0
102
RTVSPropertyOp5
 70
     0
102
RTVSPropertyOp6
 70
     0
102
RTVSPropertyOp7
 70
     0
102
RTVSPropertyOp8
 70
     0
102
RTVSPropertyOp9
 70
     0
102
RTVSPropertyOp10
 70
     0
102
RTVSPropertyOp11
 70
     0
102
RTVSPropertyOp12
 70
     0
102
RTVSPropertyOp13
 70
     0
102
RTVSPropertyOp14
 70
     2
102
RTVSPropertyOp15
 70
     0
102
RTVSPropertyOp16
 70
     0
102
RTVSPropertyOp17
 70
     0
102
RTVSPropertyOp18
 70
     0
102
RTVSPropertyOp19
 70
     0
102
RTVSPropertyOp20
 70
     0
102
RTVSPropertyOp21
 70
     0
102
RTVSPropertyOp22
 70
     0
102
RTVSPropertyOp23
 70
     0
102
RTVSPropertyOp24
 70
     0
102
RTVSPropertyOp25
 70
     0
102
RTVSPropertyOp26
 70
     0
102
RTVSPropertyOp27
 70
     0
  0
XRECORD
  5
913
102
{ACAD_REACTORS
330
912
102
}
330
912
100
AcDbXrecord
280
     1
102
RTVSPropertyOp0
 70
     1
102
RTVSPropertyOp1
 70
     1
102
RTVSPropertyOp2
 70
     1
102
RTVSPropertyOp3
 70
     1
102
RTVSPropertyOp4
 70
     1
102
RTVSPropertyOp5
 70
     1
102
RTVSPropertyOp6
 70
     1
102
RTVSPropertyOp7
 70
     1
102
RTVSPropertyOp8
 70
     1
102
RTVSPropertyOp9
 70
     1
102
RTVSPropertyOp10
 70
     1
102
RTVSPropertyOp11
 70
     1
102
RTVSPropertyOp12
 70
     1
102
RTVSPropertyOp13
 70
     1
102
RTVSPropertyOp14
 70
     1
102
RTVSPropertyOp15
 70
     1
102
RTVSPropertyOp16
 70
     1
102
RTVSPropertyOp17
 70
     1
102
RTVSPropertyOp18
 70
     1
102
RTVSPropertyOp19
 70
     1
102
RTVSPropertyOp20
 70
     1
102
RTVSPropertyOp21
 70
     1
102
RTVSPropertyOp22
 70
     1
102
RTVSPropertyOp23
 70
     1
102
RTVSPropertyOp24
 70
     1
102
RTVSPropertyOp25
 70
     1
102
RTVSPropertyOp26
 70
     1
102
RTVSPropertyOp27
 70
     1
  0
XRECORD
  5
91B
102
{ACAD_REACTORS
330
91A
102
}
330
91A
100
AcDbXrecord
280
     1
102
RTVSPropertyOp0
 70
     0
102
RTVSPropertyOp1
 70
     0
102
RTVSPropertyOp2
 70
     0
102
RTVSPropertyOp3
 70
     0
102
RTVSPropertyOp4
 70
     0
102
RTVSPropertyOp5
 70
     0
102
RTVSPropertyOp6
 70
     0
102
RTVSPropertyOp7
 70
     0
102
RTVSPropertyOp8
 70
     0
102
RTVSPropertyOp9
 70
     0
102
RTVSPropertyOp10
 70
     0
102
RTVSPropertyOp11
 70
     0
102
RTVSPropertyOp12
 70
     0
102
RTVSPropertyOp13
 70
     0
102
RTVSPropertyOp14
 70
     2
102
RTVSPropertyOp15
 70
     0
102
RTVSPropertyOp16
 70
     0
102
RTVSPropertyOp17
 70
     0
102
RTVSPropertyOp18
 70
     0
102
RTVSPropertyOp19
 70
     0
102
RTVSPropertyOp20
 70
     0
102
RTVSPropertyOp21
 70
     0
102
RTVSPropertyOp22
 70
     0
102
RTVSPropertyOp23
 70
     0
102
RTVSPropertyOp24
 70
     0
102
RTVSPropertyOp25
 70
     0
102
RTVSPropertyOp26
 70
     0
102
RTVSPropertyOp27
 70
     0
  0
XRECORD
  5
90B
102
{ACAD_REACTORS
330
90A
102
}
330
90A
100
AcDbXrecord
280
     1
102
RTVSPropertyOp0
 70
     1
102
RTVSPropertyOp1
 70
     1
102
RTVSPropertyOp2
 70
     1
102
RTVSPropertyOp3
 70
     1
102
RTVSPropertyOp4
 70
     1
102
RTVSPropertyOp5
 70
     1
102
RTVSPropertyOp6
 70
     1
102
RTVSPropertyOp7
 70
     1
102
RTVSPropertyOp8
 70
     1
102
RTVSPropertyOp9
 70
     1
102
RTVSPropertyOp10
 70
     1
102
RTVSPropertyOp11
 70
     1
102
RTVSPropertyOp12
 70
     1
102
RTVSPropertyOp13
 70
     1
102
RTVSPropertyOp14
 70
     1
102
RTVSPropertyOp15
 70
     1
102
RTVSPropertyOp16
 70
     1
102
RTVSPropertyOp17
 70
     1
102
RTVSPropertyOp18
 70
     1
102
RTVSPropertyOp19
 70
     1
102
RTVSPropertyOp20
 70
     1
102
RTVSPropertyOp21
 70
     1
102
RTVSPropertyOp22
 70
     1
102
RTVSPropertyOp23
 70
     1
102
RTVSPropertyOp24
 70
     1
102
RTVSPropertyOp25
 70
     1
102
RTVSPropertyOp26
 70
     1
102
RTVSPropertyOp27
 70
     1
  0
XRECORD
  5
911
102
{ACAD_REACTORS
330
910
102
}
330
910
100
AcDbXrecord
280
     1
102
RTVSPropertyOp0
 70
     1
102
RTVSPropertyOp1
 70
     1
102
RTVSPropertyOp2
 70
     1
102
RTVSPropertyOp3
 70
     1
102
RTVSPropertyOp4
 70
     1
102
RTVSPropertyOp5
 70
     1
102
RTVSPropertyOp6
 70
     1
102
RTVSPropertyOp7
 70
     1
102
RTVSPropertyOp8
 70
     1
102
RTVSPropertyOp9
 70
     1
102
RTVSPropertyOp10
 70
     1
102
RTVSPropertyOp11
 70
     1
102
RTVSPropertyOp12
 70
     1
102
RTVSPropertyOp13
 70
     1
102
RTVSPropertyOp14
 70
     1
102
RTVSPropertyOp15
 70
     1
102
RTVSPropertyOp16
 70
     1
102
RTVSPropertyOp17
 70
     1
102
RTVSPropertyOp18
 70
     1
102
RTVSPropertyOp19
 70
     1
102
RTVSPropertyOp20
 70
     1
102
RTVSPropertyOp21
 70
     1
102
RTVSPropertyOp22
 70
     1
102
RTVSPropertyOp23
 70
     1
102
RTVSPropertyOp24
 70
     1
102
RTVSPropertyOp25
 70
     1
102
RTVSPropertyOp26
 70
     1
102
RTVSPropertyOp27
 70
     1
  0
ENDSEC
  0
EOF
