  0
SECTION
  2
HEADER
  9
$ACADVER
  1
AC1015
  9
$ACADMAINTVER
 70
    20
  9
$DWGCODEPAGE
  3
ANSI_1250
  9
$INSBASE
 10
0.0
 20
0.0
 30
0.0
  9
$EXTMIN
 10
-4.026639461517333
 20
-1212.259033203125
 30
0.0092697143554688
  9
$EXTMAX
 10
20.97354507446289
 20
-0.2590456008911133
 30
2810.010009765625
  9
$LIMMIN
 10
0.0
 20
0.0
  9
$LIMMAX
 10
12.0
 20
9.0
  9
$ORTHOMODE
 70
     0
  9
$REGENMODE
 70
     1
  9
$FILLMODE
 70
     1
  9
$QTEXTMODE
 70
     0
  9
$MIRRTEXT
 70
     0
  9
$LTSCALE
 40
1.0
  9
$ATTMODE
 70
     1
  9
$TEXTSIZE
 40
0.2
  9
$TRACEWID
 40
0.05
  9
$TEXTSTYLE
  7
Standard
  9
$CLAYER
  8
-DC_BREP3
  9
$CELTYPE
  6
ByLayer
  9
$CECOLOR
 62
   256
  9
$CELTSCALE
 40
1.0
  9
$DISPSILH
 70
     0
  9
$DIMSCALE
 40
1.0
  9
$DIMASZ
 40
0.18
  9
$DIMEXO
 40
0.0625
  9
$DIMDLI
 40
0.38
  9
$DIMRND
 40
0.0
  9
$DIMDLE
 40
0.0
  9
$DIMEXE
 40
0.18
  9
$DIMTP
 40
0.0
  9
$DIMTM
 40
0.0
  9
$DIMTXT
 40
0.18
  9
$DIMCEN
 40
0.09
  9
$DIMTSZ
 40
0.0
  9
$DIMTOL
 70
     0
  9
$DIMLIM
 70
     0
  9
$DIMTIH
 70
     1
  9
$DIMTOH
 70
     1
  9
$DIMSE1
 70
     0
  9
$DIMSE2
 70
     0
  9
$DIMTAD
 70
     0
  9
$DIMZIN
 70
     0
  9
$DIMBLK
  1

  9
$DIMASO
 70
     1
  9
$DIMSHO
 70
     1
  9
$DIMPOST
  1

  9
$DIMAPOST
  1

  9
$DIMALT
 70
     0
  9
$DIMALTD
 70
     2
  9
$DIMALTF
 40
25.4
  9
$DIMLFAC
 40
1.0
  9
$DIMTOFL
 70
     0
  9
$DIMTVP
 40
0.0
  9
$DIMTIX
 70
     0
  9
$DIMSOXD
 70
     0
  9
$DIMSAH
 70
     0
  9
$DIMBLK1
  1

  9
$DIMBLK2
  1

  9
$DIMSTYLE
  2
Standard
  9
$DIMCLRD
 70
     0
  9
$DIMCLRE
 70
     0
  9
$DIMCLRT
 70
     0
  9
$DIMTFAC
 40
1.0
  9
$DIMGAP
 40
0.09
  9
$DIMJUST
 70
     0
  9
$DIMSD1
 70
     0
  9
$DIMSD2
 70
     0
  9
$DIMTOLJ
 70
     1
  9
$DIMTZIN
 70
     0
  9
$DIMALTZ
 70
     0
  9
$DIMALTTZ
 70
     0
  9
$DIMUPT
 70
     0
  9
$DIMDEC
 70
     4
  9
$DIMTDEC
 70
     4
  9
$DIMALTU
 70
     2
  9
$DIMALTTD
 70
     2
  9
$DIMTXSTY
  7
Standard
  9
$DIMAUNIT
 70
     0
  9
$DIMADEC
 70
     0
  9
$DIMALTRND
 40
0.0
  9
$DIMAZIN
 70
     0
  9
$DIMDSEP
 70
    46
  9
$DIMATFIT
 70
     3
  9
$DIMFRAC
 70
     0
  9
$DIMLDRBLK
  1

  9
$DIMLUNIT
 70
     2
  9
$DIMLWD
 70
    -2
  9
$DIMLWE
 70
    -2
  9
$DIMTMOVE
 70
     0
  9
$LUNITS
 70
     2
  9
$LUPREC
 70
     4
  9
$SKETCHINC
 40
0.1
  9
$FILLETRAD
 40
0.0
  9
$AUNITS
 70
     0
  9
$AUPREC
 70
     0
  9
$MENU
  1
.
  9
$ELEVATION
 40
0.0
  9
$PELEVATION
 40
0.0
  9
$THICKNESS
 40
0.0
  9
$LIMCHECK
 70
     0
  9
$CHAMFERA
 40
0.0
  9
$CHAMFERB
 40
0.0
  9
$CHAMFERC
 40
0.0
  9
$CHAMFERD
 40
0.0
  9
$SKPOLY
 70
     0
  9
$TDCREATE
 40
2459646.578876875
  9
$TDUCREATE
 40
2459646.537210208
  9
$TDUPDATE
 40
2459646.580025105
  9
$TDUUPDATE
 40
2459646.538358438
  9
$TDINDWG
 40
0.0011498727
  9
$TDUSRTIMER
 40
0.0011498264
  9
$USRTIMER
 70
     1
  9
$ANGBASE
 50
0.0
  9
$ANGDIR
 70
     0
  9
$PDMODE
 70
     0
  9
$PDSIZE
 40
0.0
  9
$PLINEWID
 40
0.0
  9
$SPLFRAME
 70
     0
  9
$SPLINETYPE
 70
     6
  9
$SPLINESEGS
 70
     8
  9
$HANDSEED
  5
5A4
  9
$SURFTAB1
 70
     6
  9
$SURFTAB2
 70
     6
  9
$SURFTYPE
 70
     6
  9
$SURFU
 70
     6
  9
$SURFV
 70
     6
  9
$UCSBASE
  2

  9
$UCSNAME
  2

  9
$UCSORG
 10
0.0
 20
0.0
 30
0.0
  9
$UCSXDIR
 10
1.0
 20
0.0
 30
0.0
  9
$UCSYDIR
 10
0.0
 20
1.0
 30
0.0
  9
$UCSORTHOREF
  2

  9
$UCSORTHOVIEW
 70
     0
  9
$UCSORGTOP
 10
0.0
 20
0.0
 30
0.0
  9
$UCSORGBOTTOM
 10
0.0
 20
0.0
 30
0.0
  9
$UCSORGLEFT
 10
0.0
 20
0.0
 30
0.0
  9
$UCSORGRIGHT
 10
0.0
 20
0.0
 30
0.0
  9
$UCSORGFRONT
 10
0.0
 20
0.0
 30
0.0
  9
$UCSORGBACK
 10
0.0
 20
0.0
 30
0.0
  9
$PUCSBASE
  2

  9
$PUCSNAME
  2

  9
$PUCSORG
 10
0.0
 20
0.0
 30
0.0
  9
$PUCSXDIR
 10
1.0
 20
0.0
 30
0.0
  9
$PUCSYDIR
 10
0.0
 20
1.0
 30
0.0
  9
$PUCSORTHOREF
  2

  9
$PUCSORTHOVIEW
 70
     0
  9
$PUCSORGTOP
 10
0.0
 20
0.0
 30
0.0
  9
$PUCSORGBOTTOM
 10
0.0
 20
0.0
 30
0.0
  9
$PUCSORGLEFT
 10
0.0
 20
0.0
 30
0.0
  9
$PUCSORGRIGHT
 10
0.0
 20
0.0
 30
0.0
  9
$PUCSORGFRONT
 10
0.0
 20
0.0
 30
0.0
  9
$PUCSORGBACK
 10
0.0
 20
0.0
 30
0.0
  9
$USERI1
 70
     0
  9
$USERI2
 70
     0
  9
$USERI3
 70
     0
  9
$USERI4
 70
     0
  9
$USERI5
 70
     0
  9
$USERR1
 40
0.0
  9
$USERR2
 40
0.0
  9
$USERR3
 40
0.0
  9
$USERR4
 40
0.0
  9
$USERR5
 40
0.0
  9
$WORLDVIEW
 70
     1
  9
$SHADEDGE
 70
     3
  9
$SHADEDIF
 70
    70
  9
$TILEMODE
 70
     1
  9
$MAXACTVP
 70
    64
  9
$PINSBASE
 10
0.0
 20
0.0
 30
0.0
  9
$PLIMCHECK
 70
     0
  9
$PEXTMIN
 10
0.0
 20
0.0
 30
0.0
  9
$PEXTMAX
 10
0.0
 20
0.0
 30
0.0
  9
$PLIMMIN
 10
0.0
 20
0.0
  9
$PLIMMAX
 10
12.0
 20
9.0
  9
$UNITMODE
 70
     0
  9
$VISRETAIN
 70
     1
  9
$PLINEGEN
 70
     0
  9
$PSLTSCALE
 70
     1
  9
$TREEDEPTH
 70
  3020
  9
$CMLSTYLE
  2
Standard
  9
$CMLJUST
 70
     0
  9
$CMLSCALE
 40
1.0
  9
$PROXYGRAPHICS
 70
     1
  9
$MEASUREMENT
 70
     0
  9
$CELWEIGHT
370
    -1
  9
$ENDCAPS
280
     0
  9
$JOINSTYLE
280
     0
  9
$LWDISPLAY
290
     0
  9
$INSUNITS
 70
     1
  9
$HYPERLINKBASE
  1

  9
$STYLESHEET
  1

  9
$XEDIT
290
     1
  9
$CEPSNTYPE
380
     0
  9
$PSTYLEMODE
290
     0
  9
$FINGERPRINTGUID
  2
{1AC9E98F-8DCF-46DE-A9E7-28CFA6482E95}
  9
$VERSIONGUID
  2
{AD8681E0-2889-4C39-B9D0-02F94F586D88}
  9
$EXTNAMES
290
     1
  9
$PSVPSCALE
 40
0.0
  9
$OLESTARTUP
290
     0
  0
ENDSEC
  0
SECTION
  2
CLASSES
  0
CLASS
  1
ACDBDICTIONARYWDFLT
  2
AcDbDictionaryWithDefault
  3
ObjectDBX Classes
 90
        0
280
     0
281
     0
  0
CLASS
  1
ACDBPLACEHOLDER
  2
AcDbPlaceHolder
  3
ObjectDBX Classes
 90
        0
280
     0
281
     0
  0
CLASS
  1
LAYOUT
  2
AcDbLayout
  3
ObjectDBX Classes
 90
        0
280
     0
281
     0
  0
CLASS
  1
DICTIONARYVAR
  2
AcDbDictionaryVar
  3
ObjectDBX Classes
 90
        0
280
     0
281
     0
  0
CLASS
  1
MATERIAL
  2
AcDbMaterial
  3
ObjectDBX Classes
 90
     1153
280
     0
281
     0
  0
CLASS
  1
VISUALSTYLE
  2
AcDbVisualStyle
  3
ObjectDBX Classes
 90
     4095
280
     0
281
     0
  0
CLASS
  1
TABLESTYLE
  2
AcDbTableStyle
  3
ObjectDBX Classes
 90
     4095
280
     0
281
     0
  0
CLASS
  1
SCALE
  2
AcDbScale
  3
ObjectDBX Classes
 90
     1153
280
     0
281
     0
  0
CLASS
  1
MLEADERSTYLE
  2
AcDbMLeaderStyle
  3
ACDB_MLEADERSTYLE_CLASS
 90
     4095
280
     0
281
     0
  0
CLASS
  1
CELLSTYLEMAP
  2
AcDbCellStyleMap
  3
ObjectDBX Classes
 90
     1152
280
     0
281
     0
  0
CLASS
  1
EXACXREFPANELOBJECT
  2
ExAcXREFPanelObject
  3
EXAC_ESW
 90
    33793
280
     0
281
     0
  0
CLASS
  1
NPOCOLLECTION
  2
AcDbImpNonPersistentObjectsCollection
  3
ObjectDBX Classes
 90
     1153
280
     0
281
     0
  0
CLASS
  1
LAYER_INDEX
  2
AcDbLayerIndex
  3
ObjectDBX Classes
 90
    32768
280
     0
281
     0
  0
CLASS
  1
SPATIAL_INDEX
  2
AcDbSpatialIndex
  3
ObjectDBX Classes
 90
    32768
280
     0
281
     0
  0
CLASS
  1
IDBUFFER
  2
AcDbIdBuffer
  3
ObjectDBX Classes
 90
    32768
280
     0
281
     0
  0
CLASS
  1
ACDBSECTIONVIEWSTYLE
  2
AcDbSectionViewStyle
  3
ObjectDBX Classes
 90
     1025
280
     0
281
     0
  0
CLASS
  1
ACDBDETAILVIEWSTYLE
  2
AcDbDetailViewStyle
  3
ObjectDBX Classes
 90
     1025
280
     0
281
     0
  0
CLASS
  1
SOLID_BACKGROUND
  2
AcDbSolidBackground
  3
SCENEOE
 90
     4095
280
     0
281
     0
  0
ENDSEC
  0
SECTION
  2
TABLES
  0
TABLE
  2
VPORT
  5
8
330
0
100
AcDbSymbolTable
 70
     1
  0
VPORT
  5
90
330
8
100
AcDbSymbolTableRecord
100
AcDbViewportTableRecord
  2
*Active
 70
     0
 10
0.0
 20
0.0
 11
1.0
 21
1.0
 12
0.0
 22
0.0
 13
0.0
 23
0.0
 14
0.5
 24
0.5
 15
0.5
 25
0.5
 16
9761.081722299092
 26
-9761.081722299087
 36
9761.081722299085
 17
1026.946099521048
 27
285.8793995616837
 37
1278.675431989106
 40
4735.803750512821
 41
2.827129859387923
 42
50.0
 43
0.0
 44
0.0
 50
0.0
 51
0.0000000000000377
 71
     0
 72
  1000
 73
     1
 74
     3
 75
     0
 76
     1
 77
     0
 78
     0
281
     4
 65
     1
110
0.0
120
0.0
130
0.0
111
1.0
121
0.0
131
0.0
112
0.0
122
1.0
132
0.0
 79
     0
146
0.0
1001
ACAD_NAV_VCDISPLAY
1070
     3
  0
ENDTAB
  0
TABLE
  2
LTYPE
  5
5
330
0
100
AcDbSymbolTable
 70
     2
  0
LTYPE
  5
14
330
5
100
AcDbSymbolTableRecord
100
AcDbLinetypeTableRecord
  2
ByBlock
 70
     0
  3

 72
    65
 73
     0
 40
0.0
  0
LTYPE
  5
15
330
5
100
AcDbSymbolTableRecord
100
AcDbLinetypeTableRecord
  2
ByLayer
 70
     0
  3

 72
    65
 73
     0
 40
0.0
  0
LTYPE
  5
16
330
5
100
AcDbSymbolTableRecord
100
AcDbLinetypeTableRecord
  2
Continuous
 70
     0
  3
Solid line
 72
    65
 73
     0
 40
0.0
  0
LTYPE
  5
1A6
330
5
100
AcDbSymbolTableRecord
100
AcDbLinetypeTableRecord
  2
PHANTOM2
 70
     0
  3
Phantom (.5x) ___ _ _ ___ _ _ ___ _ _ ___ _ _
 72
    65
 73
     6
 40
1.25
 49
0.625
 74
     0
 49
-0.125
 74
     0
 49
0.125
 74
     0
 49
-0.125
 74
     0
 49
0.125
 74
     0
 49
-0.125
 74
     0
  0
ENDTAB
  0
TABLE
  2
LAYER
  5
2
102
{ACAD_XDICTIONARY
360
18B
102
}
330
0
100
AcDbSymbolTable
 70
     7
  0
LAYER
  5
10
102
{ACAD_XDICTIONARY
360
E1
102
}
330
2
100
AcDbSymbolTableRecord
100
AcDbLayerTableRecord
  2
0
 70
     0
 62
     7
  6
Continuous
370
    -3
390
F
  0
LAYER
  5
1BD
330
2
100
AcDbSymbolTableRecord
100
AcDbLayerTableRecord
  2
ASHADE
 70
     0
 62
     7
  6
Continuous
370
    -3
390
F
  0
LAYER
  5
1D4
330
2
100
AcDbSymbolTableRecord
100
AcDbLayerTableRecord
  2
-DC_BREP
 70
     0
 62
     7
  6
Continuous
370
    -3
390
F
  0
LAYER
  5
2C3
330
2
100
AcDbSymbolTableRecord
100
AcDbLayerTableRecord
  2
-DC_BREP0
 70
     0
 62
     7
  6
Continuous
370
    -3
390
F
  0
LAYER
  5
3B2
330
2
100
AcDbSymbolTableRecord
100
AcDbLayerTableRecord
  2
-DC_BREP1
 70
     0
 62
     7
  6
Continuous
370
    -3
390
F
  0
LAYER
  5
530
330
2
100
AcDbSymbolTableRecord
100
AcDbLayerTableRecord
  2
-DC_BREP3
 70
     0
 62
     7
  6
Continuous
370
    -3
390
F
  0
ENDTAB
  0
TABLE
  2
STYLE
  5
3
330
0
100
AcDbSymbolTable
 70
     3
  0
STYLE
  5
11
330
3
100
AcDbSymbolTableRecord
100
AcDbTextStyleTableRecord
  2
Standard
 70
     0
 40
0.0
 41
1.0
 50
0.0
 71
     0
 42
0.2
  3
ARIAL.TTF
  4

1001
ACAD
1000
Arial
1071
       34
  0
STYLE
  5
D7
330
3
100
AcDbSymbolTableRecord
100
AcDbTextStyleTableRecord
  2
Annotative
 70
     0
 40
0.0
 41
1.0
 50
0.0
 71
     0
 42
0.2
  3
ARIAL.TTF
  4

1001
AcadAnnotative
1000
AnnotativeData
1002
{
1070
     1
1070
     1
1002
}
1001
ACAD
1000
Arial
1071
       34
  0
STYLE
  5
1BA
330
3
100
AcDbSymbolTableRecord
100
AcDbTextStyleTableRecord
  2
ASHADE
 70
     0
 40
0.2
 41
1.0
 50
0.0
 71
     0
 42
0.2
  3
simplex
  4

  0
ENDTAB
  0
TABLE
  2
VIEW
  5
6
330
0
100
AcDbSymbolTable
 70
     1
  0
ENDTAB
  0
TABLE
  2
UCS
  5
7
330
0
100
AcDbSymbolTable
 70
     1
  0
ENDTAB
  0
TABLE
  2
APPID
  5
9
330
0
100
AcDbSymbolTable
 70
    12
  0
APPID
  5
12
330
9
100
AcDbSymbolTableRecord
100
AcDbRegAppTableRecord
  2
ACAD
 70
     0
  0
APPID
  5
D8
330
9
100
AcDbSymbolTableRecord
100
AcDbRegAppTableRecord
  2
AcadAnnoPO
 70
     0
  0
APPID
  5
D9
330
9
100
AcDbSymbolTableRecord
100
AcDbRegAppTableRecord
  2
AcadAnnotative
 70
     0
  0
APPID
  5
DA
330
9
100
AcDbSymbolTableRecord
100
AcDbRegAppTableRecord
  2
ACAD_DSTYLE_DIMJAG
 70
     0
  0
APPID
  5
DB
330
9
100
AcDbSymbolTableRecord
100
AcDbRegAppTableRecord
  2
ACAD_DSTYLE_DIMTALN
 70
     0
  0
APPID
  5
102
330
9
100
AcDbSymbolTableRecord
100
AcDbRegAppTableRecord
  2
ACAD_MLEADERVER
 70
     0
  0
APPID
  5
1A3
330
9
100
AcDbSymbolTableRecord
100
AcDbRegAppTableRecord
  2
ACAD_NAV_VCDISPLAY
 70
     0
  0
APPID
  5
1BB
330
9
100
AcDbSymbolTableRecord
100
AcDbRegAppTableRecord
  2
AVE_RENDER
 70
     0
  0
APPID
  5
1BC
330
9
100
AcDbSymbolTableRecord
100
AcDbRegAppTableRecord
  2
AVE_ENTITY_MATERIAL
 70
     0
  0
APPID
  5
1C9
330
9
100
AcDbSymbolTableRecord
100
AcDbRegAppTableRecord
  2
AVE_FINISH
 70
     0
  0
APPID
  5
1CA
330
9
100
AcDbSymbolTableRecord
100
AcDbRegAppTableRecord
  2
AVE_MATERIAL
 70
     0
  0
APPID
  5
1CB
330
9
100
AcDbSymbolTableRecord
100
AcDbRegAppTableRecord
  2
AVE_GLOBAL
 70
     0
  0
ENDTAB
  0
TABLE
  2
DIMSTYLE
  5
A
330
0
100
AcDbSymbolTable
 70
     2
100
AcDbDimStyleTable
 71
     2
340
DC
340
27
  0
DIMSTYLE
105
27
330
A
100
AcDbSymbolTableRecord
100
AcDbDimStyleTableRecord
  2
Standard
 70
     0
340
11
  0
DIMSTYLE
105
DC
330
A
100
AcDbSymbolTableRecord
100
AcDbDimStyleTableRecord
  2
Annotative
 70
     0
 40
0.0
340
11
1001
AcadAnnotative
1000
AnnotativeData
1002
{
1070
     1
1070
     1
1002
}
1001
ACAD_DSTYLE_DIMJAG
1070
   388
1040
1.5
1001
ACAD_DSTYLE_DIMTALN
1070
   392
1070
     0
  0
ENDTAB
  0
TABLE
  2
BLOCK_RECORD
  5
1
330
0
100
AcDbSymbolTable
 70
     3
  0
BLOCK_RECORD
  5
1F
102
{ACAD_XDICTIONARY
360
15A
102
}
330
1
100
AcDbSymbolTableRecord
100
AcDbBlockTableRecord
  2
*Model_Space
340
22
  0
BLOCK_RECORD
  5
73
330
1
100
AcDbSymbolTableRecord
100
AcDbBlockTableRecord
  2
*Paper_Space
340
74
  0
BLOCK_RECORD
  5
78
330
1
100
AcDbSymbolTableRecord
100
AcDbBlockTableRecord
  2
*Paper_Space0
340
79
  0
BLOCK_RECORD
  5
1BE
330
1
100
AcDbSymbolTableRecord
100
AcDbBlockTableRecord
  2
AVE_RENDER
340
0
102
{BLKREFS
331
1C1
331
1C2
331
1C3
331
1C4
331
1C5
331
1C6
331
1C7
331
1C8
102
}
  0
BLOCK_RECORD
  5
1CC
330
1
100
AcDbSymbolTableRecord
100
AcDbBlockTableRecord
  2
AVE_GLOBAL
340
0
102
{BLKREFS
331
1CF
102
}
  0
ENDTAB
  0
ENDSEC
  0
SECTION
  2
BLOCKS
  0
BLOCK
  5
20
330
1F
100
AcDbEntity
  8
0
100
AcDbBlockBegin
  2
*Model_Space
 70
     0
 10
0.0
 20
0.0
 30
0.0
  3
*Model_Space
  1

  0
ENDBLK
  5
21
330
1F
100
AcDbEntity
  8
0
100
AcDbBlockEnd
  0
BLOCK
  5
75
330
73
100
AcDbEntity
 67
     1
  8
0
100
AcDbBlockBegin
  2
*Paper_Space
 70
     0
 10
0.0
 20
0.0
 30
0.0
  3
*Paper_Space
  1

  0
ENDBLK
  5
76
330
73
100
AcDbEntity
 67
     1
  8
0
100
AcDbBlockEnd
  0
BLOCK
  5
7A
330
78
100
AcDbEntity
 67
     1
  8
0
100
AcDbBlockBegin
  2
*Paper_Space0
 70
     0
 10
0.0
 20
0.0
 30
0.0
  3
*Paper_Space0
  1

  0
ENDBLK
  5
7B
330
78
100
AcDbEntity
 67
     1
  8
0
100
AcDbBlockEnd
  0
BLOCK
  5
1BF
330
1BE
100
AcDbEntity
  8
ASHADE
100
AcDbBlockBegin
  2
AVE_RENDER
 70
     0
 10
0.0
 20
0.0
 30
0.0
  3
AVE_RENDER
  1
AVE_RENDER
  0
ENDBLK
  5
1C0
330
1BE
100
AcDbEntity
  8
0
100
AcDbBlockEnd
  0
BLOCK
  5
1CD
330
1CC
100
AcDbEntity
  8
ASHADE
100
AcDbBlockBegin
  2
AVE_GLOBAL
 70
     0
 10
0.0
 20
0.0
 30
0.0
  3
AVE_GLOBAL
  1
AVE_GLOBAL
  0
ENDBLK
  5
1CE
330
1CC
100
AcDbEntity
  8
0
100
AcDbBlockEnd
  0
ENDSEC
  0
SECTION
  2
ENTITIES
  0
INSERT
  5
1C1
330
1F
100
AcDbEntity
  8
ASHADE
 62
     1
100
AcDbBlockReference
  2
AVE_RENDER
 10
0.0
 20
0.0
 30
0.0
1001
AVE_RENDER
1002
{
1070
     7
1000
Pref
1070
    50
1070
    20
1070
     1
1070
     0
1000

1070
    10
1070
     1
1070
    10
1040
1.0
1070
     1
1040
0.6999999880790711
1040
1.0
1040
0.2000000029802322
1040
2.0
1010
-1.0
1020
-1.0
1030
-1.0
1040
0.3000000119209289
1070
    49
1070
     0
1070
     0
1010
1.0
1020
1.0
1030
1.0
1040
45.0
1070
     1
1070
     0
1000
WCS
1040
0.0
1070
     0
1040
10.0
1002
}
  0
INSERT
  5
1C2
330
1F
100
AcDbEntity
  8
ASHADE
 62
     3
100
AcDbBlockReference
  2
AVE_RENDER
 10
0.0
 20
0.0
 30
0.0
1001
AVE_RENDER
1002
{
1070
     0
1000
Full Opt
1070
     0
1070
     1
1070
     1
1070
     1
1070
     0
1070
     0
1070
     0
1070
     1
1070
     1
1040
0.0001
1040
0.0001
1002
}
  0
INSERT
  5
1C3
330
1F
100
AcDbEntity
  8
ASHADE
 62
     4
100
AcDbBlockReference
  2
AVE_RENDER
 10
0.0
 20
0.0
 30
0.0
1001
AVE_RENDER
1002
{
1070
     0
1000
Quick Opt
1070
     0
1070
     1
1070
     1
1070
     1
1070
     0
1070
     0
1070
     1
1002
}
  0
INSERT
  5
1C4
330
1F
100
AcDbEntity
  8
ASHADE
 62
     5
100
AcDbBlockReference
  2
AVE_RENDER
 10
0.0
 20
0.0
 30
0.0
1001
AVE_RENDER
1002
{
1070
     1
1000
Scanl Opt
1070
     2
1070
     0
1070
     2
1040
2.0
1040
4.0
1070
     0
1070
     1
1070
     0
1040
0.03
1002
}
  0
INSERT
  5
1C5
330
1F
100
AcDbEntity
  8
ASHADE
 62
     6
100
AcDbBlockReference
  2
AVE_RENDER
 10
0.0
 20
0.0
 30
0.0
1001
AVE_RENDER
1002
{
1070
     2
1000
Raytr Opt
1070
     2
1070
     0
1070
     2
1040
2.0
1040
4.0
1070
     0
1070
     1
1070
     1
1040
0.03
1070
     3
1040
0.03
1002
}
  0
INSERT
  5
1C6
330
1F
100
AcDbEntity
  8
ASHADE
 62
     7
100
AcDbBlockReference
  2
AVE_RENDER
 10
0.0
 20
0.0
 30
0.0
1001
AVE_RENDER
1002
{
1070
     0
1000
RFile Opt
1070
     1
1070
   640
1070
   480
1070
 10000
1070
     1
1070
     8
1070
     8
1070
     0
1070
     0
1070
     0
1070
     0
1070
     0
1070
     0
1070
     0
1002
}
  0
INSERT
  5
1C7
330
1F
100
AcDbEntity
  8
ASHADE
 62
     8
100
AcDbBlockReference
  2
AVE_RENDER
 10
0.0
 20
0.0
 30
0.0
1001
AVE_RENDER
1002
{
1070
     0
1000
Fog Opt
1070
     0
1070
     0
1040
0.0
1040
1.0
1040
0.0
1040
1.0
1010
0.5
1020
0.5
1030
0.5
1002
}
  0
INSERT
  5
1C8
330
1F
100
AcDbEntity
  8
ASHADE
 62
     9
100
AcDbBlockReference
  2
AVE_RENDER
 10
0.0
 20
0.0
 30
0.0
1001
AVE_RENDER
1002
{
1070
     0
1000
BG Opt
1070
     0
1070
     1
1010
0.0
1020
0.0
1030
0.0
1010
0.0
1020
0.0
1030
1.0
1010
0.0
1020
1.0
1030
0.0
1010
1.0
1020
0.0
1030
0.0
1040
0.5
1040
0.5
1040
0.0
1000

1070
     1
1000

1070
     1
1070
     1
1040
1.0
1040
1.0
1040
0.0
1040
0.0
1070
     0
1002
}
  0
INSERT
  5
1CF
330
1F
100
AcDbEntity
  8
ASHADE
 62
     1
100
AcDbBlockReference
  2
AVE_GLOBAL
 10
0.0
 20
0.0
 30
0.0
1001
AVE_MATERIAL
1002
{
1000
*GLOBAL*
1000
2
1000
Global finish.
1002
{
1002
}
1002
{
1070
    63
1002
{
1002
{
1010
-1.0
1020
-1.0
1030
-1.0
1002
}
1040
0.6999999880790711
1000

1040
0.0
1002
{
1002
}
1040
0.0
1002
{
1002
}
1040
0.0
1002
}
1002
{
1002
{
1010
-1.0
1020
-1.0
1030
-1.0
1002
}
1040
1.0
1000

1040
0.0
1002
{
1002
}
1040
0.0
1002
{
1002
}
1040
0.0
1002
}
1002
{
1002
{
1010
-1.0
1020
-1.0
1030
-1.0
1002
}
1040
0.2000000029802322
1000

1040
0.0
1002
{
1002
}
1040
0.0
1002
{
1002
}
1040
0.0
1002
}
1002
{
1070
     0
1002
{
1070
     1
1002
{
1040
1.0
1040
1.0
1000

1040
0.0
1002
{
1002
}
1040
0.0
1002
{
1002
}
1040
0.0
1002
}
1002
}
1040
1.0
1040
0.0
1040
0.0
1002
}
1002
{
1040
1.0
1040
1.0
1000

1040
0.0
1002
{
1002
}
1040
0.0
1002
{
1002
}
1040
0.0
1002
}
1002
{
1040
0.5
1040
1.0
1000

1040
0.0
1002
{
1002
}
1040
0.0
1002
{
1002
}
1040
0.0
1002
}
1002
{
1070
     0
1040
0.0
1002
{
1002
}
1040
1.0
1002
{
1002
}
1040
0.0
1002
}
1002
{
1040
0.0
1002
{
1002
{
1010
0.0
1020
0.0
1030
0.0
1002
}
1040
1.0
1000

1040
0.0
1002
{
1002
}
1040
0.0
1002
{
1002
}
1040
0.0
1002
}
1002
}
1002
{
1002
{
1070
     1
1002
{
1040
0.0
1040
1.0
1000

1040
0.0
1002
{
1002
}
1040
0.0
1002
{
1002
}
1040
0.0
1002
}
1002
}
1040
0.0
1002
{
1002
}
1010
1.0
1020
0.0
1030
0.0
1010
0.0
1020
1.0
1030
0.0
1010
0.0
1020
0.0
1030
1.0
1070
     0
1002
}
1002
{
1002
{
1040
1.0
1040
1.0
1002
{
1070
     1
1002
{
1040
1.0
1040
1.0
1000

1040
0.0
1002
{
1002
}
1040
0.0
1002
{
1002
}
1040
0.0
1002
}
1002
}
1002
}
1070
     0
1040
0.0
1002
{
1002
}
1002
}
1002
{
1002
}
1002
}
1002
{
1071
        3
1070
     3
1070
     0
1002
{
1070
     2
1070
     0
1070
     0
1040
0.0
1002
}
1070
     0
1070
     2
1002
{
1002
}
1002
}
1002
{
1040
8030.0
1040
190.3000030517578
1040
0.3050000071525574
1040
228.0
1040
545.0
1040
14.0
1040
17.39999961853027
1040
0.4560000002384186
1002
}
1000

1002
}
  0
POLYLINE
  5
1D5
330
1F
100
AcDbEntity
  8
-DC_BREP
100
AcDbPolyFaceMesh
 66
     1
 10
0.0
 20
0.0
 30
0.0
 70
    64
 71
   144
 72
    92
1001
AVE_ENTITY_MATERIAL
1002
{
1000

1002
{
1071
        0
1070
     0
1070
     0
1002
{
1070
     0
1070
     0
1070
     0
1040
0.0
1002
}
1070
     0
1070
     0
1002
{
1002
}
1002
}
1002
{
1002
}
1002
{
1002
}
1011
0.0
1021
0.0
1031
0.0
1011
1.0
1021
0.0
1031
0.0
1011
0.0
1021
1.0
1031
0.0
1011
0.0
1021
0.0
1031
1.0
1002
}
  0
VERTEX
  5
1D6
330
1D5
100
AcDbEntity
  8
-DC_BREP
100
AcDbVertex
100
AcDbPolyFaceMeshVertex
 10
15.47330093383789
 20
-10.25904560089111
 30
0.0092697143554688
 70
   192
  0
VERTEX
  5
1D7
330
1D5
100
AcDbEntity
  8
-DC_BREP
100
AcDbVertex
100
AcDbPolyFaceMeshVertex
 10
12.4734239578247
 20
-10.25904560089111
 30
2808.00927734375
 70
   192
  0
VERTEX
  5
1D8
330
1D5
100
AcDbEntity
  8
-DC_BREP
100
AcDbVertex
100
AcDbPolyFaceMeshVertex
 10
12.47330093383789
 20
-10.25904560089111
 30
0.0092698456719518
 70
   192
  0
VERTEX
  5
1D9
330
1D5
100
AcDbEntity
  8
-DC_BREP
100
AcDbVertex
100
AcDbPolyFaceMeshVertex
 10
15.47342395782471
 20
-10.25904560089111
 30
2808.00927734375
 70
   192
  0
VERTEX
  5
1DA
330
1D5
100
AcDbEntity
  8
-DC_BREP
100
AcDbVertex
100
AcDbPolyFaceMeshVertex
 10
12.47330093383789
 20
-10.25904560089111
 30
0.0092698456719518
 70
   192
  0
VERTEX
  5
1DB
330
1D5
100
AcDbEntity
  8
-DC_BREP
100
AcDbVertex
100
AcDbPolyFaceMeshVertex
 10
12.4734239578247
 20
-8.759045600891113
 30
2808.00927734375
 70
   192
  0
VERTEX
  5
1DC
330
1D5
100
AcDbEntity
  8
-DC_BREP
100
AcDbVertex
100
AcDbPolyFaceMeshVertex
 10
12.47330093383789
 20
-8.759045600891113
 30
0.0092698456719518
 70
   192
  0
VERTEX
  5
1DD
330
1D5
100
AcDbEntity
  8
-DC_BREP
100
AcDbVertex
100
AcDbPolyFaceMeshVertex
 10
12.4734239578247
 20
-10.25904560089111
 30
2808.00927734375
 70
   192
  0
VERTEX
  5
1DE
330
1D5
100
AcDbEntity
  8
-DC_BREP
100
AcDbVertex
100
AcDbPolyFaceMeshVertex
 10
12.47330093383789
 20
-8.759045600891113
 30
0.0092698456719518
 70
   192
  0
VERTEX
  5
1DF
330
1D5
100
AcDbEntity
  8
-DC_BREP
100
AcDbVertex
100
AcDbPolyFaceMeshVertex
 10
13.97342395782471
 20
-8.759045600891113
 30
2808.00927734375
 70
   192
  0
VERTEX
  5
1E0
330
1D5
100
AcDbEntity
  8
-DC_BREP
100
AcDbVertex
100
AcDbPolyFaceMeshVertex
 10
13.97330093383789
 20
-8.759045600891113
 30
0.009269779548049
 70
   192
  0
VERTEX
  5
1E1
330
1D5
100
AcDbEntity
  8
-DC_BREP
100
AcDbVertex
100
AcDbPolyFaceMeshVertex
 10
12.4734239578247
 20
-8.759045600891113
 30
2808.00927734375
 70
   192
  0
VERTEX
  5
1E2
330
1D5
100
AcDbEntity
  8
-DC_BREP
100
AcDbVertex
100
AcDbPolyFaceMeshVertex
 10
13.97330093383789
 20
-8.759045600891113
 30
0.009269779548049
 70
   192
  0
VERTEX
  5
1E3
330
1D5
100
AcDbEntity
  8
-DC_BREP
100
AcDbVertex
100
AcDbPolyFaceMeshVertex
 10
13.97342300415039
 20
-6.759045600891113
 30
2808.00927734375
 70
   192
  0
VERTEX
  5
1E4
330
1D5
100
AcDbEntity
  8
-DC_BREP
100
AcDbVertex
100
AcDbPolyFaceMeshVertex
 10
13.97330093383789
 20
-6.759045600891113
 30
0.009269779548049
 70
   192
  0
VERTEX
  5
1E5
330
1D5
100
AcDbEntity
  8
-DC_BREP
100
AcDbVertex
100
AcDbPolyFaceMeshVertex
 10
13.97342395782471
 20
-8.759045600891113
 30
2808.00927734375
 70
   192
  0
VERTEX
  5
1E6
330
1D5
100
AcDbEntity
  8
-DC_BREP
100
AcDbVertex
100
AcDbPolyFaceMeshVertex
 10
13.97330093383789
 20
-6.759045600891113
 30
0.009269779548049
 70
   192
  0
VERTEX
  5
1E7
330
1D5
100
AcDbEntity
  8
-DC_BREP
100
AcDbVertex
100
AcDbPolyFaceMeshVertex
 10
12.47342300415039
 20
-6.759045600891113
 30
2808.00927734375
 70
   192
  0
VERTEX
  5
1E8
330
1D5
100
AcDbEntity
  8
-DC_BREP
100
AcDbVertex
100
AcDbPolyFaceMeshVertex
 10
12.47330093383789
 20
-6.759045600891113
 30
0.0092698456719518
 70
   192
  0
VERTEX
  5
1E9
330
1D5
100
AcDbEntity
  8
-DC_BREP
100
AcDbVertex
100
AcDbPolyFaceMeshVertex
 10
13.97342300415039
 20
-6.759045600891113
 30
2808.00927734375
 70
   192
  0
VERTEX
  5
1EA
330
1D5
100
AcDbEntity
  8
-DC_BREP
100
AcDbVertex
100
AcDbPolyFaceMeshVertex
 10
12.47330093383789
 20
-6.759045600891113
 30
0.0092698456719518
 70
   192
  0
VERTEX
  5
1EB
330
1D5
100
AcDbEntity
  8
-DC_BREP
100
AcDbVertex
100
AcDbPolyFaceMeshVertex
 10
12.47342300415039
 20
-5.759045600891113
 30
2808.00927734375
 70
   192
  0
VERTEX
  5
1EC
330
1D5
100
AcDbEntity
  8
-DC_BREP
100
AcDbVertex
100
AcDbPolyFaceMeshVertex
 10
12.47330093383789
 20
-5.759045600891113
 30
0.0092698456719518
 70
   192
  0
VERTEX
  5
1ED
330
1D5
100
AcDbEntity
  8
-DC_BREP
100
AcDbVertex
100
AcDbPolyFaceMeshVertex
 10
12.47342300415039
 20
-6.759045600891113
 30
2808.00927734375
 70
   192
  0
VERTEX
  5
1EE
330
1D5
100
AcDbEntity
  8
-DC_BREP
100
AcDbVertex
100
AcDbPolyFaceMeshVertex
 10
12.47330093383789
 20
-5.759045600891113
 30
0.0092698456719518
 70
   192
  0
VERTEX
  5
1EF
330
1D5
100
AcDbEntity
  8
-DC_BREP
100
AcDbVertex
100
AcDbPolyFaceMeshVertex
 10
13.97342300415039
 20
-5.759045600891113
 30
2808.00927734375
 70
   192
  0
VERTEX
  5
1F0
330
1D5
100
AcDbEntity
  8
-DC_BREP
100
AcDbVertex
100
AcDbPolyFaceMeshVertex
 10
13.97330093383789
 20
-5.759045600891113
 30
0.009269779548049
 70
   192
  0
VERTEX
  5
1F1
330
1D5
100
AcDbEntity
  8
-DC_BREP
100
AcDbVertex
100
AcDbPolyFaceMeshVertex
 10
12.47342300415039
 20
-5.759045600891113
 30
2808.00927734375
 70
   192
  0
VERTEX
  5
1F2
330
1D5
100
AcDbEntity
  8
-DC_BREP
100
AcDbVertex
100
AcDbPolyFaceMeshVertex
 10
13.97330093383789
 20
-5.759045600891113
 30
0.009269779548049
 70
   192
  0
VERTEX
  5
1F3
330
1D5
100
AcDbEntity
  8
-DC_BREP
100
AcDbVertex
100
AcDbPolyFaceMeshVertex
 10
13.97342300415039
 20
-3.759045600891113
 30
2808.00927734375
 70
   192
  0
VERTEX
  5
1F4
330
1D5
100
AcDbEntity
  8
-DC_BREP
100
AcDbVertex
100
AcDbPolyFaceMeshVertex
 10
13.97330093383789
 20
-3.759045600891113
 30
0.009269779548049
 70
   192
  0
VERTEX
  5
1F5
330
1D5
100
AcDbEntity
  8
-DC_BREP
100
AcDbVertex
100
AcDbPolyFaceMeshVertex
 10
13.97342300415039
 20
-5.759045600891113
 30
2808.00927734375
 70
   192
  0
VERTEX
  5
1F6
330
1D5
100
AcDbEntity
  8
-DC_BREP
100
AcDbVertex
100
AcDbPolyFaceMeshVertex
 10
13.97330093383789
 20
-3.759045600891113
 30
0.009269779548049
 70
   192
  0
VERTEX
  5
1F7
330
1D5
100
AcDbEntity
  8
-DC_BREP
100
AcDbVertex
100
AcDbPolyFaceMeshVertex
 10
1.97342300415039
 20
-3.759046077728271
 30
2808.00927734375
 70
   192
  0
VERTEX
  5
1F8
330
1D5
100
AcDbEntity
  8
-DC_BREP
100
AcDbVertex
100
AcDbPolyFaceMeshVertex
 10
1.97330093383789
 20
-3.759046077728271
 30
0.0092703048139811
 70
   192
  0
VERTEX
  5
1F9
330
1D5
100
AcDbEntity
  8
-DC_BREP
100
AcDbVertex
100
AcDbPolyFaceMeshVertex
 10
13.97342300415039
 20
-3.759045600891113
 30
2808.00927734375
 70
   192
  0
VERTEX
  5
1FA
330
1D5
100
AcDbEntity
  8
-DC_BREP
100
AcDbVertex
100
AcDbPolyFaceMeshVertex
 10
1.97330093383789
 20
-3.759046077728271
 30
0.0092703048139811
 70
   192
  0
VERTEX
  5
1FB
330
1D5
100
AcDbEntity
  8
-DC_BREP
100
AcDbVertex
100
AcDbPolyFaceMeshVertex
 10
1.97342300415039
 20
-5.759046077728271
 30
2808.00927734375
 70
   192
  0
VERTEX
  5
1FC
330
1D5
100
AcDbEntity
  8
-DC_BREP
100
AcDbVertex
100
AcDbPolyFaceMeshVertex
 10
1.97330093383789
 20
-5.759046077728271
 30
0.0092703048139811
 70
   192
  0
VERTEX
  5
1FD
330
1D5
100
AcDbEntity
  8
-DC_BREP
100
AcDbVertex
100
AcDbPolyFaceMeshVertex
 10
1.97342300415039
 20
-3.759046077728271
 30
2808.00927734375
 70
   192
  0
VERTEX
  5
1FE
330
1D5
100
AcDbEntity
  8
-DC_BREP
100
AcDbVertex
100
AcDbPolyFaceMeshVertex
 10
1.97330093383789
 20
-5.759046077728271
 30
0.0092703048139811
 70
   192
  0
VERTEX
  5
1FF
330
1D5
100
AcDbEntity
  8
-DC_BREP
100
AcDbVertex
100
AcDbPolyFaceMeshVertex
 10
3.47342300415039
 20
-5.759046077728271
 30
2808.00927734375
 70
   192
  0
VERTEX
  5
200
330
1D5
100
AcDbEntity
  8
-DC_BREP
100
AcDbVertex
100
AcDbPolyFaceMeshVertex
 10
3.47330093383789
 20
-5.759046077728271
 30
0.0092702386900783
 70
   192
  0
VERTEX
  5
201
330
1D5
100
AcDbEntity
  8
-DC_BREP
100
AcDbVertex
100
AcDbPolyFaceMeshVertex
 10
1.97342300415039
 20
-5.759046077728271
 30
2808.00927734375
 70
   192
  0
VERTEX
  5
202
330
1D5
100
AcDbEntity
  8
-DC_BREP
100
AcDbVertex
100
AcDbPolyFaceMeshVertex
 10
3.47330093383789
 20
-5.759046077728271
 30
0.0092702386900783
 70
   192
  0
VERTEX
  5
203
330
1D5
100
AcDbEntity
  8
-DC_BREP
100
AcDbVertex
100
AcDbPolyFaceMeshVertex
 10
3.473423957824707
 20
-6.759046077728271
 30
2808.00927734375
 70
   192
  0
VERTEX
  5
204
330
1D5
100
AcDbEntity
  8
-DC_BREP
100
AcDbVertex
100
AcDbPolyFaceMeshVertex
 10
3.47330093383789
 20
-6.759046077728271
 30
0.0092702386900783
 70
   192
  0
VERTEX
  5
205
330
1D5
100
AcDbEntity
  8
-DC_BREP
100
AcDbVertex
100
AcDbPolyFaceMeshVertex
 10
3.47342300415039
 20
-5.759046077728271
 30
2808.00927734375
 70
   192
  0
VERTEX
  5
206
330
1D5
100
AcDbEntity
  8
-DC_BREP
100
AcDbVertex
100
AcDbPolyFaceMeshVertex
 10
3.47330093383789
 20
-6.759046077728271
 30
0.0092702386900783
 70
   192
  0
VERTEX
  5
207
330
1D5
100
AcDbEntity
  8
-DC_BREP
100
AcDbVertex
100
AcDbPolyFaceMeshVertex
 10
1.973423957824707
 20
-6.759046077728271
 30
2808.00927734375
 70
   192
  0
VERTEX
  5
208
330
1D5
100
AcDbEntity
  8
-DC_BREP
100
AcDbVertex
100
AcDbPolyFaceMeshVertex
 10
1.97330093383789
 20
-6.759046077728271
 30
0.0092703048139811
 70
   192
  0
VERTEX
  5
209
330
1D5
100
AcDbEntity
  8
-DC_BREP
100
AcDbVertex
100
AcDbPolyFaceMeshVertex
 10
3.473423957824707
 20
-6.759046077728271
 30
2808.00927734375
 70
   192
  0
VERTEX
  5
20A
330
1D5
100
AcDbEntity
  8
-DC_BREP
100
AcDbVertex
100
AcDbPolyFaceMeshVertex
 10
1.97330093383789
 20
-6.759046077728271
 30
0.0092703048139811
 70
   192
  0
VERTEX
  5
20B
330
1D5
100
AcDbEntity
  8
-DC_BREP
100
AcDbVertex
100
AcDbPolyFaceMeshVertex
 10
1.973423957824707
 20
-8.759046554565429
 30
2808.00927734375
 70
   192
  0
VERTEX
  5
20C
330
1D5
100
AcDbEntity
  8
-DC_BREP
100
AcDbVertex
100
AcDbPolyFaceMeshVertex
 10
1.97330093383789
 20
-8.759046554565429
 30
0.0092703048139811
 70
   192
  0
VERTEX
  5
20D
330
1D5
100
AcDbEntity
  8
-DC_BREP
100
AcDbVertex
100
AcDbPolyFaceMeshVertex
 10
1.973423957824707
 20
-6.759046077728271
 30
2808.00927734375
 70
   192
  0
VERTEX
  5
20E
330
1D5
100
AcDbEntity
  8
-DC_BREP
100
AcDbVertex
100
AcDbPolyFaceMeshVertex
 10
1.97330093383789
 20
-8.759046554565429
 30
0.0092703048139811
 70
   192
  0
VERTEX
  5
20F
330
1D5
100
AcDbEntity
  8
-DC_BREP
100
AcDbVertex
100
AcDbPolyFaceMeshVertex
 10
3.473423957824707
 20
-8.759046554565429
 30
2808.00927734375
 70
   192
  0
VERTEX
  5
210
330
1D5
100
AcDbEntity
  8
-DC_BREP
100
AcDbVertex
100
AcDbPolyFaceMeshVertex
 10
3.47330093383789
 20
-8.759046554565429
 30
0.0092702386900783
 70
   192
  0
VERTEX
  5
211
330
1D5
100
AcDbEntity
  8
-DC_BREP
100
AcDbVertex
100
AcDbPolyFaceMeshVertex
 10
1.973423957824707
 20
-8.759046554565429
 30
2808.00927734375
 70
   192
  0
VERTEX
  5
212
330
1D5
100
AcDbEntity
  8
-DC_BREP
100
AcDbVertex
100
AcDbPolyFaceMeshVertex
 10
3.47330093383789
 20
-8.759046554565429
 30
0.0092702386900783
 70
   192
  0
VERTEX
  5
213
330
1D5
100
AcDbEntity
  8
-DC_BREP
100
AcDbVertex
100
AcDbPolyFaceMeshVertex
 10
3.473423957824707
 20
-10.25904655456543
 30
2808.00927734375
 70
   192
  0
VERTEX
  5
214
330
1D5
100
AcDbEntity
  8
-DC_BREP
100
AcDbVertex
100
AcDbPolyFaceMeshVertex
 10
3.47330093383789
 20
-10.25904655456543
 30
0.0092702386900783
 70
   192
  0
VERTEX
  5
215
330
1D5
100
AcDbEntity
  8
-DC_BREP
100
AcDbVertex
100
AcDbPolyFaceMeshVertex
 10
3.473423957824707
 20
-8.759046554565429
 30
2808.00927734375
 70
   192
  0
VERTEX
  5
216
330
1D5
100
AcDbEntity
  8
-DC_BREP
100
AcDbVertex
100
AcDbPolyFaceMeshVertex
 10
3.47330093383789
 20
-10.25904655456543
 30
0.0092702386900783
 70
   192
  0
VERTEX
  5
217
330
1D5
100
AcDbEntity
  8
-DC_BREP
100
AcDbVertex
100
AcDbPolyFaceMeshVertex
 10
0.4734239578247071
 20
-10.25904655456543
 30
2808.00927734375
 70
   192
  0
VERTEX
  5
218
330
1D5
100
AcDbEntity
  8
-DC_BREP
100
AcDbVertex
100
AcDbPolyFaceMeshVertex
 10
0.4733009338378907
 20
-10.25904655456543
 30
0.0092703700065613
 70
   192
  0
VERTEX
  5
219
330
1D5
100
AcDbEntity
  8
-DC_BREP
100
AcDbVertex
100
AcDbPolyFaceMeshVertex
 10
3.473423957824707
 20
-10.25904655456543
 30
2808.00927734375
 70
   192
  0
VERTEX
  5
21A
330
1D5
100
AcDbEntity
  8
-DC_BREP
100
AcDbVertex
100
AcDbPolyFaceMeshVertex
 10
0.4733009338378907
 20
-10.25904655456543
 30
0.0092703700065613
 70
   192
  0
VERTEX
  5
21B
330
1D5
100
AcDbEntity
  8
-DC_BREP
100
AcDbVertex
100
AcDbPolyFaceMeshVertex
 10
0.4734230041503907
 20
-0.2590465545654297
 30
2808.00927734375
 70
   192
  0
VERTEX
  5
21C
330
1D5
100
AcDbEntity
  8
-DC_BREP
100
AcDbVertex
100
AcDbPolyFaceMeshVertex
 10
0.4733009338378907
 20
-0.2590465545654297
 30
0.0092703700065613
 70
   192
  0
VERTEX
  5
21D
330
1D5
100
AcDbEntity
  8
-DC_BREP
100
AcDbVertex
100
AcDbPolyFaceMeshVertex
 10
0.4734239578247071
 20
-10.25904655456543
 30
2808.00927734375
 70
   192
  0
VERTEX
  5
21E
330
1D5
100
AcDbEntity
  8
-DC_BREP
100
AcDbVertex
100
AcDbPolyFaceMeshVertex
 10
0.4733009338378907
 20
-0.2590465545654297
 30
0.0092703700065613
 70
   192
  0
VERTEX
  5
21F
330
1D5
100
AcDbEntity
  8
-DC_BREP
100
AcDbVertex
100
AcDbPolyFaceMeshVertex
 10
1.97342300415039
 20
-0.2590465545654297
 30
2808.00927734375
 70
   192
  0
VERTEX
  5
220
330
1D5
100
AcDbEntity
  8
-DC_BREP
100
AcDbVertex
100
AcDbPolyFaceMeshVertex
 10
1.97330093383789
 20
-0.2590465545654297
 30
0.0092703048139811
 70
   192
  0
VERTEX
  5
221
330
1D5
100
AcDbEntity
  8
-DC_BREP
100
AcDbVertex
100
AcDbPolyFaceMeshVertex
 10
0.4734230041503907
 20
-0.2590465545654297
 30
2808.00927734375
 70
   192
  0
VERTEX
  5
222
330
1D5
100
AcDbEntity
  8
-DC_BREP
100
AcDbVertex
100
AcDbPolyFaceMeshVertex
 10
1.97330093383789
 20
-0.2590465545654297
 30
0.0092703048139811
 70
   192
  0
VERTEX
  5
223
330
1D5
100
AcDbEntity
  8
-DC_BREP
100
AcDbVertex
100
AcDbPolyFaceMeshVertex
 10
1.97342300415039
 20
-2.259046077728271
 30
2808.00927734375
 70
   192
  0
VERTEX
  5
224
330
1D5
100
AcDbEntity
  8
-DC_BREP
100
AcDbVertex
100
AcDbPolyFaceMeshVertex
 10
1.97330093383789
 20
-2.259046077728271
 30
0.0092703048139811
 70
   192
  0
VERTEX
  5
225
330
1D5
100
AcDbEntity
  8
-DC_BREP
100
AcDbVertex
100
AcDbPolyFaceMeshVertex
 10
1.97342300415039
 20
-0.2590465545654297
 30
2808.00927734375
 70
   192
  0
VERTEX
  5
226
330
1D5
100
AcDbEntity
  8
-DC_BREP
100
AcDbVertex
100
AcDbPolyFaceMeshVertex
 10
1.97330093383789
 20
-2.259046077728271
 30
0.0092703048139811
 70
   192
  0
VERTEX
  5
227
330
1D5
100
AcDbEntity
  8
-DC_BREP
100
AcDbVertex
100
AcDbPolyFaceMeshVertex
 10
13.97342300415039
 20
-2.259045600891113
 30
2808.00927734375
 70
   192
  0
VERTEX
  5
228
330
1D5
100
AcDbEntity
  8
-DC_BREP
100
AcDbVertex
100
AcDbPolyFaceMeshVertex
 10
13.97330093383789
 20
-2.259045600891113
 30
0.009269779548049
 70
   192
  0
VERTEX
  5
229
330
1D5
100
AcDbEntity
  8
-DC_BREP
100
AcDbVertex
100
AcDbPolyFaceMeshVertex
 10
1.97342300415039
 20
-2.259046077728271
 30
2808.00927734375
 70
   192
  0
VERTEX
  5
22A
330
1D5
100
AcDbEntity
  8
-DC_BREP
100
AcDbVertex
100
AcDbPolyFaceMeshVertex
 10
13.97330093383789
 20
-2.259045600891113
 30
0.009269779548049
 70
   192
  0
VERTEX
  5
22B
330
1D5
100
AcDbEntity
  8
-DC_BREP
100
AcDbVertex
100
AcDbPolyFaceMeshVertex
 10
13.97342300415039
 20
-0.2590456008911133
 30
2808.00927734375
 70
   192
  0
VERTEX
  5
22C
330
1D5
100
AcDbEntity
  8
-DC_BREP
100
AcDbVertex
100
AcDbPolyFaceMeshVertex
 10
13.97330093383789
 20
-0.2590456008911133
 30
0.009269779548049
 70
   192
  0
VERTEX
  5
22D
330
1D5
100
AcDbEntity
  8
-DC_BREP
100
AcDbVertex
100
AcDbPolyFaceMeshVertex
 10
13.97342300415039
 20
-2.259045600891113
 30
2808.00927734375
 70
   192
  0
VERTEX
  5
22E
330
1D5
100
AcDbEntity
  8
-DC_BREP
100
AcDbVertex
100
AcDbPolyFaceMeshVertex
 10
13.97330093383789
 20
-0.2590456008911133
 30
0.009269779548049
 70
   192
  0
VERTEX
  5
22F
330
1D5
100
AcDbEntity
  8
-DC_BREP
100
AcDbVertex
100
AcDbPolyFaceMeshVertex
 10
15.47342300415039
 20
-0.2590456008911133
 30
2808.00927734375
 70
   192
  0
VERTEX
  5
230
330
1D5
100
AcDbEntity
  8
-DC_BREP
100
AcDbVertex
100
AcDbPolyFaceMeshVertex
 10
15.47330093383789
 20
-0.2590456008911133
 30
0.0092697143554688
 70
   192
  0
VERTEX
  5
231
330
1D5
100
AcDbEntity
  8
-DC_BREP
100
AcDbVertex
100
AcDbPolyFaceMeshVertex
 10
13.97342300415039
 20
-0.2590456008911133
 30
2808.00927734375
 70
   192
  0
VERTEX
  5
232
330
1D5
100
AcDbEntity
  8
-DC_BREP
100
AcDbVertex
100
AcDbPolyFaceMeshVertex
 10
15.47330093383789
 20
-0.2590456008911133
 30
0.0092697143554688
 70
   192
  0
VERTEX
  5
233
330
1D5
100
AcDbEntity
  8
-DC_BREP
100
AcDbVertex
100
AcDbPolyFaceMeshVertex
 10
15.47342395782471
 20
-10.25904560089111
 30
2808.00927734375
 70
   192
  0
VERTEX
  5
234
330
1D5
100
AcDbEntity
  8
-DC_BREP
100
AcDbVertex
100
AcDbPolyFaceMeshVertex
 10
15.47330093383789
 20
-10.25904560089111
 30
0.0092697143554688
 70
   192
  0
VERTEX
  5
235
330
1D5
100
AcDbEntity
  8
-DC_BREP
100
AcDbVertex
100
AcDbPolyFaceMeshVertex
 10
15.47342300415039
 20
-0.2590456008911133
 30
2808.00927734375
 70
   192
  0
VERTEX
  5
236
330
1D5
100
AcDbEntity
  8
-DC_BREP
100
AcDbVertex
100
AcDbPolyFaceMeshVertex
 10
13.97342300415039
 20
-2.259045600891113
 30
2808.00927734375
 70
   192
  0
VERTEX
  5
237
330
1D5
100
AcDbEntity
  8
-DC_BREP
100
AcDbVertex
100
AcDbPolyFaceMeshVertex
 10
15.47342300415039
 20
-0.2590456008911133
 30
2808.00927734375
 70
   192
  0
VERTEX
  5
238
330
1D5
100
AcDbEntity
  8
-DC_BREP
100
AcDbVertex
100
AcDbPolyFaceMeshVertex
 10
13.97342300415039
 20
-0.2590456008911133
 30
2808.00927734375
 70
   192
  0
VERTEX
  5
239
330
1D5
100
AcDbEntity
  8
-DC_BREP
100
AcDbVertex
100
AcDbPolyFaceMeshVertex
 10
15.47342395782471
 20
-10.25904560089111
 30
2808.00927734375
 70
   192
  0
VERTEX
  5
23A
330
1D5
100
AcDbEntity
  8
-DC_BREP
100
AcDbVertex
100
AcDbPolyFaceMeshVertex
 10
12.4734239578247
 20
-8.759045600891113
 30
2808.00927734375
 70
   192
  0
VERTEX
  5
23B
330
1D5
100
AcDbEntity
  8
-DC_BREP
100
AcDbVertex
100
AcDbPolyFaceMeshVertex
 10
12.4734239578247
 20
-10.25904560089111
 30
2808.00927734375
 70
   192
  0
VERTEX
  5
23C
330
1D5
100
AcDbEntity
  8
-DC_BREP
100
AcDbVertex
100
AcDbPolyFaceMeshVertex
 10
13.97342395782471
 20
-8.759045600891113
 30
2808.00927734375
 70
   192
  0
VERTEX
  5
23D
330
1D5
100
AcDbEntity
  8
-DC_BREP
100
AcDbVertex
100
AcDbPolyFaceMeshVertex
 10
13.97342300415039
 20
-6.759045600891113
 30
2808.00927734375
 70
   192
  0
VERTEX
  5
23E
330
1D5
100
AcDbEntity
  8
-DC_BREP
100
AcDbVertex
100
AcDbPolyFaceMeshVertex
 10
12.47342300415039
 20
-6.759045600891113
 30
2808.00927734375
 70
   192
  0
VERTEX
  5
23F
330
1D5
100
AcDbEntity
  8
-DC_BREP
100
AcDbVertex
100
AcDbPolyFaceMeshVertex
 10
13.97342300415039
 20
-5.759045600891113
 30
2808.00927734375
 70
   192
  0
VERTEX
  5
240
330
1D5
100
AcDbEntity
  8
-DC_BREP
100
AcDbVertex
100
AcDbPolyFaceMeshVertex
 10
12.47342300415039
 20
-5.759045600891113
 30
2808.00927734375
 70
   192
  0
VERTEX
  5
241
330
1D5
100
AcDbEntity
  8
-DC_BREP
100
AcDbVertex
100
AcDbPolyFaceMeshVertex
 10
13.97342300415039
 20
-3.759045600891113
 30
2808.00927734375
 70
   192
  0
VERTEX
  5
242
330
1D5
100
AcDbEntity
  8
-DC_BREP
100
AcDbVertex
100
AcDbPolyFaceMeshVertex
 10
1.97342300415039
 20
-5.759046077728271
 30
2808.00927734375
 70
   192
  0
VERTEX
  5
243
330
1D5
100
AcDbEntity
  8
-DC_BREP
100
AcDbVertex
100
AcDbPolyFaceMeshVertex
 10
3.473423957824707
 20
-6.759046077728271
 30
2808.00927734375
 70
   192
  0
VERTEX
  5
244
330
1D5
100
AcDbEntity
  8
-DC_BREP
100
AcDbVertex
100
AcDbPolyFaceMeshVertex
 10
3.47342300415039
 20
-5.759046077728271
 30
2808.00927734375
 70
   192
  0
VERTEX
  5
245
330
1D5
100
AcDbEntity
  8
-DC_BREP
100
AcDbVertex
100
AcDbPolyFaceMeshVertex
 10
1.973423957824707
 20
-6.759046077728271
 30
2808.00927734375
 70
   192
  0
VERTEX
  5
246
330
1D5
100
AcDbEntity
  8
-DC_BREP
100
AcDbVertex
100
AcDbPolyFaceMeshVertex
 10
1.973423957824707
 20
-8.759046554565429
 30
2808.00927734375
 70
   192
  0
VERTEX
  5
247
330
1D5
100
AcDbEntity
  8
-DC_BREP
100
AcDbVertex
100
AcDbPolyFaceMeshVertex
 10
3.473423957824707
 20
-10.25904655456543
 30
2808.00927734375
 70
   192
  0
VERTEX
  5
248
330
1D5
100
AcDbEntity
  8
-DC_BREP
100
AcDbVertex
100
AcDbPolyFaceMeshVertex
 10
3.473423957824707
 20
-8.759046554565429
 30
2808.00927734375
 70
   192
  0
VERTEX
  5
249
330
1D5
100
AcDbEntity
  8
-DC_BREP
100
AcDbVertex
100
AcDbPolyFaceMeshVertex
 10
0.4734239578247071
 20
-10.25904655456543
 30
2808.00927734375
 70
   192
  0
VERTEX
  5
24A
330
1D5
100
AcDbEntity
  8
-DC_BREP
100
AcDbVertex
100
AcDbPolyFaceMeshVertex
 10
0.4734230041503907
 20
-0.2590465545654297
 30
2808.00927734375
 70
   192
  0
VERTEX
  5
24B
330
1D5
100
AcDbEntity
  8
-DC_BREP
100
AcDbVertex
100
AcDbPolyFaceMeshVertex
 10
1.97342300415039
 20
-3.759046077728271
 30
2808.00927734375
 70
   192
  0
VERTEX
  5
24C
330
1D5
100
AcDbEntity
  8
-DC_BREP
100
AcDbVertex
100
AcDbPolyFaceMeshVertex
 10
1.97342300415039
 20
-2.259046077728271
 30
2808.00927734375
 70
   192
  0
VERTEX
  5
24D
330
1D5
100
AcDbEntity
  8
-DC_BREP
100
AcDbVertex
100
AcDbPolyFaceMeshVertex
 10
1.97342300415039
 20
-0.2590465545654297
 30
2808.00927734375
 70
   192
  0
VERTEX
  5
24E
330
1D5
100
AcDbEntity
  8
-DC_BREP
100
AcDbVertex
100
AcDbPolyFaceMeshVertex
 10
0.4733009338378907
 20
-10.25904655456543
 30
0.0092703700065613
 70
   192
  0
VERTEX
  5
24F
330
1D5
100
AcDbEntity
  8
-DC_BREP
100
AcDbVertex
100
AcDbPolyFaceMeshVertex
 10
1.97330093383789
 20
-6.759046077728271
 30
0.0092703048139811
 70
   192
  0
VERTEX
  5
250
330
1D5
100
AcDbEntity
  8
-DC_BREP
100
AcDbVertex
100
AcDbPolyFaceMeshVertex
 10
1.97330093383789
 20
-8.759046554565429
 30
0.0092703048139811
 70
   192
  0
VERTEX
  5
251
330
1D5
100
AcDbEntity
  8
-DC_BREP
100
AcDbVertex
100
AcDbPolyFaceMeshVertex
 10
1.97330093383789
 20
-0.2590465545654297
 30
0.0092703048139811
 70
   192
  0
VERTEX
  5
252
330
1D5
100
AcDbEntity
  8
-DC_BREP
100
AcDbVertex
100
AcDbPolyFaceMeshVertex
 10
0.4733009338378907
 20
-0.2590465545654297
 30
0.0092703700065613
 70
   192
  0
VERTEX
  5
253
330
1D5
100
AcDbEntity
  8
-DC_BREP
100
AcDbVertex
100
AcDbPolyFaceMeshVertex
 10
1.97330093383789
 20
-2.259046077728271
 30
0.0092703048139811
 70
   192
  0
VERTEX
  5
254
330
1D5
100
AcDbEntity
  8
-DC_BREP
100
AcDbVertex
100
AcDbPolyFaceMeshVertex
 10
3.47330093383789
 20
-10.25904655456543
 30
0.0092702386900783
 70
   192
  0
VERTEX
  5
255
330
1D5
100
AcDbEntity
  8
-DC_BREP
100
AcDbVertex
100
AcDbPolyFaceMeshVertex
 10
3.47330093383789
 20
-8.759046554565429
 30
0.0092702386900783
 70
   192
  0
VERTEX
  5
256
330
1D5
100
AcDbEntity
  8
-DC_BREP
100
AcDbVertex
100
AcDbPolyFaceMeshVertex
 10
3.47330093383789
 20
-5.759046077728271
 30
0.0092702386900783
 70
   192
  0
VERTEX
  5
257
330
1D5
100
AcDbEntity
  8
-DC_BREP
100
AcDbVertex
100
AcDbPolyFaceMeshVertex
 10
3.47330093383789
 20
-6.759046077728271
 30
0.0092702386900783
 70
   192
  0
VERTEX
  5
258
330
1D5
100
AcDbEntity
  8
-DC_BREP
100
AcDbVertex
100
AcDbPolyFaceMeshVertex
 10
1.97330093383789
 20
-5.759046077728271
 30
0.0092703048139811
 70
   192
  0
VERTEX
  5
259
330
1D5
100
AcDbEntity
  8
-DC_BREP
100
AcDbVertex
100
AcDbPolyFaceMeshVertex
 10
12.47330093383789
 20
-5.759045600891113
 30
0.0092698456719518
 70
   192
  0
VERTEX
  5
25A
330
1D5
100
AcDbEntity
  8
-DC_BREP
100
AcDbVertex
100
AcDbPolyFaceMeshVertex
 10
13.97330093383789
 20
-6.759045600891113
 30
0.009269779548049
 70
   192
  0
VERTEX
  5
25B
330
1D5
100
AcDbEntity
  8
-DC_BREP
100
AcDbVertex
100
AcDbPolyFaceMeshVertex
 10
12.47330093383789
 20
-6.759045600891113
 30
0.0092698456719518
 70
   192
  0
VERTEX
  5
25C
330
1D5
100
AcDbEntity
  8
-DC_BREP
100
AcDbVertex
100
AcDbPolyFaceMeshVertex
 10
13.97330093383789
 20
-5.759045600891113
 30
0.009269779548049
 70
   192
  0
VERTEX
  5
25D
330
1D5
100
AcDbEntity
  8
-DC_BREP
100
AcDbVertex
100
AcDbPolyFaceMeshVertex
 10
13.97330093383789
 20
-8.759045600891113
 30
0.009269779548049
 70
   192
  0
VERTEX
  5
25E
330
1D5
100
AcDbEntity
  8
-DC_BREP
100
AcDbVertex
100
AcDbPolyFaceMeshVertex
 10
12.47330093383789
 20
-10.25904560089111
 30
0.0092698456719518
 70
   192
  0
VERTEX
  5
25F
330
1D5
100
AcDbEntity
  8
-DC_BREP
100
AcDbVertex
100
AcDbPolyFaceMeshVertex
 10
12.47330093383789
 20
-8.759045600891113
 30
0.0092698456719518
 70
   192
  0
VERTEX
  5
260
330
1D5
100
AcDbEntity
  8
-DC_BREP
100
AcDbVertex
100
AcDbPolyFaceMeshVertex
 10
15.47330093383789
 20
-10.25904560089111
 30
0.0092697143554688
 70
   192
  0
VERTEX
  5
261
330
1D5
100
AcDbEntity
  8
-DC_BREP
100
AcDbVertex
100
AcDbPolyFaceMeshVertex
 10
15.47330093383789
 20
-0.2590456008911133
 30
0.0092697143554688
 70
   192
  0
VERTEX
  5
262
330
1D5
100
AcDbEntity
  8
-DC_BREP
100
AcDbVertex
100
AcDbPolyFaceMeshVertex
 10
13.97330093383789
 20
-3.759045600891113
 30
0.009269779548049
 70
   192
  0
VERTEX
  5
263
330
1D5
100
AcDbEntity
  8
-DC_BREP
100
AcDbVertex
100
AcDbPolyFaceMeshVertex
 10
13.97330093383789
 20
-2.259045600891113
 30
0.009269779548049
 70
   192
  0
VERTEX
  5
264
330
1D5
100
AcDbEntity
  8
-DC_BREP
100
AcDbVertex
100
AcDbPolyFaceMeshVertex
 10
13.97330093383789
 20
-0.2590456008911133
 30
0.009269779548049
 70
   192
  0
VERTEX
  5
265
330
1D5
100
AcDbEntity
  8
-DC_BREP
100
AcDbVertex
100
AcDbPolyFaceMeshVertex
 10
1.97330093383789
 20
-3.759046077728271
 30
0.0092703048139811
 70
   192
  0
VERTEX
  5
266
330
1D5
100
AcDbEntity
  8
-DC_BREP
100
AcDbFaceRecord
 10
0.0
 20
0.0
 30
0.0
 70
   128
 71
     1
 72
     2
 73
     3
  0
VERTEX
  5
267
330
1D5
100
AcDbEntity
  8
-DC_BREP
100
AcDbFaceRecord
 10
0.0
 20
0.0
 30
0.0
 70
   128
 71
     2
 72
     1
 73
     4
  0
VERTEX
  5
268
330
1D5
100
AcDbEntity
  8
-DC_BREP
100
AcDbFaceRecord
 10
0.0
 20
0.0
 30
0.0
 70
   128
 71
     5
 72
     6
 73
     7
  0
VERTEX
  5
269
330
1D5
100
AcDbEntity
  8
-DC_BREP
100
AcDbFaceRecord
 10
0.0
 20
0.0
 30
0.0
 70
   128
 71
     6
 72
     5
 73
     8
  0
VERTEX
  5
26A
330
1D5
100
AcDbEntity
  8
-DC_BREP
100
AcDbFaceRecord
 10
0.0
 20
0.0
 30
0.0
 70
   128
 71
     9
 72
    10
 73
    11
  0
VERTEX
  5
26B
330
1D5
100
AcDbEntity
  8
-DC_BREP
100
AcDbFaceRecord
 10
0.0
 20
0.0
 30
0.0
 70
   128
 71
    10
 72
     9
 73
    12
  0
VERTEX
  5
26C
330
1D5
100
AcDbEntity
  8
-DC_BREP
100
AcDbFaceRecord
 10
0.0
 20
0.0
 30
0.0
 70
   128
 71
    13
 72
    14
 73
    15
  0
VERTEX
  5
26D
330
1D5
100
AcDbEntity
  8
-DC_BREP
100
AcDbFaceRecord
 10
0.0
 20
0.0
 30
0.0
 70
   128
 71
    14
 72
    13
 73
    16
  0
VERTEX
  5
26E
330
1D5
100
AcDbEntity
  8
-DC_BREP
100
AcDbFaceRecord
 10
0.0
 20
0.0
 30
0.0
 70
   128
 71
    17
 72
    18
 73
    19
  0
VERTEX
  5
26F
330
1D5
100
AcDbEntity
  8
-DC_BREP
100
AcDbFaceRecord
 10
0.0
 20
0.0
 30
0.0
 70
   128
 71
    18
 72
    17
 73
    20
  0
VERTEX
  5
270
330
1D5
100
AcDbEntity
  8
-DC_BREP
100
AcDbFaceRecord
 10
0.0
 20
0.0
 30
0.0
 70
   128
 71
    21
 72
    22
 73
    23
  0
VERTEX
  5
271
330
1D5
100
AcDbEntity
  8
-DC_BREP
100
AcDbFaceRecord
 10
0.0
 20
0.0
 30
0.0
 70
   128
 71
    22
 72
    21
 73
    24
  0
VERTEX
  5
272
330
1D5
100
AcDbEntity
  8
-DC_BREP
100
AcDbFaceRecord
 10
0.0
 20
0.0
 30
0.0
 70
   128
 71
    25
 72
    26
 73
    27
  0
VERTEX
  5
273
330
1D5
100
AcDbEntity
  8
-DC_BREP
100
AcDbFaceRecord
 10
0.0
 20
0.0
 30
0.0
 70
   128
 71
    26
 72
    25
 73
    28
  0
VERTEX
  5
274
330
1D5
100
AcDbEntity
  8
-DC_BREP
100
AcDbFaceRecord
 10
0.0
 20
0.0
 30
0.0
 70
   128
 71
    29
 72
    30
 73
    31
  0
VERTEX
  5
275
330
1D5
100
AcDbEntity
  8
-DC_BREP
100
AcDbFaceRecord
 10
0.0
 20
0.0
 30
0.0
 70
   128
 71
    30
 72
    29
 73
    32
  0
VERTEX
  5
276
330
1D5
100
AcDbEntity
  8
-DC_BREP
100
AcDbFaceRecord
 10
0.0
 20
0.0
 30
0.0
 70
   128
 71
    33
 72
    34
 73
    35
  0
VERTEX
  5
277
330
1D5
100
AcDbEntity
  8
-DC_BREP
100
AcDbFaceRecord
 10
0.0
 20
0.0
 30
0.0
 70
   128
 71
    34
 72
    33
 73
    36
  0
VERTEX
  5
278
330
1D5
100
AcDbEntity
  8
-DC_BREP
100
AcDbFaceRecord
 10
0.0
 20
0.0
 30
0.0
 70
   128
 71
    37
 72
    38
 73
    39
  0
VERTEX
  5
279
330
1D5
100
AcDbEntity
  8
-DC_BREP
100
AcDbFaceRecord
 10
0.0
 20
0.0
 30
0.0
 70
   128
 71
    38
 72
    37
 73
    40
  0
VERTEX
  5
27A
330
1D5
100
AcDbEntity
  8
-DC_BREP
100
AcDbFaceRecord
 10
0.0
 20
0.0
 30
0.0
 70
   128
 71
    41
 72
    42
 73
    43
  0
VERTEX
  5
27B
330
1D5
100
AcDbEntity
  8
-DC_BREP
100
AcDbFaceRecord
 10
0.0
 20
0.0
 30
0.0
 70
   128
 71
    42
 72
    41
 73
    44
  0
VERTEX
  5
27C
330
1D5
100
AcDbEntity
  8
-DC_BREP
100
AcDbFaceRecord
 10
0.0
 20
0.0
 30
0.0
 70
   128
 71
    45
 72
    46
 73
    47
  0
VERTEX
  5
27D
330
1D5
100
AcDbEntity
  8
-DC_BREP
100
AcDbFaceRecord
 10
0.0
 20
0.0
 30
0.0
 70
   128
 71
    46
 72
    45
 73
    48
  0
VERTEX
  5
27E
330
1D5
100
AcDbEntity
  8
-DC_BREP
100
AcDbFaceRecord
 10
0.0
 20
0.0
 30
0.0
 70
   128
 71
    49
 72
    50
 73
    51
  0
VERTEX
  5
27F
330
1D5
100
AcDbEntity
  8
-DC_BREP
100
AcDbFaceRecord
 10
0.0
 20
0.0
 30
0.0
 70
   128
 71
    50
 72
    49
 73
    52
  0
VERTEX
  5
280
330
1D5
100
AcDbEntity
  8
-DC_BREP
100
AcDbFaceRecord
 10
0.0
 20
0.0
 30
0.0
 70
   128
 71
    53
 72
    54
 73
    55
  0
VERTEX
  5
281
330
1D5
100
AcDbEntity
  8
-DC_BREP
100
AcDbFaceRecord
 10
0.0
 20
0.0
 30
0.0
 70
   128
 71
    54
 72
    53
 73
    56
  0
VERTEX
  5
282
330
1D5
100
AcDbEntity
  8
-DC_BREP
100
AcDbFaceRecord
 10
0.0
 20
0.0
 30
0.0
 70
   128
 71
    57
 72
    58
 73
    59
  0
VERTEX
  5
283
330
1D5
100
AcDbEntity
  8
-DC_BREP
100
AcDbFaceRecord
 10
0.0
 20
0.0
 30
0.0
 70
   128
 71
    58
 72
    57
 73
    60
  0
VERTEX
  5
284
330
1D5
100
AcDbEntity
  8
-DC_BREP
100
AcDbFaceRecord
 10
0.0
 20
0.0
 30
0.0
 70
   128
 71
    61
 72
    62
 73
    63
  0
VERTEX
  5
285
330
1D5
100
AcDbEntity
  8
-DC_BREP
100
AcDbFaceRecord
 10
0.0
 20
0.0
 30
0.0
 70
   128
 71
    62
 72
    61
 73
    64
  0
VERTEX
  5
286
330
1D5
100
AcDbEntity
  8
-DC_BREP
100
AcDbFaceRecord
 10
0.0
 20
0.0
 30
0.0
 70
   128
 71
    65
 72
    66
 73
    67
  0
VERTEX
  5
287
330
1D5
100
AcDbEntity
  8
-DC_BREP
100
AcDbFaceRecord
 10
0.0
 20
0.0
 30
0.0
 70
   128
 71
    66
 72
    65
 73
    68
  0
VERTEX
  5
288
330
1D5
100
AcDbEntity
  8
-DC_BREP
100
AcDbFaceRecord
 10
0.0
 20
0.0
 30
0.0
 70
   128
 71
    69
 72
    70
 73
    71
  0
VERTEX
  5
289
330
1D5
100
AcDbEntity
  8
-DC_BREP
100
AcDbFaceRecord
 10
0.0
 20
0.0
 30
0.0
 70
   128
 71
    70
 72
    69
 73
    72
  0
VERTEX
  5
28A
330
1D5
100
AcDbEntity
  8
-DC_BREP
100
AcDbFaceRecord
 10
0.0
 20
0.0
 30
0.0
 70
   128
 71
    73
 72
    74
 73
    75
  0
VERTEX
  5
28B
330
1D5
100
AcDbEntity
  8
-DC_BREP
100
AcDbFaceRecord
 10
0.0
 20
0.0
 30
0.0
 70
   128
 71
    74
 72
    73
 73
    76
  0
VERTEX
  5
28C
330
1D5
100
AcDbEntity
  8
-DC_BREP
100
AcDbFaceRecord
 10
0.0
 20
0.0
 30
0.0
 70
   128
 71
    77
 72
    78
 73
    79
  0
VERTEX
  5
28D
330
1D5
100
AcDbEntity
  8
-DC_BREP
100
AcDbFaceRecord
 10
0.0
 20
0.0
 30
0.0
 70
   128
 71
    78
 72
    77
 73
    80
  0
VERTEX
  5
28E
330
1D5
100
AcDbEntity
  8
-DC_BREP
100
AcDbFaceRecord
 10
0.0
 20
0.0
 30
0.0
 70
   128
 71
    81
 72
    82
 73
    83
  0
VERTEX
  5
28F
330
1D5
100
AcDbEntity
  8
-DC_BREP
100
AcDbFaceRecord
 10
0.0
 20
0.0
 30
0.0
 70
   128
 71
    82
 72
    81
 73
    84
  0
VERTEX
  5
290
330
1D5
100
AcDbEntity
  8
-DC_BREP
100
AcDbFaceRecord
 10
0.0
 20
0.0
 30
0.0
 70
   128
 71
    85
 72
    86
 73
    87
  0
VERTEX
  5
291
330
1D5
100
AcDbEntity
  8
-DC_BREP
100
AcDbFaceRecord
 10
0.0
 20
0.0
 30
0.0
 70
   128
 71
    86
 72
    85
 73
    88
  0
VERTEX
  5
292
330
1D5
100
AcDbEntity
  8
-DC_BREP
100
AcDbFaceRecord
 10
0.0
 20
0.0
 30
0.0
 70
   128
 71
    89
 72
    90
 73
    91
  0
VERTEX
  5
293
330
1D5
100
AcDbEntity
  8
-DC_BREP
100
AcDbFaceRecord
 10
0.0
 20
0.0
 30
0.0
 70
   128
 71
    90
 72
    89
 73
    92
  0
VERTEX
  5
294
330
1D5
100
AcDbEntity
  8
-DC_BREP
100
AcDbFaceRecord
 10
0.0
 20
0.0
 30
0.0
 70
   128
 71
    93
 72
    94
 73
    95
  0
VERTEX
  5
295
330
1D5
100
AcDbEntity
  8
-DC_BREP
100
AcDbFaceRecord
 10
0.0
 20
0.0
 30
0.0
 70
   128
 71
    94
 72
    93
 73
    96
  0
VERTEX
  5
296
330
1D5
100
AcDbEntity
  8
-DC_BREP
100
AcDbFaceRecord
 10
0.0
 20
0.0
 30
0.0
 70
   128
 71
    97
 72
    98
 73
    99
  0
VERTEX
  5
297
330
1D5
100
AcDbEntity
  8
-DC_BREP
100
AcDbFaceRecord
 10
0.0
 20
0.0
 30
0.0
 70
   128
 71
   100
 72
   101
 73
   102
  0
VERTEX
  5
298
330
1D5
100
AcDbEntity
  8
-DC_BREP
100
AcDbFaceRecord
 10
0.0
 20
0.0
 30
0.0
 70
   128
 71
   100
 72
   103
 73
   101
  0
VERTEX
  5
299
330
1D5
100
AcDbEntity
  8
-DC_BREP
100
AcDbFaceRecord
 10
0.0
 20
0.0
 30
0.0
 70
   128
 71
    98
 72
   103
 73
   100
  0
VERTEX
  5
29A
330
1D5
100
AcDbEntity
  8
-DC_BREP
100
AcDbFaceRecord
 10
0.0
 20
0.0
 30
0.0
 70
   128
 71
    98
 72
   104
 73
   103
  0
VERTEX
  5
29B
330
1D5
100
AcDbEntity
  8
-DC_BREP
100
AcDbFaceRecord
 10
0.0
 20
0.0
 30
0.0
 70
   128
 71
   105
 72
   106
 73
   107
  0
VERTEX
  5
29C
330
1D5
100
AcDbEntity
  8
-DC_BREP
100
AcDbFaceRecord
 10
0.0
 20
0.0
 30
0.0
 70
   128
 71
   104
 72
   106
 73
   105
  0
VERTEX
  5
29D
330
1D5
100
AcDbEntity
  8
-DC_BREP
100
AcDbFaceRecord
 10
0.0
 20
0.0
 30
0.0
 70
   128
 71
    98
 72
   106
 73
   104
  0
VERTEX
  5
29E
330
1D5
100
AcDbEntity
  8
-DC_BREP
100
AcDbFaceRecord
 10
0.0
 20
0.0
 30
0.0
 70
   128
 71
    98
 72
   108
 73
   106
  0
VERTEX
  5
29F
330
1D5
100
AcDbEntity
  8
-DC_BREP
100
AcDbFaceRecord
 10
0.0
 20
0.0
 30
0.0
 70
   128
 71
   109
 72
   110
 73
   111
  0
VERTEX
  5
2A0
330
1D5
100
AcDbEntity
  8
-DC_BREP
100
AcDbFaceRecord
 10
0.0
 20
0.0
 30
0.0
 70
   128
 71
   109
 72
   112
 73
   110
  0
VERTEX
  5
2A1
330
1D5
100
AcDbEntity
  8
-DC_BREP
100
AcDbFaceRecord
 10
0.0
 20
0.0
 30
0.0
 70
   128
 71
   113
 72
   114
 73
   115
  0
VERTEX
  5
2A2
330
1D5
100
AcDbEntity
  8
-DC_BREP
100
AcDbFaceRecord
 10
0.0
 20
0.0
 30
0.0
 70
   128
 71
   113
 72
   116
 73
   114
  0
VERTEX
  5
2A3
330
1D5
100
AcDbEntity
  8
-DC_BREP
100
AcDbFaceRecord
 10
0.0
 20
0.0
 30
0.0
 70
   128
 71
   113
 72
   117
 73
   116
  0
VERTEX
  5
2A4
330
1D5
100
AcDbEntity
  8
-DC_BREP
100
AcDbFaceRecord
 10
0.0
 20
0.0
 30
0.0
 70
   128
 71
   112
 72
   117
 73
   113
  0
VERTEX
  5
2A5
330
1D5
100
AcDbEntity
  8
-DC_BREP
100
AcDbFaceRecord
 10
0.0
 20
0.0
 30
0.0
 70
   128
 71
   109
 72
   117
 73
   112
  0
VERTEX
  5
2A6
330
1D5
100
AcDbEntity
  8
-DC_BREP
100
AcDbFaceRecord
 10
0.0
 20
0.0
 30
0.0
 70
   128
 71
   118
 72
   117
 73
   109
  0
VERTEX
  5
2A7
330
1D5
100
AcDbEntity
  8
-DC_BREP
100
AcDbFaceRecord
 10
0.0
 20
0.0
 30
0.0
 70
   128
 71
   117
 72
   119
 73
   120
  0
VERTEX
  5
2A8
330
1D5
100
AcDbEntity
  8
-DC_BREP
100
AcDbFaceRecord
 10
0.0
 20
0.0
 30
0.0
 70
   128
 71
   118
 72
   119
 73
   117
  0
VERTEX
  5
2A9
330
1D5
100
AcDbEntity
  8
-DC_BREP
100
AcDbFaceRecord
 10
0.0
 20
0.0
 30
0.0
 70
   128
 71
   108
 72
   119
 73
   118
  0
VERTEX
  5
2AA
330
1D5
100
AcDbEntity
  8
-DC_BREP
100
AcDbFaceRecord
 10
0.0
 20
0.0
 30
0.0
 70
   128
 71
   108
 72
    97
 73
   119
  0
VERTEX
  5
2AB
330
1D5
100
AcDbEntity
  8
-DC_BREP
100
AcDbFaceRecord
 10
0.0
 20
0.0
 30
0.0
 70
   128
 71
    98
 72
    97
 73
   108
  0
VERTEX
  5
2AC
330
1D5
100
AcDbEntity
  8
-DC_BREP
100
AcDbFaceRecord
 10
0.0
 20
0.0
 30
0.0
 70
   128
 71
   121
 72
   122
 73
   123
  0
VERTEX
  5
2AD
330
1D5
100
AcDbEntity
  8
-DC_BREP
100
AcDbFaceRecord
 10
0.0
 20
0.0
 30
0.0
 70
   128
 71
   124
 72
   121
 73
   125
  0
VERTEX
  5
2AE
330
1D5
100
AcDbEntity
  8
-DC_BREP
100
AcDbFaceRecord
 10
0.0
 20
0.0
 30
0.0
 70
   128
 71
   126
 72
   121
 73
   124
  0
VERTEX
  5
2AF
330
1D5
100
AcDbEntity
  8
-DC_BREP
100
AcDbFaceRecord
 10
0.0
 20
0.0
 30
0.0
 70
   128
 71
   127
 72
   123
 73
   128
  0
VERTEX
  5
2B0
330
1D5
100
AcDbEntity
  8
-DC_BREP
100
AcDbFaceRecord
 10
0.0
 20
0.0
 30
0.0
 70
   128
 71
   121
 72
   123
 73
   127
  0
VERTEX
  5
2B1
330
1D5
100
AcDbEntity
  8
-DC_BREP
100
AcDbFaceRecord
 10
0.0
 20
0.0
 30
0.0
 70
   128
 71
   122
 72
   129
 73
   130
  0
VERTEX
  5
2B2
330
1D5
100
AcDbEntity
  8
-DC_BREP
100
AcDbFaceRecord
 10
0.0
 20
0.0
 30
0.0
 70
   128
 71
   122
 72
   131
 73
   129
  0
VERTEX
  5
2B3
330
1D5
100
AcDbEntity
  8
-DC_BREP
100
AcDbFaceRecord
 10
0.0
 20
0.0
 30
0.0
 70
   128
 71
   132
 72
   133
 73
   134
  0
VERTEX
  5
2B4
330
1D5
100
AcDbEntity
  8
-DC_BREP
100
AcDbFaceRecord
 10
0.0
 20
0.0
 30
0.0
 70
   128
 71
   135
 72
   133
 73
   132
  0
VERTEX
  5
2B5
330
1D5
100
AcDbEntity
  8
-DC_BREP
100
AcDbFaceRecord
 10
0.0
 20
0.0
 30
0.0
 70
   128
 71
   136
 72
   137
 73
   138
  0
VERTEX
  5
2B6
330
1D5
100
AcDbEntity
  8
-DC_BREP
100
AcDbFaceRecord
 10
0.0
 20
0.0
 30
0.0
 70
   128
 71
   136
 72
   139
 73
   137
  0
VERTEX
  5
2B7
330
1D5
100
AcDbEntity
  8
-DC_BREP
100
AcDbFaceRecord
 10
0.0
 20
0.0
 30
0.0
 70
   128
 71
   136
 72
   140
 73
   139
  0
VERTEX
  5
2B8
330
1D5
100
AcDbEntity
  8
-DC_BREP
100
AcDbFaceRecord
 10
0.0
 20
0.0
 30
0.0
 70
   128
 71
   133
 72
   140
 73
   136
  0
VERTEX
  5
2B9
330
1D5
100
AcDbEntity
  8
-DC_BREP
100
AcDbFaceRecord
 10
0.0
 20
0.0
 30
0.0
 70
   128
 71
   135
 72
   140
 73
   133
  0
VERTEX
  5
2BA
330
1D5
100
AcDbEntity
  8
-DC_BREP
100
AcDbFaceRecord
 10
0.0
 20
0.0
 30
0.0
 70
   128
 71
   141
 72
   140
 73
   135
  0
VERTEX
  5
2BB
330
1D5
100
AcDbEntity
  8
-DC_BREP
100
AcDbFaceRecord
 10
0.0
 20
0.0
 30
0.0
 70
   128
 71
   140
 72
   142
 73
   143
  0
VERTEX
  5
2BC
330
1D5
100
AcDbEntity
  8
-DC_BREP
100
AcDbFaceRecord
 10
0.0
 20
0.0
 30
0.0
 70
   128
 71
   141
 72
   142
 73
   140
  0
VERTEX
  5
2BD
330
1D5
100
AcDbEntity
  8
-DC_BREP
100
AcDbFaceRecord
 10
0.0
 20
0.0
 30
0.0
 70
   128
 71
   144
 72
   142
 73
   141
  0
VERTEX
  5
2BE
330
1D5
100
AcDbEntity
  8
-DC_BREP
100
AcDbFaceRecord
 10
0.0
 20
0.0
 30
0.0
 70
   128
 71
   144
 72
   126
 73
   142
  0
VERTEX
  5
2BF
330
1D5
100
AcDbEntity
  8
-DC_BREP
100
AcDbFaceRecord
 10
0.0
 20
0.0
 30
0.0
 70
   128
 71
   144
 72
   121
 73
   126
  0
VERTEX
  5
2C0
330
1D5
100
AcDbEntity
  8
-DC_BREP
100
AcDbFaceRecord
 10
0.0
 20
0.0
 30
0.0
 70
   128
 71
   131
 72
   121
 73
   144
  0
VERTEX
  5
2C1
330
1D5
100
AcDbEntity
  8
-DC_BREP
100
AcDbFaceRecord
 10
0.0
 20
0.0
 30
0.0
 70
   128
 71
   122
 72
   121
 73
   131
  0
SEQEND
  5
2C2
330
1D5
100
AcDbEntity
  8
-DC_BREP
  0
POLYLINE
  5
2C4
330
1F
100
AcDbEntity
  8
-DC_BREP0
100
AcDbPolyFaceMesh
 66
     1
 10
0.0
 20
0.0
 30
0.0
 70
    64
 71
   144
 72
    92
1001
AVE_ENTITY_MATERIAL
1002
{
1000

1002
{
1071
        0
1070
     0
1070
     0
1002
{
1070
     0
1070
     0
1070
     0
1040
0.0
1002
}
1070
     0
1070
     0
1002
{
1002
}
1002
}
1002
{
1002
}
1002
{
1002
}
1011
0.0
1021
0.0
1031
0.0
1011
1.0
1021
0.0
1031
0.0
1011
0.0
1021
1.0
1031
0.0
1011
0.0
1021
0.0
1031
1.0
1002
}
  0
VERTEX
  5
2C5
330
2C4
100
AcDbEntity
  8
-DC_BREP0
100
AcDbVertex
100
AcDbPolyFaceMeshVertex
 10
15.47330093383789
 20
-1210.259033203125
 30
10.0092716217041
 70
   192
  0
VERTEX
  5
2C6
330
2C4
100
AcDbEntity
  8
-DC_BREP0
100
AcDbVertex
100
AcDbPolyFaceMeshVertex
 10
12.47344398498535
 20
-10.259033203125
 30
10.0093240737915
 70
   192
  0
VERTEX
  5
2C7
330
2C4
100
AcDbEntity
  8
-DC_BREP0
100
AcDbVertex
100
AcDbPolyFaceMeshVertex
 10
12.47330093383789
 20
-1210.259033203125
 30
10.0092716217041
 70
   192
  0
VERTEX
  5
2C8
330
2C4
100
AcDbEntity
  8
-DC_BREP0
100
AcDbVertex
100
AcDbPolyFaceMeshVertex
 10
15.47344398498535
 20
-10.259033203125
 30
10.0093240737915
 70
   192
  0
VERTEX
  5
2C9
330
2C4
100
AcDbEntity
  8
-DC_BREP0
100
AcDbVertex
100
AcDbPolyFaceMeshVertex
 10
12.47330093383789
 20
-1210.259033203125
 30
10.0092716217041
 70
   192
  0
VERTEX
  5
2CA
330
2C4
100
AcDbEntity
  8
-DC_BREP0
100
AcDbVertex
100
AcDbPolyFaceMeshVertex
 10
12.47344398498535
 20
-10.259033203125
 30
8.509324073791503
 70
   192
  0
VERTEX
  5
2CB
330
2C4
100
AcDbEntity
  8
-DC_BREP0
100
AcDbVertex
100
AcDbPolyFaceMeshVertex
 10
12.47330093383789
 20
-1210.259033203125
 30
8.509271621704101
 70
   192
  0
VERTEX
  5
2CC
330
2C4
100
AcDbEntity
  8
-DC_BREP0
100
AcDbVertex
100
AcDbPolyFaceMeshVertex
 10
12.47344398498535
 20
-10.259033203125
 30
10.0093240737915
 70
   192
  0
VERTEX
  5
2CD
330
2C4
100
AcDbEntity
  8
-DC_BREP0
100
AcDbVertex
100
AcDbPolyFaceMeshVertex
 10
12.47330093383789
 20
-1210.259033203125
 30
8.509271621704101
 70
   192
  0
VERTEX
  5
2CE
330
2C4
100
AcDbEntity
  8
-DC_BREP0
100
AcDbVertex
100
AcDbPolyFaceMeshVertex
 10
13.97344398498535
 20
-10.259033203125
 30
8.509324073791503
 70
   192
  0
VERTEX
  5
2CF
330
2C4
100
AcDbEntity
  8
-DC_BREP0
100
AcDbVertex
100
AcDbPolyFaceMeshVertex
 10
13.97330093383789
 20
-1210.259033203125
 30
8.509271621704101
 70
   192
  0
VERTEX
  5
2D0
330
2C4
100
AcDbEntity
  8
-DC_BREP0
100
AcDbVertex
100
AcDbPolyFaceMeshVertex
 10
12.47344398498535
 20
-10.259033203125
 30
8.509324073791503
 70
   192
  0
VERTEX
  5
2D1
330
2C4
100
AcDbEntity
  8
-DC_BREP0
100
AcDbVertex
100
AcDbPolyFaceMeshVertex
 10
13.97330093383789
 20
-1210.259033203125
 30
6.509271621704101
 70
   192
  0
VERTEX
  5
2D2
330
2C4
100
AcDbEntity
  8
-DC_BREP0
100
AcDbVertex
100
AcDbPolyFaceMeshVertex
 10
13.97344398498535
 20
-10.259033203125
 30
8.509324073791503
 70
   192
  0
VERTEX
  5
2D3
330
2C4
100
AcDbEntity
  8
-DC_BREP0
100
AcDbVertex
100
AcDbPolyFaceMeshVertex
 10
13.97344398498535
 20
-10.259033203125
 30
6.509324073791503
 70
   192
  0
VERTEX
  5
2D4
330
2C4
100
AcDbEntity
  8
-DC_BREP0
100
AcDbVertex
100
AcDbPolyFaceMeshVertex
 10
13.97330093383789
 20
-1210.259033203125
 30
8.509271621704101
 70
   192
  0
VERTEX
  5
2D5
330
2C4
100
AcDbEntity
  8
-DC_BREP0
100
AcDbVertex
100
AcDbPolyFaceMeshVertex
 10
13.97330093383789
 20
-1210.259033203125
 30
6.509271621704101
 70
   192
  0
VERTEX
  5
2D6
330
2C4
100
AcDbEntity
  8
-DC_BREP0
100
AcDbVertex
100
AcDbPolyFaceMeshVertex
 10
12.47344398498535
 20
-10.259033203125
 30
6.509324073791503
 70
   192
  0
VERTEX
  5
2D7
330
2C4
100
AcDbEntity
  8
-DC_BREP0
100
AcDbVertex
100
AcDbPolyFaceMeshVertex
 10
12.47330093383789
 20
-1210.259033203125
 30
6.509271621704101
 70
   192
  0
VERTEX
  5
2D8
330
2C4
100
AcDbEntity
  8
-DC_BREP0
100
AcDbVertex
100
AcDbPolyFaceMeshVertex
 10
13.97344398498535
 20
-10.259033203125
 30
6.509324073791503
 70
   192
  0
VERTEX
  5
2D9
330
2C4
100
AcDbEntity
  8
-DC_BREP0
100
AcDbVertex
100
AcDbPolyFaceMeshVertex
 10
12.47330093383789
 20
-1210.259033203125
 30
6.509271621704101
 70
   192
  0
VERTEX
  5
2DA
330
2C4
100
AcDbEntity
  8
-DC_BREP0
100
AcDbVertex
100
AcDbPolyFaceMeshVertex
 10
12.47344398498535
 20
-10.259033203125
 30
5.509324073791503
 70
   192
  0
VERTEX
  5
2DB
330
2C4
100
AcDbEntity
  8
-DC_BREP0
100
AcDbVertex
100
AcDbPolyFaceMeshVertex
 10
12.47330093383789
 20
-1210.259033203125
 30
5.509271621704101
 70
   192
  0
VERTEX
  5
2DC
330
2C4
100
AcDbEntity
  8
-DC_BREP0
100
AcDbVertex
100
AcDbPolyFaceMeshVertex
 10
12.47344398498535
 20
-10.259033203125
 30
6.509324073791503
 70
   192
  0
VERTEX
  5
2DD
330
2C4
100
AcDbEntity
  8
-DC_BREP0
100
AcDbVertex
100
AcDbPolyFaceMeshVertex
 10
12.47330093383789
 20
-1210.259033203125
 30
5.509271621704101
 70
   192
  0
VERTEX
  5
2DE
330
2C4
100
AcDbEntity
  8
-DC_BREP0
100
AcDbVertex
100
AcDbPolyFaceMeshVertex
 10
13.97344398498535
 20
-10.259033203125
 30
5.509324073791503
 70
   192
  0
VERTEX
  5
2DF
330
2C4
100
AcDbEntity
  8
-DC_BREP0
100
AcDbVertex
100
AcDbPolyFaceMeshVertex
 10
13.97330093383789
 20
-1210.259033203125
 30
5.509271621704101
 70
   192
  0
VERTEX
  5
2E0
330
2C4
100
AcDbEntity
  8
-DC_BREP0
100
AcDbVertex
100
AcDbPolyFaceMeshVertex
 10
12.47344398498535
 20
-10.259033203125
 30
5.509324073791503
 70
   192
  0
VERTEX
  5
2E1
330
2C4
100
AcDbEntity
  8
-DC_BREP0
100
AcDbVertex
100
AcDbPolyFaceMeshVertex
 10
13.97330093383789
 20
-1210.259033203125
 30
3.509271621704101
 70
   192
  0
VERTEX
  5
2E2
330
2C4
100
AcDbEntity
  8
-DC_BREP0
100
AcDbVertex
100
AcDbPolyFaceMeshVertex
 10
13.97344398498535
 20
-10.259033203125
 30
5.509324073791503
 70
   192
  0
VERTEX
  5
2E3
330
2C4
100
AcDbEntity
  8
-DC_BREP0
100
AcDbVertex
100
AcDbPolyFaceMeshVertex
 10
13.97344398498535
 20
-10.259033203125
 30
3.509324073791503
 70
   192
  0
VERTEX
  5
2E4
330
2C4
100
AcDbEntity
  8
-DC_BREP0
100
AcDbVertex
100
AcDbPolyFaceMeshVertex
 10
13.97330093383789
 20
-1210.259033203125
 30
5.509271621704101
 70
   192
  0
VERTEX
  5
2E5
330
2C4
100
AcDbEntity
  8
-DC_BREP0
100
AcDbVertex
100
AcDbPolyFaceMeshVertex
 10
13.97330093383789
 20
-1210.259033203125
 30
3.509271621704101
 70
   192
  0
VERTEX
  5
2E6
330
2C4
100
AcDbEntity
  8
-DC_BREP0
100
AcDbVertex
100
AcDbPolyFaceMeshVertex
 10
1.973443984985351
 20
-10.259033203125
 30
3.509324073791503
 70
   192
  0
VERTEX
  5
2E7
330
2C4
100
AcDbEntity
  8
-DC_BREP0
100
AcDbVertex
100
AcDbPolyFaceMeshVertex
 10
1.97330093383789
 20
-1210.259033203125
 30
3.509271621704101
 70
   192
  0
VERTEX
  5
2E8
330
2C4
100
AcDbEntity
  8
-DC_BREP0
100
AcDbVertex
100
AcDbPolyFaceMeshVertex
 10
13.97344398498535
 20
-10.259033203125
 30
3.509324073791503
 70
   192
  0
VERTEX
  5
2E9
330
2C4
100
AcDbEntity
  8
-DC_BREP0
100
AcDbVertex
100
AcDbPolyFaceMeshVertex
 10
1.97330093383789
 20
-1210.259033203125
 30
3.509271621704101
 70
   192
  0
VERTEX
  5
2EA
330
2C4
100
AcDbEntity
  8
-DC_BREP0
100
AcDbVertex
100
AcDbPolyFaceMeshVertex
 10
1.973443984985351
 20
-10.259033203125
 30
5.509324073791503
 70
   192
  0
VERTEX
  5
2EB
330
2C4
100
AcDbEntity
  8
-DC_BREP0
100
AcDbVertex
100
AcDbPolyFaceMeshVertex
 10
1.97330093383789
 20
-1210.259033203125
 30
5.509271621704101
 70
   192
  0
VERTEX
  5
2EC
330
2C4
100
AcDbEntity
  8
-DC_BREP0
100
AcDbVertex
100
AcDbPolyFaceMeshVertex
 10
1.973443984985351
 20
-10.259033203125
 30
3.509324073791503
 70
   192
  0
VERTEX
  5
2ED
330
2C4
100
AcDbEntity
  8
-DC_BREP0
100
AcDbVertex
100
AcDbPolyFaceMeshVertex
 10
1.97330093383789
 20
-1210.259033203125
 30
5.509271621704101
 70
   192
  0
VERTEX
  5
2EE
330
2C4
100
AcDbEntity
  8
-DC_BREP0
100
AcDbVertex
100
AcDbPolyFaceMeshVertex
 10
3.473443984985351
 20
-10.259033203125
 30
5.509324073791503
 70
   192
  0
VERTEX
  5
2EF
330
2C4
100
AcDbEntity
  8
-DC_BREP0
100
AcDbVertex
100
AcDbPolyFaceMeshVertex
 10
3.47330093383789
 20
-1210.259033203125
 30
5.509271621704101
 70
   192
  0
VERTEX
  5
2F0
330
2C4
100
AcDbEntity
  8
-DC_BREP0
100
AcDbVertex
100
AcDbPolyFaceMeshVertex
 10
1.973443984985351
 20
-10.259033203125
 30
5.509324073791503
 70
   192
  0
VERTEX
  5
2F1
330
2C4
100
AcDbEntity
  8
-DC_BREP0
100
AcDbVertex
100
AcDbPolyFaceMeshVertex
 10
3.47330093383789
 20
-1210.259033203125
 30
5.509271621704101
 70
   192
  0
VERTEX
  5
2F2
330
2C4
100
AcDbEntity
  8
-DC_BREP0
100
AcDbVertex
100
AcDbPolyFaceMeshVertex
 10
3.473443984985351
 20
-10.259033203125
 30
6.509324073791503
 70
   192
  0
VERTEX
  5
2F3
330
2C4
100
AcDbEntity
  8
-DC_BREP0
100
AcDbVertex
100
AcDbPolyFaceMeshVertex
 10
3.47330093383789
 20
-1210.259033203125
 30
6.509271621704101
 70
   192
  0
VERTEX
  5
2F4
330
2C4
100
AcDbEntity
  8
-DC_BREP0
100
AcDbVertex
100
AcDbPolyFaceMeshVertex
 10
3.473443984985351
 20
-10.259033203125
 30
5.509324073791503
 70
   192
  0
VERTEX
  5
2F5
330
2C4
100
AcDbEntity
  8
-DC_BREP0
100
AcDbVertex
100
AcDbPolyFaceMeshVertex
 10
3.47330093383789
 20
-1210.259033203125
 30
6.509271621704101
 70
   192
  0
VERTEX
  5
2F6
330
2C4
100
AcDbEntity
  8
-DC_BREP0
100
AcDbVertex
100
AcDbPolyFaceMeshVertex
 10
1.973443984985351
 20
-10.259033203125
 30
6.509324073791503
 70
   192
  0
VERTEX
  5
2F7
330
2C4
100
AcDbEntity
  8
-DC_BREP0
100
AcDbVertex
100
AcDbPolyFaceMeshVertex
 10
1.97330093383789
 20
-1210.259033203125
 30
6.509271621704101
 70
   192
  0
VERTEX
  5
2F8
330
2C4
100
AcDbEntity
  8
-DC_BREP0
100
AcDbVertex
100
AcDbPolyFaceMeshVertex
 10
3.473443984985351
 20
-10.259033203125
 30
6.509324073791503
 70
   192
  0
VERTEX
  5
2F9
330
2C4
100
AcDbEntity
  8
-DC_BREP0
100
AcDbVertex
100
AcDbPolyFaceMeshVertex
 10
1.97330093383789
 20
-1210.259033203125
 30
8.509271621704101
 70
   192
  0
VERTEX
  5
2FA
330
2C4
100
AcDbEntity
  8
-DC_BREP0
100
AcDbVertex
100
AcDbPolyFaceMeshVertex
 10
1.973443984985351
 20
-10.259033203125
 30
6.509324073791503
 70
   192
  0
VERTEX
  5
2FB
330
2C4
100
AcDbEntity
  8
-DC_BREP0
100
AcDbVertex
100
AcDbPolyFaceMeshVertex
 10
1.973443984985351
 20
-10.259033203125
 30
8.509324073791503
 70
   192
  0
VERTEX
  5
2FC
330
2C4
100
AcDbEntity
  8
-DC_BREP0
100
AcDbVertex
100
AcDbPolyFaceMeshVertex
 10
1.97330093383789
 20
-1210.259033203125
 30
6.509271621704101
 70
   192
  0
VERTEX
  5
2FD
330
2C4
100
AcDbEntity
  8
-DC_BREP0
100
AcDbVertex
100
AcDbPolyFaceMeshVertex
 10
1.97330093383789
 20
-1210.259033203125
 30
8.509271621704101
 70
   192
  0
VERTEX
  5
2FE
330
2C4
100
AcDbEntity
  8
-DC_BREP0
100
AcDbVertex
100
AcDbPolyFaceMeshVertex
 10
3.473443984985351
 20
-10.259033203125
 30
8.509324073791503
 70
   192
  0
VERTEX
  5
2FF
330
2C4
100
AcDbEntity
  8
-DC_BREP0
100
AcDbVertex
100
AcDbPolyFaceMeshVertex
 10
3.47330093383789
 20
-1210.259033203125
 30
8.509271621704101
 70
   192
  0
VERTEX
  5
300
330
2C4
100
AcDbEntity
  8
-DC_BREP0
100
AcDbVertex
100
AcDbPolyFaceMeshVertex
 10
1.973443984985351
 20
-10.259033203125
 30
8.509324073791503
 70
   192
  0
VERTEX
  5
301
330
2C4
100
AcDbEntity
  8
-DC_BREP0
100
AcDbVertex
100
AcDbPolyFaceMeshVertex
 10
3.47330093383789
 20
-1210.259033203125
 30
8.509271621704101
 70
   192
  0
VERTEX
  5
302
330
2C4
100
AcDbEntity
  8
-DC_BREP0
100
AcDbVertex
100
AcDbPolyFaceMeshVertex
 10
3.473443984985351
 20
-10.259033203125
 30
10.0093240737915
 70
   192
  0
VERTEX
  5
303
330
2C4
100
AcDbEntity
  8
-DC_BREP0
100
AcDbVertex
100
AcDbPolyFaceMeshVertex
 10
3.47330093383789
 20
-1210.259033203125
 30
10.0092716217041
 70
   192
  0
VERTEX
  5
304
330
2C4
100
AcDbEntity
  8
-DC_BREP0
100
AcDbVertex
100
AcDbPolyFaceMeshVertex
 10
3.473443984985351
 20
-10.259033203125
 30
8.509324073791503
 70
   192
  0
VERTEX
  5
305
330
2C4
100
AcDbEntity
  8
-DC_BREP0
100
AcDbVertex
100
AcDbPolyFaceMeshVertex
 10
3.47330093383789
 20
-1210.259033203125
 30
10.0092716217041
 70
   192
  0
VERTEX
  5
306
330
2C4
100
AcDbEntity
  8
-DC_BREP0
100
AcDbVertex
100
AcDbPolyFaceMeshVertex
 10
0.4734439849853516
 20
-10.259033203125
 30
10.0093240737915
 70
   192
  0
VERTEX
  5
307
330
2C4
100
AcDbEntity
  8
-DC_BREP0
100
AcDbVertex
100
AcDbPolyFaceMeshVertex
 10
0.4733009338378907
 20
-1210.259033203125
 30
10.0092716217041
 70
   192
  0
VERTEX
  5
308
330
2C4
100
AcDbEntity
  8
-DC_BREP0
100
AcDbVertex
100
AcDbPolyFaceMeshVertex
 10
3.473443984985351
 20
-10.259033203125
 30
10.0093240737915
 70
   192
  0
VERTEX
  5
309
330
2C4
100
AcDbEntity
  8
-DC_BREP0
100
AcDbVertex
100
AcDbPolyFaceMeshVertex
 10
0.4733009338378907
 20
-1210.259033203125
 30
10.0092716217041
 70
   192
  0
VERTEX
  5
30A
330
2C4
100
AcDbEntity
  8
-DC_BREP0
100
AcDbVertex
100
AcDbPolyFaceMeshVertex
 10
0.4734439849853516
 20
-10.259033203125
 30
0.0093240737915039
 70
   192
  0
VERTEX
  5
30B
330
2C4
100
AcDbEntity
  8
-DC_BREP0
100
AcDbVertex
100
AcDbPolyFaceMeshVertex
 10
0.4733009338378907
 20
-1210.259033203125
 30
0.0092716217041016
 70
   192
  0
VERTEX
  5
30C
330
2C4
100
AcDbEntity
  8
-DC_BREP0
100
AcDbVertex
100
AcDbPolyFaceMeshVertex
 10
0.4734439849853516
 20
-10.259033203125
 30
10.0093240737915
 70
   192
  0
VERTEX
  5
30D
330
2C4
100
AcDbEntity
  8
-DC_BREP0
100
AcDbVertex
100
AcDbPolyFaceMeshVertex
 10
0.4733009338378907
 20
-1210.259033203125
 30
0.0092716217041016
 70
   192
  0
VERTEX
  5
30E
330
2C4
100
AcDbEntity
  8
-DC_BREP0
100
AcDbVertex
100
AcDbPolyFaceMeshVertex
 10
1.973443984985351
 20
-10.259033203125
 30
0.0093240737915039
 70
   192
  0
VERTEX
  5
30F
330
2C4
100
AcDbEntity
  8
-DC_BREP0
100
AcDbVertex
100
AcDbPolyFaceMeshVertex
 10
1.97330093383789
 20
-1210.259033203125
 30
0.0092716217041016
 70
   192
  0
VERTEX
  5
310
330
2C4
100
AcDbEntity
  8
-DC_BREP0
100
AcDbVertex
100
AcDbPolyFaceMeshVertex
 10
0.4734439849853516
 20
-10.259033203125
 30
0.0093240737915039
 70
   192
  0
VERTEX
  5
311
330
2C4
100
AcDbEntity
  8
-DC_BREP0
100
AcDbVertex
100
AcDbPolyFaceMeshVertex
 10
1.97330093383789
 20
-1210.259033203125
 30
2.009271621704101
 70
   192
  0
VERTEX
  5
312
330
2C4
100
AcDbEntity
  8
-DC_BREP0
100
AcDbVertex
100
AcDbPolyFaceMeshVertex
 10
1.973443984985351
 20
-10.259033203125
 30
0.0093240737915039
 70
   192
  0
VERTEX
  5
313
330
2C4
100
AcDbEntity
  8
-DC_BREP0
100
AcDbVertex
100
AcDbPolyFaceMeshVertex
 10
1.973443984985351
 20
-10.259033203125
 30
2.009324073791503
 70
   192
  0
VERTEX
  5
314
330
2C4
100
AcDbEntity
  8
-DC_BREP0
100
AcDbVertex
100
AcDbPolyFaceMeshVertex
 10
1.97330093383789
 20
-1210.259033203125
 30
0.0092716217041016
 70
   192
  0
VERTEX
  5
315
330
2C4
100
AcDbEntity
  8
-DC_BREP0
100
AcDbVertex
100
AcDbPolyFaceMeshVertex
 10
1.97330093383789
 20
-1210.259033203125
 30
2.009271621704101
 70
   192
  0
VERTEX
  5
316
330
2C4
100
AcDbEntity
  8
-DC_BREP0
100
AcDbVertex
100
AcDbPolyFaceMeshVertex
 10
13.97344398498535
 20
-10.259033203125
 30
2.009324073791503
 70
   192
  0
VERTEX
  5
317
330
2C4
100
AcDbEntity
  8
-DC_BREP0
100
AcDbVertex
100
AcDbPolyFaceMeshVertex
 10
13.97330093383789
 20
-1210.259033203125
 30
2.009271621704101
 70
   192
  0
VERTEX
  5
318
330
2C4
100
AcDbEntity
  8
-DC_BREP0
100
AcDbVertex
100
AcDbPolyFaceMeshVertex
 10
1.973443984985351
 20
-10.259033203125
 30
2.009324073791503
 70
   192
  0
VERTEX
  5
319
330
2C4
100
AcDbEntity
  8
-DC_BREP0
100
AcDbVertex
100
AcDbPolyFaceMeshVertex
 10
13.97330093383789
 20
-1210.259033203125
 30
0.0092716217041016
 70
   192
  0
VERTEX
  5
31A
330
2C4
100
AcDbEntity
  8
-DC_BREP0
100
AcDbVertex
100
AcDbPolyFaceMeshVertex
 10
13.97344398498535
 20
-10.259033203125
 30
2.009324073791503
 70
   192
  0
VERTEX
  5
31B
330
2C4
100
AcDbEntity
  8
-DC_BREP0
100
AcDbVertex
100
AcDbPolyFaceMeshVertex
 10
13.97344398498535
 20
-10.259033203125
 30
0.0093240737915039
 70
   192
  0
VERTEX
  5
31C
330
2C4
100
AcDbEntity
  8
-DC_BREP0
100
AcDbVertex
100
AcDbPolyFaceMeshVertex
 10
13.97330093383789
 20
-1210.259033203125
 30
2.009271621704101
 70
   192
  0
VERTEX
  5
31D
330
2C4
100
AcDbEntity
  8
-DC_BREP0
100
AcDbVertex
100
AcDbPolyFaceMeshVertex
 10
13.97330093383789
 20
-1210.259033203125
 30
0.0092716217041016
 70
   192
  0
VERTEX
  5
31E
330
2C4
100
AcDbEntity
  8
-DC_BREP0
100
AcDbVertex
100
AcDbPolyFaceMeshVertex
 10
15.47344398498535
 20
-10.259033203125
 30
0.0093240737915039
 70
   192
  0
VERTEX
  5
31F
330
2C4
100
AcDbEntity
  8
-DC_BREP0
100
AcDbVertex
100
AcDbPolyFaceMeshVertex
 10
15.47330093383789
 20
-1210.259033203125
 30
0.0092716217041016
 70
   192
  0
VERTEX
  5
320
330
2C4
100
AcDbEntity
  8
-DC_BREP0
100
AcDbVertex
100
AcDbPolyFaceMeshVertex
 10
13.97344398498535
 20
-10.259033203125
 30
0.0093240737915039
 70
   192
  0
VERTEX
  5
321
330
2C4
100
AcDbEntity
  8
-DC_BREP0
100
AcDbVertex
100
AcDbPolyFaceMeshVertex
 10
15.47330093383789
 20
-1210.259033203125
 30
0.0092716217041016
 70
   192
  0
VERTEX
  5
322
330
2C4
100
AcDbEntity
  8
-DC_BREP0
100
AcDbVertex
100
AcDbPolyFaceMeshVertex
 10
15.47344398498535
 20
-10.259033203125
 30
10.0093240737915
 70
   192
  0
VERTEX
  5
323
330
2C4
100
AcDbEntity
  8
-DC_BREP0
100
AcDbVertex
100
AcDbPolyFaceMeshVertex
 10
15.47330093383789
 20
-1210.259033203125
 30
10.0092716217041
 70
   192
  0
VERTEX
  5
324
330
2C4
100
AcDbEntity
  8
-DC_BREP0
100
AcDbVertex
100
AcDbPolyFaceMeshVertex
 10
15.47344398498535
 20
-10.259033203125
 30
0.0093240737915039
 70
   192
  0
VERTEX
  5
325
330
2C4
100
AcDbEntity
  8
-DC_BREP0
100
AcDbVertex
100
AcDbPolyFaceMeshVertex
 10
13.97344398498535
 20
-10.259033203125
 30
2.009324073791503
 70
   192
  0
VERTEX
  5
326
330
2C4
100
AcDbEntity
  8
-DC_BREP0
100
AcDbVertex
100
AcDbPolyFaceMeshVertex
 10
15.47344398498535
 20
-10.259033203125
 30
0.0093240737915039
 70
   192
  0
VERTEX
  5
327
330
2C4
100
AcDbEntity
  8
-DC_BREP0
100
AcDbVertex
100
AcDbPolyFaceMeshVertex
 10
13.97344398498535
 20
-10.259033203125
 30
0.0093240737915039
 70
   192
  0
VERTEX
  5
328
330
2C4
100
AcDbEntity
  8
-DC_BREP0
100
AcDbVertex
100
AcDbPolyFaceMeshVertex
 10
15.47344398498535
 20
-10.259033203125
 30
10.0093240737915
 70
   192
  0
VERTEX
  5
329
330
2C4
100
AcDbEntity
  8
-DC_BREP0
100
AcDbVertex
100
AcDbPolyFaceMeshVertex
 10
12.47344398498535
 20
-10.259033203125
 30
8.509324073791503
 70
   192
  0
VERTEX
  5
32A
330
2C4
100
AcDbEntity
  8
-DC_BREP0
100
AcDbVertex
100
AcDbPolyFaceMeshVertex
 10
12.47344398498535
 20
-10.259033203125
 30
10.0093240737915
 70
   192
  0
VERTEX
  5
32B
330
2C4
100
AcDbEntity
  8
-DC_BREP0
100
AcDbVertex
100
AcDbPolyFaceMeshVertex
 10
13.97344398498535
 20
-10.259033203125
 30
8.509324073791503
 70
   192
  0
VERTEX
  5
32C
330
2C4
100
AcDbEntity
  8
-DC_BREP0
100
AcDbVertex
100
AcDbPolyFaceMeshVertex
 10
13.97344398498535
 20
-10.259033203125
 30
6.509324073791503
 70
   192
  0
VERTEX
  5
32D
330
2C4
100
AcDbEntity
  8
-DC_BREP0
100
AcDbVertex
100
AcDbPolyFaceMeshVertex
 10
12.47344398498535
 20
-10.259033203125
 30
6.509324073791503
 70
   192
  0
VERTEX
  5
32E
330
2C4
100
AcDbEntity
  8
-DC_BREP0
100
AcDbVertex
100
AcDbPolyFaceMeshVertex
 10
13.97344398498535
 20
-10.259033203125
 30
5.509324073791503
 70
   192
  0
VERTEX
  5
32F
330
2C4
100
AcDbEntity
  8
-DC_BREP0
100
AcDbVertex
100
AcDbPolyFaceMeshVertex
 10
12.47344398498535
 20
-10.259033203125
 30
5.509324073791503
 70
   192
  0
VERTEX
  5
330
330
2C4
100
AcDbEntity
  8
-DC_BREP0
100
AcDbVertex
100
AcDbPolyFaceMeshVertex
 10
13.97344398498535
 20
-10.259033203125
 30
3.509324073791503
 70
   192
  0
VERTEX
  5
331
330
2C4
100
AcDbEntity
  8
-DC_BREP0
100
AcDbVertex
100
AcDbPolyFaceMeshVertex
 10
1.973443984985351
 20
-10.259033203125
 30
5.509324073791503
 70
   192
  0
VERTEX
  5
332
330
2C4
100
AcDbEntity
  8
-DC_BREP0
100
AcDbVertex
100
AcDbPolyFaceMeshVertex
 10
3.473443984985351
 20
-10.259033203125
 30
6.509324073791503
 70
   192
  0
VERTEX
  5
333
330
2C4
100
AcDbEntity
  8
-DC_BREP0
100
AcDbVertex
100
AcDbPolyFaceMeshVertex
 10
3.473443984985351
 20
-10.259033203125
 30
5.509324073791503
 70
   192
  0
VERTEX
  5
334
330
2C4
100
AcDbEntity
  8
-DC_BREP0
100
AcDbVertex
100
AcDbPolyFaceMeshVertex
 10
1.973443984985351
 20
-10.259033203125
 30
6.509324073791503
 70
   192
  0
VERTEX
  5
335
330
2C4
100
AcDbEntity
  8
-DC_BREP0
100
AcDbVertex
100
AcDbPolyFaceMeshVertex
 10
1.973443984985351
 20
-10.259033203125
 30
8.509324073791503
 70
   192
  0
VERTEX
  5
336
330
2C4
100
AcDbEntity
  8
-DC_BREP0
100
AcDbVertex
100
AcDbPolyFaceMeshVertex
 10
3.473443984985351
 20
-10.259033203125
 30
10.0093240737915
 70
   192
  0
VERTEX
  5
337
330
2C4
100
AcDbEntity
  8
-DC_BREP0
100
AcDbVertex
100
AcDbPolyFaceMeshVertex
 10
3.473443984985351
 20
-10.259033203125
 30
8.509324073791503
 70
   192
  0
VERTEX
  5
338
330
2C4
100
AcDbEntity
  8
-DC_BREP0
100
AcDbVertex
100
AcDbPolyFaceMeshVertex
 10
0.4734439849853516
 20
-10.259033203125
 30
10.0093240737915
 70
   192
  0
VERTEX
  5
339
330
2C4
100
AcDbEntity
  8
-DC_BREP0
100
AcDbVertex
100
AcDbPolyFaceMeshVertex
 10
0.4734439849853516
 20
-10.259033203125
 30
0.0093240737915039
 70
   192
  0
VERTEX
  5
33A
330
2C4
100
AcDbEntity
  8
-DC_BREP0
100
AcDbVertex
100
AcDbPolyFaceMeshVertex
 10
1.973443984985351
 20
-10.259033203125
 30
3.509324073791503
 70
   192
  0
VERTEX
  5
33B
330
2C4
100
AcDbEntity
  8
-DC_BREP0
100
AcDbVertex
100
AcDbPolyFaceMeshVertex
 10
1.973443984985351
 20
-10.259033203125
 30
2.009324073791503
 70
   192
  0
VERTEX
  5
33C
330
2C4
100
AcDbEntity
  8
-DC_BREP0
100
AcDbVertex
100
AcDbPolyFaceMeshVertex
 10
1.973443984985351
 20
-10.259033203125
 30
0.0093240737915039
 70
   192
  0
VERTEX
  5
33D
330
2C4
100
AcDbEntity
  8
-DC_BREP0
100
AcDbVertex
100
AcDbPolyFaceMeshVertex
 10
0.4733009338378907
 20
-1210.259033203125
 30
10.0092716217041
 70
   192
  0
VERTEX
  5
33E
330
2C4
100
AcDbEntity
  8
-DC_BREP0
100
AcDbVertex
100
AcDbPolyFaceMeshVertex
 10
1.97330093383789
 20
-1210.259033203125
 30
6.509271621704101
 70
   192
  0
VERTEX
  5
33F
330
2C4
100
AcDbEntity
  8
-DC_BREP0
100
AcDbVertex
100
AcDbPolyFaceMeshVertex
 10
1.97330093383789
 20
-1210.259033203125
 30
8.509271621704101
 70
   192
  0
VERTEX
  5
340
330
2C4
100
AcDbEntity
  8
-DC_BREP0
100
AcDbVertex
100
AcDbPolyFaceMeshVertex
 10
1.97330093383789
 20
-1210.259033203125
 30
0.0092716217041016
 70
   192
  0
VERTEX
  5
341
330
2C4
100
AcDbEntity
  8
-DC_BREP0
100
AcDbVertex
100
AcDbPolyFaceMeshVertex
 10
0.4733009338378907
 20
-1210.259033203125
 30
0.0092716217041016
 70
   192
  0
VERTEX
  5
342
330
2C4
100
AcDbEntity
  8
-DC_BREP0
100
AcDbVertex
100
AcDbPolyFaceMeshVertex
 10
1.97330093383789
 20
-1210.259033203125
 30
2.009271621704101
 70
   192
  0
VERTEX
  5
343
330
2C4
100
AcDbEntity
  8
-DC_BREP0
100
AcDbVertex
100
AcDbPolyFaceMeshVertex
 10
3.47330093383789
 20
-1210.259033203125
 30
10.0092716217041
 70
   192
  0
VERTEX
  5
344
330
2C4
100
AcDbEntity
  8
-DC_BREP0
100
AcDbVertex
100
AcDbPolyFaceMeshVertex
 10
3.47330093383789
 20
-1210.259033203125
 30
8.509271621704101
 70
   192
  0
VERTEX
  5
345
330
2C4
100
AcDbEntity
  8
-DC_BREP0
100
AcDbVertex
100
AcDbPolyFaceMeshVertex
 10
3.47330093383789
 20
-1210.259033203125
 30
5.509271621704101
 70
   192
  0
VERTEX
  5
346
330
2C4
100
AcDbEntity
  8
-DC_BREP0
100
AcDbVertex
100
AcDbPolyFaceMeshVertex
 10
3.47330093383789
 20
-1210.259033203125
 30
6.509271621704101
 70
   192
  0
VERTEX
  5
347
330
2C4
100
AcDbEntity
  8
-DC_BREP0
100
AcDbVertex
100
AcDbPolyFaceMeshVertex
 10
1.97330093383789
 20
-1210.259033203125
 30
5.509271621704101
 70
   192
  0
VERTEX
  5
348
330
2C4
100
AcDbEntity
  8
-DC_BREP0
100
AcDbVertex
100
AcDbPolyFaceMeshVertex
 10
12.47330093383789
 20
-1210.259033203125
 30
5.509271621704101
 70
   192
  0
VERTEX
  5
349
330
2C4
100
AcDbEntity
  8
-DC_BREP0
100
AcDbVertex
100
AcDbPolyFaceMeshVertex
 10
13.97330093383789
 20
-1210.259033203125
 30
6.509271621704101
 70
   192
  0
VERTEX
  5
34A
330
2C4
100
AcDbEntity
  8
-DC_BREP0
100
AcDbVertex
100
AcDbPolyFaceMeshVertex
 10
12.47330093383789
 20
-1210.259033203125
 30
6.509271621704101
 70
   192
  0
VERTEX
  5
34B
330
2C4
100
AcDbEntity
  8
-DC_BREP0
100
AcDbVertex
100
AcDbPolyFaceMeshVertex
 10
13.97330093383789
 20
-1210.259033203125
 30
5.509271621704101
 70
   192
  0
VERTEX
  5
34C
330
2C4
100
AcDbEntity
  8
-DC_BREP0
100
AcDbVertex
100
AcDbPolyFaceMeshVertex
 10
13.97330093383789
 20
-1210.259033203125
 30
8.509271621704101
 70
   192
  0
VERTEX
  5
34D
330
2C4
100
AcDbEntity
  8
-DC_BREP0
100
AcDbVertex
100
AcDbPolyFaceMeshVertex
 10
12.47330093383789
 20
-1210.259033203125
 30
10.0092716217041
 70
   192
  0
VERTEX
  5
34E
330
2C4
100
AcDbEntity
  8
-DC_BREP0
100
AcDbVertex
100
AcDbPolyFaceMeshVertex
 10
12.47330093383789
 20
-1210.259033203125
 30
8.509271621704101
 70
   192
  0
VERTEX
  5
34F
330
2C4
100
AcDbEntity
  8
-DC_BREP0
100
AcDbVertex
100
AcDbPolyFaceMeshVertex
 10
15.47330093383789
 20
-1210.259033203125
 30
10.0092716217041
 70
   192
  0
VERTEX
  5
350
330
2C4
100
AcDbEntity
  8
-DC_BREP0
100
AcDbVertex
100
AcDbPolyFaceMeshVertex
 10
15.47330093383789
 20
-1210.259033203125
 30
0.0092716217041016
 70
   192
  0
VERTEX
  5
351
330
2C4
100
AcDbEntity
  8
-DC_BREP0
100
AcDbVertex
100
AcDbPolyFaceMeshVertex
 10
13.97330093383789
 20
-1210.259033203125
 30
3.509271621704101
 70
   192
  0
VERTEX
  5
352
330
2C4
100
AcDbEntity
  8
-DC_BREP0
100
AcDbVertex
100
AcDbPolyFaceMeshVertex
 10
13.97330093383789
 20
-1210.259033203125
 30
2.009271621704101
 70
   192
  0
VERTEX
  5
353
330
2C4
100
AcDbEntity
  8
-DC_BREP0
100
AcDbVertex
100
AcDbPolyFaceMeshVertex
 10
13.97330093383789
 20
-1210.259033203125
 30
0.0092716217041016
 70
   192
  0
VERTEX
  5
354
330
2C4
100
AcDbEntity
  8
-DC_BREP0
100
AcDbVertex
100
AcDbPolyFaceMeshVertex
 10
1.97330093383789
 20
-1210.259033203125
 30
3.509271621704101
 70
   192
  0
VERTEX
  5
355
330
2C4
100
AcDbEntity
  8
-DC_BREP0
100
AcDbFaceRecord
 10
0.0
 20
0.0
 30
0.0
 70
   128
 71
     1
 72
     2
 73
     3
  0
VERTEX
  5
356
330
2C4
100
AcDbEntity
  8
-DC_BREP0
100
AcDbFaceRecord
 10
0.0
 20
0.0
 30
0.0
 70
   128
 71
     2
 72
     1
 73
     4
  0
VERTEX
  5
357
330
2C4
100
AcDbEntity
  8
-DC_BREP0
100
AcDbFaceRecord
 10
0.0
 20
0.0
 30
0.0
 70
   128
 71
     5
 72
     6
 73
     7
  0
VERTEX
  5
358
330
2C4
100
AcDbEntity
  8
-DC_BREP0
100
AcDbFaceRecord
 10
0.0
 20
0.0
 30
0.0
 70
   128
 71
     6
 72
     5
 73
     8
  0
VERTEX
  5
359
330
2C4
100
AcDbEntity
  8
-DC_BREP0
100
AcDbFaceRecord
 10
0.0
 20
0.0
 30
0.0
 70
   128
 71
     9
 72
    10
 73
    11
  0
VERTEX
  5
35A
330
2C4
100
AcDbEntity
  8
-DC_BREP0
100
AcDbFaceRecord
 10
0.0
 20
0.0
 30
0.0
 70
   128
 71
    10
 72
     9
 73
    12
  0
VERTEX
  5
35B
330
2C4
100
AcDbEntity
  8
-DC_BREP0
100
AcDbFaceRecord
 10
0.0
 20
0.0
 30
0.0
 70
   128
 71
    13
 72
    14
 73
    15
  0
VERTEX
  5
35C
330
2C4
100
AcDbEntity
  8
-DC_BREP0
100
AcDbFaceRecord
 10
0.0
 20
0.0
 30
0.0
 70
   128
 71
    14
 72
    13
 73
    16
  0
VERTEX
  5
35D
330
2C4
100
AcDbEntity
  8
-DC_BREP0
100
AcDbFaceRecord
 10
0.0
 20
0.0
 30
0.0
 70
   128
 71
    17
 72
    18
 73
    19
  0
VERTEX
  5
35E
330
2C4
100
AcDbEntity
  8
-DC_BREP0
100
AcDbFaceRecord
 10
0.0
 20
0.0
 30
0.0
 70
   128
 71
    18
 72
    17
 73
    20
  0
VERTEX
  5
35F
330
2C4
100
AcDbEntity
  8
-DC_BREP0
100
AcDbFaceRecord
 10
0.0
 20
0.0
 30
0.0
 70
   128
 71
    21
 72
    22
 73
    23
  0
VERTEX
  5
360
330
2C4
100
AcDbEntity
  8
-DC_BREP0
100
AcDbFaceRecord
 10
0.0
 20
0.0
 30
0.0
 70
   128
 71
    22
 72
    21
 73
    24
  0
VERTEX
  5
361
330
2C4
100
AcDbEntity
  8
-DC_BREP0
100
AcDbFaceRecord
 10
0.0
 20
0.0
 30
0.0
 70
   128
 71
    25
 72
    26
 73
    27
  0
VERTEX
  5
362
330
2C4
100
AcDbEntity
  8
-DC_BREP0
100
AcDbFaceRecord
 10
0.0
 20
0.0
 30
0.0
 70
   128
 71
    26
 72
    25
 73
    28
  0
VERTEX
  5
363
330
2C4
100
AcDbEntity
  8
-DC_BREP0
100
AcDbFaceRecord
 10
0.0
 20
0.0
 30
0.0
 70
   128
 71
    29
 72
    30
 73
    31
  0
VERTEX
  5
364
330
2C4
100
AcDbEntity
  8
-DC_BREP0
100
AcDbFaceRecord
 10
0.0
 20
0.0
 30
0.0
 70
   128
 71
    30
 72
    29
 73
    32
  0
VERTEX
  5
365
330
2C4
100
AcDbEntity
  8
-DC_BREP0
100
AcDbFaceRecord
 10
0.0
 20
0.0
 30
0.0
 70
   128
 71
    33
 72
    34
 73
    35
  0
VERTEX
  5
366
330
2C4
100
AcDbEntity
  8
-DC_BREP0
100
AcDbFaceRecord
 10
0.0
 20
0.0
 30
0.0
 70
   128
 71
    34
 72
    33
 73
    36
  0
VERTEX
  5
367
330
2C4
100
AcDbEntity
  8
-DC_BREP0
100
AcDbFaceRecord
 10
0.0
 20
0.0
 30
0.0
 70
   128
 71
    37
 72
    38
 73
    39
  0
VERTEX
  5
368
330
2C4
100
AcDbEntity
  8
-DC_BREP0
100
AcDbFaceRecord
 10
0.0
 20
0.0
 30
0.0
 70
   128
 71
    38
 72
    37
 73
    40
  0
VERTEX
  5
369
330
2C4
100
AcDbEntity
  8
-DC_BREP0
100
AcDbFaceRecord
 10
0.0
 20
0.0
 30
0.0
 70
   128
 71
    41
 72
    42
 73
    43
  0
VERTEX
  5
36A
330
2C4
100
AcDbEntity
  8
-DC_BREP0
100
AcDbFaceRecord
 10
0.0
 20
0.0
 30
0.0
 70
   128
 71
    42
 72
    41
 73
    44
  0
VERTEX
  5
36B
330
2C4
100
AcDbEntity
  8
-DC_BREP0
100
AcDbFaceRecord
 10
0.0
 20
0.0
 30
0.0
 70
   128
 71
    45
 72
    46
 73
    47
  0
VERTEX
  5
36C
330
2C4
100
AcDbEntity
  8
-DC_BREP0
100
AcDbFaceRecord
 10
0.0
 20
0.0
 30
0.0
 70
   128
 71
    46
 72
    45
 73
    48
  0
VERTEX
  5
36D
330
2C4
100
AcDbEntity
  8
-DC_BREP0
100
AcDbFaceRecord
 10
0.0
 20
0.0
 30
0.0
 70
   128
 71
    49
 72
    50
 73
    51
  0
VERTEX
  5
36E
330
2C4
100
AcDbEntity
  8
-DC_BREP0
100
AcDbFaceRecord
 10
0.0
 20
0.0
 30
0.0
 70
   128
 71
    50
 72
    49
 73
    52
  0
VERTEX
  5
36F
330
2C4
100
AcDbEntity
  8
-DC_BREP0
100
AcDbFaceRecord
 10
0.0
 20
0.0
 30
0.0
 70
   128
 71
    53
 72
    54
 73
    55
  0
VERTEX
  5
370
330
2C4
100
AcDbEntity
  8
-DC_BREP0
100
AcDbFaceRecord
 10
0.0
 20
0.0
 30
0.0
 70
   128
 71
    54
 72
    53
 73
    56
  0
VERTEX
  5
371
330
2C4
100
AcDbEntity
  8
-DC_BREP0
100
AcDbFaceRecord
 10
0.0
 20
0.0
 30
0.0
 70
   128
 71
    57
 72
    58
 73
    59
  0
VERTEX
  5
372
330
2C4
100
AcDbEntity
  8
-DC_BREP0
100
AcDbFaceRecord
 10
0.0
 20
0.0
 30
0.0
 70
   128
 71
    58
 72
    57
 73
    60
  0
VERTEX
  5
373
330
2C4
100
AcDbEntity
  8
-DC_BREP0
100
AcDbFaceRecord
 10
0.0
 20
0.0
 30
0.0
 70
   128
 71
    61
 72
    62
 73
    63
  0
VERTEX
  5
374
330
2C4
100
AcDbEntity
  8
-DC_BREP0
100
AcDbFaceRecord
 10
0.0
 20
0.0
 30
0.0
 70
   128
 71
    62
 72
    61
 73
    64
  0
VERTEX
  5
375
330
2C4
100
AcDbEntity
  8
-DC_BREP0
100
AcDbFaceRecord
 10
0.0
 20
0.0
 30
0.0
 70
   128
 71
    65
 72
    66
 73
    67
  0
VERTEX
  5
376
330
2C4
100
AcDbEntity
  8
-DC_BREP0
100
AcDbFaceRecord
 10
0.0
 20
0.0
 30
0.0
 70
   128
 71
    66
 72
    65
 73
    68
  0
VERTEX
  5
377
330
2C4
100
AcDbEntity
  8
-DC_BREP0
100
AcDbFaceRecord
 10
0.0
 20
0.0
 30
0.0
 70
   128
 71
    69
 72
    70
 73
    71
  0
VERTEX
  5
378
330
2C4
100
AcDbEntity
  8
-DC_BREP0
100
AcDbFaceRecord
 10
0.0
 20
0.0
 30
0.0
 70
   128
 71
    70
 72
    69
 73
    72
  0
VERTEX
  5
379
330
2C4
100
AcDbEntity
  8
-DC_BREP0
100
AcDbFaceRecord
 10
0.0
 20
0.0
 30
0.0
 70
   128
 71
    73
 72
    74
 73
    75
  0
VERTEX
  5
37A
330
2C4
100
AcDbEntity
  8
-DC_BREP0
100
AcDbFaceRecord
 10
0.0
 20
0.0
 30
0.0
 70
   128
 71
    74
 72
    73
 73
    76
  0
VERTEX
  5
37B
330
2C4
100
AcDbEntity
  8
-DC_BREP0
100
AcDbFaceRecord
 10
0.0
 20
0.0
 30
0.0
 70
   128
 71
    77
 72
    78
 73
    79
  0
VERTEX
  5
37C
330
2C4
100
AcDbEntity
  8
-DC_BREP0
100
AcDbFaceRecord
 10
0.0
 20
0.0
 30
0.0
 70
   128
 71
    78
 72
    77
 73
    80
  0
VERTEX
  5
37D
330
2C4
100
AcDbEntity
  8
-DC_BREP0
100
AcDbFaceRecord
 10
0.0
 20
0.0
 30
0.0
 70
   128
 71
    81
 72
    82
 73
    83
  0
VERTEX
  5
37E
330
2C4
100
AcDbEntity
  8
-DC_BREP0
100
AcDbFaceRecord
 10
0.0
 20
0.0
 30
0.0
 70
   128
 71
    82
 72
    81
 73
    84
  0
VERTEX
  5
37F
330
2C4
100
AcDbEntity
  8
-DC_BREP0
100
AcDbFaceRecord
 10
0.0
 20
0.0
 30
0.0
 70
   128
 71
    85
 72
    86
 73
    87
  0
VERTEX
  5
380
330
2C4
100
AcDbEntity
  8
-DC_BREP0
100
AcDbFaceRecord
 10
0.0
 20
0.0
 30
0.0
 70
   128
 71
    86
 72
    85
 73
    88
  0
VERTEX
  5
381
330
2C4
100
AcDbEntity
  8
-DC_BREP0
100
AcDbFaceRecord
 10
0.0
 20
0.0
 30
0.0
 70
   128
 71
    89
 72
    90
 73
    91
  0
VERTEX
  5
382
330
2C4
100
AcDbEntity
  8
-DC_BREP0
100
AcDbFaceRecord
 10
0.0
 20
0.0
 30
0.0
 70
   128
 71
    90
 72
    89
 73
    92
  0
VERTEX
  5
383
330
2C4
100
AcDbEntity
  8
-DC_BREP0
100
AcDbFaceRecord
 10
0.0
 20
0.0
 30
0.0
 70
   128
 71
    93
 72
    94
 73
    95
  0
VERTEX
  5
384
330
2C4
100
AcDbEntity
  8
-DC_BREP0
100
AcDbFaceRecord
 10
0.0
 20
0.0
 30
0.0
 70
   128
 71
    94
 72
    93
 73
    96
  0
VERTEX
  5
385
330
2C4
100
AcDbEntity
  8
-DC_BREP0
100
AcDbFaceRecord
 10
0.0
 20
0.0
 30
0.0
 70
   128
 71
    97
 72
    98
 73
    99
  0
VERTEX
  5
386
330
2C4
100
AcDbEntity
  8
-DC_BREP0
100
AcDbFaceRecord
 10
0.0
 20
0.0
 30
0.0
 70
   128
 71
   100
 72
   101
 73
   102
  0
VERTEX
  5
387
330
2C4
100
AcDbEntity
  8
-DC_BREP0
100
AcDbFaceRecord
 10
0.0
 20
0.0
 30
0.0
 70
   128
 71
   100
 72
   103
 73
   101
  0
VERTEX
  5
388
330
2C4
100
AcDbEntity
  8
-DC_BREP0
100
AcDbFaceRecord
 10
0.0
 20
0.0
 30
0.0
 70
   128
 71
    98
 72
   103
 73
   100
  0
VERTEX
  5
389
330
2C4
100
AcDbEntity
  8
-DC_BREP0
100
AcDbFaceRecord
 10
0.0
 20
0.0
 30
0.0
 70
   128
 71
    98
 72
   104
 73
   103
  0
VERTEX
  5
38A
330
2C4
100
AcDbEntity
  8
-DC_BREP0
100
AcDbFaceRecord
 10
0.0
 20
0.0
 30
0.0
 70
   128
 71
   105
 72
   106
 73
   107
  0
VERTEX
  5
38B
330
2C4
100
AcDbEntity
  8
-DC_BREP0
100
AcDbFaceRecord
 10
0.0
 20
0.0
 30
0.0
 70
   128
 71
   104
 72
   106
 73
   105
  0
VERTEX
  5
38C
330
2C4
100
AcDbEntity
  8
-DC_BREP0
100
AcDbFaceRecord
 10
0.0
 20
0.0
 30
0.0
 70
   128
 71
    98
 72
   106
 73
   104
  0
VERTEX
  5
38D
330
2C4
100
AcDbEntity
  8
-DC_BREP0
100
AcDbFaceRecord
 10
0.0
 20
0.0
 30
0.0
 70
   128
 71
    98
 72
   108
 73
   106
  0
VERTEX
  5
38E
330
2C4
100
AcDbEntity
  8
-DC_BREP0
100
AcDbFaceRecord
 10
0.0
 20
0.0
 30
0.0
 70
   128
 71
   109
 72
   110
 73
   111
  0
VERTEX
  5
38F
330
2C4
100
AcDbEntity
  8
-DC_BREP0
100
AcDbFaceRecord
 10
0.0
 20
0.0
 30
0.0
 70
   128
 71
   109
 72
   112
 73
   110
  0
VERTEX
  5
390
330
2C4
100
AcDbEntity
  8
-DC_BREP0
100
AcDbFaceRecord
 10
0.0
 20
0.0
 30
0.0
 70
   128
 71
   113
 72
   114
 73
   115
  0
VERTEX
  5
391
330
2C4
100
AcDbEntity
  8
-DC_BREP0
100
AcDbFaceRecord
 10
0.0
 20
0.0
 30
0.0
 70
   128
 71
   113
 72
   116
 73
   114
  0
VERTEX
  5
392
330
2C4
100
AcDbEntity
  8
-DC_BREP0
100
AcDbFaceRecord
 10
0.0
 20
0.0
 30
0.0
 70
   128
 71
   113
 72
   117
 73
   116
  0
VERTEX
  5
393
330
2C4
100
AcDbEntity
  8
-DC_BREP0
100
AcDbFaceRecord
 10
0.0
 20
0.0
 30
0.0
 70
   128
 71
   112
 72
   117
 73
   113
  0
VERTEX
  5
394
330
2C4
100
AcDbEntity
  8
-DC_BREP0
100
AcDbFaceRecord
 10
0.0
 20
0.0
 30
0.0
 70
   128
 71
   109
 72
   117
 73
   112
  0
VERTEX
  5
395
330
2C4
100
AcDbEntity
  8
-DC_BREP0
100
AcDbFaceRecord
 10
0.0
 20
0.0
 30
0.0
 70
   128
 71
   118
 72
   117
 73
   109
  0
VERTEX
  5
396
330
2C4
100
AcDbEntity
  8
-DC_BREP0
100
AcDbFaceRecord
 10
0.0
 20
0.0
 30
0.0
 70
   128
 71
   117
 72
   119
 73
   120
  0
VERTEX
  5
397
330
2C4
100
AcDbEntity
  8
-DC_BREP0
100
AcDbFaceRecord
 10
0.0
 20
0.0
 30
0.0
 70
   128
 71
   118
 72
   119
 73
   117
  0
VERTEX
  5
398
330
2C4
100
AcDbEntity
  8
-DC_BREP0
100
AcDbFaceRecord
 10
0.0
 20
0.0
 30
0.0
 70
   128
 71
   108
 72
   119
 73
   118
  0
VERTEX
  5
399
330
2C4
100
AcDbEntity
  8
-DC_BREP0
100
AcDbFaceRecord
 10
0.0
 20
0.0
 30
0.0
 70
   128
 71
   108
 72
    97
 73
   119
  0
VERTEX
  5
39A
330
2C4
100
AcDbEntity
  8
-DC_BREP0
100
AcDbFaceRecord
 10
0.0
 20
0.0
 30
0.0
 70
   128
 71
    98
 72
    97
 73
   108
  0
VERTEX
  5
39B
330
2C4
100
AcDbEntity
  8
-DC_BREP0
100
AcDbFaceRecord
 10
0.0
 20
0.0
 30
0.0
 70
   128
 71
   121
 72
   122
 73
   123
  0
VERTEX
  5
39C
330
2C4
100
AcDbEntity
  8
-DC_BREP0
100
AcDbFaceRecord
 10
0.0
 20
0.0
 30
0.0
 70
   128
 71
   124
 72
   121
 73
   125
  0
VERTEX
  5
39D
330
2C4
100
AcDbEntity
  8
-DC_BREP0
100
AcDbFaceRecord
 10
0.0
 20
0.0
 30
0.0
 70
   128
 71
   126
 72
   121
 73
   124
  0
VERTEX
  5
39E
330
2C4
100
AcDbEntity
  8
-DC_BREP0
100
AcDbFaceRecord
 10
0.0
 20
0.0
 30
0.0
 70
   128
 71
   127
 72
   123
 73
   128
  0
VERTEX
  5
39F
330
2C4
100
AcDbEntity
  8
-DC_BREP0
100
AcDbFaceRecord
 10
0.0
 20
0.0
 30
0.0
 70
   128
 71
   121
 72
   123
 73
   127
  0
VERTEX
  5
3A0
330
2C4
100
AcDbEntity
  8
-DC_BREP0
100
AcDbFaceRecord
 10
0.0
 20
0.0
 30
0.0
 70
   128
 71
   122
 72
   129
 73
   130
  0
VERTEX
  5
3A1
330
2C4
100
AcDbEntity
  8
-DC_BREP0
100
AcDbFaceRecord
 10
0.0
 20
0.0
 30
0.0
 70
   128
 71
   122
 72
   131
 73
   129
  0
VERTEX
  5
3A2
330
2C4
100
AcDbEntity
  8
-DC_BREP0
100
AcDbFaceRecord
 10
0.0
 20
0.0
 30
0.0
 70
   128
 71
   132
 72
   133
 73
   134
  0
VERTEX
  5
3A3
330
2C4
100
AcDbEntity
  8
-DC_BREP0
100
AcDbFaceRecord
 10
0.0
 20
0.0
 30
0.0
 70
   128
 71
   135
 72
   133
 73
   132
  0
VERTEX
  5
3A4
330
2C4
100
AcDbEntity
  8
-DC_BREP0
100
AcDbFaceRecord
 10
0.0
 20
0.0
 30
0.0
 70
   128
 71
   136
 72
   137
 73
   138
  0
VERTEX
  5
3A5
330
2C4
100
AcDbEntity
  8
-DC_BREP0
100
AcDbFaceRecord
 10
0.0
 20
0.0
 30
0.0
 70
   128
 71
   136
 72
   139
 73
   137
  0
VERTEX
  5
3A6
330
2C4
100
AcDbEntity
  8
-DC_BREP0
100
AcDbFaceRecord
 10
0.0
 20
0.0
 30
0.0
 70
   128
 71
   136
 72
   140
 73
   139
  0
VERTEX
  5
3A7
330
2C4
100
AcDbEntity
  8
-DC_BREP0
100
AcDbFaceRecord
 10
0.0
 20
0.0
 30
0.0
 70
   128
 71
   133
 72
   140
 73
   136
  0
VERTEX
  5
3A8
330
2C4
100
AcDbEntity
  8
-DC_BREP0
100
AcDbFaceRecord
 10
0.0
 20
0.0
 30
0.0
 70
   128
 71
   135
 72
   140
 73
   133
  0
VERTEX
  5
3A9
330
2C4
100
AcDbEntity
  8
-DC_BREP0
100
AcDbFaceRecord
 10
0.0
 20
0.0
 30
0.0
 70
   128
 71
   141
 72
   140
 73
   135
  0
VERTEX
  5
3AA
330
2C4
100
AcDbEntity
  8
-DC_BREP0
100
AcDbFaceRecord
 10
0.0
 20
0.0
 30
0.0
 70
   128
 71
   140
 72
   142
 73
   143
  0
VERTEX
  5
3AB
330
2C4
100
AcDbEntity
  8
-DC_BREP0
100
AcDbFaceRecord
 10
0.0
 20
0.0
 30
0.0
 70
   128
 71
   141
 72
   142
 73
   140
  0
VERTEX
  5
3AC
330
2C4
100
AcDbEntity
  8
-DC_BREP0
100
AcDbFaceRecord
 10
0.0
 20
0.0
 30
0.0
 70
   128
 71
   144
 72
   142
 73
   141
  0
VERTEX
  5
3AD
330
2C4
100
AcDbEntity
  8
-DC_BREP0
100
AcDbFaceRecord
 10
0.0
 20
0.0
 30
0.0
 70
   128
 71
   144
 72
   126
 73
   142
  0
VERTEX
  5
3AE
330
2C4
100
AcDbEntity
  8
-DC_BREP0
100
AcDbFaceRecord
 10
0.0
 20
0.0
 30
0.0
 70
   128
 71
   144
 72
   121
 73
   126
  0
VERTEX
  5
3AF
330
2C4
100
AcDbEntity
  8
-DC_BREP0
100
AcDbFaceRecord
 10
0.0
 20
0.0
 30
0.0
 70
   128
 71
   131
 72
   121
 73
   144
  0
VERTEX
  5
3B0
330
2C4
100
AcDbEntity
  8
-DC_BREP0
100
AcDbFaceRecord
 10
0.0
 20
0.0
 30
0.0
 70
   128
 71
   122
 72
   121
 73
   131
  0
SEQEND
  5
3B1
330
2C4
100
AcDbEntity
  8
-DC_BREP0
  0
POLYLINE
  5
3B3
330
1F
100
AcDbEntity
  8
-DC_BREP1
100
AcDbPolyFaceMesh
 66
     1
 10
0.0
 20
0.0
 30
0.0
 70
    64
 71
   116
 72
    92
1001
AVE_ENTITY_MATERIAL
1002
{
1000

1002
{
1071
        0
1070
     0
1070
     0
1002
{
1070
     0
1070
     0
1070
     0
1040
0.0
1002
}
1070
     0
1070
     0
1002
{
1002
}
1002
}
1002
{
1002
}
1002
{
1002
}
1011
0.0
1021
0.0
1031
0.0
1011
1.0
1021
0.0
1031
0.0
1011
0.0
1021
1.0
1031
0.0
1011
0.0
1021
0.0
1031
1.0
1002
}
  0
VERTEX
  5
3B4
330
3B3
100
AcDbEntity
  8
-DC_BREP1
100
AcDbVertex
100
AcDbPolyFaceMeshVertex
 10
-4.026458263397216
 20
-10.25905132293701
 30
2773.009765625
 70
   192
  0
VERTEX
  5
3B5
330
3B3
100
AcDbEntity
  8
-DC_BREP1
100
AcDbVertex
100
AcDbPolyFaceMeshVertex
 10
-3.993250131607055
 20
-1210.259033203125
 30
2772.64599609375
 70
   192
  0
VERTEX
  5
3B6
330
3B3
100
AcDbEntity
  8
-DC_BREP1
100
AcDbVertex
100
AcDbPolyFaceMeshVertex
 10
-4.026639461517333
 20
-1210.259033203125
 30
2773.010009765625
 70
   192
  0
VERTEX
  5
3B7
330
3B3
100
AcDbEntity
  8
-DC_BREP1
100
AcDbVertex
100
AcDbPolyFaceMeshVertex
 10
-2.026639461517333
 20
-1210.259033203125
 30
2771.010009765625
 70
   192
  0
VERTEX
  5
3B8
330
3B3
100
AcDbEntity
  8
-DC_BREP1
100
AcDbVertex
100
AcDbPolyFaceMeshVertex
 10
-2.390384435653686
 20
-10.25905227661133
 30
2771.043212890625
 70
   192
  0
VERTEX
  5
3B9
330
3B3
100
AcDbEntity
  8
-DC_BREP1
100
AcDbVertex
100
AcDbPolyFaceMeshVertex
 10
-2.026458263397216
 20
-10.25905227661133
 30
2771.009765625
 70
   192
  0
VERTEX
  5
3BA
330
3B3
100
AcDbEntity
  8
-DC_BREP1
100
AcDbVertex
100
AcDbPolyFaceMeshVertex
 10
-2.390565633773803
 20
-1210.259033203125
 30
2771.04345703125
 70
   192
  0
VERTEX
  5
3BB
330
3B3
100
AcDbEntity
  8
-DC_BREP1
100
AcDbVertex
100
AcDbPolyFaceMeshVertex
 10
-2.762647628784179
 20
-10.25905227661133
 30
2771.150146484375
 70
   192
  0
VERTEX
  5
3BC
330
3B3
100
AcDbEntity
  8
-DC_BREP1
100
AcDbVertex
100
AcDbPolyFaceMeshVertex
 10
-2.762828826904296
 20
-1210.259033203125
 30
2771.150390625
 70
   192
  0
VERTEX
  5
3BD
330
3B3
100
AcDbEntity
  8
-DC_BREP1
100
AcDbVertex
100
AcDbPolyFaceMeshVertex
 10
-3.120877742767333
 20
-10.25905227661133
 30
2771.335693359375
 70
   192
  0
VERTEX
  5
3BE
330
3B3
100
AcDbEntity
  8
-DC_BREP1
100
AcDbVertex
100
AcDbPolyFaceMeshVertex
 10
-3.121058940887451
 20
-1210.259033203125
 30
2771.3359375
 70
   192
  0
VERTEX
  5
3BF
330
3B3
100
AcDbEntity
  8
-DC_BREP1
100
AcDbVertex
100
AcDbPolyFaceMeshVertex
 10
-3.440671920776367
 20
-10.25905227661133
 30
2771.595458984375
 70
   192
  0
VERTEX
  5
3C0
330
3B3
100
AcDbEntity
  8
-DC_BREP1
100
AcDbVertex
100
AcDbPolyFaceMeshVertex
 10
-3.440853118896484
 20
-1210.259033203125
 30
2771.595703125
 70
   192
  0
VERTEX
  5
3C1
330
3B3
100
AcDbEntity
  8
-DC_BREP1
100
AcDbVertex
100
AcDbPolyFaceMeshVertex
 10
-3.700449228286743
 20
-10.25905227661133
 30
2771.915283203125
 70
   192
  0
VERTEX
  5
3C2
330
3B3
100
AcDbEntity
  8
-DC_BREP1
100
AcDbVertex
100
AcDbPolyFaceMeshVertex
 10
-3.70063042640686
 20
-1210.259033203125
 30
2771.91552734375
 70
   192
  0
VERTEX
  5
3C3
330
3B3
100
AcDbEntity
  8
-DC_BREP1
100
AcDbVertex
100
AcDbPolyFaceMeshVertex
 10
-3.886034727096557
 20
-10.25905132293701
 30
2772.273681640625
 70
   192
  0
VERTEX
  5
3C4
330
3B3
100
AcDbEntity
  8
-DC_BREP1
100
AcDbVertex
100
AcDbPolyFaceMeshVertex
 10
-3.886215925216674
 20
-1210.259033203125
 30
2772.273681640625
 70
   192
  0
VERTEX
  5
3C5
330
3B3
100
AcDbEntity
  8
-DC_BREP1
100
AcDbVertex
100
AcDbPolyFaceMeshVertex
 10
-3.993068933486938
 20
-10.25905132293701
 30
2772.645751953125
 70
   192
  0
VERTEX
  5
3C6
330
3B3
100
AcDbEntity
  8
-DC_BREP1
100
AcDbVertex
100
AcDbPolyFaceMeshVertex
 10
-2.026639461517333
 20
-1210.259033203125
 30
2771.010009765625
 70
   192
  0
VERTEX
  5
3C7
330
3B3
100
AcDbEntity
  8
-DC_BREP1
100
AcDbVertex
100
AcDbPolyFaceMeshVertex
 10
3.973541736602783
 20
-10.25905323028564
 30
2771.009765625
 70
   192
  0
VERTEX
  5
3C8
330
3B3
100
AcDbEntity
  8
-DC_BREP1
100
AcDbVertex
100
AcDbPolyFaceMeshVertex
 10
3.973360538482666
 20
-1210.259033203125
 30
2771.010009765625
 70
   192
  0
VERTEX
  5
3C9
330
3B3
100
AcDbEntity
  8
-DC_BREP1
100
AcDbVertex
100
AcDbPolyFaceMeshVertex
 10
-2.026458263397216
 20
-10.25905227661133
 30
2771.009765625
 70
   192
  0
VERTEX
  5
3CA
330
3B3
100
AcDbEntity
  8
-DC_BREP1
100
AcDbVertex
100
AcDbPolyFaceMeshVertex
 10
18.97354125976562
 20
-10.25905513763428
 30
2771.009765625
 70
   192
  0
VERTEX
  5
3CB
330
3B3
100
AcDbEntity
  8
-DC_BREP1
100
AcDbVertex
100
AcDbPolyFaceMeshVertex
 10
19.70973014831543
 20
-10.25905513763428
 30
2771.150146484375
 70
   192
  0
VERTEX
  5
3CC
330
3B3
100
AcDbEntity
  8
-DC_BREP1
100
AcDbVertex
100
AcDbPolyFaceMeshVertex
 10
19.33746719360351
 20
-10.25905513763428
 30
2771.043212890625
 70
   192
  0
VERTEX
  5
3CD
330
3B3
100
AcDbEntity
  8
-DC_BREP1
100
AcDbVertex
100
AcDbPolyFaceMeshVertex
 10
12.97354507446289
 20
-10.25904846191406
 30
2808.009765625
 70
   192
  0
VERTEX
  5
3CE
330
3B3
100
AcDbEntity
  8
-DC_BREP1
100
AcDbVertex
100
AcDbPolyFaceMeshVertex
 10
12.97354125976562
 20
-10.25905418395996
 30
2771.009765625
 70
   192
  0
VERTEX
  5
3CF
330
3B3
100
AcDbEntity
  8
-DC_BREP1
100
AcDbVertex
100
AcDbPolyFaceMeshVertex
 10
-2.026458263397216
 20
-10.25905227661133
 30
2771.009765625
 70
   192
  0
VERTEX
  5
3D0
330
3B3
100
AcDbEntity
  8
-DC_BREP1
100
AcDbVertex
100
AcDbPolyFaceMeshVertex
 10
3.97354507446289
 20
-10.25904750823974
 30
2808.009765625
 70
   192
  0
VERTEX
  5
3D1
330
3B3
100
AcDbEntity
  8
-DC_BREP1
100
AcDbVertex
100
AcDbPolyFaceMeshVertex
 10
3.973541736602783
 20
-10.25905323028564
 30
2771.009765625
 70
   192
  0
VERTEX
  5
3D2
330
3B3
100
AcDbEntity
  8
-DC_BREP1
100
AcDbVertex
100
AcDbPolyFaceMeshVertex
 10
-2.390384435653686
 20
-10.25905227661133
 30
2771.043212890625
 70
   192
  0
VERTEX
  5
3D3
330
3B3
100
AcDbEntity
  8
-DC_BREP1
100
AcDbVertex
100
AcDbPolyFaceMeshVertex
 10
-2.762647628784179
 20
-10.25905227661133
 30
2771.150146484375
 70
   192
  0
VERTEX
  5
3D4
330
3B3
100
AcDbEntity
  8
-DC_BREP1
100
AcDbVertex
100
AcDbPolyFaceMeshVertex
 10
-3.120877742767333
 20
-10.25905227661133
 30
2771.335693359375
 70
   192
  0
VERTEX
  5
3D5
330
3B3
100
AcDbEntity
  8
-DC_BREP1
100
AcDbVertex
100
AcDbPolyFaceMeshVertex
 10
-3.440671920776367
 20
-10.25905227661133
 30
2771.595458984375
 70
   192
  0
VERTEX
  5
3D6
330
3B3
100
AcDbEntity
  8
-DC_BREP1
100
AcDbVertex
100
AcDbPolyFaceMeshVertex
 10
-3.700449228286743
 20
-10.25905227661133
 30
2771.915283203125
 70
   192
  0
VERTEX
  5
3D7
330
3B3
100
AcDbEntity
  8
-DC_BREP1
100
AcDbVertex
100
AcDbPolyFaceMeshVertex
 10
-3.886034727096557
 20
-10.25905132293701
 30
2772.273681640625
 70
   192
  0
VERTEX
  5
3D8
330
3B3
100
AcDbEntity
  8
-DC_BREP1
100
AcDbVertex
100
AcDbPolyFaceMeshVertex
 10
-3.993068933486938
 20
-10.25905132293701
 30
2772.645751953125
 70
   192
  0
VERTEX
  5
3D9
330
3B3
100
AcDbEntity
  8
-DC_BREP1
100
AcDbVertex
100
AcDbPolyFaceMeshVertex
 10
-4.026458263397216
 20
-10.25905132293701
 30
2773.009765625
 70
   192
  0
VERTEX
  5
3DA
330
3B3
100
AcDbEntity
  8
-DC_BREP1
100
AcDbVertex
100
AcDbPolyFaceMeshVertex
 10
-4.026454925537109
 20
-10.25904560089111
 30
2810.009765625
 70
   192
  0
VERTEX
  5
3DB
330
3B3
100
AcDbEntity
  8
-DC_BREP1
100
AcDbVertex
100
AcDbPolyFaceMeshVertex
 10
20.97354507446289
 20
-10.25904941558838
 30
2810.009765625
 70
   192
  0
VERTEX
  5
3DC
330
3B3
100
AcDbEntity
  8
-DC_BREP1
100
AcDbVertex
100
AcDbPolyFaceMeshVertex
 10
20.97354125976563
 20
-10.25905513763428
 30
2773.009765625
 70
   192
  0
VERTEX
  5
3DD
330
3B3
100
AcDbEntity
  8
-DC_BREP1
100
AcDbVertex
100
AcDbPolyFaceMeshVertex
 10
20.94015121459961
 20
-10.25905513763428
 30
2772.645751953125
 70
   192
  0
VERTEX
  5
3DE
330
3B3
100
AcDbEntity
  8
-DC_BREP1
100
AcDbVertex
100
AcDbPolyFaceMeshVertex
 10
20.83311843872071
 20
-10.25905513763428
 30
2772.273681640625
 70
   192
  0
VERTEX
  5
3DF
330
3B3
100
AcDbEntity
  8
-DC_BREP1
100
AcDbVertex
100
AcDbPolyFaceMeshVertex
 10
20.64753150939941
 20
-10.25905513763428
 30
2771.915283203125
 70
   192
  0
VERTEX
  5
3E0
330
3B3
100
AcDbEntity
  8
-DC_BREP1
100
AcDbVertex
100
AcDbPolyFaceMeshVertex
 10
20.38775444030762
 20
-10.25905513763428
 30
2771.595458984375
 70
   192
  0
VERTEX
  5
3E1
330
3B3
100
AcDbEntity
  8
-DC_BREP1
100
AcDbVertex
100
AcDbPolyFaceMeshVertex
 10
20.06796073913574
 20
-10.25905513763428
 30
2771.335693359375
 70
   192
  0
VERTEX
  5
3E2
330
3B3
100
AcDbEntity
  8
-DC_BREP1
100
AcDbVertex
100
AcDbPolyFaceMeshVertex
 10
18.97354125976562
 20
-10.25905513763428
 30
2771.009765625
 70
   192
  0
VERTEX
  5
3E3
330
3B3
100
AcDbEntity
  8
-DC_BREP1
100
AcDbVertex
100
AcDbPolyFaceMeshVertex
 10
19.3372859954834
 20
-1210.259033203125
 30
2771.04345703125
 70
   192
  0
VERTEX
  5
3E4
330
3B3
100
AcDbEntity
  8
-DC_BREP1
100
AcDbVertex
100
AcDbPolyFaceMeshVertex
 10
18.9733600616455
 20
-1210.259033203125
 30
2771.010009765625
 70
   192
  0
VERTEX
  5
3E5
330
3B3
100
AcDbEntity
  8
-DC_BREP1
100
AcDbVertex
100
AcDbPolyFaceMeshVertex
 10
20.97336006164551
 20
-1210.259033203125
 30
2773.010009765625
 70
   192
  0
VERTEX
  5
3E6
330
3B3
100
AcDbEntity
  8
-DC_BREP1
100
AcDbVertex
100
AcDbPolyFaceMeshVertex
 10
20.94015121459961
 20
-10.25905513763428
 30
2772.645751953125
 70
   192
  0
VERTEX
  5
3E7
330
3B3
100
AcDbEntity
  8
-DC_BREP1
100
AcDbVertex
100
AcDbPolyFaceMeshVertex
 10
20.97354125976563
 20
-10.25905513763428
 30
2773.009765625
 70
   192
  0
VERTEX
  5
3E8
330
3B3
100
AcDbEntity
  8
-DC_BREP1
100
AcDbVertex
100
AcDbPolyFaceMeshVertex
 10
20.93997001647949
 20
-1210.259033203125
 30
2772.64599609375
 70
   192
  0
VERTEX
  5
3E9
330
3B3
100
AcDbEntity
  8
-DC_BREP1
100
AcDbVertex
100
AcDbPolyFaceMeshVertex
 10
20.83311843872071
 20
-10.25905513763428
 30
2772.273681640625
 70
   192
  0
VERTEX
  5
3EA
330
3B3
100
AcDbEntity
  8
-DC_BREP1
100
AcDbVertex
100
AcDbPolyFaceMeshVertex
 10
20.83293724060059
 20
-1210.259033203125
 30
2772.273681640625
 70
   192
  0
VERTEX
  5
3EB
330
3B3
100
AcDbEntity
  8
-DC_BREP1
100
AcDbVertex
100
AcDbPolyFaceMeshVertex
 10
20.64753150939941
 20
-10.25905513763428
 30
2771.915283203125
 70
   192
  0
VERTEX
  5
3EC
330
3B3
100
AcDbEntity
  8
-DC_BREP1
100
AcDbVertex
100
AcDbPolyFaceMeshVertex
 10
20.6473503112793
 20
-1210.259033203125
 30
2771.91552734375
 70
   192
  0
VERTEX
  5
3ED
330
3B3
100
AcDbEntity
  8
-DC_BREP1
100
AcDbVertex
100
AcDbPolyFaceMeshVertex
 10
20.38775444030762
 20
-10.25905513763428
 30
2771.595458984375
 70
   192
  0
VERTEX
  5
3EE
330
3B3
100
AcDbEntity
  8
-DC_BREP1
100
AcDbVertex
100
AcDbPolyFaceMeshVertex
 10
20.3875732421875
 20
-1210.259033203125
 30
2771.595703125
 70
   192
  0
VERTEX
  5
3EF
330
3B3
100
AcDbEntity
  8
-DC_BREP1
100
AcDbVertex
100
AcDbPolyFaceMeshVertex
 10
20.06796073913574
 20
-10.25905513763428
 30
2771.335693359375
 70
   192
  0
VERTEX
  5
3F0
330
3B3
100
AcDbEntity
  8
-DC_BREP1
100
AcDbVertex
100
AcDbPolyFaceMeshVertex
 10
20.06777954101563
 20
-1210.259033203125
 30
2771.3359375
 70
   192
  0
VERTEX
  5
3F1
330
3B3
100
AcDbEntity
  8
-DC_BREP1
100
AcDbVertex
100
AcDbPolyFaceMeshVertex
 10
19.70973014831543
 20
-10.25905513763428
 30
2771.150146484375
 70
   192
  0
VERTEX
  5
3F2
330
3B3
100
AcDbEntity
  8
-DC_BREP1
100
AcDbVertex
100
AcDbPolyFaceMeshVertex
 10
19.70954895019531
 20
-1210.259033203125
 30
2771.150390625
 70
   192
  0
VERTEX
  5
3F3
330
3B3
100
AcDbEntity
  8
-DC_BREP1
100
AcDbVertex
100
AcDbPolyFaceMeshVertex
 10
19.33746719360351
 20
-10.25905513763428
 30
2771.043212890625
 70
   192
  0
VERTEX
  5
3F4
330
3B3
100
AcDbEntity
  8
-DC_BREP1
100
AcDbVertex
100
AcDbPolyFaceMeshVertex
 10
18.9733600616455
 20
-1210.259033203125
 30
2771.010009765625
 70
   192
  0
VERTEX
  5
3F5
330
3B3
100
AcDbEntity
  8
-DC_BREP1
100
AcDbVertex
100
AcDbPolyFaceMeshVertex
 10
12.97354125976562
 20
-10.25905418395996
 30
2771.009765625
 70
   192
  0
VERTEX
  5
3F6
330
3B3
100
AcDbEntity
  8
-DC_BREP1
100
AcDbVertex
100
AcDbPolyFaceMeshVertex
 10
18.97354125976562
 20
-10.25905513763428
 30
2771.009765625
 70
   192
  0
VERTEX
  5
3F7
330
3B3
100
AcDbEntity
  8
-DC_BREP1
100
AcDbVertex
100
AcDbPolyFaceMeshVertex
 10
12.97336006164551
 20
-1210.259033203125
 30
2771.010009765625
 70
   192
  0
VERTEX
  5
3F8
330
3B3
100
AcDbEntity
  8
-DC_BREP1
100
AcDbVertex
100
AcDbPolyFaceMeshVertex
 10
20.97354125976563
 20
-10.25905513763428
 30
2773.009765625
 70
   192
  0
VERTEX
  5
3F9
330
3B3
100
AcDbEntity
  8
-DC_BREP1
100
AcDbVertex
100
AcDbPolyFaceMeshVertex
 10
20.97336387634277
 20
-1210.259033203125
 30
2810.010009765625
 70
   192
  0
VERTEX
  5
3FA
330
3B3
100
AcDbEntity
  8
-DC_BREP1
100
AcDbVertex
100
AcDbPolyFaceMeshVertex
 10
20.97336006164551
 20
-1210.259033203125
 30
2773.010009765625
 70
   192
  0
VERTEX
  5
3FB
330
3B3
100
AcDbEntity
  8
-DC_BREP1
100
AcDbVertex
100
AcDbPolyFaceMeshVertex
 10
20.97354507446289
 20
-10.25904941558838
 30
2810.009765625
 70
   192
  0
VERTEX
  5
3FC
330
3B3
100
AcDbEntity
  8
-DC_BREP1
100
AcDbVertex
100
AcDbPolyFaceMeshVertex
 10
12.97354125976562
 20
-10.25905418395996
 30
2771.009765625
 70
   192
  0
VERTEX
  5
3FD
330
3B3
100
AcDbEntity
  8
-DC_BREP1
100
AcDbVertex
100
AcDbPolyFaceMeshVertex
 10
12.97336387634277
 20
-1210.259033203125
 30
2808.010009765625
 70
   192
  0
VERTEX
  5
3FE
330
3B3
100
AcDbEntity
  8
-DC_BREP1
100
AcDbVertex
100
AcDbPolyFaceMeshVertex
 10
12.97354507446289
 20
-10.25904846191406
 30
2808.009765625
 70
   192
  0
VERTEX
  5
3FF
330
3B3
100
AcDbEntity
  8
-DC_BREP1
100
AcDbVertex
100
AcDbPolyFaceMeshVertex
 10
12.97336006164551
 20
-1210.259033203125
 30
2771.010009765625
 70
   192
  0
VERTEX
  5
400
330
3B3
100
AcDbEntity
  8
-DC_BREP1
100
AcDbVertex
100
AcDbPolyFaceMeshVertex
 10
3.97354507446289
 20
-10.25904750823974
 30
2808.009765625
 70
   192
  0
VERTEX
  5
401
330
3B3
100
AcDbEntity
  8
-DC_BREP1
100
AcDbVertex
100
AcDbPolyFaceMeshVertex
 10
12.97336387634277
 20
-1210.259033203125
 30
2808.010009765625
 70
   192
  0
VERTEX
  5
402
330
3B3
100
AcDbEntity
  8
-DC_BREP1
100
AcDbVertex
100
AcDbPolyFaceMeshVertex
 10
3.973363876342773
 20
-1210.259033203125
 30
2808.010009765625
 70
   192
  0
VERTEX
  5
403
330
3B3
100
AcDbEntity
  8
-DC_BREP1
100
AcDbVertex
100
AcDbPolyFaceMeshVertex
 10
12.97354507446289
 20
-10.25904846191406
 30
2808.009765625
 70
   192
  0
VERTEX
  5
404
330
3B3
100
AcDbEntity
  8
-DC_BREP1
100
AcDbVertex
100
AcDbPolyFaceMeshVertex
 10
3.97354507446289
 20
-10.25904750823974
 30
2808.009765625
 70
   192
  0
VERTEX
  5
405
330
3B3
100
AcDbEntity
  8
-DC_BREP1
100
AcDbVertex
100
AcDbPolyFaceMeshVertex
 10
3.973360538482666
 20
-1210.259033203125
 30
2771.010009765625
 70
   192
  0
VERTEX
  5
406
330
3B3
100
AcDbEntity
  8
-DC_BREP1
100
AcDbVertex
100
AcDbPolyFaceMeshVertex
 10
3.973541736602783
 20
-10.25905323028564
 30
2771.009765625
 70
   192
  0
VERTEX
  5
407
330
3B3
100
AcDbEntity
  8
-DC_BREP1
100
AcDbVertex
100
AcDbPolyFaceMeshVertex
 10
3.973363876342773
 20
-1210.259033203125
 30
2808.010009765625
 70
   192
  0
VERTEX
  5
408
330
3B3
100
AcDbEntity
  8
-DC_BREP1
100
AcDbVertex
100
AcDbPolyFaceMeshVertex
 10
-4.026639461517333
 20
-1210.259033203125
 30
2773.010009765625
 70
   192
  0
VERTEX
  5
409
330
3B3
100
AcDbEntity
  8
-DC_BREP1
100
AcDbVertex
100
AcDbPolyFaceMeshVertex
 10
-4.026454925537109
 20
-10.25904560089111
 30
2810.009765625
 70
   192
  0
VERTEX
  5
40A
330
3B3
100
AcDbEntity
  8
-DC_BREP1
100
AcDbVertex
100
AcDbPolyFaceMeshVertex
 10
-4.026458263397216
 20
-10.25905132293701
 30
2773.009765625
 70
   192
  0
VERTEX
  5
40B
330
3B3
100
AcDbEntity
  8
-DC_BREP1
100
AcDbVertex
100
AcDbPolyFaceMeshVertex
 10
-4.026636123657226
 20
-1210.259033203125
 30
2810.010009765625
 70
   192
  0
VERTEX
  5
40C
330
3B3
100
AcDbEntity
  8
-DC_BREP1
100
AcDbVertex
100
AcDbPolyFaceMeshVertex
 10
-4.026454925537109
 20
-10.25904560089111
 30
2810.009765625
 70
   192
  0
VERTEX
  5
40D
330
3B3
100
AcDbEntity
  8
-DC_BREP1
100
AcDbVertex
100
AcDbPolyFaceMeshVertex
 10
20.97336387634277
 20
-1210.259033203125
 30
2810.010009765625
 70
   192
  0
VERTEX
  5
40E
330
3B3
100
AcDbEntity
  8
-DC_BREP1
100
AcDbVertex
100
AcDbPolyFaceMeshVertex
 10
20.97354507446289
 20
-10.25904941558838
 30
2810.009765625
 70
   192
  0
VERTEX
  5
40F
330
3B3
100
AcDbEntity
  8
-DC_BREP1
100
AcDbVertex
100
AcDbPolyFaceMeshVertex
 10
-4.026636123657226
 20
-1210.259033203125
 30
2810.010009765625
 70
   192
  0
VERTEX
  5
410
330
3B3
100
AcDbEntity
  8
-DC_BREP1
100
AcDbVertex
100
AcDbPolyFaceMeshVertex
 10
20.97336006164551
 20
-1210.259033203125
 30
2773.010009765625
 70
   192
  0
VERTEX
  5
411
330
3B3
100
AcDbEntity
  8
-DC_BREP1
100
AcDbVertex
100
AcDbPolyFaceMeshVertex
 10
20.83293724060059
 20
-1210.259033203125
 30
2772.273681640625
 70
   192
  0
VERTEX
  5
412
330
3B3
100
AcDbEntity
  8
-DC_BREP1
100
AcDbVertex
100
AcDbPolyFaceMeshVertex
 10
20.93997001647949
 20
-1210.259033203125
 30
2772.64599609375
 70
   192
  0
VERTEX
  5
413
330
3B3
100
AcDbEntity
  8
-DC_BREP1
100
AcDbVertex
100
AcDbPolyFaceMeshVertex
 10
18.9733600616455
 20
-1210.259033203125
 30
2771.010009765625
 70
   192
  0
VERTEX
  5
414
330
3B3
100
AcDbEntity
  8
-DC_BREP1
100
AcDbVertex
100
AcDbPolyFaceMeshVertex
 10
12.97336387634277
 20
-1210.259033203125
 30
2808.010009765625
 70
   192
  0
VERTEX
  5
415
330
3B3
100
AcDbEntity
  8
-DC_BREP1
100
AcDbVertex
100
AcDbPolyFaceMeshVertex
 10
12.97336006164551
 20
-1210.259033203125
 30
2771.010009765625
 70
   192
  0
VERTEX
  5
416
330
3B3
100
AcDbEntity
  8
-DC_BREP1
100
AcDbVertex
100
AcDbPolyFaceMeshVertex
 10
3.973363876342773
 20
-1210.259033203125
 30
2808.010009765625
 70
   192
  0
VERTEX
  5
417
330
3B3
100
AcDbEntity
  8
-DC_BREP1
100
AcDbVertex
100
AcDbPolyFaceMeshVertex
 10
-2.026639461517333
 20
-1210.259033203125
 30
2771.010009765625
 70
   192
  0
VERTEX
  5
418
330
3B3
100
AcDbEntity
  8
-DC_BREP1
100
AcDbVertex
100
AcDbPolyFaceMeshVertex
 10
3.973360538482666
 20
-1210.259033203125
 30
2771.010009765625
 70
   192
  0
VERTEX
  5
419
330
3B3
100
AcDbEntity
  8
-DC_BREP1
100
AcDbVertex
100
AcDbPolyFaceMeshVertex
 10
-2.390565633773803
 20
-1210.259033203125
 30
2771.04345703125
 70
   192
  0
VERTEX
  5
41A
330
3B3
100
AcDbEntity
  8
-DC_BREP1
100
AcDbVertex
100
AcDbPolyFaceMeshVertex
 10
-2.762828826904296
 20
-1210.259033203125
 30
2771.150390625
 70
   192
  0
VERTEX
  5
41B
330
3B3
100
AcDbEntity
  8
-DC_BREP1
100
AcDbVertex
100
AcDbPolyFaceMeshVertex
 10
-3.121058940887451
 20
-1210.259033203125
 30
2771.3359375
 70
   192
  0
VERTEX
  5
41C
330
3B3
100
AcDbEntity
  8
-DC_BREP1
100
AcDbVertex
100
AcDbPolyFaceMeshVertex
 10
-3.440853118896484
 20
-1210.259033203125
 30
2771.595703125
 70
   192
  0
VERTEX
  5
41D
330
3B3
100
AcDbEntity
  8
-DC_BREP1
100
AcDbVertex
100
AcDbPolyFaceMeshVertex
 10
-3.70063042640686
 20
-1210.259033203125
 30
2771.91552734375
 70
   192
  0
VERTEX
  5
41E
330
3B3
100
AcDbEntity
  8
-DC_BREP1
100
AcDbVertex
100
AcDbPolyFaceMeshVertex
 10
-3.886215925216674
 20
-1210.259033203125
 30
2772.273681640625
 70
   192
  0
VERTEX
  5
41F
330
3B3
100
AcDbEntity
  8
-DC_BREP1
100
AcDbVertex
100
AcDbPolyFaceMeshVertex
 10
-3.993250131607055
 20
-1210.259033203125
 30
2772.64599609375
 70
   192
  0
VERTEX
  5
420
330
3B3
100
AcDbEntity
  8
-DC_BREP1
100
AcDbVertex
100
AcDbPolyFaceMeshVertex
 10
-4.026639461517333
 20
-1210.259033203125
 30
2773.010009765625
 70
   192
  0
VERTEX
  5
421
330
3B3
100
AcDbEntity
  8
-DC_BREP1
100
AcDbVertex
100
AcDbPolyFaceMeshVertex
 10
-4.026636123657226
 20
-1210.259033203125
 30
2810.010009765625
 70
   192
  0
VERTEX
  5
422
330
3B3
100
AcDbEntity
  8
-DC_BREP1
100
AcDbVertex
100
AcDbPolyFaceMeshVertex
 10
20.97336387634277
 20
-1210.259033203125
 30
2810.010009765625
 70
   192
  0
VERTEX
  5
423
330
3B3
100
AcDbEntity
  8
-DC_BREP1
100
AcDbVertex
100
AcDbPolyFaceMeshVertex
 10
19.3372859954834
 20
-1210.259033203125
 30
2771.04345703125
 70
   192
  0
VERTEX
  5
424
330
3B3
100
AcDbEntity
  8
-DC_BREP1
100
AcDbVertex
100
AcDbPolyFaceMeshVertex
 10
19.70954895019531
 20
-1210.259033203125
 30
2771.150390625
 70
   192
  0
VERTEX
  5
425
330
3B3
100
AcDbEntity
  8
-DC_BREP1
100
AcDbVertex
100
AcDbPolyFaceMeshVertex
 10
20.06777954101563
 20
-1210.259033203125
 30
2771.3359375
 70
   192
  0
VERTEX
  5
426
330
3B3
100
AcDbEntity
  8
-DC_BREP1
100
AcDbVertex
100
AcDbPolyFaceMeshVertex
 10
20.3875732421875
 20
-1210.259033203125
 30
2771.595703125
 70
   192
  0
VERTEX
  5
427
330
3B3
100
AcDbEntity
  8
-DC_BREP1
100
AcDbVertex
100
AcDbPolyFaceMeshVertex
 10
20.6473503112793
 20
-1210.259033203125
 30
2771.91552734375
 70
   192
  0
VERTEX
  5
428
330
3B3
100
AcDbEntity
  8
-DC_BREP1
100
AcDbFaceRecord
 10
0.0
 20
0.0
 30
0.0
 70
   128
 71
     1
 72
     2
 73
     3
  0
VERTEX
  5
429
330
3B3
100
AcDbEntity
  8
-DC_BREP1
100
AcDbFaceRecord
 10
0.0
 20
0.0
 30
0.0
 70
   128
 71
     4
 72
     5
 73
     6
  0
VERTEX
  5
42A
330
3B3
100
AcDbEntity
  8
-DC_BREP1
100
AcDbFaceRecord
 10
0.0
 20
0.0
 30
0.0
 70
   128
 71
     7
 72
     5
 73
     4
  0
VERTEX
  5
42B
330
3B3
100
AcDbEntity
  8
-DC_BREP1
100
AcDbFaceRecord
 10
0.0
 20
0.0
 30
0.0
 70
   128
 71
     7
 72
     8
 73
     5
  0
VERTEX
  5
42C
330
3B3
100
AcDbEntity
  8
-DC_BREP1
100
AcDbFaceRecord
 10
0.0
 20
0.0
 30
0.0
 70
   128
 71
     9
 72
     8
 73
     7
  0
VERTEX
  5
42D
330
3B3
100
AcDbEntity
  8
-DC_BREP1
100
AcDbFaceRecord
 10
0.0
 20
0.0
 30
0.0
 70
   128
 71
     9
 72
    10
 73
     8
  0
VERTEX
  5
42E
330
3B3
100
AcDbEntity
  8
-DC_BREP1
100
AcDbFaceRecord
 10
0.0
 20
0.0
 30
0.0
 70
   128
 71
    11
 72
    10
 73
     9
  0
VERTEX
  5
42F
330
3B3
100
AcDbEntity
  8
-DC_BREP1
100
AcDbFaceRecord
 10
0.0
 20
0.0
 30
0.0
 70
   128
 71
    11
 72
    12
 73
    10
  0
VERTEX
  5
430
330
3B3
100
AcDbEntity
  8
-DC_BREP1
100
AcDbFaceRecord
 10
0.0
 20
0.0
 30
0.0
 70
   128
 71
    13
 72
    12
 73
    11
  0
VERTEX
  5
431
330
3B3
100
AcDbEntity
  8
-DC_BREP1
100
AcDbFaceRecord
 10
0.0
 20
0.0
 30
0.0
 70
   128
 71
    13
 72
    14
 73
    12
  0
VERTEX
  5
432
330
3B3
100
AcDbEntity
  8
-DC_BREP1
100
AcDbFaceRecord
 10
0.0
 20
0.0
 30
0.0
 70
   128
 71
    15
 72
    14
 73
    13
  0
VERTEX
  5
433
330
3B3
100
AcDbEntity
  8
-DC_BREP1
100
AcDbFaceRecord
 10
0.0
 20
0.0
 30
0.0
 70
   128
 71
    15
 72
    16
 73
    14
  0
VERTEX
  5
434
330
3B3
100
AcDbEntity
  8
-DC_BREP1
100
AcDbFaceRecord
 10
0.0
 20
0.0
 30
0.0
 70
   128
 71
    17
 72
    16
 73
    15
  0
VERTEX
  5
435
330
3B3
100
AcDbEntity
  8
-DC_BREP1
100
AcDbFaceRecord
 10
0.0
 20
0.0
 30
0.0
 70
   128
 71
    17
 72
    18
 73
    16
  0
VERTEX
  5
436
330
3B3
100
AcDbEntity
  8
-DC_BREP1
100
AcDbFaceRecord
 10
0.0
 20
0.0
 30
0.0
 70
   128
 71
     2
 72
    18
 73
    17
  0
VERTEX
  5
437
330
3B3
100
AcDbEntity
  8
-DC_BREP1
100
AcDbFaceRecord
 10
0.0
 20
0.0
 30
0.0
 70
   128
 71
     2
 72
     1
 73
    18
  0
VERTEX
  5
438
330
3B3
100
AcDbEntity
  8
-DC_BREP1
100
AcDbFaceRecord
 10
0.0
 20
0.0
 30
0.0
 70
   128
 71
    19
 72
    20
 73
    21
  0
VERTEX
  5
439
330
3B3
100
AcDbEntity
  8
-DC_BREP1
100
AcDbFaceRecord
 10
0.0
 20
0.0
 30
0.0
 70
   128
 71
    20
 72
    19
 73
    22
  0
VERTEX
  5
43A
330
3B3
100
AcDbEntity
  8
-DC_BREP1
100
AcDbFaceRecord
 10
0.0
 20
0.0
 30
0.0
 70
   128
 71
    23
 72
    24
 73
    25
  0
VERTEX
  5
43B
330
3B3
100
AcDbEntity
  8
-DC_BREP1
100
AcDbFaceRecord
 10
0.0
 20
0.0
 30
0.0
 70
   128
 71
    26
 72
    23
 73
    27
  0
VERTEX
  5
43C
330
3B3
100
AcDbEntity
  8
-DC_BREP1
100
AcDbFaceRecord
 10
0.0
 20
0.0
 30
0.0
 70
   128
 71
    28
 72
    29
 73
    30
  0
VERTEX
  5
43D
330
3B3
100
AcDbEntity
  8
-DC_BREP1
100
AcDbFaceRecord
 10
0.0
 20
0.0
 30
0.0
 70
   128
 71
    31
 72
    29
 73
    28
  0
VERTEX
  5
43E
330
3B3
100
AcDbEntity
  8
-DC_BREP1
100
AcDbFaceRecord
 10
0.0
 20
0.0
 30
0.0
 70
   128
 71
    32
 72
    29
 73
    31
  0
VERTEX
  5
43F
330
3B3
100
AcDbEntity
  8
-DC_BREP1
100
AcDbFaceRecord
 10
0.0
 20
0.0
 30
0.0
 70
   128
 71
    33
 72
    29
 73
    32
  0
VERTEX
  5
440
330
3B3
100
AcDbEntity
  8
-DC_BREP1
100
AcDbFaceRecord
 10
0.0
 20
0.0
 30
0.0
 70
   128
 71
    34
 72
    29
 73
    33
  0
VERTEX
  5
441
330
3B3
100
AcDbEntity
  8
-DC_BREP1
100
AcDbFaceRecord
 10
0.0
 20
0.0
 30
0.0
 70
   128
 71
    35
 72
    29
 73
    34
  0
VERTEX
  5
442
330
3B3
100
AcDbEntity
  8
-DC_BREP1
100
AcDbFaceRecord
 10
0.0
 20
0.0
 30
0.0
 70
   128
 71
    36
 72
    29
 73
    35
  0
VERTEX
  5
443
330
3B3
100
AcDbEntity
  8
-DC_BREP1
100
AcDbFaceRecord
 10
0.0
 20
0.0
 30
0.0
 70
   128
 71
    37
 72
    29
 73
    36
  0
VERTEX
  5
444
330
3B3
100
AcDbEntity
  8
-DC_BREP1
100
AcDbFaceRecord
 10
0.0
 20
0.0
 30
0.0
 70
   128
 71
    38
 72
    29
 73
    37
  0
VERTEX
  5
445
330
3B3
100
AcDbEntity
  8
-DC_BREP1
100
AcDbFaceRecord
 10
0.0
 20
0.0
 30
0.0
 70
   128
 71
    39
 72
    29
 73
    38
  0
VERTEX
  5
446
330
3B3
100
AcDbEntity
  8
-DC_BREP1
100
AcDbFaceRecord
 10
0.0
 20
0.0
 30
0.0
 70
   128
 71
    40
 72
    29
 73
    39
  0
VERTEX
  5
447
330
3B3
100
AcDbEntity
  8
-DC_BREP1
100
AcDbFaceRecord
 10
0.0
 20
0.0
 30
0.0
 70
   128
 71
    40
 72
    26
 73
    29
  0
VERTEX
  5
448
330
3B3
100
AcDbEntity
  8
-DC_BREP1
100
AcDbFaceRecord
 10
0.0
 20
0.0
 30
0.0
 70
   128
 71
    41
 72
    26
 73
    40
  0
VERTEX
  5
449
330
3B3
100
AcDbEntity
  8
-DC_BREP1
100
AcDbFaceRecord
 10
0.0
 20
0.0
 30
0.0
 70
   128
 71
    41
 72
    23
 73
    26
  0
VERTEX
  5
44A
330
3B3
100
AcDbEntity
  8
-DC_BREP1
100
AcDbFaceRecord
 10
0.0
 20
0.0
 30
0.0
 70
   128
 71
    42
 72
    23
 73
    41
  0
VERTEX
  5
44B
330
3B3
100
AcDbEntity
  8
-DC_BREP1
100
AcDbFaceRecord
 10
0.0
 20
0.0
 30
0.0
 70
   128
 71
    43
 72
    23
 73
    42
  0
VERTEX
  5
44C
330
3B3
100
AcDbEntity
  8
-DC_BREP1
100
AcDbFaceRecord
 10
0.0
 20
0.0
 30
0.0
 70
   128
 71
    44
 72
    23
 73
    43
  0
VERTEX
  5
44D
330
3B3
100
AcDbEntity
  8
-DC_BREP1
100
AcDbFaceRecord
 10
0.0
 20
0.0
 30
0.0
 70
   128
 71
    45
 72
    23
 73
    44
  0
VERTEX
  5
44E
330
3B3
100
AcDbEntity
  8
-DC_BREP1
100
AcDbFaceRecord
 10
0.0
 20
0.0
 30
0.0
 70
   128
 71
    46
 72
    23
 73
    45
  0
VERTEX
  5
44F
330
3B3
100
AcDbEntity
  8
-DC_BREP1
100
AcDbFaceRecord
 10
0.0
 20
0.0
 30
0.0
 70
   128
 71
    24
 72
    23
 73
    46
  0
VERTEX
  5
450
330
3B3
100
AcDbEntity
  8
-DC_BREP1
100
AcDbFaceRecord
 10
0.0
 20
0.0
 30
0.0
 70
   128
 71
    47
 72
    48
 73
    49
  0
VERTEX
  5
451
330
3B3
100
AcDbEntity
  8
-DC_BREP1
100
AcDbFaceRecord
 10
0.0
 20
0.0
 30
0.0
 70
   128
 71
    50
 72
    51
 73
    52
  0
VERTEX
  5
452
330
3B3
100
AcDbEntity
  8
-DC_BREP1
100
AcDbFaceRecord
 10
0.0
 20
0.0
 30
0.0
 70
   128
 71
    53
 72
    51
 73
    50
  0
VERTEX
  5
453
330
3B3
100
AcDbEntity
  8
-DC_BREP1
100
AcDbFaceRecord
 10
0.0
 20
0.0
 30
0.0
 70
   128
 71
    53
 72
    54
 73
    51
  0
VERTEX
  5
454
330
3B3
100
AcDbEntity
  8
-DC_BREP1
100
AcDbFaceRecord
 10
0.0
 20
0.0
 30
0.0
 70
   128
 71
    55
 72
    54
 73
    53
  0
VERTEX
  5
455
330
3B3
100
AcDbEntity
  8
-DC_BREP1
100
AcDbFaceRecord
 10
0.0
 20
0.0
 30
0.0
 70
   128
 71
    55
 72
    56
 73
    54
  0
VERTEX
  5
456
330
3B3
100
AcDbEntity
  8
-DC_BREP1
100
AcDbFaceRecord
 10
0.0
 20
0.0
 30
0.0
 70
   128
 71
    57
 72
    56
 73
    55
  0
VERTEX
  5
457
330
3B3
100
AcDbEntity
  8
-DC_BREP1
100
AcDbFaceRecord
 10
0.0
 20
0.0
 30
0.0
 70
   128
 71
    57
 72
    58
 73
    56
  0
VERTEX
  5
458
330
3B3
100
AcDbEntity
  8
-DC_BREP1
100
AcDbFaceRecord
 10
0.0
 20
0.0
 30
0.0
 70
   128
 71
    59
 72
    58
 73
    57
  0
VERTEX
  5
459
330
3B3
100
AcDbEntity
  8
-DC_BREP1
100
AcDbFaceRecord
 10
0.0
 20
0.0
 30
0.0
 70
   128
 71
    59
 72
    60
 73
    58
  0
VERTEX
  5
45A
330
3B3
100
AcDbEntity
  8
-DC_BREP1
100
AcDbFaceRecord
 10
0.0
 20
0.0
 30
0.0
 70
   128
 71
    61
 72
    60
 73
    59
  0
VERTEX
  5
45B
330
3B3
100
AcDbEntity
  8
-DC_BREP1
100
AcDbFaceRecord
 10
0.0
 20
0.0
 30
0.0
 70
   128
 71
    61
 72
    62
 73
    60
  0
VERTEX
  5
45C
330
3B3
100
AcDbEntity
  8
-DC_BREP1
100
AcDbFaceRecord
 10
0.0
 20
0.0
 30
0.0
 70
   128
 71
    63
 72
    62
 73
    61
  0
VERTEX
  5
45D
330
3B3
100
AcDbEntity
  8
-DC_BREP1
100
AcDbFaceRecord
 10
0.0
 20
0.0
 30
0.0
 70
   128
 71
    63
 72
    64
 73
    62
  0
VERTEX
  5
45E
330
3B3
100
AcDbEntity
  8
-DC_BREP1
100
AcDbFaceRecord
 10
0.0
 20
0.0
 30
0.0
 70
   128
 71
    48
 72
    64
 73
    63
  0
VERTEX
  5
45F
330
3B3
100
AcDbEntity
  8
-DC_BREP1
100
AcDbFaceRecord
 10
0.0
 20
0.0
 30
0.0
 70
   128
 71
    48
 72
    47
 73
    64
  0
VERTEX
  5
460
330
3B3
100
AcDbEntity
  8
-DC_BREP1
100
AcDbFaceRecord
 10
0.0
 20
0.0
 30
0.0
 70
   128
 71
    65
 72
    66
 73
    67
  0
VERTEX
  5
461
330
3B3
100
AcDbEntity
  8
-DC_BREP1
100
AcDbFaceRecord
 10
0.0
 20
0.0
 30
0.0
 70
   128
 71
    66
 72
    65
 73
    68
  0
VERTEX
  5
462
330
3B3
100
AcDbEntity
  8
-DC_BREP1
100
AcDbFaceRecord
 10
0.0
 20
0.0
 30
0.0
 70
   128
 71
    69
 72
    70
 73
    71
  0
VERTEX
  5
463
330
3B3
100
AcDbEntity
  8
-DC_BREP1
100
AcDbFaceRecord
 10
0.0
 20
0.0
 30
0.0
 70
   128
 71
    70
 72
    69
 73
    72
  0
VERTEX
  5
464
330
3B3
100
AcDbEntity
  8
-DC_BREP1
100
AcDbFaceRecord
 10
0.0
 20
0.0
 30
0.0
 70
   128
 71
    73
 72
    74
 73
    75
  0
VERTEX
  5
465
330
3B3
100
AcDbEntity
  8
-DC_BREP1
100
AcDbFaceRecord
 10
0.0
 20
0.0
 30
0.0
 70
   128
 71
    74
 72
    73
 73
    76
  0
VERTEX
  5
466
330
3B3
100
AcDbEntity
  8
-DC_BREP1
100
AcDbFaceRecord
 10
0.0
 20
0.0
 30
0.0
 70
   128
 71
    77
 72
    78
 73
    79
  0
VERTEX
  5
467
330
3B3
100
AcDbEntity
  8
-DC_BREP1
100
AcDbFaceRecord
 10
0.0
 20
0.0
 30
0.0
 70
   128
 71
    78
 72
    77
 73
    80
  0
VERTEX
  5
468
330
3B3
100
AcDbEntity
  8
-DC_BREP1
100
AcDbFaceRecord
 10
0.0
 20
0.0
 30
0.0
 70
   128
 71
    81
 72
    82
 73
    83
  0
VERTEX
  5
469
330
3B3
100
AcDbEntity
  8
-DC_BREP1
100
AcDbFaceRecord
 10
0.0
 20
0.0
 30
0.0
 70
   128
 71
    82
 72
    81
 73
    84
  0
VERTEX
  5
46A
330
3B3
100
AcDbEntity
  8
-DC_BREP1
100
AcDbFaceRecord
 10
0.0
 20
0.0
 30
0.0
 70
   128
 71
    85
 72
    86
 73
    87
  0
VERTEX
  5
46B
330
3B3
100
AcDbEntity
  8
-DC_BREP1
100
AcDbFaceRecord
 10
0.0
 20
0.0
 30
0.0
 70
   128
 71
    86
 72
    85
 73
    88
  0
VERTEX
  5
46C
330
3B3
100
AcDbEntity
  8
-DC_BREP1
100
AcDbFaceRecord
 10
0.0
 20
0.0
 30
0.0
 70
   128
 71
    89
 72
    90
 73
    91
  0
VERTEX
  5
46D
330
3B3
100
AcDbEntity
  8
-DC_BREP1
100
AcDbFaceRecord
 10
0.0
 20
0.0
 30
0.0
 70
   128
 71
    90
 72
    89
 73
    92
  0
VERTEX
  5
46E
330
3B3
100
AcDbEntity
  8
-DC_BREP1
100
AcDbFaceRecord
 10
0.0
 20
0.0
 30
0.0
 70
   128
 71
    93
 72
    94
 73
    95
  0
VERTEX
  5
46F
330
3B3
100
AcDbEntity
  8
-DC_BREP1
100
AcDbFaceRecord
 10
0.0
 20
0.0
 30
0.0
 70
   128
 71
    96
 72
    97
 73
    98
  0
VERTEX
  5
470
330
3B3
100
AcDbEntity
  8
-DC_BREP1
100
AcDbFaceRecord
 10
0.0
 20
0.0
 30
0.0
 70
   128
 71
    99
 72
   100
 73
   101
  0
VERTEX
  5
471
330
3B3
100
AcDbEntity
  8
-DC_BREP1
100
AcDbFaceRecord
 10
0.0
 20
0.0
 30
0.0
 70
   128
 71
    99
 72
   102
 73
   100
  0
VERTEX
  5
472
330
3B3
100
AcDbEntity
  8
-DC_BREP1
100
AcDbFaceRecord
 10
0.0
 20
0.0
 30
0.0
 70
   128
 71
    99
 72
   103
 73
   102
  0
VERTEX
  5
473
330
3B3
100
AcDbEntity
  8
-DC_BREP1
100
AcDbFaceRecord
 10
0.0
 20
0.0
 30
0.0
 70
   128
 71
    99
 72
   104
 73
   103
  0
VERTEX
  5
474
330
3B3
100
AcDbEntity
  8
-DC_BREP1
100
AcDbFaceRecord
 10
0.0
 20
0.0
 30
0.0
 70
   128
 71
    99
 72
   105
 73
   104
  0
VERTEX
  5
475
330
3B3
100
AcDbEntity
  8
-DC_BREP1
100
AcDbFaceRecord
 10
0.0
 20
0.0
 30
0.0
 70
   128
 71
    99
 72
   106
 73
   105
  0
VERTEX
  5
476
330
3B3
100
AcDbEntity
  8
-DC_BREP1
100
AcDbFaceRecord
 10
0.0
 20
0.0
 30
0.0
 70
   128
 71
    99
 72
   107
 73
   106
  0
VERTEX
  5
477
330
3B3
100
AcDbEntity
  8
-DC_BREP1
100
AcDbFaceRecord
 10
0.0
 20
0.0
 30
0.0
 70
   128
 71
    99
 72
   108
 73
   107
  0
VERTEX
  5
478
330
3B3
100
AcDbEntity
  8
-DC_BREP1
100
AcDbFaceRecord
 10
0.0
 20
0.0
 30
0.0
 70
   128
 71
    99
 72
   109
 73
   108
  0
VERTEX
  5
479
330
3B3
100
AcDbEntity
  8
-DC_BREP1
100
AcDbFaceRecord
 10
0.0
 20
0.0
 30
0.0
 70
   128
 71
    99
 72
   110
 73
   109
  0
VERTEX
  5
47A
330
3B3
100
AcDbEntity
  8
-DC_BREP1
100
AcDbFaceRecord
 10
0.0
 20
0.0
 30
0.0
 70
   128
 71
    99
 72
   111
 73
   110
  0
VERTEX
  5
47B
330
3B3
100
AcDbEntity
  8
-DC_BREP1
100
AcDbFaceRecord
 10
0.0
 20
0.0
 30
0.0
 70
   128
 71
    97
 72
   111
 73
    99
  0
VERTEX
  5
47C
330
3B3
100
AcDbEntity
  8
-DC_BREP1
100
AcDbFaceRecord
 10
0.0
 20
0.0
 30
0.0
 70
   128
 71
    97
 72
    93
 73
   111
  0
VERTEX
  5
47D
330
3B3
100
AcDbEntity
  8
-DC_BREP1
100
AcDbFaceRecord
 10
0.0
 20
0.0
 30
0.0
 70
   128
 71
    96
 72
    93
 73
    97
  0
VERTEX
  5
47E
330
3B3
100
AcDbEntity
  8
-DC_BREP1
100
AcDbFaceRecord
 10
0.0
 20
0.0
 30
0.0
 70
   128
 71
   112
 72
    93
 73
    96
  0
VERTEX
  5
47F
330
3B3
100
AcDbEntity
  8
-DC_BREP1
100
AcDbFaceRecord
 10
0.0
 20
0.0
 30
0.0
 70
   128
 71
   113
 72
    93
 73
   112
  0
VERTEX
  5
480
330
3B3
100
AcDbEntity
  8
-DC_BREP1
100
AcDbFaceRecord
 10
0.0
 20
0.0
 30
0.0
 70
   128
 71
   114
 72
    93
 73
   113
  0
VERTEX
  5
481
330
3B3
100
AcDbEntity
  8
-DC_BREP1
100
AcDbFaceRecord
 10
0.0
 20
0.0
 30
0.0
 70
   128
 71
   115
 72
    93
 73
   114
  0
VERTEX
  5
482
330
3B3
100
AcDbEntity
  8
-DC_BREP1
100
AcDbFaceRecord
 10
0.0
 20
0.0
 30
0.0
 70
   128
 71
   116
 72
    93
 73
   115
  0
VERTEX
  5
483
330
3B3
100
AcDbEntity
  8
-DC_BREP1
100
AcDbFaceRecord
 10
0.0
 20
0.0
 30
0.0
 70
   128
 71
    94
 72
    93
 73
   116
  0
SEQEND
  5
484
330
3B3
100
AcDbEntity
  8
-DC_BREP1
  0
POLYLINE
  5
486
330
1F
100
AcDbEntity
  8
-DC_BREP1
100
AcDbPolyFaceMesh
 66
     1
 10
0.0
 20
0.0
 30
0.0
 70
    64
 71
    92
 72
    76
1001
AVE_ENTITY_MATERIAL
1002
{
1000

1002
{
1071
        0
1070
     0
1070
     0
1002
{
1070
     0
1070
     0
1070
     0
1040
0.0
1002
}
1070
     0
1070
     0
1002
{
1002
}
1002
}
1002
{
1002
}
1002
{
1002
}
1011
0.0
1021
0.0
1031
0.0
1011
1.0
1021
0.0
1031
0.0
1011
0.0
1021
1.0
1031
0.0
1011
0.0
1021
0.0
1031
1.0
1002
}
  0
VERTEX
  5
487
330
486
100
AcDbEntity
  8
-DC_BREP1
100
AcDbVertex
100
AcDbPolyFaceMeshVertex
 10
-4.026458263397216
 20
-1210.259033203125
 30
2773.009765625
 70
   192
  0
VERTEX
  5
488
330
486
100
AcDbEntity
  8
-DC_BREP1
100
AcDbVertex
100
AcDbPolyFaceMeshVertex
 10
-3.984019994735717
 20
-1212.259033203125
 30
2772.599853515625
 70
   192
  0
VERTEX
  5
489
330
486
100
AcDbEntity
  8
-DC_BREP1
100
AcDbVertex
100
AcDbPolyFaceMeshVertex
 10
-4.026458263397216
 20
-1212.259033203125
 30
2773.009765625
 70
   192
  0
VERTEX
  5
48A
330
486
100
AcDbEntity
  8
-DC_BREP1
100
AcDbVertex
100
AcDbPolyFaceMeshVertex
 10
-2.436277389526367
 20
-1212.259033203125
 30
2771.05224609375
 70
   192
  0
VERTEX
  5
48B
330
486
100
AcDbEntity
  8
-DC_BREP1
100
AcDbVertex
100
AcDbPolyFaceMeshVertex
 10
-2.026458263397216
 20
-1210.259033203125
 30
2771.009765625
 70
   192
  0
VERTEX
  5
48C
330
486
100
AcDbEntity
  8
-DC_BREP1
100
AcDbVertex
100
AcDbPolyFaceMeshVertex
 10
-2.026458263397216
 20
-1212.259033203125
 30
2771.009765625
 70
   192
  0
VERTEX
  5
48D
330
486
100
AcDbEntity
  8
-DC_BREP1
100
AcDbVertex
100
AcDbPolyFaceMeshVertex
 10
-2.436277389526367
 20
-1210.259033203125
 30
2771.05224609375
 70
   192
  0
VERTEX
  5
48E
330
486
100
AcDbEntity
  8
-DC_BREP1
100
AcDbVertex
100
AcDbPolyFaceMeshVertex
 10
-2.820813179016113
 20
-1210.259033203125
 30
2771.17431640625
 70
   192
  0
VERTEX
  5
48F
330
486
100
AcDbEntity
  8
-DC_BREP1
100
AcDbVertex
100
AcDbPolyFaceMeshVertex
 10
-2.820813179016113
 20
-1212.259033203125
 30
2771.17431640625
 70
   192
  0
VERTEX
  5
490
330
486
100
AcDbEntity
  8
-DC_BREP1
100
AcDbVertex
100
AcDbPolyFaceMeshVertex
 10
-3.159727573394775
 20
-1210.259033203125
 30
2771.36181640625
 70
   192
  0
VERTEX
  5
491
330
486
100
AcDbEntity
  8
-DC_BREP1
100
AcDbVertex
100
AcDbPolyFaceMeshVertex
 10
-3.159727573394775
 20
-1212.259033203125
 30
2771.36181640625
 70
   192
  0
VERTEX
  5
492
330
486
100
AcDbEntity
  8
-DC_BREP1
100
AcDbVertex
100
AcDbPolyFaceMeshVertex
 10
-3.440671920776367
 20
-1210.259033203125
 30
2771.595458984375
 70
   192
  0
VERTEX
  5
493
330
486
100
AcDbEntity
  8
-DC_BREP1
100
AcDbVertex
100
AcDbPolyFaceMeshVertex
 10
-3.440671920776367
 20
-1212.259033203125
 30
2771.595458984375
 70
   192
  0
VERTEX
  5
494
330
486
100
AcDbEntity
  8
-DC_BREP1
100
AcDbVertex
100
AcDbPolyFaceMeshVertex
 10
-3.674396514892578
 20
-1210.259033203125
 30
2771.87646484375
 70
   192
  0
VERTEX
  5
495
330
486
100
AcDbEntity
  8
-DC_BREP1
100
AcDbVertex
100
AcDbPolyFaceMeshVertex
 10
-3.674396514892578
 20
-1212.259033203125
 30
2771.87646484375
 70
   192
  0
VERTEX
  5
496
330
486
100
AcDbEntity
  8
-DC_BREP1
100
AcDbVertex
100
AcDbPolyFaceMeshVertex
 10
-3.861942052841186
 20
-1210.259033203125
 30
2772.21533203125
 70
   192
  0
VERTEX
  5
497
330
486
100
AcDbEntity
  8
-DC_BREP1
100
AcDbVertex
100
AcDbPolyFaceMeshVertex
 10
-3.861942052841186
 20
-1212.259033203125
 30
2772.21533203125
 70
   192
  0
VERTEX
  5
498
330
486
100
AcDbEntity
  8
-DC_BREP1
100
AcDbVertex
100
AcDbPolyFaceMeshVertex
 10
-3.984019994735717
 20
-1210.259033203125
 30
2772.599853515625
 70
   192
  0
VERTEX
  5
499
330
486
100
AcDbEntity
  8
-DC_BREP1
100
AcDbVertex
100
AcDbPolyFaceMeshVertex
 10
-4.026458263397216
 20
-1212.259033203125
 30
2773.009765625
 70
   192
  0
VERTEX
  5
49A
330
486
100
AcDbEntity
  8
-DC_BREP1
100
AcDbVertex
100
AcDbPolyFaceMeshVertex
 10
-4.026454925537109
 20
-1210.259033203125
 30
2810.009765625
 70
   192
  0
VERTEX
  5
49B
330
486
100
AcDbEntity
  8
-DC_BREP1
100
AcDbVertex
100
AcDbPolyFaceMeshVertex
 10
-4.026458263397216
 20
-1210.259033203125
 30
2773.009765625
 70
   192
  0
VERTEX
  5
49C
330
486
100
AcDbEntity
  8
-DC_BREP1
100
AcDbVertex
100
AcDbPolyFaceMeshVertex
 10
-4.026454925537109
 20
-1212.259033203125
 30
2810.009765625
 70
   192
  0
VERTEX
  5
49D
330
486
100
AcDbEntity
  8
-DC_BREP1
100
AcDbVertex
100
AcDbPolyFaceMeshVertex
 10
20.97354125976563
 20
-1212.259033203125
 30
2773.009765625
 70
   192
  0
VERTEX
  5
49E
330
486
100
AcDbEntity
  8
-DC_BREP1
100
AcDbVertex
100
AcDbPolyFaceMeshVertex
 10
20.83311843872071
 20
-1212.259033203125
 30
2772.273681640625
 70
   192
  0
VERTEX
  5
49F
330
486
100
AcDbEntity
  8
-DC_BREP1
100
AcDbVertex
100
AcDbPolyFaceMeshVertex
 10
20.94015121459961
 20
-1212.259033203125
 30
2772.645751953125
 70
   192
  0
VERTEX
  5
4A0
330
486
100
AcDbEntity
  8
-DC_BREP1
100
AcDbVertex
100
AcDbPolyFaceMeshVertex
 10
-4.026458263397216
 20
-1212.259033203125
 30
2773.009765625
 70
   192
  0
VERTEX
  5
4A1
330
486
100
AcDbEntity
  8
-DC_BREP1
100
AcDbVertex
100
AcDbPolyFaceMeshVertex
 10
20.97354507446289
 20
-1212.259033203125
 30
2810.009765625
 70
   192
  0
VERTEX
  5
4A2
330
486
100
AcDbEntity
  8
-DC_BREP1
100
AcDbVertex
100
AcDbPolyFaceMeshVertex
 10
-4.026454925537109
 20
-1212.259033203125
 30
2810.009765625
 70
   192
  0
VERTEX
  5
4A3
330
486
100
AcDbEntity
  8
-DC_BREP1
100
AcDbVertex
100
AcDbPolyFaceMeshVertex
 10
-3.993068933486938
 20
-1212.259033203125
 30
2772.645751953125
 70
   192
  0
VERTEX
  5
4A4
330
486
100
AcDbEntity
  8
-DC_BREP1
100
AcDbVertex
100
AcDbPolyFaceMeshVertex
 10
-3.886034727096557
 20
-1212.259033203125
 30
2772.273681640625
 70
   192
  0
VERTEX
  5
4A5
330
486
100
AcDbEntity
  8
-DC_BREP1
100
AcDbVertex
100
AcDbPolyFaceMeshVertex
 10
-3.700449228286743
 20
-1212.259033203125
 30
2771.915283203125
 70
   192
  0
VERTEX
  5
4A6
330
486
100
AcDbEntity
  8
-DC_BREP1
100
AcDbVertex
100
AcDbPolyFaceMeshVertex
 10
-3.440671920776367
 20
-1212.259033203125
 30
2771.595458984375
 70
   192
  0
VERTEX
  5
4A7
330
486
100
AcDbEntity
  8
-DC_BREP1
100
AcDbVertex
100
AcDbPolyFaceMeshVertex
 10
-3.120877742767333
 20
-1212.259033203125
 30
2771.335693359375
 70
   192
  0
VERTEX
  5
4A8
330
486
100
AcDbEntity
  8
-DC_BREP1
100
AcDbVertex
100
AcDbPolyFaceMeshVertex
 10
-2.762647628784179
 20
-1212.259033203125
 30
2771.150146484375
 70
   192
  0
VERTEX
  5
4A9
330
486
100
AcDbEntity
  8
-DC_BREP1
100
AcDbVertex
100
AcDbPolyFaceMeshVertex
 10
-2.390384435653686
 20
-1212.259033203125
 30
2771.043212890625
 70
   192
  0
VERTEX
  5
4AA
330
486
100
AcDbEntity
  8
-DC_BREP1
100
AcDbVertex
100
AcDbPolyFaceMeshVertex
 10
-2.026458263397216
 20
-1212.259033203125
 30
2771.009765625
 70
   192
  0
VERTEX
  5
4AB
330
486
100
AcDbEntity
  8
-DC_BREP1
100
AcDbVertex
100
AcDbPolyFaceMeshVertex
 10
18.97354125976562
 20
-1212.259033203125
 30
2771.009765625
 70
   192
  0
VERTEX
  5
4AC
330
486
100
AcDbEntity
  8
-DC_BREP1
100
AcDbVertex
100
AcDbPolyFaceMeshVertex
 10
19.33746719360351
 20
-1212.259033203125
 30
2771.043212890625
 70
   192
  0
VERTEX
  5
4AD
330
486
100
AcDbEntity
  8
-DC_BREP1
100
AcDbVertex
100
AcDbPolyFaceMeshVertex
 10
19.70973014831543
 20
-1212.259033203125
 30
2771.150146484375
 70
   192
  0
VERTEX
  5
4AE
330
486
100
AcDbEntity
  8
-DC_BREP1
100
AcDbVertex
100
AcDbPolyFaceMeshVertex
 10
20.06796073913574
 20
-1212.259033203125
 30
2771.335693359375
 70
   192
  0
VERTEX
  5
4AF
330
486
100
AcDbEntity
  8
-DC_BREP1
100
AcDbVertex
100
AcDbPolyFaceMeshVertex
 10
20.38775444030762
 20
-1212.259033203125
 30
2771.595458984375
 70
   192
  0
VERTEX
  5
4B0
330
486
100
AcDbEntity
  8
-DC_BREP1
100
AcDbVertex
100
AcDbPolyFaceMeshVertex
 10
20.64753150939941
 20
-1212.259033203125
 30
2771.915283203125
 70
   192
  0
VERTEX
  5
4B1
330
486
100
AcDbEntity
  8
-DC_BREP1
100
AcDbVertex
100
AcDbPolyFaceMeshVertex
 10
20.97354125976563
 20
-1212.259033203125
 30
2773.009765625
 70
   192
  0
VERTEX
  5
4B2
330
486
100
AcDbEntity
  8
-DC_BREP1
100
AcDbVertex
100
AcDbPolyFaceMeshVertex
 10
20.93110275268555
 20
-1210.259033203125
 30
2772.599853515625
 70
   192
  0
VERTEX
  5
4B3
330
486
100
AcDbEntity
  8
-DC_BREP1
100
AcDbVertex
100
AcDbPolyFaceMeshVertex
 10
20.97354125976563
 20
-1210.259033203125
 30
2773.009765625
 70
   192
  0
VERTEX
  5
4B4
330
486
100
AcDbEntity
  8
-DC_BREP1
100
AcDbVertex
100
AcDbPolyFaceMeshVertex
 10
18.97354125976562
 20
-1210.259033203125
 30
2771.009765625
 70
   192
  0
VERTEX
  5
4B5
330
486
100
AcDbEntity
  8
-DC_BREP1
100
AcDbVertex
100
AcDbPolyFaceMeshVertex
 10
19.38335990905762
 20
-1212.259033203125
 30
2771.05224609375
 70
   192
  0
VERTEX
  5
4B6
330
486
100
AcDbEntity
  8
-DC_BREP1
100
AcDbVertex
100
AcDbPolyFaceMeshVertex
 10
18.97354125976562
 20
-1212.259033203125
 30
2771.009765625
 70
   192
  0
VERTEX
  5
4B7
330
486
100
AcDbEntity
  8
-DC_BREP1
100
AcDbVertex
100
AcDbPolyFaceMeshVertex
 10
19.38335990905762
 20
-1210.259033203125
 30
2771.05224609375
 70
   192
  0
VERTEX
  5
4B8
330
486
100
AcDbEntity
  8
-DC_BREP1
100
AcDbVertex
100
AcDbPolyFaceMeshVertex
 10
19.76789665222168
 20
-1212.259033203125
 30
2771.17431640625
 70
   192
  0
VERTEX
  5
4B9
330
486
100
AcDbEntity
  8
-DC_BREP1
100
AcDbVertex
100
AcDbPolyFaceMeshVertex
 10
19.76789665222168
 20
-1210.259033203125
 30
2771.17431640625
 70
   192
  0
VERTEX
  5
4BA
330
486
100
AcDbEntity
  8
-DC_BREP1
100
AcDbVertex
100
AcDbPolyFaceMeshVertex
 10
20.10680961608887
 20
-1210.259033203125
 30
2771.36181640625
 70
   192
  0
VERTEX
  5
4BB
330
486
100
AcDbEntity
  8
-DC_BREP1
100
AcDbVertex
100
AcDbPolyFaceMeshVertex
 10
20.10680961608887
 20
-1212.259033203125
 30
2771.36181640625
 70
   192
  0
VERTEX
  5
4BC
330
486
100
AcDbEntity
  8
-DC_BREP1
100
AcDbVertex
100
AcDbPolyFaceMeshVertex
 10
20.38775444030762
 20
-1212.259033203125
 30
2771.595458984375
 70
   192
  0
VERTEX
  5
4BD
330
486
100
AcDbEntity
  8
-DC_BREP1
100
AcDbVertex
100
AcDbPolyFaceMeshVertex
 10
20.38775444030762
 20
-1210.259033203125
 30
2771.595458984375
 70
   192
  0
VERTEX
  5
4BE
330
486
100
AcDbEntity
  8
-DC_BREP1
100
AcDbVertex
100
AcDbPolyFaceMeshVertex
 10
20.62147903442383
 20
-1210.259033203125
 30
2771.87646484375
 70
   192
  0
VERTEX
  5
4BF
330
486
100
AcDbEntity
  8
-DC_BREP1
100
AcDbVertex
100
AcDbPolyFaceMeshVertex
 10
20.62147903442383
 20
-1212.259033203125
 30
2771.87646484375
 70
   192
  0
VERTEX
  5
4C0
330
486
100
AcDbEntity
  8
-DC_BREP1
100
AcDbVertex
100
AcDbPolyFaceMeshVertex
 10
20.80902481079101
 20
-1212.259033203125
 30
2772.21533203125
 70
   192
  0
VERTEX
  5
4C1
330
486
100
AcDbEntity
  8
-DC_BREP1
100
AcDbVertex
100
AcDbPolyFaceMeshVertex
 10
20.80902481079101
 20
-1210.259033203125
 30
2772.21533203125
 70
   192
  0
VERTEX
  5
4C2
330
486
100
AcDbEntity
  8
-DC_BREP1
100
AcDbVertex
100
AcDbPolyFaceMeshVertex
 10
20.93110275268555
 20
-1212.259033203125
 30
2772.599853515625
 70
   192
  0
VERTEX
  5
4C3
330
486
100
AcDbEntity
  8
-DC_BREP1
100
AcDbVertex
100
AcDbPolyFaceMeshVertex
 10
20.97354125976563
 20
-1210.259033203125
 30
2773.009765625
 70
   192
  0
VERTEX
  5
4C4
330
486
100
AcDbEntity
  8
-DC_BREP1
100
AcDbVertex
100
AcDbPolyFaceMeshVertex
 10
20.97354507446289
 20
-1212.259033203125
 30
2810.009765625
 70
   192
  0
VERTEX
  5
4C5
330
486
100
AcDbEntity
  8
-DC_BREP1
100
AcDbVertex
100
AcDbPolyFaceMeshVertex
 10
20.97354125976563
 20
-1212.259033203125
 30
2773.009765625
 70
   192
  0
VERTEX
  5
4C6
330
486
100
AcDbEntity
  8
-DC_BREP1
100
AcDbVertex
100
AcDbPolyFaceMeshVertex
 10
20.97354507446289
 20
-1210.259033203125
 30
2810.009765625
 70
   192
  0
VERTEX
  5
4C7
330
486
100
AcDbEntity
  8
-DC_BREP1
100
AcDbVertex
100
AcDbPolyFaceMeshVertex
 10
-2.026458263397216
 20
-1210.259033203125
 30
2771.009765625
 70
   192
  0
VERTEX
  5
4C8
330
486
100
AcDbEntity
  8
-DC_BREP1
100
AcDbVertex
100
AcDbPolyFaceMeshVertex
 10
18.97354125976562
 20
-1212.259033203125
 30
2771.009765625
 70
   192
  0
VERTEX
  5
4C9
330
486
100
AcDbEntity
  8
-DC_BREP1
100
AcDbVertex
100
AcDbPolyFaceMeshVertex
 10
-2.026458263397216
 20
-1212.259033203125
 30
2771.009765625
 70
   192
  0
VERTEX
  5
4CA
330
486
100
AcDbEntity
  8
-DC_BREP1
100
AcDbVertex
100
AcDbPolyFaceMeshVertex
 10
18.97354125976562
 20
-1210.259033203125
 30
2771.009765625
 70
   192
  0
VERTEX
  5
4CB
330
486
100
AcDbEntity
  8
-DC_BREP1
100
AcDbVertex
100
AcDbPolyFaceMeshVertex
 10
20.97354507446289
 20
-1212.259033203125
 30
2810.009765625
 70
   192
  0
VERTEX
  5
4CC
330
486
100
AcDbEntity
  8
-DC_BREP1
100
AcDbVertex
100
AcDbPolyFaceMeshVertex
 10
-4.026454925537109
 20
-1210.259033203125
 30
2810.009765625
 70
   192
  0
VERTEX
  5
4CD
330
486
100
AcDbEntity
  8
-DC_BREP1
100
AcDbVertex
100
AcDbPolyFaceMeshVertex
 10
-4.026454925537109
 20
-1212.259033203125
 30
2810.009765625
 70
   192
  0
VERTEX
  5
4CE
330
486
100
AcDbEntity
  8
-DC_BREP1
100
AcDbVertex
100
AcDbPolyFaceMeshVertex
 10
20.97354507446289
 20
-1210.259033203125
 30
2810.009765625
 70
   192
  0
VERTEX
  5
4CF
330
486
100
AcDbEntity
  8
-DC_BREP1
100
AcDbVertex
100
AcDbPolyFaceMeshVertex
 10
-4.026458263397216
 20
-1210.259033203125
 30
2773.009765625
 70
   192
  0
VERTEX
  5
4D0
330
486
100
AcDbEntity
  8
-DC_BREP1
100
AcDbVertex
100
AcDbPolyFaceMeshVertex
 10
-3.886034727096557
 20
-1210.259033203125
 30
2772.273681640625
 70
   192
  0
VERTEX
  5
4D1
330
486
100
AcDbEntity
  8
-DC_BREP1
100
AcDbVertex
100
AcDbPolyFaceMeshVertex
 10
-3.993068933486938
 20
-1210.259033203125
 30
2772.645751953125
 70
   192
  0
VERTEX
  5
4D2
330
486
100
AcDbEntity
  8
-DC_BREP1
100
AcDbVertex
100
AcDbPolyFaceMeshVertex
 10
20.97354507446289
 20
-1210.259033203125
 30
2810.009765625
 70
   192
  0
VERTEX
  5
4D3
330
486
100
AcDbEntity
  8
-DC_BREP1
100
AcDbVertex
100
AcDbPolyFaceMeshVertex
 10
-4.026454925537109
 20
-1210.259033203125
 30
2810.009765625
 70
   192
  0
VERTEX
  5
4D4
330
486
100
AcDbEntity
  8
-DC_BREP1
100
AcDbVertex
100
AcDbPolyFaceMeshVertex
 10
20.97354125976563
 20
-1210.259033203125
 30
2773.009765625
 70
   192
  0
VERTEX
  5
4D5
330
486
100
AcDbEntity
  8
-DC_BREP1
100
AcDbVertex
100
AcDbPolyFaceMeshVertex
 10
20.94015121459961
 20
-1210.259033203125
 30
2772.645751953125
 70
   192
  0
VERTEX
  5
4D6
330
486
100
AcDbEntity
  8
-DC_BREP1
100
AcDbVertex
100
AcDbPolyFaceMeshVertex
 10
20.83311843872071
 20
-1210.259033203125
 30
2772.273681640625
 70
   192
  0
VERTEX
  5
4D7
330
486
100
AcDbEntity
  8
-DC_BREP1
100
AcDbVertex
100
AcDbPolyFaceMeshVertex
 10
20.64753150939941
 20
-1210.259033203125
 30
2771.915283203125
 70
   192
  0
VERTEX
  5
4D8
330
486
100
AcDbEntity
  8
-DC_BREP1
100
AcDbVertex
100
AcDbPolyFaceMeshVertex
 10
20.38775444030762
 20
-1210.259033203125
 30
2771.595458984375
 70
   192
  0
VERTEX
  5
4D9
330
486
100
AcDbEntity
  8
-DC_BREP1
100
AcDbVertex
100
AcDbPolyFaceMeshVertex
 10
20.06796073913574
 20
-1210.259033203125
 30
2771.335693359375
 70
   192
  0
VERTEX
  5
4DA
330
486
100
AcDbEntity
  8
-DC_BREP1
100
AcDbVertex
100
AcDbPolyFaceMeshVertex
 10
19.70973014831543
 20
-1210.259033203125
 30
2771.150146484375
 70
   192
  0
VERTEX
  5
4DB
330
486
100
AcDbEntity
  8
-DC_BREP1
100
AcDbVertex
100
AcDbPolyFaceMeshVertex
 10
19.33746719360351
 20
-1210.259033203125
 30
2771.043212890625
 70
   192
  0
VERTEX
  5
4DC
330
486
100
AcDbEntity
  8
-DC_BREP1
100
AcDbVertex
100
AcDbPolyFaceMeshVertex
 10
18.97354125976562
 20
-1210.259033203125
 30
2771.009765625
 70
   192
  0
VERTEX
  5
4DD
330
486
100
AcDbEntity
  8
-DC_BREP1
100
AcDbVertex
100
AcDbPolyFaceMeshVertex
 10
-2.026458263397216
 20
-1210.259033203125
 30
2771.009765625
 70
   192
  0
VERTEX
  5
4DE
330
486
100
AcDbEntity
  8
-DC_BREP1
100
AcDbVertex
100
AcDbPolyFaceMeshVertex
 10
-2.390384435653686
 20
-1210.259033203125
 30
2771.043212890625
 70
   192
  0
VERTEX
  5
4DF
330
486
100
AcDbEntity
  8
-DC_BREP1
100
AcDbVertex
100
AcDbPolyFaceMeshVertex
 10
-2.762647628784179
 20
-1210.259033203125
 30
2771.150146484375
 70
   192
  0
VERTEX
  5
4E0
330
486
100
AcDbEntity
  8
-DC_BREP1
100
AcDbVertex
100
AcDbPolyFaceMeshVertex
 10
-3.120877742767333
 20
-1210.259033203125
 30
2771.335693359375
 70
   192
  0
VERTEX
  5
4E1
330
486
100
AcDbEntity
  8
-DC_BREP1
100
AcDbVertex
100
AcDbPolyFaceMeshVertex
 10
-3.440671920776367
 20
-1210.259033203125
 30
2771.595458984375
 70
   192
  0
VERTEX
  5
4E2
330
486
100
AcDbEntity
  8
-DC_BREP1
100
AcDbVertex
100
AcDbPolyFaceMeshVertex
 10
-3.700449228286743
 20
-1210.259033203125
 30
2771.915283203125
 70
   192
  0
VERTEX
  5
4E3
330
486
100
AcDbEntity
  8
-DC_BREP1
100
AcDbFaceRecord
 10
0.0
 20
0.0
 30
0.0
 70
   128
 71
     1
 72
     2
 73
     3
  0
VERTEX
  5
4E4
330
486
100
AcDbEntity
  8
-DC_BREP1
100
AcDbFaceRecord
 10
0.0
 20
0.0
 30
0.0
 70
   128
 71
     4
 72
     5
 73
     6
  0
VERTEX
  5
4E5
330
486
100
AcDbEntity
  8
-DC_BREP1
100
AcDbFaceRecord
 10
0.0
 20
0.0
 30
0.0
 70
   128
 71
     4
 72
     7
 73
     5
  0
VERTEX
  5
4E6
330
486
100
AcDbEntity
  8
-DC_BREP1
100
AcDbFaceRecord
 10
0.0
 20
0.0
 30
0.0
 70
   128
 71
     4
 72
     8
 73
     7
  0
VERTEX
  5
4E7
330
486
100
AcDbEntity
  8
-DC_BREP1
100
AcDbFaceRecord
 10
0.0
 20
0.0
 30
0.0
 70
   128
 71
     9
 72
     8
 73
     4
  0
VERTEX
  5
4E8
330
486
100
AcDbEntity
  8
-DC_BREP1
100
AcDbFaceRecord
 10
0.0
 20
0.0
 30
0.0
 70
   128
 71
     9
 72
    10
 73
     8
  0
VERTEX
  5
4E9
330
486
100
AcDbEntity
  8
-DC_BREP1
100
AcDbFaceRecord
 10
0.0
 20
0.0
 30
0.0
 70
   128
 71
    11
 72
    10
 73
     9
  0
VERTEX
  5
4EA
330
486
100
AcDbEntity
  8
-DC_BREP1
100
AcDbFaceRecord
 10
0.0
 20
0.0
 30
0.0
 70
   128
 71
    11
 72
    12
 73
    10
  0
VERTEX
  5
4EB
330
486
100
AcDbEntity
  8
-DC_BREP1
100
AcDbFaceRecord
 10
0.0
 20
0.0
 30
0.0
 70
   128
 71
    13
 72
    12
 73
    11
  0
VERTEX
  5
4EC
330
486
100
AcDbEntity
  8
-DC_BREP1
100
AcDbFaceRecord
 10
0.0
 20
0.0
 30
0.0
 70
   128
 71
    13
 72
    14
 73
    12
  0
VERTEX
  5
4ED
330
486
100
AcDbEntity
  8
-DC_BREP1
100
AcDbFaceRecord
 10
0.0
 20
0.0
 30
0.0
 70
   128
 71
    15
 72
    14
 73
    13
  0
VERTEX
  5
4EE
330
486
100
AcDbEntity
  8
-DC_BREP1
100
AcDbFaceRecord
 10
0.0
 20
0.0
 30
0.0
 70
   128
 71
    15
 72
    16
 73
    14
  0
VERTEX
  5
4EF
330
486
100
AcDbEntity
  8
-DC_BREP1
100
AcDbFaceRecord
 10
0.0
 20
0.0
 30
0.0
 70
   128
 71
    17
 72
    16
 73
    15
  0
VERTEX
  5
4F0
330
486
100
AcDbEntity
  8
-DC_BREP1
100
AcDbFaceRecord
 10
0.0
 20
0.0
 30
0.0
 70
   128
 71
    17
 72
    18
 73
    16
  0
VERTEX
  5
4F1
330
486
100
AcDbEntity
  8
-DC_BREP1
100
AcDbFaceRecord
 10
0.0
 20
0.0
 30
0.0
 70
   128
 71
     2
 72
    18
 73
    17
  0
VERTEX
  5
4F2
330
486
100
AcDbEntity
  8
-DC_BREP1
100
AcDbFaceRecord
 10
0.0
 20
0.0
 30
0.0
 70
   128
 71
     2
 72
     1
 73
    18
  0
VERTEX
  5
4F3
330
486
100
AcDbEntity
  8
-DC_BREP1
100
AcDbFaceRecord
 10
0.0
 20
0.0
 30
0.0
 70
   128
 71
    19
 72
    20
 73
    21
  0
VERTEX
  5
4F4
330
486
100
AcDbEntity
  8
-DC_BREP1
100
AcDbFaceRecord
 10
0.0
 20
0.0
 30
0.0
 70
   128
 71
    20
 72
    19
 73
    22
  0
VERTEX
  5
4F5
330
486
100
AcDbEntity
  8
-DC_BREP1
100
AcDbFaceRecord
 10
0.0
 20
0.0
 30
0.0
 70
   128
 71
    23
 72
    24
 73
    25
  0
VERTEX
  5
4F6
330
486
100
AcDbEntity
  8
-DC_BREP1
100
AcDbFaceRecord
 10
0.0
 20
0.0
 30
0.0
 70
   128
 71
    26
 72
    27
 73
    28
  0
VERTEX
  5
4F7
330
486
100
AcDbEntity
  8
-DC_BREP1
100
AcDbFaceRecord
 10
0.0
 20
0.0
 30
0.0
 70
   128
 71
    26
 72
    23
 73
    27
  0
VERTEX
  5
4F8
330
486
100
AcDbEntity
  8
-DC_BREP1
100
AcDbFaceRecord
 10
0.0
 20
0.0
 30
0.0
 70
   128
 71
    29
 72
    23
 73
    26
  0
VERTEX
  5
4F9
330
486
100
AcDbEntity
  8
-DC_BREP1
100
AcDbFaceRecord
 10
0.0
 20
0.0
 30
0.0
 70
   128
 71
    30
 72
    23
 73
    29
  0
VERTEX
  5
4FA
330
486
100
AcDbEntity
  8
-DC_BREP1
100
AcDbFaceRecord
 10
0.0
 20
0.0
 30
0.0
 70
   128
 71
    31
 72
    23
 73
    30
  0
VERTEX
  5
4FB
330
486
100
AcDbEntity
  8
-DC_BREP1
100
AcDbFaceRecord
 10
0.0
 20
0.0
 30
0.0
 70
   128
 71
    32
 72
    23
 73
    31
  0
VERTEX
  5
4FC
330
486
100
AcDbEntity
  8
-DC_BREP1
100
AcDbFaceRecord
 10
0.0
 20
0.0
 30
0.0
 70
   128
 71
    33
 72
    23
 73
    32
  0
VERTEX
  5
4FD
330
486
100
AcDbEntity
  8
-DC_BREP1
100
AcDbFaceRecord
 10
0.0
 20
0.0
 30
0.0
 70
   128
 71
    34
 72
    23
 73
    33
  0
VERTEX
  5
4FE
330
486
100
AcDbEntity
  8
-DC_BREP1
100
AcDbFaceRecord
 10
0.0
 20
0.0
 30
0.0
 70
   128
 71
    35
 72
    23
 73
    34
  0
VERTEX
  5
4FF
330
486
100
AcDbEntity
  8
-DC_BREP1
100
AcDbFaceRecord
 10
0.0
 20
0.0
 30
0.0
 70
   128
 71
    36
 72
    23
 73
    35
  0
VERTEX
  5
500
330
486
100
AcDbEntity
  8
-DC_BREP1
100
AcDbFaceRecord
 10
0.0
 20
0.0
 30
0.0
 70
   128
 71
    37
 72
    23
 73
    36
  0
VERTEX
  5
501
330
486
100
AcDbEntity
  8
-DC_BREP1
100
AcDbFaceRecord
 10
0.0
 20
0.0
 30
0.0
 70
   128
 71
    38
 72
    23
 73
    37
  0
VERTEX
  5
502
330
486
100
AcDbEntity
  8
-DC_BREP1
100
AcDbFaceRecord
 10
0.0
 20
0.0
 30
0.0
 70
   128
 71
    39
 72
    23
 73
    38
  0
VERTEX
  5
503
330
486
100
AcDbEntity
  8
-DC_BREP1
100
AcDbFaceRecord
 10
0.0
 20
0.0
 30
0.0
 70
   128
 71
    40
 72
    23
 73
    39
  0
VERTEX
  5
504
330
486
100
AcDbEntity
  8
-DC_BREP1
100
AcDbFaceRecord
 10
0.0
 20
0.0
 30
0.0
 70
   128
 71
    41
 72
    23
 73
    40
  0
VERTEX
  5
505
330
486
100
AcDbEntity
  8
-DC_BREP1
100
AcDbFaceRecord
 10
0.0
 20
0.0
 30
0.0
 70
   128
 71
    42
 72
    23
 73
    41
  0
VERTEX
  5
506
330
486
100
AcDbEntity
  8
-DC_BREP1
100
AcDbFaceRecord
 10
0.0
 20
0.0
 30
0.0
 70
   128
 71
    24
 72
    23
 73
    42
  0
VERTEX
  5
507
330
486
100
AcDbEntity
  8
-DC_BREP1
100
AcDbFaceRecord
 10
0.0
 20
0.0
 30
0.0
 70
   128
 71
    43
 72
    44
 73
    45
  0
VERTEX
  5
508
330
486
100
AcDbEntity
  8
-DC_BREP1
100
AcDbFaceRecord
 10
0.0
 20
0.0
 30
0.0
 70
   128
 71
    46
 72
    47
 73
    48
  0
VERTEX
  5
509
330
486
100
AcDbEntity
  8
-DC_BREP1
100
AcDbFaceRecord
 10
0.0
 20
0.0
 30
0.0
 70
   128
 71
    49
 72
    47
 73
    46
  0
VERTEX
  5
50A
330
486
100
AcDbEntity
  8
-DC_BREP1
100
AcDbFaceRecord
 10
0.0
 20
0.0
 30
0.0
 70
   128
 71
    49
 72
    50
 73
    47
  0
VERTEX
  5
50B
330
486
100
AcDbEntity
  8
-DC_BREP1
100
AcDbFaceRecord
 10
0.0
 20
0.0
 30
0.0
 70
   128
 71
    51
 72
    50
 73
    49
  0
VERTEX
  5
50C
330
486
100
AcDbEntity
  8
-DC_BREP1
100
AcDbFaceRecord
 10
0.0
 20
0.0
 30
0.0
 70
   128
 71
    52
 72
    50
 73
    51
  0
VERTEX
  5
50D
330
486
100
AcDbEntity
  8
-DC_BREP1
100
AcDbFaceRecord
 10
0.0
 20
0.0
 30
0.0
 70
   128
 71
    52
 72
    53
 73
    50
  0
VERTEX
  5
50E
330
486
100
AcDbEntity
  8
-DC_BREP1
100
AcDbFaceRecord
 10
0.0
 20
0.0
 30
0.0
 70
   128
 71
    52
 72
    54
 73
    53
  0
VERTEX
  5
50F
330
486
100
AcDbEntity
  8
-DC_BREP1
100
AcDbFaceRecord
 10
0.0
 20
0.0
 30
0.0
 70
   128
 71
    55
 72
    54
 73
    52
  0
VERTEX
  5
510
330
486
100
AcDbEntity
  8
-DC_BREP1
100
AcDbFaceRecord
 10
0.0
 20
0.0
 30
0.0
 70
   128
 71
    56
 72
    54
 73
    55
  0
VERTEX
  5
511
330
486
100
AcDbEntity
  8
-DC_BREP1
100
AcDbFaceRecord
 10
0.0
 20
0.0
 30
0.0
 70
   128
 71
    56
 72
    57
 73
    54
  0
VERTEX
  5
512
330
486
100
AcDbEntity
  8
-DC_BREP1
100
AcDbFaceRecord
 10
0.0
 20
0.0
 30
0.0
 70
   128
 71
    56
 72
    58
 73
    57
  0
VERTEX
  5
513
330
486
100
AcDbEntity
  8
-DC_BREP1
100
AcDbFaceRecord
 10
0.0
 20
0.0
 30
0.0
 70
   128
 71
    59
 72
    58
 73
    56
  0
VERTEX
  5
514
330
486
100
AcDbEntity
  8
-DC_BREP1
100
AcDbFaceRecord
 10
0.0
 20
0.0
 30
0.0
 70
   128
 71
    59
 72
    60
 73
    58
  0
VERTEX
  5
515
330
486
100
AcDbEntity
  8
-DC_BREP1
100
AcDbFaceRecord
 10
0.0
 20
0.0
 30
0.0
 70
   128
 71
    44
 72
    60
 73
    59
  0
VERTEX
  5
516
330
486
100
AcDbEntity
  8
-DC_BREP1
100
AcDbFaceRecord
 10
0.0
 20
0.0
 30
0.0
 70
   128
 71
    44
 72
    43
 73
    60
  0
VERTEX
  5
517
330
486
100
AcDbEntity
  8
-DC_BREP1
100
AcDbFaceRecord
 10
0.0
 20
0.0
 30
0.0
 70
   128
 71
    61
 72
    62
 73
    63
  0
VERTEX
  5
518
330
486
100
AcDbEntity
  8
-DC_BREP1
100
AcDbFaceRecord
 10
0.0
 20
0.0
 30
0.0
 70
   128
 71
    62
 72
    61
 73
    64
  0
VERTEX
  5
519
330
486
100
AcDbEntity
  8
-DC_BREP1
100
AcDbFaceRecord
 10
0.0
 20
0.0
 30
0.0
 70
   128
 71
    65
 72
    66
 73
    67
  0
VERTEX
  5
51A
330
486
100
AcDbEntity
  8
-DC_BREP1
100
AcDbFaceRecord
 10
0.0
 20
0.0
 30
0.0
 70
   128
 71
    66
 72
    65
 73
    68
  0
VERTEX
  5
51B
330
486
100
AcDbEntity
  8
-DC_BREP1
100
AcDbFaceRecord
 10
0.0
 20
0.0
 30
0.0
 70
   128
 71
    69
 72
    70
 73
    71
  0
VERTEX
  5
51C
330
486
100
AcDbEntity
  8
-DC_BREP1
100
AcDbFaceRecord
 10
0.0
 20
0.0
 30
0.0
 70
   128
 71
    70
 72
    69
 73
    72
  0
VERTEX
  5
51D
330
486
100
AcDbEntity
  8
-DC_BREP1
100
AcDbFaceRecord
 10
0.0
 20
0.0
 30
0.0
 70
   128
 71
    73
 72
    74
 73
    75
  0
VERTEX
  5
51E
330
486
100
AcDbEntity
  8
-DC_BREP1
100
AcDbFaceRecord
 10
0.0
 20
0.0
 30
0.0
 70
   128
 71
    76
 72
    73
 73
    77
  0
VERTEX
  5
51F
330
486
100
AcDbEntity
  8
-DC_BREP1
100
AcDbFaceRecord
 10
0.0
 20
0.0
 30
0.0
 70
   128
 71
    78
 72
    73
 73
    76
  0
VERTEX
  5
520
330
486
100
AcDbEntity
  8
-DC_BREP1
100
AcDbFaceRecord
 10
0.0
 20
0.0
 30
0.0
 70
   128
 71
    79
 72
    73
 73
    78
  0
VERTEX
  5
521
330
486
100
AcDbEntity
  8
-DC_BREP1
100
AcDbFaceRecord
 10
0.0
 20
0.0
 30
0.0
 70
   128
 71
    80
 72
    73
 73
    79
  0
VERTEX
  5
522
330
486
100
AcDbEntity
  8
-DC_BREP1
100
AcDbFaceRecord
 10
0.0
 20
0.0
 30
0.0
 70
   128
 71
    81
 72
    73
 73
    80
  0
VERTEX
  5
523
330
486
100
AcDbEntity
  8
-DC_BREP1
100
AcDbFaceRecord
 10
0.0
 20
0.0
 30
0.0
 70
   128
 71
    82
 72
    73
 73
    81
  0
VERTEX
  5
524
330
486
100
AcDbEntity
  8
-DC_BREP1
100
AcDbFaceRecord
 10
0.0
 20
0.0
 30
0.0
 70
   128
 71
    83
 72
    73
 73
    82
  0
VERTEX
  5
525
330
486
100
AcDbEntity
  8
-DC_BREP1
100
AcDbFaceRecord
 10
0.0
 20
0.0
 30
0.0
 70
   128
 71
    84
 72
    73
 73
    83
  0
VERTEX
  5
526
330
486
100
AcDbEntity
  8
-DC_BREP1
100
AcDbFaceRecord
 10
0.0
 20
0.0
 30
0.0
 70
   128
 71
    85
 72
    73
 73
    84
  0
VERTEX
  5
527
330
486
100
AcDbEntity
  8
-DC_BREP1
100
AcDbFaceRecord
 10
0.0
 20
0.0
 30
0.0
 70
   128
 71
    86
 72
    73
 73
    85
  0
VERTEX
  5
528
330
486
100
AcDbEntity
  8
-DC_BREP1
100
AcDbFaceRecord
 10
0.0
 20
0.0
 30
0.0
 70
   128
 71
    87
 72
    73
 73
    86
  0
VERTEX
  5
529
330
486
100
AcDbEntity
  8
-DC_BREP1
100
AcDbFaceRecord
 10
0.0
 20
0.0
 30
0.0
 70
   128
 71
    88
 72
    73
 73
    87
  0
VERTEX
  5
52A
330
486
100
AcDbEntity
  8
-DC_BREP1
100
AcDbFaceRecord
 10
0.0
 20
0.0
 30
0.0
 70
   128
 71
    89
 72
    73
 73
    88
  0
VERTEX
  5
52B
330
486
100
AcDbEntity
  8
-DC_BREP1
100
AcDbFaceRecord
 10
0.0
 20
0.0
 30
0.0
 70
   128
 71
    90
 72
    73
 73
    89
  0
VERTEX
  5
52C
330
486
100
AcDbEntity
  8
-DC_BREP1
100
AcDbFaceRecord
 10
0.0
 20
0.0
 30
0.0
 70
   128
 71
    91
 72
    73
 73
    90
  0
VERTEX
  5
52D
330
486
100
AcDbEntity
  8
-DC_BREP1
100
AcDbFaceRecord
 10
0.0
 20
0.0
 30
0.0
 70
   128
 71
    92
 72
    73
 73
    91
  0
VERTEX
  5
52E
330
486
100
AcDbEntity
  8
-DC_BREP1
100
AcDbFaceRecord
 10
0.0
 20
0.0
 30
0.0
 70
   128
 71
    74
 72
    73
 73
    92
  0
SEQEND
  5
52F
330
486
100
AcDbEntity
  8
-DC_BREP1
  0
POLYLINE
  5
531
330
1F
100
AcDbEntity
  8
-DC_BREP3
100
AcDbPolyFaceMesh
 66
     1
 10
0.0
 20
0.0
 30
0.0
 70
    64
 71
    24
 72
    12
1001
AVE_ENTITY_MATERIAL
1002
{
1000

1002
{
1071
        0
1070
     0
1070
     0
1002
{
1070
     0
1070
     0
1070
     0
1040
0.0
1002
}
1070
     0
1070
     0
1002
{
1002
}
1002
}
1002
{
1002
}
1002
{
1002
}
1011
0.0
1021
0.0
1031
0.0
1011
1.0
1021
0.0
1031
0.0
1011
0.0
1021
1.0
1031
0.0
1011
0.0
1021
0.0
1031
1.0
1002
}
  0
VERTEX
  5
532
330
531
100
AcDbEntity
  8
-DC_BREP3
100
AcDbVertex
100
AcDbPolyFaceMeshVertex
 10
5.473492622375488
 20
-5.259033203125
 30
2803.509765625
 70
   192
  0
VERTEX
  5
533
330
531
100
AcDbEntity
  8
-DC_BREP3
100
AcDbVertex
100
AcDbPolyFaceMeshVertex
 10
11.47336959838867
 20
-5.259033203125
 30
3.509765625
 70
   192
  0
VERTEX
  5
534
330
531
100
AcDbEntity
  8
-DC_BREP3
100
AcDbVertex
100
AcDbPolyFaceMeshVertex
 10
5.47337007522583
 20
-5.259033203125
 30
3.509765625
 70
   192
  0
VERTEX
  5
535
330
531
100
AcDbEntity
  8
-DC_BREP3
100
AcDbVertex
100
AcDbPolyFaceMeshVertex
 10
11.47349262237549
 20
-5.259033203125
 30
2803.509765625
 70
   192
  0
VERTEX
  5
536
330
531
100
AcDbEntity
  8
-DC_BREP3
100
AcDbVertex
100
AcDbPolyFaceMeshVertex
 10
5.47337007522583
 20
-5.259033203125
 30
3.509765625
 70
   192
  0
VERTEX
  5
537
330
531
100
AcDbEntity
  8
-DC_BREP3
100
AcDbVertex
100
AcDbPolyFaceMeshVertex
 10
11.47342300415039
 20
-1210.259033203125
 30
3.509765625
 70
   192
  0
VERTEX
  5
538
330
531
100
AcDbEntity
  8
-DC_BREP3
100
AcDbVertex
100
AcDbPolyFaceMeshVertex
 10
5.473422527313232
 20
-1210.259033203125
 30
3.509765625
 70
   192
  0
VERTEX
  5
539
330
531
100
AcDbEntity
  8
-DC_BREP3
100
AcDbVertex
100
AcDbPolyFaceMeshVertex
 10
11.47336959838867
 20
-5.259033203125
 30
3.509765625
 70
   192
  0
VERTEX
  5
53A
330
531
100
AcDbEntity
  8
-DC_BREP3
100
AcDbVertex
100
AcDbPolyFaceMeshVertex
 10
5.473422527313232
 20
-1210.259033203125
 30
3.509765625
 70
   192
  0
VERTEX
  5
53B
330
531
100
AcDbEntity
  8
-DC_BREP3
100
AcDbVertex
100
AcDbPolyFaceMeshVertex
 10
11.47354507446289
 20
-1210.259033203125
 30
2803.509765625
 70
   192
  0
VERTEX
  5
53C
330
531
100
AcDbEntity
  8
-DC_BREP3
100
AcDbVertex
100
AcDbPolyFaceMeshVertex
 10
5.47354507446289
 20
-1210.259033203125
 30
2803.509765625
 70
   192
  0
VERTEX
  5
53D
330
531
100
AcDbEntity
  8
-DC_BREP3
100
AcDbVertex
100
AcDbPolyFaceMeshVertex
 10
11.47342300415039
 20
-1210.259033203125
 30
3.509765625
 70
   192
  0
VERTEX
  5
53E
330
531
100
AcDbEntity
  8
-DC_BREP3
100
AcDbVertex
100
AcDbPolyFaceMeshVertex
 10
5.47354507446289
 20
-1210.259033203125
 30
2803.509765625
 70
   192
  0
VERTEX
  5
53F
330
531
100
AcDbEntity
  8
-DC_BREP3
100
AcDbVertex
100
AcDbPolyFaceMeshVertex
 10
11.47349262237549
 20
-5.259033203125
 30
2803.509765625
 70
   192
  0
VERTEX
  5
540
330
531
100
AcDbEntity
  8
-DC_BREP3
100
AcDbVertex
100
AcDbPolyFaceMeshVertex
 10
5.473492622375488
 20
-5.259033203125
 30
2803.509765625
 70
   192
  0
VERTEX
  5
541
330
531
100
AcDbEntity
  8
-DC_BREP3
100
AcDbVertex
100
AcDbPolyFaceMeshVertex
 10
11.47354507446289
 20
-1210.259033203125
 30
2803.509765625
 70
   192
  0
VERTEX
  5
542
330
531
100
AcDbEntity
  8
-DC_BREP3
100
AcDbVertex
100
AcDbPolyFaceMeshVertex
 10
5.473422527313232
 20
-1210.259033203125
 30
3.509765625
 70
   192
  0
VERTEX
  5
543
330
531
100
AcDbEntity
  8
-DC_BREP3
100
AcDbVertex
100
AcDbPolyFaceMeshVertex
 10
5.473492622375488
 20
-5.259033203125
 30
2803.509765625
 70
   192
  0
VERTEX
  5
544
330
531
100
AcDbEntity
  8
-DC_BREP3
100
AcDbVertex
100
AcDbPolyFaceMeshVertex
 10
5.47337007522583
 20
-5.259033203125
 30
3.509765625
 70
   192
  0
VERTEX
  5
545
330
531
100
AcDbEntity
  8
-DC_BREP3
100
AcDbVertex
100
AcDbPolyFaceMeshVertex
 10
5.47354507446289
 20
-1210.259033203125
 30
2803.509765625
 70
   192
  0
VERTEX
  5
546
330
531
100
AcDbEntity
  8
-DC_BREP3
100
AcDbVertex
100
AcDbPolyFaceMeshVertex
 10
11.47354507446289
 20
-1210.259033203125
 30
2803.509765625
 70
   192
  0
VERTEX
  5
547
330
531
100
AcDbEntity
  8
-DC_BREP3
100
AcDbVertex
100
AcDbPolyFaceMeshVertex
 10
11.47336959838867
 20
-5.259033203125
 30
3.509765625
 70
   192
  0
VERTEX
  5
548
330
531
100
AcDbEntity
  8
-DC_BREP3
100
AcDbVertex
100
AcDbPolyFaceMeshVertex
 10
11.47349262237549
 20
-5.259033203125
 30
2803.509765625
 70
   192
  0
VERTEX
  5
549
330
531
100
AcDbEntity
  8
-DC_BREP3
100
AcDbVertex
100
AcDbPolyFaceMeshVertex
 10
11.47342300415039
 20
-1210.259033203125
 30
3.509765625
 70
   192
  0
VERTEX
  5
54A
330
531
100
AcDbEntity
  8
-DC_BREP3
100
AcDbFaceRecord
 10
0.0
 20
0.0
 30
0.0
 70
   128
 71
     1
 72
     2
 73
     3
  0
VERTEX
  5
54B
330
531
100
AcDbEntity
  8
-DC_BREP3
100
AcDbFaceRecord
 10
0.0
 20
0.0
 30
0.0
 70
   128
 71
     2
 72
     1
 73
     4
  0
VERTEX
  5
54C
330
531
100
AcDbEntity
  8
-DC_BREP3
100
AcDbFaceRecord
 10
0.0
 20
0.0
 30
0.0
 70
   128
 71
     5
 72
     6
 73
     7
  0
VERTEX
  5
54D
330
531
100
AcDbEntity
  8
-DC_BREP3
100
AcDbFaceRecord
 10
0.0
 20
0.0
 30
0.0
 70
   128
 71
     6
 72
     5
 73
     8
  0
VERTEX
  5
54E
330
531
100
AcDbEntity
  8
-DC_BREP3
100
AcDbFaceRecord
 10
0.0
 20
0.0
 30
0.0
 70
   128
 71
     9
 72
    10
 73
    11
  0
VERTEX
  5
54F
330
531
100
AcDbEntity
  8
-DC_BREP3
100
AcDbFaceRecord
 10
0.0
 20
0.0
 30
0.0
 70
   128
 71
    10
 72
     9
 73
    12
  0
VERTEX
  5
550
330
531
100
AcDbEntity
  8
-DC_BREP3
100
AcDbFaceRecord
 10
0.0
 20
0.0
 30
0.0
 70
   128
 71
    13
 72
    14
 73
    15
  0
VERTEX
  5
551
330
531
100
AcDbEntity
  8
-DC_BREP3
100
AcDbFaceRecord
 10
0.0
 20
0.0
 30
0.0
 70
   128
 71
    14
 72
    13
 73
    16
  0
VERTEX
  5
552
330
531
100
AcDbEntity
  8
-DC_BREP3
100
AcDbFaceRecord
 10
0.0
 20
0.0
 30
0.0
 70
   128
 71
    17
 72
    18
 73
    19
  0
VERTEX
  5
553
330
531
100
AcDbEntity
  8
-DC_BREP3
100
AcDbFaceRecord
 10
0.0
 20
0.0
 30
0.0
 70
   128
 71
    18
 72
    17
 73
    20
  0
VERTEX
  5
554
330
531
100
AcDbEntity
  8
-DC_BREP3
100
AcDbFaceRecord
 10
0.0
 20
0.0
 30
0.0
 70
   128
 71
    21
 72
    22
 73
    23
  0
VERTEX
  5
555
330
531
100
AcDbEntity
  8
-DC_BREP3
100
AcDbFaceRecord
 10
0.0
 20
0.0
 30
0.0
 70
   128
 71
    22
 72
    21
 73
    24
  0
SEQEND
  5
556
330
531
100
AcDbEntity
  8
-DC_BREP3
  0
ENDSEC
  0
SECTION
  2
OBJECTS
  0
DICTIONARY
  5
C
330
0
100
AcDbDictionary
281
     1
  3
ACAD_BACKGROUND
350
557
  3
ACAD_CIP_PREVIOUS_PRODUCT_INFO
350
1A2
  3
ACAD_COLOR
350
6C
  3
ACAD_DETAILVIEWSTYLE
350
1A8
  3
ACAD_GROUP
350
D
  3
ACAD_LAYOUT
350
1A
  3
ACAD_MATERIAL
350
6B
  3
ACAD_MLEADERSTYLE
350
D2
  3
ACAD_MLINESTYLE
350
17
  3
ACAD_PLOTSETTINGS
350
19
  3
ACAD_PLOTSTYLENAME
350
E
  3
ACAD_SCALELIST
350
B1
  3
ACAD_SECTIONVIEWSTYLE
350
1A5
  3
ACAD_TABLESTYLE
350
A6
  3
ACAD_VISUALSTYLE
350
95
  3
ACDB_RECOMPOSE_DATA
350
561
  3
AcDbVariableDictionary
350
59
  3
AcDsDecomposeData
350
568
  3
DWGPROPS
350
562
  0
DICTIONARY
  5
18B
330
2
100
AcDbDictionary
280
     1
281
     1
  3
ACAD_LAYERSTATES
360
18C
  0
DICTIONARY
  5
E1
330
10
100
AcDbDictionary
280
     1
281
     1
  0
DICTIONARY
  5
15A
330
1F
100
AcDbDictionary
280
     1
281
     1
  0
DICTIONARY
  5
557
102
{ACAD_REACTORS
330
C
102
}
330
C
100
AcDbDictionary
281
     1
  0
XRECORD
  5
1A2
102
{ACAD_REACTORS
330
C
102
}
330
C
100
AcDbXrecord
280
     1
300
ACD
300
2013
300
ACD_F_S
  0
DICTIONARY
  5
6C
102
{ACAD_REACTORS
330
C
102
}
330
C
100
AcDbDictionary
281
     1
  0
DICTIONARY
  5
1A8
102
{ACAD_REACTORS
330
C
102
}
330
C
100
AcDbDictionary
281
     1
  3
Imperial24
350
1A9
  0
DICTIONARY
  5
D
102
{ACAD_REACTORS
330
C
102
}
330
C
100
AcDbDictionary
281
     1
  0
DICTIONARY
  5
1A
102
{ACAD_REACTORS
330
C
102
}
330
C
100
AcDbDictionary
281
     1
  3
Layout1
350
74
  3
Layout2
350
79
  3
Model
350
22
  0
DICTIONARY
  5
6B
102
{ACAD_REACTORS
330
C
102
}
330
C
100
AcDbDictionary
281
     1
  3
ByBlock
350
93
  3
ByLayer
350
92
  3
Global
350
94
  0
DICTIONARY
  5
D2
102
{ACAD_REACTORS
330
C
102
}
330
C
100
AcDbDictionary
281
     1
  3
Annotative
350
E0
  3
Standard
350
D3
  0
DICTIONARY
  5
17
102
{ACAD_REACTORS
330
C
102
}
330
C
100
AcDbDictionary
281
     1
  3
Standard
350
18
  0
DICTIONARY
  5
19
102
{ACAD_REACTORS
330
C
102
}
330
C
100
AcDbDictionary
281
     1
  0
ACDBDICTIONARYWDFLT
  5
E
102
{ACAD_REACTORS
330
C
102
}
330
C
100
AcDbDictionary
281
     1
  3
Normal
350
F
100
AcDbDictionaryWithDefault
340
F
  0
DICTIONARY
  5
B1
102
{ACAD_REACTORS
330
C
102
}
330
C
100
AcDbDictionary
281
     1
  3
A0
350
B2
  3
A1
350
124
  3
A2
350
125
  3
A3
350
126
  3
A4
350
127
  3
A5
350
128
  3
A6
350
129
  3
A7
350
12A
  3
A8
350
12B
  3
A9
350
12C
  3
B0
350
12D
  3
B1
350
12E
  3
B2
350
12F
  3
B3
350
130
  3
B4
350
131
  3
B5
350
132
  3
B6
350
133
  3
B7
350
134
  3
B8
350
135
  3
B9
350
136
  3
C0
350
137
  3
C1
350
138
  3
C2
350
139
  3
C3
350
13A
  3
C4
350
13B
  3
C5
350
13C
  3
C6
350
13D
  3
C7
350
13E
  3
C8
350
13F
  3
C9
350
140
  3
D0
350
141
  3
D1
350
142
  3
D2
350
143
  0
DICTIONARY
  5
1A5
102
{ACAD_REACTORS
330
C
102
}
330
C
100
AcDbDictionary
281
     1
  3
Imperial24
350
1A7
  0
DICTIONARY
  5
A6
102
{ACAD_REACTORS
330
C
102
}
330
C
100
AcDbDictionary
281
     1
  3
Standard
350
A7
  0
DICTIONARY
  5
95
102
{ACAD_REACTORS
330
C
102
}
330
C
100
AcDbDictionary
281
     1
  3
2dWireframe
350
9B
  3
Basic
350
9A
  3
Brighten
350
A1
  3
ColorChange
350
A5
  3
Conceptual
350
9E
  3
Dim
350
A0
  3
EdgeColorOff
350
172
  3
Facepattern
350
A4
  3
Flat
350
96
  3
FlatWithEdges
350
97
  3
Gouraud
350
98
  3
GouraudWithEdges
350
99
  3
Hidden
350
9D
  3
JitterOff
350
170
  3
Linepattern
350
A3
  3
OverhangOff
350
171
  3
Realistic
350
9F
  3
Shaded
350
17F
  3
Shaded with edges
350
17E
  3
Shades of Gray
350
17B
  3
Sketchy
350
17C
  3
Thicken
350
A2
  3
Wireframe
350
9C
  3
X-Ray
350
17D
  0
XRECORD
  5
561
102
{ACAD_REACTORS
330
C
102
}
330
C
100
AcDbXrecord
280
     1
 90
        1
330
A7
  0
DICTIONARY
  5
59
102
{ACAD_REACTORS
330
C
102
}
330
C
100
AcDbDictionary
281
     1
  3
CAMERAHEIGHT
350
55E
  3
CANNOSCALE
350
EB
  3
CMLEADERSTYLE
350
EA
  3
CTABLESTYLE
350
AB
  3
CVIEWDETAILSTYLE
350
1B4
  3
CVIEWSECTIONSTYLE
350
1B5
  3
DIMASSOC
350
5A
  3
HIDETEXT
350
5E
  3
INDEXCTL
350
55D
  3
LAYEREVAL
350
14A
  3
LAYERNOTIFY
350
14B
  3
LIGHTINGUNITS
350
55B
  3
MSLTSCALE
350
55A
  3
SORTENTS
350
55C
  3
XCLIPFRAME
350
55F
  0
DICTIONARY
  5
568
102
{ACAD_REACTORS
330
C
102
}
330
C
100
AcDbDictionary
281
     1
  3
AcDsRecords
350
56A
  3
AcDsSchemas
350
569
1001
ACAD
1070
     2
  0
XRECORD
  5
562
102
{ACAD_REACTORS
330
C
102
}
330
C
100
AcDbXrecord
280
     1
  1
DWGPROPS COOKIE
  2

  3

  4

  6

  7

  8
moucha
  9

300
=
301
=
302
=
303
=
304
=
305
=
306
=
307
=
308
=
309
=
 40
0.0011489699074074
 41
2459646.578876875
 42
2459646.580025105
  1

 90
        0
  0
DICTIONARY
  5
18C
102
{ACAD_REACTORS
330
18B
102
}
330
18B
100
AcDbDictionary
281
     1
  0
ACDBDETAILVIEWSTYLE
  5
1A9
102
{ACAD_REACTORS
330
1A8
102
}
330
1A8
100
AcDbModelDocViewStyle
 70
     0
  3
Imperial24
290
     0
100
AcDbDetailViewStyle
 70
     0
 71
     0
 90
        3
 71
     1
340
11
 40
0.24
340
0
 40
0.24
300

 40
0.36
280
     3
 71
     2
340
16
 90
       25
 71
     3
340
11
 40
0.24
 90
        1
 40
0.75
 90
        1
300
%<\AcVar ViewType \f "%tc1">% %<\AcVar ViewDetailId>%\PSCALE %<\AcVar ViewScale \f "%sn">%
 71
     4
340
16
 90
       25
340
16
 90
       25
280
     0
  0
LAYOUT
  5
74
102
{ACAD_XDICTIONARY
360
56C
102
}
102
{ACAD_REACTORS
330
1A
102
}
330
1A
100
AcDbPlotSettings
  1

  2
\\ADSCCNDC1\hq601xrx1
  4

  6

 40
0.0
 41
0.0
 42
0.0
 43
0.0
 44
0.0
 45
0.0
 46
0.0
 47
0.0
 48
0.0
 49
0.0
140
0.0
141
0.0
142
1.0
143
1.0
 70
   688
 72
     0
 73
     0
 74
     5
  7

 75
    16
147
1.0
148
0.0
149
0.0
100
AcDbLayout
  1
Layout1
 70
     1
 71
     1
 10
0.0
 20
0.0
 11
12.0
 21
9.0
 12
0.0
 22
0.0
 32
0.0
 14
0.0
 24
0.0
 34
0.0
 15
0.0
 25
0.0
 35
0.0
146
0.0
 13
0.0
 23
0.0
 33
0.0
 16
1.0
 26
0.0
 36
0.0
 17
0.0
 27
1.0
 37
0.0
 76
     0
330
73
  0
LAYOUT
  5
79
102
{ACAD_XDICTIONARY
360
56E
102
}
102
{ACAD_REACTORS
330
1A
102
}
330
1A
100
AcDbPlotSettings
  1

  2
\\ADSCCNDC1\hq601xrx1
  4

  6

 40
0.0
 41
0.0
 42
0.0
 43
0.0
 44
0.0
 45
0.0
 46
0.0
 47
0.0
 48
0.0
 49
0.0
140
0.0
141
0.0
142
1.0
143
1.0
 70
   688
 72
     0
 73
     0
 74
     5
  7

 75
    16
147
1.0
148
0.0
149
0.0
100
AcDbLayout
  1
Layout2
 70
     1
 71
     2
 10
0.0
 20
0.0
 11
12.0
 21
9.0
 12
0.0
 22
0.0
 32
0.0
 14
0.0
 24
0.0
 34
0.0
 15
0.0
 25
0.0
 35
0.0
146
0.0
 13
0.0
 23
0.0
 33
0.0
 16
1.0
 26
0.0
 36
0.0
 17
0.0
 27
1.0
 37
0.0
 76
     0
330
78
  0
LAYOUT
  5
22
102
{ACAD_XDICTIONARY
360
191
102
}
102
{ACAD_REACTORS
330
1A
102
}
330
1A
100
AcDbPlotSettings
  1

  2
none_device
  4
Letter_(8.50_x_11.00_Inches)
  6

 40
6.349999904632568
 41
6.349999904632568
 42
6.350006103515625
 43
6.350006103515625
 44
215.8999938964844
 45
279.3999938964844
 46
0.0
 47
0.0
 48
0.0
 49
0.0
140
0.0
141
0.0
142
1.0
143
3.560208697428376
 70
 11952
 72
     0
 73
     1
 74
     0
  7

 75
     0
147
0.28088241027059
148
0.1311165230791651
149
0.096403374003771
100
AcDbLayout
  1
Model
 70
     1
 71
     0
 10
0.0
 20
0.0
 11
12.0
 21
9.0
 12
0.0
 22
0.0
 32
0.0
 14
0.0
 24
0.0
 34
0.0
 15
0.0
 25
0.0
 35
0.0
146
0.0
 13
0.0
 23
0.0
 33
0.0
 16
1.0
 26
0.0
 36
0.0
 17
0.0
 27
1.0
 37
0.0
 76
     0
330
1F
331
90
  0
MATERIAL
  5
93
102
{ACAD_XDICTIONARY
360
185
102
}
102
{ACAD_REACTORS
330
6B
102
}
330
6B
100
AcDbMaterial
  1
ByBlock
  0
MATERIAL
  5
92
102
{ACAD_XDICTIONARY
360
183
102
}
102
{ACAD_REACTORS
330
6B
102
}
330
6B
100
AcDbMaterial
  1
ByLayer
  0
MATERIAL
  5
94
102
{ACAD_XDICTIONARY
360
10B
102
}
102
{ACAD_REACTORS
330
6B
102
}
330
6B
100
AcDbMaterial
  1
Global
 43
0.0208000000566244
 43
0.0
 43
0.0
 43
0.0
 43
0.0
 43
0.0208000000566244
 43
0.0
 43
0.0
 43
0.0
 43
0.0
 43
1.0
 43
0.0
 43
0.0
 43
0.0
 43
0.0
 43
1.0
 49
0.0208000000566244
 49
0.0
 49
0.0
 49
0.0
 49
0.0
 49
0.0208000000566244
 49
0.0
 49
0.0
 49
0.0
 49
0.0
 49
1.0
 49
0.0
 49
0.0
 49
0.0
 49
0.0
 49
1.0
142
0.0208000000566244
142
0.0
142
0.0
142
0.0
142
0.0
142
0.0208000000566244
142
0.0
142
0.0
142
0.0
142
0.0
142
1.0
142
0.0
142
0.0
142
0.0
142
0.0
142
1.0
144
0.0208000000566244
144
0.0
144
0.0
144
0.0
144
0.0
144
0.0208000000566244
144
0.0
144
0.0
144
0.0
144
0.0
144
1.0
144
0.0
144
0.0
144
0.0
144
0.0
144
1.0
1001
ACAD
1070
    -1
1070
     3
1070
     0
1000

1071
        0
1070
     0
  0
MLEADERSTYLE
  5
E0
102
{ACAD_REACTORS
330
D2
102
}
330
D2
100
AcDbMLeaderStyle
170
     2
171
     1
172
     0
 90
        2
 40
0.0
 41
0.0
173
     1
 91
-1056964608
340
14
 92
       -2
290
     1
 42
0.09
291
     1
 43
0.36
  3
Standard
 44
0.18
300

342
11
174
     1
178
     1
175
     1
176
     0
 93
-1056964608
 45
0.18
292
     0
297
     0
 46
0.18
 94
-1056964608
 47
1.0
 49
1.0
140
1.0
293
     1
141
0.0
294
     1
177
     0
142
1.0
295
     0
296
     1
143
0.125
1001
ACAD_MLEADERVER
1070
     2
  0
MLEADERSTYLE
  5
D3
102
{ACAD_REACTORS
330
D2
102
}
330
D2
100
AcDbMLeaderStyle
170
     2
171
     1
172
     0
 90
        2
 40
0.0
 41
0.0
173
     1
 91
-1056964608
340
14
 92
       -2
290
     1
 42
0.09
291
     1
 43
0.36
  3
Standard
 44
0.18
300

342
11
174
     1
178
     1
175
     1
176
     0
 93
-1056964608
 45
0.18
292
     0
297
     0
 46
0.18
 94
-1056964608
 47
1.0
 49
1.0
140
1.0
293
     1
141
0.0
294
     1
177
     0
142
1.0
295
     0
296
     0
143
0.125
1001
ACAD_MLEADERVER
1070
     2
  0
MLINESTYLE
  5
18
102
{ACAD_REACTORS
330
17
102
}
330
17
100
AcDbMlineStyle
  2
STANDARD
 70
     0
  3

 62
   256
 51
90.0
 52
90.0
 71
     2
 49
0.5
 62
   256
  6
BYLAYER
 49
-0.5
 62
   256
  6
BYLAYER
  0
ACDBPLACEHOLDER
  5
F
102
{ACAD_REACTORS
330
E
102
}
330
E
  0
SCALE
  5
B2
102
{ACAD_REACTORS
330
B1
102
}
330
B1
100
AcDbScale
 70
     0
300
1:1
140
1.0
141
1.0
290
     1
  0
SCALE
  5
124
102
{ACAD_REACTORS
330
B1
102
}
330
B1
100
AcDbScale
 70
     0
300
1:2
140
1.0
141
2.0
290
     0
  0
SCALE
  5
125
102
{ACAD_REACTORS
330
B1
102
}
330
B1
100
AcDbScale
 70
     0
300
1:4
140
1.0
141
4.0
290
     0
  0
SCALE
  5
126
102
{ACAD_REACTORS
330
B1
102
}
330
B1
100
AcDbScale
 70
     0
300
1:5
140
1.0
141
5.0
290
     0
  0
SCALE
  5
127
102
{ACAD_REACTORS
330
B1
102
}
330
B1
100
AcDbScale
 70
     0
300
1:8
140
1.0
141
8.0
290
     0
  0
SCALE
  5
128
102
{ACAD_REACTORS
330
B1
102
}
330
B1
100
AcDbScale
 70
     0
300
1:10
140
1.0
141
10.0
290
     0
  0
SCALE
  5
129
102
{ACAD_REACTORS
330
B1
102
}
330
B1
100
AcDbScale
 70
     0
300
1:16
140
1.0
141
16.0
290
     0
  0
SCALE
  5
12A
102
{ACAD_REACTORS
330
B1
102
}
330
B1
100
AcDbScale
 70
     0
300
1:20
140
1.0
141
20.0
290
     0
  0
SCALE
  5
12B
102
{ACAD_REACTORS
330
B1
102
}
330
B1
100
AcDbScale
 70
     0
300
1:30
140
1.0
141
30.0
290
     0
  0
SCALE
  5
12C
102
{ACAD_REACTORS
330
B1
102
}
330
B1
100
AcDbScale
 70
     0
300
1:40
140
1.0
141
40.0
290
     0
  0
SCALE
  5
12D
102
{ACAD_REACTORS
330
B1
102
}
330
B1
100
AcDbScale
 70
     0
300
1:50
140
1.0
141
50.0
290
     0
  0
SCALE
  5
12E
102
{ACAD_REACTORS
330
B1
102
}
330
B1
100
AcDbScale
 70
     0
300
1:100
140
1.0
141
100.0
290
     0
  0
SCALE
  5
12F
102
{ACAD_REACTORS
330
B1
102
}
330
B1
100
AcDbScale
 70
     0
300
2:1
140
2.0
141
1.0
290
     0
  0
SCALE
  5
130
102
{ACAD_REACTORS
330
B1
102
}
330
B1
100
AcDbScale
 70
     0
300
4:1
140
4.0
141
1.0
290
     0
  0
SCALE
  5
131
102
{ACAD_REACTORS
330
B1
102
}
330
B1
100
AcDbScale
 70
     0
300
8:1
140
8.0
141
1.0
290
     0
  0
SCALE
  5
132
102
{ACAD_REACTORS
330
B1
102
}
330
B1
100
AcDbScale
 70
     0
300
10:1
140
10.0
141
1.0
290
     0
  0
SCALE
  5
133
102
{ACAD_REACTORS
330
B1
102
}
330
B1
100
AcDbScale
 70
     0
300
100:1
140
100.0
141
1.0
290
     0
  0
SCALE
  5
134
102
{ACAD_REACTORS
330
B1
102
}
330
B1
100
AcDbScale
 70
     0
300
1/128" = 1'-0"
140
0.0078125
141
12.0
290
     0
  0
SCALE
  5
135
102
{ACAD_REACTORS
330
B1
102
}
330
B1
100
AcDbScale
 70
     0
300
1/64" = 1'-0"
140
0.015625
141
12.0
290
     0
  0
SCALE
  5
136
102
{ACAD_REACTORS
330
B1
102
}
330
B1
100
AcDbScale
 70
     0
300
1/32" = 1'-0"
140
0.03125
141
12.0
290
     0
  0
SCALE
  5
137
102
{ACAD_REACTORS
330
B1
102
}
330
B1
100
AcDbScale
 70
     0
300
1/16" = 1'-0"
140
0.0625
141
12.0
290
     0
  0
SCALE
  5
138
102
{ACAD_REACTORS
330
B1
102
}
330
B1
100
AcDbScale
 70
     0
300
3/32" = 1'-0"
140
0.09375
141
12.0
290
     0
  0
SCALE
  5
139
102
{ACAD_REACTORS
330
B1
102
}
330
B1
100
AcDbScale
 70
     0
300
1/8" = 1'-0"
140
0.125
141
12.0
290
     0
  0
SCALE
  5
13A
102
{ACAD_REACTORS
330
B1
102
}
330
B1
100
AcDbScale
 70
     0
300
3/16" = 1'-0"
140
0.1875
141
12.0
290
     0
  0
SCALE
  5
13B
102
{ACAD_REACTORS
330
B1
102
}
330
B1
100
AcDbScale
 70
     0
300
1/4" = 1'-0"
140
0.25
141
12.0
290
     0
  0
SCALE
  5
13C
102
{ACAD_REACTORS
330
B1
102
}
330
B1
100
AcDbScale
 70
     0
300
3/8" = 1'-0"
140
0.375
141
12.0
290
     0
  0
SCALE
  5
13D
102
{ACAD_REACTORS
330
B1
102
}
330
B1
100
AcDbScale
 70
     0
300
1/2" = 1'-0"
140
0.5
141
12.0
290
     0
  0
SCALE
  5
13E
102
{ACAD_REACTORS
330
B1
102
}
330
B1
100
AcDbScale
 70
     0
300
3/4" = 1'-0"
140
0.75
141
12.0
290
     0
  0
SCALE
  5
13F
102
{ACAD_REACTORS
330
B1
102
}
330
B1
100
AcDbScale
 70
     0
300
1" = 1'-0"
140
1.0
141
12.0
290
     0
  0
SCALE
  5
140
102
{ACAD_REACTORS
330
B1
102
}
330
B1
100
AcDbScale
 70
     0
300
1-1/2" = 1'-0"
140
1.5
141
12.0
290
     0
  0
SCALE
  5
141
102
{ACAD_REACTORS
330
B1
102
}
330
B1
100
AcDbScale
 70
     0
300
3" = 1'-0"
140
3.0
141
12.0
290
     0
  0
SCALE
  5
142
102
{ACAD_REACTORS
330
B1
102
}
330
B1
100
AcDbScale
 70
     0
300
6" = 1'-0"
140
6.0
141
12.0
290
     0
  0
SCALE
  5
143
102
{ACAD_REACTORS
330
B1
102
}
330
B1
100
AcDbScale
 70
     0
300
1'-0" = 1'-0"
140
12.0
141
12.0
290
     0
  0
ACDBSECTIONVIEWSTYLE
  5
1A7
102
{ACAD_REACTORS
330
1A5
102
}
330
1A5
100
AcDbModelDocViewStyle
 70
     0
  3
Imperial24
290
     0
100
AcDbSectionViewStyle
 70
     0
 71
     0
 90
       78
 71
     1
340
11
 40
0.24
340
0
340
0
 40
0.24
300
I, O, Q, S, X, Z
 40
0.48
 90
        3
 40
0.18
 90
        1
 71
     2
340
1A6
 90
       25
340
16
 90
       50
 40
0.24
 40
0.0
 40
0.24
 71
     3
340
11
 40
0.24
 90
        1
 40
0.75
 90
        1
300
%<\AcVar ViewType \f "%tc1">% %<\AcVar ViewSectionStartId>%-%<\AcVar ViewSectionEndId>%\PSCALE %<\AcVar ViewScale \f "%sn">%
 71
     4
300
ANSI31
 40
1.0
 90
        0
290
     0
290
     0
 90
        6
 40
0.0
 40
1.570796326794896
 40
0.2617993877991494
 40
1.308996938995747
 40
-0.2617993877991494
 40
1.832595714594046
  0
TABLESTYLE
  5
A7
102
{ACAD_XDICTIONARY
360
FF
102
}
102
{ACAD_REACTORS
330
A6
102
}
330
A6
100
AcDbTableStyle
  3
Standard
 70
     0
 71
     0
 40
0.06
 41
0.06
280
     0
281
     0
  7
Standard
140
0.18
170
     2
 62
     0
 63
     7
283
     0
274
    -2
284
     1
 64
     0
275
    -2
285
     1
 65
     0
276
    -2
286
     1
 66
     0
277
    -2
287
     1
 67
     0
278
    -2
288
     1
 68
     0
279
    -2
289
     1
 69
     0
  7
Standard
140
0.25
170
     5
 62
     0
 63
     7
283
     0
274
    -2
284
     1
 64
     0
275
    -2
285
     1
 65
     0
276
    -2
286
     1
 66
     0
277
    -2
287
     1
 67
     0
278
    -2
288
     1
 68
     0
279
    -2
289
     1
 69
     0
  7
Standard
140
0.18
170
     5
 62
     0
 63
     7
283
     0
274
    -2
284
     1
 64
     0
275
    -2
285
     1
 65
     0
276
    -2
286
     1
 66
     0
277
    -2
287
     1
 67
     0
278
    -2
288
     1
 68
     0
279
    -2
289
     1
 69
     0
  0
VISUALSTYLE
  5
9B
102
{ACAD_XDICTIONARY
360
57D
102
}
102
{ACAD_REACTORS
330
95
102
}
330
95
100
AcDbVisualStyle
  2
2dWireframe
 70
     4
 71
     0
 72
     2
 73
     1
 90
        0
 40
-0.6
 41
-30.0
 62
     5
 63
     7
 74
     1
 91
        4
 64
     7
 65
   257
 75
     1
175
     1
 42
1.0
 92
        0
 66
   257
 43
1.0
 76
     1
 77
     6
 78
     2
 67
     7
 79
     5
170
     0
171
     0
290
     0
174
     0
 93
        1
 44
0.0
173
     0
291
     0
 45
0.0
1001
ACAD
1000
AcDbSavedByObjectVersion
1070
     0
  0
VISUALSTYLE
  5
9A
102
{ACAD_XDICTIONARY
360
57B
102
}
102
{ACAD_REACTORS
330
95
102
}
330
95
100
AcDbVisualStyle
  2
Basic
 70
     7
 71
     1
 72
     0
 73
     1
 90
        0
 40
-0.6
 41
-30.0
 62
     5
 63
     7
 74
     0
 91
        4
 64
     7
 65
   257
 75
     1
175
     1
 42
1.0
 92
        8
 66
     7
 43
1.0
 76
     1
 77
     6
 78
     2
 67
     7
 79
     5
170
     0
171
     0
290
     0
174
     0
 93
        1
 44
0.0
173
     0
291
     1
 45
0.0
1001
ACAD
1000
AcDbSavedByObjectVersion
1070
     0
  0
VISUALSTYLE
  5
A1
102
{ACAD_XDICTIONARY
360
589
102
}
102
{ACAD_REACTORS
330
95
102
}
330
95
100
AcDbVisualStyle
  2
Brighten
 70
    12
 71
     2
 72
     2
 73
     1
 90
        0
 40
-0.6
 41
-30.0
 62
     5
 63
     7
 74
     1
 91
        4
 64
     7
 65
   257
 75
     1
175
     1
 42
1.0
 92
        8
 66
     7
 43
1.0
 76
     1
 77
     6
 78
     2
 67
     7
 79
     5
170
     0
171
     0
290
     0
174
     0
 93
        1
 44
50.0
173
     0
291
     1
 45
0.0
1001
ACAD
1000
AcDbSavedByObjectVersion
1070
     0
  0
VISUALSTYLE
  5
A5
102
{ACAD_XDICTIONARY
360
591
102
}
102
{ACAD_REACTORS
330
95
102
}
330
95
100
AcDbVisualStyle
  2
ColorChange
 70
    16
 71
     2
 72
     2
 73
     3
 90
        0
 40
-0.6
 41
-30.0
 62
     5
 63
     8
 74
     1
 91
        4
 64
     7
 65
   257
 75
     1
175
     1
 42
1.0
 92
        8
 66
     8
 43
1.0
 76
     1
 77
     6
 78
     2
 67
     7
 79
     5
170
     0
171
     0
290
     0
174
     0
 93
        1
 44
0.0
173
     0
291
     1
 45
0.0
1001
ACAD
1000
AcDbSavedByObjectVersion
1070
     0
  0
VISUALSTYLE
  5
9E
102
{ACAD_XDICTIONARY
360
583
102
}
102
{ACAD_REACTORS
330
95
102
}
330
95
100
AcDbVisualStyle
  2
Conceptual
 70
     9
 71
     3
 72
     2
 73
     1
 90
        0
 40
-0.6
 41
-30.0
 62
     5
 63
     7
 74
     2
 91
        2
 64
     7
 65
   257
 75
     1
175
     1
 42
40.0
 92
        8
 66
     7
 43
1.0
 76
     1
 77
     6
 78
     2
 67
     7
 79
     3
170
     0
171
     0
290
     0
174
     0
 93
        1
 44
0.0
173
     0
291
     0
 45
0.0
1001
ACAD
1000
AcDbSavedByObjectVersion
1070
     0
  0
VISUALSTYLE
  5
A0
102
{ACAD_XDICTIONARY
360
587
102
}
102
{ACAD_REACTORS
330
95
102
}
330
95
100
AcDbVisualStyle
  2
Dim
 70
    11
 71
     2
 72
     2
 73
     1
 90
        0
 40
-0.6
 41
-30.0
 62
     5
 63
     7
 74
     1
 91
        4
 64
     7
 65
   257
 75
     1
175
     1
 42
1.0
 92
        8
 66
     7
 43
1.0
 76
     1
 77
     6
 78
     2
 67
     7
 79
     5
170
     0
171
     0
290
     0
174
     0
 93
        1
 44
-50.0
173
     0
291
     1
 45
0.0
1001
ACAD
1000
AcDbSavedByObjectVersion
1070
     0
  0
VISUALSTYLE
  5
172
102
{ACAD_XDICTIONARY
360
598
102
}
102
{ACAD_REACTORS
330
95
102
}
330
95
100
AcDbVisualStyle
  2
EdgeColorOff
 70
    22
 71
     2
 72
     2
 73
     0
 90
        0
 40
-0.6
 41
-30.0
 62
     5
 63
     7
 74
     1
 91
        4
 64
     7
 65
   257
 75
     1
175
     1
 42
1.0
 92
        8
 66
     7
 43
1.0
 76
     1
 77
     6
 78
     2
 67
     7
 79
     5
170
     0
171
     0
290
     0
174
     0
 93
        1
 44
0.0
173
     0
291
     1
 45
0.0
1001
ACAD
1000
AcDbSavedByObjectVersion
1070
     0
  0
VISUALSTYLE
  5
A4
102
{ACAD_XDICTIONARY
360
58F
102
}
102
{ACAD_REACTORS
330
95
102
}
330
95
100
AcDbVisualStyle
  2
Facepattern
 70
    15
 71
     2
 72
     2
 73
     1
 90
        0
 40
-0.6
 41
-30.0
 62
     5
 63
     7
 74
     1
 91
        4
 64
     7
 65
   257
 75
     1
175
     1
 42
1.0
 92
        8
 66
     7
 43
1.0
 76
     1
 77
     6
 78
     2
 67
     7
 79
     5
170
     0
171
     0
290
     0
174
     0
 93
        1
 44
0.0
173
     0
291
     1
 45
0.0
1001
ACAD
1000
AcDbSavedByObjectVersion
1070
     0
  0
VISUALSTYLE
  5
96
102
{ACAD_XDICTIONARY
360
573
102
}
102
{ACAD_REACTORS
330
95
102
}
330
95
100
AcDbVisualStyle
  2
Flat
 70
     0
 71
     2
 72
     1
 73
     1
 90
        2
 40
-0.6
 41
30.0
 62
     5
 63
     7
 74
     0
 91
        0
 64
     7
 65
   257
 75
     1
175
     1
 42
1.0
 92
        8
 66
     7
 43
1.0
 76
     1
 77
     6
 78
     2
 67
     7
 79
     5
170
     0
171
     0
290
     0
174
     0
 93
       13
 44
0.0
173
     0
291
     1
 45
0.0
1001
ACAD
1000
AcDbSavedByObjectVersion
1070
     0
  0
VISUALSTYLE
  5
97
102
{ACAD_XDICTIONARY
360
575
102
}
102
{ACAD_REACTORS
330
95
102
}
330
95
100
AcDbVisualStyle
  2
FlatWithEdges
 70
     1
 71
     2
 72
     1
 73
     1
 90
        2
 40
-0.6
 41
30.0
 62
     5
 63
     7
 74
     1
 91
        0
 64
     7
 65
   257
 75
     1
175
     1
 42
1.0
 92
        0
 66
   257
 43
1.0
 76
     1
 77
     6
 78
     2
 67
     7
 79
     5
170
     0
171
     0
290
     0
174
     0
 93
       13
 44
0.0
173
     0
291
     1
 45
0.0
1001
ACAD
1000
AcDbSavedByObjectVersion
1070
     0
  0
VISUALSTYLE
  5
98
102
{ACAD_XDICTIONARY
360
577
102
}
102
{ACAD_REACTORS
330
95
102
}
330
95
100
AcDbVisualStyle
  2
Gouraud
 70
     2
 71
     2
 72
     2
 73
     1
 90
        2
 40
-0.6
 41
30.0
 62
     5
 63
     7
 74
     0
 91
        0
 64
     7
 65
   257
 75
     1
175
     1
 42
1.0
 92
        0
 66
     7
 43
1.0
 76
     1
 77
     6
 78
     2
 67
     7
 79
     5
170
     0
171
     0
290
     0
174
     0
 93
       13
 44
0.0
173
     0
291
     1
 45
0.0
1001
ACAD
1000
AcDbSavedByObjectVersion
1070
     0
  0
VISUALSTYLE
  5
99
102
{ACAD_XDICTIONARY
360
579
102
}
102
{ACAD_REACTORS
330
95
102
}
330
95
100
AcDbVisualStyle
  2
GouraudWithEdges
 70
     3
 71
     2
 72
     2
 73
     1
 90
        2
 40
-0.6
 41
30.0
 62
     5
 63
     7
 74
     1
 91
        0
 64
     7
 65
   257
 75
     1
175
     1
 42
1.0
 92
        0
 66
   257
 43
1.0
 76
     1
 77
     6
 78
     2
 67
     7
 79
     5
170
     0
171
     0
290
     0
174
     0
 93
       13
 44
0.0
173
     0
291
     1
 45
0.0
1001
ACAD
1000
AcDbSavedByObjectVersion
1070
     0
  0
VISUALSTYLE
  5
9D
102
{ACAD_XDICTIONARY
360
581
102
}
102
{ACAD_REACTORS
330
95
102
}
330
95
100
AcDbVisualStyle
  2
Hidden
 70
     6
 71
     1
 72
     2
 73
     2
 90
        0
 40
-0.6
 41
-30.0
 62
     5
 63
     7
 74
     2
 91
        2
 64
     7
 65
   257
 75
     2
175
     1
 42
40.0
 92
        0
 66
   257
 43
1.0
 76
     1
 77
     6
 78
     2
 67
     7
 79
     3
170
     0
171
     0
290
     0
174
     0
 93
        1
 44
0.0
173
     0
291
     0
 45
0.0
1001
ACAD
1000
AcDbSavedByObjectVersion
1070
     0
  0
VISUALSTYLE
  5
170
102
{ACAD_XDICTIONARY
360
594
102
}
102
{ACAD_REACTORS
330
95
102
}
330
95
100
AcDbVisualStyle
  2
JitterOff
 70
    20
 71
     2
 72
     2
 73
     0
 90
        0
 40
-0.6
 41
-30.0
 62
     5
 63
     7
 74
     1
 91
        4
 64
     7
 65
   257
 75
     1
175
     1
 42
1.0
 92
       10
 66
     7
 43
1.0
 76
     1
 77
     6
 78
     2
 67
     7
 79
     5
170
     0
171
     0
290
     0
174
     0
 93
        1
 44
0.0
173
     0
291
     1
 45
0.0
1001
ACAD
1000
AcDbSavedByObjectVersion
1070
     0
  0
VISUALSTYLE
  5
A3
102
{ACAD_XDICTIONARY
360
58D
102
}
102
{ACAD_REACTORS
330
95
102
}
330
95
100
AcDbVisualStyle
  2
Linepattern
 70
    14
 71
     2
 72
     2
 73
     1
 90
        0
 40
-0.6
 41
-30.0
 62
     5
 63
     7
 74
     1
 91
        4
 64
     7
 65
   257
 75
     7
175
     7
 42
1.0
 92
        8
 66
     7
 43
1.0
 76
     1
 77
     6
 78
     2
 67
     7
 79
     5
170
     0
171
     0
290
     0
174
     0
 93
        1
 44
0.0
173
     0
291
     1
 45
0.0
1001
ACAD
1000
AcDbSavedByObjectVersion
1070
     0
  0
VISUALSTYLE
  5
171
102
{ACAD_XDICTIONARY
360
596
102
}
102
{ACAD_REACTORS
330
95
102
}
330
95
100
AcDbVisualStyle
  2
OverhangOff
 70
    21
 71
     2
 72
     2
 73
     0
 90
        0
 40
-0.6
 41
-30.0
 62
     5
 63
     7
 74
     1
 91
        4
 64
     7
 65
   257
 75
     1
175
     1
 42
1.0
 92
        9
 66
     7
 43
1.0
 76
     1
 77
     6
 78
     2
 67
     7
 79
     5
170
     0
171
     0
290
     0
174
     0
 93
        1
 44
0.0
173
     0
291
     1
 45
0.0
1001
ACAD
1000
AcDbSavedByObjectVersion
1070
     0
  0
VISUALSTYLE
  5
9F
102
{ACAD_XDICTIONARY
360
585
102
}
102
{ACAD_REACTORS
330
95
102
}
330
95
100
AcDbVisualStyle
  2
Realistic
 70
     8
 71
     2
 72
     3
 73
     0
 90
        2
 40
-0.6
 41
30.0
 62
     5
 63
     7
 74
     0
 91
        0
 64
     7
 65
   257
 75
     1
175
     1
 42
1.0
 92
        8
 66
   257
 43
1.0
 76
     1
 77
     6
 78
     2
 67
     7
 79
     3
170
     0
171
     0
290
     0
174
     0
 93
       13
 44
0.0
173
     0
291
     0
 45
0.0
1001
ACAD
1000
AcDbSavedByObjectVersion
1070
     0
  0
VISUALSTYLE
  5
17F
102
{ACAD_XDICTIONARY
360
5A2
102
}
102
{ACAD_REACTORS
330
95
102
}
330
95
100
AcDbVisualStyle
  2
Shaded
 70
    27
 71
     2
 72
     2
 73
     1
 90
        2
 40
-0.6
 41
30.0
 62
     5
 63
     7
 74
     0
 91
        4
 64
     7
 65
   257
 75
     1
175
     1
 42
1.0
 92
        8
 66
   257
 43
1.0
 76
     1
 77
     6
 78
     2
 67
     8
 79
     3
170
     0
171
     0
290
     0
174
     0
 93
        5
 44
0.0
173
     0
291
     0
 45
0.0
1001
ACAD
1000
AcDbSavedByObjectVersion
1070
     0
  0
VISUALSTYLE
  5
17E
102
{ACAD_XDICTIONARY
360
5A0
102
}
102
{ACAD_REACTORS
330
95
102
}
330
95
100
AcDbVisualStyle
  2
Shaded with edges
 70
    26
 71
     2
 72
     2
 73
     1
 90
        2
 40
-0.6
 41
30.0
 62
     5
 63
     7
 74
     1
 91
       10
 64
     7
 65
   257
 75
     2
175
     1
 42
1.0
 92
        8
 66
   257
 43
1.0
 76
     1
 77
     6
 78
     2
 67
     7
 79
     3
170
     0
171
     0
290
     0
174
     0
 93
        5
 44
0.0
173
     0
291
     0
 45
0.0
1001
ACAD
1000
AcDbSavedByObjectVersion
1070
     0
  0
VISUALSTYLE
  5
17B
102
{ACAD_XDICTIONARY
360
59A
102
}
102
{ACAD_REACTORS
330
95
102
}
330
95
100
AcDbVisualStyle
  2
Shades of Gray
 70
    23
 71
     2
 72
     2
 73
     3
 90
        0
 40
-0.6
 41
-30.0
 62
     5
 63
     7
 74
     2
 91
        2
 64
     7
 65
     7
 75
     1
175
     1
 42
40.0
 92
        8
 66
     7
 43
1.0
 76
     1
 77
     6
 78
     2
 67
     7
 79
     3
170
     0
171
     0
290
     0
174
     0
 93
        1
 44
0.0
173
     0
291
     0
 45
0.0
1001
ACAD
1000
AcDbSavedByObjectVersion
1070
     0
  0
VISUALSTYLE
  5
17C
102
{ACAD_XDICTIONARY
360
59C
102
}
102
{ACAD_REACTORS
330
95
102
}
330
95
100
AcDbVisualStyle
  2
Sketchy
 70
    24
 71
     1
 72
     2
 73
     2
 90
        0
 40
-0.6
 41
-30.0
 62
     5
 63
     7
 74
     2
 91
        2
 64
     7
 65
     7
 75
     1
175
     1
 42
40.0
 92
       11
 66
     7
 43
1.0
 76
     1
 77
     6
 78
     2
 67
     7
 79
     6
170
     0
171
     0
290
     0
174
     0
 93
        1
 44
0.0
173
     0
291
     0
 45
0.0
1001
ACAD
1000
AcDbSavedByObjectVersion
1070
     0
  0
VISUALSTYLE
  5
A2
102
{ACAD_XDICTIONARY
360
58B
102
}
102
{ACAD_REACTORS
330
95
102
}
330
95
100
AcDbVisualStyle
  2
Thicken
 70
    13
 71
     2
 72
     2
 73
     1
 90
        0
 40
-0.6
 41
-30.0
 62
     5
 63
     7
 74
     1
 91
        4
 64
     7
 65
   257
 75
     1
175
     1
 42
1.0
 92
       12
 66
     7
 43
1.0
 76
     1
 77
     6
 78
     2
 67
     7
 79
     5
170
     0
171
     0
290
     0
174
     0
 93
        1
 44
0.0
173
     0
291
     1
 45
0.0
1001
ACAD
1000
AcDbSavedByObjectVersion
1070
     0
  0
VISUALSTYLE
  5
9C
102
{ACAD_XDICTIONARY
360
57F
102
}
102
{ACAD_REACTORS
330
95
102
}
330
95
100
AcDbVisualStyle
  2
Wireframe
 70
     5
 71
     0
 72
     2
 73
     0
 90
        0
 40
-0.6
 41
-30.0
 62
     5
 63
     7
 74
     1
 91
        4
 64
     7
 65
   257
 75
     1
175
     1
 42
1.0
 92
        0
 66
   257
 43
1.0
 76
     1
 77
     6
 78
     2
 67
     7
 79
     3
170
     0
171
     0
290
     0
174
     0
 93
        1
 44
0.0
173
     0
291
     0
 45
0.0
1001
ACAD
1000
AcDbSavedByObjectVersion
1070
     0
  0
VISUALSTYLE
  5
17D
102
{ACAD_XDICTIONARY
360
59E
102
}
102
{ACAD_REACTORS
330
95
102
}
330
95
100
AcDbVisualStyle
  2
X-Ray
 70
    25
 71
     2
 72
     2
 73
     1
 90
        1
 40
0.5
 41
-30.0
 62
     5
 63
     7
 74
     1
 91
        0
 64
     7
 65
   257
 75
     1
175
     1
 42
1.0
 92
        8
 66
     7
 43
1.0
 76
     1
 77
     6
 78
     2
 67
     7
 79
     3
170
     0
171
     0
290
     0
174
     0
 93
       13
 44
0.0
173
     0
291
     0
 45
0.0
1001
ACAD
1000
AcDbSavedByObjectVersion
1070
     0
  0
DICTIONARYVAR
  5
55E
102
{ACAD_REACTORS
330
59
102
}
330
59
100
DictionaryVariables
280
     0
  1
60.000000
  0
DICTIONARYVAR
  5
EB
102
{ACAD_REACTORS
330
59
102
}
330
59
100
DictionaryVariables
280
     0
  1
1:1
  0
DICTIONARYVAR
  5
EA
102
{ACAD_REACTORS
330
59
102
}
330
59
100
DictionaryVariables
280
     0
  1
STANDARD
  0
DICTIONARYVAR
  5
AB
102
{ACAD_REACTORS
330
59
102
}
330
59
100
DictionaryVariables
280
     0
  1
STANDARD
  0
DICTIONARYVAR
  5
1B4
102
{ACAD_REACTORS
330
59
102
}
330
59
100
DictionaryVariables
280
     0
  1
Imperial24
  0
DICTIONARYVAR
  5
1B5
102
{ACAD_REACTORS
330
59
102
}
330
59
100
DictionaryVariables
280
     0
  1
Imperial24
  0
DICTIONARYVAR
  5
5A
102
{ACAD_REACTORS
330
59
102
}
330
59
100
DictionaryVariables
280
     0
  1
2
  0
DICTIONARYVAR
  5
5E
102
{ACAD_REACTORS
330
59
102
}
330
59
100
DictionaryVariables
280
     0
  1
1
  0
DICTIONARYVAR
  5
55D
102
{ACAD_REACTORS
330
59
102
}
330
59
100
DictionaryVariables
280
     0
  1
0
  0
DICTIONARYVAR
  5
14A
102
{ACAD_REACTORS
330
59
102
}
330
59
100
DictionaryVariables
280
     0
  1
0
  0
DICTIONARYVAR
  5
14B
102
{ACAD_REACTORS
330
59
102
}
330
59
100
DictionaryVariables
280
     0
  1
0
  0
DICTIONARYVAR
  5
55B
102
{ACAD_REACTORS
330
59
102
}
330
59
100
DictionaryVariables
280
     0
  1
2
  0
DICTIONARYVAR
  5
55A
102
{ACAD_REACTORS
330
59
102
}
330
59
100
DictionaryVariables
280
     0
  1
1
  0
DICTIONARYVAR
  5
55C
102
{ACAD_REACTORS
330
59
102
}
330
59
100
DictionaryVariables
280
     0
  1
127
  0
DICTIONARYVAR
  5
55F
102
{ACAD_REACTORS
330
59
102
}
330
59
100
DictionaryVariables
280
     0
  1
2
  0
DICTIONARY
  5
56A
102
{ACAD_REACTORS
330
568
102
}
330
568
100
AcDbDictionary
281
     1
  0
DICTIONARY
  5
569
102
{ACAD_REACTORS
330
568
102
}
330
568
100
AcDbDictionary
281
     1
  3
140689345374640
350
563
  3
140689345374656
350
564
  3
140689345374672
350
565
  3
140689345374688
350
566
  3
140689345374704
350
567
  0
DICTIONARY
  5
56C
330
74
100
AcDbDictionary
280
     1
281
     1
  3
ACAD_XREC_ROUNDTRIP
360
56D
  0
DICTIONARY
  5
56E
330
79
100
AcDbDictionary
280
     1
281
     1
  3
ACAD_XREC_ROUNDTRIP
360
56F
  0
DICTIONARY
  5
191
330
22
100
AcDbDictionary
280
     1
281
     1
  3
ACAD_XREC_ROUNDTRIP
360
56B
  0
DICTIONARY
  5
185
330
93
100
AcDbDictionary
280
     1
281
     1
  3
ACAD_XREC_ROUNDTRIP
360
571
  3
FBXASSET
360
186
  0
DICTIONARY
  5
183
330
92
100
AcDbDictionary
280
     1
281
     1
  3
ACAD_XREC_ROUNDTRIP
360
570
  3
FBXASSET
360
184
  0
DICTIONARY
  5
10B
330
94
100
AcDbDictionary
280
     1
281
     1
  3
ACAD_XREC_ROUNDTRIP
360
572
  3
BUMPTILE
360
10D
  3
DIFFUSETILE
360
10C
  3
FBXASSET
360
187
  3
OPACITYTILE
360
10E
  3
REFLECTIONTILE
360
10F
  0
DICTIONARY
  5
FF
330
A7
100
AcDbDictionary
280
     1
281
     1
  3
ACAD_ROUNDTRIP_2008_TABLESTYLE_CELLSTYLEMAP
360
560
  3
ACAD_XREC_ROUNDTRIP
360
593
  0
DICTIONARY
  5
57D
330
9B
100
AcDbDictionary
280
     1
281
     1
  3
ACAD_XREC_ROUNDTRIP
360
57E
  0
DICTIONARY
  5
57B
330
9A
100
AcDbDictionary
280
     1
281
     1
  3
ACAD_XREC_ROUNDTRIP
360
57C
  0
DICTIONARY
  5
589
330
A1
100
AcDbDictionary
280
     1
281
     1
  3
ACAD_XREC_ROUNDTRIP
360
58A
  0
DICTIONARY
  5
591
330
A5
100
AcDbDictionary
280
     1
281
     1
  3
ACAD_XREC_ROUNDTRIP
360
592
  0
DICTIONARY
  5
583
330
9E
100
AcDbDictionary
280
     1
281
     1
  3
ACAD_XREC_ROUNDTRIP
360
584
  0
DICTIONARY
  5
587
330
A0
100
AcDbDictionary
280
     1
281
     1
  3
ACAD_XREC_ROUNDTRIP
360
588
  0
DICTIONARY
  5
598
330
172
100
AcDbDictionary
280
     1
281
     1
  3
ACAD_XREC_ROUNDTRIP
360
599
  0
DICTIONARY
  5
58F
330
A4
100
AcDbDictionary
280
     1
281
     1
  3
ACAD_XREC_ROUNDTRIP
360
590
  0
DICTIONARY
  5
573
330
96
100
AcDbDictionary
280
     1
281
     1
  3
ACAD_XREC_ROUNDTRIP
360
574
  0
DICTIONARY
  5
575
330
97
100
AcDbDictionary
280
     1
281
     1
  3
ACAD_XREC_ROUNDTRIP
360
576
  0
DICTIONARY
  5
577
330
98
100
AcDbDictionary
280
     1
281
     1
  3
ACAD_XREC_ROUNDTRIP
360
578
  0
DICTIONARY
  5
579
330
99
100
AcDbDictionary
280
     1
281
     1
  3
ACAD_XREC_ROUNDTRIP
360
57A
  0
DICTIONARY
  5
581
330
9D
100
AcDbDictionary
280
     1
281
     1
  3
ACAD_XREC_ROUNDTRIP
360
582
  0
DICTIONARY
  5
594
330
170
100
AcDbDictionary
280
     1
281
     1
  3
ACAD_XREC_ROUNDTRIP
360
595
  0
DICTIONARY
  5
58D
330
A3
100
AcDbDictionary
280
     1
281
     1
  3
ACAD_XREC_ROUNDTRIP
360
58E
  0
DICTIONARY
  5
596
330
171
100
AcDbDictionary
280
     1
281
     1
  3
ACAD_XREC_ROUNDTRIP
360
597
  0
DICTIONARY
  5
585
330
9F
100
AcDbDictionary
280
     1
281
     1
  3
ACAD_XREC_ROUNDTRIP
360
586
  0
DICTIONARY
  5
5A2
330
17F
100
AcDbDictionary
280
     1
281
     1
  3
ACAD_XREC_ROUNDTRIP
360
5A3
  0
DICTIONARY
  5
5A0
330
17E
100
AcDbDictionary
280
     1
281
     1
  3
ACAD_XREC_ROUNDTRIP
360
5A1
  0
DICTIONARY
  5
59A
330
17B
100
AcDbDictionary
280
     1
281
     1
  3
ACAD_XREC_ROUNDTRIP
360
59B
  0
DICTIONARY
  5
59C
330
17C
100
AcDbDictionary
280
     1
281
     1
  3
ACAD_XREC_ROUNDTRIP
360
59D
  0
DICTIONARY
  5
58B
330
A2
100
AcDbDictionary
280
     1
281
     1
  3
ACAD_XREC_ROUNDTRIP
360
58C
  0
DICTIONARY
  5
57F
330
9C
100
AcDbDictionary
280
     1
281
     1
  3
ACAD_XREC_ROUNDTRIP
360
580
  0
DICTIONARY
  5
59E
330
17D
100
AcDbDictionary
280
     1
281
     1
  3
ACAD_XREC_ROUNDTRIP
360
59F
  0
XRECORD
  5
563
102
{ACAD_REACTORS
330
569
102
}
330
569
100
AcDbXrecord
280
     1
  1
AcDb_Thumbnail_Schema
102
{ATTRRECORD
341
564
  2
AcDbDs::TreatedAsObjectData
280
     1
291
     1
102
ATTRRECORD}
102
{ATTRRECORD
341
565
  2
AcDbDs::Legacy
280
     1
291
     1
102
ATTRRECORD}
  2
AcDbDs::ID
280
    10
 91
        8
102
{ATTRRECORD
341
566
  2
AcDs:Indexable
280
     1
291
     1
102
ATTRRECORD}
102
{ATTRRECORD
341
567
  2
AcDbDs::HandleAttribute
280
     7
282
     1
102
ATTRRECORD}
  2
Thumbnail_Data
280
    15
 91
        0
  0
XRECORD
  5
564
102
{ACAD_REACTORS
330
569
102
}
330
569
100
AcDbXrecord
280
     1
  1
AcDbDs::TreatedAsObjectDataSchema
  2
AcDbDs::TreatedAsObjectData
280
     1
 91
        0
  0
XRECORD
  5
565
102
{ACAD_REACTORS
330
569
102
}
330
569
100
AcDbXrecord
280
     1
  1
AcDbDs::LegacySchema
  2
AcDbDs::Legacy
280
     1
 91
        0
  0
XRECORD
  5
566
102
{ACAD_REACTORS
330
569
102
}
330
569
100
AcDbXrecord
280
     1
  1
AcDbDs::IndexedPropertySchema
  2
AcDs:Indexable
280
     1
 91
        0
  0
XRECORD
  5
567
102
{ACAD_REACTORS
330
569
102
}
330
569
100
AcDbXrecord
280
     1
  1
AcDbDs::HandleAttributeSchema
  2
AcDbDs::HandleAttribute
280
     7
 91
        1
284
     1
  0
XRECORD
  5
56D
102
{ACAD_REACTORS
330
56C
102
}
330
56C
100
AcDbXrecord
280
     1
102
SHADEPLOT
 70
     0
102
SHADEPLOTRESLEVEL
 70
     2
102
SHADEPLOTCUSTOMDPI
 70
   300
  0
XRECORD
  5
56F
102
{ACAD_REACTORS
330
56E
102
}
330
56E
100
AcDbXrecord
280
     1
102
SHADEPLOT
 70
     0
102
SHADEPLOTRESLEVEL
 70
     2
102
SHADEPLOTCUSTOMDPI
 70
   300
  0
XRECORD
  5
56B
102
{ACAD_REACTORS
330
191
102
}
330
191
100
AcDbXrecord
280
     1
102
SHADEPLOT
 70
     0
102
SHADEPLOTRESLEVEL
 70
     2
102
SHADEPLOTCUSTOMDPI
 70
   300
  0
XRECORD
  5
571
102
{ACAD_REACTORS
330
185
102
}
330
185
100
AcDbXrecord
280
     1
102
MATERIAL
148
0.0
149
0.0
149
0.0
 93
        0
 94
       63
282
     0
 72
     1
 77
     1
171
     1
175
     1
179
     1
273
     0
  0
XRECORD
  5
186
102
{ACAD_REACTORS
330
185
102
}
330
185
100
AcDbXrecord
280
     1
 70
     1
 90
429727718
  1
7581DE8E-A623-425F-9BF4-B3F4BE6C4F9A
310
504B03040A0000080000AC70623B3DEE336E79000000790000001B0000006175746F6465736B2D64657369676E2D7061636B6167652E786D6C3C3F786D6C2076657273696F6E3D22312E302220656E636F64696E673D227574662D3822203F3E3C666F726D6174733E3C666F726D61743E687474703A2F2F736368656D612E
310
6175746F6465736B2E636F6D2F64657369676E2D7061636B6167652F323030393C2F666F726D61743E3C2F666F726D6174733E504B0304140006080800AC70623BD486FD9CA0000000F4000000130000005B436F6E74656E745F54797065735D2E786D6C7D8EC10E82300C865F65E91D8A1E8C310C0EEA1BF002731658846E
310
D98AC1B77784ABF1D8FE5FBFBF75BBCE937A534CCEB38643598122B6FEE978D0B0485F9C41B54DDD7D022595594E1A469170414C76A4D9A4D207E29CF43ECE46F218070CC6BECC4078ACAA135ACF422C856C0E68EA1BF5669944DDD7BCDE7B1F8E415D77AECB980613C2E4AC91FC167A2B244592486606FC29C8FD7F045B9A
310
EF7053A7E60B504B0304140006080800AC70623B9A2F3B5FEC0000007C01000008000000636F72652E786D6C8D90416E83301045AF62CDB632D8040820E328B4E204BD80653BC44AB011B6AB1EBF262152BBEB6A467FFE9B197D76FA9EEFE84BAFDE38DB03CD08206DA553C64E3DC470C10DA01367AB73E1970D9015B3EE61
310
9381B3697571D925E96CD03624D53AA5775178AF0320794F4D0F5E5EF52C32114372F85BB608791393CEE8AB4B708C46A1E711A3D23E73317A055E0D4D53D6C71A9FC7A1C6657D18703354232ECFED4731B6B43CBED72CDF60CE82995FF7E5AA45D00A7841488B29C5A4F8A46547AAAEA8DE48D311C2F2CDFE078A8BFA2714
310
8D0D87627FF78979E0343DF21870966F59A4F2082AD52D37FE03504B0304140006080800AC70623B55019EA25F0000007C00000007000000636E782E786D6C4DCB3B0E80201045D1AD90E915ED2CF8AC45050C11660C8261F98AB1B07AC9C97D42D718D865D3E909258CFD00CCE24AC6E326A164D74DC0B4128928FF326038
310
472BA13128B1252AC747C6BAB984FC68F0B87FE8960A5C09FE86CFB69FBA01504B0304140006080800AC70623B6E137E0172010000D40300000C0000006662782F636F72652E786D6CC5535B6E833010BC8AE5DF0A6C0810121947A1554ED00B38E05014B091B1518EDFE511A5A9D22AFD2A1F60CDEC7A67C698ED2E6D8306
310
69FA5AAB0C073EC548AA4297B5AA32ECECC94B31DA7166B4B65FCA3052A295191E61CC5965B4EB16A8D0CA4A650155BA940B28FA5E5A8C8A061619EE8B0FD90A5F380B15FDD9EF44711695F4031F68A8E3ACB70604A079C8F8C6FC74BC3032E39C3957970B5B9730AD3ED5D2601EE7691A25EBC4DB1FF2C48B9255EEA5797C
310
F0A2FDE62D3C6C8268FD9A3032367366EBF6AAAE30525859621E52BAF182C0A3E17B106D69BC0DE3179A6E2965642CBF6B725DF96493AB955D858BDCB9ADC73C002113F1CD2D4464512F06D04338236388F09912BE0F1A028190AD3836571F67800659586D22604AED6ED4201A27612AF5E9F4A09F178CCC9D3075DA1C5C3F
310
9C113E3DE3F71DE1A885AAC084B0B03C3A3BEA64B38625B44E1A6FB017A4B46945F39C8D5F1CFE89BA897F28A9D08D36FFA5882C074496DF838CF7917F02504B0304140006080800AC70623BE001BAC07D0000009D0000000B0000006662782F636E782E786D6C4DCCD10AC2201886E15B91FFDCA6536B037548D87D8CE686
310
E4344CA3CB6F8B1D74F4C1C3C72B87CF1AD0DBE5974F51013D11402EDED3E4E3A2A096197780062D734AE5EF06288EAB53B03368B9E4549F074D6E1E6B289B061F1F07124689687987B9601C7373BD60C36E065B6A6DDF7341A93843A365F32B6DBB87F517504B0304140006080800AC70623B8E5068122901000012020000
310
310000006662782F30333130353234382D343533342D344143372D413346412D4531454539393435313135362F636F72652E786D6C8D515B6EC32010BC0AE22B55850D364E93081345557A825E801892A2C460F1A872FC2EB523B57FF961D1EECCECECAED8DFC71BFA36215AEF7ACC2A8A917183D7D65D7A9CD3996C30DA4B
310
11BC4F7F601839359A1E973496E2127C9E96D4E05D322E41D6796D96A48AD1248C861B7C7A1C872F33AA4AE5048878AD26355CD5C554AC8232E0A4882980013437292F96B465B46BF886F0AEE5841FDEDFC8A1FD3890233B1EB75BDE31D6AD453D13A5C8D9EA856E35D8B1676BC2B322852C45B2E3C3FE108C4A4663D950BA
310
258C11DA7C32BEA3DDAEE95EE96647A9A80BFC1F294FFA4952B62EB5CD6277A6452C99A8E78214DAE7D3ED61C6DC271F122AFD56D10C2F305545CB6A60FC1908E383E29A2F8A31F900EB5D5D4F8065DD2CBBE652D4E542107ECF07B15C53FE00504B0304140006080800AC70623B503B51794E010000330300003000000066
310
62782F30333130353234382D343533342D344143372D413346412D4531454539393435313135362F636E782E786D6CD593C16EC32010447F0571AD6CE3D489D20813A9877E410FBD62D82434182CC055F3F75D1292E692438FBD206B7698593D61BEFD1E2DF982108D773D6D6B460938E5B571FB9ECE6957AD29D90A1EBC4F
310
77364A9C1CA1A759A682EF839FA72269D8C9D92654AD71C72206887E0E0A22CAF926B15E498B01E0AA19451807D01A34B919F16B070157417138917400F2F6FA41FCF0092A45DEE414C19BDC21783E4BD39D891265658C3D8DEA00A3ACE59CBC8678ACB54CB26EEB6BD7839D7E9348BE70AD9C8321B9BCA7F9A4A26C542347
310
DEE050F09802D22BA6749A800A394DD62899107273365E3C82CFC6A55557BC06C10774B7ABE7AEC3B0F34CF06446280E154026D0542C187BA9DAB6628BF7B6DBB0E566B17C62EB0D63BCC976C107EF6DB9843110FC449477095CA2A2E54D1E3FC2577C449B80AC7D38FD01240228AD173AB78CFFCCA739BF6FC415F02F103F
310
504B0304140006080800AC70623B38FA165F680500003C100000340000006662782F30333130353234382D343533342D344143372D413346412D4531454539393435313135362F6F626A656374732E786D6CAD575D6FA33814FD2B887D0E8424EDB42BCAA8499A2A1A756634D18CF6A15264C0A16CC146B6E9A4FBEBF7180C
310
019276B21F7908D8D8F7F3DCE36BFFE33ECFAC172A64CAD98DED3963DBA22CE271CA921BBB54BBD1956D7D0C7CC1B9EA2CB32D46727A63EB693BF013C1CBC24CC57447CA4C0D6657F33F2C1951466D2BCA889437B68C9E684E1C522A1E53F9ECC4441127D9ED1DCFA917F6C52682144F03A105119429588A790629566D94D7
310
1F8E6D37F05DFD3DF0F5BF59357D7B955BF9D3D79F32A9088B8E940DC44CBDD9F26E72713DBA98CDA6A3D9E5C41BCD57F3E5C8FB301D2F2E178BEBDBBB6B28964A4092B144D09D1DDC2336228D7CB7FED45A6C0C3F6552C419A351E53F3CAC6C3612635A5016238F2995D0D6F17ADC1F7A3A369DCF533D362ABBD3E779D5DD
310
D111D4D8DE3CBB96F2F04FB820CF41859054A3AA8E8F71B4C6DFF810B590F3CC7C4BA5951345454A322B4B4341C4AB1D60A95E12F83D311A9D42235C7B6007DE415ED75694C6AFB17BCACA5D99651A9A7650217B0BFC53252BCBD2BFA838AD0D36215765CAD4957148BD16D40EAE7DB79A0C7CFD984ECCC73A90D62E230952
310
0E37EBAF034717BAF6D64B3BF8B40AF71B5D8FA79517821754280D1F40AB495CF3D451326ABDB332A737C0995ECC0F41F986C87F46F91E4C41DE44BA9FED67468B1284C91D173972E38CAB9F356E5E46EDDBF10BF86CB0FA784D3BF3AF16FB6E6B6C9F30DECA1FC0A55373F5DFF3D78F5917A99DF405FE0B0A8C8BA909E526
310
2219A8E72165488806A595714C81CB77E1DE0ED6604A303B76912C680372F4E2BB2FF88EFF5A36D8AA52DF79322474C0B767303F625995056C7B032C473C592936CEBD15F38BFFA5666E979B4F9B52EC48441F0CB12CE92E65A9C2D979006FD7A05E227A1E3DD3D79F5CC470F438099B6E1272A34A22DA3AE63AF0497358E8
310
C141734F41847D09D79CE7FF42C3432A239A6584515E365ADA634863B52519D327A00AEB804E2703140BFA92EA4EA2B7A26716CEFA48A4850E597BE8B53CEDBCE1CBF7F56780D20EE6AF73A0F5F9B02A3CD07DC4332EB6E1EBB666421BE0C39E3EBA7FF4E16D22EA6A29407C85E586724C88B771BADB9512BC7B228A3FD68B
310
6EA65A22397E690AA8D158D7E40CEC8CDA23C2C0B7D1898640101CEC9C6D531CE328CB93CABBBA870A6425F70DF96199175B92F392A973C2346EFC69AC6F8577BB18F993A8E8C90E36D573340765C7343EA4AA87027D049DF0A9979E0F1757DEF2EEEA6E747B39412B35B9588DAEE7ABD9683E5DCDE677978BD9EAFAB6B5A8
310
B224F09B13AA5B8388264E44BF14A909F3F7F5A16CEDE08128E9DED705E526F5F3FBDA415BECBBD80380B71BD77991D19C3245347C1FF44BF68DA0ABE8C9A8E7D73949E81952BEDC6F063660E68C7D5F75A9D19F83BD6676A16BE1A410F554E621236936D8681C770A9618B79B50B6CF9AD19BA11E9978A20F953C4B63104E
310
6C2594E7548176CE607B915309C474BBF2D8DC1ECED8FD52F7838A84196D2C79226889330954036E65A4FAF3D66F68E174177563E3B0739EF1670AD1B690EA1B1BFCA6D2884A27C4F1A81B9F4A3820802EAC2541408DB02443675D6F6AC7ED2E1D1BD00F4E40A3BF5D724EB764FCEA116F4E8A02A7768F562BDB8C82E81F39
310
DE98631185D7B054AD2F8789D6994A0D2AAB76CADC0DD0423C1BD57BD4D7FB6E794EB5A61791B3EE49EF82A0963A524424D5BD40DB674CBA5D7E75D10A58EB2F569195097279BEA491A00073A90B1C28022A8CCC82284075F1FBE357C17117CDAD550A083C2E789E736606B7E62E6B6D9E70338D1F410B545F3FE464EC798F
310
55D76F2E22DB9048EA90583E63A22938EDC1006B00E4D1716A52E0EA1C0C96AF9796393066105A81F6A829ADAFE1168A47DF1C75A974C9B278B7F177ABA5008340CB1EFC0D504B0304140006080000AC70623B000000000000000000000000350000006662782F30333130353234382D343533342D344143372D413346412D
310
4531454539393435313135362F76657274696365732E62696E504B0304140006080800AC70623BF270F1330600000004000000360000006662782F30333130353234382D343533342D344143372D413346412D4531454539393435313135362F747269616E676C65732E62696E636660600000504B0304140006080000AC70
310
623B000000000000000000000000370000006662782F30333130353234382D343533342D344143372D413346412D4531454539393435313135362F617474726962757465732E62696E504B0304140006080800AC70623B08DA0BD19000000041010000360000006662782F30333130353234382D343533342D344143372D41
310
3346412D4531454539393435313135362F6469726563746F72792E786D6C858F410AC3201045AF22B36F53E9A60B35CBEEBAE80D244E44489C6234F4F835464A48035D0DF398FF9F8AF63D0E6CC63039F212F8F9020C7D47C6792B21C5FE7403D62A1188E2E60C98D7234A5830286103A55745067B9D86B8A3CF9C7F90C11D
310
E607FB144396D7B6A82D282E9A152AD114D5EF2CB866EEE831B8EEA07A7BB5A8D7D61A2BAAEB7FD5F70921FF497D00504B0304140006080800AC70623BF2C5666EFF000000A00100003B0000006662782F30333130353234382D343533342D344143372D413346412D4531454539393435313135362F7265736F7572636573
310
2F636F72652E786D6C8D504B6E833010BD0A9A6D65B00910888CA3D02A27E8052C33A156821DF953F5F8B5132AB5BB6E6646EFA3797AFCF8B5DE8A4F745E5B33022B291468949DB5594688E1427A288E823B6BC32F191446AE38428641F0C5D978DF20654D4013126AEC8C1B28BDC70085BAA56304AF3E7095A58C2129FCB5
310
BC4B75950B96AC4C74D209EE834B018AE7933C4138F4363A859E574F56F018F5BC69F49C7EEA8B4607A29DFABEE9F62D399DA78E34DD6E22FDD49E49731ADEEAF3C09AFD6BC7AB6C163CE8F527A3722803CE206A4A07C218A1F53B6B0EB43DD4ED0BED0F94F22ACBFF98E27DFEA7296A1376F516F769F320580AF22004AF72
310
5F693DCA4C3B772BBE01504B010214000A0000080000AC70623B3DEE336E79000000790000001B00000000000000000000000000000000006175746F6465736B2D64657369676E2D7061636B6167652E786D6C504B01021400140006080800AC70623BD486FD9CA0000000F40000001300000000000000000000000000B200
310
00005B436F6E74656E745F54797065735D2E786D6C504B01021400140006080800AC70623B9A2F3B5FEC0000007C010000080000000000000000000000000083010000636F72652E786D6C504B01021400140006080800AC70623B55019EA25F0000007C000000070000000000000000000000000095020000636E782E786D
310
6C504B01021400140006080800AC70623B6E137E0172010000D40300000C00000000000000000000000000190300006662782F636F72652E786D6C504B01021400140006080800AC70623BE001BAC07D0000009D0000000B00000000000000000000000000B50400006662782F636E782E786D6C504B010214001400060808
310
00AC70623B8E506812290100001202000031000000000000000000000000005B0500006662782F30333130353234382D343533342D344143372D413346412D4531454539393435313135362F636F72652E786D6C504B01021400140006080800AC70623B503B51794E010000330300003000000000000000000000000000D3
310
0600006662782F30333130353234382D343533342D344143372D413346412D4531454539393435313135362F636E782E786D6C504B01021400140006080800AC70623B38FA165F680500003C10000034000000000000000000000000006F0800006662782F30333130353234382D343533342D344143372D413346412D4531
310
454539393435313135362F6F626A656374732E786D6C504B01021400140006080000AC70623B0000000000000000000000003500000000000000000000000000290E00006662782F30333130353234382D343533342D344143372D413346412D4531454539393435313135362F76657274696365732E62696E504B01021400
310
140006080800AC70623BF270F133060000000400000036000000000000000000000000007C0E00006662782F30333130353234382D343533342D344143372D413346412D4531454539393435313135362F747269616E676C65732E62696E504B01021400140006080000AC70623B0000000000000000000000003700000000
310
000000000000000000D60E00006662782F30333130353234382D343533342D344143372D413346412D4531454539393435313135362F617474726962757465732E62696E504B01021400140006080800AC70623B08DA0BD1900000004101000036000000000000000000000000002B0F00006662782F30333130353234382D
310
343533342D344143372D413346412D4531454539393435313135362F6469726563746F72792E786D6C504B01021400140006080800AC70623BF2C5666EFF000000A00100003B000000000000000000000000000F1000006662782F30333130353234382D343533342D344143372D413346412D453145453939343531313536
310
2F7265736F75726365732F636F72652E786D6C504B0506000000000E000E0080040000671100000000
  0
XRECORD
  5
570
102
{ACAD_REACTORS
330
183
102
}
330
183
100
AcDbXrecord
280
     1
102
MATERIAL
148
0.0
149
0.0
149
0.0
 93
        0
 94
       63
282
     0
 72
     1
 77
     1
171
     1
175
     1
179
     1
273
     0
  0
XRECORD
  5
184
102
{ACAD_REACTORS
330
183
102
}
330
183
100
AcDbXrecord
280
     1
 70
     1
 90
429727718
  1
778E3A9F-1AF3-452F-85C1-1BC15BD3F630
310
504B03040A0000080000AC70623B3DEE336E79000000790000001B0000006175746F6465736B2D64657369676E2D7061636B6167652E786D6C3C3F786D6C2076657273696F6E3D22312E302220656E636F64696E673D227574662D3822203F3E3C666F726D6174733E3C666F726D61743E687474703A2F2F736368656D612E
310
6175746F6465736B2E636F6D2F64657369676E2D7061636B6167652F323030393C2F666F726D61743E3C2F666F726D6174733E504B0304140006080800AC70623BD486FD9CA0000000F4000000130000005B436F6E74656E745F54797065735D2E786D6C7D8EC10E82300C865F65E91D8A1E8C310C0EEA1BF002731658846E
310
D98AC1B77784ABF1D8FE5FBFBF75BBCE937A534CCEB38643598122B6FEE978D0B0485F9C41B54DDD7D022595594E1A469170414C76A4D9A4D207E29CF43ECE46F218070CC6BECC4078ACAA135ACF422C856C0E68EA1BF5669944DDD7BCDE7B1F8E415D77AECB980613C2E4AC91FC167A2B244592486606FC29C8FD7F045B9A
310
EF7053A7E60B504B0304140006080800AC70623BFD5588D4EC0000007C01000008000000636F72652E786D6C8D90416EC3201045AF82665B6103891DC7C24471939CA01740405C94182C03558F5F9C3852BBEB6A467FFE9B197D7EF81EEFE8CBCCC17AD7012D0820E394D7D60D1DA478C50DA083E0B3F7F1970D9093A3E960
310
9141F061F6695A25E55D342E66D5796D56518660222075CF4D07417D9A511632C5EC08B76292EA260753D05797E194AC46CF2356E77DF66ACD0C62C768BD63971E5727D2E06DDF9C71BF7B3FE10BABF79BFA488FE4DCF07281058F767CDD57B391D168108C903DA61413F641B72DA95A56BD91A62584978BFD0F9426FD4F28
310
5917376C7DF7890510343FF218085E2E59E4F2082AD72537F103504B0304140006080800AC70623B55019EA25F0000007C00000007000000636E782E786D6C4DCB3B0E80201045D1AD90E915ED2CF8AC45050C11660C8261F98AB1B07AC9C97D42D718D865D3E909258CFD00CCE24AC6E326A164D74DC0B4128928FF326038
310
472BA13128B1252AC747C6BAB984FC68F0B87FE8960A5C09FE86CFB69FBA01504B0304140006080800AC70623BB5D38BAD72010000D40300000C0000006662782F636F72652E786D6CC553DB8E823014FC95A6AF1B68C11B9A52A3AB7EC1FE4085CA36424B4A4BFCFC3D5C8CEBC635EED3F200CDCC393D3353CAD697AA44AD
310
B48D323AC5514831923A33B9D2458ABD3B0509466BCEAC31EE5B19465A5432C51D8C392BACF1F50865463BA91DA0DAE4720445D348875156C222C54DF6292B110AEFA0A23987B5C8CEA2906114020D759C35CE8200340CE9DE989F8E1746069C33EF553EB22A8769EAA4A4C57C1147F3457CD806B31D4D82E936D907DBC5FB
310
2E38C4F3E564BE8936749F30D23573E65475559759299CCC318F295D065114D0F8239AAEE86C15CFDE68B2A29491AEFCAEC9D7F98B4D5E69378947B9435B837904427AE2875B88C8A146B4A0877046BA10E1D3277C1F340402213B712CAF3ECE00B53273C64E81C98DBF51AD28BD84A934A4FD837E5F303274C2D47E7370FD
310
7046FCF28CE73BC2510B5D8009E16079F4AED3C9060D6368B5B441EB2E481B5B89F2351B4F1CFE89BA897F282933A5B1FFA5888C0744C6DF8374F7917F01504B0304140006080800AC70623B09885E1C7E0000009D0000000B0000006662782F636E782E786D6C4DCCDF0A83201C86E15B91DFB9CBA6FD11D41063F711CB42
310
663A9C8E5DFE6A74B0A30F1E3E5E317C368FDE36BD5C0C12EA0B0164C33DCE2EAC124A5E700F685022C598FF6E80C2B459090783126B8AE579D26C97A9F8BCAB77E17122E586D5843498B3EE8699D114F39E5E713D76EDA84DCBB569A052A2FA95F63DC2EA0B504B0304140006080800AC70623B961D28872A010000120200
310
00310000006662782F33394334313030352D393437462D344341332D393833322D3144373644414336394143352F636F72652E786D6C8D515B6EC32010BC8AC557AA0A1BFC4A1C61A2C8514FD00B10435294182C1E558EDFA576A4F62F3F80666766875D76784CF7EC5B39AFADE911CD09CA9419ADD4E6DAA3182E7887B203
310
67CEDAF08786322326D5A30423CEAECEC67985466B8232015063A55A41E1BD0A281BEFF0E8911FBFD42472110330FC2D9FC578135795D31CCAC0E3CC070701B2A5493A11AFBAA1A68434B8ABB71FB81E8E15EE765589E969DB9E8E43DB1D8786158B90B318B55CE55A421C7DD1CABD6A92C49C053D3DE38F4E89A024E22521
310
1DA61493F293D67BD2ECCBE69DECF684B022D1FF89E22C5F14456D4255AE711799479CB2622970266D3CDF9F61D463B62E64A9DFC6ABF10D7192C35CCA0A040B11BE0F8E6DBD3AFA601D8C77733B0397C290926D5B7356A40DC1F5BB3EB8D336F90F504B0304140006080800AC70623B503B51794E01000033030000300000
310
006662782F33394334313030352D393437462D344341332D393833322D3144373644414336394143352F636E782E786D6CD593C16EC32010447F0571AD6CE3D489D20813A9877E410FBD62D82434182CC055F3F75D1292E692438FBD206B7698593D61BEFD1E2DF982108D773D6D6B460938E5B571FB9ECE6957AD29D90A1E
310
BC4F77364A9C1CA1A759A682EF839FA72269D8C9D92654AD71C72206887E0E0A22CAF926B15E498B01E0AA19451807D01A34B919F16B070157417138917400F2F6FA41FCF0092A45DEE414C19BDC21783E4BD39D891265658C3D8DEA00A3ACE59CBC8678ACB54CB26EEB6BD7839D7E9348BE70AD9C8321B9BCA7F9A4A26C54
310
2347DEE050F09802D22BA6749A800A394DD62899107273365E3C82CFC6A55557BC06C10774B7ABE7AEC3B0F34CF06446280E154026D0542C187BA9DAB6628BF7B6DBB0E566B17C62EB0D63BCC976C107EF6DB9843110FC449477095CA2A2E54D1E3FC2577C449B80AC7D38FD01240228AD173AB78CFFCCA739BF6FC415F02F
310
103F504B0304140006080800AC70623B2EA4D28F640500003C100000340000006662782F33394334313030352D393437462D344341332D393833322D3144373644414336394143352F6F626A656374732E786D6CAD575D739B3814FD2B0CFB6C30B1D3263B844E6CC71D4F376DA79E76F621331E01326103122389C4E9AFDF
310
231018B09D7A3FFC609090EEE7B94757FE875D9E59CF54C894B31BDB73C6B64559C4E394253776A9B6A32BDBFA10F88273D559665B8CE4F4C6D6D376E027829785998AE99694991ACC2E677F5A32A28CDA569411296F6C193DD29C38A4543CA6F2C98989224EB2DD399E532FEC8B4D04291E07420B222853B014F30C52ACDA
310
28AF3F1CDB6EE0BBFA7BE0EB7FB36A727A955BF9D3D79F32A9088B0E940DC44CBCE9E2EEE2F27A74399D4E46D37717DE68B69C2D46DEFBC978FE6E3EBFBEBDBB8662A90424194B04DDDAC147C446A491EFD69F5A8B8DE1C74C8A386334AAFC878795CD46624C0BCA62E431A512DA3A5E8FFB434FC7A6F379A2C7466577FA3C
310
AFBA3B3A821ADB9B67D7521EFE0517E439A810926A54D5F1318ED6F81BEFA316729E996FA9B472A2A84849666569288878B5032CD54B02BF2746A35368846B0FECC0DBCBEBDA8AD2F835768F59B92DB34C43D30E2A646F807FAA646559FA938AE3DA60137255A64C5D1987D46B41EDE0DA77ABC9C0D78FC985F95807D2DA66
310
2441CAE166FD75E0E85CD7DE6A61079F96E16EADEBF1B8F242F0820AA5E1036835896B9E3A4A46AD7756E6F40638D38BF93E28DF10F9CF28DFBD29C89B4877D3DDD468518230B9E522476E9C71F5B3C6CDCBA87D3B7C019F0D561FAE6967FED562DF6D8DED13C6A9FC015C3A3557FF3D7FFD987591DA495FE03FA3C0B89898
310
50AE2392817AEE53868468505A19C714B87C1BEEEC6005A604B36317C9823620072FBEFB8CEFF8AF6583AD2AF59D274342077C7B06F323965559C0B6136039E0C94AB171EE54CC2FFF979AB95DAC3FAD4BB12511BD37C4B2A0DB94A50A67E71EBC5D837A89E879F4445F5FB888E1E86112D6DD24E4469544B475CC75E093E6
310
B0D083BDE69E8208FB12AE39CFFF8586FB544634CB08A3BC6CB4B4C790C66A4B32A64F4015D6019D5C0C502CE873AA3B89DE8A9E5938EB2391163A64EDA1D7F2B473C297EFABCF00A51DCC5EFF20AF5DC20CF7741FF18C8B4DF8BAA999D006F8B0A78FEE1F7D789B88BA5A0A105F61B9A11C13E24D9C6EB7A504EF1E89E28F
310
D5BC9BA996480E5F9A026A34D63539053BA3F68830F06D74A2211004073B679B14C738CAF2A8F2AEEEA10259C93D213F2CF36243725E32754E98C68D3F8DF5ADF06E17235F888A1EED605D3D473350764CE31309D547D0119F7AE979FFFEEA6E727BBD1C79B74BB4529717CBD1D5E5DC1B79B3B977395B4C96EF2638E6FA15
310
D09C50DD1A44347122FAA5484D98BFAFF6656B07F74449F7635D506E523FBFAF1CB4C5BE8B3D0078BB71951719CD295344C3F75EBF64DF08BA8A9E8C7A7E9593849E21E5CBC7F5C006CC9CB1EFAB2E35FA32D86B66E7BA168E0A518F651E329266838DC671A7608971BB0965FBAC19BD19EA918927FA50C9B33406E1C45642
310
794E1568E70CB6173995404CB72B8FCDEDE18CDDCF753FA84898D1C6924782963893403548A78C547FDEFA0D2D9CEEA26E6C1C76CE13FE4C21DA16527D6383DF541A51E984381E75E353090704D085B52408D0139664E8ACEB4DEDB8DDA56303FAC10968F4B74BCEE9968C5F3DE2CD4951E0D4EED16A659B5110FD23C71B73
310
2CA2F01A96AAF5653FD13A53A909C03570A77DA0857832AA77A8AFB7DDF29C6A4D2F2267DD93DE04412D75A48848AA7B810EBA31E976F1D5452B60ADBE58455626C8E5F992468202CCA52E70A008A830320BA200D5F9EF0F5F05C75D34B7962920F030E779CE9919DC9ABBACB57EC4CD347E002D507DFD901763CF7BA8BA7E
310
7311D984445287C4F209134DC1690F065803200F8E53733D73750E06CB570BCB1C185308AD407BD094D6D7700BC5A36F8EBA54BA6459BCD9F8BBD552A040A0650FFE06504B0304140006080000AC70623B000000000000000000000000350000006662782F33394334313030352D393437462D344341332D393833322D3144
310
373644414336394143352F76657274696365732E62696E504B0304140006080800AC70623BF270F1330600000004000000360000006662782F33394334313030352D393437462D344341332D393833322D3144373644414336394143352F747269616E676C65732E62696E636660600000504B0304140006080000AC70623B
310
000000000000000000000000370000006662782F33394334313030352D393437462D344341332D393833322D3144373644414336394143352F617474726962757465732E62696E504B0304140006080800AC70623B08DA0BD19000000041010000360000006662782F33394334313030352D393437462D344341332D393833
310
322D3144373644414336394143352F6469726563746F72792E786D6C858F410AC3201045AF22B36F53E9A60B35CBEEBAE80D244E44489C6234F4F835464A48035D0DF398FF9F8AF63D0E6CC63039F212F8F9020C7D47C6792B21C5FE7403D62A1188E2E60C98D7234A5830286103A55745067B9D86B8A3CF9C7F90C11DE607
310
FB144396D7B6A82D282E9A152AD114D5EF2CB866EEE831B8EEA07A7BB5A8D7D61A2BAAEB7FD5F70921FF497D00504B0304140006080800AC70623B95BFD5E5FE000000A00100003B0000006662782F33394334313030352D393437462D344341332D393833322D3144373644414336394143352F7265736F75726365732F63
310
6F72652E786D6C8D50596E833010BD0A9ADFCA603B1B41C611699213F40296992456828DBC543D7E4DA052FBD79F99D15B344F4F1CBE8667F1893E18675B60258502AD76BDB1B71652BC921A8A8314DEB9F84B06855503B630C120C5CDBB342E907636A28D19B5AEC70554216084423FF3D142D0771C54A952CC8AF02847A5
310
1FEA86252B339D755284E87380627E324D901E834B5E6310D5CC4A9192E9178DE9F34F7335E841EE38DBEEF8A5239B13ADC9FA589FC971F77E2217BEDDAFB61DEBE8B916D56496229AE127A3F6A822F62039A57BC218A1FC83AD1BBA69F8E68DD60DA5A29AE47F4C69ECFF694AC6C6155FE2CEB60092E5202F428A6AEA2BAF
310
5799794FDDCA6F504B010214000A0000080000AC70623B3DEE336E79000000790000001B00000000000000000000000000000000006175746F6465736B2D64657369676E2D7061636B6167652E786D6C504B01021400140006080800AC70623BD486FD9CA0000000F40000001300000000000000000000000000B20000005B
310
436F6E74656E745F54797065735D2E786D6C504B01021400140006080800AC70623BFD5588D4EC0000007C010000080000000000000000000000000083010000636F72652E786D6C504B01021400140006080800AC70623B55019EA25F0000007C000000070000000000000000000000000095020000636E782E786D6C504B
310
01021400140006080800AC70623BB5D38BAD72010000D40300000C00000000000000000000000000190300006662782F636F72652E786D6C504B01021400140006080800AC70623B09885E1C7E0000009D0000000B00000000000000000000000000B50400006662782F636E782E786D6C504B01021400140006080800AC70
310
623B961D28872A0100001202000031000000000000000000000000005C0500006662782F33394334313030352D393437462D344341332D393833322D3144373644414336394143352F636F72652E786D6C504B01021400140006080800AC70623B503B51794E010000330300003000000000000000000000000000D5060000
310
6662782F33394334313030352D393437462D344341332D393833322D3144373644414336394143352F636E782E786D6C504B01021400140006080800AC70623B2EA4D28F640500003C1000003400000000000000000000000000710800006662782F33394334313030352D393437462D344341332D393833322D3144373644
310
414336394143352F6F626A656374732E786D6C504B01021400140006080000AC70623B0000000000000000000000003500000000000000000000000000270E00006662782F33394334313030352D393437462D344341332D393833322D3144373644414336394143352F76657274696365732E62696E504B01021400140006
310
080800AC70623BF270F133060000000400000036000000000000000000000000007A0E00006662782F33394334313030352D393437462D344341332D393833322D3144373644414336394143352F747269616E676C65732E62696E504B01021400140006080000AC70623B0000000000000000000000003700000000000000
310
000000000000D40E00006662782F33394334313030352D393437462D344341332D393833322D3144373644414336394143352F617474726962757465732E62696E504B01021400140006080800AC70623B08DA0BD190000000410100003600000000000000000000000000290F00006662782F33394334313030352D393437
310
462D344341332D393833322D3144373644414336394143352F6469726563746F72792E786D6C504B01021400140006080800AC70623B95BFD5E5FE000000A00100003B000000000000000000000000000D1000006662782F33394334313030352D393437462D344341332D393833322D3144373644414336394143352F7265
310
736F75726365732F636F72652E786D6C504B0506000000000E000E0080040000641100000000
  0
XRECORD
  5
572
102
{ACAD_REACTORS
330
10B
102
}
330
10B
100
AcDbXrecord
280
     1
102
MATERIAL
148
0.0
149
0.0
149
0.0
 93
        0
 94
       63
282
     0
 72
     1
 77
     1
171
     1
175
     1
179
     1
273
     0
  0
XRECORD
  5
10D
102
{ACAD_REACTORS
330
10B
102
}
330
10B
100
AcDbXrecord
280
     1
270
     1
271
     1
  0
XRECORD
  5
10C
102
{ACAD_REACTORS
330
10B
102
}
330
10B
100
AcDbXrecord
280
     1
270
     1
271
     1
  0
XRECORD
  5
187
102
{ACAD_REACTORS
330
10B
102
}
330
10B
100
AcDbXrecord
280
     1
 70
     0
 90
1778669749
  1
7E355024-1ABF-47F9-966E-F2159FBE82AB
310
504B03040A0000080000AC70623B3DEE336E79000000790000001B0000006175746F6465736B2D64657369676E2D7061636B6167652E786D6C3C3F786D6C2076657273696F6E3D22312E302220656E636F64696E673D227574662D3822203F3E3C666F726D6174733E3C666F726D61743E687474703A2F2F736368656D612E
310
6175746F6465736B2E636F6D2F64657369676E2D7061636B6167652F323030393C2F666F726D61743E3C2F666F726D6174733E504B0304140006080800AC70623BD486FD9CA0000000F4000000130000005B436F6E74656E745F54797065735D2E786D6C7D8EC10E82300C865F65E91D8A1E8C310C0EEA1BF002731658846E
310
D98AC1B77784ABF1D8FE5FBFBF75BBCE937A534CCEB38643598122B6FEE978D0B0485F9C41B54DDD7D022595594E1A469170414C76A4D9A4D207E29CF43ECE46F218070CC6BECC4078ACAA135ACF422C856C0E68EA1BF5669944DDD7BCDE7B1F8E415D77AECB980613C2E4AC91FC167A2B244592486606FC29C8FD7F045B9A
310
EF7053A7E60B504B0304140006080800AC70623BDCE527C8EB0000007C01000008000000636F72652E786D6C8D90416EC3201045AF82665B6103B15DC7C24471249FA01740405C94182C03558F5F9C3852BBEB6A467FFE9B197D7EFA9EEFE8CBACC17AD7032D0820E394D7D64D3DA478C52DA093E0ABF7F1970D9093B3E961
310
9341F069F569D925E55D342E66D5796D76518660222075CF4D0F417D9A591632C5EC08B76291EA262753D05797E194AC46CF2356E77DF66ACD0A621C9B73335C463C5E0E1457EC9DE2A1612D3E9233A92BD2D66333F07283058F767EDD57AB91D168108C9023A61413F641AB8ED41DABDF48DB11C2CBCDFE074A8BFE2794AC
310
8B07B6BFFBC402089A1F790C042FB72C72790495EB969BF801504B0304140006080800AC70623B55019EA25F0000007C00000007000000636E782E786D6C4DCB3B0E80201045D1AD90E915ED2CF8AC45050C11660C8261F98AB1B07AC9C97D42D718D865D3E909258CFD00CCE24AC6E326A164D74DC0B4128928FF32603847
310
2BA13128B1252AC747C6BAB984FC68F0B87FE8960A5C09FE86CFB69FBA01504B0304140006080800AC70623BB24894EB71010000D40300000C0000006662782F636F72652E786D6CC5535B6E833010BC8AE5DF0A6C085012194749244ED00B38E05014B091B1518EDFE511A5A9D228FD2A1F60CDEC7A67C6986D2F6D830669
310
FA5AAB0C073EC548AA4297B5AA32ECECC94B31DA7266B4B6DFCA3052A295191E61CC5965B4EB16A8D0CA4A650155BA940B28FA5E5A8C8A061619EE8B4FD90A5F380B15FDD9EF44711695F4031F68A8E3ACB70604A079C8F8C6FC74BC3032E39C3957970B5B9730AD3ED5D2609EE7C92ED91F722F3FAC022F0ADF036F9F84A9
310
B7A63B1A47348DF364CFC8D8CC99ADDBABBAC2486165897948E9DA0B028F861F41B4A1F1268CDF68BAA19491B1FCAEC975E58B4DAE5676152E72E7B61EF300844CC40FB7109145BD18400FE18C8C21C2674AF83E68080442B6E2D85C7D9C011A6461B5898029B5BB5183689C84A9D4A7D3837E5F303277C2D4697370FD7046
310
F8F28CE73BC2510B5581096161797476D4C9660D4B689D34DE602F4869D38AE6351B4F1CFE89BA897F28A9D08D36FFA5882C074496DF838CF7917F01504B0304140006080800AC70623B3A54DFB77D0000009D0000000B0000006662782F636E782E786D6C4DCCD10A83201805E05791FFDEA5EBA76DA046A37C8F581632D3
310
613AF6F8B3D1C52E0E073E0E47B49FD591B7899B0D5E023F3120C63FC264FD2221A7995E81B44AC410D2DF0C881F5723616750628921BF0E9ACC3C66978A3AEB9F07B2A6D77AB87514F95953EC39D20EEF9C6AD60C88BC2EB940A544F57B2ABD1FAB2F504B0304140006080800AC70623B4A17098729010000120200003100
310
00006662782F30364446464539412D343132462D344431342D413442312D4630364534343133343431372F636F72652E786D6C8D515B6EC32010BC0AE22B55850D0E76930813A54A7C825E80DA244589C1E251E5F85D6A476AFFF2018B7667666759B1BF8F37F4AD7D30CEB6981514236D7B37187B69718A67B2C1682F8577
310
2EFE816164D5A85B9CD3588A8B77695A52BDB351DB0859EB06BD2455083A62D4DFE0D1E2D07FE951152A4540846B31A9FEAA2EBA600594012745881E0CA0B949BEB1A4CDB1EB4EDB03E1ACEA083F324E0EFC9D918E3627CED91ACE9B2867A214299961A19B01EC98B3D1FE59914C96229AF161BFF75A453D605951BA258C11
310
5A7D30BEA3F5AEAA5FE96647A92833FC1F294DC393A4646C5C578BDD9916B064A29C0B520C2E7DDE1E66F47D723EA2DC6F1574FF02531594D6AC69443903617C506CF8A218A2F3F0BDABEB2760593DCB365C8A326F08C2EFFA20E66DCA1F504B0304140006080800AC70623B503B51794E0100003303000030000000666278
310
2F30364446464539412D343132462D344431342D413442312D4630364534343133343431372F636E782E786D6CD593C16EC32010447F0571AD6CE3D489D20813A9877E410FBD62D82434182CC055F3F75D1292E692438FBD206B7698593D61BEFD1E2DF982108D773D6D6B460938E5B571FB9ECE6957AD29D90A1EBC4F7736
310
4A9C1CA1A759A682EF839FA72269D8C9D92654AD71C72206887E0E0A22CAF926B15E498B01E0AA19451807D01A34B919F16B070157417138917400F2F6FA41FCF0092A45DEE414C19BDC21783E4BD39D891265658C3D8DEA00A3ACE59CBC8678ACB54CB26EEB6BD7839D7E9348BE70AD9C8321B9BCA7F9A4A26C542347DEE0
310
50F09802D22BA6749A800A394DD62899107273365E3C82CFC6A55557BC06C10774B7ABE7AEC3B0F34CF06446280E154026D0542C187BA9DAB6628BF7B6DBB0E566B17C62EB0D63BCC976C107EF6DB9843110FC449477095CA2A2E54D1E3FC2577C449B80AC7D38FD01240228AD173AB78CFFCCA739BF6FC415F02F103F504B
310
0304140006080800AC70623BD8F6D0D5660500003B100000340000006662782F30364446464539412D343132462D344431342D413442312D4630364534343133343431372F6F626A656374732E786D6CAD575B8F9B3814FE2B887D064292B964C5504D92491555D3568D5AEDC348910187610730B2CD4C667FFD7E06438024
310
6DF6928780CDF1B97EE762EFC33E4B8D57CA45C2F23BD3B547A641F39045491EDF99A5DC59B7A6F1C1F73863B243661A39C9E89DA9B64DDF8B392B0BBD15D11D295339D85DCDFF304448736A1A614A84B83345F84C33629352B2888A173B2292D8F16E6FBB764DD8671B73523C0F981684D35C4253ECE7E062D44AB9FDE5C8
310
747CCF51DF7D4FFD6BAAC9792AA7B2A72F3FC985247978246CC066E24E970FE3AB9975359D4EACE9F5D8B5E6ABF9D2726F26A3C5F56231BB7F9841B0901C9CB4269CEE4CFF237CC393D073EA4FADC65AF1532A852CCF6958D90F0B2B9D35C78816348F10C7840A48EB583DEA2F5DE59BCEE7895A6B91DDEDCBACEA9EE8306A
310
746F9E5D4D59F0274C1097A0820BAA5055FB471B5AE36F74F05AC058AABF25C2C888A43C21A991260127FCDDF441AA487CAFC746A1932B842B0B4CDF3DF0EBEA8AD4F835764F69B92BD35441D3F42B646F817F2A45A559F217E5A7A54127C4AA4C7279AB0D92EF0535FD99E7549BBEA71E93B1FE583BD2D8A52446C86166FD
310
7560E842E5DE7A69FA9F56C17EA3F2F1B4F082B38272A9E0036835816B9ECA4B5AAC7B51E4D40118D3F3F9C129DFE0F9CF48DF832A881B4FF6D3FD544B919CE462C77886D8D8A3EA678C9A17AB7D3B7E413D1B501FD3B43BFF8AD8735A65FB05E35CFC002E159ADBFF1EBFBECFBA48ED84CFF75E91608C4FB42B372149517A
310
1E931C0151A03452862DD4F25DB037FD352A252A3B4E91D46F1D72F4E239AFF88EFF9A37AA5525BEF3CC11D041BDBDA0F2C397555A40B7336039AA9395606DDC399F5FFD2F3973BFDC7CDA947C4742FAA80BCB92EE923C91E89D07F07615EA05A267D10B7D7F633C82A1C741D8748390695102DE563E578E8F9B66A11607C9
310
3D0121CEC54CD53CEF17121E1311D2342539656523A56D430AAB6D91D17302B2B076E8643C4031A7AF899A247A143DB5D0EB439E14CA656DD36BEBB47DC696EFEBCF0025E8531690F440141CAA7DC852C6B7C1FBB62E8426B087237D70FFE8A35B3BD4515C00F80ACA4DC5D11EDE46C96E570A94DD134EFCB15E7403D5D691
310
E397267F1A89754A4E519C917A846BF43632310F7082BECEF26D822E8EAC3C29BC2B7B2840547CCFF00FCAACD8928C95B9BCC44DA3C69E46FB96797788116F4486CFA6BFA99ED61C153BA2D121543D10A80E74C2A65E786E1E265757A3F1D472EFE72B6B7AB39A59B3EBEB076B3576AF66ABF9C3EDF87EDE6A5469E27B4D83
310
EAA620BC8986E8953CD16EFEBE3E64ADE93F12299C8F753E3971FDFCBEB631157B0ECE00DFEDC17556A434A3B9240ABD8FEA25FD463054F478D4FBEB8CC4F4022E5F3E6E063A60E782735F55A6D1B7C159BDBB50B97092897C2EB32027493A38A80DB78B3CD66637AE6C9F75416F966AA5FD893154B03489506F2223A62CA3
310
1255E78262CF332A8098EE501EE9CBC305A75FEB71509220A58D26CF0413712A806AC0AD0C657FDFF80D139C1AA2EE4CF43AFB057F3A114D03A1BE3351DE6412526107E88E6AEEA998030218C2DA1A08A8913C4E3158D787DA757B4AF906E5070D50CB6F492E1996B45DBDBA9B91A240D3EE55D54A372D20FC478637EA1844
310
E23528656BCB61A335A61283CCAA8DD257034C102F5AF41EF9F573B35CBBA2E979E4A26BD24F415073B524E171752D50FA6995EE975F1D4C02C6FA8B51A4658C585ECEC9E214602E558203454085E6591009A82E7E7FFACA19AEA299B14A0081A705CB3296EBC5BDBECA1A9B675C4CA3279405AA6E1F623C72DDA76AE8D7F7
310
906D4004B549245EB0D1249CB260803500F2A89BEA10382A0603F2F5D2D00D630AA615688F66D2FA166E2079D4C551A54AB758163F9DFB9D8A1460E098D8FDBF01504B0304140006080000AC70623B000000000000000000000000350000006662782F30364446464539412D343132462D344431342D413442312D46303645
310
34343133343431372F76657274696365732E62696E504B0304140006080800AC70623BF270F1330600000004000000360000006662782F30364446464539412D343132462D344431342D413442312D4630364534343133343431372F747269616E676C65732E62696E636660600000504B0304140006080000AC70623B0000
310
00000000000000000000370000006662782F30364446464539412D343132462D344431342D413442312D4630364534343133343431372F617474726962757465732E62696E504B0304140006080800AC70623B08DA0BD19000000041010000360000006662782F30364446464539412D343132462D344431342D413442312D
310
4630364534343133343431372F6469726563746F72792E786D6C858F410AC3201045AF22B36F53E9A60B35CBEEBAE80D244E44489C6234F4F835464A48035D0DF398FF9F8AF63D0E6CC63039F212F8F9020C7D47C6792B21C5FE7403D62A1188E2E60C98D7234A5830286103A55745067B9D86B8A3CF9C7F90C11DE607FB14
310
4396D7B6A82D282E9A152AD114D5EF2CB866EEE831B8EEA07A7BB5A8D7D61A2BAAEB7FD5F70921FF497D00504B0304140006080800AC70623BB40F7AF9FE000000A00100003B0000006662782F30364446464539412D343132462D344431342D413442312D4630364534343133343431372F7265736F75726365732F636F72
310
652E786D6C8D504B6E833010BD0A9A6D65B00950828CA3109513F4029699502BC146FE543D7E4D42A576D7CDCCE87D344F8F9FBE967BF689CE6B6B7A6039850C8DB29336730F315C490BD94970676DF82583CCC8057BD860107C7636AE3BA4AC096842428D9D7007A5F7182053F774F4E0D5072E3297312485BFE5AB543739
310
63CEF244279DE03EB814207B3ED9260887DE46A7D0F3E2C90A1EA39E768D9ED24F7DD5E8408C63736E86CB1B192F0746AAF29591A1295B72A4675A57B4ADC766E0C566163CE8E527A37228034E204A4A8F843142CB775675B4EECAFA85B61DA5BCD8E47F4C719DFE698ADA8443B9C77DDA3C0896823C08C18BADAFB41E65A6
310
BD752BBE01504B010214000A0000080000AC70623B3DEE336E79000000790000001B00000000000000000000000000000000006175746F6465736B2D64657369676E2D7061636B6167652E786D6C504B01021400140006080800AC70623BD486FD9CA0000000F40000001300000000000000000000000000B20000005B436F
310
6E74656E745F54797065735D2E786D6C504B01021400140006080800AC70623BDCE527C8EB0000007C010000080000000000000000000000000083010000636F72652E786D6C504B01021400140006080800AC70623B55019EA25F0000007C000000070000000000000000000000000094020000636E782E786D6C504B0102
310
1400140006080800AC70623BB24894EB71010000D40300000C00000000000000000000000000180300006662782F636F72652E786D6C504B01021400140006080800AC70623B3A54DFB77D0000009D0000000B00000000000000000000000000B30400006662782F636E782E786D6C504B01021400140006080800AC70623B
310
4A17098729010000120200003100000000000000000000000000590500006662782F30364446464539412D343132462D344431342D413442312D4630364534343133343431372F636F72652E786D6C504B01021400140006080800AC70623B503B51794E010000330300003000000000000000000000000000D10600006662
310
782F30364446464539412D343132462D344431342D413442312D4630364534343133343431372F636E782E786D6C504B01021400140006080800AC70623BD8F6D0D5660500003B10000034000000000000000000000000006D0800006662782F30364446464539412D343132462D344431342D413442312D46303645343431
310
33343431372F6F626A656374732E786D6C504B01021400140006080000AC70623B0000000000000000000000003500000000000000000000000000250E00006662782F30364446464539412D343132462D344431342D413442312D4630364534343133343431372F76657274696365732E62696E504B010214001400060808
310
00AC70623BF270F13306000000040000003600000000000000000000000000780E00006662782F30364446464539412D343132462D344431342D413442312D4630364534343133343431372F747269616E676C65732E62696E504B01021400140006080000AC70623B00000000000000000000000037000000000000000000
310
00000000D20E00006662782F30364446464539412D343132462D344431342D413442312D4630364534343133343431372F617474726962757465732E62696E504B01021400140006080800AC70623B08DA0BD190000000410100003600000000000000000000000000270F00006662782F30364446464539412D343132462D
310
344431342D413442312D4630364534343133343431372F6469726563746F72792E786D6C504B01021400140006080800AC70623BB40F7AF9FE000000A00100003B000000000000000000000000000B1000006662782F30364446464539412D343132462D344431342D413442312D4630364534343133343431372F7265736F
310
75726365732F636F72652E786D6C504B0506000000000E000E0080040000621100000000
  0
XRECORD
  5
10E
102
{ACAD_REACTORS
330
10B
102
}
330
10B
100
AcDbXrecord
280
     1
270
     1
271
     1
  0
XRECORD
  5
10F
102
{ACAD_REACTORS
330
10B
102
}
330
10B
100
AcDbXrecord
280
     1
270
     1
271
     1
  0
CELLSTYLEMAP
  5
560
102
{ACAD_REACTORS
330
FF
102
}
330
FF
100
AcDbCellStyleMap
 90
        3
300
CELLSTYLE
  1
TABLEFORMAT_BEGIN
 90
        5
170
     1
 91
        0
 92
    32768
 62
   257
 93
        1
300
CONTENTFORMAT
  1
CONTENTFORMAT_BEGIN
 90
        0
 91
        0
 92
      512
 93
        0
300

 40
0.0
140
1.0
 94
        5
 62
     0
340
11
144
0.25
309
CONTENTFORMAT_END
171
     1
301
MARGIN
  1
CELLMARGIN_BEGIN
 40
0.06
 40
0.06
 40
0.06
 40
0.06
 40
0.18
 40
0.18
309
CELLMARGIN_END
 94
        6
 95
        1
302
GRIDFORMAT
  1
GRIDFORMAT_BEGIN
 90
        0
 91
        1
 62
     0
 92
       -2
340
0
 93
        0
 40
0.045
309
GRIDFORMAT_END
 95
        2
302
GRIDFORMAT
  1
GRIDFORMAT_BEGIN
 90
        0
 91
        1
 62
     0
 92
       -2
340
0
 93
        0
 40
0.045
309
GRIDFORMAT_END
 95
        4
302
GRIDFORMAT
  1
GRIDFORMAT_BEGIN
 90
        0
 91
        1
 62
     0
 92
       -2
340
0
 93
        0
 40
0.045
309
GRIDFORMAT_END
 95
        8
302
GRIDFORMAT
  1
GRIDFORMAT_BEGIN
 90
        0
 91
        1
 62
     0
 92
       -2
340
0
 93
        0
 40
0.045
309
GRIDFORMAT_END
 95
       16
302
GRIDFORMAT
  1
GRIDFORMAT_BEGIN
 90
        0
 91
        1
 62
     0
 92
       -2
340
0
 93
        0
 40
0.045
309
GRIDFORMAT_END
 95
       32
302
GRIDFORMAT
  1
GRIDFORMAT_BEGIN
 90
        0
 91
        1
 62
     0
 92
       -2
340
0
 93
        0
 40
0.045
309
GRIDFORMAT_END
309
TABLEFORMAT_END
  1
CELLSTYLE_BEGIN
 90
        1
 91
        1
300
_TITLE
309
CELLSTYLE_END
300
CELLSTYLE
  1
TABLEFORMAT_BEGIN
 90
        5
170
     1
 91
        0
 92
        0
 62
   257
 93
        1
300
CONTENTFORMAT
  1
CONTENTFORMAT_BEGIN
 90
        0
 91
        0
 92
      512
 93
        0
300

 40
0.0
140
1.0
 94
        5
 62
     0
340
11
144
0.18
309
CONTENTFORMAT_END
171
     1
301
MARGIN
  1
CELLMARGIN_BEGIN
 40
0.06
 40
0.06
 40
0.06
 40
0.06
 40
0.18
 40
0.18
309
CELLMARGIN_END
 94
        6
 95
        1
302
GRIDFORMAT
  1
GRIDFORMAT_BEGIN
 90
        0
 91
        1
 62
     0
 92
       -2
340
0
 93
        0
 40
0.045
309
GRIDFORMAT_END
 95
        2
302
GRIDFORMAT
  1
GRIDFORMAT_BEGIN
 90
        0
 91
        1
 62
     0
 92
       -2
340
0
 93
        0
 40
0.045
309
GRIDFORMAT_END
 95
        4
302
GRIDFORMAT
  1
GRIDFORMAT_BEGIN
 90
        0
 91
        1
 62
     0
 92
       -2
340
0
 93
        0
 40
0.045
309
GRIDFORMAT_END
 95
        8
302
GRIDFORMAT
  1
GRIDFORMAT_BEGIN
 90
        0
 91
        1
 62
     0
 92
       -2
340
0
 93
        0
 40
0.045
309
GRIDFORMAT_END
 95
       16
302
GRIDFORMAT
  1
GRIDFORMAT_BEGIN
 90
        0
 91
        1
 62
     0
 92
       -2
340
0
 93
        0
 40
0.045
309
GRIDFORMAT_END
 95
       32
302
GRIDFORMAT
  1
GRIDFORMAT_BEGIN
 90
        0
 91
        1
 62
     0
 92
       -2
340
0
 93
        0
 40
0.045
309
GRIDFORMAT_END
309
TABLEFORMAT_END
  1
CELLSTYLE_BEGIN
 90
        2
 91
        1
300
_HEADER
309
CELLSTYLE_END
300
CELLSTYLE
  1
TABLEFORMAT_BEGIN
 90
        5
170
     1
 91
        0
 92
        0
 62
   257
 93
        1
300
CONTENTFORMAT
  1
CONTENTFORMAT_BEGIN
 90
        0
 91
        0
 92
      512
 93
        0
300

 40
0.0
140
1.0
 94
        2
 62
     0
340
11
144
0.18
309
CONTENTFORMAT_END
171
     1
301
MARGIN
  1
CELLMARGIN_BEGIN
 40
0.06
 40
0.06
 40
0.06
 40
0.06
 40
0.18
 40
0.18
309
CELLMARGIN_END
 94
        6
 95
        1
302
GRIDFORMAT
  1
GRIDFORMAT_BEGIN
 90
        0
 91
        1
 62
     0
 92
       -2
340
0
 93
        0
 40
0.045
309
GRIDFORMAT_END
 95
        2
302
GRIDFORMAT
  1
GRIDFORMAT_BEGIN
 90
        0
 91
        1
 62
     0
 92
       -2
340
0
 93
        0
 40
0.045
309
GRIDFORMAT_END
 95
        4
302
GRIDFORMAT
  1
GRIDFORMAT_BEGIN
 90
        0
 91
        1
 62
     0
 92
       -2
340
0
 93
        0
 40
0.045
309
GRIDFORMAT_END
 95
        8
302
GRIDFORMAT
  1
GRIDFORMAT_BEGIN
 90
        0
 91
        1
 62
     0
 92
       -2
340
0
 93
        0
 40
0.045
309
GRIDFORMAT_END
 95
       16
302
GRIDFORMAT
  1
GRIDFORMAT_BEGIN
 90
        0
 91
        1
 62
     0
 92
       -2
340
0
 93
        0
 40
0.045
309
GRIDFORMAT_END
 95
       32
302
GRIDFORMAT
  1
GRIDFORMAT_BEGIN
 90
        0
 91
        1
 62
     0
 92
       -2
340
0
 93
        0
 40
0.045
309
GRIDFORMAT_END
309
TABLEFORMAT_END
  1
CELLSTYLE_BEGIN
 90
        3
 91
        2
300
_DATA
309
CELLSTYLE_END
  0
XRECORD
  5
593
102
{ACAD_REACTORS
330
FF
102
}
330
FF
100
AcDbXrecord
280
     1
102
ACAD_ROUNDTRIP_PRE2007_TABLESTYLE
 90
      512
 91
        0
  1

 92
      512
 93
        0
  2

 94
      512
 95
        0
  3

  0
XRECORD
  5
57E
102
{ACAD_REACTORS
330
57D
102
}
330
57D
100
AcDbXrecord
280
     1
102
RTVSPost2010Prop28
280
     1
102
RTVSPost2010PropOp28
 70
     1
102
RTVSPost2010Prop29
280
     1
102
RTVSPost2010PropOp29
 70
     1
102
RTVSPost2010Prop30
280
     0
102
RTVSPost2010PropOp30
 70
     1
102
RTVSPost2010Prop31
280
     0
102
RTVSPost2010PropOp31
 70
     1
102
RTVSPost2010Prop32
280
     0
102
RTVSPost2010PropOp32
 70
     1
102
RTVSPost2010Prop33
280
     0
102
RTVSPost2010PropOp33
 70
     1
102
RTVSPost2010Prop34
280
     0
102
RTVSPost2010PropOp34
 70
     1
102
RTVSPost2010Prop35
280
     0
102
RTVSPost2010PropOp35
 70
     1
102
RTVSPost2010Prop36
280
     0
102
RTVSPost2010PropOp36
 70
     1
102
RTVSPost2010Prop37
 90
       50
102
RTVSPost2010PropOp37
 70
     1
102
RTVSPost2010Prop38
140
0.0
102
RTVSPost2010PropOp38
 70
     1
102
RTVSPost2010Prop39
140
1.0
102
RTVSPost2010PropOp39
 70
     1
102
RTVSPost2010Prop40
 90
        0
102
RTVSPost2010PropOp40
 70
     1
102
RTVSPost2010Prop41ColorIndex
 90
       18
102
RTVSPost2010Prop41ColorRGB
 90
        0
102
RTVSPost2010PropOp41
 70
     1
102
RTVSPost2010Prop42
 90
       50
102
RTVSPost2010PropOp42
 70
     1
102
RTVSPost2010Prop43
 90
        3
102
RTVSPost2010PropOp43
 70
     1
102
RTVSPost2010Prop44ColorIndex
 90
        5
102
RTVSPost2010Prop44ColorRGB
 90
      255
102
RTVSPost2010PropOp44
 70
     1
102
RTVSPost2010Prop45
280
     0
102
RTVSPost2010PropOp45
 70
     1
102
RTVSPost2010Prop46
 90
       50
102
RTVSPost2010PropOp46
 70
     1
102
RTVSPost2010Prop47
 90
       50
102
RTVSPost2010PropOp47
 70
     1
102
RTVSPost2010Prop48
 90
       50
102
RTVSPost2010PropOp48
 70
     1
102
RTVSPost2010Prop49
280
     0
102
RTVSPost2010PropOp49
 70
     1
102
RTVSPost2010Prop50
 90
       50
102
RTVSPost2010PropOp50
 70
     1
102
RTVSPost2010Prop51ColorIndex
 90
      256
102
RTVSPost2010Prop51ColorRGB
 90
-16777216
102
RTVSPost2010PropOp51
 70
     0
102
RTVSPost2010Prop52
140
1.0
102
RTVSPost2010PropOp52
 70
     0
102
RTVSPost2010Prop53
 90
        2
102
RTVSPost2010PropOp53
 70
     1
102
RTVSPost2010Prop54
  1
strokes_ogs.tif
102
RTVSPost2010PropOp54
 70
     1
102
RTVSPost2010Prop55
280
     0
102
RTVSPost2010PropOp55
 70
     1
102
RTVSPost2010Prop56
140
1.0
102
RTVSPost2010PropOp56
 70
     1
102
RTVSPost2010Prop57
140
1.0
102
RTVSPost2010PropOp57
 70
     1
102
RTVSPropertyOp0
 70
     1
102
RTVSPropertyOp1
 70
     1
102
RTVSPropertyOp2
 70
     1
102
RTVSPropertyOp3
 70
     1
102
RTVSPropertyOp4
 70
     1
102
RTVSPropertyOp5
 70
     1
102
RTVSPropertyOp6
 70
     1
102
RTVSPropertyOp7
 70
     1
102
RTVSPropertyOp8
 70
     1
102
RTVSPropertyOp9
 70
     1
102
RTVSPropertyOp10
 70
     1
102
RTVSPropertyOp11
 70
     1
102
RTVSPropertyOp12
 70
     1
102
RTVSPropertyOp13
 70
     1
102
RTVSPropertyOp14
 70
     1
102
RTVSPropertyOp15
 70
     1
102
RTVSPropertyOp16
 70
     1
102
RTVSPropertyOp17
 70
     1
102
RTVSPropertyOp18
 70
     1
102
RTVSPropertyOp19
 70
     1
102
RTVSPropertyOp20
 70
     1
102
RTVSPropertyOp21
 70
     1
102
RTVSPropertyOp22
 70
     1
102
RTVSPropertyOp23
 70
     1
102
RTVSPropertyOp24
 70
     1
102
RTVSPropertyOp25
 70
     1
102
RTVSPropertyOp26
 70
     1
102
RTVSPropertyOp27
 70
     1
102
RTVSPropertyOp28
 70
     1
102
RTVSPropertyOp29
 70
     1
102
RTVSPropertyOp30
 70
     1
102
RTVSPropertyOp31
 70
     1
102
RTVSPropertyOp32
 70
     1
102
RTVSPropertyOp33
 70
     1
102
RTVSPropertyOp34
 70
     1
102
RTVSPropertyOp35
 70
     1
102
RTVSPropertyOp36
 70
     1
102
RTVSPropertyOp37
 70
     1
102
RTVSPropertyOp38
 70
     1
102
RTVSPropertyOp39
 70
     1
102
RTVSPropertyOp40
 70
     1
102
RTVSPropertyOp41
 70
     1
102
RTVSPropertyOp42
 70
     1
102
RTVSPropertyOp43
 70
     1
102
RTVSPropertyOp44
 70
     1
102
RTVSPropertyOp45
 70
     1
102
RTVSPropertyOp46
 70
     1
102
RTVSPropertyOp47
 70
     1
102
RTVSPropertyOp48
 70
     1
102
RTVSPropertyOp49
 70
     1
102
RTVSPropertyOp50
 70
     1
102
RTVSPropertyOp51
 70
     0
102
RTVSPropertyOp52
 70
     0
102
RTVSPropertyOp53
 70
     1
102
RTVSPropertyOp54
 70
     1
102
RTVSPropertyOp55
 70
     1
102
RTVSPropertyOp56
 70
     1
102
RTVSPropertyOp57
 70
     1
102
RTVSPropertyOp58
 70
     1
102
RTVSPropertyOp59
 70
     1
102
RTVSPropertyOp60
 70
     1
102
RTVSPropertyOp61
 70
     1
102
RTVSPropertyOp62
 70
     1
  0
XRECORD
  5
57C
102
{ACAD_REACTORS
330
57B
102
}
330
57B
100
AcDbXrecord
280
     1
102
RTVSPost2010Prop28
280
     0
102
RTVSPost2010PropOp28
 70
     1
102
RTVSPost2010Prop29
280
     1
102
RTVSPost2010PropOp29
 70
     1
102
RTVSPost2010Prop30
280
     1
102
RTVSPost2010PropOp30
 70
     1
102
RTVSPost2010Prop31
280
     0
102
RTVSPost2010PropOp31
 70
     1
102
RTVSPost2010Prop32
280
     0
102
RTVSPost2010PropOp32
 70
     1
102
RTVSPost2010Prop33
280
     0
102
RTVSPost2010PropOp33
 70
     1
102
RTVSPost2010Prop34
280
     0
102
RTVSPost2010PropOp34
 70
     1
102
RTVSPost2010Prop35
280
     0
102
RTVSPost2010PropOp35
 70
     1
102
RTVSPost2010Prop36
280
     0
102
RTVSPost2010PropOp36
 70
     1
102
RTVSPost2010Prop37
 90
       50
102
RTVSPost2010PropOp37
 70
     1
102
RTVSPost2010Prop38
140
0.0
102
RTVSPost2010PropOp38
 70
     1
102
RTVSPost2010Prop39
140
1.0
102
RTVSPost2010PropOp39
 70
     1
102
RTVSPost2010Prop40
 90
        0
102
RTVSPost2010PropOp40
 70
     1
102
RTVSPost2010Prop41ColorIndex
 90
       18
102
RTVSPost2010Prop41ColorRGB
 90
        0
102
RTVSPost2010PropOp41
 70
     1
102
RTVSPost2010Prop42
 90
       50
102
RTVSPost2010PropOp42
 70
     1
102
RTVSPost2010Prop43
 90
        3
102
RTVSPost2010PropOp43
 70
     1
102
RTVSPost2010Prop44ColorIndex
 90
        5
102
RTVSPost2010Prop44ColorRGB
 90
      255
102
RTVSPost2010PropOp44
 70
     1
102
RTVSPost2010Prop45
280
     0
102
RTVSPost2010PropOp45
 70
     1
102
RTVSPost2010Prop46
 90
       50
102
RTVSPost2010PropOp46
 70
     1
102
RTVSPost2010Prop47
 90
       50
102
RTVSPost2010PropOp47
 70
     1
102
RTVSPost2010Prop48
 90
       50
102
RTVSPost2010PropOp48
 70
     1
102
RTVSPost2010Prop49
280
     0
102
RTVSPost2010PropOp49
 70
     1
102
RTVSPost2010Prop50
 90
       50
102
RTVSPost2010PropOp50
 70
     1
102
RTVSPost2010Prop51ColorIndex
 90
      256
102
RTVSPost2010Prop51ColorRGB
 90
-16777216
102
RTVSPost2010PropOp51
 70
     0
102
RTVSPost2010Prop52
140
1.0
102
RTVSPost2010PropOp52
 70
     0
102
RTVSPost2010Prop53
 90
        2
102
RTVSPost2010PropOp53
 70
     1
102
RTVSPost2010Prop54
  1
strokes_ogs.tif
102
RTVSPost2010PropOp54
 70
     1
102
RTVSPost2010Prop55
280
     0
102
RTVSPost2010PropOp55
 70
     1
102
RTVSPost2010Prop56
140
1.0
102
RTVSPost2010PropOp56
 70
     1
102
RTVSPost2010Prop57
140
1.0
102
RTVSPost2010PropOp57
 70
     1
102
RTVSPropertyOp0
 70
     1
102
RTVSPropertyOp1
 70
     1
102
RTVSPropertyOp2
 70
     1
102
RTVSPropertyOp3
 70
     1
102
RTVSPropertyOp4
 70
     1
102
RTVSPropertyOp5
 70
     1
102
RTVSPropertyOp6
 70
     1
102
RTVSPropertyOp7
 70
     1
102
RTVSPropertyOp8
 70
     1
102
RTVSPropertyOp9
 70
     1
102
RTVSPropertyOp10
 70
     1
102
RTVSPropertyOp11
 70
     1
102
RTVSPropertyOp12
 70
     1
102
RTVSPropertyOp13
 70
     1
102
RTVSPropertyOp14
 70
     1
102
RTVSPropertyOp15
 70
     1
102
RTVSPropertyOp16
 70
     1
102
RTVSPropertyOp17
 70
     1
102
RTVSPropertyOp18
 70
     1
102
RTVSPropertyOp19
 70
     1
102
RTVSPropertyOp20
 70
     1
102
RTVSPropertyOp21
 70
     1
102
RTVSPropertyOp22
 70
     1
102
RTVSPropertyOp23
 70
     1
102
RTVSPropertyOp24
 70
     1
102
RTVSPropertyOp25
 70
     1
102
RTVSPropertyOp26
 70
     1
102
RTVSPropertyOp27
 70
     1
102
RTVSPropertyOp28
 70
     1
102
RTVSPropertyOp29
 70
     1
102
RTVSPropertyOp30
 70
     1
102
RTVSPropertyOp31
 70
     1
102
RTVSPropertyOp32
 70
     1
102
RTVSPropertyOp33
 70
     1
102
RTVSPropertyOp34
 70
     1
102
RTVSPropertyOp35
 70
     1
102
RTVSPropertyOp36
 70
     1
102
RTVSPropertyOp37
 70
     1
102
RTVSPropertyOp38
 70
     1
102
RTVSPropertyOp39
 70
     1
102
RTVSPropertyOp40
 70
     1
102
RTVSPropertyOp41
 70
     1
102
RTVSPropertyOp42
 70
     1
102
RTVSPropertyOp43
 70
     1
102
RTVSPropertyOp44
 70
     1
102
RTVSPropertyOp45
 70
     1
102
RTVSPropertyOp46
 70
     1
102
RTVSPropertyOp47
 70
     1
102
RTVSPropertyOp48
 70
     1
102
RTVSPropertyOp49
 70
     1
102
RTVSPropertyOp50
 70
     1
102
RTVSPropertyOp51
 70
     0
102
RTVSPropertyOp52
 70
     0
102
RTVSPropertyOp53
 70
     1
102
RTVSPropertyOp54
 70
     1
102
RTVSPropertyOp55
 70
     1
102
RTVSPropertyOp56
 70
     1
102
RTVSPropertyOp57
 70
     1
102
RTVSPropertyOp58
 70
     1
102
RTVSPropertyOp59
 70
     1
102
RTVSPropertyOp60
 70
     1
102
RTVSPropertyOp61
 70
     1
102
RTVSPropertyOp62
 70
     1
  0
XRECORD
  5
58A
102
{ACAD_REACTORS
330
589
102
}
330
589
100
AcDbXrecord
280
     1
102
RTVSPost2010Prop28
280
     0
102
RTVSPost2010PropOp28
 70
     1
102
RTVSPost2010Prop29
280
     1
102
RTVSPost2010PropOp29
 70
     1
102
RTVSPost2010Prop30
280
     1
102
RTVSPost2010PropOp30
 70
     1
102
RTVSPost2010Prop31
280
     0
102
RTVSPost2010PropOp31
 70
     1
102
RTVSPost2010Prop32
280
     0
102
RTVSPost2010PropOp32
 70
     1
102
RTVSPost2010Prop33
280
     0
102
RTVSPost2010PropOp33
 70
     1
102
RTVSPost2010Prop34
280
     0
102
RTVSPost2010PropOp34
 70
     1
102
RTVSPost2010Prop35
280
     0
102
RTVSPost2010PropOp35
 70
     1
102
RTVSPost2010Prop36
280
     0
102
RTVSPost2010PropOp36
 70
     1
102
RTVSPost2010Prop37
 90
       50
102
RTVSPost2010PropOp37
 70
     1
102
RTVSPost2010Prop38
140
0.0
102
RTVSPost2010PropOp38
 70
     1
102
RTVSPost2010Prop39
140
1.0
102
RTVSPost2010PropOp39
 70
     1
102
RTVSPost2010Prop40
 90
        0
102
RTVSPost2010PropOp40
 70
     1
102
RTVSPost2010Prop41ColorIndex
 90
       18
102
RTVSPost2010Prop41ColorRGB
 90
        0
102
RTVSPost2010PropOp41
 70
     1
102
RTVSPost2010Prop42
 90
       50
102
RTVSPost2010PropOp42
 70
     1
102
RTVSPost2010Prop43
 90
        3
102
RTVSPost2010PropOp43
 70
     1
102
RTVSPost2010Prop44ColorIndex
 90
        5
102
RTVSPost2010Prop44ColorRGB
 90
      255
102
RTVSPost2010PropOp44
 70
     1
102
RTVSPost2010Prop45
280
     0
102
RTVSPost2010PropOp45
 70
     1
102
RTVSPost2010Prop46
 90
       50
102
RTVSPost2010PropOp46
 70
     1
102
RTVSPost2010Prop47
 90
       50
102
RTVSPost2010PropOp47
 70
     1
102
RTVSPost2010Prop48
 90
       50
102
RTVSPost2010PropOp48
 70
     1
102
RTVSPost2010Prop49
280
     0
102
RTVSPost2010PropOp49
 70
     1
102
RTVSPost2010Prop50
 90
       50
102
RTVSPost2010PropOp50
 70
     1
102
RTVSPost2010Prop51ColorIndex
 90
      256
102
RTVSPost2010Prop51ColorRGB
 90
-16777216
102
RTVSPost2010PropOp51
 70
     0
102
RTVSPost2010Prop52
140
1.0
102
RTVSPost2010PropOp52
 70
     0
102
RTVSPost2010Prop53
 90
        2
102
RTVSPost2010PropOp53
 70
     1
102
RTVSPost2010Prop54
  1
strokes_ogs.tif
102
RTVSPost2010PropOp54
 70
     1
102
RTVSPost2010Prop55
280
     0
102
RTVSPost2010PropOp55
 70
     1
102
RTVSPost2010Prop56
140
1.0
102
RTVSPost2010PropOp56
 70
     1
102
RTVSPost2010Prop57
140
1.0
102
RTVSPost2010PropOp57
 70
     1
102
RTVSPropertyOp0
 70
     1
102
RTVSPropertyOp1
 70
     1
102
RTVSPropertyOp2
 70
     1
102
RTVSPropertyOp3
 70
     1
102
RTVSPropertyOp4
 70
     1
102
RTVSPropertyOp5
 70
     1
102
RTVSPropertyOp6
 70
     1
102
RTVSPropertyOp7
 70
     1
102
RTVSPropertyOp8
 70
     1
102
RTVSPropertyOp9
 70
     1
102
RTVSPropertyOp10
 70
     1
102
RTVSPropertyOp11
 70
     1
102
RTVSPropertyOp12
 70
     1
102
RTVSPropertyOp13
 70
     1
102
RTVSPropertyOp14
 70
     1
102
RTVSPropertyOp15
 70
     1
102
RTVSPropertyOp16
 70
     1
102
RTVSPropertyOp17
 70
     1
102
RTVSPropertyOp18
 70
     1
102
RTVSPropertyOp19
 70
     1
102
RTVSPropertyOp20
 70
     1
102
RTVSPropertyOp21
 70
     1
102
RTVSPropertyOp22
 70
     1
102
RTVSPropertyOp23
 70
     1
102
RTVSPropertyOp24
 70
     1
102
RTVSPropertyOp25
 70
     1
102
RTVSPropertyOp26
 70
     1
102
RTVSPropertyOp27
 70
     1
102
RTVSPropertyOp28
 70
     1
102
RTVSPropertyOp29
 70
     1
102
RTVSPropertyOp30
 70
     1
102
RTVSPropertyOp31
 70
     1
102
RTVSPropertyOp32
 70
     1
102
RTVSPropertyOp33
 70
     1
102
RTVSPropertyOp34
 70
     1
102
RTVSPropertyOp35
 70
     1
102
RTVSPropertyOp36
 70
     1
102
RTVSPropertyOp37
 70
     1
102
RTVSPropertyOp38
 70
     1
102
RTVSPropertyOp39
 70
     1
102
RTVSPropertyOp40
 70
     1
102
RTVSPropertyOp41
 70
     1
102
RTVSPropertyOp42
 70
     1
102
RTVSPropertyOp43
 70
     1
102
RTVSPropertyOp44
 70
     1
102
RTVSPropertyOp45
 70
     1
102
RTVSPropertyOp46
 70
     1
102
RTVSPropertyOp47
 70
     1
102
RTVSPropertyOp48
 70
     1
102
RTVSPropertyOp49
 70
     1
102
RTVSPropertyOp50
 70
     1
102
RTVSPropertyOp51
 70
     0
102
RTVSPropertyOp52
 70
     0
102
RTVSPropertyOp53
 70
     1
102
RTVSPropertyOp54
 70
     1
102
RTVSPropertyOp55
 70
     1
102
RTVSPropertyOp56
 70
     1
102
RTVSPropertyOp57
 70
     1
102
RTVSPropertyOp58
 70
     1
102
RTVSPropertyOp59
 70
     1
102
RTVSPropertyOp60
 70
     1
102
RTVSPropertyOp61
 70
     1
102
RTVSPropertyOp62
 70
     1
  0
XRECORD
  5
592
102
{ACAD_REACTORS
330
591
102
}
330
591
100
AcDbXrecord
280
     1
102
RTVSPost2010Prop28
280
     0
102
RTVSPost2010PropOp28
 70
     1
102
RTVSPost2010Prop29
280
     1
102
RTVSPost2010PropOp29
 70
     1
102
RTVSPost2010Prop30
280
     1
102
RTVSPost2010PropOp30
 70
     1
102
RTVSPost2010Prop31
280
     0
102
RTVSPost2010PropOp31
 70
     1
102
RTVSPost2010Prop32
280
     0
102
RTVSPost2010PropOp32
 70
     1
102
RTVSPost2010Prop33
280
     0
102
RTVSPost2010PropOp33
 70
     1
102
RTVSPost2010Prop34
280
     0
102
RTVSPost2010PropOp34
 70
     1
102
RTVSPost2010Prop35
280
     0
102
RTVSPost2010PropOp35
 70
     1
102
RTVSPost2010Prop36
280
     0
102
RTVSPost2010PropOp36
 70
     1
102
RTVSPost2010Prop37
 90
       50
102
RTVSPost2010PropOp37
 70
     1
102
RTVSPost2010Prop38
140
0.0
102
RTVSPost2010PropOp38
 70
     1
102
RTVSPost2010Prop39
140
1.0
102
RTVSPost2010PropOp39
 70
     1
102
RTVSPost2010Prop40
 90
        0
102
RTVSPost2010PropOp40
 70
     1
102
RTVSPost2010Prop41ColorIndex
 90
       18
102
RTVSPost2010Prop41ColorRGB
 90
        0
102
RTVSPost2010PropOp41
 70
     1
102
RTVSPost2010Prop42
 90
       50
102
RTVSPost2010PropOp42
 70
     1
102
RTVSPost2010Prop43
 90
        3
102
RTVSPost2010PropOp43
 70
     1
102
RTVSPost2010Prop44ColorIndex
 90
        5
102
RTVSPost2010Prop44ColorRGB
 90
      255
102
RTVSPost2010PropOp44
 70
     1
102
RTVSPost2010Prop45
280
     0
102
RTVSPost2010PropOp45
 70
     1
102
RTVSPost2010Prop46
 90
       50
102
RTVSPost2010PropOp46
 70
     1
102
RTVSPost2010Prop47
 90
       50
102
RTVSPost2010PropOp47
 70
     1
102
RTVSPost2010Prop48
 90
       50
102
RTVSPost2010PropOp48
 70
     1
102
RTVSPost2010Prop49
280
     0
102
RTVSPost2010PropOp49
 70
     1
102
RTVSPost2010Prop50
 90
       50
102
RTVSPost2010PropOp50
 70
     1
102
RTVSPost2010Prop51ColorIndex
 90
      256
102
RTVSPost2010Prop51ColorRGB
 90
-16777216
102
RTVSPost2010PropOp51
 70
     0
102
RTVSPost2010Prop52
140
1.0
102
RTVSPost2010PropOp52
 70
     0
102
RTVSPost2010Prop53
 90
        2
102
RTVSPost2010PropOp53
 70
     1
102
RTVSPost2010Prop54
  1
strokes_ogs.tif
102
RTVSPost2010PropOp54
 70
     1
102
RTVSPost2010Prop55
280
     0
102
RTVSPost2010PropOp55
 70
     1
102
RTVSPost2010Prop56
140
1.0
102
RTVSPost2010PropOp56
 70
     1
102
RTVSPost2010Prop57
140
1.0
102
RTVSPost2010PropOp57
 70
     1
102
RTVSPropertyOp0
 70
     1
102
RTVSPropertyOp1
 70
     1
102
RTVSPropertyOp2
 70
     1
102
RTVSPropertyOp3
 70
     1
102
RTVSPropertyOp4
 70
     1
102
RTVSPropertyOp5
 70
     1
102
RTVSPropertyOp6
 70
     1
102
RTVSPropertyOp7
 70
     1
102
RTVSPropertyOp8
 70
     1
102
RTVSPropertyOp9
 70
     1
102
RTVSPropertyOp10
 70
     1
102
RTVSPropertyOp11
 70
     1
102
RTVSPropertyOp12
 70
     1
102
RTVSPropertyOp13
 70
     1
102
RTVSPropertyOp14
 70
     1
102
RTVSPropertyOp15
 70
     1
102
RTVSPropertyOp16
 70
     1
102
RTVSPropertyOp17
 70
     1
102
RTVSPropertyOp18
 70
     1
102
RTVSPropertyOp19
 70
     1
102
RTVSPropertyOp20
 70
     1
102
RTVSPropertyOp21
 70
     1
102
RTVSPropertyOp22
 70
     1
102
RTVSPropertyOp23
 70
     1
102
RTVSPropertyOp24
 70
     1
102
RTVSPropertyOp25
 70
     1
102
RTVSPropertyOp26
 70
     1
102
RTVSPropertyOp27
 70
     1
102
RTVSPropertyOp28
 70
     1
102
RTVSPropertyOp29
 70
     1
102
RTVSPropertyOp30
 70
     1
102
RTVSPropertyOp31
 70
     1
102
RTVSPropertyOp32
 70
     1
102
RTVSPropertyOp33
 70
     1
102
RTVSPropertyOp34
 70
     1
102
RTVSPropertyOp35
 70
     1
102
RTVSPropertyOp36
 70
     1
102
RTVSPropertyOp37
 70
     1
102
RTVSPropertyOp38
 70
     1
102
RTVSPropertyOp39
 70
     1
102
RTVSPropertyOp40
 70
     1
102
RTVSPropertyOp41
 70
     1
102
RTVSPropertyOp42
 70
     1
102
RTVSPropertyOp43
 70
     1
102
RTVSPropertyOp44
 70
     1
102
RTVSPropertyOp45
 70
     1
102
RTVSPropertyOp46
 70
     1
102
RTVSPropertyOp47
 70
     1
102
RTVSPropertyOp48
 70
     1
102
RTVSPropertyOp49
 70
     1
102
RTVSPropertyOp50
 70
     1
102
RTVSPropertyOp51
 70
     0
102
RTVSPropertyOp52
 70
     0
102
RTVSPropertyOp53
 70
     1
102
RTVSPropertyOp54
 70
     1
102
RTVSPropertyOp55
 70
     1
102
RTVSPropertyOp56
 70
     1
102
RTVSPropertyOp57
 70
     1
102
RTVSPropertyOp58
 70
     1
102
RTVSPropertyOp59
 70
     1
102
RTVSPropertyOp60
 70
     1
102
RTVSPropertyOp61
 70
     1
102
RTVSPropertyOp62
 70
     1
  0
XRECORD
  5
584
102
{ACAD_REACTORS
330
583
102
}
330
583
100
AcDbXrecord
280
     1
102
RTVSPost2010Prop28
280
     0
102
RTVSPost2010PropOp28
 70
     1
102
RTVSPost2010Prop29
280
     1
102
RTVSPost2010PropOp29
 70
     1
102
RTVSPost2010Prop30
280
     1
102
RTVSPost2010PropOp30
 70
     1
102
RTVSPost2010Prop31
280
     0
102
RTVSPost2010PropOp31
 70
     1
102
RTVSPost2010Prop32
280
     0
102
RTVSPost2010PropOp32
 70
     1
102
RTVSPost2010Prop33
280
     0
102
RTVSPost2010PropOp33
 70
     1
102
RTVSPost2010Prop34
280
     0
102
RTVSPost2010PropOp34
 70
     1
102
RTVSPost2010Prop35
280
     0
102
RTVSPost2010PropOp35
 70
     1
102
RTVSPost2010Prop36
280
     0
102
RTVSPost2010PropOp36
 70
     1
102
RTVSPost2010Prop37
 90
       50
102
RTVSPost2010PropOp37
 70
     1
102
RTVSPost2010Prop38
140
0.0
102
RTVSPost2010PropOp38
 70
     1
102
RTVSPost2010Prop39
140
1.0
102
RTVSPost2010PropOp39
 70
     1
102
RTVSPost2010Prop40
 90
        0
102
RTVSPost2010PropOp40
 70
     1
102
RTVSPost2010Prop41ColorIndex
 90
       18
102
RTVSPost2010Prop41ColorRGB
 90
        0
102
RTVSPost2010PropOp41
 70
     1
102
RTVSPost2010Prop42
 90
       50
102
RTVSPost2010PropOp42
 70
     1
102
RTVSPost2010Prop43
 90
        3
102
RTVSPost2010PropOp43
 70
     1
102
RTVSPost2010Prop44ColorIndex
 90
        5
102
RTVSPost2010Prop44ColorRGB
 90
      255
102
RTVSPost2010PropOp44
 70
     1
102
RTVSPost2010Prop45
280
     0
102
RTVSPost2010PropOp45
 70
     1
102
RTVSPost2010Prop46
 90
       50
102
RTVSPost2010PropOp46
 70
     1
102
RTVSPost2010Prop47
 90
       50
102
RTVSPost2010PropOp47
 70
     1
102
RTVSPost2010Prop48
 90
       50
102
RTVSPost2010PropOp48
 70
     1
102
RTVSPost2010Prop49
280
     0
102
RTVSPost2010PropOp49
 70
     1
102
RTVSPost2010Prop50
 90
       50
102
RTVSPost2010PropOp50
 70
     1
102
RTVSPost2010Prop51ColorIndex
 90
      256
102
RTVSPost2010Prop51ColorRGB
 90
-16777216
102
RTVSPost2010PropOp51
 70
     0
102
RTVSPost2010Prop52
140
1.0
102
RTVSPost2010PropOp52
 70
     0
102
RTVSPost2010Prop53
 90
        2
102
RTVSPost2010PropOp53
 70
     1
102
RTVSPost2010Prop54
  1
strokes_ogs.tif
102
RTVSPost2010PropOp54
 70
     1
102
RTVSPost2010Prop55
280
     0
102
RTVSPost2010PropOp55
 70
     1
102
RTVSPost2010Prop56
140
1.0
102
RTVSPost2010PropOp56
 70
     1
102
RTVSPost2010Prop57
140
1.0
102
RTVSPost2010PropOp57
 70
     1
102
RTVSPropertyOp0
 70
     1
102
RTVSPropertyOp1
 70
     1
102
RTVSPropertyOp2
 70
     1
102
RTVSPropertyOp3
 70
     1
102
RTVSPropertyOp4
 70
     1
102
RTVSPropertyOp5
 70
     1
102
RTVSPropertyOp6
 70
     1
102
RTVSPropertyOp7
 70
     1
102
RTVSPropertyOp8
 70
     1
102
RTVSPropertyOp9
 70
     1
102
RTVSPropertyOp10
 70
     1
102
RTVSPropertyOp11
 70
     1
102
RTVSPropertyOp12
 70
     1
102
RTVSPropertyOp13
 70
     1
102
RTVSPropertyOp14
 70
     1
102
RTVSPropertyOp15
 70
     1
102
RTVSPropertyOp16
 70
     1
102
RTVSPropertyOp17
 70
     1
102
RTVSPropertyOp18
 70
     1
102
RTVSPropertyOp19
 70
     1
102
RTVSPropertyOp20
 70
     1
102
RTVSPropertyOp21
 70
     1
102
RTVSPropertyOp22
 70
     1
102
RTVSPropertyOp23
 70
     1
102
RTVSPropertyOp24
 70
     1
102
RTVSPropertyOp25
 70
     1
102
RTVSPropertyOp26
 70
     1
102
RTVSPropertyOp27
 70
     1
102
RTVSPropertyOp28
 70
     1
102
RTVSPropertyOp29
 70
     1
102
RTVSPropertyOp30
 70
     1
102
RTVSPropertyOp31
 70
     1
102
RTVSPropertyOp32
 70
     1
102
RTVSPropertyOp33
 70
     1
102
RTVSPropertyOp34
 70
     1
102
RTVSPropertyOp35
 70
     1
102
RTVSPropertyOp36
 70
     1
102
RTVSPropertyOp37
 70
     1
102
RTVSPropertyOp38
 70
     1
102
RTVSPropertyOp39
 70
     1
102
RTVSPropertyOp40
 70
     1
102
RTVSPropertyOp41
 70
     1
102
RTVSPropertyOp42
 70
     1
102
RTVSPropertyOp43
 70
     1
102
RTVSPropertyOp44
 70
     1
102
RTVSPropertyOp45
 70
     1
102
RTVSPropertyOp46
 70
     1
102
RTVSPropertyOp47
 70
     1
102
RTVSPropertyOp48
 70
     1
102
RTVSPropertyOp49
 70
     1
102
RTVSPropertyOp50
 70
     1
102
RTVSPropertyOp51
 70
     0
102
RTVSPropertyOp52
 70
     0
102
RTVSPropertyOp53
 70
     1
102
RTVSPropertyOp54
 70
     1
102
RTVSPropertyOp55
 70
     1
102
RTVSPropertyOp56
 70
     1
102
RTVSPropertyOp57
 70
     1
102
RTVSPropertyOp58
 70
     1
102
RTVSPropertyOp59
 70
     1
102
RTVSPropertyOp60
 70
     1
102
RTVSPropertyOp61
 70
     1
102
RTVSPropertyOp62
 70
     1
  0
XRECORD
  5
588
102
{ACAD_REACTORS
330
587
102
}
330
587
100
AcDbXrecord
280
     1
102
RTVSPost2010Prop28
280
     0
102
RTVSPost2010PropOp28
 70
     1
102
RTVSPost2010Prop29
280
     1
102
RTVSPost2010PropOp29
 70
     1
102
RTVSPost2010Prop30
280
     1
102
RTVSPost2010PropOp30
 70
     1
102
RTVSPost2010Prop31
280
     0
102
RTVSPost2010PropOp31
 70
     1
102
RTVSPost2010Prop32
280
     0
102
RTVSPost2010PropOp32
 70
     1
102
RTVSPost2010Prop33
280
     0
102
RTVSPost2010PropOp33
 70
     1
102
RTVSPost2010Prop34
280
     0
102
RTVSPost2010PropOp34
 70
     1
102
RTVSPost2010Prop35
280
     0
102
RTVSPost2010PropOp35
 70
     1
102
RTVSPost2010Prop36
280
     0
102
RTVSPost2010PropOp36
 70
     1
102
RTVSPost2010Prop37
 90
       50
102
RTVSPost2010PropOp37
 70
     1
102
RTVSPost2010Prop38
140
0.0
102
RTVSPost2010PropOp38
 70
     1
102
RTVSPost2010Prop39
140
1.0
102
RTVSPost2010PropOp39
 70
     1
102
RTVSPost2010Prop40
 90
        0
102
RTVSPost2010PropOp40
 70
     1
102
RTVSPost2010Prop41ColorIndex
 90
       18
102
RTVSPost2010Prop41ColorRGB
 90
        0
102
RTVSPost2010PropOp41
 70
     1
102
RTVSPost2010Prop42
 90
       50
102
RTVSPost2010PropOp42
 70
     1
102
RTVSPost2010Prop43
 90
        3
102
RTVSPost2010PropOp43
 70
     1
102
RTVSPost2010Prop44ColorIndex
 90
        5
102
RTVSPost2010Prop44ColorRGB
 90
      255
102
RTVSPost2010PropOp44
 70
     1
102
RTVSPost2010Prop45
280
     0
102
RTVSPost2010PropOp45
 70
     1
102
RTVSPost2010Prop46
 90
       50
102
RTVSPost2010PropOp46
 70
     1
102
RTVSPost2010Prop47
 90
       50
102
RTVSPost2010PropOp47
 70
     1
102
RTVSPost2010Prop48
 90
       50
102
RTVSPost2010PropOp48
 70
     1
102
RTVSPost2010Prop49
280
     0
102
RTVSPost2010PropOp49
 70
     1
102
RTVSPost2010Prop50
 90
       50
102
RTVSPost2010PropOp50
 70
     1
102
RTVSPost2010Prop51ColorIndex
 90
      256
102
RTVSPost2010Prop51ColorRGB
 90
-16777216
102
RTVSPost2010PropOp51
 70
     0
102
RTVSPost2010Prop52
140
1.0
102
RTVSPost2010PropOp52
 70
     0
102
RTVSPost2010Prop53
 90
        2
102
RTVSPost2010PropOp53
 70
     1
102
RTVSPost2010Prop54
  1
strokes_ogs.tif
102
RTVSPost2010PropOp54
 70
     1
102
RTVSPost2010Prop55
280
     0
102
RTVSPost2010PropOp55
 70
     1
102
RTVSPost2010Prop56
140
1.0
102
RTVSPost2010PropOp56
 70
     1
102
RTVSPost2010Prop57
140
1.0
102
RTVSPost2010PropOp57
 70
     1
102
RTVSPropertyOp0
 70
     1
102
RTVSPropertyOp1
 70
     1
102
RTVSPropertyOp2
 70
     1
102
RTVSPropertyOp3
 70
     1
102
RTVSPropertyOp4
 70
     1
102
RTVSPropertyOp5
 70
     1
102
RTVSPropertyOp6
 70
     1
102
RTVSPropertyOp7
 70
     1
102
RTVSPropertyOp8
 70
     1
102
RTVSPropertyOp9
 70
     1
102
RTVSPropertyOp10
 70
     1
102
RTVSPropertyOp11
 70
     1
102
RTVSPropertyOp12
 70
     1
102
RTVSPropertyOp13
 70
     1
102
RTVSPropertyOp14
 70
     1
102
RTVSPropertyOp15
 70
     1
102
RTVSPropertyOp16
 70
     1
102
RTVSPropertyOp17
 70
     1
102
RTVSPropertyOp18
 70
     1
102
RTVSPropertyOp19
 70
     1
102
RTVSPropertyOp20
 70
     1
102
RTVSPropertyOp21
 70
     1
102
RTVSPropertyOp22
 70
     1
102
RTVSPropertyOp23
 70
     1
102
RTVSPropertyOp24
 70
     1
102
RTVSPropertyOp25
 70
     1
102
RTVSPropertyOp26
 70
     1
102
RTVSPropertyOp27
 70
     1
102
RTVSPropertyOp28
 70
     1
102
RTVSPropertyOp29
 70
     1
102
RTVSPropertyOp30
 70
     1
102
RTVSPropertyOp31
 70
     1
102
RTVSPropertyOp32
 70
     1
102
RTVSPropertyOp33
 70
     1
102
RTVSPropertyOp34
 70
     1
102
RTVSPropertyOp35
 70
     1
102
RTVSPropertyOp36
 70
     1
102
RTVSPropertyOp37
 70
     1
102
RTVSPropertyOp38
 70
     1
102
RTVSPropertyOp39
 70
     1
102
RTVSPropertyOp40
 70
     1
102
RTVSPropertyOp41
 70
     1
102
RTVSPropertyOp42
 70
     1
102
RTVSPropertyOp43
 70
     1
102
RTVSPropertyOp44
 70
     1
102
RTVSPropertyOp45
 70
     1
102
RTVSPropertyOp46
 70
     1
102
RTVSPropertyOp47
 70
     1
102
RTVSPropertyOp48
 70
     1
102
RTVSPropertyOp49
 70
     1
102
RTVSPropertyOp50
 70
     1
102
RTVSPropertyOp51
 70
     0
102
RTVSPropertyOp52
 70
     0
102
RTVSPropertyOp53
 70
     1
102
RTVSPropertyOp54
 70
     1
102
RTVSPropertyOp55
 70
     1
102
RTVSPropertyOp56
 70
     1
102
RTVSPropertyOp57
 70
     1
102
RTVSPropertyOp58
 70
     1
102
RTVSPropertyOp59
 70
     1
102
RTVSPropertyOp60
 70
     1
102
RTVSPropertyOp61
 70
     1
102
RTVSPropertyOp62
 70
     1
  0
XRECORD
  5
599
102
{ACAD_REACTORS
330
598
102
}
330
598
100
AcDbXrecord
280
     1
102
RTVSPost2010Prop28
280
     0
102
RTVSPost2010PropOp28
 70
     1
102
RTVSPost2010Prop29
280
     1
102
RTVSPost2010PropOp29
 70
     1
102
RTVSPost2010Prop30
280
     1
102
RTVSPost2010PropOp30
 70
     1
102
RTVSPost2010Prop31
280
     0
102
RTVSPost2010PropOp31
 70
     1
102
RTVSPost2010Prop32
280
     0
102
RTVSPost2010PropOp32
 70
     1
102
RTVSPost2010Prop33
280
     0
102
RTVSPost2010PropOp33
 70
     1
102
RTVSPost2010Prop34
280
     0
102
RTVSPost2010PropOp34
 70
     1
102
RTVSPost2010Prop35
280
     0
102
RTVSPost2010PropOp35
 70
     1
102
RTVSPost2010Prop36
280
     0
102
RTVSPost2010PropOp36
 70
     1
102
RTVSPost2010Prop37
 90
       50
102
RTVSPost2010PropOp37
 70
     1
102
RTVSPost2010Prop38
140
0.0
102
RTVSPost2010PropOp38
 70
     1
102
RTVSPost2010Prop39
140
1.0
102
RTVSPost2010PropOp39
 70
     1
102
RTVSPost2010Prop40
 90
        0
102
RTVSPost2010PropOp40
 70
     1
102
RTVSPost2010Prop41ColorIndex
 90
       18
102
RTVSPost2010Prop41ColorRGB
 90
        0
102
RTVSPost2010PropOp41
 70
     1
102
RTVSPost2010Prop42
 90
       50
102
RTVSPost2010PropOp42
 70
     1
102
RTVSPost2010Prop43
 90
        3
102
RTVSPost2010PropOp43
 70
     1
102
RTVSPost2010Prop44ColorIndex
 90
        5
102
RTVSPost2010Prop44ColorRGB
 90
      255
102
RTVSPost2010PropOp44
 70
     1
102
RTVSPost2010Prop45
280
     0
102
RTVSPost2010PropOp45
 70
     1
102
RTVSPost2010Prop46
 90
       50
102
RTVSPost2010PropOp46
 70
     1
102
RTVSPost2010Prop47
 90
       50
102
RTVSPost2010PropOp47
 70
     1
102
RTVSPost2010Prop48
 90
       50
102
RTVSPost2010PropOp48
 70
     1
102
RTVSPost2010Prop49
280
     0
102
RTVSPost2010PropOp49
 70
     1
102
RTVSPost2010Prop50
 90
       50
102
RTVSPost2010PropOp50
 70
     1
102
RTVSPost2010Prop51ColorIndex
 90
      256
102
RTVSPost2010Prop51ColorRGB
 90
-16777216
102
RTVSPost2010PropOp51
 70
     0
102
RTVSPost2010Prop52
140
1.0
102
RTVSPost2010PropOp52
 70
     0
102
RTVSPost2010Prop53
 90
        2
102
RTVSPost2010PropOp53
 70
     1
102
RTVSPost2010Prop54
  1
strokes_ogs.tif
102
RTVSPost2010PropOp54
 70
     1
102
RTVSPost2010Prop55
280
     0
102
RTVSPost2010PropOp55
 70
     1
102
RTVSPost2010Prop56
140
1.0
102
RTVSPost2010PropOp56
 70
     1
102
RTVSPost2010Prop57
140
1.0
102
RTVSPost2010PropOp57
 70
     1
102
RTVSPropertyOp0
 70
     0
102
RTVSPropertyOp1
 70
     0
102
RTVSPropertyOp2
 70
     0
102
RTVSPropertyOp3
 70
     0
102
RTVSPropertyOp4
 70
     0
102
RTVSPropertyOp5
 70
     0
102
RTVSPropertyOp6
 70
     0
102
RTVSPropertyOp7
 70
     0
102
RTVSPropertyOp8
 70
     0
102
RTVSPropertyOp9
 70
     0
102
RTVSPropertyOp10
 70
     0
102
RTVSPropertyOp11
 70
     0
102
RTVSPropertyOp12
 70
     0
102
RTVSPropertyOp13
 70
     0
102
RTVSPropertyOp14
 70
     2
102
RTVSPropertyOp15
 70
     0
102
RTVSPropertyOp16
 70
     0
102
RTVSPropertyOp17
 70
     0
102
RTVSPropertyOp18
 70
     0
102
RTVSPropertyOp19
 70
     0
102
RTVSPropertyOp20
 70
     0
102
RTVSPropertyOp21
 70
     0
102
RTVSPropertyOp22
 70
     0
102
RTVSPropertyOp23
 70
     0
102
RTVSPropertyOp24
 70
     0
102
RTVSPropertyOp25
 70
     0
102
RTVSPropertyOp26
 70
     0
102
RTVSPropertyOp27
 70
     0
102
RTVSPropertyOp28
 70
     1
102
RTVSPropertyOp29
 70
     1
102
RTVSPropertyOp30
 70
     1
102
RTVSPropertyOp31
 70
     1
102
RTVSPropertyOp32
 70
     1
102
RTVSPropertyOp33
 70
     1
102
RTVSPropertyOp34
 70
     1
102
RTVSPropertyOp35
 70
     1
102
RTVSPropertyOp36
 70
     1
102
RTVSPropertyOp37
 70
     1
102
RTVSPropertyOp38
 70
     1
102
RTVSPropertyOp39
 70
     1
102
RTVSPropertyOp40
 70
     1
102
RTVSPropertyOp41
 70
     1
102
RTVSPropertyOp42
 70
     1
102
RTVSPropertyOp43
 70
     1
102
RTVSPropertyOp44
 70
     1
102
RTVSPropertyOp45
 70
     1
102
RTVSPropertyOp46
 70
     1
102
RTVSPropertyOp47
 70
     1
102
RTVSPropertyOp48
 70
     1
102
RTVSPropertyOp49
 70
     1
102
RTVSPropertyOp50
 70
     1
102
RTVSPropertyOp51
 70
     0
102
RTVSPropertyOp52
 70
     0
102
RTVSPropertyOp53
 70
     1
102
RTVSPropertyOp54
 70
     1
102
RTVSPropertyOp55
 70
     1
102
RTVSPropertyOp56
 70
     1
102
RTVSPropertyOp57
 70
     1
102
RTVSPropertyOp58
 70
     1
102
RTVSPropertyOp59
 70
     1
102
RTVSPropertyOp60
 70
     1
102
RTVSPropertyOp61
 70
     1
102
RTVSPropertyOp62
 70
     1
  0
XRECORD
  5
590
102
{ACAD_REACTORS
330
58F
102
}
330
58F
100
AcDbXrecord
280
     1
102
RTVSPost2010Prop28
280
     0
102
RTVSPost2010PropOp28
 70
     1
102
RTVSPost2010Prop29
280
     1
102
RTVSPost2010PropOp29
 70
     1
102
RTVSPost2010Prop30
280
     1
102
RTVSPost2010PropOp30
 70
     1
102
RTVSPost2010Prop31
280
     0
102
RTVSPost2010PropOp31
 70
     1
102
RTVSPost2010Prop32
280
     0
102
RTVSPost2010PropOp32
 70
     1
102
RTVSPost2010Prop33
280
     0
102
RTVSPost2010PropOp33
 70
     1
102
RTVSPost2010Prop34
280
     0
102
RTVSPost2010PropOp34
 70
     1
102
RTVSPost2010Prop35
280
     0
102
RTVSPost2010PropOp35
 70
     1
102
RTVSPost2010Prop36
280
     0
102
RTVSPost2010PropOp36
 70
     1
102
RTVSPost2010Prop37
 90
       50
102
RTVSPost2010PropOp37
 70
     1
102
RTVSPost2010Prop38
140
0.0
102
RTVSPost2010PropOp38
 70
     1
102
RTVSPost2010Prop39
140
1.0
102
RTVSPost2010PropOp39
 70
     1
102
RTVSPost2010Prop40
 90
        0
102
RTVSPost2010PropOp40
 70
     1
102
RTVSPost2010Prop41ColorIndex
 90
       18
102
RTVSPost2010Prop41ColorRGB
 90
        0
102
RTVSPost2010PropOp41
 70
     1
102
RTVSPost2010Prop42
 90
       50
102
RTVSPost2010PropOp42
 70
     1
102
RTVSPost2010Prop43
 90
        3
102
RTVSPost2010PropOp43
 70
     1
102
RTVSPost2010Prop44ColorIndex
 90
        5
102
RTVSPost2010Prop44ColorRGB
 90
      255
102
RTVSPost2010PropOp44
 70
     1
102
RTVSPost2010Prop45
280
     0
102
RTVSPost2010PropOp45
 70
     1
102
RTVSPost2010Prop46
 90
       50
102
RTVSPost2010PropOp46
 70
     1
102
RTVSPost2010Prop47
 90
       50
102
RTVSPost2010PropOp47
 70
     1
102
RTVSPost2010Prop48
 90
       50
102
RTVSPost2010PropOp48
 70
     1
102
RTVSPost2010Prop49
280
     0
102
RTVSPost2010PropOp49
 70
     1
102
RTVSPost2010Prop50
 90
       50
102
RTVSPost2010PropOp50
 70
     1
102
RTVSPost2010Prop51ColorIndex
 90
      256
102
RTVSPost2010Prop51ColorRGB
 90
-16777216
102
RTVSPost2010PropOp51
 70
     0
102
RTVSPost2010Prop52
140
1.0
102
RTVSPost2010PropOp52
 70
     0
102
RTVSPost2010Prop53
 90
        2
102
RTVSPost2010PropOp53
 70
     1
102
RTVSPost2010Prop54
  1
strokes_ogs.tif
102
RTVSPost2010PropOp54
 70
     1
102
RTVSPost2010Prop55
280
     0
102
RTVSPost2010PropOp55
 70
     1
102
RTVSPost2010Prop56
140
1.0
102
RTVSPost2010PropOp56
 70
     1
102
RTVSPost2010Prop57
140
1.0
102
RTVSPost2010PropOp57
 70
     1
102
RTVSPropertyOp0
 70
     1
102
RTVSPropertyOp1
 70
     1
102
RTVSPropertyOp2
 70
     1
102
RTVSPropertyOp3
 70
     1
102
RTVSPropertyOp4
 70
     1
102
RTVSPropertyOp5
 70
     1
102
RTVSPropertyOp6
 70
     1
102
RTVSPropertyOp7
 70
     1
102
RTVSPropertyOp8
 70
     1
102
RTVSPropertyOp9
 70
     1
102
RTVSPropertyOp10
 70
     1
102
RTVSPropertyOp11
 70
     1
102
RTVSPropertyOp12
 70
     1
102
RTVSPropertyOp13
 70
     1
102
RTVSPropertyOp14
 70
     1
102
RTVSPropertyOp15
 70
     1
102
RTVSPropertyOp16
 70
     1
102
RTVSPropertyOp17
 70
     1
102
RTVSPropertyOp18
 70
     1
102
RTVSPropertyOp19
 70
     1
102
RTVSPropertyOp20
 70
     1
102
RTVSPropertyOp21
 70
     1
102
RTVSPropertyOp22
 70
     1
102
RTVSPropertyOp23
 70
     1
102
RTVSPropertyOp24
 70
     1
102
RTVSPropertyOp25
 70
     1
102
RTVSPropertyOp26
 70
     1
102
RTVSPropertyOp27
 70
     1
102
RTVSPropertyOp28
 70
     1
102
RTVSPropertyOp29
 70
     1
102
RTVSPropertyOp30
 70
     1
102
RTVSPropertyOp31
 70
     1
102
RTVSPropertyOp32
 70
     1
102
RTVSPropertyOp33
 70
     1
102
RTVSPropertyOp34
 70
     1
102
RTVSPropertyOp35
 70
     1
102
RTVSPropertyOp36
 70
     1
102
RTVSPropertyOp37
 70
     1
102
RTVSPropertyOp38
 70
     1
102
RTVSPropertyOp39
 70
     1
102
RTVSPropertyOp40
 70
     1
102
RTVSPropertyOp41
 70
     1
102
RTVSPropertyOp42
 70
     1
102
RTVSPropertyOp43
 70
     1
102
RTVSPropertyOp44
 70
     1
102
RTVSPropertyOp45
 70
     1
102
RTVSPropertyOp46
 70
     1
102
RTVSPropertyOp47
 70
     1
102
RTVSPropertyOp48
 70
     1
102
RTVSPropertyOp49
 70
     1
102
RTVSPropertyOp50
 70
     1
102
RTVSPropertyOp51
 70
     0
102
RTVSPropertyOp52
 70
     0
102
RTVSPropertyOp53
 70
     1
102
RTVSPropertyOp54
 70
     1
102
RTVSPropertyOp55
 70
     1
102
RTVSPropertyOp56
 70
     1
102
RTVSPropertyOp57
 70
     1
102
RTVSPropertyOp58
 70
     1
102
RTVSPropertyOp59
 70
     1
102
RTVSPropertyOp60
 70
     1
102
RTVSPropertyOp61
 70
     1
102
RTVSPropertyOp62
 70
     1
  0
XRECORD
  5
574
102
{ACAD_REACTORS
330
573
102
}
330
573
100
AcDbXrecord
280
     1
102
RTVSPost2010Prop28
280
     0
102
RTVSPost2010PropOp28
 70
     1
102
RTVSPost2010Prop29
280
     1
102
RTVSPost2010PropOp29
 70
     1
102
RTVSPost2010Prop30
280
     1
102
RTVSPost2010PropOp30
 70
     1
102
RTVSPost2010Prop31
280
     0
102
RTVSPost2010PropOp31
 70
     1
102
RTVSPost2010Prop32
280
     0
102
RTVSPost2010PropOp32
 70
     1
102
RTVSPost2010Prop33
280
     0
102
RTVSPost2010PropOp33
 70
     1
102
RTVSPost2010Prop34
280
     0
102
RTVSPost2010PropOp34
 70
     1
102
RTVSPost2010Prop35
280
     0
102
RTVSPost2010PropOp35
 70
     1
102
RTVSPost2010Prop36
280
     0
102
RTVSPost2010PropOp36
 70
     1
102
RTVSPost2010Prop37
 90
       50
102
RTVSPost2010PropOp37
 70
     1
102
RTVSPost2010Prop38
140
0.0
102
RTVSPost2010PropOp38
 70
     1
102
RTVSPost2010Prop39
140
1.0
102
RTVSPost2010PropOp39
 70
     1
102
RTVSPost2010Prop40
 90
        0
102
RTVSPost2010PropOp40
 70
     1
102
RTVSPost2010Prop41ColorIndex
 90
       18
102
RTVSPost2010Prop41ColorRGB
 90
        0
102
RTVSPost2010PropOp41
 70
     1
102
RTVSPost2010Prop42
 90
       50
102
RTVSPost2010PropOp42
 70
     1
102
RTVSPost2010Prop43
 90
        3
102
RTVSPost2010PropOp43
 70
     1
102
RTVSPost2010Prop44ColorIndex
 90
        5
102
RTVSPost2010Prop44ColorRGB
 90
      255
102
RTVSPost2010PropOp44
 70
     1
102
RTVSPost2010Prop45
280
     0
102
RTVSPost2010PropOp45
 70
     1
102
RTVSPost2010Prop46
 90
       50
102
RTVSPost2010PropOp46
 70
     1
102
RTVSPost2010Prop47
 90
       50
102
RTVSPost2010PropOp47
 70
     1
102
RTVSPost2010Prop48
 90
       50
102
RTVSPost2010PropOp48
 70
     1
102
RTVSPost2010Prop49
280
     0
102
RTVSPost2010PropOp49
 70
     1
102
RTVSPost2010Prop50
 90
       50
102
RTVSPost2010PropOp50
 70
     1
102
RTVSPost2010Prop51ColorIndex
 90
      256
102
RTVSPost2010Prop51ColorRGB
 90
-16777216
102
RTVSPost2010PropOp51
 70
     0
102
RTVSPost2010Prop52
140
1.0
102
RTVSPost2010PropOp52
 70
     0
102
RTVSPost2010Prop53
 90
        2
102
RTVSPost2010PropOp53
 70
     1
102
RTVSPost2010Prop54
  1
strokes_ogs.tif
102
RTVSPost2010PropOp54
 70
     1
102
RTVSPost2010Prop55
280
     0
102
RTVSPost2010PropOp55
 70
     1
102
RTVSPost2010Prop56
140
1.0
102
RTVSPost2010PropOp56
 70
     1
102
RTVSPost2010Prop57
140
1.0
102
RTVSPost2010PropOp57
 70
     1
102
RTVSPropertyOp0
 70
     1
102
RTVSPropertyOp1
 70
     1
102
RTVSPropertyOp2
 70
     1
102
RTVSPropertyOp3
 70
     1
102
RTVSPropertyOp4
 70
     1
102
RTVSPropertyOp5
 70
     1
102
RTVSPropertyOp6
 70
     1
102
RTVSPropertyOp7
 70
     1
102
RTVSPropertyOp8
 70
     1
102
RTVSPropertyOp9
 70
     1
102
RTVSPropertyOp10
 70
     1
102
RTVSPropertyOp11
 70
     1
102
RTVSPropertyOp12
 70
     1
102
RTVSPropertyOp13
 70
     1
102
RTVSPropertyOp14
 70
     1
102
RTVSPropertyOp15
 70
     1
102
RTVSPropertyOp16
 70
     1
102
RTVSPropertyOp17
 70
     1
102
RTVSPropertyOp18
 70
     1
102
RTVSPropertyOp19
 70
     1
102
RTVSPropertyOp20
 70
     1
102
RTVSPropertyOp21
 70
     1
102
RTVSPropertyOp22
 70
     1
102
RTVSPropertyOp23
 70
     1
102
RTVSPropertyOp24
 70
     1
102
RTVSPropertyOp25
 70
     1
102
RTVSPropertyOp26
 70
     1
102
RTVSPropertyOp27
 70
     1
102
RTVSPropertyOp28
 70
     1
102
RTVSPropertyOp29
 70
     1
102
RTVSPropertyOp30
 70
     1
102
RTVSPropertyOp31
 70
     1
102
RTVSPropertyOp32
 70
     1
102
RTVSPropertyOp33
 70
     1
102
RTVSPropertyOp34
 70
     1
102
RTVSPropertyOp35
 70
     1
102
RTVSPropertyOp36
 70
     1
102
RTVSPropertyOp37
 70
     1
102
RTVSPropertyOp38
 70
     1
102
RTVSPropertyOp39
 70
     1
102
RTVSPropertyOp40
 70
     1
102
RTVSPropertyOp41
 70
     1
102
RTVSPropertyOp42
 70
     1
102
RTVSPropertyOp43
 70
     1
102
RTVSPropertyOp44
 70
     1
102
RTVSPropertyOp45
 70
     1
102
RTVSPropertyOp46
 70
     1
102
RTVSPropertyOp47
 70
     1
102
RTVSPropertyOp48
 70
     1
102
RTVSPropertyOp49
 70
     1
102
RTVSPropertyOp50
 70
     1
102
RTVSPropertyOp51
 70
     0
102
RTVSPropertyOp52
 70
     0
102
RTVSPropertyOp53
 70
     1
102
RTVSPropertyOp54
 70
     1
102
RTVSPropertyOp55
 70
     1
102
RTVSPropertyOp56
 70
     1
102
RTVSPropertyOp57
 70
     1
102
RTVSPropertyOp58
 70
     1
102
RTVSPropertyOp59
 70
     1
102
RTVSPropertyOp60
 70
     1
102
RTVSPropertyOp61
 70
     1
102
RTVSPropertyOp62
 70
     1
  0
XRECORD
  5
576
102
{ACAD_REACTORS
330
575
102
}
330
575
100
AcDbXrecord
280
     1
102
RTVSPost2010Prop28
280
     0
102
RTVSPost2010PropOp28
 70
     1
102
RTVSPost2010Prop29
280
     1
102
RTVSPost2010PropOp29
 70
     1
102
RTVSPost2010Prop30
280
     1
102
RTVSPost2010PropOp30
 70
     1
102
RTVSPost2010Prop31
280
     0
102
RTVSPost2010PropOp31
 70
     1
102
RTVSPost2010Prop32
280
     0
102
RTVSPost2010PropOp32
 70
     1
102
RTVSPost2010Prop33
280
     0
102
RTVSPost2010PropOp33
 70
     1
102
RTVSPost2010Prop34
280
     0
102
RTVSPost2010PropOp34
 70
     1
102
RTVSPost2010Prop35
280
     0
102
RTVSPost2010PropOp35
 70
     1
102
RTVSPost2010Prop36
280
     0
102
RTVSPost2010PropOp36
 70
     1
102
RTVSPost2010Prop37
 90
       50
102
RTVSPost2010PropOp37
 70
     1
102
RTVSPost2010Prop38
140
0.0
102
RTVSPost2010PropOp38
 70
     1
102
RTVSPost2010Prop39
140
1.0
102
RTVSPost2010PropOp39
 70
     1
102
RTVSPost2010Prop40
 90
        0
102
RTVSPost2010PropOp40
 70
     1
102
RTVSPost2010Prop41ColorIndex
 90
       18
102
RTVSPost2010Prop41ColorRGB
 90
        0
102
RTVSPost2010PropOp41
 70
     1
102
RTVSPost2010Prop42
 90
       50
102
RTVSPost2010PropOp42
 70
     1
102
RTVSPost2010Prop43
 90
        3
102
RTVSPost2010PropOp43
 70
     1
102
RTVSPost2010Prop44ColorIndex
 90
        5
102
RTVSPost2010Prop44ColorRGB
 90
      255
102
RTVSPost2010PropOp44
 70
     1
102
RTVSPost2010Prop45
280
     0
102
RTVSPost2010PropOp45
 70
     1
102
RTVSPost2010Prop46
 90
       50
102
RTVSPost2010PropOp46
 70
     1
102
RTVSPost2010Prop47
 90
       50
102
RTVSPost2010PropOp47
 70
     1
102
RTVSPost2010Prop48
 90
       50
102
RTVSPost2010PropOp48
 70
     1
102
RTVSPost2010Prop49
280
     0
102
RTVSPost2010PropOp49
 70
     1
102
RTVSPost2010Prop50
 90
       50
102
RTVSPost2010PropOp50
 70
     1
102
RTVSPost2010Prop51ColorIndex
 90
      256
102
RTVSPost2010Prop51ColorRGB
 90
-16777216
102
RTVSPost2010PropOp51
 70
     0
102
RTVSPost2010Prop52
140
1.0
102
RTVSPost2010PropOp52
 70
     0
102
RTVSPost2010Prop53
 90
        2
102
RTVSPost2010PropOp53
 70
     1
102
RTVSPost2010Prop54
  1
strokes_ogs.tif
102
RTVSPost2010PropOp54
 70
     1
102
RTVSPost2010Prop55
280
     0
102
RTVSPost2010PropOp55
 70
     1
102
RTVSPost2010Prop56
140
1.0
102
RTVSPost2010PropOp56
 70
     1
102
RTVSPost2010Prop57
140
1.0
102
RTVSPost2010PropOp57
 70
     1
102
RTVSPropertyOp0
 70
     1
102
RTVSPropertyOp1
 70
     1
102
RTVSPropertyOp2
 70
     1
102
RTVSPropertyOp3
 70
     1
102
RTVSPropertyOp4
 70
     1
102
RTVSPropertyOp5
 70
     1
102
RTVSPropertyOp6
 70
     1
102
RTVSPropertyOp7
 70
     1
102
RTVSPropertyOp8
 70
     1
102
RTVSPropertyOp9
 70
     1
102
RTVSPropertyOp10
 70
     1
102
RTVSPropertyOp11
 70
     1
102
RTVSPropertyOp12
 70
     1
102
RTVSPropertyOp13
 70
     1
102
RTVSPropertyOp14
 70
     1
102
RTVSPropertyOp15
 70
     1
102
RTVSPropertyOp16
 70
     1
102
RTVSPropertyOp17
 70
     1
102
RTVSPropertyOp18
 70
     1
102
RTVSPropertyOp19
 70
     1
102
RTVSPropertyOp20
 70
     1
102
RTVSPropertyOp21
 70
     1
102
RTVSPropertyOp22
 70
     1
102
RTVSPropertyOp23
 70
     1
102
RTVSPropertyOp24
 70
     1
102
RTVSPropertyOp25
 70
     1
102
RTVSPropertyOp26
 70
     1
102
RTVSPropertyOp27
 70
     1
102
RTVSPropertyOp28
 70
     1
102
RTVSPropertyOp29
 70
     1
102
RTVSPropertyOp30
 70
     1
102
RTVSPropertyOp31
 70
     1
102
RTVSPropertyOp32
 70
     1
102
RTVSPropertyOp33
 70
     1
102
RTVSPropertyOp34
 70
     1
102
RTVSPropertyOp35
 70
     1
102
RTVSPropertyOp36
 70
     1
102
RTVSPropertyOp37
 70
     1
102
RTVSPropertyOp38
 70
     1
102
RTVSPropertyOp39
 70
     1
102
RTVSPropertyOp40
 70
     1
102
RTVSPropertyOp41
 70
     1
102
RTVSPropertyOp42
 70
     1
102
RTVSPropertyOp43
 70
     1
102
RTVSPropertyOp44
 70
     1
102
RTVSPropertyOp45
 70
     1
102
RTVSPropertyOp46
 70
     1
102
RTVSPropertyOp47
 70
     1
102
RTVSPropertyOp48
 70
     1
102
RTVSPropertyOp49
 70
     1
102
RTVSPropertyOp50
 70
     1
102
RTVSPropertyOp51
 70
     0
102
RTVSPropertyOp52
 70
     0
102
RTVSPropertyOp53
 70
     1
102
RTVSPropertyOp54
 70
     1
102
RTVSPropertyOp55
 70
     1
102
RTVSPropertyOp56
 70
     1
102
RTVSPropertyOp57
 70
     1
102
RTVSPropertyOp58
 70
     1
102
RTVSPropertyOp59
 70
     1
102
RTVSPropertyOp60
 70
     1
102
RTVSPropertyOp61
 70
     1
102
RTVSPropertyOp62
 70
     1
  0
XRECORD
  5
578
102
{ACAD_REACTORS
330
577
102
}
330
577
100
AcDbXrecord
280
     1
102
RTVSPost2010Prop28
280
     0
102
RTVSPost2010PropOp28
 70
     1
102
RTVSPost2010Prop29
280
     1
102
RTVSPost2010PropOp29
 70
     1
102
RTVSPost2010Prop30
280
     1
102
RTVSPost2010PropOp30
 70
     1
102
RTVSPost2010Prop31
280
     0
102
RTVSPost2010PropOp31
 70
     1
102
RTVSPost2010Prop32
280
     0
102
RTVSPost2010PropOp32
 70
     1
102
RTVSPost2010Prop33
280
     0
102
RTVSPost2010PropOp33
 70
     1
102
RTVSPost2010Prop34
280
     0
102
RTVSPost2010PropOp34
 70
     1
102
RTVSPost2010Prop35
280
     0
102
RTVSPost2010PropOp35
 70
     1
102
RTVSPost2010Prop36
280
     0
102
RTVSPost2010PropOp36
 70
     1
102
RTVSPost2010Prop37
 90
       50
102
RTVSPost2010PropOp37
 70
     1
102
RTVSPost2010Prop38
140
0.0
102
RTVSPost2010PropOp38
 70
     1
102
RTVSPost2010Prop39
140
1.0
102
RTVSPost2010PropOp39
 70
     1
102
RTVSPost2010Prop40
 90
        0
102
RTVSPost2010PropOp40
 70
     1
102
RTVSPost2010Prop41ColorIndex
 90
       18
102
RTVSPost2010Prop41ColorRGB
 90
        0
102
RTVSPost2010PropOp41
 70
     1
102
RTVSPost2010Prop42
 90
       50
102
RTVSPost2010PropOp42
 70
     1
102
RTVSPost2010Prop43
 90
        3
102
RTVSPost2010PropOp43
 70
     1
102
RTVSPost2010Prop44ColorIndex
 90
        5
102
RTVSPost2010Prop44ColorRGB
 90
      255
102
RTVSPost2010PropOp44
 70
     1
102
RTVSPost2010Prop45
280
     0
102
RTVSPost2010PropOp45
 70
     1
102
RTVSPost2010Prop46
 90
       50
102
RTVSPost2010PropOp46
 70
     1
102
RTVSPost2010Prop47
 90
       50
102
RTVSPost2010PropOp47
 70
     1
102
RTVSPost2010Prop48
 90
       50
102
RTVSPost2010PropOp48
 70
     1
102
RTVSPost2010Prop49
280
     0
102
RTVSPost2010PropOp49
 70
     1
102
RTVSPost2010Prop50
 90
       50
102
RTVSPost2010PropOp50
 70
     1
102
RTVSPost2010Prop51ColorIndex
 90
      256
102
RTVSPost2010Prop51ColorRGB
 90
-16777216
102
RTVSPost2010PropOp51
 70
     0
102
RTVSPost2010Prop52
140
1.0
102
RTVSPost2010PropOp52
 70
     0
102
RTVSPost2010Prop53
 90
        2
102
RTVSPost2010PropOp53
 70
     1
102
RTVSPost2010Prop54
  1
strokes_ogs.tif
102
RTVSPost2010PropOp54
 70
     1
102
RTVSPost2010Prop55
280
     0
102
RTVSPost2010PropOp55
 70
     1
102
RTVSPost2010Prop56
140
1.0
102
RTVSPost2010PropOp56
 70
     1
102
RTVSPost2010Prop57
140
1.0
102
RTVSPost2010PropOp57
 70
     1
102
RTVSPropertyOp0
 70
     1
102
RTVSPropertyOp1
 70
     1
102
RTVSPropertyOp2
 70
     1
102
RTVSPropertyOp3
 70
     1
102
RTVSPropertyOp4
 70
     1
102
RTVSPropertyOp5
 70
     1
102
RTVSPropertyOp6
 70
     1
102
RTVSPropertyOp7
 70
     1
102
RTVSPropertyOp8
 70
     1
102
RTVSPropertyOp9
 70
     1
102
RTVSPropertyOp10
 70
     1
102
RTVSPropertyOp11
 70
     1
102
RTVSPropertyOp12
 70
     1
102
RTVSPropertyOp13
 70
     1
102
RTVSPropertyOp14
 70
     1
102
RTVSPropertyOp15
 70
     1
102
RTVSPropertyOp16
 70
     1
102
RTVSPropertyOp17
 70
     1
102
RTVSPropertyOp18
 70
     1
102
RTVSPropertyOp19
 70
     1
102
RTVSPropertyOp20
 70
     1
102
RTVSPropertyOp21
 70
     1
102
RTVSPropertyOp22
 70
     1
102
RTVSPropertyOp23
 70
     1
102
RTVSPropertyOp24
 70
     1
102
RTVSPropertyOp25
 70
     1
102
RTVSPropertyOp26
 70
     1
102
RTVSPropertyOp27
 70
     1
102
RTVSPropertyOp28
 70
     1
102
RTVSPropertyOp29
 70
     1
102
RTVSPropertyOp30
 70
     1
102
RTVSPropertyOp31
 70
     1
102
RTVSPropertyOp32
 70
     1
102
RTVSPropertyOp33
 70
     1
102
RTVSPropertyOp34
 70
     1
102
RTVSPropertyOp35
 70
     1
102
RTVSPropertyOp36
 70
     1
102
RTVSPropertyOp37
 70
     1
102
RTVSPropertyOp38
 70
     1
102
RTVSPropertyOp39
 70
     1
102
RTVSPropertyOp40
 70
     1
102
RTVSPropertyOp41
 70
     1
102
RTVSPropertyOp42
 70
     1
102
RTVSPropertyOp43
 70
     1
102
RTVSPropertyOp44
 70
     1
102
RTVSPropertyOp45
 70
     1
102
RTVSPropertyOp46
 70
     1
102
RTVSPropertyOp47
 70
     1
102
RTVSPropertyOp48
 70
     1
102
RTVSPropertyOp49
 70
     1
102
RTVSPropertyOp50
 70
     1
102
RTVSPropertyOp51
 70
     0
102
RTVSPropertyOp52
 70
     0
102
RTVSPropertyOp53
 70
     1
102
RTVSPropertyOp54
 70
     1
102
RTVSPropertyOp55
 70
     1
102
RTVSPropertyOp56
 70
     1
102
RTVSPropertyOp57
 70
     1
102
RTVSPropertyOp58
 70
     1
102
RTVSPropertyOp59
 70
     1
102
RTVSPropertyOp60
 70
     1
102
RTVSPropertyOp61
 70
     1
102
RTVSPropertyOp62
 70
     1
  0
XRECORD
  5
57A
102
{ACAD_REACTORS
330
579
102
}
330
579
100
AcDbXrecord
280
     1
102
RTVSPost2010Prop28
280
     0
102
RTVSPost2010PropOp28
 70
     1
102
RTVSPost2010Prop29
280
     1
102
RTVSPost2010PropOp29
 70
     1
102
RTVSPost2010Prop30
280
     1
102
RTVSPost2010PropOp30
 70
     1
102
RTVSPost2010Prop31
280
     0
102
RTVSPost2010PropOp31
 70
     1
102
RTVSPost2010Prop32
280
     0
102
RTVSPost2010PropOp32
 70
     1
102
RTVSPost2010Prop33
280
     0
102
RTVSPost2010PropOp33
 70
     1
102
RTVSPost2010Prop34
280
     0
102
RTVSPost2010PropOp34
 70
     1
102
RTVSPost2010Prop35
280
     0
102
RTVSPost2010PropOp35
 70
     1
102
RTVSPost2010Prop36
280
     0
102
RTVSPost2010PropOp36
 70
     1
102
RTVSPost2010Prop37
 90
       50
102
RTVSPost2010PropOp37
 70
     1
102
RTVSPost2010Prop38
140
0.0
102
RTVSPost2010PropOp38
 70
     1
102
RTVSPost2010Prop39
140
1.0
102
RTVSPost2010PropOp39
 70
     1
102
RTVSPost2010Prop40
 90
        0
102
RTVSPost2010PropOp40
 70
     1
102
RTVSPost2010Prop41ColorIndex
 90
       18
102
RTVSPost2010Prop41ColorRGB
 90
        0
102
RTVSPost2010PropOp41
 70
     1
102
RTVSPost2010Prop42
 90
       50
102
RTVSPost2010PropOp42
 70
     1
102
RTVSPost2010Prop43
 90
        3
102
RTVSPost2010PropOp43
 70
     1
102
RTVSPost2010Prop44ColorIndex
 90
        5
102
RTVSPost2010Prop44ColorRGB
 90
      255
102
RTVSPost2010PropOp44
 70
     1
102
RTVSPost2010Prop45
280
     0
102
RTVSPost2010PropOp45
 70
     1
102
RTVSPost2010Prop46
 90
       50
102
RTVSPost2010PropOp46
 70
     1
102
RTVSPost2010Prop47
 90
       50
102
RTVSPost2010PropOp47
 70
     1
102
RTVSPost2010Prop48
 90
       50
102
RTVSPost2010PropOp48
 70
     1
102
RTVSPost2010Prop49
280
     0
102
RTVSPost2010PropOp49
 70
     1
102
RTVSPost2010Prop50
 90
       50
102
RTVSPost2010PropOp50
 70
     1
102
RTVSPost2010Prop51ColorIndex
 90
      256
102
RTVSPost2010Prop51ColorRGB
 90
-16777216
102
RTVSPost2010PropOp51
 70
     0
102
RTVSPost2010Prop52
140
1.0
102
RTVSPost2010PropOp52
 70
     0
102
RTVSPost2010Prop53
 90
        2
102
RTVSPost2010PropOp53
 70
     1
102
RTVSPost2010Prop54
  1
strokes_ogs.tif
102
RTVSPost2010PropOp54
 70
     1
102
RTVSPost2010Prop55
280
     0
102
RTVSPost2010PropOp55
 70
     1
102
RTVSPost2010Prop56
140
1.0
102
RTVSPost2010PropOp56
 70
     1
102
RTVSPost2010Prop57
140
1.0
102
RTVSPost2010PropOp57
 70
     1
102
RTVSPropertyOp0
 70
     1
102
RTVSPropertyOp1
 70
     1
102
RTVSPropertyOp2
 70
     1
102
RTVSPropertyOp3
 70
     1
102
RTVSPropertyOp4
 70
     1
102
RTVSPropertyOp5
 70
     1
102
RTVSPropertyOp6
 70
     1
102
RTVSPropertyOp7
 70
     1
102
RTVSPropertyOp8
 70
     1
102
RTVSPropertyOp9
 70
     1
102
RTVSPropertyOp10
 70
     1
102
RTVSPropertyOp11
 70
     1
102
RTVSPropertyOp12
 70
     1
102
RTVSPropertyOp13
 70
     1
102
RTVSPropertyOp14
 70
     1
102
RTVSPropertyOp15
 70
     1
102
RTVSPropertyOp16
 70
     1
102
RTVSPropertyOp17
 70
     1
102
RTVSPropertyOp18
 70
     1
102
RTVSPropertyOp19
 70
     1
102
RTVSPropertyOp20
 70
     1
102
RTVSPropertyOp21
 70
     1
102
RTVSPropertyOp22
 70
     1
102
RTVSPropertyOp23
 70
     1
102
RTVSPropertyOp24
 70
     1
102
RTVSPropertyOp25
 70
     1
102
RTVSPropertyOp26
 70
     1
102
RTVSPropertyOp27
 70
     1
102
RTVSPropertyOp28
 70
     1
102
RTVSPropertyOp29
 70
     1
102
RTVSPropertyOp30
 70
     1
102
RTVSPropertyOp31
 70
     1
102
RTVSPropertyOp32
 70
     1
102
RTVSPropertyOp33
 70
     1
102
RTVSPropertyOp34
 70
     1
102
RTVSPropertyOp35
 70
     1
102
RTVSPropertyOp36
 70
     1
102
RTVSPropertyOp37
 70
     1
102
RTVSPropertyOp38
 70
     1
102
RTVSPropertyOp39
 70
     1
102
RTVSPropertyOp40
 70
     1
102
RTVSPropertyOp41
 70
     1
102
RTVSPropertyOp42
 70
     1
102
RTVSPropertyOp43
 70
     1
102
RTVSPropertyOp44
 70
     1
102
RTVSPropertyOp45
 70
     1
102
RTVSPropertyOp46
 70
     1
102
RTVSPropertyOp47
 70
     1
102
RTVSPropertyOp48
 70
     1
102
RTVSPropertyOp49
 70
     1
102
RTVSPropertyOp50
 70
     1
102
RTVSPropertyOp51
 70
     0
102
RTVSPropertyOp52
 70
     0
102
RTVSPropertyOp53
 70
     1
102
RTVSPropertyOp54
 70
     1
102
RTVSPropertyOp55
 70
     1
102
RTVSPropertyOp56
 70
     1
102
RTVSPropertyOp57
 70
     1
102
RTVSPropertyOp58
 70
     1
102
RTVSPropertyOp59
 70
     1
102
RTVSPropertyOp60
 70
     1
102
RTVSPropertyOp61
 70
     1
102
RTVSPropertyOp62
 70
     1
  0
XRECORD
  5
582
102
{ACAD_REACTORS
330
581
102
}
330
581
100
AcDbXrecord
280
     1
102
RTVSPost2010Prop28
280
     0
102
RTVSPost2010PropOp28
 70
     1
102
RTVSPost2010Prop29
280
     1
102
RTVSPost2010PropOp29
 70
     1
102
RTVSPost2010Prop30
280
     1
102
RTVSPost2010PropOp30
 70
     1
102
RTVSPost2010Prop31
280
     0
102
RTVSPost2010PropOp31
 70
     1
102
RTVSPost2010Prop32
280
     0
102
RTVSPost2010PropOp32
 70
     1
102
RTVSPost2010Prop33
280
     0
102
RTVSPost2010PropOp33
 70
     1
102
RTVSPost2010Prop34
280
     0
102
RTVSPost2010PropOp34
 70
     1
102
RTVSPost2010Prop35
280
     0
102
RTVSPost2010PropOp35
 70
     1
102
RTVSPost2010Prop36
280
     0
102
RTVSPost2010PropOp36
 70
     1
102
RTVSPost2010Prop37
 90
       50
102
RTVSPost2010PropOp37
 70
     1
102
RTVSPost2010Prop38
140
0.0
102
RTVSPost2010PropOp38
 70
     1
102
RTVSPost2010Prop39
140
1.0
102
RTVSPost2010PropOp39
 70
     1
102
RTVSPost2010Prop40
 90
        0
102
RTVSPost2010PropOp40
 70
     1
102
RTVSPost2010Prop41ColorIndex
 90
       18
102
RTVSPost2010Prop41ColorRGB
 90
        0
102
RTVSPost2010PropOp41
 70
     1
102
RTVSPost2010Prop42
 90
       50
102
RTVSPost2010PropOp42
 70
     1
102
RTVSPost2010Prop43
 90
        3
102
RTVSPost2010PropOp43
 70
     1
102
RTVSPost2010Prop44ColorIndex
 90
        5
102
RTVSPost2010Prop44ColorRGB
 90
      255
102
RTVSPost2010PropOp44
 70
     1
102
RTVSPost2010Prop45
280
     0
102
RTVSPost2010PropOp45
 70
     1
102
RTVSPost2010Prop46
 90
       50
102
RTVSPost2010PropOp46
 70
     1
102
RTVSPost2010Prop47
 90
       50
102
RTVSPost2010PropOp47
 70
     1
102
RTVSPost2010Prop48
 90
       50
102
RTVSPost2010PropOp48
 70
     1
102
RTVSPost2010Prop49
280
     0
102
RTVSPost2010PropOp49
 70
     1
102
RTVSPost2010Prop50
 90
       50
102
RTVSPost2010PropOp50
 70
     1
102
RTVSPost2010Prop51ColorIndex
 90
      256
102
RTVSPost2010Prop51ColorRGB
 90
-16777216
102
RTVSPost2010PropOp51
 70
     0
102
RTVSPost2010Prop52
140
1.0
102
RTVSPost2010PropOp52
 70
     0
102
RTVSPost2010Prop53
 90
        2
102
RTVSPost2010PropOp53
 70
     1
102
RTVSPost2010Prop54
  1
strokes_ogs.tif
102
RTVSPost2010PropOp54
 70
     1
102
RTVSPost2010Prop55
280
     0
102
RTVSPost2010PropOp55
 70
     1
102
RTVSPost2010Prop56
140
1.0
102
RTVSPost2010PropOp56
 70
     1
102
RTVSPost2010Prop57
140
1.0
102
RTVSPost2010PropOp57
 70
     1
102
RTVSPropertyOp0
 70
     1
102
RTVSPropertyOp1
 70
     1
102
RTVSPropertyOp2
 70
     1
102
RTVSPropertyOp3
 70
     1
102
RTVSPropertyOp4
 70
     1
102
RTVSPropertyOp5
 70
     1
102
RTVSPropertyOp6
 70
     1
102
RTVSPropertyOp7
 70
     1
102
RTVSPropertyOp8
 70
     1
102
RTVSPropertyOp9
 70
     1
102
RTVSPropertyOp10
 70
     1
102
RTVSPropertyOp11
 70
     1
102
RTVSPropertyOp12
 70
     1
102
RTVSPropertyOp13
 70
     1
102
RTVSPropertyOp14
 70
     1
102
RTVSPropertyOp15
 70
     1
102
RTVSPropertyOp16
 70
     1
102
RTVSPropertyOp17
 70
     1
102
RTVSPropertyOp18
 70
     1
102
RTVSPropertyOp19
 70
     1
102
RTVSPropertyOp20
 70
     1
102
RTVSPropertyOp21
 70
     1
102
RTVSPropertyOp22
 70
     1
102
RTVSPropertyOp23
 70
     1
102
RTVSPropertyOp24
 70
     1
102
RTVSPropertyOp25
 70
     1
102
RTVSPropertyOp26
 70
     1
102
RTVSPropertyOp27
 70
     1
102
RTVSPropertyOp28
 70
     1
102
RTVSPropertyOp29
 70
     1
102
RTVSPropertyOp30
 70
     1
102
RTVSPropertyOp31
 70
     1
102
RTVSPropertyOp32
 70
     1
102
RTVSPropertyOp33
 70
     1
102
RTVSPropertyOp34
 70
     1
102
RTVSPropertyOp35
 70
     1
102
RTVSPropertyOp36
 70
     1
102
RTVSPropertyOp37
 70
     1
102
RTVSPropertyOp38
 70
     1
102
RTVSPropertyOp39
 70
     1
102
RTVSPropertyOp40
 70
     1
102
RTVSPropertyOp41
 70
     1
102
RTVSPropertyOp42
 70
     1
102
RTVSPropertyOp43
 70
     1
102
RTVSPropertyOp44
 70
     1
102
RTVSPropertyOp45
 70
     1
102
RTVSPropertyOp46
 70
     1
102
RTVSPropertyOp47
 70
     1
102
RTVSPropertyOp48
 70
     1
102
RTVSPropertyOp49
 70
     1
102
RTVSPropertyOp50
 70
     1
102
RTVSPropertyOp51
 70
     0
102
RTVSPropertyOp52
 70
     0
102
RTVSPropertyOp53
 70
     1
102
RTVSPropertyOp54
 70
     1
102
RTVSPropertyOp55
 70
     1
102
RTVSPropertyOp56
 70
     1
102
RTVSPropertyOp57
 70
     1
102
RTVSPropertyOp58
 70
     1
102
RTVSPropertyOp59
 70
     1
102
RTVSPropertyOp60
 70
     1
102
RTVSPropertyOp61
 70
     1
102
RTVSPropertyOp62
 70
     1
  0
XRECORD
  5
595
102
{ACAD_REACTORS
330
594
102
}
330
594
100
AcDbXrecord
280
     1
102
RTVSPost2010Prop28
280
     0
102
RTVSPost2010PropOp28
 70
     1
102
RTVSPost2010Prop29
280
     1
102
RTVSPost2010PropOp29
 70
     1
102
RTVSPost2010Prop30
280
     1
102
RTVSPost2010PropOp30
 70
     1
102
RTVSPost2010Prop31
280
     0
102
RTVSPost2010PropOp31
 70
     1
102
RTVSPost2010Prop32
280
     0
102
RTVSPost2010PropOp32
 70
     1
102
RTVSPost2010Prop33
280
     0
102
RTVSPost2010PropOp33
 70
     1
102
RTVSPost2010Prop34
280
     0
102
RTVSPost2010PropOp34
 70
     1
102
RTVSPost2010Prop35
280
     0
102
RTVSPost2010PropOp35
 70
     1
102
RTVSPost2010Prop36
280
     0
102
RTVSPost2010PropOp36
 70
     1
102
RTVSPost2010Prop37
 90
       50
102
RTVSPost2010PropOp37
 70
     1
102
RTVSPost2010Prop38
140
0.0
102
RTVSPost2010PropOp38
 70
     1
102
RTVSPost2010Prop39
140
1.0
102
RTVSPost2010PropOp39
 70
     1
102
RTVSPost2010Prop40
 90
        0
102
RTVSPost2010PropOp40
 70
     1
102
RTVSPost2010Prop41ColorIndex
 90
       18
102
RTVSPost2010Prop41ColorRGB
 90
        0
102
RTVSPost2010PropOp41
 70
     1
102
RTVSPost2010Prop42
 90
       50
102
RTVSPost2010PropOp42
 70
     1
102
RTVSPost2010Prop43
 90
        3
102
RTVSPost2010PropOp43
 70
     1
102
RTVSPost2010Prop44ColorIndex
 90
        5
102
RTVSPost2010Prop44ColorRGB
 90
      255
102
RTVSPost2010PropOp44
 70
     1
102
RTVSPost2010Prop45
280
     0
102
RTVSPost2010PropOp45
 70
     1
102
RTVSPost2010Prop46
 90
       50
102
RTVSPost2010PropOp46
 70
     1
102
RTVSPost2010Prop47
 90
       50
102
RTVSPost2010PropOp47
 70
     1
102
RTVSPost2010Prop48
 90
       50
102
RTVSPost2010PropOp48
 70
     1
102
RTVSPost2010Prop49
280
     0
102
RTVSPost2010PropOp49
 70
     1
102
RTVSPost2010Prop50
 90
       50
102
RTVSPost2010PropOp50
 70
     1
102
RTVSPost2010Prop51ColorIndex
 90
      256
102
RTVSPost2010Prop51ColorRGB
 90
-16777216
102
RTVSPost2010PropOp51
 70
     0
102
RTVSPost2010Prop52
140
1.0
102
RTVSPost2010PropOp52
 70
     0
102
RTVSPost2010Prop53
 90
        2
102
RTVSPost2010PropOp53
 70
     1
102
RTVSPost2010Prop54
  1
strokes_ogs.tif
102
RTVSPost2010PropOp54
 70
     1
102
RTVSPost2010Prop55
280
     0
102
RTVSPost2010PropOp55
 70
     1
102
RTVSPost2010Prop56
140
1.0
102
RTVSPost2010PropOp56
 70
     1
102
RTVSPost2010Prop57
140
1.0
102
RTVSPost2010PropOp57
 70
     1
102
RTVSPropertyOp0
 70
     0
102
RTVSPropertyOp1
 70
     0
102
RTVSPropertyOp2
 70
     0
102
RTVSPropertyOp3
 70
     0
102
RTVSPropertyOp4
 70
     0
102
RTVSPropertyOp5
 70
     0
102
RTVSPropertyOp6
 70
     0
102
RTVSPropertyOp7
 70
     0
102
RTVSPropertyOp8
 70
     0
102
RTVSPropertyOp9
 70
     0
102
RTVSPropertyOp10
 70
     0
102
RTVSPropertyOp11
 70
     0
102
RTVSPropertyOp12
 70
     0
102
RTVSPropertyOp13
 70
     0
102
RTVSPropertyOp14
 70
     2
102
RTVSPropertyOp15
 70
     0
102
RTVSPropertyOp16
 70
     0
102
RTVSPropertyOp17
 70
     0
102
RTVSPropertyOp18
 70
     0
102
RTVSPropertyOp19
 70
     0
102
RTVSPropertyOp20
 70
     0
102
RTVSPropertyOp21
 70
     0
102
RTVSPropertyOp22
 70
     0
102
RTVSPropertyOp23
 70
     0
102
RTVSPropertyOp24
 70
     0
102
RTVSPropertyOp25
 70
     0
102
RTVSPropertyOp26
 70
     0
102
RTVSPropertyOp27
 70
     0
102
RTVSPropertyOp28
 70
     1
102
RTVSPropertyOp29
 70
     1
102
RTVSPropertyOp30
 70
     1
102
RTVSPropertyOp31
 70
     1
102
RTVSPropertyOp32
 70
     1
102
RTVSPropertyOp33
 70
     1
102
RTVSPropertyOp34
 70
     1
102
RTVSPropertyOp35
 70
     1
102
RTVSPropertyOp36
 70
     1
102
RTVSPropertyOp37
 70
     1
102
RTVSPropertyOp38
 70
     1
102
RTVSPropertyOp39
 70
     1
102
RTVSPropertyOp40
 70
     1
102
RTVSPropertyOp41
 70
     1
102
RTVSPropertyOp42
 70
     1
102
RTVSPropertyOp43
 70
     1
102
RTVSPropertyOp44
 70
     1
102
RTVSPropertyOp45
 70
     1
102
RTVSPropertyOp46
 70
     1
102
RTVSPropertyOp47
 70
     1
102
RTVSPropertyOp48
 70
     1
102
RTVSPropertyOp49
 70
     1
102
RTVSPropertyOp50
 70
     1
102
RTVSPropertyOp51
 70
     0
102
RTVSPropertyOp52
 70
     0
102
RTVSPropertyOp53
 70
     1
102
RTVSPropertyOp54
 70
     1
102
RTVSPropertyOp55
 70
     1
102
RTVSPropertyOp56
 70
     1
102
RTVSPropertyOp57
 70
     1
102
RTVSPropertyOp58
 70
     1
102
RTVSPropertyOp59
 70
     1
102
RTVSPropertyOp60
 70
     1
102
RTVSPropertyOp61
 70
     1
102
RTVSPropertyOp62
 70
     1
  0
XRECORD
  5
58E
102
{ACAD_REACTORS
330
58D
102
}
330
58D
100
AcDbXrecord
280
     1
102
RTVSPost2010Prop28
280
     0
102
RTVSPost2010PropOp28
 70
     1
102
RTVSPost2010Prop29
280
     1
102
RTVSPost2010PropOp29
 70
     1
102
RTVSPost2010Prop30
280
     1
102
RTVSPost2010PropOp30
 70
     1
102
RTVSPost2010Prop31
280
     0
102
RTVSPost2010PropOp31
 70
     1
102
RTVSPost2010Prop32
280
     0
102
RTVSPost2010PropOp32
 70
     1
102
RTVSPost2010Prop33
280
     0
102
RTVSPost2010PropOp33
 70
     1
102
RTVSPost2010Prop34
280
     0
102
RTVSPost2010PropOp34
 70
     1
102
RTVSPost2010Prop35
280
     0
102
RTVSPost2010PropOp35
 70
     1
102
RTVSPost2010Prop36
280
     0
102
RTVSPost2010PropOp36
 70
     1
102
RTVSPost2010Prop37
 90
       50
102
RTVSPost2010PropOp37
 70
     1
102
RTVSPost2010Prop38
140
0.0
102
RTVSPost2010PropOp38
 70
     1
102
RTVSPost2010Prop39
140
1.0
102
RTVSPost2010PropOp39
 70
     1
102
RTVSPost2010Prop40
 90
        0
102
RTVSPost2010PropOp40
 70
     1
102
RTVSPost2010Prop41ColorIndex
 90
       18
102
RTVSPost2010Prop41ColorRGB
 90
        0
102
RTVSPost2010PropOp41
 70
     1
102
RTVSPost2010Prop42
 90
       50
102
RTVSPost2010PropOp42
 70
     1
102
RTVSPost2010Prop43
 90
        3
102
RTVSPost2010PropOp43
 70
     1
102
RTVSPost2010Prop44ColorIndex
 90
        5
102
RTVSPost2010Prop44ColorRGB
 90
      255
102
RTVSPost2010PropOp44
 70
     1
102
RTVSPost2010Prop45
280
     0
102
RTVSPost2010PropOp45
 70
     1
102
RTVSPost2010Prop46
 90
       50
102
RTVSPost2010PropOp46
 70
     1
102
RTVSPost2010Prop47
 90
       50
102
RTVSPost2010PropOp47
 70
     1
102
RTVSPost2010Prop48
 90
       50
102
RTVSPost2010PropOp48
 70
     1
102
RTVSPost2010Prop49
280
     0
102
RTVSPost2010PropOp49
 70
     1
102
RTVSPost2010Prop50
 90
       50
102
RTVSPost2010PropOp50
 70
     1
102
RTVSPost2010Prop51ColorIndex
 90
      256
102
RTVSPost2010Prop51ColorRGB
 90
-16777216
102
RTVSPost2010PropOp51
 70
     0
102
RTVSPost2010Prop52
140
1.0
102
RTVSPost2010PropOp52
 70
     0
102
RTVSPost2010Prop53
 90
        2
102
RTVSPost2010PropOp53
 70
     1
102
RTVSPost2010Prop54
  1
strokes_ogs.tif
102
RTVSPost2010PropOp54
 70
     1
102
RTVSPost2010Prop55
280
     0
102
RTVSPost2010PropOp55
 70
     1
102
RTVSPost2010Prop56
140
1.0
102
RTVSPost2010PropOp56
 70
     1
102
RTVSPost2010Prop57
140
1.0
102
RTVSPost2010PropOp57
 70
     1
102
RTVSPropertyOp0
 70
     1
102
RTVSPropertyOp1
 70
     1
102
RTVSPropertyOp2
 70
     1
102
RTVSPropertyOp3
 70
     1
102
RTVSPropertyOp4
 70
     1
102
RTVSPropertyOp5
 70
     1
102
RTVSPropertyOp6
 70
     1
102
RTVSPropertyOp7
 70
     1
102
RTVSPropertyOp8
 70
     1
102
RTVSPropertyOp9
 70
     1
102
RTVSPropertyOp10
 70
     1
102
RTVSPropertyOp11
 70
     1
102
RTVSPropertyOp12
 70
     1
102
RTVSPropertyOp13
 70
     1
102
RTVSPropertyOp14
 70
     1
102
RTVSPropertyOp15
 70
     1
102
RTVSPropertyOp16
 70
     1
102
RTVSPropertyOp17
 70
     1
102
RTVSPropertyOp18
 70
     1
102
RTVSPropertyOp19
 70
     1
102
RTVSPropertyOp20
 70
     1
102
RTVSPropertyOp21
 70
     1
102
RTVSPropertyOp22
 70
     1
102
RTVSPropertyOp23
 70
     1
102
RTVSPropertyOp24
 70
     1
102
RTVSPropertyOp25
 70
     1
102
RTVSPropertyOp26
 70
     1
102
RTVSPropertyOp27
 70
     1
102
RTVSPropertyOp28
 70
     1
102
RTVSPropertyOp29
 70
     1
102
RTVSPropertyOp30
 70
     1
102
RTVSPropertyOp31
 70
     1
102
RTVSPropertyOp32
 70
     1
102
RTVSPropertyOp33
 70
     1
102
RTVSPropertyOp34
 70
     1
102
RTVSPropertyOp35
 70
     1
102
RTVSPropertyOp36
 70
     1
102
RTVSPropertyOp37
 70
     1
102
RTVSPropertyOp38
 70
     1
102
RTVSPropertyOp39
 70
     1
102
RTVSPropertyOp40
 70
     1
102
RTVSPropertyOp41
 70
     1
102
RTVSPropertyOp42
 70
     1
102
RTVSPropertyOp43
 70
     1
102
RTVSPropertyOp44
 70
     1
102
RTVSPropertyOp45
 70
     1
102
RTVSPropertyOp46
 70
     1
102
RTVSPropertyOp47
 70
     1
102
RTVSPropertyOp48
 70
     1
102
RTVSPropertyOp49
 70
     1
102
RTVSPropertyOp50
 70
     1
102
RTVSPropertyOp51
 70
     0
102
RTVSPropertyOp52
 70
     0
102
RTVSPropertyOp53
 70
     1
102
RTVSPropertyOp54
 70
     1
102
RTVSPropertyOp55
 70
     1
102
RTVSPropertyOp56
 70
     1
102
RTVSPropertyOp57
 70
     1
102
RTVSPropertyOp58
 70
     1
102
RTVSPropertyOp59
 70
     1
102
RTVSPropertyOp60
 70
     1
102
RTVSPropertyOp61
 70
     1
102
RTVSPropertyOp62
 70
     1
  0
XRECORD
  5
597
102
{ACAD_REACTORS
330
596
102
}
330
596
100
AcDbXrecord
280
     1
102
RTVSPost2010Prop28
280
     0
102
RTVSPost2010PropOp28
 70
     1
102
RTVSPost2010Prop29
280
     1
102
RTVSPost2010PropOp29
 70
     1
102
RTVSPost2010Prop30
280
     1
102
RTVSPost2010PropOp30
 70
     1
102
RTVSPost2010Prop31
280
     0
102
RTVSPost2010PropOp31
 70
     1
102
RTVSPost2010Prop32
280
     0
102
RTVSPost2010PropOp32
 70
     1
102
RTVSPost2010Prop33
280
     0
102
RTVSPost2010PropOp33
 70
     1
102
RTVSPost2010Prop34
280
     0
102
RTVSPost2010PropOp34
 70
     1
102
RTVSPost2010Prop35
280
     0
102
RTVSPost2010PropOp35
 70
     1
102
RTVSPost2010Prop36
280
     0
102
RTVSPost2010PropOp36
 70
     1
102
RTVSPost2010Prop37
 90
       50
102
RTVSPost2010PropOp37
 70
     1
102
RTVSPost2010Prop38
140
0.0
102
RTVSPost2010PropOp38
 70
     1
102
RTVSPost2010Prop39
140
1.0
102
RTVSPost2010PropOp39
 70
     1
102
RTVSPost2010Prop40
 90
        0
102
RTVSPost2010PropOp40
 70
     1
102
RTVSPost2010Prop41ColorIndex
 90
       18
102
RTVSPost2010Prop41ColorRGB
 90
        0
102
RTVSPost2010PropOp41
 70
     1
102
RTVSPost2010Prop42
 90
       50
102
RTVSPost2010PropOp42
 70
     1
102
RTVSPost2010Prop43
 90
        3
102
RTVSPost2010PropOp43
 70
     1
102
RTVSPost2010Prop44ColorIndex
 90
        5
102
RTVSPost2010Prop44ColorRGB
 90
      255
102
RTVSPost2010PropOp44
 70
     1
102
RTVSPost2010Prop45
280
     0
102
RTVSPost2010PropOp45
 70
     1
102
RTVSPost2010Prop46
 90
       50
102
RTVSPost2010PropOp46
 70
     1
102
RTVSPost2010Prop47
 90
       50
102
RTVSPost2010PropOp47
 70
     1
102
RTVSPost2010Prop48
 90
       50
102
RTVSPost2010PropOp48
 70
     1
102
RTVSPost2010Prop49
280
     0
102
RTVSPost2010PropOp49
 70
     1
102
RTVSPost2010Prop50
 90
       50
102
RTVSPost2010PropOp50
 70
     1
102
RTVSPost2010Prop51ColorIndex
 90
      256
102
RTVSPost2010Prop51ColorRGB
 90
-16777216
102
RTVSPost2010PropOp51
 70
     0
102
RTVSPost2010Prop52
140
1.0
102
RTVSPost2010PropOp52
 70
     0
102
RTVSPost2010Prop53
 90
        2
102
RTVSPost2010PropOp53
 70
     1
102
RTVSPost2010Prop54
  1
strokes_ogs.tif
102
RTVSPost2010PropOp54
 70
     1
102
RTVSPost2010Prop55
280
     0
102
RTVSPost2010PropOp55
 70
     1
102
RTVSPost2010Prop56
140
1.0
102
RTVSPost2010PropOp56
 70
     1
102
RTVSPost2010Prop57
140
1.0
102
RTVSPost2010PropOp57
 70
     1
102
RTVSPropertyOp0
 70
     0
102
RTVSPropertyOp1
 70
     0
102
RTVSPropertyOp2
 70
     0
102
RTVSPropertyOp3
 70
     0
102
RTVSPropertyOp4
 70
     0
102
RTVSPropertyOp5
 70
     0
102
RTVSPropertyOp6
 70
     0
102
RTVSPropertyOp7
 70
     0
102
RTVSPropertyOp8
 70
     0
102
RTVSPropertyOp9
 70
     0
102
RTVSPropertyOp10
 70
     0
102
RTVSPropertyOp11
 70
     0
102
RTVSPropertyOp12
 70
     0
102
RTVSPropertyOp13
 70
     0
102
RTVSPropertyOp14
 70
     2
102
RTVSPropertyOp15
 70
     0
102
RTVSPropertyOp16
 70
     0
102
RTVSPropertyOp17
 70
     0
102
RTVSPropertyOp18
 70
     0
102
RTVSPropertyOp19
 70
     0
102
RTVSPropertyOp20
 70
     0
102
RTVSPropertyOp21
 70
     0
102
RTVSPropertyOp22
 70
     0
102
RTVSPropertyOp23
 70
     0
102
RTVSPropertyOp24
 70
     0
102
RTVSPropertyOp25
 70
     0
102
RTVSPropertyOp26
 70
     0
102
RTVSPropertyOp27
 70
     0
102
RTVSPropertyOp28
 70
     1
102
RTVSPropertyOp29
 70
     1
102
RTVSPropertyOp30
 70
     1
102
RTVSPropertyOp31
 70
     1
102
RTVSPropertyOp32
 70
     1
102
RTVSPropertyOp33
 70
     1
102
RTVSPropertyOp34
 70
     1
102
RTVSPropertyOp35
 70
     1
102
RTVSPropertyOp36
 70
     1
102
RTVSPropertyOp37
 70
     1
102
RTVSPropertyOp38
 70
     1
102
RTVSPropertyOp39
 70
     1
102
RTVSPropertyOp40
 70
     1
102
RTVSPropertyOp41
 70
     1
102
RTVSPropertyOp42
 70
     1
102
RTVSPropertyOp43
 70
     1
102
RTVSPropertyOp44
 70
     1
102
RTVSPropertyOp45
 70
     1
102
RTVSPropertyOp46
 70
     1
102
RTVSPropertyOp47
 70
     1
102
RTVSPropertyOp48
 70
     1
102
RTVSPropertyOp49
 70
     1
102
RTVSPropertyOp50
 70
     1
102
RTVSPropertyOp51
 70
     0
102
RTVSPropertyOp52
 70
     0
102
RTVSPropertyOp53
 70
     1
102
RTVSPropertyOp54
 70
     1
102
RTVSPropertyOp55
 70
     1
102
RTVSPropertyOp56
 70
     1
102
RTVSPropertyOp57
 70
     1
102
RTVSPropertyOp58
 70
     1
102
RTVSPropertyOp59
 70
     1
102
RTVSPropertyOp60
 70
     1
102
RTVSPropertyOp61
 70
     1
102
RTVSPropertyOp62
 70
     1
  0
XRECORD
  5
586
102
{ACAD_REACTORS
330
585
102
}
330
585
100
AcDbXrecord
280
     1
102
RTVSPost2010Prop28
280
     0
102
RTVSPost2010PropOp28
 70
     1
102
RTVSPost2010Prop29
280
     1
102
RTVSPost2010PropOp29
 70
     1
102
RTVSPost2010Prop30
280
     1
102
RTVSPost2010PropOp30
 70
     1
102
RTVSPost2010Prop31
280
     0
102
RTVSPost2010PropOp31
 70
     1
102
RTVSPost2010Prop32
280
     0
102
RTVSPost2010PropOp32
 70
     1
102
RTVSPost2010Prop33
280
     0
102
RTVSPost2010PropOp33
 70
     1
102
RTVSPost2010Prop34
280
     0
102
RTVSPost2010PropOp34
 70
     1
102
RTVSPost2010Prop35
280
     0
102
RTVSPost2010PropOp35
 70
     1
102
RTVSPost2010Prop36
280
     0
102
RTVSPost2010PropOp36
 70
     1
102
RTVSPost2010Prop37
 90
       50
102
RTVSPost2010PropOp37
 70
     1
102
RTVSPost2010Prop38
140
0.0
102
RTVSPost2010PropOp38
 70
     1
102
RTVSPost2010Prop39
140
1.0
102
RTVSPost2010PropOp39
 70
     1
102
RTVSPost2010Prop40
 90
        0
102
RTVSPost2010PropOp40
 70
     1
102
RTVSPost2010Prop41ColorIndex
 90
       18
102
RTVSPost2010Prop41ColorRGB
 90
        0
102
RTVSPost2010PropOp41
 70
     1
102
RTVSPost2010Prop42
 90
       50
102
RTVSPost2010PropOp42
 70
     1
102
RTVSPost2010Prop43
 90
        3
102
RTVSPost2010PropOp43
 70
     1
102
RTVSPost2010Prop44ColorIndex
 90
        5
102
RTVSPost2010Prop44ColorRGB
 90
      255
102
RTVSPost2010PropOp44
 70
     1
102
RTVSPost2010Prop45
280
     0
102
RTVSPost2010PropOp45
 70
     1
102
RTVSPost2010Prop46
 90
       50
102
RTVSPost2010PropOp46
 70
     1
102
RTVSPost2010Prop47
 90
       50
102
RTVSPost2010PropOp47
 70
     1
102
RTVSPost2010Prop48
 90
       50
102
RTVSPost2010PropOp48
 70
     1
102
RTVSPost2010Prop49
280
     0
102
RTVSPost2010PropOp49
 70
     1
102
RTVSPost2010Prop50
 90
       50
102
RTVSPost2010PropOp50
 70
     1
102
RTVSPost2010Prop51ColorIndex
 90
      256
102
RTVSPost2010Prop51ColorRGB
 90
-16777216
102
RTVSPost2010PropOp51
 70
     0
102
RTVSPost2010Prop52
140
1.0
102
RTVSPost2010PropOp52
 70
     0
102
RTVSPost2010Prop53
 90
        2
102
RTVSPost2010PropOp53
 70
     1
102
RTVSPost2010Prop54
  1
strokes_ogs.tif
102
RTVSPost2010PropOp54
 70
     1
102
RTVSPost2010Prop55
280
     0
102
RTVSPost2010PropOp55
 70
     1
102
RTVSPost2010Prop56
140
1.0
102
RTVSPost2010PropOp56
 70
     1
102
RTVSPost2010Prop57
140
1.0
102
RTVSPost2010PropOp57
 70
     1
102
RTVSPropertyOp0
 70
     1
102
RTVSPropertyOp1
 70
     1
102
RTVSPropertyOp2
 70
     1
102
RTVSPropertyOp3
 70
     1
102
RTVSPropertyOp4
 70
     1
102
RTVSPropertyOp5
 70
     1
102
RTVSPropertyOp6
 70
     1
102
RTVSPropertyOp7
 70
     1
102
RTVSPropertyOp8
 70
     1
102
RTVSPropertyOp9
 70
     1
102
RTVSPropertyOp10
 70
     1
102
RTVSPropertyOp11
 70
     1
102
RTVSPropertyOp12
 70
     1
102
RTVSPropertyOp13
 70
     1
102
RTVSPropertyOp14
 70
     1
102
RTVSPropertyOp15
 70
     1
102
RTVSPropertyOp16
 70
     1
102
RTVSPropertyOp17
 70
     1
102
RTVSPropertyOp18
 70
     1
102
RTVSPropertyOp19
 70
     1
102
RTVSPropertyOp20
 70
     1
102
RTVSPropertyOp21
 70
     1
102
RTVSPropertyOp22
 70
     1
102
RTVSPropertyOp23
 70
     1
102
RTVSPropertyOp24
 70
     1
102
RTVSPropertyOp25
 70
     1
102
RTVSPropertyOp26
 70
     1
102
RTVSPropertyOp27
 70
     1
102
RTVSPropertyOp28
 70
     1
102
RTVSPropertyOp29
 70
     1
102
RTVSPropertyOp30
 70
     1
102
RTVSPropertyOp31
 70
     1
102
RTVSPropertyOp32
 70
     1
102
RTVSPropertyOp33
 70
     1
102
RTVSPropertyOp34
 70
     1
102
RTVSPropertyOp35
 70
     1
102
RTVSPropertyOp36
 70
     1
102
RTVSPropertyOp37
 70
     1
102
RTVSPropertyOp38
 70
     1
102
RTVSPropertyOp39
 70
     1
102
RTVSPropertyOp40
 70
     1
102
RTVSPropertyOp41
 70
     1
102
RTVSPropertyOp42
 70
     1
102
RTVSPropertyOp43
 70
     1
102
RTVSPropertyOp44
 70
     1
102
RTVSPropertyOp45
 70
     1
102
RTVSPropertyOp46
 70
     1
102
RTVSPropertyOp47
 70
     1
102
RTVSPropertyOp48
 70
     1
102
RTVSPropertyOp49
 70
     1
102
RTVSPropertyOp50
 70
     1
102
RTVSPropertyOp51
 70
     0
102
RTVSPropertyOp52
 70
     0
102
RTVSPropertyOp53
 70
     1
102
RTVSPropertyOp54
 70
     1
102
RTVSPropertyOp55
 70
     1
102
RTVSPropertyOp56
 70
     1
102
RTVSPropertyOp57
 70
     1
102
RTVSPropertyOp58
 70
     1
102
RTVSPropertyOp59
 70
     1
102
RTVSPropertyOp60
 70
     1
102
RTVSPropertyOp61
 70
     1
102
RTVSPropertyOp62
 70
     1
  0
XRECORD
  5
5A3
102
{ACAD_REACTORS
330
5A2
102
}
330
5A2
100
AcDbXrecord
280
     1
102
RTVSPost2010Prop28
280
     0
102
RTVSPost2010PropOp28
 70
     1
102
RTVSPost2010Prop29
280
     1
102
RTVSPost2010PropOp29
 70
     1
102
RTVSPost2010Prop30
280
     1
102
RTVSPost2010PropOp30
 70
     1
102
RTVSPost2010Prop31
280
     0
102
RTVSPost2010PropOp31
 70
     1
102
RTVSPost2010Prop32
280
     0
102
RTVSPost2010PropOp32
 70
     1
102
RTVSPost2010Prop33
280
     0
102
RTVSPost2010PropOp33
 70
     1
102
RTVSPost2010Prop34
280
     0
102
RTVSPost2010PropOp34
 70
     1
102
RTVSPost2010Prop35
280
     0
102
RTVSPost2010PropOp35
 70
     1
102
RTVSPost2010Prop36
280
     0
102
RTVSPost2010PropOp36
 70
     1
102
RTVSPost2010Prop37
 90
       50
102
RTVSPost2010PropOp37
 70
     1
102
RTVSPost2010Prop38
140
0.0
102
RTVSPost2010PropOp38
 70
     1
102
RTVSPost2010Prop39
140
1.0
102
RTVSPost2010PropOp39
 70
     1
102
RTVSPost2010Prop40
 90
        0
102
RTVSPost2010PropOp40
 70
     1
102
RTVSPost2010Prop41ColorIndex
 90
       18
102
RTVSPost2010Prop41ColorRGB
 90
        0
102
RTVSPost2010PropOp41
 70
     1
102
RTVSPost2010Prop42
 90
       50
102
RTVSPost2010PropOp42
 70
     1
102
RTVSPost2010Prop43
 90
        3
102
RTVSPost2010PropOp43
 70
     1
102
RTVSPost2010Prop44ColorIndex
 90
        5
102
RTVSPost2010Prop44ColorRGB
 90
      255
102
RTVSPost2010PropOp44
 70
     1
102
RTVSPost2010Prop45
280
     0
102
RTVSPost2010PropOp45
 70
     1
102
RTVSPost2010Prop46
 90
       50
102
RTVSPost2010PropOp46
 70
     1
102
RTVSPost2010Prop47
 90
       50
102
RTVSPost2010PropOp47
 70
     1
102
RTVSPost2010Prop48
 90
       50
102
RTVSPost2010PropOp48
 70
     1
102
RTVSPost2010Prop49
280
     0
102
RTVSPost2010PropOp49
 70
     1
102
RTVSPost2010Prop50
 90
       50
102
RTVSPost2010PropOp50
 70
     1
102
RTVSPost2010Prop51ColorIndex
 90
      256
102
RTVSPost2010Prop51ColorRGB
 90
-16777216
102
RTVSPost2010PropOp51
 70
     0
102
RTVSPost2010Prop52
140
1.0
102
RTVSPost2010PropOp52
 70
     0
102
RTVSPost2010Prop53
 90
        2
102
RTVSPost2010PropOp53
 70
     1
102
RTVSPost2010Prop54
  1
strokes_ogs.tif
102
RTVSPost2010PropOp54
 70
     1
102
RTVSPost2010Prop55
280
     0
102
RTVSPost2010PropOp55
 70
     1
102
RTVSPost2010Prop56
140
1.0
102
RTVSPost2010PropOp56
 70
     1
102
RTVSPost2010Prop57
140
1.0
102
RTVSPost2010PropOp57
 70
     1
102
RTVSPropertyOp0
 70
     1
102
RTVSPropertyOp1
 70
     1
102
RTVSPropertyOp2
 70
     1
102
RTVSPropertyOp3
 70
     1
102
RTVSPropertyOp4
 70
     1
102
RTVSPropertyOp5
 70
     1
102
RTVSPropertyOp6
 70
     1
102
RTVSPropertyOp7
 70
     1
102
RTVSPropertyOp8
 70
     1
102
RTVSPropertyOp9
 70
     1
102
RTVSPropertyOp10
 70
     1
102
RTVSPropertyOp11
 70
     1
102
RTVSPropertyOp12
 70
     1
102
RTVSPropertyOp13
 70
     1
102
RTVSPropertyOp14
 70
     1
102
RTVSPropertyOp15
 70
     1
102
RTVSPropertyOp16
 70
     1
102
RTVSPropertyOp17
 70
     1
102
RTVSPropertyOp18
 70
     1
102
RTVSPropertyOp19
 70
     1
102
RTVSPropertyOp20
 70
     1
102
RTVSPropertyOp21
 70
     1
102
RTVSPropertyOp22
 70
     1
102
RTVSPropertyOp23
 70
     1
102
RTVSPropertyOp24
 70
     1
102
RTVSPropertyOp25
 70
     1
102
RTVSPropertyOp26
 70
     1
102
RTVSPropertyOp27
 70
     1
102
RTVSPropertyOp28
 70
     1
102
RTVSPropertyOp29
 70
     1
102
RTVSPropertyOp30
 70
     1
102
RTVSPropertyOp31
 70
     1
102
RTVSPropertyOp32
 70
     1
102
RTVSPropertyOp33
 70
     1
102
RTVSPropertyOp34
 70
     1
102
RTVSPropertyOp35
 70
     1
102
RTVSPropertyOp36
 70
     1
102
RTVSPropertyOp37
 70
     1
102
RTVSPropertyOp38
 70
     1
102
RTVSPropertyOp39
 70
     1
102
RTVSPropertyOp40
 70
     1
102
RTVSPropertyOp41
 70
     1
102
RTVSPropertyOp42
 70
     1
102
RTVSPropertyOp43
 70
     1
102
RTVSPropertyOp44
 70
     1
102
RTVSPropertyOp45
 70
     1
102
RTVSPropertyOp46
 70
     1
102
RTVSPropertyOp47
 70
     1
102
RTVSPropertyOp48
 70
     1
102
RTVSPropertyOp49
 70
     1
102
RTVSPropertyOp50
 70
     1
102
RTVSPropertyOp51
 70
     0
102
RTVSPropertyOp52
 70
     0
102
RTVSPropertyOp53
 70
     1
102
RTVSPropertyOp54
 70
     1
102
RTVSPropertyOp55
 70
     1
102
RTVSPropertyOp56
 70
     1
102
RTVSPropertyOp57
 70
     1
102
RTVSPropertyOp58
 70
     1
102
RTVSPropertyOp59
 70
     1
102
RTVSPropertyOp60
 70
     1
102
RTVSPropertyOp61
 70
     1
102
RTVSPropertyOp62
 70
     1
  0
XRECORD
  5
5A1
102
{ACAD_REACTORS
330
5A0
102
}
330
5A0
100
AcDbXrecord
280
     1
102
RTVSPost2010Prop28
280
     0
102
RTVSPost2010PropOp28
 70
     1
102
RTVSPost2010Prop29
280
     1
102
RTVSPost2010PropOp29
 70
     1
102
RTVSPost2010Prop30
280
     1
102
RTVSPost2010PropOp30
 70
     1
102
RTVSPost2010Prop31
280
     0
102
RTVSPost2010PropOp31
 70
     1
102
RTVSPost2010Prop32
280
     0
102
RTVSPost2010PropOp32
 70
     1
102
RTVSPost2010Prop33
280
     0
102
RTVSPost2010PropOp33
 70
     1
102
RTVSPost2010Prop34
280
     0
102
RTVSPost2010PropOp34
 70
     1
102
RTVSPost2010Prop35
280
     0
102
RTVSPost2010PropOp35
 70
     1
102
RTVSPost2010Prop36
280
     0
102
RTVSPost2010PropOp36
 70
     1
102
RTVSPost2010Prop37
 90
       50
102
RTVSPost2010PropOp37
 70
     1
102
RTVSPost2010Prop38
140
0.0
102
RTVSPost2010PropOp38
 70
     1
102
RTVSPost2010Prop39
140
1.0
102
RTVSPost2010PropOp39
 70
     1
102
RTVSPost2010Prop40
 90
        0
102
RTVSPost2010PropOp40
 70
     1
102
RTVSPost2010Prop41ColorIndex
 90
       18
102
RTVSPost2010Prop41ColorRGB
 90
        0
102
RTVSPost2010PropOp41
 70
     1
102
RTVSPost2010Prop42
 90
       50
102
RTVSPost2010PropOp42
 70
     1
102
RTVSPost2010Prop43
 90
        3
102
RTVSPost2010PropOp43
 70
     1
102
RTVSPost2010Prop44ColorIndex
 90
        5
102
RTVSPost2010Prop44ColorRGB
 90
      255
102
RTVSPost2010PropOp44
 70
     1
102
RTVSPost2010Prop45
280
     0
102
RTVSPost2010PropOp45
 70
     1
102
RTVSPost2010Prop46
 90
       50
102
RTVSPost2010PropOp46
 70
     1
102
RTVSPost2010Prop47
 90
       50
102
RTVSPost2010PropOp47
 70
     1
102
RTVSPost2010Prop48
 90
       50
102
RTVSPost2010PropOp48
 70
     1
102
RTVSPost2010Prop49
280
     0
102
RTVSPost2010PropOp49
 70
     1
102
RTVSPost2010Prop50
 90
       50
102
RTVSPost2010PropOp50
 70
     1
102
RTVSPost2010Prop51ColorIndex
 90
      256
102
RTVSPost2010Prop51ColorRGB
 90
-16777216
102
RTVSPost2010PropOp51
 70
     0
102
RTVSPost2010Prop52
140
1.0
102
RTVSPost2010PropOp52
 70
     0
102
RTVSPost2010Prop53
 90
        2
102
RTVSPost2010PropOp53
 70
     1
102
RTVSPost2010Prop54
  1
strokes_ogs.tif
102
RTVSPost2010PropOp54
 70
     1
102
RTVSPost2010Prop55
280
     0
102
RTVSPost2010PropOp55
 70
     1
102
RTVSPost2010Prop56
140
1.0
102
RTVSPost2010PropOp56
 70
     1
102
RTVSPost2010Prop57
140
1.0
102
RTVSPost2010PropOp57
 70
     1
102
RTVSPropertyOp0
 70
     1
102
RTVSPropertyOp1
 70
     1
102
RTVSPropertyOp2
 70
     1
102
RTVSPropertyOp3
 70
     1
102
RTVSPropertyOp4
 70
     1
102
RTVSPropertyOp5
 70
     1
102
RTVSPropertyOp6
 70
     1
102
RTVSPropertyOp7
 70
     1
102
RTVSPropertyOp8
 70
     1
102
RTVSPropertyOp9
 70
     1
102
RTVSPropertyOp10
 70
     1
102
RTVSPropertyOp11
 70
     1
102
RTVSPropertyOp12
 70
     1
102
RTVSPropertyOp13
 70
     1
102
RTVSPropertyOp14
 70
     1
102
RTVSPropertyOp15
 70
     1
102
RTVSPropertyOp16
 70
     1
102
RTVSPropertyOp17
 70
     1
102
RTVSPropertyOp18
 70
     1
102
RTVSPropertyOp19
 70
     1
102
RTVSPropertyOp20
 70
     1
102
RTVSPropertyOp21
 70
     1
102
RTVSPropertyOp22
 70
     1
102
RTVSPropertyOp23
 70
     1
102
RTVSPropertyOp24
 70
     1
102
RTVSPropertyOp25
 70
     1
102
RTVSPropertyOp26
 70
     1
102
RTVSPropertyOp27
 70
     1
102
RTVSPropertyOp28
 70
     1
102
RTVSPropertyOp29
 70
     1
102
RTVSPropertyOp30
 70
     1
102
RTVSPropertyOp31
 70
     1
102
RTVSPropertyOp32
 70
     1
102
RTVSPropertyOp33
 70
     1
102
RTVSPropertyOp34
 70
     1
102
RTVSPropertyOp35
 70
     1
102
RTVSPropertyOp36
 70
     1
102
RTVSPropertyOp37
 70
     1
102
RTVSPropertyOp38
 70
     1
102
RTVSPropertyOp39
 70
     1
102
RTVSPropertyOp40
 70
     1
102
RTVSPropertyOp41
 70
     1
102
RTVSPropertyOp42
 70
     1
102
RTVSPropertyOp43
 70
     1
102
RTVSPropertyOp44
 70
     1
102
RTVSPropertyOp45
 70
     1
102
RTVSPropertyOp46
 70
     1
102
RTVSPropertyOp47
 70
     1
102
RTVSPropertyOp48
 70
     1
102
RTVSPropertyOp49
 70
     1
102
RTVSPropertyOp50
 70
     1
102
RTVSPropertyOp51
 70
     0
102
RTVSPropertyOp52
 70
     0
102
RTVSPropertyOp53
 70
     1
102
RTVSPropertyOp54
 70
     1
102
RTVSPropertyOp55
 70
     1
102
RTVSPropertyOp56
 70
     1
102
RTVSPropertyOp57
 70
     1
102
RTVSPropertyOp58
 70
     1
102
RTVSPropertyOp59
 70
     1
102
RTVSPropertyOp60
 70
     1
102
RTVSPropertyOp61
 70
     1
102
RTVSPropertyOp62
 70
     1
  0
XRECORD
  5
59B
102
{ACAD_REACTORS
330
59A
102
}
330
59A
100
AcDbXrecord
280
     1
102
RTVSPost2010Prop28
280
     0
102
RTVSPost2010PropOp28
 70
     1
102
RTVSPost2010Prop29
280
     1
102
RTVSPost2010PropOp29
 70
     1
102
RTVSPost2010Prop30
280
     1
102
RTVSPost2010PropOp30
 70
     1
102
RTVSPost2010Prop31
280
     0
102
RTVSPost2010PropOp31
 70
     1
102
RTVSPost2010Prop32
280
     0
102
RTVSPost2010PropOp32
 70
     1
102
RTVSPost2010Prop33
280
     0
102
RTVSPost2010PropOp33
 70
     1
102
RTVSPost2010Prop34
280
     0
102
RTVSPost2010PropOp34
 70
     1
102
RTVSPost2010Prop35
280
     0
102
RTVSPost2010PropOp35
 70
     1
102
RTVSPost2010Prop36
280
     0
102
RTVSPost2010PropOp36
 70
     1
102
RTVSPost2010Prop37
 90
       50
102
RTVSPost2010PropOp37
 70
     1
102
RTVSPost2010Prop38
140
0.0
102
RTVSPost2010PropOp38
 70
     1
102
RTVSPost2010Prop39
140
1.0
102
RTVSPost2010PropOp39
 70
     1
102
RTVSPost2010Prop40
 90
        0
102
RTVSPost2010PropOp40
 70
     1
102
RTVSPost2010Prop41ColorIndex
 90
       18
102
RTVSPost2010Prop41ColorRGB
 90
        0
102
RTVSPost2010PropOp41
 70
     1
102
RTVSPost2010Prop42
 90
       50
102
RTVSPost2010PropOp42
 70
     1
102
RTVSPost2010Prop43
 90
        3
102
RTVSPost2010PropOp43
 70
     1
102
RTVSPost2010Prop44ColorIndex
 90
        5
102
RTVSPost2010Prop44ColorRGB
 90
      255
102
RTVSPost2010PropOp44
 70
     1
102
RTVSPost2010Prop45
280
     0
102
RTVSPost2010PropOp45
 70
     1
102
RTVSPost2010Prop46
 90
       50
102
RTVSPost2010PropOp46
 70
     1
102
RTVSPost2010Prop47
 90
       50
102
RTVSPost2010PropOp47
 70
     1
102
RTVSPost2010Prop48
 90
       50
102
RTVSPost2010PropOp48
 70
     1
102
RTVSPost2010Prop49
280
     0
102
RTVSPost2010PropOp49
 70
     1
102
RTVSPost2010Prop50
 90
       50
102
RTVSPost2010PropOp50
 70
     1
102
RTVSPost2010Prop51ColorIndex
 90
      256
102
RTVSPost2010Prop51ColorRGB
 90
-16777216
102
RTVSPost2010PropOp51
 70
     0
102
RTVSPost2010Prop52
140
1.0
102
RTVSPost2010PropOp52
 70
     0
102
RTVSPost2010Prop53
 90
        2
102
RTVSPost2010PropOp53
 70
     1
102
RTVSPost2010Prop54
  1
strokes_ogs.tif
102
RTVSPost2010PropOp54
 70
     1
102
RTVSPost2010Prop55
280
     0
102
RTVSPost2010PropOp55
 70
     1
102
RTVSPost2010Prop56
140
1.0
102
RTVSPost2010PropOp56
 70
     1
102
RTVSPost2010Prop57
140
1.0
102
RTVSPost2010PropOp57
 70
     1
102
RTVSPropertyOp0
 70
     1
102
RTVSPropertyOp1
 70
     1
102
RTVSPropertyOp2
 70
     1
102
RTVSPropertyOp3
 70
     1
102
RTVSPropertyOp4
 70
     1
102
RTVSPropertyOp5
 70
     1
102
RTVSPropertyOp6
 70
     1
102
RTVSPropertyOp7
 70
     1
102
RTVSPropertyOp8
 70
     1
102
RTVSPropertyOp9
 70
     1
102
RTVSPropertyOp10
 70
     1
102
RTVSPropertyOp11
 70
     1
102
RTVSPropertyOp12
 70
     1
102
RTVSPropertyOp13
 70
     1
102
RTVSPropertyOp14
 70
     1
102
RTVSPropertyOp15
 70
     1
102
RTVSPropertyOp16
 70
     1
102
RTVSPropertyOp17
 70
     1
102
RTVSPropertyOp18
 70
     1
102
RTVSPropertyOp19
 70
     1
102
RTVSPropertyOp20
 70
     1
102
RTVSPropertyOp21
 70
     1
102
RTVSPropertyOp22
 70
     1
102
RTVSPropertyOp23
 70
     1
102
RTVSPropertyOp24
 70
     1
102
RTVSPropertyOp25
 70
     1
102
RTVSPropertyOp26
 70
     1
102
RTVSPropertyOp27
 70
     1
102
RTVSPropertyOp28
 70
     1
102
RTVSPropertyOp29
 70
     1
102
RTVSPropertyOp30
 70
     1
102
RTVSPropertyOp31
 70
     1
102
RTVSPropertyOp32
 70
     1
102
RTVSPropertyOp33
 70
     1
102
RTVSPropertyOp34
 70
     1
102
RTVSPropertyOp35
 70
     1
102
RTVSPropertyOp36
 70
     1
102
RTVSPropertyOp37
 70
     1
102
RTVSPropertyOp38
 70
     1
102
RTVSPropertyOp39
 70
     1
102
RTVSPropertyOp40
 70
     1
102
RTVSPropertyOp41
 70
     1
102
RTVSPropertyOp42
 70
     1
102
RTVSPropertyOp43
 70
     1
102
RTVSPropertyOp44
 70
     1
102
RTVSPropertyOp45
 70
     1
102
RTVSPropertyOp46
 70
     1
102
RTVSPropertyOp47
 70
     1
102
RTVSPropertyOp48
 70
     1
102
RTVSPropertyOp49
 70
     1
102
RTVSPropertyOp50
 70
     1
102
RTVSPropertyOp51
 70
     0
102
RTVSPropertyOp52
 70
     0
102
RTVSPropertyOp53
 70
     1
102
RTVSPropertyOp54
 70
     1
102
RTVSPropertyOp55
 70
     1
102
RTVSPropertyOp56
 70
     1
102
RTVSPropertyOp57
 70
     1
102
RTVSPropertyOp58
 70
     1
102
RTVSPropertyOp59
 70
     1
102
RTVSPropertyOp60
 70
     1
102
RTVSPropertyOp61
 70
     1
102
RTVSPropertyOp62
 70
     1
  0
XRECORD
  5
59D
102
{ACAD_REACTORS
330
59C
102
}
330
59C
100
AcDbXrecord
280
     1
102
RTVSPost2010Prop28
280
     0
102
RTVSPost2010PropOp28
 70
     1
102
RTVSPost2010Prop29
280
     1
102
RTVSPost2010PropOp29
 70
     1
102
RTVSPost2010Prop30
280
     1
102
RTVSPost2010PropOp30
 70
     1
102
RTVSPost2010Prop31
280
     0
102
RTVSPost2010PropOp31
 70
     1
102
RTVSPost2010Prop32
280
     0
102
RTVSPost2010PropOp32
 70
     1
102
RTVSPost2010Prop33
280
     0
102
RTVSPost2010PropOp33
 70
     1
102
RTVSPost2010Prop34
280
     0
102
RTVSPost2010PropOp34
 70
     1
102
RTVSPost2010Prop35
280
     0
102
RTVSPost2010PropOp35
 70
     1
102
RTVSPost2010Prop36
280
     0
102
RTVSPost2010PropOp36
 70
     1
102
RTVSPost2010Prop37
 90
       50
102
RTVSPost2010PropOp37
 70
     1
102
RTVSPost2010Prop38
140
0.0
102
RTVSPost2010PropOp38
 70
     1
102
RTVSPost2010Prop39
140
1.0
102
RTVSPost2010PropOp39
 70
     1
102
RTVSPost2010Prop40
 90
        0
102
RTVSPost2010PropOp40
 70
     1
102
RTVSPost2010Prop41ColorIndex
 90
       18
102
RTVSPost2010Prop41ColorRGB
 90
        0
102
RTVSPost2010PropOp41
 70
     1
102
RTVSPost2010Prop42
 90
       50
102
RTVSPost2010PropOp42
 70
     1
102
RTVSPost2010Prop43
 90
        3
102
RTVSPost2010PropOp43
 70
     1
102
RTVSPost2010Prop44ColorIndex
 90
        5
102
RTVSPost2010Prop44ColorRGB
 90
      255
102
RTVSPost2010PropOp44
 70
     1
102
RTVSPost2010Prop45
280
     0
102
RTVSPost2010PropOp45
 70
     1
102
RTVSPost2010Prop46
 90
       50
102
RTVSPost2010PropOp46
 70
     1
102
RTVSPost2010Prop47
 90
       50
102
RTVSPost2010PropOp47
 70
     1
102
RTVSPost2010Prop48
 90
       50
102
RTVSPost2010PropOp48
 70
     1
102
RTVSPost2010Prop49
280
     0
102
RTVSPost2010PropOp49
 70
     1
102
RTVSPost2010Prop50
 90
       50
102
RTVSPost2010PropOp50
 70
     1
102
RTVSPost2010Prop51ColorIndex
 90
      256
102
RTVSPost2010Prop51ColorRGB
 90
-16777216
102
RTVSPost2010PropOp51
 70
     0
102
RTVSPost2010Prop52
140
1.0
102
RTVSPost2010PropOp52
 70
     0
102
RTVSPost2010Prop53
 90
        2
102
RTVSPost2010PropOp53
 70
     1
102
RTVSPost2010Prop54
  1
strokes_ogs.tif
102
RTVSPost2010PropOp54
 70
     1
102
RTVSPost2010Prop55
280
     0
102
RTVSPost2010PropOp55
 70
     1
102
RTVSPost2010Prop56
140
1.0
102
RTVSPost2010PropOp56
 70
     1
102
RTVSPost2010Prop57
140
1.0
102
RTVSPost2010PropOp57
 70
     1
102
RTVSPropertyOp0
 70
     1
102
RTVSPropertyOp1
 70
     1
102
RTVSPropertyOp2
 70
     1
102
RTVSPropertyOp3
 70
     1
102
RTVSPropertyOp4
 70
     1
102
RTVSPropertyOp5
 70
     1
102
RTVSPropertyOp6
 70
     1
102
RTVSPropertyOp7
 70
     1
102
RTVSPropertyOp8
 70
     1
102
RTVSPropertyOp9
 70
     1
102
RTVSPropertyOp10
 70
     1
102
RTVSPropertyOp11
 70
     1
102
RTVSPropertyOp12
 70
     1
102
RTVSPropertyOp13
 70
     1
102
RTVSPropertyOp14
 70
     1
102
RTVSPropertyOp15
 70
     1
102
RTVSPropertyOp16
 70
     1
102
RTVSPropertyOp17
 70
     1
102
RTVSPropertyOp18
 70
     1
102
RTVSPropertyOp19
 70
     1
102
RTVSPropertyOp20
 70
     1
102
RTVSPropertyOp21
 70
     1
102
RTVSPropertyOp22
 70
     1
102
RTVSPropertyOp23
 70
     1
102
RTVSPropertyOp24
 70
     1
102
RTVSPropertyOp25
 70
     1
102
RTVSPropertyOp26
 70
     1
102
RTVSPropertyOp27
 70
     1
102
RTVSPropertyOp28
 70
     1
102
RTVSPropertyOp29
 70
     1
102
RTVSPropertyOp30
 70
     1
102
RTVSPropertyOp31
 70
     1
102
RTVSPropertyOp32
 70
     1
102
RTVSPropertyOp33
 70
     1
102
RTVSPropertyOp34
 70
     1
102
RTVSPropertyOp35
 70
     1
102
RTVSPropertyOp36
 70
     1
102
RTVSPropertyOp37
 70
     1
102
RTVSPropertyOp38
 70
     1
102
RTVSPropertyOp39
 70
     1
102
RTVSPropertyOp40
 70
     1
102
RTVSPropertyOp41
 70
     1
102
RTVSPropertyOp42
 70
     1
102
RTVSPropertyOp43
 70
     1
102
RTVSPropertyOp44
 70
     1
102
RTVSPropertyOp45
 70
     1
102
RTVSPropertyOp46
 70
     1
102
RTVSPropertyOp47
 70
     1
102
RTVSPropertyOp48
 70
     1
102
RTVSPropertyOp49
 70
     1
102
RTVSPropertyOp50
 70
     1
102
RTVSPropertyOp51
 70
     0
102
RTVSPropertyOp52
 70
     0
102
RTVSPropertyOp53
 70
     1
102
RTVSPropertyOp54
 70
     1
102
RTVSPropertyOp55
 70
     1
102
RTVSPropertyOp56
 70
     1
102
RTVSPropertyOp57
 70
     1
102
RTVSPropertyOp58
 70
     1
102
RTVSPropertyOp59
 70
     1
102
RTVSPropertyOp60
 70
     1
102
RTVSPropertyOp61
 70
     1
102
RTVSPropertyOp62
 70
     1
  0
XRECORD
  5
58C
102
{ACAD_REACTORS
330
58B
102
}
330
58B
100
AcDbXrecord
280
     1
102
RTVSPost2010Prop28
280
     0
102
RTVSPost2010PropOp28
 70
     1
102
RTVSPost2010Prop29
280
     1
102
RTVSPost2010PropOp29
 70
     1
102
RTVSPost2010Prop30
280
     1
102
RTVSPost2010PropOp30
 70
     1
102
RTVSPost2010Prop31
280
     0
102
RTVSPost2010PropOp31
 70
     1
102
RTVSPost2010Prop32
280
     0
102
RTVSPost2010PropOp32
 70
     1
102
RTVSPost2010Prop33
280
     0
102
RTVSPost2010PropOp33
 70
     1
102
RTVSPost2010Prop34
280
     0
102
RTVSPost2010PropOp34
 70
     1
102
RTVSPost2010Prop35
280
     0
102
RTVSPost2010PropOp35
 70
     1
102
RTVSPost2010Prop36
280
     0
102
RTVSPost2010PropOp36
 70
     1
102
RTVSPost2010Prop37
 90
       50
102
RTVSPost2010PropOp37
 70
     1
102
RTVSPost2010Prop38
140
0.0
102
RTVSPost2010PropOp38
 70
     1
102
RTVSPost2010Prop39
140
1.0
102
RTVSPost2010PropOp39
 70
     1
102
RTVSPost2010Prop40
 90
        0
102
RTVSPost2010PropOp40
 70
     1
102
RTVSPost2010Prop41ColorIndex
 90
       18
102
RTVSPost2010Prop41ColorRGB
 90
        0
102
RTVSPost2010PropOp41
 70
     1
102
RTVSPost2010Prop42
 90
       50
102
RTVSPost2010PropOp42
 70
     1
102
RTVSPost2010Prop43
 90
        3
102
RTVSPost2010PropOp43
 70
     1
102
RTVSPost2010Prop44ColorIndex
 90
        5
102
RTVSPost2010Prop44ColorRGB
 90
      255
102
RTVSPost2010PropOp44
 70
     1
102
RTVSPost2010Prop45
280
     0
102
RTVSPost2010PropOp45
 70
     1
102
RTVSPost2010Prop46
 90
       50
102
RTVSPost2010PropOp46
 70
     1
102
RTVSPost2010Prop47
 90
       50
102
RTVSPost2010PropOp47
 70
     1
102
RTVSPost2010Prop48
 90
       50
102
RTVSPost2010PropOp48
 70
     1
102
RTVSPost2010Prop49
280
     0
102
RTVSPost2010PropOp49
 70
     1
102
RTVSPost2010Prop50
 90
       50
102
RTVSPost2010PropOp50
 70
     1
102
RTVSPost2010Prop51ColorIndex
 90
      256
102
RTVSPost2010Prop51ColorRGB
 90
-16777216
102
RTVSPost2010PropOp51
 70
     0
102
RTVSPost2010Prop52
140
1.0
102
RTVSPost2010PropOp52
 70
     0
102
RTVSPost2010Prop53
 90
        2
102
RTVSPost2010PropOp53
 70
     1
102
RTVSPost2010Prop54
  1
strokes_ogs.tif
102
RTVSPost2010PropOp54
 70
     1
102
RTVSPost2010Prop55
280
     0
102
RTVSPost2010PropOp55
 70
     1
102
RTVSPost2010Prop56
140
1.0
102
RTVSPost2010PropOp56
 70
     1
102
RTVSPost2010Prop57
140
1.0
102
RTVSPost2010PropOp57
 70
     1
102
RTVSPropertyOp0
 70
     1
102
RTVSPropertyOp1
 70
     1
102
RTVSPropertyOp2
 70
     1
102
RTVSPropertyOp3
 70
     1
102
RTVSPropertyOp4
 70
     1
102
RTVSPropertyOp5
 70
     1
102
RTVSPropertyOp6
 70
     1
102
RTVSPropertyOp7
 70
     1
102
RTVSPropertyOp8
 70
     1
102
RTVSPropertyOp9
 70
     1
102
RTVSPropertyOp10
 70
     1
102
RTVSPropertyOp11
 70
     1
102
RTVSPropertyOp12
 70
     1
102
RTVSPropertyOp13
 70
     1
102
RTVSPropertyOp14
 70
     1
102
RTVSPropertyOp15
 70
     1
102
RTVSPropertyOp16
 70
     1
102
RTVSPropertyOp17
 70
     1
102
RTVSPropertyOp18
 70
     1
102
RTVSPropertyOp19
 70
     1
102
RTVSPropertyOp20
 70
     1
102
RTVSPropertyOp21
 70
     1
102
RTVSPropertyOp22
 70
     1
102
RTVSPropertyOp23
 70
     1
102
RTVSPropertyOp24
 70
     1
102
RTVSPropertyOp25
 70
     1
102
RTVSPropertyOp26
 70
     1
102
RTVSPropertyOp27
 70
     1
102
RTVSPropertyOp28
 70
     1
102
RTVSPropertyOp29
 70
     1
102
RTVSPropertyOp30
 70
     1
102
RTVSPropertyOp31
 70
     1
102
RTVSPropertyOp32
 70
     1
102
RTVSPropertyOp33
 70
     1
102
RTVSPropertyOp34
 70
     1
102
RTVSPropertyOp35
 70
     1
102
RTVSPropertyOp36
 70
     1
102
RTVSPropertyOp37
 70
     1
102
RTVSPropertyOp38
 70
     1
102
RTVSPropertyOp39
 70
     1
102
RTVSPropertyOp40
 70
     1
102
RTVSPropertyOp41
 70
     1
102
RTVSPropertyOp42
 70
     1
102
RTVSPropertyOp43
 70
     1
102
RTVSPropertyOp44
 70
     1
102
RTVSPropertyOp45
 70
     1
102
RTVSPropertyOp46
 70
     1
102
RTVSPropertyOp47
 70
     1
102
RTVSPropertyOp48
 70
     1
102
RTVSPropertyOp49
 70
     1
102
RTVSPropertyOp50
 70
     1
102
RTVSPropertyOp51
 70
     0
102
RTVSPropertyOp52
 70
     0
102
RTVSPropertyOp53
 70
     1
102
RTVSPropertyOp54
 70
     1
102
RTVSPropertyOp55
 70
     1
102
RTVSPropertyOp56
 70
     1
102
RTVSPropertyOp57
 70
     1
102
RTVSPropertyOp58
 70
     1
102
RTVSPropertyOp59
 70
     1
102
RTVSPropertyOp60
 70
     1
102
RTVSPropertyOp61
 70
     1
102
RTVSPropertyOp62
 70
     1
  0
XRECORD
  5
580
102
{ACAD_REACTORS
330
57F
102
}
330
57F
100
AcDbXrecord
280
     1
102
RTVSPost2010Prop28
280
     0
102
RTVSPost2010PropOp28
 70
     1
102
RTVSPost2010Prop29
280
     1
102
RTVSPost2010PropOp29
 70
     1
102
RTVSPost2010Prop30
280
     1
102
RTVSPost2010PropOp30
 70
     1
102
RTVSPost2010Prop31
280
     0
102
RTVSPost2010PropOp31
 70
     1
102
RTVSPost2010Prop32
280
     0
102
RTVSPost2010PropOp32
 70
     1
102
RTVSPost2010Prop33
280
     0
102
RTVSPost2010PropOp33
 70
     1
102
RTVSPost2010Prop34
280
     0
102
RTVSPost2010PropOp34
 70
     1
102
RTVSPost2010Prop35
280
     0
102
RTVSPost2010PropOp35
 70
     1
102
RTVSPost2010Prop36
280
     0
102
RTVSPost2010PropOp36
 70
     1
102
RTVSPost2010Prop37
 90
       50
102
RTVSPost2010PropOp37
 70
     1
102
RTVSPost2010Prop38
140
0.0
102
RTVSPost2010PropOp38
 70
     1
102
RTVSPost2010Prop39
140
1.0
102
RTVSPost2010PropOp39
 70
     1
102
RTVSPost2010Prop40
 90
        0
102
RTVSPost2010PropOp40
 70
     1
102
RTVSPost2010Prop41ColorIndex
 90
       18
102
RTVSPost2010Prop41ColorRGB
 90
        0
102
RTVSPost2010PropOp41
 70
     1
102
RTVSPost2010Prop42
 90
       50
102
RTVSPost2010PropOp42
 70
     1
102
RTVSPost2010Prop43
 90
        3
102
RTVSPost2010PropOp43
 70
     1
102
RTVSPost2010Prop44ColorIndex
 90
        5
102
RTVSPost2010Prop44ColorRGB
 90
      255
102
RTVSPost2010PropOp44
 70
     1
102
RTVSPost2010Prop45
280
     0
102
RTVSPost2010PropOp45
 70
     1
102
RTVSPost2010Prop46
 90
       50
102
RTVSPost2010PropOp46
 70
     1
102
RTVSPost2010Prop47
 90
       50
102
RTVSPost2010PropOp47
 70
     1
102
RTVSPost2010Prop48
 90
       50
102
RTVSPost2010PropOp48
 70
     1
102
RTVSPost2010Prop49
280
     0
102
RTVSPost2010PropOp49
 70
     1
102
RTVSPost2010Prop50
 90
       50
102
RTVSPost2010PropOp50
 70
     1
102
RTVSPost2010Prop51ColorIndex
 90
      256
102
RTVSPost2010Prop51ColorRGB
 90
-16777216
102
RTVSPost2010PropOp51
 70
     0
102
RTVSPost2010Prop52
140
1.0
102
RTVSPost2010PropOp52
 70
     0
102
RTVSPost2010Prop53
 90
        2
102
RTVSPost2010PropOp53
 70
     1
102
RTVSPost2010Prop54
  1
strokes_ogs.tif
102
RTVSPost2010PropOp54
 70
     1
102
RTVSPost2010Prop55
280
     0
102
RTVSPost2010PropOp55
 70
     1
102
RTVSPost2010Prop56
140
1.0
102
RTVSPost2010PropOp56
 70
     1
102
RTVSPost2010Prop57
140
1.0
102
RTVSPost2010PropOp57
 70
     1
102
RTVSPropertyOp0
 70
     1
102
RTVSPropertyOp1
 70
     1
102
RTVSPropertyOp2
 70
     1
102
RTVSPropertyOp3
 70
     1
102
RTVSPropertyOp4
 70
     1
102
RTVSPropertyOp5
 70
     1
102
RTVSPropertyOp6
 70
     1
102
RTVSPropertyOp7
 70
     1
102
RTVSPropertyOp8
 70
     1
102
RTVSPropertyOp9
 70
     1
102
RTVSPropertyOp10
 70
     1
102
RTVSPropertyOp11
 70
     1
102
RTVSPropertyOp12
 70
     1
102
RTVSPropertyOp13
 70
     1
102
RTVSPropertyOp14
 70
     1
102
RTVSPropertyOp15
 70
     1
102
RTVSPropertyOp16
 70
     1
102
RTVSPropertyOp17
 70
     1
102
RTVSPropertyOp18
 70
     1
102
RTVSPropertyOp19
 70
     1
102
RTVSPropertyOp20
 70
     1
102
RTVSPropertyOp21
 70
     1
102
RTVSPropertyOp22
 70
     1
102
RTVSPropertyOp23
 70
     1
102
RTVSPropertyOp24
 70
     1
102
RTVSPropertyOp25
 70
     1
102
RTVSPropertyOp26
 70
     1
102
RTVSPropertyOp27
 70
     1
102
RTVSPropertyOp28
 70
     1
102
RTVSPropertyOp29
 70
     1
102
RTVSPropertyOp30
 70
     1
102
RTVSPropertyOp31
 70
     1
102
RTVSPropertyOp32
 70
     1
102
RTVSPropertyOp33
 70
     1
102
RTVSPropertyOp34
 70
     1
102
RTVSPropertyOp35
 70
     1
102
RTVSPropertyOp36
 70
     1
102
RTVSPropertyOp37
 70
     1
102
RTVSPropertyOp38
 70
     1
102
RTVSPropertyOp39
 70
     1
102
RTVSPropertyOp40
 70
     1
102
RTVSPropertyOp41
 70
     1
102
RTVSPropertyOp42
 70
     1
102
RTVSPropertyOp43
 70
     1
102
RTVSPropertyOp44
 70
     1
102
RTVSPropertyOp45
 70
     1
102
RTVSPropertyOp46
 70
     1
102
RTVSPropertyOp47
 70
     1
102
RTVSPropertyOp48
 70
     1
102
RTVSPropertyOp49
 70
     1
102
RTVSPropertyOp50
 70
     1
102
RTVSPropertyOp51
 70
     0
102
RTVSPropertyOp52
 70
     0
102
RTVSPropertyOp53
 70
     1
102
RTVSPropertyOp54
 70
     1
102
RTVSPropertyOp55
 70
     1
102
RTVSPropertyOp56
 70
     1
102
RTVSPropertyOp57
 70
     1
102
RTVSPropertyOp58
 70
     1
102
RTVSPropertyOp59
 70
     1
102
RTVSPropertyOp60
 70
     1
102
RTVSPropertyOp61
 70
     1
102
RTVSPropertyOp62
 70
     1
  0
XRECORD
  5
59F
102
{ACAD_REACTORS
330
59E
102
}
330
59E
100
AcDbXrecord
280
     1
102
RTVSPost2010Prop28
280
     0
102
RTVSPost2010PropOp28
 70
     1
102
RTVSPost2010Prop29
280
     1
102
RTVSPost2010PropOp29
 70
     1
102
RTVSPost2010Prop30
280
     1
102
RTVSPost2010PropOp30
 70
     1
102
RTVSPost2010Prop31
280
     0
102
RTVSPost2010PropOp31
 70
     1
102
RTVSPost2010Prop32
280
     0
102
RTVSPost2010PropOp32
 70
     1
102
RTVSPost2010Prop33
280
     0
102
RTVSPost2010PropOp33
 70
     1
102
RTVSPost2010Prop34
280
     0
102
RTVSPost2010PropOp34
 70
     1
102
RTVSPost2010Prop35
280
     0
102
RTVSPost2010PropOp35
 70
     1
102
RTVSPost2010Prop36
280
     0
102
RTVSPost2010PropOp36
 70
     1
102
RTVSPost2010Prop37
 90
       50
102
RTVSPost2010PropOp37
 70
     1
102
RTVSPost2010Prop38
140
0.0
102
RTVSPost2010PropOp38
 70
     1
102
RTVSPost2010Prop39
140
1.0
102
RTVSPost2010PropOp39
 70
     1
102
RTVSPost2010Prop40
 90
        0
102
RTVSPost2010PropOp40
 70
     1
102
RTVSPost2010Prop41ColorIndex
 90
       18
102
RTVSPost2010Prop41ColorRGB
 90
        0
102
RTVSPost2010PropOp41
 70
     1
102
RTVSPost2010Prop42
 90
       50
102
RTVSPost2010PropOp42
 70
     1
102
RTVSPost2010Prop43
 90
        3
102
RTVSPost2010PropOp43
 70
     1
102
RTVSPost2010Prop44ColorIndex
 90
        5
102
RTVSPost2010Prop44ColorRGB
 90
      255
102
RTVSPost2010PropOp44
 70
     1
102
RTVSPost2010Prop45
280
     0
102
RTVSPost2010PropOp45
 70
     1
102
RTVSPost2010Prop46
 90
       50
102
RTVSPost2010PropOp46
 70
     1
102
RTVSPost2010Prop47
 90
       50
102
RTVSPost2010PropOp47
 70
     1
102
RTVSPost2010Prop48
 90
       50
102
RTVSPost2010PropOp48
 70
     1
102
RTVSPost2010Prop49
280
     0
102
RTVSPost2010PropOp49
 70
     1
102
RTVSPost2010Prop50
 90
       50
102
RTVSPost2010PropOp50
 70
     1
102
RTVSPost2010Prop51ColorIndex
 90
      256
102
RTVSPost2010Prop51ColorRGB
 90
-16777216
102
RTVSPost2010PropOp51
 70
     0
102
RTVSPost2010Prop52
140
1.0
102
RTVSPost2010PropOp52
 70
     0
102
RTVSPost2010Prop53
 90
        2
102
RTVSPost2010PropOp53
 70
     1
102
RTVSPost2010Prop54
  1
strokes_ogs.tif
102
RTVSPost2010PropOp54
 70
     1
102
RTVSPost2010Prop55
280
     0
102
RTVSPost2010PropOp55
 70
     1
102
RTVSPost2010Prop56
140
1.0
102
RTVSPost2010PropOp56
 70
     1
102
RTVSPost2010Prop57
140
1.0
102
RTVSPost2010PropOp57
 70
     1
102
RTVSPropertyOp0
 70
     1
102
RTVSPropertyOp1
 70
     1
102
RTVSPropertyOp2
 70
     1
102
RTVSPropertyOp3
 70
     1
102
RTVSPropertyOp4
 70
     1
102
RTVSPropertyOp5
 70
     1
102
RTVSPropertyOp6
 70
     1
102
RTVSPropertyOp7
 70
     1
102
RTVSPropertyOp8
 70
     1
102
RTVSPropertyOp9
 70
     1
102
RTVSPropertyOp10
 70
     1
102
RTVSPropertyOp11
 70
     1
102
RTVSPropertyOp12
 70
     1
102
RTVSPropertyOp13
 70
     1
102
RTVSPropertyOp14
 70
     1
102
RTVSPropertyOp15
 70
     1
102
RTVSPropertyOp16
 70
     1
102
RTVSPropertyOp17
 70
     1
102
RTVSPropertyOp18
 70
     1
102
RTVSPropertyOp19
 70
     1
102
RTVSPropertyOp20
 70
     1
102
RTVSPropertyOp21
 70
     1
102
RTVSPropertyOp22
 70
     1
102
RTVSPropertyOp23
 70
     1
102
RTVSPropertyOp24
 70
     1
102
RTVSPropertyOp25
 70
     1
102
RTVSPropertyOp26
 70
     1
102
RTVSPropertyOp27
 70
     1
102
RTVSPropertyOp28
 70
     1
102
RTVSPropertyOp29
 70
     1
102
RTVSPropertyOp30
 70
     1
102
RTVSPropertyOp31
 70
     1
102
RTVSPropertyOp32
 70
     1
102
RTVSPropertyOp33
 70
     1
102
RTVSPropertyOp34
 70
     1
102
RTVSPropertyOp35
 70
     1
102
RTVSPropertyOp36
 70
     1
102
RTVSPropertyOp37
 70
     1
102
RTVSPropertyOp38
 70
     1
102
RTVSPropertyOp39
 70
     1
102
RTVSPropertyOp40
 70
     1
102
RTVSPropertyOp41
 70
     1
102
RTVSPropertyOp42
 70
     1
102
RTVSPropertyOp43
 70
     1
102
RTVSPropertyOp44
 70
     1
102
RTVSPropertyOp45
 70
     1
102
RTVSPropertyOp46
 70
     1
102
RTVSPropertyOp47
 70
     1
102
RTVSPropertyOp48
 70
     1
102
RTVSPropertyOp49
 70
     1
102
RTVSPropertyOp50
 70
     1
102
RTVSPropertyOp51
 70
     0
102
RTVSPropertyOp52
 70
     0
102
RTVSPropertyOp53
 70
     1
102
RTVSPropertyOp54
 70
     1
102
RTVSPropertyOp55
 70
     1
102
RTVSPropertyOp56
 70
     1
102
RTVSPropertyOp57
 70
     1
102
RTVSPropertyOp58
 70
     1
102
RTVSPropertyOp59
 70
     1
102
RTVSPropertyOp60
 70
     1
102
RTVSPropertyOp61
 70
     1
102
RTVSPropertyOp62
 70
     1
  0
ENDSEC
  0
EOF
