  0
SECTION
  2
HEADER
  9
$ACADVER
  1
AC1015
  9
$ACADMAINTVER
 70
    18
  9
$DWGCODEPAGE
  3
ANSI_1250
  9
$INSBASE
 10
0.0
 20
0.0
 30
0.0
  9
$EXTMIN
 10
1.000000000000000E+20
 20
1.000000000000000E+20
 30
1.000000000000000E+20
  9
$EXTMAX
 10
-1.000000000000000E+20
 20
-1.000000000000000E+20
 30
-1.000000000000000E+20
  9
$LIMMIN
 10
0.0
 20
0.0
  9
$LIMMAX
 10
12.0
 20
9.0
  9
$ORTHOMODE
 70
     0
  9
$REGENMODE
 70
     1
  9
$FILLMODE
 70
     1
  9
$QTEXTMODE
 70
     0
  9
$MIRRTEXT
 70
     1
  9
$LTSCALE
 40
1.0
  9
$ATTMODE
 70
     1
  9
$TEXTSIZE
 40
0.2
  9
$TRACEWID
 40
0.05
  9
$TEXTSTYLE
  7
Standard
  9
$CLAYER
  8
0
  9
$CELTYPE
  6
ByLayer
  9
$CECOLOR
 62
   256
  9
$CELTSCALE
 40
1.0
  9
$DISPSILH
 70
     0
  9
$DIMSCALE
 40
1.0
  9
$DIMASZ
 40
0.18
  9
$DIMEXO
 40
0.0625
  9
$DIMDLI
 40
0.38
  9
$DIMRND
 40
0.0
  9
$DIMDLE
 40
0.0
  9
$DIMEXE
 40
0.18
  9
$DIMTP
 40
0.0
  9
$DIMTM
 40
0.0
  9
$DIMTXT
 40
0.18
  9
$DIMCEN
 40
0.09
  9
$DIMTSZ
 40
0.0
  9
$DIMTOL
 70
     0
  9
$DIMLIM
 70
     0
  9
$DIMTIH
 70
     1
  9
$DIMTOH
 70
     1
  9
$DIMSE1
 70
     0
  9
$DIMSE2
 70
     0
  9
$DIMTAD
 70
     0
  9
$DIMZIN
 70
     0
  9
$DIMBLK
  1

  9
$DIMASO
 70
     1
  9
$DIMSHO
 70
     1
  9
$DIMPOST
  1

  9
$DIMAPOST
  1

  9
$DIMALT
 70
     0
  9
$DIMALTD
 70
     2
  9
$DIMALTF
 40
25.4
  9
$DIMLFAC
 40
1.0
  9
$DIMTOFL
 70
     0
  9
$DIMTVP
 40
0.0
  9
$DIMTIX
 70
     0
  9
$DIMSOXD
 70
     0
  9
$DIMSAH
 70
     0
  9
$DIMBLK1
  1

  9
$DIMBLK2
  1

  9
$DIMSTYLE
  2
Standard
  9
$DIMCLRD
 70
     0
  9
$DIMCLRE
 70
     0
  9
$DIMCLRT
 70
     0
  9
$DIMTFAC
 40
1.0
  9
$DIMGAP
 40
0.09
  9
$DIMJUST
 70
     0
  9
$DIMSD1
 70
     0
  9
$DIMSD2
 70
     0
  9
$DIMTOLJ
 70
     1
  9
$DIMTZIN
 70
     0
  9
$DIMALTZ
 70
     0
  9
$DIMALTTZ
 70
     0
  9
$DIMUPT
 70
     0
  9
$DIMDEC
 70
     4
  9
$DIMTDEC
 70
     4
  9
$DIMALTU
 70
     2
  9
$DIMALTTD
 70
     2
  9
$DIMTXSTY
  7
Standard
  9
$DIMAUNIT
 70
     0
  9
$DIMADEC
 70
     0
  9
$DIMALTRND
 40
0.0
  9
$DIMAZIN
 70
     0
  9
$DIMDSEP
 70
    46
  9
$DIMATFIT
 70
     3
  9
$DIMFRAC
 70
     0
  9
$DIMLDRBLK
  1

  9
$DIMLUNIT
 70
     2
  9
$DIMLWD
 70
    -2
  9
$DIMLWE
 70
    -2
  9
$DIMTMOVE
 70
     0
  9
$LUNITS
 70
     2
  9
$LUPREC
 70
     4
  9
$SKETCHINC
 40
0.1
  9
$FILLETRAD
 40
0.5
  9
$AUNITS
 70
     0
  9
$AUPREC
 70
     0
  9
$MENU
  1
.
  9
$ELEVATION
 40
0.0
  9
$PELEVATION
 40
0.0
  9
$THICKNESS
 40
0.0
  9
$LIMCHECK
 70
     0
  9
$CHAMFERA
 40
0.5
  9
$CHAMFERB
 40
0.5
  9
$CHAMFERC
 40
1.0
  9
$CHAMFERD
 40
0.0
  9
$SKPOLY
 70
     0
  9
$TDCREATE
 40
2451380.888765729
  9
$TDUCREATE
 40
2451380.805432396
  9
$TDUPDATE
 40
2451380.924513889
  9
$TDUUPDATE
 40
2451380.841180556
  9
$TDINDWG
 40
0.0075607639
  9
$TDUSRTIMER
 40
0.0075517245
  9
$USRTIMER
 70
     1
  9
$ANGBASE
 50
0.0
  9
$ANGDIR
 70
     0
  9
$PDMODE
 70
     0
  9
$PDSIZE
 40
0.0
  9
$PLINEWID
 40
0.0
  9
$SPLFRAME
 70
     0
  9
$SPLINETYPE
 70
     6
  9
$SPLINESEGS
 70
     8
  9
$HANDSEED
  5
63F
  9
$SURFTAB1
 70
     6
  9
$SURFTAB2
 70
     6
  9
$SURFTYPE
 70
     6
  9
$SURFU
 70
     6
  9
$SURFV
 70
     6
  9
$UCSBASE
  2

  9
$UCSNAME
  2

  9
$UCSORG
 10
0.0
 20
0.0
 30
0.0
  9
$UCSXDIR
 10
1.0
 20
0.0
 30
0.0
  9
$UCSYDIR
 10
0.0
 20
1.0
 30
0.0
  9
$UCSORTHOREF
  2

  9
$UCSORTHOVIEW
 70
     0
  9
$UCSORGTOP
 10
0.0
 20
0.0
 30
0.0
  9
$UCSORGBOTTOM
 10
0.0
 20
0.0
 30
0.0
  9
$UCSORGLEFT
 10
0.0
 20
0.0
 30
0.0
  9
$UCSORGRIGHT
 10
0.0
 20
0.0
 30
0.0
  9
$UCSORGFRONT
 10
0.0
 20
0.0
 30
0.0
  9
$UCSORGBACK
 10
0.0
 20
0.0
 30
0.0
  9
$PUCSBASE
  2

  9
$PUCSNAME
  2

  9
$PUCSORG
 10
0.0
 20
0.0
 30
0.0
  9
$PUCSXDIR
 10
1.0
 20
0.0
 30
0.0
  9
$PUCSYDIR
 10
0.0
 20
1.0
 30
0.0
  9
$PUCSORTHOREF
  2

  9
$PUCSORTHOVIEW
 70
     0
  9
$PUCSORGTOP
 10
0.0
 20
0.0
 30
0.0
  9
$PUCSORGBOTTOM
 10
0.0
 20
0.0
 30
0.0
  9
$PUCSORGLEFT
 10
0.0
 20
0.0
 30
0.0
  9
$PUCSORGRIGHT
 10
0.0
 20
0.0
 30
0.0
  9
$PUCSORGFRONT
 10
0.0
 20
0.0
 30
0.0
  9
$PUCSORGBACK
 10
0.0
 20
0.0
 30
0.0
  9
$USERI1
 70
     0
  9
$USERI2
 70
     0
  9
$USERI3
 70
     0
  9
$USERI4
 70
     0
  9
$USERI5
 70
     0
  9
$USERR1
 40
0.0
  9
$USERR2
 40
0.0
  9
$USERR3
 40
0.0
  9
$USERR4
 40
0.0
  9
$USERR5
 40
0.0
  9
$WORLDVIEW
 70
     1
  9
$SHADEDGE
 70
     3
  9
$SHADEDIF
 70
    70
  9
$TILEMODE
 70
     1
  9
$MAXACTVP
 70
    64
  9
$PINSBASE
 10
0.0
 20
0.0
 30
0.0
  9
$PLIMCHECK
 70
     0
  9
$PEXTMIN
 10
1.000000000000000E+20
 20
1.000000000000000E+20
 30
1.000000000000000E+20
  9
$PEXTMAX
 10
-1.000000000000000E+20
 20
-1.000000000000000E+20
 30
-1.000000000000000E+20
  9
$PLIMMIN
 10
0.0
 20
0.0
  9
$PLIMMAX
 10
12.0
 20
9.0
  9
$UNITMODE
 70
     0
  9
$VISRETAIN
 70
     1
  9
$PLINEGEN
 70
     0
  9
$PSLTSCALE
 70
     1
  9
$TREEDEPTH
 70
  3020
  9
$CMLSTYLE
  2
Standard
  9
$CMLJUST
 70
     0
  9
$CMLSCALE
 40
1.0
  9
$PROXYGRAPHICS
 70
     1
  9
$MEASUREMENT
 70
     0
  9
$CELWEIGHT
370
    -1
  9
$ENDCAPS
280
     0
  9
$JOINSTYLE
280
     0
  9
$LWDISPLAY
290
     0
  9
$INSUNITS
 70
     1
  9
$HYPERLINKBASE
  1

  9
$STYLESHEET
  1

  9
$XEDIT
290
     1
  9
$CEPSNTYPE
380
     0
  9
$PSTYLEMODE
290
     1
  9
$FINGERPRINTGUID
  2
{12F50282-3ED8-11D3-A8B7-0060B0F84BC6}
  9
$VERSIONGUID
  2
{12F50293-3ED8-11D3-A8B7-0060B0F84BC6}
  9
$EXTNAMES
290
     1
  9
$PSVPSCALE
 40
0.0
  9
$OLESTARTUP
290
     0
  0
ENDSEC
  0
SECTION
  2
CLASSES
  0
CLASS
  1
ACDBDICTIONARYWDFLT
  2
AcDbDictionaryWithDefault
  3
ObjectDBX Classes
 90
        0
280
     0
281
     0
  0
CLASS
  1
ACDBPLACEHOLDER
  2
AcDbPlaceHolder
  3
ObjectDBX Classes
 90
        0
280
     0
281
     0
  0
CLASS
  1
LAYOUT
  2
AcDbLayout
  3
ObjectDBX Classes
 90
        0
280
     0
281
     0
  0
CLASS
  1
TABLESTYLE
  2
AcDbTableStyle
  3
ObjectDBX Classes
 90
     2047
280
     0
281
     0
  0
CLASS
  1
DICTIONARYVAR
  2
AcDbDictionaryVar
  3
ObjectDBX Classes
 90
        0
280
     0
281
     0
  0
ENDSEC
  0
SECTION
  2
TABLES
  0
TABLE
  2
VPORT
  5
8
330
0
100
AcDbSymbolTable
 70
     1
  0
VPORT
  5
A8
330
8
100
AcDbSymbolTableRecord
100
AcDbViewportTableRecord
  2
*Active
 70
     0
 10
0.0
 20
0.0
 11
1.0
 21
1.0
 12
118.7522430419922
 22
-1180.285522460937
 13
0.0
 23
0.0
 14
0.5
 24
0.5
 15
0.5
 25
0.5
 16
-1.0
 26
-1.0
 36
1.0
 17
0.0
 27
0.0
 37
0.0
 40
1663.064758288648
 41
0.4874806820214597
 42
50.0
 43
0.0
 44
0.0
 50
0.0
 51
0.0
 71
     0
 72
   100
 73
     1
 74
     3
 75
     0
 76
     0
 77
     0
 78
     0
281
     0
 65
     1
110
0.0
120
0.0
130
0.0
111
1.0
121
0.0
131
0.0
112
0.0
122
1.0
132
0.0
 79
     0
146
0.0
  0
ENDTAB
  0
TABLE
  2
LTYPE
  5
5
330
0
100
AcDbSymbolTable
 70
     1
  0
LTYPE
  5
14
330
5
100
AcDbSymbolTableRecord
100
AcDbLinetypeTableRecord
  2
ByBlock
 70
     0
  3

 72
    65
 73
     0
 40
0.0
  0
LTYPE
  5
15
330
5
100
AcDbSymbolTableRecord
100
AcDbLinetypeTableRecord
  2
ByLayer
 70
     0
  3

 72
    65
 73
     0
 40
0.0
  0
LTYPE
  5
16
330
5
100
AcDbSymbolTableRecord
100
AcDbLinetypeTableRecord
  2
Continuous
 70
     0
  3
Solid line
 72
    65
 73
     0
 40
0.0
  0
ENDTAB
  0
TABLE
  2
LAYER
  5
2
330
0
100
AcDbSymbolTable
 70
     2
  0
LAYER
  5
10
330
2
100
AcDbSymbolTableRecord
100
AcDbLayerTableRecord
  2
0
 70
     0
 62
     7
  6
Continuous
370
    -3
390
F
  0
LAYER
  5
2B
330
2
100
AcDbSymbolTableRecord
100
AcDbLayerTableRecord
  2
ASHADE
 70
     4
 62
     7
  6
Continuous
370
    -3
390
2D
  0
ENDTAB
  0
TABLE
  2
STYLE
  5
3
330
0
100
AcDbSymbolTable
 70
     2
  0
STYLE
  5
11
330
3
100
AcDbSymbolTableRecord
100
AcDbTextStyleTableRecord
  2
Standard
 70
     0
 40
0.0
 41
1.0
 50
0.0
 71
     0
 42
0.2
  3
txt
  4

  0
STYLE
  5
2C
330
3
100
AcDbSymbolTableRecord
100
AcDbTextStyleTableRecord
  2
ASHADE
 70
     0
 40
0.2
 41
1.0
 50
0.0
 71
     0
 42
0.2
  3
simplex
  4

  0
ENDTAB
  0
TABLE
  2
VIEW
  5
6
330
0
100
AcDbSymbolTable
 70
     0
  0
ENDTAB
  0
TABLE
  2
UCS
  5
7
330
0
100
AcDbSymbolTable
 70
     0
  0
ENDTAB
  0
TABLE
  2
APPID
  5
9
330
0
100
AcDbSymbolTable
 70
     6
  0
APPID
  5
12
330
9
100
AcDbSymbolTableRecord
100
AcDbRegAppTableRecord
  2
ACAD
 70
     0
  0
APPID
  5
8F
330
9
100
AcDbSymbolTableRecord
100
AcDbRegAppTableRecord
  2
AVE_RENDER
 70
     0
  0
APPID
  5
90
330
9
100
AcDbSymbolTableRecord
100
AcDbRegAppTableRecord
  2
AVE_ENTITY_MATERIAL
 70
     0
  0
APPID
  5
9C
330
9
100
AcDbSymbolTableRecord
100
AcDbRegAppTableRecord
  2
AVE_FINISH
 70
     0
  0
APPID
  5
9D
330
9
100
AcDbSymbolTableRecord
100
AcDbRegAppTableRecord
  2
AVE_MATERIAL
 70
     0
  0
APPID
  5
9E
330
9
100
AcDbSymbolTableRecord
100
AcDbRegAppTableRecord
  2
AVE_GLOBAL
 70
     0
  0
ENDTAB
  0
TABLE
  2
DIMSTYLE
  5
A
330
0
100
AcDbSymbolTable
 70
     1
100
AcDbDimStyleTable
 71
     0
  0
DIMSTYLE
105
27
330
A
100
AcDbSymbolTableRecord
100
AcDbDimStyleTableRecord
  2
Standard
 70
     0
340
11
  0
ENDTAB
  0
TABLE
  2
BLOCK_RECORD
  5
1
330
0
100
AcDbSymbolTable
 70
     6
  0
BLOCK_RECORD
  5
1F
330
1
100
AcDbSymbolTableRecord
100
AcDbBlockTableRecord
  2
*Model_Space
340
22
  0
BLOCK_RECORD
  5
1B
330
1
100
AcDbSymbolTableRecord
100
AcDbBlockTableRecord
  2
*Paper_Space
340
1E
  0
BLOCK_RECORD
  5
23
330
1
100
AcDbSymbolTableRecord
100
AcDbBlockTableRecord
  2
*Paper_Space0
340
26
  0
BLOCK_RECORD
  5
2E
330
1
100
AcDbSymbolTableRecord
100
AcDbBlockTableRecord
  2
direct
340
0
  0
BLOCK_RECORD
  5
42
330
1
100
AcDbSymbolTableRecord
100
AcDbBlockTableRecord
  2
overhead
340
0
  0
BLOCK_RECORD
  5
5F
330
1
100
AcDbSymbolTableRecord
100
AcDbBlockTableRecord
  2
sh_spot
340
0
  0
BLOCK_RECORD
  5
91
330
1
100
AcDbSymbolTableRecord
100
AcDbBlockTableRecord
  2
AVE_RENDER
340
0
102
{BLKREFS
331
94
331
95
331
96
331
97
331
98
331
99
331
9A
331
9B
102
}
  0
BLOCK_RECORD
  5
9F
330
1
100
AcDbSymbolTableRecord
100
AcDbBlockTableRecord
  2
AVE_GLOBAL
340
0
102
{BLKREFS
331
A2
102
}
  0
ENDTAB
  0
ENDSEC
  0
SECTION
  2
BLOCKS
  0
BLOCK
  5
20
330
1F
100
AcDbEntity
  8
0
100
AcDbBlockBegin
  2
*Model_Space
 70
     0
 10
0.0
 20
0.0
 30
0.0
  3
*Model_Space
  1

  0
ENDBLK
  5
21
330
1F
100
AcDbEntity
  8
0
100
AcDbBlockEnd
  0
BLOCK
  5
1C
330
1B
100
AcDbEntity
 67
     1
  8
0
100
AcDbBlockBegin
  2
*Paper_Space
 70
     0
 10
0.0
 20
0.0
 30
0.0
  3
*Paper_Space
  1

  0
ENDBLK
  5
1D
330
1B
100
AcDbEntity
 67
     1
  8
0
100
AcDbBlockEnd
  0
BLOCK
  5
24
330
23
100
AcDbEntity
  8
0
100
AcDbBlockBegin
  2
*Paper_Space0
 70
     0
 10
0.0
 20
0.0
 30
0.0
  3
*Paper_Space0
  1

  0
ENDBLK
  5
25
330
23
100
AcDbEntity
  8
0
100
AcDbBlockEnd
  0
BLOCK
  5
40
330
2E
100
AcDbEntity
  8
0
100
AcDbBlockBegin
  2
direct
 70
     2
 10
0.0
 20
0.0
 30
0.0
  3
direct
  1

  0
ATTDEF
  5
2F
330
2E
100
AcDbEntity
  8
ASHADE
  6
Continuous
 62
     1
100
AcDbText
 10
0.0
 20
-0.1
 30
0.0
 40
0.2
  1

  7
ASHADE
 72
     1
 11
0.0
 21
-0.1
 31
0.0
100
AcDbAttributeDefinition
  3
Light Name
  2
SNAME
 70
     0
  0
ARC
  5
30
330
2E
100
AcDbEntity
  8
ASHADE
  6
Continuous
 62
     7
100
AcDbCircle
 10
0.0
 20
0.0
 30
0.0
 40
0.3
100
AcDbArc
 50
205.6792886194569
 51
334.3207113805431
  0
ARC
  5
31
330
2E
100
AcDbEntity
  8
ASHADE
  6
Continuous
 62
     7
100
AcDbCircle
 10
0.0
 20
0.0
 30
0.0
 40
0.3
100
AcDbArc
 50
25.67928861945685
 51
154.3207113805431
  0
LINE
  5
32
330
2E
100
AcDbEntity
  8
ASHADE
  6
Continuous
 62
     7
100
AcDbLine
 10
-0.21
 20
0.2142428528562855
 30
0.0
 11
-0.21
 21
0.5
 31
0.0
  0
LINE
  5
33
330
2E
100
AcDbEntity
  8
ASHADE
  6
Continuous
 62
     7
100
AcDbLine
 10
-0.11
 20
0.2791057147390572
 30
0.0
 11
-0.11
 21
0.5
 31
0.0
  0
LINE
  5
34
330
2E
100
AcDbEntity
  8
ASHADE
  6
Continuous
 62
     7
100
AcDbLine
 10
0.21
 20
0.2142428528562855
 30
0.0
 11
0.21
 21
0.5
 31
0.0
  0
ATTDEF
  5
35
330
2E
100
AcDbEntity
  8
ASHADE
  6
Continuous
 62
     7
100
AcDbText
 10
0.0
 20
0.25
 30
0.0
 40
0.01
  1

100
AcDbAttributeDefinition
  3
Look-at Y
  2
LAY
 70
     1
  0
ATTDEF
  5
36
330
2E
100
AcDbEntity
  8
ASHADE
  6
Continuous
 62
     7
100
AcDbText
 10
0.0
 20
0.22
 30
0.0
 40
0.01
  1
1
100
AcDbAttributeDefinition
  3
Light Intensity
  2
INTENSITY
 70
     1
  0
ATTDEF
  5
37
330
2E
100
AcDbEntity
  8
ASHADE
  6
Continuous
 62
     7
100
AcDbText
 10
0.0
 20
0.16
 30
0.0
 40
0.01
  1
-1
100
AcDbAttributeDefinition
  3
*not used*
  2
BEAMD
 70
     1
  0
ATTDEF
  5
38
330
2E
100
AcDbEntity
  8
ASHADE
  6
Continuous
 62
     7
100
AcDbText
 10
0.0
 20
0.175
 30
0.0
 40
0.01
  1
-1
100
AcDbAttributeDefinition
  3
*not used*
  2
CONED
 70
     1
  0
ATTDEF
  5
39
330
2E
100
AcDbEntity
  8
ASHADE
  6
Continuous
 62
     7
100
AcDbText
 10
0.0
 20
0.19
 30
0.0
 40
0.01
  1
0
100
AcDbAttributeDefinition
  3
Depth Map Size
  2
CONEA
 70
     1
  0
ATTDEF
  5
3A
330
2E
100
AcDbEntity
  8
ASHADE
  6
Continuous
 62
     7
100
AcDbText
 10
0.0
 20
0.2050000000000001
 30
0.0
 40
0.01
  1
1,1,1
100
AcDbAttributeDefinition
  3
Light Color (RGB)
  2
COLOR
 70
     1
  0
ATTDEF
  5
3B
330
2E
100
AcDbEntity
  8
ASHADE
  6
Continuous
 62
     7
100
AcDbText
 10
0.0
 20
0.235
 30
0.0
 40
0.01
  1

100
AcDbAttributeDefinition
  3
Look-at Z
  2
LAZ
 70
     1
  0
LINE
  5
3C
330
2E
100
AcDbEntity
  8
ASHADE
  6
Continuous
 62
     7
100
AcDbLine
 10
0.0
 20
0.3
 30
0.0
 11
0.0
 21
0.5
 31
0.0
  0
LINE
  5
3D
330
2E
100
AcDbEntity
  8
ASHADE
  6
Continuous
 62
     7
100
AcDbLine
 10
0.11
 20
0.2791057147390572
 30
0.0
 11
0.11
 21
0.5
 31
0.0
  0
ATTDEF
  5
3E
330
2E
100
AcDbEntity
  8
ASHADE
  6
Continuous
 62
     7
100
AcDbText
 10
0.0
 20
0.265
 30
0.0
 40
0.01
  1

100
AcDbAttributeDefinition
  3
Look-at X
  2
LAX
 70
     1
  0
ATTDEF
  5
3F
330
2E
100
AcDbEntity
  8
ASHADE
  6
Continuous
 62
     7
100
AcDbText
 10
0.0
 20
0.28
 30
0.0
 40
0.01
  1

100
AcDbAttributeDefinition
  3

  2
GNAME
 70
     1
  0
ENDBLK
  5
41
330
2E
100
AcDbEntity
  8
0
100
AcDbBlockEnd
  0
BLOCK
  5
5D
330
42
100
AcDbEntity
  8
0
100
AcDbBlockBegin
  2
overhead
 70
     2
 10
0.0
 20
0.0
 30
0.0
  3
overhead
  1

  0
ATTDEF
  5
43
330
42
100
AcDbEntity
  8
ASHADE
  6
Continuous
 62
     1
100
AcDbText
 10
0.0
 20
-0.1
 30
0.0
 40
0.2
  1

  7
ASHADE
 72
     1
 11
0.0
 21
-0.1
 31
0.0
100
AcDbAttributeDefinition
  3
Light Name
  2
SNAME
 70
     0
  0
ARC
  5
44
330
42
100
AcDbEntity
  8
ASHADE
  6
Continuous
 62
     7
100
AcDbCircle
 10
0.0
 20
0.0
 30
0.0
 40
0.3
100
AcDbArc
 50
205.6792886194569
 51
334.3207113805431
  0
LINE
  5
45
330
42
100
AcDbEntity
  8
ASHADE
  6
Continuous
 62
     7
100
AcDbLine
 10
-0.2041413561583015
 20
-0.2198324514393848
 30
0.0
 11
-0.2721884748777353
 21
-0.2931099352525131
 31
0.0
  0
LINE
  5
46
330
42
100
AcDbEntity
  8
ASHADE
  6
Continuous
 62
     7
100
AcDbLine
 10
-0.1096591641591904
 20
-0.2792398032442862
 30
0.0
 11
-0.1279356915190555
 21
-0.3257797704516673
 31
0.0
  0
LINE
  5
47
330
42
100
AcDbEntity
  8
ASHADE
  6
Continuous
 62
     7
100
AcDbLine
 10
0.0
 20
-0.2999999999999999
 30
0.0
 11
0.0
 21
-0.4
 31
0.0
  0
LINE
  5
48
330
42
100
AcDbEntity
  8
ASHADE
  6
Continuous
 62
     7
100
AcDbLine
 10
0.1096591641591904
 20
-0.2792398032442862
 30
0.0
 11
0.1279356915190555
 21
-0.3257797704516673
 31
0.0
  0
LINE
  5
49
330
42
100
AcDbEntity
  8
ASHADE
  6
Continuous
 62
     7
100
AcDbLine
 10
0.2041413561583015
 20
-0.2198324514393848
 30
0.0
 11
0.2721884748777353
 21
-0.2931099352525131
 31
0.0
  0
ARC
  5
4A
330
42
100
AcDbEntity
  8
ASHADE
  6
Continuous
 62
     7
100
AcDbCircle
 10
0.0
 20
0.0
 30
0.0
 40
0.3
100
AcDbArc
 50
25.67928861945685
 51
154.3207113805431
  0
LINE
  5
4B
330
42
100
AcDbEntity
  8
ASHADE
  6
Continuous
 62
     7
100
AcDbLine
 10
-0.2703701166919155
 20
0.13
 30
0.0
 11
-0.3154318028072347
 21
0.1516666666666666
 31
0.0
  0
LINE
  5
4C
330
42
100
AcDbEntity
  8
ASHADE
  6
Continuous
 62
     7
100
AcDbLine
 10
-0.2703701166919155
 20
-0.13
 30
0.0
 11
-0.3154318028072347
 21
-0.1516666666666666
 31
0.0
  0
LINE
  5
4D
330
42
100
AcDbEntity
  8
ASHADE
  6
Continuous
 62
     7
100
AcDbLine
 10
-0.2041413561583015
 20
0.2198324514393849
 30
0.0
 11
-0.2721884748777353
 21
0.2931099352525131
 31
0.0
  0
LINE
  5
4E
330
42
100
AcDbEntity
  8
ASHADE
  6
Continuous
 62
     7
100
AcDbLine
 10
-0.1096591641591904
 20
0.2792398032442862
 30
0.0
 11
-0.1279356915190555
 21
0.3257797704516674
 31
0.0
  0
LINE
  5
4F
330
42
100
AcDbEntity
  8
ASHADE
  6
Continuous
 62
     7
100
AcDbLine
 10
0.2703701166919155
 20
-0.13
 30
0.0
 11
0.3154318028072347
 21
-0.1516666666666666
 31
0.0
  0
LINE
  5
50
330
42
100
AcDbEntity
  8
ASHADE
  6
Continuous
 62
     7
100
AcDbLine
 10
0.2703701166919155
 20
0.13
 30
0.0
 11
0.3154318028072347
 21
0.1516666666666666
 31
0.0
  0
LINE
  5
51
330
42
100
AcDbEntity
  8
ASHADE
  6
Continuous
 62
     7
100
AcDbLine
 10
0.0
 20
0.3
 30
0.0
 11
0.0
 21
0.4
 31
0.0
  0
ATTDEF
  5
52
330
42
100
AcDbEntity
  8
ASHADE
  6
Continuous
 62
     7
100
AcDbText
 10
0.0
 20
0.22
 30
0.0
 40
0.01
  1
1
100
AcDbAttributeDefinition
  3
Light Intensity
  2
INTENSITY
 70
     1
  0
ATTDEF
  5
53
330
42
100
AcDbEntity
  8
ASHADE
  6
Continuous
 62
     7
100
AcDbText
 10
0.0
 20
0.16
 30
0.0
 40
0.01
  1
-1
100
AcDbAttributeDefinition
  3
*not used*
  2
BEAMD
 70
     1
  0
ATTDEF
  5
54
330
42
100
AcDbEntity
  8
ASHADE
  6
Continuous
 62
     7
100
AcDbText
 10
0.0
 20
0.175
 30
0.0
 40
0.01
  1
-1
100
AcDbAttributeDefinition
  3
*not used*
  2
CONED
 70
     1
  0
ATTDEF
  5
55
330
42
100
AcDbEntity
  8
ASHADE
  6
Continuous
 62
     7
100
AcDbText
 10
0.0
 20
0.19
 30
0.0
 40
0.01
  1
0
100
AcDbAttributeDefinition
  3
Depth Map Size
  2
CONEA
 70
     1
  0
ATTDEF
  5
56
330
42
100
AcDbEntity
  8
ASHADE
  6
Continuous
 62
     7
100
AcDbText
 10
0.0
 20
0.2050000000000001
 30
0.0
 40
0.01
  1
1,1,1
100
AcDbAttributeDefinition
  3
Light Color (RGB)
  2
COLOR
 70
     1
  0
ATTDEF
  5
57
330
42
100
AcDbEntity
  8
ASHADE
  6
Continuous
 62
     7
100
AcDbText
 10
0.0
 20
0.235
 30
0.0
 40
0.01
  1

100
AcDbAttributeDefinition
  3
Look-at Z
  2
LAZ
 70
     1
  0
ATTDEF
  5
58
330
42
100
AcDbEntity
  8
ASHADE
  6
Continuous
 62
     7
100
AcDbText
 10
0.0
 20
0.25
 30
0.0
 40
0.01
  1

100
AcDbAttributeDefinition
  3
Look-at Y
  2
LAY
 70
     1
  0
ATTDEF
  5
59
330
42
100
AcDbEntity
  8
ASHADE
  6
Continuous
 62
     7
100
AcDbText
 10
0.0
 20
0.265
 30
0.0
 40
0.01
  1

100
AcDbAttributeDefinition
  3
Look-at X
  2
LAX
 70
     1
  0
ATTDEF
  5
5A
330
42
100
AcDbEntity
  8
ASHADE
  6
Continuous
 62
     7
100
AcDbText
 10
0.0
 20
0.28
 30
0.0
 40
0.01
  1

100
AcDbAttributeDefinition
  3

  2
GNAME
 70
     1
  0
LINE
  5
5B
330
42
100
AcDbEntity
  8
ASHADE
  6
Continuous
 62
     7
100
AcDbLine
 10
0.1096591641591904
 20
0.2792398032442862
 30
0.0
 11
0.1279356915190555
 21
0.3257797704516674
 31
0.0
  0
LINE
  5
5C
330
42
100
AcDbEntity
  8
ASHADE
  6
Continuous
 62
     7
100
AcDbLine
 10
0.2041413561583015
 20
0.2198324514393849
 30
0.0
 11
0.2721884748777353
 21
0.2931099352525131
 31
0.0
  0
ENDBLK
  5
5E
330
42
100
AcDbEntity
  8
0
100
AcDbBlockEnd
  0
BLOCK
  5
85
330
5F
100
AcDbEntity
  8
0
100
AcDbBlockBegin
  2
sh_spot
 70
     2
 10
0.0
 20
0.0
 30
0.0
  3
sh_spot
  1

  0
LINE
  5
60
330
5F
100
AcDbEntity
  8
ASHADE
  6
Continuous
 62
     7
100
AcDbLine
 10
0.25
 20
0.26
 30
0.0
 11
-0.25
 21
0.26
 31
0.0
  0
LINE
  5
61
330
5F
100
AcDbEntity
  8
ASHADE
  6
Continuous
 62
     7
100
AcDbLine
 10
-0.25
 20
-0.3399999999999999
 30
0.0
 11
0.25
 21
-0.3399999999999999
 31
0.0
  0
ATTDEF
  5
62
330
5F
100
AcDbEntity
  8
ASHADE
  6
Continuous
 62
     1
100
AcDbText
 10
0.0
 20
-0.1
 30
0.0
 40
0.2
  1

  7
ASHADE
 72
     1
 11
0.0
 21
-0.1
 31
0.0
100
AcDbAttributeDefinition
  3
Light Name
  2
SNAME
 70
     0
  0
LINE
  5
63
330
5F
100
AcDbEntity
  8
ASHADE
  6
Continuous
 62
     7
100
AcDbLine
 10
-0.25
 20
-0.13
 30
0.0
 11
-0.25
 21
-0.3399999999999999
 31
0.0
  0
LINE
  5
64
330
5F
100
AcDbEntity
  8
ASHADE
  6
Continuous
 62
     7
100
AcDbLine
 10
-0.25
 20
-0.18
 30
0.0
 11
-0.29
 21
-0.18
 31
0.0
  0
LINE
  5
65
330
5F
100
AcDbEntity
  8
ASHADE
  6
Continuous
 62
     7
100
AcDbLine
 10
-0.29
 20
-0.22
 30
0.0
 11
-0.25
 21
-0.22
 31
0.0
  0
LINE
  5
66
330
5F
100
AcDbEntity
  8
ASHADE
  6
Continuous
 62
     7
100
AcDbLine
 10
-0.29
 20
-0.18
 30
0.0
 11
-0.29
 21
-0.22
 31
0.0
  0
LINE
  5
67
330
5F
100
AcDbEntity
  8
ASHADE
  6
Continuous
 62
     7
100
AcDbLine
 10
-0.1045454545454545
 20
0.26
 30
0.0
 11
-0.15
 21
0.46
 31
0.0
  0
LINE
  5
68
330
5F
100
AcDbEntity
  8
ASHADE
  6
Continuous
 62
     7
100
AcDbLine
 10
-0.21
 20
0.26
 30
0.0
 11
-0.301304347826087
 21
0.46
 31
0.0
  0
LINE
  5
69
330
5F
100
AcDbEntity
  8
ASHADE
  6
Continuous
 62
     7
100
AcDbLine
 10
-0.25
 20
0.26
 30
0.0
 11
-0.25
 21
0.13
 31
0.0
  0
LINE
  5
6A
330
5F
100
AcDbEntity
  8
ASHADE
  6
Continuous
 62
     7
100
AcDbLine
 10
-0.25
 20
0.22
 30
0.0
 11
-0.29
 21
0.22
 31
0.0
  0
LINE
  5
6B
330
5F
100
AcDbEntity
  8
ASHADE
  6
Continuous
 62
     7
100
AcDbLine
 10
-0.29
 20
0.1799999999999999
 30
0.0
 11
-0.25
 21
0.1799999999999999
 31
0.0
  0
LINE
  5
6C
330
5F
100
AcDbEntity
  8
ASHADE
  6
Continuous
 62
     7
100
AcDbLine
 10
-0.29
 20
0.22
 30
0.0
 11
-0.29
 21
0.1799999999999999
 31
0.0
  0
ATTDEF
  5
6D
330
5F
100
AcDbEntity
  8
ASHADE
  6
Continuous
 62
     7
100
AcDbText
 10
0.0
 20
-0.24
 30
0.0
 40
0.01
  1
0
100
AcDbAttributeDefinition
  3
Depth Map Size
  2
ZSIZE
 70
     1
  0
ATTDEF
  5
6E
330
5F
100
AcDbEntity
  8
ASHADE
  6
Continuous
 62
     7
100
AcDbText
 10
0.0
 20
-0.3300000000000001
 30
0.0
 40
0.01
  1
0,0,0
100
AcDbAttributeDefinition
  3
Look-from XYZ
  2
LFXYZ
 70
     1
  0
ATTDEF
  5
6F
330
5F
100
AcDbEntity
  8
ASHADE
  6
Continuous
 62
     7
100
AcDbText
 10
0.0
 20
-0.315
 30
0.0
 40
0.01
  1
0.0
100
AcDbAttributeDefinition
  3
Beam Distribution
  2
BEAMDI
 70
     1
  0
ATTDEF
  5
70
330
5F
100
AcDbEntity
  8
ASHADE
  6
Continuous
 62
     7
100
AcDbText
 10
0.0
 20
-0.3
 30
0.0
 40
0.01
  1
0.0
100
AcDbAttributeDefinition
  3
Cone Delta
  2
CONEDE
 70
     1
  0
ATTDEF
  5
71
330
5F
100
AcDbEntity
  8
ASHADE
  6
Continuous
 62
     7
100
AcDbText
 10
0.0
 20
-0.2850000000000001
 30
0.0
 40
0.01
  1
10.0
100
AcDbAttributeDefinition
  3
Cone Angle
  2
CONEAN
 70
     1
  0
ATTDEF
  5
72
330
5F
100
AcDbEntity
  8
ASHADE
  6
Continuous
 62
     7
100
AcDbText
 10
0.0
 20
-0.27
 30
0.0
 40
0.01
  1
-1
100
AcDbAttributeDefinition
  3
*not used*
  2
BIASMAX
 70
     1
  0
ATTDEF
  5
73
330
5F
100
AcDbEntity
  8
ASHADE
  6
Continuous
 62
     7
100
AcDbText
 10
0.0
 20
-0.255
 30
0.0
 40
0.01
  1
-1
100
AcDbAttributeDefinition
  3
*not used*
  2
BIASMIN
 70
     1
  0
ATTDEF
  5
74
330
5F
100
AcDbEntity
  8
ASHADE
  6
Continuous
 62
     7
100
AcDbText
 10
0.0
 20
-0.225
 30
0.0
 40
0.01
  1
1,1,1
100
AcDbAttributeDefinition
  3
Light Color (RGB)
  2
COLOR
 70
     1
  0
ATTDEF
  5
75
330
5F
100
AcDbEntity
  8
ASHADE
  6
Continuous
 62
     7
100
AcDbText
 10
0.0
 20
-0.21
 30
0.0
 40
0.01
  1
1
100
AcDbAttributeDefinition
  3
Light Intensity
  2
INTENSITY
 70
     1
  0
ATTDEF
  5
76
330
5F
100
AcDbEntity
  8
ASHADE
  6
Continuous
 62
     7
100
AcDbText
 10
0.0
 20
-0.15
 30
0.0
 40
0.01
  1

100
AcDbAttributeDefinition
  3

  2
GNAME
 70
     1
  0
ATTDEF
  5
77
330
5F
100
AcDbEntity
  8
ASHADE
  6
Continuous
 62
     7
100
AcDbText
 10
0.0
 20
-0.195
 30
0.0
 40
0.01
  1

100
AcDbAttributeDefinition
  3
Look-at Z
  2
LAZ
 70
     1
  0
ATTDEF
  5
78
330
5F
100
AcDbEntity
  8
ASHADE
  6
Continuous
 62
     7
100
AcDbText
 10
0.0
 20
-0.18
 30
0.0
 40
0.01
  1

100
AcDbAttributeDefinition
  3
Look-at Y
  2
LAY
 70
     1
  0
ATTDEF
  5
79
330
5F
100
AcDbEntity
  8
ASHADE
  6
Continuous
 62
     7
100
AcDbText
 10
0.0
 20
-0.165
 30
0.0
 40
0.01
  1

100
AcDbAttributeDefinition
  3
Look-at X
  2
LAX
 70
     1
  0
LINE
  5
7A
330
5F
100
AcDbEntity
  8
ASHADE
  6
Continuous
 62
     7
100
AcDbLine
 10
0.25
 20
-0.3399999999999999
 30
0.0
 11
0.25
 21
-0.13
 31
0.0
  0
LINE
  5
7B
330
5F
100
AcDbEntity
  8
ASHADE
  6
Continuous
 62
     7
100
AcDbLine
 10
0.25
 20
-0.18
 30
0.0
 11
0.29
 21
-0.18
 31
0.0
  0
LINE
  5
7C
330
5F
100
AcDbEntity
  8
ASHADE
  6
Continuous
 62
     7
100
AcDbLine
 10
0.29
 20
-0.22
 30
0.0
 11
0.25
 21
-0.22
 31
0.0
  0
LINE
  5
7D
330
5F
100
AcDbEntity
  8
ASHADE
  6
Continuous
 62
     7
100
AcDbLine
 10
0.29
 20
-0.18
 30
0.0
 11
0.29
 21
-0.22
 31
0.0
  0
LINE
  5
7E
330
5F
100
AcDbEntity
  8
ASHADE
  6
Continuous
 62
     7
100
AcDbLine
 10
0.21
 20
0.26
 30
0.0
 11
0.301304347826087
 21
0.46
 31
0.0
  0
LINE
  5
7F
330
5F
100
AcDbEntity
  8
ASHADE
  6
Continuous
 62
     7
100
AcDbLine
 10
0.1045454545454545
 20
0.26
 30
0.0
 11
0.15
 21
0.46
 31
0.0
  0
LINE
  5
80
330
5F
100
AcDbEntity
  8
ASHADE
  6
Continuous
 62
     7
100
AcDbLine
 10
0.0
 20
0.26
 30
0.0
 11
0.0
 21
0.46
 31
0.0
  0
LINE
  5
81
330
5F
100
AcDbEntity
  8
ASHADE
  6
Continuous
 62
     7
100
AcDbLine
 10
0.25
 20
0.13
 30
0.0
 11
0.25
 21
0.26
 31
0.0
  0
LINE
  5
82
330
5F
100
AcDbEntity
  8
ASHADE
  6
Continuous
 62
     7
100
AcDbLine
 10
0.25
 20
0.22
 30
0.0
 11
0.29
 21
0.22
 31
0.0
  0
LINE
  5
83
330
5F
100
AcDbEntity
  8
ASHADE
  6
Continuous
 62
     7
100
AcDbLine
 10
0.29
 20
0.1799999999999999
 30
0.0
 11
0.25
 21
0.1799999999999999
 31
0.0
  0
LINE
  5
84
330
5F
100
AcDbEntity
  8
ASHADE
  6
Continuous
 62
     7
100
AcDbLine
 10
0.29
 20
0.22
 30
0.0
 11
0.29
 21
0.1799999999999999
 31
0.0
  0
ENDBLK
  5
86
330
5F
100
AcDbEntity
  8
0
100
AcDbBlockEnd
  0
BLOCK
  5
92
330
91
100
AcDbEntity
  8
ASHADE
100
AcDbBlockBegin
  2
AVE_RENDER
 70
     0
 10
0.0
 20
0.0
 30
0.0
  3
AVE_RENDER
  1
AVE_RENDER
  0
ENDBLK
  5
93
330
91
100
AcDbEntity
  8
0
100
AcDbBlockEnd
  0
BLOCK
  5
A0
330
9F
100
AcDbEntity
  8
ASHADE
100
AcDbBlockBegin
  2
AVE_GLOBAL
 70
     0
 10
0.0
 20
0.0
 30
0.0
  3
AVE_GLOBAL
  1
AVE_GLOBAL
  0
ENDBLK
  5
A1
330
9F
100
AcDbEntity
  8
0
100
AcDbBlockEnd
  0
ENDSEC
  0
SECTION
  2
ENTITIES
  0
INSERT
  5
94
330
1F
100
AcDbEntity
  8
ASHADE
 62
     1
100
AcDbBlockReference
  2
AVE_RENDER
 10
0.0
 20
0.0
 30
0.0
1001
AVE_RENDER
1002
{
1070
     7
1000
Pref
1070
    30
1070
    20
1070
     1
1070
     0
1000

1070
    10
1070
     1
1070
    10
1040
1.0
1070
     1
1040
0.3
1040
0.7
1040
0.0
1040
10.0
1010
-1.0
1020
-1.0
1030
-1.0
1040
0.3
1070
    49
1070
     0
1070
     0
1010
1.0
1020
1.0
1030
1.0
1040
45.0
1070
     1
1070
     0
1000
WCS
1040
0.0
1070
     0
1040
10.0
1002
}
  0
INSERT
  5
95
330
1F
100
AcDbEntity
  8
ASHADE
 62
     3
100
AcDbBlockReference
  2
AVE_RENDER
 10
0.0
 20
0.0
 30
0.0
1001
AVE_RENDER
1002
{
1070
     0
1000
Full Opt
1070
     0
1070
     1
1070
     1
1070
     1
1070
     0
1070
     0
1070
     0
1070
     1
1070
     1
1040
0.0001
1040
0.0001
1002
}
  0
INSERT
  5
96
330
1F
100
AcDbEntity
  8
ASHADE
 62
     4
100
AcDbBlockReference
  2
AVE_RENDER
 10
0.0
 20
0.0
 30
0.0
1001
AVE_RENDER
1002
{
1070
     0
1000
Quick Opt
1070
     0
1070
     1
1070
     1
1070
     1
1070
     0
1070
     0
1070
     1
1002
}
  0
INSERT
  5
97
330
1F
100
AcDbEntity
  8
ASHADE
 62
     5
100
AcDbBlockReference
  2
AVE_RENDER
 10
0.0
 20
0.0
 30
0.0
1001
AVE_RENDER
1002
{
1070
     1
1000
Scanl Opt
1070
     2
1070
     0
1070
     2
1040
2.0
1040
4.0
1070
     0
1070
     1
1070
     0
1040
0.03
1002
}
  0
INSERT
  5
98
330
1F
100
AcDbEntity
  8
ASHADE
 62
     6
100
AcDbBlockReference
  2
AVE_RENDER
 10
0.0
 20
0.0
 30
0.0
1001
AVE_RENDER
1002
{
1070
     2
1000
Raytr Opt
1070
     2
1070
     0
1070
     2
1040
2.0
1040
4.0
1070
     0
1070
     1
1070
     1
1040
0.03
1070
     3
1040
0.03
1002
}
  0
INSERT
  5
99
330
1F
100
AcDbEntity
  8
ASHADE
 62
     7
100
AcDbBlockReference
  2
AVE_RENDER
 10
0.0
 20
0.0
 30
0.0
1001
AVE_RENDER
1002
{
1070
     0
1000
RFile Opt
1070
     1
1070
   640
1070
   480
1070
 10000
1070
     1
1070
     8
1070
     8
1070
     0
1070
     0
1070
     0
1070
     0
1070
     0
1070
     0
1070
     0
1002
}
  0
INSERT
  5
9A
330
1F
100
AcDbEntity
  8
ASHADE
 62
     8
100
AcDbBlockReference
  2
AVE_RENDER
 10
0.0
 20
0.0
 30
0.0
1001
AVE_RENDER
1002
{
1070
     0
1000
Fog Opt
1070
     0
1070
     0
1040
0.0
1040
1.0
1040
0.0
1040
1.0
1010
0.5
1020
0.5
1030
0.5
1002
}
  0
INSERT
  5
9B
330
1F
100
AcDbEntity
  8
ASHADE
 62
     9
100
AcDbBlockReference
  2
AVE_RENDER
 10
0.0
 20
0.0
 30
0.0
1001
AVE_RENDER
1002
{
1070
     0
1000
BG Opt
1070
     0
1070
     1
1010
0.0
1020
0.0
1030
0.0
1010
1.0
1020
0.0
1030
0.0
1010
0.0
1020
1.0
1030
0.0
1010
0.0
1020
0.0
1030
1.0
1040
0.5
1040
0.33
1040
0.0
1000

1070
     1
1000

1070
     1
1070
     1
1040
1.0
1040
1.0
1040
0.0
1040
0.0
1070
     0
1002
}
  0
INSERT
  5
A2
330
1F
100
AcDbEntity
  8
ASHADE
 62
     1
100
AcDbBlockReference
  2
AVE_GLOBAL
 10
0.0
 20
0.0
 30
0.0
1001
AVE_MATERIAL
1002
{
1000
*GLOBAL*
1000
2
1000
Global finish.
1002
{
1002
}
1002
{
1070
    63
1002
{
1002
{
1010
-1.0
1020
-1.0
1030
-1.0
1002
}
1040
0.1000000014901161
1000

1040
0.0
1002
{
1002
}
1040
0.0
1002
{
1002
}
1040
0.0
1002
}
1002
{
1002
{
1010
-1.0
1020
-1.0
1030
-1.0
1002
}
1040
0.6999999880790711
1000

1040
0.0
1002
{
1002
}
1040
0.0
1002
{
1002
}
1040
0.0
1002
}
1002
{
1002
{
1010
-1.0
1020
-1.0
1030
-1.0
1002
}
1040
0.2000000029802322
1000

1040
0.0
1002
{
1002
}
1040
0.0
1002
{
1002
}
1040
0.0
1002
}
1002
{
1070
     0
1002
{
1070
     1
1002
{
1040
1.0
1040
1.0
1000

1040
0.0
1002
{
1002
}
1040
0.0
1002
{
1002
}
1040
0.0
1002
}
1002
}
1040
1.0
1040
0.0
1040
0.0
1002
}
1002
{
1040
1.0
1040
1.0
1000

1040
0.0
1002
{
1002
}
1040
0.0
1002
{
1002
}
1040
0.0
1002
}
1002
{
1040
0.5
1040
1.0
1000

1040
0.0
1002
{
1002
}
1040
0.0
1002
{
1002
}
1040
0.0
1002
}
1002
{
1070
     0
1040
0.0
1002
{
1002
}
1040
1.0
1002
{
1002
}
1040
0.0
1002
}
1002
{
1040
0.0
1002
{
1002
{
1010
0.0
1020
0.0
1030
0.0
1002
}
1040
1.0
1000

1040
0.0
1002
{
1002
}
1040
0.0
1002
{
1002
}
1040
0.0
1002
}
1002
}
1002
{
1002
{
1070
     1
1002
{
1040
0.0
1040
1.0
1000

1040
0.0
1002
{
1002
}
1040
0.0
1002
{
1002
}
1040
0.0
1002
}
1002
}
1040
0.0
1002
{
1002
}
1010
1.0
1020
0.0
1030
0.0
1010
0.0
1020
1.0
1030
0.0
1010
0.0
1020
0.0
1030
1.0
1070
     0
1002
}
1002
{
1002
{
1040
1.0
1040
1.0
1002
{
1070
     1
1002
{
1040
1.0
1040
1.0
1000

1040
0.0
1002
{
1002
}
1040
0.0
1002
{
1002
}
1040
0.0
1002
}
1002
}
1002
}
1070
     0
1040
0.0
1002
{
1002
}
1002
}
1002
{
1002
}
1002
}
1002
{
1071
        3
1070
     3
1070
     0
1002
{
1070
     2
1070
     0
1070
     0
1040
0.0
1002
}
1070
     0
1070
     2
1002
{
1002
}
1002
}
1002
{
1040
8030.0
1040
190.3000030517578
1040
0.3050000071525574
1040
228.0
1040
545.0
1040
14.0
1040
17.39999961853027
1040
0.4560000002384186
1002
}
1002
}
  0
POLYLINE
  5
AE
330
1F
100
AcDbEntity
  8
0
 62
    76
100
AcDbPolyFaceMesh
 66
     1
 10
0.0
 20
0.0
 30
0.0
 70
    64
 71
     8
 72
    12
  0
VERTEX
  5
AF
330
AE
100
AcDbEntity
  8
0
 62
    76
100
AcDbVertex
100
AcDbPolyFaceMeshVertex
 10
-1946.796264648438
 20
-1695.883666992187
 30
91.52127075195313
 70
   192
  0
VERTEX
  5
B0
330
AE
100
AcDbEntity
  8
0
 62
    76
100
AcDbVertex
100
AcDbPolyFaceMeshVertex
 10
-1946.796264648438
 20
-2242.017333984375
 30
91.52127075195313
 70
   192
  0
VERTEX
  5
B1
330
AE
100
AcDbEntity
  8
0
 62
    76
100
AcDbVertex
100
AcDbPolyFaceMeshVertex
 10
-1657.611450195312
 20
-1695.883666992187
 30
91.52127075195313
 70
   192
  0
VERTEX
  5
B2
330
AE
100
AcDbEntity
  8
0
 62
    76
100
AcDbVertex
100
AcDbPolyFaceMeshVertex
 10
-1657.611450195312
 20
-2242.017578125
 30
91.52127075195313
 70
   192
  0
VERTEX
  5
B3
330
AE
100
AcDbEntity
  8
0
 62
    76
100
AcDbVertex
100
AcDbPolyFaceMeshVertex
 10
-1946.796264648438
 20
-1695.883666992187
 30
101.5212707519531
 70
   192
  0
VERTEX
  5
B4
330
AE
100
AcDbEntity
  8
0
 62
    76
100
AcDbVertex
100
AcDbPolyFaceMeshVertex
 10
-1946.796264648438
 20
-2242.017333984375
 30
101.5212707519531
 70
   192
  0
VERTEX
  5
B5
330
AE
100
AcDbEntity
  8
0
 62
    76
100
AcDbVertex
100
AcDbPolyFaceMeshVertex
 10
-1657.611450195312
 20
-1695.883666992187
 30
101.5212707519531
 70
   192
  0
VERTEX
  5
B6
330
AE
100
AcDbEntity
  8
0
 62
    76
100
AcDbVertex
100
AcDbPolyFaceMeshVertex
 10
-1657.611450195312
 20
-2242.017578125
 30
101.5212707519531
 70
   192
  0
VERTEX
  5
B7
330
AE
100
AcDbEntity
  8
0
 62
    76
100
AcDbFaceRecord
 10
0.0
 20
0.0
 30
0.0
 70
   128
 71
     1
 72
     3
 73
    -4
 74
    -1
  0
VERTEX
  5
B8
330
AE
100
AcDbEntity
  8
0
 62
    76
100
AcDbFaceRecord
 10
0.0
 20
0.0
 30
0.0
 70
   128
 71
     4
 72
     2
 73
    -1
 74
    -4
  0
VERTEX
  5
B9
330
AE
100
AcDbEntity
  8
0
 62
    76
100
AcDbFaceRecord
 10
0.0
 20
0.0
 30
0.0
 70
   128
 71
     5
 72
     6
 73
    -8
 74
    -5
  0
VERTEX
  5
BA
330
AE
100
AcDbEntity
  8
0
 62
    76
100
AcDbFaceRecord
 10
0.0
 20
0.0
 30
0.0
 70
   128
 71
     8
 72
     7
 73
    -5
 74
    -8
  0
VERTEX
  5
BB
330
AE
100
AcDbEntity
  8
0
 62
    76
100
AcDbFaceRecord
 10
0.0
 20
0.0
 30
0.0
 70
   128
 71
     1
 72
     2
 73
    -6
 74
    -1
  0
VERTEX
  5
BC
330
AE
100
AcDbEntity
  8
0
 62
    76
100
AcDbFaceRecord
 10
0.0
 20
0.0
 30
0.0
 70
   128
 71
     6
 72
     5
 73
    -1
 74
    -6
  0
VERTEX
  5
BD
330
AE
100
AcDbEntity
  8
0
 62
    76
100
AcDbFaceRecord
 10
0.0
 20
0.0
 30
0.0
 70
   128
 71
     2
 72
     4
 73
    -8
 74
    -2
  0
VERTEX
  5
BE
330
AE
100
AcDbEntity
  8
0
 62
    76
100
AcDbFaceRecord
 10
0.0
 20
0.0
 30
0.0
 70
   128
 71
     8
 72
     6
 73
    -2
 74
    -8
  0
VERTEX
  5
BF
330
AE
100
AcDbEntity
  8
0
 62
    76
100
AcDbFaceRecord
 10
0.0
 20
0.0
 30
0.0
 70
   128
 71
     4
 72
     3
 73
    -7
 74
    -4
  0
VERTEX
  5
C0
330
AE
100
AcDbEntity
  8
0
 62
    76
100
AcDbFaceRecord
 10
0.0
 20
0.0
 30
0.0
 70
   128
 71
     7
 72
     8
 73
    -4
 74
    -7
  0
VERTEX
  5
C1
330
AE
100
AcDbEntity
  8
0
 62
    76
100
AcDbFaceRecord
 10
0.0
 20
0.0
 30
0.0
 70
   128
 71
     3
 72
     1
 73
    -5
 74
    -3
  0
VERTEX
  5
C2
330
AE
100
AcDbEntity
  8
0
 62
    76
100
AcDbFaceRecord
 10
0.0
 20
0.0
 30
0.0
 70
   128
 71
     5
 72
     7
 73
    -3
 74
    -5
  0
SEQEND
  5
C3
330
AE
100
AcDbEntity
  8
0
 62
    76
  0
POLYLINE
  5
C4
330
1F
100
AcDbEntity
  8
0
 62
    61
100
AcDbPolyFaceMesh
 66
     1
 10
0.0
 20
0.0
 30
0.0
 70
    64
 71
   110
 72
   216
  0
VERTEX
  5
C5
330
C4
100
AcDbEntity
  8
0
 62
    61
100
AcDbVertex
100
AcDbPolyFaceMeshVertex
 10
-1632.217529296875
 20
-2188.353271484375
 30
666.8355712890624
 70
   192
  0
VERTEX
  5
C6
330
C4
100
AcDbEntity
  8
0
 62
    61
100
AcDbVertex
100
AcDbPolyFaceMeshVertex
 10
-1632.217529296875
 20
-2195.9208984375
 30
666.8355712890624
 70
   192
  0
VERTEX
  5
C7
330
C4
100
AcDbEntity
  8
0
 62
    61
100
AcDbVertex
100
AcDbPolyFaceMeshVertex
 10
-1632.217529296875
 20
-2195.464599609375
 30
669.423828125
 70
   192
  0
VERTEX
  5
C8
330
C4
100
AcDbEntity
  8
0
 62
    61
100
AcDbVertex
100
AcDbPolyFaceMeshVertex
 10
-1632.217529296875
 20
-2194.150390625
 30
671.699951171875
 70
   192
  0
VERTEX
  5
C9
330
C4
100
AcDbEntity
  8
0
 62
    61
100
AcDbVertex
100
AcDbPolyFaceMeshVertex
 10
-1632.217529296875
 20
-2192.13720703125
 30
673.3893432617187
 70
   192
  0
VERTEX
  5
CA
330
C4
100
AcDbEntity
  8
0
 62
    61
100
AcDbVertex
100
AcDbPolyFaceMeshVertex
 10
-1632.217529296875
 20
-2189.66748046875
 30
674.2882080078125
 70
   192
  0
VERTEX
  5
CB
330
C4
100
AcDbEntity
  8
0
 62
    61
100
AcDbVertex
100
AcDbPolyFaceMeshVertex
 10
-1632.217529296875
 20
-2187.0390625
 30
674.2882080078125
 70
   192
  0
VERTEX
  5
CC
330
C4
100
AcDbEntity
  8
0
 62
    61
100
AcDbVertex
100
AcDbPolyFaceMeshVertex
 10
-1632.217529296875
 20
-2184.5693359375
 30
673.3893432617187
 70
   192
  0
VERTEX
  5
CD
330
C4
100
AcDbEntity
  8
0
 62
    61
100
AcDbVertex
100
AcDbPolyFaceMeshVertex
 10
-1632.217529296875
 20
-2182.55615234375
 30
671.699951171875
 70
   192
  0
VERTEX
  5
CE
330
C4
100
AcDbEntity
  8
0
 62
    61
100
AcDbVertex
100
AcDbPolyFaceMeshVertex
 10
-1632.217529296875
 20
-2181.241943359375
 30
669.423828125
 70
   192
  0
VERTEX
  5
CF
330
C4
100
AcDbEntity
  8
0
 62
    61
100
AcDbVertex
100
AcDbPolyFaceMeshVertex
 10
-1632.217529296875
 20
-2180.78564453125
 30
666.8355712890624
 70
   192
  0
VERTEX
  5
D0
330
C4
100
AcDbEntity
  8
0
 62
    61
100
AcDbVertex
100
AcDbPolyFaceMeshVertex
 10
-1632.217529296875
 20
-2181.241943359375
 30
664.2473144531249
 70
   192
  0
VERTEX
  5
D1
330
C4
100
AcDbEntity
  8
0
 62
    61
100
AcDbVertex
100
AcDbPolyFaceMeshVertex
 10
-1632.217529296875
 20
-2182.55615234375
 30
661.97119140625
 70
   192
  0
VERTEX
  5
D2
330
C4
100
AcDbEntity
  8
0
 62
    61
100
AcDbVertex
100
AcDbPolyFaceMeshVertex
 10
-1632.217529296875
 20
-2184.569580078125
 30
660.2817993164062
 70
   192
  0
VERTEX
  5
D3
330
C4
100
AcDbEntity
  8
0
 62
    61
100
AcDbVertex
100
AcDbPolyFaceMeshVertex
 10
-1632.217529296875
 20
-2187.0390625
 30
659.3829345703125
 70
   192
  0
VERTEX
  5
D4
330
C4
100
AcDbEntity
  8
0
 62
    61
100
AcDbVertex
100
AcDbPolyFaceMeshVertex
 10
-1632.217529296875
 20
-2189.66748046875
 30
659.3829345703125
 70
   192
  0
VERTEX
  5
D5
330
C4
100
AcDbEntity
  8
0
 62
    61
100
AcDbVertex
100
AcDbPolyFaceMeshVertex
 10
-1632.217529296875
 20
-2192.13720703125
 30
660.2817993164062
 70
   192
  0
VERTEX
  5
D6
330
C4
100
AcDbEntity
  8
0
 62
    61
100
AcDbVertex
100
AcDbPolyFaceMeshVertex
 10
-1632.217529296875
 20
-2194.150390625
 30
661.97119140625
 70
   192
  0
VERTEX
  5
D7
330
C4
100
AcDbEntity
  8
0
 62
    61
100
AcDbVertex
100
AcDbPolyFaceMeshVertex
 10
-1632.217529296875
 20
-2195.464599609375
 30
664.2473144531249
 70
   192
  0
VERTEX
  5
D8
330
C4
100
AcDbEntity
  8
0
 62
    61
100
AcDbVertex
100
AcDbPolyFaceMeshVertex
 10
-1635.005126953125
 20
-2195.9208984375
 30
666.8355712890624
 70
   192
  0
VERTEX
  5
D9
330
C4
100
AcDbEntity
  8
0
 62
    61
100
AcDbVertex
100
AcDbPolyFaceMeshVertex
 10
-1635.005126953125
 20
-2195.464599609375
 30
669.423828125
 70
   192
  0
VERTEX
  5
DA
330
C4
100
AcDbEntity
  8
0
 62
    61
100
AcDbVertex
100
AcDbPolyFaceMeshVertex
 10
-1635.005126953125
 20
-2194.150390625
 30
671.699951171875
 70
   192
  0
VERTEX
  5
DB
330
C4
100
AcDbEntity
  8
0
 62
    61
100
AcDbVertex
100
AcDbPolyFaceMeshVertex
 10
-1635.005126953125
 20
-2192.13720703125
 30
673.3893432617187
 70
   192
  0
VERTEX
  5
DC
330
C4
100
AcDbEntity
  8
0
 62
    61
100
AcDbVertex
100
AcDbPolyFaceMeshVertex
 10
-1635.005126953125
 20
-2189.66748046875
 30
674.2882080078125
 70
   192
  0
VERTEX
  5
DD
330
C4
100
AcDbEntity
  8
0
 62
    61
100
AcDbVertex
100
AcDbPolyFaceMeshVertex
 10
-1635.005126953125
 20
-2187.0390625
 30
674.2882080078125
 70
   192
  0
VERTEX
  5
DE
330
C4
100
AcDbEntity
  8
0
 62
    61
100
AcDbVertex
100
AcDbPolyFaceMeshVertex
 10
-1635.005126953125
 20
-2184.5693359375
 30
673.3893432617187
 70
   192
  0
VERTEX
  5
DF
330
C4
100
AcDbEntity
  8
0
 62
    61
100
AcDbVertex
100
AcDbPolyFaceMeshVertex
 10
-1635.005126953125
 20
-2182.55615234375
 30
671.699951171875
 70
   192
  0
VERTEX
  5
E0
330
C4
100
AcDbEntity
  8
0
 62
    61
100
AcDbVertex
100
AcDbPolyFaceMeshVertex
 10
-1635.005126953125
 20
-2181.241943359375
 30
669.423828125
 70
   192
  0
VERTEX
  5
E1
330
C4
100
AcDbEntity
  8
0
 62
    61
100
AcDbVertex
100
AcDbPolyFaceMeshVertex
 10
-1635.005126953125
 20
-2180.78564453125
 30
666.8355712890624
 70
   192
  0
VERTEX
  5
E2
330
C4
100
AcDbEntity
  8
0
 62
    61
100
AcDbVertex
100
AcDbPolyFaceMeshVertex
 10
-1635.005126953125
 20
-2181.241943359375
 30
664.2473144531249
 70
   192
  0
VERTEX
  5
E3
330
C4
100
AcDbEntity
  8
0
 62
    61
100
AcDbVertex
100
AcDbPolyFaceMeshVertex
 10
-1635.005126953125
 20
-2182.55615234375
 30
661.97119140625
 70
   192
  0
VERTEX
  5
E4
330
C4
100
AcDbEntity
  8
0
 62
    61
100
AcDbVertex
100
AcDbPolyFaceMeshVertex
 10
-1635.005126953125
 20
-2184.5693359375
 30
660.2817993164062
 70
   192
  0
VERTEX
  5
E5
330
C4
100
AcDbEntity
  8
0
 62
    61
100
AcDbVertex
100
AcDbPolyFaceMeshVertex
 10
-1635.005126953125
 20
-2187.0390625
 30
659.3829345703125
 70
   192
  0
VERTEX
  5
E6
330
C4
100
AcDbEntity
  8
0
 62
    61
100
AcDbVertex
100
AcDbPolyFaceMeshVertex
 10
-1635.005126953125
 20
-2189.66748046875
 30
659.3829345703125
 70
   192
  0
VERTEX
  5
E7
330
C4
100
AcDbEntity
  8
0
 62
    61
100
AcDbVertex
100
AcDbPolyFaceMeshVertex
 10
-1635.005126953125
 20
-2192.13720703125
 30
660.2817993164062
 70
   192
  0
VERTEX
  5
E8
330
C4
100
AcDbEntity
  8
0
 62
    61
100
AcDbVertex
100
AcDbPolyFaceMeshVertex
 10
-1635.005126953125
 20
-2194.150390625
 30
661.97119140625
 70
   192
  0
VERTEX
  5
E9
330
C4
100
AcDbEntity
  8
0
 62
    61
100
AcDbVertex
100
AcDbPolyFaceMeshVertex
 10
-1635.005126953125
 20
-2195.464599609375
 30
664.2473144531249
 70
   192
  0
VERTEX
  5
EA
330
C4
100
AcDbEntity
  8
0
 62
    61
100
AcDbVertex
100
AcDbPolyFaceMeshVertex
 10
-1637.792846679687
 20
-2195.9208984375
 30
666.8355712890624
 70
   192
  0
VERTEX
  5
EB
330
C4
100
AcDbEntity
  8
0
 62
    61
100
AcDbVertex
100
AcDbPolyFaceMeshVertex
 10
-1637.792846679687
 20
-2195.464599609375
 30
669.423828125
 70
   192
  0
VERTEX
  5
EC
330
C4
100
AcDbEntity
  8
0
 62
    61
100
AcDbVertex
100
AcDbPolyFaceMeshVertex
 10
-1637.792846679687
 20
-2194.150390625
 30
671.699951171875
 70
   192
  0
VERTEX
  5
ED
330
C4
100
AcDbEntity
  8
0
 62
    61
100
AcDbVertex
100
AcDbPolyFaceMeshVertex
 10
-1637.792846679687
 20
-2192.136962890625
 30
673.3893432617187
 70
   192
  0
VERTEX
  5
EE
330
C4
100
AcDbEntity
  8
0
 62
    61
100
AcDbVertex
100
AcDbPolyFaceMeshVertex
 10
-1637.792846679687
 20
-2189.66748046875
 30
674.2882080078125
 70
   192
  0
VERTEX
  5
EF
330
C4
100
AcDbEntity
  8
0
 62
    61
100
AcDbVertex
100
AcDbPolyFaceMeshVertex
 10
-1637.792846679687
 20
-2187.0390625
 30
674.2882080078125
 70
   192
  0
VERTEX
  5
F0
330
C4
100
AcDbEntity
  8
0
 62
    61
100
AcDbVertex
100
AcDbPolyFaceMeshVertex
 10
-1637.792846679687
 20
-2184.5693359375
 30
673.3893432617187
 70
   192
  0
VERTEX
  5
F1
330
C4
100
AcDbEntity
  8
0
 62
    61
100
AcDbVertex
100
AcDbPolyFaceMeshVertex
 10
-1637.792846679687
 20
-2182.55615234375
 30
671.699951171875
 70
   192
  0
VERTEX
  5
F2
330
C4
100
AcDbEntity
  8
0
 62
    61
100
AcDbVertex
100
AcDbPolyFaceMeshVertex
 10
-1637.792846679687
 20
-2181.241943359375
 30
669.423828125
 70
   192
  0
VERTEX
  5
F3
330
C4
100
AcDbEntity
  8
0
 62
    61
100
AcDbVertex
100
AcDbPolyFaceMeshVertex
 10
-1637.792846679687
 20
-2180.78564453125
 30
666.8355712890624
 70
   192
  0
VERTEX
  5
F4
330
C4
100
AcDbEntity
  8
0
 62
    61
100
AcDbVertex
100
AcDbPolyFaceMeshVertex
 10
-1637.792846679687
 20
-2181.241943359375
 30
664.2473144531249
 70
   192
  0
VERTEX
  5
F5
330
C4
100
AcDbEntity
  8
0
 62
    61
100
AcDbVertex
100
AcDbPolyFaceMeshVertex
 10
-1637.792846679687
 20
-2182.55615234375
 30
661.97119140625
 70
   192
  0
VERTEX
  5
F6
330
C4
100
AcDbEntity
  8
0
 62
    61
100
AcDbVertex
100
AcDbPolyFaceMeshVertex
 10
-1637.792846679687
 20
-2184.5693359375
 30
660.2817993164062
 70
   192
  0
VERTEX
  5
F7
330
C4
100
AcDbEntity
  8
0
 62
    61
100
AcDbVertex
100
AcDbPolyFaceMeshVertex
 10
-1637.792846679687
 20
-2187.0390625
 30
659.3829345703125
 70
   192
  0
VERTEX
  5
F8
330
C4
100
AcDbEntity
  8
0
 62
    61
100
AcDbVertex
100
AcDbPolyFaceMeshVertex
 10
-1637.792846679687
 20
-2189.66748046875
 30
659.3829345703125
 70
   192
  0
VERTEX
  5
F9
330
C4
100
AcDbEntity
  8
0
 62
    61
100
AcDbVertex
100
AcDbPolyFaceMeshVertex
 10
-1637.792846679687
 20
-2192.13720703125
 30
660.2817993164062
 70
   192
  0
VERTEX
  5
FA
330
C4
100
AcDbEntity
  8
0
 62
    61
100
AcDbVertex
100
AcDbPolyFaceMeshVertex
 10
-1637.792846679687
 20
-2194.150390625
 30
661.97119140625
 70
   192
  0
VERTEX
  5
FB
330
C4
100
AcDbEntity
  8
0
 62
    61
100
AcDbVertex
100
AcDbPolyFaceMeshVertex
 10
-1637.792846679687
 20
-2195.464599609375
 30
664.2473144531249
 70
   192
  0
VERTEX
  5
FC
330
C4
100
AcDbEntity
  8
0
 62
    61
100
AcDbVertex
100
AcDbPolyFaceMeshVertex
 10
-1640.580444335937
 20
-2195.9208984375
 30
666.8355712890624
 70
   192
  0
VERTEX
  5
FD
330
C4
100
AcDbEntity
  8
0
 62
    61
100
AcDbVertex
100
AcDbPolyFaceMeshVertex
 10
-1640.580444335937
 20
-2195.464599609375
 30
669.423828125
 70
   192
  0
VERTEX
  5
FE
330
C4
100
AcDbEntity
  8
0
 62
    61
100
AcDbVertex
100
AcDbPolyFaceMeshVertex
 10
-1640.580444335937
 20
-2194.150390625
 30
671.699951171875
 70
   192
  0
VERTEX
  5
FF
330
C4
100
AcDbEntity
  8
0
 62
    61
100
AcDbVertex
100
AcDbPolyFaceMeshVertex
 10
-1640.580444335937
 20
-2192.136962890625
 30
673.3893432617187
 70
   192
  0
VERTEX
  5
100
330
C4
100
AcDbEntity
  8
0
 62
    61
100
AcDbVertex
100
AcDbPolyFaceMeshVertex
 10
-1640.580444335937
 20
-2189.66748046875
 30
674.2882080078125
 70
   192
  0
VERTEX
  5
101
330
C4
100
AcDbEntity
  8
0
 62
    61
100
AcDbVertex
100
AcDbPolyFaceMeshVertex
 10
-1640.580444335937
 20
-2187.0390625
 30
674.2882080078125
 70
   192
  0
VERTEX
  5
102
330
C4
100
AcDbEntity
  8
0
 62
    61
100
AcDbVertex
100
AcDbPolyFaceMeshVertex
 10
-1640.580444335937
 20
-2184.5693359375
 30
673.3893432617187
 70
   192
  0
VERTEX
  5
103
330
C4
100
AcDbEntity
  8
0
 62
    61
100
AcDbVertex
100
AcDbPolyFaceMeshVertex
 10
-1640.580444335937
 20
-2182.55615234375
 30
671.699951171875
 70
   192
  0
VERTEX
  5
104
330
C4
100
AcDbEntity
  8
0
 62
    61
100
AcDbVertex
100
AcDbPolyFaceMeshVertex
 10
-1640.580444335937
 20
-2181.241943359375
 30
669.423828125
 70
   192
  0
VERTEX
  5
105
330
C4
100
AcDbEntity
  8
0
 62
    61
100
AcDbVertex
100
AcDbPolyFaceMeshVertex
 10
-1640.580444335937
 20
-2180.78564453125
 30
666.8355712890624
 70
   192
  0
VERTEX
  5
106
330
C4
100
AcDbEntity
  8
0
 62
    61
100
AcDbVertex
100
AcDbPolyFaceMeshVertex
 10
-1640.580444335937
 20
-2181.241943359375
 30
664.2473144531249
 70
   192
  0
VERTEX
  5
107
330
C4
100
AcDbEntity
  8
0
 62
    61
100
AcDbVertex
100
AcDbPolyFaceMeshVertex
 10
-1640.580444335937
 20
-2182.55615234375
 30
661.97119140625
 70
   192
  0
VERTEX
  5
108
330
C4
100
AcDbEntity
  8
0
 62
    61
100
AcDbVertex
100
AcDbPolyFaceMeshVertex
 10
-1640.580444335937
 20
-2184.5693359375
 30
660.2817993164062
 70
   192
  0
VERTEX
  5
109
330
C4
100
AcDbEntity
  8
0
 62
    61
100
AcDbVertex
100
AcDbPolyFaceMeshVertex
 10
-1640.580444335937
 20
-2187.0390625
 30
659.3829345703125
 70
   192
  0
VERTEX
  5
10A
330
C4
100
AcDbEntity
  8
0
 62
    61
100
AcDbVertex
100
AcDbPolyFaceMeshVertex
 10
-1640.580444335937
 20
-2189.66748046875
 30
659.3829345703125
 70
   192
  0
VERTEX
  5
10B
330
C4
100
AcDbEntity
  8
0
 62
    61
100
AcDbVertex
100
AcDbPolyFaceMeshVertex
 10
-1640.580444335937
 20
-2192.13720703125
 30
660.2817993164062
 70
   192
  0
VERTEX
  5
10C
330
C4
100
AcDbEntity
  8
0
 62
    61
100
AcDbVertex
100
AcDbPolyFaceMeshVertex
 10
-1640.580444335937
 20
-2194.150390625
 30
661.97119140625
 70
   192
  0
VERTEX
  5
10D
330
C4
100
AcDbEntity
  8
0
 62
    61
100
AcDbVertex
100
AcDbPolyFaceMeshVertex
 10
-1640.580444335937
 20
-2195.464599609375
 30
664.2473144531249
 70
   192
  0
VERTEX
  5
10E
330
C4
100
AcDbEntity
  8
0
 62
    61
100
AcDbVertex
100
AcDbPolyFaceMeshVertex
 10
-1643.3681640625
 20
-2195.9208984375
 30
666.8355712890624
 70
   192
  0
VERTEX
  5
10F
330
C4
100
AcDbEntity
  8
0
 62
    61
100
AcDbVertex
100
AcDbPolyFaceMeshVertex
 10
-1643.3681640625
 20
-2195.464599609375
 30
669.423828125
 70
   192
  0
VERTEX
  5
110
330
C4
100
AcDbEntity
  8
0
 62
    61
100
AcDbVertex
100
AcDbPolyFaceMeshVertex
 10
-1643.3681640625
 20
-2194.150390625
 30
671.699951171875
 70
   192
  0
VERTEX
  5
111
330
C4
100
AcDbEntity
  8
0
 62
    61
100
AcDbVertex
100
AcDbPolyFaceMeshVertex
 10
-1643.3681640625
 20
-2192.136962890625
 30
673.3893432617187
 70
   192
  0
VERTEX
  5
112
330
C4
100
AcDbEntity
  8
0
 62
    61
100
AcDbVertex
100
AcDbPolyFaceMeshVertex
 10
-1643.3681640625
 20
-2189.66748046875
 30
674.2882080078125
 70
   192
  0
VERTEX
  5
113
330
C4
100
AcDbEntity
  8
0
 62
    61
100
AcDbVertex
100
AcDbPolyFaceMeshVertex
 10
-1643.3681640625
 20
-2187.0390625
 30
674.2882080078125
 70
   192
  0
VERTEX
  5
114
330
C4
100
AcDbEntity
  8
0
 62
    61
100
AcDbVertex
100
AcDbPolyFaceMeshVertex
 10
-1643.3681640625
 20
-2184.5693359375
 30
673.3893432617187
 70
   192
  0
VERTEX
  5
115
330
C4
100
AcDbEntity
  8
0
 62
    61
100
AcDbVertex
100
AcDbPolyFaceMeshVertex
 10
-1643.3681640625
 20
-2182.55615234375
 30
671.699951171875
 70
   192
  0
VERTEX
  5
116
330
C4
100
AcDbEntity
  8
0
 62
    61
100
AcDbVertex
100
AcDbPolyFaceMeshVertex
 10
-1643.3681640625
 20
-2181.241943359375
 30
669.423828125
 70
   192
  0
VERTEX
  5
117
330
C4
100
AcDbEntity
  8
0
 62
    61
100
AcDbVertex
100
AcDbPolyFaceMeshVertex
 10
-1643.3681640625
 20
-2180.78564453125
 30
666.8355712890624
 70
   192
  0
VERTEX
  5
118
330
C4
100
AcDbEntity
  8
0
 62
    61
100
AcDbVertex
100
AcDbPolyFaceMeshVertex
 10
-1643.3681640625
 20
-2181.241943359375
 30
664.2473144531249
 70
   192
  0
VERTEX
  5
119
330
C4
100
AcDbEntity
  8
0
 62
    61
100
AcDbVertex
100
AcDbPolyFaceMeshVertex
 10
-1643.3681640625
 20
-2182.55615234375
 30
661.97119140625
 70
   192
  0
VERTEX
  5
11A
330
C4
100
AcDbEntity
  8
0
 62
    61
100
AcDbVertex
100
AcDbPolyFaceMeshVertex
 10
-1643.3681640625
 20
-2184.5693359375
 30
660.2817993164062
 70
   192
  0
VERTEX
  5
11B
330
C4
100
AcDbEntity
  8
0
 62
    61
100
AcDbVertex
100
AcDbPolyFaceMeshVertex
 10
-1643.3681640625
 20
-2187.0390625
 30
659.3829345703125
 70
   192
  0
VERTEX
  5
11C
330
C4
100
AcDbEntity
  8
0
 62
    61
100
AcDbVertex
100
AcDbPolyFaceMeshVertex
 10
-1643.3681640625
 20
-2189.66748046875
 30
659.3829345703125
 70
   192
  0
VERTEX
  5
11D
330
C4
100
AcDbEntity
  8
0
 62
    61
100
AcDbVertex
100
AcDbPolyFaceMeshVertex
 10
-1643.3681640625
 20
-2192.13720703125
 30
660.2817993164062
 70
   192
  0
VERTEX
  5
11E
330
C4
100
AcDbEntity
  8
0
 62
    61
100
AcDbVertex
100
AcDbPolyFaceMeshVertex
 10
-1643.3681640625
 20
-2194.150390625
 30
661.97119140625
 70
   192
  0
VERTEX
  5
11F
330
C4
100
AcDbEntity
  8
0
 62
    61
100
AcDbVertex
100
AcDbPolyFaceMeshVertex
 10
-1643.3681640625
 20
-2195.464599609375
 30
664.2473144531249
 70
   192
  0
VERTEX
  5
120
330
C4
100
AcDbEntity
  8
0
 62
    61
100
AcDbVertex
100
AcDbPolyFaceMeshVertex
 10
-1646.15576171875
 20
-2195.9208984375
 30
666.8355712890624
 70
   192
  0
VERTEX
  5
121
330
C4
100
AcDbEntity
  8
0
 62
    61
100
AcDbVertex
100
AcDbPolyFaceMeshVertex
 10
-1646.15576171875
 20
-2195.464599609375
 30
669.423828125
 70
   192
  0
VERTEX
  5
122
330
C4
100
AcDbEntity
  8
0
 62
    61
100
AcDbVertex
100
AcDbPolyFaceMeshVertex
 10
-1646.15576171875
 20
-2194.150390625
 30
671.699951171875
 70
   192
  0
VERTEX
  5
123
330
C4
100
AcDbEntity
  8
0
 62
    61
100
AcDbVertex
100
AcDbPolyFaceMeshVertex
 10
-1646.15576171875
 20
-2192.136962890625
 30
673.3893432617187
 70
   192
  0
VERTEX
  5
124
330
C4
100
AcDbEntity
  8
0
 62
    61
100
AcDbVertex
100
AcDbPolyFaceMeshVertex
 10
-1646.15576171875
 20
-2189.66748046875
 30
674.2882080078125
 70
   192
  0
VERTEX
  5
125
330
C4
100
AcDbEntity
  8
0
 62
    61
100
AcDbVertex
100
AcDbPolyFaceMeshVertex
 10
-1646.15576171875
 20
-2187.0390625
 30
674.2882080078125
 70
   192
  0
VERTEX
  5
126
330
C4
100
AcDbEntity
  8
0
 62
    61
100
AcDbVertex
100
AcDbPolyFaceMeshVertex
 10
-1646.15576171875
 20
-2184.5693359375
 30
673.3893432617187
 70
   192
  0
VERTEX
  5
127
330
C4
100
AcDbEntity
  8
0
 62
    61
100
AcDbVertex
100
AcDbPolyFaceMeshVertex
 10
-1646.15576171875
 20
-2182.55615234375
 30
671.699951171875
 70
   192
  0
VERTEX
  5
128
330
C4
100
AcDbEntity
  8
0
 62
    61
100
AcDbVertex
100
AcDbPolyFaceMeshVertex
 10
-1646.15576171875
 20
-2181.241943359375
 30
669.423828125
 70
   192
  0
VERTEX
  5
129
330
C4
100
AcDbEntity
  8
0
 62
    61
100
AcDbVertex
100
AcDbPolyFaceMeshVertex
 10
-1646.15576171875
 20
-2180.78564453125
 30
666.8355712890624
 70
   192
  0
VERTEX
  5
12A
330
C4
100
AcDbEntity
  8
0
 62
    61
100
AcDbVertex
100
AcDbPolyFaceMeshVertex
 10
-1646.15576171875
 20
-2181.241943359375
 30
664.2473144531249
 70
   192
  0
VERTEX
  5
12B
330
C4
100
AcDbEntity
  8
0
 62
    61
100
AcDbVertex
100
AcDbPolyFaceMeshVertex
 10
-1646.15576171875
 20
-2182.55615234375
 30
661.97119140625
 70
   192
  0
VERTEX
  5
12C
330
C4
100
AcDbEntity
  8
0
 62
    61
100
AcDbVertex
100
AcDbPolyFaceMeshVertex
 10
-1646.15576171875
 20
-2184.5693359375
 30
660.2817993164062
 70
   192
  0
VERTEX
  5
12D
330
C4
100
AcDbEntity
  8
0
 62
    61
100
AcDbVertex
100
AcDbPolyFaceMeshVertex
 10
-1646.15576171875
 20
-2187.0390625
 30
659.3829345703125
 70
   192
  0
VERTEX
  5
12E
330
C4
100
AcDbEntity
  8
0
 62
    61
100
AcDbVertex
100
AcDbPolyFaceMeshVertex
 10
-1646.15576171875
 20
-2189.66748046875
 30
659.3829345703125
 70
   192
  0
VERTEX
  5
12F
330
C4
100
AcDbEntity
  8
0
 62
    61
100
AcDbVertex
100
AcDbPolyFaceMeshVertex
 10
-1646.15576171875
 20
-2192.13720703125
 30
660.2817993164062
 70
   192
  0
VERTEX
  5
130
330
C4
100
AcDbEntity
  8
0
 62
    61
100
AcDbVertex
100
AcDbPolyFaceMeshVertex
 10
-1646.15576171875
 20
-2194.150390625
 30
661.97119140625
 70
   192
  0
VERTEX
  5
131
330
C4
100
AcDbEntity
  8
0
 62
    61
100
AcDbVertex
100
AcDbPolyFaceMeshVertex
 10
-1646.15576171875
 20
-2195.464599609375
 30
664.2473144531249
 70
   192
  0
VERTEX
  5
132
330
C4
100
AcDbEntity
  8
0
 62
    61
100
AcDbVertex
100
AcDbPolyFaceMeshVertex
 10
-1646.15576171875
 20
-2188.353271484375
 30
666.8355712890624
 70
   192
  0
VERTEX
  5
133
330
C4
100
AcDbEntity
  8
0
 62
    61
100
AcDbFaceRecord
 10
0.0
 20
0.0
 30
0.0
 70
   128
 71
    -1
 72
     3
 73
    -2
 74
    -1
  0
VERTEX
  5
134
330
C4
100
AcDbEntity
  8
0
 62
    61
100
AcDbFaceRecord
 10
0.0
 20
0.0
 30
0.0
 70
   128
 71
    -1
 72
     4
 73
    -3
 74
    -1
  0
VERTEX
  5
135
330
C4
100
AcDbEntity
  8
0
 62
    61
100
AcDbFaceRecord
 10
0.0
 20
0.0
 30
0.0
 70
   128
 71
    -1
 72
     5
 73
    -4
 74
    -1
  0
VERTEX
  5
136
330
C4
100
AcDbEntity
  8
0
 62
    61
100
AcDbFaceRecord
 10
0.0
 20
0.0
 30
0.0
 70
   128
 71
    -1
 72
     6
 73
    -5
 74
    -1
  0
VERTEX
  5
137
330
C4
100
AcDbEntity
  8
0
 62
    61
100
AcDbFaceRecord
 10
0.0
 20
0.0
 30
0.0
 70
   128
 71
    -1
 72
     7
 73
    -6
 74
    -1
  0
VERTEX
  5
138
330
C4
100
AcDbEntity
  8
0
 62
    61
100
AcDbFaceRecord
 10
0.0
 20
0.0
 30
0.0
 70
   128
 71
    -1
 72
     8
 73
    -7
 74
    -1
  0
VERTEX
  5
139
330
C4
100
AcDbEntity
  8
0
 62
    61
100
AcDbFaceRecord
 10
0.0
 20
0.0
 30
0.0
 70
   128
 71
    -1
 72
     9
 73
    -8
 74
    -1
  0
VERTEX
  5
13A
330
C4
100
AcDbEntity
  8
0
 62
    61
100
AcDbFaceRecord
 10
0.0
 20
0.0
 30
0.0
 70
   128
 71
    -1
 72
    10
 73
    -9
 74
    -1
  0
VERTEX
  5
13B
330
C4
100
AcDbEntity
  8
0
 62
    61
100
AcDbFaceRecord
 10
0.0
 20
0.0
 30
0.0
 70
   128
 71
    -1
 72
    11
 73
   -10
 74
    -1
  0
VERTEX
  5
13C
330
C4
100
AcDbEntity
  8
0
 62
    61
100
AcDbFaceRecord
 10
0.0
 20
0.0
 30
0.0
 70
   128
 71
    -1
 72
    12
 73
   -11
 74
    -1
  0
VERTEX
  5
13D
330
C4
100
AcDbEntity
  8
0
 62
    61
100
AcDbFaceRecord
 10
0.0
 20
0.0
 30
0.0
 70
   128
 71
    -1
 72
    13
 73
   -12
 74
    -1
  0
VERTEX
  5
13E
330
C4
100
AcDbEntity
  8
0
 62
    61
100
AcDbFaceRecord
 10
0.0
 20
0.0
 30
0.0
 70
   128
 71
    -1
 72
    14
 73
   -13
 74
    -1
  0
VERTEX
  5
13F
330
C4
100
AcDbEntity
  8
0
 62
    61
100
AcDbFaceRecord
 10
0.0
 20
0.0
 30
0.0
 70
   128
 71
    -1
 72
    15
 73
   -14
 74
    -1
  0
VERTEX
  5
140
330
C4
100
AcDbEntity
  8
0
 62
    61
100
AcDbFaceRecord
 10
0.0
 20
0.0
 30
0.0
 70
   128
 71
    -1
 72
    16
 73
   -15
 74
    -1
  0
VERTEX
  5
141
330
C4
100
AcDbEntity
  8
0
 62
    61
100
AcDbFaceRecord
 10
0.0
 20
0.0
 30
0.0
 70
   128
 71
    -1
 72
    17
 73
   -16
 74
    -1
  0
VERTEX
  5
142
330
C4
100
AcDbEntity
  8
0
 62
    61
100
AcDbFaceRecord
 10
0.0
 20
0.0
 30
0.0
 70
   128
 71
    -1
 72
    18
 73
   -17
 74
    -1
  0
VERTEX
  5
143
330
C4
100
AcDbEntity
  8
0
 62
    61
100
AcDbFaceRecord
 10
0.0
 20
0.0
 30
0.0
 70
   128
 71
    -1
 72
    19
 73
   -18
 74
    -1
  0
VERTEX
  5
144
330
C4
100
AcDbEntity
  8
0
 62
    61
100
AcDbFaceRecord
 10
0.0
 20
0.0
 30
0.0
 70
   128
 71
    -1
 72
     2
 73
   -19
 74
    -1
  0
VERTEX
  5
145
330
C4
100
AcDbEntity
  8
0
 62
    61
100
AcDbFaceRecord
 10
0.0
 20
0.0
 30
0.0
 70
   128
 71
    -2
 72
    21
 73
    20
 74
    -2
  0
VERTEX
  5
146
330
C4
100
AcDbEntity
  8
0
 62
    61
100
AcDbFaceRecord
 10
0.0
 20
0.0
 30
0.0
 70
   128
 71
     2
 72
     3
 73
   -21
 74
    -2
  0
VERTEX
  5
147
330
C4
100
AcDbEntity
  8
0
 62
    61
100
AcDbFaceRecord
 10
0.0
 20
0.0
 30
0.0
 70
   128
 71
    -3
 72
    22
 73
    21
 74
    -3
  0
VERTEX
  5
148
330
C4
100
AcDbEntity
  8
0
 62
    61
100
AcDbFaceRecord
 10
0.0
 20
0.0
 30
0.0
 70
   128
 71
     3
 72
     4
 73
   -22
 74
    -3
  0
VERTEX
  5
149
330
C4
100
AcDbEntity
  8
0
 62
    61
100
AcDbFaceRecord
 10
0.0
 20
0.0
 30
0.0
 70
   128
 71
    -4
 72
    23
 73
    22
 74
    -4
  0
VERTEX
  5
14A
330
C4
100
AcDbEntity
  8
0
 62
    61
100
AcDbFaceRecord
 10
0.0
 20
0.0
 30
0.0
 70
   128
 71
     4
 72
     5
 73
   -23
 74
    -4
  0
VERTEX
  5
14B
330
C4
100
AcDbEntity
  8
0
 62
    61
100
AcDbFaceRecord
 10
0.0
 20
0.0
 30
0.0
 70
   128
 71
    -5
 72
    24
 73
    23
 74
    -5
  0
VERTEX
  5
14C
330
C4
100
AcDbEntity
  8
0
 62
    61
100
AcDbFaceRecord
 10
0.0
 20
0.0
 30
0.0
 70
   128
 71
     5
 72
     6
 73
   -24
 74
    -5
  0
VERTEX
  5
14D
330
C4
100
AcDbEntity
  8
0
 62
    61
100
AcDbFaceRecord
 10
0.0
 20
0.0
 30
0.0
 70
   128
 71
    -6
 72
    25
 73
    24
 74
    -6
  0
VERTEX
  5
14E
330
C4
100
AcDbEntity
  8
0
 62
    61
100
AcDbFaceRecord
 10
0.0
 20
0.0
 30
0.0
 70
   128
 71
     6
 72
     7
 73
   -25
 74
    -6
  0
VERTEX
  5
14F
330
C4
100
AcDbEntity
  8
0
 62
    61
100
AcDbFaceRecord
 10
0.0
 20
0.0
 30
0.0
 70
   128
 71
    -7
 72
    26
 73
    25
 74
    -7
  0
VERTEX
  5
150
330
C4
100
AcDbEntity
  8
0
 62
    61
100
AcDbFaceRecord
 10
0.0
 20
0.0
 30
0.0
 70
   128
 71
     7
 72
     8
 73
   -26
 74
    -7
  0
VERTEX
  5
151
330
C4
100
AcDbEntity
  8
0
 62
    61
100
AcDbFaceRecord
 10
0.0
 20
0.0
 30
0.0
 70
   128
 71
    -8
 72
    27
 73
    26
 74
    -8
  0
VERTEX
  5
152
330
C4
100
AcDbEntity
  8
0
 62
    61
100
AcDbFaceRecord
 10
0.0
 20
0.0
 30
0.0
 70
   128
 71
     8
 72
     9
 73
   -27
 74
    -8
  0
VERTEX
  5
153
330
C4
100
AcDbEntity
  8
0
 62
    61
100
AcDbFaceRecord
 10
0.0
 20
0.0
 30
0.0
 70
   128
 71
    -9
 72
    28
 73
    27
 74
    -9
  0
VERTEX
  5
154
330
C4
100
AcDbEntity
  8
0
 62
    61
100
AcDbFaceRecord
 10
0.0
 20
0.0
 30
0.0
 70
   128
 71
     9
 72
    10
 73
   -28
 74
    -9
  0
VERTEX
  5
155
330
C4
100
AcDbEntity
  8
0
 62
    61
100
AcDbFaceRecord
 10
0.0
 20
0.0
 30
0.0
 70
   128
 71
   -10
 72
    29
 73
    28
 74
   -10
  0
VERTEX
  5
156
330
C4
100
AcDbEntity
  8
0
 62
    61
100
AcDbFaceRecord
 10
0.0
 20
0.0
 30
0.0
 70
   128
 71
    10
 72
    11
 73
   -29
 74
   -10
  0
VERTEX
  5
157
330
C4
100
AcDbEntity
  8
0
 62
    61
100
AcDbFaceRecord
 10
0.0
 20
0.0
 30
0.0
 70
   128
 71
   -11
 72
    30
 73
    29
 74
   -11
  0
VERTEX
  5
158
330
C4
100
AcDbEntity
  8
0
 62
    61
100
AcDbFaceRecord
 10
0.0
 20
0.0
 30
0.0
 70
   128
 71
    11
 72
    12
 73
   -30
 74
   -11
  0
VERTEX
  5
159
330
C4
100
AcDbEntity
  8
0
 62
    61
100
AcDbFaceRecord
 10
0.0
 20
0.0
 30
0.0
 70
   128
 71
   -12
 72
    31
 73
    30
 74
   -12
  0
VERTEX
  5
15A
330
C4
100
AcDbEntity
  8
0
 62
    61
100
AcDbFaceRecord
 10
0.0
 20
0.0
 30
0.0
 70
   128
 71
    12
 72
    13
 73
   -31
 74
   -12
  0
VERTEX
  5
15B
330
C4
100
AcDbEntity
  8
0
 62
    61
100
AcDbFaceRecord
 10
0.0
 20
0.0
 30
0.0
 70
   128
 71
   -13
 72
    32
 73
    31
 74
   -13
  0
VERTEX
  5
15C
330
C4
100
AcDbEntity
  8
0
 62
    61
100
AcDbFaceRecord
 10
0.0
 20
0.0
 30
0.0
 70
   128
 71
    13
 72
    14
 73
   -32
 74
   -13
  0
VERTEX
  5
15D
330
C4
100
AcDbEntity
  8
0
 62
    61
100
AcDbFaceRecord
 10
0.0
 20
0.0
 30
0.0
 70
   128
 71
   -14
 72
    33
 73
    32
 74
   -14
  0
VERTEX
  5
15E
330
C4
100
AcDbEntity
  8
0
 62
    61
100
AcDbFaceRecord
 10
0.0
 20
0.0
 30
0.0
 70
   128
 71
    14
 72
    15
 73
   -33
 74
   -14
  0
VERTEX
  5
15F
330
C4
100
AcDbEntity
  8
0
 62
    61
100
AcDbFaceRecord
 10
0.0
 20
0.0
 30
0.0
 70
   128
 71
   -15
 72
    34
 73
    33
 74
   -15
  0
VERTEX
  5
160
330
C4
100
AcDbEntity
  8
0
 62
    61
100
AcDbFaceRecord
 10
0.0
 20
0.0
 30
0.0
 70
   128
 71
    15
 72
    16
 73
   -34
 74
   -15
  0
VERTEX
  5
161
330
C4
100
AcDbEntity
  8
0
 62
    61
100
AcDbFaceRecord
 10
0.0
 20
0.0
 30
0.0
 70
   128
 71
   -16
 72
    35
 73
    34
 74
   -16
  0
VERTEX
  5
162
330
C4
100
AcDbEntity
  8
0
 62
    61
100
AcDbFaceRecord
 10
0.0
 20
0.0
 30
0.0
 70
   128
 71
    16
 72
    17
 73
   -35
 74
   -16
  0
VERTEX
  5
163
330
C4
100
AcDbEntity
  8
0
 62
    61
100
AcDbFaceRecord
 10
0.0
 20
0.0
 30
0.0
 70
   128
 71
   -17
 72
    36
 73
    35
 74
   -17
  0
VERTEX
  5
164
330
C4
100
AcDbEntity
  8
0
 62
    61
100
AcDbFaceRecord
 10
0.0
 20
0.0
 30
0.0
 70
   128
 71
    17
 72
    18
 73
   -36
 74
   -17
  0
VERTEX
  5
165
330
C4
100
AcDbEntity
  8
0
 62
    61
100
AcDbFaceRecord
 10
0.0
 20
0.0
 30
0.0
 70
   128
 71
   -18
 72
    37
 73
    36
 74
   -18
  0
VERTEX
  5
166
330
C4
100
AcDbEntity
  8
0
 62
    61
100
AcDbFaceRecord
 10
0.0
 20
0.0
 30
0.0
 70
   128
 71
    18
 72
    19
 73
   -37
 74
   -18
  0
VERTEX
  5
167
330
C4
100
AcDbEntity
  8
0
 62
    61
100
AcDbFaceRecord
 10
0.0
 20
0.0
 30
0.0
 70
   128
 71
   -19
 72
    20
 73
    37
 74
   -19
  0
VERTEX
  5
168
330
C4
100
AcDbEntity
  8
0
 62
    61
100
AcDbFaceRecord
 10
0.0
 20
0.0
 30
0.0
 70
   128
 71
    19
 72
     2
 73
   -20
 74
   -19
  0
VERTEX
  5
169
330
C4
100
AcDbEntity
  8
0
 62
    61
100
AcDbFaceRecord
 10
0.0
 20
0.0
 30
0.0
 70
   128
 71
   -20
 72
    39
 73
    38
 74
   -20
  0
VERTEX
  5
16A
330
C4
100
AcDbEntity
  8
0
 62
    61
100
AcDbFaceRecord
 10
0.0
 20
0.0
 30
0.0
 70
   128
 71
    20
 72
    21
 73
   -39
 74
   -20
  0
VERTEX
  5
16B
330
C4
100
AcDbEntity
  8
0
 62
    61
100
AcDbFaceRecord
 10
0.0
 20
0.0
 30
0.0
 70
   128
 71
   -21
 72
    40
 73
    39
 74
   -21
  0
VERTEX
  5
16C
330
C4
100
AcDbEntity
  8
0
 62
    61
100
AcDbFaceRecord
 10
0.0
 20
0.0
 30
0.0
 70
   128
 71
    21
 72
    22
 73
   -40
 74
   -21
  0
VERTEX
  5
16D
330
C4
100
AcDbEntity
  8
0
 62
    61
100
AcDbFaceRecord
 10
0.0
 20
0.0
 30
0.0
 70
   128
 71
   -22
 72
    41
 73
    40
 74
   -22
  0
VERTEX
  5
16E
330
C4
100
AcDbEntity
  8
0
 62
    61
100
AcDbFaceRecord
 10
0.0
 20
0.0
 30
0.0
 70
   128
 71
    22
 72
    23
 73
   -41
 74
   -22
  0
VERTEX
  5
16F
330
C4
100
AcDbEntity
  8
0
 62
    61
100
AcDbFaceRecord
 10
0.0
 20
0.0
 30
0.0
 70
   128
 71
   -23
 72
    42
 73
    41
 74
   -23
  0
VERTEX
  5
170
330
C4
100
AcDbEntity
  8
0
 62
    61
100
AcDbFaceRecord
 10
0.0
 20
0.0
 30
0.0
 70
   128
 71
    23
 72
    24
 73
   -42
 74
   -23
  0
VERTEX
  5
171
330
C4
100
AcDbEntity
  8
0
 62
    61
100
AcDbFaceRecord
 10
0.0
 20
0.0
 30
0.0
 70
   128
 71
   -24
 72
    43
 73
    42
 74
   -24
  0
VERTEX
  5
172
330
C4
100
AcDbEntity
  8
0
 62
    61
100
AcDbFaceRecord
 10
0.0
 20
0.0
 30
0.0
 70
   128
 71
    24
 72
    25
 73
   -43
 74
   -24
  0
VERTEX
  5
173
330
C4
100
AcDbEntity
  8
0
 62
    61
100
AcDbFaceRecord
 10
0.0
 20
0.0
 30
0.0
 70
   128
 71
   -25
 72
    44
 73
    43
 74
   -25
  0
VERTEX
  5
174
330
C4
100
AcDbEntity
  8
0
 62
    61
100
AcDbFaceRecord
 10
0.0
 20
0.0
 30
0.0
 70
   128
 71
    25
 72
    26
 73
   -44
 74
   -25
  0
VERTEX
  5
175
330
C4
100
AcDbEntity
  8
0
 62
    61
100
AcDbFaceRecord
 10
0.0
 20
0.0
 30
0.0
 70
   128
 71
   -26
 72
    45
 73
    44
 74
   -26
  0
VERTEX
  5
176
330
C4
100
AcDbEntity
  8
0
 62
    61
100
AcDbFaceRecord
 10
0.0
 20
0.0
 30
0.0
 70
   128
 71
    26
 72
    27
 73
   -45
 74
   -26
  0
VERTEX
  5
177
330
C4
100
AcDbEntity
  8
0
 62
    61
100
AcDbFaceRecord
 10
0.0
 20
0.0
 30
0.0
 70
   128
 71
   -27
 72
    46
 73
    45
 74
   -27
  0
VERTEX
  5
178
330
C4
100
AcDbEntity
  8
0
 62
    61
100
AcDbFaceRecord
 10
0.0
 20
0.0
 30
0.0
 70
   128
 71
    27
 72
    28
 73
   -46
 74
   -27
  0
VERTEX
  5
179
330
C4
100
AcDbEntity
  8
0
 62
    61
100
AcDbFaceRecord
 10
0.0
 20
0.0
 30
0.0
 70
   128
 71
   -28
 72
    47
 73
    46
 74
   -28
  0
VERTEX
  5
17A
330
C4
100
AcDbEntity
  8
0
 62
    61
100
AcDbFaceRecord
 10
0.0
 20
0.0
 30
0.0
 70
   128
 71
    28
 72
    29
 73
   -47
 74
   -28
  0
VERTEX
  5
17B
330
C4
100
AcDbEntity
  8
0
 62
    61
100
AcDbFaceRecord
 10
0.0
 20
0.0
 30
0.0
 70
   128
 71
   -29
 72
    48
 73
    47
 74
   -29
  0
VERTEX
  5
17C
330
C4
100
AcDbEntity
  8
0
 62
    61
100
AcDbFaceRecord
 10
0.0
 20
0.0
 30
0.0
 70
   128
 71
    29
 72
    30
 73
   -48
 74
   -29
  0
VERTEX
  5
17D
330
C4
100
AcDbEntity
  8
0
 62
    61
100
AcDbFaceRecord
 10
0.0
 20
0.0
 30
0.0
 70
   128
 71
   -30
 72
    49
 73
    48
 74
   -30
  0
VERTEX
  5
17E
330
C4
100
AcDbEntity
  8
0
 62
    61
100
AcDbFaceRecord
 10
0.0
 20
0.0
 30
0.0
 70
   128
 71
    30
 72
    31
 73
   -49
 74
   -30
  0
VERTEX
  5
17F
330
C4
100
AcDbEntity
  8
0
 62
    61
100
AcDbFaceRecord
 10
0.0
 20
0.0
 30
0.0
 70
   128
 71
   -31
 72
    50
 73
    49
 74
   -31
  0
VERTEX
  5
180
330
C4
100
AcDbEntity
  8
0
 62
    61
100
AcDbFaceRecord
 10
0.0
 20
0.0
 30
0.0
 70
   128
 71
    31
 72
    32
 73
   -50
 74
   -31
  0
VERTEX
  5
181
330
C4
100
AcDbEntity
  8
0
 62
    61
100
AcDbFaceRecord
 10
0.0
 20
0.0
 30
0.0
 70
   128
 71
   -32
 72
    51
 73
    50
 74
   -32
  0
VERTEX
  5
182
330
C4
100
AcDbEntity
  8
0
 62
    61
100
AcDbFaceRecord
 10
0.0
 20
0.0
 30
0.0
 70
   128
 71
    32
 72
    33
 73
   -51
 74
   -32
  0
VERTEX
  5
183
330
C4
100
AcDbEntity
  8
0
 62
    61
100
AcDbFaceRecord
 10
0.0
 20
0.0
 30
0.0
 70
   128
 71
   -33
 72
    52
 73
    51
 74
   -33
  0
VERTEX
  5
184
330
C4
100
AcDbEntity
  8
0
 62
    61
100
AcDbFaceRecord
 10
0.0
 20
0.0
 30
0.0
 70
   128
 71
    33
 72
    34
 73
   -52
 74
   -33
  0
VERTEX
  5
185
330
C4
100
AcDbEntity
  8
0
 62
    61
100
AcDbFaceRecord
 10
0.0
 20
0.0
 30
0.0
 70
   128
 71
   -34
 72
    53
 73
    52
 74
   -34
  0
VERTEX
  5
186
330
C4
100
AcDbEntity
  8
0
 62
    61
100
AcDbFaceRecord
 10
0.0
 20
0.0
 30
0.0
 70
   128
 71
    34
 72
    35
 73
   -53
 74
   -34
  0
VERTEX
  5
187
330
C4
100
AcDbEntity
  8
0
 62
    61
100
AcDbFaceRecord
 10
0.0
 20
0.0
 30
0.0
 70
   128
 71
   -35
 72
    54
 73
    53
 74
   -35
  0
VERTEX
  5
188
330
C4
100
AcDbEntity
  8
0
 62
    61
100
AcDbFaceRecord
 10
0.0
 20
0.0
 30
0.0
 70
   128
 71
    35
 72
    36
 73
   -54
 74
   -35
  0
VERTEX
  5
189
330
C4
100
AcDbEntity
  8
0
 62
    61
100
AcDbFaceRecord
 10
0.0
 20
0.0
 30
0.0
 70
   128
 71
   -36
 72
    55
 73
    54
 74
   -36
  0
VERTEX
  5
18A
330
C4
100
AcDbEntity
  8
0
 62
    61
100
AcDbFaceRecord
 10
0.0
 20
0.0
 30
0.0
 70
   128
 71
    36
 72
    37
 73
   -55
 74
   -36
  0
VERTEX
  5
18B
330
C4
100
AcDbEntity
  8
0
 62
    61
100
AcDbFaceRecord
 10
0.0
 20
0.0
 30
0.0
 70
   128
 71
   -37
 72
    38
 73
    55
 74
   -37
  0
VERTEX
  5
18C
330
C4
100
AcDbEntity
  8
0
 62
    61
100
AcDbFaceRecord
 10
0.0
 20
0.0
 30
0.0
 70
   128
 71
    37
 72
    20
 73
   -38
 74
   -37
  0
VERTEX
  5
18D
330
C4
100
AcDbEntity
  8
0
 62
    61
100
AcDbFaceRecord
 10
0.0
 20
0.0
 30
0.0
 70
   128
 71
   -38
 72
    57
 73
    56
 74
   -38
  0
VERTEX
  5
18E
330
C4
100
AcDbEntity
  8
0
 62
    61
100
AcDbFaceRecord
 10
0.0
 20
0.0
 30
0.0
 70
   128
 71
    38
 72
    39
 73
   -57
 74
   -38
  0
VERTEX
  5
18F
330
C4
100
AcDbEntity
  8
0
 62
    61
100
AcDbFaceRecord
 10
0.0
 20
0.0
 30
0.0
 70
   128
 71
   -39
 72
    58
 73
    57
 74
   -39
  0
VERTEX
  5
190
330
C4
100
AcDbEntity
  8
0
 62
    61
100
AcDbFaceRecord
 10
0.0
 20
0.0
 30
0.0
 70
   128
 71
    39
 72
    40
 73
   -58
 74
   -39
  0
VERTEX
  5
191
330
C4
100
AcDbEntity
  8
0
 62
    61
100
AcDbFaceRecord
 10
0.0
 20
0.0
 30
0.0
 70
   128
 71
   -40
 72
    59
 73
    58
 74
   -40
  0
VERTEX
  5
192
330
C4
100
AcDbEntity
  8
0
 62
    61
100
AcDbFaceRecord
 10
0.0
 20
0.0
 30
0.0
 70
   128
 71
    40
 72
    41
 73
   -59
 74
   -40
  0
VERTEX
  5
193
330
C4
100
AcDbEntity
  8
0
 62
    61
100
AcDbFaceRecord
 10
0.0
 20
0.0
 30
0.0
 70
   128
 71
   -41
 72
    60
 73
    59
 74
   -41
  0
VERTEX
  5
194
330
C4
100
AcDbEntity
  8
0
 62
    61
100
AcDbFaceRecord
 10
0.0
 20
0.0
 30
0.0
 70
   128
 71
    41
 72
    42
 73
   -60
 74
   -41
  0
VERTEX
  5
195
330
C4
100
AcDbEntity
  8
0
 62
    61
100
AcDbFaceRecord
 10
0.0
 20
0.0
 30
0.0
 70
   128
 71
   -42
 72
    61
 73
    60
 74
   -42
  0
VERTEX
  5
196
330
C4
100
AcDbEntity
  8
0
 62
    61
100
AcDbFaceRecord
 10
0.0
 20
0.0
 30
0.0
 70
   128
 71
    42
 72
    43
 73
   -61
 74
   -42
  0
VERTEX
  5
197
330
C4
100
AcDbEntity
  8
0
 62
    61
100
AcDbFaceRecord
 10
0.0
 20
0.0
 30
0.0
 70
   128
 71
   -43
 72
    62
 73
    61
 74
   -43
  0
VERTEX
  5
198
330
C4
100
AcDbEntity
  8
0
 62
    61
100
AcDbFaceRecord
 10
0.0
 20
0.0
 30
0.0
 70
   128
 71
    43
 72
    44
 73
   -62
 74
   -43
  0
VERTEX
  5
199
330
C4
100
AcDbEntity
  8
0
 62
    61
100
AcDbFaceRecord
 10
0.0
 20
0.0
 30
0.0
 70
   128
 71
   -44
 72
    63
 73
    62
 74
   -44
  0
VERTEX
  5
19A
330
C4
100
AcDbEntity
  8
0
 62
    61
100
AcDbFaceRecord
 10
0.0
 20
0.0
 30
0.0
 70
   128
 71
    44
 72
    45
 73
   -63
 74
   -44
  0
VERTEX
  5
19B
330
C4
100
AcDbEntity
  8
0
 62
    61
100
AcDbFaceRecord
 10
0.0
 20
0.0
 30
0.0
 70
   128
 71
   -45
 72
    64
 73
    63
 74
   -45
  0
VERTEX
  5
19C
330
C4
100
AcDbEntity
  8
0
 62
    61
100
AcDbFaceRecord
 10
0.0
 20
0.0
 30
0.0
 70
   128
 71
    45
 72
    46
 73
   -64
 74
   -45
  0
VERTEX
  5
19D
330
C4
100
AcDbEntity
  8
0
 62
    61
100
AcDbFaceRecord
 10
0.0
 20
0.0
 30
0.0
 70
   128
 71
   -46
 72
    65
 73
    64
 74
   -46
  0
VERTEX
  5
19E
330
C4
100
AcDbEntity
  8
0
 62
    61
100
AcDbFaceRecord
 10
0.0
 20
0.0
 30
0.0
 70
   128
 71
    46
 72
    47
 73
   -65
 74
   -46
  0
VERTEX
  5
19F
330
C4
100
AcDbEntity
  8
0
 62
    61
100
AcDbFaceRecord
 10
0.0
 20
0.0
 30
0.0
 70
   128
 71
   -47
 72
    66
 73
    65
 74
   -47
  0
VERTEX
  5
1A0
330
C4
100
AcDbEntity
  8
0
 62
    61
100
AcDbFaceRecord
 10
0.0
 20
0.0
 30
0.0
 70
   128
 71
    47
 72
    48
 73
   -66
 74
   -47
  0
VERTEX
  5
1A1
330
C4
100
AcDbEntity
  8
0
 62
    61
100
AcDbFaceRecord
 10
0.0
 20
0.0
 30
0.0
 70
   128
 71
   -48
 72
    67
 73
    66
 74
   -48
  0
VERTEX
  5
1A2
330
C4
100
AcDbEntity
  8
0
 62
    61
100
AcDbFaceRecord
 10
0.0
 20
0.0
 30
0.0
 70
   128
 71
    48
 72
    49
 73
   -67
 74
   -48
  0
VERTEX
  5
1A3
330
C4
100
AcDbEntity
  8
0
 62
    61
100
AcDbFaceRecord
 10
0.0
 20
0.0
 30
0.0
 70
   128
 71
   -49
 72
    68
 73
    67
 74
   -49
  0
VERTEX
  5
1A4
330
C4
100
AcDbEntity
  8
0
 62
    61
100
AcDbFaceRecord
 10
0.0
 20
0.0
 30
0.0
 70
   128
 71
    49
 72
    50
 73
   -68
 74
   -49
  0
VERTEX
  5
1A5
330
C4
100
AcDbEntity
  8
0
 62
    61
100
AcDbFaceRecord
 10
0.0
 20
0.0
 30
0.0
 70
   128
 71
   -50
 72
    69
 73
    68
 74
   -50
  0
VERTEX
  5
1A6
330
C4
100
AcDbEntity
  8
0
 62
    61
100
AcDbFaceRecord
 10
0.0
 20
0.0
 30
0.0
 70
   128
 71
    50
 72
    51
 73
   -69
 74
   -50
  0
VERTEX
  5
1A7
330
C4
100
AcDbEntity
  8
0
 62
    61
100
AcDbFaceRecord
 10
0.0
 20
0.0
 30
0.0
 70
   128
 71
   -51
 72
    70
 73
    69
 74
   -51
  0
VERTEX
  5
1A8
330
C4
100
AcDbEntity
  8
0
 62
    61
100
AcDbFaceRecord
 10
0.0
 20
0.0
 30
0.0
 70
   128
 71
    51
 72
    52
 73
   -70
 74
   -51
  0
VERTEX
  5
1A9
330
C4
100
AcDbEntity
  8
0
 62
    61
100
AcDbFaceRecord
 10
0.0
 20
0.0
 30
0.0
 70
   128
 71
   -52
 72
    71
 73
    70
 74
   -52
  0
VERTEX
  5
1AA
330
C4
100
AcDbEntity
  8
0
 62
    61
100
AcDbFaceRecord
 10
0.0
 20
0.0
 30
0.0
 70
   128
 71
    52
 72
    53
 73
   -71
 74
   -52
  0
VERTEX
  5
1AB
330
C4
100
AcDbEntity
  8
0
 62
    61
100
AcDbFaceRecord
 10
0.0
 20
0.0
 30
0.0
 70
   128
 71
   -53
 72
    72
 73
    71
 74
   -53
  0
VERTEX
  5
1AC
330
C4
100
AcDbEntity
  8
0
 62
    61
100
AcDbFaceRecord
 10
0.0
 20
0.0
 30
0.0
 70
   128
 71
    53
 72
    54
 73
   -72
 74
   -53
  0
VERTEX
  5
1AD
330
C4
100
AcDbEntity
  8
0
 62
    61
100
AcDbFaceRecord
 10
0.0
 20
0.0
 30
0.0
 70
   128
 71
   -54
 72
    73
 73
    72
 74
   -54
  0
VERTEX
  5
1AE
330
C4
100
AcDbEntity
  8
0
 62
    61
100
AcDbFaceRecord
 10
0.0
 20
0.0
 30
0.0
 70
   128
 71
    54
 72
    55
 73
   -73
 74
   -54
  0
VERTEX
  5
1AF
330
C4
100
AcDbEntity
  8
0
 62
    61
100
AcDbFaceRecord
 10
0.0
 20
0.0
 30
0.0
 70
   128
 71
   -55
 72
    56
 73
    73
 74
   -55
  0
VERTEX
  5
1B0
330
C4
100
AcDbEntity
  8
0
 62
    61
100
AcDbFaceRecord
 10
0.0
 20
0.0
 30
0.0
 70
   128
 71
    55
 72
    38
 73
   -56
 74
   -55
  0
VERTEX
  5
1B1
330
C4
100
AcDbEntity
  8
0
 62
    61
100
AcDbFaceRecord
 10
0.0
 20
0.0
 30
0.0
 70
   128
 71
   -56
 72
    75
 73
    74
 74
   -56
  0
VERTEX
  5
1B2
330
C4
100
AcDbEntity
  8
0
 62
    61
100
AcDbFaceRecord
 10
0.0
 20
0.0
 30
0.0
 70
   128
 71
    56
 72
    57
 73
   -75
 74
   -56
  0
VERTEX
  5
1B3
330
C4
100
AcDbEntity
  8
0
 62
    61
100
AcDbFaceRecord
 10
0.0
 20
0.0
 30
0.0
 70
   128
 71
   -57
 72
    76
 73
    75
 74
   -57
  0
VERTEX
  5
1B4
330
C4
100
AcDbEntity
  8
0
 62
    61
100
AcDbFaceRecord
 10
0.0
 20
0.0
 30
0.0
 70
   128
 71
    57
 72
    58
 73
   -76
 74
   -57
  0
VERTEX
  5
1B5
330
C4
100
AcDbEntity
  8
0
 62
    61
100
AcDbFaceRecord
 10
0.0
 20
0.0
 30
0.0
 70
   128
 71
   -58
 72
    77
 73
    76
 74
   -58
  0
VERTEX
  5
1B6
330
C4
100
AcDbEntity
  8
0
 62
    61
100
AcDbFaceRecord
 10
0.0
 20
0.0
 30
0.0
 70
   128
 71
    58
 72
    59
 73
   -77
 74
   -58
  0
VERTEX
  5
1B7
330
C4
100
AcDbEntity
  8
0
 62
    61
100
AcDbFaceRecord
 10
0.0
 20
0.0
 30
0.0
 70
   128
 71
   -59
 72
    78
 73
    77
 74
   -59
  0
VERTEX
  5
1B8
330
C4
100
AcDbEntity
  8
0
 62
    61
100
AcDbFaceRecord
 10
0.0
 20
0.0
 30
0.0
 70
   128
 71
    59
 72
    60
 73
   -78
 74
   -59
  0
VERTEX
  5
1B9
330
C4
100
AcDbEntity
  8
0
 62
    61
100
AcDbFaceRecord
 10
0.0
 20
0.0
 30
0.0
 70
   128
 71
   -60
 72
    79
 73
    78
 74
   -60
  0
VERTEX
  5
1BA
330
C4
100
AcDbEntity
  8
0
 62
    61
100
AcDbFaceRecord
 10
0.0
 20
0.0
 30
0.0
 70
   128
 71
    60
 72
    61
 73
   -79
 74
   -60
  0
VERTEX
  5
1BB
330
C4
100
AcDbEntity
  8
0
 62
    61
100
AcDbFaceRecord
 10
0.0
 20
0.0
 30
0.0
 70
   128
 71
   -61
 72
    80
 73
    79
 74
   -61
  0
VERTEX
  5
1BC
330
C4
100
AcDbEntity
  8
0
 62
    61
100
AcDbFaceRecord
 10
0.0
 20
0.0
 30
0.0
 70
   128
 71
    61
 72
    62
 73
   -80
 74
   -61
  0
VERTEX
  5
1BD
330
C4
100
AcDbEntity
  8
0
 62
    61
100
AcDbFaceRecord
 10
0.0
 20
0.0
 30
0.0
 70
   128
 71
   -62
 72
    81
 73
    80
 74
   -62
  0
VERTEX
  5
1BE
330
C4
100
AcDbEntity
  8
0
 62
    61
100
AcDbFaceRecord
 10
0.0
 20
0.0
 30
0.0
 70
   128
 71
    62
 72
    63
 73
   -81
 74
   -62
  0
VERTEX
  5
1BF
330
C4
100
AcDbEntity
  8
0
 62
    61
100
AcDbFaceRecord
 10
0.0
 20
0.0
 30
0.0
 70
   128
 71
   -63
 72
    82
 73
    81
 74
   -63
  0
VERTEX
  5
1C0
330
C4
100
AcDbEntity
  8
0
 62
    61
100
AcDbFaceRecord
 10
0.0
 20
0.0
 30
0.0
 70
   128
 71
    63
 72
    64
 73
   -82
 74
   -63
  0
VERTEX
  5
1C1
330
C4
100
AcDbEntity
  8
0
 62
    61
100
AcDbFaceRecord
 10
0.0
 20
0.0
 30
0.0
 70
   128
 71
   -64
 72
    83
 73
    82
 74
   -64
  0
VERTEX
  5
1C2
330
C4
100
AcDbEntity
  8
0
 62
    61
100
AcDbFaceRecord
 10
0.0
 20
0.0
 30
0.0
 70
   128
 71
    64
 72
    65
 73
   -83
 74
   -64
  0
VERTEX
  5
1C3
330
C4
100
AcDbEntity
  8
0
 62
    61
100
AcDbFaceRecord
 10
0.0
 20
0.0
 30
0.0
 70
   128
 71
   -65
 72
    84
 73
    83
 74
   -65
  0
VERTEX
  5
1C4
330
C4
100
AcDbEntity
  8
0
 62
    61
100
AcDbFaceRecord
 10
0.0
 20
0.0
 30
0.0
 70
   128
 71
    65
 72
    66
 73
   -84
 74
   -65
  0
VERTEX
  5
1C5
330
C4
100
AcDbEntity
  8
0
 62
    61
100
AcDbFaceRecord
 10
0.0
 20
0.0
 30
0.0
 70
   128
 71
   -66
 72
    85
 73
    84
 74
   -66
  0
VERTEX
  5
1C6
330
C4
100
AcDbEntity
  8
0
 62
    61
100
AcDbFaceRecord
 10
0.0
 20
0.0
 30
0.0
 70
   128
 71
    66
 72
    67
 73
   -85
 74
   -66
  0
VERTEX
  5
1C7
330
C4
100
AcDbEntity
  8
0
 62
    61
100
AcDbFaceRecord
 10
0.0
 20
0.0
 30
0.0
 70
   128
 71
   -67
 72
    86
 73
    85
 74
   -67
  0
VERTEX
  5
1C8
330
C4
100
AcDbEntity
  8
0
 62
    61
100
AcDbFaceRecord
 10
0.0
 20
0.0
 30
0.0
 70
   128
 71
    67
 72
    68
 73
   -86
 74
   -67
  0
VERTEX
  5
1C9
330
C4
100
AcDbEntity
  8
0
 62
    61
100
AcDbFaceRecord
 10
0.0
 20
0.0
 30
0.0
 70
   128
 71
   -68
 72
    87
 73
    86
 74
   -68
  0
VERTEX
  5
1CA
330
C4
100
AcDbEntity
  8
0
 62
    61
100
AcDbFaceRecord
 10
0.0
 20
0.0
 30
0.0
 70
   128
 71
    68
 72
    69
 73
   -87
 74
   -68
  0
VERTEX
  5
1CB
330
C4
100
AcDbEntity
  8
0
 62
    61
100
AcDbFaceRecord
 10
0.0
 20
0.0
 30
0.0
 70
   128
 71
   -69
 72
    88
 73
    87
 74
   -69
  0
VERTEX
  5
1CC
330
C4
100
AcDbEntity
  8
0
 62
    61
100
AcDbFaceRecord
 10
0.0
 20
0.0
 30
0.0
 70
   128
 71
    69
 72
    70
 73
   -88
 74
   -69
  0
VERTEX
  5
1CD
330
C4
100
AcDbEntity
  8
0
 62
    61
100
AcDbFaceRecord
 10
0.0
 20
0.0
 30
0.0
 70
   128
 71
   -70
 72
    89
 73
    88
 74
   -70
  0
VERTEX
  5
1CE
330
C4
100
AcDbEntity
  8
0
 62
    61
100
AcDbFaceRecord
 10
0.0
 20
0.0
 30
0.0
 70
   128
 71
    70
 72
    71
 73
   -89
 74
   -70
  0
VERTEX
  5
1CF
330
C4
100
AcDbEntity
  8
0
 62
    61
100
AcDbFaceRecord
 10
0.0
 20
0.0
 30
0.0
 70
   128
 71
   -71
 72
    90
 73
    89
 74
   -71
  0
VERTEX
  5
1D0
330
C4
100
AcDbEntity
  8
0
 62
    61
100
AcDbFaceRecord
 10
0.0
 20
0.0
 30
0.0
 70
   128
 71
    71
 72
    72
 73
   -90
 74
   -71
  0
VERTEX
  5
1D1
330
C4
100
AcDbEntity
  8
0
 62
    61
100
AcDbFaceRecord
 10
0.0
 20
0.0
 30
0.0
 70
   128
 71
   -72
 72
    91
 73
    90
 74
   -72
  0
VERTEX
  5
1D2
330
C4
100
AcDbEntity
  8
0
 62
    61
100
AcDbFaceRecord
 10
0.0
 20
0.0
 30
0.0
 70
   128
 71
    72
 72
    73
 73
   -91
 74
   -72
  0
VERTEX
  5
1D3
330
C4
100
AcDbEntity
  8
0
 62
    61
100
AcDbFaceRecord
 10
0.0
 20
0.0
 30
0.0
 70
   128
 71
   -73
 72
    74
 73
    91
 74
   -73
  0
VERTEX
  5
1D4
330
C4
100
AcDbEntity
  8
0
 62
    61
100
AcDbFaceRecord
 10
0.0
 20
0.0
 30
0.0
 70
   128
 71
    73
 72
    56
 73
   -74
 74
   -73
  0
VERTEX
  5
1D5
330
C4
100
AcDbEntity
  8
0
 62
    61
100
AcDbFaceRecord
 10
0.0
 20
0.0
 30
0.0
 70
   128
 71
   -74
 72
    93
 73
    92
 74
   -74
  0
VERTEX
  5
1D6
330
C4
100
AcDbEntity
  8
0
 62
    61
100
AcDbFaceRecord
 10
0.0
 20
0.0
 30
0.0
 70
   128
 71
    74
 72
    75
 73
   -93
 74
   -74
  0
VERTEX
  5
1D7
330
C4
100
AcDbEntity
  8
0
 62
    61
100
AcDbFaceRecord
 10
0.0
 20
0.0
 30
0.0
 70
   128
 71
   -75
 72
    94
 73
    93
 74
   -75
  0
VERTEX
  5
1D8
330
C4
100
AcDbEntity
  8
0
 62
    61
100
AcDbFaceRecord
 10
0.0
 20
0.0
 30
0.0
 70
   128
 71
    75
 72
    76
 73
   -94
 74
   -75
  0
VERTEX
  5
1D9
330
C4
100
AcDbEntity
  8
0
 62
    61
100
AcDbFaceRecord
 10
0.0
 20
0.0
 30
0.0
 70
   128
 71
   -76
 72
    95
 73
    94
 74
   -76
  0
VERTEX
  5
1DA
330
C4
100
AcDbEntity
  8
0
 62
    61
100
AcDbFaceRecord
 10
0.0
 20
0.0
 30
0.0
 70
   128
 71
    76
 72
    77
 73
   -95
 74
   -76
  0
VERTEX
  5
1DB
330
C4
100
AcDbEntity
  8
0
 62
    61
100
AcDbFaceRecord
 10
0.0
 20
0.0
 30
0.0
 70
   128
 71
   -77
 72
    96
 73
    95
 74
   -77
  0
VERTEX
  5
1DC
330
C4
100
AcDbEntity
  8
0
 62
    61
100
AcDbFaceRecord
 10
0.0
 20
0.0
 30
0.0
 70
   128
 71
    77
 72
    78
 73
   -96
 74
   -77
  0
VERTEX
  5
1DD
330
C4
100
AcDbEntity
  8
0
 62
    61
100
AcDbFaceRecord
 10
0.0
 20
0.0
 30
0.0
 70
   128
 71
   -78
 72
    97
 73
    96
 74
   -78
  0
VERTEX
  5
1DE
330
C4
100
AcDbEntity
  8
0
 62
    61
100
AcDbFaceRecord
 10
0.0
 20
0.0
 30
0.0
 70
   128
 71
    78
 72
    79
 73
   -97
 74
   -78
  0
VERTEX
  5
1DF
330
C4
100
AcDbEntity
  8
0
 62
    61
100
AcDbFaceRecord
 10
0.0
 20
0.0
 30
0.0
 70
   128
 71
   -79
 72
    98
 73
    97
 74
   -79
  0
VERTEX
  5
1E0
330
C4
100
AcDbEntity
  8
0
 62
    61
100
AcDbFaceRecord
 10
0.0
 20
0.0
 30
0.0
 70
   128
 71
    79
 72
    80
 73
   -98
 74
   -79
  0
VERTEX
  5
1E1
330
C4
100
AcDbEntity
  8
0
 62
    61
100
AcDbFaceRecord
 10
0.0
 20
0.0
 30
0.0
 70
   128
 71
   -80
 72
    99
 73
    98
 74
   -80
  0
VERTEX
  5
1E2
330
C4
100
AcDbEntity
  8
0
 62
    61
100
AcDbFaceRecord
 10
0.0
 20
0.0
 30
0.0
 70
   128
 71
    80
 72
    81
 73
   -99
 74
   -80
  0
VERTEX
  5
1E3
330
C4
100
AcDbEntity
  8
0
 62
    61
100
AcDbFaceRecord
 10
0.0
 20
0.0
 30
0.0
 70
   128
 71
   -81
 72
   100
 73
    99
 74
   -81
  0
VERTEX
  5
1E4
330
C4
100
AcDbEntity
  8
0
 62
    61
100
AcDbFaceRecord
 10
0.0
 20
0.0
 30
0.0
 70
   128
 71
    81
 72
    82
 73
  -100
 74
   -81
  0
VERTEX
  5
1E5
330
C4
100
AcDbEntity
  8
0
 62
    61
100
AcDbFaceRecord
 10
0.0
 20
0.0
 30
0.0
 70
   128
 71
   -82
 72
   101
 73
   100
 74
   -82
  0
VERTEX
  5
1E6
330
C4
100
AcDbEntity
  8
0
 62
    61
100
AcDbFaceRecord
 10
0.0
 20
0.0
 30
0.0
 70
   128
 71
    82
 72
    83
 73
  -101
 74
   -82
  0
VERTEX
  5
1E7
330
C4
100
AcDbEntity
  8
0
 62
    61
100
AcDbFaceRecord
 10
0.0
 20
0.0
 30
0.0
 70
   128
 71
   -83
 72
   102
 73
   101
 74
   -83
  0
VERTEX
  5
1E8
330
C4
100
AcDbEntity
  8
0
 62
    61
100
AcDbFaceRecord
 10
0.0
 20
0.0
 30
0.0
 70
   128
 71
    83
 72
    84
 73
  -102
 74
   -83
  0
VERTEX
  5
1E9
330
C4
100
AcDbEntity
  8
0
 62
    61
100
AcDbFaceRecord
 10
0.0
 20
0.0
 30
0.0
 70
   128
 71
   -84
 72
   103
 73
   102
 74
   -84
  0
VERTEX
  5
1EA
330
C4
100
AcDbEntity
  8
0
 62
    61
100
AcDbFaceRecord
 10
0.0
 20
0.0
 30
0.0
 70
   128
 71
    84
 72
    85
 73
  -103
 74
   -84
  0
VERTEX
  5
1EB
330
C4
100
AcDbEntity
  8
0
 62
    61
100
AcDbFaceRecord
 10
0.0
 20
0.0
 30
0.0
 70
   128
 71
   -85
 72
   104
 73
   103
 74
   -85
  0
VERTEX
  5
1EC
330
C4
100
AcDbEntity
  8
0
 62
    61
100
AcDbFaceRecord
 10
0.0
 20
0.0
 30
0.0
 70
   128
 71
    85
 72
    86
 73
  -104
 74
   -85
  0
VERTEX
  5
1ED
330
C4
100
AcDbEntity
  8
0
 62
    61
100
AcDbFaceRecord
 10
0.0
 20
0.0
 30
0.0
 70
   128
 71
   -86
 72
   105
 73
   104
 74
   -86
  0
VERTEX
  5
1EE
330
C4
100
AcDbEntity
  8
0
 62
    61
100
AcDbFaceRecord
 10
0.0
 20
0.0
 30
0.0
 70
   128
 71
    86
 72
    87
 73
  -105
 74
   -86
  0
VERTEX
  5
1EF
330
C4
100
AcDbEntity
  8
0
 62
    61
100
AcDbFaceRecord
 10
0.0
 20
0.0
 30
0.0
 70
   128
 71
   -87
 72
   106
 73
   105
 74
   -87
  0
VERTEX
  5
1F0
330
C4
100
AcDbEntity
  8
0
 62
    61
100
AcDbFaceRecord
 10
0.0
 20
0.0
 30
0.0
 70
   128
 71
    87
 72
    88
 73
  -106
 74
   -87
  0
VERTEX
  5
1F1
330
C4
100
AcDbEntity
  8
0
 62
    61
100
AcDbFaceRecord
 10
0.0
 20
0.0
 30
0.0
 70
   128
 71
   -88
 72
   107
 73
   106
 74
   -88
  0
VERTEX
  5
1F2
330
C4
100
AcDbEntity
  8
0
 62
    61
100
AcDbFaceRecord
 10
0.0
 20
0.0
 30
0.0
 70
   128
 71
    88
 72
    89
 73
  -107
 74
   -88
  0
VERTEX
  5
1F3
330
C4
100
AcDbEntity
  8
0
 62
    61
100
AcDbFaceRecord
 10
0.0
 20
0.0
 30
0.0
 70
   128
 71
   -89
 72
   108
 73
   107
 74
   -89
  0
VERTEX
  5
1F4
330
C4
100
AcDbEntity
  8
0
 62
    61
100
AcDbFaceRecord
 10
0.0
 20
0.0
 30
0.0
 70
   128
 71
    89
 72
    90
 73
  -108
 74
   -89
  0
VERTEX
  5
1F5
330
C4
100
AcDbEntity
  8
0
 62
    61
100
AcDbFaceRecord
 10
0.0
 20
0.0
 30
0.0
 70
   128
 71
   -90
 72
   109
 73
   108
 74
   -90
  0
VERTEX
  5
1F6
330
C4
100
AcDbEntity
  8
0
 62
    61
100
AcDbFaceRecord
 10
0.0
 20
0.0
 30
0.0
 70
   128
 71
    90
 72
    91
 73
  -109
 74
   -90
  0
VERTEX
  5
1F7
330
C4
100
AcDbEntity
  8
0
 62
    61
100
AcDbFaceRecord
 10
0.0
 20
0.0
 30
0.0
 70
   128
 71
   -91
 72
    92
 73
   109
 74
   -91
  0
VERTEX
  5
1F8
330
C4
100
AcDbEntity
  8
0
 62
    61
100
AcDbFaceRecord
 10
0.0
 20
0.0
 30
0.0
 70
   128
 71
    91
 72
    74
 73
   -92
 74
   -91
  0
VERTEX
  5
1F9
330
C4
100
AcDbEntity
  8
0
 62
    61
100
AcDbFaceRecord
 10
0.0
 20
0.0
 30
0.0
 70
   128
 71
  -110
 72
    92
 73
   -93
 74
  -110
  0
VERTEX
  5
1FA
330
C4
100
AcDbEntity
  8
0
 62
    61
100
AcDbFaceRecord
 10
0.0
 20
0.0
 30
0.0
 70
   128
 71
  -110
 72
    93
 73
   -94
 74
  -110
  0
VERTEX
  5
1FB
330
C4
100
AcDbEntity
  8
0
 62
    61
100
AcDbFaceRecord
 10
0.0
 20
0.0
 30
0.0
 70
   128
 71
  -110
 72
    94
 73
   -95
 74
  -110
  0
VERTEX
  5
1FC
330
C4
100
AcDbEntity
  8
0
 62
    61
100
AcDbFaceRecord
 10
0.0
 20
0.0
 30
0.0
 70
   128
 71
  -110
 72
    95
 73
   -96
 74
  -110
  0
VERTEX
  5
1FD
330
C4
100
AcDbEntity
  8
0
 62
    61
100
AcDbFaceRecord
 10
0.0
 20
0.0
 30
0.0
 70
   128
 71
  -110
 72
    96
 73
   -97
 74
  -110
  0
VERTEX
  5
1FE
330
C4
100
AcDbEntity
  8
0
 62
    61
100
AcDbFaceRecord
 10
0.0
 20
0.0
 30
0.0
 70
   128
 71
  -110
 72
    97
 73
   -98
 74
  -110
  0
VERTEX
  5
1FF
330
C4
100
AcDbEntity
  8
0
 62
    61
100
AcDbFaceRecord
 10
0.0
 20
0.0
 30
0.0
 70
   128
 71
  -110
 72
    98
 73
   -99
 74
  -110
  0
VERTEX
  5
200
330
C4
100
AcDbEntity
  8
0
 62
    61
100
AcDbFaceRecord
 10
0.0
 20
0.0
 30
0.0
 70
   128
 71
  -110
 72
    99
 73
  -100
 74
  -110
  0
VERTEX
  5
201
330
C4
100
AcDbEntity
  8
0
 62
    61
100
AcDbFaceRecord
 10
0.0
 20
0.0
 30
0.0
 70
   128
 71
  -110
 72
   100
 73
  -101
 74
  -110
  0
VERTEX
  5
202
330
C4
100
AcDbEntity
  8
0
 62
    61
100
AcDbFaceRecord
 10
0.0
 20
0.0
 30
0.0
 70
   128
 71
  -110
 72
   101
 73
  -102
 74
  -110
  0
VERTEX
  5
203
330
C4
100
AcDbEntity
  8
0
 62
    61
100
AcDbFaceRecord
 10
0.0
 20
0.0
 30
0.0
 70
   128
 71
  -110
 72
   102
 73
  -103
 74
  -110
  0
VERTEX
  5
204
330
C4
100
AcDbEntity
  8
0
 62
    61
100
AcDbFaceRecord
 10
0.0
 20
0.0
 30
0.0
 70
   128
 71
  -110
 72
   103
 73
  -104
 74
  -110
  0
VERTEX
  5
205
330
C4
100
AcDbEntity
  8
0
 62
    61
100
AcDbFaceRecord
 10
0.0
 20
0.0
 30
0.0
 70
   128
 71
  -110
 72
   104
 73
  -105
 74
  -110
  0
VERTEX
  5
206
330
C4
100
AcDbEntity
  8
0
 62
    61
100
AcDbFaceRecord
 10
0.0
 20
0.0
 30
0.0
 70
   128
 71
  -110
 72
   105
 73
  -106
 74
  -110
  0
VERTEX
  5
207
330
C4
100
AcDbEntity
  8
0
 62
    61
100
AcDbFaceRecord
 10
0.0
 20
0.0
 30
0.0
 70
   128
 71
  -110
 72
   106
 73
  -107
 74
  -110
  0
VERTEX
  5
208
330
C4
100
AcDbEntity
  8
0
 62
    61
100
AcDbFaceRecord
 10
0.0
 20
0.0
 30
0.0
 70
   128
 71
  -110
 72
   107
 73
  -108
 74
  -110
  0
VERTEX
  5
209
330
C4
100
AcDbEntity
  8
0
 62
    61
100
AcDbFaceRecord
 10
0.0
 20
0.0
 30
0.0
 70
   128
 71
  -110
 72
   108
 73
  -109
 74
  -110
  0
VERTEX
  5
20A
330
C4
100
AcDbEntity
  8
0
 62
    61
100
AcDbFaceRecord
 10
0.0
 20
0.0
 30
0.0
 70
   128
 71
  -110
 72
   109
 73
   -92
 74
  -110
  0
SEQEND
  5
20B
330
C4
100
AcDbEntity
  8
0
 62
    61
  0
POLYLINE
  5
20C
330
1F
100
AcDbEntity
  8
0
 62
   251
100
AcDbPolyFaceMesh
 66
     1
 10
0.0
 20
0.0
 30
0.0
 70
    64
 71
    56
 72
   112
  0
VERTEX
  5
20D
330
20C
100
AcDbEntity
  8
0
 62
   251
100
AcDbVertex
100
AcDbPolyFaceMeshVertex
 10
-1656.34716796875
 20
-2208.223388671875
 30
406.4759521484375
 70
   192
  0
VERTEX
  5
20E
330
20C
100
AcDbEntity
  8
0
 62
   251
100
AcDbVertex
100
AcDbPolyFaceMeshVertex
 10
-1656.34716796875
 20
-2163.223388671875
 30
451.4759521484375
 70
   192
  0
VERTEX
  5
20F
330
20C
100
AcDbEntity
  8
0
 62
   251
100
AcDbVertex
100
AcDbPolyFaceMeshVertex
 10
-1656.34716796875
 20
-1773.223510742187
 30
941.4759521484375
 70
   192
  0
VERTEX
  5
210
330
20C
100
AcDbEntity
  8
0
 62
   251
100
AcDbVertex
100
AcDbPolyFaceMeshVertex
 10
-1656.34716796875
 20
-1773.223510742187
 30
451.4759521484375
 70
   192
  0
VERTEX
  5
211
330
20C
100
AcDbEntity
  8
0
 62
   251
100
AcDbVertex
100
AcDbPolyFaceMeshVertex
 10
-1651.34716796875
 20
-1773.223510742187
 30
451.4759521484375
 70
   192
  0
VERTEX
  5
212
330
20C
100
AcDbEntity
  8
0
 62
   251
100
AcDbVertex
100
AcDbPolyFaceMeshVertex
 10
-1651.34716796875
 20
-1728.223510742187
 30
406.4759521484375
 70
   192
  0
VERTEX
  5
213
330
20C
100
AcDbEntity
  8
0
 62
   251
100
AcDbVertex
100
AcDbPolyFaceMeshVertex
 10
-1651.34716796875
 20
-1728.223510742187
 30
986.4759521484375
 70
   192
  0
VERTEX
  5
214
330
20C
100
AcDbEntity
  8
0
 62
   251
100
AcDbVertex
100
AcDbPolyFaceMeshVertex
 10
-1656.34716796875
 20
-2208.223388671875
 30
986.4759521484375
 70
   192
  0
VERTEX
  5
215
330
20C
100
AcDbEntity
  8
0
 62
   251
100
AcDbVertex
100
AcDbPolyFaceMeshVertex
 10
-1656.34716796875
 20
-1728.223510742187
 30
986.4759521484375
 70
   192
  0
VERTEX
  5
216
330
20C
100
AcDbEntity
  8
0
 62
   251
100
AcDbVertex
100
AcDbPolyFaceMeshVertex
 10
-1651.34716796875
 20
-2208.223388671875
 30
986.4759521484375
 70
   192
  0
VERTEX
  5
217
330
20C
100
AcDbEntity
  8
0
 62
   251
100
AcDbVertex
100
AcDbPolyFaceMeshVertex
 10
-1656.34716796875
 20
-1728.223510742187
 30
406.4759521484375
 70
   192
  0
VERTEX
  5
218
330
20C
100
AcDbEntity
  8
0
 62
   251
100
AcDbVertex
100
AcDbPolyFaceMeshVertex
 10
-1646.727783203125
 20
-1731.31005859375
 30
409.5625610351562
 70
   192
  0
VERTEX
  5
219
330
20C
100
AcDbEntity
  8
0
 62
   251
100
AcDbVertex
100
AcDbPolyFaceMeshVertex
 10
-1649.433715820312
 20
-2207.8427734375
 30
406.8565673828125
 70
   192
  0
VERTEX
  5
21A
330
20C
100
AcDbEntity
  8
0
 62
   251
100
AcDbVertex
100
AcDbPolyFaceMeshVertex
 10
-1650.371704101562
 20
-1728.319580078125
 30
406.5720214843749
 70
   192
  0
VERTEX
  5
21B
330
20C
100
AcDbEntity
  8
0
 62
   251
100
AcDbVertex
100
AcDbPolyFaceMeshVertex
 10
-1650.371704101562
 20
-2208.12744140625
 30
406.5720214843749
 70
   192
  0
VERTEX
  5
21C
330
20C
100
AcDbEntity
  8
0
 62
   251
100
AcDbVertex
100
AcDbPolyFaceMeshVertex
 10
-1651.34716796875
 20
-2208.223388671875
 30
406.4759521484375
 70
   192
  0
VERTEX
  5
21D
330
20C
100
AcDbEntity
  8
0
 62
   251
100
AcDbVertex
100
AcDbPolyFaceMeshVertex
 10
-1646.34716796875
 20
-1733.223510742188
 30
411.4759521484375
 70
   192
  0
VERTEX
  5
21E
330
20C
100
AcDbEntity
  8
0
 62
   251
100
AcDbVertex
100
AcDbPolyFaceMeshVertex
 10
-1646.727783203125
 20
-2205.136962890625
 30
409.5625610351562
 70
   192
  0
VERTEX
  5
21F
330
20C
100
AcDbEntity
  8
0
 62
   251
100
AcDbVertex
100
AcDbPolyFaceMeshVertex
 10
-1646.34716796875
 20
-2203.223388671875
 30
411.4759521484375
 70
   192
  0
VERTEX
  5
220
330
20C
100
AcDbEntity
  8
0
 62
   251
100
AcDbVertex
100
AcDbPolyFaceMeshVertex
 10
-1646.727783203125
 20
-1731.31005859375
 30
983.3894042968749
 70
   192
  0
VERTEX
  5
221
330
20C
100
AcDbEntity
  8
0
 62
   251
100
AcDbVertex
100
AcDbPolyFaceMeshVertex
 10
-1649.433715820312
 20
-1728.60400390625
 30
406.8565673828125
 70
   192
  0
VERTEX
  5
222
330
20C
100
AcDbEntity
  8
0
 62
   251
100
AcDbVertex
100
AcDbPolyFaceMeshVertex
 10
-1647.811645507812
 20
-1729.687866210937
 30
985.0114746093749
 70
   192
  0
VERTEX
  5
223
330
20C
100
AcDbEntity
  8
0
 62
   251
100
AcDbVertex
100
AcDbPolyFaceMeshVertex
 10
-1647.811645507812
 20
-1729.687866210937
 30
407.9404296875
 70
   192
  0
VERTEX
  5
224
330
20C
100
AcDbEntity
  8
0
 62
   251
100
AcDbVertex
100
AcDbPolyFaceMeshVertex
 10
-1646.34716796875
 20
-1733.223510742188
 30
981.4759521484374
 70
   192
  0
VERTEX
  5
225
330
20C
100
AcDbEntity
  8
0
 62
   251
100
AcDbVertex
100
AcDbPolyFaceMeshVertex
 10
-1646.34716796875
 20
-2203.223388671875
 30
981.4759521484374
 70
   192
  0
VERTEX
  5
226
330
20C
100
AcDbEntity
  8
0
 62
   251
100
AcDbVertex
100
AcDbPolyFaceMeshVertex
 10
-1649.433715820312
 20
-1728.60400390625
 30
986.0953369140625
 70
   192
  0
VERTEX
  5
227
330
20C
100
AcDbEntity
  8
0
 62
   251
100
AcDbVertex
100
AcDbPolyFaceMeshVertex
 10
-1650.371704101562
 20
-1728.319580078125
 30
986.3798828125
 70
   192
  0
VERTEX
  5
228
330
20C
100
AcDbEntity
  8
0
 62
   251
100
AcDbVertex
100
AcDbPolyFaceMeshVertex
 10
-1650.371704101562
 20
-2208.12744140625
 30
986.3798828125
 70
   192
  0
VERTEX
  5
229
330
20C
100
AcDbEntity
  8
0
 62
   251
100
AcDbVertex
100
AcDbPolyFaceMeshVertex
 10
-1647.811645507812
 20
-2206.759033203125
 30
985.0114746093749
 70
   192
  0
VERTEX
  5
22A
330
20C
100
AcDbEntity
  8
0
 62
   251
100
AcDbVertex
100
AcDbPolyFaceMeshVertex
 10
-1646.727783203125
 20
-2205.136962890625
 30
983.3894042968749
 70
   192
  0
VERTEX
  5
22B
330
20C
100
AcDbEntity
  8
0
 62
   251
100
AcDbVertex
100
AcDbPolyFaceMeshVertex
 10
-1649.433715820312
 20
-2207.8427734375
 30
986.0953369140625
 70
   192
  0
VERTEX
  5
22C
330
20C
100
AcDbEntity
  8
0
 62
   251
100
AcDbVertex
100
AcDbPolyFaceMeshVertex
 10
-1647.811645507812
 20
-2206.759033203125
 30
407.9404296875
 70
   192
  0
VERTEX
  5
22D
330
20C
100
AcDbEntity
  8
0
 62
   251
100
AcDbVertex
100
AcDbPolyFaceMeshVertex
 10
-1656.34716796875
 20
-2163.223388671875
 30
941.4759521484375
 70
   192
  0
VERTEX
  5
22E
330
20C
100
AcDbEntity
  8
0
 62
   251
100
AcDbVertex
100
AcDbPolyFaceMeshVertex
 10
-1651.34716796875
 20
-2163.223388671875
 30
451.4759521484375
 70
   192
  0
VERTEX
  5
22F
330
20C
100
AcDbEntity
  8
0
 62
   251
100
AcDbVertex
100
AcDbPolyFaceMeshVertex
 10
-1646.34716796875
 20
-1768.223510742187
 30
946.4759521484374
 70
   192
  0
VERTEX
  5
230
330
20C
100
AcDbEntity
  8
0
 62
   251
100
AcDbVertex
100
AcDbPolyFaceMeshVertex
 10
-1646.727783203125
 20
-1770.136840820313
 30
944.5625610351562
 70
   192
  0
VERTEX
  5
231
330
20C
100
AcDbEntity
  8
0
 62
   251
100
AcDbVertex
100
AcDbPolyFaceMeshVertex
 10
-1647.811645507812
 20
-2164.68798828125
 30
942.9404296875
 70
   192
  0
VERTEX
  5
232
330
20C
100
AcDbEntity
  8
0
 62
   251
100
AcDbVertex
100
AcDbPolyFaceMeshVertex
 10
-1646.727783203125
 20
-2166.31005859375
 30
944.5625610351562
 70
   192
  0
VERTEX
  5
233
330
20C
100
AcDbEntity
  8
0
 62
   251
100
AcDbVertex
100
AcDbPolyFaceMeshVertex
 10
-1650.371704101562
 20
-1773.12744140625
 30
941.572021484375
 70
   192
  0
VERTEX
  5
234
330
20C
100
AcDbEntity
  8
0
 62
   251
100
AcDbVertex
100
AcDbPolyFaceMeshVertex
 10
-1647.811645507812
 20
-1771.759033203125
 30
450.011474609375
 70
   192
  0
VERTEX
  5
235
330
20C
100
AcDbEntity
  8
0
 62
   251
100
AcDbVertex
100
AcDbPolyFaceMeshVertex
 10
-1651.34716796875
 20
-1773.223510742187
 30
941.4759521484375
 70
   192
  0
VERTEX
  5
236
330
20C
100
AcDbEntity
  8
0
 62
   251
100
AcDbVertex
100
AcDbPolyFaceMeshVertex
 10
-1649.433715820312
 20
-1772.842895507812
 30
941.8565673828124
 70
   192
  0
VERTEX
  5
237
330
20C
100
AcDbEntity
  8
0
 62
   251
100
AcDbVertex
100
AcDbPolyFaceMeshVertex
 10
-1647.811645507812
 20
-1771.759033203125
 30
942.9404296875
 70
   192
  0
VERTEX
  5
238
330
20C
100
AcDbEntity
  8
0
 62
   251
100
AcDbVertex
100
AcDbPolyFaceMeshVertex
 10
-1649.433715820312
 20
-1772.842895507812
 30
451.0953369140625
 70
   192
  0
VERTEX
  5
239
330
20C
100
AcDbEntity
  8
0
 62
   251
100
AcDbVertex
100
AcDbPolyFaceMeshVertex
 10
-1650.371704101562
 20
-1773.12744140625
 30
451.3798828125
 70
   192
  0
VERTEX
  5
23A
330
20C
100
AcDbEntity
  8
0
 62
   251
100
AcDbVertex
100
AcDbPolyFaceMeshVertex
 10
-1650.371704101562
 20
-2163.319580078125
 30
451.3798828125
 70
   192
  0
VERTEX
  5
23B
330
20C
100
AcDbEntity
  8
0
 62
   251
100
AcDbVertex
100
AcDbPolyFaceMeshVertex
 10
-1649.433715820312
 20
-2163.60400390625
 30
451.0953369140625
 70
   192
  0
VERTEX
  5
23C
330
20C
100
AcDbEntity
  8
0
 62
   251
100
AcDbVertex
100
AcDbPolyFaceMeshVertex
 10
-1646.727783203125
 20
-1770.136840820313
 30
448.3894042968749
 70
   192
  0
VERTEX
  5
23D
330
20C
100
AcDbEntity
  8
0
 62
   251
100
AcDbVertex
100
AcDbPolyFaceMeshVertex
 10
-1646.727783203125
 20
-2166.31005859375
 30
448.3894042968749
 70
   192
  0
VERTEX
  5
23E
330
20C
100
AcDbEntity
  8
0
 62
   251
100
AcDbVertex
100
AcDbPolyFaceMeshVertex
 10
-1646.34716796875
 20
-1768.223510742187
 30
446.4759521484374
 70
   192
  0
VERTEX
  5
23F
330
20C
100
AcDbEntity
  8
0
 62
   251
100
AcDbVertex
100
AcDbPolyFaceMeshVertex
 10
-1650.371704101562
 20
-2163.319580078125
 30
941.572021484375
 70
   192
  0
VERTEX
  5
240
330
20C
100
AcDbEntity
  8
0
 62
   251
100
AcDbVertex
100
AcDbPolyFaceMeshVertex
 10
-1651.34716796875
 20
-2163.223388671875
 30
941.4759521484375
 70
   192
  0
VERTEX
  5
241
330
20C
100
AcDbEntity
  8
0
 62
   251
100
AcDbVertex
100
AcDbPolyFaceMeshVertex
 10
-1647.811645507812
 20
-2164.68798828125
 30
450.011474609375
 70
   192
  0
VERTEX
  5
242
330
20C
100
AcDbEntity
  8
0
 62
   251
100
AcDbVertex
100
AcDbPolyFaceMeshVertex
 10
-1649.433715820312
 20
-2163.60400390625
 30
941.8565673828124
 70
   192
  0
VERTEX
  5
243
330
20C
100
AcDbEntity
  8
0
 62
   251
100
AcDbVertex
100
AcDbPolyFaceMeshVertex
 10
-1646.34716796875
 20
-2168.223388671875
 30
446.4759521484374
 70
   192
  0
VERTEX
  5
244
330
20C
100
AcDbEntity
  8
0
 62
   251
100
AcDbVertex
100
AcDbPolyFaceMeshVertex
 10
-1646.34716796875
 20
-2168.223388671875
 30
946.4759521484374
 70
   192
  0
VERTEX
  5
245
330
20C
100
AcDbEntity
  8
0
 62
   251
100
AcDbFaceRecord
 10
0.0
 20
0.0
 30
0.0
 70
   128
 71
     2
 72
     8
 73
    33
 74
    -2
  0
VERTEX
  5
246
330
20C
100
AcDbEntity
  8
0
 62
   251
100
AcDbFaceRecord
 10
0.0
 20
0.0
 30
0.0
 70
   128
 71
     1
 72
     8
 73
     2
 74
    -1
  0
VERTEX
  5
247
330
20C
100
AcDbEntity
  8
0
 62
   251
100
AcDbFaceRecord
 10
0.0
 20
0.0
 30
0.0
 70
   128
 71
     1
 72
     4
 73
    11
 74
    -1
  0
VERTEX
  5
248
330
20C
100
AcDbEntity
  8
0
 62
   251
100
AcDbFaceRecord
 10
0.0
 20
0.0
 30
0.0
 70
   128
 71
     4
 72
     1
 73
     2
 74
    -4
  0
VERTEX
  5
249
330
20C
100
AcDbEntity
  8
0
 62
   251
100
AcDbFaceRecord
 10
0.0
 20
0.0
 30
0.0
 70
   128
 71
     3
 72
    11
 73
     4
 74
    -3
  0
VERTEX
  5
24A
330
20C
100
AcDbEntity
  8
0
 62
   251
100
AcDbFaceRecord
 10
0.0
 20
0.0
 30
0.0
 70
   128
 71
     3
 72
     9
 73
    11
 74
    -3
  0
VERTEX
  5
24B
330
20C
100
AcDbEntity
  8
0
 62
   251
100
AcDbFaceRecord
 10
0.0
 20
0.0
 30
0.0
 70
   128
 71
     3
 72
     8
 73
     9
 74
    -3
  0
VERTEX
  5
24C
330
20C
100
AcDbEntity
  8
0
 62
   251
100
AcDbFaceRecord
 10
0.0
 20
0.0
 30
0.0
 70
   128
 71
     3
 72
    33
 73
     8
 74
    -3
  0
VERTEX
  5
24D
330
20C
100
AcDbEntity
  8
0
 62
   251
100
AcDbFaceRecord
 10
0.0
 20
0.0
 30
0.0
 70
   128
 71
    41
 72
     3
 73
     4
 74
   -41
  0
VERTEX
  5
24E
330
20C
100
AcDbEntity
  8
0
 62
   251
100
AcDbFaceRecord
 10
0.0
 20
0.0
 30
0.0
 70
   128
 71
     5
 72
    41
 73
     4
 74
    -5
  0
VERTEX
  5
24F
330
20C
100
AcDbEntity
  8
0
 62
   251
100
AcDbFaceRecord
 10
0.0
 20
0.0
 30
0.0
 70
   128
 71
     5
 72
     4
 73
     2
 74
    -5
  0
VERTEX
  5
250
330
20C
100
AcDbEntity
  8
0
 62
   251
100
AcDbFaceRecord
 10
0.0
 20
0.0
 30
0.0
 70
   128
 71
    34
 72
     5
 73
     2
 74
   -34
  0
VERTEX
  5
251
330
20C
100
AcDbEntity
  8
0
 62
   251
100
AcDbFaceRecord
 10
0.0
 20
0.0
 30
0.0
 70
   128
 71
     6
 72
    11
 73
     9
 74
    -6
  0
VERTEX
  5
252
330
20C
100
AcDbEntity
  8
0
 62
   251
100
AcDbFaceRecord
 10
0.0
 20
0.0
 30
0.0
 70
   128
 71
     7
 72
     6
 73
     9
 74
    -7
  0
VERTEX
  5
253
330
20C
100
AcDbEntity
  8
0
 62
   251
100
AcDbFaceRecord
 10
0.0
 20
0.0
 30
0.0
 70
   128
 71
     7
 72
     9
 73
     8
 74
    -7
  0
VERTEX
  5
254
330
20C
100
AcDbEntity
  8
0
 62
   251
100
AcDbFaceRecord
 10
0.0
 20
0.0
 30
0.0
 70
   128
 71
    10
 72
     7
 73
     8
 74
   -10
  0
VERTEX
  5
255
330
20C
100
AcDbEntity
  8
0
 62
   251
100
AcDbFaceRecord
 10
0.0
 20
0.0
 30
0.0
 70
   128
 71
    10
 72
     8
 73
     1
 74
   -10
  0
VERTEX
  5
256
330
20C
100
AcDbEntity
  8
0
 62
   251
100
AcDbFaceRecord
 10
0.0
 20
0.0
 30
0.0
 70
   128
 71
    16
 72
    10
 73
     1
 74
   -16
  0
VERTEX
  5
257
330
20C
100
AcDbEntity
  8
0
 62
   251
100
AcDbFaceRecord
 10
0.0
 20
0.0
 30
0.0
 70
   128
 71
    16
 72
     1
 73
    11
 74
   -16
  0
VERTEX
  5
258
330
20C
100
AcDbEntity
  8
0
 62
   251
100
AcDbFaceRecord
 10
0.0
 20
0.0
 30
0.0
 70
   128
 71
     6
 72
    16
 73
    11
 74
    -6
  0
VERTEX
  5
259
330
20C
100
AcDbEntity
  8
0
 62
   251
100
AcDbFaceRecord
 10
0.0
 20
0.0
 30
0.0
 70
   128
 71
    12
 72
    17
 73
    18
 74
   -12
  0
VERTEX
  5
25A
330
20C
100
AcDbEntity
  8
0
 62
   251
100
AcDbFaceRecord
 10
0.0
 20
0.0
 30
0.0
 70
   128
 71
    23
 72
    12
 73
    18
 74
   -23
  0
VERTEX
  5
25B
330
20C
100
AcDbEntity
  8
0
 62
   251
100
AcDbFaceRecord
 10
0.0
 20
0.0
 30
0.0
 70
   128
 71
    21
 72
    23
 73
    13
 74
   -21
  0
VERTEX
  5
25C
330
20C
100
AcDbEntity
  8
0
 62
   251
100
AcDbFaceRecord
 10
0.0
 20
0.0
 30
0.0
 70
   128
 71
    14
 72
    21
 73
    13
 74
   -14
  0
VERTEX
  5
25D
330
20C
100
AcDbEntity
  8
0
 62
   251
100
AcDbFaceRecord
 10
0.0
 20
0.0
 30
0.0
 70
   128
 71
     6
 72
    14
 73
    15
 74
    -6
  0
VERTEX
  5
25E
330
20C
100
AcDbEntity
  8
0
 62
   251
100
AcDbFaceRecord
 10
0.0
 20
0.0
 30
0.0
 70
   128
 71
    16
 72
     6
 73
    15
 74
   -16
  0
VERTEX
  5
25F
330
20C
100
AcDbEntity
  8
0
 62
   251
100
AcDbFaceRecord
 10
0.0
 20
0.0
 30
0.0
 70
   128
 71
    15
 72
    14
 73
    13
 74
   -15
  0
VERTEX
  5
260
330
20C
100
AcDbEntity
  8
0
 62
   251
100
AcDbFaceRecord
 10
0.0
 20
0.0
 30
0.0
 70
   128
 71
    32
 72
    13
 73
    23
 74
   -32
  0
VERTEX
  5
261
330
20C
100
AcDbEntity
  8
0
 62
   251
100
AcDbFaceRecord
 10
0.0
 20
0.0
 30
0.0
 70
   128
 71
    32
 72
    23
 73
    18
 74
   -32
  0
VERTEX
  5
262
330
20C
100
AcDbEntity
  8
0
 62
   251
100
AcDbFaceRecord
 10
0.0
 20
0.0
 30
0.0
 70
   128
 71
    19
 72
    18
 73
    17
 74
   -19
  0
VERTEX
  5
263
330
20C
100
AcDbEntity
  8
0
 62
   251
100
AcDbFaceRecord
 10
0.0
 20
0.0
 30
0.0
 70
   128
 71
    20
 72
    24
 73
    12
 74
   -20
  0
VERTEX
  5
264
330
20C
100
AcDbEntity
  8
0
 62
   251
100
AcDbFaceRecord
 10
0.0
 20
0.0
 30
0.0
 70
   128
 71
    22
 72
    20
 73
    12
 74
   -22
  0
VERTEX
  5
265
330
20C
100
AcDbEntity
  8
0
 62
   251
100
AcDbFaceRecord
 10
0.0
 20
0.0
 30
0.0
 70
   128
 71
    21
 72
    26
 73
    23
 74
   -21
  0
VERTEX
  5
266
330
20C
100
AcDbEntity
  8
0
 62
   251
100
AcDbFaceRecord
 10
0.0
 20
0.0
 30
0.0
 70
   128
 71
    27
 72
    26
 73
    21
 74
   -27
  0
VERTEX
  5
267
330
20C
100
AcDbEntity
  8
0
 62
   251
100
AcDbFaceRecord
 10
0.0
 20
0.0
 30
0.0
 70
   128
 71
     7
 72
    27
 73
    14
 74
    -7
  0
VERTEX
  5
268
330
20C
100
AcDbEntity
  8
0
 62
   251
100
AcDbFaceRecord
 10
0.0
 20
0.0
 30
0.0
 70
   128
 71
     6
 72
     7
 73
    14
 74
    -6
  0
VERTEX
  5
269
330
20C
100
AcDbEntity
  8
0
 62
   251
100
AcDbFaceRecord
 10
0.0
 20
0.0
 30
0.0
 70
   128
 71
    14
 72
    27
 73
    21
 74
   -14
  0
VERTEX
  5
26A
330
20C
100
AcDbEntity
  8
0
 62
   251
100
AcDbFaceRecord
 10
0.0
 20
0.0
 30
0.0
 70
   128
 71
    22
 72
    23
 73
    26
 74
   -22
  0
VERTEX
  5
26B
330
20C
100
AcDbEntity
  8
0
 62
   251
100
AcDbFaceRecord
 10
0.0
 20
0.0
 30
0.0
 70
   128
 71
    23
 72
    22
 73
    12
 74
   -23
  0
VERTEX
  5
26C
330
20C
100
AcDbEntity
  8
0
 62
   251
100
AcDbFaceRecord
 10
0.0
 20
0.0
 30
0.0
 70
   128
 71
    17
 72
    12
 73
    24
 74
   -17
  0
VERTEX
  5
26D
330
20C
100
AcDbEntity
  8
0
 62
   251
100
AcDbFaceRecord
 10
0.0
 20
0.0
 30
0.0
 70
   128
 71
    30
 72
    25
 73
    20
 74
   -30
  0
VERTEX
  5
26E
330
20C
100
AcDbEntity
  8
0
 62
   251
100
AcDbFaceRecord
 10
0.0
 20
0.0
 30
0.0
 70
   128
 71
    29
 72
    30
 73
    20
 74
   -29
  0
VERTEX
  5
26F
330
20C
100
AcDbEntity
  8
0
 62
   251
100
AcDbFaceRecord
 10
0.0
 20
0.0
 30
0.0
 70
   128
 71
    31
 72
    29
 73
    26
 74
   -31
  0
VERTEX
  5
270
330
20C
100
AcDbEntity
  8
0
 62
   251
100
AcDbFaceRecord
 10
0.0
 20
0.0
 30
0.0
 70
   128
 71
    28
 72
    31
 73
    26
 74
   -28
  0
VERTEX
  5
271
330
20C
100
AcDbEntity
  8
0
 62
   251
100
AcDbFaceRecord
 10
0.0
 20
0.0
 30
0.0
 70
   128
 71
    10
 72
    28
 73
    27
 74
   -10
  0
VERTEX
  5
272
330
20C
100
AcDbEntity
  8
0
 62
   251
100
AcDbFaceRecord
 10
0.0
 20
0.0
 30
0.0
 70
   128
 71
     7
 72
    10
 73
    27
 74
    -7
  0
VERTEX
  5
273
330
20C
100
AcDbEntity
  8
0
 62
   251
100
AcDbFaceRecord
 10
0.0
 20
0.0
 30
0.0
 70
   128
 71
    27
 72
    28
 73
    26
 74
   -27
  0
VERTEX
  5
274
330
20C
100
AcDbEntity
  8
0
 62
   251
100
AcDbFaceRecord
 10
0.0
 20
0.0
 30
0.0
 70
   128
 71
    22
 72
    26
 73
    29
 74
   -22
  0
VERTEX
  5
275
330
20C
100
AcDbEntity
  8
0
 62
   251
100
AcDbFaceRecord
 10
0.0
 20
0.0
 30
0.0
 70
   128
 71
    22
 72
    29
 73
    20
 74
   -22
  0
VERTEX
  5
276
330
20C
100
AcDbEntity
  8
0
 62
   251
100
AcDbFaceRecord
 10
0.0
 20
0.0
 30
0.0
 70
   128
 71
    24
 72
    20
 73
    25
 74
   -24
  0
VERTEX
  5
277
330
20C
100
AcDbEntity
  8
0
 62
   251
100
AcDbFaceRecord
 10
0.0
 20
0.0
 30
0.0
 70
   128
 71
    18
 72
    19
 73
    30
 74
   -18
  0
VERTEX
  5
278
330
20C
100
AcDbEntity
  8
0
 62
   251
100
AcDbFaceRecord
 10
0.0
 20
0.0
 30
0.0
 70
   128
 71
    32
 72
    18
 73
    30
 74
   -32
  0
VERTEX
  5
279
330
20C
100
AcDbEntity
  8
0
 62
   251
100
AcDbFaceRecord
 10
0.0
 20
0.0
 30
0.0
 70
   128
 71
    31
 72
    13
 73
    29
 74
   -31
  0
VERTEX
  5
27A
330
20C
100
AcDbEntity
  8
0
 62
   251
100
AcDbFaceRecord
 10
0.0
 20
0.0
 30
0.0
 70
   128
 71
    15
 72
    13
 73
    31
 74
   -15
  0
VERTEX
  5
27B
330
20C
100
AcDbEntity
  8
0
 62
   251
100
AcDbFaceRecord
 10
0.0
 20
0.0
 30
0.0
 70
   128
 71
    16
 72
    15
 73
    28
 74
   -16
  0
VERTEX
  5
27C
330
20C
100
AcDbEntity
  8
0
 62
   251
100
AcDbFaceRecord
 10
0.0
 20
0.0
 30
0.0
 70
   128
 71
    10
 72
    16
 73
    28
 74
   -10
  0
VERTEX
  5
27D
330
20C
100
AcDbEntity
  8
0
 62
   251
100
AcDbFaceRecord
 10
0.0
 20
0.0
 30
0.0
 70
   128
 71
    28
 72
    15
 73
    31
 74
   -28
  0
VERTEX
  5
27E
330
20C
100
AcDbEntity
  8
0
 62
   251
100
AcDbFaceRecord
 10
0.0
 20
0.0
 30
0.0
 70
   128
 71
    32
 72
    29
 73
    13
 74
   -32
  0
VERTEX
  5
27F
330
20C
100
AcDbEntity
  8
0
 62
   251
100
AcDbFaceRecord
 10
0.0
 20
0.0
 30
0.0
 70
   128
 71
    29
 72
    32
 73
    30
 74
   -29
  0
VERTEX
  5
280
330
20C
100
AcDbEntity
  8
0
 62
   251
100
AcDbFaceRecord
 10
0.0
 20
0.0
 30
0.0
 70
   128
 71
    25
 72
    30
 73
    19
 74
   -25
  0
VERTEX
  5
281
330
20C
100
AcDbEntity
  8
0
 62
   251
100
AcDbFaceRecord
 10
0.0
 20
0.0
 30
0.0
 70
   128
 71
    19
 72
    55
 73
    56
 74
   -19
  0
VERTEX
  5
282
330
20C
100
AcDbEntity
  8
0
 62
   251
100
AcDbFaceRecord
 10
0.0
 20
0.0
 30
0.0
 70
   128
 71
    25
 72
    35
 73
    24
 74
   -25
  0
VERTEX
  5
283
330
20C
100
AcDbEntity
  8
0
 62
   251
100
AcDbFaceRecord
 10
0.0
 20
0.0
 30
0.0
 70
   128
 71
    56
 72
    35
 73
    25
 74
   -56
  0
VERTEX
  5
284
330
20C
100
AcDbEntity
  8
0
 62
   251
100
AcDbFaceRecord
 10
0.0
 20
0.0
 30
0.0
 70
   128
 71
    50
 72
    55
 73
    19
 74
   -50
  0
VERTEX
  5
285
330
20C
100
AcDbEntity
  8
0
 62
   251
100
AcDbFaceRecord
 10
0.0
 20
0.0
 30
0.0
 70
   128
 71
    17
 72
    24
 73
    35
 74
   -17
  0
VERTEX
  5
286
330
20C
100
AcDbEntity
  8
0
 62
   251
100
AcDbFaceRecord
 10
0.0
 20
0.0
 30
0.0
 70
   128
 71
    50
 72
    17
 73
    35
 74
   -50
  0
VERTEX
  5
287
330
20C
100
AcDbEntity
  8
0
 62
   251
100
AcDbFaceRecord
 10
0.0
 20
0.0
 30
0.0
 70
   128
 71
    17
 72
    50
 73
    19
 74
   -17
  0
VERTEX
  5
288
330
20C
100
AcDbEntity
  8
0
 62
   251
100
AcDbFaceRecord
 10
0.0
 20
0.0
 30
0.0
 70
   128
 71
    19
 72
    56
 73
    25
 74
   -19
  0
VERTEX
  5
289
330
20C
100
AcDbEntity
  8
0
 62
   251
100
AcDbFaceRecord
 10
0.0
 20
0.0
 30
0.0
 70
   128
 71
    34
 72
     2
 73
    33
 74
   -34
  0
VERTEX
  5
28A
330
20C
100
AcDbEntity
  8
0
 62
   251
100
AcDbFaceRecord
 10
0.0
 20
0.0
 30
0.0
 70
   128
 71
    52
 72
    34
 73
    33
 74
   -52
  0
VERTEX
  5
28B
330
20C
100
AcDbEntity
  8
0
 62
   251
100
AcDbFaceRecord
 10
0.0
 20
0.0
 30
0.0
 70
   128
 71
    52
 72
    33
 73
     3
 74
   -52
  0
VERTEX
  5
28C
330
20C
100
AcDbEntity
  8
0
 62
   251
100
AcDbFaceRecord
 10
0.0
 20
0.0
 30
0.0
 70
   128
 71
    41
 72
    52
 73
     3
 74
   -41
  0
VERTEX
  5
28D
330
20C
100
AcDbEntity
  8
0
 62
   251
100
AcDbFaceRecord
 10
0.0
 20
0.0
 30
0.0
 70
   128
 71
    36
 72
    35
 73
    38
 74
   -36
  0
VERTEX
  5
28E
330
20C
100
AcDbEntity
  8
0
 62
   251
100
AcDbFaceRecord
 10
0.0
 20
0.0
 30
0.0
 70
   128
 71
    43
 72
    36
 73
    38
 74
   -43
  0
VERTEX
  5
28F
330
20C
100
AcDbEntity
  8
0
 62
   251
100
AcDbFaceRecord
 10
0.0
 20
0.0
 30
0.0
 70
   128
 71
    54
 72
    42
 73
    37
 74
   -54
  0
VERTEX
  5
290
330
20C
100
AcDbEntity
  8
0
 62
   251
100
AcDbFaceRecord
 10
0.0
 20
0.0
 30
0.0
 70
   128
 71
    39
 72
    42
 73
    54
 74
   -39
  0
VERTEX
  5
291
330
20C
100
AcDbEntity
  8
0
 62
   251
100
AcDbFaceRecord
 10
0.0
 20
0.0
 30
0.0
 70
   128
 71
    41
 72
    39
 73
    51
 74
   -41
  0
VERTEX
  5
292
330
20C
100
AcDbEntity
  8
0
 62
   251
100
AcDbFaceRecord
 10
0.0
 20
0.0
 30
0.0
 70
   128
 71
    52
 72
    41
 73
    51
 74
   -52
  0
VERTEX
  5
293
330
20C
100
AcDbEntity
  8
0
 62
   251
100
AcDbFaceRecord
 10
0.0
 20
0.0
 30
0.0
 70
   128
 71
    51
 72
    39
 73
    54
 74
   -51
  0
VERTEX
  5
294
330
20C
100
AcDbEntity
  8
0
 62
   251
100
AcDbFaceRecord
 10
0.0
 20
0.0
 30
0.0
 70
   128
 71
    43
 72
    37
 73
    42
 74
   -43
  0
VERTEX
  5
295
330
20C
100
AcDbEntity
  8
0
 62
   251
100
AcDbFaceRecord
 10
0.0
 20
0.0
 30
0.0
 70
   128
 71
    37
 72
    43
 73
    38
 74
   -37
  0
VERTEX
  5
296
330
20C
100
AcDbEntity
  8
0
 62
   251
100
AcDbFaceRecord
 10
0.0
 20
0.0
 30
0.0
 70
   128
 71
    56
 72
    38
 73
    35
 74
   -56
  0
VERTEX
  5
297
330
20C
100
AcDbEntity
  8
0
 62
   251
100
AcDbFaceRecord
 10
0.0
 20
0.0
 30
0.0
 70
   128
 71
    39
 72
    44
 73
    42
 74
   -39
  0
VERTEX
  5
298
330
20C
100
AcDbEntity
  8
0
 62
   251
100
AcDbFaceRecord
 10
0.0
 20
0.0
 30
0.0
 70
   128
 71
    48
 72
    50
 73
    36
 74
   -48
  0
VERTEX
  5
299
330
20C
100
AcDbEntity
  8
0
 62
   251
100
AcDbFaceRecord
 10
0.0
 20
0.0
 30
0.0
 70
   128
 71
    40
 72
    48
 73
    36
 74
   -40
  0
VERTEX
  5
29A
330
20C
100
AcDbEntity
  8
0
 62
   251
100
AcDbFaceRecord
 10
0.0
 20
0.0
 30
0.0
 70
   128
 71
    45
 72
    44
 73
    39
 74
   -45
  0
VERTEX
  5
29B
330
20C
100
AcDbEntity
  8
0
 62
   251
100
AcDbFaceRecord
 10
0.0
 20
0.0
 30
0.0
 70
   128
 71
     5
 72
    45
 73
    39
 74
    -5
  0
VERTEX
  5
29C
330
20C
100
AcDbEntity
  8
0
 62
   251
100
AcDbFaceRecord
 10
0.0
 20
0.0
 30
0.0
 70
   128
 71
    41
 72
     5
 73
    39
 74
   -41
  0
VERTEX
  5
29D
330
20C
100
AcDbEntity
  8
0
 62
   251
100
AcDbFaceRecord
 10
0.0
 20
0.0
 30
0.0
 70
   128
 71
    43
 72
    42
 73
    44
 74
   -43
  0
VERTEX
  5
29E
330
20C
100
AcDbEntity
  8
0
 62
   251
100
AcDbFaceRecord
 10
0.0
 20
0.0
 30
0.0
 70
   128
 71
    40
 72
    43
 73
    44
 74
   -40
  0
VERTEX
  5
29F
330
20C
100
AcDbEntity
  8
0
 62
   251
100
AcDbFaceRecord
 10
0.0
 20
0.0
 30
0.0
 70
   128
 71
    43
 72
    40
 73
    36
 74
   -43
  0
VERTEX
  5
2A0
330
20C
100
AcDbEntity
  8
0
 62
   251
100
AcDbFaceRecord
 10
0.0
 20
0.0
 30
0.0
 70
   128
 71
    35
 72
    36
 73
    50
 74
   -35
  0
VERTEX
  5
2A1
330
20C
100
AcDbEntity
  8
0
 62
   251
100
AcDbFaceRecord
 10
0.0
 20
0.0
 30
0.0
 70
   128
 71
    40
 72
    53
 73
    48
 74
   -40
  0
VERTEX
  5
2A2
330
20C
100
AcDbEntity
  8
0
 62
   251
100
AcDbFaceRecord
 10
0.0
 20
0.0
 30
0.0
 70
   128
 71
    47
 72
    53
 73
    40
 74
   -47
  0
VERTEX
  5
2A3
330
20C
100
AcDbEntity
  8
0
 62
   251
100
AcDbFaceRecord
 10
0.0
 20
0.0
 30
0.0
 70
   128
 71
    45
 72
    46
 73
    44
 74
   -45
  0
VERTEX
  5
2A4
330
20C
100
AcDbEntity
  8
0
 62
   251
100
AcDbFaceRecord
 10
0.0
 20
0.0
 30
0.0
 70
   128
 71
    34
 72
    46
 73
    45
 74
   -34
  0
VERTEX
  5
2A5
330
20C
100
AcDbEntity
  8
0
 62
   251
100
AcDbFaceRecord
 10
0.0
 20
0.0
 30
0.0
 70
   128
 71
     5
 72
    34
 73
    45
 74
    -5
  0
VERTEX
  5
2A6
330
20C
100
AcDbEntity
  8
0
 62
   251
100
AcDbFaceRecord
 10
0.0
 20
0.0
 30
0.0
 70
   128
 71
    47
 72
    44
 73
    46
 74
   -47
  0
VERTEX
  5
2A7
330
20C
100
AcDbEntity
  8
0
 62
   251
100
AcDbFaceRecord
 10
0.0
 20
0.0
 30
0.0
 70
   128
 71
    44
 72
    47
 73
    40
 74
   -44
  0
VERTEX
  5
2A8
330
20C
100
AcDbEntity
  8
0
 62
   251
100
AcDbFaceRecord
 10
0.0
 20
0.0
 30
0.0
 70
   128
 71
    49
 72
    48
 73
    53
 74
   -49
  0
VERTEX
  5
2A9
330
20C
100
AcDbEntity
  8
0
 62
   251
100
AcDbFaceRecord
 10
0.0
 20
0.0
 30
0.0
 70
   128
 71
    50
 72
    48
 73
    49
 74
   -50
  0
VERTEX
  5
2AA
330
20C
100
AcDbEntity
  8
0
 62
   251
100
AcDbFaceRecord
 10
0.0
 20
0.0
 30
0.0
 70
   128
 71
    55
 72
    50
 73
    49
 74
   -55
  0
VERTEX
  5
2AB
330
20C
100
AcDbEntity
  8
0
 62
   251
100
AcDbFaceRecord
 10
0.0
 20
0.0
 30
0.0
 70
   128
 71
    37
 72
    38
 73
    53
 74
   -37
  0
VERTEX
  5
2AC
330
20C
100
AcDbEntity
  8
0
 62
   251
100
AcDbFaceRecord
 10
0.0
 20
0.0
 30
0.0
 70
   128
 71
    54
 72
    37
 73
    53
 74
   -54
  0
VERTEX
  5
2AD
330
20C
100
AcDbEntity
  8
0
 62
   251
100
AcDbFaceRecord
 10
0.0
 20
0.0
 30
0.0
 70
   128
 71
    51
 72
    54
 73
    46
 74
   -51
  0
VERTEX
  5
2AE
330
20C
100
AcDbEntity
  8
0
 62
   251
100
AcDbFaceRecord
 10
0.0
 20
0.0
 30
0.0
 70
   128
 71
    52
 72
    51
 73
    46
 74
   -52
  0
VERTEX
  5
2AF
330
20C
100
AcDbEntity
  8
0
 62
   251
100
AcDbFaceRecord
 10
0.0
 20
0.0
 30
0.0
 70
   128
 71
    34
 72
    52
 73
    46
 74
   -34
  0
VERTEX
  5
2B0
330
20C
100
AcDbEntity
  8
0
 62
   251
100
AcDbFaceRecord
 10
0.0
 20
0.0
 30
0.0
 70
   128
 71
    47
 72
    46
 73
    54
 74
   -47
  0
VERTEX
  5
2B1
330
20C
100
AcDbEntity
  8
0
 62
   251
100
AcDbFaceRecord
 10
0.0
 20
0.0
 30
0.0
 70
   128
 71
    47
 72
    54
 73
    53
 74
   -47
  0
VERTEX
  5
2B2
330
20C
100
AcDbEntity
  8
0
 62
   251
100
AcDbFaceRecord
 10
0.0
 20
0.0
 30
0.0
 70
   128
 71
    49
 72
    53
 73
    38
 74
   -49
  0
VERTEX
  5
2B3
330
20C
100
AcDbEntity
  8
0
 62
   251
100
AcDbFaceRecord
 10
0.0
 20
0.0
 30
0.0
 70
   128
 71
    55
 72
    49
 73
    38
 74
   -55
  0
VERTEX
  5
2B4
330
20C
100
AcDbEntity
  8
0
 62
   251
100
AcDbFaceRecord
 10
0.0
 20
0.0
 30
0.0
 70
   128
 71
    56
 72
    55
 73
    38
 74
   -56
  0
SEQEND
  5
2B5
330
20C
100
AcDbEntity
  8
0
 62
   251
  0
POLYLINE
  5
2B6
330
1F
100
AcDbEntity
  8
0
 62
   251
100
AcDbPolyFaceMesh
 66
     1
 10
0.0
 20
0.0
 30
0.0
 70
    64
 71
    88
 72
   172
  0
VERTEX
  5
2B7
330
2B6
100
AcDbEntity
  8
0
 62
   251
100
AcDbVertex
100
AcDbPolyFaceMeshVertex
 10
-1656.34716796875
 20
-2243.223388671875
 30
1006.204223632812
 70
   192
  0
VERTEX
  5
2B8
330
2B6
100
AcDbEntity
  8
0
 62
   251
100
AcDbVertex
100
AcDbPolyFaceMeshVertex
 10
-1656.34716796875
 20
-1693.223510742187
 30
1006.204223632812
 70
   192
  0
VERTEX
  5
2B9
330
2B6
100
AcDbEntity
  8
0
 62
   251
100
AcDbVertex
100
AcDbPolyFaceMeshVertex
 10
-1656.34716796875
 20
-2243.223388671875
 30
1016.204223632812
 70
   192
  0
VERTEX
  5
2BA
330
2B6
100
AcDbEntity
  8
0
 62
   251
100
AcDbVertex
100
AcDbPolyFaceMeshVertex
 10
-1950.34716796875
 20
-2243.223388671875
 30
1006.204223632812
 70
   192
  0
VERTEX
  5
2BB
330
2B6
100
AcDbEntity
  8
0
 62
   251
100
AcDbVertex
100
AcDbPolyFaceMeshVertex
 10
-1950.34716796875
 20
-1693.223510742187
 30
1016.204223632812
 70
   192
  0
VERTEX
  5
2BC
330
2B6
100
AcDbEntity
  8
0
 62
   251
100
AcDbVertex
100
AcDbPolyFaceMeshVertex
 10
-1656.34716796875
 20
-1693.223510742187
 30
1016.204223632812
 70
   192
  0
VERTEX
  5
2BD
330
2B6
100
AcDbEntity
  8
0
 62
   251
100
AcDbVertex
100
AcDbPolyFaceMeshVertex
 10
-1950.34716796875
 20
-1693.223510742187
 30
1006.204223632812
 70
   192
  0
VERTEX
  5
2BE
330
2B6
100
AcDbEntity
  8
0
 62
   251
100
AcDbVertex
100
AcDbPolyFaceMeshVertex
 10
-1968.34716796875
 20
-1670.223510742187
 30
1016.204223632812
 70
   192
  0
VERTEX
  5
2BF
330
2B6
100
AcDbEntity
  8
0
 62
   251
100
AcDbVertex
100
AcDbPolyFaceMeshVertex
 10
-1950.34716796875
 20
-2243.223388671875
 30
1016.204223632812
 70
   192
  0
VERTEX
  5
2C0
330
2B6
100
AcDbEntity
  8
0
 62
   251
100
AcDbVertex
100
AcDbPolyFaceMeshVertex
 10
-1968.34716796875
 20
-2266.223388671875
 30
1016.204223632812
 70
   192
  0
VERTEX
  5
2C1
330
2B6
100
AcDbEntity
  8
0
 62
   251
100
AcDbVertex
100
AcDbPolyFaceMeshVertex
 10
-1658.34716796875
 20
-2248.223388671875
 30
1034.204223632812
 70
   192
  0
VERTEX
  5
2C2
330
2B6
100
AcDbEntity
  8
0
 62
   251
100
AcDbVertex
100
AcDbPolyFaceMeshVertex
 10
-1658.34716796875
 20
-1688.223510742187
 30
1034.204223632812
 70
   192
  0
VERTEX
  5
2C3
330
2B6
100
AcDbEntity
  8
0
 62
   251
100
AcDbVertex
100
AcDbPolyFaceMeshVertex
 10
-1658.34716796875
 20
-1688.223510742187
 30
1028.204223632812
 70
   192
  0
VERTEX
  5
2C4
330
2B6
100
AcDbEntity
  8
0
 62
   251
100
AcDbVertex
100
AcDbPolyFaceMeshVertex
 10
-1968.34716796875
 20
-1690.223510742187
 30
1036.204223632812
 70
   192
  0
VERTEX
  5
2C5
330
2B6
100
AcDbEntity
  8
0
 62
   251
100
AcDbVertex
100
AcDbPolyFaceMeshVertex
 10
-1660.34716796875
 20
-1690.223510742187
 30
1036.204223632812
 70
   192
  0
VERTEX
  5
2C6
330
2B6
100
AcDbEntity
  8
0
 62
   251
100
AcDbVertex
100
AcDbPolyFaceMeshVertex
 10
-1660.34716796875
 20
-2246.223388671875
 30
1036.204223632812
 70
   192
  0
VERTEX
  5
2C7
330
2B6
100
AcDbEntity
  8
0
 62
   251
100
AcDbVertex
100
AcDbPolyFaceMeshVertex
 10
-1968.34716796875
 20
-2246.223388671875
 30
1036.204223632812
 70
   192
  0
VERTEX
  5
2C8
330
2B6
100
AcDbEntity
  8
0
 62
   251
100
AcDbVertex
100
AcDbPolyFaceMeshVertex
 10
-1968.34716796875
 20
-2247.223388671875
 30
1035.936279296875
 70
   192
  0
VERTEX
  5
2C9
330
2B6
100
AcDbEntity
  8
0
 62
   251
100
AcDbVertex
100
AcDbPolyFaceMeshVertex
 10
-1658.499389648437
 20
-1688.375732421875
 30
1034.969604492187
 70
   192
  0
VERTEX
  5
2CA
330
2B6
100
AcDbEntity
  8
0
 62
   251
100
AcDbVertex
100
AcDbPolyFaceMeshVertex
 10
-1658.385620117187
 20
-1688.261840820312
 30
1034.594360351562
 70
   192
  0
VERTEX
  5
2CB
330
2B6
100
AcDbEntity
  8
0
 62
   251
100
AcDbVertex
100
AcDbPolyFaceMeshVertex
 10
-1658.385620117187
 20
-2248.18505859375
 30
1034.594360351562
 70
   192
  0
VERTEX
  5
2CC
330
2B6
100
AcDbEntity
  8
0
 62
   251
100
AcDbVertex
100
AcDbPolyFaceMeshVertex
 10
-1658.499389648437
 20
-2248.0712890625
 30
1034.969604492187
 70
   192
  0
VERTEX
  5
2CD
330
2B6
100
AcDbEntity
  8
0
 62
   251
100
AcDbVertex
100
AcDbPolyFaceMeshVertex
 10
-1658.932983398437
 20
-1688.809204101562
 30
1035.618408203125
 70
   192
  0
VERTEX
  5
2CE
330
2B6
100
AcDbEntity
  8
0
 62
   251
100
AcDbVertex
100
AcDbPolyFaceMeshVertex
 10
-1658.932983398437
 20
-2247.6376953125
 30
1035.618408203125
 70
   192
  0
VERTEX
  5
2CF
330
2B6
100
AcDbEntity
  8
0
 62
   251
100
AcDbVertex
100
AcDbPolyFaceMeshVertex
 10
-1659.581787109375
 20
-2246.98876953125
 30
1036.052001953125
 70
   192
  0
VERTEX
  5
2D0
330
2B6
100
AcDbEntity
  8
0
 62
   251
100
AcDbVertex
100
AcDbPolyFaceMeshVertex
 10
-1968.34716796875
 20
-1688.223510742187
 30
1034.204223632812
 70
   192
  0
VERTEX
  5
2D1
330
2B6
100
AcDbEntity
  8
0
 62
   251
100
AcDbVertex
100
AcDbPolyFaceMeshVertex
 10
-1659.581787109375
 20
-1689.458129882812
 30
1036.052001953125
 70
   192
  0
VERTEX
  5
2D2
330
2B6
100
AcDbEntity
  8
0
 62
   251
100
AcDbVertex
100
AcDbPolyFaceMeshVertex
 10
-1968.34716796875
 20
-1689.223510742187
 30
1035.936279296875
 70
   192
  0
VERTEX
  5
2D3
330
2B6
100
AcDbEntity
  8
0
 62
   251
100
AcDbVertex
100
AcDbPolyFaceMeshVertex
 10
-1657.112548828125
 20
-2249.4580078125
 30
1026.3564453125
 70
   192
  0
VERTEX
  5
2D4
330
2B6
100
AcDbEntity
  8
0
 62
   251
100
AcDbVertex
100
AcDbPolyFaceMeshVertex
 10
-1658.308715820312
 20
-2248.261962890625
 30
1027.814086914062
 70
   192
  0
VERTEX
  5
2D5
330
2B6
100
AcDbEntity
  8
0
 62
   251
100
AcDbVertex
100
AcDbPolyFaceMeshVertex
 10
-1658.34716796875
 20
-2248.223388671875
 30
1028.204223632812
 70
   192
  0
VERTEX
  5
2D6
330
2B6
100
AcDbEntity
  8
0
 62
   251
100
AcDbVertex
100
AcDbPolyFaceMeshVertex
 10
-1657.112548828125
 20
-1686.98876953125
 30
1026.3564453125
 70
   192
  0
VERTEX
  5
2D7
330
2B6
100
AcDbEntity
  8
0
 62
   251
100
AcDbVertex
100
AcDbPolyFaceMeshVertex
 10
-1658.194946289063
 20
-2248.375732421875
 30
1027.438842773437
 70
   192
  0
VERTEX
  5
2D8
330
2B6
100
AcDbEntity
  8
0
 62
   251
100
AcDbVertex
100
AcDbPolyFaceMeshVertex
 10
-1657.761352539062
 20
-2248.809326171875
 30
1026.7900390625
 70
   192
  0
VERTEX
  5
2D9
330
2B6
100
AcDbEntity
  8
0
 62
   251
100
AcDbVertex
100
AcDbPolyFaceMeshVertex
 10
-1658.308715820312
 20
-1688.18505859375
 30
1027.814086914062
 70
   192
  0
VERTEX
  5
2DA
330
2B6
100
AcDbEntity
  8
0
 62
   251
100
AcDbVertex
100
AcDbPolyFaceMeshVertex
 10
-1657.761352539062
 20
-1687.6376953125
 30
1026.7900390625
 70
   192
  0
VERTEX
  5
2DB
330
2B6
100
AcDbEntity
  8
0
 62
   251
100
AcDbVertex
100
AcDbPolyFaceMeshVertex
 10
-1968.34716796875
 20
-1687.95556640625
 30
1027.204223632812
 70
   192
  0
VERTEX
  5
2DC
330
2B6
100
AcDbEntity
  8
0
 62
   251
100
AcDbVertex
100
AcDbPolyFaceMeshVertex
 10
-1658.194946289063
 20
-1688.071166992187
 30
1027.438842773437
 70
   192
  0
VERTEX
  5
2DD
330
2B6
100
AcDbEntity
  8
0
 62
   251
100
AcDbVertex
100
AcDbPolyFaceMeshVertex
 10
-1968.34716796875
 20
-2267.95556640625
 30
1017.204223632812
 70
   192
  0
VERTEX
  5
2DE
330
2B6
100
AcDbEntity
  8
0
 62
   251
100
AcDbVertex
100
AcDbPolyFaceMeshVertex
 10
-1968.34716796875
 20
-2268.223388671875
 30
1024.204223632812
 70
   192
  0
VERTEX
  5
2DF
330
2B6
100
AcDbEntity
  8
0
 62
   251
100
AcDbVertex
100
AcDbPolyFaceMeshVertex
 10
-1968.34716796875
 20
-1668.223510742187
 30
1024.204223632812
 70
   192
  0
VERTEX
  5
2E0
330
2B6
100
AcDbEntity
  8
0
 62
   251
100
AcDbVertex
100
AcDbPolyFaceMeshVertex
 10
-1968.34716796875
 20
-1668.491455078125
 30
1017.204223632812
 70
   192
  0
VERTEX
  5
2E1
330
2B6
100
AcDbEntity
  8
0
 62
   251
100
AcDbVertex
100
AcDbPolyFaceMeshVertex
 10
-1968.34716796875
 20
-1669.223510742187
 30
1016.47216796875
 70
   192
  0
VERTEX
  5
2E2
330
2B6
100
AcDbEntity
  8
0
 62
   251
100
AcDbVertex
100
AcDbPolyFaceMeshVertex
 10
-1968.34716796875
 20
-1668.223510742187
 30
1018.204223632812
 70
   192
  0
VERTEX
  5
2E3
330
2B6
100
AcDbEntity
  8
0
 62
   251
100
AcDbVertex
100
AcDbPolyFaceMeshVertex
 10
-1968.34716796875
 20
-1686.223510742187
 30
1026.204223632812
 70
   192
  0
VERTEX
  5
2E4
330
2B6
100
AcDbEntity
  8
0
 62
   251
100
AcDbVertex
100
AcDbPolyFaceMeshVertex
 10
-1968.34716796875
 20
-1670.223510742187
 30
1026.204223632812
 70
   192
  0
VERTEX
  5
2E5
330
2B6
100
AcDbEntity
  8
0
 62
   251
100
AcDbVertex
100
AcDbPolyFaceMeshVertex
 10
-1968.34716796875
 20
-1688.223510742187
 30
1028.204223632812
 70
   192
  0
VERTEX
  5
2E6
330
2B6
100
AcDbEntity
  8
0
 62
   251
100
AcDbVertex
100
AcDbPolyFaceMeshVertex
 10
-1968.34716796875
 20
-2248.223388671875
 30
1034.204223632812
 70
   192
  0
VERTEX
  5
2E7
330
2B6
100
AcDbEntity
  8
0
 62
   251
100
AcDbVertex
100
AcDbPolyFaceMeshVertex
 10
-1968.34716796875
 20
-1688.491455078125
 30
1035.204223632812
 70
   192
  0
VERTEX
  5
2E8
330
2B6
100
AcDbEntity
  8
0
 62
   251
100
AcDbVertex
100
AcDbPolyFaceMeshVertex
 10
-1968.34716796875
 20
-2247.95556640625
 30
1035.204223632812
 70
   192
  0
VERTEX
  5
2E9
330
2B6
100
AcDbEntity
  8
0
 62
   251
100
AcDbVertex
100
AcDbPolyFaceMeshVertex
 10
-1968.34716796875
 20
-2248.491455078125
 30
1027.204223632812
 70
   192
  0
VERTEX
  5
2EA
330
2B6
100
AcDbEntity
  8
0
 62
   251
100
AcDbVertex
100
AcDbPolyFaceMeshVertex
 10
-1968.34716796875
 20
-2248.223388671875
 30
1028.204223632812
 70
   192
  0
VERTEX
  5
2EB
330
2B6
100
AcDbEntity
  8
0
 62
   251
100
AcDbVertex
100
AcDbPolyFaceMeshVertex
 10
-1968.34716796875
 20
-1687.223510742187
 30
1026.47216796875
 70
   192
  0
VERTEX
  5
2EC
330
2B6
100
AcDbEntity
  8
0
 62
   251
100
AcDbVertex
100
AcDbPolyFaceMeshVertex
 10
-1968.34716796875
 20
-2249.223388671875
 30
1026.47216796875
 70
   192
  0
VERTEX
  5
2ED
330
2B6
100
AcDbEntity
  8
0
 62
   251
100
AcDbVertex
100
AcDbPolyFaceMeshVertex
 10
-1968.34716796875
 20
-2250.223388671875
 30
1026.204223632812
 70
   192
  0
VERTEX
  5
2EE
330
2B6
100
AcDbEntity
  8
0
 62
   251
100
AcDbVertex
100
AcDbPolyFaceMeshVertex
 10
-1640.34716796875
 20
-1670.223510742187
 30
1026.204223632812
 70
   192
  0
VERTEX
  5
2EF
330
2B6
100
AcDbEntity
  8
0
 62
   251
100
AcDbVertex
100
AcDbPolyFaceMeshVertex
 10
-1656.34716796875
 20
-2250.223388671875
 30
1026.204223632812
 70
   192
  0
VERTEX
  5
2F0
330
2B6
100
AcDbEntity
  8
0
 62
   251
100
AcDbVertex
100
AcDbPolyFaceMeshVertex
 10
-1656.34716796875
 20
-1686.223510742187
 30
1026.204223632812
 70
   192
  0
VERTEX
  5
2F1
330
2B6
100
AcDbEntity
  8
0
 62
   251
100
AcDbVertex
100
AcDbPolyFaceMeshVertex
 10
-1968.34716796875
 20
-2266.223388671875
 30
1026.204223632812
 70
   192
  0
VERTEX
  5
2F2
330
2B6
100
AcDbEntity
  8
0
 62
   251
100
AcDbVertex
100
AcDbPolyFaceMeshVertex
 10
-1968.34716796875
 20
-2267.223388671875
 30
1025.936279296875
 70
   192
  0
VERTEX
  5
2F3
330
2B6
100
AcDbEntity
  8
0
 62
   251
100
AcDbVertex
100
AcDbPolyFaceMeshVertex
 10
-1638.499389648437
 20
-2268.0712890625
 30
1024.969604492187
 70
   192
  0
VERTEX
  5
2F4
330
2B6
100
AcDbEntity
  8
0
 62
   251
100
AcDbVertex
100
AcDbPolyFaceMeshVertex
 10
-1638.34716796875
 20
-2268.223388671875
 30
1024.204223632812
 70
   192
  0
VERTEX
  5
2F5
330
2B6
100
AcDbEntity
  8
0
 62
   251
100
AcDbVertex
100
AcDbPolyFaceMeshVertex
 10
-1968.34716796875
 20
-2267.95556640625
 30
1025.204223632812
 70
   192
  0
VERTEX
  5
2F6
330
2B6
100
AcDbEntity
  8
0
 62
   251
100
AcDbVertex
100
AcDbPolyFaceMeshVertex
 10
-1639.581787109375
 20
-1669.458129882812
 30
1026.052001953125
 70
   192
  0
VERTEX
  5
2F7
330
2B6
100
AcDbEntity
  8
0
 62
   251
100
AcDbVertex
100
AcDbPolyFaceMeshVertex
 10
-1638.932983398438
 20
-2267.6376953125
 30
1025.618408203125
 70
   192
  0
VERTEX
  5
2F8
330
2B6
100
AcDbEntity
  8
0
 62
   251
100
AcDbVertex
100
AcDbPolyFaceMeshVertex
 10
-1638.385620117187
 20
-2268.18505859375
 30
1024.594360351562
 70
   192
  0
VERTEX
  5
2F9
330
2B6
100
AcDbEntity
  8
0
 62
   251
100
AcDbVertex
100
AcDbPolyFaceMeshVertex
 10
-1638.34716796875
 20
-1668.223510742187
 30
1024.204223632812
 70
   192
  0
VERTEX
  5
2FA
330
2B6
100
AcDbEntity
  8
0
 62
   251
100
AcDbVertex
100
AcDbPolyFaceMeshVertex
 10
-1638.499389648437
 20
-1668.375732421875
 30
1024.969604492187
 70
   192
  0
VERTEX
  5
2FB
330
2B6
100
AcDbEntity
  8
0
 62
   251
100
AcDbVertex
100
AcDbPolyFaceMeshVertex
 10
-1639.581787109375
 20
-2266.98876953125
 30
1026.052001953125
 70
   192
  0
VERTEX
  5
2FC
330
2B6
100
AcDbEntity
  8
0
 62
   251
100
AcDbVertex
100
AcDbPolyFaceMeshVertex
 10
-1640.34716796875
 20
-2266.223388671875
 30
1026.204223632812
 70
   192
  0
VERTEX
  5
2FD
330
2B6
100
AcDbEntity
  8
0
 62
   251
100
AcDbVertex
100
AcDbPolyFaceMeshVertex
 10
-1968.34716796875
 20
-1668.491455078125
 30
1025.204223632812
 70
   192
  0
VERTEX
  5
2FE
330
2B6
100
AcDbEntity
  8
0
 62
   251
100
AcDbVertex
100
AcDbPolyFaceMeshVertex
 10
-1968.34716796875
 20
-1669.223510742187
 30
1025.936279296875
 70
   192
  0
VERTEX
  5
2FF
330
2B6
100
AcDbEntity
  8
0
 62
   251
100
AcDbVertex
100
AcDbPolyFaceMeshVertex
 10
-1638.932983398438
 20
-1668.809326171875
 30
1025.618408203125
 70
   192
  0
VERTEX
  5
300
330
2B6
100
AcDbEntity
  8
0
 62
   251
100
AcDbVertex
100
AcDbPolyFaceMeshVertex
 10
-1638.385620117187
 20
-1668.261962890625
 30
1024.594360351562
 70
   192
  0
VERTEX
  5
301
330
2B6
100
AcDbEntity
  8
0
 62
   251
100
AcDbVertex
100
AcDbPolyFaceMeshVertex
 10
-1638.34716796875
 20
-2268.223388671875
 30
1018.204223632812
 70
   192
  0
VERTEX
  5
302
330
2B6
100
AcDbEntity
  8
0
 62
   251
100
AcDbVertex
100
AcDbPolyFaceMeshVertex
 10
-1638.34716796875
 20
-1668.223510742187
 30
1018.204223632812
 70
   192
  0
VERTEX
  5
303
330
2B6
100
AcDbEntity
  8
0
 62
   251
100
AcDbVertex
100
AcDbPolyFaceMeshVertex
 10
-1968.34716796875
 20
-2268.223388671875
 30
1018.204223632812
 70
   192
  0
VERTEX
  5
304
330
2B6
100
AcDbEntity
  8
0
 62
   251
100
AcDbVertex
100
AcDbPolyFaceMeshVertex
 10
-1638.499389648437
 20
-1668.375732421875
 30
1017.438842773437
 70
   192
  0
VERTEX
  5
305
330
2B6
100
AcDbEntity
  8
0
 62
   251
100
AcDbVertex
100
AcDbPolyFaceMeshVertex
 10
-1638.385620117187
 20
-1668.261962890625
 30
1017.814025878906
 70
   192
  0
VERTEX
  5
306
330
2B6
100
AcDbEntity
  8
0
 62
   251
100
AcDbVertex
100
AcDbPolyFaceMeshVertex
 10
-1640.34716796875
 20
-1670.223510742187
 30
1016.204223632812
 70
   192
  0
VERTEX
  5
307
330
2B6
100
AcDbEntity
  8
0
 62
   251
100
AcDbVertex
100
AcDbPolyFaceMeshVertex
 10
-1640.34716796875
 20
-2266.223388671875
 30
1016.204223632812
 70
   192
  0
VERTEX
  5
308
330
2B6
100
AcDbEntity
  8
0
 62
   251
100
AcDbVertex
100
AcDbPolyFaceMeshVertex
 10
-1639.581787109375
 20
-2266.98876953125
 30
1016.3564453125
 70
   192
  0
VERTEX
  5
309
330
2B6
100
AcDbEntity
  8
0
 62
   251
100
AcDbVertex
100
AcDbPolyFaceMeshVertex
 10
-1638.499389648437
 20
-2268.0712890625
 30
1017.438842773437
 70
   192
  0
VERTEX
  5
30A
330
2B6
100
AcDbEntity
  8
0
 62
   251
100
AcDbVertex
100
AcDbPolyFaceMeshVertex
 10
-1638.385620117187
 20
-2268.18505859375
 30
1017.814025878906
 70
   192
  0
VERTEX
  5
30B
330
2B6
100
AcDbEntity
  8
0
 62
   251
100
AcDbVertex
100
AcDbPolyFaceMeshVertex
 10
-1638.932983398438
 20
-1668.809326171875
 30
1016.7900390625
 70
   192
  0
VERTEX
  5
30C
330
2B6
100
AcDbEntity
  8
0
 62
   251
100
AcDbVertex
100
AcDbPolyFaceMeshVertex
 10
-1639.581787109375
 20
-1669.458129882812
 30
1016.3564453125
 70
   192
  0
VERTEX
  5
30D
330
2B6
100
AcDbEntity
  8
0
 62
   251
100
AcDbVertex
100
AcDbPolyFaceMeshVertex
 10
-1638.932983398438
 20
-2267.6376953125
 30
1016.7900390625
 70
   192
  0
VERTEX
  5
30E
330
2B6
100
AcDbEntity
  8
0
 62
   251
100
AcDbVertex
100
AcDbPolyFaceMeshVertex
 10
-1968.34716796875
 20
-2267.223388671875
 30
1016.47216796875
 70
   192
  0
VERTEX
  5
30F
330
2B6
100
AcDbEntity
  8
0
 62
   251
100
AcDbFaceRecord
 10
0.0
 20
0.0
 30
0.0
 70
   128
 71
     7
 72
     2
 73
     1
 74
    -7
  0
VERTEX
  5
310
330
2B6
100
AcDbEntity
  8
0
 62
   251
100
AcDbFaceRecord
 10
0.0
 20
0.0
 30
0.0
 70
   128
 71
     4
 72
     7
 73
     1
 74
    -4
  0
VERTEX
  5
311
330
2B6
100
AcDbEntity
  8
0
 62
   251
100
AcDbFaceRecord
 10
0.0
 20
0.0
 30
0.0
 70
   128
 71
     4
 72
     1
 73
     3
 74
    -4
  0
VERTEX
  5
312
330
2B6
100
AcDbEntity
  8
0
 62
   251
100
AcDbFaceRecord
 10
0.0
 20
0.0
 30
0.0
 70
   128
 71
     9
 72
     4
 73
     3
 74
    -9
  0
VERTEX
  5
313
330
2B6
100
AcDbEntity
  8
0
 62
   251
100
AcDbFaceRecord
 10
0.0
 20
0.0
 30
0.0
 70
   128
 71
     1
 72
     2
 73
     6
 74
    -1
  0
VERTEX
  5
314
330
2B6
100
AcDbEntity
  8
0
 62
   251
100
AcDbFaceRecord
 10
0.0
 20
0.0
 30
0.0
 70
   128
 71
     3
 72
     1
 73
     6
 74
    -3
  0
VERTEX
  5
315
330
2B6
100
AcDbEntity
  8
0
 62
   251
100
AcDbFaceRecord
 10
0.0
 20
0.0
 30
0.0
 70
   128
 71
     2
 72
     7
 73
     5
 74
    -2
  0
VERTEX
  5
316
330
2B6
100
AcDbEntity
  8
0
 62
   251
100
AcDbFaceRecord
 10
0.0
 20
0.0
 30
0.0
 70
   128
 71
     6
 72
     2
 73
     5
 74
    -6
  0
VERTEX
  5
317
330
2B6
100
AcDbEntity
  8
0
 62
   251
100
AcDbFaceRecord
 10
0.0
 20
0.0
 30
0.0
 70
   128
 71
     7
 72
     4
 73
     9
 74
    -7
  0
VERTEX
  5
318
330
2B6
100
AcDbEntity
  8
0
 62
   251
100
AcDbFaceRecord
 10
0.0
 20
0.0
 30
0.0
 70
   128
 71
     5
 72
     7
 73
     9
 74
    -5
  0
VERTEX
  5
319
330
2B6
100
AcDbEntity
  8
0
 62
   251
100
AcDbFaceRecord
 10
0.0
 20
0.0
 30
0.0
 70
   128
 71
    80
 72
     5
 73
     8
 74
   -80
  0
VERTEX
  5
31A
330
2B6
100
AcDbEntity
  8
0
 62
   251
100
AcDbFaceRecord
 10
0.0
 20
0.0
 30
0.0
 70
   128
 71
     6
 72
     5
 73
    80
 74
    -6
  0
VERTEX
  5
31B
330
2B6
100
AcDbEntity
  8
0
 62
   251
100
AcDbFaceRecord
 10
0.0
 20
0.0
 30
0.0
 70
   128
 71
     3
 72
     6
 73
    81
 74
    -3
  0
VERTEX
  5
31C
330
2B6
100
AcDbEntity
  8
0
 62
   251
100
AcDbFaceRecord
 10
0.0
 20
0.0
 30
0.0
 70
   128
 71
     9
 72
     3
 73
    81
 74
    -9
  0
VERTEX
  5
31D
330
2B6
100
AcDbEntity
  8
0
 62
   251
100
AcDbFaceRecord
 10
0.0
 20
0.0
 30
0.0
 70
   128
 71
    81
 72
     6
 73
    80
 74
   -81
  0
VERTEX
  5
31E
330
2B6
100
AcDbEntity
  8
0
 62
   251
100
AcDbFaceRecord
 10
0.0
 20
0.0
 30
0.0
 70
   128
 71
     9
 72
     8
 73
     5
 74
    -9
  0
VERTEX
  5
31F
330
2B6
100
AcDbEntity
  8
0
 62
   251
100
AcDbFaceRecord
 10
0.0
 20
0.0
 30
0.0
 70
   128
 71
    10
 72
     8
 73
     9
 74
   -10
  0
VERTEX
  5
320
330
2B6
100
AcDbEntity
  8
0
 62
   251
100
AcDbFaceRecord
 10
0.0
 20
0.0
 30
0.0
 70
   128
 71
    10
 72
     9
 73
    81
 74
   -10
  0
VERTEX
  5
321
330
2B6
100
AcDbEntity
  8
0
 62
   251
100
AcDbFaceRecord
 10
0.0
 20
0.0
 30
0.0
 70
   128
 71
    11
 72
    48
 73
    52
 74
   -11
  0
VERTEX
  5
322
330
2B6
100
AcDbEntity
  8
0
 62
   251
100
AcDbFaceRecord
 10
0.0
 20
0.0
 30
0.0
 70
   128
 71
    31
 72
    11
 73
    52
 74
   -31
  0
VERTEX
  5
323
330
2B6
100
AcDbEntity
  8
0
 62
   251
100
AcDbFaceRecord
 10
0.0
 20
0.0
 30
0.0
 70
   128
 71
    12
 72
    11
 73
    31
 74
   -12
  0
VERTEX
  5
324
330
2B6
100
AcDbEntity
  8
0
 62
   251
100
AcDbFaceRecord
 10
0.0
 20
0.0
 30
0.0
 70
   128
 71
    13
 72
    12
 73
    31
 74
   -13
  0
VERTEX
  5
325
330
2B6
100
AcDbEntity
  8
0
 62
   251
100
AcDbFaceRecord
 10
0.0
 20
0.0
 30
0.0
 70
   128
 71
    26
 72
    12
 73
    13
 74
   -26
  0
VERTEX
  5
326
330
2B6
100
AcDbEntity
  8
0
 62
   251
100
AcDbFaceRecord
 10
0.0
 20
0.0
 30
0.0
 70
   128
 71
    47
 72
    26
 73
    13
 74
   -47
  0
VERTEX
  5
327
330
2B6
100
AcDbEntity
  8
0
 62
   251
100
AcDbFaceRecord
 10
0.0
 20
0.0
 30
0.0
 70
   128
 71
    15
 72
    14
 73
    17
 74
   -15
  0
VERTEX
  5
328
330
2B6
100
AcDbEntity
  8
0
 62
   251
100
AcDbFaceRecord
 10
0.0
 20
0.0
 30
0.0
 70
   128
 71
    16
 72
    15
 73
    17
 74
   -16
  0
VERTEX
  5
329
330
2B6
100
AcDbEntity
  8
0
 62
   251
100
AcDbFaceRecord
 10
0.0
 20
0.0
 30
0.0
 70
   128
 71
    18
 72
    25
 73
    17
 74
   -18
  0
VERTEX
  5
32A
330
2B6
100
AcDbEntity
  8
0
 62
   251
100
AcDbFaceRecord
 10
0.0
 20
0.0
 30
0.0
 70
   128
 71
    24
 72
    25
 73
    18
 74
   -24
  0
VERTEX
  5
32B
330
2B6
100
AcDbEntity
  8
0
 62
   251
100
AcDbFaceRecord
 10
0.0
 20
0.0
 30
0.0
 70
   128
 71
    22
 72
    24
 73
    50
 74
   -22
  0
VERTEX
  5
32C
330
2B6
100
AcDbEntity
  8
0
 62
   251
100
AcDbFaceRecord
 10
0.0
 20
0.0
 30
0.0
 70
   128
 71
    21
 72
    22
 73
    50
 74
   -21
  0
VERTEX
  5
32D
330
2B6
100
AcDbEntity
  8
0
 62
   251
100
AcDbFaceRecord
 10
0.0
 20
0.0
 30
0.0
 70
   128
 71
    48
 72
    11
 73
    21
 74
   -48
  0
VERTEX
  5
32E
330
2B6
100
AcDbEntity
  8
0
 62
   251
100
AcDbFaceRecord
 10
0.0
 20
0.0
 30
0.0
 70
   128
 71
    48
 72
    21
 73
    50
 74
   -48
  0
VERTEX
  5
32F
330
2B6
100
AcDbEntity
  8
0
 62
   251
100
AcDbFaceRecord
 10
0.0
 20
0.0
 30
0.0
 70
   128
 71
    50
 72
    24
 73
    18
 74
   -50
  0
VERTEX
  5
330
330
2B6
100
AcDbEntity
  8
0
 62
   251
100
AcDbFaceRecord
 10
0.0
 20
0.0
 30
0.0
 70
   128
 71
    16
 72
    17
 73
    25
 74
   -16
  0
VERTEX
  5
331
330
2B6
100
AcDbEntity
  8
0
 62
   251
100
AcDbFaceRecord
 10
0.0
 20
0.0
 30
0.0
 70
   128
 71
    27
 72
    15
 73
    25
 74
   -27
  0
VERTEX
  5
332
330
2B6
100
AcDbEntity
  8
0
 62
   251
100
AcDbFaceRecord
 10
0.0
 20
0.0
 30
0.0
 70
   128
 71
    23
 72
    27
 73
    25
 74
   -23
  0
VERTEX
  5
333
330
2B6
100
AcDbEntity
  8
0
 62
   251
100
AcDbFaceRecord
 10
0.0
 20
0.0
 30
0.0
 70
   128
 71
    21
 72
    19
 73
    22
 74
   -21
  0
VERTEX
  5
334
330
2B6
100
AcDbEntity
  8
0
 62
   251
100
AcDbFaceRecord
 10
0.0
 20
0.0
 30
0.0
 70
   128
 71
    20
 72
    19
 73
    21
 74
   -20
  0
VERTEX
  5
335
330
2B6
100
AcDbEntity
  8
0
 62
   251
100
AcDbFaceRecord
 10
0.0
 20
0.0
 30
0.0
 70
   128
 71
    12
 72
    20
 73
    21
 74
   -12
  0
VERTEX
  5
336
330
2B6
100
AcDbEntity
  8
0
 62
   251
100
AcDbFaceRecord
 10
0.0
 20
0.0
 30
0.0
 70
   128
 71
    11
 72
    12
 73
    21
 74
   -11
  0
VERTEX
  5
337
330
2B6
100
AcDbEntity
  8
0
 62
   251
100
AcDbFaceRecord
 10
0.0
 20
0.0
 30
0.0
 70
   128
 71
    23
 72
    22
 73
    19
 74
   -23
  0
VERTEX
  5
338
330
2B6
100
AcDbEntity
  8
0
 62
   251
100
AcDbFaceRecord
 10
0.0
 20
0.0
 30
0.0
 70
   128
 71
    24
 72
    22
 73
    23
 74
   -24
  0
VERTEX
  5
339
330
2B6
100
AcDbEntity
  8
0
 62
   251
100
AcDbFaceRecord
 10
0.0
 20
0.0
 30
0.0
 70
   128
 71
    24
 72
    23
 73
    25
 74
   -24
  0
VERTEX
  5
33A
330
2B6
100
AcDbEntity
  8
0
 62
   251
100
AcDbFaceRecord
 10
0.0
 20
0.0
 30
0.0
 70
   128
 71
    16
 72
    25
 73
    15
 74
   -16
  0
VERTEX
  5
33B
330
2B6
100
AcDbEntity
  8
0
 62
   251
100
AcDbFaceRecord
 10
0.0
 20
0.0
 30
0.0
 70
   128
 71
    20
 72
    26
 73
    49
 74
   -20
  0
VERTEX
  5
33C
330
2B6
100
AcDbEntity
  8
0
 62
   251
100
AcDbFaceRecord
 10
0.0
 20
0.0
 30
0.0
 70
   128
 71
    19
 72
    20
 73
    49
 74
   -19
  0
VERTEX
  5
33D
330
2B6
100
AcDbEntity
  8
0
 62
   251
100
AcDbFaceRecord
 10
0.0
 20
0.0
 30
0.0
 70
   128
 71
    23
 72
    19
 73
    49
 74
   -23
  0
VERTEX
  5
33E
330
2B6
100
AcDbEntity
  8
0
 62
   251
100
AcDbFaceRecord
 10
0.0
 20
0.0
 30
0.0
 70
   128
 71
    14
 72
    27
 73
    28
 74
   -14
  0
VERTEX
  5
33F
330
2B6
100
AcDbEntity
  8
0
 62
   251
100
AcDbFaceRecord
 10
0.0
 20
0.0
 30
0.0
 70
   128
 71
    15
 72
    27
 73
    14
 74
   -15
  0
VERTEX
  5
340
330
2B6
100
AcDbEntity
  8
0
 62
   251
100
AcDbFaceRecord
 10
0.0
 20
0.0
 30
0.0
 70
   128
 71
    23
 72
    28
 73
    27
 74
   -23
  0
VERTEX
  5
341
330
2B6
100
AcDbEntity
  8
0
 62
   251
100
AcDbFaceRecord
 10
0.0
 20
0.0
 30
0.0
 70
   128
 71
    28
 72
    23
 73
    49
 74
   -28
  0
VERTEX
  5
342
330
2B6
100
AcDbEntity
  8
0
 62
   251
100
AcDbFaceRecord
 10
0.0
 20
0.0
 30
0.0
 70
   128
 71
    12
 72
    26
 73
    20
 74
   -12
  0
VERTEX
  5
343
330
2B6
100
AcDbEntity
  8
0
 62
   251
100
AcDbFaceRecord
 10
0.0
 20
0.0
 30
0.0
 70
   128
 71
    33
 72
    30
 73
    51
 74
   -33
  0
VERTEX
  5
344
330
2B6
100
AcDbEntity
  8
0
 62
   251
100
AcDbFaceRecord
 10
0.0
 20
0.0
 30
0.0
 70
   128
 71
    34
 72
    33
 73
    51
 74
   -34
  0
VERTEX
  5
345
330
2B6
100
AcDbEntity
  8
0
 62
   251
100
AcDbFaceRecord
 10
0.0
 20
0.0
 30
0.0
 70
   128
 71
    55
 72
    29
 73
    54
 74
   -55
  0
VERTEX
  5
346
330
2B6
100
AcDbEntity
  8
0
 62
   251
100
AcDbFaceRecord
 10
0.0
 20
0.0
 30
0.0
 70
   128
 71
    57
 72
    29
 73
    55
 74
   -57
  0
VERTEX
  5
347
330
2B6
100
AcDbEntity
  8
0
 62
   251
100
AcDbFaceRecord
 10
0.0
 20
0.0
 30
0.0
 70
   128
 71
    34
 72
    54
 73
    29
 74
   -34
  0
VERTEX
  5
348
330
2B6
100
AcDbEntity
  8
0
 62
   251
100
AcDbFaceRecord
 10
0.0
 20
0.0
 30
0.0
 70
   128
 71
    54
 72
    34
 73
    51
 74
   -54
  0
VERTEX
  5
349
330
2B6
100
AcDbEntity
  8
0
 62
   251
100
AcDbFaceRecord
 10
0.0
 20
0.0
 30
0.0
 70
   128
 71
    52
 72
    51
 73
    30
 74
   -52
  0
VERTEX
  5
34A
330
2B6
100
AcDbEntity
  8
0
 62
   251
100
AcDbFaceRecord
 10
0.0
 20
0.0
 30
0.0
 70
   128
 71
    31
 72
    52
 73
    30
 74
   -31
  0
VERTEX
  5
34B
330
2B6
100
AcDbEntity
  8
0
 62
   251
100
AcDbFaceRecord
 10
0.0
 20
0.0
 30
0.0
 70
   128
 71
    32
 72
    29
 73
    57
 74
   -32
  0
VERTEX
  5
34C
330
2B6
100
AcDbEntity
  8
0
 62
   251
100
AcDbFaceRecord
 10
0.0
 20
0.0
 30
0.0
 70
   128
 71
    33
 72
    35
 73
    30
 74
   -33
  0
VERTEX
  5
34D
330
2B6
100
AcDbEntity
  8
0
 62
   251
100
AcDbFaceRecord
 10
0.0
 20
0.0
 30
0.0
 70
   128
 71
    38
 72
    35
 73
    33
 74
   -38
  0
VERTEX
  5
34E
330
2B6
100
AcDbEntity
  8
0
 62
   251
100
AcDbFaceRecord
 10
0.0
 20
0.0
 30
0.0
 70
   128
 71
    36
 72
    38
 73
    33
 74
   -36
  0
VERTEX
  5
34F
330
2B6
100
AcDbEntity
  8
0
 62
   251
100
AcDbFaceRecord
 10
0.0
 20
0.0
 30
0.0
 70
   128
 71
    58
 72
    32
 73
    57
 74
   -58
  0
VERTEX
  5
350
330
2B6
100
AcDbEntity
  8
0
 62
   251
100
AcDbFaceRecord
 10
0.0
 20
0.0
 30
0.0
 70
   128
 71
    34
 72
    29
 73
    32
 74
   -34
  0
VERTEX
  5
351
330
2B6
100
AcDbEntity
  8
0
 62
   251
100
AcDbFaceRecord
 10
0.0
 20
0.0
 30
0.0
 70
   128
 71
    36
 72
    34
 73
    32
 74
   -36
  0
VERTEX
  5
352
330
2B6
100
AcDbEntity
  8
0
 62
   251
100
AcDbFaceRecord
 10
0.0
 20
0.0
 30
0.0
 70
   128
 71
    34
 72
    36
 73
    33
 74
   -34
  0
VERTEX
  5
353
330
2B6
100
AcDbEntity
  8
0
 62
   251
100
AcDbFaceRecord
 10
0.0
 20
0.0
 30
0.0
 70
   128
 71
    13
 72
    30
 73
    35
 74
   -13
  0
VERTEX
  5
354
330
2B6
100
AcDbEntity
  8
0
 62
   251
100
AcDbFaceRecord
 10
0.0
 20
0.0
 30
0.0
 70
   128
 71
    31
 72
    30
 73
    13
 74
   -31
  0
VERTEX
  5
355
330
2B6
100
AcDbEntity
  8
0
 62
   251
100
AcDbFaceRecord
 10
0.0
 20
0.0
 30
0.0
 70
   128
 71
    53
 72
    32
 73
    45
 74
   -53
  0
VERTEX
  5
356
330
2B6
100
AcDbEntity
  8
0
 62
   251
100
AcDbFaceRecord
 10
0.0
 20
0.0
 30
0.0
 70
   128
 71
    36
 72
    32
 73
    53
 74
   -36
  0
VERTEX
  5
357
330
2B6
100
AcDbEntity
  8
0
 62
   251
100
AcDbFaceRecord
 10
0.0
 20
0.0
 30
0.0
 70
   128
 71
    38
 72
    36
 73
    37
 74
   -38
  0
VERTEX
  5
358
330
2B6
100
AcDbEntity
  8
0
 62
   251
100
AcDbFaceRecord
 10
0.0
 20
0.0
 30
0.0
 70
   128
 71
    35
 72
    38
 73
    37
 74
   -35
  0
VERTEX
  5
359
330
2B6
100
AcDbEntity
  8
0
 62
   251
100
AcDbFaceRecord
 10
0.0
 20
0.0
 30
0.0
 70
   128
 71
    47
 72
    13
 73
    35
 74
   -47
  0
VERTEX
  5
35A
330
2B6
100
AcDbEntity
  8
0
 62
   251
100
AcDbFaceRecord
 10
0.0
 20
0.0
 30
0.0
 70
   128
 71
    47
 72
    35
 73
    37
 74
   -47
  0
VERTEX
  5
35B
330
2B6
100
AcDbEntity
  8
0
 62
   251
100
AcDbFaceRecord
 10
0.0
 20
0.0
 30
0.0
 70
   128
 71
    37
 72
    36
 73
    53
 74
   -37
  0
VERTEX
  5
35C
330
2B6
100
AcDbEntity
  8
0
 62
   251
100
AcDbFaceRecord
 10
0.0
 20
0.0
 30
0.0
 70
   128
 71
    58
 72
    45
 73
    32
 74
   -58
  0
VERTEX
  5
35D
330
2B6
100
AcDbEntity
  8
0
 62
   251
100
AcDbFaceRecord
 10
0.0
 20
0.0
 30
0.0
 70
   128
 71
    14
 72
    49
 73
    17
 74
   -14
  0
VERTEX
  5
35E
330
2B6
100
AcDbEntity
  8
0
 62
   251
100
AcDbFaceRecord
 10
0.0
 20
0.0
 30
0.0
 70
   128
 71
    39
 72
    42
 73
    10
 74
   -39
  0
VERTEX
  5
35F
330
2B6
100
AcDbEntity
  8
0
 62
   251
100
AcDbFaceRecord
 10
0.0
 20
0.0
 30
0.0
 70
   128
 71
    41
 72
    55
 73
    45
 74
   -41
  0
VERTEX
  5
360
330
2B6
100
AcDbEntity
  8
0
 62
   251
100
AcDbFaceRecord
 10
0.0
 20
0.0
 30
0.0
 70
   128
 71
    41
 72
    40
 73
    55
 74
   -41
  0
VERTEX
  5
361
330
2B6
100
AcDbEntity
  8
0
 62
   251
100
AcDbFaceRecord
 10
0.0
 20
0.0
 30
0.0
 70
   128
 71
     8
 72
    10
 73
    42
 74
    -8
  0
VERTEX
  5
362
330
2B6
100
AcDbEntity
  8
0
 62
   251
100
AcDbFaceRecord
 10
0.0
 20
0.0
 30
0.0
 70
   128
 71
    43
 72
     8
 73
    42
 74
   -43
  0
VERTEX
  5
363
330
2B6
100
AcDbEntity
  8
0
 62
   251
100
AcDbFaceRecord
 10
0.0
 20
0.0
 30
0.0
 70
   128
 71
    44
 72
    42
 73
    39
 74
   -44
  0
VERTEX
  5
364
330
2B6
100
AcDbEntity
  8
0
 62
   251
100
AcDbFaceRecord
 10
0.0
 20
0.0
 30
0.0
 70
   128
 71
    44
 72
    40
 73
    41
 74
   -44
  0
VERTEX
  5
365
330
2B6
100
AcDbEntity
  8
0
 62
   251
100
AcDbFaceRecord
 10
0.0
 20
0.0
 30
0.0
 70
   128
 71
    71
 72
    41
 73
    45
 74
   -71
  0
VERTEX
  5
366
330
2B6
100
AcDbEntity
  8
0
 62
   251
100
AcDbFaceRecord
 10
0.0
 20
0.0
 30
0.0
 70
   128
 71
    72
 72
    71
 73
    45
 74
   -72
  0
VERTEX
  5
367
330
2B6
100
AcDbEntity
  8
0
 62
   251
100
AcDbFaceRecord
 10
0.0
 20
0.0
 30
0.0
 70
   128
 71
    46
 72
    72
 73
    45
 74
   -46
  0
VERTEX
  5
368
330
2B6
100
AcDbEntity
  8
0
 62
   251
100
AcDbFaceRecord
 10
0.0
 20
0.0
 30
0.0
 70
   128
 71
    51
 72
    53
 73
    54
 74
   -51
  0
VERTEX
  5
369
330
2B6
100
AcDbEntity
  8
0
 62
   251
100
AcDbFaceRecord
 10
0.0
 20
0.0
 30
0.0
 70
   128
 71
    37
 72
    53
 73
    51
 74
   -37
  0
VERTEX
  5
36A
330
2B6
100
AcDbEntity
  8
0
 62
   251
100
AcDbFaceRecord
 10
0.0
 20
0.0
 30
0.0
 70
   128
 71
    47
 72
    37
 73
    51
 74
   -47
  0
VERTEX
  5
36B
330
2B6
100
AcDbEntity
  8
0
 62
   251
100
AcDbFaceRecord
 10
0.0
 20
0.0
 30
0.0
 70
   128
 71
    26
 72
    47
 73
    48
 74
   -26
  0
VERTEX
  5
36C
330
2B6
100
AcDbEntity
  8
0
 62
   251
100
AcDbFaceRecord
 10
0.0
 20
0.0
 30
0.0
 70
   128
 71
    49
 72
    26
 73
    48
 74
   -49
  0
VERTEX
  5
36D
330
2B6
100
AcDbEntity
  8
0
 62
   251
100
AcDbFaceRecord
 10
0.0
 20
0.0
 30
0.0
 70
   128
 71
    28
 72
    49
 73
    14
 74
   -28
  0
VERTEX
  5
36E
330
2B6
100
AcDbEntity
  8
0
 62
   251
100
AcDbFaceRecord
 10
0.0
 20
0.0
 30
0.0
 70
   128
 71
    50
 72
    17
 73
    49
 74
   -50
  0
VERTEX
  5
36F
330
2B6
100
AcDbEntity
  8
0
 62
   251
100
AcDbFaceRecord
 10
0.0
 20
0.0
 30
0.0
 70
   128
 71
    18
 72
    17
 73
    50
 74
   -18
  0
VERTEX
  5
370
330
2B6
100
AcDbEntity
  8
0
 62
   251
100
AcDbFaceRecord
 10
0.0
 20
0.0
 30
0.0
 70
   128
 71
    50
 72
    49
 73
    48
 74
   -50
  0
VERTEX
  5
371
330
2B6
100
AcDbEntity
  8
0
 62
   251
100
AcDbFaceRecord
 10
0.0
 20
0.0
 30
0.0
 70
   128
 71
    52
 72
    48
 73
    47
 74
   -52
  0
VERTEX
  5
372
330
2B6
100
AcDbEntity
  8
0
 62
   251
100
AcDbFaceRecord
 10
0.0
 20
0.0
 30
0.0
 70
   128
 71
    52
 72
    47
 73
    51
 74
   -52
  0
VERTEX
  5
373
330
2B6
100
AcDbEntity
  8
0
 62
   251
100
AcDbFaceRecord
 10
0.0
 20
0.0
 30
0.0
 70
   128
 71
    45
 72
    54
 73
    53
 74
   -45
  0
VERTEX
  5
374
330
2B6
100
AcDbEntity
  8
0
 62
   251
100
AcDbFaceRecord
 10
0.0
 20
0.0
 30
0.0
 70
   128
 71
    54
 72
    45
 73
    55
 74
   -54
  0
VERTEX
  5
375
330
2B6
100
AcDbEntity
  8
0
 62
   251
100
AcDbFaceRecord
 10
0.0
 20
0.0
 30
0.0
 70
   128
 71
    60
 72
    59
 73
    55
 74
   -60
  0
VERTEX
  5
376
330
2B6
100
AcDbEntity
  8
0
 62
   251
100
AcDbFaceRecord
 10
0.0
 20
0.0
 30
0.0
 70
   128
 71
    63
 72
    60
 73
    55
 74
   -63
  0
VERTEX
  5
377
330
2B6
100
AcDbEntity
  8
0
 62
   251
100
AcDbFaceRecord
 10
0.0
 20
0.0
 30
0.0
 70
   128
 71
    63
 72
    55
 73
    40
 74
   -63
  0
VERTEX
  5
378
330
2B6
100
AcDbEntity
  8
0
 62
   251
100
AcDbFaceRecord
 10
0.0
 20
0.0
 30
0.0
 70
   128
 71
    77
 72
    40
 73
    44
 74
   -77
  0
VERTEX
  5
379
330
2B6
100
AcDbEntity
  8
0
 62
   251
100
AcDbFaceRecord
 10
0.0
 20
0.0
 30
0.0
 70
   128
 71
    77
 72
    44
 73
    39
 74
   -77
  0
VERTEX
  5
37A
330
2B6
100
AcDbEntity
  8
0
 62
   251
100
AcDbFaceRecord
 10
0.0
 20
0.0
 30
0.0
 70
   128
 71
    88
 72
    39
 73
    10
 74
   -88
  0
VERTEX
  5
37B
330
2B6
100
AcDbEntity
  8
0
 62
   251
100
AcDbFaceRecord
 10
0.0
 20
0.0
 30
0.0
 70
   128
 71
    56
 72
    57
 73
    70
 74
   -56
  0
VERTEX
  5
37C
330
2B6
100
AcDbEntity
  8
0
 62
   251
100
AcDbFaceRecord
 10
0.0
 20
0.0
 30
0.0
 70
   128
 71
    58
 72
    57
 73
    56
 74
   -58
  0
VERTEX
  5
37D
330
2B6
100
AcDbEntity
  8
0
 62
   251
100
AcDbFaceRecord
 10
0.0
 20
0.0
 30
0.0
 70
   128
 71
    46
 72
    45
 73
    58
 74
   -46
  0
VERTEX
  5
37E
330
2B6
100
AcDbEntity
  8
0
 62
   251
100
AcDbFaceRecord
 10
0.0
 20
0.0
 30
0.0
 70
   128
 71
    46
 72
    58
 73
    56
 74
   -46
  0
VERTEX
  5
37F
330
2B6
100
AcDbEntity
  8
0
 62
   251
100
AcDbFaceRecord
 10
0.0
 20
0.0
 30
0.0
 70
   128
 71
    59
 72
    70
 73
    57
 74
   -59
  0
VERTEX
  5
380
330
2B6
100
AcDbEntity
  8
0
 62
   251
100
AcDbFaceRecord
 10
0.0
 20
0.0
 30
0.0
 70
   128
 71
    55
 72
    59
 73
    57
 74
   -55
  0
VERTEX
  5
381
330
2B6
100
AcDbEntity
  8
0
 62
   251
100
AcDbFaceRecord
 10
0.0
 20
0.0
 30
0.0
 70
   128
 71
    60
 72
    69
 73
    59
 74
   -60
  0
VERTEX
  5
382
330
2B6
100
AcDbEntity
  8
0
 62
   251
100
AcDbFaceRecord
 10
0.0
 20
0.0
 30
0.0
 70
   128
 71
    65
 72
    69
 73
    60
 74
   -65
  0
VERTEX
  5
383
330
2B6
100
AcDbEntity
  8
0
 62
   251
100
AcDbFaceRecord
 10
0.0
 20
0.0
 30
0.0
 70
   128
 71
    61
 72
    65
 73
    63
 74
   -61
  0
VERTEX
  5
384
330
2B6
100
AcDbEntity
  8
0
 62
   251
100
AcDbFaceRecord
 10
0.0
 20
0.0
 30
0.0
 70
   128
 71
    66
 72
    61
 73
    63
 74
   -66
  0
VERTEX
  5
385
330
2B6
100
AcDbEntity
  8
0
 62
   251
100
AcDbFaceRecord
 10
0.0
 20
0.0
 30
0.0
 70
   128
 71
    40
 72
    62
 73
    66
 74
   -40
  0
VERTEX
  5
386
330
2B6
100
AcDbEntity
  8
0
 62
   251
100
AcDbFaceRecord
 10
0.0
 20
0.0
 30
0.0
 70
   128
 71
    40
 72
    66
 73
    63
 74
   -40
  0
VERTEX
  5
387
330
2B6
100
AcDbEntity
  8
0
 62
   251
100
AcDbFaceRecord
 10
0.0
 20
0.0
 30
0.0
 70
   128
 71
    63
 72
    65
 73
    60
 74
   -63
  0
VERTEX
  5
388
330
2B6
100
AcDbEntity
  8
0
 62
   251
100
AcDbFaceRecord
 10
0.0
 20
0.0
 30
0.0
 70
   128
 71
    70
 72
    59
 73
    69
 74
   -70
  0
VERTEX
  5
389
330
2B6
100
AcDbEntity
  8
0
 62
   251
100
AcDbFaceRecord
 10
0.0
 20
0.0
 30
0.0
 70
   128
 71
    73
 72
    64
 73
    65
 74
   -73
  0
VERTEX
  5
38A
330
2B6
100
AcDbEntity
  8
0
 62
   251
100
AcDbFaceRecord
 10
0.0
 20
0.0
 30
0.0
 70
   128
 71
    68
 72
    73
 73
    65
 74
   -68
  0
VERTEX
  5
38B
330
2B6
100
AcDbEntity
  8
0
 62
   251
100
AcDbFaceRecord
 10
0.0
 20
0.0
 30
0.0
 70
   128
 71
    62
 72
    74
 73
    66
 74
   -62
  0
VERTEX
  5
38C
330
2B6
100
AcDbEntity
  8
0
 62
   251
100
AcDbFaceRecord
 10
0.0
 20
0.0
 30
0.0
 70
   128
 71
    67
 72
    74
 73
    62
 74
   -67
  0
VERTEX
  5
38D
330
2B6
100
AcDbEntity
  8
0
 62
   251
100
AcDbFaceRecord
 10
0.0
 20
0.0
 30
0.0
 70
   128
 71
    68
 72
    66
 73
    74
 74
   -68
  0
VERTEX
  5
38E
330
2B6
100
AcDbEntity
  8
0
 62
   251
100
AcDbFaceRecord
 10
0.0
 20
0.0
 30
0.0
 70
   128
 71
    61
 72
    66
 73
    68
 74
   -61
  0
VERTEX
  5
38F
330
2B6
100
AcDbEntity
  8
0
 62
   251
100
AcDbFaceRecord
 10
0.0
 20
0.0
 30
0.0
 70
   128
 71
    61
 72
    68
 73
    65
 74
   -61
  0
VERTEX
  5
390
330
2B6
100
AcDbEntity
  8
0
 62
   251
100
AcDbFaceRecord
 10
0.0
 20
0.0
 30
0.0
 70
   128
 71
    69
 72
    65
 73
    64
 74
   -69
  0
VERTEX
  5
391
330
2B6
100
AcDbEntity
  8
0
 62
   251
100
AcDbFaceRecord
 10
0.0
 20
0.0
 30
0.0
 70
   128
 71
    70
 72
    69
 73
    64
 74
   -70
  0
VERTEX
  5
392
330
2B6
100
AcDbEntity
  8
0
 62
   251
100
AcDbFaceRecord
 10
0.0
 20
0.0
 30
0.0
 70
   128
 71
    56
 72
    70
 73
    64
 74
   -56
  0
VERTEX
  5
393
330
2B6
100
AcDbEntity
  8
0
 62
   251
100
AcDbFaceRecord
 10
0.0
 20
0.0
 30
0.0
 70
   128
 71
    74
 72
    41
 73
    71
 74
   -74
  0
VERTEX
  5
394
330
2B6
100
AcDbEntity
  8
0
 62
   251
100
AcDbFaceRecord
 10
0.0
 20
0.0
 30
0.0
 70
   128
 71
    68
 72
    74
 73
    71
 74
   -68
  0
VERTEX
  5
395
330
2B6
100
AcDbEntity
  8
0
 62
   251
100
AcDbFaceRecord
 10
0.0
 20
0.0
 30
0.0
 70
   128
 71
    73
 72
    68
 73
    71
 74
   -73
  0
VERTEX
  5
396
330
2B6
100
AcDbEntity
  8
0
 62
   251
100
AcDbFaceRecord
 10
0.0
 20
0.0
 30
0.0
 70
   128
 71
    46
 72
    64
 73
    72
 74
   -46
  0
VERTEX
  5
397
330
2B6
100
AcDbEntity
  8
0
 62
   251
100
AcDbFaceRecord
 10
0.0
 20
0.0
 30
0.0
 70
   128
 71
    56
 72
    64
 73
    46
 74
   -56
  0
VERTEX
  5
398
330
2B6
100
AcDbEntity
  8
0
 62
   251
100
AcDbFaceRecord
 10
0.0
 20
0.0
 30
0.0
 70
   128
 71
    73
 72
    72
 73
    64
 74
   -73
  0
VERTEX
  5
399
330
2B6
100
AcDbEntity
  8
0
 62
   251
100
AcDbFaceRecord
 10
0.0
 20
0.0
 30
0.0
 70
   128
 71
    72
 72
    73
 73
    71
 74
   -72
  0
VERTEX
  5
39A
330
2B6
100
AcDbEntity
  8
0
 62
   251
100
AcDbFaceRecord
 10
0.0
 20
0.0
 30
0.0
 70
   128
 71
    67
 72
    41
 73
    74
 74
   -67
  0
VERTEX
  5
39B
330
2B6
100
AcDbEntity
  8
0
 62
   251
100
AcDbFaceRecord
 10
0.0
 20
0.0
 30
0.0
 70
   128
 71
    41
 72
    67
 73
    76
 74
   -41
  0
VERTEX
  5
39C
330
2B6
100
AcDbEntity
  8
0
 62
   251
100
AcDbFaceRecord
 10
0.0
 20
0.0
 30
0.0
 70
   128
 71
    44
 72
    41
 73
    76
 74
   -44
  0
VERTEX
  5
39D
330
2B6
100
AcDbEntity
  8
0
 62
   251
100
AcDbFaceRecord
 10
0.0
 20
0.0
 30
0.0
 70
   128
 71
    67
 72
    62
 73
    75
 74
   -67
  0
VERTEX
  5
39E
330
2B6
100
AcDbEntity
  8
0
 62
   251
100
AcDbFaceRecord
 10
0.0
 20
0.0
 30
0.0
 70
   128
 71
    76
 72
    67
 73
    75
 74
   -76
  0
VERTEX
  5
39F
330
2B6
100
AcDbEntity
  8
0
 62
   251
100
AcDbFaceRecord
 10
0.0
 20
0.0
 30
0.0
 70
   128
 71
    62
 72
    40
 73
    77
 74
   -62
  0
VERTEX
  5
3A0
330
2B6
100
AcDbEntity
  8
0
 62
   251
100
AcDbFaceRecord
 10
0.0
 20
0.0
 30
0.0
 70
   128
 71
    75
 72
    62
 73
    77
 74
   -75
  0
VERTEX
  5
3A1
330
2B6
100
AcDbEntity
  8
0
 62
   251
100
AcDbFaceRecord
 10
0.0
 20
0.0
 30
0.0
 70
   128
 71
    43
 72
    86
 73
     8
 74
   -43
  0
VERTEX
  5
3A2
330
2B6
100
AcDbEntity
  8
0
 62
   251
100
AcDbFaceRecord
 10
0.0
 20
0.0
 30
0.0
 70
   128
 71
    85
 72
    86
 73
    43
 74
   -85
  0
VERTEX
  5
3A3
330
2B6
100
AcDbEntity
  8
0
 62
   251
100
AcDbFaceRecord
 10
0.0
 20
0.0
 30
0.0
 70
   128
 71
    78
 72
    85
 73
    42
 74
   -78
  0
VERTEX
  5
3A4
330
2B6
100
AcDbEntity
  8
0
 62
   251
100
AcDbFaceRecord
 10
0.0
 20
0.0
 30
0.0
 70
   128
 71
    79
 72
    78
 73
    42
 74
   -79
  0
VERTEX
  5
3A5
330
2B6
100
AcDbEntity
  8
0
 62
   251
100
AcDbFaceRecord
 10
0.0
 20
0.0
 30
0.0
 70
   128
 71
    44
 72
    76
 73
    79
 74
   -44
  0
VERTEX
  5
3A6
330
2B6
100
AcDbEntity
  8
0
 62
   251
100
AcDbFaceRecord
 10
0.0
 20
0.0
 30
0.0
 70
   128
 71
    44
 72
    79
 73
    42
 74
   -44
  0
VERTEX
  5
3A7
330
2B6
100
AcDbEntity
  8
0
 62
   251
100
AcDbFaceRecord
 10
0.0
 20
0.0
 30
0.0
 70
   128
 71
    42
 72
    85
 73
    43
 74
   -42
  0
VERTEX
  5
3A8
330
2B6
100
AcDbEntity
  8
0
 62
   251
100
AcDbFaceRecord
 10
0.0
 20
0.0
 30
0.0
 70
   128
 71
    80
 72
     8
 73
    86
 74
   -80
  0
VERTEX
  5
3A9
330
2B6
100
AcDbEntity
  8
0
 62
   251
100
AcDbFaceRecord
 10
0.0
 20
0.0
 30
0.0
 70
   128
 71
    82
 72
    81
 73
    86
 74
   -82
  0
VERTEX
  5
3AA
330
2B6
100
AcDbEntity
  8
0
 62
   251
100
AcDbFaceRecord
 10
0.0
 20
0.0
 30
0.0
 70
   128
 71
    87
 72
    82
 73
    86
 74
   -87
  0
VERTEX
  5
3AB
330
2B6
100
AcDbEntity
  8
0
 62
   251
100
AcDbFaceRecord
 10
0.0
 20
0.0
 30
0.0
 70
   128
 71
    79
 72
    83
 73
    78
 74
   -79
  0
VERTEX
  5
3AC
330
2B6
100
AcDbEntity
  8
0
 62
   251
100
AcDbFaceRecord
 10
0.0
 20
0.0
 30
0.0
 70
   128
 71
    84
 72
    83
 73
    79
 74
   -84
  0
VERTEX
  5
3AD
330
2B6
100
AcDbEntity
  8
0
 62
   251
100
AcDbFaceRecord
 10
0.0
 20
0.0
 30
0.0
 70
   128
 71
    75
 72
    84
 73
    79
 74
   -75
  0
VERTEX
  5
3AE
330
2B6
100
AcDbEntity
  8
0
 62
   251
100
AcDbFaceRecord
 10
0.0
 20
0.0
 30
0.0
 70
   128
 71
    76
 72
    75
 73
    79
 74
   -76
  0
VERTEX
  5
3AF
330
2B6
100
AcDbEntity
  8
0
 62
   251
100
AcDbFaceRecord
 10
0.0
 20
0.0
 30
0.0
 70
   128
 71
    87
 72
    78
 73
    83
 74
   -87
  0
VERTEX
  5
3B0
330
2B6
100
AcDbEntity
  8
0
 62
   251
100
AcDbFaceRecord
 10
0.0
 20
0.0
 30
0.0
 70
   128
 71
    85
 72
    78
 73
    87
 74
   -85
  0
VERTEX
  5
3B1
330
2B6
100
AcDbEntity
  8
0
 62
   251
100
AcDbFaceRecord
 10
0.0
 20
0.0
 30
0.0
 70
   128
 71
    85
 72
    87
 73
    86
 74
   -85
  0
VERTEX
  5
3B2
330
2B6
100
AcDbEntity
  8
0
 62
   251
100
AcDbFaceRecord
 10
0.0
 20
0.0
 30
0.0
 70
   128
 71
    80
 72
    86
 73
    81
 74
   -80
  0
VERTEX
  5
3B3
330
2B6
100
AcDbEntity
  8
0
 62
   251
100
AcDbFaceRecord
 10
0.0
 20
0.0
 30
0.0
 70
   128
 71
    84
 72
    77
 73
    39
 74
   -84
  0
VERTEX
  5
3B4
330
2B6
100
AcDbEntity
  8
0
 62
   251
100
AcDbFaceRecord
 10
0.0
 20
0.0
 30
0.0
 70
   128
 71
    83
 72
    84
 73
    39
 74
   -83
  0
VERTEX
  5
3B5
330
2B6
100
AcDbEntity
  8
0
 62
   251
100
AcDbFaceRecord
 10
0.0
 20
0.0
 30
0.0
 70
   128
 71
    87
 72
    83
 73
    39
 74
   -87
  0
VERTEX
  5
3B6
330
2B6
100
AcDbEntity
  8
0
 62
   251
100
AcDbFaceRecord
 10
0.0
 20
0.0
 30
0.0
 70
   128
 71
    10
 72
    82
 73
    88
 74
   -10
  0
VERTEX
  5
3B7
330
2B6
100
AcDbEntity
  8
0
 62
   251
100
AcDbFaceRecord
 10
0.0
 20
0.0
 30
0.0
 70
   128
 71
    81
 72
    82
 73
    10
 74
   -81
  0
VERTEX
  5
3B8
330
2B6
100
AcDbEntity
  8
0
 62
   251
100
AcDbFaceRecord
 10
0.0
 20
0.0
 30
0.0
 70
   128
 71
    87
 72
    88
 73
    82
 74
   -87
  0
VERTEX
  5
3B9
330
2B6
100
AcDbEntity
  8
0
 62
   251
100
AcDbFaceRecord
 10
0.0
 20
0.0
 30
0.0
 70
   128
 71
    88
 72
    87
 73
    39
 74
   -88
  0
VERTEX
  5
3BA
330
2B6
100
AcDbEntity
  8
0
 62
   251
100
AcDbFaceRecord
 10
0.0
 20
0.0
 30
0.0
 70
   128
 71
    75
 72
    77
 73
    84
 74
   -75
  0
SEQEND
  5
3BB
330
2B6
100
AcDbEntity
  8
0
 62
   251
  0
POLYLINE
  5
3BC
330
1F
100
AcDbEntity
  8
0
 62
   251
100
AcDbPolyFaceMesh
 66
     1
 10
0.0
 20
0.0
 30
0.0
 70
    64
 71
     8
 72
    12
  0
VERTEX
  5
3BD
330
3BC
100
AcDbEntity
  8
0
 62
   251
100
AcDbVertex
100
AcDbPolyFaceMeshVertex
 10
-1653.34716796875
 20
-1748.223510742187
 30
426.4759521484375
 70
   192
  0
VERTEX
  5
3BE
330
3BC
100
AcDbEntity
  8
0
 62
   251
100
AcDbVertex
100
AcDbPolyFaceMeshVertex
 10
-1656.34716796875
 20
-1748.223510742187
 30
966.4759521484375
 70
   192
  0
VERTEX
  5
3BF
330
3BC
100
AcDbEntity
  8
0
 62
   251
100
AcDbVertex
100
AcDbPolyFaceMeshVertex
 10
-1656.34716796875
 20
-2188.223388671875
 30
426.4759521484375
 70
   192
  0
VERTEX
  5
3C0
330
3BC
100
AcDbEntity
  8
0
 62
   251
100
AcDbVertex
100
AcDbPolyFaceMeshVertex
 10
-1653.34716796875
 20
-2188.223388671875
 30
426.4759521484375
 70
   192
  0
VERTEX
  5
3C1
330
3BC
100
AcDbEntity
  8
0
 62
   251
100
AcDbVertex
100
AcDbPolyFaceMeshVertex
 10
-1656.34716796875
 20
-1748.223510742187
 30
426.4759521484375
 70
   192
  0
VERTEX
  5
3C2
330
3BC
100
AcDbEntity
  8
0
 62
   251
100
AcDbVertex
100
AcDbPolyFaceMeshVertex
 10
-1653.34716796875
 20
-1748.223510742187
 30
966.4759521484375
 70
   192
  0
VERTEX
  5
3C3
330
3BC
100
AcDbEntity
  8
0
 62
   251
100
AcDbVertex
100
AcDbPolyFaceMeshVertex
 10
-1656.34716796875
 20
-2188.223388671875
 30
966.4759521484375
 70
   192
  0
VERTEX
  5
3C4
330
3BC
100
AcDbEntity
  8
0
 62
   251
100
AcDbVertex
100
AcDbPolyFaceMeshVertex
 10
-1653.34716796875
 20
-2188.223388671875
 30
966.4759521484375
 70
   192
  0
VERTEX
  5
3C5
330
3BC
100
AcDbEntity
  8
0
 62
   251
100
AcDbFaceRecord
 10
0.0
 20
0.0
 30
0.0
 70
   128
 71
     4
 72
     1
 73
     6
 74
    -4
  0
VERTEX
  5
3C6
330
3BC
100
AcDbEntity
  8
0
 62
   251
100
AcDbFaceRecord
 10
0.0
 20
0.0
 30
0.0
 70
   128
 71
     8
 72
     4
 73
     6
 74
    -8
  0
VERTEX
  5
3C7
330
3BC
100
AcDbEntity
  8
0
 62
   251
100
AcDbFaceRecord
 10
0.0
 20
0.0
 30
0.0
 70
   128
 71
     7
 72
     2
 73
     5
 74
    -7
  0
VERTEX
  5
3C8
330
3BC
100
AcDbEntity
  8
0
 62
   251
100
AcDbFaceRecord
 10
0.0
 20
0.0
 30
0.0
 70
   128
 71
     3
 72
     7
 73
     5
 74
    -3
  0
VERTEX
  5
3C9
330
3BC
100
AcDbEntity
  8
0
 62
   251
100
AcDbFaceRecord
 10
0.0
 20
0.0
 30
0.0
 70
   128
 71
     8
 72
     7
 73
     3
 74
    -8
  0
VERTEX
  5
3CA
330
3BC
100
AcDbEntity
  8
0
 62
   251
100
AcDbFaceRecord
 10
0.0
 20
0.0
 30
0.0
 70
   128
 71
     4
 72
     8
 73
     3
 74
    -4
  0
VERTEX
  5
3CB
330
3BC
100
AcDbEntity
  8
0
 62
   251
100
AcDbFaceRecord
 10
0.0
 20
0.0
 30
0.0
 70
   128
 71
     4
 72
     3
 73
     5
 74
    -4
  0
VERTEX
  5
3CC
330
3BC
100
AcDbEntity
  8
0
 62
   251
100
AcDbFaceRecord
 10
0.0
 20
0.0
 30
0.0
 70
   128
 71
     1
 72
     4
 73
     5
 74
    -1
  0
VERTEX
  5
3CD
330
3BC
100
AcDbEntity
  8
0
 62
   251
100
AcDbFaceRecord
 10
0.0
 20
0.0
 30
0.0
 70
   128
 71
     1
 72
     5
 73
     2
 74
    -1
  0
VERTEX
  5
3CE
330
3BC
100
AcDbEntity
  8
0
 62
   251
100
AcDbFaceRecord
 10
0.0
 20
0.0
 30
0.0
 70
   128
 71
     6
 72
     1
 73
     2
 74
    -6
  0
VERTEX
  5
3CF
330
3BC
100
AcDbEntity
  8
0
 62
   251
100
AcDbFaceRecord
 10
0.0
 20
0.0
 30
0.0
 70
   128
 71
     6
 72
     2
 73
     7
 74
    -6
  0
VERTEX
  5
3D0
330
3BC
100
AcDbEntity
  8
0
 62
   251
100
AcDbFaceRecord
 10
0.0
 20
0.0
 30
0.0
 70
   128
 71
     8
 72
     6
 73
     7
 74
    -8
  0
SEQEND
  5
3D1
330
3BC
100
AcDbEntity
  8
0
 62
   251
  0
POLYLINE
  5
3D2
330
1F
100
AcDbEntity
  8
0
 62
   251
100
AcDbPolyFaceMesh
 66
     1
 10
0.0
 20
0.0
 30
0.0
 70
    64
 71
    56
 72
   104
  0
VERTEX
  5
3D3
330
3D2
100
AcDbEntity
  8
0
 62
   251
100
AcDbVertex
100
AcDbPolyFaceMeshVertex
 10
-1656.34716796875
 20
-1728.223510742187
 30
260.0252685546875
 70
   192
  0
VERTEX
  5
3D4
330
3D2
100
AcDbEntity
  8
0
 62
   251
100
AcDbVertex
100
AcDbPolyFaceMeshVertex
 10
-1656.34716796875
 20
-1728.223510742187
 30
380.0252685546875
 70
   192
  0
VERTEX
  5
3D5
330
3D2
100
AcDbEntity
  8
0
 62
   251
100
AcDbVertex
100
AcDbPolyFaceMeshVertex
 10
-1656.34716796875
 20
-2208.223388671875
 30
260.0252685546875
 70
   192
  0
VERTEX
  5
3D6
330
3D2
100
AcDbEntity
  8
0
 62
   251
100
AcDbVertex
100
AcDbPolyFaceMeshVertex
 10
-1651.34716796875
 20
-1728.223510742187
 30
260.0252685546875
 70
   192
  0
VERTEX
  5
3D7
330
3D2
100
AcDbEntity
  8
0
 62
   251
100
AcDbVertex
100
AcDbPolyFaceMeshVertex
 10
-1656.34716796875
 20
-2208.223388671875
 30
380.0252685546875
 70
   192
  0
VERTEX
  5
3D8
330
3D2
100
AcDbEntity
  8
0
 62
   251
100
AcDbVertex
100
AcDbPolyFaceMeshVertex
 10
-1646.34716796875
 20
-1733.223510742188
 30
375.0252685546875
 70
   192
  0
VERTEX
  5
3D9
330
3D2
100
AcDbEntity
  8
0
 62
   251
100
AcDbVertex
100
AcDbPolyFaceMeshVertex
 10
-1646.34716796875
 20
-2203.223388671875
 30
375.0252685546875
 70
   192
  0
VERTEX
  5
3DA
330
3D2
100
AcDbEntity
  8
0
 62
   251
100
AcDbVertex
100
AcDbPolyFaceMeshVertex
 10
-1649.433715820312
 20
-2207.8427734375
 30
260.4058837890625
 70
   192
  0
VERTEX
  5
3DB
330
3D2
100
AcDbEntity
  8
0
 62
   251
100
AcDbVertex
100
AcDbPolyFaceMeshVertex
 10
-1650.371704101562
 20
-2208.12744140625
 30
260.1213989257812
 70
   192
  0
VERTEX
  5
3DC
330
3D2
100
AcDbEntity
  8
0
 62
   251
100
AcDbVertex
100
AcDbPolyFaceMeshVertex
 10
-1651.34716796875
 20
-2208.223388671875
 30
260.0252685546875
 70
   192
  0
VERTEX
  5
3DD
330
3D2
100
AcDbEntity
  8
0
 62
   251
100
AcDbVertex
100
AcDbPolyFaceMeshVertex
 10
-1649.433715820312
 20
-1728.60400390625
 30
260.4058837890625
 70
   192
  0
VERTEX
  5
3DE
330
3D2
100
AcDbEntity
  8
0
 62
   251
100
AcDbVertex
100
AcDbPolyFaceMeshVertex
 10
-1647.811645507812
 20
-1729.687866210937
 30
378.5608520507813
 70
   192
  0
VERTEX
  5
3DF
330
3D2
100
AcDbEntity
  8
0
 62
   251
100
AcDbVertex
100
AcDbPolyFaceMeshVertex
 10
-1651.34716796875
 20
-1728.223510742187
 30
380.0252685546875
 70
   192
  0
VERTEX
  5
3E0
330
3D2
100
AcDbEntity
  8
0
 62
   251
100
AcDbVertex
100
AcDbPolyFaceMeshVertex
 10
-1650.371704101562
 20
-1728.319580078125
 30
260.1213989257812
 70
   192
  0
VERTEX
  5
3E1
330
3D2
100
AcDbEntity
  8
0
 62
   251
100
AcDbVertex
100
AcDbPolyFaceMeshVertex
 10
-1647.811645507812
 20
-1729.687866210937
 30
261.48974609375
 70
   192
  0
VERTEX
  5
3E2
330
3D2
100
AcDbEntity
  8
0
 62
   251
100
AcDbVertex
100
AcDbPolyFaceMeshVertex
 10
-1646.727783203125
 20
-1731.31005859375
 30
376.938720703125
 70
   192
  0
VERTEX
  5
3E3
330
3D2
100
AcDbEntity
  8
0
 62
   251
100
AcDbVertex
100
AcDbPolyFaceMeshVertex
 10
-1646.727783203125
 20
-1731.31005859375
 30
263.1118774414062
 70
   192
  0
VERTEX
  5
3E4
330
3D2
100
AcDbEntity
  8
0
 62
   251
100
AcDbVertex
100
AcDbPolyFaceMeshVertex
 10
-1646.34716796875
 20
-1733.223510742188
 30
265.0252685546875
 70
   192
  0
VERTEX
  5
3E5
330
3D2
100
AcDbEntity
  8
0
 62
   251
100
AcDbVertex
100
AcDbPolyFaceMeshVertex
 10
-1649.433715820312
 20
-1728.60400390625
 30
379.6447143554687
 70
   192
  0
VERTEX
  5
3E6
330
3D2
100
AcDbEntity
  8
0
 62
   251
100
AcDbVertex
100
AcDbPolyFaceMeshVertex
 10
-1650.371704101562
 20
-1728.319580078125
 30
379.92919921875
 70
   192
  0
VERTEX
  5
3E7
330
3D2
100
AcDbEntity
  8
0
 62
   251
100
AcDbVertex
100
AcDbPolyFaceMeshVertex
 10
-1646.727783203125
 20
-2205.136962890625
 30
376.938720703125
 70
   192
  0
VERTEX
  5
3E8
330
3D2
100
AcDbEntity
  8
0
 62
   251
100
AcDbVertex
100
AcDbPolyFaceMeshVertex
 10
-1646.727783203125
 20
-2205.136962890625
 30
263.1118774414062
 70
   192
  0
VERTEX
  5
3E9
330
3D2
100
AcDbEntity
  8
0
 62
   251
100
AcDbVertex
100
AcDbPolyFaceMeshVertex
 10
-1647.811645507812
 20
-2206.759033203125
 30
378.5608520507813
 70
   192
  0
VERTEX
  5
3EA
330
3D2
100
AcDbEntity
  8
0
 62
   251
100
AcDbVertex
100
AcDbPolyFaceMeshVertex
 10
-1647.811645507812
 20
-2206.759033203125
 30
261.48974609375
 70
   192
  0
VERTEX
  5
3EB
330
3D2
100
AcDbEntity
  8
0
 62
   251
100
AcDbVertex
100
AcDbPolyFaceMeshVertex
 10
-1651.34716796875
 20
-2208.223388671875
 30
380.0252685546875
 70
   192
  0
VERTEX
  5
3EC
330
3D2
100
AcDbEntity
  8
0
 62
   251
100
AcDbVertex
100
AcDbPolyFaceMeshVertex
 10
-1649.433715820312
 20
-2207.8427734375
 30
379.6447143554687
 70
   192
  0
VERTEX
  5
3ED
330
3D2
100
AcDbEntity
  8
0
 62
   251
100
AcDbVertex
100
AcDbPolyFaceMeshVertex
 10
-1650.371704101562
 20
-2208.12744140625
 30
379.92919921875
 70
   192
  0
VERTEX
  5
3EE
330
3D2
100
AcDbEntity
  8
0
 62
   251
100
AcDbVertex
100
AcDbPolyFaceMeshVertex
 10
-1646.34716796875
 20
-2203.223388671875
 30
265.0252685546875
 70
   192
  0
VERTEX
  5
3EF
330
3D2
100
AcDbEntity
  8
0
 62
   251
100
AcDbVertex
100
AcDbPolyFaceMeshVertex
 10
-1656.34716796875
 20
-2208.223388671875
 30
231.5807495117188
 70
   192
  0
VERTEX
  5
3F0
330
3D2
100
AcDbEntity
  8
0
 62
   251
100
AcDbVertex
100
AcDbPolyFaceMeshVertex
 10
-1656.34716796875
 20
-1728.223510742187
 30
231.5807495117188
 70
   192
  0
VERTEX
  5
3F1
330
3D2
100
AcDbEntity
  8
0
 62
   251
100
AcDbVertex
100
AcDbPolyFaceMeshVertex
 10
-1656.34716796875
 20
-1728.223510742187
 30
111.5807495117187
 70
   192
  0
VERTEX
  5
3F2
330
3D2
100
AcDbEntity
  8
0
 62
   251
100
AcDbVertex
100
AcDbPolyFaceMeshVertex
 10
-1651.34716796875
 20
-2208.223388671875
 30
231.5807495117188
 70
   192
  0
VERTEX
  5
3F3
330
3D2
100
AcDbEntity
  8
0
 62
   251
100
AcDbVertex
100
AcDbPolyFaceMeshVertex
 10
-1646.34716796875
 20
-1733.223510742188
 30
226.5807495117187
 70
   192
  0
VERTEX
  5
3F4
330
3D2
100
AcDbEntity
  8
0
 62
   251
100
AcDbVertex
100
AcDbPolyFaceMeshVertex
 10
-1646.34716796875
 20
-2203.223388671875
 30
226.5807495117187
 70
   192
  0
VERTEX
  5
3F5
330
3D2
100
AcDbEntity
  8
0
 62
   251
100
AcDbVertex
100
AcDbPolyFaceMeshVertex
 10
-1656.34716796875
 20
-2208.223388671875
 30
111.5807495117187
 70
   192
  0
VERTEX
  5
3F6
330
3D2
100
AcDbEntity
  8
0
 62
   251
100
AcDbVertex
100
AcDbPolyFaceMeshVertex
 10
-1651.34716796875
 20
-2208.223388671875
 30
111.5807495117187
 70
   192
  0
VERTEX
  5
3F7
330
3D2
100
AcDbEntity
  8
0
 62
   251
100
AcDbVertex
100
AcDbPolyFaceMeshVertex
 10
-1651.34716796875
 20
-1728.223510742187
 30
111.5807495117187
 70
   192
  0
VERTEX
  5
3F8
330
3D2
100
AcDbEntity
  8
0
 62
   251
100
AcDbVertex
100
AcDbPolyFaceMeshVertex
 10
-1646.727783203125
 20
-2205.136962890625
 30
114.6673583984375
 70
   192
  0
VERTEX
  5
3F9
330
3D2
100
AcDbEntity
  8
0
 62
   251
100
AcDbVertex
100
AcDbPolyFaceMeshVertex
 10
-1646.727783203125
 20
-1731.31005859375
 30
114.6673583984375
 70
   192
  0
VERTEX
  5
3FA
330
3D2
100
AcDbEntity
  8
0
 62
   251
100
AcDbVertex
100
AcDbPolyFaceMeshVertex
 10
-1649.433715820312
 20
-1728.60400390625
 30
111.9613647460937
 70
   192
  0
VERTEX
  5
3FB
330
3D2
100
AcDbEntity
  8
0
 62
   251
100
AcDbVertex
100
AcDbPolyFaceMeshVertex
 10
-1650.371704101562
 20
-1728.319580078125
 30
111.6768188476562
 70
   192
  0
VERTEX
  5
3FC
330
3D2
100
AcDbEntity
  8
0
 62
   251
100
AcDbVertex
100
AcDbPolyFaceMeshVertex
 10
-1650.371704101562
 20
-2208.12744140625
 30
111.6768188476562
 70
   192
  0
VERTEX
  5
3FD
330
3D2
100
AcDbEntity
  8
0
 62
   251
100
AcDbVertex
100
AcDbPolyFaceMeshVertex
 10
-1647.811645507812
 20
-1729.687866210937
 30
113.0452270507812
 70
   192
  0
VERTEX
  5
3FE
330
3D2
100
AcDbEntity
  8
0
 62
   251
100
AcDbVertex
100
AcDbPolyFaceMeshVertex
 10
-1646.34716796875
 20
-1733.223510742188
 30
116.5807495117187
 70
   192
  0
VERTEX
  5
3FF
330
3D2
100
AcDbEntity
  8
0
 62
   251
100
AcDbVertex
100
AcDbPolyFaceMeshVertex
 10
-1647.811645507812
 20
-1729.687866210937
 30
230.1162719726562
 70
   192
  0
VERTEX
  5
400
330
3D2
100
AcDbEntity
  8
0
 62
   251
100
AcDbVertex
100
AcDbPolyFaceMeshVertex
 10
-1651.34716796875
 20
-1728.223510742187
 30
231.5807495117188
 70
   192
  0
VERTEX
  5
401
330
3D2
100
AcDbEntity
  8
0
 62
   251
100
AcDbVertex
100
AcDbPolyFaceMeshVertex
 10
-1650.371704101562
 20
-1728.319580078125
 30
231.4846801757813
 70
   192
  0
VERTEX
  5
402
330
3D2
100
AcDbEntity
  8
0
 62
   251
100
AcDbVertex
100
AcDbPolyFaceMeshVertex
 10
-1650.371704101562
 20
-2208.12744140625
 30
231.4846801757813
 70
   192
  0
VERTEX
  5
403
330
3D2
100
AcDbEntity
  8
0
 62
   251
100
AcDbVertex
100
AcDbPolyFaceMeshVertex
 10
-1649.433715820312
 20
-1728.60400390625
 30
231.2001342773438
 70
   192
  0
VERTEX
  5
404
330
3D2
100
AcDbEntity
  8
0
 62
   251
100
AcDbVertex
100
AcDbPolyFaceMeshVertex
 10
-1646.727783203125
 20
-1731.31005859375
 30
228.4942016601562
 70
   192
  0
VERTEX
  5
405
330
3D2
100
AcDbEntity
  8
0
 62
   251
100
AcDbVertex
100
AcDbPolyFaceMeshVertex
 10
-1649.433715820312
 20
-2207.8427734375
 30
231.2001342773438
 70
   192
  0
VERTEX
  5
406
330
3D2
100
AcDbEntity
  8
0
 62
   251
100
AcDbVertex
100
AcDbPolyFaceMeshVertex
 10
-1647.811645507812
 20
-2206.759033203125
 30
113.0452270507812
 70
   192
  0
VERTEX
  5
407
330
3D2
100
AcDbEntity
  8
0
 62
   251
100
AcDbVertex
100
AcDbPolyFaceMeshVertex
 10
-1649.433715820312
 20
-2207.8427734375
 30
111.9613647460937
 70
   192
  0
VERTEX
  5
408
330
3D2
100
AcDbEntity
  8
0
 62
   251
100
AcDbVertex
100
AcDbPolyFaceMeshVertex
 10
-1647.811645507812
 20
-2206.759033203125
 30
230.1162719726562
 70
   192
  0
VERTEX
  5
409
330
3D2
100
AcDbEntity
  8
0
 62
   251
100
AcDbVertex
100
AcDbPolyFaceMeshVertex
 10
-1646.34716796875
 20
-2203.223388671875
 30
116.5807495117187
 70
   192
  0
VERTEX
  5
40A
330
3D2
100
AcDbEntity
  8
0
 62
   251
100
AcDbVertex
100
AcDbPolyFaceMeshVertex
 10
-1646.727783203125
 20
-2205.136962890625
 30
228.4942016601562
 70
   192
  0
VERTEX
  5
40B
330
3D2
100
AcDbEntity
  8
0
 62
   251
100
AcDbFaceRecord
 10
0.0
 20
0.0
 30
0.0
 70
   128
 71
     5
 72
     2
 73
     1
 74
    -5
  0
VERTEX
  5
40C
330
3D2
100
AcDbEntity
  8
0
 62
   251
100
AcDbFaceRecord
 10
0.0
 20
0.0
 30
0.0
 70
   128
 71
     3
 72
     5
 73
     1
 74
    -3
  0
VERTEX
  5
40D
330
3D2
100
AcDbEntity
  8
0
 62
   251
100
AcDbFaceRecord
 10
0.0
 20
0.0
 30
0.0
 70
   128
 71
     4
 72
     1
 73
     2
 74
    -4
  0
VERTEX
  5
40E
330
3D2
100
AcDbEntity
  8
0
 62
   251
100
AcDbFaceRecord
 10
0.0
 20
0.0
 30
0.0
 70
   128
 71
    13
 72
     4
 73
     2
 74
   -13
  0
VERTEX
  5
40F
330
3D2
100
AcDbEntity
  8
0
 62
   251
100
AcDbFaceRecord
 10
0.0
 20
0.0
 30
0.0
 70
   128
 71
    13
 72
     2
 73
     5
 74
   -13
  0
VERTEX
  5
410
330
3D2
100
AcDbEntity
  8
0
 62
   251
100
AcDbFaceRecord
 10
0.0
 20
0.0
 30
0.0
 70
   128
 71
    25
 72
    13
 73
     5
 74
   -25
  0
VERTEX
  5
411
330
3D2
100
AcDbEntity
  8
0
 62
   251
100
AcDbFaceRecord
 10
0.0
 20
0.0
 30
0.0
 70
   128
 71
    28
 72
    18
 73
     6
 74
   -28
  0
VERTEX
  5
412
330
3D2
100
AcDbEntity
  8
0
 62
   251
100
AcDbFaceRecord
 10
0.0
 20
0.0
 30
0.0
 70
   128
 71
     7
 72
    28
 73
     6
 74
    -7
  0
VERTEX
  5
413
330
3D2
100
AcDbEntity
  8
0
 62
   251
100
AcDbFaceRecord
 10
0.0
 20
0.0
 30
0.0
 70
   128
 71
    25
 72
     5
 73
     3
 74
   -25
  0
VERTEX
  5
414
330
3D2
100
AcDbEntity
  8
0
 62
   251
100
AcDbFaceRecord
 10
0.0
 20
0.0
 30
0.0
 70
   128
 71
    10
 72
    25
 73
     3
 74
   -10
  0
VERTEX
  5
415
330
3D2
100
AcDbEntity
  8
0
 62
   251
100
AcDbFaceRecord
 10
0.0
 20
0.0
 30
0.0
 70
   128
 71
    10
 72
     3
 73
     1
 74
   -10
  0
VERTEX
  5
416
330
3D2
100
AcDbEntity
  8
0
 62
   251
100
AcDbFaceRecord
 10
0.0
 20
0.0
 30
0.0
 70
   128
 71
     4
 72
    10
 73
     1
 74
    -4
  0
VERTEX
  5
417
330
3D2
100
AcDbEntity
  8
0
 62
   251
100
AcDbFaceRecord
 10
0.0
 20
0.0
 30
0.0
 70
   128
 71
    24
 72
    17
 73
    22
 74
   -24
  0
VERTEX
  5
418
330
3D2
100
AcDbEntity
  8
0
 62
   251
100
AcDbFaceRecord
 10
0.0
 20
0.0
 30
0.0
 70
   128
 71
    15
 72
    17
 73
    24
 74
   -15
  0
VERTEX
  5
419
330
3D2
100
AcDbEntity
  8
0
 62
   251
100
AcDbFaceRecord
 10
0.0
 20
0.0
 30
0.0
 70
   128
 71
     9
 72
    11
 73
     8
 74
    -9
  0
VERTEX
  5
41A
330
3D2
100
AcDbEntity
  8
0
 62
   251
100
AcDbFaceRecord
 10
0.0
 20
0.0
 30
0.0
 70
   128
 71
    14
 72
    11
 73
     9
 74
   -14
  0
VERTEX
  5
41B
330
3D2
100
AcDbEntity
  8
0
 62
   251
100
AcDbFaceRecord
 10
0.0
 20
0.0
 30
0.0
 70
   128
 71
    10
 72
     4
 73
    14
 74
   -10
  0
VERTEX
  5
41C
330
3D2
100
AcDbEntity
  8
0
 62
   251
100
AcDbFaceRecord
 10
0.0
 20
0.0
 30
0.0
 70
   128
 71
    10
 72
    14
 73
     9
 74
   -10
  0
VERTEX
  5
41D
330
3D2
100
AcDbEntity
  8
0
 62
   251
100
AcDbFaceRecord
 10
0.0
 20
0.0
 30
0.0
 70
   128
 71
    15
 72
     8
 73
    11
 74
   -15
  0
VERTEX
  5
41E
330
3D2
100
AcDbEntity
  8
0
 62
   251
100
AcDbFaceRecord
 10
0.0
 20
0.0
 30
0.0
 70
   128
 71
     8
 72
    15
 73
    24
 74
    -8
  0
VERTEX
  5
41F
330
3D2
100
AcDbEntity
  8
0
 62
   251
100
AcDbFaceRecord
 10
0.0
 20
0.0
 30
0.0
 70
   128
 71
    18
 72
    22
 73
    17
 74
   -18
  0
VERTEX
  5
420
330
3D2
100
AcDbEntity
  8
0
 62
   251
100
AcDbFaceRecord
 10
0.0
 20
0.0
 30
0.0
 70
   128
 71
    28
 72
    22
 73
    18
 74
   -28
  0
VERTEX
  5
421
330
3D2
100
AcDbEntity
  8
0
 62
   251
100
AcDbFaceRecord
 10
0.0
 20
0.0
 30
0.0
 70
   128
 71
    15
 72
    16
 73
    17
 74
   -15
  0
VERTEX
  5
422
330
3D2
100
AcDbEntity
  8
0
 62
   251
100
AcDbFaceRecord
 10
0.0
 20
0.0
 30
0.0
 70
   128
 71
    12
 72
    16
 73
    15
 74
   -12
  0
VERTEX
  5
423
330
3D2
100
AcDbEntity
  8
0
 62
   251
100
AcDbFaceRecord
 10
0.0
 20
0.0
 30
0.0
 70
   128
 71
    19
 72
    12
 73
    11
 74
   -19
  0
VERTEX
  5
424
330
3D2
100
AcDbEntity
  8
0
 62
   251
100
AcDbFaceRecord
 10
0.0
 20
0.0
 30
0.0
 70
   128
 71
    20
 72
    19
 73
    11
 74
   -20
  0
VERTEX
  5
425
330
3D2
100
AcDbEntity
  8
0
 62
   251
100
AcDbFaceRecord
 10
0.0
 20
0.0
 30
0.0
 70
   128
 71
     4
 72
    13
 73
    20
 74
    -4
  0
VERTEX
  5
426
330
3D2
100
AcDbEntity
  8
0
 62
   251
100
AcDbFaceRecord
 10
0.0
 20
0.0
 30
0.0
 70
   128
 71
    14
 72
     4
 73
    20
 74
   -14
  0
VERTEX
  5
427
330
3D2
100
AcDbEntity
  8
0
 62
   251
100
AcDbFaceRecord
 10
0.0
 20
0.0
 30
0.0
 70
   128
 71
    14
 72
    20
 73
    11
 74
   -14
  0
VERTEX
  5
428
330
3D2
100
AcDbEntity
  8
0
 62
   251
100
AcDbFaceRecord
 10
0.0
 20
0.0
 30
0.0
 70
   128
 71
    11
 72
    12
 73
    15
 74
   -11
  0
VERTEX
  5
429
330
3D2
100
AcDbEntity
  8
0
 62
   251
100
AcDbFaceRecord
 10
0.0
 20
0.0
 30
0.0
 70
   128
 71
     6
 72
    17
 73
    16
 74
    -6
  0
VERTEX
  5
42A
330
3D2
100
AcDbEntity
  8
0
 62
   251
100
AcDbFaceRecord
 10
0.0
 20
0.0
 30
0.0
 70
   128
 71
    18
 72
    17
 73
     6
 74
   -18
  0
VERTEX
  5
42B
330
3D2
100
AcDbEntity
  8
0
 62
   251
100
AcDbFaceRecord
 10
0.0
 20
0.0
 30
0.0
 70
   128
 71
    12
 72
    21
 73
    16
 74
   -12
  0
VERTEX
  5
42C
330
3D2
100
AcDbEntity
  8
0
 62
   251
100
AcDbFaceRecord
 10
0.0
 20
0.0
 30
0.0
 70
   128
 71
    23
 72
    21
 73
    12
 74
   -23
  0
VERTEX
  5
42D
330
3D2
100
AcDbEntity
  8
0
 62
   251
100
AcDbFaceRecord
 10
0.0
 20
0.0
 30
0.0
 70
   128
 71
    26
 72
    23
 73
    19
 74
   -26
  0
VERTEX
  5
42E
330
3D2
100
AcDbEntity
  8
0
 62
   251
100
AcDbFaceRecord
 10
0.0
 20
0.0
 30
0.0
 70
   128
 71
    27
 72
    26
 73
    19
 74
   -27
  0
VERTEX
  5
42F
330
3D2
100
AcDbEntity
  8
0
 62
   251
100
AcDbFaceRecord
 10
0.0
 20
0.0
 30
0.0
 70
   128
 71
    13
 72
    25
 73
    27
 74
   -13
  0
VERTEX
  5
430
330
3D2
100
AcDbEntity
  8
0
 62
   251
100
AcDbFaceRecord
 10
0.0
 20
0.0
 30
0.0
 70
   128
 71
    20
 72
    13
 73
    27
 74
   -20
  0
VERTEX
  5
431
330
3D2
100
AcDbEntity
  8
0
 62
   251
100
AcDbFaceRecord
 10
0.0
 20
0.0
 30
0.0
 70
   128
 71
    20
 72
    27
 73
    19
 74
   -20
  0
VERTEX
  5
432
330
3D2
100
AcDbEntity
  8
0
 62
   251
100
AcDbFaceRecord
 10
0.0
 20
0.0
 30
0.0
 70
   128
 71
    19
 72
    23
 73
    12
 74
   -19
  0
VERTEX
  5
433
330
3D2
100
AcDbEntity
  8
0
 62
   251
100
AcDbFaceRecord
 10
0.0
 20
0.0
 30
0.0
 70
   128
 71
     7
 72
    16
 73
    21
 74
    -7
  0
VERTEX
  5
434
330
3D2
100
AcDbEntity
  8
0
 62
   251
100
AcDbFaceRecord
 10
0.0
 20
0.0
 30
0.0
 70
   128
 71
     6
 72
    16
 73
     7
 74
    -6
  0
VERTEX
  5
435
330
3D2
100
AcDbEntity
  8
0
 62
   251
100
AcDbFaceRecord
 10
0.0
 20
0.0
 30
0.0
 70
   128
 71
    23
 72
    22
 73
    21
 74
   -23
  0
VERTEX
  5
436
330
3D2
100
AcDbEntity
  8
0
 62
   251
100
AcDbFaceRecord
 10
0.0
 20
0.0
 30
0.0
 70
   128
 71
    24
 72
    22
 73
    23
 74
   -24
  0
VERTEX
  5
437
330
3D2
100
AcDbEntity
  8
0
 62
   251
100
AcDbFaceRecord
 10
0.0
 20
0.0
 30
0.0
 70
   128
 71
     8
 72
    24
 73
    26
 74
    -8
  0
VERTEX
  5
438
330
3D2
100
AcDbEntity
  8
0
 62
   251
100
AcDbFaceRecord
 10
0.0
 20
0.0
 30
0.0
 70
   128
 71
     9
 72
     8
 73
    26
 74
    -9
  0
VERTEX
  5
439
330
3D2
100
AcDbEntity
  8
0
 62
   251
100
AcDbFaceRecord
 10
0.0
 20
0.0
 30
0.0
 70
   128
 71
    25
 72
    10
 73
     9
 74
   -25
  0
VERTEX
  5
43A
330
3D2
100
AcDbEntity
  8
0
 62
   251
100
AcDbFaceRecord
 10
0.0
 20
0.0
 30
0.0
 70
   128
 71
    27
 72
    25
 73
     9
 74
   -27
  0
VERTEX
  5
43B
330
3D2
100
AcDbEntity
  8
0
 62
   251
100
AcDbFaceRecord
 10
0.0
 20
0.0
 30
0.0
 70
   128
 71
    27
 72
     9
 73
    26
 74
   -27
  0
VERTEX
  5
43C
330
3D2
100
AcDbEntity
  8
0
 62
   251
100
AcDbFaceRecord
 10
0.0
 20
0.0
 30
0.0
 70
   128
 71
    26
 72
    24
 73
    23
 74
   -26
  0
VERTEX
  5
43D
330
3D2
100
AcDbEntity
  8
0
 62
   251
100
AcDbFaceRecord
 10
0.0
 20
0.0
 30
0.0
 70
   128
 71
    28
 72
    21
 73
    22
 74
   -28
  0
VERTEX
  5
43E
330
3D2
100
AcDbEntity
  8
0
 62
   251
100
AcDbFaceRecord
 10
0.0
 20
0.0
 30
0.0
 70
   128
 71
     7
 72
    21
 73
    28
 74
    -7
  0
VERTEX
  5
43F
330
3D2
100
AcDbEntity
  8
0
 62
   251
100
AcDbFaceRecord
 10
0.0
 20
0.0
 30
0.0
 70
   128
 71
    29
 72
    30
 73
    31
 74
   -29
  0
VERTEX
  5
440
330
3D2
100
AcDbEntity
  8
0
 62
   251
100
AcDbFaceRecord
 10
0.0
 20
0.0
 30
0.0
 70
   128
 71
    35
 72
    29
 73
    31
 74
   -35
  0
VERTEX
  5
441
330
3D2
100
AcDbEntity
  8
0
 62
   251
100
AcDbFaceRecord
 10
0.0
 20
0.0
 30
0.0
 70
   128
 71
    37
 72
    31
 73
    30
 74
   -37
  0
VERTEX
  5
442
330
3D2
100
AcDbEntity
  8
0
 62
   251
100
AcDbFaceRecord
 10
0.0
 20
0.0
 30
0.0
 70
   128
 71
    46
 72
    37
 73
    30
 74
   -46
  0
VERTEX
  5
443
330
3D2
100
AcDbEntity
  8
0
 62
   251
100
AcDbFaceRecord
 10
0.0
 20
0.0
 30
0.0
 70
   128
 71
    46
 72
    30
 73
    29
 74
   -46
  0
VERTEX
  5
444
330
3D2
100
AcDbEntity
  8
0
 62
   251
100
AcDbFaceRecord
 10
0.0
 20
0.0
 30
0.0
 70
   128
 71
    32
 72
    46
 73
    29
 74
   -32
  0
VERTEX
  5
445
330
3D2
100
AcDbEntity
  8
0
 62
   251
100
AcDbFaceRecord
 10
0.0
 20
0.0
 30
0.0
 70
   128
 71
    55
 72
    44
 73
    33
 74
   -55
  0
VERTEX
  5
446
330
3D2
100
AcDbEntity
  8
0
 62
   251
100
AcDbFaceRecord
 10
0.0
 20
0.0
 30
0.0
 70
   128
 71
    34
 72
    55
 73
    33
 74
   -34
  0
VERTEX
  5
447
330
3D2
100
AcDbEntity
  8
0
 62
   251
100
AcDbFaceRecord
 10
0.0
 20
0.0
 30
0.0
 70
   128
 71
    32
 72
    29
 73
    35
 74
   -32
  0
VERTEX
  5
448
330
3D2
100
AcDbEntity
  8
0
 62
   251
100
AcDbFaceRecord
 10
0.0
 20
0.0
 30
0.0
 70
   128
 71
    36
 72
    32
 73
    35
 74
   -36
  0
VERTEX
  5
449
330
3D2
100
AcDbEntity
  8
0
 62
   251
100
AcDbFaceRecord
 10
0.0
 20
0.0
 30
0.0
 70
   128
 71
    36
 72
    35
 73
    31
 74
   -36
  0
VERTEX
  5
44A
330
3D2
100
AcDbEntity
  8
0
 62
   251
100
AcDbFaceRecord
 10
0.0
 20
0.0
 30
0.0
 70
   128
 71
    37
 72
    36
 73
    31
 74
   -37
  0
VERTEX
  5
44B
330
3D2
100
AcDbEntity
  8
0
 62
   251
100
AcDbFaceRecord
 10
0.0
 20
0.0
 30
0.0
 70
   128
 71
    52
 72
    39
 73
    38
 74
   -52
  0
VERTEX
  5
44C
330
3D2
100
AcDbEntity
  8
0
 62
   251
100
AcDbFaceRecord
 10
0.0
 20
0.0
 30
0.0
 70
   128
 71
    43
 72
    39
 73
    52
 74
   -43
  0
VERTEX
  5
44D
330
3D2
100
AcDbEntity
  8
0
 62
   251
100
AcDbFaceRecord
 10
0.0
 20
0.0
 30
0.0
 70
   128
 71
    42
 72
    40
 73
    53
 74
   -42
  0
VERTEX
  5
44E
330
3D2
100
AcDbEntity
  8
0
 62
   251
100
AcDbFaceRecord
 10
0.0
 20
0.0
 30
0.0
 70
   128
 71
    41
 72
    40
 73
    42
 74
   -41
  0
VERTEX
  5
44F
330
3D2
100
AcDbEntity
  8
0
 62
   251
100
AcDbFaceRecord
 10
0.0
 20
0.0
 30
0.0
 70
   128
 71
    36
 72
    37
 73
    41
 74
   -36
  0
VERTEX
  5
450
330
3D2
100
AcDbEntity
  8
0
 62
   251
100
AcDbFaceRecord
 10
0.0
 20
0.0
 30
0.0
 70
   128
 71
    36
 72
    41
 73
    42
 74
   -36
  0
VERTEX
  5
451
330
3D2
100
AcDbEntity
  8
0
 62
   251
100
AcDbFaceRecord
 10
0.0
 20
0.0
 30
0.0
 70
   128
 71
    43
 72
    53
 73
    40
 74
   -43
  0
VERTEX
  5
452
330
3D2
100
AcDbEntity
  8
0
 62
   251
100
AcDbFaceRecord
 10
0.0
 20
0.0
 30
0.0
 70
   128
 71
    53
 72
    43
 73
    52
 74
   -53
  0
VERTEX
  5
453
330
3D2
100
AcDbEntity
  8
0
 62
   251
100
AcDbFaceRecord
 10
0.0
 20
0.0
 30
0.0
 70
   128
 71
    44
 72
    38
 73
    39
 74
   -44
  0
VERTEX
  5
454
330
3D2
100
AcDbEntity
  8
0
 62
   251
100
AcDbFaceRecord
 10
0.0
 20
0.0
 30
0.0
 70
   128
 71
    55
 72
    38
 73
    44
 74
   -55
  0
VERTEX
  5
455
330
3D2
100
AcDbEntity
  8
0
 62
   251
100
AcDbFaceRecord
 10
0.0
 20
0.0
 30
0.0
 70
   128
 71
    43
 72
    50
 73
    39
 74
   -43
  0
VERTEX
  5
456
330
3D2
100
AcDbEntity
  8
0
 62
   251
100
AcDbFaceRecord
 10
0.0
 20
0.0
 30
0.0
 70
   128
 71
    45
 72
    50
 73
    43
 74
   -45
  0
VERTEX
  5
457
330
3D2
100
AcDbEntity
  8
0
 62
   251
100
AcDbFaceRecord
 10
0.0
 20
0.0
 30
0.0
 70
   128
 71
    49
 72
    45
 73
    40
 74
   -49
  0
VERTEX
  5
458
330
3D2
100
AcDbEntity
  8
0
 62
   251
100
AcDbFaceRecord
 10
0.0
 20
0.0
 30
0.0
 70
   128
 71
    47
 72
    49
 73
    40
 74
   -47
  0
VERTEX
  5
459
330
3D2
100
AcDbEntity
  8
0
 62
   251
100
AcDbFaceRecord
 10
0.0
 20
0.0
 30
0.0
 70
   128
 71
    37
 72
    46
 73
    47
 74
   -37
  0
VERTEX
  5
45A
330
3D2
100
AcDbEntity
  8
0
 62
   251
100
AcDbFaceRecord
 10
0.0
 20
0.0
 30
0.0
 70
   128
 71
    41
 72
    37
 73
    47
 74
   -41
  0
VERTEX
  5
45B
330
3D2
100
AcDbEntity
  8
0
 62
   251
100
AcDbFaceRecord
 10
0.0
 20
0.0
 30
0.0
 70
   128
 71
    41
 72
    47
 73
    40
 74
   -41
  0
VERTEX
  5
45C
330
3D2
100
AcDbEntity
  8
0
 62
   251
100
AcDbFaceRecord
 10
0.0
 20
0.0
 30
0.0
 70
   128
 71
    40
 72
    45
 73
    43
 74
   -40
  0
VERTEX
  5
45D
330
3D2
100
AcDbEntity
  8
0
 62
   251
100
AcDbFaceRecord
 10
0.0
 20
0.0
 30
0.0
 70
   128
 71
    33
 72
    39
 73
    50
 74
   -33
  0
VERTEX
  5
45E
330
3D2
100
AcDbEntity
  8
0
 62
   251
100
AcDbFaceRecord
 10
0.0
 20
0.0
 30
0.0
 70
   128
 71
    44
 72
    39
 73
    33
 74
   -44
  0
VERTEX
  5
45F
330
3D2
100
AcDbEntity
  8
0
 62
   251
100
AcDbFaceRecord
 10
0.0
 20
0.0
 30
0.0
 70
   128
 71
    45
 72
    56
 73
    50
 74
   -45
  0
VERTEX
  5
460
330
3D2
100
AcDbEntity
  8
0
 62
   251
100
AcDbFaceRecord
 10
0.0
 20
0.0
 30
0.0
 70
   128
 71
    54
 72
    56
 73
    45
 74
   -54
  0
VERTEX
  5
461
330
3D2
100
AcDbEntity
  8
0
 62
   251
100
AcDbFaceRecord
 10
0.0
 20
0.0
 30
0.0
 70
   128
 71
    51
 72
    54
 73
    49
 74
   -51
  0
VERTEX
  5
462
330
3D2
100
AcDbEntity
  8
0
 62
   251
100
AcDbFaceRecord
 10
0.0
 20
0.0
 30
0.0
 70
   128
 71
    48
 72
    51
 73
    49
 74
   -48
  0
VERTEX
  5
463
330
3D2
100
AcDbEntity
  8
0
 62
   251
100
AcDbFaceRecord
 10
0.0
 20
0.0
 30
0.0
 70
   128
 71
    46
 72
    32
 73
    48
 74
   -46
  0
VERTEX
  5
464
330
3D2
100
AcDbEntity
  8
0
 62
   251
100
AcDbFaceRecord
 10
0.0
 20
0.0
 30
0.0
 70
   128
 71
    47
 72
    46
 73
    48
 74
   -47
  0
VERTEX
  5
465
330
3D2
100
AcDbEntity
  8
0
 62
   251
100
AcDbFaceRecord
 10
0.0
 20
0.0
 30
0.0
 70
   128
 71
    47
 72
    48
 73
    49
 74
   -47
  0
VERTEX
  5
466
330
3D2
100
AcDbEntity
  8
0
 62
   251
100
AcDbFaceRecord
 10
0.0
 20
0.0
 30
0.0
 70
   128
 71
    49
 72
    54
 73
    45
 74
   -49
  0
VERTEX
  5
467
330
3D2
100
AcDbEntity
  8
0
 62
   251
100
AcDbFaceRecord
 10
0.0
 20
0.0
 30
0.0
 70
   128
 71
    34
 72
    50
 73
    56
 74
   -34
  0
VERTEX
  5
468
330
3D2
100
AcDbEntity
  8
0
 62
   251
100
AcDbFaceRecord
 10
0.0
 20
0.0
 30
0.0
 70
   128
 71
    33
 72
    50
 73
    34
 74
   -33
  0
VERTEX
  5
469
330
3D2
100
AcDbEntity
  8
0
 62
   251
100
AcDbFaceRecord
 10
0.0
 20
0.0
 30
0.0
 70
   128
 71
    54
 72
    38
 73
    56
 74
   -54
  0
VERTEX
  5
46A
330
3D2
100
AcDbEntity
  8
0
 62
   251
100
AcDbFaceRecord
 10
0.0
 20
0.0
 30
0.0
 70
   128
 71
    52
 72
    38
 73
    54
 74
   -52
  0
VERTEX
  5
46B
330
3D2
100
AcDbEntity
  8
0
 62
   251
100
AcDbFaceRecord
 10
0.0
 20
0.0
 30
0.0
 70
   128
 71
    53
 72
    52
 73
    51
 74
   -53
  0
VERTEX
  5
46C
330
3D2
100
AcDbEntity
  8
0
 62
   251
100
AcDbFaceRecord
 10
0.0
 20
0.0
 30
0.0
 70
   128
 71
    42
 72
    53
 73
    51
 74
   -42
  0
VERTEX
  5
46D
330
3D2
100
AcDbEntity
  8
0
 62
   251
100
AcDbFaceRecord
 10
0.0
 20
0.0
 30
0.0
 70
   128
 71
    36
 72
    42
 73
    48
 74
   -36
  0
VERTEX
  5
46E
330
3D2
100
AcDbEntity
  8
0
 62
   251
100
AcDbFaceRecord
 10
0.0
 20
0.0
 30
0.0
 70
   128
 71
    32
 72
    36
 73
    48
 74
   -32
  0
VERTEX
  5
46F
330
3D2
100
AcDbEntity
  8
0
 62
   251
100
AcDbFaceRecord
 10
0.0
 20
0.0
 30
0.0
 70
   128
 71
    48
 72
    42
 73
    51
 74
   -48
  0
VERTEX
  5
470
330
3D2
100
AcDbEntity
  8
0
 62
   251
100
AcDbFaceRecord
 10
0.0
 20
0.0
 30
0.0
 70
   128
 71
    51
 72
    52
 73
    54
 74
   -51
  0
VERTEX
  5
471
330
3D2
100
AcDbEntity
  8
0
 62
   251
100
AcDbFaceRecord
 10
0.0
 20
0.0
 30
0.0
 70
   128
 71
    55
 72
    56
 73
    38
 74
   -55
  0
VERTEX
  5
472
330
3D2
100
AcDbEntity
  8
0
 62
   251
100
AcDbFaceRecord
 10
0.0
 20
0.0
 30
0.0
 70
   128
 71
    34
 72
    56
 73
    55
 74
   -34
  0
SEQEND
  5
473
330
3D2
100
AcDbEntity
  8
0
 62
   251
  0
POLYLINE
  5
474
330
1F
100
AcDbEntity
  8
0
 62
   251
100
AcDbPolyFaceMesh
 66
     1
 10
0.0
 20
0.0
 30
0.0
 70
    64
 71
    24
 72
    52
  0
VERTEX
  5
475
330
474
100
AcDbEntity
  8
0
 62
   251
100
AcDbVertex
100
AcDbPolyFaceMeshVertex
 10
-1945.34716796875
 20
-2238.223388671875
 30
1006.204223632812
 70
   192
  0
VERTEX
  5
476
330
474
100
AcDbEntity
  8
0
 62
   251
100
AcDbVertex
100
AcDbPolyFaceMeshVertex
 10
-1945.34716796875
 20
-1698.223510742187
 30
1006.204223632812
 70
   192
  0
VERTEX
  5
477
330
474
100
AcDbEntity
  8
0
 62
   251
100
AcDbVertex
100
AcDbPolyFaceMeshVertex
 10
-1950.34716796875
 20
-2243.223388671875
 30
86.2042236328125
 70
   192
  0
VERTEX
  5
478
330
474
100
AcDbEntity
  8
0
 62
   251
100
AcDbVertex
100
AcDbPolyFaceMeshVertex
 10
-1661.34716796875
 20
-1698.223510742187
 30
86.2042236328125
 70
   192
  0
VERTEX
  5
479
330
474
100
AcDbEntity
  8
0
 62
   251
100
AcDbVertex
100
AcDbPolyFaceMeshVertex
 10
-1656.34716796875
 20
-2243.223388671875
 30
86.2042236328125
 70
   192
  0
VERTEX
  5
47A
330
474
100
AcDbEntity
  8
0
 62
   251
100
AcDbVertex
100
AcDbPolyFaceMeshVertex
 10
-1945.34716796875
 20
-1698.223510742187
 30
86.2042236328125
 70
   192
  0
VERTEX
  5
47B
330
474
100
AcDbEntity
  8
0
 62
   251
100
AcDbVertex
100
AcDbPolyFaceMeshVertex
 10
-1661.34716796875
 20
-2238.223388671875
 30
86.2042236328125
 70
   192
  0
VERTEX
  5
47C
330
474
100
AcDbEntity
  8
0
 62
   251
100
AcDbVertex
100
AcDbPolyFaceMeshVertex
 10
-1945.34716796875
 20
-2238.223388671875
 30
86.2042236328125
 70
   192
  0
VERTEX
  5
47D
330
474
100
AcDbEntity
  8
0
 62
   251
100
AcDbVertex
100
AcDbPolyFaceMeshVertex
 10
-1661.34716796875
 20
-2188.223388671875
 30
426.4759521484375
 70
   192
  0
VERTEX
  5
47E
330
474
100
AcDbEntity
  8
0
 62
   251
100
AcDbVertex
100
AcDbPolyFaceMeshVertex
 10
-1661.34716796875
 20
-2238.223388671875
 30
1006.204223632812
 70
   192
  0
VERTEX
  5
47F
330
474
100
AcDbEntity
  8
0
 62
   251
100
AcDbVertex
100
AcDbPolyFaceMeshVertex
 10
-1661.34716796875
 20
-1698.223510742187
 30
1006.204223632812
 70
   192
  0
VERTEX
  5
480
330
474
100
AcDbEntity
  8
0
 62
   251
100
AcDbVertex
100
AcDbPolyFaceMeshVertex
 10
-1661.34716796875
 20
-1748.223510742187
 30
426.4759521484375
 70
   192
  0
VERTEX
  5
481
330
474
100
AcDbEntity
  8
0
 62
   251
100
AcDbVertex
100
AcDbPolyFaceMeshVertex
 10
-1656.34716796875
 20
-1693.223510742187
 30
1006.204223632812
 70
   192
  0
VERTEX
  5
482
330
474
100
AcDbEntity
  8
0
 62
   251
100
AcDbVertex
100
AcDbPolyFaceMeshVertex
 10
-1950.34716796875
 20
-1693.223510742187
 30
1006.204223632812
 70
   192
  0
VERTEX
  5
483
330
474
100
AcDbEntity
  8
0
 62
   251
100
AcDbVertex
100
AcDbPolyFaceMeshVertex
 10
-1950.34716796875
 20
-1693.223510742187
 30
86.2042236328125
 70
   192
  0
VERTEX
  5
484
330
474
100
AcDbEntity
  8
0
 62
   251
100
AcDbVertex
100
AcDbPolyFaceMeshVertex
 10
-1656.34716796875
 20
-1748.223510742187
 30
966.4759521484375
 70
   192
  0
VERTEX
  5
485
330
474
100
AcDbEntity
  8
0
 62
   251
100
AcDbVertex
100
AcDbPolyFaceMeshVertex
 10
-1656.34716796875
 20
-1748.223510742187
 30
426.4759521484375
 70
   192
  0
VERTEX
  5
486
330
474
100
AcDbEntity
  8
0
 62
   251
100
AcDbVertex
100
AcDbPolyFaceMeshVertex
 10
-1656.34716796875
 20
-1693.223510742187
 30
86.2042236328125
 70
   192
  0
VERTEX
  5
487
330
474
100
AcDbEntity
  8
0
 62
   251
100
AcDbVertex
100
AcDbPolyFaceMeshVertex
 10
-1656.34716796875
 20
-2188.223388671875
 30
426.4759521484375
 70
   192
  0
VERTEX
  5
488
330
474
100
AcDbEntity
  8
0
 62
   251
100
AcDbVertex
100
AcDbPolyFaceMeshVertex
 10
-1950.34716796875
 20
-2243.223388671875
 30
1006.204223632812
 70
   192
  0
VERTEX
  5
489
330
474
100
AcDbEntity
  8
0
 62
   251
100
AcDbVertex
100
AcDbPolyFaceMeshVertex
 10
-1656.34716796875
 20
-2243.223388671875
 30
1006.204223632812
 70
   192
  0
VERTEX
  5
48A
330
474
100
AcDbEntity
  8
0
 62
   251
100
AcDbVertex
100
AcDbPolyFaceMeshVertex
 10
-1656.34716796875
 20
-2188.223388671875
 30
966.4759521484375
 70
   192
  0
VERTEX
  5
48B
330
474
100
AcDbEntity
  8
0
 62
   251
100
AcDbVertex
100
AcDbPolyFaceMeshVertex
 10
-1661.34716796875
 20
-1748.223510742187
 30
966.4759521484375
 70
   192
  0
VERTEX
  5
48C
330
474
100
AcDbEntity
  8
0
 62
   251
100
AcDbVertex
100
AcDbPolyFaceMeshVertex
 10
-1661.34716796875
 20
-2188.223388671875
 30
966.4759521484375
 70
   192
  0
VERTEX
  5
48D
330
474
100
AcDbEntity
  8
0
 62
   251
100
AcDbFaceRecord
 10
0.0
 20
0.0
 30
0.0
 70
   128
 71
    21
 72
    13
 73
    10
 74
   -21
  0
VERTEX
  5
48E
330
474
100
AcDbEntity
  8
0
 62
   251
100
AcDbFaceRecord
 10
0.0
 20
0.0
 30
0.0
 70
   128
 71
     2
 72
    20
 73
     1
 74
    -2
  0
VERTEX
  5
48F
330
474
100
AcDbEntity
  8
0
 62
   251
100
AcDbFaceRecord
 10
0.0
 20
0.0
 30
0.0
 70
   128
 71
    14
 72
    20
 73
     2
 74
   -14
  0
VERTEX
  5
490
330
474
100
AcDbEntity
  8
0
 62
   251
100
AcDbFaceRecord
 10
0.0
 20
0.0
 30
0.0
 70
   128
 71
    13
 72
    14
 73
     2
 74
   -13
  0
VERTEX
  5
491
330
474
100
AcDbEntity
  8
0
 62
   251
100
AcDbFaceRecord
 10
0.0
 20
0.0
 30
0.0
 70
   128
 71
    11
 72
    10
 73
    13
 74
   -11
  0
VERTEX
  5
492
330
474
100
AcDbEntity
  8
0
 62
   251
100
AcDbFaceRecord
 10
0.0
 20
0.0
 30
0.0
 70
   128
 71
    11
 72
    13
 73
     2
 74
   -11
  0
VERTEX
  5
493
330
474
100
AcDbEntity
  8
0
 62
   251
100
AcDbFaceRecord
 10
0.0
 20
0.0
 30
0.0
 70
   128
 71
    21
 72
     1
 73
    20
 74
   -21
  0
VERTEX
  5
494
330
474
100
AcDbEntity
  8
0
 62
   251
100
AcDbFaceRecord
 10
0.0
 20
0.0
 30
0.0
 70
   128
 71
     1
 72
    21
 73
    10
 74
    -1
  0
VERTEX
  5
495
330
474
100
AcDbEntity
  8
0
 62
   251
100
AcDbFaceRecord
 10
0.0
 20
0.0
 30
0.0
 70
   128
 71
    15
 72
     8
 73
     3
 74
   -15
  0
VERTEX
  5
496
330
474
100
AcDbEntity
  8
0
 62
   251
100
AcDbFaceRecord
 10
0.0
 20
0.0
 30
0.0
 70
   128
 71
     6
 72
    18
 73
     4
 74
    -6
  0
VERTEX
  5
497
330
474
100
AcDbEntity
  8
0
 62
   251
100
AcDbFaceRecord
 10
0.0
 20
0.0
 30
0.0
 70
   128
 71
    15
 72
    18
 73
     6
 74
   -15
  0
VERTEX
  5
498
330
474
100
AcDbEntity
  8
0
 62
   251
100
AcDbFaceRecord
 10
0.0
 20
0.0
 30
0.0
 70
   128
 71
     5
 72
     3
 73
     8
 74
    -5
  0
VERTEX
  5
499
330
474
100
AcDbEntity
  8
0
 62
   251
100
AcDbFaceRecord
 10
0.0
 20
0.0
 30
0.0
 70
   128
 71
     5
 72
     4
 73
    18
 74
    -5
  0
VERTEX
  5
49A
330
474
100
AcDbEntity
  8
0
 62
   251
100
AcDbFaceRecord
 10
0.0
 20
0.0
 30
0.0
 70
   128
 71
     7
 72
     4
 73
     5
 74
    -7
  0
VERTEX
  5
49B
330
474
100
AcDbEntity
  8
0
 62
   251
100
AcDbFaceRecord
 10
0.0
 20
0.0
 30
0.0
 70
   128
 71
     7
 72
     5
 73
     8
 74
    -7
  0
VERTEX
  5
49C
330
474
100
AcDbEntity
  8
0
 62
   251
100
AcDbFaceRecord
 10
0.0
 20
0.0
 30
0.0
 70
   128
 71
     8
 72
    15
 73
     6
 74
    -8
  0
VERTEX
  5
49D
330
474
100
AcDbEntity
  8
0
 62
   251
100
AcDbFaceRecord
 10
0.0
 20
0.0
 30
0.0
 70
   128
 71
     1
 72
    10
 73
     7
 74
    -1
  0
VERTEX
  5
49E
330
474
100
AcDbEntity
  8
0
 62
   251
100
AcDbFaceRecord
 10
0.0
 20
0.0
 30
0.0
 70
   128
 71
     8
 72
     1
 73
     7
 74
    -8
  0
VERTEX
  5
49F
330
474
100
AcDbEntity
  8
0
 62
   251
100
AcDbFaceRecord
 10
0.0
 20
0.0
 30
0.0
 70
   128
 71
     7
 72
    12
 73
     4
 74
    -7
  0
VERTEX
  5
4A0
330
474
100
AcDbEntity
  8
0
 62
   251
100
AcDbFaceRecord
 10
0.0
 20
0.0
 30
0.0
 70
   128
 71
     9
 72
    10
 73
    24
 74
    -9
  0
VERTEX
  5
4A1
330
474
100
AcDbEntity
  8
0
 62
   251
100
AcDbFaceRecord
 10
0.0
 20
0.0
 30
0.0
 70
   128
 71
     7
 72
    10
 73
     9
 74
    -7
  0
VERTEX
  5
4A2
330
474
100
AcDbEntity
  8
0
 62
   251
100
AcDbFaceRecord
 10
0.0
 20
0.0
 30
0.0
 70
   128
 71
    11
 72
     4
 73
    12
 74
   -11
  0
VERTEX
  5
4A3
330
474
100
AcDbEntity
  8
0
 62
   251
100
AcDbFaceRecord
 10
0.0
 20
0.0
 30
0.0
 70
   128
 71
    23
 72
    24
 73
    10
 74
   -23
  0
VERTEX
  5
4A4
330
474
100
AcDbEntity
  8
0
 62
   251
100
AcDbFaceRecord
 10
0.0
 20
0.0
 30
0.0
 70
   128
 71
    11
 72
    23
 73
    10
 74
   -11
  0
VERTEX
  5
4A5
330
474
100
AcDbEntity
  8
0
 62
   251
100
AcDbFaceRecord
 10
0.0
 20
0.0
 30
0.0
 70
   128
 71
    23
 72
    11
 73
    12
 74
   -23
  0
VERTEX
  5
4A6
330
474
100
AcDbEntity
  8
0
 62
   251
100
AcDbFaceRecord
 10
0.0
 20
0.0
 30
0.0
 70
   128
 71
    12
 72
     7
 73
     9
 74
   -12
  0
VERTEX
  5
4A7
330
474
100
AcDbEntity
  8
0
 62
   251
100
AcDbFaceRecord
 10
0.0
 20
0.0
 30
0.0
 70
   128
 71
    11
 72
     2
 73
     6
 74
   -11
  0
VERTEX
  5
4A8
330
474
100
AcDbEntity
  8
0
 62
   251
100
AcDbFaceRecord
 10
0.0
 20
0.0
 30
0.0
 70
   128
 71
     4
 72
    11
 73
     6
 74
    -4
  0
VERTEX
  5
4A9
330
474
100
AcDbEntity
  8
0
 62
   251
100
AcDbFaceRecord
 10
0.0
 20
0.0
 30
0.0
 70
   128
 71
     2
 72
     1
 73
     8
 74
    -2
  0
VERTEX
  5
4AA
330
474
100
AcDbEntity
  8
0
 62
   251
100
AcDbFaceRecord
 10
0.0
 20
0.0
 30
0.0
 70
   128
 71
     6
 72
     2
 73
     8
 74
    -6
  0
VERTEX
  5
4AB
330
474
100
AcDbEntity
  8
0
 62
   251
100
AcDbFaceRecord
 10
0.0
 20
0.0
 30
0.0
 70
   128
 71
    14
 72
    13
 73
    18
 74
   -14
  0
VERTEX
  5
4AC
330
474
100
AcDbEntity
  8
0
 62
   251
100
AcDbFaceRecord
 10
0.0
 20
0.0
 30
0.0
 70
   128
 71
    15
 72
    14
 73
    18
 74
   -15
  0
VERTEX
  5
4AD
330
474
100
AcDbEntity
  8
0
 62
   251
100
AcDbFaceRecord
 10
0.0
 20
0.0
 30
0.0
 70
   128
 71
    21
 72
    22
 73
    16
 74
   -21
  0
VERTEX
  5
4AE
330
474
100
AcDbEntity
  8
0
 62
   251
100
AcDbFaceRecord
 10
0.0
 20
0.0
 30
0.0
 70
   128
 71
    13
 72
    21
 73
    16
 74
   -13
  0
VERTEX
  5
4AF
330
474
100
AcDbEntity
  8
0
 62
   251
100
AcDbFaceRecord
 10
0.0
 20
0.0
 30
0.0
 70
   128
 71
    18
 72
    13
 73
    17
 74
   -18
  0
VERTEX
  5
4B0
330
474
100
AcDbEntity
  8
0
 62
   251
100
AcDbFaceRecord
 10
0.0
 20
0.0
 30
0.0
 70
   128
 71
     5
 72
    18
 73
    17
 74
    -5
  0
VERTEX
  5
4B1
330
474
100
AcDbEntity
  8
0
 62
   251
100
AcDbFaceRecord
 10
0.0
 20
0.0
 30
0.0
 70
   128
 71
    17
 72
    13
 73
    16
 74
   -17
  0
VERTEX
  5
4B2
330
474
100
AcDbEntity
  8
0
 62
   251
100
AcDbFaceRecord
 10
0.0
 20
0.0
 30
0.0
 70
   128
 71
    19
 72
    22
 73
    21
 74
   -19
  0
VERTEX
  5
4B3
330
474
100
AcDbEntity
  8
0
 62
   251
100
AcDbFaceRecord
 10
0.0
 20
0.0
 30
0.0
 70
   128
 71
     5
 72
    19
 73
    21
 74
    -5
  0
VERTEX
  5
4B4
330
474
100
AcDbEntity
  8
0
 62
   251
100
AcDbFaceRecord
 10
0.0
 20
0.0
 30
0.0
 70
   128
 71
    19
 72
     5
 73
    17
 74
   -19
  0
VERTEX
  5
4B5
330
474
100
AcDbEntity
  8
0
 62
   251
100
AcDbFaceRecord
 10
0.0
 20
0.0
 30
0.0
 70
   128
 71
    21
 72
    20
 73
     3
 74
   -21
  0
VERTEX
  5
4B6
330
474
100
AcDbEntity
  8
0
 62
   251
100
AcDbFaceRecord
 10
0.0
 20
0.0
 30
0.0
 70
   128
 71
     5
 72
    21
 73
     3
 74
    -5
  0
VERTEX
  5
4B7
330
474
100
AcDbEntity
  8
0
 62
   251
100
AcDbFaceRecord
 10
0.0
 20
0.0
 30
0.0
 70
   128
 71
    20
 72
    14
 73
    15
 74
   -20
  0
VERTEX
  5
4B8
330
474
100
AcDbEntity
  8
0
 62
   251
100
AcDbFaceRecord
 10
0.0
 20
0.0
 30
0.0
 70
   128
 71
     3
 72
    20
 73
    15
 74
    -3
  0
VERTEX
  5
4B9
330
474
100
AcDbEntity
  8
0
 62
   251
100
AcDbFaceRecord
 10
0.0
 20
0.0
 30
0.0
 70
   128
 71
    12
 72
    17
 73
    16
 74
   -12
  0
VERTEX
  5
4BA
330
474
100
AcDbEntity
  8
0
 62
   251
100
AcDbFaceRecord
 10
0.0
 20
0.0
 30
0.0
 70
   128
 71
    23
 72
    12
 73
    16
 74
   -23
  0
VERTEX
  5
4BB
330
474
100
AcDbEntity
  8
0
 62
   251
100
AcDbFaceRecord
 10
0.0
 20
0.0
 30
0.0
 70
   128
 71
     9
 72
    19
 73
    17
 74
    -9
  0
VERTEX
  5
4BC
330
474
100
AcDbEntity
  8
0
 62
   251
100
AcDbFaceRecord
 10
0.0
 20
0.0
 30
0.0
 70
   128
 71
    12
 72
     9
 73
    17
 74
   -12
  0
VERTEX
  5
4BD
330
474
100
AcDbEntity
  8
0
 62
   251
100
AcDbFaceRecord
 10
0.0
 20
0.0
 30
0.0
 70
   128
 71
    24
 72
    22
 73
    19
 74
   -24
  0
VERTEX
  5
4BE
330
474
100
AcDbEntity
  8
0
 62
   251
100
AcDbFaceRecord
 10
0.0
 20
0.0
 30
0.0
 70
   128
 71
     9
 72
    24
 73
    19
 74
    -9
  0
VERTEX
  5
4BF
330
474
100
AcDbEntity
  8
0
 62
   251
100
AcDbFaceRecord
 10
0.0
 20
0.0
 30
0.0
 70
   128
 71
    23
 72
    16
 73
    22
 74
   -23
  0
VERTEX
  5
4C0
330
474
100
AcDbEntity
  8
0
 62
   251
100
AcDbFaceRecord
 10
0.0
 20
0.0
 30
0.0
 70
   128
 71
    24
 72
    23
 73
    22
 74
   -24
  0
SEQEND
  5
4C1
330
474
100
AcDbEntity
  8
0
 62
   251
  0
POLYLINE
  5
4C2
330
1F
100
AcDbEntity
  8
0
 62
   251
100
AcDbPolyFaceMesh
 66
     1
 10
0.0
 20
0.0
 30
0.0
 70
    64
 71
   128
 72
   240
  0
VERTEX
  5
4C3
330
4C2
100
AcDbEntity
  8
0
 62
   251
100
AcDbVertex
100
AcDbPolyFaceMeshVertex
 10
-1698.34716796875
 20
-2235.912841796875
 30
29.7430419921875
 70
   192
  0
VERTEX
  5
4C4
330
4C2
100
AcDbEntity
  8
0
 62
   251
100
AcDbVertex
100
AcDbPolyFaceMeshVertex
 10
-1653.34716796875
 20
-2233.0830078125
 30
2.7786865234375
 70
   192
  0
VERTEX
  5
4C5
330
4C2
100
AcDbEntity
  8
0
 62
   251
100
AcDbVertex
100
AcDbPolyFaceMeshVertex
 10
-1698.34716796875
 20
-2235.732421875
 30
-105.4581298828125
 70
   192
  0
VERTEX
  5
4C6
330
4C2
100
AcDbEntity
  8
0
 62
   251
100
AcDbVertex
100
AcDbPolyFaceMeshVertex
 10
-1698.34716796875
 20
-2239.878173828125
 30
-132.251708984375
 70
   192
  0
VERTEX
  5
4C7
330
4C2
100
AcDbEntity
  8
0
 62
   251
100
AcDbVertex
100
AcDbPolyFaceMeshVertex
 10
-1653.34716796875
 20
-2239.878173828125
 30
-132.251708984375
 70
   192
  0
VERTEX
  5
4C8
330
4C2
100
AcDbEntity
  8
0
 62
   251
100
AcDbVertex
100
AcDbPolyFaceMeshVertex
 10
-1653.34716796875
 20
-2235.732421875
 30
-105.4581298828125
 70
   192
  0
VERTEX
  5
4C9
330
4C2
100
AcDbEntity
  8
0
 62
   251
100
AcDbVertex
100
AcDbPolyFaceMeshVertex
 10
-1653.34716796875
 20
-2231.61181640625
 30
-51.408203125
 70
   192
  0
VERTEX
  5
4CA
330
4C2
100
AcDbEntity
  8
0
 62
   251
100
AcDbVertex
100
AcDbPolyFaceMeshVertex
 10
-1698.34716796875
 20
-2233.0830078125
 30
2.7786865234375
 70
   192
  0
VERTEX
  5
4CB
330
4C2
100
AcDbEntity
  8
0
 62
   251
100
AcDbVertex
100
AcDbPolyFaceMeshVertex
 10
-1653.34716796875
 20
-2235.912841796875
 30
29.7430419921875
 70
   192
  0
VERTEX
  5
4CC
330
4C2
100
AcDbEntity
  8
0
 62
   251
100
AcDbVertex
100
AcDbPolyFaceMeshVertex
 10
-1698.34716796875
 20
-2240.130126953125
 30
56.52545166015625
 70
   192
  0
VERTEX
  5
4CD
330
4C2
100
AcDbEntity
  8
0
 62
   251
100
AcDbVertex
100
AcDbPolyFaceMeshVertex
 10
-1698.34716796875
 20
-2205.090576171875
 30
-66.4674072265625
 70
   192
  0
VERTEX
  5
4CE
330
4C2
100
AcDbEntity
  8
0
 62
   251
100
AcDbVertex
100
AcDbPolyFaceMeshVertex
 10
-1653.34716796875
 20
-2209.86572265625
 30
-112.653564453125
 70
   192
  0
VERTEX
  5
4CF
330
4C2
100
AcDbEntity
  8
0
 62
   251
100
AcDbVertex
100
AcDbPolyFaceMeshVertex
 10
-1698.34716796875
 20
-2209.86572265625
 30
-112.653564453125
 70
   192
  0
VERTEX
  5
4D0
330
4C2
100
AcDbEntity
  8
0
 62
   251
100
AcDbVertex
100
AcDbPolyFaceMeshVertex
 10
-1653.34716796875
 20
-2205.090576171875
 30
-66.4674072265625
 70
   192
  0
VERTEX
  5
4D1
330
4C2
100
AcDbEntity
  8
0
 62
   251
100
AcDbVertex
100
AcDbPolyFaceMeshVertex
 10
-1653.34716796875
 20
-2200.723388671875
 30
-20.2408447265625
 70
   192
  0
VERTEX
  5
4D2
330
4C2
100
AcDbEntity
  8
0
 62
   251
100
AcDbVertex
100
AcDbPolyFaceMeshVertex
 10
-1653.34716796875
 20
-2245.400634765625
 30
-158.7957763671875
 70
   192
  0
VERTEX
  5
4D3
330
4C2
100
AcDbEntity
  8
0
 62
   251
100
AcDbVertex
100
AcDbPolyFaceMeshVertex
 10
-1698.34716796875
 20
-2245.400634765625
 30
-158.7957763671875
 70
   192
  0
VERTEX
  5
4D4
330
4C2
100
AcDbEntity
  8
0
 62
   251
100
AcDbVertex
100
AcDbPolyFaceMeshVertex
 10
-1653.34716796875
 20
-2232.974365234375
 30
-78.486328125
 70
   192
  0
VERTEX
  5
4D5
330
4C2
100
AcDbEntity
  8
0
 62
   251
100
AcDbVertex
100
AcDbPolyFaceMeshVertex
 10
-1653.34716796875
 20
-2215.048828125
 30
-158.7957763671875
 70
   192
  0
VERTEX
  5
4D6
330
4C2
100
AcDbEntity
  8
0
 62
   251
100
AcDbVertex
100
AcDbPolyFaceMeshVertex
 10
-1653.34716796875
 20
-2231.64794921875
 30
-24.2957763671875
 70
   192
  0
VERTEX
  5
4D7
330
4C2
100
AcDbEntity
  8
0
 62
   251
100
AcDbVertex
100
AcDbPolyFaceMeshVertex
 10
-1653.34716796875
 20
-2240.130126953125
 30
56.52545166015625
 70
   192
  0
VERTEX
  5
4D8
330
4C2
100
AcDbEntity
  8
0
 62
   251
100
AcDbVertex
100
AcDbPolyFaceMeshVertex
 10
-1698.34716796875
 20
-2200.723388671875
 30
1006.204223632812
 70
   192
  0
VERTEX
  5
4D9
330
4C2
100
AcDbEntity
  8
0
 62
   251
100
AcDbVertex
100
AcDbPolyFaceMeshVertex
 10
-1698.34716796875
 20
-2200.723388671875
 30
-20.2408447265625
 70
   192
  0
VERTEX
  5
4DA
330
4C2
100
AcDbEntity
  8
0
 62
   251
100
AcDbVertex
100
AcDbPolyFaceMeshVertex
 10
-1698.34716796875
 20
-2231.64794921875
 30
-24.2957763671875
 70
   192
  0
VERTEX
  5
4DB
330
4C2
100
AcDbEntity
  8
0
 62
   251
100
AcDbVertex
100
AcDbPolyFaceMeshVertex
 10
-1698.34716796875
 20
-2231.61181640625
 30
-51.408203125
 70
   192
  0
VERTEX
  5
4DC
330
4C2
100
AcDbEntity
  8
0
 62
   251
100
AcDbVertex
100
AcDbPolyFaceMeshVertex
 10
-1698.34716796875
 20
-2232.974365234375
 30
-78.486328125
 70
   192
  0
VERTEX
  5
4DD
330
4C2
100
AcDbEntity
  8
0
 62
   251
100
AcDbVertex
100
AcDbPolyFaceMeshVertex
 10
-1698.34716796875
 20
-2215.048828125
 30
-158.7957763671875
 70
   192
  0
VERTEX
  5
4DE
330
4C2
100
AcDbEntity
  8
0
 62
   251
100
AcDbVertex
100
AcDbPolyFaceMeshVertex
 10
-1698.34716796875
 20
-2245.723388671875
 30
83.05468750000001
 70
   192
  0
VERTEX
  5
4DF
330
4C2
100
AcDbEntity
  8
0
 62
   251
100
AcDbVertex
100
AcDbPolyFaceMeshVertex
 10
-1653.34716796875
 20
-2245.723388671875
 30
1006.204223632812
 70
   192
  0
VERTEX
  5
4E0
330
4C2
100
AcDbEntity
  8
0
 62
   251
100
AcDbVertex
100
AcDbPolyFaceMeshVertex
 10
-1653.34716796875
 20
-2245.723388671875
 30
83.05468750000001
 70
   192
  0
VERTEX
  5
4E1
330
4C2
100
AcDbEntity
  8
0
 62
   251
100
AcDbVertex
100
AcDbPolyFaceMeshVertex
 10
-1698.34716796875
 20
-2245.723388671875
 30
1006.204223632812
 70
   192
  0
VERTEX
  5
4E2
330
4C2
100
AcDbEntity
  8
0
 62
   251
100
AcDbVertex
100
AcDbPolyFaceMeshVertex
 10
-1653.34716796875
 20
-2200.723388671875
 30
1006.204223632812
 70
   192
  0
VERTEX
  5
4E3
330
4C2
100
AcDbEntity
  8
0
 62
   251
100
AcDbVertex
100
AcDbPolyFaceMeshVertex
 10
-1952.84716796875
 20
-2245.723388671875
 30
83.05468750000001
 70
   192
  0
VERTEX
  5
4E4
330
4C2
100
AcDbEntity
  8
0
 62
   251
100
AcDbVertex
100
AcDbPolyFaceMeshVertex
 10
-1907.84716796875
 20
-2245.723388671875
 30
1006.204223632812
 70
   192
  0
VERTEX
  5
4E5
330
4C2
100
AcDbEntity
  8
0
 62
   251
100
AcDbVertex
100
AcDbPolyFaceMeshVertex
 10
-1952.84716796875
 20
-2235.912841796875
 30
29.7430419921875
 70
   192
  0
VERTEX
  5
4E6
330
4C2
100
AcDbEntity
  8
0
 62
   251
100
AcDbVertex
100
AcDbPolyFaceMeshVertex
 10
-1952.84716796875
 20
-2209.86572265625
 30
-112.653564453125
 70
   192
  0
VERTEX
  5
4E7
330
4C2
100
AcDbEntity
  8
0
 62
   251
100
AcDbVertex
100
AcDbPolyFaceMeshVertex
 10
-1952.84716796875
 20
-2200.723388671875
 30
-20.2408447265625
 70
   192
  0
VERTEX
  5
4E8
330
4C2
100
AcDbEntity
  8
0
 62
   251
100
AcDbVertex
100
AcDbPolyFaceMeshVertex
 10
-1952.84716796875
 20
-2245.723388671875
 30
1006.204223632812
 70
   192
  0
VERTEX
  5
4E9
330
4C2
100
AcDbEntity
  8
0
 62
   251
100
AcDbVertex
100
AcDbPolyFaceMeshVertex
 10
-1952.84716796875
 20
-2233.0830078125
 30
2.7786865234375
 70
   192
  0
VERTEX
  5
4EA
330
4C2
100
AcDbEntity
  8
0
 62
   251
100
AcDbVertex
100
AcDbPolyFaceMeshVertex
 10
-1952.84716796875
 20
-2231.64794921875
 30
-24.2957763671875
 70
   192
  0
VERTEX
  5
4EB
330
4C2
100
AcDbEntity
  8
0
 62
   251
100
AcDbVertex
100
AcDbPolyFaceMeshVertex
 10
-1907.84716796875
 20
-2200.723388671875
 30
-20.2408447265625
 70
   192
  0
VERTEX
  5
4EC
330
4C2
100
AcDbEntity
  8
0
 62
   251
100
AcDbVertex
100
AcDbPolyFaceMeshVertex
 10
-1952.84716796875
 20
-2200.723388671875
 30
1006.204223632812
 70
   192
  0
VERTEX
  5
4ED
330
4C2
100
AcDbEntity
  8
0
 62
   251
100
AcDbVertex
100
AcDbPolyFaceMeshVertex
 10
-1907.84716796875
 20
-2231.64794921875
 30
-24.2957763671875
 70
   192
  0
VERTEX
  5
4EE
330
4C2
100
AcDbEntity
  8
0
 62
   251
100
AcDbVertex
100
AcDbPolyFaceMeshVertex
 10
-1907.84716796875
 20
-2209.86572265625
 30
-112.653564453125
 70
   192
  0
VERTEX
  5
4EF
330
4C2
100
AcDbEntity
  8
0
 62
   251
100
AcDbVertex
100
AcDbPolyFaceMeshVertex
 10
-1907.84716796875
 20
-2239.878173828125
 30
-132.251708984375
 70
   192
  0
VERTEX
  5
4F0
330
4C2
100
AcDbEntity
  8
0
 62
   251
100
AcDbVertex
100
AcDbPolyFaceMeshVertex
 10
-1907.84716796875
 20
-2215.048828125
 30
-158.7957763671875
 70
   192
  0
VERTEX
  5
4F1
330
4C2
100
AcDbEntity
  8
0
 62
   251
100
AcDbVertex
100
AcDbPolyFaceMeshVertex
 10
-1907.84716796875
 20
-2232.974365234375
 30
-78.486328125
 70
   192
  0
VERTEX
  5
4F2
330
4C2
100
AcDbEntity
  8
0
 62
   251
100
AcDbVertex
100
AcDbPolyFaceMeshVertex
 10
-1907.84716796875
 20
-2200.723388671875
 30
1006.204223632812
 70
   192
  0
VERTEX
  5
4F3
330
4C2
100
AcDbEntity
  8
0
 62
   251
100
AcDbVertex
100
AcDbPolyFaceMeshVertex
 10
-1907.84716796875
 20
-2240.130126953125
 30
56.52545166015625
 70
   192
  0
VERTEX
  5
4F4
330
4C2
100
AcDbEntity
  8
0
 62
   251
100
AcDbVertex
100
AcDbPolyFaceMeshVertex
 10
-1907.84716796875
 20
-2245.723388671875
 30
83.05468750000001
 70
   192
  0
VERTEX
  5
4F5
330
4C2
100
AcDbEntity
  8
0
 62
   251
100
AcDbVertex
100
AcDbPolyFaceMeshVertex
 10
-1907.84716796875
 20
-2245.400634765625
 30
-158.7957763671875
 70
   192
  0
VERTEX
  5
4F6
330
4C2
100
AcDbEntity
  8
0
 62
   251
100
AcDbVertex
100
AcDbPolyFaceMeshVertex
 10
-1952.84716796875
 20
-2245.400634765625
 30
-158.7957763671875
 70
   192
  0
VERTEX
  5
4F7
330
4C2
100
AcDbEntity
  8
0
 62
   251
100
AcDbVertex
100
AcDbPolyFaceMeshVertex
 10
-1952.84716796875
 20
-2205.090576171875
 30
-66.4674072265625
 70
   192
  0
VERTEX
  5
4F8
330
4C2
100
AcDbEntity
  8
0
 62
   251
100
AcDbVertex
100
AcDbPolyFaceMeshVertex
 10
-1907.84716796875
 20
-2205.090576171875
 30
-66.4674072265625
 70
   192
  0
VERTEX
  5
4F9
330
4C2
100
AcDbEntity
  8
0
 62
   251
100
AcDbVertex
100
AcDbPolyFaceMeshVertex
 10
-1952.84716796875
 20
-2215.048828125
 30
-158.7957763671875
 70
   192
  0
VERTEX
  5
4FA
330
4C2
100
AcDbEntity
  8
0
 62
   251
100
AcDbVertex
100
AcDbPolyFaceMeshVertex
 10
-1907.84716796875
 20
-2231.61181640625
 30
-51.408203125
 70
   192
  0
VERTEX
  5
4FB
330
4C2
100
AcDbEntity
  8
0
 62
   251
100
AcDbVertex
100
AcDbPolyFaceMeshVertex
 10
-1952.84716796875
 20
-2232.974365234375
 30
-78.486328125
 70
   192
  0
VERTEX
  5
4FC
330
4C2
100
AcDbEntity
  8
0
 62
   251
100
AcDbVertex
100
AcDbPolyFaceMeshVertex
 10
-1952.84716796875
 20
-2235.732421875
 30
-105.4581298828125
 70
   192
  0
VERTEX
  5
4FD
330
4C2
100
AcDbEntity
  8
0
 62
   251
100
AcDbVertex
100
AcDbPolyFaceMeshVertex
 10
-1907.84716796875
 20
-2235.732421875
 30
-105.4581298828125
 70
   192
  0
VERTEX
  5
4FE
330
4C2
100
AcDbEntity
  8
0
 62
   251
100
AcDbVertex
100
AcDbPolyFaceMeshVertex
 10
-1952.84716796875
 20
-2239.878173828125
 30
-132.251708984375
 70
   192
  0
VERTEX
  5
4FF
330
4C2
100
AcDbEntity
  8
0
 62
   251
100
AcDbVertex
100
AcDbPolyFaceMeshVertex
 10
-1952.84716796875
 20
-2231.61181640625
 30
-51.408203125
 70
   192
  0
VERTEX
  5
500
330
4C2
100
AcDbEntity
  8
0
 62
   251
100
AcDbVertex
100
AcDbPolyFaceMeshVertex
 10
-1907.84716796875
 20
-2233.0830078125
 30
2.7786865234375
 70
   192
  0
VERTEX
  5
501
330
4C2
100
AcDbEntity
  8
0
 62
   251
100
AcDbVertex
100
AcDbPolyFaceMeshVertex
 10
-1907.84716796875
 20
-2235.912841796875
 30
29.7430419921875
 70
   192
  0
VERTEX
  5
502
330
4C2
100
AcDbEntity
  8
0
 62
   251
100
AcDbVertex
100
AcDbPolyFaceMeshVertex
 10
-1952.84716796875
 20
-2240.130126953125
 30
56.52545166015625
 70
   192
  0
VERTEX
  5
503
330
4C2
100
AcDbEntity
  8
0
 62
   251
100
AcDbVertex
100
AcDbPolyFaceMeshVertex
 10
-1653.34716796875
 20
-1721.398071289062
 30
-158.7957763671875
 70
   192
  0
VERTEX
  5
504
330
4C2
100
AcDbEntity
  8
0
 62
   251
100
AcDbVertex
100
AcDbPolyFaceMeshVertex
 10
-1653.34716796875
 20
-1726.5810546875
 30
-112.653564453125
 70
   192
  0
VERTEX
  5
505
330
4C2
100
AcDbEntity
  8
0
 62
   251
100
AcDbVertex
100
AcDbPolyFaceMeshVertex
 10
-1653.34716796875
 20
-1731.356323242187
 30
-66.4674072265625
 70
   192
  0
VERTEX
  5
506
330
4C2
100
AcDbEntity
  8
0
 62
   251
100
AcDbVertex
100
AcDbPolyFaceMeshVertex
 10
-1698.34716796875
 20
-1735.723510742187
 30
-20.2408447265625
 70
   192
  0
VERTEX
  5
507
330
4C2
100
AcDbEntity
  8
0
 62
   251
100
AcDbVertex
100
AcDbPolyFaceMeshVertex
 10
-1653.34716796875
 20
-1735.723510742187
 30
-20.2408447265625
 70
   192
  0
VERTEX
  5
508
330
4C2
100
AcDbEntity
  8
0
 62
   251
100
AcDbVertex
100
AcDbPolyFaceMeshVertex
 10
-1653.34716796875
 20
-1700.5341796875
 30
29.7430419921875
 70
   192
  0
VERTEX
  5
509
330
4C2
100
AcDbEntity
  8
0
 62
   251
100
AcDbVertex
100
AcDbPolyFaceMeshVertex
 10
-1698.34716796875
 20
-1700.5341796875
 30
29.7430419921875
 70
   192
  0
VERTEX
  5
50A
330
4C2
100
AcDbEntity
  8
0
 62
   251
100
AcDbVertex
100
AcDbPolyFaceMeshVertex
 10
-1653.34716796875
 20
-1703.364013671875
 30
2.7786865234375
 70
   192
  0
VERTEX
  5
50B
330
4C2
100
AcDbEntity
  8
0
 62
   251
100
AcDbVertex
100
AcDbPolyFaceMeshVertex
 10
-1698.34716796875
 20
-1704.835083007812
 30
-51.408203125
 70
   192
  0
VERTEX
  5
50C
330
4C2
100
AcDbEntity
  8
0
 62
   251
100
AcDbVertex
100
AcDbPolyFaceMeshVertex
 10
-1698.34716796875
 20
-1703.472412109375
 30
-78.486328125
 70
   192
  0
VERTEX
  5
50D
330
4C2
100
AcDbEntity
  8
0
 62
   251
100
AcDbVertex
100
AcDbPolyFaceMeshVertex
 10
-1698.34716796875
 20
-1696.56884765625
 30
-132.251708984375
 70
   192
  0
VERTEX
  5
50E
330
4C2
100
AcDbEntity
  8
0
 62
   251
100
AcDbVertex
100
AcDbPolyFaceMeshVertex
 10
-1653.34716796875
 20
-1691.046264648437
 30
-158.7957763671875
 70
   192
  0
VERTEX
  5
50F
330
4C2
100
AcDbEntity
  8
0
 62
   251
100
AcDbVertex
100
AcDbPolyFaceMeshVertex
 10
-1653.34716796875
 20
-1696.56884765625
 30
-132.251708984375
 70
   192
  0
VERTEX
  5
510
330
4C2
100
AcDbEntity
  8
0
 62
   251
100
AcDbVertex
100
AcDbPolyFaceMeshVertex
 10
-1653.34716796875
 20
-1703.472412109375
 30
-78.486328125
 70
   192
  0
VERTEX
  5
511
330
4C2
100
AcDbEntity
  8
0
 62
   251
100
AcDbVertex
100
AcDbPolyFaceMeshVertex
 10
-1698.34716796875
 20
-1704.798950195312
 30
-24.2957763671875
 70
   192
  0
VERTEX
  5
512
330
4C2
100
AcDbEntity
  8
0
 62
   251
100
AcDbVertex
100
AcDbPolyFaceMeshVertex
 10
-1653.34716796875
 20
-1696.31689453125
 30
56.52545166015625
 70
   192
  0
VERTEX
  5
513
330
4C2
100
AcDbEntity
  8
0
 62
   251
100
AcDbVertex
100
AcDbPolyFaceMeshVertex
 10
-1698.34716796875
 20
-1696.31689453125
 30
56.52545166015625
 70
   192
  0
VERTEX
  5
514
330
4C2
100
AcDbEntity
  8
0
 62
   251
100
AcDbVertex
100
AcDbPolyFaceMeshVertex
 10
-1698.34716796875
 20
-1690.723510742187
 30
83.05468750000001
 70
   192
  0
VERTEX
  5
515
330
4C2
100
AcDbEntity
  8
0
 62
   251
100
AcDbVertex
100
AcDbPolyFaceMeshVertex
 10
-1698.34716796875
 20
-1691.046264648437
 30
-158.7957763671875
 70
   192
  0
VERTEX
  5
516
330
4C2
100
AcDbEntity
  8
0
 62
   251
100
AcDbVertex
100
AcDbPolyFaceMeshVertex
 10
-1653.34716796875
 20
-1704.798950195312
 30
-24.2957763671875
 70
   192
  0
VERTEX
  5
517
330
4C2
100
AcDbEntity
  8
0
 62
   251
100
AcDbVertex
100
AcDbPolyFaceMeshVertex
 10
-1653.34716796875
 20
-1690.723510742187
 30
1006.204223632812
 70
   192
  0
VERTEX
  5
518
330
4C2
100
AcDbEntity
  8
0
 62
   251
100
AcDbVertex
100
AcDbPolyFaceMeshVertex
 10
-1653.34716796875
 20
-1704.835083007812
 30
-51.408203125
 70
   192
  0
VERTEX
  5
519
330
4C2
100
AcDbEntity
  8
0
 62
   251
100
AcDbVertex
100
AcDbPolyFaceMeshVertex
 10
-1653.34716796875
 20
-1700.714599609375
 30
-105.4581298828125
 70
   192
  0
VERTEX
  5
51A
330
4C2
100
AcDbEntity
  8
0
 62
   251
100
AcDbVertex
100
AcDbPolyFaceMeshVertex
 10
-1653.34716796875
 20
-1735.723510742187
 30
1006.204223632812
 70
   192
  0
VERTEX
  5
51B
330
4C2
100
AcDbEntity
  8
0
 62
   251
100
AcDbVertex
100
AcDbPolyFaceMeshVertex
 10
-1698.34716796875
 20
-1726.5810546875
 30
-112.653564453125
 70
   192
  0
VERTEX
  5
51C
330
4C2
100
AcDbEntity
  8
0
 62
   251
100
AcDbVertex
100
AcDbPolyFaceMeshVertex
 10
-1698.34716796875
 20
-1731.356323242187
 30
-66.4674072265625
 70
   192
  0
VERTEX
  5
51D
330
4C2
100
AcDbEntity
  8
0
 62
   251
100
AcDbVertex
100
AcDbPolyFaceMeshVertex
 10
-1698.34716796875
 20
-1700.714599609375
 30
-105.4581298828125
 70
   192
  0
VERTEX
  5
51E
330
4C2
100
AcDbEntity
  8
0
 62
   251
100
AcDbVertex
100
AcDbPolyFaceMeshVertex
 10
-1698.34716796875
 20
-1721.398071289062
 30
-158.7957763671875
 70
   192
  0
VERTEX
  5
51F
330
4C2
100
AcDbEntity
  8
0
 62
   251
100
AcDbVertex
100
AcDbPolyFaceMeshVertex
 10
-1698.34716796875
 20
-1703.364013671875
 30
2.7786865234375
 70
   192
  0
VERTEX
  5
520
330
4C2
100
AcDbEntity
  8
0
 62
   251
100
AcDbVertex
100
AcDbPolyFaceMeshVertex
 10
-1698.34716796875
 20
-1690.723510742187
 30
1006.204223632812
 70
   192
  0
VERTEX
  5
521
330
4C2
100
AcDbEntity
  8
0
 62
   251
100
AcDbVertex
100
AcDbPolyFaceMeshVertex
 10
-1698.34716796875
 20
-1735.723510742187
 30
1006.204223632812
 70
   192
  0
VERTEX
  5
522
330
4C2
100
AcDbEntity
  8
0
 62
   251
100
AcDbVertex
100
AcDbPolyFaceMeshVertex
 10
-1653.34716796875
 20
-1690.723510742187
 30
83.05468750000001
 70
   192
  0
VERTEX
  5
523
330
4C2
100
AcDbEntity
  8
0
 62
   251
100
AcDbVertex
100
AcDbPolyFaceMeshVertex
 10
-1952.84716796875
 20
-1690.723510742187
 30
83.05468750000001
 70
   192
  0
VERTEX
  5
524
330
4C2
100
AcDbEntity
  8
0
 62
   251
100
AcDbVertex
100
AcDbPolyFaceMeshVertex
 10
-1952.84716796875
 20
-1691.046264648437
 30
-158.7957763671875
 70
   192
  0
VERTEX
  5
525
330
4C2
100
AcDbEntity
  8
0
 62
   251
100
AcDbVertex
100
AcDbPolyFaceMeshVertex
 10
-1952.84716796875
 20
-1696.56884765625
 30
-132.251708984375
 70
   192
  0
VERTEX
  5
526
330
4C2
100
AcDbEntity
  8
0
 62
   251
100
AcDbVertex
100
AcDbPolyFaceMeshVertex
 10
-1952.84716796875
 20
-1700.714599609375
 30
-105.4581298828125
 70
   192
  0
VERTEX
  5
527
330
4C2
100
AcDbEntity
  8
0
 62
   251
100
AcDbVertex
100
AcDbPolyFaceMeshVertex
 10
-1952.84716796875
 20
-1703.472412109375
 30
-78.486328125
 70
   192
  0
VERTEX
  5
528
330
4C2
100
AcDbEntity
  8
0
 62
   251
100
AcDbVertex
100
AcDbPolyFaceMeshVertex
 10
-1952.84716796875
 20
-1690.723510742187
 30
1006.204223632812
 70
   192
  0
VERTEX
  5
529
330
4C2
100
AcDbEntity
  8
0
 62
   251
100
AcDbVertex
100
AcDbPolyFaceMeshVertex
 10
-1952.84716796875
 20
-1735.723510742187
 30
1006.204223632812
 70
   192
  0
VERTEX
  5
52A
330
4C2
100
AcDbEntity
  8
0
 62
   251
100
AcDbVertex
100
AcDbPolyFaceMeshVertex
 10
-1952.84716796875
 20
-1703.364013671875
 30
2.7786865234375
 70
   192
  0
VERTEX
  5
52B
330
4C2
100
AcDbEntity
  8
0
 62
   251
100
AcDbVertex
100
AcDbPolyFaceMeshVertex
 10
-1952.84716796875
 20
-1726.5810546875
 30
-112.653564453125
 70
   192
  0
VERTEX
  5
52C
330
4C2
100
AcDbEntity
  8
0
 62
   251
100
AcDbVertex
100
AcDbPolyFaceMeshVertex
 10
-1907.84716796875
 20
-1690.723510742187
 30
1006.204223632812
 70
   192
  0
VERTEX
  5
52D
330
4C2
100
AcDbEntity
  8
0
 62
   251
100
AcDbVertex
100
AcDbPolyFaceMeshVertex
 10
-1907.84716796875
 20
-1696.31689453125
 30
56.52545166015625
 70
   192
  0
VERTEX
  5
52E
330
4C2
100
AcDbEntity
  8
0
 62
   251
100
AcDbVertex
100
AcDbPolyFaceMeshVertex
 10
-1907.84716796875
 20
-1700.5341796875
 30
29.7430419921875
 70
   192
  0
VERTEX
  5
52F
330
4C2
100
AcDbEntity
  8
0
 62
   251
100
AcDbVertex
100
AcDbPolyFaceMeshVertex
 10
-1907.84716796875
 20
-1721.398071289062
 30
-158.7957763671875
 70
   192
  0
VERTEX
  5
530
330
4C2
100
AcDbEntity
  8
0
 62
   251
100
AcDbVertex
100
AcDbPolyFaceMeshVertex
 10
-1907.84716796875
 20
-1703.472412109375
 30
-78.486328125
 70
   192
  0
VERTEX
  5
531
330
4C2
100
AcDbEntity
  8
0
 62
   251
100
AcDbVertex
100
AcDbPolyFaceMeshVertex
 10
-1907.84716796875
 20
-1703.364013671875
 30
2.7786865234375
 70
   192
  0
VERTEX
  5
532
330
4C2
100
AcDbEntity
  8
0
 62
   251
100
AcDbVertex
100
AcDbPolyFaceMeshVertex
 10
-1907.84716796875
 20
-1735.723510742187
 30
1006.204223632812
 70
   192
  0
VERTEX
  5
533
330
4C2
100
AcDbEntity
  8
0
 62
   251
100
AcDbVertex
100
AcDbPolyFaceMeshVertex
 10
-1907.84716796875
 20
-1735.723510742187
 30
-20.2408447265625
 70
   192
  0
VERTEX
  5
534
330
4C2
100
AcDbEntity
  8
0
 62
   251
100
AcDbVertex
100
AcDbPolyFaceMeshVertex
 10
-1907.84716796875
 20
-1691.046264648437
 30
-158.7957763671875
 70
   192
  0
VERTEX
  5
535
330
4C2
100
AcDbEntity
  8
0
 62
   251
100
AcDbVertex
100
AcDbPolyFaceMeshVertex
 10
-1907.84716796875
 20
-1690.723510742187
 30
83.05468750000001
 70
   192
  0
VERTEX
  5
536
330
4C2
100
AcDbEntity
  8
0
 62
   251
100
AcDbVertex
100
AcDbPolyFaceMeshVertex
 10
-1952.84716796875
 20
-1700.5341796875
 30
29.7430419921875
 70
   192
  0
VERTEX
  5
537
330
4C2
100
AcDbEntity
  8
0
 62
   251
100
AcDbVertex
100
AcDbPolyFaceMeshVertex
 10
-1907.84716796875
 20
-1704.798950195312
 30
-24.2957763671875
 70
   192
  0
VERTEX
  5
538
330
4C2
100
AcDbEntity
  8
0
 62
   251
100
AcDbVertex
100
AcDbPolyFaceMeshVertex
 10
-1907.84716796875
 20
-1704.835083007812
 30
-51.408203125
 70
   192
  0
VERTEX
  5
539
330
4C2
100
AcDbEntity
  8
0
 62
   251
100
AcDbVertex
100
AcDbPolyFaceMeshVertex
 10
-1952.84716796875
 20
-1704.835083007812
 30
-51.408203125
 70
   192
  0
VERTEX
  5
53A
330
4C2
100
AcDbEntity
  8
0
 62
   251
100
AcDbVertex
100
AcDbPolyFaceMeshVertex
 10
-1907.84716796875
 20
-1700.714599609375
 30
-105.4581298828125
 70
   192
  0
VERTEX
  5
53B
330
4C2
100
AcDbEntity
  8
0
 62
   251
100
AcDbVertex
100
AcDbPolyFaceMeshVertex
 10
-1907.84716796875
 20
-1696.56884765625
 30
-132.251708984375
 70
   192
  0
VERTEX
  5
53C
330
4C2
100
AcDbEntity
  8
0
 62
   251
100
AcDbVertex
100
AcDbPolyFaceMeshVertex
 10
-1952.84716796875
 20
-1704.798950195312
 30
-24.2957763671875
 70
   192
  0
VERTEX
  5
53D
330
4C2
100
AcDbEntity
  8
0
 62
   251
100
AcDbVertex
100
AcDbPolyFaceMeshVertex
 10
-1952.84716796875
 20
-1696.31689453125
 30
56.52545166015625
 70
   192
  0
VERTEX
  5
53E
330
4C2
100
AcDbEntity
  8
0
 62
   251
100
AcDbVertex
100
AcDbPolyFaceMeshVertex
 10
-1907.84716796875
 20
-1731.356323242187
 30
-66.4674072265625
 70
   192
  0
VERTEX
  5
53F
330
4C2
100
AcDbEntity
  8
0
 62
   251
100
AcDbVertex
100
AcDbPolyFaceMeshVertex
 10
-1907.84716796875
 20
-1726.5810546875
 30
-112.653564453125
 70
   192
  0
VERTEX
  5
540
330
4C2
100
AcDbEntity
  8
0
 62
   251
100
AcDbVertex
100
AcDbPolyFaceMeshVertex
 10
-1952.84716796875
 20
-1721.398071289062
 30
-158.7957763671875
 70
   192
  0
VERTEX
  5
541
330
4C2
100
AcDbEntity
  8
0
 62
   251
100
AcDbVertex
100
AcDbPolyFaceMeshVertex
 10
-1952.84716796875
 20
-1731.356323242187
 30
-66.4674072265625
 70
   192
  0
VERTEX
  5
542
330
4C2
100
AcDbEntity
  8
0
 62
   251
100
AcDbVertex
100
AcDbPolyFaceMeshVertex
 10
-1952.84716796875
 20
-1735.723510742187
 30
-20.2408447265625
 70
   192
  0
VERTEX
  5
543
330
4C2
100
AcDbEntity
  8
0
 62
   251
100
AcDbFaceRecord
 10
0.0
 20
0.0
 30
0.0
 70
   128
 71
     1
 72
    21
 73
    10
 74
    -1
  0
VERTEX
  5
544
330
4C2
100
AcDbEntity
  8
0
 62
   251
100
AcDbFaceRecord
 10
0.0
 20
0.0
 30
0.0
 70
   128
 71
     9
 72
    21
 73
     1
 74
    -9
  0
VERTEX
  5
545
330
4C2
100
AcDbEntity
  8
0
 62
   251
100
AcDbFaceRecord
 10
0.0
 20
0.0
 30
0.0
 70
   128
 71
    24
 72
     2
 73
     8
 74
   -24
  0
VERTEX
  5
546
330
4C2
100
AcDbEntity
  8
0
 62
   251
100
AcDbFaceRecord
 10
0.0
 20
0.0
 30
0.0
 70
   128
 71
    20
 72
     2
 73
    24
 74
   -20
  0
VERTEX
  5
547
330
4C2
100
AcDbEntity
  8
0
 62
   251
100
AcDbFaceRecord
 10
0.0
 20
0.0
 30
0.0
 70
   128
 71
    26
 72
     7
 73
    25
 74
   -26
  0
VERTEX
  5
548
330
4C2
100
AcDbEntity
  8
0
 62
   251
100
AcDbFaceRecord
 10
0.0
 20
0.0
 30
0.0
 70
   128
 71
    18
 72
     7
 73
    26
 74
   -18
  0
VERTEX
  5
549
330
4C2
100
AcDbEntity
  8
0
 62
   251
100
AcDbFaceRecord
 10
0.0
 20
0.0
 30
0.0
 70
   128
 71
     4
 72
     6
 73
     3
 74
    -4
  0
VERTEX
  5
54A
330
4C2
100
AcDbEntity
  8
0
 62
   251
100
AcDbFaceRecord
 10
0.0
 20
0.0
 30
0.0
 70
   128
 71
     5
 72
     6
 73
     4
 74
    -5
  0
VERTEX
  5
54B
330
4C2
100
AcDbEntity
  8
0
 62
   251
100
AcDbFaceRecord
 10
0.0
 20
0.0
 30
0.0
 70
   128
 71
    17
 72
    16
 73
     5
 74
   -17
  0
VERTEX
  5
54C
330
4C2
100
AcDbEntity
  8
0
 62
   251
100
AcDbFaceRecord
 10
0.0
 20
0.0
 30
0.0
 70
   128
 71
    17
 72
     5
 73
     4
 74
   -17
  0
VERTEX
  5
54D
330
4C2
100
AcDbEntity
  8
0
 62
   251
100
AcDbFaceRecord
 10
0.0
 20
0.0
 30
0.0
 70
   128
 71
    18
 72
     3
 73
     6
 74
   -18
  0
VERTEX
  5
54E
330
4C2
100
AcDbEntity
  8
0
 62
   251
100
AcDbFaceRecord
 10
0.0
 20
0.0
 30
0.0
 70
   128
 71
     3
 72
    18
 73
    26
 74
    -3
  0
VERTEX
  5
54F
330
4C2
100
AcDbEntity
  8
0
 62
   251
100
AcDbFaceRecord
 10
0.0
 20
0.0
 30
0.0
 70
   128
 71
    20
 72
    25
 73
     7
 74
   -20
  0
VERTEX
  5
550
330
4C2
100
AcDbEntity
  8
0
 62
   251
100
AcDbFaceRecord
 10
0.0
 20
0.0
 30
0.0
 70
   128
 71
    25
 72
    20
 73
    24
 74
   -25
  0
VERTEX
  5
551
330
4C2
100
AcDbEntity
  8
0
 62
   251
100
AcDbFaceRecord
 10
0.0
 20
0.0
 30
0.0
 70
   128
 71
     9
 72
     8
 73
     2
 74
    -9
  0
VERTEX
  5
552
330
4C2
100
AcDbEntity
  8
0
 62
   251
100
AcDbFaceRecord
 10
0.0
 20
0.0
 30
0.0
 70
   128
 71
     8
 72
     9
 73
     1
 74
    -8
  0
VERTEX
  5
553
330
4C2
100
AcDbEntity
  8
0
 62
   251
100
AcDbFaceRecord
 10
0.0
 20
0.0
 30
0.0
 70
   128
 71
    30
 72
    10
 73
    21
 74
   -30
  0
VERTEX
  5
554
330
4C2
100
AcDbEntity
  8
0
 62
   251
100
AcDbFaceRecord
 10
0.0
 20
0.0
 30
0.0
 70
   128
 71
    28
 72
    10
 73
    30
 74
   -28
  0
VERTEX
  5
555
330
4C2
100
AcDbEntity
  8
0
 62
   251
100
AcDbFaceRecord
 10
0.0
 20
0.0
 30
0.0
 70
   128
 71
    11
 72
    23
 73
    14
 74
   -11
  0
VERTEX
  5
556
330
4C2
100
AcDbEntity
  8
0
 62
   251
100
AcDbFaceRecord
 10
0.0
 20
0.0
 30
0.0
 70
   128
 71
    13
 72
    11
 73
    14
 74
   -13
  0
VERTEX
  5
557
330
4C2
100
AcDbEntity
  8
0
 62
   251
100
AcDbFaceRecord
 10
0.0
 20
0.0
 30
0.0
 70
   128
 71
    19
 72
    27
 73
    13
 74
   -19
  0
VERTEX
  5
558
330
4C2
100
AcDbEntity
  8
0
 62
   251
100
AcDbFaceRecord
 10
0.0
 20
0.0
 30
0.0
 70
   128
 71
    12
 72
    19
 73
    13
 74
   -12
  0
VERTEX
  5
559
330
4C2
100
AcDbEntity
  8
0
 62
   251
100
AcDbFaceRecord
 10
0.0
 20
0.0
 30
0.0
 70
   128
 71
    12
 72
    13
 73
    14
 74
   -12
  0
VERTEX
  5
55A
330
4C2
100
AcDbEntity
  8
0
 62
   251
100
AcDbFaceRecord
 10
0.0
 20
0.0
 30
0.0
 70
   128
 71
    15
 72
    14
 73
    23
 74
   -15
  0
VERTEX
  5
55B
330
4C2
100
AcDbEntity
  8
0
 62
   251
100
AcDbFaceRecord
 10
0.0
 20
0.0
 30
0.0
 70
   128
 71
    27
 72
    19
 73
    16
 74
   -27
  0
VERTEX
  5
55C
330
4C2
100
AcDbEntity
  8
0
 62
   251
100
AcDbFaceRecord
 10
0.0
 20
0.0
 30
0.0
 70
   128
 71
    17
 72
    27
 73
    16
 74
   -17
  0
VERTEX
  5
55D
330
4C2
100
AcDbEntity
  8
0
 62
   251
100
AcDbFaceRecord
 10
0.0
 20
0.0
 30
0.0
 70
   128
 71
     2
 72
    32
 73
     9
 74
    -2
  0
VERTEX
  5
55E
330
4C2
100
AcDbEntity
  8
0
 62
   251
100
AcDbFaceRecord
 10
0.0
 20
0.0
 30
0.0
 70
   128
 71
    15
 72
    32
 73
     2
 74
   -15
  0
VERTEX
  5
55F
330
4C2
100
AcDbEntity
  8
0
 62
   251
100
AcDbFaceRecord
 10
0.0
 20
0.0
 30
0.0
 70
   128
 71
    14
 72
    15
 73
     2
 74
   -14
  0
VERTEX
  5
560
330
4C2
100
AcDbEntity
  8
0
 62
   251
100
AcDbFaceRecord
 10
0.0
 20
0.0
 30
0.0
 70
   128
 71
    12
 72
    14
 73
    20
 74
   -12
  0
VERTEX
  5
561
330
4C2
100
AcDbEntity
  8
0
 62
   251
100
AcDbFaceRecord
 10
0.0
 20
0.0
 30
0.0
 70
   128
 71
    19
 72
    12
 73
    20
 74
   -19
  0
VERTEX
  5
562
330
4C2
100
AcDbEntity
  8
0
 62
   251
100
AcDbFaceRecord
 10
0.0
 20
0.0
 30
0.0
 70
   128
 71
     5
 72
    16
 73
    19
 74
    -5
  0
VERTEX
  5
563
330
4C2
100
AcDbEntity
  8
0
 62
   251
100
AcDbFaceRecord
 10
0.0
 20
0.0
 30
0.0
 70
   128
 71
     6
 72
     5
 73
    19
 74
    -6
  0
VERTEX
  5
564
330
4C2
100
AcDbEntity
  8
0
 62
   251
100
AcDbFaceRecord
 10
0.0
 20
0.0
 30
0.0
 70
   128
 71
    18
 72
     6
 73
    19
 74
   -18
  0
VERTEX
  5
565
330
4C2
100
AcDbEntity
  8
0
 62
   251
100
AcDbFaceRecord
 10
0.0
 20
0.0
 30
0.0
 70
   128
 71
     7
 72
    18
 73
    19
 74
    -7
  0
VERTEX
  5
566
330
4C2
100
AcDbEntity
  8
0
 62
   251
100
AcDbFaceRecord
 10
0.0
 20
0.0
 30
0.0
 70
   128
 71
     7
 72
    19
 73
    20
 74
    -7
  0
VERTEX
  5
567
330
4C2
100
AcDbEntity
  8
0
 62
   251
100
AcDbFaceRecord
 10
0.0
 20
0.0
 30
0.0
 70
   128
 71
    20
 72
    14
 73
     2
 74
   -20
  0
VERTEX
  5
568
330
4C2
100
AcDbEntity
  8
0
 62
   251
100
AcDbFaceRecord
 10
0.0
 20
0.0
 30
0.0
 70
   128
 71
    29
 72
     9
 73
    32
 74
   -29
  0
VERTEX
  5
569
330
4C2
100
AcDbEntity
  8
0
 62
   251
100
AcDbFaceRecord
 10
0.0
 20
0.0
 30
0.0
 70
   128
 71
    21
 72
     9
 73
    29
 74
   -21
  0
VERTEX
  5
56A
330
4C2
100
AcDbEntity
  8
0
 62
   251
100
AcDbFaceRecord
 10
0.0
 20
0.0
 30
0.0
 70
   128
 71
    30
 72
    21
 73
    29
 74
   -30
  0
VERTEX
  5
56B
330
4C2
100
AcDbEntity
  8
0
 62
   251
100
AcDbFaceRecord
 10
0.0
 20
0.0
 30
0.0
 70
   128
 71
    22
 72
    32
 73
    15
 74
   -22
  0
VERTEX
  5
56C
330
4C2
100
AcDbEntity
  8
0
 62
   251
100
AcDbFaceRecord
 10
0.0
 20
0.0
 30
0.0
 70
   128
 71
    23
 72
    22
 73
    15
 74
   -23
  0
VERTEX
  5
56D
330
4C2
100
AcDbEntity
  8
0
 62
   251
100
AcDbFaceRecord
 10
0.0
 20
0.0
 30
0.0
 70
   128
 71
    27
 72
    24
 73
    13
 74
   -27
  0
VERTEX
  5
56E
330
4C2
100
AcDbEntity
  8
0
 62
   251
100
AcDbFaceRecord
 10
0.0
 20
0.0
 30
0.0
 70
   128
 71
    10
 72
    31
 73
     1
 74
   -10
  0
VERTEX
  5
56F
330
4C2
100
AcDbEntity
  8
0
 62
   251
100
AcDbFaceRecord
 10
0.0
 20
0.0
 30
0.0
 70
   128
 71
    22
 72
    13
 73
    24
 74
   -22
  0
VERTEX
  5
570
330
4C2
100
AcDbEntity
  8
0
 62
   251
100
AcDbFaceRecord
 10
0.0
 20
0.0
 30
0.0
 70
   128
 71
    11
 72
    13
 73
    22
 74
   -11
  0
VERTEX
  5
571
330
4C2
100
AcDbEntity
  8
0
 62
   251
100
AcDbFaceRecord
 10
0.0
 20
0.0
 30
0.0
 70
   128
 71
    23
 72
    11
 73
    22
 74
   -23
  0
VERTEX
  5
572
330
4C2
100
AcDbEntity
  8
0
 62
   251
100
AcDbFaceRecord
 10
0.0
 20
0.0
 30
0.0
 70
   128
 71
    28
 72
    31
 73
    10
 74
   -28
  0
VERTEX
  5
573
330
4C2
100
AcDbEntity
  8
0
 62
   251
100
AcDbFaceRecord
 10
0.0
 20
0.0
 30
0.0
 70
   128
 71
     8
 72
     1
 73
    31
 74
    -8
  0
VERTEX
  5
574
330
4C2
100
AcDbEntity
  8
0
 62
   251
100
AcDbFaceRecord
 10
0.0
 20
0.0
 30
0.0
 70
   128
 71
    22
 72
     8
 73
    31
 74
   -22
  0
VERTEX
  5
575
330
4C2
100
AcDbEntity
  8
0
 62
   251
100
AcDbFaceRecord
 10
0.0
 20
0.0
 30
0.0
 70
   128
 71
     8
 72
    22
 73
    24
 74
    -8
  0
VERTEX
  5
576
330
4C2
100
AcDbEntity
  8
0
 62
   251
100
AcDbFaceRecord
 10
0.0
 20
0.0
 30
0.0
 70
   128
 71
    25
 72
    24
 73
    27
 74
   -25
  0
VERTEX
  5
577
330
4C2
100
AcDbEntity
  8
0
 62
   251
100
AcDbFaceRecord
 10
0.0
 20
0.0
 30
0.0
 70
   128
 71
    26
 72
    25
 73
    27
 74
   -26
  0
VERTEX
  5
578
330
4C2
100
AcDbEntity
  8
0
 62
   251
100
AcDbFaceRecord
 10
0.0
 20
0.0
 30
0.0
 70
   128
 71
     3
 72
    26
 73
    27
 74
    -3
  0
VERTEX
  5
579
330
4C2
100
AcDbEntity
  8
0
 62
   251
100
AcDbFaceRecord
 10
0.0
 20
0.0
 30
0.0
 70
   128
 71
     4
 72
     3
 73
    27
 74
    -4
  0
VERTEX
  5
57A
330
4C2
100
AcDbEntity
  8
0
 62
   251
100
AcDbFaceRecord
 10
0.0
 20
0.0
 30
0.0
 70
   128
 71
    17
 72
     4
 73
    27
 74
   -17
  0
VERTEX
  5
57B
330
4C2
100
AcDbEntity
  8
0
 62
   251
100
AcDbFaceRecord
 10
0.0
 20
0.0
 30
0.0
 70
   128
 71
    29
 72
    31
 73
    28
 74
   -29
  0
VERTEX
  5
57C
330
4C2
100
AcDbEntity
  8
0
 62
   251
100
AcDbFaceRecord
 10
0.0
 20
0.0
 30
0.0
 70
   128
 71
    30
 72
    29
 73
    28
 74
   -30
  0
VERTEX
  5
57D
330
4C2
100
AcDbEntity
  8
0
 62
   251
100
AcDbFaceRecord
 10
0.0
 20
0.0
 30
0.0
 70
   128
 71
    32
 72
    22
 73
    31
 74
   -32
  0
VERTEX
  5
57E
330
4C2
100
AcDbEntity
  8
0
 62
   251
100
AcDbFaceRecord
 10
0.0
 20
0.0
 30
0.0
 70
   128
 71
    29
 72
    32
 73
    31
 74
   -29
  0
VERTEX
  5
57F
330
4C2
100
AcDbEntity
  8
0
 62
   251
100
AcDbFaceRecord
 10
0.0
 20
0.0
 30
0.0
 70
   128
 71
    48
 72
    42
 73
    38
 74
   -48
  0
VERTEX
  5
580
330
4C2
100
AcDbEntity
  8
0
 62
   251
100
AcDbFaceRecord
 10
0.0
 20
0.0
 30
0.0
 70
   128
 71
    34
 72
    48
 73
    38
 74
   -34
  0
VERTEX
  5
581
330
4C2
100
AcDbEntity
  8
0
 62
   251
100
AcDbFaceRecord
 10
0.0
 20
0.0
 30
0.0
 70
   128
 71
    34
 72
    38
 73
    33
 74
   -34
  0
VERTEX
  5
582
330
4C2
100
AcDbEntity
  8
0
 62
   251
100
AcDbFaceRecord
 10
0.0
 20
0.0
 30
0.0
 70
   128
 71
    50
 72
    34
 73
    33
 74
   -50
  0
VERTEX
  5
583
330
4C2
100
AcDbEntity
  8
0
 62
   251
100
AcDbFaceRecord
 10
0.0
 20
0.0
 30
0.0
 70
   128
 71
    55
 72
    40
 73
    36
 74
   -55
  0
VERTEX
  5
584
330
4C2
100
AcDbEntity
  8
0
 62
   251
100
AcDbFaceRecord
 10
0.0
 20
0.0
 30
0.0
 70
   128
 71
    64
 72
    38
 73
    35
 74
   -64
  0
VERTEX
  5
585
330
4C2
100
AcDbEntity
  8
0
 62
   251
100
AcDbFaceRecord
 10
0.0
 20
0.0
 30
0.0
 70
   128
 71
    42
 72
    36
 73
    40
 74
   -42
  0
VERTEX
  5
586
330
4C2
100
AcDbEntity
  8
0
 62
   251
100
AcDbFaceRecord
 10
0.0
 20
0.0
 30
0.0
 70
   128
 71
    53
 72
    36
 73
    42
 74
   -53
  0
VERTEX
  5
587
330
4C2
100
AcDbEntity
  8
0
 62
   251
100
AcDbFaceRecord
 10
0.0
 20
0.0
 30
0.0
 70
   128
 71
    37
 72
    53
 73
    42
 74
   -37
  0
VERTEX
  5
588
330
4C2
100
AcDbEntity
  8
0
 62
   251
100
AcDbFaceRecord
 10
0.0
 20
0.0
 30
0.0
 70
   128
 71
    33
 72
    38
 73
    64
 74
   -33
  0
VERTEX
  5
589
330
4C2
100
AcDbEntity
  8
0
 62
   251
100
AcDbFaceRecord
 10
0.0
 20
0.0
 30
0.0
 70
   128
 71
    39
 72
    35
 73
    38
 74
   -39
  0
VERTEX
  5
58A
330
4C2
100
AcDbEntity
  8
0
 62
   251
100
AcDbFaceRecord
 10
0.0
 20
0.0
 30
0.0
 70
   128
 71
    42
 72
    39
 73
    38
 74
   -42
  0
VERTEX
  5
58B
330
4C2
100
AcDbEntity
  8
0
 62
   251
100
AcDbFaceRecord
 10
0.0
 20
0.0
 30
0.0
 70
   128
 71
    39
 72
    42
 73
    40
 74
   -39
  0
VERTEX
  5
58C
330
4C2
100
AcDbEntity
  8
0
 62
   251
100
AcDbFaceRecord
 10
0.0
 20
0.0
 30
0.0
 70
   128
 71
    61
 72
    40
 73
    55
 74
   -61
  0
VERTEX
  5
58D
330
4C2
100
AcDbEntity
  8
0
 62
   251
100
AcDbFaceRecord
 10
0.0
 20
0.0
 30
0.0
 70
   128
 71
    57
 72
    61
 73
    55
 74
   -57
  0
VERTEX
  5
58E
330
4C2
100
AcDbEntity
  8
0
 62
   251
100
AcDbFaceRecord
 10
0.0
 20
0.0
 30
0.0
 70
   128
 71
    58
 72
    57
 73
    55
 74
   -58
  0
VERTEX
  5
58F
330
4C2
100
AcDbEntity
  8
0
 62
   251
100
AcDbFaceRecord
 10
0.0
 20
0.0
 30
0.0
 70
   128
 71
    60
 72
    58
 73
    55
 74
   -60
  0
VERTEX
  5
590
330
4C2
100
AcDbEntity
  8
0
 62
   251
100
AcDbFaceRecord
 10
0.0
 20
0.0
 30
0.0
 70
   128
 71
    52
 72
    60
 73
    55
 74
   -52
  0
VERTEX
  5
591
330
4C2
100
AcDbEntity
  8
0
 62
   251
100
AcDbFaceRecord
 10
0.0
 20
0.0
 30
0.0
 70
   128
 71
    42
 72
    48
 73
    41
 74
   -42
  0
VERTEX
  5
592
330
4C2
100
AcDbEntity
  8
0
 62
   251
100
AcDbFaceRecord
 10
0.0
 20
0.0
 30
0.0
 70
   128
 71
    37
 72
    42
 73
    41
 74
   -37
  0
VERTEX
  5
593
330
4C2
100
AcDbEntity
  8
0
 62
   251
100
AcDbFaceRecord
 10
0.0
 20
0.0
 30
0.0
 70
   128
 71
    54
 72
    48
 73
    44
 74
   -54
  0
VERTEX
  5
594
330
4C2
100
AcDbEntity
  8
0
 62
   251
100
AcDbFaceRecord
 10
0.0
 20
0.0
 30
0.0
 70
   128
 71
    41
 72
    48
 73
    54
 74
   -41
  0
VERTEX
  5
595
330
4C2
100
AcDbEntity
  8
0
 62
   251
100
AcDbFaceRecord
 10
0.0
 20
0.0
 30
0.0
 70
   128
 71
    43
 72
    48
 73
    62
 74
   -43
  0
VERTEX
  5
596
330
4C2
100
AcDbEntity
  8
0
 62
   251
100
AcDbFaceRecord
 10
0.0
 20
0.0
 30
0.0
 70
   128
 71
    43
 72
    44
 73
    48
 74
   -43
  0
VERTEX
  5
597
330
4C2
100
AcDbEntity
  8
0
 62
   251
100
AcDbFaceRecord
 10
0.0
 20
0.0
 30
0.0
 70
   128
 71
    46
 72
    44
 73
    43
 74
   -46
  0
VERTEX
  5
598
330
4C2
100
AcDbEntity
  8
0
 62
   251
100
AcDbFaceRecord
 10
0.0
 20
0.0
 30
0.0
 70
   128
 71
    45
 72
    51
 73
    46
 74
   -45
  0
VERTEX
  5
599
330
4C2
100
AcDbEntity
  8
0
 62
   251
100
AcDbFaceRecord
 10
0.0
 20
0.0
 30
0.0
 70
   128
 71
    59
 72
    45
 73
    46
 74
   -59
  0
VERTEX
  5
59A
330
4C2
100
AcDbEntity
  8
0
 62
   251
100
AcDbFaceRecord
 10
0.0
 20
0.0
 30
0.0
 70
   128
 71
    47
 72
    59
 73
    46
 74
   -47
  0
VERTEX
  5
59B
330
4C2
100
AcDbEntity
  8
0
 62
   251
100
AcDbFaceRecord
 10
0.0
 20
0.0
 30
0.0
 70
   128
 71
    56
 72
    47
 73
    46
 74
   -56
  0
VERTEX
  5
59C
330
4C2
100
AcDbEntity
  8
0
 62
   251
100
AcDbFaceRecord
 10
0.0
 20
0.0
 30
0.0
 70
   128
 71
    56
 72
    46
 73
    43
 74
   -56
  0
VERTEX
  5
59D
330
4C2
100
AcDbEntity
  8
0
 62
   251
100
AcDbFaceRecord
 10
0.0
 20
0.0
 30
0.0
 70
   128
 71
    34
 72
    62
 73
    48
 74
   -34
  0
VERTEX
  5
59E
330
4C2
100
AcDbEntity
  8
0
 62
   251
100
AcDbFaceRecord
 10
0.0
 20
0.0
 30
0.0
 70
   128
 71
    63
 72
    62
 73
    34
 74
   -63
  0
VERTEX
  5
59F
330
4C2
100
AcDbEntity
  8
0
 62
   251
100
AcDbFaceRecord
 10
0.0
 20
0.0
 30
0.0
 70
   128
 71
    49
 72
    63
 73
    34
 74
   -49
  0
VERTEX
  5
5A0
330
4C2
100
AcDbEntity
  8
0
 62
   251
100
AcDbFaceRecord
 10
0.0
 20
0.0
 30
0.0
 70
   128
 71
    50
 72
    49
 73
    34
 74
   -50
  0
VERTEX
  5
5A1
330
4C2
100
AcDbEntity
  8
0
 62
   251
100
AcDbFaceRecord
 10
0.0
 20
0.0
 30
0.0
 70
   128
 71
    55
 72
    46
 73
    51
 74
   -55
  0
VERTEX
  5
5A2
330
4C2
100
AcDbEntity
  8
0
 62
   251
100
AcDbFaceRecord
 10
0.0
 20
0.0
 30
0.0
 70
   128
 71
    52
 72
    55
 73
    51
 74
   -52
  0
VERTEX
  5
5A3
330
4C2
100
AcDbEntity
  8
0
 62
   251
100
AcDbFaceRecord
 10
0.0
 20
0.0
 30
0.0
 70
   128
 71
    53
 72
    37
 73
    54
 74
   -53
  0
VERTEX
  5
5A4
330
4C2
100
AcDbEntity
  8
0
 62
   251
100
AcDbFaceRecord
 10
0.0
 20
0.0
 30
0.0
 70
   128
 71
    36
 72
    53
 73
    54
 74
   -36
  0
VERTEX
  5
5A5
330
4C2
100
AcDbEntity
  8
0
 62
   251
100
AcDbFaceRecord
 10
0.0
 20
0.0
 30
0.0
 70
   128
 71
    46
 72
    55
 73
    36
 74
   -46
  0
VERTEX
  5
5A6
330
4C2
100
AcDbEntity
  8
0
 62
   251
100
AcDbFaceRecord
 10
0.0
 20
0.0
 30
0.0
 70
   128
 71
    44
 72
    46
 73
    36
 74
   -44
  0
VERTEX
  5
5A7
330
4C2
100
AcDbEntity
  8
0
 62
   251
100
AcDbFaceRecord
 10
0.0
 20
0.0
 30
0.0
 70
   128
 71
    44
 72
    36
 73
    54
 74
   -44
  0
VERTEX
  5
5A8
330
4C2
100
AcDbEntity
  8
0
 62
   251
100
AcDbFaceRecord
 10
0.0
 20
0.0
 30
0.0
 70
   128
 71
    41
 72
    54
 73
    37
 74
   -41
  0
VERTEX
  5
5A9
330
4C2
100
AcDbEntity
  8
0
 62
   251
100
AcDbFaceRecord
 10
0.0
 20
0.0
 30
0.0
 70
   128
 71
    35
 72
    49
 73
    64
 74
   -35
  0
VERTEX
  5
5AA
330
4C2
100
AcDbEntity
  8
0
 62
   251
100
AcDbFaceRecord
 10
0.0
 20
0.0
 30
0.0
 70
   128
 71
    63
 72
    49
 73
    35
 74
   -63
  0
VERTEX
  5
5AB
330
4C2
100
AcDbEntity
  8
0
 62
   251
100
AcDbFaceRecord
 10
0.0
 20
0.0
 30
0.0
 70
   128
 71
    40
 72
    62
 73
    39
 74
   -40
  0
VERTEX
  5
5AC
330
4C2
100
AcDbEntity
  8
0
 62
   251
100
AcDbFaceRecord
 10
0.0
 20
0.0
 30
0.0
 70
   128
 71
    43
 72
    62
 73
    40
 74
   -43
  0
VERTEX
  5
5AD
330
4C2
100
AcDbEntity
  8
0
 62
   251
100
AcDbFaceRecord
 10
0.0
 20
0.0
 30
0.0
 70
   128
 71
    57
 72
    56
 73
    61
 74
   -57
  0
VERTEX
  5
5AE
330
4C2
100
AcDbEntity
  8
0
 62
   251
100
AcDbFaceRecord
 10
0.0
 20
0.0
 30
0.0
 70
   128
 71
    47
 72
    56
 73
    57
 74
   -47
  0
VERTEX
  5
5AF
330
4C2
100
AcDbEntity
  8
0
 62
   251
100
AcDbFaceRecord
 10
0.0
 20
0.0
 30
0.0
 70
   128
 71
    60
 72
    59
 73
    58
 74
   -60
  0
VERTEX
  5
5B0
330
4C2
100
AcDbEntity
  8
0
 62
   251
100
AcDbFaceRecord
 10
0.0
 20
0.0
 30
0.0
 70
   128
 71
    45
 72
    59
 73
    60
 74
   -45
  0
VERTEX
  5
5B1
330
4C2
100
AcDbEntity
  8
0
 62
   251
100
AcDbFaceRecord
 10
0.0
 20
0.0
 30
0.0
 70
   128
 71
    52
 72
    51
 73
    45
 74
   -52
  0
VERTEX
  5
5B2
330
4C2
100
AcDbEntity
  8
0
 62
   251
100
AcDbFaceRecord
 10
0.0
 20
0.0
 30
0.0
 70
   128
 71
    52
 72
    45
 73
    60
 74
   -52
  0
VERTEX
  5
5B3
330
4C2
100
AcDbEntity
  8
0
 62
   251
100
AcDbFaceRecord
 10
0.0
 20
0.0
 30
0.0
 70
   128
 71
    47
 72
    58
 73
    59
 74
   -47
  0
VERTEX
  5
5B4
330
4C2
100
AcDbEntity
  8
0
 62
   251
100
AcDbFaceRecord
 10
0.0
 20
0.0
 30
0.0
 70
   128
 71
    58
 72
    47
 73
    57
 74
   -58
  0
VERTEX
  5
5B5
330
4C2
100
AcDbEntity
  8
0
 62
   251
100
AcDbFaceRecord
 10
0.0
 20
0.0
 30
0.0
 70
   128
 71
    43
 72
    61
 73
    56
 74
   -43
  0
VERTEX
  5
5B6
330
4C2
100
AcDbEntity
  8
0
 62
   251
100
AcDbFaceRecord
 10
0.0
 20
0.0
 30
0.0
 70
   128
 71
    61
 72
    43
 73
    40
 74
   -61
  0
VERTEX
  5
5B7
330
4C2
100
AcDbEntity
  8
0
 62
   251
100
AcDbFaceRecord
 10
0.0
 20
0.0
 30
0.0
 70
   128
 71
    63
 72
    39
 73
    62
 74
   -63
  0
VERTEX
  5
5B8
330
4C2
100
AcDbEntity
  8
0
 62
   251
100
AcDbFaceRecord
 10
0.0
 20
0.0
 30
0.0
 70
   128
 71
    39
 72
    63
 73
    35
 74
   -39
  0
VERTEX
  5
5B9
330
4C2
100
AcDbEntity
  8
0
 62
   251
100
AcDbFaceRecord
 10
0.0
 20
0.0
 30
0.0
 70
   128
 71
    50
 72
    64
 73
    49
 74
   -50
  0
VERTEX
  5
5BA
330
4C2
100
AcDbEntity
  8
0
 62
   251
100
AcDbFaceRecord
 10
0.0
 20
0.0
 30
0.0
 70
   128
 71
    33
 72
    64
 73
    50
 74
   -33
  0
VERTEX
  5
5BB
330
4C2
100
AcDbEntity
  8
0
 62
   251
100
AcDbFaceRecord
 10
0.0
 20
0.0
 30
0.0
 70
   128
 71
    92
 72
    66
 73
    89
 74
   -92
  0
VERTEX
  5
5BC
330
4C2
100
AcDbEntity
  8
0
 62
   251
100
AcDbFaceRecord
 10
0.0
 20
0.0
 30
0.0
 70
   128
 71
    65
 72
    66
 73
    92
 74
   -65
  0
VERTEX
  5
5BD
330
4C2
100
AcDbEntity
  8
0
 62
   251
100
AcDbFaceRecord
 10
0.0
 20
0.0
 30
0.0
 70
   128
 71
    67
 72
    89
 73
    66
 74
   -67
  0
VERTEX
  5
5BE
330
4C2
100
AcDbEntity
  8
0
 62
   251
100
AcDbFaceRecord
 10
0.0
 20
0.0
 30
0.0
 70
   128
 71
    90
 72
    89
 73
    67
 74
   -90
  0
VERTEX
  5
5BF
330
4C2
100
AcDbEntity
  8
0
 62
   251
100
AcDbFaceRecord
 10
0.0
 20
0.0
 30
0.0
 70
   128
 71
    68
 72
    90
 73
    67
 74
   -68
  0
VERTEX
  5
5C0
330
4C2
100
AcDbEntity
  8
0
 62
   251
100
AcDbFaceRecord
 10
0.0
 20
0.0
 30
0.0
 70
   128
 71
    69
 72
    68
 73
    67
 74
   -69
  0
VERTEX
  5
5C1
330
4C2
100
AcDbEntity
  8
0
 62
   251
100
AcDbFaceRecord
 10
0.0
 20
0.0
 30
0.0
 70
   128
 71
    72
 72
    71
 73
    70
 74
   -72
  0
VERTEX
  5
5C2
330
4C2
100
AcDbEntity
  8
0
 62
   251
100
AcDbFaceRecord
 10
0.0
 20
0.0
 30
0.0
 70
   128
 71
    93
 72
    71
 73
    72
 74
   -93
  0
VERTEX
  5
5C3
330
4C2
100
AcDbEntity
  8
0
 62
   251
100
AcDbFaceRecord
 10
0.0
 20
0.0
 30
0.0
 70
   128
 71
    79
 72
    93
 73
    72
 74
   -79
  0
VERTEX
  5
5C4
330
4C2
100
AcDbEntity
  8
0
 62
   251
100
AcDbFaceRecord
 10
0.0
 20
0.0
 30
0.0
 70
   128
 71
    86
 72
    73
 73
    84
 74
   -86
  0
VERTEX
  5
5C5
330
4C2
100
AcDbEntity
  8
0
 62
   251
100
AcDbFaceRecord
 10
0.0
 20
0.0
 30
0.0
 70
   128
 71
    74
 72
    73
 73
    86
 74
   -74
  0
VERTEX
  5
5C6
330
4C2
100
AcDbEntity
  8
0
 62
   251
100
AcDbFaceRecord
 10
0.0
 20
0.0
 30
0.0
 70
   128
 71
    87
 72
    91
 73
    78
 74
   -87
  0
VERTEX
  5
5C7
330
4C2
100
AcDbEntity
  8
0
 62
   251
100
AcDbFaceRecord
 10
0.0
 20
0.0
 30
0.0
 70
   128
 71
    75
 72
    91
 73
    87
 74
   -75
  0
VERTEX
  5
5C8
330
4C2
100
AcDbEntity
  8
0
 62
   251
100
AcDbFaceRecord
 10
0.0
 20
0.0
 30
0.0
 70
   128
 71
    76
 72
    83
 73
    75
 74
   -76
  0
VERTEX
  5
5C9
330
4C2
100
AcDbEntity
  8
0
 62
   251
100
AcDbFaceRecord
 10
0.0
 20
0.0
 30
0.0
 70
   128
 71
    77
 72
    76
 73
    75
 74
   -77
  0
VERTEX
  5
5CA
330
4C2
100
AcDbEntity
  8
0
 62
   251
100
AcDbFaceRecord
 10
0.0
 20
0.0
 30
0.0
 70
   128
 71
    77
 72
    75
 73
    87
 74
   -77
  0
VERTEX
  5
5CB
330
4C2
100
AcDbEntity
  8
0
 62
   251
100
AcDbFaceRecord
 10
0.0
 20
0.0
 30
0.0
 70
   128
 71
    74
 72
    78
 73
    91
 74
   -74
  0
VERTEX
  5
5CC
330
4C2
100
AcDbEntity
  8
0
 62
   251
100
AcDbFaceRecord
 10
0.0
 20
0.0
 30
0.0
 70
   128
 71
    78
 72
    74
 73
    86
 74
   -78
  0
VERTEX
  5
5CD
330
4C2
100
AcDbEntity
  8
0
 62
   251
100
AcDbFaceRecord
 10
0.0
 20
0.0
 30
0.0
 70
   128
 71
    79
 72
    84
 73
    73
 74
   -79
  0
VERTEX
  5
5CE
330
4C2
100
AcDbEntity
  8
0
 62
   251
100
AcDbFaceRecord
 10
0.0
 20
0.0
 30
0.0
 70
   128
 71
    84
 72
    79
 73
    72
 74
   -84
  0
VERTEX
  5
5CF
330
4C2
100
AcDbEntity
  8
0
 62
   251
100
AcDbFaceRecord
 10
0.0
 20
0.0
 30
0.0
 70
   128
 71
    80
 72
    70
 73
    71
 74
   -80
  0
VERTEX
  5
5D0
330
4C2
100
AcDbEntity
  8
0
 62
   251
100
AcDbFaceRecord
 10
0.0
 20
0.0
 30
0.0
 70
   128
 71
    81
 72
    80
 73
    71
 74
   -81
  0
VERTEX
  5
5D1
330
4C2
100
AcDbEntity
  8
0
 62
   251
100
AcDbFaceRecord
 10
0.0
 20
0.0
 30
0.0
 70
   128
 71
    96
 72
    80
 73
    81
 74
   -96
  0
VERTEX
  5
5D2
330
4C2
100
AcDbEntity
  8
0
 62
   251
100
AcDbFaceRecord
 10
0.0
 20
0.0
 30
0.0
 70
   128
 71
    82
 72
    96
 73
    81
 74
   -82
  0
VERTEX
  5
5D3
330
4C2
100
AcDbEntity
  8
0
 62
   251
100
AcDbFaceRecord
 10
0.0
 20
0.0
 30
0.0
 70
   128
 71
    83
 72
    76
 73
    65
 74
   -83
  0
VERTEX
  5
5D4
330
4C2
100
AcDbEntity
  8
0
 62
   251
100
AcDbFaceRecord
 10
0.0
 20
0.0
 30
0.0
 70
   128
 71
    92
 72
    83
 73
    65
 74
   -92
  0
VERTEX
  5
5D5
330
4C2
100
AcDbEntity
  8
0
 62
   251
100
AcDbFaceRecord
 10
0.0
 20
0.0
 30
0.0
 70
   128
 71
    65
 72
    84
 73
    66
 74
   -65
  0
VERTEX
  5
5D6
330
4C2
100
AcDbEntity
  8
0
 62
   251
100
AcDbFaceRecord
 10
0.0
 20
0.0
 30
0.0
 70
   128
 71
    80
 72
    96
 73
    85
 74
   -80
  0
VERTEX
  5
5D7
330
4C2
100
AcDbEntity
  8
0
 62
   251
100
AcDbFaceRecord
 10
0.0
 20
0.0
 30
0.0
 70
   128
 71
    70
 72
    80
 73
    85
 74
   -70
  0
VERTEX
  5
5D8
330
4C2
100
AcDbEntity
  8
0
 62
   251
100
AcDbFaceRecord
 10
0.0
 20
0.0
 30
0.0
 70
   128
 71
    72
 72
    70
 73
    85
 74
   -72
  0
VERTEX
  5
5D9
330
4C2
100
AcDbEntity
  8
0
 62
   251
100
AcDbFaceRecord
 10
0.0
 20
0.0
 30
0.0
 70
   128
 71
    86
 72
    84
 73
    65
 74
   -86
  0
VERTEX
  5
5DA
330
4C2
100
AcDbEntity
  8
0
 62
   251
100
AcDbFaceRecord
 10
0.0
 20
0.0
 30
0.0
 70
   128
 71
    78
 72
    86
 73
    65
 74
   -78
  0
VERTEX
  5
5DB
330
4C2
100
AcDbEntity
  8
0
 62
   251
100
AcDbFaceRecord
 10
0.0
 20
0.0
 30
0.0
 70
   128
 71
    87
 72
    78
 73
    65
 74
   -87
  0
VERTEX
  5
5DC
330
4C2
100
AcDbEntity
  8
0
 62
   251
100
AcDbFaceRecord
 10
0.0
 20
0.0
 30
0.0
 70
   128
 71
    77
 72
    87
 73
    65
 74
   -77
  0
VERTEX
  5
5DD
330
4C2
100
AcDbEntity
  8
0
 62
   251
100
AcDbFaceRecord
 10
0.0
 20
0.0
 30
0.0
 70
   128
 71
    76
 72
    77
 73
    65
 74
   -76
  0
VERTEX
  5
5DE
330
4C2
100
AcDbEntity
  8
0
 62
   251
100
AcDbFaceRecord
 10
0.0
 20
0.0
 30
0.0
 70
   128
 71
    88
 72
    72
 73
    85
 74
   -88
  0
VERTEX
  5
5DF
330
4C2
100
AcDbEntity
  8
0
 62
   251
100
AcDbFaceRecord
 10
0.0
 20
0.0
 30
0.0
 70
   128
 71
    88
 72
    84
 73
    72
 74
   -88
  0
VERTEX
  5
5E0
330
4C2
100
AcDbEntity
  8
0
 62
   251
100
AcDbFaceRecord
 10
0.0
 20
0.0
 30
0.0
 70
   128
 71
    88
 72
    66
 73
    84
 74
   -88
  0
VERTEX
  5
5E1
330
4C2
100
AcDbEntity
  8
0
 62
   251
100
AcDbFaceRecord
 10
0.0
 20
0.0
 30
0.0
 70
   128
 71
    67
 72
    66
 73
    88
 74
   -67
  0
VERTEX
  5
5E2
330
4C2
100
AcDbEntity
  8
0
 62
   251
100
AcDbFaceRecord
 10
0.0
 20
0.0
 30
0.0
 70
   128
 71
    69
 72
    67
 73
    88
 74
   -69
  0
VERTEX
  5
5E3
330
4C2
100
AcDbEntity
  8
0
 62
   251
100
AcDbFaceRecord
 10
0.0
 20
0.0
 30
0.0
 70
   128
 71
    90
 72
    95
 73
    89
 74
   -90
  0
VERTEX
  5
5E4
330
4C2
100
AcDbEntity
  8
0
 62
   251
100
AcDbFaceRecord
 10
0.0
 20
0.0
 30
0.0
 70
   128
 71
    75
 72
    83
 73
    92
 74
   -75
  0
VERTEX
  5
5E5
330
4C2
100
AcDbEntity
  8
0
 62
   251
100
AcDbFaceRecord
 10
0.0
 20
0.0
 30
0.0
 70
   128
 71
    91
 72
    75
 73
    92
 74
   -91
  0
VERTEX
  5
5E6
330
4C2
100
AcDbEntity
  8
0
 62
   251
100
AcDbFaceRecord
 10
0.0
 20
0.0
 30
0.0
 70
   128
 71
    74
 72
    91
 73
    92
 74
   -74
  0
VERTEX
  5
5E7
330
4C2
100
AcDbEntity
  8
0
 62
   251
100
AcDbFaceRecord
 10
0.0
 20
0.0
 30
0.0
 70
   128
 71
    73
 72
    74
 73
    92
 74
   -73
  0
VERTEX
  5
5E8
330
4C2
100
AcDbEntity
  8
0
 62
   251
100
AcDbFaceRecord
 10
0.0
 20
0.0
 30
0.0
 70
   128
 71
    79
 72
    73
 73
    92
 74
   -79
  0
VERTEX
  5
5E9
330
4C2
100
AcDbEntity
  8
0
 62
   251
100
AcDbFaceRecord
 10
0.0
 20
0.0
 30
0.0
 70
   128
 71
    71
 72
    93
 73
    94
 74
   -71
  0
VERTEX
  5
5EA
330
4C2
100
AcDbEntity
  8
0
 62
   251
100
AcDbFaceRecord
 10
0.0
 20
0.0
 30
0.0
 70
   128
 71
    81
 72
    71
 73
    94
 74
   -81
  0
VERTEX
  5
5EB
330
4C2
100
AcDbEntity
  8
0
 62
   251
100
AcDbFaceRecord
 10
0.0
 20
0.0
 30
0.0
 70
   128
 71
    82
 72
    81
 73
    94
 74
   -82
  0
VERTEX
  5
5EC
330
4C2
100
AcDbEntity
  8
0
 62
   251
100
AcDbFaceRecord
 10
0.0
 20
0.0
 30
0.0
 70
   128
 71
    95
 72
    94
 73
    93
 74
   -95
  0
VERTEX
  5
5ED
330
4C2
100
AcDbEntity
  8
0
 62
   251
100
AcDbFaceRecord
 10
0.0
 20
0.0
 30
0.0
 70
   128
 71
    68
 72
    95
 73
    90
 74
   -68
  0
VERTEX
  5
5EE
330
4C2
100
AcDbEntity
  8
0
 62
   251
100
AcDbFaceRecord
 10
0.0
 20
0.0
 30
0.0
 70
   128
 71
    79
 72
    95
 73
    93
 74
   -79
  0
VERTEX
  5
5EF
330
4C2
100
AcDbEntity
  8
0
 62
   251
100
AcDbFaceRecord
 10
0.0
 20
0.0
 30
0.0
 70
   128
 71
    79
 72
    89
 73
    95
 74
   -79
  0
VERTEX
  5
5F0
330
4C2
100
AcDbEntity
  8
0
 62
   251
100
AcDbFaceRecord
 10
0.0
 20
0.0
 30
0.0
 70
   128
 71
    89
 72
    79
 73
    92
 74
   -89
  0
VERTEX
  5
5F1
330
4C2
100
AcDbEntity
  8
0
 62
   251
100
AcDbFaceRecord
 10
0.0
 20
0.0
 30
0.0
 70
   128
 71
    88
 72
    95
 73
    68
 74
   -88
  0
VERTEX
  5
5F2
330
4C2
100
AcDbEntity
  8
0
 62
   251
100
AcDbFaceRecord
 10
0.0
 20
0.0
 30
0.0
 70
   128
 71
    69
 72
    88
 73
    68
 74
   -69
  0
VERTEX
  5
5F3
330
4C2
100
AcDbEntity
  8
0
 62
   251
100
AcDbFaceRecord
 10
0.0
 20
0.0
 30
0.0
 70
   128
 71
    94
 72
    85
 73
    96
 74
   -94
  0
VERTEX
  5
5F4
330
4C2
100
AcDbEntity
  8
0
 62
   251
100
AcDbFaceRecord
 10
0.0
 20
0.0
 30
0.0
 70
   128
 71
    82
 72
    94
 73
    96
 74
   -82
  0
VERTEX
  5
5F5
330
4C2
100
AcDbEntity
  8
0
 62
   251
100
AcDbFaceRecord
 10
0.0
 20
0.0
 30
0.0
 70
   128
 71
    95
 72
    88
 73
    85
 74
   -95
  0
VERTEX
  5
5F6
330
4C2
100
AcDbEntity
  8
0
 62
   251
100
AcDbFaceRecord
 10
0.0
 20
0.0
 30
0.0
 70
   128
 71
    94
 72
    95
 73
    85
 74
   -94
  0
VERTEX
  5
5F7
330
4C2
100
AcDbEntity
  8
0
 62
   251
100
AcDbFaceRecord
 10
0.0
 20
0.0
 30
0.0
 70
   128
 71
   103
 72
   112
 73
   106
 74
  -103
  0
VERTEX
  5
5F8
330
4C2
100
AcDbEntity
  8
0
 62
   251
100
AcDbFaceRecord
 10
0.0
 20
0.0
 30
0.0
 70
   128
 71
   102
 72
   103
 73
   106
 74
  -102
  0
VERTEX
  5
5F9
330
4C2
100
AcDbEntity
  8
0
 62
   251
100
AcDbFaceRecord
 10
0.0
 20
0.0
 30
0.0
 70
   128
 71
   102
 72
   106
 73
   115
 74
  -102
  0
VERTEX
  5
5FA
330
4C2
100
AcDbEntity
  8
0
 62
   251
100
AcDbFaceRecord
 10
0.0
 20
0.0
 30
0.0
 70
   128
 71
    97
 72
   102
 73
   115
 74
   -97
  0
VERTEX
  5
5FB
330
4C2
100
AcDbEntity
  8
0
 62
   251
100
AcDbFaceRecord
 10
0.0
 20
0.0
 30
0.0
 70
   128
 71
   112
 72
   103
 73
   128
 74
  -112
  0
VERTEX
  5
5FC
330
4C2
100
AcDbEntity
  8
0
 62
   251
100
AcDbFaceRecord
 10
0.0
 20
0.0
 30
0.0
 70
   128
 71
   113
 72
   112
 73
   128
 74
  -113
  0
VERTEX
  5
5FD
330
4C2
100
AcDbEntity
  8
0
 62
   251
100
AcDbFaceRecord
 10
0.0
 20
0.0
 30
0.0
 70
   128
 71
   127
 72
   103
 73
   105
 74
  -127
  0
VERTEX
  5
5FE
330
4C2
100
AcDbEntity
  8
0
 62
   251
100
AcDbFaceRecord
 10
0.0
 20
0.0
 30
0.0
 70
   128
 71
    99
 72
    98
 73
   126
 74
   -99
  0
VERTEX
  5
5FF
330
4C2
100
AcDbEntity
  8
0
 62
   251
100
AcDbFaceRecord
 10
0.0
 20
0.0
 30
0.0
 70
   128
 71
   100
 72
    99
 73
   126
 74
  -100
  0
VERTEX
  5
600
330
4C2
100
AcDbEntity
  8
0
 62
   251
100
AcDbFaceRecord
 10
0.0
 20
0.0
 30
0.0
 70
   128
 71
   101
 72
   100
 73
   126
 74
  -101
  0
VERTEX
  5
601
330
4C2
100
AcDbEntity
  8
0
 62
   251
100
AcDbFaceRecord
 10
0.0
 20
0.0
 30
0.0
 70
   128
 71
   119
 72
   101
 73
   126
 74
  -119
  0
VERTEX
  5
602
330
4C2
100
AcDbEntity
  8
0
 62
   251
100
AcDbFaceRecord
 10
0.0
 20
0.0
 30
0.0
 70
   128
 71
   122
 72
   119
 73
   126
 74
  -122
  0
VERTEX
  5
603
330
4C2
100
AcDbEntity
  8
0
 62
   251
100
AcDbFaceRecord
 10
0.0
 20
0.0
 30
0.0
 70
   128
 71
   116
 72
   104
 73
   102
 74
  -116
  0
VERTEX
  5
604
330
4C2
100
AcDbEntity
  8
0
 62
   251
100
AcDbFaceRecord
 10
0.0
 20
0.0
 30
0.0
 70
   128
 71
   123
 72
   116
 73
   102
 74
  -123
  0
VERTEX
  5
605
330
4C2
100
AcDbEntity
  8
0
 62
   251
100
AcDbFaceRecord
 10
0.0
 20
0.0
 30
0.0
 70
   128
 71
    97
 72
   123
 73
   102
 74
   -97
  0
VERTEX
  5
606
330
4C2
100
AcDbEntity
  8
0
 62
   251
100
AcDbFaceRecord
 10
0.0
 20
0.0
 30
0.0
 70
   128
 71
   103
 72
   102
 73
   104
 74
  -103
  0
VERTEX
  5
607
330
4C2
100
AcDbEntity
  8
0
 62
   251
100
AcDbFaceRecord
 10
0.0
 20
0.0
 30
0.0
 70
   128
 71
   128
 72
   103
 73
   127
 74
  -128
  0
VERTEX
  5
608
330
4C2
100
AcDbEntity
  8
0
 62
   251
100
AcDbFaceRecord
 10
0.0
 20
0.0
 30
0.0
 70
   128
 71
   122
 72
   103
 73
   104
 74
  -122
  0
VERTEX
  5
609
330
4C2
100
AcDbEntity
  8
0
 62
   251
100
AcDbFaceRecord
 10
0.0
 20
0.0
 30
0.0
 70
   128
 71
   122
 72
   105
 73
   103
 74
  -122
  0
VERTEX
  5
60A
330
4C2
100
AcDbEntity
  8
0
 62
   251
100
AcDbFaceRecord
 10
0.0
 20
0.0
 30
0.0
 70
   128
 71
   105
 72
   122
 73
   126
 74
  -105
  0
VERTEX
  5
60B
330
4C2
100
AcDbEntity
  8
0
 62
   251
100
AcDbFaceRecord
 10
0.0
 20
0.0
 30
0.0
 70
   128
 71
   109
 72
   117
 73
   125
 74
  -109
  0
VERTEX
  5
60C
330
4C2
100
AcDbEntity
  8
0
 62
   251
100
AcDbFaceRecord
 10
0.0
 20
0.0
 30
0.0
 70
   128
 71
   107
 72
   115
 73
   106
 74
  -107
  0
VERTEX
  5
60D
330
4C2
100
AcDbEntity
  8
0
 62
   251
100
AcDbFaceRecord
 10
0.0
 20
0.0
 30
0.0
 70
   128
 71
   108
 72
   107
 73
   106
 74
  -108
  0
VERTEX
  5
60E
330
4C2
100
AcDbEntity
  8
0
 62
   251
100
AcDbFaceRecord
 10
0.0
 20
0.0
 30
0.0
 70
   128
 71
   111
 72
   108
 73
   106
 74
  -111
  0
VERTEX
  5
60F
330
4C2
100
AcDbEntity
  8
0
 62
   251
100
AcDbFaceRecord
 10
0.0
 20
0.0
 30
0.0
 70
   128
 71
   118
 72
   117
 73
   109
 74
  -118
  0
VERTEX
  5
610
330
4C2
100
AcDbEntity
  8
0
 62
   251
100
AcDbFaceRecord
 10
0.0
 20
0.0
 30
0.0
 70
   128
 71
   110
 72
   118
 73
   109
 74
  -110
  0
VERTEX
  5
611
330
4C2
100
AcDbEntity
  8
0
 62
   251
100
AcDbFaceRecord
 10
0.0
 20
0.0
 30
0.0
 70
   128
 71
   120
 72
   110
 73
   109
 74
  -120
  0
VERTEX
  5
612
330
4C2
100
AcDbEntity
  8
0
 62
   251
100
AcDbFaceRecord
 10
0.0
 20
0.0
 30
0.0
 70
   128
 71
   121
 72
   120
 73
   109
 74
  -121
  0
VERTEX
  5
613
330
4C2
100
AcDbEntity
  8
0
 62
   251
100
AcDbFaceRecord
 10
0.0
 20
0.0
 30
0.0
 70
   128
 71
   114
 72
   121
 73
   109
 74
  -114
  0
VERTEX
  5
614
330
4C2
100
AcDbEntity
  8
0
 62
   251
100
AcDbFaceRecord
 10
0.0
 20
0.0
 30
0.0
 70
   128
 71
   112
 72
   111
 73
   106
 74
  -112
  0
VERTEX
  5
615
330
4C2
100
AcDbEntity
  8
0
 62
   251
100
AcDbFaceRecord
 10
0.0
 20
0.0
 30
0.0
 70
   128
 71
   112
 72
   117
 73
   111
 74
  -112
  0
VERTEX
  5
616
330
4C2
100
AcDbEntity
  8
0
 62
   251
100
AcDbFaceRecord
 10
0.0
 20
0.0
 30
0.0
 70
   128
 71
   112
 72
   125
 73
   117
 74
  -112
  0
VERTEX
  5
617
330
4C2
100
AcDbEntity
  8
0
 62
   251
100
AcDbFaceRecord
 10
0.0
 20
0.0
 30
0.0
 70
   128
 71
   124
 72
   125
 73
   112
 74
  -124
  0
VERTEX
  5
618
330
4C2
100
AcDbEntity
  8
0
 62
   251
100
AcDbFaceRecord
 10
0.0
 20
0.0
 30
0.0
 70
   128
 71
   113
 72
   124
 73
   112
 74
  -113
  0
VERTEX
  5
619
330
4C2
100
AcDbEntity
  8
0
 62
   251
100
AcDbFaceRecord
 10
0.0
 20
0.0
 30
0.0
 70
   128
 71
   126
 72
    98
 73
   114
 74
  -126
  0
VERTEX
  5
61A
330
4C2
100
AcDbEntity
  8
0
 62
   251
100
AcDbFaceRecord
 10
0.0
 20
0.0
 30
0.0
 70
   128
 71
   109
 72
   126
 73
   114
 74
  -109
  0
VERTEX
  5
61B
330
4C2
100
AcDbEntity
  8
0
 62
   251
100
AcDbFaceRecord
 10
0.0
 20
0.0
 30
0.0
 70
   128
 71
   107
 72
   123
 73
   115
 74
  -107
  0
VERTEX
  5
61C
330
4C2
100
AcDbEntity
  8
0
 62
   251
100
AcDbFaceRecord
 10
0.0
 20
0.0
 30
0.0
 70
   128
 71
   116
 72
   123
 73
   107
 74
  -116
  0
VERTEX
  5
61D
330
4C2
100
AcDbEntity
  8
0
 62
   251
100
AcDbFaceRecord
 10
0.0
 20
0.0
 30
0.0
 70
   128
 71
   104
 72
   116
 73
   111
 74
  -104
  0
VERTEX
  5
61E
330
4C2
100
AcDbEntity
  8
0
 62
   251
100
AcDbFaceRecord
 10
0.0
 20
0.0
 30
0.0
 70
   128
 71
   122
 72
   104
 73
   111
 74
  -122
  0
VERTEX
  5
61F
330
4C2
100
AcDbEntity
  8
0
 62
   251
100
AcDbFaceRecord
 10
0.0
 20
0.0
 30
0.0
 70
   128
 71
   118
 72
   119
 73
   117
 74
  -118
  0
VERTEX
  5
620
330
4C2
100
AcDbEntity
  8
0
 62
   251
100
AcDbFaceRecord
 10
0.0
 20
0.0
 30
0.0
 70
   128
 71
   101
 72
   119
 73
   118
 74
  -101
  0
VERTEX
  5
621
330
4C2
100
AcDbEntity
  8
0
 62
   251
100
AcDbFaceRecord
 10
0.0
 20
0.0
 30
0.0
 70
   128
 71
   120
 72
   100
 73
   110
 74
  -120
  0
VERTEX
  5
622
330
4C2
100
AcDbEntity
  8
0
 62
   251
100
AcDbFaceRecord
 10
0.0
 20
0.0
 30
0.0
 70
   128
 71
    99
 72
   100
 73
   120
 74
   -99
  0
VERTEX
  5
623
330
4C2
100
AcDbEntity
  8
0
 62
   251
100
AcDbFaceRecord
 10
0.0
 20
0.0
 30
0.0
 70
   128
 71
   114
 72
    98
 73
    99
 74
  -114
  0
VERTEX
  5
624
330
4C2
100
AcDbEntity
  8
0
 62
   251
100
AcDbFaceRecord
 10
0.0
 20
0.0
 30
0.0
 70
   128
 71
   121
 72
   114
 73
    99
 74
  -121
  0
VERTEX
  5
625
330
4C2
100
AcDbEntity
  8
0
 62
   251
100
AcDbFaceRecord
 10
0.0
 20
0.0
 30
0.0
 70
   128
 71
   121
 72
    99
 73
   120
 74
  -121
  0
VERTEX
  5
626
330
4C2
100
AcDbEntity
  8
0
 62
   251
100
AcDbFaceRecord
 10
0.0
 20
0.0
 30
0.0
 70
   128
 71
   101
 72
   110
 73
   100
 74
  -101
  0
VERTEX
  5
627
330
4C2
100
AcDbEntity
  8
0
 62
   251
100
AcDbFaceRecord
 10
0.0
 20
0.0
 30
0.0
 70
   128
 71
   110
 72
   101
 73
   118
 74
  -110
  0
VERTEX
  5
628
330
4C2
100
AcDbEntity
  8
0
 62
   251
100
AcDbFaceRecord
 10
0.0
 20
0.0
 30
0.0
 70
   128
 71
   122
 72
   117
 73
   119
 74
  -122
  0
VERTEX
  5
629
330
4C2
100
AcDbEntity
  8
0
 62
   251
100
AcDbFaceRecord
 10
0.0
 20
0.0
 30
0.0
 70
   128
 71
   117
 72
   122
 73
   111
 74
  -117
  0
VERTEX
  5
62A
330
4C2
100
AcDbEntity
  8
0
 62
   251
100
AcDbFaceRecord
 10
0.0
 20
0.0
 30
0.0
 70
   128
 71
   108
 72
   111
 73
   116
 74
  -108
  0
VERTEX
  5
62B
330
4C2
100
AcDbEntity
  8
0
 62
   251
100
AcDbFaceRecord
 10
0.0
 20
0.0
 30
0.0
 70
   128
 71
   108
 72
   116
 73
   107
 74
  -108
  0
VERTEX
  5
62C
330
4C2
100
AcDbEntity
  8
0
 62
   251
100
AcDbFaceRecord
 10
0.0
 20
0.0
 30
0.0
 70
   128
 71
    97
 72
   115
 73
   123
 74
   -97
  0
VERTEX
  5
62D
330
4C2
100
AcDbEntity
  8
0
 62
   251
100
AcDbFaceRecord
 10
0.0
 20
0.0
 30
0.0
 70
   128
 71
   124
 72
   127
 73
   105
 74
  -124
  0
VERTEX
  5
62E
330
4C2
100
AcDbEntity
  8
0
 62
   251
100
AcDbFaceRecord
 10
0.0
 20
0.0
 30
0.0
 70
   128
 71
   125
 72
   124
 73
   105
 74
  -125
  0
VERTEX
  5
62F
330
4C2
100
AcDbEntity
  8
0
 62
   251
100
AcDbFaceRecord
 10
0.0
 20
0.0
 30
0.0
 70
   128
 71
   126
 72
   109
 73
   125
 74
  -126
  0
VERTEX
  5
630
330
4C2
100
AcDbEntity
  8
0
 62
   251
100
AcDbFaceRecord
 10
0.0
 20
0.0
 30
0.0
 70
   128
 71
   126
 72
   125
 73
   105
 74
  -126
  0
VERTEX
  5
631
330
4C2
100
AcDbEntity
  8
0
 62
   251
100
AcDbFaceRecord
 10
0.0
 20
0.0
 30
0.0
 70
   128
 71
   128
 72
   127
 73
   124
 74
  -128
  0
VERTEX
  5
632
330
4C2
100
AcDbEntity
  8
0
 62
   251
100
AcDbFaceRecord
 10
0.0
 20
0.0
 30
0.0
 70
   128
 71
   113
 72
   128
 73
   124
 74
  -113
  0
SEQEND
  5
633
330
4C2
100
AcDbEntity
  8
0
 62
   251
  0
ENDSEC
  0
SECTION
  2
OBJECTS
  0
DICTIONARY
  5
C
330
0
100
AcDbDictionary
281
     1
  3
ACAD_COLOR
350
AB
  3
ACAD_GROUP
350
D
  3
ACAD_LAYOUT
350
1A
  3
ACAD_MATERIAL
350
AA
  3
ACAD_MLINESTYLE
350
17
  3
ACAD_PLOTSETTINGS
350
19
  3
ACAD_PLOTSTYLENAME
350
E
  3
ACAD_TABLESTYLE
350
AC
  3
ACDBHEADERROUNDTRIPXREC
350
638
  3
AcDbVariableDictionary
350
634
  0
DICTIONARY
  5
AB
102
{ACAD_REACTORS
330
C
102
}
330
C
100
AcDbDictionary
281
     1
  0
DICTIONARY
  5
D
102
{ACAD_REACTORS
330
C
102
}
330
C
100
AcDbDictionary
281
     1
  0
DICTIONARY
  5
1A
102
{ACAD_REACTORS
330
C
102
}
330
C
100
AcDbDictionary
281
     1
  3
Layout1
350
1E
  3
Layout2
350
26
  3
Model
350
22
  0
DICTIONARY
  5
AA
102
{ACAD_REACTORS
330
C
102
}
330
C
100
AcDbDictionary
281
     1
  0
DICTIONARY
  5
17
102
{ACAD_REACTORS
330
C
102
}
330
C
100
AcDbDictionary
281
     1
  3
Standard
350
18
  0
DICTIONARY
  5
19
102
{ACAD_REACTORS
330
C
102
}
330
C
100
AcDbDictionary
281
     1
  0
ACDBDICTIONARYWDFLT
  5
E
102
{ACAD_REACTORS
330
C
102
}
330
C
100
AcDbDictionary
281
     1
  3
ByLayer
350
2D
  3
Normal
350
F
100
AcDbDictionaryWithDefault
340
F
  0
DICTIONARY
  5
AC
102
{ACAD_REACTORS
330
C
102
}
330
C
100
AcDbDictionary
281
     1
  3
Standard
350
AD
  0
DICTIONARY
  5
638
102
{ACAD_REACTORS
330
C
102
}
330
C
100
AcDbDictionary
281
     1
  0
DICTIONARY
  5
634
102
{ACAD_REACTORS
330
C
102
}
330
C
100
AcDbDictionary
281
     1
  3
CTABLESTYLE
350
635
  3
DIMASSOC
350
636
  3
PROJECTNAME
350
637
  0
LAYOUT
  5
1E
102
{ACAD_XDICTIONARY
360
639
102
}
102
{ACAD_REACTORS
330
1A
102
}
330
1A
100
AcDbPlotSettings
  1

  2
\\KTXNTBDC\CASF2PN1
  4

  6

 40
0.0
 41
0.0
 42
0.0
 43
0.0
 44
0.0
 45
0.0
 46
0.0
 47
0.0
 48
0.0
 49
0.0
140
0.0
141
0.0
142
1.0
143
1.0
 70
   688
 72
     0
 73
     0
 74
     5
  7

 75
    16
147
1.0
148
0.0
149
0.0
100
AcDbLayout
  1
Layout1
 70
     1
 71
     1
 10
0.0
 20
0.0
 11
12.0
 21
9.0
 12
0.0
 22
0.0
 32
0.0
 14
1.000000000000000E+20
 24
1.000000000000000E+20
 34
1.000000000000000E+20
 15
-1.000000000000000E+20
 25
-1.000000000000000E+20
 35
-1.000000000000000E+20
146
0.0
 13
0.0
 23
0.0
 33
0.0
 16
1.0
 26
0.0
 36
0.0
 17
0.0
 27
1.0
 37
0.0
 76
     0
330
1B
  0
LAYOUT
  5
26
102
{ACAD_XDICTIONARY
360
63D
102
}
102
{ACAD_REACTORS
330
1A
102
}
330
1A
100
AcDbPlotSettings
  1

  2
\\KTXNTBDC\CASF2PN1
  4

  6

 40
0.0
 41
0.0
 42
0.0
 43
0.0
 44
0.0
 45
0.0
 46
0.0
 47
0.0
 48
0.0
 49
0.0
140
0.0
141
0.0
142
1.0
143
1.0
 70
   688
 72
     0
 73
     0
 74
     5
  7

 75
    16
147
1.0
148
0.0
149
0.0
100
AcDbLayout
  1
Layout2
 70
     1
 71
     2
 10
0.0
 20
0.0
 11
12.0
 21
9.0
 12
0.0
 22
0.0
 32
0.0
 14
0.0
 24
0.0
 34
0.0
 15
0.0
 25
0.0
 35
0.0
146
0.0
 13
0.0
 23
0.0
 33
0.0
 16
1.0
 26
0.0
 36
0.0
 17
0.0
 27
1.0
 37
0.0
 76
     0
330
23
  0
LAYOUT
  5
22
102
{ACAD_XDICTIONARY
360
63B
102
}
102
{ACAD_REACTORS
330
1A
102
}
330
1A
100
AcDbPlotSettings
  1

  2
\\KTXNTBDC\CASF2PN1
  4

  6

 40
0.0
 41
0.0
 42
0.0
 43
0.0
 44
0.0
 45
0.0
 46
0.0
 47
0.0
 48
0.0
 49
0.0
140
0.0
141
0.0
142
1.0
143
1.0
 70
  1712
 72
     0
 73
     0
 74
     0
  7

 75
     0
147
1.0
148
0.0
149
0.0
100
AcDbLayout
  1
Model
 70
     1
 71
     0
 10
0.0
 20
0.0
 11
12.0
 21
9.0
 12
0.0
 22
0.0
 32
0.0
 14
0.0
 24
0.0
 34
0.0
 15
0.0
 25
0.0
 35
0.0
146
0.0
 13
0.0
 23
0.0
 33
0.0
 16
1.0
 26
0.0
 36
0.0
 17
0.0
 27
1.0
 37
0.0
 76
     0
330
1F
  0
MLINESTYLE
  5
18
102
{ACAD_REACTORS
330
17
102
}
330
17
100
AcDbMlineStyle
  2
STANDARD
 70
     0
  3

 62
   256
 51
90.0
 52
90.0
 71
     2
 49
0.5
 62
   256
  6
BYLAYER
 49
-0.5
 62
   256
  6
BYLAYER
  0
ACDBPLACEHOLDER
  5
2D
102
{ACAD_REACTORS
330
E
102
}
330
E
  0
ACDBPLACEHOLDER
  5
F
102
{ACAD_REACTORS
330
E
102
}
330
E
  0
TABLESTYLE
  5
AD
102
{ACAD_REACTORS
330
AC
102
}
330
AC
100
AcDbTableStyle
  3
Standard
 70
     0
 71
     0
 40
0.06
 41
0.06
280
     0
281
     0
  7
Standard
140
0.18
170
     2
 62
     0
 63
     7
283
     0
274
    -2
284
     1
 64
     0
275
    -2
285
     1
 65
     0
276
    -2
286
     1
 66
     0
277
    -2
287
     1
 67
     0
278
    -2
288
     1
 68
     0
279
    -2
289
     1
 69
     0
  7
Standard
140
0.25
170
     5
 62
     0
 63
     7
283
     0
274
    -2
284
     1
 64
     0
275
    -2
285
     1
 65
     0
276
    -2
286
     1
 66
     0
277
    -2
287
     1
 67
     0
278
    -2
288
     1
 68
     0
279
    -2
289
     1
 69
     0
  7
Standard
140
0.18
170
     5
 62
     0
 63
     7
283
     0
274
    -2
284
     1
 64
     0
275
    -2
285
     1
 65
     0
276
    -2
286
     1
 66
     0
277
    -2
287
     1
 67
     0
278
    -2
288
     1
 68
     0
279
    -2
289
     1
 69
     0
  0
DICTIONARYVAR
  5
635
102
{ACAD_REACTORS
330
634
102
}
330
634
100
DictionaryVariables
280
     0
  1
STANDARD
  0
DICTIONARYVAR
  5
636
102
{ACAD_REACTORS
330
634
102
}
330
634
100
DictionaryVariables
280
     0
  1
1
  0
DICTIONARYVAR
  5
637
102
{ACAD_REACTORS
330
634
102
}
330
634
100
DictionaryVariables
280
     0
  1

  0
DICTIONARY
  5
639
330
1E
100
AcDbDictionary
280
     1
281
     1
  3
ACAD_XREC_ROUNDTRIP
360
63A
  0
DICTIONARY
  5
63D
330
26
100
AcDbDictionary
280
     1
281
     1
  3
ACAD_XREC_ROUNDTRIP
360
63E
  0
DICTIONARY
  5
63B
330
22
100
AcDbDictionary
280
     1
281
     1
  3
ACAD_XREC_ROUNDTRIP
360
63C
  0
XRECORD
  5
63A
102
{ACAD_REACTORS
330
639
102
}
330
639
100
AcDbXrecord
280
     1
102
SHADEPLOT
 70
     0
102
SHADEPLOTRESLEVEL
 70
     2
102
SHADEPLOTCUSTOMDPI
 70
   300
  0
XRECORD
  5
63E
102
{ACAD_REACTORS
330
63D
102
}
330
63D
100
AcDbXrecord
280
     1
102
SHADEPLOT
 70
     0
102
SHADEPLOTRESLEVEL
 70
     2
102
SHADEPLOTCUSTOMDPI
 70
   300
  0
XRECORD
  5
63C
102
{ACAD_REACTORS
330
63B
102
}
330
63B
100
AcDbXrecord
280
     1
102
SHADEPLOT
 70
     0
102
SHADEPLOTRESLEVEL
 70
     2
102
SHADEPLOTCUSTOMDPI
 70
   300
  0
ENDSEC
  0
EOF
