  0
SECTION
  2
HEADER
  9
$ACADVER
  1
AC1009
  9
$DWGCODEPAGE
  3
ansi_1250
  9
$INSBASE
 10
0.0
 20
0.0
 30
0.0
  9
$EXTMIN
 10
-600.0
 20
-106.0000005744436
 30
-110.0
  9
$EXTMAX
 10
200.0
 20
0.0003432265919798
 30
110.0
  9
$LIMMIN
 10
0.0
 20
0.0
  9
$LIMMAX
 10
420.0
 20
297.0
  9
$ORTHOMODE
 70
     0
  9
$REGENMODE
 70
     1
  9
$FILLMODE
 70
     1
  9
$QTEXTMODE
 70
     0
  9
$MIRRTEXT
 70
     0
  9
$DRAGMODE
 70
     2
  9
$LTSCALE
 40
1.0
  9
$OSMODE
 70
   511
  9
$ATTMODE
 70
     1
  9
$TEXTSIZE
 40
2.5
  9
$TRACEWID
 40
1.0
  9
$TEXTSTYLE
  7
STANDARD
  9
$CLAYER
  8
0
  9
$CELTYPE
  6
BYLAYER
  9
$CECOLOR
 62
   256
  9
$DIMSCALE
 40
1.0
  9
$DIMASZ
 40
2.5
  9
$DIMEXO
 40
0.625
  9
$DIMDLI
 40
3.75
  9
$DIMRND
 40
0.0
  9
$DIMDLE
 40
0.0
  9
$DIMEXE
 40
1.25
  9
$DIMTP
 40
0.0
  9
$DIMTM
 40
0.0
  9
$DIMTXT
 40
2.5
  9
$DIMCEN
 40
-2.5
  9
$DIMTSZ
 40
0.0
  9
$DIMTOL
 70
     0
  9
$DIMLIM
 70
     0
  9
$DIMTIH
 70
     0
  9
$DIMTOH
 70
     0
  9
$DIMSE1
 70
     0
  9
$DIMSE2
 70
     0
  9
$DIMTAD
 70
     1
  9
$DIMZIN
 70
     8
  9
$DIMBLK
  1

  9
$DIMASO
 70
     1
  9
$DIMSHO
 70
     1
  9
$DIMPOST
  1

  9
$DIMAPOST
  1

  9
$DIMALT
 70
     0
  9
$DIMALTD
 70
     3
  9
$DIMALTF
 40
0.03937007874016
  9
$DIMLFAC
 40
1.0
  9
$DIMTOFL
 70
     1
  9
$DIMTVP
 40
0.0
  9
$DIMTIX
 70
     0
  9
$DIMSOXD
 70
     0
  9
$DIMSAH
 70
     0
  9
$DIMBLK1
  1

  9
$DIMBLK2
  1

  9
$DIMSTYLE
  2
ISO-25
  9
$DIMCLRD
 70
     0
  9
$DIMCLRE
 70
     0
  9
$DIMCLRT
 70
     0
  9
$DIMTFAC
 40
1.0
  9
$DIMGAP
 40
0.625
  9
$LUNITS
 70
     2
  9
$LUPREC
 70
     3
  9
$SKETCHINC
 40
1.0
  9
$FILLETRAD
 40
10.0
  9
$AUNITS
 70
     0
  9
$AUPREC
 70
     0
  9
$MENU
  1
.
  9
$ELEVATION
 40
0.0
  9
$PELEVATION
 40
0.0
  9
$THICKNESS
 40
0.0
  9
$LIMCHECK
 70
     0
  9
$CHAMFERA
 40
10.0
  9
$CHAMFERB
 40
10.0
  9
$SKPOLY
 70
     0
  9
$TDCREATE
 40
2455022.720692848
  9
$TDUPDATE
 40
2460413.565360035
  9
$TDINDWG
 40
0.0002171644
  9
$TDUSRTIMER
 40
0.0002171644
  9
$USRTIMER
 70
     1
  9
$ANGBASE
 50
0.0
  9
$ANGDIR
 70
     0
  9
$PDMODE
 70
     0
  9
$PDSIZE
 40
0.0
  9
$PLINEWID
 40
0.0
  9
$COORDS
 70
     1
  9
$SPLFRAME
 70
     0
  9
$SPLINETYPE
 70
     6
  9
$SPLINESEGS
 70
     8
  9
$ATTDIA
 70
     0
  9
$ATTREQ
 70
     1
  9
$HANDLING
 70
     1
  9
$HANDSEED
  5
12BA
  9
$SURFTAB1
 70
     6
  9
$SURFTAB2
 70
     6
  9
$SURFTYPE
 70
     6
  9
$SURFU
 70
     6
  9
$SURFV
 70
     6
  9
$UCSNAME
  2

  9
$UCSORG
 10
0.0
 20
0.0
 30
0.0
  9
$UCSXDIR
 10
1.0
 20
0.0
 30
0.0
  9
$UCSYDIR
 10
0.0
 20
1.0
 30
0.0
  9
$PUCSNAME
  2

  9
$PUCSORG
 10
0.0
 20
0.0
 30
0.0
  9
$PUCSXDIR
 10
1.0
 20
0.0
 30
0.0
  9
$PUCSYDIR
 10
0.0
 20
1.0
 30
0.0
  9
$USERI1
 70
     0
  9
$USERI2
 70
     0
  9
$USERI3
 70
     0
  9
$USERI4
 70
     0
  9
$USERI5
 70
     0
  9
$USERR1
 40
0.0
  9
$USERR2
 40
0.0
  9
$USERR3
 40
0.0
  9
$USERR4
 40
0.0
  9
$USERR5
 40
0.0
  9
$WORLDVIEW
 70
     1
  9
$SHADEDGE
 70
     3
  9
$SHADEDIF
 70
    70
  9
$TILEMODE
 70
     1
  9
$MAXACTVP
 70
    64
  9
$PLIMCHECK
 70
     0
  9
$PEXTMIN
 10
1.000000000000000E+20
 20
1.000000000000000E+20
 30
1.000000000000000E+20
  9
$PEXTMAX
 10
-1.000000000000000E+20
 20
-1.000000000000000E+20
 30
-1.000000000000000E+20
  9
$PLIMMIN
 10
0.0
 20
0.0
  9
$PLIMMAX
 10
0.0
 20
0.0
  9
$UNITMODE
 70
     0
  9
$VISRETAIN
 70
     1
  9
$PLINEGEN
 70
     0
  9
$PSLTSCALE
 70
     1
  0
ENDSEC
  0
SECTION
  2
TABLES
  0
TABLE
  2
VPORT
 70
     1
  0
VPORT
  2
*ACTIVE
 70
     0
 10
0.0
 20
0.0
 11
1.0
 21
1.0
 12
-65.81308411214962
 22
-52.99982867392583
 13
0.0
 23
0.0
 14
10.0
 24
10.0
 15
10.0
 25
10.0
 16
0.0
 26
0.0
 36
1.0
 17
-134.1869158878504
 27
0.0
 37
0.0
 40
431.6521739130435
 41
1.89041095890411
 42
50.0
 43
0.0
 44
0.0
 50
0.0
 51
0.0
 71
    16
 72
  1000
 73
     1
 74
     3
 75
     0
 76
     0
 77
     0
 78
     0
  0
ENDTAB
  0
TABLE
  2
LTYPE
 70
     1
  0
LTYPE
  2
CONTINUOUS
 70
     0
  3
Solid line
 72
    65
 73
     0
 40
0.0
  0
ENDTAB
  0
TABLE
  2
LAYER
 70
     1
  0
LAYER
  2
0
 70
     0
 62
     7
  6
CONTINUOUS
  0
ENDTAB
  0
TABLE
  2
STYLE
 70
     2
  0
STYLE
  2
STANDARD
 70
     0
 40
0.0
 41
1.0
 50
0.0
 71
     0
 42
2.5
  3
arial.ttf
  4

  0
STYLE
  2
ANNOTATIVE
 70
     0
 40
0.0
 41
1.0
 50
0.0
 71
     0
 42
2.5
  3
arial.ttf
  4

  0
ENDTAB
  0
TABLE
  2
VIEW
 70
     0
  0
ENDTAB
  0
TABLE
  2
UCS
 70
     0
  0
ENDTAB
  0
TABLE
  2
APPID
 70
     2
  0
APPID
  2
ACAD
 70
     0
  0
APPID
  2
ACADANNOTATIVE
 70
     0
  0
ENDTAB
  0
TABLE
  2
DIMSTYLE
 70
     2
  0
DIMSTYLE
  2
ISO-25
 70
     0
  3

  4

  5

  6

  7

 40
1.0
 41
2.5
 42
0.625
 43
3.75
 44
1.25
 45
0.0
 46
0.0
 47
0.0
 48
0.0
140
2.5
141
-2.5
142
0.0
143
0.03937007874016
144
1.0
145
0.0
146
1.0
147
0.625
 71
     0
 72
     0
 73
     0
 74
     0
 75
     0
 76
     0
 77
     1
 78
     8
170
     0
171
     3
172
     1
173
     0
174
     0
175
     0
176
     0
177
     0
178
     0
  0
DIMSTYLE
  2
ANNOTATIVE
 70
     0
  3

  4

  5

  6

  7

 40
0.0
 41
2.5
 42
0.625
 43
3.75
 44
1.25
 45
0.0
 46
0.0
 47
0.0
 48
0.0
140
2.5
141
-2.5
142
0.0
143
0.03937007874016
144
1.0
145
0.0
146
1.0
147
0.625
 71
     0
 72
     0
 73
     0
 74
     0
 75
     0
 76
     0
 77
     1
 78
     8
170
     0
171
     3
172
     1
173
     0
174
     0
175
     0
176
     0
177
     0
178
     0
  0
ENDTAB
  0
ENDSEC
  0
SECTION
  2
BLOCKS
  0
BLOCK
  8
0
  2
$MODEL_SPACE
 70
     0
 10
0.0
 20
0.0
 30
0.0
  3
$MODEL_SPACE
  1

  0
ENDBLK
  5
21
  8
0
  0
BLOCK
 67
     1
  8
0
  2
$PAPER_SPACE
 70
     0
 10
0.0
 20
0.0
 30
0.0
  3
$PAPER_SPACE
  1

  0
ENDBLK
  5
1D
 67
     1
  8
0
  0
BLOCK
  8
0
  2
*X1
 70
     1
 10
0.0
 20
0.0
 30
0.0
  3
*X1
  1

  0
POLYLINE
  5
9C4
  8
0
 66
     1
 10
0.0
 20
0.0
 30
0.0
 70
    64
 71
    11
 72
     9
  0
VERTEX
  5
9C5
  8
0
 10
0.0000005221190895
 20
-96.9991500245376
 30
22.0
 70
   192
  0
VERTEX
  5
9C6
  8
0
 10
0.0000000454004571
 20
-85.348227514847
 30
35.88502875796065
 70
   192
  0
VERTEX
  5
9C7
  8
0
 10
5.405144866157141
 20
-85.35381474277871
 30
35.46689170298743
 70
   192
  0
VERTEX
  5
9C8
  8
0
 10
11.87683779115919
 20
-85.36821888693542
 30
33.83682108582562
 70
   192
  0
VERTEX
  5
9C9
  8
0
 10
17.16872352576125
 20
-85.3852688833084
 30
31.459543183053
 70
   192
  0
VERTEX
  5
9CA
  8
0
 10
18.96991856964338
 20
-96.9980799938756
 30
-11.14182285796485
 70
   192
  0
VERTEX
  5
9CB
  8
0
 10
28.10857146137698
 20
-85.42288814550234
 30
-22.16299532542477
 70
   192
  0
VERTEX
  5
9CC
  8
0
 10
0.0000121762469045
 20
-96.99915309214042
 30
-21.9999999999966
 70
   192
  0
VERTEX
  5
9CD
  8
0
 10
0.0000100768430033
 20
-85.3473677779644
 30
-35.88605700830215
 70
   192
  0
VERTEX
  5
9CE
  8
0
 10
19.03444831654129
 20
-96.99799260395656
 30
11.03147037620358
 70
   192
  0
VERTEX
  5
9CF
  8
0
 10
35.05089549939797
 20
-85.44198767784037
 30
7.140973519606772
 70
   192
  0
VERTEX
  5
9D0
  8
0
 10
0.0
 20
0.0
 30
0.0
 70
   128
 71
     1
 72
     2
 73
     3
  0
VERTEX
  5
9D1
  8
0
 10
0.0
 20
0.0
 30
0.0
 70
   128
 71
     3
 72
     4
 73
     1
  0
VERTEX
  5
9D2
  8
0
 10
0.0
 20
0.0
 30
0.0
 70
   128
 71
     4
 72
     5
 73
     1
  0
VERTEX
  5
9D3
  8
0
 10
0.0
 20
0.0
 30
0.0
 70
   128
 71
     6
 72
     7
 73
     8
  0
VERTEX
  5
9D4
  8
0
 10
0.0
 20
0.0
 30
0.0
 70
   128
 71
     7
 72
     9
 73
     8
  0
VERTEX
  5
9D5
  8
0
 10
0.0
 20
0.0
 30
0.0
 70
   128
 71
     7
 72
     6
 73
    10
  0
VERTEX
  5
9D6
  8
0
 10
0.0
 20
0.0
 30
0.0
 70
   128
 71
    10
 72
    11
 73
     7
  0
VERTEX
  5
9D7
  8
0
 10
0.0
 20
0.0
 30
0.0
 70
   128
 71
     5
 72
    11
 73
    10
  0
VERTEX
  5
9D8
  8
0
 10
0.0
 20
0.0
 30
0.0
 70
   128
 71
     1
 72
     5
 73
    10
  0
SEQEND
  5
1258
  8
0
  0
POLYLINE
  5
9D9
  8
0
 66
     1
 10
0.0
 20
0.0
 30
0.0
 70
    64
 71
     9
 72
     7
  0
VERTEX
  5
9DA
  8
0
 10
-197.1267206320237
 20
-13.07223943584423
 30
88.61243928830233
 70
   192
  0
VERTEX
  5
9DB
  8
0
 10
-196.7036994593068
 20
-13.14973572696202
 30
88.56762345468442
 70
   192
  0
VERTEX
  5
9DC
  8
0
 10
-196.7043410739727
 20
-13.14872383827304
 30
88.61282822611565
 70
   192
  0
VERTEX
  5
9DD
  8
0
 10
-196.7050553712649
 20
-13.14804488748264
 30
88.65803813380691
 70
   192
  0
VERTEX
  5
9DE
  8
0
 10
-196.7058423106091
 20
-13.14769891315723
 30
88.7032506097011
 70
   192
  0
VERTEX
  5
9DF
  8
0
 10
-197.1282098684426
 20
-13.07133027736178
 30
88.7032506097011
 70
   192
  0
VERTEX
  5
9E0
  8
0
 10
-197.5541934366963
 20
-13.02558008722088
 30
88.65772673801982
 70
   192
  0
VERTEX
  5
9E1
  8
0
 10
-197.5549563268742
 20
-13.02535221020362
 30
88.7032506097011
 70
   192
  0
VERTEX
  5
9E2
  8
0
 10
-197.983897852126
 20
-13.00999999999999
 30
88.7032506097011
 70
   192
  0
VERTEX
  5
9E3
  8
0
 10
0.0
 20
0.0
 30
0.0
 70
   128
 71
     1
 72
     2
 73
     3
  0
VERTEX
  5
9E4
  8
0
 10
0.0
 20
0.0
 30
0.0
 70
   128
 71
     3
 72
     4
 73
     1
  0
VERTEX
  5
9E5
  8
0
 10
0.0
 20
0.0
 30
0.0
 70
   128
 71
     5
 72
     6
 73
     1
  0
VERTEX
  5
9E6
  8
0
 10
0.0
 20
0.0
 30
0.0
 70
   128
 71
     4
 72
     5
 73
     1
  0
VERTEX
  5
9E7
  8
0
 10
0.0
 20
0.0
 30
0.0
 70
   128
 71
     7
 72
     1
 73
     6
  0
VERTEX
  5
9E8
  8
0
 10
0.0
 20
0.0
 30
0.0
 70
   128
 71
     8
 72
     7
 73
     6
  0
VERTEX
  5
9E9
  8
0
 10
0.0
 20
0.0
 30
0.0
 70
   128
 71
     9
 72
     7
 73
     8
  0
SEQEND
  5
1259
  8
0
  0
POLYLINE
  5
9EA
  8
0
 66
     1
 10
0.0
 20
0.0
 30
0.0
 70
    64
 71
     9
 72
     7
  0
VERTEX
  5
9EB
  8
0
 10
-196.9032248268852
 20
-13.83887755115698
 30
-91.55384625811433
 70
   192
  0
VERTEX
  5
9EC
  8
0
 10
-196.6993096390765
 20
-13.14564987195175
 30
-88.7032506097011
 70
   192
  0
VERTEX
  5
9ED
  8
0
 10
-197.1186134492752
 20
-13.07041571939166
 30
-88.7032506097011
 70
   192
  0
VERTEX
  5
9EE
  8
0
 10
-197.5421986608846
 20
-13.02512298857988
 30
-88.7032506097011
 70
   192
  0
VERTEX
  5
9EF
  8
0
 10
-197.9679299824655
 20
-13.00999999999999
 30
-88.7032506097011
 70
   192
  0
VERTEX
  5
9F0
  8
0
 10
-197.9679299824655
 20
-13.72879165291933
 30
-91.55085282818695
 70
   192
  0
VERTEX
  5
9F1
  8
0
 10
-197.9679299824655
 20
-15.71294613157515
 30
-93.71617747817872
 70
   192
  0
VERTEX
  5
9F2
  8
0
 10
-197.3629070826113
 20
-15.77432972758603
 30
-93.71966219357941
 70
   192
  0
VERTEX
  5
9F3
  8
0
 10
-197.9679299824655
 20
-18.48706554351404
 30
-94.68041879825158
 70
   192
  0
VERTEX
  5
9F4
  8
0
 10
0.0
 20
0.0
 30
0.0
 70
   128
 71
     1
 72
     2
 73
     3
  0
VERTEX
  5
9F5
  8
0
 10
0.0
 20
0.0
 30
0.0
 70
   128
 71
     4
 72
     5
 73
     6
  0
VERTEX
  5
9F6
  8
0
 10
0.0
 20
0.0
 30
0.0
 70
   128
 71
     6
 72
     7
 73
     4
  0
VERTEX
  5
9F7
  8
0
 10
0.0
 20
0.0
 30
0.0
 70
   128
 71
     8
 72
     1
 73
     3
  0
VERTEX
  5
9F8
  8
0
 10
0.0
 20
0.0
 30
0.0
 70
   128
 71
     3
 72
     4
 73
     7
  0
VERTEX
  5
9F9
  8
0
 10
0.0
 20
0.0
 30
0.0
 70
   128
 71
     8
 72
     3
 73
     7
  0
VERTEX
  5
9FA
  8
0
 10
0.0
 20
0.0
 30
0.0
 70
   128
 71
     7
 72
     9
 73
     8
  0
SEQEND
  5
125A
  8
0
  0
POLYLINE
  5
9FB
  8
0
 66
     1
 10
0.0
 20
0.0
 30
0.0
 70
    64
 71
    13
 72
    11
  0
VERTEX
  5
9FC
  8
0
 10
-5.793922503917225
 20
-89.63312960030224
 30
-59.10208793564775
 70
   192
  0
VERTEX
  5
9FD
  8
0
 10
-0.0000000000000352
 20
-89.48385834534669
 30
-59.4254869723641
 70
   192
  0
VERTEX
  5
9FE
  8
0
 10
0.0
 20
-106.0000005744436
 30
-55.0
 70
   192
  0
VERTEX
  5
9FF
  8
0
 10
-11.43271902798791
 20
-90.05220035130225
 30
-58.16016905017816
 70
   192
  0
VERTEX
  5
A00
  8
0
 10
-17.20709705544705
 20
-90.72587685623269
 30
-56.53195306914741
 70
   192
  0
VERTEX
  5
A01
  8
0
 10
-38.89087296526011
 20
-106.0000005744436
 30
38.89087296526012
 70
   192
  0
VERTEX
  5
A02
  8
0
 10
0.0000000000000067
 20
-106.0000005744436
 30
55.0
 70
   192
  0
VERTEX
  5
A03
  8
0
 10
-0.0000000000000073
 20
-89.45655850059721
 30
59.4328019437182
 70
   192
  0
VERTEX
  5
A04
  8
0
 10
-37.49502935268133
 20
-94.10895301510563
 30
44.49445187359176
 70
   192
  0
VERTEX
  5
A05
  8
0
 10
-38.89087296526012
 20
-106.0000005744436
 30
-38.89087296526011
 70
   192
  0
VERTEX
  5
A06
  8
0
 10
-48.61559329530041
 20
-95.88082001471973
 30
-31.09875896878955
 70
   192
  0
VERTEX
  5
A07
  8
0
 10
-55.0
 20
-106.0000005744436
 30
0.0000000000000061
 70
   192
  0
VERTEX
  5
A08
  8
0
 10
-56.81530373351912
 20
-96.72015772646013
 30
8.759108337125923
 70
   192
  0
VERTEX
  5
A09
  8
0
 10
0.0
 20
0.0
 30
0.0
 70
   128
 71
     1
 72
     2
 73
     3
  0
VERTEX
  5
A0A
  8
0
 10
0.0
 20
0.0
 30
0.0
 70
   128
 71
     4
 72
     1
 73
     3
  0
VERTEX
  5
A0B
  8
0
 10
0.0
 20
0.0
 30
0.0
 70
   128
 71
     3
 72
     5
 73
     4
  0
VERTEX
  5
A0C
  8
0
 10
0.0
 20
0.0
 30
0.0
 70
   128
 71
     6
 72
     7
 73
     8
  0
VERTEX
  5
A0D
  8
0
 10
0.0
 20
0.0
 30
0.0
 70
   128
 71
     6
 72
     8
 73
     9
  0
VERTEX
  5
A0E
  8
0
 10
0.0
 20
0.0
 30
0.0
 70
   128
 71
     5
 72
     3
 73
    10
  0
VERTEX
  5
A0F
  8
0
 10
0.0
 20
0.0
 30
0.0
 70
   128
 71
     5
 72
    10
 73
    11
  0
VERTEX
  5
A10
  8
0
 10
0.0
 20
0.0
 30
0.0
 70
   128
 71
    11
 72
    10
 73
    12
  0
VERTEX
  5
A11
  8
0
 10
0.0
 20
0.0
 30
0.0
 70
   128
 71
    11
 72
    12
 73
    13
  0
VERTEX
  5
A12
  8
0
 10
0.0
 20
0.0
 30
0.0
 70
   128
 71
    13
 72
    12
 73
     6
  0
VERTEX
  5
A13
  8
0
 10
0.0
 20
0.0
 30
0.0
 70
   128
 71
    13
 72
     6
 73
     9
  0
SEQEND
  5
125B
  8
0
  0
POLYLINE
  5
A14
  8
0
 66
     1
 10
0.0
 20
0.0
 30
0.0
 70
    64
 71
     9
 72
     7
  0
VERTEX
  5
A15
  8
0
 10
0.0000005221190895
 20
-96.9991500245376
 30
22.0
 70
   192
  0
VERTEX
  5
A16
  8
0
 10
0.0000000000000027
 20
-106.0000005744436
 30
22.0
 70
   192
  0
VERTEX
  5
A17
  8
0
 10
-15.55634918610404
 20
-106.0000005744436
 30
15.55634918610405
 70
   192
  0
VERTEX
  5
A18
  8
0
 10
-22.0
 20
-106.0000005744436
 30
0.0000000000000024
 70
   192
  0
VERTEX
  5
A19
  8
0
 10
-18.88769404319076
 20
-96.99812099472273
 30
11.28054517553172
 70
   192
  0
VERTEX
  5
A1A
  8
0
 10
-19.02284885912509
 20
-96.99806317669386
 30
-11.05133138827916
 70
   192
  0
VERTEX
  5
A1B
  8
0
 10
-15.55634918610405
 20
-106.0000005744436
 30
-15.55634918610404
 70
   192
  0
VERTEX
  5
A1C
  8
0
 10
0.0000121762469045
 20
-96.99915309214042
 30
-21.9999999999966
 70
   192
  0
VERTEX
  5
A1D
  8
0
 10
-0.0000000000000024
 20
-106.0000005744436
 30
-22.0
 70
   192
  0
VERTEX
  5
A1E
  8
0
 10
0.0
 20
0.0
 30
0.0
 70
   128
 71
     1
 72
     2
 73
     3
  0
VERTEX
  5
A1F
  8
0
 10
0.0
 20
0.0
 30
0.0
 70
   128
 71
     4
 72
     5
 73
     3
  0
VERTEX
  5
A20
  8
0
 10
0.0
 20
0.0
 30
0.0
 70
   128
 71
     5
 72
     1
 73
     3
  0
VERTEX
  5
A21
  8
0
 10
0.0
 20
0.0
 30
0.0
 70
   128
 71
     6
 72
     5
 73
     4
  0
VERTEX
  5
A22
  8
0
 10
0.0
 20
0.0
 30
0.0
 70
   128
 71
     7
 72
     6
 73
     4
  0
VERTEX
  5
A23
  8
0
 10
0.0
 20
0.0
 30
0.0
 70
   128
 71
     8
 72
     6
 73
     7
  0
VERTEX
  5
A24
  8
0
 10
0.0
 20
0.0
 30
0.0
 70
   128
 71
     9
 72
     8
 73
     7
  0
SEQEND
  5
125C
  8
0
  0
POLYLINE
  5
A25
  8
0
 66
     1
 10
0.0
 20
0.0
 30
0.0
 70
    64
 71
    10
 72
     8
  0
VERTEX
  5
A26
  8
0
 10
155.0
 20
-13.01
 30
-17.5
 70
   192
  0
VERTEX
  5
A27
  8
0
 10
155.0
 20
-13.01
 30
17.5
 70
   192
  0
VERTEX
  5
A28
  8
0
 10
155.0
 20
0.0
 30
17.5
 70
   192
  0
VERTEX
  5
A29
  8
0
 10
155.0
 20
0.0
 30
-17.5
 70
   192
  0
VERTEX
  5
A2A
  8
0
 10
137.5
 20
0.0
 30
-0.0000000000000019
 70
   192
  0
VERTEX
  5
A2B
  8
0
 10
137.5
 20
-13.01
 30
0.0000000000000019
 70
   192
  0
VERTEX
  5
A2C
  8
0
 10
142.6256313292354
 20
0.0
 30
-12.37436867076458
 70
   192
  0
VERTEX
  5
A2D
  8
0
 10
142.6256313292354
 20
-13.01
 30
-12.37436867076458
 70
   192
  0
VERTEX
  5
A2E
  8
0
 10
142.6256313292354
 20
0.0
 30
12.37436867076458
 70
   192
  0
VERTEX
  5
A2F
  8
0
 10
142.6256313292354
 20
-13.01
 30
12.37436867076458
 70
   192
  0
VERTEX
  5
A30
  8
0
 10
0.0
 20
0.0
 30
0.0
 70
   128
 71
     8
 72
     1
 73
    -4
  0
VERTEX
  5
A31
  8
0
 10
0.0
 20
0.0
 30
0.0
 70
   128
 71
     7
 72
    -8
 73
     4
  0
VERTEX
  5
A32
  8
0
 10
0.0
 20
0.0
 30
0.0
 70
   128
 71
     6
 72
     8
 73
    -7
  0
VERTEX
  5
A33
  8
0
 10
0.0
 20
0.0
 30
0.0
 70
   128
 71
     5
 72
    -6
 73
     7
  0
VERTEX
  5
A34
  8
0
 10
0.0
 20
0.0
 30
0.0
 70
   128
 71
    10
 72
     6
 73
    -5
  0
VERTEX
  5
A35
  8
0
 10
0.0
 20
0.0
 30
0.0
 70
   128
 71
     9
 72
   -10
 73
     5
  0
VERTEX
  5
A36
  8
0
 10
0.0
 20
0.0
 30
0.0
 70
   128
 71
     2
 72
    10
 73
    -9
  0
VERTEX
  5
A37
  8
0
 10
0.0
 20
0.0
 30
0.0
 70
   128
 71
     3
 72
    -2
 73
     9
  0
SEQEND
  5
125D
  8
0
  0
POLYLINE
  5
A38
  8
0
 66
     1
 10
0.0
 20
0.0
 30
0.0
 70
    64
 71
    10
 72
     8
  0
VERTEX
  5
A39
  8
0
 10
109.259815495345
 20
-21.2116403832651
 30
0.0000000000000072
 70
   192
  0
VERTEX
  5
A3A
  8
0
 10
104.9186110536718
 20
-45.8318342085703
 30
0.0000000000000072
 70
   192
  0
VERTEX
  5
A3B
  8
0
 10
92.31060901856358
 20
-43.60870327695344
 30
0.000000000000005
 70
   192
  0
VERTEX
  5
A3C
  8
0
 10
96.65181346023682
 20
-18.98850945164827
 30
0.0000000000000079
 70
   192
  0
VERTEX
  5
A3D
  8
0
 10
94.48121123940021
 20
-31.29860636430084
 30
-12.49999999999999
 70
   192
  0
VERTEX
  5
A3E
  8
0
 10
107.0892132745084
 20
-33.5217372959177
 30
-12.5
 70
   192
  0
VERTEX
  5
A3F
  8
0
 10
96.01605878901238
 20
-22.59405336030061
 30
-8.838834764831835
 70
   192
  0
VERTEX
  5
A40
  8
0
 10
108.6240608241206
 20
-24.81718429191746
 30
-8.838834764831837
 70
   192
  0
VERTEX
  5
A41
  8
0
 10
92.94636368978804
 20
-40.00315936830108
 30
-8.838834764831839
 70
   192
  0
VERTEX
  5
A42
  8
0
 10
105.5543657248962
 20
-42.22629029991793
 30
-8.838834764831839
 70
   192
  0
VERTEX
  5
A43
  8
0
 10
0.0
 20
0.0
 30
0.0
 70
   128
 71
     8
 72
     1
 73
    -4
  0
VERTEX
  5
A44
  8
0
 10
0.0
 20
0.0
 30
0.0
 70
   128
 71
     7
 72
    -8
 73
     4
  0
VERTEX
  5
A45
  8
0
 10
0.0
 20
0.0
 30
0.0
 70
   128
 71
     6
 72
     8
 73
    -7
  0
VERTEX
  5
A46
  8
0
 10
0.0
 20
0.0
 30
0.0
 70
   128
 71
     5
 72
    -6
 73
     7
  0
VERTEX
  5
A47
  8
0
 10
0.0
 20
0.0
 30
0.0
 70
   128
 71
    10
 72
     6
 73
    -5
  0
VERTEX
  5
A48
  8
0
 10
0.0
 20
0.0
 30
0.0
 70
   128
 71
     9
 72
   -10
 73
     5
  0
VERTEX
  5
A49
  8
0
 10
0.0
 20
0.0
 30
0.0
 70
   128
 71
     2
 72
    10
 73
    -9
  0
VERTEX
  5
A4A
  8
0
 10
0.0
 20
0.0
 30
0.0
 70
   128
 71
     3
 72
    -2
 73
     9
  0
SEQEND
  5
125E
  8
0
  0
POLYLINE
  5
A4B
  8
0
 66
     1
 10
0.0
 20
0.0
 30
0.0
 70
    64
 71
    11
 72
     9
  0
VERTEX
  5
A4C
  8
0
 10
0.0000121762469045
 20
-96.99915309214042
 30
-21.9999999999966
 70
   192
  0
VERTEX
  5
A4D
  8
0
 10
0.0000100768430033
 20
-85.3473677779644
 30
-35.88605700830215
 70
   192
  0
VERTEX
  5
A4E
  8
0
 10
-5.698714968593128
 20
-85.35287908853093
 30
-35.42393208387874
 70
   192
  0
VERTEX
  5
A4F
  8
0
 10
-11.7200962036884
 20
-85.36853802953459
 30
-33.89143709485198
 70
   192
  0
VERTEX
  5
A50
  8
0
 10
-17.1694224237507
 20
-85.3864167753228
 30
-31.45756625529765
 70
   192
  0
VERTEX
  5
A51
  8
0
 10
-18.88769404319076
 20
-96.99812099472273
 30
11.28054517553172
 70
   192
  0
VERTEX
  5
A52
  8
0
 10
-27.87856633506226
 20
-85.42168360327554
 30
22.45349497742089
 70
   192
  0
VERTEX
  5
A53
  8
0
 10
0.0000005221190895
 20
-96.9991500245376
 30
22.0
 70
   192
  0
VERTEX
  5
A54
  8
0
 10
0.0000000454004571
 20
-85.348227514847
 30
35.88502875796065
 70
   192
  0
VERTEX
  5
A55
  8
0
 10
-19.02284885912509
 20
-96.99806317669386
 30
-11.05133138827916
 70
   192
  0
VERTEX
  5
A56
  8
0
 10
-35.20234013907984
 20
-85.44188225711406
 30
-6.354417962488441
 70
   192
  0
VERTEX
  5
A57
  8
0
 10
0.0
 20
0.0
 30
0.0
 70
   128
 71
     1
 72
     2
 73
     3
  0
VERTEX
  5
A58
  8
0
 10
0.0
 20
0.0
 30
0.0
 70
   128
 71
     1
 72
     3
 73
     4
  0
VERTEX
  5
A59
  8
0
 10
0.0
 20
0.0
 30
0.0
 70
   128
 71
     4
 72
     5
 73
     1
  0
VERTEX
  5
A5A
  8
0
 10
0.0
 20
0.0
 30
0.0
 70
   128
 71
     6
 72
     7
 73
     8
  0
VERTEX
  5
A5B
  8
0
 10
0.0
 20
0.0
 30
0.0
 70
   128
 71
     7
 72
     9
 73
     8
  0
VERTEX
  5
A5C
  8
0
 10
0.0
 20
0.0
 30
0.0
 70
   128
 71
     7
 72
     6
 73
    10
  0
VERTEX
  5
A5D
  8
0
 10
0.0
 20
0.0
 30
0.0
 70
   128
 71
    10
 72
    11
 73
     7
  0
VERTEX
  5
A5E
  8
0
 10
0.0
 20
0.0
 30
0.0
 70
   128
 71
     1
 72
     5
 73
    10
  0
VERTEX
  5
A5F
  8
0
 10
0.0
 20
0.0
 30
0.0
 70
   128
 71
     5
 72
    11
 73
    10
  0
SEQEND
  5
125F
  8
0
  0
POLYLINE
  5
A60
  8
0
 66
     1
 10
0.0
 20
0.0
 30
0.0
 70
    64
 71
    10
 72
     8
  0
VERTEX
  5
A61
  8
0
 10
104.9186110536718
 20
-45.83183420857029
 30
0.0000000000000056
 70
   192
  0
VERTEX
  5
A62
  8
0
 10
109.259815495345
 20
-21.21164038326508
 30
0.0000000000000087
 70
   192
  0
VERTEX
  5
A63
  8
0
 10
96.65181346023682
 20
-18.98850945164827
 30
0.0000000000000079
 70
   192
  0
VERTEX
  5
A64
  8
0
 10
92.31060901856357
 20
-43.60870327695347
 30
0.0000000000000063
 70
   192
  0
VERTEX
  5
A65
  8
0
 10
94.48121123940021
 20
-31.29860636430084
 30
12.50000000000001
 70
   192
  0
VERTEX
  5
A66
  8
0
 10
107.0892132745084
 20
-33.5217372959177
 30
12.50000000000001
 70
   192
  0
VERTEX
  5
A67
  8
0
 10
92.94636368978804
 20
-40.00315936830108
 30
8.838834764831851
 70
   192
  0
VERTEX
  5
A68
  8
0
 10
105.5543657248962
 20
-42.22629029991793
 30
8.83883476483185
 70
   192
  0
VERTEX
  5
A69
  8
0
 10
96.01605878901238
 20
-22.59405336030061
 30
8.838834764831853
 70
   192
  0
VERTEX
  5
A6A
  8
0
 10
108.6240608241206
 20
-24.81718429191746
 30
8.838834764831853
 70
   192
  0
VERTEX
  5
A6B
  8
0
 10
0.0
 20
0.0
 30
0.0
 70
   128
 71
     8
 72
     1
 73
    -4
  0
VERTEX
  5
A6C
  8
0
 10
0.0
 20
0.0
 30
0.0
 70
   128
 71
     7
 72
    -8
 73
     4
  0
VERTEX
  5
A6D
  8
0
 10
0.0
 20
0.0
 30
0.0
 70
   128
 71
     6
 72
     8
 73
    -7
  0
VERTEX
  5
A6E
  8
0
 10
0.0
 20
0.0
 30
0.0
 70
   128
 71
     5
 72
    -6
 73
     7
  0
VERTEX
  5
A6F
  8
0
 10
0.0
 20
0.0
 30
0.0
 70
   128
 71
    10
 72
     6
 73
    -5
  0
VERTEX
  5
A70
  8
0
 10
0.0
 20
0.0
 30
0.0
 70
   128
 71
     9
 72
   -10
 73
     5
  0
VERTEX
  5
A71
  8
0
 10
0.0
 20
0.0
 30
0.0
 70
   128
 71
     3
 72
     2
 73
   -10
  0
VERTEX
  5
A72
  8
0
 10
0.0
 20
0.0
 30
0.0
 70
   128
 71
     9
 72
    -3
 73
    10
  0
SEQEND
  5
1260
  8
0
  0
POLYLINE
  5
A73
  8
0
 66
     1
 10
0.0
 20
0.0
 30
0.0
 70
    64
 71
    10
 72
     8
  0
VERTEX
  5
A74
  8
0
 10
155.0
 20
-13.01
 30
17.5
 70
   192
  0
VERTEX
  5
A75
  8
0
 10
155.0
 20
-13.01
 30
-17.5
 70
   192
  0
VERTEX
  5
A76
  8
0
 10
155.0
 20
0.0
 30
-17.5
 70
   192
  0
VERTEX
  5
A77
  8
0
 10
155.0
 20
0.0
 30
17.5
 70
   192
  0
VERTEX
  5
A78
  8
0
 10
172.5
 20
0.0
 30
0.0
 70
   192
  0
VERTEX
  5
A79
  8
0
 10
172.5
 20
-13.01
 30
0.0
 70
   192
  0
VERTEX
  5
A7A
  8
0
 10
167.3743686707646
 20
0.0
 30
12.37436867076458
 70
   192
  0
VERTEX
  5
A7B
  8
0
 10
167.3743686707646
 20
-13.01
 30
12.37436867076458
 70
   192
  0
VERTEX
  5
A7C
  8
0
 10
167.3743686707646
 20
0.0
 30
-12.37436867076458
 70
   192
  0
VERTEX
  5
A7D
  8
0
 10
167.3743686707646
 20
-13.01
 30
-12.37436867076458
 70
   192
  0
VERTEX
  5
A7E
  8
0
 10
0.0
 20
0.0
 30
0.0
 70
   128
 71
     8
 72
     1
 73
    -4
  0
VERTEX
  5
A7F
  8
0
 10
0.0
 20
0.0
 30
0.0
 70
   128
 71
     7
 72
    -8
 73
     4
  0
VERTEX
  5
A80
  8
0
 10
0.0
 20
0.0
 30
0.0
 70
   128
 71
     6
 72
     8
 73
    -7
  0
VERTEX
  5
A81
  8
0
 10
0.0
 20
0.0
 30
0.0
 70
   128
 71
     5
 72
    -6
 73
     7
  0
VERTEX
  5
A82
  8
0
 10
0.0
 20
0.0
 30
0.0
 70
   128
 71
    10
 72
     6
 73
    -5
  0
VERTEX
  5
A83
  8
0
 10
0.0
 20
0.0
 30
0.0
 70
   128
 71
     9
 72
   -10
 73
     5
  0
VERTEX
  5
A84
  8
0
 10
0.0
 20
0.0
 30
0.0
 70
   128
 71
     3
 72
     2
 73
   -10
  0
VERTEX
  5
A85
  8
0
 10
0.0
 20
0.0
 30
0.0
 70
   128
 71
     9
 72
    -3
 73
    10
  0
SEQEND
  5
1261
  8
0
  0
POLYLINE
  5
A86
  8
0
 66
     1
 10
0.0
 20
0.0
 30
0.0
 70
    64
 71
    11
 72
     9
  0
VERTEX
  5
A87
  8
0
 10
0.0
 20
-106.0000005744436
 30
-22.0
 70
   192
  0
VERTEX
  5
A88
  8
0
 10
15.55634918610405
 20
-106.0000005744436
 30
-15.55634918610405
 70
   192
  0
VERTEX
  5
A89
  8
0
 10
0.0000121762469045
 20
-96.99915309214042
 30
-21.9999999999966
 70
   192
  0
VERTEX
  5
A8A
  8
0
 10
0.0
 20
-96.99915309214042
 30
-22.0
 70
   192
  0
VERTEX
  5
A8B
  8
0
 10
22.0
 20
-106.0000005744436
 30
0.0
 70
   192
  0
VERTEX
  5
A8C
  8
0
 10
18.96991856964338
 20
-96.9980799938756
 30
-11.14182285796485
 70
   192
  0
VERTEX
  5
A8D
  8
0
 10
0.0000000000000027
 20
-106.0000005744436
 30
22.0
 70
   192
  0
VERTEX
  5
A8E
  8
0
 10
0.0000000000000027
 20
-96.9991500245376
 30
22.0
 70
   192
  0
VERTEX
  5
A8F
  8
0
 10
0.0000005221190895
 20
-96.9991500245376
 30
22.0
 70
   192
  0
VERTEX
  5
A90
  8
0
 10
15.55634918610405
 20
-106.0000005744436
 30
15.55634918610405
 70
   192
  0
VERTEX
  5
A91
  8
0
 10
19.03444831654129
 20
-96.99799260395656
 30
11.03147037620358
 70
   192
  0
VERTEX
  5
A92
  8
0
 10
0.0
 20
0.0
 30
0.0
 70
   128
 71
     1
 72
     2
 73
     3
  0
VERTEX
  5
A93
  8
0
 10
0.0
 20
0.0
 30
0.0
 70
   128
 71
     3
 72
     4
 73
     1
  0
VERTEX
  5
A94
  8
0
 10
0.0
 20
0.0
 30
0.0
 70
   128
 71
     2
 72
     5
 73
     6
  0
VERTEX
  5
A95
  8
0
 10
0.0
 20
0.0
 30
0.0
 70
   128
 71
     7
 72
     8
 73
     9
  0
VERTEX
  5
A96
  8
0
 10
0.0
 20
0.0
 30
0.0
 70
   128
 71
     2
 72
     6
 73
     3
  0
VERTEX
  5
A97
  8
0
 10
0.0
 20
0.0
 30
0.0
 70
   128
 71
    10
 72
    11
 73
     6
  0
VERTEX
  5
A98
  8
0
 10
0.0
 20
0.0
 30
0.0
 70
   128
 71
     5
 72
    10
 73
     6
  0
VERTEX
  5
A99
  8
0
 10
0.0
 20
0.0
 30
0.0
 70
   128
 71
     7
 72
     9
 73
    11
  0
VERTEX
  5
A9A
  8
0
 10
0.0
 20
0.0
 30
0.0
 70
   128
 71
    10
 72
     7
 73
    11
  0
SEQEND
  5
1262
  8
0
  0
POLYLINE
  5
A9B
  8
0
 66
     1
 10
0.0
 20
0.0
 30
0.0
 70
    64
 71
    16
 72
    14
  0
VERTEX
  5
A9C
  8
0
 10
11.87683779115919
 20
-85.36821888693542
 30
33.83682108582562
 70
   192
  0
VERTEX
  5
A9D
  8
0
 10
17.4861473525083
 20
-84.96681327927661
 30
32.03306578712782
 70
   192
  0
VERTEX
  5
A9E
  8
0
 10
17.32092019369388
 20
-85.15471063303146
 30
31.73434723803062
 70
   192
  0
VERTEX
  5
A9F
  8
0
 10
17.16872352576128
 20
-85.38526888330846
 30
31.45954318305303
 70
   192
  0
VERTEX
  5
AA0
  8
0
 10
5.405144866157141
 20
-85.35381474277871
 30
35.46689170298743
 70
   192
  0
VERTEX
  5
AA1
  8
0
 10
-10.49443449251127
 20
-84.82444247558134
 30
35.2926663289463
 70
   192
  0
VERTEX
  5
AA2
  8
0
 10
17.6616174694742
 20
-84.8247468216207
 30
32.350659176218
 70
   192
  0
VERTEX
  5
AA3
  8
0
 10
0.0000000454004571
 20
-85.348227514847
 30
35.88502875796065
 70
   192
  0
VERTEX
  5
AA4
  8
0
 10
-27.87856633506226
 20
-85.42168360327554
 30
22.45349497742089
 70
   192
  0
VERTEX
  5
AA5
  8
0
 10
-32.46658844040073
 20
-84.83105643855492
 30
17.62202595526357
 70
   192
  0
VERTEX
  5
AA6
  8
0
 10
-35.44928546412386
 20
-84.8327927698488
 30
-10.43942851697329
 70
   192
  0
VERTEX
  5
AA7
  8
0
 10
-35.20234013907984
 20
-85.44188225711406
 30
-6.354417962488441
 70
   192
  0
VERTEX
  5
AA8
  8
0
 10
-17.1694224237507
 20
-85.3864167753228
 30
-31.45756625529765
 70
   192
  0
VERTEX
  5
AA9
  8
0
 10
-17.32210981644706
 20
-85.15525569469183
 30
-31.73317711442061
 70
   192
  0
VERTEX
  5
AAA
  8
0
 10
-17.48789550294683
 20
-84.9670106866541
 30
-32.03282549812066
 70
   192
  0
VERTEX
  5
AAB
  8
0
 10
-17.66396646429054
 20
-84.82487585550025
 30
-32.35142703154092
 70
   192
  0
VERTEX
  5
AAC
  8
0
 10
0.0
 20
0.0
 30
0.0
 70
   128
 71
     1
 72
     2
 73
     3
  0
VERTEX
  5
AAD
  8
0
 10
0.0
 20
0.0
 30
0.0
 70
   128
 71
     3
 72
     4
 73
     1
  0
VERTEX
  5
AAE
  8
0
 10
0.0
 20
0.0
 30
0.0
 70
   128
 71
     1
 72
     5
 73
     2
  0
VERTEX
  5
AAF
  8
0
 10
0.0
 20
0.0
 30
0.0
 70
   128
 71
     6
 72
     7
 73
     2
  0
VERTEX
  5
AB0
  8
0
 10
0.0
 20
0.0
 30
0.0
 70
   128
 71
     5
 72
     8
 73
     6
  0
VERTEX
  5
AB1
  8
0
 10
0.0
 20
0.0
 30
0.0
 70
   128
 71
     2
 72
     5
 73
     6
  0
VERTEX
  5
AB2
  8
0
 10
0.0
 20
0.0
 30
0.0
 70
   128
 71
     9
 72
    10
 73
     6
  0
VERTEX
  5
AB3
  8
0
 10
0.0
 20
0.0
 30
0.0
 70
   128
 71
     8
 72
     9
 73
     6
  0
VERTEX
  5
AB4
  8
0
 10
0.0
 20
0.0
 30
0.0
 70
   128
 71
    11
 72
    10
 73
    12
  0
VERTEX
  5
AB5
  8
0
 10
0.0
 20
0.0
 30
0.0
 70
   128
 71
    12
 72
    13
 73
    14
  0
VERTEX
  5
AB6
  8
0
 10
0.0
 20
0.0
 30
0.0
 70
   128
 71
    14
 72
    15
 73
    12
  0
VERTEX
  5
AB7
  8
0
 10
0.0
 20
0.0
 30
0.0
 70
   128
 71
    15
 72
    11
 73
    12
  0
VERTEX
  5
AB8
  8
0
 10
0.0
 20
0.0
 30
0.0
 70
   128
 71
    15
 72
    16
 73
    11
  0
VERTEX
  5
AB9
  8
0
 10
0.0
 20
0.0
 30
0.0
 70
   128
 71
    12
 72
    10
 73
     9
  0
SEQEND
  5
1263
  8
0
  0
POLYLINE
  5
ABA
  8
0
 66
     1
 10
0.0
 20
0.0
 30
0.0
 70
    64
 71
    17
 72
    15
  0
VERTEX
  5
ABB
  8
0
 10
18.32271596718422
 20
-86.84894264850634
 30
58.31301377509613
 70
   192
  0
VERTEX
  5
ABC
  8
0
 10
18.99127253945785
 20
-85.34812186966478
 30
59.77685292897156
 70
   192
  0
VERTEX
  5
ABD
  8
0
 10
11.63958638860305
 20
-90.03951146337982
 30
58.1225891645179
 70
   192
  0
VERTEX
  5
ABE
  8
0
 10
17.739924003326
 20
-88.66146810828128
 30
57.20967296035145
 70
   192
  0
VERTEX
  5
ABF
  8
0
 10
17.2711169265397
 20
-90.69793112672491
 30
56.5202570711974
 70
   192
  0
VERTEX
  5
AC0
  8
0
 10
5.832016587617297
 20
-89.60638186914123
 30
59.10554043089211
 70
   192
  0
VERTEX
  5
AC1
  8
0
 10
0.0000000000274676
 20
-89.45655850059721
 30
59.4328019437182
 70
   192
  0
VERTEX
  5
AC2
  8
0
 10
-29.27876647005685
 20
-86.47642390526933
 30
55.59052984994408
 70
   192
  0
VERTEX
  5
AC3
  8
0
 10
-37.49502935268133
 20
-94.10895301510563
 30
44.49445187359176
 70
   192
  0
VERTEX
  5
AC4
  8
0
 10
-60.69787536720109
 20
-89.81927484863343
 30
18.91902373089193
 70
   192
  0
VERTEX
  5
AC5
  8
0
 10
-56.35232686535574
 20
-89.51530762446806
 30
-29.24970989170777
 70
   192
  0
VERTEX
  5
AC6
  8
0
 10
-48.61559329530041
 20
-95.88082001471973
 30
-31.09875896878955
 70
   192
  0
VERTEX
  5
AC7
  8
0
 10
-56.81530373351912
 20
-96.72015772646013
 30
8.759108337125923
 70
   192
  0
VERTEX
  5
AC8
  8
0
 10
-17.67677854710126
 20
-88.68663804995738
 30
-57.22293670175465
 70
   192
  0
VERTEX
  5
AC9
  8
0
 10
-17.20709705544711
 20
-90.72587685623272
 30
-56.53195306914749
 70
   192
  0
VERTEX
  5
ACA
  8
0
 10
-18.26024817952755
 20
-86.8721328440578
 30
-58.32914104045177
 70
   192
  0
VERTEX
  5
ACB
  8
0
 10
-18.92916943499355
 20
-85.370483663567
 30
-59.79684267425539
 70
   192
  0
VERTEX
  5
ACC
  8
0
 10
0.0
 20
0.0
 30
0.0
 70
   128
 71
     1
 72
     2
 73
     3
  0
VERTEX
  5
ACD
  8
0
 10
0.0
 20
0.0
 30
0.0
 70
   128
 71
     3
 72
     4
 73
     1
  0
VERTEX
  5
ACE
  8
0
 10
0.0
 20
0.0
 30
0.0
 70
   128
 71
     3
 72
     5
 73
     4
  0
VERTEX
  5
ACF
  8
0
 10
0.0
 20
0.0
 30
0.0
 70
   128
 71
     2
 72
     6
 73
     3
  0
VERTEX
  5
AD0
  8
0
 10
0.0
 20
0.0
 30
0.0
 70
   128
 71
     2
 72
     7
 73
     6
  0
VERTEX
  5
AD1
  8
0
 10
0.0
 20
0.0
 30
0.0
 70
   128
 71
     2
 72
     8
 73
     9
  0
VERTEX
  5
AD2
  8
0
 10
0.0
 20
0.0
 30
0.0
 70
   128
 71
     2
 72
     9
 73
     7
  0
VERTEX
  5
AD3
  8
0
 10
0.0
 20
0.0
 30
0.0
 70
   128
 71
    10
 72
    11
 73
    12
  0
VERTEX
  5
AD4
  8
0
 10
0.0
 20
0.0
 30
0.0
 70
   128
 71
    10
 72
    12
 73
    13
  0
VERTEX
  5
AD5
  8
0
 10
0.0
 20
0.0
 30
0.0
 70
   128
 71
    14
 72
    15
 73
    12
  0
VERTEX
  5
AD6
  8
0
 10
0.0
 20
0.0
 30
0.0
 70
   128
 71
    12
 72
    11
 73
    16
  0
VERTEX
  5
AD7
  8
0
 10
0.0
 20
0.0
 30
0.0
 70
   128
 71
    12
 72
    16
 73
    14
  0
VERTEX
  5
AD8
  8
0
 10
0.0
 20
0.0
 30
0.0
 70
   128
 71
    11
 72
    17
 73
    16
  0
VERTEX
  5
AD9
  8
0
 10
0.0
 20
0.0
 30
0.0
 70
   128
 71
    13
 72
     9
 73
     8
  0
VERTEX
  5
ADA
  8
0
 10
0.0
 20
0.0
 30
0.0
 70
   128
 71
    13
 72
     8
 73
    10
  0
SEQEND
  5
1264
  8
0
  0
POLYLINE
  5
ADB
  8
0
 66
     1
 10
0.0
 20
0.0
 30
0.0
 70
    64
 71
    13
 72
    11
  0
VERTEX
  5
ADC
  8
0
 10
5.832016587617297
 20
-89.60638186914123
 30
59.10554043089211
 70
   192
  0
VERTEX
  5
ADD
  8
0
 10
0.0000000000274676
 20
-89.45655850059721
 30
59.4328019437182
 70
   192
  0
VERTEX
  5
ADE
  8
0
 10
-0.0000000000000067
 20
-106.0000005744436
 30
55.0
 70
   192
  0
VERTEX
  5
ADF
  8
0
 10
11.63958638860305
 20
-90.03951146337982
 30
58.1225891645179
 70
   192
  0
VERTEX
  5
AE0
  8
0
 10
17.2711169265397
 20
-90.69793112672491
 30
56.5202570711974
 70
   192
  0
VERTEX
  5
AE1
  8
0
 10
38.89087296526012
 20
-106.0000005744436
 30
-38.89087296526012
 70
   192
  0
VERTEX
  5
AE2
  8
0
 10
0.0
 20
-106.0000005744436
 30
-55.0
 70
   192
  0
VERTEX
  5
AE3
  8
0
 10
0.0
 20
-89.48385834534668
 30
-59.42548697236408
 70
   192
  0
VERTEX
  5
AE4
  8
0
 10
37.51764298680448
 20
-94.15812277716032
 30
-44.45814780142795
 70
   192
  0
VERTEX
  5
AE5
  8
0
 10
38.89087296526012
 20
-106.0000005744436
 30
38.89087296526012
 70
   192
  0
VERTEX
  5
AE6
  8
0
 10
48.6296810341762
 20
-95.86548720564697
 30
31.08435402396844
 70
   192
  0
VERTEX
  5
AE7
  8
0
 10
55.00000000000001
 20
-106.0000005744436
 30
0.0
 70
   192
  0
VERTEX
  5
AE8
  8
0
 10
56.81763592105649
 20
-96.72557661858137
 30
-8.734416304355872
 70
   192
  0
VERTEX
  5
AE9
  8
0
 10
0.0
 20
0.0
 30
0.0
 70
   128
 71
     1
 72
     2
 73
     3
  0
VERTEX
  5
AEA
  8
0
 10
0.0
 20
0.0
 30
0.0
 70
   128
 71
     3
 72
     4
 73
     1
  0
VERTEX
  5
AEB
  8
0
 10
0.0
 20
0.0
 30
0.0
 70
   128
 71
     5
 72
     4
 73
     3
  0
VERTEX
  5
AEC
  8
0
 10
0.0
 20
0.0
 30
0.0
 70
   128
 71
     6
 72
     7
 73
     8
  0
VERTEX
  5
AED
  8
0
 10
0.0
 20
0.0
 30
0.0
 70
   128
 71
     6
 72
     8
 73
     9
  0
VERTEX
  5
AEE
  8
0
 10
0.0
 20
0.0
 30
0.0
 70
   128
 71
     5
 72
     3
 73
    10
  0
VERTEX
  5
AEF
  8
0
 10
0.0
 20
0.0
 30
0.0
 70
   128
 71
     5
 72
    10
 73
    11
  0
VERTEX
  5
AF0
  8
0
 10
0.0
 20
0.0
 30
0.0
 70
   128
 71
    11
 72
    10
 73
    12
  0
VERTEX
  5
AF1
  8
0
 10
0.0
 20
0.0
 30
0.0
 70
   128
 71
    11
 72
    12
 73
    13
  0
VERTEX
  5
AF2
  8
0
 10
0.0
 20
0.0
 30
0.0
 70
   128
 71
    13
 72
    12
 73
     6
  0
VERTEX
  5
AF3
  8
0
 10
0.0
 20
0.0
 30
0.0
 70
   128
 71
    13
 72
     6
 73
     9
  0
SEQEND
  5
1265
  8
0
  0
POLYLINE
  5
AF4
  8
0
 66
     1
 10
0.0
 20
0.0
 30
0.0
 70
    64
 71
    12
 72
    10
  0
VERTEX
  5
AF5
  8
0
 10
85.9537111593881
 20
-45.0
 30
-96.53415607620309
 70
   192
  0
VERTEX
  5
AF6
  8
0
 10
79.3486393099954
 20
-44.99997689666196
 30
-95.51623141829825
 70
   192
  0
VERTEX
  5
AF7
  8
0
 10
73.13207542020373
 20
-44.9999914178257
 30
-93.30575538579387
 70
   192
  0
VERTEX
  5
AF8
  8
0
 10
74.8973466724933
 20
-45.0
 30
-88.6541669650604
 70
   192
  0
VERTEX
  5
AF9
  8
0
 10
76.11978536128736
 20
-45.03689757379637
 30
-88.10474599822797
 70
   192
  0
VERTEX
  5
AFA
  8
0
 10
77.33638214395586
 20
-45.14655124881369
 30
-87.5655447758334
 70
   192
  0
VERTEX
  5
AFB
  8
0
 10
78.5674772270361
 20
-45.32588148696809
 30
-87.0503510130521
 70
   192
  0
VERTEX
  5
AFC
  8
0
 10
80.8793921277128
 20
-44.74535756400692
 30
-87.03610957182579
 70
   192
  0
VERTEX
  5
AFD
  8
0
 10
83.15892941720979
 20
-44.16488149890141
 30
-87.02247855567889
 70
   192
  0
VERTEX
  5
AFE
  8
0
 10
85.40614628613204
 20
-43.58520405982889
 30
-87.00952882630719
 70
   192
  0
VERTEX
  5
AFF
  8
0
 10
85.08168751266763
 20
-41.9659549535679
 30
-90.2916105212879
 70
   192
  0
VERTEX
  5
B00
  8
0
 10
85.29028211284057
 20
-42.5049208512734
 30
-93.92001312714928
 70
   192
  0
VERTEX
  5
B01
  8
0
 10
0.0
 20
0.0
 30
0.0
 70
   128
 71
     5
 72
     4
 73
     8
  0
VERTEX
  5
B02
  8
0
 10
0.0
 20
0.0
 30
0.0
 70
   128
 71
     8
 72
     6
 73
     5
  0
VERTEX
  5
B03
  8
0
 10
0.0
 20
0.0
 30
0.0
 70
   128
 71
     8
 72
     7
 73
     6
  0
VERTEX
  5
B04
  8
0
 10
0.0
 20
0.0
 30
0.0
 70
   128
 71
     4
 72
     9
 73
     8
  0
VERTEX
  5
B05
  8
0
 10
0.0
 20
0.0
 30
0.0
 70
   128
 71
     4
 72
    11
 73
    10
  0
VERTEX
  5
B06
  8
0
 10
0.0
 20
0.0
 30
0.0
 70
   128
 71
     4
 72
    10
 73
     9
  0
VERTEX
  5
B07
  8
0
 10
0.0
 20
0.0
 30
0.0
 70
   128
 71
    11
 72
     4
 73
     3
  0
VERTEX
  5
B08
  8
0
 10
0.0
 20
0.0
 30
0.0
 70
   128
 71
     3
 72
    12
 73
    11
  0
VERTEX
  5
B09
  8
0
 10
0.0
 20
0.0
 30
0.0
 70
   128
 71
     2
 72
     1
 73
    12
  0
VERTEX
  5
B0A
  8
0
 10
0.0
 20
0.0
 30
0.0
 70
   128
 71
    12
 72
     3
 73
     2
  0
SEQEND
  5
1266
  8
0
  0
POLYLINE
  5
B0B
  8
0
 66
     1
 10
0.0
 20
0.0
 30
0.0
 70
    64
 71
    18
 72
    16
  0
VERTEX
  5
B0C
  8
0
 10
92.5466383235245
 20
-45.0
 30
-97.0
 70
   192
  0
VERTEX
  5
B0D
  8
0
 10
90.43055006967616
 20
-45.00000000000001
 30
-96.9342346948339
 70
   192
  0
VERTEX
  5
B0E
  8
0
 10
88.19393376616497
 20
-44.99999999999999
 30
-96.75999033758418
 70
   192
  0
VERTEX
  5
B0F
  8
0
 10
85.95371115938548
 20
-44.99999999999397
 30
-96.53415607621552
 70
   192
  0
VERTEX
  5
B10
  8
0
 10
85.29028211284057
 20
-42.5049208512734
 30
-93.92001312714928
 70
   192
  0
VERTEX
  5
B11
  8
0
 10
85.08168751266763
 20
-41.9659549535679
 30
-90.2916105212879
 70
   192
  0
VERTEX
  5
B12
  8
0
 10
85.40614628613201
 20
-43.5852040598289
 30
-87.0095288263072
 70
   192
  0
VERTEX
  5
B13
  8
0
 10
96.39604439275323
 20
-37.20329510160151
 30
-87.16900768611454
 70
   192
  0
VERTEX
  5
B14
  8
0
 10
104.3263056721968
 20
-27.09321052369894
 30
-87.30927564780404
 70
   192
  0
VERTEX
  5
B15
  8
0
 10
109.5991581830504
 20
-15.0944640373998
 30
-87.44349411787721
 70
   192
  0
VERTEX
  5
B16
  8
0
 10
109.5170003598662
 20
-15.03259435631582
 30
-88.55660604413025
 70
   192
  0
VERTEX
  5
B17
  8
0
 10
109.6375503384094
 20
-15.00604725216548
 30
-89.64629468317793
 70
   192
  0
VERTEX
  5
B18
  8
0
 10
109.9608164588464
 20
-15.0150362350663
 30
-90.7113308982629
 70
   192
  0
VERTEX
  5
B19
  8
0
 10
111.14531363815
 20
-15.39622580938823
 30
-92.66638729232818
 70
   192
  0
VERTEX
  5
B1A
  8
0
 10
112.8126484785317
 20
-16.30075556857295
 30
-94.02397840305497
 70
   192
  0
VERTEX
  5
B1B
  8
0
 10
114.7966814117372
 20
-17.5742212862617
 30
-94.60055527417721
 70
   192
  0
VERTEX
  5
B1C
  8
0
 10
109.6353180061528
 20
-28.47898439086338
 30
-95.5545984242657
 70
   192
  0
VERTEX
  5
B1D
  8
0
 10
102.2695050093761
 20
-37.96903823002609
 30
-96.38487055144307
 70
   192
  0
VERTEX
  5
B1E
  8
0
 10
0.0
 20
0.0
 30
0.0
 70
   128
 71
    11
 72
    10
 73
     9
  0
VERTEX
  5
B1F
  8
0
 10
0.0
 20
0.0
 30
0.0
 70
   128
 71
     9
 72
    12
 73
    11
  0
VERTEX
  5
B20
  8
0
 10
0.0
 20
0.0
 30
0.0
 70
   128
 71
     9
 72
    13
 73
    12
  0
VERTEX
  5
B21
  8
0
 10
0.0
 20
0.0
 30
0.0
 70
   128
 71
     9
 72
    14
 73
    13
  0
VERTEX
  5
B22
  8
0
 10
0.0
 20
0.0
 30
0.0
 70
   128
 71
     9
 72
    15
 73
    14
  0
VERTEX
  5
B23
  8
0
 10
0.0
 20
0.0
 30
0.0
 70
   128
 71
     9
 72
    17
 73
    15
  0
VERTEX
  5
B24
  8
0
 10
0.0
 20
0.0
 30
0.0
 70
   128
 71
    17
 72
    16
 73
    15
  0
VERTEX
  5
B25
  8
0
 10
0.0
 20
0.0
 30
0.0
 70
   128
 71
     9
 72
     8
 73
    18
  0
VERTEX
  5
B26
  8
0
 10
0.0
 20
0.0
 30
0.0
 70
   128
 71
     9
 72
    18
 73
    17
  0
VERTEX
  5
B27
  8
0
 10
0.0
 20
0.0
 30
0.0
 70
   128
 71
     2
 72
     1
 73
    18
  0
VERTEX
  5
B28
  8
0
 10
0.0
 20
0.0
 30
0.0
 70
   128
 71
    18
 72
     3
 73
     2
  0
VERTEX
  5
B29
  8
0
 10
0.0
 20
0.0
 30
0.0
 70
   128
 71
    18
 72
     4
 73
     3
  0
VERTEX
  5
B2A
  8
0
 10
0.0
 20
0.0
 30
0.0
 70
   128
 71
    18
 72
     5
 73
     4
  0
VERTEX
  5
B2B
  8
0
 10
0.0
 20
0.0
 30
0.0
 70
   128
 71
    18
 72
     6
 73
     5
  0
VERTEX
  5
B2C
  8
0
 10
0.0
 20
0.0
 30
0.0
 70
   128
 71
    18
 72
     8
 73
     6
  0
VERTEX
  5
B2D
  8
0
 10
0.0
 20
0.0
 30
0.0
 70
   128
 71
     8
 72
     7
 73
     6
  0
SEQEND
  5
1267
  8
0
  0
POLYLINE
  5
B2E
  8
0
 66
     1
 10
0.0
 20
0.0
 30
0.0
 70
    64
 71
    12
 72
    10
  0
VERTEX
  5
B2F
  8
0
 10
85.3863981461476
 20
-43.5709660397348
 30
87.0084822387725
 70
   192
  0
VERTEX
  5
B30
  8
0
 10
83.11226211854623
 20
-44.15480485595375
 30
87.02140092815371
 70
   192
  0
VERTEX
  5
B31
  8
0
 10
80.80278000291784
 20
-44.74002751399744
 30
87.03502450607719
 70
   192
  0
VERTEX
  5
B32
  8
0
 10
78.4578893270123
 20
-45.3258411872368
 30
87.0492813083083
 70
   192
  0
VERTEX
  5
B33
  8
0
 10
77.22010263334951
 20
-45.14658613496803
 30
87.56441017329477
 70
   192
  0
VERTEX
  5
B34
  8
0
 10
75.99677547046446
 20
-45.03682355816228
 30
88.10344449286823
 70
   192
  0
VERTEX
  5
B35
  8
0
 10
74.7676250941213
 20
-45.0
 30
88.65265066791879
 70
   192
  0
VERTEX
  5
B36
  8
0
 10
72.9957802429161
 20
-44.99999019471481
 30
93.31019235578403
 70
   192
  0
VERTEX
  5
B37
  8
0
 10
79.27092078432264
 20
-44.99997493136104
 30
95.52334540127562
 70
   192
  0
VERTEX
  5
B38
  8
0
 10
85.9348907710926
 20
-45.00000000000561
 30
96.54019006354068
 70
   192
  0
VERTEX
  5
B39
  8
0
 10
85.27241281602166
 20
-42.49529744516183
 30
93.92814659554108
 70
   192
  0
VERTEX
  5
B3A
  8
0
 10
85.06338542226005
 20
-41.95070079841177
 30
90.29566740786208
 70
   192
  0
VERTEX
  5
B3B
  8
0
 10
0.0
 20
0.0
 30
0.0
 70
   128
 71
     9
 72
     8
 73
    11
  0
VERTEX
  5
B3C
  8
0
 10
0.0
 20
0.0
 30
0.0
 70
   128
 71
    11
 72
    10
 73
     9
  0
VERTEX
  5
B3D
  8
0
 10
0.0
 20
0.0
 30
0.0
 70
   128
 71
     8
 72
    12
 73
    11
  0
VERTEX
  5
B3E
  8
0
 10
0.0
 20
0.0
 30
0.0
 70
   128
 71
     8
 72
     7
 73
    12
  0
VERTEX
  5
B3F
  8
0
 10
0.0
 20
0.0
 30
0.0
 70
   128
 71
     3
 72
     2
 73
     1
  0
VERTEX
  5
B40
  8
0
 10
0.0
 20
0.0
 30
0.0
 70
   128
 71
     3
 72
     1
 73
     5
  0
VERTEX
  5
B41
  8
0
 10
0.0
 20
0.0
 30
0.0
 70
   128
 71
     5
 72
     4
 73
     3
  0
VERTEX
  5
B42
  8
0
 10
0.0
 20
0.0
 30
0.0
 70
   128
 71
     1
 72
     6
 73
     5
  0
VERTEX
  5
B43
  8
0
 10
0.0
 20
0.0
 30
0.0
 70
   128
 71
     6
 72
     1
 73
    12
  0
VERTEX
  5
B44
  8
0
 10
0.0
 20
0.0
 30
0.0
 70
   128
 71
    12
 72
     7
 73
     6
  0
SEQEND
  5
1268
  8
0
  0
POLYLINE
  5
B45
  8
0
 66
     1
 10
0.0
 20
0.0
 30
0.0
 70
    64
 71
    18
 72
    16
  0
VERTEX
  5
B46
  8
0
 10
109.5978945275926
 20
-15.09393811124165
 30
87.44284888016671
 70
   192
  0
VERTEX
  5
B47
  8
0
 10
104.3856951828725
 20
-26.98085226066581
 30
87.30927415187085
 70
   192
  0
VERTEX
  5
B48
  8
0
 10
96.46236757185545
 20
-37.1266945276825
 30
87.16849284474402
 70
   192
  0
VERTEX
  5
B49
  8
0
 10
85.38639814614751
 20
-43.57096603973484
 30
87.00848223877253
 70
   192
  0
VERTEX
  5
B4A
  8
0
 10
85.06338542226005
 20
-41.95070079841177
 30
90.29566740786208
 70
   192
  0
VERTEX
  5
B4B
  8
0
 10
85.27241281602166
 20
-42.49529744516183
 30
93.92814659554108
 70
   192
  0
VERTEX
  5
B4C
  8
0
 10
85.93489077109021
 20
-45.0
 30
96.5401900635523
 70
   192
  0
VERTEX
  5
B4D
  8
0
 10
88.16951517033958
 20
-45.0
 30
96.76292918205203
 70
   192
  0
VERTEX
  5
B4E
  8
0
 10
90.400744434544
 20
-45.00000000000001
 30
96.93502534400137
 70
   192
  0
VERTEX
  5
B4F
  8
0
 10
92.51118213174611
 20
-45.0
 30
97.0
 70
   192
  0
VERTEX
  5
B50
  8
0
 10
102.2488768213158
 20
-37.9757533976509
 30
96.38545805248395
 70
   192
  0
VERTEX
  5
B51
  8
0
 10
109.6260846191967
 20
-28.48468480067014
 30
95.55509714550121
 70
   192
  0
VERTEX
  5
B52
  8
0
 10
114.7948545967572
 20
-17.5742212862617
 30
94.60055527417731
 70
   192
  0
VERTEX
  5
B53
  8
0
 10
112.7904502594843
 20
-16.28899344924068
 30
94.01304840641922
 70
   192
  0
VERTEX
  5
B54
  8
0
 10
111.1438603831713
 20
-15.39582029707396
 30
92.6663551589173
 70
   192
  0
VERTEX
  5
B55
  8
0
 10
109.9594225316264
 20
-15.0145058949629
 30
90.711284499516
 70
   192
  0
VERTEX
  5
B56
  8
0
 10
109.6374940092009
 20
-15.00552890245664
 30
89.65157131785632
 70
   192
  0
VERTEX
  5
B57
  8
0
 10
109.5154055487089
 20
-15.03167131047021
 30
88.56203772136483
 70
   192
  0
VERTEX
  5
B58
  8
0
 10
0.0
 20
0.0
 30
0.0
 70
   128
 71
     8
 72
     7
 73
    11
  0
VERTEX
  5
B59
  8
0
 10
0.0
 20
0.0
 30
0.0
 70
   128
 71
    11
 72
     9
 73
     8
  0
VERTEX
  5
B5A
  8
0
 10
0.0
 20
0.0
 30
0.0
 70
   128
 71
    11
 72
    10
 73
     9
  0
VERTEX
  5
B5B
  8
0
 10
0.0
 20
0.0
 30
0.0
 70
   128
 71
     7
 72
    12
 73
    11
  0
VERTEX
  5
B5C
  8
0
 10
0.0
 20
0.0
 30
0.0
 70
   128
 71
     7
 72
    14
 73
    13
  0
VERTEX
  5
B5D
  8
0
 10
0.0
 20
0.0
 30
0.0
 70
   128
 71
     7
 72
    13
 73
    12
  0
VERTEX
  5
B5E
  8
0
 10
0.0
 20
0.0
 30
0.0
 70
   128
 71
     7
 72
     6
 73
    15
  0
VERTEX
  5
B5F
  8
0
 10
0.0
 20
0.0
 30
0.0
 70
   128
 71
     7
 72
    15
 73
    14
  0
VERTEX
  5
B60
  8
0
 10
0.0
 20
0.0
 30
0.0
 70
   128
 71
     6
 72
     5
 73
    16
  0
VERTEX
  5
B61
  8
0
 10
0.0
 20
0.0
 30
0.0
 70
   128
 71
     6
 72
    16
 73
    15
  0
VERTEX
  5
B62
  8
0
 10
0.0
 20
0.0
 30
0.0
 70
   128
 71
     5
 72
    17
 73
    16
  0
VERTEX
  5
B63
  8
0
 10
0.0
 20
0.0
 30
0.0
 70
   128
 71
     5
 72
     4
 73
    18
  0
VERTEX
  5
B64
  8
0
 10
0.0
 20
0.0
 30
0.0
 70
   128
 71
     5
 72
    18
 73
    17
  0
VERTEX
  5
B65
  8
0
 10
0.0
 20
0.0
 30
0.0
 70
   128
 71
     2
 72
     1
 73
    18
  0
VERTEX
  5
B66
  8
0
 10
0.0
 20
0.0
 30
0.0
 70
   128
 71
    18
 72
     3
 73
     2
  0
VERTEX
  5
B67
  8
0
 10
0.0
 20
0.0
 30
0.0
 70
   128
 71
    18
 72
     4
 73
     3
  0
SEQEND
  5
1269
  8
0
  0
POLYLINE
  5
B68
  8
0
 66
     1
 10
0.0
 20
0.0
 30
0.0
 70
    64
 71
    18
 72
    16
  0
VERTEX
  5
B69
  8
0
 10
-95.3067125689075
 20
-45.0
 30
97.0
 70
   192
  0
VERTEX
  5
B6A
  8
0
 10
-85.474210088678
 20
-45.00064450354935
 30
96.49214082627195
 70
   192
  0
VERTEX
  5
B6B
  8
0
 10
-75.62105926615192
 20
-44.99977440868832
 30
94.52966432560541
 70
   192
  0
VERTEX
  5
B6C
  8
0
 10
-74.76477503390701
 20
-45.0
 30
88.6526531945528
 70
   192
  0
VERTEX
  5
B6D
  8
0
 10
-75.98276731828511
 20
-45.03662497928919
 30
88.10810894142807
 70
   192
  0
VERTEX
  5
B6E
  8
0
 10
-77.21288400398126
 20
-45.1465397692436
 30
87.56605255652553
 70
   192
  0
VERTEX
  5
B6F
  8
0
 10
-78.4550195174197
 20
-45.3258415122358
 30
87.04928074511209
 70
   192
  0
VERTEX
  5
B70
  8
0
 10
-118.3943923236207
 20
-34.48004756927947
 30
86.91926473218236
 70
   192
  0
VERTEX
  5
B71
  8
0
 10
-157.5885783542758
 20
-23.18363026953415
 30
87.27531210202001
 70
   192
  0
VERTEX
  5
B72
  8
0
 10
-196.7036994593068
 20
-13.14973572696202
 30
88.56762345468442
 70
   192
  0
VERTEX
  5
B73
  8
0
 10
-196.7043410739727
 20
-13.14872383827304
 30
88.61282822611565
 70
   192
  0
VERTEX
  5
B74
  8
0
 10
-196.7050553712649
 20
-13.14804488748264
 30
88.65803813380691
 70
   192
  0
VERTEX
  5
B75
  8
0
 10
-196.7058423106091
 20
-13.14769891315723
 30
88.7032506097011
 70
   192
  0
VERTEX
  5
B76
  8
0
 10
-196.911262820861
 20
-13.84054157761375
 30
91.55389153919799
 70
   192
  0
VERTEX
  5
B77
  8
0
 10
-197.3743654913339
 20
-15.77525792195797
 30
93.71971490138021
 70
   192
  0
VERTEX
  5
B78
  8
0
 10
-197.983897852126
 20
-18.48706554351405
 30
94.68041879825161
 70
   192
  0
VERTEX
  5
B79
  8
0
 10
-163.627196518559
 20
-26.82085524050567
 30
95.40953092094755
 70
   192
  0
VERTEX
  5
B7A
  8
0
 10
-129.4846319689277
 20
-35.97843299257716
 30
96.21071515961101
 70
   192
  0
VERTEX
  5
B7B
  8
0
 10
0.0
 20
0.0
 30
0.0
 70
   128
 71
    11
 72
    10
 73
     9
  0
VERTEX
  5
B7C
  8
0
 10
0.0
 20
0.0
 30
0.0
 70
   128
 71
     9
 72
    12
 73
    11
  0
VERTEX
  5
B7D
  8
0
 10
0.0
 20
0.0
 30
0.0
 70
   128
 71
     9
 72
    13
 73
    12
  0
VERTEX
  5
B7E
  8
0
 10
0.0
 20
0.0
 30
0.0
 70
   128
 71
     9
 72
    14
 73
    13
  0
VERTEX
  5
B7F
  8
0
 10
0.0
 20
0.0
 30
0.0
 70
   128
 71
     9
 72
    17
 73
    15
  0
VERTEX
  5
B80
  8
0
 10
0.0
 20
0.0
 30
0.0
 70
   128
 71
     9
 72
    15
 73
    14
  0
VERTEX
  5
B81
  8
0
 10
0.0
 20
0.0
 30
0.0
 70
   128
 71
    17
 72
    16
 73
    15
  0
VERTEX
  5
B82
  8
0
 10
0.0
 20
0.0
 30
0.0
 70
   128
 71
     9
 72
     8
 73
    18
  0
VERTEX
  5
B83
  8
0
 10
0.0
 20
0.0
 30
0.0
 70
   128
 71
     9
 72
    18
 73
    17
  0
VERTEX
  5
B84
  8
0
 10
0.0
 20
0.0
 30
0.0
 70
   128
 71
     2
 72
     1
 73
    18
  0
VERTEX
  5
B85
  8
0
 10
0.0
 20
0.0
 30
0.0
 70
   128
 71
    18
 72
     3
 73
     2
  0
VERTEX
  5
B86
  8
0
 10
0.0
 20
0.0
 30
0.0
 70
   128
 71
    18
 72
     8
 73
     4
  0
VERTEX
  5
B87
  8
0
 10
0.0
 20
0.0
 30
0.0
 70
   128
 71
    18
 72
     4
 73
     3
  0
VERTEX
  5
B88
  8
0
 10
0.0
 20
0.0
 30
0.0
 70
   128
 71
     8
 72
     5
 73
     4
  0
VERTEX
  5
B89
  8
0
 10
0.0
 20
0.0
 30
0.0
 70
   128
 71
     8
 72
     6
 73
     5
  0
VERTEX
  5
B8A
  8
0
 10
0.0
 20
0.0
 30
0.0
 70
   128
 71
     8
 72
     7
 73
     6
  0
SEQEND
  5
126A
  8
0
  0
POLYLINE
  5
B8B
  8
0
 66
     1
 10
0.0
 20
0.0
 30
0.0
 70
    64
 71
    18
 72
    16
  0
VERTEX
  5
B8C
  8
0
 10
-78.56687915097329
 20
-45.3258814981247
 30
-87.0503571328791
 70
   192
  0
VERTEX
  5
B8D
  8
0
 10
-77.33589579452375
 20
-45.14677129231385
 30
-87.56569515074187
 70
   192
  0
VERTEX
  5
B8E
  8
0
 10
-76.11922813210519
 20
-45.03695903183393
 30
-88.10485416600434
 70
   192
  0
VERTEX
  5
B8F
  8
0
 10
-74.8968457938705
 20
-45.0
 30
-88.6541757590637
 70
   192
  0
VERTEX
  5
B90
  8
0
 10
-75.74637758739007
 20
-44.99978867592711
 30
-94.52747140823305
 70
   192
  0
VERTEX
  5
B91
  8
0
 10
-85.55937951032058
 20
-44.99919277939096
 30
-96.49173901662358
 70
   192
  0
VERTEX
  5
B92
  8
0
 10
-95.3418566022248
 20
-45.0
 30
-97.0
 70
   192
  0
VERTEX
  5
B93
  8
0
 10
-129.4945210598566
 20
-35.94691918365583
 30
-96.20795805858572
 70
   192
  0
VERTEX
  5
B94
  8
0
 10
-163.6184218716857
 20
-26.78323524162939
 30
-95.40623959752394
 70
   192
  0
VERTEX
  5
B95
  8
0
 10
-197.9679299824655
 20
-18.48706554351404
 30
-94.68041879825158
 70
   192
  0
VERTEX
  5
B96
  8
0
 10
-197.3629070826113
 20
-15.77432972758603
 30
-93.71966219357941
 70
   192
  0
VERTEX
  5
B97
  8
0
 10
-196.9032248268852
 20
-13.83887755115698
 30
-91.55384625811433
 70
   192
  0
VERTEX
  5
B98
  8
0
 10
-196.6993096390765
 20
-13.14564987195175
 30
-88.7032506097011
 70
   192
  0
VERTEX
  5
B99
  8
0
 10
-196.6985364486231
 20
-13.14598765950801
 30
-88.65853677742562
 70
   192
  0
VERTEX
  5
B9A
  8
0
 10
-196.6978337813981
 20
-13.1466512318348
 30
-88.61382542930004
 70
   192
  0
VERTEX
  5
B9B
  8
0
 10
-196.6972016764395
 20
-13.1476405520663
 30
-88.56911904933621
 70
   192
  0
VERTEX
  5
B9C
  8
0
 10
-157.5926232902198
 20
-23.14010966551484
 30
-87.27529369057275
 70
   192
  0
VERTEX
  5
B9D
  8
0
 10
-118.4445311906217
 20
-34.44558534356065
 30
-86.91820018005272
 70
   192
  0
VERTEX
  5
B9E
  8
0
 10
0.0
 20
0.0
 30
0.0
 70
   128
 71
    11
 72
    10
 73
     9
  0
VERTEX
  5
B9F
  8
0
 10
0.0
 20
0.0
 30
0.0
 70
   128
 71
     9
 72
    17
 73
    12
  0
VERTEX
  5
BA0
  8
0
 10
0.0
 20
0.0
 30
0.0
 70
   128
 71
     9
 72
    12
 73
    11
  0
VERTEX
  5
BA1
  8
0
 10
0.0
 20
0.0
 30
0.0
 70
   128
 71
    17
 72
    13
 73
    12
  0
VERTEX
  5
BA2
  8
0
 10
0.0
 20
0.0
 30
0.0
 70
   128
 71
    17
 72
    14
 73
    13
  0
VERTEX
  5
BA3
  8
0
 10
0.0
 20
0.0
 30
0.0
 70
   128
 71
    17
 72
    15
 73
    14
  0
VERTEX
  5
BA4
  8
0
 10
0.0
 20
0.0
 30
0.0
 70
   128
 71
    17
 72
    16
 73
    15
  0
VERTEX
  5
BA5
  8
0
 10
0.0
 20
0.0
 30
0.0
 70
   128
 71
     9
 72
     8
 73
    18
  0
VERTEX
  5
BA6
  8
0
 10
0.0
 20
0.0
 30
0.0
 70
   128
 71
     9
 72
    18
 73
    17
  0
VERTEX
  5
BA7
  8
0
 10
0.0
 20
0.0
 30
0.0
 70
   128
 71
     2
 72
     1
 73
    18
  0
VERTEX
  5
BA8
  8
0
 10
0.0
 20
0.0
 30
0.0
 70
   128
 71
    18
 72
     3
 73
     2
  0
VERTEX
  5
BA9
  8
0
 10
0.0
 20
0.0
 30
0.0
 70
   128
 71
    18
 72
     4
 73
     3
  0
VERTEX
  5
BAA
  8
0
 10
0.0
 20
0.0
 30
0.0
 70
   128
 71
    18
 72
     8
 73
     5
  0
VERTEX
  5
BAB
  8
0
 10
0.0
 20
0.0
 30
0.0
 70
   128
 71
    18
 72
     5
 73
     4
  0
VERTEX
  5
BAC
  8
0
 10
0.0
 20
0.0
 30
0.0
 70
   128
 71
     8
 72
     6
 73
     5
  0
VERTEX
  5
BAD
  8
0
 10
0.0
 20
0.0
 30
0.0
 70
   128
 71
     8
 72
     7
 73
     6
  0
SEQEND
  5
126B
  8
0
  0
POLYLINE
  5
BAE
  8
0
 66
     1
 10
0.0
 20
0.0
 30
0.0
 70
    64
 71
     6
 72
     4
  0
VERTEX
  5
BAF
  8
0
 10
-95.3418566022248
 20
-45.0
 30
-97.0
 70
   192
  0
VERTEX
  5
BB0
  8
0
 10
-129.4945210598566
 20
-35.94691918365583
 30
-96.20795805858572
 70
   192
  0
VERTEX
  5
BB1
  8
0
 10
-163.6184218716857
 20
-26.78323524162939
 30
-95.40623959752394
 70
   192
  0
VERTEX
  5
BB2
  8
0
 10
-197.9679299824655
 20
-18.48706554351405
 30
-94.68041879825151
 70
   192
  0
VERTEX
  5
BB3
  8
0
 10
-579.6994453077931
 20
-18.48706554351405
 30
-94.68041879825151
 70
   192
  0
VERTEX
  5
BB4
  8
0
 10
-582.0190265095409
 20
-45.00000000000001
 30
-96.99999999999986
 70
   192
  0
VERTEX
  5
BB5
  8
0
 10
0.0
 20
0.0
 30
0.0
 70
   128
 71
     6
 72
     1
 73
    -2
  0
VERTEX
  5
BB6
  8
0
 10
0.0
 20
0.0
 30
0.0
 70
   128
 71
     2
 72
    -3
 73
    -6
  0
VERTEX
  5
BB7
  8
0
 10
0.0
 20
0.0
 30
0.0
 70
   128
 71
     4
 72
     5
 73
    -6
  0
VERTEX
  5
BB8
  8
0
 10
0.0
 20
0.0
 30
0.0
 70
   128
 71
     3
 72
    -4
 73
    -6
  0
SEQEND
  5
126C
  8
0
  0
POLYLINE
  5
BB9
  8
0
 66
     1
 10
0.0
 20
0.0
 30
0.0
 70
    64
 71
     6
 72
     4
  0
VERTEX
  5
BBA
  8
0
 10
182.019026509541
 20
-45.0
 30
96.99999999999989
 70
   192
  0
VERTEX
  5
BBB
  8
0
 10
92.51118213174607
 20
-45.0
 30
96.9999999999999
 70
   192
  0
VERTEX
  5
BBC
  8
0
 10
102.2488768213158
 20
-37.9757533976509
 30
96.38545805248395
 70
   192
  0
VERTEX
  5
BBD
  8
0
 10
109.6260846191967
 20
-28.48468480067014
 30
95.55509714550121
 70
   192
  0
VERTEX
  5
BBE
  8
0
 10
114.7948545967572
 20
-17.5742212862617
 30
94.60055527417731
 70
   192
  0
VERTEX
  5
BBF
  8
0
 10
179.6195817837185
 20
-17.5742212862617
 30
94.60055527417731
 70
   192
  0
VERTEX
  5
BC0
  8
0
 10
0.0
 20
0.0
 30
0.0
 70
   128
 71
     1
 72
     2
 73
    -3
  0
VERTEX
  5
BC1
  8
0
 10
0.0
 20
0.0
 30
0.0
 70
   128
 71
     3
 72
    -4
 73
    -1
  0
VERTEX
  5
BC2
  8
0
 10
0.0
 20
0.0
 30
0.0
 70
   128
 71
     5
 72
     6
 73
    -1
  0
VERTEX
  5
BC3
  8
0
 10
0.0
 20
0.0
 30
0.0
 70
   128
 71
     4
 72
    -5
 73
    -1
  0
SEQEND
  5
126D
  8
0
  0
POLYLINE
  5
BC4
  8
0
 66
     1
 10
0.0
 20
0.0
 30
0.0
 70
    64
 71
    47
 72
    50
  0
VERTEX
  5
BC5
  8
0
 10
-59.36506909147106
 20
-81.09718904809104
 30
-50.05340175560814
 70
   192
  0
VERTEX
  5
BC6
  8
0
 10
-59.83307844033411
 20
-91.38426317245438
 30
-0.4121024092908963
 70
   192
  0
VERTEX
  5
BC7
  8
0
 10
-73.32012374928618
 20
-45.34227993236154
 30
-88.22640196428212
 70
   192
  0
VERTEX
  5
BC8
  8
0
 10
-78.56687915097329
 20
-45.3258814981247
 30
-87.0503571328791
 70
   192
  0
VERTEX
  5
BC9
  8
0
 10
-75.97137872687115
 20
-45.33410314674372
 30
-87.64897917834928
 70
   192
  0
VERTEX
  5
BCA
  8
0
 10
-198.2558023571792
 20
-13.91803034314188
 30
-30.07665161112137
 70
   192
  0
VERTEX
  5
BCB
  8
0
 10
-118.4445311906217
 20
-34.44558534356065
 30
-86.91820018005272
 70
   192
  0
VERTEX
  5
BCC
  8
0
 10
-157.5926232902198
 20
-23.14010966551484
 30
-87.27529369057275
 70
   192
  0
VERTEX
  5
BCD
  8
0
 10
-196.6972016764395
 20
-13.1476405520663
 30
-88.56911904933621
 70
   192
  0
VERTEX
  5
BCE
  8
0
 10
-56.35232686535574
 20
-89.51530762446806
 30
-29.24970989170777
 70
   192
  0
VERTEX
  5
BCF
  8
0
 10
29.32279836732341
 20
-86.51945576599638
 30
-55.56504533450983
 70
   192
  0
VERTEX
  5
BD0
  8
0
 10
-18.92916943499355
 20
-85.370483663567
 30
-59.79684267425539
 70
   192
  0
VERTEX
  5
BD1
  8
0
 10
-23.96122029628591
 20
-56.04723737968597
 30
-86.94313198133929
 70
   192
  0
VERTEX
  5
BD2
  8
0
 10
23.5923191776083
 20
-56.09811737710402
 30
-86.9343458625078
 70
   192
  0
VERTEX
  5
BD3
  8
0
 10
-157.5885783542758
 20
-23.18363026953415
 30
87.27531210202001
 70
   192
  0
VERTEX
  5
BD4
  8
0
 10
-196.7036994593025
 20
-13.149735726963
 30
88.56762345468451
 70
   192
  0
VERTEX
  5
BD5
  8
0
 10
-198.2604108434996
 20
-13.92039288299058
 30
30.07661946687243
 70
   192
  0
VERTEX
  5
BD6
  8
0
 10
-59.3880070920023
 20
-81.4421165352068
 30
49.2716568688404
 70
   192
  0
VERTEX
  5
BD7
  8
0
 10
-118.3943923236207
 20
-34.48004756927947
 30
86.91926473218236
 70
   192
  0
VERTEX
  5
BD8
  8
0
 10
-78.4550195174197
 20
-45.3258415122358
 30
87.04928074511209
 70
   192
  0
VERTEX
  5
BD9
  8
0
 10
-75.8419800739598
 20
-45.33410416231271
 30
87.64848192883439
 70
   192
  0
VERTEX
  5
BDA
  8
0
 10
-73.17262856552212
 20
-45.34232080004216
 30
88.22633870055294
 70
   192
  0
VERTEX
  5
BDB
  8
0
 10
-70.44695309576721
 20
-45.3504552244449
 30
88.7827659111313
 70
   192
  0
VERTEX
  5
BDC
  8
0
 10
-29.27876647005685
 20
-86.47642390526933
 30
55.59052984994408
 70
   192
  0
VERTEX
  5
BDD
  8
0
 10
18.9912725394679
 20
-85.34812186966599
 30
59.7768529289682
 70
   192
  0
VERTEX
  5
BDE
  8
0
 10
23.4817216424777
 20
-56.02845602946324
 30
86.9468632669909
 70
   192
  0
VERTEX
  5
BDF
  8
0
 10
-23.83115987540302
 20
-55.98004836523884
 30
86.9552056195941
 70
   192
  0
VERTEX
  5
BE0
  8
0
 10
73.17609763873307
 20
-45.34234655124958
 30
88.2262335149874
 70
   192
  0
VERTEX
  5
BE1
  8
0
 10
70.449729349731
 20
-45.3504555775834
 30
88.7827665597317
 70
   192
  0
VERTEX
  5
BE2
  8
0
 10
-70.61310530574931
 20
-45.3503798881697
 30
-88.7825419603781
 70
   192
  0
VERTEX
  5
BE3
  8
0
 10
83.15892941720979
 20
-44.16488149890141
 30
-87.02247855567889
 70
   192
  0
VERTEX
  5
BE4
  8
0
 10
85.40614628613201
 20
-43.5852040598289
 30
-87.0095288263072
 70
   192
  0
VERTEX
  5
BE5
  8
0
 10
86.88376509775814
 20
-76.64906190900126
 30
-31.0986700914213
 70
   192
  0
VERTEX
  5
BE6
  8
0
 10
80.8793921277128
 20
-44.74535756400692
 30
-87.03610957182579
 70
   192
  0
VERTEX
  5
BE7
  8
0
 10
78.5674772270361
 20
-45.32588148696809
 30
-87.0503510130521
 70
   192
  0
VERTEX
  5
BE8
  8
0
 10
75.97245749823009
 20
-45.33414464538853
 30
-87.64889741580626
 70
   192
  0
VERTEX
  5
BE9
  8
0
 10
73.32110472804568
 20
-45.34230736452025
 30
-88.22631468773434
 70
   192
  0
VERTEX
  5
BEA
  8
0
 10
70.6134197823254
 20
-45.3503804580301
 30
-88.7825432760965
 70
   192
  0
VERTEX
  5
BEB
  8
0
 10
60.69340188667874
 20
-89.82777990471469
 30
-18.93073881434459
 70
   192
  0
VERTEX
  5
BEC
  8
0
 10
56.34599199432488
 20
-89.50381322533006
 30
29.2598308284077
 70
   192
  0
VERTEX
  5
BED
  8
0
 10
86.87703562481548
 20
-76.58496622946124
 30
31.33189488247542
 70
   192
  0
VERTEX
  5
BEE
  8
0
 10
-60.69787536720109
 20
-89.81927484863343
 30
18.91902373089193
 70
   192
  0
VERTEX
  5
BEF
  8
0
 10
78.4578893270123
 20
-45.3258411872368
 30
87.0492813083083
 70
   192
  0
VERTEX
  5
BF0
  8
0
 10
75.84548394110102
 20
-45.3341457326437
 30
87.6483855843476
 70
   192
  0
VERTEX
  5
BF1
  8
0
 10
80.80278000291784
 20
-44.74002751399744
 30
87.03502450607719
 70
   192
  0
VERTEX
  5
BF2
  8
0
 10
83.11226211854623
 20
-44.15480485595375
 30
87.02140092815371
 70
   192
  0
VERTEX
  5
BF3
  8
0
 10
85.3863981461476
 20
-43.5709660397348
 30
87.0084822387725
 70
   192
  0
VERTEX
  5
BF4
  8
0
 10
0.0
 20
0.0
 30
0.0
 70
   128
 71
     1
 72
     2
 73
     3
  0
VERTEX
  5
BF5
  8
0
 10
0.0
 20
0.0
 30
0.0
 70
   128
 71
     4
 72
     5
 73
     3
  0
VERTEX
  5
BF6
  8
0
 10
0.0
 20
0.0
 30
0.0
 70
   128
 71
     4
 72
     3
 73
     6
  0
VERTEX
  5
BF7
  8
0
 10
0.0
 20
0.0
 30
0.0
 70
   128
 71
     6
 72
     7
 73
     4
  0
VERTEX
  5
BF8
  8
0
 10
0.0
 20
0.0
 30
0.0
 70
   128
 71
     6
 72
     8
 73
     7
  0
VERTEX
  5
BF9
  8
0
 10
0.0
 20
0.0
 30
0.0
 70
   128
 71
     6
 72
     9
 73
     8
  0
VERTEX
  5
BFA
  8
0
 10
0.0
 20
0.0
 30
0.0
 70
   128
 71
    10
 72
     2
 73
     1
  0
VERTEX
  5
BFB
  8
0
 10
0.0
 20
0.0
 30
0.0
 70
   128
 71
    11
 72
    12
 73
    13
  0
VERTEX
  5
BFC
  8
0
 10
0.0
 20
0.0
 30
0.0
 70
   128
 71
    11
 72
    13
 73
    14
  0
VERTEX
  5
BFD
  8
0
 10
0.0
 20
0.0
 30
0.0
 70
   128
 71
    15
 72
    16
 73
    17
  0
VERTEX
  5
BFE
  8
0
 10
0.0
 20
0.0
 30
0.0
 70
   128
 71
    17
 72
    18
 73
    19
  0
VERTEX
  5
BFF
  8
0
 10
0.0
 20
0.0
 30
0.0
 70
   128
 71
    17
 72
    19
 73
    15
  0
VERTEX
  5
C00
  8
0
 10
0.0
 20
0.0
 30
0.0
 70
   128
 71
    18
 72
    20
 73
    19
  0
VERTEX
  5
C01
  8
0
 10
0.0
 20
0.0
 30
0.0
 70
   128
 71
    18
 72
    21
 73
    20
  0
VERTEX
  5
C02
  8
0
 10
0.0
 20
0.0
 30
0.0
 70
   128
 71
    18
 72
    22
 73
    21
  0
VERTEX
  5
C03
  8
0
 10
0.0
 20
0.0
 30
0.0
 70
   128
 71
    18
 72
    23
 73
    22
  0
VERTEX
  5
C04
  8
0
 10
0.0
 20
0.0
 30
0.0
 70
   128
 71
    24
 72
    25
 73
    26
  0
VERTEX
  5
C05
  8
0
 10
0.0
 20
0.0
 30
0.0
 70
   128
 71
    24
 72
    26
 73
    27
  0
VERTEX
  5
C06
  8
0
 10
0.0
 20
0.0
 30
0.0
 70
   128
 71
    28
 72
    29
 73
    26
  0
VERTEX
  5
C07
  8
0
 10
0.0
 20
0.0
 30
0.0
 70
   128
 71
    28
 72
    26
 73
    25
  0
VERTEX
  5
C08
  8
0
 10
0.0
 20
0.0
 30
0.0
 70
   128
 71
    13
 72
    12
 73
     1
  0
VERTEX
  5
C09
  8
0
 10
0.0
 20
0.0
 30
0.0
 70
   128
 71
    13
 72
     1
 73
     3
  0
VERTEX
  5
C0A
  8
0
 10
0.0
 20
0.0
 30
0.0
 70
   128
 71
    13
 72
     3
 73
    30
  0
VERTEX
  5
C0B
  8
0
 10
0.0
 20
0.0
 30
0.0
 70
   128
 71
    31
 72
    32
 73
    33
  0
VERTEX
  5
C0C
  8
0
 10
0.0
 20
0.0
 30
0.0
 70
   128
 71
    33
 72
    34
 73
    31
  0
VERTEX
  5
C0D
  8
0
 10
0.0
 20
0.0
 30
0.0
 70
   128
 71
    33
 72
    35
 73
    34
  0
VERTEX
  5
C0E
  8
0
 10
0.0
 20
0.0
 30
0.0
 70
   128
 71
    33
 72
    36
 73
    35
  0
VERTEX
  5
C0F
  8
0
 10
0.0
 20
0.0
 30
0.0
 70
   128
 71
    33
 72
    37
 73
    36
  0
VERTEX
  5
C10
  8
0
 10
0.0
 20
0.0
 30
0.0
 70
   128
 71
    33
 72
    14
 73
    38
  0
VERTEX
  5
C11
  8
0
 10
0.0
 20
0.0
 30
0.0
 70
   128
 71
    33
 72
    38
 73
    37
  0
VERTEX
  5
C12
  8
0
 10
0.0
 20
0.0
 30
0.0
 70
   128
 71
    33
 72
    39
 73
    11
  0
VERTEX
  5
C13
  8
0
 10
0.0
 20
0.0
 30
0.0
 70
   128
 71
    33
 72
    11
 73
    14
  0
VERTEX
  5
C14
  8
0
 10
0.0
 20
0.0
 30
0.0
 70
   128
 71
    40
 72
    39
 73
    33
  0
VERTEX
  5
C15
  8
0
 10
0.0
 20
0.0
 30
0.0
 70
   128
 71
    41
 72
    40
 73
    33
  0
VERTEX
  5
C16
  8
0
 10
0.0
 20
0.0
 30
0.0
 70
   128
 71
    10
 72
     1
 73
    12
  0
VERTEX
  5
C17
  8
0
 10
0.0
 20
0.0
 30
0.0
 70
   128
 71
    23
 72
    18
 73
    27
  0
VERTEX
  5
C18
  8
0
 10
0.0
 20
0.0
 30
0.0
 70
   128
 71
     2
 72
    10
 73
    42
  0
VERTEX
  5
C19
  8
0
 10
0.0
 20
0.0
 30
0.0
 70
   128
 71
    42
 72
    17
 73
     6
  0
VERTEX
  5
C1A
  8
0
 10
0.0
 20
0.0
 30
0.0
 70
   128
 71
    42
 72
     6
 73
     3
  0
VERTEX
  5
C1B
  8
0
 10
0.0
 20
0.0
 30
0.0
 70
   128
 71
    42
 72
     3
 73
     2
  0
VERTEX
  5
C1C
  8
0
 10
0.0
 20
0.0
 30
0.0
 70
   128
 71
    41
 72
    43
 73
    44
  0
VERTEX
  5
C1D
  8
0
 10
0.0
 20
0.0
 30
0.0
 70
   128
 71
    41
 72
    45
 73
    43
  0
VERTEX
  5
C1E
  8
0
 10
0.0
 20
0.0
 30
0.0
 70
   128
 71
    41
 72
    46
 73
    45
  0
VERTEX
  5
C1F
  8
0
 10
0.0
 20
0.0
 30
0.0
 70
   128
 71
    41
 72
    47
 73
    46
  0
VERTEX
  5
C20
  8
0
 10
0.0
 20
0.0
 30
0.0
 70
   128
 71
    44
 72
    28
 73
    25
  0
VERTEX
  5
C21
  8
0
 10
0.0
 20
0.0
 30
0.0
 70
   128
 71
    44
 72
    25
 73
    40
  0
VERTEX
  5
C22
  8
0
 10
0.0
 20
0.0
 30
0.0
 70
   128
 71
    44
 72
    40
 73
    41
  0
VERTEX
  5
C23
  8
0
 10
0.0
 20
0.0
 30
0.0
 70
   128
 71
    18
 72
    17
 73
    42
  0
VERTEX
  5
C24
  8
0
 10
0.0
 20
0.0
 30
0.0
 70
   128
 71
    42
 72
    24
 73
    27
  0
VERTEX
  5
C25
  8
0
 10
0.0
 20
0.0
 30
0.0
 70
   128
 71
    42
 72
    27
 73
    18
  0
SEQEND
  5
126E
  8
0
  0
POLYLINE
  5
C26
  8
0
 66
     1
 10
0.0
 20
0.0
 30
0.0
 70
    64
 71
     4
 72
     2
  0
VERTEX
  5
C27
  8
0
 10
198.0003046096873
 20
-44.99999999999999
 30
110.0
 70
   192
  0
VERTEX
  5
C28
  8
0
 10
197.2491275519989
 20
-1.965095187125439
 30
109.2488229423116
 70
   192
  0
VERTEX
  5
C29
  8
0
 10
-597.249127551999
 20
-1.965095187125435
 30
109.2488229423116
 70
   192
  0
VERTEX
  5
C2A
  8
0
 10
-598.0003046096872
 20
-44.99999999999999
 30
110.0000000000002
 70
   192
  0
VERTEX
  5
C2B
  8
0
 10
0.0
 20
0.0
 30
0.0
 70
   128
 71
     3
 72
     4
 73
    -1
  0
VERTEX
  5
C2C
  8
0
 10
0.0
 20
0.0
 30
0.0
 70
   128
 71
     2
 72
    -3
 73
     1
  0
SEQEND
  5
126F
  8
0
  0
POLYLINE
  5
C2D
  8
0
 66
     1
 10
0.0
 20
0.0
 30
0.0
 70
    64
 71
     4
 72
     2
  0
VERTEX
  5
C2E
  8
0
 10
-598.0003046096872
 20
-45.0
 30
-109.9999999999998
 70
   192
  0
VERTEX
  5
C2F
  8
0
 10
-597.2491275519988
 20
-1.965095187125449
 30
-109.2488229423114
 70
   192
  0
VERTEX
  5
C30
  8
0
 10
197.249127551999
 20
-1.965095187125435
 30
-109.2488229423116
 70
   192
  0
VERTEX
  5
C31
  8
0
 10
198.0003046096873
 20
-45.0
 30
-110.0
 70
   192
  0
VERTEX
  5
C32
  8
0
 10
0.0
 20
0.0
 30
0.0
 70
   128
 71
     3
 72
     4
 73
    -1
  0
VERTEX
  5
C33
  8
0
 10
0.0
 20
0.0
 30
0.0
 70
   128
 71
     2
 72
    -3
 73
     1
  0
SEQEND
  5
1270
  8
0
  0
POLYLINE
  5
C34
  8
0
 66
     1
 10
0.0
 20
0.0
 30
0.0
 70
    64
 71
     4
 72
     2
  0
VERTEX
  5
C35
  8
0
 10
200.0000000000002
 20
-44.99999999999999
 30
-108.0003046096872
 70
   192
  0
VERTEX
  5
C36
  8
0
 10
199.2488229423118
 20
-1.965095187125442
 30
-107.2491275519988
 70
   192
  0
VERTEX
  5
C37
  8
0
 10
199.2488229423115
 20
-1.965095187125435
 30
107.2491275519988
 70
   192
  0
VERTEX
  5
C38
  8
0
 10
200.0000000000003
 20
-44.99999999999999
 30
108.0003046096872
 70
   192
  0
VERTEX
  5
C39
  8
0
 10
0.0
 20
0.0
 30
0.0
 70
   128
 71
     3
 72
     4
 73
    -1
  0
VERTEX
  5
C3A
  8
0
 10
0.0
 20
0.0
 30
0.0
 70
   128
 71
     2
 72
    -3
 73
     1
  0
SEQEND
  5
1271
  8
0
  0
POLYLINE
  5
C3B
  8
0
 66
     1
 10
0.0
 20
0.0
 30
0.0
 70
    64
 71
     4
 72
     2
  0
VERTEX
  5
C3C
  8
0
 10
-599.9999999999998
 20
-45.00000000000001
 30
108.0003046096872
 70
   192
  0
VERTEX
  5
C3D
  8
0
 10
-599.2488229423113
 20
-1.965095187125442
 30
107.2491275519988
 70
   192
  0
VERTEX
  5
C3E
  8
0
 10
-599.248822942312
 20
-1.965095187125435
 30
-107.2491275519986
 70
   192
  0
VERTEX
  5
C3F
  8
0
 10
-600.0000000000001
 20
-45.0
 30
-108.000304609687
 70
   192
  0
VERTEX
  5
C40
  8
0
 10
0.0
 20
0.0
 30
0.0
 70
   128
 71
     3
 72
     4
 73
    -1
  0
VERTEX
  5
C41
  8
0
 10
0.0
 20
0.0
 30
0.0
 70
   128
 71
     2
 72
    -3
 73
     1
  0
SEQEND
  5
1272
  8
0
  0
POLYLINE
  5
C42
  8
0
 66
     1
 10
0.0
 20
0.0
 30
0.0
 70
    64
 71
    25
 72
    28
  0
VERTEX
  5
C43
  8
0
 10
-103.5152852301584
 20
-0.5364090577985737
 30
-105.5515215125466
 70
   192
  0
VERTEX
  5
C44
  8
0
 10
-54.87720248668354
 20
-79.3493806566238
 30
-0.3816135011028736
 70
   192
  0
VERTEX
  5
C45
  8
0
 10
-54.87720248668354
 20
-64.96464119711852
 30
-53.31243323964837
 70
   192
  0
VERTEX
  5
C46
  8
0
 10
-196.0
 20
0.0000038349876847
 30
-105.9999999999662
 70
   192
  0
VERTEX
  5
C47
  8
0
 10
-195.9999999999921
 20
0.0000018815400796
 30
-35.33333335298514
 70
   192
  0
VERTEX
  5
C48
  8
0
 10
-17.66396646429055
 20
-84.82487585550021
 30
-32.3514270315409
 70
   192
  0
VERTEX
  5
C49
  8
0
 10
-35.44928546412386
 20
-84.8327927698488
 30
-10.43942851697329
 70
   192
  0
VERTEX
  5
C4A
  8
0
 10
10.45785052730301
 20
-84.82387716149654
 30
-35.30673303470542
 70
   192
  0
VERTEX
  5
C4B
  8
0
 10
82.45138308004059
 20
-49.13322422256483
 30
-61.60867276690922
 70
   192
  0
VERTEX
  5
C4C
  8
0
 10
86.2451971937208
 20
-0.624584425473397
 30
-105.5520624897006
 70
   192
  0
VERTEX
  5
C4D
  8
0
 10
-5.216674227299809
 20
-0.8140154760731871
 30
-105.5814634649804
 70
   192
  0
VERTEX
  5
C4E
  8
0
 10
-54.87720248668354
 20
-65.34682335212393
 30
52.68572872385918
 70
   192
  0
VERTEX
  5
C4F
  8
0
 10
-195.9999999999921
 20
0.0000000416558992
 30
35.33333329454214
 70
   192
  0
VERTEX
  5
C50
  8
0
 10
-195.9999999999865
 20
0.0000101391119475
 30
105.9999999994794
 70
   192
  0
VERTEX
  5
C51
  8
0
 10
-159.7570277163786
 20
-0.1735820788660253
 30
105.6408030767287
 70
   192
  0
VERTEX
  5
C52
  8
0
 10
-54.86806620532169
 20
-0.7377185212689329
 30
105.565563442473
 70
   192
  0
VERTEX
  5
C53
  8
0
 10
-3.10916266206656
 20
-0.8346114856119109
 30
105.569912986079
 70
   192
  0
VERTEX
  5
C54
  8
0
 10
86.24559502663278
 20
-0.6242071197810879
 30
105.5520386502176
 70
   192
  0
VERTEX
  5
C55
  8
0
 10
82.44106338800874
 20
-49.09313611189755
 30
61.63586613748178
 70
   192
  0
VERTEX
  5
C56
  8
0
 10
35.45277677058331
 20
-84.83271800204051
 30
10.42541271532611
 70
   192
  0
VERTEX
  5
C57
  8
0
 10
17.6616174694742
 20
-84.8247468216207
 30
32.350659176218
 70
   192
  0
VERTEX
  5
C58
  8
0
 10
81.48907613146459
 20
-68.30656454177847
 30
0.0450664178482638
 70
   192
  0
VERTEX
  5
C59
  8
0
 10
-10.49443449251127
 20
-84.82444247558134
 30
35.2926663289463
 70
   192
  0
VERTEX
  5
C5A
  8
0
 10
-32.46658844040073
 20
-84.83105643855492
 30
17.62202595526357
 70
   192
  0
VERTEX
  5
C5B
  8
0
 10
32.46425022956584
 20
-84.83115180307314
 30
-17.62815110831347
 70
   192
  0
VERTEX
  5
C5C
  8
0
 10
0.0
 20
0.0
 30
0.0
 70
   128
 71
     1
 72
     2
 73
     3
  0
VERTEX
  5
C5D
  8
0
 10
0.0
 20
0.0
 30
0.0
 70
   128
 71
     1
 72
     4
 73
    -5
  0
VERTEX
  5
C5E
  8
0
 10
0.0
 20
0.0
 30
0.0
 70
   128
 71
     6
 72
     3
 73
     2
  0
VERTEX
  5
C5F
  8
0
 10
0.0
 20
0.0
 30
0.0
 70
   128
 71
     7
 72
     6
 73
     2
  0
VERTEX
  5
C60
  8
0
 10
0.0
 20
0.0
 30
0.0
 70
   128
 71
     6
 72
     8
 73
     3
  0
VERTEX
  5
C61
  8
0
 10
0.0
 20
0.0
 30
0.0
 70
   128
 71
     9
 72
    10
 73
    11
  0
VERTEX
  5
C62
  8
0
 10
0.0
 20
0.0
 30
0.0
 70
   128
 71
     3
 72
     9
 73
    11
  0
VERTEX
  5
C63
  8
0
 10
0.0
 20
0.0
 30
0.0
 70
   128
 71
    12
 72
     2
 73
    13
  0
VERTEX
  5
C64
  8
0
 10
0.0
 20
0.0
 30
0.0
 70
   128
 71
    13
 72
    14
 73
    15
  0
VERTEX
  5
C65
  8
0
 10
0.0
 20
0.0
 30
0.0
 70
   128
 71
    16
 72
    17
 73
    12
  0
VERTEX
  5
C66
  8
0
 10
0.0
 20
0.0
 30
0.0
 70
   128
 71
    18
 72
    19
 73
    12
  0
VERTEX
  5
C67
  8
0
 10
0.0
 20
0.0
 30
0.0
 70
   128
 71
    17
 72
    18
 73
    12
  0
VERTEX
  5
C68
  8
0
 10
0.0
 20
0.0
 30
0.0
 70
   128
 71
    20
 72
    21
 73
    22
  0
VERTEX
  5
C69
  8
0
 10
0.0
 20
0.0
 30
0.0
 70
   128
 71
    23
 72
    24
 73
    12
  0
VERTEX
  5
C6A
  8
0
 10
0.0
 20
0.0
 30
0.0
 70
   128
 71
    24
 72
     2
 73
    12
  0
VERTEX
  5
C6B
  8
0
 10
0.0
 20
0.0
 30
0.0
 70
   128
 71
    -1
 72
     5
 73
    13
  0
VERTEX
  5
C6C
  8
0
 10
0.0
 20
0.0
 30
0.0
 70
   128
 71
     2
 72
     1
 73
    13
  0
VERTEX
  5
C6D
  8
0
 10
0.0
 20
0.0
 30
0.0
 70
   128
 71
    11
 72
     1
 73
     3
  0
VERTEX
  5
C6E
  8
0
 10
0.0
 20
0.0
 30
0.0
 70
   128
 71
     7
 72
     2
 73
    24
  0
VERTEX
  5
C6F
  8
0
 10
0.0
 20
0.0
 30
0.0
 70
   128
 71
    25
 72
    20
 73
    22
  0
VERTEX
  5
C70
  8
0
 10
0.0
 20
0.0
 30
0.0
 70
   128
 71
     9
 72
     3
 73
     8
  0
VERTEX
  5
C71
  8
0
 10
0.0
 20
0.0
 30
0.0
 70
   128
 71
    25
 72
    22
 73
     9
  0
VERTEX
  5
C72
  8
0
 10
0.0
 20
0.0
 30
0.0
 70
   128
 71
     8
 72
    25
 73
     9
  0
VERTEX
  5
C73
  8
0
 10
0.0
 20
0.0
 30
0.0
 70
   128
 71
    12
 72
    13
 73
    15
  0
VERTEX
  5
C74
  8
0
 10
0.0
 20
0.0
 30
0.0
 70
   128
 71
    16
 72
    12
 73
    15
  0
VERTEX
  5
C75
  8
0
 10
0.0
 20
0.0
 30
0.0
 70
   128
 71
    19
 72
    22
 73
    21
  0
VERTEX
  5
C76
  8
0
 10
0.0
 20
0.0
 30
0.0
 70
   128
 71
    23
 72
    12
 73
    19
  0
VERTEX
  5
C77
  8
0
 10
0.0
 20
0.0
 30
0.0
 70
   128
 71
    21
 72
    23
 73
    19
  0
SEQEND
  5
1273
  8
0
  0
POLYLINE
  5
C78
  8
0
 66
     1
 10
0.0
 20
0.0
 30
0.0
 70
    64
 71
    13
 72
    13
  0
VERTEX
  5
C79
  8
0
 10
99.7814378172477
 20
-1.23952773349964
 30
-88.42974086643531
 70
   192
  0
VERTEX
  5
C7A
  8
0
 10
92.70130782574074
 20
-41.39294023486254
 30
-51.50513143347676
 70
   192
  0
VERTEX
  5
C7B
  8
0
 10
89.89097248162703
 20
-57.33114397896387
 30
0.0407353735588564
 70
   192
  0
VERTEX
  5
C7C
  8
0
 10
92.70933535226547
 20
-41.34741386962712
 30
51.53224314500569
 70
   192
  0
VERTEX
  5
C7D
  8
0
 10
99.7814378172476
 20
-1.239527733499526
 30
88.4260518268017
 70
   192
  0
VERTEX
  5
C7E
  8
0
 10
96.65181346023684
 20
-18.98850945164824
 30
0.0000000000000063
 70
   192
  0
VERTEX
  5
C7F
  8
0
 10
96.01605878901238
 20
-22.59405336030061
 30
8.838834764831853
 70
   192
  0
VERTEX
  5
C80
  8
0
 10
94.48121123940021
 20
-31.29860636430084
 30
12.50000000000001
 70
   192
  0
VERTEX
  5
C81
  8
0
 10
92.94636368978804
 20
-40.00315936830108
 30
8.838834764831851
 70
   192
  0
VERTEX
  5
C82
  8
0
 10
92.31060901856358
 20
-43.60870327695344
 30
0.0000000000000063
 70
   192
  0
VERTEX
  5
C83
  8
0
 10
92.94636368978804
 20
-40.00315936830108
 30
-8.838834764831839
 70
   192
  0
VERTEX
  5
C84
  8
0
 10
94.48121123940021
 20
-31.29860636430084
 30
-12.49999999999999
 70
   192
  0
VERTEX
  5
C85
  8
0
 10
96.01605878901238
 20
-22.59405336030061
 30
-8.838834764831835
 70
   192
  0
VERTEX
  5
C86
  8
0
 10
0.0
 20
0.0
 30
0.0
 70
   128
 71
    -5
 72
     6
 73
    -7
  0
VERTEX
  5
C87
  8
0
 10
0.0
 20
0.0
 30
0.0
 70
   128
 71
    -8
 72
     4
 73
    -5
  0
VERTEX
  5
C88
  8
0
 10
0.0
 20
0.0
 30
0.0
 70
   128
 71
     7
 72
    -8
 73
    -5
  0
VERTEX
  5
C89
  8
0
 10
0.0
 20
0.0
 30
0.0
 70
   128
 71
     8
 72
    -9
 73
    -4
  0
VERTEX
  5
C8A
  8
0
 10
0.0
 20
0.0
 30
0.0
 70
   128
 71
    -9
 72
     3
 73
    -4
  0
VERTEX
  5
C8B
  8
0
 10
0.0
 20
0.0
 30
0.0
 70
   128
 71
     9
 72
   -10
 73
    -3
  0
VERTEX
  5
C8C
  8
0
 10
0.0
 20
0.0
 30
0.0
 70
   128
 71
    10
 72
   -11
 73
    -3
  0
VERTEX
  5
C8D
  8
0
 10
0.0
 20
0.0
 30
0.0
 70
   128
 71
     2
 72
    -3
 73
   -11
  0
VERTEX
  5
C8E
  8
0
 10
0.0
 20
0.0
 30
0.0
 70
   128
 71
    11
 72
   -12
 73
    -2
  0
VERTEX
  5
C8F
  8
0
 10
0.0
 20
0.0
 30
0.0
 70
   128
 71
   -13
 72
     1
 73
    -2
  0
VERTEX
  5
C90
  8
0
 10
0.0
 20
0.0
 30
0.0
 70
   128
 71
    12
 72
   -13
 73
    -2
  0
VERTEX
  5
C91
  8
0
 10
0.0
 20
0.0
 30
0.0
 70
   128
 71
    13
 72
    -6
 73
    -1
  0
VERTEX
  5
C92
  8
0
 10
0.0
 20
0.0
 30
0.0
 70
   128
 71
    -6
 72
     5
 73
    -1
  0
SEQEND
  5
1274
  8
0
  0
POLYLINE
  5
C93
  8
0
 66
     1
 10
0.0
 20
0.0
 30
0.0
 70
    64
 71
    28
 72
    30
  0
VERTEX
  5
C94
  8
0
 10
197.249127551999
 20
0.0
 30
-107.2491275519988
 70
   192
  0
VERTEX
  5
C95
  8
0
 10
197.249127551999
 20
0.0
 30
107.2491275519988
 70
   192
  0
VERTEX
  5
C96
  8
0
 10
-597.249127551999
 20
0.0
 30
107.249127551999
 70
   192
  0
VERTEX
  5
C97
  8
0
 10
-597.249127551999
 20
0.0
 30
-107.2491275519986
 70
   192
  0
VERTEX
  5
C98
  8
0
 10
-195.9999999999865
 20
0.0000101391119475
 30
105.9999999994794
 70
   192
  0
VERTEX
  5
C99
  8
0
 10
-101.904727064269
 20
-0.0000000000000005
 30
106.7087168134285
 70
   192
  0
VERTEX
  5
C9A
  8
0
 10
-7.82748628055603
 20
-0.0000000000000062
 30
106.9136516733008
 70
   192
  0
VERTEX
  5
C9B
  8
0
 10
86.24987498850662
 20
0.0
 30
106.76981059639
 70
   192
  0
VERTEX
  5
C9C
  8
0
 10
94.4433866194883
 20
0.0
 30
103.9455107899946
 70
   192
  0
VERTEX
  5
C9D
  8
0
 10
99.63657044129039
 20
0.0
 30
96.9719824016518
 70
   192
  0
VERTEX
  5
C9E
  8
0
 10
101.258649446766
 20
0.0
 30
88.42605182680161
 70
   192
  0
VERTEX
  5
C9F
  8
0
 10
101.258649446766
 20
0.0
 30
-88.4297408664354
 70
   192
  0
VERTEX
  5
CA0
  8
0
 10
99.62122642086936
 20
0.0
 30
-97.01092711804284
 70
   192
  0
VERTEX
  5
CA1
  8
0
 10
94.41266213254198
 20
0.0
 30
-103.9693602353529
 70
   192
  0
VERTEX
  5
CA2
  8
0
 10
86.24951055439419
 20
0.0
 30
-106.770105578756
 70
   192
  0
VERTEX
  5
CA3
  8
0
 10
-7.835134541147001
 20
0.0000000000000151
 30
-106.9149007239668
 70
   192
  0
VERTEX
  5
CA4
  8
0
 10
-101.9192770410152
 20
0.0000000000000038
 30
-106.7084623834333
 70
   192
  0
VERTEX
  5
CA5
  8
0
 10
-196.0
 20
0.0000038349876847
 30
-105.9999999999662
 70
   192
  0
VERTEX
  5
CA6
  8
0
 10
-195.9999999999921
 20
0.0000018815400796
 30
-35.33333335298514
 70
   192
  0
VERTEX
  5
CA7
  8
0
 10
-195.9999999999921
 20
0.0000000416558992
 30
35.33333329454214
 70
   192
  0
VERTEX
  5
CA8
  8
0
 10
155.0
 20
0.0
 30
-17.5
 70
   192
  0
VERTEX
  5
CA9
  8
0
 10
142.6256313292354
 20
0.0
 30
-12.37436867076458
 70
   192
  0
VERTEX
  5
CAA
  8
0
 10
137.5
 20
0.0
 30
-0.0000000000000019
 70
   192
  0
VERTEX
  5
CAB
  8
0
 10
142.6256313292354
 20
0.0
 30
12.37436867076458
 70
   192
  0
VERTEX
  5
CAC
  8
0
 10
155.0
 20
0.0
 30
17.5
 70
   192
  0
VERTEX
  5
CAD
  8
0
 10
167.3743686707646
 20
0.0
 30
12.37436867076458
 70
   192
  0
VERTEX
  5
CAE
  8
0
 10
172.5
 20
0.0
 30
0.0
 70
   192
  0
VERTEX
  5
CAF
  8
0
 10
167.3743686707646
 20
0.0
 30
-12.37436867076458
 70
   192
  0
VERTEX
  5
CB0
  8
0
 10
0.0
 20
0.0
 30
0.0
 70
   128
 71
     6
 72
    -5
 73
    -3
  0
VERTEX
  5
CB1
  8
0
 10
0.0
 20
0.0
 30
0.0
 70
   128
 71
    -3
 72
     7
 73
    -6
  0
VERTEX
  5
CB2
  8
0
 10
0.0
 20
0.0
 30
0.0
 70
   128
 71
     3
 72
    -2
 73
    -7
  0
VERTEX
  5
CB3
  8
0
 10
0.0
 20
0.0
 30
0.0
 70
   128
 71
    -2
 72
     8
 73
    -7
  0
VERTEX
  5
CB4
  8
0
 10
0.0
 20
0.0
 30
0.0
 70
   128
 71
    -2
 72
     9
 73
    -8
  0
VERTEX
  5
CB5
  8
0
 10
0.0
 20
0.0
 30
0.0
 70
   128
 71
    -2
 72
    10
 73
    -9
  0
VERTEX
  5
CB6
  8
0
 10
0.0
 20
0.0
 30
0.0
 70
   128
 71
    -2
 72
    11
 73
   -10
  0
VERTEX
  5
CB7
  8
0
 10
0.0
 20
0.0
 30
0.0
 70
   128
 71
    22
 72
   -21
 73
   -12
  0
VERTEX
  5
CB8
  8
0
 10
0.0
 20
0.0
 30
0.0
 70
   128
 71
   -12
 72
    23
 73
   -22
  0
VERTEX
  5
CB9
  8
0
 10
0.0
 20
0.0
 30
0.0
 70
   128
 71
    12
 72
   -11
 73
   -23
  0
VERTEX
  5
CBA
  8
0
 10
0.0
 20
0.0
 30
0.0
 70
   128
 71
   -11
 72
    24
 73
   -23
  0
VERTEX
  5
CBB
  8
0
 10
0.0
 20
0.0
 30
0.0
 70
   128
 71
   -11
 72
    25
 73
   -24
  0
VERTEX
  5
CBC
  8
0
 10
0.0
 20
0.0
 30
0.0
 70
   128
 71
   -11
 72
    -2
 73
   -26
  0
VERTEX
  5
CBD
  8
0
 10
0.0
 20
0.0
 30
0.0
 70
   128
 71
   -11
 72
    26
 73
   -25
  0
VERTEX
  5
CBE
  8
0
 10
0.0
 20
0.0
 30
0.0
 70
   128
 71
    -2
 72
    27
 73
   -26
  0
VERTEX
  5
CBF
  8
0
 10
0.0
 20
0.0
 30
0.0
 70
   128
 71
     2
 72
    -1
 73
   -27
  0
VERTEX
  5
CC0
  8
0
 10
0.0
 20
0.0
 30
0.0
 70
   128
 71
    -1
 72
    28
 73
   -27
  0
VERTEX
  5
CC1
  8
0
 10
0.0
 20
0.0
 30
0.0
 70
   128
 71
    -1
 72
    21
 73
   -28
  0
VERTEX
  5
CC2
  8
0
 10
0.0
 20
0.0
 30
0.0
 70
   128
 71
   -21
 72
    -1
 73
   -13
  0
VERTEX
  5
CC3
  8
0
 10
0.0
 20
0.0
 30
0.0
 70
   128
 71
   -21
 72
    13
 73
   -12
  0
VERTEX
  5
CC4
  8
0
 10
0.0
 20
0.0
 30
0.0
 70
   128
 71
    -1
 72
    14
 73
   -13
  0
VERTEX
  5
CC5
  8
0
 10
0.0
 20
0.0
 30
0.0
 70
   128
 71
    -1
 72
    15
 73
   -14
  0
VERTEX
  5
CC6
  8
0
 10
0.0
 20
0.0
 30
0.0
 70
   128
 71
    -1
 72
    16
 73
   -15
  0
VERTEX
  5
CC7
  8
0
 10
0.0
 20
0.0
 30
0.0
 70
   128
 71
   -16
 72
     1
 73
    -4
  0
VERTEX
  5
CC8
  8
0
 10
0.0
 20
0.0
 30
0.0
 70
   128
 71
    -4
 72
    17
 73
   -16
  0
VERTEX
  5
CC9
  8
0
 10
0.0
 20
0.0
 30
0.0
 70
   128
 71
    -4
 72
    18
 73
   -17
  0
VERTEX
  5
CCA
  8
0
 10
0.0
 20
0.0
 30
0.0
 70
   128
 71
    -4
 72
    19
 73
   -18
  0
VERTEX
  5
CCB
  8
0
 10
0.0
 20
0.0
 30
0.0
 70
   128
 71
     4
 72
    -3
 73
   -20
  0
VERTEX
  5
CCC
  8
0
 10
0.0
 20
0.0
 30
0.0
 70
   128
 71
    -4
 72
    20
 73
   -19
  0
VERTEX
  5
CCD
  8
0
 10
0.0
 20
0.0
 30
0.0
 70
   128
 71
    -3
 72
     5
 73
   -20
  0
SEQEND
  5
1275
  8
0
  0
POLYLINE
  5
CCE
  8
0
 66
     1
 10
0.0
 20
0.0
 30
0.0
 70
    64
 71
    14
 72
    12
  0
VERTEX
  5
CCF
  8
0
 10
89.89097248162703
 20
-57.33114397896387
 30
0.0407353735588564
 70
   192
  0
VERTEX
  5
CD0
  8
0
 10
92.70130782574074
 20
-41.39294023486254
 30
-51.50513143347676
 70
   192
  0
VERTEX
  5
CD1
  8
0
 10
82.45138308004059
 20
-49.13322422256483
 30
-61.60867276690922
 70
   192
  0
VERTEX
  5
CD2
  8
0
 10
93.73593418997191
 20
-0.6592985421257859
 30
-102.9229185734156
 70
   192
  0
VERTEX
  5
CD3
  8
0
 10
86.2451971937208
 20
-0.624584425473397
 30
-105.5520624897006
 70
   192
  0
VERTEX
  5
CD4
  8
0
 10
98.3789129649163
 20
-0.8963236205770989
 30
-96.42187212267811
 70
   192
  0
VERTEX
  5
CD5
  8
0
 10
99.7814378172477
 20
-1.23952773349964
 30
-88.42974086643531
 70
   192
  0
VERTEX
  5
CD6
  8
0
 10
98.3763100641048
 20
-0.8958817031218251
 30
96.42694175248768
 70
   192
  0
VERTEX
  5
CD7
  8
0
 10
99.7814378172476
 20
-1.239527733499526
 30
88.4260518268017
 70
   192
  0
VERTEX
  5
CD8
  8
0
 10
92.70933535226547
 20
-41.34741386962712
 30
51.53224314500569
 70
   192
  0
VERTEX
  5
CD9
  8
0
 10
82.44106338800874
 20
-49.09313611189755
 30
61.63586613748178
 70
   192
  0
VERTEX
  5
CDA
  8
0
 10
86.24559502663278
 20
-0.6242071197810879
 30
105.5520386502176
 70
   192
  0
VERTEX
  5
CDB
  8
0
 10
93.7401291660114
 20
-0.6591004320341028
 30
102.9193737009468
 70
   192
  0
VERTEX
  5
CDC
  8
0
 10
81.48907613146459
 20
-68.30656454177847
 30
0.0450664178482638
 70
   192
  0
VERTEX
  5
CDD
  8
0
 10
0.0
 20
0.0
 30
0.0
 70
   128
 71
     1
 72
     2
 73
     3
  0
VERTEX
  5
CDE
  8
0
 10
0.0
 20
0.0
 30
0.0
 70
   128
 71
     4
 72
     5
 73
     3
  0
VERTEX
  5
CDF
  8
0
 10
0.0
 20
0.0
 30
0.0
 70
   128
 71
     3
 72
     2
 73
     6
  0
VERTEX
  5
CE0
  8
0
 10
0.0
 20
0.0
 30
0.0
 70
   128
 71
     3
 72
     6
 73
     4
  0
VERTEX
  5
CE1
  8
0
 10
0.0
 20
0.0
 30
0.0
 70
   128
 71
     2
 72
     7
 73
     6
  0
VERTEX
  5
CE2
  8
0
 10
0.0
 20
0.0
 30
0.0
 70
   128
 71
     8
 72
     9
 73
    10
  0
VERTEX
  5
CE3
  8
0
 10
0.0
 20
0.0
 30
0.0
 70
   128
 71
    11
 72
    12
 73
    13
  0
VERTEX
  5
CE4
  8
0
 10
0.0
 20
0.0
 30
0.0
 70
   128
 71
    13
 72
    14
 73
    11
  0
VERTEX
  5
CE5
  8
0
 10
0.0
 20
0.0
 30
0.0
 70
   128
 71
    13
 72
     1
 73
     3
  0
VERTEX
  5
CE6
  8
0
 10
0.0
 20
0.0
 30
0.0
 70
   128
 71
    13
 72
     3
 73
    14
  0
VERTEX
  5
CE7
  8
0
 10
0.0
 20
0.0
 30
0.0
 70
   128
 71
     1
 72
    13
 73
     8
  0
VERTEX
  5
CE8
  8
0
 10
0.0
 20
0.0
 30
0.0
 70
   128
 71
     1
 72
     8
 73
    10
  0
SEQEND
  5
1276
  8
0
  0
POLYLINE
  5
CE9
  8
0
 66
     1
 10
0.0
 20
0.0
 30
0.0
 70
    64
 71
     4
 72
     2
  0
VERTEX
  5
CEA
  8
0
 10
-587.0000000000002
 20
-44.99999999999996
 30
-92.01902650954116
 70
   192
  0
VERTEX
  5
CEB
  8
0
 10
-584.6804187982518
 20
-18.48706554351406
 30
-89.6994453077928
 70
   192
  0
VERTEX
  5
CEC
  8
0
 10
-584.680418798252
 20
-18.48706554351405
 30
89.699445307793
 70
   192
  0
VERTEX
  5
CED
  8
0
 10
-587.0
 20
-45.00000000000001
 30
92.01902650954136
 70
   192
  0
VERTEX
  5
CEE
  8
0
 10
0.0
 20
0.0
 30
0.0
 70
   128
 71
     3
 72
     4
 73
    -1
  0
VERTEX
  5
CEF
  8
0
 10
0.0
 20
0.0
 30
0.0
 70
   128
 71
     2
 72
    -3
 73
     1
  0
SEQEND
  5
1277
  8
0
  0
POLYLINE
  5
CF0
  8
0
 66
     1
 10
0.0
 20
0.0
 30
0.0
 70
    64
 71
     6
 72
     4
  0
VERTEX
  5
CF1
  8
0
 10
-582.0190265095412
 20
-44.99999999999996
 30
97.00000000000007
 70
   192
  0
VERTEX
  5
CF2
  8
0
 10
-579.6994453077928
 20
-18.48706554351407
 30
94.68041879825171
 70
   192
  0
VERTEX
  5
CF3
  8
0
 10
-197.983897852126
 20
-18.48706554351405
 30
94.68041879825171
 70
   192
  0
VERTEX
  5
CF4
  8
0
 10
-163.627196518559
 20
-26.82085524050567
 30
95.40953092094755
 70
   192
  0
VERTEX
  5
CF5
  8
0
 10
-129.4846319689277
 20
-35.97843299257716
 30
96.21071515961101
 70
   192
  0
VERTEX
  5
CF6
  8
0
 10
-95.3067125689075
 20
-45.0
 30
97.0
 70
   192
  0
VERTEX
  5
CF7
  8
0
 10
0.0
 20
0.0
 30
0.0
 70
   128
 71
     2
 72
     3
 73
    -4
  0
VERTEX
  5
CF8
  8
0
 10
0.0
 20
0.0
 30
0.0
 70
   128
 71
     1
 72
    -2
 73
    -4
  0
VERTEX
  5
CF9
  8
0
 10
0.0
 20
0.0
 30
0.0
 70
   128
 71
     4
 72
    -5
 73
    -1
  0
VERTEX
  5
CFA
  8
0
 10
0.0
 20
0.0
 30
0.0
 70
   128
 71
     5
 72
     6
 73
    -1
  0
SEQEND
  5
1278
  8
0
  0
POLYLINE
  5
CFB
  8
0
 66
     1
 10
0.0
 20
0.0
 30
0.0
 70
    64
 71
    78
 72
    78
  0
VERTEX
  5
CFC
  8
0
 10
198.000304609687
 20
-45.0
 30
109.9999999999999
 70
   192
  0
VERTEX
  5
CFD
  8
0
 10
-598.000304609687
 20
-45.0
 30
110.0
 70
   192
  0
VERTEX
  5
CFE
  8
0
 10
-598.9782952095467
 20
-45.00000000000001
 30
109.7445738023868
 70
   192
  0
VERTEX
  5
CFF
  8
0
 10
-599.7445738023868
 20
-45.00000000000001
 30
108.9782952095469
 70
   192
  0
VERTEX
  5
D00
  8
0
 10
-600.0
 20
-45.0
 30
108.0003046096872
 70
   192
  0
VERTEX
  5
D01
  8
0
 10
-600.0
 20
-45.0
 30
-108.000304609687
 70
   192
  0
VERTEX
  5
D02
  8
0
 10
-599.7445738023865
 20
-45.0
 30
-108.9782952095467
 70
   192
  0
VERTEX
  5
D03
  8
0
 10
-598.9782952095467
 20
-45.0
 30
-109.7445738023866
 70
   192
  0
VERTEX
  5
D04
  8
0
 10
-598.000304609687
 20
-45.0
 30
-110.0
 70
   192
  0
VERTEX
  5
D05
  8
0
 10
198.0003046096875
 20
-45.0
 30
-110.0000000000001
 70
   192
  0
VERTEX
  5
D06
  8
0
 10
198.9782952095472
 20
-45.00000000000002
 30
-109.7445738023867
 70
   192
  0
VERTEX
  5
D07
  8
0
 10
199.7445738023869
 20
-45.00000000000001
 30
-108.9782952095468
 70
   192
  0
VERTEX
  5
D08
  8
0
 10
200.0
 20
-45.0
 30
-108.0003046096872
 70
   192
  0
VERTEX
  5
D09
  8
0
 10
200.0
 20
-45.0
 30
108.000304609687
 70
   192
  0
VERTEX
  5
D0A
  8
0
 10
199.7445738023867
 20
-45.00000000000003
 30
108.9782952095468
 70
   192
  0
VERTEX
  5
D0B
  8
0
 10
198.9782952095468
 20
-45.00000000000003
 30
109.7445738023867
 70
   192
  0
VERTEX
  5
D0C
  8
0
 10
85.9537111593881
 20
-45.0
 30
-96.53415607620309
 70
   192
  0
VERTEX
  5
D0D
  8
0
 10
79.3486393099954
 20
-44.99997689666196
 30
-95.51623141829825
 70
   192
  0
VERTEX
  5
D0E
  8
0
 10
73.13207542020373
 20
-44.9999914178257
 30
-93.30575538579387
 70
   192
  0
VERTEX
  5
D0F
  8
0
 10
74.8973466724933
 20
-45.0
 30
-88.6541669650604
 70
   192
  0
VERTEX
  5
D10
  8
0
 10
73.52132035708445
 20
-45.00000000000001
 30
-88.9537314249037
 70
   192
  0
VERTEX
  5
D11
  8
0
 10
72.14350950179278
 20
-45.0
 30
-89.2448522697583
 70
   192
  0
VERTEX
  5
D12
  8
0
 10
70.7639605482529
 20
-45.0
 30
-89.5277492398977
 70
   192
  0
VERTEX
  5
D13
  8
0
 10
69.57101636162182
 20
-44.99999999999999
 30
-89.71219498589187
 70
   192
  0
VERTEX
  5
D14
  8
0
 10
68.36717727503252
 20
-45.0
 30
-89.80920747020451
 70
   192
  0
VERTEX
  5
D15
  8
0
 10
67.15968619963851
 20
-45.0
 30
-89.83909963117729
 70
   192
  0
VERTEX
  5
D16
  8
0
 10
-67.1594700670487
 20
-45.0
 30
-89.83909963117729
 70
   192
  0
VERTEX
  5
D17
  8
0
 10
-68.36724551604959
 20
-44.99999999999999
 30
-89.80918963076576
 70
   192
  0
VERTEX
  5
D18
  8
0
 10
-69.56924147818931
 20
-45.00000000000001
 30
-89.71237710467263
 70
   192
  0
VERTEX
  5
D19
  8
0
 10
-70.7636511203689
 20
-45.0
 30
-89.52774640749709
 70
   192
  0
VERTEX
  5
D1A
  8
0
 10
-72.1431361856383
 20
-45.00000000000001
 30
-89.24485270132152
 70
   192
  0
VERTEX
  5
D1B
  8
0
 10
-73.52088321963905
 20
-45.0
 30
-88.95373570880443
 70
   192
  0
VERTEX
  5
D1C
  8
0
 10
-74.8968457938705
 20
-45.0
 30
-88.6541757590637
 70
   192
  0
VERTEX
  5
D1D
  8
0
 10
-75.74637758739007
 20
-44.99978867592711
 30
-94.52747140823305
 70
   192
  0
VERTEX
  5
D1E
  8
0
 10
-85.55937951032058
 20
-44.99919277939096
 30
-96.49173901662358
 70
   192
  0
VERTEX
  5
D1F
  8
0
 10
-95.3418566022248
 20
-45.0
 30
-97.0
 70
   192
  0
VERTEX
  5
D20
  8
0
 10
-582.0190265095409
 20
-45.0
 30
-97.0
 70
   192
  0
VERTEX
  5
D21
  8
0
 10
-584.4584112265476
 20
-44.99999999999999
 30
-96.36460280663687
 70
   192
  0
VERTEX
  5
D22
  8
0
 10
-586.3646028066369
 20
-44.99999999999999
 30
-94.45841122654775
 70
   192
  0
VERTEX
  5
D23
  8
0
 10
-587.0
 20
-45.0
 30
-92.0190265095411
 70
   192
  0
VERTEX
  5
D24
  8
0
 10
-587.0
 20
-45.0
 30
92.01902650954139
 70
   192
  0
VERTEX
  5
D25
  8
0
 10
-586.3646028066369
 20
-44.99999999999999
 30
94.45841122654794
 70
   192
  0
VERTEX
  5
D26
  8
0
 10
-584.4584112265476
 20
-44.99999999999999
 30
96.36460280663697
 70
   192
  0
VERTEX
  5
D27
  8
0
 10
-582.0190265095409
 20
-45.0
 30
97.0
 70
   192
  0
VERTEX
  5
D28
  8
0
 10
-95.30671256890753
 20
-45.0
 30
96.99999999999993
 70
   192
  0
VERTEX
  5
D29
  8
0
 10
-85.474210088678
 20
-45.00064450354935
 30
96.49214082627195
 70
   192
  0
VERTEX
  5
D2A
  8
0
 10
-75.62105926615192
 20
-44.99977440868832
 30
94.52966432560541
 70
   192
  0
VERTEX
  5
D2B
  8
0
 10
-74.76477503390701
 20
-45.0
 30
88.6526531945528
 70
   192
  0
VERTEX
  5
D2C
  8
0
 10
-73.37715188409584
 20
-45.00000000000001
 30
88.9529585897511
 70
   192
  0
VERTEX
  5
D2D
  8
0
 10
-71.9877381927054
 20
-45.0
 30
89.24474000095007
 70
   192
  0
VERTEX
  5
D2E
  8
0
 10
-70.59658089715501
 20
-45.0
 30
89.52822087663951
 70
   192
  0
VERTEX
  5
D2F
  8
0
 10
-69.39782165141406
 20
-45.00000000000001
 30
89.71239215446646
 70
   192
  0
VERTEX
  5
D30
  8
0
 10
-68.18824394027155
 20
-45.00000000000001
 30
89.80925578809106
 70
   192
  0
VERTEX
  5
D31
  8
0
 10
-66.9750717708604
 20
-45.0
 30
89.83909963117729
 70
   192
  0
VERTEX
  5
D32
  8
0
 10
66.9778018903279
 20
-45.0
 30
89.83909963117729
 70
   192
  0
VERTEX
  5
D33
  8
0
 10
68.1913181437739
 20
-45.00000000000001
 30
89.80923752677126
 70
   192
  0
VERTEX
  5
D34
  8
0
 10
69.39910002323654
 20
-45.0
 30
89.71257306407647
 70
   192
  0
VERTEX
  5
D35
  8
0
 10
70.5993548322854
 20
-45.0
 30
89.5282222983761
 70
   192
  0
VERTEX
  5
D36
  8
0
 10
71.99053759785382
 20
-45.00000000000001
 30
89.2447406739635
 70
   192
  0
VERTEX
  5
D37
  8
0
 10
73.3799766690319
 20
-45.0
 30
88.95295797032439
 70
   192
  0
VERTEX
  5
D38
  8
0
 10
74.7676250941213
 20
-45.0
 30
88.65265066791879
 70
   192
  0
VERTEX
  5
D39
  8
0
 10
72.9957802429161
 20
-44.99999019471481
 30
93.31019235578403
 70
   192
  0
VERTEX
  5
D3A
  8
0
 10
79.27092078432264
 20
-44.99997493136104
 30
95.52334540127562
 70
   192
  0
VERTEX
  5
D3B
  8
0
 10
85.93489077109021
 20
-45.0
 30
96.5401900635523
 70
   192
  0
VERTEX
  5
D3C
  8
0
 10
88.16951517033958
 20
-45.0
 30
96.76292918205203
 70
   192
  0
VERTEX
  5
D3D
  8
0
 10
90.400744434544
 20
-45.00000000000001
 30
96.93502534400137
 70
   192
  0
VERTEX
  5
D3E
  8
0
 10
92.51118213174611
 20
-45.0
 30
97.0
 70
   192
  0
VERTEX
  5
D3F
  8
0
 10
182.019026509541
 20
-45.0
 30
96.99999999999989
 70
   192
  0
VERTEX
  5
D40
  8
0
 10
184.4584112265478
 20
-45.00000000000002
 30
96.364602806637
 70
   192
  0
VERTEX
  5
D41
  8
0
 10
186.364602806637
 20
-45.00000000000002
 30
94.45841122654788
 70
   192
  0
VERTEX
  5
D42
  8
0
 10
187.0
 20
-45.0
 30
92.0190265095412
 70
   192
  0
VERTEX
  5
D43
  8
0
 10
187.0
 20
-45.0
 30
-92.0190265095412
 70
   192
  0
VERTEX
  5
D44
  8
0
 10
186.3646028066371
 20
-45.00000000000001
 30
-94.45841122654781
 70
   192
  0
VERTEX
  5
D45
  8
0
 10
184.458411226548
 20
-45.00000000000002
 30
-96.3646028066369
 70
   192
  0
VERTEX
  5
D46
  8
0
 10
182.0190265095415
 20
-45.0
 30
-97.00000000000001
 70
   192
  0
VERTEX
  5
D47
  8
0
 10
92.54663832352446
 20
-45.0
 30
-97.0000000000001
 70
   192
  0
VERTEX
  5
D48
  8
0
 10
90.43055006967616
 20
-45.00000000000001
 30
-96.9342346948339
 70
   192
  0
VERTEX
  5
D49
  8
0
 10
88.19393376616497
 20
-44.99999999999999
 30
-96.75999033758418
 70
   192
  0
VERTEX
  5
D4A
  8
0
 10
0.0
 20
0.0
 30
0.0
 70
   128
 71
    47
 72
    48
 73
   -49
  0
VERTEX
  5
D4B
  8
0
 10
0.0
 20
0.0
 30
0.0
 70
   128
 71
    49
 72
   -50
 73
   -47
  0
VERTEX
  5
D4C
  8
0
 10
0.0
 20
0.0
 30
0.0
 70
   128
 71
    50
 72
   -51
 73
   -47
  0
VERTEX
  5
D4D
  8
0
 10
0.0
 20
0.0
 30
0.0
 70
   128
 71
    51
 72
   -52
 73
   -47
  0
VERTEX
  5
D4E
  8
0
 10
0.0
 20
0.0
 30
0.0
 70
   128
 71
    52
 72
   -53
 73
   -47
  0
VERTEX
  5
D4F
  8
0
 10
0.0
 20
0.0
 30
0.0
 70
   128
 71
    53
 72
   -54
 73
   -47
  0
VERTEX
  5
D50
  8
0
 10
0.0
 20
0.0
 30
0.0
 70
   128
 71
    19
 72
    20
 73
   -21
  0
VERTEX
  5
D51
  8
0
 10
0.0
 20
0.0
 30
0.0
 70
   128
 71
   -34
 72
   -10
 73
   -17
  0
VERTEX
  5
D52
  8
0
 10
0.0
 20
0.0
 30
0.0
 70
   128
 71
    17
 72
   -18
 73
   -34
  0
VERTEX
  5
D53
  8
0
 10
0.0
 20
0.0
 30
0.0
 70
   128
 71
    18
 72
   -19
 73
   -34
  0
VERTEX
  5
D54
  8
0
 10
0.0
 20
0.0
 30
0.0
 70
   128
 71
   -19
 72
    21
 73
   -22
  0
VERTEX
  5
D55
  8
0
 10
0.0
 20
0.0
 30
0.0
 70
   128
 71
    22
 72
   -23
 73
   -19
  0
VERTEX
  5
D56
  8
0
 10
0.0
 20
0.0
 30
0.0
 70
   128
 71
    23
 72
   -24
 73
   -19
  0
VERTEX
  5
D57
  8
0
 10
0.0
 20
0.0
 30
0.0
 70
   128
 71
    24
 72
   -25
 73
   -19
  0
VERTEX
  5
D58
  8
0
 10
0.0
 20
0.0
 30
0.0
 70
   128
 71
   -25
 72
   -34
 73
   -19
  0
VERTEX
  5
D59
  8
0
 10
0.0
 20
0.0
 30
0.0
 70
   128
 71
    25
 72
   -26
 73
   -34
  0
VERTEX
  5
D5A
  8
0
 10
0.0
 20
0.0
 30
0.0
 70
   128
 71
    26
 72
   -27
 73
   -34
  0
VERTEX
  5
D5B
  8
0
 10
0.0
 20
0.0
 30
0.0
 70
   128
 71
    27
 72
   -28
 73
   -34
  0
VERTEX
  5
D5C
  8
0
 10
0.0
 20
0.0
 30
0.0
 70
   128
 71
    28
 72
   -29
 73
   -34
  0
VERTEX
  5
D5D
  8
0
 10
0.0
 20
0.0
 30
0.0
 70
   128
 71
    29
 72
   -30
 73
   -34
  0
VERTEX
  5
D5E
  8
0
 10
0.0
 20
0.0
 30
0.0
 70
   128
 71
    30
 72
   -31
 73
   -34
  0
VERTEX
  5
D5F
  8
0
 10
0.0
 20
0.0
 30
0.0
 70
   128
 71
    31
 72
   -32
 73
   -34
  0
VERTEX
  5
D60
  8
0
 10
0.0
 20
0.0
 30
0.0
 70
   128
 71
    32
 72
    33
 73
   -34
  0
VERTEX
  5
D61
  8
0
 10
0.0
 20
0.0
 30
0.0
 70
   128
 71
    34
 72
   -35
 73
   -10
  0
VERTEX
  5
D62
  8
0
 10
0.0
 20
0.0
 30
0.0
 70
   128
 71
    35
 72
   -36
 73
   -10
  0
VERTEX
  5
D63
  8
0
 10
0.0
 20
0.0
 30
0.0
 70
   128
 71
     9
 72
   -10
 73
   -36
  0
VERTEX
  5
D64
  8
0
 10
0.0
 20
0.0
 30
0.0
 70
   128
 71
    36
 72
   -37
 73
    -9
  0
VERTEX
  5
D65
  8
0
 10
0.0
 20
0.0
 30
0.0
 70
   128
 71
    37
 72
   -38
 73
    -9
  0
VERTEX
  5
D66
  8
0
 10
0.0
 20
0.0
 30
0.0
 70
   128
 71
    38
 72
   -39
 73
    -9
  0
VERTEX
  5
D67
  8
0
 10
0.0
 20
0.0
 30
0.0
 70
   128
 71
    39
 72
   -40
 73
    -9
  0
VERTEX
  5
D68
  8
0
 10
0.0
 20
0.0
 30
0.0
 70
   128
 71
     7
 72
     8
 73
    -9
  0
VERTEX
  5
D69
  8
0
 10
0.0
 20
0.0
 30
0.0
 70
   128
 71
     6
 72
    -7
 73
    -9
  0
VERTEX
  5
D6A
  8
0
 10
0.0
 20
0.0
 30
0.0
 70
   128
 71
     5
 72
    -6
 73
    -9
  0
VERTEX
  5
D6B
  8
0
 10
0.0
 20
0.0
 30
0.0
 70
   128
 71
   -41
 72
    -5
 73
    -9
  0
VERTEX
  5
D6C
  8
0
 10
0.0
 20
0.0
 30
0.0
 70
   128
 71
    40
 72
   -41
 73
    -9
  0
VERTEX
  5
D6D
  8
0
 10
0.0
 20
0.0
 30
0.0
 70
   128
 71
    41
 72
   -42
 73
    -5
  0
VERTEX
  5
D6E
  8
0
 10
0.0
 20
0.0
 30
0.0
 70
   128
 71
    42
 72
   -43
 73
    -5
  0
VERTEX
  5
D6F
  8
0
 10
0.0
 20
0.0
 30
0.0
 70
   128
 71
    43
 72
   -44
 73
    -5
  0
VERTEX
  5
D70
  8
0
 10
0.0
 20
0.0
 30
0.0
 70
   128
 71
     3
 72
     4
 73
    -5
  0
VERTEX
  5
D71
  8
0
 10
0.0
 20
0.0
 30
0.0
 70
   128
 71
     2
 72
    -3
 73
    -5
  0
VERTEX
  5
D72
  8
0
 10
0.0
 20
0.0
 30
0.0
 70
   128
 71
   -45
 72
    -2
 73
    -5
  0
VERTEX
  5
D73
  8
0
 10
0.0
 20
0.0
 30
0.0
 70
   128
 71
    44
 72
   -45
 73
    -5
  0
VERTEX
  5
D74
  8
0
 10
0.0
 20
0.0
 30
0.0
 70
   128
 71
   -45
 72
   -62
 73
    -2
  0
VERTEX
  5
D75
  8
0
 10
0.0
 20
0.0
 30
0.0
 70
   128
 71
    45
 72
   -46
 73
   -62
  0
VERTEX
  5
D76
  8
0
 10
0.0
 20
0.0
 30
0.0
 70
   128
 71
    46
 72
   -47
 73
   -62
  0
VERTEX
  5
D77
  8
0
 10
0.0
 20
0.0
 30
0.0
 70
   128
 71
   -47
 72
   -54
 73
   -62
  0
VERTEX
  5
D78
  8
0
 10
0.0
 20
0.0
 30
0.0
 70
   128
 71
    54
 72
   -55
 73
   -62
  0
VERTEX
  5
D79
  8
0
 10
0.0
 20
0.0
 30
0.0
 70
   128
 71
    55
 72
   -56
 73
   -62
  0
VERTEX
  5
D7A
  8
0
 10
0.0
 20
0.0
 30
0.0
 70
   128
 71
    56
 72
   -57
 73
   -62
  0
VERTEX
  5
D7B
  8
0
 10
0.0
 20
0.0
 30
0.0
 70
   128
 71
    57
 72
   -58
 73
   -62
  0
VERTEX
  5
D7C
  8
0
 10
0.0
 20
0.0
 30
0.0
 70
   128
 71
    58
 72
   -59
 73
   -62
  0
VERTEX
  5
D7D
  8
0
 10
0.0
 20
0.0
 30
0.0
 70
   128
 71
    59
 72
   -60
 73
   -62
  0
VERTEX
  5
D7E
  8
0
 10
0.0
 20
0.0
 30
0.0
 70
   128
 71
    60
 72
    61
 73
   -62
  0
VERTEX
  5
D7F
  8
0
 10
0.0
 20
0.0
 30
0.0
 70
   128
 71
    62
 72
   -63
 73
    -2
  0
VERTEX
  5
D80
  8
0
 10
0.0
 20
0.0
 30
0.0
 70
   128
 71
    63
 72
   -64
 73
    -2
  0
VERTEX
  5
D81
  8
0
 10
0.0
 20
0.0
 30
0.0
 70
   128
 71
    64
 72
   -65
 73
    -2
  0
VERTEX
  5
D82
  8
0
 10
0.0
 20
0.0
 30
0.0
 70
   128
 71
    65
 72
   -66
 73
    -2
  0
VERTEX
  5
D83
  8
0
 10
0.0
 20
0.0
 30
0.0
 70
   128
 71
    66
 72
   -67
 73
    -2
  0
VERTEX
  5
D84
  8
0
 10
0.0
 20
0.0
 30
0.0
 70
   128
 71
   -67
 72
     1
 73
    -2
  0
VERTEX
  5
D85
  8
0
 10
0.0
 20
0.0
 30
0.0
 70
   128
 71
    67
 72
   -68
 73
    -1
  0
VERTEX
  5
D86
  8
0
 10
0.0
 20
0.0
 30
0.0
 70
   128
 71
    68
 72
   -69
 73
    -1
  0
VERTEX
  5
D87
  8
0
 10
0.0
 20
0.0
 30
0.0
 70
   128
 71
    69
 72
   -70
 73
    -1
  0
VERTEX
  5
D88
  8
0
 10
0.0
 20
0.0
 30
0.0
 70
   128
 71
    70
 72
   -71
 73
    -1
  0
VERTEX
  5
D89
  8
0
 10
0.0
 20
0.0
 30
0.0
 70
   128
 71
    15
 72
    16
 73
    -1
  0
VERTEX
  5
D8A
  8
0
 10
0.0
 20
0.0
 30
0.0
 70
   128
 71
    14
 72
   -15
 73
    -1
  0
VERTEX
  5
D8B
  8
0
 10
0.0
 20
0.0
 30
0.0
 70
   128
 71
    13
 72
   -14
 73
    -1
  0
VERTEX
  5
D8C
  8
0
 10
0.0
 20
0.0
 30
0.0
 70
   128
 71
   -72
 72
   -13
 73
    -1
  0
VERTEX
  5
D8D
  8
0
 10
0.0
 20
0.0
 30
0.0
 70
   128
 71
    71
 72
   -72
 73
    -1
  0
VERTEX
  5
D8E
  8
0
 10
0.0
 20
0.0
 30
0.0
 70
   128
 71
    72
 72
   -73
 73
   -13
  0
VERTEX
  5
D8F
  8
0
 10
0.0
 20
0.0
 30
0.0
 70
   128
 71
    73
 72
   -74
 73
   -13
  0
VERTEX
  5
D90
  8
0
 10
0.0
 20
0.0
 30
0.0
 70
   128
 71
    74
 72
   -75
 73
   -13
  0
VERTEX
  5
D91
  8
0
 10
0.0
 20
0.0
 30
0.0
 70
   128
 71
    11
 72
    12
 73
   -13
  0
VERTEX
  5
D92
  8
0
 10
0.0
 20
0.0
 30
0.0
 70
   128
 71
    10
 72
   -11
 73
   -13
  0
VERTEX
  5
D93
  8
0
 10
0.0
 20
0.0
 30
0.0
 70
   128
 71
   -76
 72
   -10
 73
   -13
  0
VERTEX
  5
D94
  8
0
 10
0.0
 20
0.0
 30
0.0
 70
   128
 71
    75
 72
   -76
 73
   -13
  0
VERTEX
  5
D95
  8
0
 10
0.0
 20
0.0
 30
0.0
 70
   128
 71
    76
 72
   -77
 73
   -10
  0
VERTEX
  5
D96
  8
0
 10
0.0
 20
0.0
 30
0.0
 70
   128
 71
    77
 72
   -78
 73
   -10
  0
VERTEX
  5
D97
  8
0
 10
0.0
 20
0.0
 30
0.0
 70
   128
 71
    78
 72
   -17
 73
   -10
  0
SEQEND
  5
1279
  8
0
  0
POLYLINE
  5
D98
  8
0
 66
     1
 10
0.0
 20
0.0
 30
0.0
 70
    64
 71
     6
 72
     4
  0
VERTEX
  5
D99
  8
0
 10
179.6195817837185
 20
-17.5742212862617
 30
-94.60055527417722
 70
   192
  0
VERTEX
  5
D9A
  8
0
 10
114.7966814117372
 20
-17.5742212862617
 30
-94.60055527417721
 70
   192
  0
VERTEX
  5
D9B
  8
0
 10
109.6353180061528
 20
-28.47898439086338
 30
-95.5545984242657
 70
   192
  0
VERTEX
  5
D9C
  8
0
 10
102.2695050093761
 20
-37.96903823002609
 30
-96.38487055144307
 70
   192
  0
VERTEX
  5
D9D
  8
0
 10
92.5466383235245
 20
-45.0
 30
-97.0
 70
   192
  0
VERTEX
  5
D9E
  8
0
 10
182.0190265095416
 20
-45.0
 30
-97.00000000000011
 70
   192
  0
VERTEX
  5
D9F
  8
0
 10
0.0
 20
0.0
 30
0.0
 70
   128
 71
     1
 72
     2
 73
    -3
  0
VERTEX
  5
DA0
  8
0
 10
0.0
 20
0.0
 30
0.0
 70
   128
 71
     6
 72
    -1
 73
    -3
  0
VERTEX
  5
DA1
  8
0
 10
0.0
 20
0.0
 30
0.0
 70
   128
 71
     3
 72
    -4
 73
    -6
  0
VERTEX
  5
DA2
  8
0
 10
0.0
 20
0.0
 30
0.0
 70
   128
 71
     4
 72
     5
 73
    -6
  0
SEQEND
  5
127A
  8
0
  0
POLYLINE
  5
DA3
  8
0
 66
     1
 10
0.0
 20
0.0
 30
0.0
 70
    64
 71
     4
 72
     2
  0
VERTEX
  5
DA4
  8
0
 10
186.9999999999998
 20
-45.00000000000001
 30
92.01902650954128
 70
   192
  0
VERTEX
  5
DA5
  8
0
 10
184.6005552741771
 20
-17.57422128626174
 30
89.61958178371857
 70
   192
  0
VERTEX
  5
DA6
  8
0
 10
184.6005552741775
 20
-17.5742212862617
 30
-89.61958178371852
 70
   192
  0
VERTEX
  5
DA7
  8
0
 10
186.9999999999999
 20
-45.00000000000001
 30
-92.01902650954115
 70
   192
  0
VERTEX
  5
DA8
  8
0
 10
0.0
 20
0.0
 30
0.0
 70
   128
 71
     3
 72
     4
 73
    -1
  0
VERTEX
  5
DA9
  8
0
 10
0.0
 20
0.0
 30
0.0
 70
   128
 71
     2
 72
    -3
 73
     1
  0
SEQEND
  5
127B
  8
0
  0
POLYLINE
  5
DAA
  8
0
 66
     1
 10
0.0
 20
0.0
 30
0.0
 70
    64
 71
    13
 72
    13
  0
VERTEX
  5
DAB
  8
0
 10
110.2688616154782
 20
-15.4890554669992
 30
79.1702728848815
 70
   192
  0
VERTEX
  5
DAC
  8
0
 10
104.5429056248442
 20
-47.96256557661297
 30
45.35984438770149
 70
   192
  0
VERTEX
  5
DAD
  8
0
 10
102.4748654375483
 20
-59.69100429306232
 30
0.0710451145718325
 70
   192
  0
VERTEX
  5
DAE
  8
0
 10
104.5261909174409
 20
-48.05735939282859
 30
-45.2449996892212
 70
   192
  0
VERTEX
  5
DAF
  8
0
 10
110.268861615478
 20
-15.4890554669992
 30
-79.1808423702894
 70
   192
  0
VERTEX
  5
DB0
  8
0
 10
104.9186110536718
 20
-45.83183420857029
 30
0.0000000000000056
 70
   192
  0
VERTEX
  5
DB1
  8
0
 10
105.5543657248962
 20
-42.22629029991793
 30
8.83883476483185
 70
   192
  0
VERTEX
  5
DB2
  8
0
 10
107.0892132745084
 20
-33.5217372959177
 30
12.50000000000001
 70
   192
  0
VERTEX
  5
DB3
  8
0
 10
108.6240608241206
 20
-24.81718429191746
 30
8.838834764831853
 70
   192
  0
VERTEX
  5
DB4
  8
0
 10
109.259815495345
 20
-21.2116403832651
 30
0.0000000000000086
 70
   192
  0
VERTEX
  5
DB5
  8
0
 10
108.6240608241206
 20
-24.81718429191746
 30
-8.838834764831837
 70
   192
  0
VERTEX
  5
DB6
  8
0
 10
107.0892132745084
 20
-33.5217372959177
 30
-12.5
 70
   192
  0
VERTEX
  5
DB7
  8
0
 10
105.5543657248962
 20
-42.22629029991793
 30
-8.838834764831839
 70
   192
  0
VERTEX
  5
DB8
  8
0
 10
0.0
 20
0.0
 30
0.0
 70
   128
 71
    -3
 72
     6
 73
    -7
  0
VERTEX
  5
DB9
  8
0
 10
0.0
 20
0.0
 30
0.0
 70
   128
 71
     2
 72
    -3
 73
    -7
  0
VERTEX
  5
DBA
  8
0
 10
0.0
 20
0.0
 30
0.0
 70
   128
 71
     7
 72
    -8
 73
    -2
  0
VERTEX
  5
DBB
  8
0
 10
0.0
 20
0.0
 30
0.0
 70
   128
 71
    -9
 72
     1
 73
    -2
  0
VERTEX
  5
DBC
  8
0
 10
0.0
 20
0.0
 30
0.0
 70
   128
 71
     8
 72
    -9
 73
    -2
  0
VERTEX
  5
DBD
  8
0
 10
0.0
 20
0.0
 30
0.0
 70
   128
 71
     9
 72
   -10
 73
    -1
  0
VERTEX
  5
DBE
  8
0
 10
0.0
 20
0.0
 30
0.0
 70
   128
 71
     5
 72
    -1
 73
   -10
  0
VERTEX
  5
DBF
  8
0
 10
0.0
 20
0.0
 30
0.0
 70
   128
 71
    10
 72
   -11
 73
    -5
  0
VERTEX
  5
DC0
  8
0
 10
0.0
 20
0.0
 30
0.0
 70
   128
 71
   -12
 72
     4
 73
    -5
  0
VERTEX
  5
DC1
  8
0
 10
0.0
 20
0.0
 30
0.0
 70
   128
 71
    11
 72
   -12
 73
    -5
  0
VERTEX
  5
DC2
  8
0
 10
0.0
 20
0.0
 30
0.0
 70
   128
 71
    12
 72
   -13
 73
    -4
  0
VERTEX
  5
DC3
  8
0
 10
0.0
 20
0.0
 30
0.0
 70
   128
 71
   -13
 72
     3
 73
    -4
  0
VERTEX
  5
DC4
  8
0
 10
0.0
 20
0.0
 30
0.0
 70
   128
 71
    13
 72
    -6
 73
    -3
  0
SEQEND
  5
127C
  8
0
  0
POLYLINE
  5
DC5
  8
0
 66
     1
 10
0.0
 20
0.0
 30
0.0
 70
    64
 71
    19
 72
    17
  0
VERTEX
  5
DC6
  8
0
 10
86.88376509775814
 20
-76.64906190900126
 30
-31.0986700914213
 70
   192
  0
VERTEX
  5
DC7
  8
0
 10
85.40614628613201
 20
-43.5852040598289
 30
-87.0095288263072
 70
   192
  0
VERTEX
  5
DC8
  8
0
 10
96.39604439275323
 20
-37.20329510160151
 30
-87.16900768611454
 70
   192
  0
VERTEX
  5
DC9
  8
0
 10
104.5261909174409
 20
-48.05735939282859
 30
-45.2449996892212
 70
   192
  0
VERTEX
  5
DCA
  8
0
 10
104.3263056721968
 20
-27.09321052369894
 30
-87.30927564780404
 70
   192
  0
VERTEX
  5
DCB
  8
0
 10
109.5991581830504
 20
-15.0944640373998
 30
-87.44349411787721
 70
   192
  0
VERTEX
  5
DCC
  8
0
 10
109.9821734270435
 20
-15.2181350952638
 30
-84.79549913508913
 70
   192
  0
VERTEX
  5
DCD
  8
0
 10
110.2109811297497
 20
-15.35209010371048
 30
-81.98748472809729
 70
   192
  0
VERTEX
  5
DCE
  8
0
 10
110.268861615478
 20
-15.4890554669992
 30
-79.1808423702894
 70
   192
  0
VERTEX
  5
DCF
  8
0
 10
102.4748654375483
 20
-59.69100429306232
 30
0.0710451145718325
 70
   192
  0
VERTEX
  5
DD0
  8
0
 10
104.5429056248442
 20
-47.96256557661297
 30
45.35984438770149
 70
   192
  0
VERTEX
  5
DD1
  8
0
 10
110.2688616154782
 20
-15.4890554669992
 30
79.1702728848815
 70
   192
  0
VERTEX
  5
DD2
  8
0
 10
110.2110404706776
 20
-15.3520608090451
 30
81.9769286968683
 70
   192
  0
VERTEX
  5
DD3
  8
0
 10
109.9818112771816
 20
-15.21777164161036
 30
84.78990860033296
 70
   192
  0
VERTEX
  5
DD4
  8
0
 10
109.5978945275926
 20
-15.09393811124165
 30
87.44284888016671
 70
   192
  0
VERTEX
  5
DD5
  8
0
 10
104.3856951828725
 20
-26.98085226066581
 30
87.30927415187085
 70
   192
  0
VERTEX
  5
DD6
  8
0
 10
96.46236757185545
 20
-37.1266945276825
 30
87.16849284474402
 70
   192
  0
VERTEX
  5
DD7
  8
0
 10
86.87703562481548
 20
-76.58496622946124
 30
31.33189488247542
 70
   192
  0
VERTEX
  5
DD8
  8
0
 10
85.3863981461476
 20
-43.5709660397348
 30
87.0084822387725
 70
   192
  0
VERTEX
  5
DD9
  8
0
 10
0.0
 20
0.0
 30
0.0
 70
   128
 71
     1
 72
     2
 73
     3
  0
VERTEX
  5
DDA
  8
0
 10
0.0
 20
0.0
 30
0.0
 70
   128
 71
     4
 72
     5
 73
     6
  0
VERTEX
  5
DDB
  8
0
 10
0.0
 20
0.0
 30
0.0
 70
   128
 71
     6
 72
     7
 73
     4
  0
VERTEX
  5
DDC
  8
0
 10
0.0
 20
0.0
 30
0.0
 70
   128
 71
     7
 72
     8
 73
     4
  0
VERTEX
  5
DDD
  8
0
 10
0.0
 20
0.0
 30
0.0
 70
   128
 71
     8
 72
     9
 73
     4
  0
VERTEX
  5
DDE
  8
0
 10
0.0
 20
0.0
 30
0.0
 70
   128
 71
     4
 72
    10
 73
     5
  0
VERTEX
  5
DDF
  8
0
 10
0.0
 20
0.0
 30
0.0
 70
   128
 71
    11
 72
    12
 73
    13
  0
VERTEX
  5
DE0
  8
0
 10
0.0
 20
0.0
 30
0.0
 70
   128
 71
    13
 72
    14
 73
    11
  0
VERTEX
  5
DE1
  8
0
 10
0.0
 20
0.0
 30
0.0
 70
   128
 71
    14
 72
    15
 73
    11
  0
VERTEX
  5
DE2
  8
0
 10
0.0
 20
0.0
 30
0.0
 70
   128
 71
    15
 72
    16
 73
    11
  0
VERTEX
  5
DE3
  8
0
 10
0.0
 20
0.0
 30
0.0
 70
   128
 71
    17
 72
    18
 73
    11
  0
VERTEX
  5
DE4
  8
0
 10
0.0
 20
0.0
 30
0.0
 70
   128
 71
    16
 72
    17
 73
    11
  0
VERTEX
  5
DE5
  8
0
 10
0.0
 20
0.0
 30
0.0
 70
   128
 71
    17
 72
    19
 73
    18
  0
VERTEX
  5
DE6
  8
0
 10
0.0
 20
0.0
 30
0.0
 70
   128
 71
     5
 72
    10
 73
    11
  0
VERTEX
  5
DE7
  8
0
 10
0.0
 20
0.0
 30
0.0
 70
   128
 71
     3
 72
     5
 73
    11
  0
VERTEX
  5
DE8
  8
0
 10
0.0
 20
0.0
 30
0.0
 70
   128
 71
     1
 72
     3
 73
    11
  0
VERTEX
  5
DE9
  8
0
 10
0.0
 20
0.0
 30
0.0
 70
   128
 71
    18
 72
     1
 73
    11
  0
SEQEND
  5
127D
  8
0
  0
POLYLINE
  5
DEA
  8
0
 66
     1
 10
0.0
 20
0.0
 30
0.0
 70
    64
 71
    24
 72
    24
  0
VERTEX
  5
DEB
  8
0
 10
113.2232848745148
 20
-13.01
 30
-79.1808423702894
 70
   192
  0
VERTEX
  5
DEC
  8
0
 10
113.1351292142901
 20
-13.01
 30
-82.13179847107817
 70
   192
  0
VERTEX
  5
DED
  8
0
 10
112.8650870700775
 20
-13.01
 30
-85.065839873799
 70
   192
  0
VERTEX
  5
DEE
  8
0
 10
112.4047956965686
 20
-13.01
 30
-87.98218887738909
 70
   192
  0
VERTEX
  5
DEF
  8
0
 10
112.3527545273411
 20
-13.01
 30
-88.53410554944051
 70
   192
  0
VERTEX
  5
DF0
  8
0
 10
112.4087432212572
 20
-13.01
 30
-89.0871277724215
 70
   192
  0
VERTEX
  5
DF1
  8
0
 10
112.5719715628876
 20
-13.01
 30
-89.61958178371852
 70
   192
  0
VERTEX
  5
DF2
  8
0
 10
179.6195817837185
 20
-13.01
 30
-89.61958178371852
 70
   192
  0
VERTEX
  5
DF3
  8
0
 10
179.6195817837185
 20
-13.01
 30
89.6195817837186
 70
   192
  0
VERTEX
  5
DF4
  8
0
 10
112.5703948921
 20
-13.01
 30
89.6195817837186
 70
   192
  0
VERTEX
  5
DF5
  8
0
 10
112.4075340750073
 20
-13.01
 30
89.08965203790508
 70
   192
  0
VERTEX
  5
DF6
  8
0
 10
112.3513244424186
 20
-13.01
 30
88.53657129927132
 70
   192
  0
VERTEX
  5
DF7
  8
0
 10
112.403293978594
 20
-13.01
 30
87.9818892648193
 70
   192
  0
VERTEX
  5
DF8
  8
0
 10
112.8644413877359
 20
-13.01
 30
85.062161678827
 70
   192
  0
VERTEX
  5
DF9
  8
0
 10
113.1349732306721
 20
-13.01
 30
82.12469580031595
 70
   192
  0
VERTEX
  5
DFA
  8
0
 10
113.2232848745148
 20
-13.01
 30
79.1702728848815
 70
   192
  0
VERTEX
  5
DFB
  8
0
 10
155.0
 20
-13.01
 30
-17.5
 70
   192
  0
VERTEX
  5
DFC
  8
0
 10
142.6256313292354
 20
-13.01
 30
-12.37436867076458
 70
   192
  0
VERTEX
  5
DFD
  8
0
 10
137.5
 20
-13.01
 30
0.0000000000000019
 70
   192
  0
VERTEX
  5
DFE
  8
0
 10
142.6256313292354
 20
-13.01
 30
12.37436867076458
 70
   192
  0
VERTEX
  5
DFF
  8
0
 10
155.0
 20
-13.01
 30
17.5
 70
   192
  0
VERTEX
  5
E00
  8
0
 10
167.3743686707646
 20
-13.01
 30
12.37436867076458
 70
   192
  0
VERTEX
  5
E01
  8
0
 10
172.5
 20
-13.01
 30
0.0
 70
   192
  0
VERTEX
  5
E02
  8
0
 10
167.3743686707646
 20
-13.01
 30
-12.37436867076458
 70
   192
  0
VERTEX
  5
E03
  8
0
 10
0.0
 20
0.0
 30
0.0
 70
   128
 71
    11
 72
    12
 73
   -13
  0
VERTEX
  5
E04
  8
0
 10
0.0
 20
0.0
 30
0.0
 70
   128
 71
    10
 72
   -11
 73
   -13
  0
VERTEX
  5
E05
  8
0
 10
0.0
 20
0.0
 30
0.0
 70
   128
 71
    13
 72
   -14
 73
   -10
  0
VERTEX
  5
E06
  8
0
 10
0.0
 20
0.0
 30
0.0
 70
   128
 71
     9
 72
   -10
 73
   -14
  0
VERTEX
  5
E07
  8
0
 10
0.0
 20
0.0
 30
0.0
 70
   128
 71
    14
 72
   -15
 73
    -9
  0
VERTEX
  5
E08
  8
0
 10
0.0
 20
0.0
 30
0.0
 70
   128
 71
    15
 72
   -16
 73
    -9
  0
VERTEX
  5
E09
  8
0
 10
0.0
 20
0.0
 30
0.0
 70
   128
 71
    -8
 72
    17
 73
   -18
  0
VERTEX
  5
E0A
  8
0
 10
0.0
 20
0.0
 30
0.0
 70
   128
 71
    -1
 72
    -8
 73
   -18
  0
VERTEX
  5
E0B
  8
0
 10
0.0
 20
0.0
 30
0.0
 70
   128
 71
    18
 72
   -19
 73
    -1
  0
VERTEX
  5
E0C
  8
0
 10
0.0
 20
0.0
 30
0.0
 70
   128
 71
   -19
 72
    16
 73
    -1
  0
VERTEX
  5
E0D
  8
0
 10
0.0
 20
0.0
 30
0.0
 70
   128
 71
    19
 72
   -20
 73
   -16
  0
VERTEX
  5
E0E
  8
0
 10
0.0
 20
0.0
 30
0.0
 70
   128
 71
    20
 72
   -21
 73
   -16
  0
VERTEX
  5
E0F
  8
0
 10
0.0
 20
0.0
 30
0.0
 70
   128
 71
   -22
 72
    -9
 73
   -16
  0
VERTEX
  5
E10
  8
0
 10
0.0
 20
0.0
 30
0.0
 70
   128
 71
    21
 72
   -22
 73
   -16
  0
VERTEX
  5
E11
  8
0
 10
0.0
 20
0.0
 30
0.0
 70
   128
 71
    22
 72
   -23
 73
    -9
  0
VERTEX
  5
E12
  8
0
 10
0.0
 20
0.0
 30
0.0
 70
   128
 71
   -23
 72
     8
 73
    -9
  0
VERTEX
  5
E13
  8
0
 10
0.0
 20
0.0
 30
0.0
 70
   128
 71
    23
 72
   -24
 73
    -8
  0
VERTEX
  5
E14
  8
0
 10
0.0
 20
0.0
 30
0.0
 70
   128
 71
    24
 72
   -17
 73
    -8
  0
VERTEX
  5
E15
  8
0
 10
0.0
 20
0.0
 30
0.0
 70
   128
 71
     1
 72
    -2
 73
    -8
  0
VERTEX
  5
E16
  8
0
 10
0.0
 20
0.0
 30
0.0
 70
   128
 71
     2
 72
    -3
 73
    -8
  0
VERTEX
  5
E17
  8
0
 10
0.0
 20
0.0
 30
0.0
 70
   128
 71
    -3
 72
     7
 73
    -8
  0
VERTEX
  5
E18
  8
0
 10
0.0
 20
0.0
 30
0.0
 70
   128
 71
     3
 72
    -4
 73
    -7
  0
VERTEX
  5
E19
  8
0
 10
0.0
 20
0.0
 30
0.0
 70
   128
 71
     5
 72
     6
 73
    -7
  0
VERTEX
  5
E1A
  8
0
 10
0.0
 20
0.0
 30
0.0
 70
   128
 71
     4
 72
    -5
 73
    -7
  0
SEQEND
  5
127E
  8
0
  0
POLYLINE
  5
E1B
  8
0
 66
     1
 10
0.0
 20
0.0
 30
0.0
 70
    64
 71
     6
 72
     4
  0
VERTEX
  5
E1C
  8
0
 10
-578.703250609701
 20
-13.01
 30
-88.70325060970104
 70
   192
  0
VERTEX
  5
E1D
  8
0
 10
-197.9679299824655
 20
-13.01
 30
-88.7032506097011
 70
   192
  0
VERTEX
  5
E1E
  8
0
 10
-201.4408935123094
 20
-13.01
 30
-29.60747911691055
 70
   192
  0
VERTEX
  5
E1F
  8
0
 10
-201.4486658974484
 20
-13.01000000000001
 30
29.6045368073831
 70
   192
  0
VERTEX
  5
E20
  8
0
 10
-197.983897852126
 20
-13.01
 30
88.7032506097012
 70
   192
  0
VERTEX
  5
E21
  8
0
 10
-578.703250609701
 20
-13.01
 30
88.7032506097012
 70
   192
  0
VERTEX
  5
E22
  8
0
 10
0.0
 20
0.0
 30
0.0
 70
   128
 71
     1
 72
     2
 73
    -3
  0
VERTEX
  5
E23
  8
0
 10
0.0
 20
0.0
 30
0.0
 70
   128
 71
    -4
 72
     6
 73
    -1
  0
VERTEX
  5
E24
  8
0
 10
0.0
 20
0.0
 30
0.0
 70
   128
 71
     3
 72
    -4
 73
    -1
  0
VERTEX
  5
E25
  8
0
 10
0.0
 20
0.0
 30
0.0
 70
   128
 71
     4
 72
     5
 73
    -6
  0
SEQEND
  5
127F
  8
0
  0
POLYLINE
  5
E26
  8
0
 66
     1
 10
0.0
 20
0.0
 30
0.0
 70
    64
 71
    16
 72
    16
  0
VERTEX
  5
E27
  8
0
 10
0.0
 20
-106.0000005744436
 30
-55.0
 70
   192
  0
VERTEX
  5
E28
  8
0
 10
38.89087296526012
 20
-106.0000005744436
 30
-38.89087296526012
 70
   192
  0
VERTEX
  5
E29
  8
0
 10
55.00000000000001
 20
-106.0000005744436
 30
0.0
 70
   192
  0
VERTEX
  5
E2A
  8
0
 10
38.89087296526012
 20
-106.0000005744436
 30
38.89087296526012
 70
   192
  0
VERTEX
  5
E2B
  8
0
 10
0.0
 20
-106.0000005744436
 30
55.00000000000001
 70
   192
  0
VERTEX
  5
E2C
  8
0
 10
-38.89087296526011
 20
-106.0000005744436
 30
38.89087296526012
 70
   192
  0
VERTEX
  5
E2D
  8
0
 10
-55.0
 20
-106.0000005744436
 30
0.0000000000000061
 70
   192
  0
VERTEX
  5
E2E
  8
0
 10
-38.89087296526012
 20
-106.0000005744436
 30
-38.89087296526011
 70
   192
  0
VERTEX
  5
E2F
  8
0
 10
0.0
 20
-106.0000005744436
 30
22.0
 70
   192
  0
VERTEX
  5
E30
  8
0
 10
15.55634918610405
 20
-106.0000005744436
 30
15.55634918610405
 70
   192
  0
VERTEX
  5
E31
  8
0
 10
22.0
 20
-106.0000005744436
 30
0.0
 70
   192
  0
VERTEX
  5
E32
  8
0
 10
15.55634918610405
 20
-106.0000005744436
 30
-15.55634918610405
 70
   192
  0
VERTEX
  5
E33
  8
0
 10
0.0
 20
-106.0000005744436
 30
-22.0
 70
   192
  0
VERTEX
  5
E34
  8
0
 10
-15.55634918610405
 20
-106.0000005744436
 30
-15.55634918610404
 70
   192
  0
VERTEX
  5
E35
  8
0
 10
-22.0
 20
-106.0000005744436
 30
0.0000000000000024
 70
   192
  0
VERTEX
  5
E36
  8
0
 10
-15.55634918610404
 20
-106.0000005744436
 30
15.55634918610405
 70
   192
  0
VERTEX
  5
E37
  8
0
 10
0.0
 20
0.0
 30
0.0
 70
   128
 71
    -5
 72
     9
 73
   -10
  0
VERTEX
  5
E38
  8
0
 10
0.0
 20
0.0
 30
0.0
 70
   128
 71
     4
 72
    -5
 73
   -10
  0
VERTEX
  5
E39
  8
0
 10
0.0
 20
0.0
 30
0.0
 70
   128
 71
   -11
 72
     3
 73
    -4
  0
VERTEX
  5
E3A
  8
0
 10
0.0
 20
0.0
 30
0.0
 70
   128
 71
    10
 72
   -11
 73
    -4
  0
VERTEX
  5
E3B
  8
0
 10
0.0
 20
0.0
 30
0.0
 70
   128
 71
   -12
 72
     2
 73
    -3
  0
VERTEX
  5
E3C
  8
0
 10
0.0
 20
0.0
 30
0.0
 70
   128
 71
    11
 72
   -12
 73
    -3
  0
VERTEX
  5
E3D
  8
0
 10
0.0
 20
0.0
 30
0.0
 70
   128
 71
   -13
 72
     1
 73
    -2
  0
VERTEX
  5
E3E
  8
0
 10
0.0
 20
0.0
 30
0.0
 70
   128
 71
    12
 72
   -13
 73
    -2
  0
VERTEX
  5
E3F
  8
0
 10
0.0
 20
0.0
 30
0.0
 70
   128
 71
   -14
 72
     8
 73
    -1
  0
VERTEX
  5
E40
  8
0
 10
0.0
 20
0.0
 30
0.0
 70
   128
 71
    13
 72
   -14
 73
    -1
  0
VERTEX
  5
E41
  8
0
 10
0.0
 20
0.0
 30
0.0
 70
   128
 71
   -15
 72
     7
 73
    -8
  0
VERTEX
  5
E42
  8
0
 10
0.0
 20
0.0
 30
0.0
 70
   128
 71
    14
 72
   -15
 73
    -8
  0
VERTEX
  5
E43
  8
0
 10
0.0
 20
0.0
 30
0.0
 70
   128
 71
   -16
 72
     6
 73
    -7
  0
VERTEX
  5
E44
  8
0
 10
0.0
 20
0.0
 30
0.0
 70
   128
 71
    15
 72
   -16
 73
    -7
  0
VERTEX
  5
E45
  8
0
 10
0.0
 20
0.0
 30
0.0
 70
   128
 71
    -9
 72
     5
 73
    -6
  0
VERTEX
  5
E46
  8
0
 10
0.0
 20
0.0
 30
0.0
 70
   128
 71
    16
 72
    -9
 73
    -6
  0
SEQEND
  5
1280
  8
0
  0
POLYLINE
  5
E47
  8
0
 66
     1
 10
0.0
 20
0.0
 30
0.0
 70
    64
 71
    17
 72
    15
  0
VERTEX
  5
E48
  8
0
 10
-18.26024817952755
 20
-86.8721328440578
 30
-58.32914104045177
 70
   192
  0
VERTEX
  5
E49
  8
0
 10
-18.92916943499355
 20
-85.37048366356704
 30
-59.79684267425543
 70
   192
  0
VERTEX
  5
E4A
  8
0
 10
-11.43271902798791
 20
-90.05220035130225
 30
-58.16016905017816
 70
   192
  0
VERTEX
  5
E4B
  8
0
 10
-17.67677854710126
 20
-88.68663804995738
 30
-57.22293670175465
 70
   192
  0
VERTEX
  5
E4C
  8
0
 10
-17.20709705544705
 20
-90.72587685623269
 30
-56.53195306914741
 70
   192
  0
VERTEX
  5
E4D
  8
0
 10
-5.793922503917225
 20
-89.63312960030224
 30
-59.10208793564775
 70
   192
  0
VERTEX
  5
E4E
  8
0
 10
-0.0000000000000352
 20
-89.48385834534669
 30
-59.4254869723641
 70
   192
  0
VERTEX
  5
E4F
  8
0
 10
29.32279836732341
 20
-86.51945576599638
 30
-55.56504533450983
 70
   192
  0
VERTEX
  5
E50
  8
0
 10
37.51764298680448
 20
-94.15812277716032
 30
-44.45814780142795
 70
   192
  0
VERTEX
  5
E51
  8
0
 10
17.739924003326
 20
-88.66146810828128
 30
57.20967296035145
 70
   192
  0
VERTEX
  5
E52
  8
0
 10
17.27111692653969
 20
-90.69793112672491
 30
56.52025707119738
 70
   192
  0
VERTEX
  5
E53
  8
0
 10
48.6296810341762
 20
-95.86548720564697
 30
31.08435402396844
 70
   192
  0
VERTEX
  5
E54
  8
0
 10
56.34599199432488
 20
-89.50381322533006
 30
29.2598308284077
 70
   192
  0
VERTEX
  5
E55
  8
0
 10
18.32271596718422
 20
-86.84894264850634
 30
58.31301377509613
 70
   192
  0
VERTEX
  5
E56
  8
0
 10
18.9912725394679
 20
-85.34812186966599
 30
59.7768529289682
 70
   192
  0
VERTEX
  5
E57
  8
0
 10
60.69340188667874
 20
-89.82777990471469
 30
-18.93073881434459
 70
   192
  0
VERTEX
  5
E58
  8
0
 10
56.81763592105649
 20
-96.72557661858137
 30
-8.734416304355872
 70
   192
  0
VERTEX
  5
E59
  8
0
 10
0.0
 20
0.0
 30
0.0
 70
   128
 71
     1
 72
     2
 73
     3
  0
VERTEX
  5
E5A
  8
0
 10
0.0
 20
0.0
 30
0.0
 70
   128
 71
     3
 72
     4
 73
     1
  0
VERTEX
  5
E5B
  8
0
 10
0.0
 20
0.0
 30
0.0
 70
   128
 71
     3
 72
     5
 73
     4
  0
VERTEX
  5
E5C
  8
0
 10
0.0
 20
0.0
 30
0.0
 70
   128
 71
     2
 72
     6
 73
     3
  0
VERTEX
  5
E5D
  8
0
 10
0.0
 20
0.0
 30
0.0
 70
   128
 71
     2
 72
     7
 73
     6
  0
VERTEX
  5
E5E
  8
0
 10
0.0
 20
0.0
 30
0.0
 70
   128
 71
     2
 72
     8
 73
     9
  0
VERTEX
  5
E5F
  8
0
 10
0.0
 20
0.0
 30
0.0
 70
   128
 71
     2
 72
     9
 73
     7
  0
VERTEX
  5
E60
  8
0
 10
0.0
 20
0.0
 30
0.0
 70
   128
 71
    10
 72
    11
 73
    12
  0
VERTEX
  5
E61
  8
0
 10
0.0
 20
0.0
 30
0.0
 70
   128
 71
    12
 72
    13
 73
    14
  0
VERTEX
  5
E62
  8
0
 10
0.0
 20
0.0
 30
0.0
 70
   128
 71
    12
 72
    14
 73
    10
  0
VERTEX
  5
E63
  8
0
 10
0.0
 20
0.0
 30
0.0
 70
   128
 71
    13
 72
    15
 73
    14
  0
VERTEX
  5
E64
  8
0
 10
0.0
 20
0.0
 30
0.0
 70
   128
 71
    16
 72
    13
 73
    12
  0
VERTEX
  5
E65
  8
0
 10
0.0
 20
0.0
 30
0.0
 70
   128
 71
    16
 72
    12
 73
    17
  0
VERTEX
  5
E66
  8
0
 10
0.0
 20
0.0
 30
0.0
 70
   128
 71
     9
 72
     8
 73
    16
  0
VERTEX
  5
E67
  8
0
 10
0.0
 20
0.0
 30
0.0
 70
   128
 71
     9
 72
    16
 73
    17
  0
SEQEND
  5
1281
  8
0
  0
POLYLINE
  5
E68
  8
0
 66
     1
 10
0.0
 20
0.0
 30
0.0
 70
    64
 71
    16
 72
    14
  0
VERTEX
  5
E69
  8
0
 10
-17.48789550294683
 20
-84.9670106866541
 30
-32.03282549812066
 70
   192
  0
VERTEX
  5
E6A
  8
0
 10
32.46425022956584
 20
-84.83115180307314
 30
-17.62815110831347
 70
   192
  0
VERTEX
  5
E6B
  8
0
 10
10.45785052730301
 20
-84.82387716149654
 30
-35.30673303470542
 70
   192
  0
VERTEX
  5
E6C
  8
0
 10
-17.66396646429054
 20
-84.82487585550025
 30
-32.35142703154092
 70
   192
  0
VERTEX
  5
E6D
  8
0
 10
-17.32210981644706
 20
-85.15525569469183
 30
-31.73317711442061
 70
   192
  0
VERTEX
  5
E6E
  8
0
 10
-17.16942242372911
 20
-85.38641677532281
 30
-31.45756625530963
 70
   192
  0
VERTEX
  5
E6F
  8
0
 10
-11.7200962036884
 20
-85.36853802953459
 30
-33.89143709485198
 70
   192
  0
VERTEX
  5
E70
  8
0
 10
-5.698714968593128
 20
-85.35287908853093
 30
-35.42393208387874
 70
   192
  0
VERTEX
  5
E71
  8
0
 10
0.0000100768430033
 20
-85.3473677779644
 30
-35.88605700830215
 70
   192
  0
VERTEX
  5
E72
  8
0
 10
28.10857146137698
 20
-85.42288814550234
 30
-22.16299532542477
 70
   192
  0
VERTEX
  5
E73
  8
0
 10
35.45277677058331
 20
-84.83271800204051
 30
10.42541271532611
 70
   192
  0
VERTEX
  5
E74
  8
0
 10
35.05089549939797
 20
-85.44198767784037
 30
7.140973519606772
 70
   192
  0
VERTEX
  5
E75
  8
0
 10
17.16872352576125
 20
-85.3852688833084
 30
31.459543183053
 70
   192
  0
VERTEX
  5
E76
  8
0
 10
17.32092019369388
 20
-85.15471063303146
 30
31.73434723803062
 70
   192
  0
VERTEX
  5
E77
  8
0
 10
17.4861473525083
 20
-84.96681327927661
 30
32.03306578712782
 70
   192
  0
VERTEX
  5
E78
  8
0
 10
17.66161746947424
 20
-84.82474682162075
 30
32.35065917621799
 70
   192
  0
VERTEX
  5
E79
  8
0
 10
0.0
 20
0.0
 30
0.0
 70
   128
 71
     1
 72
     2
 73
     3
  0
VERTEX
  5
E7A
  8
0
 10
0.0
 20
0.0
 30
0.0
 70
   128
 71
     3
 72
     4
 73
     1
  0
VERTEX
  5
E7B
  8
0
 10
0.0
 20
0.0
 30
0.0
 70
   128
 71
     1
 72
     5
 73
     2
  0
VERTEX
  5
E7C
  8
0
 10
0.0
 20
0.0
 30
0.0
 70
   128
 71
     5
 72
     6
 73
     7
  0
VERTEX
  5
E7D
  8
0
 10
0.0
 20
0.0
 30
0.0
 70
   128
 71
     7
 72
     8
 73
     5
  0
VERTEX
  5
E7E
  8
0
 10
0.0
 20
0.0
 30
0.0
 70
   128
 71
     8
 72
     9
 73
     5
  0
VERTEX
  5
E7F
  8
0
 10
0.0
 20
0.0
 30
0.0
 70
   128
 71
     9
 72
    10
 73
     5
  0
VERTEX
  5
E80
  8
0
 10
0.0
 20
0.0
 30
0.0
 70
   128
 71
    11
 72
     2
 73
    12
  0
VERTEX
  5
E81
  8
0
 10
0.0
 20
0.0
 30
0.0
 70
   128
 71
    12
 72
    13
 73
    14
  0
VERTEX
  5
E82
  8
0
 10
0.0
 20
0.0
 30
0.0
 70
   128
 71
    14
 72
    15
 73
    12
  0
VERTEX
  5
E83
  8
0
 10
0.0
 20
0.0
 30
0.0
 70
   128
 71
    15
 72
    11
 73
    12
  0
VERTEX
  5
E84
  8
0
 10
0.0
 20
0.0
 30
0.0
 70
   128
 71
    15
 72
    16
 73
    11
  0
VERTEX
  5
E85
  8
0
 10
0.0
 20
0.0
 30
0.0
 70
   128
 71
     2
 72
     5
 73
    10
  0
VERTEX
  5
E86
  8
0
 10
0.0
 20
0.0
 30
0.0
 70
   128
 71
    12
 72
     2
 73
    10
  0
SEQEND
  5
1282
  8
0
  0
POLYLINE
  5
E87
  8
0
 66
     1
 10
0.0
 20
0.0
 30
0.0
 70
    64
 71
     8
 72
     6
  0
VERTEX
  5
E88
  8
0
 10
-586.3646028066369
 20
-44.99999999999999
 30
-94.45841122654775
 70
   192
  0
VERTEX
  5
E89
  8
0
 10
-584.4584112265476
 20
-44.99999999999999
 30
-96.36460280663687
 70
   192
  0
VERTEX
  5
E8A
  8
0
 10
-582.1790731773065
 20
-18.3296068905803
 30
-94.00055156729344
 70
   192
  0
VERTEX
  5
E8B
  8
0
 10
-584.0005515672939
 20
-18.3296068905803
 30
-92.17907317730611
 70
   192
  0
VERTEX
  5
E8C
  8
0
 10
-582.0190265095409
 20
-45.00000000000001
 30
-96.99999999999986
 70
   192
  0
VERTEX
  5
E8D
  8
0
 10
-579.6994453077925
 20
-18.4870655435141
 30
-94.68041879825148
 70
   192
  0
VERTEX
  5
E8E
  8
0
 10
-587.0000000000002
 20
-44.99999999999996
 30
-92.01902650954116
 70
   192
  0
VERTEX
  5
E8F
  8
0
 10
-584.6804187982518
 20
-18.48706554351408
 30
-89.6994453077927
 70
   192
  0
VERTEX
  5
E90
  8
0
 10
0.0
 20
0.0
 30
0.0
 70
   128
 71
     1
 72
     2
 73
    -3
  0
VERTEX
  5
E91
  8
0
 10
0.0
 20
0.0
 30
0.0
 70
   128
 71
     4
 72
    -1
 73
     3
  0
VERTEX
  5
E92
  8
0
 10
0.0
 20
0.0
 30
0.0
 70
   128
 71
     2
 72
     5
 73
     6
  0
VERTEX
  5
E93
  8
0
 10
0.0
 20
0.0
 30
0.0
 70
   128
 71
     3
 72
     2
 73
     6
  0
VERTEX
  5
E94
  8
0
 10
0.0
 20
0.0
 30
0.0
 70
   128
 71
     7
 72
     1
 73
     4
  0
VERTEX
  5
E95
  8
0
 10
0.0
 20
0.0
 30
0.0
 70
   128
 71
     8
 72
     7
 73
     4
  0
SEQEND
  5
1283
  8
0
  0
POLYLINE
  5
E96
  8
0
 66
     1
 10
0.0
 20
0.0
 30
0.0
 70
    64
 71
     8
 72
     6
  0
VERTEX
  5
E97
  8
0
 10
-584.4584112265476
 20
-44.99999999999999
 30
96.36460280663697
 70
   192
  0
VERTEX
  5
E98
  8
0
 10
-586.3646028066369
 20
-44.99999999999999
 30
94.45841122654794
 70
   192
  0
VERTEX
  5
E99
  8
0
 10
-584.0005515672939
 20
-18.32960689058027
 30
92.17907317730639
 70
   192
  0
VERTEX
  5
E9A
  8
0
 10
-582.1790731773065
 20
-18.32960689058027
 30
94.00055156729374
 70
   192
  0
VERTEX
  5
E9B
  8
0
 10
-587.0
 20
-45.00000000000001
 30
92.01902650954136
 70
   192
  0
VERTEX
  5
E9C
  8
0
 10
-584.6804187982516
 20
-18.4870655435141
 30
89.69944530779298
 70
   192
  0
VERTEX
  5
E9D
  8
0
 10
-582.0190265095412
 20
-44.99999999999996
 30
97.00000000000007
 70
   192
  0
VERTEX
  5
E9E
  8
0
 10
-579.6994453077931
 20
-18.48706554351404
 30
94.68041879825172
 70
   192
  0
VERTEX
  5
E9F
  8
0
 10
0.0
 20
0.0
 30
0.0
 70
   128
 71
     1
 72
     2
 73
    -3
  0
VERTEX
  5
EA0
  8
0
 10
0.0
 20
0.0
 30
0.0
 70
   128
 71
     4
 72
    -1
 73
     3
  0
VERTEX
  5
EA1
  8
0
 10
0.0
 20
0.0
 30
0.0
 70
   128
 71
     2
 72
     5
 73
     6
  0
VERTEX
  5
EA2
  8
0
 10
0.0
 20
0.0
 30
0.0
 70
   128
 71
     3
 72
     2
 73
     6
  0
VERTEX
  5
EA3
  8
0
 10
0.0
 20
0.0
 30
0.0
 70
   128
 71
     7
 72
     1
 73
     4
  0
VERTEX
  5
EA4
  8
0
 10
0.0
 20
0.0
 30
0.0
 70
   128
 71
     8
 72
     7
 73
     4
  0
SEQEND
  5
1284
  8
0
  0
POLYLINE
  5
EA5
  8
0
 66
     1
 10
0.0
 20
0.0
 30
0.0
 70
    64
 71
     8
 72
     6
  0
VERTEX
  5
EA6
  8
0
 10
184.458411226548
 20
-45.00000000000002
 30
-96.3646028066369
 70
   192
  0
VERTEX
  5
EA7
  8
0
 10
186.3646028066371
 20
-45.00000000000001
 30
-94.45841122654781
 70
   192
  0
VERTEX
  5
EA8
  8
0
 10
183.9206880432192
 20
-17.41676263332793
 30
-92.09920965323191
 70
   192
  0
VERTEX
  5
EA9
  8
0
 10
182.0992096532319
 20
-17.41676263332793
 30
-93.92068804321926
 70
   192
  0
VERTEX
  5
EAA
  8
0
 10
186.9999999999999
 20
-45.00000000000001
 30
-92.01902650954115
 70
   192
  0
VERTEX
  5
EAB
  8
0
 10
184.6005552741773
 20
-17.57422128626173
 30
-89.61958178371844
 70
   192
  0
VERTEX
  5
EAC
  8
0
 10
182.0190265095412
 20
-45.00000000000001
 30
-96.99999999999997
 70
   192
  0
VERTEX
  5
EAD
  8
0
 10
179.6195817837185
 20
-17.57422128626171
 30
-94.60055527417724
 70
   192
  0
VERTEX
  5
EAE
  8
0
 10
0.0
 20
0.0
 30
0.0
 70
   128
 71
     1
 72
     2
 73
    -3
  0
VERTEX
  5
EAF
  8
0
 10
0.0
 20
0.0
 30
0.0
 70
   128
 71
     4
 72
    -1
 73
     3
  0
VERTEX
  5
EB0
  8
0
 10
0.0
 20
0.0
 30
0.0
 70
   128
 71
     2
 72
     5
 73
     6
  0
VERTEX
  5
EB1
  8
0
 10
0.0
 20
0.0
 30
0.0
 70
   128
 71
     3
 72
     2
 73
     6
  0
VERTEX
  5
EB2
  8
0
 10
0.0
 20
0.0
 30
0.0
 70
   128
 71
     7
 72
     1
 73
     4
  0
VERTEX
  5
EB3
  8
0
 10
0.0
 20
0.0
 30
0.0
 70
   128
 71
     8
 72
     7
 73
     4
  0
SEQEND
  5
1285
  8
0
  0
POLYLINE
  5
EB4
  8
0
 66
     1
 10
0.0
 20
0.0
 30
0.0
 70
    64
 71
     8
 72
     6
  0
VERTEX
  5
EB5
  8
0
 10
186.364602806637
 20
-45.00000000000002
 30
94.45841122654788
 70
   192
  0
VERTEX
  5
EB6
  8
0
 10
184.4584112265478
 20
-45.00000000000002
 30
96.364602806637
 70
   192
  0
VERTEX
  5
EB7
  8
0
 10
182.0992096532319
 20
-17.41676263332793
 30
93.92068804321934
 70
   192
  0
VERTEX
  5
EB8
  8
0
 10
183.9206880432192
 20
-17.41676263332793
 30
92.099209653232
 70
   192
  0
VERTEX
  5
EB9
  8
0
 10
182.0190265095409
 20
-45.00000000000001
 30
96.99999999999997
 70
   192
  0
VERTEX
  5
EBA
  8
0
 10
179.6195817837182
 20
-17.57422128626173
 30
94.60055527417727
 70
   192
  0
VERTEX
  5
EBB
  8
0
 10
186.9999999999998
 20
-45.00000000000001
 30
92.01902650954128
 70
   192
  0
VERTEX
  5
EBC
  8
0
 10
184.6005552741772
 20
-17.57422128626171
 30
89.6195817837186
 70
   192
  0
VERTEX
  5
EBD
  8
0
 10
0.0
 20
0.0
 30
0.0
 70
   128
 71
     1
 72
     2
 73
    -3
  0
VERTEX
  5
EBE
  8
0
 10
0.0
 20
0.0
 30
0.0
 70
   128
 71
     4
 72
    -1
 73
     3
  0
VERTEX
  5
EBF
  8
0
 10
0.0
 20
0.0
 30
0.0
 70
   128
 71
     2
 72
     5
 73
     6
  0
VERTEX
  5
EC0
  8
0
 10
0.0
 20
0.0
 30
0.0
 70
   128
 71
     3
 72
     2
 73
     6
  0
VERTEX
  5
EC1
  8
0
 10
0.0
 20
0.0
 30
0.0
 70
   128
 71
     7
 72
     1
 73
     4
  0
VERTEX
  5
EC2
  8
0
 10
0.0
 20
0.0
 30
0.0
 70
   128
 71
     8
 72
     7
 73
     4
  0
SEQEND
  5
1286
  8
0
  0
POLYLINE
  5
EC3
  8
0
 66
     1
 10
0.0
 20
0.0
 30
0.0
 70
    64
 71
     8
 72
     6
  0
VERTEX
  5
EC4
  8
0
 10
179.6195817837185
 20
-13.60899304409944
 30
91.9925836324568
 70
   192
  0
VERTEX
  5
EC5
  8
0
 10
113.1214197269508
 20
-13.62456685863166
 30
92.02124157132
 70
   192
  0
VERTEX
  5
EC6
  8
0
 10
179.6195817837185
 20
-13.01
 30
89.61958178371859
 70
   192
  0
VERTEX
  5
EC7
  8
0
 10
112.5703948921
 20
-13.01
 30
89.6195817837186
 70
   192
  0
VERTEX
  5
EC8
  8
0
 10
113.888274734653
 20
-15.26646737436679
 30
93.79965193532661
 70
   192
  0
VERTEX
  5
EC9
  8
0
 10
179.6195817837185
 20
-15.26245510964596
 30
93.79702084078329
 70
   192
  0
VERTEX
  5
ECA
  8
0
 10
114.7948545967572
 20
-17.5742212862617
 30
94.60055527417732
 70
   192
  0
VERTEX
  5
ECB
  8
0
 10
179.6195817837185
 20
-17.5742212862617
 30
94.60055527417731
 70
   192
  0
VERTEX
  5
ECC
  8
0
 10
0.0
 20
0.0
 30
0.0
 70
   128
 71
     1
 72
     2
 73
     3
  0
VERTEX
  5
ECD
  8
0
 10
0.0
 20
0.0
 30
0.0
 70
   128
 71
     2
 72
     4
 73
     3
  0
VERTEX
  5
ECE
  8
0
 10
0.0
 20
0.0
 30
0.0
 70
   128
 71
     5
 72
     2
 73
     1
  0
VERTEX
  5
ECF
  8
0
 10
0.0
 20
0.0
 30
0.0
 70
   128
 71
     6
 72
     5
 73
     1
  0
VERTEX
  5
ED0
  8
0
 10
0.0
 20
0.0
 30
0.0
 70
   128
 71
     7
 72
     5
 73
     6
  0
VERTEX
  5
ED1
  8
0
 10
0.0
 20
0.0
 30
0.0
 70
   128
 71
     8
 72
     7
 73
     6
  0
SEQEND
  5
1287
  8
0
  0
POLYLINE
  5
ED2
  8
0
 66
     1
 10
0.0
 20
0.0
 30
0.0
 70
    64
 71
     9
 72
     7
  0
VERTEX
  5
ED3
  8
0
 10
183.7970208407832
 20
-15.26245510964597
 30
89.6195817837186
 70
   192
  0
VERTEX
  5
ED4
  8
0
 10
184.6005552741772
 20
-17.57422128626171
 30
89.6195817837186
 70
   192
  0
VERTEX
  5
ED5
  8
0
 10
183.9206880432192
 20
-17.41676263332793
 30
92.099209653232
 70
   192
  0
VERTEX
  5
ED6
  8
0
 10
179.6195817837185
 20
-13.60899304409944
 30
91.9925836324568
 70
   192
  0
VERTEX
  5
ED7
  8
0
 10
179.6195817837185
 20
-13.01
 30
89.6195817837186
 70
   192
  0
VERTEX
  5
ED8
  8
0
 10
181.9925836324567
 20
-13.60899304409944
 30
89.6195817837186
 70
   192
  0
VERTEX
  5
ED9
  8
0
 10
182.0992096532319
 20
-17.41676263332793
 30
93.92068804321934
 70
   192
  0
VERTEX
  5
EDA
  8
0
 10
179.6195817837185
 20
-17.57422128626171
 30
94.60055527417732
 70
   192
  0
VERTEX
  5
EDB
  8
0
 10
179.6195817837185
 20
-15.26245510964596
 30
93.79702084078329
 70
   192
  0
VERTEX
  5
EDC
  8
0
 10
0.0
 20
0.0
 30
0.0
 70
   128
 71
     1
 72
     2
 73
     3
  0
VERTEX
  5
EDD
  8
0
 10
0.0
 20
0.0
 30
0.0
 70
   128
 71
     4
 72
     5
 73
     6
  0
VERTEX
  5
EDE
  8
0
 10
0.0
 20
0.0
 30
0.0
 70
   128
 71
     1
 72
     3
 73
     7
  0
VERTEX
  5
EDF
  8
0
 10
0.0
 20
0.0
 30
0.0
 70
   128
 71
     6
 72
     1
 73
     7
  0
VERTEX
  5
EE0
  8
0
 10
0.0
 20
0.0
 30
0.0
 70
   128
 71
     7
 72
     8
 73
     9
  0
VERTEX
  5
EE1
  8
0
 10
0.0
 20
0.0
 30
0.0
 70
   128
 71
     6
 72
     7
 73
     9
  0
VERTEX
  5
EE2
  8
0
 10
0.0
 20
0.0
 30
0.0
 70
   128
 71
     9
 72
     4
 73
     6
  0
SEQEND
  5
1288
  8
0
  0
POLYLINE
  5
EE3
  8
0
 66
     1
 10
0.0
 20
0.0
 30
0.0
 70
    64
 71
     8
 72
     6
  0
VERTEX
  5
EE4
  8
0
 10
183.7970208407832
 20
-15.26245510964597
 30
89.6195817837186
 70
   192
  0
VERTEX
  5
EE5
  8
0
 10
181.9925836324567
 20
-13.60899304409944
 30
89.6195817837186
 70
   192
  0
VERTEX
  5
EE6
  8
0
 10
181.9925836324567
 20
-13.60899304409944
 30
-89.61958178371852
 70
   192
  0
VERTEX
  5
EE7
  8
0
 10
183.7970208407832
 20
-15.26245510964597
 30
-89.61958178371852
 70
   192
  0
VERTEX
  5
EE8
  8
0
 10
179.6195817837185
 20
-13.01
 30
89.6195817837186
 70
   192
  0
VERTEX
  5
EE9
  8
0
 10
179.6195817837185
 20
-13.01
 30
-89.61958178371852
 70
   192
  0
VERTEX
  5
EEA
  8
0
 10
184.6005552741775
 20
-17.5742212862617
 30
89.6195817837186
 70
   192
  0
VERTEX
  5
EEB
  8
0
 10
184.6005552741772
 20
-17.57422128626172
 30
-89.61958178371852
 70
   192
  0
VERTEX
  5
EEC
  8
0
 10
0.0
 20
0.0
 30
0.0
 70
   128
 71
     1
 72
     2
 73
    -3
  0
VERTEX
  5
EED
  8
0
 10
0.0
 20
0.0
 30
0.0
 70
   128
 71
     4
 72
    -1
 73
     3
  0
VERTEX
  5
EEE
  8
0
 10
0.0
 20
0.0
 30
0.0
 70
   128
 71
     2
 72
     5
 73
    -6
  0
VERTEX
  5
EEF
  8
0
 10
0.0
 20
0.0
 30
0.0
 70
   128
 71
     3
 72
    -2
 73
     6
  0
VERTEX
  5
EF0
  8
0
 10
0.0
 20
0.0
 30
0.0
 70
   128
 71
     7
 72
     1
 73
    -4
  0
VERTEX
  5
EF1
  8
0
 10
0.0
 20
0.0
 30
0.0
 70
   128
 71
     8
 72
    -7
 73
     4
  0
SEQEND
  5
1289
  8
0
  0
POLYLINE
  5
EF2
  8
0
 66
     1
 10
0.0
 20
0.0
 30
0.0
 70
    64
 71
     9
 72
     7
  0
VERTEX
  5
EF3
  8
0
 10
181.9925836324567
 20
-13.60899304409944
 30
-89.61958178371852
 70
   192
  0
VERTEX
  5
EF4
  8
0
 10
179.6195817837185
 20
-13.01
 30
-89.61958178371852
 70
   192
  0
VERTEX
  5
EF5
  8
0
 10
179.6195817837185
 20
-13.60899304409944
 30
-91.99258363245671
 70
   192
  0
VERTEX
  5
EF6
  8
0
 10
179.6195817837185
 20
-15.26245510964596
 30
-93.7970208407832
 70
   192
  0
VERTEX
  5
EF7
  8
0
 10
183.9206880432192
 20
-17.41676263332793
 30
-92.09920965323191
 70
   192
  0
VERTEX
  5
EF8
  8
0
 10
184.6005552741772
 20
-17.57422128626171
 30
-89.61958178371852
 70
   192
  0
VERTEX
  5
EF9
  8
0
 10
183.7970208407832
 20
-15.26245510964597
 30
-89.61958178371852
 70
   192
  0
VERTEX
  5
EFA
  8
0
 10
182.0992096532319
 20
-17.41676263332793
 30
-93.92068804321926
 70
   192
  0
VERTEX
  5
EFB
  8
0
 10
179.6195817837185
 20
-17.57422128626171
 30
-94.60055527417724
 70
   192
  0
VERTEX
  5
EFC
  8
0
 10
0.0
 20
0.0
 30
0.0
 70
   128
 71
     1
 72
     2
 73
     3
  0
VERTEX
  5
EFD
  8
0
 10
0.0
 20
0.0
 30
0.0
 70
   128
 71
     3
 72
     4
 73
     1
  0
VERTEX
  5
EFE
  8
0
 10
0.0
 20
0.0
 30
0.0
 70
   128
 71
     5
 72
     6
 73
     7
  0
VERTEX
  5
EFF
  8
0
 10
0.0
 20
0.0
 30
0.0
 70
   128
 71
     8
 72
     5
 73
     7
  0
VERTEX
  5
F00
  8
0
 10
0.0
 20
0.0
 30
0.0
 70
   128
 71
     8
 72
     7
 73
     1
  0
VERTEX
  5
F01
  8
0
 10
0.0
 20
0.0
 30
0.0
 70
   128
 71
     9
 72
     8
 73
     1
  0
VERTEX
  5
F02
  8
0
 10
0.0
 20
0.0
 30
0.0
 70
   128
 71
     4
 72
     9
 73
     1
  0
SEQEND
  5
128A
  8
0
  0
POLYLINE
  5
F03
  8
0
 66
     1
 10
0.0
 20
0.0
 30
0.0
 70
    64
 71
     8
 72
     6
  0
VERTEX
  5
F04
  8
0
 10
113.8900075125819
 20
-15.26651650465825
 30
-93.79968912842195
 70
   192
  0
VERTEX
  5
F05
  8
0
 10
179.6195817837185
 20
-15.26245510964596
 30
-93.7970208407832
 70
   192
  0
VERTEX
  5
F06
  8
0
 10
179.6195817837185
 20
-13.60899304409944
 30
-91.99258363245671
 70
   192
  0
VERTEX
  5
F07
  8
0
 10
113.1230351973791
 20
-13.62460140147285
 30
-92.02128668566688
 70
   192
  0
VERTEX
  5
F08
  8
0
 10
179.6195817837185
 20
-13.01
 30
-89.61958178371852
 70
   192
  0
VERTEX
  5
F09
  8
0
 10
112.5719715628876
 20
-13.01
 30
-89.6195817837185
 70
   192
  0
VERTEX
  5
F0A
  8
0
 10
179.6195817837185
 20
-17.5742212862617
 30
-94.60055527417722
 70
   192
  0
VERTEX
  5
F0B
  8
0
 10
114.7966814117372
 20
-17.5742212862617
 30
-94.60055527417721
 70
   192
  0
VERTEX
  5
F0C
  8
0
 10
0.0
 20
0.0
 30
0.0
 70
   128
 71
     1
 72
     2
 73
     3
  0
VERTEX
  5
F0D
  8
0
 10
0.0
 20
0.0
 30
0.0
 70
   128
 71
     4
 72
     3
 73
     5
  0
VERTEX
  5
F0E
  8
0
 10
0.0
 20
0.0
 30
0.0
 70
   128
 71
     4
 72
     5
 73
     6
  0
VERTEX
  5
F0F
  8
0
 10
0.0
 20
0.0
 30
0.0
 70
   128
 71
     1
 72
     3
 73
     4
  0
VERTEX
  5
F10
  8
0
 10
0.0
 20
0.0
 30
0.0
 70
   128
 71
     7
 72
     2
 73
     1
  0
VERTEX
  5
F11
  8
0
 10
0.0
 20
0.0
 30
0.0
 70
   128
 71
     8
 72
     7
 73
     1
  0
SEQEND
  5
128B
  8
0
  0
POLYLINE
  5
F12
  8
0
 66
     1
 10
0.0
 20
0.0
 30
0.0
 70
    64
 71
    10
 72
     8
  0
VERTEX
  5
F13
  8
0
 10
86.24559502663278
 20
-0.6242071197810879
 30
105.5520386502176
 70
   192
  0
VERTEX
  5
F14
  8
0
 10
-3.10916266206656
 20
-0.8346114856119109
 30
105.569912986079
 70
   192
  0
VERTEX
  5
F15
  8
0
 10
-54.86806620532169
 20
-0.7377185212689329
 30
105.565563442473
 70
   192
  0
VERTEX
  5
F16
  8
0
 10
-159.7570277163786
 20
-0.1735820788660253
 30
105.6408030767287
 70
   192
  0
VERTEX
  5
F17
  8
0
 10
-195.9999999999865
 20
0.0000101391119475
 30
105.9999999994794
 70
   192
  0
VERTEX
  5
F18
  8
0
 10
-101.904727064269
 20
-0.0000000000000005
 30
106.7087168134285
 70
   192
  0
VERTEX
  5
F19
  8
0
 10
-7.82748628055603
 20
-0.0000000000000062
 30
106.9136516733008
 70
   192
  0
VERTEX
  5
F1A
  8
0
 10
86.2498749885066
 20
0.0
 30
106.76981059639
 70
   192
  0
VERTEX
  5
F1B
  8
0
 10
86.2482378107334
 20
-0.0741650598934047
 30
106.3039865488996
 70
   192
  0
VERTEX
  5
F1C
  8
0
 10
86.24676252814366
 20
-0.2893262980950828
 30
105.8842263259184
 70
   192
  0
VERTEX
  5
F1D
  8
0
 10
0.0
 20
0.0
 30
0.0
 70
   128
 71
     9
 72
     5
 73
     6
  0
VERTEX
  5
F1E
  8
0
 10
0.0
 20
0.0
 30
0.0
 70
   128
 71
     6
 72
     7
 73
     9
  0
VERTEX
  5
F1F
  8
0
 10
0.0
 20
0.0
 30
0.0
 70
   128
 71
     7
 72
     8
 73
     9
  0
VERTEX
  5
F20
  8
0
 10
0.0
 20
0.0
 30
0.0
 70
   128
 71
    10
 72
     4
 73
     5
  0
VERTEX
  5
F21
  8
0
 10
0.0
 20
0.0
 30
0.0
 70
   128
 71
     9
 72
    10
 73
     5
  0
VERTEX
  5
F22
  8
0
 10
0.0
 20
0.0
 30
0.0
 70
   128
 71
    10
 72
     1
 73
     2
  0
VERTEX
  5
F23
  8
0
 10
0.0
 20
0.0
 30
0.0
 70
   128
 71
     2
 72
     3
 73
    10
  0
VERTEX
  5
F24
  8
0
 10
0.0
 20
0.0
 30
0.0
 70
   128
 71
     3
 72
     4
 73
    10
  0
SEQEND
  5
128C
  8
0
  0
POLYLINE
  5
F25
  8
0
 66
     1
 10
0.0
 20
0.0
 30
0.0
 70
    64
 71
    12
 72
    10
  0
VERTEX
  5
F26
  8
0
 10
86.2455950266329
 20
-0.6242071197810596
 30
105.5520386502175
 70
   192
  0
VERTEX
  5
F27
  8
0
 10
86.24676252814366
 20
-0.2893262980950828
 30
105.8842263259184
 70
   192
  0
VERTEX
  5
F28
  8
0
 10
86.2482378107334
 20
-0.0741650598934047
 30
106.3039865488996
 70
   192
  0
VERTEX
  5
F29
  8
0
 10
86.2498749885066
 20
0.0000000000000009
 30
106.76981059639
 70
   192
  0
VERTEX
  5
F2A
  8
0
 10
94.4433866194883
 20
0.0
 30
103.9455107899946
 70
   192
  0
VERTEX
  5
F2B
  8
0
 10
99.63657044129039
 20
0.0
 30
96.9719824016518
 70
   192
  0
VERTEX
  5
F2C
  8
0
 10
101.258649446766
 20
0.0
 30
88.42605182680161
 70
   192
  0
VERTEX
  5
F2D
  8
0
 10
100.5854506764653
 20
-0.1595510395148705
 30
88.42605182680161
 70
   192
  0
VERTEX
  5
F2E
  8
0
 10
100.0554646576335
 20
-0.6042621124457848
 30
88.42605182680161
 70
   192
  0
VERTEX
  5
F2F
  8
0
 10
99.78143781724768
 20
-1.239527733499539
 30
88.42605182680161
 70
   192
  0
VERTEX
  5
F30
  8
0
 10
98.3763100641048
 20
-0.8958817031218251
 30
96.42694175248768
 70
   192
  0
VERTEX
  5
F31
  8
0
 10
93.7401291660114
 20
-0.6591004320341028
 30
102.9193737009468
 70
   192
  0
VERTEX
  5
F32
  8
0
 10
0.0
 20
0.0
 30
0.0
 70
   128
 71
     6
 72
     7
 73
     8
  0
VERTEX
  5
F33
  8
0
 10
0.0
 20
0.0
 30
0.0
 70
   128
 71
     8
 72
     9
 73
     6
  0
VERTEX
  5
F34
  8
0
 10
0.0
 20
0.0
 30
0.0
 70
   128
 71
     9
 72
    11
 73
     6
  0
VERTEX
  5
F35
  8
0
 10
0.0
 20
0.0
 30
0.0
 70
   128
 71
     9
 72
    10
 73
    11
  0
VERTEX
  5
F36
  8
0
 10
0.0
 20
0.0
 30
0.0
 70
   128
 71
    12
 72
     5
 73
     6
  0
VERTEX
  5
F37
  8
0
 10
0.0
 20
0.0
 30
0.0
 70
   128
 71
    11
 72
    12
 73
     6
  0
VERTEX
  5
F38
  8
0
 10
0.0
 20
0.0
 30
0.0
 70
   128
 71
    12
 72
     1
 73
     2
  0
VERTEX
  5
F39
  8
0
 10
0.0
 20
0.0
 30
0.0
 70
   128
 71
     2
 72
     3
 73
    12
  0
VERTEX
  5
F3A
  8
0
 10
0.0
 20
0.0
 30
0.0
 70
   128
 71
     3
 72
     5
 73
    12
  0
VERTEX
  5
F3B
  8
0
 10
0.0
 20
0.0
 30
0.0
 70
   128
 71
     3
 72
     4
 73
     5
  0
SEQEND
  5
128D
  8
0
  0
POLYLINE
  5
F3C
  8
0
 66
     1
 10
0.0
 20
0.0
 30
0.0
 70
    64
 71
     8
 72
     6
  0
VERTEX
  5
F3D
  8
0
 10
100.0554646576334
 20
-0.6042621124458356
 30
-88.4297408664354
 70
   192
  0
VERTEX
  5
F3E
  8
0
 10
100.0554646576335
 20
-0.6042621124457848
 30
88.42605182680161
 70
   192
  0
VERTEX
  5
F3F
  8
0
 10
100.5854506764653
 20
-0.1595510395148705
 30
88.42605182680161
 70
   192
  0
VERTEX
  5
F40
  8
0
 10
100.5854506764653
 20
-0.1595510395148849
 30
-88.4297408664354
 70
   192
  0
VERTEX
  5
F41
  8
0
 10
99.78143781724766
 20
-1.239527733499633
 30
-88.4297408664354
 70
   192
  0
VERTEX
  5
F42
  8
0
 10
99.78143781724769
 20
-1.239527733499602
 30
88.42605182680171
 70
   192
  0
VERTEX
  5
F43
  8
0
 10
101.258649446766
 20
0.0000000000000013
 30
88.42605182680161
 70
   192
  0
VERTEX
  5
F44
  8
0
 10
101.258649446766
 20
0.0
 30
-88.42974086643538
 70
   192
  0
VERTEX
  5
F45
  8
0
 10
0.0
 20
0.0
 30
0.0
 70
   128
 71
     1
 72
     2
 73
    -3
  0
VERTEX
  5
F46
  8
0
 10
0.0
 20
0.0
 30
0.0
 70
   128
 71
    -1
 72
     3
 73
     4
  0
VERTEX
  5
F47
  8
0
 10
0.0
 20
0.0
 30
0.0
 70
   128
 71
     5
 72
     6
 73
    -2
  0
VERTEX
  5
F48
  8
0
 10
0.0
 20
0.0
 30
0.0
 70
   128
 71
    -5
 72
     2
 73
     1
  0
VERTEX
  5
F49
  8
0
 10
0.0
 20
0.0
 30
0.0
 70
   128
 71
     4
 72
     3
 73
    -7
  0
VERTEX
  5
F4A
  8
0
 10
0.0
 20
0.0
 30
0.0
 70
   128
 71
    -4
 72
     7
 73
     8
  0
SEQEND
  5
128E
  8
0
  0
POLYLINE
  5
F4B
  8
0
 66
     1
 10
0.0
 20
0.0
 30
0.0
 70
    64
 71
    12
 72
    10
  0
VERTEX
  5
F4C
  8
0
 10
99.78143781724766
 20
-1.239527733499633
 30
-88.4297408664354
 70
   192
  0
VERTEX
  5
F4D
  8
0
 10
100.0554646576334
 20
-0.6042621124458356
 30
-88.4297408664354
 70
   192
  0
VERTEX
  5
F4E
  8
0
 10
100.5854506764653
 20
-0.1595510395148849
 30
-88.4297408664354
 70
   192
  0
VERTEX
  5
F4F
  8
0
 10
101.258649446766
 20
0.0000000000000013
 30
-88.4297408664354
 70
   192
  0
VERTEX
  5
F50
  8
0
 10
99.62122642086936
 20
0.0
 30
-97.01092711804284
 70
   192
  0
VERTEX
  5
F51
  8
0
 10
94.41266213254198
 20
0.0
 30
-103.9693602353529
 70
   192
  0
VERTEX
  5
F52
  8
0
 10
86.24951055439419
 20
0.0
 30
-106.770105578756
 70
   192
  0
VERTEX
  5
F53
  8
0
 10
86.24786044690721
 20
-0.0742131713275178
 30
-106.3041343389468
 70
   192
  0
VERTEX
  5
F54
  8
0
 10
86.24637361903308
 20
-0.2895092255787577
 30
-105.8842713704091
 70
   192
  0
VERTEX
  5
F55
  8
0
 10
86.24519719372081
 20
-0.624584425473337
 30
-105.5520624897005
 70
   192
  0
VERTEX
  5
F56
  8
0
 10
93.73593418997191
 20
-0.6592985421257859
 30
-102.9229185734156
 70
   192
  0
VERTEX
  5
F57
  8
0
 10
98.3789129649163
 20
-0.8963236205770989
 30
-96.42187212267811
 70
   192
  0
VERTEX
  5
F58
  8
0
 10
0.0
 20
0.0
 30
0.0
 70
   128
 71
     6
 72
     7
 73
     8
  0
VERTEX
  5
F59
  8
0
 10
0.0
 20
0.0
 30
0.0
 70
   128
 71
     8
 72
     9
 73
     6
  0
VERTEX
  5
F5A
  8
0
 10
0.0
 20
0.0
 30
0.0
 70
   128
 71
     9
 72
    11
 73
     6
  0
VERTEX
  5
F5B
  8
0
 10
0.0
 20
0.0
 30
0.0
 70
   128
 71
     9
 72
    10
 73
    11
  0
VERTEX
  5
F5C
  8
0
 10
0.0
 20
0.0
 30
0.0
 70
   128
 71
    12
 72
     5
 73
     6
  0
VERTEX
  5
F5D
  8
0
 10
0.0
 20
0.0
 30
0.0
 70
   128
 71
    11
 72
    12
 73
     6
  0
VERTEX
  5
F5E
  8
0
 10
0.0
 20
0.0
 30
0.0
 70
   128
 71
    12
 72
     1
 73
     2
  0
VERTEX
  5
F5F
  8
0
 10
0.0
 20
0.0
 30
0.0
 70
   128
 71
     2
 72
     3
 73
    12
  0
VERTEX
  5
F60
  8
0
 10
0.0
 20
0.0
 30
0.0
 70
   128
 71
     3
 72
     5
 73
    12
  0
VERTEX
  5
F61
  8
0
 10
0.0
 20
0.0
 30
0.0
 70
   128
 71
     3
 72
     4
 73
     5
  0
SEQEND
  5
128F
  8
0
  0
POLYLINE
  5
F62
  8
0
 66
     1
 10
0.0
 20
0.0
 30
0.0
 70
    64
 71
     9
 72
     7
  0
VERTEX
  5
F63
  8
0
 10
86.24519719372081
 20
-0.624584425473337
 30
-105.5520624897005
 70
   192
  0
VERTEX
  5
F64
  8
0
 10
86.24637361903308
 20
-0.2895092255787577
 30
-105.8842713704091
 70
   192
  0
VERTEX
  5
F65
  8
0
 10
86.24786044690721
 20
-0.0742131713275178
 30
-106.3041343389468
 70
   192
  0
VERTEX
  5
F66
  8
0
 10
86.24951055439419
 20
0.0000000000000011
 30
-106.770105578756
 70
   192
  0
VERTEX
  5
F67
  8
0
 10
-7.835134541147001
 20
0.0000000000000151
 30
-106.9149007239668
 70
   192
  0
VERTEX
  5
F68
  8
0
 10
-101.9192770410152
 20
0.0000000000000038
 30
-106.7084623834333
 70
   192
  0
VERTEX
  5
F69
  8
0
 10
-196.0
 20
0.0000038349876847
 30
-105.9999999999662
 70
   192
  0
VERTEX
  5
F6A
  8
0
 10
-103.5152852301584
 20
-0.5364090577985737
 30
-105.5515215125466
 70
   192
  0
VERTEX
  5
F6B
  8
0
 10
-5.216674227299809
 20
-0.8140154760731871
 30
-105.5814634649804
 70
   192
  0
VERTEX
  5
F6C
  8
0
 10
0.0
 20
0.0
 30
0.0
 70
   128
 71
     9
 72
     5
 73
     6
  0
VERTEX
  5
F6D
  8
0
 10
0.0
 20
0.0
 30
0.0
 70
   128
 71
     8
 72
     9
 73
     6
  0
VERTEX
  5
F6E
  8
0
 10
0.0
 20
0.0
 30
0.0
 70
   128
 71
     6
 72
     7
 73
     8
  0
VERTEX
  5
F6F
  8
0
 10
0.0
 20
0.0
 30
0.0
 70
   128
 71
     9
 72
     1
 73
     2
  0
VERTEX
  5
F70
  8
0
 10
0.0
 20
0.0
 30
0.0
 70
   128
 71
     3
 72
     5
 73
     9
  0
VERTEX
  5
F71
  8
0
 10
0.0
 20
0.0
 30
0.0
 70
   128
 71
     2
 72
     3
 73
     9
  0
VERTEX
  5
F72
  8
0
 10
0.0
 20
0.0
 30
0.0
 70
   128
 71
     3
 72
     4
 73
     5
  0
SEQEND
  5
1290
  8
0
  0
POLYLINE
  5
F73
  8
0
 66
     1
 10
0.0
 20
0.0
 30
0.0
 70
    64
 71
     8
 72
     6
  0
VERTEX
  5
F74
  8
0
 10
-598.9807115777243
 20
-1.952325750305236
 30
108.248799462062
 70
   192
  0
VERTEX
  5
F75
  8
0
 10
-599.7445738023868
 20
-45.00000000000001
 30
108.9782952095469
 70
   192
  0
VERTEX
  5
F76
  8
0
 10
-598.9782952095467
 20
-45.00000000000001
 30
109.7445738023868
 70
   192
  0
VERTEX
  5
F77
  8
0
 10
-598.2487994620619
 20
-1.952325750305236
 30
108.9807115777243
 70
   192
  0
VERTEX
  5
F78
  8
0
 10
-599.2488229423118
 20
-1.965095187125433
 30
107.249127551999
 70
   192
  0
VERTEX
  5
F79
  8
0
 10
-599.9999999999998
 20
-45.00000000000001
 30
108.0003046096872
 70
   192
  0
VERTEX
  5
F7A
  8
0
 10
-598.000304609687
 20
-45.0
 30
110.0
 70
   192
  0
VERTEX
  5
F7B
  8
0
 10
-597.2491275519988
 20
-1.965095187125442
 30
109.2488229423118
 70
   192
  0
VERTEX
  5
F7C
  8
0
 10
0.0
 20
0.0
 30
0.0
 70
   128
 71
     1
 72
     2
 73
    -3
  0
VERTEX
  5
F7D
  8
0
 10
0.0
 20
0.0
 30
0.0
 70
   128
 71
    -1
 72
     3
 73
     4
  0
VERTEX
  5
F7E
  8
0
 10
0.0
 20
0.0
 30
0.0
 70
   128
 71
     5
 72
     6
 73
     2
  0
VERTEX
  5
F7F
  8
0
 10
0.0
 20
0.0
 30
0.0
 70
   128
 71
     5
 72
     2
 73
     1
  0
VERTEX
  5
F80
  8
0
 10
0.0
 20
0.0
 30
0.0
 70
   128
 71
     4
 72
     3
 73
     7
  0
VERTEX
  5
F81
  8
0
 10
0.0
 20
0.0
 30
0.0
 70
   128
 71
     4
 72
     7
 73
     8
  0
SEQEND
  5
1291
  8
0
  0
POLYLINE
  5
F82
  8
0
 66
     1
 10
0.0
 20
0.0
 30
0.0
 70
    64
 71
     8
 72
     6
  0
VERTEX
  5
F83
  8
0
 10
-598.2487994620619
 20
-1.952325750305236
 30
-108.9807115777239
 70
   192
  0
VERTEX
  5
F84
  8
0
 10
-598.9782952095467
 20
-45.0
 30
-109.7445738023866
 70
   192
  0
VERTEX
  5
F85
  8
0
 10
-599.7445738023865
 20
-45.0
 30
-108.9782952095467
 70
   192
  0
VERTEX
  5
F86
  8
0
 10
-598.9807115777243
 20
-1.952325750305236
 30
-108.2487994620616
 70
   192
  0
VERTEX
  5
F87
  8
0
 10
-597.249127551999
 20
-1.965095187125433
 30
-109.2488229423113
 70
   192
  0
VERTEX
  5
F88
  8
0
 10
-598.0003046096872
 20
-45.0
 30
-109.9999999999998
 70
   192
  0
VERTEX
  5
F89
  8
0
 10
-600.0
 20
-45.0
 30
-108.000304609687
 70
   192
  0
VERTEX
  5
F8A
  8
0
 10
-599.2488229423117
 20
-1.965095187125449
 30
-107.2491275519986
 70
   192
  0
VERTEX
  5
F8B
  8
0
 10
0.0
 20
0.0
 30
0.0
 70
   128
 71
     1
 72
     2
 73
    -3
  0
VERTEX
  5
F8C
  8
0
 10
0.0
 20
0.0
 30
0.0
 70
   128
 71
    -1
 72
     3
 73
     4
  0
VERTEX
  5
F8D
  8
0
 10
0.0
 20
0.0
 30
0.0
 70
   128
 71
     5
 72
     6
 73
     2
  0
VERTEX
  5
F8E
  8
0
 10
0.0
 20
0.0
 30
0.0
 70
   128
 71
     5
 72
     2
 73
     1
  0
VERTEX
  5
F8F
  8
0
 10
0.0
 20
0.0
 30
0.0
 70
   128
 71
     4
 72
     3
 73
     7
  0
VERTEX
  5
F90
  8
0
 10
0.0
 20
0.0
 30
0.0
 70
   128
 71
     4
 72
     7
 73
     8
  0
SEQEND
  5
1292
  8
0
  0
POLYLINE
  5
F91
  8
0
 66
     1
 10
0.0
 20
0.0
 30
0.0
 70
    64
 71
     8
 72
     6
  0
VERTEX
  5
F92
  8
0
 10
198.248799462062
 20
-1.952325750305236
 30
108.9807115777241
 70
   192
  0
VERTEX
  5
F93
  8
0
 10
198.9782952095468
 20
-45.00000000000003
 30
109.7445738023867
 70
   192
  0
VERTEX
  5
F94
  8
0
 10
199.7445738023867
 20
-45.00000000000003
 30
108.9782952095468
 70
   192
  0
VERTEX
  5
F95
  8
0
 10
198.9807115777243
 20
-1.952325750305236
 30
108.2487994620618
 70
   192
  0
VERTEX
  5
F96
  8
0
 10
197.249127551999
 20
-1.965095187125433
 30
109.2488229423116
 70
   192
  0
VERTEX
  5
F97
  8
0
 10
198.0003046096873
 20
-44.99999999999999
 30
110.0
 70
   192
  0
VERTEX
  5
F98
  8
0
 10
200.0
 20
-45.0
 30
108.000304609687
 70
   192
  0
VERTEX
  5
F99
  8
0
 10
199.2488229423119
 20
-1.965095187125435
 30
107.2491275519988
 70
   192
  0
VERTEX
  5
F9A
  8
0
 10
0.0
 20
0.0
 30
0.0
 70
   128
 71
     1
 72
     2
 73
    -3
  0
VERTEX
  5
F9B
  8
0
 10
0.0
 20
0.0
 30
0.0
 70
   128
 71
    -1
 72
     3
 73
     4
  0
VERTEX
  5
F9C
  8
0
 10
0.0
 20
0.0
 30
0.0
 70
   128
 71
     5
 72
     6
 73
     2
  0
VERTEX
  5
F9D
  8
0
 10
0.0
 20
0.0
 30
0.0
 70
   128
 71
     5
 72
     2
 73
     1
  0
VERTEX
  5
F9E
  8
0
 10
0.0
 20
0.0
 30
0.0
 70
   128
 71
     4
 72
     3
 73
     7
  0
VERTEX
  5
F9F
  8
0
 10
0.0
 20
0.0
 30
0.0
 70
   128
 71
     4
 72
     7
 73
     8
  0
SEQEND
  5
1293
  8
0
  0
POLYLINE
  5
FA0
  8
0
 66
     1
 10
0.0
 20
0.0
 30
0.0
 70
    64
 71
     8
 72
     6
  0
VERTEX
  5
FA1
  8
0
 10
198.9807115777243
 20
-1.952325750305236
 30
-108.2487994620618
 70
   192
  0
VERTEX
  5
FA2
  8
0
 10
199.7445738023869
 20
-45.00000000000001
 30
-108.9782952095468
 70
   192
  0
VERTEX
  5
FA3
  8
0
 10
198.9782952095472
 20
-45.00000000000002
 30
-109.7445738023867
 70
   192
  0
VERTEX
  5
FA4
  8
0
 10
198.248799462062
 20
-1.952325750305236
 30
-108.9807115777241
 70
   192
  0
VERTEX
  5
FA5
  8
0
 10
199.2488229423118
 20
-1.965095187125433
 30
-107.2491275519988
 70
   192
  0
VERTEX
  5
FA6
  8
0
 10
200.0000000000002
 20
-44.99999999999999
 30
-108.0003046096872
 70
   192
  0
VERTEX
  5
FA7
  8
0
 10
198.0003046096875
 20
-45.0
 30
-110.0
 70
   192
  0
VERTEX
  5
FA8
  8
0
 10
197.2491275519989
 20
-1.965095187125446
 30
-109.2488229423116
 70
   192
  0
VERTEX
  5
FA9
  8
0
 10
0.0
 20
0.0
 30
0.0
 70
   128
 71
     1
 72
     2
 73
    -3
  0
VERTEX
  5
FAA
  8
0
 10
0.0
 20
0.0
 30
0.0
 70
   128
 71
    -1
 72
     3
 73
     4
  0
VERTEX
  5
FAB
  8
0
 10
0.0
 20
0.0
 30
0.0
 70
   128
 71
     5
 72
     6
 73
     2
  0
VERTEX
  5
FAC
  8
0
 10
0.0
 20
0.0
 30
0.0
 70
   128
 71
     5
 72
     2
 73
     1
  0
VERTEX
  5
FAD
  8
0
 10
0.0
 20
0.0
 30
0.0
 70
   128
 71
     4
 72
     3
 73
     7
  0
VERTEX
  5
FAE
  8
0
 10
0.0
 20
0.0
 30
0.0
 70
   128
 71
     4
 72
     7
 73
     8
  0
SEQEND
  5
1294
  8
0
  0
POLYLINE
  5
FAF
  8
0
 66
     1
 10
0.0
 20
0.0
 30
0.0
 70
    64
 71
     4
 72
     2
  0
VERTEX
  5
FB0
  8
0
 10
67.15968619963851
 20
-45.8263518223331
 30
-88.8542918781651
 70
   192
  0
VERTEX
  5
FB1
  8
0
 10
22.87130854151022
 20
-55.76717006853733
 30
-87.10145741104027
 70
   192
  0
VERTEX
  5
FB2
  8
0
 10
-22.69428830604295
 20
-55.79095581868543
 30
-87.09726334153274
 70
   192
  0
VERTEX
  5
FB3
  8
0
 10
-67.1594700670487
 20
-45.82635182233319
 30
-88.8542918781651
 70
   192
  0
VERTEX
  5
FB4
  8
0
 10
0.0
 20
0.0
 30
0.0
 70
   128
 71
     3
 72
     4
 73
    -1
  0
VERTEX
  5
FB5
  8
0
 10
0.0
 20
0.0
 30
0.0
 70
   128
 71
     2
 72
    -3
 73
     1
  0
SEQEND
  5
1295
  8
0
  0
POLYLINE
  5
FB6
  8
0
 66
     1
 10
0.0
 20
0.0
 30
0.0
 70
    64
 71
     4
 72
     2
  0
VERTEX
  5
FB7
  8
0
 10
-66.9750717708604
 20
-45.8263518223331
 30
88.8542918781652
 70
   192
  0
VERTEX
  5
FB8
  8
0
 10
-22.83234808727185
 20
-55.68746965908628
 30
87.11551074360008
 70
   192
  0
VERTEX
  5
FB9
  8
0
 10
22.48202712471402
 20
-55.73452191910196
 30
87.10721416065606
 70
   192
  0
VERTEX
  5
FBA
  8
0
 10
66.9778018903279
 20
-45.8263518223331
 30
88.8542918781652
 70
   192
  0
VERTEX
  5
FBB
  8
0
 10
0.0
 20
0.0
 30
0.0
 70
   128
 71
     3
 72
     4
 73
    -1
  0
VERTEX
  5
FBC
  8
0
 10
0.0
 20
0.0
 30
0.0
 70
   128
 71
     2
 72
    -3
 73
     1
  0
SEQEND
  5
1296
  8
0
  0
POLYLINE
  5
FBD
  8
0
 66
     1
 10
0.0
 20
0.0
 30
0.0
 70
    64
 71
     9
 72
     7
  0
VERTEX
  5
FBE
  8
0
 10
197.249127551999
 20
-0.2621607728183393
 30
-108.2390340225649
 70
   192
  0
VERTEX
  5
FBF
  8
0
 10
197.249127551999
 20
0.0000000000000018
 30
-107.2491275519988
 70
   192
  0
VERTEX
  5
FC0
  8
0
 10
198.2390340225651
 20
-0.2621607728183384
 30
-107.2491275519988
 70
   192
  0
VERTEX
  5
FC1
  8
0
 10
197.249127551999
 20
-0.9799148204686527
 30
-108.9694258477895
 70
   192
  0
VERTEX
  5
FC2
  8
0
 10
198.9694258477898
 20
-0.9799148204686499
 30
-107.2491275519988
 70
   192
  0
VERTEX
  5
FC3
  8
0
 10
199.2488229423118
 20
-1.965095187125435
 30
-107.2491275519988
 70
   192
  0
VERTEX
  5
FC4
  8
0
 10
198.9807115777243
 20
-1.952325750305236
 30
-108.2487994620618
 70
   192
  0
VERTEX
  5
FC5
  8
0
 10
198.248799462062
 20
-1.952325750305236
 30
-108.9807115777241
 70
   192
  0
VERTEX
  5
FC6
  8
0
 10
197.249127551999
 20
-1.965095187125433
 30
-109.2488229423116
 70
   192
  0
VERTEX
  5
FC7
  8
0
 10
0.0
 20
0.0
 30
0.0
 70
   128
 71
     1
 72
     2
 73
     3
  0
VERTEX
  5
FC8
  8
0
 10
0.0
 20
0.0
 30
0.0
 70
   128
 71
     3
 72
     4
 73
     1
  0
VERTEX
  5
FC9
  8
0
 10
0.0
 20
0.0
 30
0.0
 70
   128
 71
     5
 72
     6
 73
     7
  0
VERTEX
  5
FCA
  8
0
 10
0.0
 20
0.0
 30
0.0
 70
   128
 71
     5
 72
     7
 73
     8
  0
VERTEX
  5
FCB
  8
0
 10
0.0
 20
0.0
 30
0.0
 70
   128
 71
     3
 72
     5
 73
     8
  0
VERTEX
  5
FCC
  8
0
 10
0.0
 20
0.0
 30
0.0
 70
   128
 71
     3
 72
     8
 73
     9
  0
VERTEX
  5
FCD
  8
0
 10
0.0
 20
0.0
 30
0.0
 70
   128
 71
     3
 72
     9
 73
     4
  0
SEQEND
  5
1297
  8
0
  0
POLYLINE
  5
FCE
  8
0
 66
     1
 10
0.0
 20
0.0
 30
0.0
 70
    64
 71
     8
 72
     6
  0
VERTEX
  5
FCF
  8
0
 10
197.249127551999
 20
-0.9799148204686527
 30
-108.9694258477895
 70
   192
  0
VERTEX
  5
FD0
  8
0
 10
-597.249127551999
 20
-0.9799148204686527
 30
-108.9694258477893
 70
   192
  0
VERTEX
  5
FD1
  8
0
 10
-597.249127551999
 20
-0.2621607728183393
 30
-108.2390340225647
 70
   192
  0
VERTEX
  5
FD2
  8
0
 10
197.249127551999
 20
-0.2621607728183393
 30
-108.2390340225649
 70
   192
  0
VERTEX
  5
FD3
  8
0
 10
197.249127551999
 20
-1.96509518712544
 30
-109.2488229423116
 70
   192
  0
VERTEX
  5
FD4
  8
0
 10
-597.249127551999
 20
-1.965095187125435
 30
-109.2488229423115
 70
   192
  0
VERTEX
  5
FD5
  8
0
 10
-597.249127551999
 20
0.0000000000000018
 30
-107.2491275519986
 70
   192
  0
VERTEX
  5
FD6
  8
0
 10
197.249127551999
 20
0.0
 30
-107.2491275519987
 70
   192
  0
VERTEX
  5
FD7
  8
0
 10
0.0
 20
0.0
 30
0.0
 70
   128
 71
     1
 72
     2
 73
    -3
  0
VERTEX
  5
FD8
  8
0
 10
0.0
 20
0.0
 30
0.0
 70
   128
 71
    -1
 72
     3
 73
     4
  0
VERTEX
  5
FD9
  8
0
 10
0.0
 20
0.0
 30
0.0
 70
   128
 71
     5
 72
     6
 73
    -2
  0
VERTEX
  5
FDA
  8
0
 10
0.0
 20
0.0
 30
0.0
 70
   128
 71
    -5
 72
     2
 73
     1
  0
VERTEX
  5
FDB
  8
0
 10
0.0
 20
0.0
 30
0.0
 70
   128
 71
     4
 72
     3
 73
    -7
  0
VERTEX
  5
FDC
  8
0
 10
0.0
 20
0.0
 30
0.0
 70
   128
 71
    -4
 72
     7
 73
     8
  0
SEQEND
  5
1298
  8
0
  0
POLYLINE
  5
FDD
  8
0
 66
     1
 10
0.0
 20
0.0
 30
0.0
 70
    64
 71
     8
 72
     6
  0
VERTEX
  5
FDE
  8
0
 10
198.9694258477898
 20
-0.979914820468647
 30
107.2491275519988
 70
   192
  0
VERTEX
  5
FDF
  8
0
 10
198.9694258477898
 20
-0.9799148204686499
 30
-107.2491275519988
 70
   192
  0
VERTEX
  5
FE0
  8
0
 10
198.2390340225651
 20
-0.2621607728183384
 30
-107.2491275519988
 70
   192
  0
VERTEX
  5
FE1
  8
0
 10
198.2390340225651
 20
-0.2621607728183377
 30
107.2491275519988
 70
   192
  0
VERTEX
  5
FE2
  8
0
 10
199.2488229423118
 20
-1.96509518712543
 30
107.2491275519988
 70
   192
  0
VERTEX
  5
FE3
  8
0
 10
199.2488229423115
 20
-1.965095187125435
 30
-107.2491275519988
 70
   192
  0
VERTEX
  5
FE4
  8
0
 10
197.249127551999
 20
0.0000000000000018
 30
-107.2491275519988
 70
   192
  0
VERTEX
  5
FE5
  8
0
 10
197.249127551999
 20
0.0
 30
107.2491275519988
 70
   192
  0
VERTEX
  5
FE6
  8
0
 10
0.0
 20
0.0
 30
0.0
 70
   128
 71
     1
 72
     2
 73
    -3
  0
VERTEX
  5
FE7
  8
0
 10
0.0
 20
0.0
 30
0.0
 70
   128
 71
    -1
 72
     3
 73
     4
  0
VERTEX
  5
FE8
  8
0
 10
0.0
 20
0.0
 30
0.0
 70
   128
 71
     5
 72
     6
 73
    -2
  0
VERTEX
  5
FE9
  8
0
 10
0.0
 20
0.0
 30
0.0
 70
   128
 71
    -5
 72
     2
 73
     1
  0
VERTEX
  5
FEA
  8
0
 10
0.0
 20
0.0
 30
0.0
 70
   128
 71
     4
 72
     3
 73
    -7
  0
VERTEX
  5
FEB
  8
0
 10
0.0
 20
0.0
 30
0.0
 70
   128
 71
    -4
 72
     7
 73
     8
  0
SEQEND
  5
1299
  8
0
  0
POLYLINE
  5
FEC
  8
0
 66
     1
 10
0.0
 20
0.0
 30
0.0
 70
    64
 71
     9
 72
     7
  0
VERTEX
  5
FED
  8
0
 10
-598.9807115777243
 20
-1.952325750305236
 30
-108.2487994620616
 70
   192
  0
VERTEX
  5
FEE
  8
0
 10
-599.2488229423117
 20
-1.965095187125433
 30
-107.2491275519986
 70
   192
  0
VERTEX
  5
FEF
  8
0
 10
-598.9694258477897
 20
-0.9799148204686559
 30
-107.2491275519986
 70
   192
  0
VERTEX
  5
FF0
  8
0
 10
-598.2487994620619
 20
-1.952325750305236
 30
-108.9807115777239
 70
   192
  0
VERTEX
  5
FF1
  8
0
 10
-598.2390340225651
 20
-0.2621607728183402
 30
-107.2491275519986
 70
   192
  0
VERTEX
  5
FF2
  8
0
 10
-597.249127551999
 20
0.0000000000000018
 30
-107.2491275519986
 70
   192
  0
VERTEX
  5
FF3
  8
0
 10
-597.249127551999
 20
-0.2621607728183393
 30
-108.2390340225647
 70
   192
  0
VERTEX
  5
FF4
  8
0
 10
-597.249127551999
 20
-0.9799148204686527
 30
-108.9694258477893
 70
   192
  0
VERTEX
  5
FF5
  8
0
 10
-597.249127551999
 20
-1.96509518712544
 30
-109.2488229423114
 70
   192
  0
VERTEX
  5
FF6
  8
0
 10
0.0
 20
0.0
 30
0.0
 70
   128
 71
     1
 72
     2
 73
     3
  0
VERTEX
  5
FF7
  8
0
 10
0.0
 20
0.0
 30
0.0
 70
   128
 71
    -3
 72
     4
 73
     1
  0
VERTEX
  5
FF8
  8
0
 10
0.0
 20
0.0
 30
0.0
 70
   128
 71
     5
 72
     6
 73
     7
  0
VERTEX
  5
FF9
  8
0
 10
0.0
 20
0.0
 30
0.0
 70
   128
 71
     8
 72
     9
 73
     4
  0
VERTEX
  5
FFA
  8
0
 10
0.0
 20
0.0
 30
0.0
 70
   128
 71
     8
 72
    -4
 73
     3
  0
VERTEX
  5
FFB
  8
0
 10
0.0
 20
0.0
 30
0.0
 70
   128
 71
     3
 72
     5
 73
    -7
  0
VERTEX
  5
FFC
  8
0
 10
0.0
 20
0.0
 30
0.0
 70
   128
 71
    -3
 72
     7
 73
     8
  0
SEQEND
  5
129A
  8
0
  0
POLYLINE
  5
FFD
  8
0
 66
     1
 10
0.0
 20
0.0
 30
0.0
 70
    64
 71
     9
 72
     7
  0
VERTEX
  5
FFE
  8
0
 10
198.9807115777243
 20
-1.952325750305236
 30
108.2487994620618
 70
   192
  0
VERTEX
  5
FFF
  8
0
 10
199.2488229423118
 20
-1.965095187125433
 30
107.2491275519988
 70
   192
  0
VERTEX
  5
1000
  8
0
 10
198.9694258477898
 20
-0.979914820468647
 30
107.2491275519988
 70
   192
  0
VERTEX
  5
1001
  8
0
 10
198.248799462062
 20
-1.952325750305236
 30
108.9807115777241
 70
   192
  0
VERTEX
  5
1002
  8
0
 10
198.2390340225651
 20
-0.2621607728183377
 30
107.2491275519988
 70
   192
  0
VERTEX
  5
1003
  8
0
 10
197.249127551999
 20
0.0000000000000018
 30
107.2491275519988
 70
   192
  0
VERTEX
  5
1004
  8
0
 10
197.249127551999
 20
-0.2621607728183384
 30
108.2390340225649
 70
   192
  0
VERTEX
  5
1005
  8
0
 10
197.249127551999
 20
-0.9799148204686499
 30
108.9694258477895
 70
   192
  0
VERTEX
  5
1006
  8
0
 10
197.249127551999
 20
-1.965095187125435
 30
109.2488229423116
 70
   192
  0
VERTEX
  5
1007
  8
0
 10
0.0
 20
0.0
 30
0.0
 70
   128
 71
     1
 72
     2
 73
     3
  0
VERTEX
  5
1008
  8
0
 10
0.0
 20
0.0
 30
0.0
 70
   128
 71
     3
 72
     4
 73
     1
  0
VERTEX
  5
1009
  8
0
 10
0.0
 20
0.0
 30
0.0
 70
   128
 71
     5
 72
     6
 73
     7
  0
VERTEX
  5
100A
  8
0
 10
0.0
 20
0.0
 30
0.0
 70
   128
 71
     4
 72
     3
 73
     5
  0
VERTEX
  5
100B
  8
0
 10
0.0
 20
0.0
 30
0.0
 70
   128
 71
     8
 72
     9
 73
     4
  0
VERTEX
  5
100C
  8
0
 10
0.0
 20
0.0
 30
0.0
 70
   128
 71
     8
 72
     4
 73
     5
  0
VERTEX
  5
100D
  8
0
 10
0.0
 20
0.0
 30
0.0
 70
   128
 71
     5
 72
     7
 73
     8
  0
SEQEND
  5
129B
  8
0
  0
POLYLINE
  5
100E
  8
0
 66
     1
 10
0.0
 20
0.0
 30
0.0
 70
    64
 71
     8
 72
     6
  0
VERTEX
  5
100F
  8
0
 10
-598.9694258477897
 20
-0.9799148204686559
 30
-107.2491275519986
 70
   192
  0
VERTEX
  5
1010
  8
0
 10
-598.9694258477897
 20
-0.9799148204686527
 30
107.249127551999
 70
   192
  0
VERTEX
  5
1011
  8
0
 10
-598.2390340225651
 20
-0.2621607728183393
 30
107.249127551999
 70
   192
  0
VERTEX
  5
1012
  8
0
 10
-598.2390340225651
 20
-0.2621607728183402
 30
-107.2491275519986
 70
   192
  0
VERTEX
  5
1013
  8
0
 10
-599.2488229423118
 20
-1.965095187125444
 30
-107.2491275519986
 70
   192
  0
VERTEX
  5
1014
  8
0
 10
-599.248822942312
 20
-1.965095187125435
 30
107.249127551999
 70
   192
  0
VERTEX
  5
1015
  8
0
 10
-597.249127551999
 20
0.0000000000000018
 30
107.249127551999
 70
   192
  0
VERTEX
  5
1016
  8
0
 10
-597.249127551999
 20
0.0
 30
-107.2491275519986
 70
   192
  0
VERTEX
  5
1017
  8
0
 10
0.0
 20
0.0
 30
0.0
 70
   128
 71
     1
 72
     2
 73
    -3
  0
VERTEX
  5
1018
  8
0
 10
0.0
 20
0.0
 30
0.0
 70
   128
 71
    -1
 72
     3
 73
     4
  0
VERTEX
  5
1019
  8
0
 10
0.0
 20
0.0
 30
0.0
 70
   128
 71
     5
 72
     6
 73
    -2
  0
VERTEX
  5
101A
  8
0
 10
0.0
 20
0.0
 30
0.0
 70
   128
 71
    -5
 72
     2
 73
     1
  0
VERTEX
  5
101B
  8
0
 10
0.0
 20
0.0
 30
0.0
 70
   128
 71
     4
 72
     3
 73
    -7
  0
VERTEX
  5
101C
  8
0
 10
0.0
 20
0.0
 30
0.0
 70
   128
 71
    -4
 72
     7
 73
     8
  0
SEQEND
  5
129C
  8
0
  0
POLYLINE
  5
101D
  8
0
 66
     1
 10
0.0
 20
0.0
 30
0.0
 70
    64
 71
     8
 72
     6
  0
VERTEX
  5
101E
  8
0
 10
-597.249127551999
 20
-0.979914820468651
 30
108.9694258477897
 70
   192
  0
VERTEX
  5
101F
  8
0
 10
197.249127551999
 20
-0.9799148204686499
 30
108.9694258477895
 70
   192
  0
VERTEX
  5
1020
  8
0
 10
197.249127551999
 20
-0.2621607728183384
 30
108.2390340225649
 70
   192
  0
VERTEX
  5
1021
  8
0
 10
-597.249127551999
 20
-0.2621607728183386
 30
108.2390340225651
 70
   192
  0
VERTEX
  5
1022
  8
0
 10
-597.249127551999
 20
-1.965095187125437
 30
109.2488229423118
 70
   192
  0
VERTEX
  5
1023
  8
0
 10
197.249127551999
 20
-1.965095187125435
 30
109.2488229423115
 70
   192
  0
VERTEX
  5
1024
  8
0
 10
197.249127551999
 20
0.0000000000000018
 30
107.2491275519988
 70
   192
  0
VERTEX
  5
1025
  8
0
 10
-597.249127551999
 20
0.0
 30
107.2491275519989
 70
   192
  0
VERTEX
  5
1026
  8
0
 10
0.0
 20
0.0
 30
0.0
 70
   128
 71
     1
 72
     2
 73
    -3
  0
VERTEX
  5
1027
  8
0
 10
0.0
 20
0.0
 30
0.0
 70
   128
 71
    -1
 72
     3
 73
     4
  0
VERTEX
  5
1028
  8
0
 10
0.0
 20
0.0
 30
0.0
 70
   128
 71
     5
 72
     6
 73
    -2
  0
VERTEX
  5
1029
  8
0
 10
0.0
 20
0.0
 30
0.0
 70
   128
 71
    -5
 72
     2
 73
     1
  0
VERTEX
  5
102A
  8
0
 10
0.0
 20
0.0
 30
0.0
 70
   128
 71
     4
 72
     3
 73
    -7
  0
VERTEX
  5
102B
  8
0
 10
0.0
 20
0.0
 30
0.0
 70
   128
 71
    -4
 72
     7
 73
     8
  0
SEQEND
  5
129D
  8
0
  0
POLYLINE
  5
102C
  8
0
 66
     1
 10
0.0
 20
0.0
 30
0.0
 70
    64
 71
     9
 72
     7
  0
VERTEX
  5
102D
  8
0
 10
-597.249127551999
 20
-0.2621607728183386
 30
108.2390340225651
 70
   192
  0
VERTEX
  5
102E
  8
0
 10
-597.249127551999
 20
0.0000000000000018
 30
107.249127551999
 70
   192
  0
VERTEX
  5
102F
  8
0
 10
-598.2390340225651
 20
-0.2621607728183393
 30
107.249127551999
 70
   192
  0
VERTEX
  5
1030
  8
0
 10
-597.249127551999
 20
-0.979914820468651
 30
108.9694258477897
 70
   192
  0
VERTEX
  5
1031
  8
0
 10
-598.9694258477897
 20
-0.9799148204686527
 30
107.249127551999
 70
   192
  0
VERTEX
  5
1032
  8
0
 10
-599.2488229423118
 20
-1.96509518712544
 30
107.249127551999
 70
   192
  0
VERTEX
  5
1033
  8
0
 10
-598.9807115777243
 20
-1.952325750305236
 30
108.248799462062
 70
   192
  0
VERTEX
  5
1034
  8
0
 10
-597.249127551999
 20
-1.965095187125433
 30
109.2488229423118
 70
   192
  0
VERTEX
  5
1035
  8
0
 10
-598.2487994620619
 20
-1.952325750305236
 30
108.9807115777243
 70
   192
  0
VERTEX
  5
1036
  8
0
 10
0.0
 20
0.0
 30
0.0
 70
   128
 71
     1
 72
     2
 73
     3
  0
VERTEX
  5
1037
  8
0
 10
0.0
 20
0.0
 30
0.0
 70
   128
 71
     3
 72
     4
 73
     1
  0
VERTEX
  5
1038
  8
0
 10
0.0
 20
0.0
 30
0.0
 70
   128
 71
     5
 72
     6
 73
     7
  0
VERTEX
  5
1039
  8
0
 10
0.0
 20
0.0
 30
0.0
 70
   128
 71
     8
 72
     4
 73
     3
  0
VERTEX
  5
103A
  8
0
 10
0.0
 20
0.0
 30
0.0
 70
   128
 71
     8
 72
     3
 73
     5
  0
VERTEX
  5
103B
  8
0
 10
0.0
 20
0.0
 30
0.0
 70
   128
 71
     8
 72
     5
 73
     7
  0
VERTEX
  5
103C
  8
0
 10
0.0
 20
0.0
 30
0.0
 70
   128
 71
     8
 72
     7
 73
     9
  0
SEQEND
  5
129E
  8
0
  0
POLYLINE
  5
103D
  8
0
 66
     1
 10
0.0
 20
0.0
 30
0.0
 70
    64
 71
     9
 72
     7
  0
VERTEX
  5
103E
  8
0
 10
112.5703948921
 20
-13.01
 30
89.6195817837185
 70
   192
  0
VERTEX
  5
103F
  8
0
 10
111.4649652518132
 20
-13.25965579552254
 30
90.08178527491336
 70
   192
  0
VERTEX
  5
1040
  8
0
 10
110.5435202223532
 20
-13.9670711712648
 30
90.46706091258318
 70
   192
  0
VERTEX
  5
1041
  8
0
 10
109.9594225316264
 20
-15.0145058949629
 30
90.711284499516
 70
   192
  0
VERTEX
  5
1042
  8
0
 10
111.1438603831713
 20
-15.39582029707396
 30
92.6663551589173
 70
   192
  0
VERTEX
  5
1043
  8
0
 10
112.7904502594843
 20
-16.28899344924068
 30
94.01304840641922
 70
   192
  0
VERTEX
  5
1044
  8
0
 10
114.7948545967572
 20
-17.5742212862617
 30
94.60055527417731
 70
   192
  0
VERTEX
  5
1045
  8
0
 10
113.888274734653
 20
-15.26646737436679
 30
93.79965193532661
 70
   192
  0
VERTEX
  5
1046
  8
0
 10
113.1214197269508
 20
-13.62456685863166
 30
92.02124157132
 70
   192
  0
VERTEX
  5
1047
  8
0
 10
0.0
 20
0.0
 30
0.0
 70
   128
 71
     8
 72
     7
 73
     6
  0
VERTEX
  5
1048
  8
0
 10
0.0
 20
0.0
 30
0.0
 70
   128
 71
     6
 72
     5
 73
     9
  0
VERTEX
  5
1049
  8
0
 10
0.0
 20
0.0
 30
0.0
 70
   128
 71
     6
 72
     9
 73
     8
  0
VERTEX
  5
104A
  8
0
 10
0.0
 20
0.0
 30
0.0
 70
   128
 71
     2
 72
     1
 73
     9
  0
VERTEX
  5
104B
  8
0
 10
0.0
 20
0.0
 30
0.0
 70
   128
 71
     9
 72
     3
 73
     2
  0
VERTEX
  5
104C
  8
0
 10
0.0
 20
0.0
 30
0.0
 70
   128
 71
     9
 72
     5
 73
     3
  0
VERTEX
  5
104D
  8
0
 10
0.0
 20
0.0
 30
0.0
 70
   128
 71
     5
 72
     4
 73
     3
  0
SEQEND
  5
129F
  8
0
  0
POLYLINE
  5
104E
  8
0
 66
     1
 10
0.0
 20
0.0
 30
0.0
 70
    64
 71
    12
 72
    10
  0
VERTEX
  5
104F
  8
0
 10
112.5703948921
 20
-13.01
 30
89.6195817837186
 70
   192
  0
VERTEX
  5
1050
  8
0
 10
112.4075340750073
 20
-13.01
 30
89.08965203790508
 70
   192
  0
VERTEX
  5
1051
  8
0
 10
112.3513244424186
 20
-13.01
 30
88.53657129927132
 70
   192
  0
VERTEX
  5
1052
  8
0
 10
112.403293978594
 20
-13.01
 30
87.98188926481937
 70
   192
  0
VERTEX
  5
1053
  8
0
 10
111.2015513659361
 20
-13.27093146945668
 30
87.75098175539097
 70
   192
  0
VERTEX
  5
1054
  8
0
 10
110.2088570638313
 20
-14.00833572332512
 30
87.56024160312505
 70
   192
  0
VERTEX
  5
1055
  8
0
 10
109.5978945275926
 20
-15.09393811124165
 30
87.44284888016671
 70
   192
  0
VERTEX
  5
1056
  8
0
 10
109.5154055487089
 20
-15.03167131047021
 30
88.56203772136483
 70
   192
  0
VERTEX
  5
1057
  8
0
 10
109.6374940092009
 20
-15.00552890245664
 30
89.65157131785632
 70
   192
  0
VERTEX
  5
1058
  8
0
 10
109.9594225316265
 20
-15.01450589496292
 30
90.71128449951605
 70
   192
  0
VERTEX
  5
1059
  8
0
 10
110.5435202223532
 20
-13.9670711712648
 30
90.46706091258318
 70
   192
  0
VERTEX
  5
105A
  8
0
 10
111.4649652518132
 20
-13.25965579552254
 30
90.08178527491336
 70
   192
  0
VERTEX
  5
105B
  8
0
 10
0.0
 20
0.0
 30
0.0
 70
   128
 71
     8
 72
     7
 73
     6
  0
VERTEX
  5
105C
  8
0
 10
0.0
 20
0.0
 30
0.0
 70
   128
 71
     6
 72
    11
 73
     9
  0
VERTEX
  5
105D
  8
0
 10
0.0
 20
0.0
 30
0.0
 70
   128
 71
     6
 72
     9
 73
     8
  0
VERTEX
  5
105E
  8
0
 10
0.0
 20
0.0
 30
0.0
 70
   128
 71
    11
 72
    10
 73
     9
  0
VERTEX
  5
105F
  8
0
 10
0.0
 20
0.0
 30
0.0
 70
   128
 71
     6
 72
     5
 73
    12
  0
VERTEX
  5
1060
  8
0
 10
0.0
 20
0.0
 30
0.0
 70
   128
 71
     6
 72
    12
 73
    11
  0
VERTEX
  5
1061
  8
0
 10
0.0
 20
0.0
 30
0.0
 70
   128
 71
     2
 72
     1
 73
    12
  0
VERTEX
  5
1062
  8
0
 10
0.0
 20
0.0
 30
0.0
 70
   128
 71
    12
 72
     3
 73
     2
  0
VERTEX
  5
1063
  8
0
 10
0.0
 20
0.0
 30
0.0
 70
   128
 71
    12
 72
     5
 73
     4
  0
VERTEX
  5
1064
  8
0
 10
0.0
 20
0.0
 30
0.0
 70
   128
 71
    12
 72
     4
 73
     3
  0
SEQEND
  5
12A0
  8
0
  0
POLYLINE
  5
1065
  8
0
 66
     1
 10
0.0
 20
0.0
 30
0.0
 70
    64
 71
    12
 72
    10
  0
VERTEX
  5
1066
  8
0
 10
112.403293978594
 20
-13.01
 30
87.9818892648193
 70
   192
  0
VERTEX
  5
1067
  8
0
 10
112.8644413877359
 20
-13.01
 30
85.062161678827
 70
   192
  0
VERTEX
  5
1068
  8
0
 10
113.1349732306721
 20
-13.01
 30
82.12469580031595
 70
   192
  0
VERTEX
  5
1069
  8
0
 10
113.2232848745148
 20
-13.01
 30
79.1702728848815
 70
   192
  0
VERTEX
  5
106A
  8
0
 10
111.8768873339134
 20
-13.32910207902976
 30
79.1702728848815
 70
   192
  0
VERTEX
  5
106B
  8
0
 10
110.8169152962497
 20
-14.21852422489163
 30
79.1702728848815
 70
   192
  0
VERTEX
  5
106C
  8
0
 10
110.2688616154782
 20
-15.4890554669992
 30
79.1702728848815
 70
   192
  0
VERTEX
  5
106D
  8
0
 10
110.2110404706776
 20
-15.3520608090451
 30
81.9769286968683
 70
   192
  0
VERTEX
  5
106E
  8
0
 10
109.9818112771816
 20
-15.21777164161036
 30
84.78990860033296
 70
   192
  0
VERTEX
  5
106F
  8
0
 10
109.5978945275927
 20
-15.09393811124158
 30
87.44284888016509
 70
   192
  0
VERTEX
  5
1070
  8
0
 10
110.2088570638313
 20
-14.00833572332512
 30
87.56024160312505
 70
   192
  0
VERTEX
  5
1071
  8
0
 10
111.2015513659361
 20
-13.27093146945668
 30
87.75098175539097
 70
   192
  0
VERTEX
  5
1072
  8
0
 10
0.0
 20
0.0
 30
0.0
 70
   128
 71
     8
 72
     7
 73
     6
  0
VERTEX
  5
1073
  8
0
 10
0.0
 20
0.0
 30
0.0
 70
   128
 71
     8
 72
     6
 73
    11
  0
VERTEX
  5
1074
  8
0
 10
0.0
 20
0.0
 30
0.0
 70
   128
 71
    11
 72
     9
 73
     8
  0
VERTEX
  5
1075
  8
0
 10
0.0
 20
0.0
 30
0.0
 70
   128
 71
    11
 72
    10
 73
     9
  0
VERTEX
  5
1076
  8
0
 10
0.0
 20
0.0
 30
0.0
 70
   128
 71
     6
 72
     5
 73
    12
  0
VERTEX
  5
1077
  8
0
 10
0.0
 20
0.0
 30
0.0
 70
   128
 71
     6
 72
    12
 73
    11
  0
VERTEX
  5
1078
  8
0
 10
0.0
 20
0.0
 30
0.0
 70
   128
 71
     2
 72
     1
 73
    12
  0
VERTEX
  5
1079
  8
0
 10
0.0
 20
0.0
 30
0.0
 70
   128
 71
    12
 72
     3
 73
     2
  0
VERTEX
  5
107A
  8
0
 10
0.0
 20
0.0
 30
0.0
 70
   128
 71
    12
 72
     5
 73
     4
  0
VERTEX
  5
107B
  8
0
 10
0.0
 20
0.0
 30
0.0
 70
   128
 71
    12
 72
     4
 73
     3
  0
SEQEND
  5
12A1
  8
0
  0
POLYLINE
  5
107C
  8
0
 66
     1
 10
0.0
 20
0.0
 30
0.0
 70
    64
 71
     8
 72
     6
  0
VERTEX
  5
107D
  8
0
 10
111.8768873339134
 20
-13.32910207902976
 30
79.1702728848815
 70
   192
  0
VERTEX
  5
107E
  8
0
 10
110.8169152962497
 20
-14.21852422489163
 30
79.1702728848815
 70
   192
  0
VERTEX
  5
107F
  8
0
 10
110.8169152962497
 20
-14.21852422489165
 30
-79.18084237028941
 70
   192
  0
VERTEX
  5
1080
  8
0
 10
111.8768873339134
 20
-13.32910207902976
 30
-79.1808423702894
 70
   192
  0
VERTEX
  5
1081
  8
0
 10
110.2688616154782
 20
-15.4890554669992
 30
79.1702728848815
 70
   192
  0
VERTEX
  5
1082
  8
0
 10
110.268861615478
 20
-15.4890554669992
 30
-79.1808423702894
 70
   192
  0
VERTEX
  5
1083
  8
0
 10
113.2232848745148
 20
-13.01
 30
79.1702728848815
 70
   192
  0
VERTEX
  5
1084
  8
0
 10
113.2232848745148
 20
-13.01
 30
-79.1808423702894
 70
   192
  0
VERTEX
  5
1085
  8
0
 10
0.0
 20
0.0
 30
0.0
 70
   128
 71
     1
 72
     2
 73
    -3
  0
VERTEX
  5
1086
  8
0
 10
0.0
 20
0.0
 30
0.0
 70
   128
 71
     4
 72
    -1
 73
     3
  0
VERTEX
  5
1087
  8
0
 10
0.0
 20
0.0
 30
0.0
 70
   128
 71
     2
 72
     5
 73
    -6
  0
VERTEX
  5
1088
  8
0
 10
0.0
 20
0.0
 30
0.0
 70
   128
 71
     3
 72
    -2
 73
     6
  0
VERTEX
  5
1089
  8
0
 10
0.0
 20
0.0
 30
0.0
 70
   128
 71
     7
 72
     1
 73
    -4
  0
VERTEX
  5
108A
  8
0
 10
0.0
 20
0.0
 30
0.0
 70
   128
 71
     8
 72
    -7
 73
     4
  0
SEQEND
  5
12A2
  8
0
  0
POLYLINE
  5
108B
  8
0
 66
     1
 10
0.0
 20
0.0
 30
0.0
 70
    64
 71
    12
 72
    10
  0
VERTEX
  5
108C
  8
0
 10
113.2232848745148
 20
-13.01
 30
-79.1808423702894
 70
   192
  0
VERTEX
  5
108D
  8
0
 10
113.1351292142901
 20
-13.01
 30
-82.13179847107817
 70
   192
  0
VERTEX
  5
108E
  8
0
 10
112.8650870700775
 20
-13.01
 30
-85.065839873799
 70
   192
  0
VERTEX
  5
108F
  8
0
 10
112.4047956965686
 20
-13.01
 30
-87.98218887738909
 70
   192
  0
VERTEX
  5
1090
  8
0
 10
111.2028569641805
 20
-13.27100656899719
 30
-87.75141134705162
 70
   192
  0
VERTEX
  5
1091
  8
0
 10
110.210060834916
 20
-14.00860998994895
 30
-87.56079011764416
 70
   192
  0
VERTEX
  5
1092
  8
0
 10
109.5991581830504
 20
-15.0944640373998
 30
-87.44349411787721
 70
   192
  0
VERTEX
  5
1093
  8
0
 10
109.9821734270435
 20
-15.2181350952638
 30
-84.79549913508913
 70
   192
  0
VERTEX
  5
1094
  8
0
 10
110.2109811297497
 20
-15.35209010371048
 30
-81.98748472809729
 70
   192
  0
VERTEX
  5
1095
  8
0
 10
110.2688616154782
 20
-15.48905546699923
 30
-79.18084237028941
 70
   192
  0
VERTEX
  5
1096
  8
0
 10
110.8169152962497
 20
-14.21852422489165
 30
-79.18084237028941
 70
   192
  0
VERTEX
  5
1097
  8
0
 10
111.8768873339134
 20
-13.32910207902976
 30
-79.1808423702894
 70
   192
  0
VERTEX
  5
1098
  8
0
 10
0.0
 20
0.0
 30
0.0
 70
   128
 71
     8
 72
     7
 73
     6
  0
VERTEX
  5
1099
  8
0
 10
0.0
 20
0.0
 30
0.0
 70
   128
 71
     6
 72
     9
 73
     8
  0
VERTEX
  5
109A
  8
0
 10
0.0
 20
0.0
 30
0.0
 70
   128
 71
     6
 72
    11
 73
    10
  0
VERTEX
  5
109B
  8
0
 10
0.0
 20
0.0
 30
0.0
 70
   128
 71
     6
 72
    10
 73
     9
  0
VERTEX
  5
109C
  8
0
 10
0.0
 20
0.0
 30
0.0
 70
   128
 71
     6
 72
     5
 73
    12
  0
VERTEX
  5
109D
  8
0
 10
0.0
 20
0.0
 30
0.0
 70
   128
 71
     6
 72
    12
 73
    11
  0
VERTEX
  5
109E
  8
0
 10
0.0
 20
0.0
 30
0.0
 70
   128
 71
     2
 72
     1
 73
    12
  0
VERTEX
  5
109F
  8
0
 10
0.0
 20
0.0
 30
0.0
 70
   128
 71
     2
 72
    12
 73
     5
  0
VERTEX
  5
10A0
  8
0
 10
0.0
 20
0.0
 30
0.0
 70
   128
 71
     5
 72
     3
 73
     2
  0
VERTEX
  5
10A1
  8
0
 10
0.0
 20
0.0
 30
0.0
 70
   128
 71
     5
 72
     4
 73
     3
  0
SEQEND
  5
12A3
  8
0
  0
POLYLINE
  5
10A2
  8
0
 66
     1
 10
0.0
 20
0.0
 30
0.0
 70
    64
 71
    12
 72
    10
  0
VERTEX
  5
10A3
  8
0
 10
112.4047956965686
 20
-13.01
 30
-87.98218887738909
 70
   192
  0
VERTEX
  5
10A4
  8
0
 10
112.3527545273411
 20
-13.01
 30
-88.53410554944051
 70
   192
  0
VERTEX
  5
10A5
  8
0
 10
112.4087432212572
 20
-13.01
 30
-89.0871277724215
 70
   192
  0
VERTEX
  5
10A6
  8
0
 10
112.5719715628876
 20
-13.01
 30
-89.61958178371852
 70
   192
  0
VERTEX
  5
10A7
  8
0
 10
111.46637890209
 20
-13.25973064329294
 30
-90.08184073057481
 70
   192
  0
VERTEX
  5
10A8
  8
0
 10
110.5448531522264
 20
-13.96734564370543
 30
-90.46713952798689
 70
   192
  0
VERTEX
  5
10A9
  8
0
 10
109.9608164588464
 20
-15.0150362350663
 30
-90.7113308982629
 70
   192
  0
VERTEX
  5
10AA
  8
0
 10
109.6375503384094
 20
-15.00604725216548
 30
-89.64629468317793
 70
   192
  0
VERTEX
  5
10AB
  8
0
 10
109.5170003598662
 20
-15.03259435631582
 30
-88.55660604413025
 70
   192
  0
VERTEX
  5
10AC
  8
0
 10
109.5991581830505
 20
-15.09446403739982
 30
-87.44349411787717
 70
   192
  0
VERTEX
  5
10AD
  8
0
 10
110.210060834916
 20
-14.00860998994895
 30
-87.56079011764416
 70
   192
  0
VERTEX
  5
10AE
  8
0
 10
111.2028569641805
 20
-13.27100656899719
 30
-87.75141134705162
 70
   192
  0
VERTEX
  5
10AF
  8
0
 10
0.0
 20
0.0
 30
0.0
 70
   128
 71
     8
 72
     7
 73
     6
  0
VERTEX
  5
10B0
  8
0
 10
0.0
 20
0.0
 30
0.0
 70
   128
 71
     6
 72
    11
 73
     9
  0
VERTEX
  5
10B1
  8
0
 10
0.0
 20
0.0
 30
0.0
 70
   128
 71
     6
 72
     9
 73
     8
  0
VERTEX
  5
10B2
  8
0
 10
0.0
 20
0.0
 30
0.0
 70
   128
 71
    11
 72
    10
 73
     9
  0
VERTEX
  5
10B3
  8
0
 10
0.0
 20
0.0
 30
0.0
 70
   128
 71
     6
 72
     5
 73
    12
  0
VERTEX
  5
10B4
  8
0
 10
0.0
 20
0.0
 30
0.0
 70
   128
 71
     6
 72
    12
 73
    11
  0
VERTEX
  5
10B5
  8
0
 10
0.0
 20
0.0
 30
0.0
 70
   128
 71
     2
 72
     1
 73
    12
  0
VERTEX
  5
10B6
  8
0
 10
0.0
 20
0.0
 30
0.0
 70
   128
 71
     2
 72
    12
 73
     5
  0
VERTEX
  5
10B7
  8
0
 10
0.0
 20
0.0
 30
0.0
 70
   128
 71
     5
 72
     3
 73
     2
  0
VERTEX
  5
10B8
  8
0
 10
0.0
 20
0.0
 30
0.0
 70
   128
 71
     5
 72
     4
 73
     3
  0
SEQEND
  5
12A4
  8
0
  0
POLYLINE
  5
10B9
  8
0
 66
     1
 10
0.0
 20
0.0
 30
0.0
 70
    64
 71
     9
 72
     7
  0
VERTEX
  5
10BA
  8
0
 10
112.5719715628876
 20
-13.01
 30
-89.61958178371852
 70
   192
  0
VERTEX
  5
10BB
  8
0
 10
113.1230351973791
 20
-13.62460140147285
 30
-92.02128668566688
 70
   192
  0
VERTEX
  5
10BC
  8
0
 10
113.8900075125819
 20
-15.26651650465825
 30
-93.79968912842195
 70
   192
  0
VERTEX
  5
10BD
  8
0
 10
114.7966814117372
 20
-17.5742212862617
 30
-94.60055527417721
 70
   192
  0
VERTEX
  5
10BE
  8
0
 10
112.8126484785317
 20
-16.30075556857295
 30
-94.02397840305497
 70
   192
  0
VERTEX
  5
10BF
  8
0
 10
111.14531363815
 20
-15.39622580938823
 30
-92.66638729232818
 70
   192
  0
VERTEX
  5
10C0
  8
0
 10
109.9608164588464
 20
-15.0150362350663
 30
-90.71133089826291
 70
   192
  0
VERTEX
  5
10C1
  8
0
 10
110.5448531522264
 20
-13.96734564370543
 30
-90.46713952798689
 70
   192
  0
VERTEX
  5
10C2
  8
0
 10
111.46637890209
 20
-13.25973064329294
 30
-90.08184073057481
 70
   192
  0
VERTEX
  5
10C3
  8
0
 10
0.0
 20
0.0
 30
0.0
 70
   128
 71
     5
 72
     4
 73
     8
  0
VERTEX
  5
10C4
  8
0
 10
0.0
 20
0.0
 30
0.0
 70
   128
 71
     8
 72
     7
 73
     5
  0
VERTEX
  5
10C5
  8
0
 10
0.0
 20
0.0
 30
0.0
 70
   128
 71
     7
 72
     6
 73
     5
  0
VERTEX
  5
10C6
  8
0
 10
0.0
 20
0.0
 30
0.0
 70
   128
 71
     4
 72
     9
 73
     8
  0
VERTEX
  5
10C7
  8
0
 10
0.0
 20
0.0
 30
0.0
 70
   128
 71
     2
 72
     1
 73
     9
  0
VERTEX
  5
10C8
  8
0
 10
0.0
 20
0.0
 30
0.0
 70
   128
 71
     9
 72
     3
 73
     2
  0
VERTEX
  5
10C9
  8
0
 10
0.0
 20
0.0
 30
0.0
 70
   128
 71
     9
 72
     4
 73
     3
  0
SEQEND
  5
12A5
  8
0
  0
POLYLINE
  5
10CA
  8
0
 66
     1
 10
0.0
 20
0.0
 30
0.0
 70
    64
 71
     9
 72
     7
  0
VERTEX
  5
10CB
  8
0
 10
-578.703250609701
 20
-13.01
 30
-88.70325060970102
 70
   192
  0
VERTEX
  5
10CC
  8
0
 10
-579.1778382641063
 20
-13.72914937162974
 30
-91.55150120518087
 70
   192
  0
VERTEX
  5
10CD
  8
0
 10
-579.5456635714295
 20
-15.77764028393497
 30
-93.75813347386546
 70
   192
  0
VERTEX
  5
10CE
  8
0
 10
-579.6994453077931
 20
-18.48706554351406
 30
-94.68041879825142
 70
   192
  0
VERTEX
  5
10CF
  8
0
 10
-582.1790731773065
 20
-18.3296068905803
 30
-94.00055156729344
 70
   192
  0
VERTEX
  5
10D0
  8
0
 10
-584.0005515672939
 20
-18.3296068905803
 30
-92.17907317730611
 70
   192
  0
VERTEX
  5
10D1
  8
0
 10
-584.680418798252
 20
-18.48706554351405
 30
-89.6994453077927
 70
   192
  0
VERTEX
  5
10D2
  8
0
 10
-583.7581337110666
 20
-15.77766081263705
 30
-89.54566754672041
 70
   192
  0
VERTEX
  5
10D3
  8
0
 10
-581.5515887507589
 20
-13.72918873963531
 30
-89.17784388592773
 70
   192
  0
VERTEX
  5
10D4
  8
0
 10
0.0
 20
0.0
 30
0.0
 70
   128
 71
     5
 72
     4
 73
     3
  0
VERTEX
  5
10D5
  8
0
 10
0.0
 20
0.0
 30
0.0
 70
   128
 71
     3
 72
     8
 73
     6
  0
VERTEX
  5
10D6
  8
0
 10
0.0
 20
0.0
 30
0.0
 70
   128
 71
     3
 72
     6
 73
     5
  0
VERTEX
  5
10D7
  8
0
 10
0.0
 20
0.0
 30
0.0
 70
   128
 71
     8
 72
     7
 73
     6
  0
VERTEX
  5
10D8
  8
0
 10
0.0
 20
0.0
 30
0.0
 70
   128
 71
     3
 72
     2
 73
     9
  0
VERTEX
  5
10D9
  8
0
 10
0.0
 20
0.0
 30
0.0
 70
   128
 71
     3
 72
     9
 73
     8
  0
VERTEX
  5
10DA
  8
0
 10
0.0
 20
0.0
 30
0.0
 70
   128
 71
     2
 72
     1
 73
     9
  0
SEQEND
  5
12A6
  8
0
  0
POLYLINE
  5
10DB
  8
0
 66
     1
 10
0.0
 20
0.0
 30
0.0
 70
    64
 71
     8
 72
     6
  0
VERTEX
  5
10DC
  8
0
 10
-197.9679299824655
 20
-15.71294613157515
 30
-93.71617747817872
 70
   192
  0
VERTEX
  5
10DD
  8
0
 10
-197.9679299824655
 20
-13.72879165291933
 30
-91.55085282818695
 70
   192
  0
VERTEX
  5
10DE
  8
0
 10
-579.1778382641063
 20
-13.72914937162974
 30
-91.55150120518087
 70
   192
  0
VERTEX
  5
10DF
  8
0
 10
-197.9679299824655
 20
-13.00999999999999
 30
-88.7032506097011
 70
   192
  0
VERTEX
  5
10E0
  8
0
 10
-578.703250609701
 20
-13.01
 30
-88.70325060970102
 70
   192
  0
VERTEX
  5
10E1
  8
0
 10
-197.9679299824655
 20
-18.48706554351405
 30
-94.68041879825157
 70
   192
  0
VERTEX
  5
10E2
  8
0
 10
-579.5456635714295
 20
-15.77764028393497
 30
-93.75813347386546
 70
   192
  0
VERTEX
  5
10E3
  8
0
 10
-579.6994453077931
 20
-18.48706554351405
 30
-94.6804187982514
 70
   192
  0
VERTEX
  5
10E4
  8
0
 10
0.0
 20
0.0
 30
0.0
 70
   128
 71
     1
 72
     2
 73
     3
  0
VERTEX
  5
10E5
  8
0
 10
0.0
 20
0.0
 30
0.0
 70
   128
 71
     2
 72
     4
 73
     5
  0
VERTEX
  5
10E6
  8
0
 10
0.0
 20
0.0
 30
0.0
 70
   128
 71
     6
 72
     1
 73
     7
  0
VERTEX
  5
10E7
  8
0
 10
0.0
 20
0.0
 30
0.0
 70
   128
 71
     3
 72
     2
 73
     5
  0
VERTEX
  5
10E8
  8
0
 10
0.0
 20
0.0
 30
0.0
 70
   128
 71
     7
 72
     1
 73
     3
  0
VERTEX
  5
10E9
  8
0
 10
0.0
 20
0.0
 30
0.0
 70
   128
 71
     8
 72
     6
 73
     7
  0
SEQEND
  5
12A7
  8
0
  0
POLYLINE
  5
10EA
  8
0
 66
     1
 10
0.0
 20
0.0
 30
0.0
 70
    64
 71
     8
 72
     6
  0
VERTEX
  5
10EB
  8
0
 10
-581.5515887507589
 20
-13.72918873963531
 30
-89.17784388592773
 70
   192
  0
VERTEX
  5
10EC
  8
0
 10
-578.703250609701
 20
-13.01
 30
-88.70325060970102
 70
   192
  0
VERTEX
  5
10ED
  8
0
 10
-578.703250609701
 20
-13.01
 30
88.7032506097012
 70
   192
  0
VERTEX
  5
10EE
  8
0
 10
-581.5508462296145
 20
-13.72880466899905
 30
89.17784987968584
 70
   192
  0
VERTEX
  5
10EF
  8
0
 10
-583.7581337110666
 20
-15.77766081263705
 30
-89.54566754672041
 70
   192
  0
VERTEX
  5
10F0
  8
0
 10
-583.7161650860224
 20
-15.71295383978829
 30
89.53873635575512
 70
   192
  0
VERTEX
  5
10F1
  8
0
 10
-584.680418798252
 20
-18.48706554351405
 30
89.699445307793
 70
   192
  0
VERTEX
  5
10F2
  8
0
 10
-584.680418798252
 20
-18.48706554351405
 30
-89.6994453077927
 70
   192
  0
VERTEX
  5
10F3
  8
0
 10
0.0
 20
0.0
 30
0.0
 70
   128
 71
     1
 72
     2
 73
     3
  0
VERTEX
  5
10F4
  8
0
 10
0.0
 20
0.0
 30
0.0
 70
   128
 71
     4
 72
     1
 73
     3
  0
VERTEX
  5
10F5
  8
0
 10
0.0
 20
0.0
 30
0.0
 70
   128
 71
     5
 72
     1
 73
     4
  0
VERTEX
  5
10F6
  8
0
 10
0.0
 20
0.0
 30
0.0
 70
   128
 71
     6
 72
     5
 73
     4
  0
VERTEX
  5
10F7
  8
0
 10
0.0
 20
0.0
 30
0.0
 70
   128
 71
     5
 72
     6
 73
     7
  0
VERTEX
  5
10F8
  8
0
 10
0.0
 20
0.0
 30
0.0
 70
   128
 71
     7
 72
     8
 73
     5
  0
SEQEND
  5
12A8
  8
0
  0
POLYLINE
  5
10F9
  8
0
 66
     1
 10
0.0
 20
0.0
 30
0.0
 70
    64
 71
     9
 72
     7
  0
VERTEX
  5
10FA
  8
0
 10
-197.5414488698618
 20
-13.02534568115537
 30
-88.65823345156556
 70
   192
  0
VERTEX
  5
10FB
  8
0
 10
-197.5421986608846
 20
-13.02512298857988
 30
-88.7032506097011
 70
   192
  0
VERTEX
  5
10FC
  8
0
 10
-197.1186134492752
 20
-13.07041571939166
 30
-88.7032506097011
 70
   192
  0
VERTEX
  5
10FD
  8
0
 10
-196.6993096390765
 20
-13.14564987195174
 30
-88.7032506097011
 70
   192
  0
VERTEX
  5
10FE
  8
0
 10
-196.6985364486231
 20
-13.14598765950801
 30
-88.65853677742562
 70
   192
  0
VERTEX
  5
10FF
  8
0
 10
-197.1171493049823
 20
-13.0713042279781
 30
-88.61344656641512
 70
   192
  0
VERTEX
  5
1100
  8
0
 10
-196.6978337813981
 20
-13.1466512318348
 30
-88.61382542930004
 70
   192
  0
VERTEX
  5
1101
  8
0
 10
-196.6972016764392
 20
-13.1476405520663
 30
-88.56911904933621
 70
   192
  0
VERTEX
  5
1102
  8
0
 10
-197.9679299824655
 20
-13.00999999999999
 30
-88.7032506097011
 70
   192
  0
VERTEX
  5
1103
  8
0
 10
0.0
 20
0.0
 30
0.0
 70
   128
 71
     1
 72
     2
 73
     3
  0
VERTEX
  5
1104
  8
0
 10
0.0
 20
0.0
 30
0.0
 70
   128
 71
     3
 72
     4
 73
     5
  0
VERTEX
  5
1105
  8
0
 10
0.0
 20
0.0
 30
0.0
 70
   128
 71
     6
 72
     3
 73
     5
  0
VERTEX
  5
1106
  8
0
 10
0.0
 20
0.0
 30
0.0
 70
   128
 71
     5
 72
     7
 73
     6
  0
VERTEX
  5
1107
  8
0
 10
0.0
 20
0.0
 30
0.0
 70
   128
 71
     6
 72
     7
 73
     8
  0
VERTEX
  5
1108
  8
0
 10
0.0
 20
0.0
 30
0.0
 70
   128
 71
     1
 72
     3
 73
     6
  0
VERTEX
  5
1109
  8
0
 10
0.0
 20
0.0
 30
0.0
 70
   128
 71
     9
 72
     2
 73
     1
  0
SEQEND
  5
12A9
  8
0
  0
POLYLINE
  5
110A
  8
0
 66
     1
 10
0.0
 20
0.0
 30
0.0
 70
    64
 71
     9
 72
     7
  0
VERTEX
  5
110B
  8
0
 10
-579.6994453077931
 20
-18.48706554351405
 30
94.68041879825171
 70
   192
  0
VERTEX
  5
110C
  8
0
 10
-579.5456675454236
 20
-15.77766079754618
 30
93.75813370141015
 70
   192
  0
VERTEX
  5
110D
  8
0
 10
-579.1778438817029
 20
-13.72918872631031
 30
91.55158872605253
 70
   192
  0
VERTEX
  5
110E
  8
0
 10
-578.703250609701
 20
-13.01
 30
88.7032506097012
 70
   192
  0
VERTEX
  5
110F
  8
0
 10
-581.5508462296145
 20
-13.72880466899905
 30
89.17784987968584
 70
   192
  0
VERTEX
  5
1110
  8
0
 10
-583.7161650860224
 20
-15.71295383978829
 30
89.53873635575512
 70
   192
  0
VERTEX
  5
1111
  8
0
 10
-584.6804187982518
 20
-18.48706554351406
 30
89.699445307793
 70
   192
  0
VERTEX
  5
1112
  8
0
 10
-584.0005515672939
 20
-18.32960689058027
 30
92.17907317730639
 70
   192
  0
VERTEX
  5
1113
  8
0
 10
-582.1790731773065
 20
-18.32960689058027
 30
94.00055156729374
 70
   192
  0
VERTEX
  5
1114
  8
0
 10
0.0
 20
0.0
 30
0.0
 70
   128
 71
     5
 72
     4
 73
     8
  0
VERTEX
  5
1115
  8
0
 10
0.0
 20
0.0
 30
0.0
 70
   128
 71
     8
 72
     6
 73
     5
  0
VERTEX
  5
1116
  8
0
 10
0.0
 20
0.0
 30
0.0
 70
   128
 71
     8
 72
     7
 73
     6
  0
VERTEX
  5
1117
  8
0
 10
0.0
 20
0.0
 30
0.0
 70
   128
 71
     4
 72
     9
 73
     8
  0
VERTEX
  5
1118
  8
0
 10
0.0
 20
0.0
 30
0.0
 70
   128
 71
     2
 72
     1
 73
     9
  0
VERTEX
  5
1119
  8
0
 10
0.0
 20
0.0
 30
0.0
 70
   128
 71
     9
 72
     3
 73
     2
  0
VERTEX
  5
111A
  8
0
 10
0.0
 20
0.0
 30
0.0
 70
   128
 71
     9
 72
     4
 73
     3
  0
SEQEND
  5
12AA
  8
0
  0
POLYLINE
  5
111B
  8
0
 66
     1
 10
0.0
 20
0.0
 30
0.0
 70
    64
 71
    12
 72
    10
  0
VERTEX
  5
111C
  8
0
 10
-197.9679299824655
 20
-13.01
 30
-88.7032506097011
 70
   192
  0
VERTEX
  5
111D
  8
0
 10
-201.4408935123094
 20
-13.01
 30
-29.60747911691055
 70
   192
  0
VERTEX
  5
111E
  8
0
 10
-201.4486658974484
 20
-13.01000000000001
 30
29.6045368073831
 70
   192
  0
VERTEX
  5
111F
  8
0
 10
-197.983897852126
 20
-13.01000000000001
 30
88.7032506097011
 70
   192
  0
VERTEX
  5
1120
  8
0
 10
-197.5541934366963
 20
-13.02558008722088
 30
88.65772673801982
 70
   192
  0
VERTEX
  5
1121
  8
0
 10
-197.1267206320237
 20
-13.07223943584423
 30
88.61243928830233
 70
   192
  0
VERTEX
  5
1122
  8
0
 10
-196.7036994593025
 20
-13.149735726963
 30
88.56762345468451
 70
   192
  0
VERTEX
  5
1123
  8
0
 10
-198.2604108434996
 20
-13.92039288299058
 30
30.07661946687243
 70
   192
  0
VERTEX
  5
1124
  8
0
 10
-198.2558023571792
 20
-13.91803034314188
 30
-30.07665161112137
 70
   192
  0
VERTEX
  5
1125
  8
0
 10
-196.6972016764395
 20
-13.14764055206623
 30
-88.56911904933627
 70
   192
  0
VERTEX
  5
1126
  8
0
 10
-197.1171493049823
 20
-13.0713042279781
 30
-88.61344656641512
 70
   192
  0
VERTEX
  5
1127
  8
0
 10
-197.5414488698618
 20
-13.02534568115537
 30
-88.65823345156556
 70
   192
  0
VERTEX
  5
1128
  8
0
 10
0.0
 20
0.0
 30
0.0
 70
   128
 71
     8
 72
     7
 73
     6
  0
VERTEX
  5
1129
  8
0
 10
0.0
 20
0.0
 30
0.0
 70
   128
 71
     6
 72
    11
 73
     9
  0
VERTEX
  5
112A
  8
0
 10
0.0
 20
0.0
 30
0.0
 70
   128
 71
     6
 72
     9
 73
     8
  0
VERTEX
  5
112B
  8
0
 10
0.0
 20
0.0
 30
0.0
 70
   128
 71
    11
 72
    10
 73
     9
  0
VERTEX
  5
112C
  8
0
 10
0.0
 20
0.0
 30
0.0
 70
   128
 71
     6
 72
     5
 73
    12
  0
VERTEX
  5
112D
  8
0
 10
0.0
 20
0.0
 30
0.0
 70
   128
 71
     6
 72
    12
 73
    11
  0
VERTEX
  5
112E
  8
0
 10
0.0
 20
0.0
 30
0.0
 70
   128
 71
     2
 72
     1
 73
    12
  0
VERTEX
  5
112F
  8
0
 10
0.0
 20
0.0
 30
0.0
 70
   128
 71
    12
 72
     5
 73
     3
  0
VERTEX
  5
1130
  8
0
 10
0.0
 20
0.0
 30
0.0
 70
   128
 71
    12
 72
     3
 73
     2
  0
VERTEX
  5
1131
  8
0
 10
0.0
 20
0.0
 30
0.0
 70
   128
 71
     5
 72
     4
 73
     3
  0
SEQEND
  5
12AB
  8
0
  0
POLYLINE
  5
1132
  8
0
 66
     1
 10
0.0
 20
0.0
 30
0.0
 70
    64
 71
     8
 72
     6
  0
VERTEX
  5
1133
  8
0
 10
-578.703250609701
 20
-13.01
 30
88.7032506097012
 70
   192
  0
VERTEX
  5
1134
  8
0
 10
-197.983897852126
 20
-13.01
 30
88.70325060970114
 70
   192
  0
VERTEX
  5
1135
  8
0
 10
-197.983897852126
 20
-13.72879165291933
 30
91.55085282818705
 70
   192
  0
VERTEX
  5
1136
  8
0
 10
-197.983897852126
 20
-15.71294613157516
 30
93.71617747817882
 70
   192
  0
VERTEX
  5
1137
  8
0
 10
-579.1778438817029
 20
-13.72918872631031
 30
91.55158872605253
 70
   192
  0
VERTEX
  5
1138
  8
0
 10
-197.983897852126
 20
-18.48706554351404
 30
94.68041879825168
 70
   192
  0
VERTEX
  5
1139
  8
0
 10
-579.5456675454236
 20
-15.77766079754618
 30
93.75813370141015
 70
   192
  0
VERTEX
  5
113A
  8
0
 10
-579.6994453077931
 20
-18.48706554351405
 30
94.68041879825171
 70
   192
  0
VERTEX
  5
113B
  8
0
 10
0.0
 20
0.0
 30
0.0
 70
   128
 71
     1
 72
     2
 73
     3
  0
VERTEX
  5
113C
  8
0
 10
0.0
 20
0.0
 30
0.0
 70
   128
 71
     4
 72
     5
 73
     1
  0
VERTEX
  5
113D
  8
0
 10
0.0
 20
0.0
 30
0.0
 70
   128
 71
     3
 72
     4
 73
     1
  0
VERTEX
  5
113E
  8
0
 10
0.0
 20
0.0
 30
0.0
 70
   128
 71
     6
 72
     7
 73
     5
  0
VERTEX
  5
113F
  8
0
 10
0.0
 20
0.0
 30
0.0
 70
   128
 71
     4
 72
     6
 73
     5
  0
VERTEX
  5
1140
  8
0
 10
0.0
 20
0.0
 30
0.0
 70
   128
 71
     6
 72
     8
 73
     7
  0
SEQEND
  5
12AC
  8
0
  0
POLYLINE
  5
1141
  8
0
 66
     1
 10
0.0
 20
0.0
 30
0.0
 70
    64
 71
     9
 72
     7
  0
VERTEX
  5
1142
  8
0
 10
-197.1282098684426
 20
-13.07133027736178
 30
88.7032506097011
 70
   192
  0
VERTEX
  5
1143
  8
0
 10
-196.7058423106091
 20
-13.14769891315722
 30
88.7032506097011
 70
   192
  0
VERTEX
  5
1144
  8
0
 10
-196.911262820861
 20
-13.84054157761375
 30
91.55389153919799
 70
   192
  0
VERTEX
  5
1145
  8
0
 10
-197.3743654913339
 20
-15.77525792195797
 30
93.71971490138021
 70
   192
  0
VERTEX
  5
1146
  8
0
 10
-197.983897852126
 20
-13.72879165291933
 30
91.55085282818705
 70
   192
  0
VERTEX
  5
1147
  8
0
 10
-197.983897852126
 20
-13.00999999999999
 30
88.7032506097011
 70
   192
  0
VERTEX
  5
1148
  8
0
 10
-197.5549563268742
 20
-13.02535221020362
 30
88.7032506097011
 70
   192
  0
VERTEX
  5
1149
  8
0
 10
-197.983897852126
 20
-18.48706554351405
 30
94.68041879825157
 70
   192
  0
VERTEX
  5
114A
  8
0
 10
-197.983897852126
 20
-15.71294613157516
 30
93.71617747817882
 70
   192
  0
VERTEX
  5
114B
  8
0
 10
0.0
 20
0.0
 30
0.0
 70
   128
 71
     1
 72
     2
 73
     3
  0
VERTEX
  5
114C
  8
0
 10
0.0
 20
0.0
 30
0.0
 70
   128
 71
     3
 72
     4
 73
     1
  0
VERTEX
  5
114D
  8
0
 10
0.0
 20
0.0
 30
0.0
 70
   128
 71
     5
 72
     6
 73
     7
  0
VERTEX
  5
114E
  8
0
 10
0.0
 20
0.0
 30
0.0
 70
   128
 71
     7
 72
     1
 73
     4
  0
VERTEX
  5
114F
  8
0
 10
0.0
 20
0.0
 30
0.0
 70
   128
 71
     4
 72
     8
 73
     9
  0
VERTEX
  5
1150
  8
0
 10
0.0
 20
0.0
 30
0.0
 70
   128
 71
     5
 72
     7
 73
     4
  0
VERTEX
  5
1151
  8
0
 10
0.0
 20
0.0
 30
0.0
 70
   128
 71
     9
 72
     5
 73
     4
  0
SEQEND
  5
12AD
  8
0
  0
POLYLINE
  5
1152
  8
0
 66
     1
 10
0.0
 20
0.0
 30
0.0
 70
    64
 71
    12
 72
    10
  0
VERTEX
  5
1153
  8
0
 10
-78.56687915097329
 20
-45.3258814981247
 30
-87.0503571328791
 70
   192
  0
VERTEX
  5
1154
  8
0
 10
-75.97137872687115
 20
-45.33410314674372
 30
-87.64897917834928
 70
   192
  0
VERTEX
  5
1155
  8
0
 10
-73.32012374928618
 20
-45.34227993236154
 30
-88.22640196428212
 70
   192
  0
VERTEX
  5
1156
  8
0
 10
-70.61310530574929
 20
-45.35037988816964
 30
-88.78254196037804
 70
   192
  0
VERTEX
  5
1157
  8
0
 10
-70.65582723315366
 20
-45.16124727359876
 30
-88.99401625723361
 70
   192
  0
VERTEX
  5
1158
  8
0
 10
-70.70742497357915
 20
-45.04115884360306
 30
-89.24942598565106
 70
   192
  0
VERTEX
  5
1159
  8
0
 10
-70.7636511203689
 20
-45.0
 30
-89.52774640749709
 70
   192
  0
VERTEX
  5
115A
  8
0
 10
-72.1431361856383
 20
-45.00000000000001
 30
-89.24485270132152
 70
   192
  0
VERTEX
  5
115B
  8
0
 10
-73.52088321963905
 20
-45.0
 30
-88.95373570880443
 70
   192
  0
VERTEX
  5
115C
  8
0
 10
-74.8968457938705
 20
-45.0
 30
-88.6541757590637
 70
   192
  0
VERTEX
  5
115D
  8
0
 10
-76.11922813210519
 20
-45.03695903183393
 30
-88.10485416600434
 70
   192
  0
VERTEX
  5
115E
  8
0
 10
-77.33589579452375
 20
-45.14677129231385
 30
-87.56569515074187
 70
   192
  0
VERTEX
  5
115F
  8
0
 10
0.0
 20
0.0
 30
0.0
 70
   128
 71
     8
 72
     7
 73
     6
  0
VERTEX
  5
1160
  8
0
 10
0.0
 20
0.0
 30
0.0
 70
   128
 71
     8
 72
     6
 73
    11
  0
VERTEX
  5
1161
  8
0
 10
0.0
 20
0.0
 30
0.0
 70
   128
 71
    11
 72
     9
 73
     8
  0
VERTEX
  5
1162
  8
0
 10
0.0
 20
0.0
 30
0.0
 70
   128
 71
    11
 72
    10
 73
     9
  0
VERTEX
  5
1163
  8
0
 10
0.0
 20
0.0
 30
0.0
 70
   128
 71
     6
 72
     5
 73
    12
  0
VERTEX
  5
1164
  8
0
 10
0.0
 20
0.0
 30
0.0
 70
   128
 71
     6
 72
    12
 73
    11
  0
VERTEX
  5
1165
  8
0
 10
0.0
 20
0.0
 30
0.0
 70
   128
 71
     2
 72
     1
 73
    12
  0
VERTEX
  5
1166
  8
0
 10
0.0
 20
0.0
 30
0.0
 70
   128
 71
     2
 72
    12
 73
     5
  0
VERTEX
  5
1167
  8
0
 10
0.0
 20
0.0
 30
0.0
 70
   128
 71
     5
 72
     3
 73
     2
  0
VERTEX
  5
1168
  8
0
 10
0.0
 20
0.0
 30
0.0
 70
   128
 71
     5
 72
     4
 73
     3
  0
SEQEND
  5
12AE
  8
0
  0
POLYLINE
  5
1169
  8
0
 66
     1
 10
0.0
 20
0.0
 30
0.0
 70
    64
 71
    12
 72
    10
  0
VERTEX
  5
116A
  8
0
 10
-70.61310530574931
 20
-45.3503798881697
 30
-88.7825419603781
 70
   192
  0
VERTEX
  5
116B
  8
0
 10
-69.54170600712638
 20
-45.49859426760452
 30
-88.84427321911366
 70
   192
  0
VERTEX
  5
116C
  8
0
 10
-68.33441961435763
 20
-45.66493674542045
 30
-88.86736775877657
 70
   192
  0
VERTEX
  5
116D
  8
0
 10
-67.1594700670487
 20
-45.82635182233319
 30
-88.85429187816506
 70
   192
  0
VERTEX
  5
116E
  8
0
 10
-67.1594700670487
 20
-45.40284140829728
 30
-89.0369764384222
 70
   192
  0
VERTEX
  5
116F
  8
0
 10
-67.1594700670487
 20
-45.1063673596766
 30
-89.3903004509768
 70
   192
  0
VERTEX
  5
1170
  8
0
 10
-67.1594700670487
 20
-45.0
 30
-89.83909963117729
 70
   192
  0
VERTEX
  5
1171
  8
0
 10
-68.36724551604959
 20
-44.99999999999999
 30
-89.80918963076576
 70
   192
  0
VERTEX
  5
1172
  8
0
 10
-69.56924147818931
 20
-45.00000000000001
 30
-89.71237710467263
 70
   192
  0
VERTEX
  5
1173
  8
0
 10
-70.7636511203689
 20
-45.0
 30
-89.52774640749709
 70
   192
  0
VERTEX
  5
1174
  8
0
 10
-70.70742497357915
 20
-45.04115884360306
 30
-89.24942598565106
 70
   192
  0
VERTEX
  5
1175
  8
0
 10
-70.65582723315366
 20
-45.16124727359876
 30
-88.99401625723361
 70
   192
  0
VERTEX
  5
1176
  8
0
 10
0.0
 20
0.0
 30
0.0
 70
   128
 71
     8
 72
     7
 73
     6
  0
VERTEX
  5
1177
  8
0
 10
0.0
 20
0.0
 30
0.0
 70
   128
 71
     8
 72
     6
 73
    11
  0
VERTEX
  5
1178
  8
0
 10
0.0
 20
0.0
 30
0.0
 70
   128
 71
    11
 72
     9
 73
     8
  0
VERTEX
  5
1179
  8
0
 10
0.0
 20
0.0
 30
0.0
 70
   128
 71
    11
 72
    10
 73
     9
  0
VERTEX
  5
117A
  8
0
 10
0.0
 20
0.0
 30
0.0
 70
   128
 71
     6
 72
     5
 73
    12
  0
VERTEX
  5
117B
  8
0
 10
0.0
 20
0.0
 30
0.0
 70
   128
 71
     6
 72
    12
 73
    11
  0
VERTEX
  5
117C
  8
0
 10
0.0
 20
0.0
 30
0.0
 70
   128
 71
     2
 72
     1
 73
    12
  0
VERTEX
  5
117D
  8
0
 10
0.0
 20
0.0
 30
0.0
 70
   128
 71
    12
 72
     3
 73
     2
  0
VERTEX
  5
117E
  8
0
 10
0.0
 20
0.0
 30
0.0
 70
   128
 71
    12
 72
     5
 73
     4
  0
VERTEX
  5
117F
  8
0
 10
0.0
 20
0.0
 30
0.0
 70
   128
 71
    12
 72
     4
 73
     3
  0
SEQEND
  5
12AF
  8
0
  0
POLYLINE
  5
1180
  8
0
 66
     1
 10
0.0
 20
0.0
 30
0.0
 70
    64
 71
     8
 72
     6
  0
VERTEX
  5
1181
  8
0
 10
-67.1594700670487
 20
-45.40284140829728
 30
-89.0369764384222
 70
   192
  0
VERTEX
  5
1182
  8
0
 10
-67.1594700670487
 20
-45.1063673596766
 30
-89.3903004509768
 70
   192
  0
VERTEX
  5
1183
  8
0
 10
67.15968619963851
 20
-45.10636735967659
 30
-89.39030045097682
 70
   192
  0
VERTEX
  5
1184
  8
0
 10
67.15968619963851
 20
-45.40284140829723
 30
-89.03697643842223
 70
   192
  0
VERTEX
  5
1185
  8
0
 10
-67.1594700670487
 20
-45.0
 30
-89.83909963117729
 70
   192
  0
VERTEX
  5
1186
  8
0
 10
67.15968619963851
 20
-45.0
 30
-89.83909963117729
 70
   192
  0
VERTEX
  5
1187
  8
0
 10
-67.1594700670487
 20
-45.82635182233319
 30
-88.85429187816506
 70
   192
  0
VERTEX
  5
1188
  8
0
 10
67.15968619963851
 20
-45.82635182233309
 30
-88.85429187816507
 70
   192
  0
VERTEX
  5
1189
  8
0
 10
0.0
 20
0.0
 30
0.0
 70
   128
 71
     1
 72
     2
 73
    -3
  0
VERTEX
  5
118A
  8
0
 10
0.0
 20
0.0
 30
0.0
 70
   128
 71
     4
 72
    -1
 73
     3
  0
VERTEX
  5
118B
  8
0
 10
0.0
 20
0.0
 30
0.0
 70
   128
 71
     2
 72
     5
 73
    -6
  0
VERTEX
  5
118C
  8
0
 10
0.0
 20
0.0
 30
0.0
 70
   128
 71
     3
 72
    -2
 73
     6
  0
VERTEX
  5
118D
  8
0
 10
0.0
 20
0.0
 30
0.0
 70
   128
 71
     7
 72
     1
 73
    -4
  0
VERTEX
  5
118E
  8
0
 10
0.0
 20
0.0
 30
0.0
 70
   128
 71
     8
 72
    -7
 73
     4
  0
SEQEND
  5
12B0
  8
0
  0
POLYLINE
  5
118F
  8
0
 66
     1
 10
0.0
 20
0.0
 30
0.0
 70
    64
 71
    12
 72
    10
  0
VERTEX
  5
1190
  8
0
 10
-70.61310530574931
 20
-45.3503798881697
 30
-88.7825419603781
 70
   192
  0
VERTEX
  5
1191
  8
0
 10
-69.54170600712638
 20
-45.49859426760452
 30
-88.84427321911366
 70
   192
  0
VERTEX
  5
1192
  8
0
 10
-68.33441961435763
 20
-45.66493674542045
 30
-88.86736775877657
 70
   192
  0
VERTEX
  5
1193
  8
0
 10
-67.1594700670487
 20
-45.82635182233319
 30
-88.8542918781651
 70
   192
  0
VERTEX
  5
1194
  8
0
 10
-22.69428830604295
 20
-55.79095581868543
 30
-87.09726334153274
 70
   192
  0
VERTEX
  5
1195
  8
0
 10
22.87130854151022
 20
-55.76717006853733
 30
-87.10145741104027
 70
   192
  0
VERTEX
  5
1196
  8
0
 10
67.15968619963851
 20
-45.8263518223331
 30
-88.8542918781651
 70
   192
  0
VERTEX
  5
1197
  8
0
 10
68.31885993623209
 20
-45.66711267570913
 30
-88.86743277512886
 70
   192
  0
VERTEX
  5
1198
  8
0
 10
69.47270234531263
 20
-45.5080501949774
 30
-88.84697863656575
 70
   192
  0
VERTEX
  5
1199
  8
0
 10
70.6134197823254
 20
-45.3503804580301
 30
-88.7825432760965
 70
   192
  0
VERTEX
  5
119A
  8
0
 10
23.5923191776083
 20
-56.09811737710402
 30
-86.9343458625078
 70
   192
  0
VERTEX
  5
119B
  8
0
 10
-23.96122029628591
 20
-56.04723737968597
 30
-86.94313198133929
 70
   192
  0
VERTEX
  5
119C
  8
0
 10
0.0
 20
0.0
 30
0.0
 70
   128
 71
     6
 72
     7
 73
     8
  0
VERTEX
  5
119D
  8
0
 10
0.0
 20
0.0
 30
0.0
 70
   128
 71
     9
 72
    11
 73
     6
  0
VERTEX
  5
119E
  8
0
 10
0.0
 20
0.0
 30
0.0
 70
   128
 71
     8
 72
     9
 73
     6
  0
VERTEX
  5
119F
  8
0
 10
0.0
 20
0.0
 30
0.0
 70
   128
 71
     9
 72
    10
 73
    11
  0
VERTEX
  5
11A0
  8
0
 10
0.0
 20
0.0
 30
0.0
 70
   128
 71
    12
 72
     5
 73
     6
  0
VERTEX
  5
11A1
  8
0
 10
0.0
 20
0.0
 30
0.0
 70
   128
 71
    11
 72
    12
 73
     6
  0
VERTEX
  5
11A2
  8
0
 10
0.0
 20
0.0
 30
0.0
 70
   128
 71
    12
 72
     1
 73
     2
  0
VERTEX
  5
11A3
  8
0
 10
0.0
 20
0.0
 30
0.0
 70
   128
 71
     3
 72
     5
 73
    12
  0
VERTEX
  5
11A4
  8
0
 10
0.0
 20
0.0
 30
0.0
 70
   128
 71
     2
 72
     3
 73
    12
  0
VERTEX
  5
11A5
  8
0
 10
0.0
 20
0.0
 30
0.0
 70
   128
 71
     3
 72
     4
 73
     5
  0
SEQEND
  5
12B1
  8
0
  0
POLYLINE
  5
11A6
  8
0
 66
     1
 10
0.0
 20
0.0
 30
0.0
 70
    64
 71
    12
 72
    10
  0
VERTEX
  5
11A7
  8
0
 10
67.15968619963851
 20
-45.8263518223331
 30
-88.8542918781651
 70
   192
  0
VERTEX
  5
11A8
  8
0
 10
68.31885993623209
 20
-45.66711267570913
 30
-88.86743277512886
 70
   192
  0
VERTEX
  5
11A9
  8
0
 10
69.47270234531263
 20
-45.5080501949774
 30
-88.84697863656575
 70
   192
  0
VERTEX
  5
11AA
  8
0
 10
70.61341978232531
 20
-45.35038045803013
 30
-88.78254327609656
 70
   192
  0
VERTEX
  5
11AB
  8
0
 10
70.65614026307411
 20
-45.16124754569567
 30
-88.994017934368
 70
   192
  0
VERTEX
  5
11AC
  8
0
 10
70.70773627563118
 20
-45.04115891454727
 30
-89.24942819503045
 70
   192
  0
VERTEX
  5
11AD
  8
0
 10
70.7639605482529
 20
-45.0
 30
-89.5277492398977
 70
   192
  0
VERTEX
  5
11AE
  8
0
 10
69.57101636162182
 20
-44.99999999999999
 30
-89.71219498589187
 70
   192
  0
VERTEX
  5
11AF
  8
0
 10
68.36717727503252
 20
-45.0
 30
-89.80920747020451
 70
   192
  0
VERTEX
  5
11B0
  8
0
 10
67.15968619963851
 20
-45.0
 30
-89.83909963117729
 70
   192
  0
VERTEX
  5
11B1
  8
0
 10
67.15968619963851
 20
-45.10636735967659
 30
-89.39030045097682
 70
   192
  0
VERTEX
  5
11B2
  8
0
 10
67.15968619963851
 20
-45.40284140829723
 30
-89.03697643842223
 70
   192
  0
VERTEX
  5
11B3
  8
0
 10
0.0
 20
0.0
 30
0.0
 70
   128
 71
     8
 72
     7
 73
     6
  0
VERTEX
  5
11B4
  8
0
 10
0.0
 20
0.0
 30
0.0
 70
   128
 71
     6
 72
     9
 73
     8
  0
VERTEX
  5
11B5
  8
0
 10
0.0
 20
0.0
 30
0.0
 70
   128
 71
     6
 72
    11
 73
    10
  0
VERTEX
  5
11B6
  8
0
 10
0.0
 20
0.0
 30
0.0
 70
   128
 71
     6
 72
    10
 73
     9
  0
VERTEX
  5
11B7
  8
0
 10
0.0
 20
0.0
 30
0.0
 70
   128
 71
     6
 72
     5
 73
    12
  0
VERTEX
  5
11B8
  8
0
 10
0.0
 20
0.0
 30
0.0
 70
   128
 71
     6
 72
    12
 73
    11
  0
VERTEX
  5
11B9
  8
0
 10
0.0
 20
0.0
 30
0.0
 70
   128
 71
     2
 72
     1
 73
    12
  0
VERTEX
  5
11BA
  8
0
 10
0.0
 20
0.0
 30
0.0
 70
   128
 71
     2
 72
    12
 73
     5
  0
VERTEX
  5
11BB
  8
0
 10
0.0
 20
0.0
 30
0.0
 70
   128
 71
     5
 72
     3
 73
     2
  0
VERTEX
  5
11BC
  8
0
 10
0.0
 20
0.0
 30
0.0
 70
   128
 71
     5
 72
     4
 73
     3
  0
SEQEND
  5
12B2
  8
0
  0
POLYLINE
  5
11BD
  8
0
 66
     1
 10
0.0
 20
0.0
 30
0.0
 70
    64
 71
    12
 72
    10
  0
VERTEX
  5
11BE
  8
0
 10
74.8973466724933
 20
-45.0
 30
-88.6541669650604
 70
   192
  0
VERTEX
  5
11BF
  8
0
 10
73.52132035708445
 20
-45.00000000000001
 30
-88.9537314249037
 70
   192
  0
VERTEX
  5
11C0
  8
0
 10
72.14350950179278
 20
-45.0
 30
-89.2448522697583
 70
   192
  0
VERTEX
  5
11C1
  8
0
 10
70.7639605482529
 20
-45.0
 30
-89.5277492398977
 70
   192
  0
VERTEX
  5
11C2
  8
0
 10
70.70773627563118
 20
-45.04115891454727
 30
-89.24942819503045
 70
   192
  0
VERTEX
  5
11C3
  8
0
 10
70.65614026307411
 20
-45.16124754569567
 30
-88.994017934368
 70
   192
  0
VERTEX
  5
11C4
  8
0
 10
70.6134197823254
 20
-45.3503804580301
 30
-88.7825432760965
 70
   192
  0
VERTEX
  5
11C5
  8
0
 10
73.32110472804568
 20
-45.34230736452025
 30
-88.22631468773434
 70
   192
  0
VERTEX
  5
11C6
  8
0
 10
75.97245749823009
 20
-45.33414464538853
 30
-87.64889741580626
 70
   192
  0
VERTEX
  5
11C7
  8
0
 10
78.5674772270361
 20
-45.32588148696809
 30
-87.0503510130521
 70
   192
  0
VERTEX
  5
11C8
  8
0
 10
77.33638214395586
 20
-45.14655124881369
 30
-87.5655447758334
 70
   192
  0
VERTEX
  5
11C9
  8
0
 10
76.11978536128736
 20
-45.03689757379637
 30
-88.10474599822797
 70
   192
  0
VERTEX
  5
11CA
  8
0
 10
0.0
 20
0.0
 30
0.0
 70
   128
 71
     8
 72
     7
 73
     6
  0
VERTEX
  5
11CB
  8
0
 10
0.0
 20
0.0
 30
0.0
 70
   128
 71
     6
 72
     9
 73
     8
  0
VERTEX
  5
11CC
  8
0
 10
0.0
 20
0.0
 30
0.0
 70
   128
 71
     6
 72
    11
 73
    10
  0
VERTEX
  5
11CD
  8
0
 10
0.0
 20
0.0
 30
0.0
 70
   128
 71
     6
 72
    10
 73
     9
  0
VERTEX
  5
11CE
  8
0
 10
0.0
 20
0.0
 30
0.0
 70
   128
 71
     6
 72
     5
 73
    12
  0
VERTEX
  5
11CF
  8
0
 10
0.0
 20
0.0
 30
0.0
 70
   128
 71
     6
 72
    12
 73
    11
  0
VERTEX
  5
11D0
  8
0
 10
0.0
 20
0.0
 30
0.0
 70
   128
 71
     2
 72
     1
 73
    12
  0
VERTEX
  5
11D1
  8
0
 10
0.0
 20
0.0
 30
0.0
 70
   128
 71
    12
 72
     3
 73
     2
  0
VERTEX
  5
11D2
  8
0
 10
0.0
 20
0.0
 30
0.0
 70
   128
 71
    12
 72
     5
 73
     4
  0
VERTEX
  5
11D3
  8
0
 10
0.0
 20
0.0
 30
0.0
 70
   128
 71
    12
 72
     4
 73
     3
  0
SEQEND
  5
12B3
  8
0
  0
POLYLINE
  5
11D4
  8
0
 66
     1
 10
0.0
 20
0.0
 30
0.0
 70
    64
 71
    12
 72
    10
  0
VERTEX
  5
11D5
  8
0
 10
78.4578893270123
 20
-45.3258411872368
 30
87.0492813083083
 70
   192
  0
VERTEX
  5
11D6
  8
0
 10
75.84548394110102
 20
-45.3341457326437
 30
87.6483855843476
 70
   192
  0
VERTEX
  5
11D7
  8
0
 10
73.17609763873307
 20
-45.34234655124958
 30
88.2262335149874
 70
   192
  0
VERTEX
  5
11D8
  8
0
 10
70.44972934973087
 20
-45.35045557758339
 30
88.78276655973171
 70
   192
  0
VERTEX
  5
11D9
  8
0
 10
70.49218826521198
 20
-45.16128341407816
 30
88.99430300166419
 70
   192
  0
VERTEX
  5
11DA
  8
0
 10
70.5434709043024
 20
-45.04116826660726
 30
89.24980050750426
 70
   192
  0
VERTEX
  5
11DB
  8
0
 10
70.5993548322854
 20
-45.0
 30
89.5282222983761
 70
   192
  0
VERTEX
  5
11DC
  8
0
 10
71.99053759785382
 20
-45.00000000000001
 30
89.2447406739635
 70
   192
  0
VERTEX
  5
11DD
  8
0
 10
73.3799766690319
 20
-45.0
 30
88.95295797032439
 70
   192
  0
VERTEX
  5
11DE
  8
0
 10
74.7676250941213
 20
-45.0
 30
88.65265066791879
 70
   192
  0
VERTEX
  5
11DF
  8
0
 10
75.99677547046446
 20
-45.03682355816228
 30
88.10344449286823
 70
   192
  0
VERTEX
  5
11E0
  8
0
 10
77.22010263334951
 20
-45.14658613496803
 30
87.56441017329477
 70
   192
  0
VERTEX
  5
11E1
  8
0
 10
0.0
 20
0.0
 30
0.0
 70
   128
 71
     8
 72
     7
 73
     6
  0
VERTEX
  5
11E2
  8
0
 10
0.0
 20
0.0
 30
0.0
 70
   128
 71
     8
 72
     6
 73
    11
  0
VERTEX
  5
11E3
  8
0
 10
0.0
 20
0.0
 30
0.0
 70
   128
 71
    11
 72
     9
 73
     8
  0
VERTEX
  5
11E4
  8
0
 10
0.0
 20
0.0
 30
0.0
 70
   128
 71
    11
 72
    10
 73
     9
  0
VERTEX
  5
11E5
  8
0
 10
0.0
 20
0.0
 30
0.0
 70
   128
 71
     6
 72
     5
 73
    12
  0
VERTEX
  5
11E6
  8
0
 10
0.0
 20
0.0
 30
0.0
 70
   128
 71
     6
 72
    12
 73
    11
  0
VERTEX
  5
11E7
  8
0
 10
0.0
 20
0.0
 30
0.0
 70
   128
 71
     2
 72
     1
 73
    12
  0
VERTEX
  5
11E8
  8
0
 10
0.0
 20
0.0
 30
0.0
 70
   128
 71
     2
 72
    12
 73
     5
  0
VERTEX
  5
11E9
  8
0
 10
0.0
 20
0.0
 30
0.0
 70
   128
 71
     5
 72
     3
 73
     2
  0
VERTEX
  5
11EA
  8
0
 10
0.0
 20
0.0
 30
0.0
 70
   128
 71
     5
 72
     4
 73
     3
  0
SEQEND
  5
12B4
  8
0
  0
POLYLINE
  5
11EB
  8
0
 66
     1
 10
0.0
 20
0.0
 30
0.0
 70
    64
 71
    12
 72
    10
  0
VERTEX
  5
11EC
  8
0
 10
70.449729349731
 20
-45.3504555775834
 30
88.7827665597317
 70
   192
  0
VERTEX
  5
11ED
  8
0
 10
69.37266546876582
 20
-45.49865557437337
 30
88.84436140610815
 70
   192
  0
VERTEX
  5
11EE
  8
0
 10
68.15901197263942
 20
-45.66496806347018
 30
88.8673845879197
 70
   192
  0
VERTEX
  5
11EF
  8
0
 10
66.9778018903279
 20
-45.82635182233308
 30
88.85429187816509
 70
   192
  0
VERTEX
  5
11F0
  8
0
 10
66.9778018903279
 20
-45.40284140829722
 30
89.03697643842224
 70
   192
  0
VERTEX
  5
11F1
  8
0
 10
66.9778018903279
 20
-45.10636735967659
 30
89.39030045097682
 70
   192
  0
VERTEX
  5
11F2
  8
0
 10
66.9778018903279
 20
-45.0
 30
89.83909963117729
 70
   192
  0
VERTEX
  5
11F3
  8
0
 10
68.1913181437739
 20
-45.00000000000001
 30
89.80923752677126
 70
   192
  0
VERTEX
  5
11F4
  8
0
 10
69.39910002323654
 20
-45.0
 30
89.71257306407647
 70
   192
  0
VERTEX
  5
11F5
  8
0
 10
70.59935483228534
 20
-45.0
 30
89.52822229837611
 70
   192
  0
VERTEX
  5
11F6
  8
0
 10
70.5434709043024
 20
-45.04116826660726
 30
89.24980050750426
 70
   192
  0
VERTEX
  5
11F7
  8
0
 10
70.49218826521198
 20
-45.16128341407816
 30
88.99430300166419
 70
   192
  0
VERTEX
  5
11F8
  8
0
 10
0.0
 20
0.0
 30
0.0
 70
   128
 71
     8
 72
     7
 73
     6
  0
VERTEX
  5
11F9
  8
0
 10
0.0
 20
0.0
 30
0.0
 70
   128
 71
     8
 72
     6
 73
    11
  0
VERTEX
  5
11FA
  8
0
 10
0.0
 20
0.0
 30
0.0
 70
   128
 71
    11
 72
     9
 73
     8
  0
VERTEX
  5
11FB
  8
0
 10
0.0
 20
0.0
 30
0.0
 70
   128
 71
    11
 72
    10
 73
     9
  0
VERTEX
  5
11FC
  8
0
 10
0.0
 20
0.0
 30
0.0
 70
   128
 71
     6
 72
     5
 73
    12
  0
VERTEX
  5
11FD
  8
0
 10
0.0
 20
0.0
 30
0.0
 70
   128
 71
     6
 72
    12
 73
    11
  0
VERTEX
  5
11FE
  8
0
 10
0.0
 20
0.0
 30
0.0
 70
   128
 71
     2
 72
     1
 73
    12
  0
VERTEX
  5
11FF
  8
0
 10
0.0
 20
0.0
 30
0.0
 70
   128
 71
    12
 72
     3
 73
     2
  0
VERTEX
  5
1200
  8
0
 10
0.0
 20
0.0
 30
0.0
 70
   128
 71
    12
 72
     5
 73
     4
  0
VERTEX
  5
1201
  8
0
 10
0.0
 20
0.0
 30
0.0
 70
   128
 71
    12
 72
     4
 73
     3
  0
SEQEND
  5
12B5
  8
0
  0
POLYLINE
  5
1202
  8
0
 66
     1
 10
0.0
 20
0.0
 30
0.0
 70
    64
 71
     8
 72
     6
  0
VERTEX
  5
1203
  8
0
 10
66.9778018903279
 20
-45.40284140829722
 30
89.03697643842224
 70
   192
  0
VERTEX
  5
1204
  8
0
 10
66.9778018903279
 20
-45.10636735967659
 30
89.39030045097682
 70
   192
  0
VERTEX
  5
1205
  8
0
 10
-66.9750717708604
 20
-45.10636735967662
 30
89.39030045097687
 70
   192
  0
VERTEX
  5
1206
  8
0
 10
-66.9750717708604
 20
-45.40284140829726
 30
89.03697643842231
 70
   192
  0
VERTEX
  5
1207
  8
0
 10
66.9778018903279
 20
-45.0
 30
89.83909963117729
 70
   192
  0
VERTEX
  5
1208
  8
0
 10
-66.97507177086041
 20
-45.0
 30
89.83909963117729
 70
   192
  0
VERTEX
  5
1209
  8
0
 10
66.9778018903279
 20
-45.82635182233308
 30
88.85429187816509
 70
   192
  0
VERTEX
  5
120A
  8
0
 10
-66.9750717708604
 20
-45.82635182233309
 30
88.85429187816517
 70
   192
  0
VERTEX
  5
120B
  8
0
 10
0.0
 20
0.0
 30
0.0
 70
   128
 71
     1
 72
     2
 73
    -3
  0
VERTEX
  5
120C
  8
0
 10
0.0
 20
0.0
 30
0.0
 70
   128
 71
     4
 72
    -1
 73
     3
  0
VERTEX
  5
120D
  8
0
 10
0.0
 20
0.0
 30
0.0
 70
   128
 71
     2
 72
     5
 73
    -6
  0
VERTEX
  5
120E
  8
0
 10
0.0
 20
0.0
 30
0.0
 70
   128
 71
     3
 72
    -2
 73
     6
  0
VERTEX
  5
120F
  8
0
 10
0.0
 20
0.0
 30
0.0
 70
   128
 71
     7
 72
     1
 73
    -4
  0
VERTEX
  5
1210
  8
0
 10
0.0
 20
0.0
 30
0.0
 70
   128
 71
     8
 72
    -7
 73
     4
  0
SEQEND
  5
12B6
  8
0
  0
POLYLINE
  5
1211
  8
0
 66
     1
 10
0.0
 20
0.0
 30
0.0
 70
    64
 71
    12
 72
    10
  0
VERTEX
  5
1212
  8
0
 10
70.449729349731
 20
-45.3504555775834
 30
88.7827665597317
 70
   192
  0
VERTEX
  5
1213
  8
0
 10
69.37266546876582
 20
-45.49865557437337
 30
88.84436140610815
 70
   192
  0
VERTEX
  5
1214
  8
0
 10
68.15901197263942
 20
-45.66496806347018
 30
88.8673845879197
 70
   192
  0
VERTEX
  5
1215
  8
0
 10
66.9778018903279
 20
-45.8263518223331
 30
88.8542918781652
 70
   192
  0
VERTEX
  5
1216
  8
0
 10
22.48202712471402
 20
-55.73452191910196
 30
87.10721416065606
 70
   192
  0
VERTEX
  5
1217
  8
0
 10
-22.83234808727185
 20
-55.68746965908628
 30
87.11551074360008
 70
   192
  0
VERTEX
  5
1218
  8
0
 10
-66.9750717708604
 20
-45.8263518223331
 30
88.8542918781652
 70
   192
  0
VERTEX
  5
1219
  8
0
 10
-68.14024484905647
 20
-45.66716027029342
 30
88.86744809402045
 70
   192
  0
VERTEX
  5
121A
  8
0
 10
-69.30012075245025
 20
-45.50812703613068
 30
88.84706305405281
 70
   192
  0
VERTEX
  5
121B
  8
0
 10
-70.44695309576721
 20
-45.3504552244449
 30
88.7827659111313
 70
   192
  0
VERTEX
  5
121C
  8
0
 10
-23.83115987540302
 20
-55.98004836523884
 30
86.9552056195941
 70
   192
  0
VERTEX
  5
121D
  8
0
 10
23.4817216424777
 20
-56.02845602946324
 30
86.9468632669909
 70
   192
  0
VERTEX
  5
121E
  8
0
 10
0.0
 20
0.0
 30
0.0
 70
   128
 71
     6
 72
     7
 73
     8
  0
VERTEX
  5
121F
  8
0
 10
0.0
 20
0.0
 30
0.0
 70
   128
 71
     9
 72
    11
 73
     6
  0
VERTEX
  5
1220
  8
0
 10
0.0
 20
0.0
 30
0.0
 70
   128
 71
     8
 72
     9
 73
     6
  0
VERTEX
  5
1221
  8
0
 10
0.0
 20
0.0
 30
0.0
 70
   128
 71
     9
 72
    10
 73
    11
  0
VERTEX
  5
1222
  8
0
 10
0.0
 20
0.0
 30
0.0
 70
   128
 71
    12
 72
     5
 73
     6
  0
VERTEX
  5
1223
  8
0
 10
0.0
 20
0.0
 30
0.0
 70
   128
 71
    11
 72
    12
 73
     6
  0
VERTEX
  5
1224
  8
0
 10
0.0
 20
0.0
 30
0.0
 70
   128
 71
    12
 72
     1
 73
     2
  0
VERTEX
  5
1225
  8
0
 10
0.0
 20
0.0
 30
0.0
 70
   128
 71
     3
 72
     5
 73
    12
  0
VERTEX
  5
1226
  8
0
 10
0.0
 20
0.0
 30
0.0
 70
   128
 71
     2
 72
     3
 73
    12
  0
VERTEX
  5
1227
  8
0
 10
0.0
 20
0.0
 30
0.0
 70
   128
 71
     3
 72
     4
 73
     5
  0
SEQEND
  5
12B7
  8
0
  0
POLYLINE
  5
1228
  8
0
 66
     1
 10
0.0
 20
0.0
 30
0.0
 70
    64
 71
    12
 72
    10
  0
VERTEX
  5
1229
  8
0
 10
-66.9750717708604
 20
-45.8263518223331
 30
88.8542918781652
 70
   192
  0
VERTEX
  5
122A
  8
0
 10
-68.14024484905647
 20
-45.66716027029342
 30
88.86744809402045
 70
   192
  0
VERTEX
  5
122B
  8
0
 10
-69.30012075245025
 20
-45.50812703613068
 30
88.84706305405281
 70
   192
  0
VERTEX
  5
122C
  8
0
 10
-70.44695309576719
 20
-45.35045522444486
 30
88.78276591113126
 70
   192
  0
VERTEX
  5
122D
  8
0
 10
-70.4894126778434
 20
-45.16128324545875
 30
88.99430217644127
 70
   192
  0
VERTEX
  5
122E
  8
0
 10
-70.54069611014526
 20
-45.04116822264245
 30
89.24979940959673
 70
   192
  0
VERTEX
  5
122F
  8
0
 10
-70.59658089715501
 20
-45.0
 30
89.52822087663951
 70
   192
  0
VERTEX
  5
1230
  8
0
 10
-69.39782165141406
 20
-45.00000000000001
 30
89.71239215446646
 70
   192
  0
VERTEX
  5
1231
  8
0
 10
-68.18824394027155
 20
-45.00000000000001
 30
89.80925578809106
 70
   192
  0
VERTEX
  5
1232
  8
0
 10
-66.9750717708604
 20
-45.0
 30
89.83909963117729
 70
   192
  0
VERTEX
  5
1233
  8
0
 10
-66.9750717708604
 20
-45.10636735967662
 30
89.39030045097687
 70
   192
  0
VERTEX
  5
1234
  8
0
 10
-66.9750717708604
 20
-45.40284140829726
 30
89.03697643842231
 70
   192
  0
VERTEX
  5
1235
  8
0
 10
0.0
 20
0.0
 30
0.0
 70
   128
 71
     8
 72
     7
 73
     6
  0
VERTEX
  5
1236
  8
0
 10
0.0
 20
0.0
 30
0.0
 70
   128
 71
     6
 72
     9
 73
     8
  0
VERTEX
  5
1237
  8
0
 10
0.0
 20
0.0
 30
0.0
 70
   128
 71
     6
 72
    11
 73
    10
  0
VERTEX
  5
1238
  8
0
 10
0.0
 20
0.0
 30
0.0
 70
   128
 71
     6
 72
    10
 73
     9
  0
VERTEX
  5
1239
  8
0
 10
0.0
 20
0.0
 30
0.0
 70
   128
 71
     6
 72
     5
 73
    12
  0
VERTEX
  5
123A
  8
0
 10
0.0
 20
0.0
 30
0.0
 70
   128
 71
     6
 72
    12
 73
    11
  0
VERTEX
  5
123B
  8
0
 10
0.0
 20
0.0
 30
0.0
 70
   128
 71
     2
 72
     1
 73
    12
  0
VERTEX
  5
123C
  8
0
 10
0.0
 20
0.0
 30
0.0
 70
   128
 71
     2
 72
    12
 73
     5
  0
VERTEX
  5
123D
  8
0
 10
0.0
 20
0.0
 30
0.0
 70
   128
 71
     5
 72
     3
 73
     2
  0
VERTEX
  5
123E
  8
0
 10
0.0
 20
0.0
 30
0.0
 70
   128
 71
     5
 72
     4
 73
     3
  0
SEQEND
  5
12B8
  8
0
  0
POLYLINE
  5
123F
  8
0
 66
     1
 10
0.0
 20
0.0
 30
0.0
 70
    64
 71
    12
 72
    10
  0
VERTEX
  5
1240
  8
0
 10
-70.44695309576721
 20
-45.3504552244449
 30
88.7827659111313
 70
   192
  0
VERTEX
  5
1241
  8
0
 10
-73.17262856552212
 20
-45.34232080004216
 30
88.22633870055294
 70
   192
  0
VERTEX
  5
1242
  8
0
 10
-75.8419800739598
 20
-45.33410416231271
 30
87.64848192883439
 70
   192
  0
VERTEX
  5
1243
  8
0
 10
-78.4550195174197
 20
-45.3258415122358
 30
87.04928074511209
 70
   192
  0
VERTEX
  5
1244
  8
0
 10
-77.21288400398126
 20
-45.1465397692436
 30
87.56605255652553
 70
   192
  0
VERTEX
  5
1245
  8
0
 10
-75.98276731828511
 20
-45.03662497928919
 30
88.10810894142807
 70
   192
  0
VERTEX
  5
1246
  8
0
 10
-74.76477503390701
 20
-45.0
 30
88.6526531945528
 70
   192
  0
VERTEX
  5
1247
  8
0
 10
-73.37715188409584
 20
-45.00000000000001
 30
88.9529585897511
 70
   192
  0
VERTEX
  5
1248
  8
0
 10
-71.9877381927054
 20
-45.0
 30
89.24474000095007
 70
   192
  0
VERTEX
  5
1249
  8
0
 10
-70.59658089715501
 20
-44.99999999999999
 30
89.52822087663951
 70
   192
  0
VERTEX
  5
124A
  8
0
 10
-70.54069611014526
 20
-45.04116822264245
 30
89.24979940959673
 70
   192
  0
VERTEX
  5
124B
  8
0
 10
-70.4894126778434
 20
-45.16128324545875
 30
88.99430217644127
 70
   192
  0
VERTEX
  5
124C
  8
0
 10
0.0
 20
0.0
 30
0.0
 70
   128
 71
     8
 72
     7
 73
     6
  0
VERTEX
  5
124D
  8
0
 10
0.0
 20
0.0
 30
0.0
 70
   128
 71
     6
 72
     9
 73
     8
  0
VERTEX
  5
124E
  8
0
 10
0.0
 20
0.0
 30
0.0
 70
   128
 71
     6
 72
    11
 73
    10
  0
VERTEX
  5
124F
  8
0
 10
0.0
 20
0.0
 30
0.0
 70
   128
 71
     6
 72
    10
 73
     9
  0
VERTEX
  5
1250
  8
0
 10
0.0
 20
0.0
 30
0.0
 70
   128
 71
     6
 72
     5
 73
    12
  0
VERTEX
  5
1251
  8
0
 10
0.0
 20
0.0
 30
0.0
 70
   128
 71
     6
 72
    12
 73
    11
  0
VERTEX
  5
1252
  8
0
 10
0.0
 20
0.0
 30
0.0
 70
   128
 71
     2
 72
     1
 73
    12
  0
VERTEX
  5
1253
  8
0
 10
0.0
 20
0.0
 30
0.0
 70
   128
 71
    12
 72
     5
 73
     3
  0
VERTEX
  5
1254
  8
0
 10
0.0
 20
0.0
 30
0.0
 70
   128
 71
    12
 72
     3
 73
     2
  0
VERTEX
  5
1255
  8
0
 10
0.0
 20
0.0
 30
0.0
 70
   128
 71
     5
 72
     4
 73
     3
  0
SEQEND
  5
12B9
  8
0
  0
ENDBLK
  5
1257
  8
0
  0
ENDSEC
  0
SECTION
  2
ENTITIES
  0
INSERT
  5
BE
  8
0
  2
*X1
 10
0.0
 20
0.0
 30
0.0
  0
ENDSEC
  0
EOF
