  0
SECTION
  2
HEADER
  9
$ACADVER
  1
AC1009
  9
$DWGCODEPAGE
  3
ansi_1250
  9
$INSBASE
 10
0.0
 20
0.0
 30
0.0
  9
$EXTMIN
 10
-27.21713531019191
 20
-6.0
 30
-23.23466453506029
  9
$EXTMAX
 10
27.0788197225427
 20
36.0
 30
27.1997583930668
  9
$LIMMIN
 10
0.0
 20
0.0
  9
$LIMMAX
 10
420.0
 20
297.0
  9
$ORTHOMODE
 70
     0
  9
$REGENMODE
 70
     1
  9
$FILLMODE
 70
     1
  9
$QTEXTMODE
 70
     0
  9
$MIRRTEXT
 70
     0
  9
$DRAGMODE
 70
     2
  9
$LTSCALE
 40
1.0
  9
$OSMODE
 70
   511
  9
$ATTMODE
 70
     1
  9
$TEXTSIZE
 40
2.5
  9
$TRACEWID
 40
1.0
  9
$TEXTSTYLE
  7
STANDARD
  9
$CLAYER
  8
0
  9
$CELTYPE
  6
BYLAYER
  9
$CECOLOR
 62
   256
  9
$DIMSCALE
 40
1.0
  9
$DIMASZ
 40
2.5
  9
$DIMEXO
 40
0.625
  9
$DIMDLI
 40
3.75
  9
$DIMRND
 40
0.0
  9
$DIMDLE
 40
0.0
  9
$DIMEXE
 40
1.25
  9
$DIMTP
 40
0.0
  9
$DIMTM
 40
0.0
  9
$DIMTXT
 40
2.5
  9
$DIMCEN
 40
-2.5
  9
$DIMTSZ
 40
0.0
  9
$DIMTOL
 70
     0
  9
$DIMLIM
 70
     0
  9
$DIMTIH
 70
     0
  9
$DIMTOH
 70
     0
  9
$DIMSE1
 70
     0
  9
$DIMSE2
 70
     0
  9
$DIMTAD
 70
     1
  9
$DIMZIN
 70
     8
  9
$DIMBLK
  1

  9
$DIMASO
 70
     1
  9
$DIMSHO
 70
     1
  9
$DIMPOST
  1

  9
$DIMAPOST
  1

  9
$DIMALT
 70
     0
  9
$DIMALTD
 70
     3
  9
$DIMALTF
 40
0.03937007874016
  9
$DIMLFAC
 40
1.0
  9
$DIMTOFL
 70
     1
  9
$DIMTVP
 40
0.0
  9
$DIMTIX
 70
     0
  9
$DIMSOXD
 70
     0
  9
$DIMSAH
 70
     0
  9
$DIMBLK1
  1

  9
$DIMBLK2
  1

  9
$DIMSTYLE
  2
ISO-25
  9
$DIMCLRD
 70
     0
  9
$DIMCLRE
 70
     0
  9
$DIMCLRT
 70
     0
  9
$DIMTFAC
 40
1.0
  9
$DIMGAP
 40
0.625
  9
$LUNITS
 70
     2
  9
$LUPREC
 70
     3
  9
$SKETCHINC
 40
1.0
  9
$FILLETRAD
 40
10.0
  9
$AUNITS
 70
     0
  9
$AUPREC
 70
     0
  9
$MENU
  1
.
  9
$ELEVATION
 40
0.0
  9
$PELEVATION
 40
0.0
  9
$THICKNESS
 40
0.0
  9
$LIMCHECK
 70
     0
  9
$CHAMFERA
 40
10.0
  9
$CHAMFERB
 40
10.0
  9
$SKPOLY
 70
     0
  9
$TDCREATE
 40
2455022.720692848
  9
$TDUPDATE
 40
2460462.500034618
  9
$TDINDWG
 40
0.0001774074
  9
$TDUSRTIMER
 40
0.0001774074
  9
$USRTIMER
 70
     1
  9
$ANGBASE
 50
0.0
  9
$ANGDIR
 70
     0
  9
$PDMODE
 70
     0
  9
$PDSIZE
 40
0.0
  9
$PLINEWID
 40
0.0
  9
$COORDS
 70
     1
  9
$SPLFRAME
 70
     0
  9
$SPLINETYPE
 70
     6
  9
$SPLINESEGS
 70
     8
  9
$ATTDIA
 70
     0
  9
$ATTREQ
 70
     1
  9
$HANDLING
 70
     1
  9
$HANDSEED
  5
A40
  9
$SURFTAB1
 70
     6
  9
$SURFTAB2
 70
     6
  9
$SURFTYPE
 70
     6
  9
$SURFU
 70
     6
  9
$SURFV
 70
     6
  9
$UCSNAME
  2

  9
$UCSORG
 10
0.0
 20
0.0
 30
0.0
  9
$UCSXDIR
 10
1.0
 20
0.0
 30
0.0
  9
$UCSYDIR
 10
0.0
 20
1.0
 30
0.0
  9
$PUCSNAME
  2

  9
$PUCSORG
 10
0.0
 20
0.0
 30
0.0
  9
$PUCSXDIR
 10
1.0
 20
0.0
 30
0.0
  9
$PUCSYDIR
 10
0.0
 20
1.0
 30
0.0
  9
$USERI1
 70
     0
  9
$USERI2
 70
     0
  9
$USERI3
 70
     0
  9
$USERI4
 70
     0
  9
$USERI5
 70
     0
  9
$USERR1
 40
0.0
  9
$USERR2
 40
0.0
  9
$USERR3
 40
0.0
  9
$USERR4
 40
0.0
  9
$USERR5
 40
0.0
  9
$WORLDVIEW
 70
     1
  9
$SHADEDGE
 70
     3
  9
$SHADEDIF
 70
    70
  9
$TILEMODE
 70
     1
  9
$MAXACTVP
 70
    64
  9
$PLIMCHECK
 70
     0
  9
$PEXTMIN
 10
1.000000000000000E+20
 20
1.000000000000000E+20
 30
1.000000000000000E+20
  9
$PEXTMAX
 10
-1.000000000000000E+20
 20
-1.000000000000000E+20
 30
-1.000000000000000E+20
  9
$PLIMMIN
 10
0.0
 20
0.0
  9
$PLIMMAX
 10
0.0
 20
0.0
  9
$UNITMODE
 70
     0
  9
$VISRETAIN
 70
     1
  9
$PLINEGEN
 70
     0
  9
$PSLTSCALE
 70
     1
  0
ENDSEC
  0
SECTION
  2
TABLES
  0
TABLE
  2
VPORT
 70
     1
  0
VPORT
  2
*ACTIVE
 70
     0
 10
0.0
 20
0.0
 11
1.0
 21
1.0
 12
-84.22897450802436
 22
-59.25832703063003
 13
0.0
 23
0.0
 14
10.0
 24
10.0
 15
10.0
 25
10.0
 16
0.5773502691896226
 26
0.5773502691896226
 36
0.5773502691896226
 17
-134.1869158878504
 27
-0.0000000000000462
 37
-0.0000000000000142
 40
82.10203676062919
 41
1.89041095890411
 42
50.0
 43
0.0
 44
0.0
 50
0.0
 51
0.0
 71
    16
 72
  1000
 73
     1
 74
     3
 75
     0
 76
     0
 77
     0
 78
     0
  0
ENDTAB
  0
TABLE
  2
LTYPE
 70
     1
  0
LTYPE
  2
CONTINUOUS
 70
     0
  3
Solid line
 72
    65
 73
     0
 40
0.0
  0
ENDTAB
  0
TABLE
  2
LAYER
 70
     1
  0
LAYER
  2
0
 70
     0
 62
     7
  6
CONTINUOUS
  0
ENDTAB
  0
TABLE
  2
STYLE
 70
     2
  0
STYLE
  2
STANDARD
 70
     0
 40
0.0
 41
1.0
 50
0.0
 71
     0
 42
2.5
  3
arial.ttf
  4

  0
STYLE
  2
ANNOTATIVE
 70
     0
 40
0.0
 41
1.0
 50
0.0
 71
     0
 42
2.5
  3
arial.ttf
  4

  0
ENDTAB
  0
TABLE
  2
VIEW
 70
     0
  0
ENDTAB
  0
TABLE
  2
UCS
 70
     0
  0
ENDTAB
  0
TABLE
  2
APPID
 70
     2
  0
APPID
  2
ACAD
 70
     0
  0
APPID
  2
ACADANNOTATIVE
 70
     0
  0
ENDTAB
  0
TABLE
  2
DIMSTYLE
 70
     2
  0
DIMSTYLE
  2
ISO-25
 70
     0
  3

  4

  5

  6

  7

 40
1.0
 41
2.5
 42
0.625
 43
3.75
 44
1.25
 45
0.0
 46
0.0
 47
0.0
 48
0.0
140
2.5
141
-2.5
142
0.0
143
0.03937007874016
144
1.0
145
0.0
146
1.0
147
0.625
 71
     0
 72
     0
 73
     0
 74
     0
 75
     0
 76
     0
 77
     1
 78
     8
170
     0
171
     3
172
     1
173
     0
174
     0
175
     0
176
     0
177
     0
178
     0
  0
DIMSTYLE
  2
ANNOTATIVE
 70
     0
  3

  4

  5

  6

  7

 40
0.0
 41
2.5
 42
0.625
 43
3.75
 44
1.25
 45
0.0
 46
0.0
 47
0.0
 48
0.0
140
2.5
141
-2.5
142
0.0
143
0.03937007874016
144
1.0
145
0.0
146
1.0
147
0.625
 71
     0
 72
     0
 73
     0
 74
     0
 75
     0
 76
     0
 77
     1
 78
     8
170
     0
171
     3
172
     1
173
     0
174
     0
175
     0
176
     0
177
     0
178
     0
  0
ENDTAB
  0
ENDSEC
  0
SECTION
  2
BLOCKS
  0
BLOCK
  8
0
  2
$MODEL_SPACE
 70
     0
 10
0.0
 20
0.0
 30
0.0
  3
$MODEL_SPACE
  1

  0
ENDBLK
  5
21
  8
0
  0
BLOCK
 67
     1
  8
0
  2
$PAPER_SPACE
 70
     0
 10
0.0
 20
0.0
 30
0.0
  3
$PAPER_SPACE
  1

  0
ENDBLK
  5
1D
 67
     1
  8
0
  0
BLOCK
  8
0
  2
*X1
 70
     1
 10
0.0
 20
0.0
 30
0.0
  3
*X1
  1

  0
POLYLINE
  5
588
  8
0
 66
     1
 10
0.0
 20
0.0
 30
0.0
 70
    64
 71
    12
 72
    10
  0
VERTEX
  5
589
  8
0
 10
-1.999923846128344
 20
2.5
 30
12.48254692900326
 70
   192
  0
VERTEX
  5
58A
  8
0
 10
-1.999923846128344
 20
-1.499999999999999
 30
12.48254692900326
 70
   192
  0
VERTEX
  5
58B
  8
0
 10
-8.171668995199312
 20
-1.5
 30
10.47722536994021
 70
   192
  0
VERTEX
  5
58C
  8
0
 10
-8.171668995199315
 20
2.5
 30
10.47722536994021
 70
   192
  0
VERTEX
  5
58D
  8
0
 10
-1.999923846128347
 20
-1.5
 30
-8.517453070996742
 70
   192
  0
VERTEX
  5
58E
  8
0
 10
-1.99992384612834
 20
2.5
 30
-8.517453070996746
 70
   192
  0
VERTEX
  5
58F
  8
0
 10
-8.171668995199312
 20
2.5
 30
-6.512131511933694
 70
   192
  0
VERTEX
  5
590
  8
0
 10
-8.171668995199315
 20
-1.5
 30
-6.512131511933688
 70
   192
  0
VERTEX
  5
591
  8
0
 10
-11.98601726722746
 20
2.5
 30
-1.262131511933693
 70
   192
  0
VERTEX
  5
592
  8
0
 10
-11.98601726722746
 20
2.5
 30
5.227225369940207
 70
   192
  0
VERTEX
  5
593
  8
0
 10
-11.98601726722746
 20
-1.5
 30
5.227225369940209
 70
   192
  0
VERTEX
  5
594
  8
0
 10
-11.98601726722746
 20
-1.5
 30
-1.262131511933688
 70
   192
  0
VERTEX
  5
595
  8
0
 10
0.0
 20
0.0
 30
0.0
 70
   128
 71
     1
 72
     2
 73
    -3
  0
VERTEX
  5
596
  8
0
 10
0.0
 20
0.0
 30
0.0
 70
   128
 71
     4
 72
    -1
 73
     3
  0
VERTEX
  5
597
  8
0
 10
0.0
 20
0.0
 30
0.0
 70
   128
 71
     5
 72
     6
 73
    -7
  0
VERTEX
  5
598
  8
0
 10
0.0
 20
0.0
 30
0.0
 70
   128
 71
     8
 72
    -5
 73
     7
  0
VERTEX
  5
599
  8
0
 10
0.0
 20
0.0
 30
0.0
 70
   128
 71
     9
 72
    10
 73
   -11
  0
VERTEX
  5
59A
  8
0
 10
0.0
 20
0.0
 30
0.0
 70
   128
 71
    12
 72
    -9
 73
    11
  0
VERTEX
  5
59B
  8
0
 10
0.0
 20
0.0
 30
0.0
 70
   128
 71
    10
 72
     4
 73
    -3
  0
VERTEX
  5
59C
  8
0
 10
0.0
 20
0.0
 30
0.0
 70
   128
 71
    11
 72
   -10
 73
     3
  0
VERTEX
  5
59D
  8
0
 10
0.0
 20
0.0
 30
0.0
 70
   128
 71
     7
 72
     9
 73
   -12
  0
VERTEX
  5
59E
  8
0
 10
0.0
 20
0.0
 30
0.0
 70
   128
 71
     8
 72
    -7
 73
    12
  0
SEQEND
  5
A0E
  8
0
  0
POLYLINE
  5
59F
  8
0
 66
     1
 10
0.0
 20
0.0
 30
0.0
 70
    64
 71
    12
 72
    10
  0
VERTEX
  5
5A0
  8
0
 10
-9.732620073895749
 20
-1.5
 30
12.43268611702711
 70
   192
  0
VERTEX
  5
5A1
  8
0
 10
-2.113368807607161
 20
-1.5
 30
14.98205192883749
 70
   192
  0
VERTEX
  5
5A2
  8
0
 10
-2.113368807607161
 20
0.0
 30
14.98205192883749
 70
   192
  0
VERTEX
  5
5A3
  8
0
 10
-9.732620073895749
 20
0.0
 30
12.43268611702711
 70
   192
  0
VERTEX
  5
5A4
  8
0
 10
-9.549062270370602
 20
0.0
 30
-8.600954809628867
 70
   192
  0
VERTEX
  5
5A5
  8
0
 10
-1.88647888464953
 20
0.0
 30
-11.01695807083097
 70
   192
  0
VERTEX
  5
5A6
  8
0
 10
-1.88647888464953
 20
-1.5
 30
-11.01695807083097
 70
   192
  0
VERTEX
  5
5A7
  8
0
 10
-9.549062270370602
 20
-1.5
 30
-8.600954809628867
 70
   192
  0
VERTEX
  5
5A8
  8
0
 10
-14.39824420585528
 20
-1.5
 30
5.891722322558854
 70
   192
  0
VERTEX
  5
5A9
  8
0
 10
-14.39824420585528
 20
0.0
 30
5.891722322558855
 70
   192
  0
VERTEX
  5
5AA
  8
0
 10
-14.32813136380895
 20
0.0
 30
-2.142413604262897
 70
   192
  0
VERTEX
  5
5AB
  8
0
 10
-14.32813136380895
 20
-1.5
 30
-2.142413604262898
 70
   192
  0
VERTEX
  5
5AC
  8
0
 10
0.0
 20
0.0
 30
0.0
 70
   128
 71
     1
 72
     2
 73
    -3
  0
VERTEX
  5
5AD
  8
0
 10
0.0
 20
0.0
 30
0.0
 70
   128
 71
    -1
 72
     3
 73
     4
  0
VERTEX
  5
5AE
  8
0
 10
0.0
 20
0.0
 30
0.0
 70
   128
 71
     5
 72
     6
 73
    -7
  0
VERTEX
  5
5AF
  8
0
 10
0.0
 20
0.0
 30
0.0
 70
   128
 71
    -5
 72
     7
 73
     8
  0
VERTEX
  5
5B0
  8
0
 10
0.0
 20
0.0
 30
0.0
 70
   128
 71
     9
 72
    10
 73
   -11
  0
VERTEX
  5
5B1
  8
0
 10
0.0
 20
0.0
 30
0.0
 70
   128
 71
    -9
 72
    11
 73
    12
  0
VERTEX
  5
5B2
  8
0
 10
0.0
 20
0.0
 30
0.0
 70
   128
 71
     1
 72
     4
 73
   -10
  0
VERTEX
  5
5B3
  8
0
 10
0.0
 20
0.0
 30
0.0
 70
   128
 71
    -1
 72
    10
 73
     9
  0
VERTEX
  5
5B4
  8
0
 10
0.0
 20
0.0
 30
0.0
 70
   128
 71
    12
 72
    11
 73
    -5
  0
VERTEX
  5
5B5
  8
0
 10
0.0
 20
0.0
 30
0.0
 70
   128
 71
   -12
 72
     5
 73
     8
  0
SEQEND
  5
A0F
  8
0
  0
POLYLINE
  5
5B6
  8
0
 66
     1
 10
0.0
 20
0.0
 30
0.0
 70
    64
 71
    12
 72
    10
  0
VERTEX
  5
5B7
  8
0
 10
5.732772381639056
 20
-1.5
 30
-8.467592259020595
 70
   192
  0
VERTEX
  5
5B8
  8
0
 10
-1.88647888464953
 20
-1.5
 30
-11.01695807083097
 70
   192
  0
VERTEX
  5
5B9
  8
0
 10
-1.88647888464953
 20
0.0
 30
-11.01695807083097
 70
   192
  0
VERTEX
  5
5BA
  8
0
 10
5.732772381639057
 20
0.0
 30
-8.467592259020595
 70
   192
  0
VERTEX
  5
5BB
  8
0
 10
5.549214578113911
 20
0.0
 30
12.56604866763539
 70
   192
  0
VERTEX
  5
5BC
  8
0
 10
-2.113368807607161
 20
0.0
 30
14.98205192883749
 70
   192
  0
VERTEX
  5
5BD
  8
0
 10
-2.113368807607161
 20
-1.5
 30
14.98205192883749
 70
   192
  0
VERTEX
  5
5BE
  8
0
 10
5.549214578113911
 20
-1.5
 30
12.56604866763539
 70
   192
  0
VERTEX
  5
5BF
  8
0
 10
10.39839651359859
 20
-1.5
 30
-1.926628464552336
 70
   192
  0
VERTEX
  5
5C0
  8
0
 10
10.39839651359859
 20
0.0
 30
-1.926628464552337
 70
   192
  0
VERTEX
  5
5C1
  8
0
 10
10.32828367155226
 20
0.0
 30
6.107507462269415
 70
   192
  0
VERTEX
  5
5C2
  8
0
 10
10.32828367155226
 20
-1.5
 30
6.107507462269416
 70
   192
  0
VERTEX
  5
5C3
  8
0
 10
0.0
 20
0.0
 30
0.0
 70
   128
 71
     1
 72
     2
 73
    -3
  0
VERTEX
  5
5C4
  8
0
 10
0.0
 20
0.0
 30
0.0
 70
   128
 71
    -1
 72
     3
 73
     4
  0
VERTEX
  5
5C5
  8
0
 10
0.0
 20
0.0
 30
0.0
 70
   128
 71
     5
 72
     6
 73
    -7
  0
VERTEX
  5
5C6
  8
0
 10
0.0
 20
0.0
 30
0.0
 70
   128
 71
    -5
 72
     7
 73
     8
  0
VERTEX
  5
5C7
  8
0
 10
0.0
 20
0.0
 30
0.0
 70
   128
 71
     9
 72
    10
 73
   -11
  0
VERTEX
  5
5C8
  8
0
 10
0.0
 20
0.0
 30
0.0
 70
   128
 71
    -9
 72
    11
 73
    12
  0
VERTEX
  5
5C9
  8
0
 10
0.0
 20
0.0
 30
0.0
 70
   128
 71
     1
 72
     4
 73
   -10
  0
VERTEX
  5
5CA
  8
0
 10
0.0
 20
0.0
 30
0.0
 70
   128
 71
    -1
 72
    10
 73
     9
  0
VERTEX
  5
5CB
  8
0
 10
0.0
 20
0.0
 30
0.0
 70
   128
 71
    12
 72
    11
 73
    -5
  0
VERTEX
  5
5CC
  8
0
 10
0.0
 20
0.0
 30
0.0
 70
   128
 71
   -12
 72
     5
 73
     8
  0
SEQEND
  5
A10
  8
0
  0
POLYLINE
  5
5CD
  8
0
 66
     1
 10
0.0
 20
0.0
 30
0.0
 70
    64
 71
    12
 72
    10
  0
VERTEX
  5
5CE
  8
0
 10
-1.999923846128334
 20
2.5
 30
-8.517453070996746
 70
   192
  0
VERTEX
  5
5CF
  8
0
 10
-1.999923846128346
 20
-1.499999999999999
 30
-8.51745307099674
 70
   192
  0
VERTEX
  5
5D0
  8
0
 10
4.171821302942622
 20
-1.5
 30
-6.512131511933688
 70
   192
  0
VERTEX
  5
5D1
  8
0
 10
4.171821302942631
 20
2.5
 30
-6.512131511933687
 70
   192
  0
VERTEX
  5
5D2
  8
0
 10
-1.999923846128344
 20
-1.499999999999999
 30
12.48254692900326
 70
   192
  0
VERTEX
  5
5D3
  8
0
 10
-1.999923846128344
 20
2.5
 30
12.48254692900326
 70
   192
  0
VERTEX
  5
5D4
  8
0
 10
4.171821302942624
 20
2.5
 30
10.47722536994021
 70
   192
  0
VERTEX
  5
5D5
  8
0
 10
4.171821302942622
 20
-1.5
 30
10.47722536994021
 70
   192
  0
VERTEX
  5
5D6
  8
0
 10
7.986169574970769
 20
2.5
 30
5.227225369940211
 70
   192
  0
VERTEX
  5
5D7
  8
0
 10
7.986169574970771
 20
2.5
 30
-1.262131511933684
 70
   192
  0
VERTEX
  5
5D8
  8
0
 10
7.986169574970768
 20
-1.5
 30
-1.262131511933689
 70
   192
  0
VERTEX
  5
5D9
  8
0
 10
7.986169574970768
 20
-1.5
 30
5.227225369940207
 70
   192
  0
VERTEX
  5
5DA
  8
0
 10
0.0
 20
0.0
 30
0.0
 70
   128
 71
     1
 72
     2
 73
    -3
  0
VERTEX
  5
5DB
  8
0
 10
0.0
 20
0.0
 30
0.0
 70
   128
 71
     4
 72
    -1
 73
     3
  0
VERTEX
  5
5DC
  8
0
 10
0.0
 20
0.0
 30
0.0
 70
   128
 71
     5
 72
     6
 73
    -7
  0
VERTEX
  5
5DD
  8
0
 10
0.0
 20
0.0
 30
0.0
 70
   128
 71
     8
 72
    -5
 73
     7
  0
VERTEX
  5
5DE
  8
0
 10
0.0
 20
0.0
 30
0.0
 70
   128
 71
     9
 72
    10
 73
   -11
  0
VERTEX
  5
5DF
  8
0
 10
0.0
 20
0.0
 30
0.0
 70
   128
 71
    12
 72
    -9
 73
    11
  0
VERTEX
  5
5E0
  8
0
 10
0.0
 20
0.0
 30
0.0
 70
   128
 71
    10
 72
     4
 73
    -3
  0
VERTEX
  5
5E1
  8
0
 10
0.0
 20
0.0
 30
0.0
 70
   128
 71
    11
 72
   -10
 73
     3
  0
VERTEX
  5
5E2
  8
0
 10
0.0
 20
0.0
 30
0.0
 70
   128
 71
     7
 72
     9
 73
   -12
  0
VERTEX
  5
5E3
  8
0
 10
0.0
 20
0.0
 30
0.0
 70
   128
 71
     8
 72
    -7
 73
    12
  0
SEQEND
  5
A11
  8
0
  0
POLYLINE
  5
5E4
  8
0
 66
     1
 10
0.0
 20
0.0
 30
0.0
 70
    64
 71
     4
 72
     2
  0
VERTEX
  5
5E5
  8
0
 10
11.87737157979287
 20
36.0
 30
16.10418534887884
 70
   192
  0
VERTEX
  5
5E6
  8
0
 10
12.12171457374724
 20
36.0
 30
-11.89474849691796
 70
   192
  0
VERTEX
  5
5E7
  8
0
 10
-15.87721927204956
 20
36.0
 30
-12.13909149087233
 70
   192
  0
VERTEX
  5
5E8
  8
0
 10
-16.12156226600393
 20
36.0
 30
15.85984235492447
 70
   192
  0
VERTEX
  5
5E9
  8
0
 10
0.0
 20
0.0
 30
0.0
 70
   128
 71
     3
 72
     4
 73
    -1
  0
VERTEX
  5
5EA
  8
0
 10
0.0
 20
0.0
 30
0.0
 70
   128
 71
     2
 72
    -3
 73
     1
  0
SEQEND
  5
A12
  8
0
  0
POLYLINE
  5
5EB
  8
0
 66
     1
 10
0.0
 20
0.0
 30
0.0
 70
    64
 71
     4
 72
     2
  0
VERTEX
  5
5EC
  8
0
 10
11.87737157979287
 20
0.0
 30
16.10418534887884
 70
   192
  0
VERTEX
  5
5ED
  8
0
 10
11.87737157979287
 20
36.0
 30
16.10418534887884
 70
   192
  0
VERTEX
  5
5EE
  8
0
 10
-16.12156226600393
 20
36.0
 30
15.85984235492447
 70
   192
  0
VERTEX
  5
5EF
  8
0
 10
-16.12156226600393
 20
0.0
 30
15.85984235492447
 70
   192
  0
VERTEX
  5
5F0
  8
0
 10
0.0
 20
0.0
 30
0.0
 70
   128
 71
     3
 72
     4
 73
    -1
  0
VERTEX
  5
5F1
  8
0
 10
0.0
 20
0.0
 30
0.0
 70
   128
 71
     2
 72
    -3
 73
     1
  0
SEQEND
  5
A13
  8
0
  0
POLYLINE
  5
5F2
  8
0
 66
     1
 10
0.0
 20
0.0
 30
0.0
 70
    64
 71
    14
 72
    14
  0
VERTEX
  5
5F3
  8
0
 10
-16.12156226600393
 20
0.0
 30
15.85984235492447
 70
   192
  0
VERTEX
  5
5F4
  8
0
 10
11.87737157979287
 20
0.0
 30
16.10418534887884
 70
   192
  0
VERTEX
  5
5F5
  8
0
 10
12.12171457374724
 20
0.0
 30
-11.89474849691795
 70
   192
  0
VERTEX
  5
5F6
  8
0
 10
-15.87721927204956
 20
0.0
 30
-12.13909149087232
 70
   192
  0
VERTEX
  5
5F7
  8
0
 10
-2.113368807607161
 20
0.0
 30
14.98205192883749
 70
   192
  0
VERTEX
  5
5F8
  8
0
 10
-9.732620073895749
 20
0.0
 30
12.43268611702711
 70
   192
  0
VERTEX
  5
5F9
  8
0
 10
-14.39824420585528
 20
0.0
 30
5.891722322558855
 70
   192
  0
VERTEX
  5
5FA
  8
0
 10
-14.32813136380895
 20
0.0
 30
-2.142413604262897
 70
   192
  0
VERTEX
  5
5FB
  8
0
 10
-9.549062270370602
 20
0.0
 30
-8.600954809628867
 70
   192
  0
VERTEX
  5
5FC
  8
0
 10
-1.88647888464953
 20
0.0
 30
-11.01695807083097
 70
   192
  0
VERTEX
  5
5FD
  8
0
 10
5.732772381639057
 20
0.0
 30
-8.467592259020595
 70
   192
  0
VERTEX
  5
5FE
  8
0
 10
10.39839651359859
 20
0.0
 30
-1.926628464552337
 70
   192
  0
VERTEX
  5
5FF
  8
0
 10
10.32828367155226
 20
0.0
 30
6.107507462269415
 70
   192
  0
VERTEX
  5
600
  8
0
 10
5.549214578113911
 20
0.0
 30
12.56604866763539
 70
   192
  0
VERTEX
  5
601
  8
0
 10
0.0
 20
0.0
 30
0.0
 70
   128
 71
     6
 72
    -5
 73
    -1
  0
VERTEX
  5
602
  8
0
 10
0.0
 20
0.0
 30
0.0
 70
   128
 71
    -1
 72
     7
 73
    -6
  0
VERTEX
  5
603
  8
0
 10
0.0
 20
0.0
 30
0.0
 70
   128
 71
     1
 72
    -4
 73
    -8
  0
VERTEX
  5
604
  8
0
 10
0.0
 20
0.0
 30
0.0
 70
   128
 71
    -1
 72
     8
 73
    -7
  0
VERTEX
  5
605
  8
0
 10
0.0
 20
0.0
 30
0.0
 70
   128
 71
    -4
 72
     9
 73
    -8
  0
VERTEX
  5
606
  8
0
 10
0.0
 20
0.0
 30
0.0
 70
   128
 71
    -4
 72
    10
 73
    -9
  0
VERTEX
  5
607
  8
0
 10
0.0
 20
0.0
 30
0.0
 70
   128
 71
     4
 72
    -3
 73
   -10
  0
VERTEX
  5
608
  8
0
 10
0.0
 20
0.0
 30
0.0
 70
   128
 71
    -3
 72
    11
 73
   -10
  0
VERTEX
  5
609
  8
0
 10
0.0
 20
0.0
 30
0.0
 70
   128
 71
    -3
 72
    12
 73
   -11
  0
VERTEX
  5
60A
  8
0
 10
0.0
 20
0.0
 30
0.0
 70
   128
 71
     3
 72
    -2
 73
   -13
  0
VERTEX
  5
60B
  8
0
 10
0.0
 20
0.0
 30
0.0
 70
   128
 71
    -3
 72
    13
 73
   -12
  0
VERTEX
  5
60C
  8
0
 10
0.0
 20
0.0
 30
0.0
 70
   128
 71
    -2
 72
    14
 73
   -13
  0
VERTEX
  5
60D
  8
0
 10
0.0
 20
0.0
 30
0.0
 70
   128
 71
    -2
 72
     5
 73
   -14
  0
VERTEX
  5
60E
  8
0
 10
0.0
 20
0.0
 30
0.0
 70
   128
 71
     2
 72
    -1
 73
    -5
  0
SEQEND
  5
A14
  8
0
  0
POLYLINE
  5
60F
  8
0
 66
     1
 10
0.0
 20
0.0
 30
0.0
 70
    64
 71
    14
 72
    14
  0
VERTEX
  5
610
  8
0
 10
12.12171457374724
 20
0.0
 30
-11.89474849691795
 70
   192
  0
VERTEX
  5
611
  8
0
 10
12.12171457374724
 20
36.0
 30
-11.89474849691795
 70
   192
  0
VERTEX
  5
612
  8
0
 10
11.87737157979287
 20
36.0
 30
16.10418534887884
 70
   192
  0
VERTEX
  5
613
  8
0
 10
11.87737157979287
 20
0.0
 30
16.10418534887884
 70
   192
  0
VERTEX
  5
614
  8
0
 10
11.99954307677005
 20
34.7
 30
2.104718425980445
 70
   192
  0
VERTEX
  5
615
  8
0
 10
12.05186223123945
 20
32.75197334262447
 30
-3.890462860577189
 70
   192
  0
VERTEX
  5
616
  8
0
 10
12.0841972469642
 20
27.65197334262447
 30
-7.59568866438713
 70
   192
  0
VERTEX
  5
617
  8
0
 10
12.0841972469642
 20
21.34802665737553
 30
-7.59568866438713
 70
   192
  0
VERTEX
  5
618
  8
0
 10
12.05186223123945
 20
16.24802665737553
 30
-3.890462860577189
 70
   192
  0
VERTEX
  5
619
  8
0
 10
11.99954307677005
 20
14.3
 30
2.104718425980445
 70
   192
  0
VERTEX
  5
61A
  8
0
 10
11.94722392230066
 20
16.24802665737553
 30
8.099899712538079
 70
   192
  0
VERTEX
  5
61B
  8
0
 10
11.91488890657591
 20
21.34802665737553
 30
11.80512551634802
 70
   192
  0
VERTEX
  5
61C
  8
0
 10
11.91488890657591
 20
27.65197334262447
 30
11.80512551634802
 70
   192
  0
VERTEX
  5
61D
  8
0
 10
11.94722392230066
 20
32.75197334262447
 30
8.099899712538079
 70
   192
  0
VERTEX
  5
61E
  8
0
 10
0.0
 20
0.0
 30
0.0
 70
   128
 71
    -2
 72
     5
 73
    -6
  0
VERTEX
  5
61F
  8
0
 10
0.0
 20
0.0
 30
0.0
 70
   128
 71
     6
 72
    -7
 73
    -2
  0
VERTEX
  5
620
  8
0
 10
0.0
 20
0.0
 30
0.0
 70
   128
 71
     7
 72
    -8
 73
    -2
  0
VERTEX
  5
621
  8
0
 10
0.0
 20
0.0
 30
0.0
 70
   128
 71
     1
 72
    -2
 73
    -8
  0
VERTEX
  5
622
  8
0
 10
0.0
 20
0.0
 30
0.0
 70
   128
 71
     8
 72
    -9
 73
    -1
  0
VERTEX
  5
623
  8
0
 10
0.0
 20
0.0
 30
0.0
 70
   128
 71
   -10
 72
     4
 73
    -1
  0
VERTEX
  5
624
  8
0
 10
0.0
 20
0.0
 30
0.0
 70
   128
 71
     9
 72
   -10
 73
    -1
  0
VERTEX
  5
625
  8
0
 10
0.0
 20
0.0
 30
0.0
 70
   128
 71
    10
 72
   -11
 73
    -4
  0
VERTEX
  5
626
  8
0
 10
0.0
 20
0.0
 30
0.0
 70
   128
 71
    11
 72
   -12
 73
    -4
  0
VERTEX
  5
627
  8
0
 10
0.0
 20
0.0
 30
0.0
 70
   128
 71
   -12
 72
     3
 73
    -4
  0
VERTEX
  5
628
  8
0
 10
0.0
 20
0.0
 30
0.0
 70
   128
 71
    12
 72
   -13
 73
    -3
  0
VERTEX
  5
629
  8
0
 10
0.0
 20
0.0
 30
0.0
 70
   128
 71
    13
 72
   -14
 73
    -3
  0
VERTEX
  5
62A
  8
0
 10
0.0
 20
0.0
 30
0.0
 70
   128
 71
    14
 72
    -5
 73
    -3
  0
VERTEX
  5
62B
  8
0
 10
0.0
 20
0.0
 30
0.0
 70
   128
 71
    -5
 72
     2
 73
    -3
  0
SEQEND
  5
A15
  8
0
  0
POLYLINE
  5
62C
  8
0
 66
     1
 10
0.0
 20
0.0
 30
0.0
 70
    64
 71
     4
 72
     2
  0
VERTEX
  5
62D
  8
0
 10
-15.87721927204956
 20
0.0
 30
-12.13909149087232
 70
   192
  0
VERTEX
  5
62E
  8
0
 10
-15.87721927204956
 20
36.0
 30
-12.13909149087232
 70
   192
  0
VERTEX
  5
62F
  8
0
 10
12.12171457374724
 20
36.0
 30
-11.89474849691795
 70
   192
  0
VERTEX
  5
630
  8
0
 10
12.12171457374724
 20
0.0
 30
-11.89474849691795
 70
   192
  0
VERTEX
  5
631
  8
0
 10
0.0
 20
0.0
 30
0.0
 70
   128
 71
     3
 72
     4
 73
    -1
  0
VERTEX
  5
632
  8
0
 10
0.0
 20
0.0
 30
0.0
 70
   128
 71
     2
 72
    -3
 73
     1
  0
SEQEND
  5
A16
  8
0
  0
POLYLINE
  5
633
  8
0
 66
     1
 10
0.0
 20
0.0
 30
0.0
 70
    64
 71
     4
 72
     2
  0
VERTEX
  5
634
  8
0
 10
-16.12156226600393
 20
0.0
 30
15.85984235492447
 70
   192
  0
VERTEX
  5
635
  8
0
 10
-16.12156226600393
 20
36.0
 30
15.85984235492447
 70
   192
  0
VERTEX
  5
636
  8
0
 10
-15.87721927204956
 20
36.0
 30
-12.13909149087232
 70
   192
  0
VERTEX
  5
637
  8
0
 10
-15.87721927204956
 20
0.0
 30
-12.13909149087232
 70
   192
  0
VERTEX
  5
638
  8
0
 10
0.0
 20
0.0
 30
0.0
 70
   128
 71
     3
 72
     4
 73
    -1
  0
VERTEX
  5
639
  8
0
 10
0.0
 20
0.0
 30
0.0
 70
   128
 71
     2
 72
    -3
 73
     1
  0
SEQEND
  5
A17
  8
0
  0
POLYLINE
  5
63A
  8
0
 66
     1
 10
0.0
 20
0.0
 30
0.0
 70
    64
 71
    12
 72
    10
  0
VERTEX
  5
63B
  8
0
 10
11.99954307677005
 20
14.3
 30
2.104718425980445
 70
   192
  0
VERTEX
  5
63C
  8
0
 10
10.99958115370588
 20
14.3
 30
2.095991890482074
 70
   192
  0
VERTEX
  5
63D
  8
0
 10
10.94726199923648
 20
16.24802665737553
 30
8.091173177039709
 70
   192
  0
VERTEX
  5
63E
  8
0
 10
11.94722392230066
 20
16.24802665737553
 30
8.099899712538079
 70
   192
  0
VERTEX
  5
63F
  8
0
 10
10.99958115370588
 20
34.7
 30
2.095991890482074
 70
   192
  0
VERTEX
  5
640
  8
0
 10
11.99954307677005
 20
34.7
 30
2.104718425980445
 70
   192
  0
VERTEX
  5
641
  8
0
 10
11.94722392230066
 20
32.75197334262447
 30
8.099899712538079
 70
   192
  0
VERTEX
  5
642
  8
0
 10
10.94726199923648
 20
32.75197334262447
 30
8.091173177039709
 70
   192
  0
VERTEX
  5
643
  8
0
 10
11.91488890657591
 20
27.65197334262447
 30
11.80512551634802
 70
   192
  0
VERTEX
  5
644
  8
0
 10
11.91488890657591
 20
21.34802665737553
 30
11.80512551634802
 70
   192
  0
VERTEX
  5
645
  8
0
 10
10.91492698351174
 20
21.34802665737553
 30
11.79639898084965
 70
   192
  0
VERTEX
  5
646
  8
0
 10
10.91492698351174
 20
27.65197334262447
 30
11.79639898084965
 70
   192
  0
VERTEX
  5
647
  8
0
 10
0.0
 20
0.0
 30
0.0
 70
   128
 71
     1
 72
     2
 73
    -3
  0
VERTEX
  5
648
  8
0
 10
0.0
 20
0.0
 30
0.0
 70
   128
 71
     4
 72
    -1
 73
     3
  0
VERTEX
  5
649
  8
0
 10
0.0
 20
0.0
 30
0.0
 70
   128
 71
     5
 72
     6
 73
    -7
  0
VERTEX
  5
64A
  8
0
 10
0.0
 20
0.0
 30
0.0
 70
   128
 71
     8
 72
    -5
 73
     7
  0
VERTEX
  5
64B
  8
0
 10
0.0
 20
0.0
 30
0.0
 70
   128
 71
     9
 72
    10
 73
   -11
  0
VERTEX
  5
64C
  8
0
 10
0.0
 20
0.0
 30
0.0
 70
   128
 71
    12
 72
    -9
 73
    11
  0
VERTEX
  5
64D
  8
0
 10
0.0
 20
0.0
 30
0.0
 70
   128
 71
    10
 72
     4
 73
    -3
  0
VERTEX
  5
64E
  8
0
 10
0.0
 20
0.0
 30
0.0
 70
   128
 71
    11
 72
   -10
 73
     3
  0
VERTEX
  5
64F
  8
0
 10
0.0
 20
0.0
 30
0.0
 70
   128
 71
     7
 72
     9
 73
   -12
  0
VERTEX
  5
650
  8
0
 10
0.0
 20
0.0
 30
0.0
 70
   128
 71
     8
 72
    -7
 73
    12
  0
SEQEND
  5
A18
  8
0
  0
POLYLINE
  5
651
  8
0
 66
     1
 10
0.0
 20
0.0
 30
0.0
 70
    64
 71
    12
 72
    10
  0
VERTEX
  5
652
  8
0
 10
11.99954307677005
 20
34.7
 30
2.104718425980445
 70
   192
  0
VERTEX
  5
653
  8
0
 10
10.99958115370588
 20
34.7
 30
2.095991890482074
 70
   192
  0
VERTEX
  5
654
  8
0
 10
11.05190030817528
 20
32.75197334262447
 30
-3.89918939607556
 70
   192
  0
VERTEX
  5
655
  8
0
 10
12.05186223123945
 20
32.75197334262447
 30
-3.890462860577189
 70
   192
  0
VERTEX
  5
656
  8
0
 10
10.99958115370588
 20
14.3
 30
2.095991890482074
 70
   192
  0
VERTEX
  5
657
  8
0
 10
11.99954307677005
 20
14.3
 30
2.104718425980445
 70
   192
  0
VERTEX
  5
658
  8
0
 10
12.05186223123945
 20
16.24802665737553
 30
-3.890462860577189
 70
   192
  0
VERTEX
  5
659
  8
0
 10
11.05190030817528
 20
16.24802665737553
 30
-3.89918939607556
 70
   192
  0
VERTEX
  5
65A
  8
0
 10
12.0841972469642
 20
21.34802665737553
 30
-7.59568866438713
 70
   192
  0
VERTEX
  5
65B
  8
0
 10
12.0841972469642
 20
27.65197334262447
 30
-7.59568866438713
 70
   192
  0
VERTEX
  5
65C
  8
0
 10
11.08423532390002
 20
27.65197334262447
 30
-7.604415199885501
 70
   192
  0
VERTEX
  5
65D
  8
0
 10
11.08423532390002
 20
21.34802665737553
 30
-7.604415199885501
 70
   192
  0
VERTEX
  5
65E
  8
0
 10
0.0
 20
0.0
 30
0.0
 70
   128
 71
     1
 72
     2
 73
    -3
  0
VERTEX
  5
65F
  8
0
 10
0.0
 20
0.0
 30
0.0
 70
   128
 71
     4
 72
    -1
 73
     3
  0
VERTEX
  5
660
  8
0
 10
0.0
 20
0.0
 30
0.0
 70
   128
 71
     5
 72
     6
 73
    -7
  0
VERTEX
  5
661
  8
0
 10
0.0
 20
0.0
 30
0.0
 70
   128
 71
     8
 72
    -5
 73
     7
  0
VERTEX
  5
662
  8
0
 10
0.0
 20
0.0
 30
0.0
 70
   128
 71
     9
 72
    10
 73
   -11
  0
VERTEX
  5
663
  8
0
 10
0.0
 20
0.0
 30
0.0
 70
   128
 71
    12
 72
    -9
 73
    11
  0
VERTEX
  5
664
  8
0
 10
0.0
 20
0.0
 30
0.0
 70
   128
 71
    10
 72
     4
 73
    -3
  0
VERTEX
  5
665
  8
0
 10
0.0
 20
0.0
 30
0.0
 70
   128
 71
    11
 72
   -10
 73
     3
  0
VERTEX
  5
666
  8
0
 10
0.0
 20
0.0
 30
0.0
 70
   128
 71
     7
 72
     9
 73
   -12
  0
VERTEX
  5
667
  8
0
 10
0.0
 20
0.0
 30
0.0
 70
   128
 71
     8
 72
    -7
 73
    12
  0
SEQEND
  5
A19
  8
0
  0
POLYLINE
  5
668
  8
0
 66
     1
 10
0.0
 20
0.0
 30
0.0
 70
    64
 71
    18
 72
    18
  0
VERTEX
  5
669
  8
0
 10
10.99958115370588
 20
34.7
 30
2.095991890482074
 70
   192
  0
VERTEX
  5
66A
  8
0
 10
11.05190030817528
 20
32.75197334262447
 30
-3.89918939607556
 70
   192
  0
VERTEX
  5
66B
  8
0
 10
11.08423532390002
 20
27.65197334262447
 30
-7.604415199885501
 70
   192
  0
VERTEX
  5
66C
  8
0
 10
11.08423532390002
 20
21.34802665737553
 30
-7.604415199885501
 70
   192
  0
VERTEX
  5
66D
  8
0
 10
11.05190030817528
 20
16.24802665737553
 30
-3.89918939607556
 70
   192
  0
VERTEX
  5
66E
  8
0
 10
10.99958115370588
 20
14.3
 30
2.095991890482074
 70
   192
  0
VERTEX
  5
66F
  8
0
 10
10.94726199923648
 20
16.24802665737553
 30
8.091173177039709
 70
   192
  0
VERTEX
  5
670
  8
0
 10
10.91492698351174
 20
21.34802665737553
 30
11.79639898084965
 70
   192
  0
VERTEX
  5
671
  8
0
 10
10.91492698351174
 20
27.65197334262447
 30
11.79639898084965
 70
   192
  0
VERTEX
  5
672
  8
0
 10
10.94726199923648
 20
32.75197334262447
 30
8.091173177039709
 70
   192
  0
VERTEX
  5
673
  8
0
 10
10.99958115370588
 20
30.5
 30
2.095991890482074
 70
   192
  0
VERTEX
  5
674
  8
0
 10
10.9625575991429
 20
28.74264068711928
 30
6.338471030844172
 70
   192
  0
VERTEX
  5
675
  8
0
 10
10.94722194071566
 20
24.5
 30
8.095763428867102
 70
   192
  0
VERTEX
  5
676
  8
0
 10
10.9625575991429
 20
20.25735931288072
 30
6.338471030844171
 70
   192
  0
VERTEX
  5
677
  8
0
 10
10.99958115370588
 20
18.5
 30
2.095991890482074
 70
   192
  0
VERTEX
  5
678
  8
0
 10
11.03660470826886
 20
20.25735931288072
 30
-2.146487249880022
 70
   192
  0
VERTEX
  5
679
  8
0
 10
11.0519403666961
 20
24.5
 30
-3.903779647902954
 70
   192
  0
VERTEX
  5
67A
  8
0
 10
11.03660470826886
 20
28.74264068711928
 30
-2.146487249880023
 70
   192
  0
VERTEX
  5
67B
  8
0
 10
0.0
 20
0.0
 30
0.0
 70
   128
 71
    12
 72
   -11
 73
    -1
  0
VERTEX
  5
67C
  8
0
 10
0.0
 20
0.0
 30
0.0
 70
   128
 71
   -12
 72
     1
 73
   -10
  0
VERTEX
  5
67D
  8
0
 10
0.0
 20
0.0
 30
0.0
 70
   128
 71
    10
 72
     9
 73
    -8
  0
VERTEX
  5
67E
  8
0
 10
0.0
 20
0.0
 30
0.0
 70
   128
 71
   -10
 72
    -8
 73
   -13
  0
VERTEX
  5
67F
  8
0
 10
0.0
 20
0.0
 30
0.0
 70
   128
 71
   -10
 72
    13
 73
   -12
  0
VERTEX
  5
680
  8
0
 10
0.0
 20
0.0
 30
0.0
 70
   128
 71
     8
 72
    -7
 73
   -14
  0
VERTEX
  5
681
  8
0
 10
0.0
 20
0.0
 30
0.0
 70
   128
 71
    -8
 72
    14
 73
   -13
  0
VERTEX
  5
682
  8
0
 10
0.0
 20
0.0
 30
0.0
 70
   128
 71
     7
 72
    -6
 73
   -15
  0
VERTEX
  5
683
  8
0
 10
0.0
 20
0.0
 30
0.0
 70
   128
 71
    -7
 72
    15
 73
   -14
  0
VERTEX
  5
684
  8
0
 10
0.0
 20
0.0
 30
0.0
 70
   128
 71
     6
 72
    -5
 73
   -16
  0
VERTEX
  5
685
  8
0
 10
0.0
 20
0.0
 30
0.0
 70
   128
 71
    -6
 72
    16
 73
   -15
  0
VERTEX
  5
686
  8
0
 10
0.0
 20
0.0
 30
0.0
 70
   128
 71
     5
 72
     4
 73
    -3
  0
VERTEX
  5
687
  8
0
 10
0.0
 20
0.0
 30
0.0
 70
   128
 71
    -5
 72
    -3
 73
   -17
  0
VERTEX
  5
688
  8
0
 10
0.0
 20
0.0
 30
0.0
 70
   128
 71
    -5
 72
    17
 73
   -16
  0
VERTEX
  5
689
  8
0
 10
0.0
 20
0.0
 30
0.0
 70
   128
 71
     3
 72
    -2
 73
   -18
  0
VERTEX
  5
68A
  8
0
 10
0.0
 20
0.0
 30
0.0
 70
   128
 71
    -3
 72
    18
 73
   -17
  0
VERTEX
  5
68B
  8
0
 10
0.0
 20
0.0
 30
0.0
 70
   128
 71
     2
 72
    -1
 73
   -11
  0
VERTEX
  5
68C
  8
0
 10
0.0
 20
0.0
 30
0.0
 70
   128
 71
    -2
 72
    11
 73
   -18
  0
SEQEND
  5
A1A
  8
0
  0
POLYLINE
  5
68D
  8
0
 66
     1
 10
0.0
 20
0.0
 30
0.0
 70
    64
 71
    10
 72
     8
  0
VERTEX
  5
68E
  8
0
 10
10.99958115370588
 20
18.5
 30
2.095991890482074
 70
   192
  0
VERTEX
  5
68F
  8
0
 10
10.4996001921738
 20
18.5
 30
2.091628622732889
 70
   192
  0
VERTEX
  5
690
  8
0
 10
10.9625575991429
 20
20.25735931288072
 30
6.338471030844171
 70
   192
  0
VERTEX
  5
691
  8
0
 10
10.9625575991429
 20
28.74264068711928
 30
6.338471030844172
 70
   192
  0
VERTEX
  5
692
  8
0
 10
10.94722194071566
 20
24.5
 30
8.095763428867102
 70
   192
  0
VERTEX
  5
693
  8
0
 10
9.717490368989075
 20
28.73463592351025
 30
6.33595985581875
 70
   192
  0
VERTEX
  5
694
  8
0
 10
9.71730842562275
 20
20.26584990787774
 30
6.336449533544914
 70
   192
  0
VERTEX
  5
695
  8
0
 10
8.913155500079926
 20
24.50034976680341
 30
8.078012389766892
 70
   192
  0
VERTEX
  5
696
  8
0
 10
10.99958115370588
 20
30.5
 30
2.095991890482074
 70
   192
  0
VERTEX
  5
697
  8
0
 10
10.4996001921738
 20
30.5
 30
2.091628622732889
 70
   192
  0
VERTEX
  5
698
  8
0
 10
0.0
 20
0.0
 30
0.0
 70
   128
 71
     1
 72
     2
 73
     3
  0
VERTEX
  5
699
  8
0
 10
0.0
 20
0.0
 30
0.0
 70
   128
 71
     4
 72
     5
 73
     6
  0
VERTEX
  5
69A
  8
0
 10
0.0
 20
0.0
 30
0.0
 70
   128
 71
     7
 72
     3
 73
     2
  0
VERTEX
  5
69B
  8
0
 10
0.0
 20
0.0
 30
0.0
 70
   128
 71
     5
 72
     3
 73
     7
  0
VERTEX
  5
69C
  8
0
 10
0.0
 20
0.0
 30
0.0
 70
   128
 71
     6
 72
     5
 73
     7
  0
VERTEX
  5
69D
  8
0
 10
0.0
 20
0.0
 30
0.0
 70
   128
 71
     8
 72
     6
 73
     7
  0
VERTEX
  5
69E
  8
0
 10
0.0
 20
0.0
 30
0.0
 70
   128
 71
     9
 72
     4
 73
     6
  0
VERTEX
  5
69F
  8
0
 10
0.0
 20
0.0
 30
0.0
 70
   128
 71
    10
 72
     9
 73
     6
  0
SEQEND
  5
A1B
  8
0
  0
POLYLINE
  5
6A0
  8
0
 66
     1
 10
0.0
 20
0.0
 30
0.0
 70
    64
 71
    10
 72
     8
  0
VERTEX
  5
6A1
  8
0
 10
11.03660470826886
 20
28.74264068711928
 30
-2.146487249880023
 70
   192
  0
VERTEX
  5
6A2
  8
0
 10
10.99958115370588
 20
30.5
 30
2.095991890482074
 70
   192
  0
VERTEX
  5
6A3
  8
0
 10
10.4996001921738
 20
30.5
 30
2.091628622732889
 70
   192
  0
VERTEX
  5
6A4
  8
0
 10
11.03660470826886
 20
20.25735931288072
 30
-2.146487249880022
 70
   192
  0
VERTEX
  5
6A5
  8
0
 10
11.0519403666961
 20
24.5
 30
-3.903779647902954
 70
   192
  0
VERTEX
  5
6A6
  8
0
 10
9.791732219808448
 20
20.26522503471178
 30
-2.165566765515743
 70
   192
  0
VERTEX
  5
6A7
  8
0
 10
9.791493383286348
 20
28.73410244540568
 30
-2.166245632919114
 70
   192
  0
VERTEX
  5
6A8
  8
0
 10
9.017873932072678
 20
24.49948978850521
 30
-3.921530655062569
 70
   192
  0
VERTEX
  5
6A9
  8
0
 10
10.99958115370588
 20
18.5
 30
2.095991890482074
 70
   192
  0
VERTEX
  5
6AA
  8
0
 10
10.4996001921738
 20
18.5
 30
2.091628622732889
 70
   192
  0
VERTEX
  5
6AB
  8
0
 10
0.0
 20
0.0
 30
0.0
 70
   128
 71
     1
 72
     2
 73
     3
  0
VERTEX
  5
6AC
  8
0
 10
0.0
 20
0.0
 30
0.0
 70
   128
 71
     4
 72
     5
 73
     6
  0
VERTEX
  5
6AD
  8
0
 10
0.0
 20
0.0
 30
0.0
 70
   128
 71
     7
 72
     1
 73
     3
  0
VERTEX
  5
6AE
  8
0
 10
0.0
 20
0.0
 30
0.0
 70
   128
 71
     5
 72
     1
 73
     7
  0
VERTEX
  5
6AF
  8
0
 10
0.0
 20
0.0
 30
0.0
 70
   128
 71
     6
 72
     5
 73
     7
  0
VERTEX
  5
6B0
  8
0
 10
0.0
 20
0.0
 30
0.0
 70
   128
 71
     8
 72
     6
 73
     7
  0
VERTEX
  5
6B1
  8
0
 10
0.0
 20
0.0
 30
0.0
 70
   128
 71
     9
 72
     4
 73
     6
  0
VERTEX
  5
6B2
  8
0
 10
0.0
 20
0.0
 30
0.0
 70
   128
 71
    10
 72
     9
 73
     6
  0
SEQEND
  5
A1C
  8
0
  0
POLYLINE
  5
6B3
  8
0
 66
     1
 10
0.0
 20
0.0
 30
0.0
 70
    64
 71
    17
 72
    15
  0
VERTEX
  5
6B4
  8
0
 10
-14.49944788443049
 20
34.5
 30
1.873465235273629
 70
   192
  0
VERTEX
  5
6B5
  8
0
 10
-14.49944788443049
 20
2.5
 30
1.873465235273629
 70
   192
  0
VERTEX
  5
6B6
  8
0
 10
-12.04813460384359
 20
2.5
 30
-5.452737905388473
 70
   192
  0
VERTEX
  5
6B7
  8
0
 10
-12.04813460384359
 20
34.5
 30
-5.452737905388473
 70
   192
  0
VERTEX
  5
6B8
  8
0
 10
10.4996001921738
 20
2.5
 30
2.091628622732889
 70
   192
  0
VERTEX
  5
6B9
  8
0
 10
10.4996001921738
 20
18.5
 30
2.091628622732889
 70
   192
  0
VERTEX
  5
6BA
  8
0
 10
9.791732219808448
 20
20.26522503471178
 30
-2.165566765515743
 70
   192
  0
VERTEX
  5
6BB
  8
0
 10
8.17652013332562
 20
2.5
 30
-5.276240017383524
 70
   192
  0
VERTEX
  5
6BC
  8
0
 10
9.017873932072678
 20
24.49948978850521
 30
-3.921530655062569
 70
   192
  0
VERTEX
  5
6BD
  8
0
 10
8.17652013332562
 20
34.5
 30
-5.276240017383524
 70
   192
  0
VERTEX
  5
6BE
  8
0
 10
9.791493383286348
 20
28.73410244540568
 30
-2.166245632919114
 70
   192
  0
VERTEX
  5
6BF
  8
0
 10
10.4996001921738
 20
30.5
 30
2.091628622732889
 70
   192
  0
VERTEX
  5
6C0
  8
0
 10
10.4996001921738
 20
34.5
 30
2.091628622732889
 70
   192
  0
VERTEX
  5
6C1
  8
0
 10
1.966384358935265
 20
34.5
 30
-9.87149876107425
 70
   192
  0
VERTEX
  5
6C2
  8
0
 10
-5.758746339931802
 20
34.5
 30
-9.938914955349567
 70
   192
  0
VERTEX
  5
6C3
  8
0
 10
-5.758746339931802
 20
2.5
 30
-9.938914955349567
 70
   192
  0
VERTEX
  5
6C4
  8
0
 10
1.966384358935265
 20
2.5
 30
-9.87149876107425
 70
   192
  0
VERTEX
  5
6C5
  8
0
 10
0.0
 20
0.0
 30
0.0
 70
   128
 71
     1
 72
     2
 73
    -3
  0
VERTEX
  5
6C6
  8
0
 10
0.0
 20
0.0
 30
0.0
 70
   128
 71
     4
 72
    -1
 73
     3
  0
VERTEX
  5
6C7
  8
0
 10
0.0
 20
0.0
 30
0.0
 70
   128
 71
     5
 72
     6
 73
     7
  0
VERTEX
  5
6C8
  8
0
 10
0.0
 20
0.0
 30
0.0
 70
   128
 71
     8
 72
     5
 73
     7
  0
VERTEX
  5
6C9
  8
0
 10
0.0
 20
0.0
 30
0.0
 70
   128
 71
     7
 72
     9
 73
     8
  0
VERTEX
  5
6CA
  8
0
 10
0.0
 20
0.0
 30
0.0
 70
   128
 71
     9
 72
    10
 73
     8
  0
VERTEX
  5
6CB
  8
0
 10
0.0
 20
0.0
 30
0.0
 70
   128
 71
     9
 72
    11
 73
    10
  0
VERTEX
  5
6CC
  8
0
 10
0.0
 20
0.0
 30
0.0
 70
   128
 71
    12
 72
    13
 73
    10
  0
VERTEX
  5
6CD
  8
0
 10
0.0
 20
0.0
 30
0.0
 70
   128
 71
    11
 72
    12
 73
    10
  0
VERTEX
  5
6CE
  8
0
 10
0.0
 20
0.0
 30
0.0
 70
   128
 71
    14
 72
    15
 73
   -16
  0
VERTEX
  5
6CF
  8
0
 10
0.0
 20
0.0
 30
0.0
 70
   128
 71
    17
 72
   -14
 73
    16
  0
VERTEX
  5
6D0
  8
0
 10
0.0
 20
0.0
 30
0.0
 70
   128
 71
    15
 72
     4
 73
    -3
  0
VERTEX
  5
6D1
  8
0
 10
0.0
 20
0.0
 30
0.0
 70
   128
 71
    16
 72
   -15
 73
     3
  0
VERTEX
  5
6D2
  8
0
 10
0.0
 20
0.0
 30
0.0
 70
   128
 71
    10
 72
    14
 73
   -17
  0
VERTEX
  5
6D3
  8
0
 10
0.0
 20
0.0
 30
0.0
 70
   128
 71
     8
 72
   -10
 73
    17
  0
SEQEND
  5
A1D
  8
0
  0
POLYLINE
  5
6D4
  8
0
 66
     1
 10
0.0
 20
0.0
 30
0.0
 70
    64
 71
    17
 72
    15
  0
VERTEX
  5
6D5
  8
0
 10
10.4996001921738
 20
34.5
 30
2.091628622732889
 70
   192
  0
VERTEX
  5
6D6
  8
0
 10
10.4996001921738
 20
30.5
 30
2.091628622732889
 70
   192
  0
VERTEX
  5
6D7
  8
0
 10
9.717490368989075
 20
28.73463592351025
 30
6.33595985581875
 70
   192
  0
VERTEX
  5
6D8
  8
0
 10
8.0482869115869
 20
34.5
 30
9.41783176339499
 70
   192
  0
VERTEX
  5
6D9
  8
0
 10
8.913155500079926
 20
24.50034976680341
 30
8.078012389766892
 70
   192
  0
VERTEX
  5
6DA
  8
0
 10
8.0482869115869
 20
2.5
 30
9.41783176339499
 70
   192
  0
VERTEX
  5
6DB
  8
0
 10
9.71730842562275
 20
20.26584990787774
 30
6.336449533544914
 70
   192
  0
VERTEX
  5
6DC
  8
0
 10
10.4996001921738
 20
18.5
 30
2.091628622732889
 70
   192
  0
VERTEX
  5
6DD
  8
0
 10
10.4996001921738
 20
2.5
 30
2.091628622732889
 70
   192
  0
VERTEX
  5
6DE
  8
0
 10
-14.49944788443049
 20
2.5
 30
1.873465235273629
 70
   192
  0
VERTEX
  5
6DF
  8
0
 10
-14.49944788443049
 20
34.5
 30
1.873465235273629
 70
   192
  0
VERTEX
  5
6E0
  8
0
 10
-12.17636782558231
 20
34.5
 30
9.241333875390042
 70
   192
  0
VERTEX
  5
6E1
  8
0
 10
-12.17636782558231
 20
2.5
 30
9.241333875390042
 70
   192
  0
VERTEX
  5
6E2
  8
0
 10
-5.966232051191957
 20
34.5
 30
13.83659261908077
 70
   192
  0
VERTEX
  5
6E3
  8
0
 10
1.758898647675111
 20
34.5
 30
13.90400881335609
 70
   192
  0
VERTEX
  5
6E4
  8
0
 10
1.758898647675111
 20
2.5
 30
13.90400881335609
 70
   192
  0
VERTEX
  5
6E5
  8
0
 10
-5.966232051191957
 20
2.5
 30
13.83659261908077
 70
   192
  0
VERTEX
  5
6E6
  8
0
 10
0.0
 20
0.0
 30
0.0
 70
   128
 71
     1
 72
     2
 73
     3
  0
VERTEX
  5
6E7
  8
0
 10
0.0
 20
0.0
 30
0.0
 70
   128
 71
     4
 72
     1
 73
     3
  0
VERTEX
  5
6E8
  8
0
 10
0.0
 20
0.0
 30
0.0
 70
   128
 71
     3
 72
     5
 73
     4
  0
VERTEX
  5
6E9
  8
0
 10
0.0
 20
0.0
 30
0.0
 70
   128
 71
     6
 72
     4
 73
     5
  0
VERTEX
  5
6EA
  8
0
 10
0.0
 20
0.0
 30
0.0
 70
   128
 71
     5
 72
     7
 73
     6
  0
VERTEX
  5
6EB
  8
0
 10
0.0
 20
0.0
 30
0.0
 70
   128
 71
     8
 72
     9
 73
     6
  0
VERTEX
  5
6EC
  8
0
 10
0.0
 20
0.0
 30
0.0
 70
   128
 71
     7
 72
     8
 73
     6
  0
VERTEX
  5
6ED
  8
0
 10
0.0
 20
0.0
 30
0.0
 70
   128
 71
    10
 72
    11
 73
   -12
  0
VERTEX
  5
6EE
  8
0
 10
0.0
 20
0.0
 30
0.0
 70
   128
 71
    13
 72
   -10
 73
    12
  0
VERTEX
  5
6EF
  8
0
 10
0.0
 20
0.0
 30
0.0
 70
   128
 71
    14
 72
    15
 73
   -16
  0
VERTEX
  5
6F0
  8
0
 10
0.0
 20
0.0
 30
0.0
 70
   128
 71
    17
 72
   -14
 73
    16
  0
VERTEX
  5
6F1
  8
0
 10
0.0
 20
0.0
 30
0.0
 70
   128
 71
    15
 72
     4
 73
    -6
  0
VERTEX
  5
6F2
  8
0
 10
0.0
 20
0.0
 30
0.0
 70
   128
 71
    16
 72
   -15
 73
     6
  0
VERTEX
  5
6F3
  8
0
 10
0.0
 20
0.0
 30
0.0
 70
   128
 71
    12
 72
    14
 73
   -17
  0
VERTEX
  5
6F4
  8
0
 10
0.0
 20
0.0
 30
0.0
 70
   128
 71
    13
 72
   -12
 73
    17
  0
SEQEND
  5
A1E
  8
0
  0
POLYLINE
  5
6F5
  8
0
 66
     1
 10
0.0
 20
0.0
 30
0.0
 70
    64
 71
    10
 72
     8
  0
VERTEX
  5
6F6
  8
0
 10
-14.49944788443049
 20
34.5
 30
1.873465235273629
 70
   192
  0
VERTEX
  5
6F7
  8
0
 10
-12.04813460384359
 20
34.5
 30
-5.452737905388473
 70
   192
  0
VERTEX
  5
6F8
  8
0
 10
-5.758746339931802
 20
34.5
 30
-9.938914955349567
 70
   192
  0
VERTEX
  5
6F9
  8
0
 10
1.966384358935265
 20
34.5
 30
-9.87149876107425
 70
   192
  0
VERTEX
  5
6FA
  8
0
 10
8.17652013332562
 20
34.5
 30
-5.276240017383524
 70
   192
  0
VERTEX
  5
6FB
  8
0
 10
10.4996001921738
 20
34.5
 30
2.091628622732889
 70
   192
  0
VERTEX
  5
6FC
  8
0
 10
8.0482869115869
 20
34.5
 30
9.41783176339499
 70
   192
  0
VERTEX
  5
6FD
  8
0
 10
1.758898647675111
 20
34.5
 30
13.90400881335609
 70
   192
  0
VERTEX
  5
6FE
  8
0
 10
-5.966232051191957
 20
34.5
 30
13.83659261908077
 70
   192
  0
VERTEX
  5
6FF
  8
0
 10
-12.17636782558231
 20
34.5
 30
9.241333875390042
 70
   192
  0
VERTEX
  5
700
  8
0
 10
0.0
 20
0.0
 30
0.0
 70
   128
 71
     9
 72
    10
 73
    -1
  0
VERTEX
  5
701
  8
0
 10
0.0
 20
0.0
 30
0.0
 70
   128
 71
     8
 72
    -9
 73
    -1
  0
VERTEX
  5
702
  8
0
 10
0.0
 20
0.0
 30
0.0
 70
   128
 71
     7
 72
    -8
 73
    -1
  0
VERTEX
  5
703
  8
0
 10
0.0
 20
0.0
 30
0.0
 70
   128
 71
     6
 72
    -7
 73
    -1
  0
VERTEX
  5
704
  8
0
 10
0.0
 20
0.0
 30
0.0
 70
   128
 71
     5
 72
    -6
 73
    -1
  0
VERTEX
  5
705
  8
0
 10
0.0
 20
0.0
 30
0.0
 70
   128
 71
     4
 72
    -5
 73
    -1
  0
VERTEX
  5
706
  8
0
 10
0.0
 20
0.0
 30
0.0
 70
   128
 71
     3
 72
    -4
 73
    -1
  0
VERTEX
  5
707
  8
0
 10
0.0
 20
0.0
 30
0.0
 70
   128
 71
     2
 72
    -3
 73
     1
  0
SEQEND
  5
A1F
  8
0
  0
POLYLINE
  5
708
  8
0
 66
     1
 10
0.0
 20
0.0
 30
0.0
 70
    64
 71
    20
 72
    20
  0
VERTEX
  5
709
  8
0
 10
-14.49944788443049
 20
2.5
 30
1.873465235273629
 70
   192
  0
VERTEX
  5
70A
  8
0
 10
-12.04813460384359
 20
2.5
 30
-5.452737905388473
 70
   192
  0
VERTEX
  5
70B
  8
0
 10
-5.758746339931802
 20
2.5
 30
-9.938914955349567
 70
   192
  0
VERTEX
  5
70C
  8
0
 10
1.966384358935265
 20
2.5
 30
-9.87149876107425
 70
   192
  0
VERTEX
  5
70D
  8
0
 10
8.17652013332562
 20
2.5
 30
-5.276240017383524
 70
   192
  0
VERTEX
  5
70E
  8
0
 10
10.4996001921738
 20
2.5
 30
2.091628622732889
 70
   192
  0
VERTEX
  5
70F
  8
0
 10
8.0482869115869
 20
2.5
 30
9.41783176339499
 70
   192
  0
VERTEX
  5
710
  8
0
 10
1.758898647675111
 20
2.5
 30
13.90400881335609
 70
   192
  0
VERTEX
  5
711
  8
0
 10
-5.966232051191957
 20
2.5
 30
13.83659261908077
 70
   192
  0
VERTEX
  5
712
  8
0
 10
-12.17636782558231
 20
2.5
 30
9.241333875390042
 70
   192
  0
VERTEX
  5
713
  8
0
 10
-1.999923846128343
 20
2.5
 30
12.48254692900326
 70
   192
  0
VERTEX
  5
714
  8
0
 10
4.171821302942624
 20
2.5
 30
10.47722536994021
 70
   192
  0
VERTEX
  5
715
  8
0
 10
7.986169574970769
 20
2.5
 30
5.227225369940211
 70
   192
  0
VERTEX
  5
716
  8
0
 10
7.986169574970771
 20
2.5
 30
-1.262131511933684
 70
   192
  0
VERTEX
  5
717
  8
0
 10
4.171821302942631
 20
2.5
 30
-6.512131511933687
 70
   192
  0
VERTEX
  5
718
  8
0
 10
-1.99992384612834
 20
2.5
 30
-8.517453070996746
 70
   192
  0
VERTEX
  5
719
  8
0
 10
-8.171668995199312
 20
2.5
 30
-6.512131511933694
 70
   192
  0
VERTEX
  5
71A
  8
0
 10
-11.98601726722746
 20
2.5
 30
-1.262131511933693
 70
   192
  0
VERTEX
  5
71B
  8
0
 10
-11.98601726722746
 20
2.5
 30
5.227225369940207
 70
   192
  0
VERTEX
  5
71C
  8
0
 10
-8.171668995199315
 20
2.5
 30
10.47722536994021
 70
   192
  0
VERTEX
  5
71D
  8
0
 10
0.0
 20
0.0
 30
0.0
 70
   128
 71
    12
 72
   -11
 73
    -8
  0
VERTEX
  5
71E
  8
0
 10
0.0
 20
0.0
 30
0.0
 70
   128
 71
     8
 72
    -7
 73
   -12
  0
VERTEX
  5
71F
  8
0
 10
0.0
 20
0.0
 30
0.0
 70
   128
 71
    -7
 72
    13
 73
   -12
  0
VERTEX
  5
720
  8
0
 10
0.0
 20
0.0
 30
0.0
 70
   128
 71
     7
 72
    -6
 73
   -13
  0
VERTEX
  5
721
  8
0
 10
0.0
 20
0.0
 30
0.0
 70
   128
 71
    -6
 72
    14
 73
   -13
  0
VERTEX
  5
722
  8
0
 10
0.0
 20
0.0
 30
0.0
 70
   128
 71
     6
 72
    -5
 73
   -14
  0
VERTEX
  5
723
  8
0
 10
0.0
 20
0.0
 30
0.0
 70
   128
 71
    -5
 72
    15
 73
   -14
  0
VERTEX
  5
724
  8
0
 10
0.0
 20
0.0
 30
0.0
 70
   128
 71
     5
 72
    -4
 73
   -15
  0
VERTEX
  5
725
  8
0
 10
0.0
 20
0.0
 30
0.0
 70
   128
 71
    -4
 72
    16
 73
   -15
  0
VERTEX
  5
726
  8
0
 10
0.0
 20
0.0
 30
0.0
 70
   128
 71
     4
 72
    -3
 73
   -16
  0
VERTEX
  5
727
  8
0
 10
0.0
 20
0.0
 30
0.0
 70
   128
 71
    -3
 72
    17
 73
   -16
  0
VERTEX
  5
728
  8
0
 10
0.0
 20
0.0
 30
0.0
 70
   128
 71
     3
 72
    -2
 73
   -17
  0
VERTEX
  5
729
  8
0
 10
0.0
 20
0.0
 30
0.0
 70
   128
 71
    -2
 72
    18
 73
   -17
  0
VERTEX
  5
72A
  8
0
 10
0.0
 20
0.0
 30
0.0
 70
   128
 71
     2
 72
    -1
 73
   -18
  0
VERTEX
  5
72B
  8
0
 10
0.0
 20
0.0
 30
0.0
 70
   128
 71
    -1
 72
    19
 73
   -18
  0
VERTEX
  5
72C
  8
0
 10
0.0
 20
0.0
 30
0.0
 70
   128
 71
     1
 72
   -10
 73
   -19
  0
VERTEX
  5
72D
  8
0
 10
0.0
 20
0.0
 30
0.0
 70
   128
 71
   -10
 72
    20
 73
   -19
  0
VERTEX
  5
72E
  8
0
 10
0.0
 20
0.0
 30
0.0
 70
   128
 71
    10
 72
    -9
 73
   -20
  0
VERTEX
  5
72F
  8
0
 10
0.0
 20
0.0
 30
0.0
 70
   128
 71
    -9
 72
    11
 73
   -20
  0
VERTEX
  5
730
  8
0
 10
0.0
 20
0.0
 30
0.0
 70
   128
 71
     9
 72
    -8
 73
   -11
  0
SEQEND
  5
A20
  8
0
  0
POLYLINE
  5
731
  8
0
 66
     1
 10
0.0
 20
0.0
 30
0.0
 70
    64
 71
    20
 72
    20
  0
VERTEX
  5
732
  8
0
 10
-1.88647888464953
 20
-1.5
 30
-11.01695807083097
 70
   192
  0
VERTEX
  5
733
  8
0
 10
5.732772381639056
 20
-1.5
 30
-8.467592259020595
 70
   192
  0
VERTEX
  5
734
  8
0
 10
10.39839651359859
 20
-1.5
 30
-1.926628464552336
 70
   192
  0
VERTEX
  5
735
  8
0
 10
10.32828367155226
 20
-1.5
 30
6.107507462269416
 70
   192
  0
VERTEX
  5
736
  8
0
 10
5.549214578113911
 20
-1.5
 30
12.56604866763539
 70
   192
  0
VERTEX
  5
737
  8
0
 10
-2.113368807607162
 20
-1.5
 30
14.98205192883749
 70
   192
  0
VERTEX
  5
738
  8
0
 10
-9.732620073895749
 20
-1.5
 30
12.43268611702711
 70
   192
  0
VERTEX
  5
739
  8
0
 10
-14.39824420585528
 20
-1.5
 30
5.891722322558854
 70
   192
  0
VERTEX
  5
73A
  8
0
 10
-14.32813136380895
 20
-1.5
 30
-2.142413604262898
 70
   192
  0
VERTEX
  5
73B
  8
0
 10
-9.549062270370602
 20
-1.5
 30
-8.600954809628867
 70
   192
  0
VERTEX
  5
73C
  8
0
 10
-1.999923846128346
 20
-1.5
 30
12.48254692900326
 70
   192
  0
VERTEX
  5
73D
  8
0
 10
4.171821302942622
 20
-1.5
 30
10.47722536994021
 70
   192
  0
VERTEX
  5
73E
  8
0
 10
7.986169574970768
 20
-1.5
 30
5.227225369940207
 70
   192
  0
VERTEX
  5
73F
  8
0
 10
7.986169574970768
 20
-1.5
 30
-1.262131511933689
 70
   192
  0
VERTEX
  5
740
  8
0
 10
4.171821302942622
 20
-1.5
 30
-6.512131511933688
 70
   192
  0
VERTEX
  5
741
  8
0
 10
-1.999923846128346
 20
-1.5
 30
-8.51745307099674
 70
   192
  0
VERTEX
  5
742
  8
0
 10
-8.171668995199315
 20
-1.5
 30
-6.512131511933688
 70
   192
  0
VERTEX
  5
743
  8
0
 10
-11.98601726722746
 20
-1.5
 30
-1.262131511933688
 70
   192
  0
VERTEX
  5
744
  8
0
 10
-11.98601726722746
 20
-1.5
 30
5.227225369940209
 70
   192
  0
VERTEX
  5
745
  8
0
 10
-8.171668995199312
 20
-1.5
 30
10.47722536994021
 70
   192
  0
VERTEX
  5
746
  8
0
 10
0.0
 20
0.0
 30
0.0
 70
   128
 71
    -6
 72
    11
 73
   -12
  0
VERTEX
  5
747
  8
0
 10
0.0
 20
0.0
 30
0.0
 70
   128
 71
     5
 72
    -6
 73
   -12
  0
VERTEX
  5
748
  8
0
 10
0.0
 20
0.0
 30
0.0
 70
   128
 71
   -13
 72
     4
 73
    -5
  0
VERTEX
  5
749
  8
0
 10
0.0
 20
0.0
 30
0.0
 70
   128
 71
    12
 72
   -13
 73
    -5
  0
VERTEX
  5
74A
  8
0
 10
0.0
 20
0.0
 30
0.0
 70
   128
 71
   -14
 72
     3
 73
    -4
  0
VERTEX
  5
74B
  8
0
 10
0.0
 20
0.0
 30
0.0
 70
   128
 71
    13
 72
   -14
 73
    -4
  0
VERTEX
  5
74C
  8
0
 10
0.0
 20
0.0
 30
0.0
 70
   128
 71
   -15
 72
     2
 73
    -3
  0
VERTEX
  5
74D
  8
0
 10
0.0
 20
0.0
 30
0.0
 70
   128
 71
    14
 72
   -15
 73
    -3
  0
VERTEX
  5
74E
  8
0
 10
0.0
 20
0.0
 30
0.0
 70
   128
 71
   -16
 72
     1
 73
    -2
  0
VERTEX
  5
74F
  8
0
 10
0.0
 20
0.0
 30
0.0
 70
   128
 71
    15
 72
   -16
 73
    -2
  0
VERTEX
  5
750
  8
0
 10
0.0
 20
0.0
 30
0.0
 70
   128
 71
   -17
 72
    10
 73
    -1
  0
VERTEX
  5
751
  8
0
 10
0.0
 20
0.0
 30
0.0
 70
   128
 71
    16
 72
   -17
 73
    -1
  0
VERTEX
  5
752
  8
0
 10
0.0
 20
0.0
 30
0.0
 70
   128
 71
   -18
 72
     9
 73
   -10
  0
VERTEX
  5
753
  8
0
 10
0.0
 20
0.0
 30
0.0
 70
   128
 71
    17
 72
   -18
 73
   -10
  0
VERTEX
  5
754
  8
0
 10
0.0
 20
0.0
 30
0.0
 70
   128
 71
   -19
 72
     8
 73
    -9
  0
VERTEX
  5
755
  8
0
 10
0.0
 20
0.0
 30
0.0
 70
   128
 71
    18
 72
   -19
 73
    -9
  0
VERTEX
  5
756
  8
0
 10
0.0
 20
0.0
 30
0.0
 70
   128
 71
   -20
 72
     7
 73
    -8
  0
VERTEX
  5
757
  8
0
 10
0.0
 20
0.0
 30
0.0
 70
   128
 71
    19
 72
   -20
 73
    -8
  0
VERTEX
  5
758
  8
0
 10
0.0
 20
0.0
 30
0.0
 70
   128
 71
   -11
 72
     6
 73
    -7
  0
VERTEX
  5
759
  8
0
 10
0.0
 20
0.0
 30
0.0
 70
   128
 71
    20
 72
   -11
 73
    -7
  0
SEQEND
  5
A21
  8
0
  0
ENDBLK
  5
A0D
  8
0
  0
BLOCK
  8
0
  2
*X2
 70
     1
 10
0.0
 20
0.0
 30
0.0
  3
*X2
  1

  0
POLYLINE
  5
75B
  8
0
 66
     1
 10
0.0
 20
0.0
 30
0.0
 70
    64
 71
    14
 72
    12
  0
VERTEX
  5
75C
  8
0
 10
27.06812214580446
 20
29.075
 30
-5.688214259489023
 70
   192
  0
VERTEX
  5
75D
  8
0
 10
27.07881972254271
 20
24.5
 30
-6.914035137581166
 70
   192
  0
VERTEX
  5
75E
  8
0
 10
15.57925760730474
 20
24.5
 30
-7.014390295812425
 70
   192
  0
VERTEX
  5
75F
  8
0
 10
15.56856003056648
 20
29.075
 30
-5.788569417720282
 70
   192
  0
VERTEX
  5
760
  8
0
 10
15.5393337073997
 20
32.42413244462762
 30
-2.439564497793844
 70
   192
  0
VERTEX
  5
761
  8
0
 10
15.49940980749465
 20
33.65
 30
2.135261300224739
 70
   192
  0
VERTEX
  5
762
  8
0
 10
26.99897192273262
 20
33.65
 30
2.235616458455999
 70
   192
  0
VERTEX
  5
763
  8
0
 10
27.03889582263767
 20
32.42413244462762
 30
-2.339209339562584
 70
   192
  0
VERTEX
  5
764
  8
0
 10
26.95904802282758
 20
32.42413244462762
 30
6.810442256474584
 70
   192
  0
VERTEX
  5
765
  8
0
 10
15.45948590758961
 20
32.42413244462762
 30
6.710087098243323
 70
   192
  0
VERTEX
  5
766
  8
0
 10
15.43025958442282
 20
29.075
 30
10.05909201816976
 70
   192
  0
VERTEX
  5
767
  8
0
 10
15.41956200768456
 20
24.5
 30
11.28491289626191
 70
   192
  0
VERTEX
  5
768
  8
0
 10
26.91912412292253
 20
24.5
 30
11.38526805449317
 70
   192
  0
VERTEX
  5
769
  8
0
 10
26.92982169966079
 20
29.075
 30
10.15944717640102
 70
   192
  0
VERTEX
  5
76A
  8
0
 10
0.0
 20
0.0
 30
0.0
 70
   128
 71
     1
 72
     2
 73
    -3
  0
VERTEX
  5
76B
  8
0
 10
0.0
 20
0.0
 30
0.0
 70
   128
 71
    -1
 72
     3
 73
     4
  0
VERTEX
  5
76C
  8
0
 10
0.0
 20
0.0
 30
0.0
 70
   128
 71
     5
 72
     6
 73
    -7
  0
VERTEX
  5
76D
  8
0
 10
0.0
 20
0.0
 30
0.0
 70
   128
 71
    -5
 72
     7
 73
     8
  0
VERTEX
  5
76E
  8
0
 10
0.0
 20
0.0
 30
0.0
 70
   128
 71
     9
 72
     7
 73
    -6
  0
VERTEX
  5
76F
  8
0
 10
0.0
 20
0.0
 30
0.0
 70
   128
 71
    -9
 72
     6
 73
    10
  0
VERTEX
  5
770
  8
0
 10
0.0
 20
0.0
 30
0.0
 70
   128
 71
    11
 72
    12
 73
   -13
  0
VERTEX
  5
771
  8
0
 10
0.0
 20
0.0
 30
0.0
 70
   128
 71
   -11
 72
    13
 73
    14
  0
VERTEX
  5
772
  8
0
 10
0.0
 20
0.0
 30
0.0
 70
   128
 71
     1
 72
     4
 73
    -5
  0
VERTEX
  5
773
  8
0
 10
0.0
 20
0.0
 30
0.0
 70
   128
 71
    -1
 72
     5
 73
     8
  0
VERTEX
  5
774
  8
0
 10
0.0
 20
0.0
 30
0.0
 70
   128
 71
     9
 72
    10
 73
   -11
  0
VERTEX
  5
775
  8
0
 10
0.0
 20
0.0
 30
0.0
 70
   128
 71
    -9
 72
    11
 73
    14
  0
SEQEND
  5
A24
  8
0
  0
POLYLINE
  5
776
  8
0
 66
     1
 10
0.0
 20
0.0
 30
0.0
 70
    64
 71
     8
 72
     6
  0
VERTEX
  5
777
  8
0
 10
26.55567147191515
 20
20.75
 30
-4.263690020723532
 70
   192
  0
VERTEX
  5
778
  8
0
 10
26.53171546931942
 20
18.00480947161672
 30
-1.518604020783836
 70
   192
  0
VERTEX
  5
779
  8
0
 10
27.0338780647261
 20
17.5717967697245
 30
-1.764231233800699
 70
   192
  0
VERTEX
  5
77A
  8
0
 10
27.05943113416155
 20
20.5
 30
-4.692322967069716
 70
   192
  0
VERTEX
  5
77B
  8
0
 10
26.49899096120053
 20
17.0
 30
2.231253190706797
 70
   192
  0
VERTEX
  5
77C
  8
0
 10
26.99897192273262
 20
16.50000000000408
 30
2.235616458455982
 70
   192
  0
VERTEX
  5
77D
  8
0
 10
26.56443997743831
 20
24.5
 30
-5.268461232274468
 70
   192
  0
VERTEX
  5
77E
  8
0
 10
27.06878420671958
 20
24.5
 30
-5.764078926057389
 70
   192
  0
VERTEX
  5
77F
  8
0
 10
0.0
 20
0.0
 30
0.0
 70
   128
 71
     1
 72
     2
 73
    -3
  0
VERTEX
  5
780
  8
0
 10
0.0
 20
0.0
 30
0.0
 70
   128
 71
     4
 72
    -1
 73
     3
  0
VERTEX
  5
781
  8
0
 10
0.0
 20
0.0
 30
0.0
 70
   128
 71
     2
 72
     5
 73
    -6
  0
VERTEX
  5
782
  8
0
 10
0.0
 20
0.0
 30
0.0
 70
   128
 71
     3
 72
    -2
 73
     6
  0
VERTEX
  5
783
  8
0
 10
0.0
 20
0.0
 30
0.0
 70
   128
 71
     7
 72
     1
 73
    -4
  0
VERTEX
  5
784
  8
0
 10
0.0
 20
0.0
 30
0.0
 70
   128
 71
     8
 72
    -7
 73
     4
  0
SEQEND
  5
A25
  8
0
  0
POLYLINE
  5
785
  8
0
 66
     1
 10
0.0
 20
0.0
 30
0.0
 70
    64
 71
    22
 72
    22
  0
VERTEX
  5
786
  8
0
 10
11.08815548901434
 20
24.50000000000001
 30
-8.053621628619265
 70
   192
  0
VERTEX
  5
787
  8
0
 10
11.07628877820633
 20
29.575
 30
-6.693831255653658
 70
   192
  0
VERTEX
  5
788
  8
0
 10
11.04386832136011
 20
33.29015784841205
 30
-2.978814869068592
 70
   192
  0
VERTEX
  5
789
  8
0
 10
10.99958115370588
 20
34.65
 30
2.095991890482078
 70
   192
  0
VERTEX
  5
78A
  8
0
 10
10.95529398605165
 20
33.29015784841205
 30
7.170798650032747
 70
   192
  0
VERTEX
  5
78B
  8
0
 10
10.92287352920543
 20
29.575
 30
10.88581503661781
 70
   192
  0
VERTEX
  5
78C
  8
0
 10
10.91100681839742
 20
24.5
 30
12.24560540958342
 70
   192
  0
VERTEX
  5
78D
  8
0
 10
10.92287352920543
 20
19.425
 30
10.88581503661781
 70
   192
  0
VERTEX
  5
78E
  8
0
 10
10.95529398605165
 20
15.70984215158795
 30
7.170798650032747
 70
   192
  0
VERTEX
  5
78F
  8
0
 10
10.99958115370588
 20
14.35
 30
2.095991890482078
 70
   192
  0
VERTEX
  5
790
  8
0
 10
11.04386832136011
 20
15.70984215158795
 30
-2.978814869068592
 70
   192
  0
VERTEX
  5
791
  8
0
 10
11.07628877820633
 20
19.425
 30
-6.693831255653658
 70
   192
  0
VERTEX
  5
792
  8
0
 10
11.06503016994366
 20
24.5
 30
-5.403722532499209
 70
   192
  0
VERTEX
  5
793
  8
0
 10
11.05253052010737
 20
20.09161060780645
 30
-3.971404530668688
 70
   192
  0
VERTEX
  5
794
  8
0
 10
11.01980601198848
 20
17.36707612778635
 30
-0.2215473191780446
 70
   192
  0
VERTEX
  5
795
  8
0
 10
10.97935629542329
 20
17.36707612778635
 30
4.413531100142195
 70
   192
  0
VERTEX
  5
796
  8
0
 10
10.9466317873044
 20
20.09161060780645
 30
8.163388311632838
 70
   192
  0
VERTEX
  5
797
  8
0
 10
10.9341321374681
 20
24.5
 30
9.59570631346336
 70
   192
  0
VERTEX
  5
798
  8
0
 10
10.9466317873044
 20
28.90838939219355
 30
8.163388311632838
 70
   192
  0
VERTEX
  5
799
  8
0
 10
10.97935629542329
 20
31.63292387221365
 30
4.413531100142195
 70
   192
  0
VERTEX
  5
79A
  8
0
 10
11.01980601198848
 20
31.63292387221365
 30
-0.2215473191780446
 70
   192
  0
VERTEX
  5
79B
  8
0
 10
11.05253052010737
 20
28.90838939219355
 30
-3.971404530668688
 70
   192
  0
VERTEX
  5
79C
  8
0
 10
0.0
 20
0.0
 30
0.0
 70
   128
 71
    14
 72
   -13
 73
    -1
  0
VERTEX
  5
79D
  8
0
 10
0.0
 20
0.0
 30
0.0
 70
   128
 71
   -14
 72
     1
 73
   -12
  0
VERTEX
  5
79E
  8
0
 10
0.0
 20
0.0
 30
0.0
 70
   128
 71
    12
 72
   -11
 73
   -15
  0
VERTEX
  5
79F
  8
0
 10
0.0
 20
0.0
 30
0.0
 70
   128
 71
   -12
 72
    15
 73
   -14
  0
VERTEX
  5
7A0
  8
0
 10
0.0
 20
0.0
 30
0.0
 70
   128
 71
    11
 72
    10
 73
    -9
  0
VERTEX
  5
7A1
  8
0
 10
0.0
 20
0.0
 30
0.0
 70
   128
 71
   -11
 72
    -9
 73
   -16
  0
VERTEX
  5
7A2
  8
0
 10
0.0
 20
0.0
 30
0.0
 70
   128
 71
   -11
 72
    16
 73
   -15
  0
VERTEX
  5
7A3
  8
0
 10
0.0
 20
0.0
 30
0.0
 70
   128
 71
     9
 72
    -8
 73
   -17
  0
VERTEX
  5
7A4
  8
0
 10
0.0
 20
0.0
 30
0.0
 70
   128
 71
    -9
 72
    17
 73
   -16
  0
VERTEX
  5
7A5
  8
0
 10
0.0
 20
0.0
 30
0.0
 70
   128
 71
     8
 72
    -7
 73
   -18
  0
VERTEX
  5
7A6
  8
0
 10
0.0
 20
0.0
 30
0.0
 70
   128
 71
    -8
 72
    18
 73
   -17
  0
VERTEX
  5
7A7
  8
0
 10
0.0
 20
0.0
 30
0.0
 70
   128
 71
     7
 72
    -6
 73
   -19
  0
VERTEX
  5
7A8
  8
0
 10
0.0
 20
0.0
 30
0.0
 70
   128
 71
    -7
 72
    19
 73
   -18
  0
VERTEX
  5
7A9
  8
0
 10
0.0
 20
0.0
 30
0.0
 70
   128
 71
     6
 72
    -5
 73
   -20
  0
VERTEX
  5
7AA
  8
0
 10
0.0
 20
0.0
 30
0.0
 70
   128
 71
    -6
 72
    20
 73
   -19
  0
VERTEX
  5
7AB
  8
0
 10
0.0
 20
0.0
 30
0.0
 70
   128
 71
     5
 72
     4
 73
    -3
  0
VERTEX
  5
7AC
  8
0
 10
0.0
 20
0.0
 30
0.0
 70
   128
 71
    -5
 72
    -3
 73
   -21
  0
VERTEX
  5
7AD
  8
0
 10
0.0
 20
0.0
 30
0.0
 70
   128
 71
    -5
 72
    21
 73
   -20
  0
VERTEX
  5
7AE
  8
0
 10
0.0
 20
0.0
 30
0.0
 70
   128
 71
     3
 72
    -2
 73
   -22
  0
VERTEX
  5
7AF
  8
0
 10
0.0
 20
0.0
 30
0.0
 70
   128
 71
    -3
 72
    22
 73
   -21
  0
VERTEX
  5
7B0
  8
0
 10
0.0
 20
0.0
 30
0.0
 70
   128
 71
     2
 72
    -1
 73
   -13
  0
VERTEX
  5
7B1
  8
0
 10
0.0
 20
0.0
 30
0.0
 70
   128
 71
    -2
 72
    13
 73
   -22
  0
SEQEND
  5
A26
  8
0
  0
POLYLINE
  5
7B2
  8
0
 66
     1
 10
0.0
 20
0.0
 30
0.0
 70
    64
 71
    13
 72
    11
  0
VERTEX
  5
7B3
  8
0
 10
10.9341321374681
 20
24.5
 30
9.59570631346336
 70
   192
  0
VERTEX
  5
7B4
  8
0
 10
26.43354194496344
 20
24.50000000057356
 30
9.730967613610105
 70
   192
  0
VERTEX
  5
7B5
  8
0
 10
26.44231045048592
 20
20.75
 30
8.726196402137159
 70
   192
  0
VERTEX
  5
7B6
  8
0
 10
10.9466317873044
 20
20.09161060780645
 30
8.163388311632838
 70
   192
  0
VERTEX
  5
7B7
  8
0
 10
26.46626645308164
 20
18.0048094716167
 30
5.98111040219745
 70
   192
  0
VERTEX
  5
7B8
  8
0
 10
26.49899096120053
 20
17.0
 30
2.2312531907068
 70
   192
  0
VERTEX
  5
7B9
  8
0
 10
10.97935629542329
 20
17.36707612778635
 30
4.413531100142195
 70
   192
  0
VERTEX
  5
7BA
  8
0
 10
26.56443997743763
 20
24.49999999942644
 30
-5.26846123219647
 70
   192
  0
VERTEX
  5
7BB
  8
0
 10
11.06503016994366
 20
24.5
 30
-5.403722532498925
 70
   192
  0
VERTEX
  5
7BC
  8
0
 10
11.05253052010737
 20
20.09161060780645
 30
-3.971404530668688
 70
   192
  0
VERTEX
  5
7BD
  8
0
 10
26.55567147191515
 20
20.75
 30
-4.263690020723532
 70
   192
  0
VERTEX
  5
7BE
  8
0
 10
26.53171546931942
 20
18.00480947161672
 30
-1.518604020783836
 70
   192
  0
VERTEX
  5
7BF
  8
0
 10
11.01980601198848
 20
17.36707612778635
 30
-0.2215473191780446
 70
   192
  0
VERTEX
  5
7C0
  8
0
 10
0.0
 20
0.0
 30
0.0
 70
   128
 71
     1
 72
     2
 73
     3
  0
VERTEX
  5
7C1
  8
0
 10
0.0
 20
0.0
 30
0.0
 70
   128
 71
     4
 72
     1
 73
     3
  0
VERTEX
  5
7C2
  8
0
 10
0.0
 20
0.0
 30
0.0
 70
   128
 71
     5
 72
     6
 73
     7
  0
VERTEX
  5
7C3
  8
0
 10
0.0
 20
0.0
 30
0.0
 70
   128
 71
     8
 72
     9
 73
    10
  0
VERTEX
  5
7C4
  8
0
 10
0.0
 20
0.0
 30
0.0
 70
   128
 71
    11
 72
     8
 73
    10
  0
VERTEX
  5
7C5
  8
0
 10
0.0
 20
0.0
 30
0.0
 70
   128
 71
    12
 72
    13
 73
     7
  0
VERTEX
  5
7C6
  8
0
 10
0.0
 20
0.0
 30
0.0
 70
   128
 71
     6
 72
    12
 73
     7
  0
VERTEX
  5
7C7
  8
0
 10
0.0
 20
0.0
 30
0.0
 70
   128
 71
     7
 72
     4
 73
     3
  0
VERTEX
  5
7C8
  8
0
 10
0.0
 20
0.0
 30
0.0
 70
   128
 71
     5
 72
     7
 73
     3
  0
VERTEX
  5
7C9
  8
0
 10
0.0
 20
0.0
 30
0.0
 70
   128
 71
    10
 72
    13
 73
    12
  0
VERTEX
  5
7CA
  8
0
 10
0.0
 20
0.0
 30
0.0
 70
   128
 71
    11
 72
    10
 73
    12
  0
SEQEND
  5
A27
  8
0
  0
POLYLINE
  5
7CB
  8
0
 66
     1
 10
0.0
 20
0.0
 30
0.0
 70
    64
 71
     8
 72
     6
  0
VERTEX
  5
7CC
  8
0
 10
26.46626645308164
 20
18.0048094716167
 30
5.98111040219745
 70
   192
  0
VERTEX
  5
7CD
  8
0
 10
26.44231045048592
 20
20.75
 30
8.726196402137159
 70
   192
  0
VERTEX
  5
7CE
  8
0
 10
26.9385127113037
 20
20.50000000000001
 30
9.163555883981681
 70
   192
  0
VERTEX
  5
7CF
  8
0
 10
26.96406578073914
 20
17.5717967697245
 30
6.235464150712665
 70
   192
  0
VERTEX
  5
7D0
  8
0
 10
26.43354194496276
 20
24.5
 30
9.730967613688101
 70
   192
  0
VERTEX
  5
7D1
  8
0
 10
26.92915963874469
 20
24.50000000081572
 30
10.23531184297033
 70
   192
  0
VERTEX
  5
7D2
  8
0
 10
26.4989909612025
 20
17.00000000000197
 30
2.231253190706814
 70
   192
  0
VERTEX
  5
7D3
  8
0
 10
26.99897192273262
 20
16.50000000000408
 30
2.235616458455982
 70
   192
  0
VERTEX
  5
7D4
  8
0
 10
0.0
 20
0.0
 30
0.0
 70
   128
 71
     1
 72
     2
 73
    -3
  0
VERTEX
  5
7D5
  8
0
 10
0.0
 20
0.0
 30
0.0
 70
   128
 71
     4
 72
    -1
 73
     3
  0
VERTEX
  5
7D6
  8
0
 10
0.0
 20
0.0
 30
0.0
 70
   128
 71
     2
 72
     5
 73
    -6
  0
VERTEX
  5
7D7
  8
0
 10
0.0
 20
0.0
 30
0.0
 70
   128
 71
     3
 72
    -2
 73
     6
  0
VERTEX
  5
7D8
  8
0
 10
0.0
 20
0.0
 30
0.0
 70
   128
 71
     7
 72
     1
 73
    -4
  0
VERTEX
  5
7D9
  8
0
 10
0.0
 20
0.0
 30
0.0
 70
   128
 71
     8
 72
    -7
 73
     4
  0
SEQEND
  5
A28
  8
0
  0
POLYLINE
  5
7DA
  8
0
 66
     1
 10
0.0
 20
0.0
 30
0.0
 70
    64
 71
    12
 72
    10
  0
VERTEX
  5
7DB
  8
0
 10
26.56443997743732
 20
24.49999999942644
 30
-5.268461232275477
 70
   192
  0
VERTEX
  5
7DC
  8
0
 10
27.06878420671859
 20
24.49999999918427
 30
-5.764078926058376
 70
   192
  0
VERTEX
  5
7DD
  8
0
 10
27.0554512468942
 20
29.20228201833979
 30
-4.236273057438165
 70
   192
  0
VERTEX
  5
7DE
  8
0
 10
26.55194032760202
 20
28.90838939219355
 30
-3.836143230443946
 70
   192
  0
VERTEX
  5
7DF
  8
0
 10
26.92915963874566
 20
24.5
 30
10.23531184296935
 70
   192
  0
VERTEX
  5
7E0
  8
0
 10
26.43354194496175
 20
24.50000000057356
 30
9.73096761368909
 70
   192
  0
VERTEX
  5
7E1
  8
0
 10
26.44604159479905
 20
28.90838939219355
 30
8.298649611857579
 70
   192
  0
VERTEX
  5
7E2
  8
0
 10
26.94249259857104
 20
29.20228201833979
 30
8.707505974350129
 70
   192
  0
VERTEX
  5
7E3
  8
0
 10
26.47876610291794
 20
31.63292387221365
 30
4.548792400366937
 70
   192
  0
VERTEX
  5
7E4
  8
0
 10
26.51921581948313
 20
31.63292387221365
 30
-0.0862860189533032
 70
   192
  0
VERTEX
  5
7E5
  8
0
 10
27.02054510490072
 20
32.10845213036123
 30
-0.2364253651814794
 70
   192
  0
VERTEX
  5
7E6
  8
0
 10
26.97739874056452
 20
32.10845213036123
 30
4.707658282093442
 70
   192
  0
VERTEX
  5
7E7
  8
0
 10
0.0
 20
0.0
 30
0.0
 70
   128
 71
     1
 72
     2
 73
    -3
  0
VERTEX
  5
7E8
  8
0
 10
0.0
 20
0.0
 30
0.0
 70
   128
 71
     4
 72
    -1
 73
     3
  0
VERTEX
  5
7E9
  8
0
 10
0.0
 20
0.0
 30
0.0
 70
   128
 71
     5
 72
     6
 73
    -7
  0
VERTEX
  5
7EA
  8
0
 10
0.0
 20
0.0
 30
0.0
 70
   128
 71
     8
 72
    -5
 73
     7
  0
VERTEX
  5
7EB
  8
0
 10
0.0
 20
0.0
 30
0.0
 70
   128
 71
     9
 72
    10
 73
   -11
  0
VERTEX
  5
7EC
  8
0
 10
0.0
 20
0.0
 30
0.0
 70
   128
 71
    12
 72
    -9
 73
    11
  0
VERTEX
  5
7ED
  8
0
 10
0.0
 20
0.0
 30
0.0
 70
   128
 71
    10
 72
     4
 73
    -3
  0
VERTEX
  5
7EE
  8
0
 10
0.0
 20
0.0
 30
0.0
 70
   128
 71
    11
 72
   -10
 73
     3
  0
VERTEX
  5
7EF
  8
0
 10
0.0
 20
0.0
 30
0.0
 70
   128
 71
     7
 72
     9
 73
   -12
  0
VERTEX
  5
7F0
  8
0
 10
0.0
 20
0.0
 30
0.0
 70
   128
 71
     8
 72
    -7
 73
    12
  0
SEQEND
  5
A29
  8
0
  0
POLYLINE
  5
7F1
  8
0
 66
     1
 10
0.0
 20
0.0
 30
0.0
 70
    64
 71
    12
 72
    10
  0
VERTEX
  5
7F2
  8
0
 10
11.06503016994366
 20
24.5
 30
-5.403722532499209
 70
   192
  0
VERTEX
  5
7F3
  8
0
 10
26.56443997743763
 20
24.49999999942644
 30
-5.26846123219647
 70
   192
  0
VERTEX
  5
7F4
  8
0
 10
26.55194032760202
 20
28.90838939219355
 30
-3.836143230443946
 70
   192
  0
VERTEX
  5
7F5
  8
0
 10
11.05253052010737
 20
28.90838939219355
 30
-3.971404530668688
 70
   192
  0
VERTEX
  5
7F6
  8
0
 10
26.43354194496344
 20
24.50000000057356
 30
9.730967613610105
 70
   192
  0
VERTEX
  5
7F7
  8
0
 10
10.9341321374681
 20
24.5
 30
9.595706313463085
 70
   192
  0
VERTEX
  5
7F8
  8
0
 10
10.9466317873044
 20
28.90838939219355
 30
8.163388311632838
 70
   192
  0
VERTEX
  5
7F9
  8
0
 10
26.44604159479905
 20
28.90838939219355
 30
8.298649611857579
 70
   192
  0
VERTEX
  5
7FA
  8
0
 10
10.97935629542329
 20
31.63292387221365
 30
4.413531100142195
 70
   192
  0
VERTEX
  5
7FB
  8
0
 10
11.01980601198848
 20
31.63292387221365
 30
-0.2215473191780446
 70
   192
  0
VERTEX
  5
7FC
  8
0
 10
26.51921581948313
 20
31.63292387221365
 30
-0.0862860189533032
 70
   192
  0
VERTEX
  5
7FD
  8
0
 10
26.47876610291794
 20
31.63292387221365
 30
4.548792400366937
 70
   192
  0
VERTEX
  5
7FE
  8
0
 10
0.0
 20
0.0
 30
0.0
 70
   128
 71
     1
 72
     2
 73
    -3
  0
VERTEX
  5
7FF
  8
0
 10
0.0
 20
0.0
 30
0.0
 70
   128
 71
     4
 72
    -1
 73
     3
  0
VERTEX
  5
800
  8
0
 10
0.0
 20
0.0
 30
0.0
 70
   128
 71
     5
 72
     6
 73
    -7
  0
VERTEX
  5
801
  8
0
 10
0.0
 20
0.0
 30
0.0
 70
   128
 71
     8
 72
    -5
 73
     7
  0
VERTEX
  5
802
  8
0
 10
0.0
 20
0.0
 30
0.0
 70
   128
 71
     9
 72
    10
 73
   -11
  0
VERTEX
  5
803
  8
0
 10
0.0
 20
0.0
 30
0.0
 70
   128
 71
    12
 72
    -9
 73
    11
  0
VERTEX
  5
804
  8
0
 10
0.0
 20
0.0
 30
0.0
 70
   128
 71
    10
 72
     4
 73
    -3
  0
VERTEX
  5
805
  8
0
 10
0.0
 20
0.0
 30
0.0
 70
   128
 71
    11
 72
   -10
 73
     3
  0
VERTEX
  5
806
  8
0
 10
0.0
 20
0.0
 30
0.0
 70
   128
 71
     7
 72
     9
 73
   -12
  0
VERTEX
  5
807
  8
0
 10
0.0
 20
0.0
 30
0.0
 70
   128
 71
     8
 72
    -7
 73
    12
  0
SEQEND
  5
A2A
  8
0
  0
POLYLINE
  5
808
  8
0
 66
     1
 10
0.0
 20
0.0
 30
0.0
 70
    64
 71
    23
 72
    23
  0
VERTEX
  5
809
  8
0
 10
27.07881972254271
 20
24.5
 30
-6.914035137581166
 70
   192
  0
VERTEX
  5
80A
  8
0
 10
27.06812214580446
 20
29.075
 30
-5.688214259489023
 70
   192
  0
VERTEX
  5
80B
  8
0
 10
27.03889582263767
 20
32.42413244462762
 30
-2.339209339562584
 70
   192
  0
VERTEX
  5
80C
  8
0
 10
26.99897192273262
 20
33.65
 30
2.235616458455999
 70
   192
  0
VERTEX
  5
80D
  8
0
 10
26.95904802282758
 20
32.42413244462762
 30
6.810442256474584
 70
   192
  0
VERTEX
  5
80E
  8
0
 10
26.92982169966079
 20
29.075
 30
10.15944717640102
 70
   192
  0
VERTEX
  5
80F
  8
0
 10
26.91912412292253
 20
24.5
 30
11.38526805449317
 70
   192
  0
VERTEX
  5
810
  8
0
 10
26.92982169966079
 20
19.925
 30
10.15944717640103
 70
   192
  0
VERTEX
  5
811
  8
0
 10
26.95904802282758
 20
16.57586755537239
 30
6.810442256474589
 70
   192
  0
VERTEX
  5
812
  8
0
 10
26.99897192273262
 20
15.35
 30
2.235616458456005
 70
   192
  0
VERTEX
  5
813
  8
0
 10
27.03889582263767
 20
16.57586755537238
 30
-2.339209339562579
 70
   192
  0
VERTEX
  5
814
  8
0
 10
27.06812214580445
 20
19.92499999999999
 30
-5.688214259489019
 70
   192
  0
VERTEX
  5
815
  8
0
 10
26.92915963874566
 20
24.5
 30
10.23531184296935
 70
   192
  0
VERTEX
  5
816
  8
0
 10
26.94249259857104
 20
29.20228201833979
 30
8.707505974350129
 70
   192
  0
VERTEX
  5
817
  8
0
 10
26.97739874056452
 20
32.10845213036123
 30
4.707658282093442
 70
   192
  0
VERTEX
  5
818
  8
0
 10
27.02054510490072
 20
32.10845213036123
 30
-0.2364253651814794
 70
   192
  0
VERTEX
  5
819
  8
0
 10
27.0554512468942
 20
29.20228201833979
 30
-4.236273057438165
 70
   192
  0
VERTEX
  5
81A
  8
0
 10
27.06878420671958
 20
24.5
 30
-5.764078926057389
 70
   192
  0
VERTEX
  5
81B
  8
0
 10
27.05943113416155
 20
20.5
 30
-4.692322967069716
 70
   192
  0
VERTEX
  5
81C
  8
0
 10
27.0338780647261
 20
17.5717967697245
 30
-1.764231233800699
 70
   192
  0
VERTEX
  5
81D
  8
0
 10
26.99897192273262
 20
16.50000000000001
 30
2.235616458455982
 70
   192
  0
VERTEX
  5
81E
  8
0
 10
26.96406578073914
 20
17.5717967697245
 30
6.235464150712665
 70
   192
  0
VERTEX
  5
81F
  8
0
 10
26.9385127113037
 20
20.50000000000001
 30
9.163555883981681
 70
   192
  0
VERTEX
  5
820
  8
0
 10
0.0
 20
0.0
 30
0.0
 70
   128
 71
    -7
 72
    13
 73
   -14
  0
VERTEX
  5
821
  8
0
 10
0.0
 20
0.0
 30
0.0
 70
   128
 71
     6
 72
    -7
 73
   -14
  0
VERTEX
  5
822
  8
0
 10
0.0
 20
0.0
 30
0.0
 70
   128
 71
   -15
 72
     5
 73
    -6
  0
VERTEX
  5
823
  8
0
 10
0.0
 20
0.0
 30
0.0
 70
   128
 71
    14
 72
   -15
 73
    -6
  0
VERTEX
  5
824
  8
0
 10
0.0
 20
0.0
 30
0.0
 70
   128
 71
     3
 72
     4
 73
    -5
  0
VERTEX
  5
825
  8
0
 10
0.0
 20
0.0
 30
0.0
 70
   128
 71
   -16
 72
    -3
 73
    -5
  0
VERTEX
  5
826
  8
0
 10
0.0
 20
0.0
 30
0.0
 70
   128
 71
    15
 72
   -16
 73
    -5
  0
VERTEX
  5
827
  8
0
 10
0.0
 20
0.0
 30
0.0
 70
   128
 71
   -17
 72
     2
 73
    -3
  0
VERTEX
  5
828
  8
0
 10
0.0
 20
0.0
 30
0.0
 70
   128
 71
    16
 72
   -17
 73
    -3
  0
VERTEX
  5
829
  8
0
 10
0.0
 20
0.0
 30
0.0
 70
   128
 71
   -18
 72
     1
 73
    -2
  0
VERTEX
  5
82A
  8
0
 10
0.0
 20
0.0
 30
0.0
 70
   128
 71
    17
 72
   -18
 73
    -2
  0
VERTEX
  5
82B
  8
0
 10
0.0
 20
0.0
 30
0.0
 70
   128
 71
   -19
 72
    12
 73
    -1
  0
VERTEX
  5
82C
  8
0
 10
0.0
 20
0.0
 30
0.0
 70
   128
 71
    18
 72
   -19
 73
    -1
  0
VERTEX
  5
82D
  8
0
 10
0.0
 20
0.0
 30
0.0
 70
   128
 71
   -20
 72
    11
 73
   -12
  0
VERTEX
  5
82E
  8
0
 10
0.0
 20
0.0
 30
0.0
 70
   128
 71
    19
 72
   -20
 73
   -12
  0
VERTEX
  5
82F
  8
0
 10
0.0
 20
0.0
 30
0.0
 70
   128
 71
   -21
 72
    10
 73
   -11
  0
VERTEX
  5
830
  8
0
 10
0.0
 20
0.0
 30
0.0
 70
   128
 71
    20
 72
   -21
 73
   -11
  0
VERTEX
  5
831
  8
0
 10
0.0
 20
0.0
 30
0.0
 70
   128
 71
   -22
 72
     9
 73
   -10
  0
VERTEX
  5
832
  8
0
 10
0.0
 20
0.0
 30
0.0
 70
   128
 71
    21
 72
   -22
 73
   -10
  0
VERTEX
  5
833
  8
0
 10
0.0
 20
0.0
 30
0.0
 70
   128
 71
   -23
 72
     8
 73
    -9
  0
VERTEX
  5
834
  8
0
 10
0.0
 20
0.0
 30
0.0
 70
   128
 71
    22
 72
   -23
 73
    -9
  0
VERTEX
  5
835
  8
0
 10
0.0
 20
0.0
 30
0.0
 70
   128
 71
   -13
 72
     7
 73
    -8
  0
VERTEX
  5
836
  8
0
 10
0.0
 20
0.0
 30
0.0
 70
   128
 71
    23
 72
   -13
 73
    -8
  0
SEQEND
  5
A2B
  8
0
  0
POLYLINE
  5
837
  8
0
 66
     1
 10
0.0
 20
0.0
 30
0.0
 70
    64
 71
    24
 72
    24
  0
VERTEX
  5
838
  8
0
 10
15.41956200768456
 20
24.5
 30
11.28491289626191
 70
   192
  0
VERTEX
  5
839
  8
0
 10
15.43025958442282
 20
19.925
 30
10.05909201816977
 70
   192
  0
VERTEX
  5
83A
  8
0
 10
15.45948590758961
 20
16.57586755537239
 30
6.710087098243329
 70
   192
  0
VERTEX
  5
83B
  8
0
 10
15.49940980749465
 20
15.35
 30
2.135261300224745
 70
   192
  0
VERTEX
  5
83C
  8
0
 10
15.5393337073997
 20
16.57586755537238
 30
-2.439564497793839
 70
   192
  0
VERTEX
  5
83D
  8
0
 10
15.56856003056648
 20
19.92499999999999
 30
-5.788569417720279
 70
   192
  0
VERTEX
  5
83E
  8
0
 10
15.57925760730474
 20
24.5
 30
-7.014390295812427
 70
   192
  0
VERTEX
  5
83F
  8
0
 10
15.56856003056648
 20
29.075
 30
-5.788569417720282
 70
   192
  0
VERTEX
  5
840
  8
0
 10
15.5393337073997
 20
32.42413244462762
 30
-2.439564497793844
 70
   192
  0
VERTEX
  5
841
  8
0
 10
15.49940980749465
 20
33.65
 30
2.135261300224739
 70
   192
  0
VERTEX
  5
842
  8
0
 10
15.45948590758961
 20
32.42413244462762
 30
6.710087098243323
 70
   192
  0
VERTEX
  5
843
  8
0
 10
15.43025958442282
 20
29.075
 30
10.05909201816976
 70
   192
  0
VERTEX
  5
844
  8
0
 10
15.57707597343015
 20
24.5
 30
-6.764399815046384
 70
   192
  0
VERTEX
  5
845
  8
0
 10
15.56667068020933
 20
20.05
 30
-5.572071310672602
 70
   192
  0
VERTEX
  5
846
  8
0
 10
15.5382428904624
 20
16.7923739063185
 30
-2.314569257410819
 70
   192
  0
VERTEX
  5
847
  8
0
 10
15.49940980749465
 20
15.6
 30
2.135261300224744
 70
   192
  0
VERTEX
  5
848
  8
0
 10
15.4605767245269
 20
16.7923739063185
 30
6.585091857860307
 70
   192
  0
VERTEX
  5
849
  8
0
 10
15.43214893477997
 20
20.05
 30
9.842593911122087
 70
   192
  0
VERTEX
  5
84A
  8
0
 10
15.42174364155915
 20
24.5
 30
11.03492241549587
 70
   192
  0
VERTEX
  5
84B
  8
0
 10
15.43214893477997
 20
28.95
 30
9.842593911122087
 70
   192
  0
VERTEX
  5
84C
  8
0
 10
15.4605767245269
 20
32.2076260936815
 30
6.585091857860307
 70
   192
  0
VERTEX
  5
84D
  8
0
 10
15.49940980749465
 20
33.4
 30
2.135261300224744
 70
   192
  0
VERTEX
  5
84E
  8
0
 10
15.5382428904624
 20
32.2076260936815
 30
-2.314569257410819
 70
   192
  0
VERTEX
  5
84F
  8
0
 10
15.56667068020933
 20
28.95
 30
-5.572071310672602
 70
   192
  0
VERTEX
  5
850
  8
0
 10
0.0
 20
0.0
 30
0.0
 70
   128
 71
    14
 72
   -13
 73
    -7
  0
VERTEX
  5
851
  8
0
 10
0.0
 20
0.0
 30
0.0
 70
   128
 71
   -14
 72
     7
 73
    -6
  0
VERTEX
  5
852
  8
0
 10
0.0
 20
0.0
 30
0.0
 70
   128
 71
     6
 72
    -5
 73
   -15
  0
VERTEX
  5
853
  8
0
 10
0.0
 20
0.0
 30
0.0
 70
   128
 71
    -6
 72
    15
 73
   -14
  0
VERTEX
  5
854
  8
0
 10
0.0
 20
0.0
 30
0.0
 70
   128
 71
     5
 72
    -4
 73
   -16
  0
VERTEX
  5
855
  8
0
 10
0.0
 20
0.0
 30
0.0
 70
   128
 71
    -5
 72
    16
 73
   -15
  0
VERTEX
  5
856
  8
0
 10
0.0
 20
0.0
 30
0.0
 70
   128
 71
     4
 72
    -3
 73
   -17
  0
VERTEX
  5
857
  8
0
 10
0.0
 20
0.0
 30
0.0
 70
   128
 71
    -4
 72
    17
 73
   -16
  0
VERTEX
  5
858
  8
0
 10
0.0
 20
0.0
 30
0.0
 70
   128
 71
     3
 72
    -2
 73
   -18
  0
VERTEX
  5
859
  8
0
 10
0.0
 20
0.0
 30
0.0
 70
   128
 71
    -3
 72
    18
 73
   -17
  0
VERTEX
  5
85A
  8
0
 10
0.0
 20
0.0
 30
0.0
 70
   128
 71
     2
 72
    -1
 73
   -19
  0
VERTEX
  5
85B
  8
0
 10
0.0
 20
0.0
 30
0.0
 70
   128
 71
    -2
 72
    19
 73
   -18
  0
VERTEX
  5
85C
  8
0
 10
0.0
 20
0.0
 30
0.0
 70
   128
 71
     1
 72
   -12
 73
   -20
  0
VERTEX
  5
85D
  8
0
 10
0.0
 20
0.0
 30
0.0
 70
   128
 71
    -1
 72
    20
 73
   -19
  0
VERTEX
  5
85E
  8
0
 10
0.0
 20
0.0
 30
0.0
 70
   128
 71
    12
 72
   -11
 73
   -21
  0
VERTEX
  5
85F
  8
0
 10
0.0
 20
0.0
 30
0.0
 70
   128
 71
   -12
 72
    21
 73
   -20
  0
VERTEX
  5
860
  8
0
 10
0.0
 20
0.0
 30
0.0
 70
   128
 71
    11
 72
   -10
 73
   -22
  0
VERTEX
  5
861
  8
0
 10
0.0
 20
0.0
 30
0.0
 70
   128
 71
   -11
 72
    22
 73
   -21
  0
VERTEX
  5
862
  8
0
 10
0.0
 20
0.0
 30
0.0
 70
   128
 71
    10
 72
    -9
 73
   -23
  0
VERTEX
  5
863
  8
0
 10
0.0
 20
0.0
 30
0.0
 70
   128
 71
   -10
 72
    23
 73
   -22
  0
VERTEX
  5
864
  8
0
 10
0.0
 20
0.0
 30
0.0
 70
   128
 71
     9
 72
    -8
 73
   -24
  0
VERTEX
  5
865
  8
0
 10
0.0
 20
0.0
 30
0.0
 70
   128
 71
    -9
 72
    24
 73
   -23
  0
VERTEX
  5
866
  8
0
 10
0.0
 20
0.0
 30
0.0
 70
   128
 71
     8
 72
    -7
 73
   -13
  0
VERTEX
  5
867
  8
0
 10
0.0
 20
0.0
 30
0.0
 70
   128
 71
    -8
 72
    13
 73
   -24
  0
SEQEND
  5
A2C
  8
0
  0
POLYLINE
  5
868
  8
0
 66
     1
 10
0.0
 20
0.0
 30
0.0
 70
    64
 71
    14
 72
    12
  0
VERTEX
  5
869
  8
0
 10
15.43214893477997
 20
20.05
 30
9.842593911122087
 70
   192
  0
VERTEX
  5
86A
  8
0
 10
15.42174364155915
 20
24.5
 30
11.03492241549587
 70
   192
  0
VERTEX
  5
86B
  8
0
 10
11.92187691083456
 20
24.5
 30
11.00437954125157
 70
   192
  0
VERTEX
  5
86C
  8
0
 10
11.93228220405537
 20
20.05
 30
9.81205103687779
 70
   192
  0
VERTEX
  5
86D
  8
0
 10
11.9607099938023
 20
16.7923739063185
 30
6.55454898361601
 70
   192
  0
VERTEX
  5
86E
  8
0
 10
11.99954307677005
 20
15.6
 30
2.104718425980448
 70
   192
  0
VERTEX
  5
86F
  8
0
 10
15.49940980749465
 20
15.6
 30
2.135261300224744
 70
   192
  0
VERTEX
  5
870
  8
0
 10
15.4605767245269
 20
16.7923739063185
 30
6.585091857860307
 70
   192
  0
VERTEX
  5
871
  8
0
 10
15.5382428904624
 20
16.7923739063185
 30
-2.314569257410819
 70
   192
  0
VERTEX
  5
872
  8
0
 10
12.0383761597378
 20
16.7923739063185
 30
-2.345112131655115
 70
   192
  0
VERTEX
  5
873
  8
0
 10
12.06680394948473
 20
20.05
 30
-5.602614184916899
 70
   192
  0
VERTEX
  5
874
  8
0
 10
12.07720924270555
 20
24.5
 30
-6.79494268929068
 70
   192
  0
VERTEX
  5
875
  8
0
 10
15.57707597343015
 20
24.5
 30
-6.764399815046382
 70
   192
  0
VERTEX
  5
876
  8
0
 10
15.56667068020933
 20
20.05
 30
-5.572071310672602
 70
   192
  0
VERTEX
  5
877
  8
0
 10
0.0
 20
0.0
 30
0.0
 70
   128
 71
     1
 72
     2
 73
    -3
  0
VERTEX
  5
878
  8
0
 10
0.0
 20
0.0
 30
0.0
 70
   128
 71
    -1
 72
     3
 73
     4
  0
VERTEX
  5
879
  8
0
 10
0.0
 20
0.0
 30
0.0
 70
   128
 71
     5
 72
     6
 73
    -7
  0
VERTEX
  5
87A
  8
0
 10
0.0
 20
0.0
 30
0.0
 70
   128
 71
    -5
 72
     7
 73
     8
  0
VERTEX
  5
87B
  8
0
 10
0.0
 20
0.0
 30
0.0
 70
   128
 71
     9
 72
     7
 73
    -6
  0
VERTEX
  5
87C
  8
0
 10
0.0
 20
0.0
 30
0.0
 70
   128
 71
    -9
 72
     6
 73
    10
  0
VERTEX
  5
87D
  8
0
 10
0.0
 20
0.0
 30
0.0
 70
   128
 71
    11
 72
    12
 73
   -13
  0
VERTEX
  5
87E
  8
0
 10
0.0
 20
0.0
 30
0.0
 70
   128
 71
   -11
 72
    13
 73
    14
  0
VERTEX
  5
87F
  8
0
 10
0.0
 20
0.0
 30
0.0
 70
   128
 71
     1
 72
     4
 73
    -5
  0
VERTEX
  5
880
  8
0
 10
0.0
 20
0.0
 30
0.0
 70
   128
 71
    -1
 72
     5
 73
     8
  0
VERTEX
  5
881
  8
0
 10
0.0
 20
0.0
 30
0.0
 70
   128
 71
     9
 72
    10
 73
   -11
  0
VERTEX
  5
882
  8
0
 10
0.0
 20
0.0
 30
0.0
 70
   128
 71
    -9
 72
    11
 73
    14
  0
SEQEND
  5
A2D
  8
0
  0
POLYLINE
  5
883
  8
0
 66
     1
 10
0.0
 20
0.0
 30
0.0
 70
    64
 71
    14
 72
    12
  0
VERTEX
  5
884
  8
0
 10
15.56667068020933
 20
28.95
 30
-5.572071310672602
 70
   192
  0
VERTEX
  5
885
  8
0
 10
15.57707597343015
 20
24.5
 30
-6.764399815046384
 70
   192
  0
VERTEX
  5
886
  8
0
 10
12.07720924270555
 20
24.5
 30
-6.794942689290679
 70
   192
  0
VERTEX
  5
887
  8
0
 10
12.06680394948473
 20
28.95
 30
-5.602614184916899
 70
   192
  0
VERTEX
  5
888
  8
0
 10
12.0383761597378
 20
32.2076260936815
 30
-2.345112131655115
 70
   192
  0
VERTEX
  5
889
  8
0
 10
11.99954307677005
 20
33.4
 30
2.104718425980448
 70
   192
  0
VERTEX
  5
88A
  8
0
 10
15.49940980749465
 20
33.4
 30
2.135261300224744
 70
   192
  0
VERTEX
  5
88B
  8
0
 10
15.5382428904624
 20
32.2076260936815
 30
-2.314569257410819
 70
   192
  0
VERTEX
  5
88C
  8
0
 10
15.4605767245269
 20
32.2076260936815
 30
6.585091857860307
 70
   192
  0
VERTEX
  5
88D
  8
0
 10
11.9607099938023
 20
32.2076260936815
 30
6.55454898361601
 70
   192
  0
VERTEX
  5
88E
  8
0
 10
11.93228220405537
 20
28.95
 30
9.81205103687779
 70
   192
  0
VERTEX
  5
88F
  8
0
 10
11.92187691083456
 20
24.5
 30
11.00437954125157
 70
   192
  0
VERTEX
  5
890
  8
0
 10
15.42174364155915
 20
24.5
 30
11.03492241549587
 70
   192
  0
VERTEX
  5
891
  8
0
 10
15.43214893477997
 20
28.95
 30
9.842593911122087
 70
   192
  0
VERTEX
  5
892
  8
0
 10
0.0
 20
0.0
 30
0.0
 70
   128
 71
     1
 72
     2
 73
    -3
  0
VERTEX
  5
893
  8
0
 10
0.0
 20
0.0
 30
0.0
 70
   128
 71
    -1
 72
     3
 73
     4
  0
VERTEX
  5
894
  8
0
 10
0.0
 20
0.0
 30
0.0
 70
   128
 71
     5
 72
     6
 73
    -7
  0
VERTEX
  5
895
  8
0
 10
0.0
 20
0.0
 30
0.0
 70
   128
 71
    -5
 72
     7
 73
     8
  0
VERTEX
  5
896
  8
0
 10
0.0
 20
0.0
 30
0.0
 70
   128
 71
     9
 72
     7
 73
    -6
  0
VERTEX
  5
897
  8
0
 10
0.0
 20
0.0
 30
0.0
 70
   128
 71
    -9
 72
     6
 73
    10
  0
VERTEX
  5
898
  8
0
 10
0.0
 20
0.0
 30
0.0
 70
   128
 71
    11
 72
    12
 73
   -13
  0
VERTEX
  5
899
  8
0
 10
0.0
 20
0.0
 30
0.0
 70
   128
 71
   -11
 72
    13
 73
    14
  0
VERTEX
  5
89A
  8
0
 10
0.0
 20
0.0
 30
0.0
 70
   128
 71
     1
 72
     4
 73
    -5
  0
VERTEX
  5
89B
  8
0
 10
0.0
 20
0.0
 30
0.0
 70
   128
 71
    -1
 72
     5
 73
     8
  0
VERTEX
  5
89C
  8
0
 10
0.0
 20
0.0
 30
0.0
 70
   128
 71
     9
 72
    10
 73
   -11
  0
VERTEX
  5
89D
  8
0
 10
0.0
 20
0.0
 30
0.0
 70
   128
 71
    -9
 72
    11
 73
    14
  0
SEQEND
  5
A2E
  8
0
  0
POLYLINE
  5
89E
  8
0
 66
     1
 10
0.0
 20
0.0
 30
0.0
 70
    64
 71
    24
 72
    24
  0
VERTEX
  5
89F
  8
0
 10
12.08811741207851
 20
24.50000000000001
 30
-8.044895093120894
 70
   192
  0
VERTEX
  5
8A0
  8
0
 10
12.0762507012705
 20
29.575
 30
-6.685104720155287
 70
   192
  0
VERTEX
  5
8A1
  8
0
 10
12.04383024442428
 20
33.29015784841205
 30
-2.970088333570222
 70
   192
  0
VERTEX
  5
8A2
  8
0
 10
11.99954307677005
 20
34.65
 30
2.104718425980448
 70
   192
  0
VERTEX
  5
8A3
  8
0
 10
11.95525590911582
 20
33.29015784841205
 30
7.179525185531118
 70
   192
  0
VERTEX
  5
8A4
  8
0
 10
11.92283545226961
 20
29.575
 30
10.89454157211618
 70
   192
  0
VERTEX
  5
8A5
  8
0
 10
11.91096874146159
 20
24.5
 30
12.25433194508179
 70
   192
  0
VERTEX
  5
8A6
  8
0
 10
11.92283545226961
 20
19.425
 30
10.89454157211618
 70
   192
  0
VERTEX
  5
8A7
  8
0
 10
11.95525590911582
 20
15.70984215158795
 30
7.179525185531118
 70
   192
  0
VERTEX
  5
8A8
  8
0
 10
11.99954307677005
 20
14.35
 30
2.104718425980448
 70
   192
  0
VERTEX
  5
8A9
  8
0
 10
12.04383024442428
 20
15.70984215158795
 30
-2.970088333570222
 70
   192
  0
VERTEX
  5
8AA
  8
0
 10
12.0762507012705
 20
19.425
 30
-6.685104720155287
 70
   192
  0
VERTEX
  5
8AB
  8
0
 10
12.07720924270555
 20
24.5
 30
-6.79494268929068
 70
   192
  0
VERTEX
  5
8AC
  8
0
 10
12.06680394948473
 20
20.05
 30
-5.602614184916899
 70
   192
  0
VERTEX
  5
8AD
  8
0
 10
12.0383761597378
 20
16.7923739063185
 30
-2.345112131655115
 70
   192
  0
VERTEX
  5
8AE
  8
0
 10
11.99954307677005
 20
15.6
 30
2.104718425980448
 70
   192
  0
VERTEX
  5
8AF
  8
0
 10
11.9607099938023
 20
16.7923739063185
 30
6.55454898361601
 70
   192
  0
VERTEX
  5
8B0
  8
0
 10
11.93228220405537
 20
20.05
 30
9.81205103687779
 70
   192
  0
VERTEX
  5
8B1
  8
0
 10
11.92187691083456
 20
24.5
 30
11.00437954125157
 70
   192
  0
VERTEX
  5
8B2
  8
0
 10
11.93228220405537
 20
28.95
 30
9.81205103687779
 70
   192
  0
VERTEX
  5
8B3
  8
0
 10
11.9607099938023
 20
32.2076260936815
 30
6.55454898361601
 70
   192
  0
VERTEX
  5
8B4
  8
0
 10
11.99954307677005
 20
33.4
 30
2.104718425980448
 70
   192
  0
VERTEX
  5
8B5
  8
0
 10
12.0383761597378
 20
32.2076260936815
 30
-2.345112131655115
 70
   192
  0
VERTEX
  5
8B6
  8
0
 10
12.06680394948473
 20
28.95
 30
-5.602614184916899
 70
   192
  0
VERTEX
  5
8B7
  8
0
 10
0.0
 20
0.0
 30
0.0
 70
   128
 71
    -1
 72
    13
 73
   -14
  0
VERTEX
  5
8B8
  8
0
 10
0.0
 20
0.0
 30
0.0
 70
   128
 71
    12
 72
    -1
 73
   -14
  0
VERTEX
  5
8B9
  8
0
 10
0.0
 20
0.0
 30
0.0
 70
   128
 71
   -15
 72
    11
 73
   -12
  0
VERTEX
  5
8BA
  8
0
 10
0.0
 20
0.0
 30
0.0
 70
   128
 71
    14
 72
   -15
 73
   -12
  0
VERTEX
  5
8BB
  8
0
 10
0.0
 20
0.0
 30
0.0
 70
   128
 71
   -16
 72
    10
 73
   -11
  0
VERTEX
  5
8BC
  8
0
 10
0.0
 20
0.0
 30
0.0
 70
   128
 71
    15
 72
   -16
 73
   -11
  0
VERTEX
  5
8BD
  8
0
 10
0.0
 20
0.0
 30
0.0
 70
   128
 71
   -17
 72
     9
 73
   -10
  0
VERTEX
  5
8BE
  8
0
 10
0.0
 20
0.0
 30
0.0
 70
   128
 71
    16
 72
   -17
 73
   -10
  0
VERTEX
  5
8BF
  8
0
 10
0.0
 20
0.0
 30
0.0
 70
   128
 71
   -18
 72
     8
 73
    -9
  0
VERTEX
  5
8C0
  8
0
 10
0.0
 20
0.0
 30
0.0
 70
   128
 71
    17
 72
   -18
 73
    -9
  0
VERTEX
  5
8C1
  8
0
 10
0.0
 20
0.0
 30
0.0
 70
   128
 71
   -19
 72
     7
 73
    -8
  0
VERTEX
  5
8C2
  8
0
 10
0.0
 20
0.0
 30
0.0
 70
   128
 71
    18
 72
   -19
 73
    -8
  0
VERTEX
  5
8C3
  8
0
 10
0.0
 20
0.0
 30
0.0
 70
   128
 71
   -20
 72
     6
 73
    -7
  0
VERTEX
  5
8C4
  8
0
 10
0.0
 20
0.0
 30
0.0
 70
   128
 71
    19
 72
   -20
 73
    -7
  0
VERTEX
  5
8C5
  8
0
 10
0.0
 20
0.0
 30
0.0
 70
   128
 71
   -21
 72
     5
 73
    -6
  0
VERTEX
  5
8C6
  8
0
 10
0.0
 20
0.0
 30
0.0
 70
   128
 71
    20
 72
   -21
 73
    -6
  0
VERTEX
  5
8C7
  8
0
 10
0.0
 20
0.0
 30
0.0
 70
   128
 71
   -22
 72
     4
 73
    -5
  0
VERTEX
  5
8C8
  8
0
 10
0.0
 20
0.0
 30
0.0
 70
   128
 71
    21
 72
   -22
 73
    -5
  0
VERTEX
  5
8C9
  8
0
 10
0.0
 20
0.0
 30
0.0
 70
   128
 71
   -23
 72
     3
 73
    -4
  0
VERTEX
  5
8CA
  8
0
 10
0.0
 20
0.0
 30
0.0
 70
   128
 71
    22
 72
   -23
 73
    -4
  0
VERTEX
  5
8CB
  8
0
 10
0.0
 20
0.0
 30
0.0
 70
   128
 71
   -24
 72
     2
 73
    -3
  0
VERTEX
  5
8CC
  8
0
 10
0.0
 20
0.0
 30
0.0
 70
   128
 71
    23
 72
   -24
 73
    -3
  0
VERTEX
  5
8CD
  8
0
 10
0.0
 20
0.0
 30
0.0
 70
   128
 71
   -13
 72
     1
 73
    -2
  0
VERTEX
  5
8CE
  8
0
 10
0.0
 20
0.0
 30
0.0
 70
   128
 71
    24
 72
   -13
 73
    -2
  0
SEQEND
  5
A2F
  8
0
  0
POLYLINE
  5
8CF
  8
0
 66
     1
 10
0.0
 20
0.0
 30
0.0
 70
    64
 71
    14
 72
    12
  0
VERTEX
  5
8D0
  8
0
 10
11.92283545226961
 20
19.425
 30
10.89454157211618
 70
   192
  0
VERTEX
  5
8D1
  8
0
 10
11.91096874146159
 20
24.5
 30
12.25433194508179
 70
   192
  0
VERTEX
  5
8D2
  8
0
 10
10.91100681839742
 20
24.5
 30
12.24560540958341
 70
   192
  0
VERTEX
  5
8D3
  8
0
 10
10.92287352920543
 20
19.425
 30
10.88581503661781
 70
   192
  0
VERTEX
  5
8D4
  8
0
 10
10.95529398605165
 20
15.70984215158795
 30
7.170798650032747
 70
   192
  0
VERTEX
  5
8D5
  8
0
 10
10.99958115370588
 20
14.35
 30
2.095991890482078
 70
   192
  0
VERTEX
  5
8D6
  8
0
 10
11.99954307677005
 20
14.35
 30
2.104718425980448
 70
   192
  0
VERTEX
  5
8D7
  8
0
 10
11.95525590911582
 20
15.70984215158795
 30
7.179525185531118
 70
   192
  0
VERTEX
  5
8D8
  8
0
 10
12.04383024442428
 20
15.70984215158795
 30
-2.970088333570222
 70
   192
  0
VERTEX
  5
8D9
  8
0
 10
11.04386832136011
 20
15.70984215158795
 30
-2.978814869068592
 70
   192
  0
VERTEX
  5
8DA
  8
0
 10
11.07628877820633
 20
19.425
 30
-6.693831255653658
 70
   192
  0
VERTEX
  5
8DB
  8
0
 10
11.08815548901434
 20
24.49999999999999
 30
-8.053621628619265
 70
   192
  0
VERTEX
  5
8DC
  8
0
 10
12.08811741207851
 20
24.5
 30
-8.044895093120893
 70
   192
  0
VERTEX
  5
8DD
  8
0
 10
12.0762507012705
 20
19.425
 30
-6.685104720155287
 70
   192
  0
VERTEX
  5
8DE
  8
0
 10
0.0
 20
0.0
 30
0.0
 70
   128
 71
     1
 72
     2
 73
    -3
  0
VERTEX
  5
8DF
  8
0
 10
0.0
 20
0.0
 30
0.0
 70
   128
 71
    -1
 72
     3
 73
     4
  0
VERTEX
  5
8E0
  8
0
 10
0.0
 20
0.0
 30
0.0
 70
   128
 71
     5
 72
     6
 73
    -7
  0
VERTEX
  5
8E1
  8
0
 10
0.0
 20
0.0
 30
0.0
 70
   128
 71
    -5
 72
     7
 73
     8
  0
VERTEX
  5
8E2
  8
0
 10
0.0
 20
0.0
 30
0.0
 70
   128
 71
     9
 72
     7
 73
    -6
  0
VERTEX
  5
8E3
  8
0
 10
0.0
 20
0.0
 30
0.0
 70
   128
 71
    -9
 72
     6
 73
    10
  0
VERTEX
  5
8E4
  8
0
 10
0.0
 20
0.0
 30
0.0
 70
   128
 71
    11
 72
    12
 73
   -13
  0
VERTEX
  5
8E5
  8
0
 10
0.0
 20
0.0
 30
0.0
 70
   128
 71
   -11
 72
    13
 73
    14
  0
VERTEX
  5
8E6
  8
0
 10
0.0
 20
0.0
 30
0.0
 70
   128
 71
     1
 72
     4
 73
    -5
  0
VERTEX
  5
8E7
  8
0
 10
0.0
 20
0.0
 30
0.0
 70
   128
 71
    -1
 72
     5
 73
     8
  0
VERTEX
  5
8E8
  8
0
 10
0.0
 20
0.0
 30
0.0
 70
   128
 71
     9
 72
    10
 73
   -11
  0
VERTEX
  5
8E9
  8
0
 10
0.0
 20
0.0
 30
0.0
 70
   128
 71
    -9
 72
    11
 73
    14
  0
SEQEND
  5
A30
  8
0
  0
POLYLINE
  5
8EA
  8
0
 66
     1
 10
0.0
 20
0.0
 30
0.0
 70
    64
 71
    14
 72
    12
  0
VERTEX
  5
8EB
  8
0
 10
12.0762507012705
 20
29.575
 30
-6.685104720155287
 70
   192
  0
VERTEX
  5
8EC
  8
0
 10
12.08811741207851
 20
24.50000000000001
 30
-8.044895093120894
 70
   192
  0
VERTEX
  5
8ED
  8
0
 10
11.08815548901434
 20
24.5
 30
-8.053621628619263
 70
   192
  0
VERTEX
  5
8EE
  8
0
 10
11.07628877820633
 20
29.575
 30
-6.693831255653658
 70
   192
  0
VERTEX
  5
8EF
  8
0
 10
11.04386832136011
 20
33.29015784841205
 30
-2.978814869068592
 70
   192
  0
VERTEX
  5
8F0
  8
0
 10
10.99958115370588
 20
34.65
 30
2.095991890482078
 70
   192
  0
VERTEX
  5
8F1
  8
0
 10
11.99954307677005
 20
34.65
 30
2.104718425980448
 70
   192
  0
VERTEX
  5
8F2
  8
0
 10
12.04383024442428
 20
33.29015784841205
 30
-2.970088333570222
 70
   192
  0
VERTEX
  5
8F3
  8
0
 10
11.95525590911582
 20
33.29015784841205
 30
7.179525185531118
 70
   192
  0
VERTEX
  5
8F4
  8
0
 10
10.95529398605165
 20
33.29015784841205
 30
7.170798650032747
 70
   192
  0
VERTEX
  5
8F5
  8
0
 10
10.92287352920543
 20
29.575
 30
10.88581503661781
 70
   192
  0
VERTEX
  5
8F6
  8
0
 10
10.91100681839742
 20
24.5
 30
12.24560540958342
 70
   192
  0
VERTEX
  5
8F7
  8
0
 10
11.91096874146159
 20
24.5
 30
12.25433194508178
 70
   192
  0
VERTEX
  5
8F8
  8
0
 10
11.92283545226961
 20
29.575
 30
10.89454157211618
 70
   192
  0
VERTEX
  5
8F9
  8
0
 10
0.0
 20
0.0
 30
0.0
 70
   128
 71
     1
 72
     2
 73
    -3
  0
VERTEX
  5
8FA
  8
0
 10
0.0
 20
0.0
 30
0.0
 70
   128
 71
    -1
 72
     3
 73
     4
  0
VERTEX
  5
8FB
  8
0
 10
0.0
 20
0.0
 30
0.0
 70
   128
 71
     5
 72
     6
 73
    -7
  0
VERTEX
  5
8FC
  8
0
 10
0.0
 20
0.0
 30
0.0
 70
   128
 71
    -5
 72
     7
 73
     8
  0
VERTEX
  5
8FD
  8
0
 10
0.0
 20
0.0
 30
0.0
 70
   128
 71
     9
 72
     7
 73
    -6
  0
VERTEX
  5
8FE
  8
0
 10
0.0
 20
0.0
 30
0.0
 70
   128
 71
    -9
 72
     6
 73
    10
  0
VERTEX
  5
8FF
  8
0
 10
0.0
 20
0.0
 30
0.0
 70
   128
 71
    11
 72
    12
 73
   -13
  0
VERTEX
  5
900
  8
0
 10
0.0
 20
0.0
 30
0.0
 70
   128
 71
   -11
 72
    13
 73
    14
  0
VERTEX
  5
901
  8
0
 10
0.0
 20
0.0
 30
0.0
 70
   128
 71
     1
 72
     4
 73
    -5
  0
VERTEX
  5
902
  8
0
 10
0.0
 20
0.0
 30
0.0
 70
   128
 71
    -1
 72
     5
 73
     8
  0
VERTEX
  5
903
  8
0
 10
0.0
 20
0.0
 30
0.0
 70
   128
 71
     9
 72
    10
 73
   -11
  0
VERTEX
  5
904
  8
0
 10
0.0
 20
0.0
 30
0.0
 70
   128
 71
    -9
 72
    11
 73
    14
  0
SEQEND
  5
A31
  8
0
  0
POLYLINE
  5
905
  8
0
 66
     1
 10
0.0
 20
0.0
 30
0.0
 70
    64
 71
    14
 72
    12
  0
VERTEX
  5
906
  8
0
 10
26.92982169966079
 20
19.925
 30
10.15944717640103
 70
   192
  0
VERTEX
  5
907
  8
0
 10
26.91912412292253
 20
24.5
 30
11.38526805449317
 70
   192
  0
VERTEX
  5
908
  8
0
 10
15.41956200768456
 20
24.5
 30
11.28491289626191
 70
   192
  0
VERTEX
  5
909
  8
0
 10
15.43025958442282
 20
19.925
 30
10.05909201816977
 70
   192
  0
VERTEX
  5
90A
  8
0
 10
15.45948590758961
 20
16.57586755537239
 30
6.710087098243329
 70
   192
  0
VERTEX
  5
90B
  8
0
 10
15.49940980749465
 20
15.35
 30
2.135261300224745
 70
   192
  0
VERTEX
  5
90C
  8
0
 10
26.99897192273262
 20
15.35
 30
2.235616458456005
 70
   192
  0
VERTEX
  5
90D
  8
0
 10
26.95904802282758
 20
16.57586755537239
 30
6.810442256474589
 70
   192
  0
VERTEX
  5
90E
  8
0
 10
27.03889582263767
 20
16.57586755537238
 30
-2.339209339562579
 70
   192
  0
VERTEX
  5
90F
  8
0
 10
15.5393337073997
 20
16.57586755537238
 30
-2.439564497793839
 70
   192
  0
VERTEX
  5
910
  8
0
 10
15.56856003056648
 20
19.92499999999999
 30
-5.788569417720279
 70
   192
  0
VERTEX
  5
911
  8
0
 10
15.57925760730474
 20
24.49999999999999
 30
-7.014390295812427
 70
   192
  0
VERTEX
  5
912
  8
0
 10
27.07881972254271
 20
24.5
 30
-6.914035137581166
 70
   192
  0
VERTEX
  5
913
  8
0
 10
27.06812214580445
 20
19.92499999999999
 30
-5.688214259489019
 70
   192
  0
VERTEX
  5
914
  8
0
 10
0.0
 20
0.0
 30
0.0
 70
   128
 71
     1
 72
     2
 73
    -3
  0
VERTEX
  5
915
  8
0
 10
0.0
 20
0.0
 30
0.0
 70
   128
 71
    -1
 72
     3
 73
     4
  0
VERTEX
  5
916
  8
0
 10
0.0
 20
0.0
 30
0.0
 70
   128
 71
     5
 72
     6
 73
    -7
  0
VERTEX
  5
917
  8
0
 10
0.0
 20
0.0
 30
0.0
 70
   128
 71
    -5
 72
     7
 73
     8
  0
VERTEX
  5
918
  8
0
 10
0.0
 20
0.0
 30
0.0
 70
   128
 71
     9
 72
     7
 73
    -6
  0
VERTEX
  5
919
  8
0
 10
0.0
 20
0.0
 30
0.0
 70
   128
 71
    -9
 72
     6
 73
    10
  0
VERTEX
  5
91A
  8
0
 10
0.0
 20
0.0
 30
0.0
 70
   128
 71
    11
 72
    12
 73
   -13
  0
VERTEX
  5
91B
  8
0
 10
0.0
 20
0.0
 30
0.0
 70
   128
 71
   -11
 72
    13
 73
    14
  0
VERTEX
  5
91C
  8
0
 10
0.0
 20
0.0
 30
0.0
 70
   128
 71
     1
 72
     4
 73
    -5
  0
VERTEX
  5
91D
  8
0
 10
0.0
 20
0.0
 30
0.0
 70
   128
 71
    -1
 72
     5
 73
     8
  0
VERTEX
  5
91E
  8
0
 10
0.0
 20
0.0
 30
0.0
 70
   128
 71
     9
 72
    10
 73
   -11
  0
VERTEX
  5
91F
  8
0
 10
0.0
 20
0.0
 30
0.0
 70
   128
 71
    -9
 72
    11
 73
    14
  0
SEQEND
  5
A32
  8
0
  0
ENDBLK
  5
A23
  8
0
  0
BLOCK
  8
0
  2
*X3
 70
     1
 10
0.0
 20
0.0
 30
0.0
  3
*X3
  1

  0
POLYLINE
  5
921
  8
0
 66
     1
 10
0.0
 20
0.0
 30
0.0
 70
    64
 71
    16
 72
    16
  0
VERTEX
  5
922
  8
0
 10
-27.21713531019189
 20
-6.0
 30
26.76343161814829
 70
   192
  0
VERTEX
  5
923
  8
0
 10
22.78096084301668
 20
-6.0
 30
27.1997583930668
 70
   192
  0
VERTEX
  5
924
  8
0
 10
23.2172876179352
 20
-6.0
 30
-22.79833776014177
 70
   192
  0
VERTEX
  5
925
  8
0
 10
-26.78080853527337
 20
-6.0
 30
-23.23466453506029
 70
   192
  0
VERTEX
  5
926
  8
0
 10
-24.99904807660429
 20
-6.0
 30
1.781836612540739
 70
   192
  0
VERTEX
  5
927
  8
0
 10
-21.81739453628348
 20
-6.0
 30
-9.690835419092867
 70
   192
  0
VERTEX
  5
928
  8
0
 10
-13.32566572850816
 20
-6.0
 30
-18.03563407761439
 70
   192
  0
VERTEX
  5
929
  8
0
 10
-1.799213529665832
 20
-6.0
 30
-21.01657730147268
 70
   192
  0
VERTEX
  5
92A
  8
0
 10
9.673458501967776
 20
-6.0
 30
-17.83492376115188
 70
   192
  0
VERTEX
  5
92B
  8
0
 10
18.0182571604893
 20
-6.0
 30
-9.343194953376567
 70
   192
  0
VERTEX
  5
92C
  8
0
 10
20.9992003843476
 20
-6.0
 30
2.183257245465779
 70
   192
  0
VERTEX
  5
92D
  8
0
 10
17.81754684402679
 20
-6.0
 30
13.65592927709939
 70
   192
  0
VERTEX
  5
92E
  8
0
 10
9.325818036251475
 20
-6.0
 30
22.00072793562091
 70
   192
  0
VERTEX
  5
92F
  8
0
 10
-2.200634162590859
 20
-6.0
 30
24.9816711594792
 70
   192
  0
VERTEX
  5
930
  8
0
 10
-13.67330619422447
 20
-6.0
 30
21.8000176191584
 70
   192
  0
VERTEX
  5
931
  8
0
 10
-22.018104852746
 20
-6.0
 30
13.30828881138308
 70
   192
  0
VERTEX
  5
932
  8
0
 10
0.0
 20
0.0
 30
0.0
 70
   128
 71
     6
 72
    -5
 73
    -4
  0
VERTEX
  5
933
  8
0
 10
0.0
 20
0.0
 30
0.0
 70
   128
 71
    -4
 72
     7
 73
    -6
  0
VERTEX
  5
934
  8
0
 10
0.0
 20
0.0
 30
0.0
 70
   128
 71
    -4
 72
     8
 73
    -7
  0
VERTEX
  5
935
  8
0
 10
0.0
 20
0.0
 30
0.0
 70
   128
 71
    -8
 72
     4
 73
    -3
  0
VERTEX
  5
936
  8
0
 10
0.0
 20
0.0
 30
0.0
 70
   128
 71
    -3
 72
     9
 73
    -8
  0
VERTEX
  5
937
  8
0
 10
0.0
 20
0.0
 30
0.0
 70
   128
 71
    -3
 72
    10
 73
    -9
  0
VERTEX
  5
938
  8
0
 10
0.0
 20
0.0
 30
0.0
 70
   128
 71
    -3
 72
    11
 73
   -10
  0
VERTEX
  5
939
  8
0
 10
0.0
 20
0.0
 30
0.0
 70
   128
 71
     3
 72
    -2
 73
   -11
  0
VERTEX
  5
93A
  8
0
 10
0.0
 20
0.0
 30
0.0
 70
   128
 71
    -2
 72
    12
 73
   -11
  0
VERTEX
  5
93B
  8
0
 10
0.0
 20
0.0
 30
0.0
 70
   128
 71
    -2
 72
    13
 73
   -12
  0
VERTEX
  5
93C
  8
0
 10
0.0
 20
0.0
 30
0.0
 70
   128
 71
    -2
 72
    14
 73
   -13
  0
VERTEX
  5
93D
  8
0
 10
0.0
 20
0.0
 30
0.0
 70
   128
 71
   -14
 72
     2
 73
    -1
  0
VERTEX
  5
93E
  8
0
 10
0.0
 20
0.0
 30
0.0
 70
   128
 71
    -1
 72
    15
 73
   -14
  0
VERTEX
  5
93F
  8
0
 10
0.0
 20
0.0
 30
0.0
 70
   128
 71
    -1
 72
    16
 73
   -15
  0
VERTEX
  5
940
  8
0
 10
0.0
 20
0.0
 30
0.0
 70
   128
 71
    -1
 72
     5
 73
   -16
  0
VERTEX
  5
941
  8
0
 10
0.0
 20
0.0
 30
0.0
 70
   128
 71
     1
 72
    -4
 73
    -5
  0
SEQEND
  5
A35
  8
0
  0
POLYLINE
  5
942
  8
0
 66
     1
 10
0.0
 20
0.0
 30
0.0
 70
    64
 71
     4
 72
     2
  0
VERTEX
  5
943
  8
0
 10
22.78096084301668
 20
-6.0
 30
27.1997583930668
 70
   192
  0
VERTEX
  5
944
  8
0
 10
22.78096084301668
 20
0.0
 30
27.1997583930668
 70
   192
  0
VERTEX
  5
945
  8
0
 10
-27.21713531019189
 20
0.0
 30
26.76343161814829
 70
   192
  0
VERTEX
  5
946
  8
0
 10
-27.21713531019189
 20
-6.0
 30
26.76343161814829
 70
   192
  0
VERTEX
  5
947
  8
0
 10
0.0
 20
0.0
 30
0.0
 70
   128
 71
     3
 72
     4
 73
    -1
  0
VERTEX
  5
948
  8
0
 10
0.0
 20
0.0
 30
0.0
 70
   128
 71
     2
 72
    -3
 73
     1
  0
SEQEND
  5
A36
  8
0
  0
POLYLINE
  5
949
  8
0
 66
     1
 10
0.0
 20
0.0
 30
0.0
 70
    64
 71
     4
 72
     2
  0
VERTEX
  5
94A
  8
0
 10
-27.21713531019189
 20
-6.0
 30
26.76343161814829
 70
   192
  0
VERTEX
  5
94B
  8
0
 10
-27.21713531019189
 20
0.0
 30
26.76343161814829
 70
   192
  0
VERTEX
  5
94C
  8
0
 10
-26.78080853527337
 20
0.0
 30
-23.23466453506029
 70
   192
  0
VERTEX
  5
94D
  8
0
 10
-26.78080853527337
 20
-6.0
 30
-23.23466453506029
 70
   192
  0
VERTEX
  5
94E
  8
0
 10
0.0
 20
0.0
 30
0.0
 70
   128
 71
     3
 72
     4
 73
    -1
  0
VERTEX
  5
94F
  8
0
 10
0.0
 20
0.0
 30
0.0
 70
   128
 71
     2
 72
    -3
 73
     1
  0
SEQEND
  5
A37
  8
0
  0
POLYLINE
  5
950
  8
0
 66
     1
 10
0.0
 20
0.0
 30
0.0
 70
    64
 71
     4
 72
     2
  0
VERTEX
  5
951
  8
0
 10
-26.78080853527337
 20
-6.0
 30
-23.23466453506029
 70
   192
  0
VERTEX
  5
952
  8
0
 10
-26.78080853527337
 20
0.0
 30
-23.23466453506029
 70
   192
  0
VERTEX
  5
953
  8
0
 10
23.2172876179352
 20
0.0
 30
-22.79833776014177
 70
   192
  0
VERTEX
  5
954
  8
0
 10
23.2172876179352
 20
-6.0
 30
-22.79833776014177
 70
   192
  0
VERTEX
  5
955
  8
0
 10
0.0
 20
0.0
 30
0.0
 70
   128
 71
     3
 72
     4
 73
    -1
  0
VERTEX
  5
956
  8
0
 10
0.0
 20
0.0
 30
0.0
 70
   128
 71
     2
 72
    -3
 73
     1
  0
SEQEND
  5
A38
  8
0
  0
POLYLINE
  5
957
  8
0
 66
     1
 10
0.0
 20
0.0
 30
0.0
 70
    64
 71
     4
 72
     2
  0
VERTEX
  5
958
  8
0
 10
23.2172876179352
 20
-6.0
 30
-22.79833776014177
 70
   192
  0
VERTEX
  5
959
  8
0
 10
23.2172876179352
 20
0.0
 30
-22.79833776014177
 70
   192
  0
VERTEX
  5
95A
  8
0
 10
22.78096084301668
 20
0.0
 30
27.1997583930668
 70
   192
  0
VERTEX
  5
95B
  8
0
 10
22.78096084301668
 20
-6.0
 30
27.1997583930668
 70
   192
  0
VERTEX
  5
95C
  8
0
 10
0.0
 20
0.0
 30
0.0
 70
   128
 71
     3
 72
     4
 73
    -1
  0
VERTEX
  5
95D
  8
0
 10
0.0
 20
0.0
 30
0.0
 70
   128
 71
     2
 72
    -3
 73
     1
  0
SEQEND
  5
A39
  8
0
  0
POLYLINE
  5
95E
  8
0
 66
     1
 10
0.0
 20
0.0
 30
0.0
 70
    64
 71
    14
 72
    14
  0
VERTEX
  5
95F
  8
0
 10
22.78096084301668
 20
0.0
 30
27.1997583930668
 70
   192
  0
VERTEX
  5
960
  8
0
 10
23.2172876179352
 20
0.0
 30
-22.79833776014176
 70
   192
  0
VERTEX
  5
961
  8
0
 10
-26.78080853527337
 20
0.0
 30
-23.23466453506029
 70
   192
  0
VERTEX
  5
962
  8
0
 10
-27.21713531019189
 20
0.0
 30
26.76343161814828
 70
   192
  0
VERTEX
  5
963
  8
0
 10
11.04957924985909
 20
0.0
 30
2.096428217256993
 70
   192
  0
VERTEX
  5
964
  8
0
 10
8.490408184926368
 20
0.0
 30
9.744984296108225
 70
   192
  0
VERTEX
  5
965
  8
0
 10
1.924286837402463
 20
0.0
 30
14.42855313626761
 70
   192
  0
VERTEX
  5
966
  8
0
 10
-6.140749612214754
 20
0.0
 30
14.35817062944418
 70
   192
  0
VERTEX
  5
967
  8
0
 10
-12.62413136067829
 20
0.0
 30
9.56072050103106
 70
   192
  0
VERTEX
  5
968
  8
0
 10
-15.04942694211578
 20
0.0
 30
1.868665640749525
 70
   192
  0
VERTEX
  5
969
  8
0
 10
-12.49025587718306
 20
0.0
 30
-5.779890438101708
 70
   192
  0
VERTEX
  5
96A
  8
0
 10
-5.924134529659153
 20
0.0
 30
-10.46345927826109
 70
   192
  0
VERTEX
  5
96B
  8
0
 10
2.140901919958063
 20
0.0
 30
-10.39307677143766
 70
   192
  0
VERTEX
  5
96C
  8
0
 10
8.624283668421596
 20
0.0
 30
-5.595626643024542
 70
   192
  0
VERTEX
  5
96D
  8
0
 10
0.0
 20
0.0
 30
0.0
 70
   128
 71
    -2
 72
     5
 73
    -6
  0
VERTEX
  5
96E
  8
0
 10
0.0
 20
0.0
 30
0.0
 70
   128
 71
     1
 72
    -2
 73
    -6
  0
VERTEX
  5
96F
  8
0
 10
0.0
 20
0.0
 30
0.0
 70
   128
 71
     6
 72
    -7
 73
    -1
  0
VERTEX
  5
970
  8
0
 10
0.0
 20
0.0
 30
0.0
 70
   128
 71
    -8
 72
     4
 73
    -1
  0
VERTEX
  5
971
  8
0
 10
0.0
 20
0.0
 30
0.0
 70
   128
 71
     7
 72
    -8
 73
    -1
  0
VERTEX
  5
972
  8
0
 10
0.0
 20
0.0
 30
0.0
 70
   128
 71
     8
 72
    -9
 73
    -4
  0
VERTEX
  5
973
  8
0
 10
0.0
 20
0.0
 30
0.0
 70
   128
 71
     9
 72
   -10
 73
    -4
  0
VERTEX
  5
974
  8
0
 10
0.0
 20
0.0
 30
0.0
 70
   128
 71
   -11
 72
     3
 73
    -4
  0
VERTEX
  5
975
  8
0
 10
0.0
 20
0.0
 30
0.0
 70
   128
 71
    10
 72
   -11
 73
    -4
  0
VERTEX
  5
976
  8
0
 10
0.0
 20
0.0
 30
0.0
 70
   128
 71
    11
 72
   -12
 73
    -3
  0
VERTEX
  5
977
  8
0
 10
0.0
 20
0.0
 30
0.0
 70
   128
 71
   -13
 72
     2
 73
    -3
  0
VERTEX
  5
978
  8
0
 10
0.0
 20
0.0
 30
0.0
 70
   128
 71
    12
 72
   -13
 73
    -3
  0
VERTEX
  5
979
  8
0
 10
0.0
 20
0.0
 30
0.0
 70
   128
 71
    13
 72
   -14
 73
    -2
  0
VERTEX
  5
97A
  8
0
 10
0.0
 20
0.0
 30
0.0
 70
   128
 71
    14
 72
    -5
 73
    -2
  0
SEQEND
  5
A3A
  8
0
  0
POLYLINE
  5
97B
  8
0
 66
     1
 10
0.0
 20
0.0
 30
0.0
 70
    64
 71
    12
 72
    10
  0
VERTEX
  5
97C
  8
0
 10
-15.04942694211578
 20
0.0
 30
1.868665640749525
 70
   192
  0
VERTEX
  5
97D
  8
0
 10
-15.04942694211578
 20
-1.5
 30
1.868665640749525
 70
   192
  0
VERTEX
  5
97E
  8
0
 10
-12.49025587718306
 20
-1.5
 30
-5.779890438101708
 70
   192
  0
VERTEX
  5
97F
  8
0
 10
-12.49025587718306
 20
0.0
 30
-5.779890438101708
 70
   192
  0
VERTEX
  5
980
  8
0
 10
11.04957924985909
 20
-1.5
 30
2.096428217256993
 70
   192
  0
VERTEX
  5
981
  8
0
 10
11.04957924985909
 20
0.0
 30
2.096428217256993
 70
   192
  0
VERTEX
  5
982
  8
0
 10
8.624283668421596
 20
0.0
 30
-5.595626643024542
 70
   192
  0
VERTEX
  5
983
  8
0
 10
8.624283668421596
 20
-1.5
 30
-5.595626643024542
 70
   192
  0
VERTEX
  5
984
  8
0
 10
2.140901919958063
 20
0.0
 30
-10.39307677143766
 70
   192
  0
VERTEX
  5
985
  8
0
 10
-5.924134529659153
 20
0.0
 30
-10.46345927826109
 70
   192
  0
VERTEX
  5
986
  8
0
 10
-5.924134529659153
 20
-1.5
 30
-10.46345927826109
 70
   192
  0
VERTEX
  5
987
  8
0
 10
2.140901919958063
 20
-1.5
 30
-10.39307677143766
 70
   192
  0
VERTEX
  5
988
  8
0
 10
0.0
 20
0.0
 30
0.0
 70
   128
 71
     1
 72
     2
 73
    -3
  0
VERTEX
  5
989
  8
0
 10
0.0
 20
0.0
 30
0.0
 70
   128
 71
     4
 72
    -1
 73
     3
  0
VERTEX
  5
98A
  8
0
 10
0.0
 20
0.0
 30
0.0
 70
   128
 71
     5
 72
     6
 73
    -7
  0
VERTEX
  5
98B
  8
0
 10
0.0
 20
0.0
 30
0.0
 70
   128
 71
     8
 72
    -5
 73
     7
  0
VERTEX
  5
98C
  8
0
 10
0.0
 20
0.0
 30
0.0
 70
   128
 71
     9
 72
    10
 73
   -11
  0
VERTEX
  5
98D
  8
0
 10
0.0
 20
0.0
 30
0.0
 70
   128
 71
    12
 72
    -9
 73
    11
  0
VERTEX
  5
98E
  8
0
 10
0.0
 20
0.0
 30
0.0
 70
   128
 71
    10
 72
     4
 73
    -3
  0
VERTEX
  5
98F
  8
0
 10
0.0
 20
0.0
 30
0.0
 70
   128
 71
    11
 72
   -10
 73
     3
  0
VERTEX
  5
990
  8
0
 10
0.0
 20
0.0
 30
0.0
 70
   128
 71
     7
 72
     9
 73
   -12
  0
VERTEX
  5
991
  8
0
 10
0.0
 20
0.0
 30
0.0
 70
   128
 71
     8
 72
    -7
 73
    12
  0
SEQEND
  5
A3B
  8
0
  0
POLYLINE
  5
992
  8
0
 66
     1
 10
0.0
 20
0.0
 30
0.0
 70
    64
 71
    12
 72
    10
  0
VERTEX
  5
993
  8
0
 10
11.04957924985909
 20
0.0
 30
2.096428217256993
 70
   192
  0
VERTEX
  5
994
  8
0
 10
11.04957924985909
 20
-1.5
 30
2.096428217256993
 70
   192
  0
VERTEX
  5
995
  8
0
 10
8.490408184926368
 20
-1.5
 30
9.744984296108225
 70
   192
  0
VERTEX
  5
996
  8
0
 10
8.490408184926368
 20
0.0
 30
9.744984296108225
 70
   192
  0
VERTEX
  5
997
  8
0
 10
-15.04942694211578
 20
-1.5
 30
1.868665640749525
 70
   192
  0
VERTEX
  5
998
  8
0
 10
-15.04942694211578
 20
0.0
 30
1.868665640749525
 70
   192
  0
VERTEX
  5
999
  8
0
 10
-12.62413136067829
 20
0.0
 30
9.56072050103106
 70
   192
  0
VERTEX
  5
99A
  8
0
 10
-12.62413136067829
 20
-1.5
 30
9.56072050103106
 70
   192
  0
VERTEX
  5
99B
  8
0
 10
-6.140749612214754
 20
0.0
 30
14.35817062944418
 70
   192
  0
VERTEX
  5
99C
  8
0
 10
1.924286837402463
 20
0.0
 30
14.42855313626761
 70
   192
  0
VERTEX
  5
99D
  8
0
 10
1.924286837402462
 20
-1.5
 30
14.42855313626761
 70
   192
  0
VERTEX
  5
99E
  8
0
 10
-6.140749612214754
 20
-1.5
 30
14.35817062944418
 70
   192
  0
VERTEX
  5
99F
  8
0
 10
0.0
 20
0.0
 30
0.0
 70
   128
 71
     1
 72
     2
 73
    -3
  0
VERTEX
  5
9A0
  8
0
 10
0.0
 20
0.0
 30
0.0
 70
   128
 71
     4
 72
    -1
 73
     3
  0
VERTEX
  5
9A1
  8
0
 10
0.0
 20
0.0
 30
0.0
 70
   128
 71
     5
 72
     6
 73
    -7
  0
VERTEX
  5
9A2
  8
0
 10
0.0
 20
0.0
 30
0.0
 70
   128
 71
     8
 72
    -5
 73
     7
  0
VERTEX
  5
9A3
  8
0
 10
0.0
 20
0.0
 30
0.0
 70
   128
 71
     9
 72
    10
 73
   -11
  0
VERTEX
  5
9A4
  8
0
 10
0.0
 20
0.0
 30
0.0
 70
   128
 71
    12
 72
    -9
 73
    11
  0
VERTEX
  5
9A5
  8
0
 10
0.0
 20
0.0
 30
0.0
 70
   128
 71
    10
 72
     4
 73
    -3
  0
VERTEX
  5
9A6
  8
0
 10
0.0
 20
0.0
 30
0.0
 70
   128
 71
    11
 72
   -10
 73
     3
  0
VERTEX
  5
9A7
  8
0
 10
0.0
 20
0.0
 30
0.0
 70
   128
 71
     7
 72
     9
 73
   -12
  0
VERTEX
  5
9A8
  8
0
 10
0.0
 20
0.0
 30
0.0
 70
   128
 71
     8
 72
    -7
 73
    12
  0
SEQEND
  5
A3C
  8
0
  0
POLYLINE
  5
9A9
  8
0
 66
     1
 10
0.0
 20
0.0
 30
0.0
 70
    64
 71
    22
 72
    22
  0
VERTEX
  5
9AA
  8
0
 10
-24.99904807660429
 20
-1.5
 30
1.781836612540739
 70
   192
  0
VERTEX
  5
9AB
  8
0
 10
-21.81739453628348
 20
-1.5
 30
-9.690835419092867
 70
   192
  0
VERTEX
  5
9AC
  8
0
 10
-13.32566572850816
 20
-1.5
 30
-18.03563407761439
 70
   192
  0
VERTEX
  5
9AD
  8
0
 10
-1.799213529665832
 20
-1.5
 30
-21.01657730147268
 70
   192
  0
VERTEX
  5
9AE
  8
0
 10
9.673458501967776
 20
-1.5
 30
-17.83492376115188
 70
   192
  0
VERTEX
  5
9AF
  8
0
 10
18.0182571604893
 20
-1.5
 30
-9.343194953376567
 70
   192
  0
VERTEX
  5
9B0
  8
0
 10
20.9992003843476
 20
-1.5
 30
2.183257245465766
 70
   192
  0
VERTEX
  5
9B1
  8
0
 10
17.81754684402678
 20
-1.5
 30
13.6559292770994
 70
   192
  0
VERTEX
  5
9B2
  8
0
 10
9.325818036251462
 20
-1.5
 30
22.00072793562092
 70
   192
  0
VERTEX
  5
9B3
  8
0
 10
-2.200634162590872
 20
-1.5
 30
24.9816711594792
 70
   192
  0
VERTEX
  5
9B4
  8
0
 10
-13.67330619422448
 20
-1.5
 30
21.80001761915839
 70
   192
  0
VERTEX
  5
9B5
  8
0
 10
-22.018104852746
 20
-1.5
 30
13.30828881138307
 70
   192
  0
VERTEX
  5
9B6
  8
0
 10
-15.04942694211578
 20
-1.5
 30
1.868665640749525
 70
   192
  0
VERTEX
  5
9B7
  8
0
 10
-12.62413136067829
 20
-1.5
 30
9.56072050103106
 70
   192
  0
VERTEX
  5
9B8
  8
0
 10
-6.140749612214754
 20
-1.5
 30
14.35817062944418
 70
   192
  0
VERTEX
  5
9B9
  8
0
 10
1.924286837402462
 20
-1.5
 30
14.42855313626761
 70
   192
  0
VERTEX
  5
9BA
  8
0
 10
8.490408184926368
 20
-1.5
 30
9.744984296108225
 70
   192
  0
VERTEX
  5
9BB
  8
0
 10
11.04957924985909
 20
-1.5
 30
2.096428217256993
 70
   192
  0
VERTEX
  5
9BC
  8
0
 10
8.624283668421596
 20
-1.5
 30
-5.595626643024542
 70
   192
  0
VERTEX
  5
9BD
  8
0
 10
2.140901919958063
 20
-1.5
 30
-10.39307677143766
 70
   192
  0
VERTEX
  5
9BE
  8
0
 10
-5.924134529659153
 20
-1.5
 30
-10.46345927826109
 70
   192
  0
VERTEX
  5
9BF
  8
0
 10
-12.49025587718306
 20
-1.5
 30
-5.779890438101708
 70
   192
  0
VERTEX
  5
9C0
  8
0
 10
0.0
 20
0.0
 30
0.0
 70
   128
 71
    -1
 72
    13
 73
   -14
  0
VERTEX
  5
9C1
  8
0
 10
0.0
 20
0.0
 30
0.0
 70
   128
 71
    12
 72
    -1
 73
   -14
  0
VERTEX
  5
9C2
  8
0
 10
0.0
 20
0.0
 30
0.0
 70
   128
 71
   -15
 72
    11
 73
   -12
  0
VERTEX
  5
9C3
  8
0
 10
0.0
 20
0.0
 30
0.0
 70
   128
 71
    14
 72
   -15
 73
   -12
  0
VERTEX
  5
9C4
  8
0
 10
0.0
 20
0.0
 30
0.0
 70
   128
 71
     9
 72
    10
 73
   -11
  0
VERTEX
  5
9C5
  8
0
 10
0.0
 20
0.0
 30
0.0
 70
   128
 71
   -16
 72
    -9
 73
   -11
  0
VERTEX
  5
9C6
  8
0
 10
0.0
 20
0.0
 30
0.0
 70
   128
 71
    15
 72
   -16
 73
   -11
  0
VERTEX
  5
9C7
  8
0
 10
0.0
 20
0.0
 30
0.0
 70
   128
 71
   -17
 72
     8
 73
    -9
  0
VERTEX
  5
9C8
  8
0
 10
0.0
 20
0.0
 30
0.0
 70
   128
 71
    16
 72
   -17
 73
    -9
  0
VERTEX
  5
9C9
  8
0
 10
0.0
 20
0.0
 30
0.0
 70
   128
 71
   -18
 72
     7
 73
    -8
  0
VERTEX
  5
9CA
  8
0
 10
0.0
 20
0.0
 30
0.0
 70
   128
 71
    17
 72
   -18
 73
    -8
  0
VERTEX
  5
9CB
  8
0
 10
0.0
 20
0.0
 30
0.0
 70
   128
 71
   -19
 72
     6
 73
    -7
  0
VERTEX
  5
9CC
  8
0
 10
0.0
 20
0.0
 30
0.0
 70
   128
 71
    18
 72
   -19
 73
    -7
  0
VERTEX
  5
9CD
  8
0
 10
0.0
 20
0.0
 30
0.0
 70
   128
 71
   -20
 72
     5
 73
    -6
  0
VERTEX
  5
9CE
  8
0
 10
0.0
 20
0.0
 30
0.0
 70
   128
 71
    19
 72
   -20
 73
    -6
  0
VERTEX
  5
9CF
  8
0
 10
0.0
 20
0.0
 30
0.0
 70
   128
 71
     3
 72
     4
 73
    -5
  0
VERTEX
  5
9D0
  8
0
 10
0.0
 20
0.0
 30
0.0
 70
   128
 71
   -21
 72
    -3
 73
    -5
  0
VERTEX
  5
9D1
  8
0
 10
0.0
 20
0.0
 30
0.0
 70
   128
 71
    20
 72
   -21
 73
    -5
  0
VERTEX
  5
9D2
  8
0
 10
0.0
 20
0.0
 30
0.0
 70
   128
 71
   -22
 72
     2
 73
    -3
  0
VERTEX
  5
9D3
  8
0
 10
0.0
 20
0.0
 30
0.0
 70
   128
 71
    21
 72
   -22
 73
    -3
  0
VERTEX
  5
9D4
  8
0
 10
0.0
 20
0.0
 30
0.0
 70
   128
 71
   -13
 72
     1
 73
    -2
  0
VERTEX
  5
9D5
  8
0
 10
0.0
 20
0.0
 30
0.0
 70
   128
 71
    22
 72
   -13
 73
    -2
  0
SEQEND
  5
A3D
  8
0
  0
POLYLINE
  5
9D6
  8
0
 66
     1
 10
0.0
 20
0.0
 30
0.0
 70
    64
 71
    14
 72
    12
  0
VERTEX
  5
9D7
  8
0
 10
20.9992003843476
 20
-1.5
 30
2.183257245465791
 70
   192
  0
VERTEX
  5
9D8
  8
0
 10
20.99920038434759
 20
-6.0
 30
2.183257245465779
 70
   192
  0
VERTEX
  5
9D9
  8
0
 10
17.81754684402679
 20
-6.0
 30
13.65592927709939
 70
   192
  0
VERTEX
  5
9DA
  8
0
 10
17.81754684402678
 20
-1.5
 30
13.6559292770994
 70
   192
  0
VERTEX
  5
9DB
  8
0
 10
-2.200634162590859
 20
-6.0
 30
24.9816711594792
 70
   192
  0
VERTEX
  5
9DC
  8
0
 10
-2.200634162590872
 20
-1.5
 30
24.9816711594792
 70
   192
  0
VERTEX
  5
9DD
  8
0
 10
9.325818036251462
 20
-1.5
 30
22.00072793562092
 70
   192
  0
VERTEX
  5
9DE
  8
0
 10
9.325818036251475
 20
-6.0
 30
22.00072793562091
 70
   192
  0
VERTEX
  5
9DF
  8
0
 10
-13.67330619422447
 20
-6.0
 30
21.8000176191584
 70
   192
  0
VERTEX
  5
9E0
  8
0
 10
-13.67330619422448
 20
-1.5
 30
21.80001761915839
 70
   192
  0
VERTEX
  5
9E1
  8
0
 10
-24.99904807660429
 20
-6.0
 30
1.781836612540739
 70
   192
  0
VERTEX
  5
9E2
  8
0
 10
-24.99904807660429
 20
-1.5
 30
1.781836612540739
 70
   192
  0
VERTEX
  5
9E3
  8
0
 10
-22.018104852746
 20
-1.5
 30
13.30828881138307
 70
   192
  0
VERTEX
  5
9E4
  8
0
 10
-22.018104852746
 20
-6.0
 30
13.30828881138308
 70
   192
  0
VERTEX
  5
9E5
  8
0
 10
0.0
 20
0.0
 30
0.0
 70
   128
 71
     1
 72
     2
 73
    -3
  0
VERTEX
  5
9E6
  8
0
 10
0.0
 20
0.0
 30
0.0
 70
   128
 71
     4
 72
    -1
 73
     3
  0
VERTEX
  5
9E7
  8
0
 10
0.0
 20
0.0
 30
0.0
 70
   128
 71
     5
 72
     6
 73
    -7
  0
VERTEX
  5
9E8
  8
0
 10
0.0
 20
0.0
 30
0.0
 70
   128
 71
     8
 72
    -5
 73
     7
  0
VERTEX
  5
9E9
  8
0
 10
0.0
 20
0.0
 30
0.0
 70
   128
 71
     6
 72
     5
 73
    -9
  0
VERTEX
  5
9EA
  8
0
 10
0.0
 20
0.0
 30
0.0
 70
   128
 71
    10
 72
    -6
 73
     9
  0
VERTEX
  5
9EB
  8
0
 10
0.0
 20
0.0
 30
0.0
 70
   128
 71
    11
 72
    12
 73
   -13
  0
VERTEX
  5
9EC
  8
0
 10
0.0
 20
0.0
 30
0.0
 70
   128
 71
    14
 72
   -11
 73
    13
  0
VERTEX
  5
9ED
  8
0
 10
0.0
 20
0.0
 30
0.0
 70
   128
 71
     7
 72
     4
 73
    -3
  0
VERTEX
  5
9EE
  8
0
 10
0.0
 20
0.0
 30
0.0
 70
   128
 71
     8
 72
    -7
 73
     3
  0
VERTEX
  5
9EF
  8
0
 10
0.0
 20
0.0
 30
0.0
 70
   128
 71
    13
 72
    10
 73
    -9
  0
VERTEX
  5
9F0
  8
0
 10
0.0
 20
0.0
 30
0.0
 70
   128
 71
    14
 72
   -13
 73
     9
  0
SEQEND
  5
A3E
  8
0
  0
POLYLINE
  5
9F1
  8
0
 66
     1
 10
0.0
 20
0.0
 30
0.0
 70
    64
 71
    14
 72
    12
  0
VERTEX
  5
9F2
  8
0
 10
-24.99904807660429
 20
-1.5
 30
1.781836612540739
 70
   192
  0
VERTEX
  5
9F3
  8
0
 10
-24.99904807660429
 20
-6.0
 30
1.781836612540739
 70
   192
  0
VERTEX
  5
9F4
  8
0
 10
-21.81739453628348
 20
-6.0
 30
-9.690835419092867
 70
   192
  0
VERTEX
  5
9F5
  8
0
 10
-21.81739453628348
 20
-1.5
 30
-9.690835419092867
 70
   192
  0
VERTEX
  5
9F6
  8
0
 10
-1.799213529665832
 20
-6.0
 30
-21.01657730147268
 70
   192
  0
VERTEX
  5
9F7
  8
0
 10
-1.799213529665832
 20
-1.5
 30
-21.01657730147268
 70
   192
  0
VERTEX
  5
9F8
  8
0
 10
-13.32566572850816
 20
-1.5
 30
-18.03563407761439
 70
   192
  0
VERTEX
  5
9F9
  8
0
 10
-13.32566572850816
 20
-6.0
 30
-18.03563407761439
 70
   192
  0
VERTEX
  5
9FA
  8
0
 10
9.673458501967776
 20
-6.0
 30
-17.83492376115188
 70
   192
  0
VERTEX
  5
9FB
  8
0
 10
9.673458501967776
 20
-1.5
 30
-17.83492376115188
 70
   192
  0
VERTEX
  5
9FC
  8
0
 10
20.99920038434759
 20
-6.0
 30
2.183257245465779
 70
   192
  0
VERTEX
  5
9FD
  8
0
 10
20.99920038434759
 20
-1.5
 30
2.183257245465779
 70
   192
  0
VERTEX
  5
9FE
  8
0
 10
18.0182571604893
 20
-1.5
 30
-9.343194953376567
 70
   192
  0
VERTEX
  5
9FF
  8
0
 10
18.0182571604893
 20
-6.0
 30
-9.343194953376567
 70
   192
  0
VERTEX
  5
A00
  8
0
 10
0.0
 20
0.0
 30
0.0
 70
   128
 71
     1
 72
     2
 73
    -3
  0
VERTEX
  5
A01
  8
0
 10
0.0
 20
0.0
 30
0.0
 70
   128
 71
     4
 72
    -1
 73
     3
  0
VERTEX
  5
A02
  8
0
 10
0.0
 20
0.0
 30
0.0
 70
   128
 71
     5
 72
     6
 73
    -7
  0
VERTEX
  5
A03
  8
0
 10
0.0
 20
0.0
 30
0.0
 70
   128
 71
     8
 72
    -5
 73
     7
  0
VERTEX
  5
A04
  8
0
 10
0.0
 20
0.0
 30
0.0
 70
   128
 71
     6
 72
     5
 73
    -9
  0
VERTEX
  5
A05
  8
0
 10
0.0
 20
0.0
 30
0.0
 70
   128
 71
    10
 72
    -6
 73
     9
  0
VERTEX
  5
A06
  8
0
 10
0.0
 20
0.0
 30
0.0
 70
   128
 71
    11
 72
    12
 73
   -13
  0
VERTEX
  5
A07
  8
0
 10
0.0
 20
0.0
 30
0.0
 70
   128
 71
    14
 72
   -11
 73
    13
  0
VERTEX
  5
A08
  8
0
 10
0.0
 20
0.0
 30
0.0
 70
   128
 71
     7
 72
     4
 73
    -3
  0
VERTEX
  5
A09
  8
0
 10
0.0
 20
0.0
 30
0.0
 70
   128
 71
     8
 72
    -7
 73
     3
  0
VERTEX
  5
A0A
  8
0
 10
0.0
 20
0.0
 30
0.0
 70
   128
 71
    13
 72
    10
 73
    -9
  0
VERTEX
  5
A0B
  8
0
 10
0.0
 20
0.0
 30
0.0
 70
   128
 71
    14
 72
   -13
 73
     9
  0
SEQEND
  5
A3F
  8
0
  0
ENDBLK
  5
A34
  8
0
  0
ENDSEC
  0
SECTION
  2
ENTITIES
  0
INSERT
  5
BE
  8
0
  2
*X1
 10
0.0
 20
0.0
 30
0.0
  0
INSERT
  5
BF
  8
0
  2
*X2
 10
0.0
 20
0.0
 30
0.0
  0
INSERT
  5
C0
  8
0
  2
*X3
 10
0.0
 20
0.0
 30
0.0
  0
ENDSEC
  0
EOF
