  0
SECTION
  2
HEADER
  9
$ACADVER
  1
AC1009
  9
$DWGCODEPAGE
  3
ansi_1250
  9
$INSBASE
 10
0.0
 20
0.0
 30
0.0
  9
$EXTMIN
 10
-230.0000000000028
 20
-275.0000000000023
 30
-165.0000000000009
  9
$EXTMAX
 10
230.0000000000033
 20
275.0000000000024
 30
0.0000000000033538
  9
$LIMMIN
 10
0.0
 20
0.0
  9
$LIMMAX
 10
420.0
 20
297.0
  9
$ORTHOMODE
 70
     0
  9
$REGENMODE
 70
     1
  9
$FILLMODE
 70
     1
  9
$QTEXTMODE
 70
     0
  9
$MIRRTEXT
 70
     0
  9
$DRAGMODE
 70
     2
  9
$LTSCALE
 40
1.0
  9
$OSMODE
 70
   511
  9
$ATTMODE
 70
     1
  9
$TEXTSIZE
 40
2.5
  9
$TRACEWID
 40
1.0
  9
$TEXTSTYLE
  7
STANDARD
  9
$CLAYER
  8
0
  9
$CELTYPE
  6
BYLAYER
  9
$CECOLOR
 62
   256
  9
$DIMSCALE
 40
1.0
  9
$DIMASZ
 40
2.5
  9
$DIMEXO
 40
0.625
  9
$DIMDLI
 40
3.75
  9
$DIMRND
 40
0.0
  9
$DIMDLE
 40
0.0
  9
$DIMEXE
 40
1.25
  9
$DIMTP
 40
0.0
  9
$DIMTM
 40
0.0
  9
$DIMTXT
 40
2.5
  9
$DIMCEN
 40
-2.5
  9
$DIMTSZ
 40
0.0
  9
$DIMTOL
 70
     0
  9
$DIMLIM
 70
     0
  9
$DIMTIH
 70
     0
  9
$DIMTOH
 70
     0
  9
$DIMSE1
 70
     0
  9
$DIMSE2
 70
     0
  9
$DIMTAD
 70
     1
  9
$DIMZIN
 70
     8
  9
$DIMBLK
  1

  9
$DIMASO
 70
     1
  9
$DIMSHO
 70
     1
  9
$DIMPOST
  1

  9
$DIMAPOST
  1

  9
$DIMALT
 70
     0
  9
$DIMALTD
 70
     3
  9
$DIMALTF
 40
0.03937007874016
  9
$DIMLFAC
 40
1.0
  9
$DIMTOFL
 70
     1
  9
$DIMTVP
 40
0.0
  9
$DIMTIX
 70
     0
  9
$DIMSOXD
 70
     0
  9
$DIMSAH
 70
     0
  9
$DIMBLK1
  1

  9
$DIMBLK2
  1

  9
$DIMSTYLE
  2
ISO-25
  9
$DIMCLRD
 70
     0
  9
$DIMCLRE
 70
     0
  9
$DIMCLRT
 70
     0
  9
$DIMTFAC
 40
1.0
  9
$DIMGAP
 40
0.625
  9
$LUNITS
 70
     2
  9
$LUPREC
 70
     3
  9
$SKETCHINC
 40
1.0
  9
$FILLETRAD
 40
10.0
  9
$AUNITS
 70
     0
  9
$AUPREC
 70
     0
  9
$MENU
  1
.
  9
$ELEVATION
 40
0.0
  9
$PELEVATION
 40
0.0
  9
$THICKNESS
 40
0.0
  9
$LIMCHECK
 70
     0
  9
$CHAMFERA
 40
10.0
  9
$CHAMFERB
 40
10.0
  9
$SKPOLY
 70
     0
  9
$TDCREATE
 40
2455022.720692848
  9
$TDUPDATE
 40
2460488.374921007
  9
$TDINDWG
 40
0.0001618171
  9
$TDUSRTIMER
 40
0.0001618171
  9
$USRTIMER
 70
     1
  9
$ANGBASE
 50
0.0
  9
$ANGDIR
 70
     0
  9
$PDMODE
 70
     0
  9
$PDSIZE
 40
0.0
  9
$PLINEWID
 40
0.0
  9
$COORDS
 70
     1
  9
$SPLFRAME
 70
     0
  9
$SPLINETYPE
 70
     6
  9
$SPLINESEGS
 70
     8
  9
$ATTDIA
 70
     0
  9
$ATTREQ
 70
     1
  9
$HANDLING
 70
     1
  9
$HANDSEED
  5
139D
  9
$SURFTAB1
 70
     6
  9
$SURFTAB2
 70
     6
  9
$SURFTYPE
 70
     6
  9
$SURFU
 70
     6
  9
$SURFV
 70
     6
  9
$UCSNAME
  2

  9
$UCSORG
 10
0.0
 20
0.0
 30
0.0
  9
$UCSXDIR
 10
1.0
 20
0.0
 30
0.0
  9
$UCSYDIR
 10
0.0
 20
1.0
 30
0.0
  9
$PUCSNAME
  2

  9
$PUCSORG
 10
0.0
 20
0.0
 30
0.0
  9
$PUCSXDIR
 10
1.0
 20
0.0
 30
0.0
  9
$PUCSYDIR
 10
0.0
 20
1.0
 30
0.0
  9
$USERI1
 70
     0
  9
$USERI2
 70
     0
  9
$USERI3
 70
     0
  9
$USERI4
 70
     0
  9
$USERI5
 70
     0
  9
$USERR1
 40
0.0
  9
$USERR2
 40
0.0
  9
$USERR3
 40
0.0
  9
$USERR4
 40
0.0
  9
$USERR5
 40
0.0
  9
$WORLDVIEW
 70
     1
  9
$SHADEDGE
 70
     3
  9
$SHADEDIF
 70
    70
  9
$TILEMODE
 70
     1
  9
$MAXACTVP
 70
    64
  9
$PLIMCHECK
 70
     0
  9
$PEXTMIN
 10
1.000000000000000E+20
 20
1.000000000000000E+20
 30
1.000000000000000E+20
  9
$PEXTMAX
 10
-1.000000000000000E+20
 20
-1.000000000000000E+20
 30
-1.000000000000000E+20
  9
$PLIMMIN
 10
0.0
 20
0.0
  9
$PLIMMAX
 10
0.0
 20
0.0
  9
$UNITMODE
 70
     0
  9
$VISRETAIN
 70
     1
  9
$PLINEGEN
 70
     0
  9
$PSLTSCALE
 70
     1
  0
ENDSEC
  0
SECTION
  2
TABLES
  0
TABLE
  2
VPORT
 70
     1
  0
VPORT
  2
*ACTIVE
 70
     0
 10
0.0
 20
0.0
 11
1.0
 21
1.0
 12
-94.88447817080805
 22
-122.1425469403697
 13
0.0
 23
0.0
 14
10.0
 24
10.0
 15
10.0
 25
10.0
 16
0.5773502691896262
 26
0.5773502691896262
 36
0.5773502691896226
 17
-134.1869158878504
 27
-0.0000000000000284
 37
0.0000000000000426
 40
557.9937634060161
 41
1.88293897882939
 42
50.0
 43
0.0
 44
0.0
 50
0.0
 51
0.0
 71
    16
 72
  1000
 73
     1
 74
     3
 75
     0
 76
     0
 77
     0
 78
     0
  0
ENDTAB
  0
TABLE
  2
LTYPE
 70
     1
  0
LTYPE
  2
CONTINUOUS
 70
     0
  3
Solid line
 72
    65
 73
     0
 40
0.0
  0
ENDTAB
  0
TABLE
  2
LAYER
 70
     1
  0
LAYER
  2
0
 70
     0
 62
     7
  6
CONTINUOUS
  0
ENDTAB
  0
TABLE
  2
STYLE
 70
     2
  0
STYLE
  2
STANDARD
 70
     0
 40
0.0
 41
1.0
 50
0.0
 71
     0
 42
2.5
  3
arial.ttf
  4

  0
STYLE
  2
ANNOTATIVE
 70
     0
 40
0.0
 41
1.0
 50
0.0
 71
     0
 42
2.5
  3
arial.ttf
  4

  0
ENDTAB
  0
TABLE
  2
VIEW
 70
     0
  0
ENDTAB
  0
TABLE
  2
UCS
 70
     0
  0
ENDTAB
  0
TABLE
  2
APPID
 70
     2
  0
APPID
  2
ACAD
 70
     0
  0
APPID
  2
ACADANNOTATIVE
 70
     0
  0
ENDTAB
  0
TABLE
  2
DIMSTYLE
 70
     2
  0
DIMSTYLE
  2
ISO-25
 70
     0
  3

  4

  5

  6

  7

 40
1.0
 41
2.5
 42
0.625
 43
3.75
 44
1.25
 45
0.0
 46
0.0
 47
0.0
 48
0.0
140
2.5
141
-2.5
142
0.0
143
0.03937007874016
144
1.0
145
0.0
146
1.0
147
0.625
 71
     0
 72
     0
 73
     0
 74
     0
 75
     0
 76
     0
 77
     1
 78
     8
170
     0
171
     3
172
     1
173
     0
174
     0
175
     0
176
     0
177
     0
178
     0
  0
DIMSTYLE
  2
ANNOTATIVE
 70
     0
  3

  4

  5

  6

  7

 40
0.0
 41
2.5
 42
0.625
 43
3.75
 44
1.25
 45
0.0
 46
0.0
 47
0.0
 48
0.0
140
2.5
141
-2.5
142
0.0
143
0.03937007874016
144
1.0
145
0.0
146
1.0
147
0.625
 71
     0
 72
     0
 73
     0
 74
     0
 75
     0
 76
     0
 77
     1
 78
     8
170
     0
171
     3
172
     1
173
     0
174
     0
175
     0
176
     0
177
     0
178
     0
  0
ENDTAB
  0
ENDSEC
  0
SECTION
  2
BLOCKS
  0
BLOCK
  8
0
  2
$MODEL_SPACE
 70
     0
 10
0.0
 20
0.0
 30
0.0
  3
$MODEL_SPACE
  1

  0
ENDBLK
  5
21
  8
0
  0
BLOCK
 67
     1
  8
0
  2
$PAPER_SPACE
 70
     0
 10
0.0
 20
0.0
 30
0.0
  3
$PAPER_SPACE
  1

  0
ENDBLK
  5
1D
 67
     1
  8
0
  0
BLOCK
  8
0
  2
*X1
 70
     1
 10
0.0
 20
0.0
 30
0.0
  3
*X1
  1

  0
POLYLINE
  5
A35
  8
0
 66
     1
 10
0.0
 20
0.0
 30
0.0
 70
    64
 71
    10
 72
     8
  0
VERTEX
  5
A36
  8
0
 10
-35.00000000000286
 20
35.00000000000419
 30
-135.4527630831823
 70
   192
  0
VERTEX
  5
A37
  8
0
 10
-35.00000000000286
 20
-35.0000000000012
 30
-135.452763083183
 70
   192
  0
VERTEX
  5
A38
  8
0
 10
-35.00000000000286
 20
-35.00000000000056
 30
-164.9999999999989
 70
   192
  0
VERTEX
  5
A39
  8
0
 10
-35.00000000000286
 20
35.00000000000417
 30
-164.9999999999982
 70
   192
  0
VERTEX
  5
A3A
  8
0
 10
-0.0000000000006608
 20
0.0000000000019727
 30
-164.9999999999986
 70
   192
  0
VERTEX
  5
A3B
  8
0
 10
0.0
 20
0.0000000000016632
 30
-135.4527630831827
 70
   192
  0
VERTEX
  5
A3C
  8
0
 10
-10.25126265847215
 20
24.74873734153269
 30
-164.9999999999983
 70
   192
  0
VERTEX
  5
A3D
  8
0
 10
-10.25126265847168
 20
24.74873734153285
 30
-135.4527630831824
 70
   192
  0
VERTEX
  5
A3E
  8
0
 10
-10.25126265847214
 20
-24.74873734152875
 30
-164.9999999999988
 70
   192
  0
VERTEX
  5
A3F
  8
0
 10
-10.25126265847167
 20
-24.74873734152953
 30
-135.4527630831829
 70
   192
  0
VERTEX
  5
A40
  8
0
 10
0.0
 20
0.0
 30
0.0
 70
   128
 71
     7
 72
     4
 73
    -1
  0
VERTEX
  5
A41
  8
0
 10
0.0
 20
0.0
 30
0.0
 70
   128
 71
    -7
 72
     1
 73
     8
  0
VERTEX
  5
A42
  8
0
 10
0.0
 20
0.0
 30
0.0
 70
   128
 71
     6
 72
     5
 73
    -7
  0
VERTEX
  5
A43
  8
0
 10
0.0
 20
0.0
 30
0.0
 70
   128
 71
    -6
 72
     7
 73
     8
  0
VERTEX
  5
A44
  8
0
 10
0.0
 20
0.0
 30
0.0
 70
   128
 71
    10
 72
     9
 73
    -5
  0
VERTEX
  5
A45
  8
0
 10
0.0
 20
0.0
 30
0.0
 70
   128
 71
   -10
 72
     5
 73
     6
  0
VERTEX
  5
A46
  8
0
 10
0.0
 20
0.0
 30
0.0
 70
   128
 71
     2
 72
     3
 73
    -9
  0
VERTEX
  5
A47
  8
0
 10
0.0
 20
0.0
 30
0.0
 70
   128
 71
    -2
 72
     9
 73
    10
  0
SEQEND
  5
132E
  8
0
  0
POLYLINE
  5
A48
  8
0
 66
     1
 10
0.0
 20
0.0
 30
0.0
 70
    64
 71
     8
 72
     6
  0
VERTEX
  5
A49
  8
0
 10
-48.86279181137419
 20
32.13756374081359
 30
-164.9999999999982
 70
   192
  0
VERTEX
  5
A4A
  8
0
 10
-48.86279181137443
 20
32.1375637408139
 30
-135.4527630831823
 70
   192
  0
VERTEX
  5
A4B
  8
0
 10
-42.07761503162476
 20
34.27692176179877
 30
-135.4527630831823
 70
   192
  0
VERTEX
  5
A4C
  8
0
 10
-42.07761503162462
 20
34.27692176179843
 30
-164.9999999999982
 70
   192
  0
VERTEX
  5
A4D
  8
0
 10
-55.07517527229069
 20
28.67032155011851
 30
-164.9999999999983
 70
   192
  0
VERTEX
  5
A4E
  8
0
 10
-55.07517527229106
 20
28.67032155011875
 30
-135.4527630831824
 70
   192
  0
VERTEX
  5
A4F
  8
0
 10
-35.00000000000287
 20
35.00000000000452
 30
-135.4527630831823
 70
   192
  0
VERTEX
  5
A50
  8
0
 10
-35.00000000000286
 20
35.0000000000045
 30
-164.9999999999982
 70
   192
  0
VERTEX
  5
A51
  8
0
 10
0.0
 20
0.0
 30
0.0
 70
   128
 71
     1
 72
     2
 73
    -3
  0
VERTEX
  5
A52
  8
0
 10
0.0
 20
0.0
 30
0.0
 70
   128
 71
    -1
 72
     3
 73
     4
  0
VERTEX
  5
A53
  8
0
 10
0.0
 20
0.0
 30
0.0
 70
   128
 71
     5
 72
     6
 73
    -2
  0
VERTEX
  5
A54
  8
0
 10
0.0
 20
0.0
 30
0.0
 70
   128
 71
    -5
 72
     2
 73
     1
  0
VERTEX
  5
A55
  8
0
 10
0.0
 20
0.0
 30
0.0
 70
   128
 71
     4
 72
     3
 73
    -7
  0
VERTEX
  5
A56
  8
0
 10
0.0
 20
0.0
 30
0.0
 70
   128
 71
    -4
 72
     7
 73
     8
  0
SEQEND
  5
132F
  8
0
  0
POLYLINE
  5
A57
  8
0
 66
     1
 10
0.0
 20
0.0
 30
0.0
 70
    64
 71
    15
 72
    13
  0
VERTEX
  5
A58
  8
0
 10
-59.00000000000286
 20
-0.0000000000000027
 30
-124.7652316125781
 70
   192
  0
VERTEX
  5
A59
  8
0
 10
-64.77350269189922
 20
0.0000000000000036
 30
-114.7652316125777
 70
   192
  0
VERTEX
  5
A5A
  8
0
 10
-64.73925759782546
 20
-1.427592404964291
 30
-114.7652316125777
 70
   192
  0
VERTEX
  5
A5B
  8
0
 10
-64.63660109212432
 20
-2.851900813637422
 30
-114.7652316125777
 70
   192
  0
VERTEX
  5
A5C
  8
0
 10
-64.46576932314098
 20
-4.269648784147644
 30
-114.7652316125777
 70
   192
  0
VERTEX
  5
A5D
  8
0
 10
-11.93225912071507
 20
-20.44538674882131
 30
-112.9452805095955
 70
   192
  0
VERTEX
  5
A5E
  8
0
 10
-7.199283196720251
 20
-14.51324654384805
 30
-112.0155358785111
 70
   192
  0
VERTEX
  5
A5F
  8
0
 10
-18.02943725152571
 20
-16.97056274847714
 30
-124.7652316125781
 70
   192
  0
VERTEX
  5
A60
  8
0
 10
-4.149996913541325
 20
-7.544266934823418
 30
-111.3261024565444
 70
   192
  0
VERTEX
  5
A61
  8
0
 10
-11.00000000000286
 20
0.0000000000000029
 30
-124.7652316125781
 70
   192
  0
VERTEX
  5
A62
  8
0
 10
-3.093292638578327
 20
-0.0000000000001723
 30
-111.0704127420118
 70
   192
  0
VERTEX
  5
A63
  8
0
 10
-51.97056274847999
 20
-16.97056274847714
 30
-124.7652316125781
 70
   192
  0
VERTEX
  5
A64
  8
0
 10
-53.9058229130657
 20
-24.90174705837231
 30
-112.1810882059693
 70
   192
  0
VERTEX
  5
A65
  8
0
 10
-31.90996626528157
 20
-31.95166131909268
 30
-110.7345179908875
 70
   192
  0
VERTEX
  5
A66
  8
0
 10
-35.00000000000286
 20
-24.0
 30
-124.7652316125781
 70
   192
  0
VERTEX
  5
A67
  8
0
 10
0.0
 20
0.0
 30
0.0
 70
   128
 71
     1
 72
     2
 73
     3
  0
VERTEX
  5
A68
  8
0
 10
0.0
 20
0.0
 30
0.0
 70
   128
 71
     3
 72
     4
 73
     1
  0
VERTEX
  5
A69
  8
0
 10
0.0
 20
0.0
 30
0.0
 70
   128
 71
     4
 72
     5
 73
     1
  0
VERTEX
  5
A6A
  8
0
 10
0.0
 20
0.0
 30
0.0
 70
   128
 71
     6
 72
     7
 73
     8
  0
VERTEX
  5
A6B
  8
0
 10
0.0
 20
0.0
 30
0.0
 70
   128
 71
     9
 72
    10
 73
     8
  0
VERTEX
  5
A6C
  8
0
 10
0.0
 20
0.0
 30
0.0
 70
   128
 71
     7
 72
     9
 73
     8
  0
VERTEX
  5
A6D
  8
0
 10
0.0
 20
0.0
 30
0.0
 70
   128
 71
     9
 72
    11
 73
    10
  0
VERTEX
  5
A6E
  8
0
 10
0.0
 20
0.0
 30
0.0
 70
   128
 71
    12
 72
     1
 73
     5
  0
VERTEX
  5
A6F
  8
0
 10
0.0
 20
0.0
 30
0.0
 70
   128
 71
    13
 72
    12
 73
     5
  0
VERTEX
  5
A70
  8
0
 10
0.0
 20
0.0
 30
0.0
 70
   128
 71
    12
 72
    13
 73
    14
  0
VERTEX
  5
A71
  8
0
 10
0.0
 20
0.0
 30
0.0
 70
   128
 71
    15
 72
    12
 73
    14
  0
VERTEX
  5
A72
  8
0
 10
0.0
 20
0.0
 30
0.0
 70
   128
 71
     8
 72
    15
 73
    14
  0
VERTEX
  5
A73
  8
0
 10
0.0
 20
0.0
 30
0.0
 70
   128
 71
     6
 72
     8
 73
    14
  0
SEQEND
  5
1330
  8
0
  0
POLYLINE
  5
A74
  8
0
 66
     1
 10
0.0
 20
0.0
 30
0.0
 70
    64
 71
     8
 72
     6
  0
VERTEX
  5
A75
  8
0
 10
-204.9999999999991
 20
107.5000000000019
 30
-50.00000000000129
 70
   192
  0
VERTEX
  5
A76
  8
0
 10
-229.9999999999984
 20
107.5000000000022
 30
-50.00000000000156
 70
   192
  0
VERTEX
  5
A77
  8
0
 10
-229.9999999999982
 20
114.5000000000022
 30
-60.00000000000157
 70
   192
  0
VERTEX
  5
A78
  8
0
 10
-229.999999999998
 20
135.5000000000023
 30
-60.00000000000149
 70
   192
  0
VERTEX
  5
A79
  8
0
 10
-229.999999999998
 20
142.5000000000022
 30
-50.00000000000156
 70
   192
  0
VERTEX
  5
A7A
  8
0
 10
-204.9999999999988
 20
142.5000000000019
 30
-50.00000000000142
 70
   192
  0
VERTEX
  5
A7B
  8
0
 10
-204.9999999999988
 20
135.5000000000018
 30
-60.00000000000136
 70
   192
  0
VERTEX
  5
A7C
  8
0
 10
-204.9999999999989
 20
114.5000000000019
 30
-60.00000000000129
 70
   192
  0
VERTEX
  5
A7D
  8
0
 10
0.0
 20
0.0
 30
0.0
 70
   128
 71
     7
 72
     6
 73
    -5
  0
VERTEX
  5
A7E
  8
0
 10
0.0
 20
0.0
 30
0.0
 70
   128
 71
    -7
 72
     5
 73
     4
  0
VERTEX
  5
A7F
  8
0
 10
0.0
 20
0.0
 30
0.0
 70
   128
 71
     4
 72
     3
 73
    -8
  0
VERTEX
  5
A80
  8
0
 10
0.0
 20
0.0
 30
0.0
 70
   128
 71
    -4
 72
     8
 73
     7
  0
VERTEX
  5
A81
  8
0
 10
0.0
 20
0.0
 30
0.0
 70
   128
 71
     3
 72
     2
 73
    -1
  0
VERTEX
  5
A82
  8
0
 10
0.0
 20
0.0
 30
0.0
 70
   128
 71
    -3
 72
     1
 73
     8
  0
SEQEND
  5
1331
  8
0
  0
POLYLINE
  5
A83
  8
0
 66
     1
 10
0.0
 20
0.0
 30
0.0
 70
    64
 71
     8
 72
     6
  0
VERTEX
  5
A84
  8
0
 10
-205.0000000000014
 20
-107.4999999999976
 30
-50.00000000000126
 70
   192
  0
VERTEX
  5
A85
  8
0
 10
-230.0000000000006
 20
-107.4999999999974
 30
-50.00000000000153
 70
   192
  0
VERTEX
  5
A86
  8
0
 10
-230.0000000000007
 20
-114.4999999999975
 30
-40.00000000000157
 70
   192
  0
VERTEX
  5
A87
  8
0
 10
-230.000000000001
 20
-135.499999999998
 30
-40.00000000000153
 70
   192
  0
VERTEX
  5
A88
  8
0
 10
-230.000000000001
 20
-142.4999999999982
 30
-50.00000000000158
 70
   192
  0
VERTEX
  5
A89
  8
0
 10
-205.0000000000018
 20
-142.4999999999985
 30
-50.00000000000145
 70
   192
  0
VERTEX
  5
A8A
  8
0
 10
-205.0000000000018
 20
-135.4999999999985
 30
-40.00000000000139
 70
   192
  0
VERTEX
  5
A8B
  8
0
 10
-205.0000000000015
 20
-114.4999999999979
 30
-40.00000000000127
 70
   192
  0
VERTEX
  5
A8C
  8
0
 10
0.0
 20
0.0
 30
0.0
 70
   128
 71
     7
 72
     6
 73
    -5
  0
VERTEX
  5
A8D
  8
0
 10
0.0
 20
0.0
 30
0.0
 70
   128
 71
    -7
 72
     5
 73
     4
  0
VERTEX
  5
A8E
  8
0
 10
0.0
 20
0.0
 30
0.0
 70
   128
 71
     4
 72
     3
 73
    -8
  0
VERTEX
  5
A8F
  8
0
 10
0.0
 20
0.0
 30
0.0
 70
   128
 71
    -4
 72
     8
 73
     7
  0
VERTEX
  5
A90
  8
0
 10
0.0
 20
0.0
 30
0.0
 70
   128
 71
     3
 72
     2
 73
    -1
  0
VERTEX
  5
A91
  8
0
 10
0.0
 20
0.0
 30
0.0
 70
   128
 71
    -3
 72
     1
 73
     8
  0
SEQEND
  5
1332
  8
0
  0
POLYLINE
  5
A92
  8
0
 66
     1
 10
0.0
 20
0.0
 30
0.0
 70
    64
 71
    10
 72
     8
  0
VERTEX
  5
A93
  8
0
 10
-59.00000000000286
 20
0.0000000000000029
 30
-165.0
 70
   192
  0
VERTEX
  5
A94
  8
0
 10
-11.00000000000286
 20
-0.0000000000000027
 30
-165.0
 70
   192
  0
VERTEX
  5
A95
  8
0
 10
-11.00000000000286
 20
0.0000000000000029
 30
-124.7652316125781
 70
   192
  0
VERTEX
  5
A96
  8
0
 10
-59.00000000000287
 20
0.0000000000000029
 30
-124.7652316125781
 70
   192
  0
VERTEX
  5
A97
  8
0
 10
-35.00000000000286
 20
-24.0
 30
-124.7652316125781
 70
   192
  0
VERTEX
  5
A98
  8
0
 10
-35.00000000000286
 20
-24.0
 30
-165.0
 70
   192
  0
VERTEX
  5
A99
  8
0
 10
-51.97056274847999
 20
-16.97056274847714
 30
-124.7652316125781
 70
   192
  0
VERTEX
  5
A9A
  8
0
 10
-51.97056274848001
 20
-16.97056274847714
 30
-165.0
 70
   192
  0
VERTEX
  5
A9B
  8
0
 10
-18.02943725152571
 20
-16.97056274847714
 30
-124.7652316125781
 70
   192
  0
VERTEX
  5
A9C
  8
0
 10
-18.02943725152572
 20
-16.97056274847714
 30
-165.0
 70
   192
  0
VERTEX
  5
A9D
  8
0
 10
0.0
 20
0.0
 30
0.0
 70
   128
 71
     8
 72
     1
 73
    -4
  0
VERTEX
  5
A9E
  8
0
 10
0.0
 20
0.0
 30
0.0
 70
   128
 71
     7
 72
    -8
 73
     4
  0
VERTEX
  5
A9F
  8
0
 10
0.0
 20
0.0
 30
0.0
 70
   128
 71
     6
 72
     8
 73
    -7
  0
VERTEX
  5
AA0
  8
0
 10
0.0
 20
0.0
 30
0.0
 70
   128
 71
     5
 72
    -6
 73
     7
  0
VERTEX
  5
AA1
  8
0
 10
0.0
 20
0.0
 30
0.0
 70
   128
 71
    10
 72
     6
 73
    -5
  0
VERTEX
  5
AA2
  8
0
 10
0.0
 20
0.0
 30
0.0
 70
   128
 71
     9
 72
   -10
 73
     5
  0
VERTEX
  5
AA3
  8
0
 10
0.0
 20
0.0
 30
0.0
 70
   128
 71
     2
 72
    10
 73
    -9
  0
VERTEX
  5
AA4
  8
0
 10
0.0
 20
0.0
 30
0.0
 70
   128
 71
     3
 72
    -2
 73
     9
  0
SEQEND
  5
1333
  8
0
  0
POLYLINE
  5
AA5
  8
0
 66
     1
 10
0.0
 20
0.0
 30
0.0
 70
    64
 71
    10
 72
     8
  0
VERTEX
  5
AA6
  8
0
 10
-191.0000000000029
 20
-0.000000000000002
 30
-20.00000000000201
 70
   192
  0
VERTEX
  5
AA7
  8
0
 10
-155.0000000000029
 20
0.0000000000000022
 30
-20.00000000000164
 70
   192
  0
VERTEX
  5
AA8
  8
0
 10
-155.0000000000029
 20
-0.000000000000002
 30
-5.000000000000004
 70
   192
  0
VERTEX
  5
AA9
  8
0
 10
-191.0000000000029
 20
0.0000000000000022
 30
-5.0
 70
   192
  0
VERTEX
  5
AAA
  8
0
 10
-173.0000000000029
 20
-17.99999999999999
 30
-5.000000000000004
 70
   192
  0
VERTEX
  5
AAB
  8
0
 10
-173.0000000000029
 20
-17.99999999999999
 30
-20.00000000000189
 70
   192
  0
VERTEX
  5
AAC
  8
0
 10
-185.7279220613607
 20
-12.72792206135785
 30
-5.000000000000004
 70
   192
  0
VERTEX
  5
AAD
  8
0
 10
-185.7279220613607
 20
-12.72792206135785
 30
-20.000000000002
 70
   192
  0
VERTEX
  5
AAE
  8
0
 10
-160.272077938645
 20
-12.72792206135785
 30
-5.000000000000004
 70
   192
  0
VERTEX
  5
AAF
  8
0
 10
-160.272077938645
 20
-12.72792206135785
 30
-20.00000000000173
 70
   192
  0
VERTEX
  5
AB0
  8
0
 10
0.0
 20
0.0
 30
0.0
 70
   128
 71
     8
 72
     1
 73
    -4
  0
VERTEX
  5
AB1
  8
0
 10
0.0
 20
0.0
 30
0.0
 70
   128
 71
     7
 72
    -8
 73
     4
  0
VERTEX
  5
AB2
  8
0
 10
0.0
 20
0.0
 30
0.0
 70
   128
 71
     6
 72
     8
 73
    -7
  0
VERTEX
  5
AB3
  8
0
 10
0.0
 20
0.0
 30
0.0
 70
   128
 71
     5
 72
    -6
 73
     7
  0
VERTEX
  5
AB4
  8
0
 10
0.0
 20
0.0
 30
0.0
 70
   128
 71
    10
 72
     6
 73
    -5
  0
VERTEX
  5
AB5
  8
0
 10
0.0
 20
0.0
 30
0.0
 70
   128
 71
     9
 72
   -10
 73
     5
  0
VERTEX
  5
AB6
  8
0
 10
0.0
 20
0.0
 30
0.0
 70
   128
 71
     2
 72
    10
 73
    -9
  0
VERTEX
  5
AB7
  8
0
 10
0.0
 20
0.0
 30
0.0
 70
   128
 71
     3
 72
    -2
 73
     9
  0
SEQEND
  5
1334
  8
0
  0
POLYLINE
  5
AB8
  8
0
 66
     1
 10
0.0
 20
0.0
 30
0.0
 70
    64
 71
     8
 72
     6
  0
VERTEX
  5
AB9
  8
0
 10
220.4999999999973
 20
-258.0000000000023
 30
-5.0
 70
   192
  0
VERTEX
  5
ABA
  8
0
 10
220.5000000000027
 20
257.9999999999976
 30
-5.0
 70
   192
  0
VERTEX
  5
ABB
  8
0
 10
220.3866148617121
 20
259.2992000941996
 30
-5.0
 70
   192
  0
VERTEX
  5
ABC
  8
0
 10
220.0498877640629
 20
260.5591175264421
 30
-5.0
 70
   192
  0
VERTEX
  5
ABD
  8
0
 10
219.4999999999973
 20
261.7416573867811
 30
-5.0
 70
   192
  0
VERTEX
  5
ABE
  8
0
 10
219.4999999999973
 20
-261.7416573867762
 30
-4.999999999999998
 70
   192
  0
VERTEX
  5
ABF
  8
0
 10
220.0498877640599
 20
-260.5591175264398
 30
-5.0
 70
   192
  0
VERTEX
  5
AC0
  8
0
 10
220.3866148617073
 20
-259.2992000942007
 30
-5.0
 70
   192
  0
VERTEX
  5
AC1
  8
0
 10
0.0
 20
0.0
 30
0.0
 70
   128
 71
     7
 72
     8
 73
    -1
  0
VERTEX
  5
AC2
  8
0
 10
0.0
 20
0.0
 30
0.0
 70
   128
 71
     6
 72
    -7
 73
    -1
  0
VERTEX
  5
AC3
  8
0
 10
0.0
 20
0.0
 30
0.0
 70
   128
 71
    -6
 72
     1
 73
    -2
  0
VERTEX
  5
AC4
  8
0
 10
0.0
 20
0.0
 30
0.0
 70
   128
 71
     5
 72
    -6
 73
    -2
  0
VERTEX
  5
AC5
  8
0
 10
0.0
 20
0.0
 30
0.0
 70
   128
 71
     3
 72
     4
 73
    -5
  0
VERTEX
  5
AC6
  8
0
 10
0.0
 20
0.0
 30
0.0
 70
   128
 71
     2
 72
    -3
 73
    -5
  0
SEQEND
  5
1335
  8
0
  0
POLYLINE
  5
AC7
  8
0
 66
     1
 10
0.0
 20
0.0
 30
0.0
 70
    64
 71
     9
 72
     7
  0
VERTEX
  5
AC8
  8
0
 10
35.97909624303027
 20
40.20997507381976
 30
-135.4527630831822
 70
   192
  0
VERTEX
  5
AC9
  8
0
 10
35.96276230295931
 20
40.1982959152994
 30
-135.5189988825672
 70
   192
  0
VERTEX
  5
ACA
  8
0
 10
35.94642830357422
 20
40.18661675928041
 30
-135.5852346677663
 70
   192
  0
VERTEX
  5
ACB
  8
0
 10
35.93009424483407
 20
40.17493760576455
 30
-135.6514704387694
 70
   192
  0
VERTEX
  5
ACC
  8
0
 10
43.95471811084704
 20
40.9699535404428
 30
-131.1427110221217
 70
   192
  0
VERTEX
  5
ACD
  8
0
 10
51.54637096159945
 20
41.89379468524322
 30
-125.9033475333998
 70
   192
  0
VERTEX
  5
ACE
  8
0
 10
58.60852272774582
 20
42.93471413188049
 30
-119.9999999999989
 70
   192
  0
VERTEX
  5
ACF
  8
0
 10
-119.9999999999978
 20
42.93471413188236
 30
-120.0000000000008
 70
   192
  0
VERTEX
  5
AD0
  8
0
 10
-119.9999999999976
 20
40.20997507382169
 30
-135.4527630831822
 70
   192
  0
VERTEX
  5
AD1
  8
0
 10
0.0
 20
0.0
 30
0.0
 70
   128
 71
     6
 72
    -5
 73
    -1
  0
VERTEX
  5
AD2
  8
0
 10
0.0
 20
0.0
 30
0.0
 70
   128
 71
    -6
 72
     1
 73
    -9
  0
VERTEX
  5
AD3
  8
0
 10
0.0
 20
0.0
 30
0.0
 70
   128
 71
    -6
 72
     9
 73
    -8
  0
VERTEX
  5
AD4
  8
0
 10
0.0
 20
0.0
 30
0.0
 70
   128
 71
     8
 72
     7
 73
    -6
  0
VERTEX
  5
AD5
  8
0
 10
0.0
 20
0.0
 30
0.0
 70
   128
 71
     2
 72
    -1
 73
    -5
  0
VERTEX
  5
AD6
  8
0
 10
0.0
 20
0.0
 30
0.0
 70
   128
 71
    -5
 72
     3
 73
    -2
  0
VERTEX
  5
AD7
  8
0
 10
0.0
 20
0.0
 30
0.0
 70
   128
 71
     5
 72
     4
 73
    -3
  0
SEQEND
  5
1336
  8
0
  0
POLYLINE
  5
AD8
  8
0
 66
     1
 10
0.0
 20
0.0
 30
0.0
 70
    64
 71
     9
 72
     7
  0
VERTEX
  5
AD9
  8
0
 10
-119.9999999999978
 20
-42.93471413187985
 30
-120.0000000000008
 70
   192
  0
VERTEX
  5
ADA
  8
0
 10
-119.9999999999977
 20
-40.20997507381903
 30
-135.4527630831831
 70
   192
  0
VERTEX
  5
ADB
  8
0
 10
35.97909624302804
 20
-40.20997507382037
 30
-135.4527630831831
 70
   192
  0
VERTEX
  5
ADC
  8
0
 10
35.962762302957
 20
-40.19829591529994
 30
-135.5189988825684
 70
   192
  0
VERTEX
  5
ADD
  8
0
 10
35.94642830357183
 20
-40.18661675928089
 30
-135.5852346677677
 70
   192
  0
VERTEX
  5
ADE
  8
0
 10
35.93009424483161
 20
-40.17493760576495
 30
-135.6514704387712
 70
   192
  0
VERTEX
  5
ADF
  8
0
 10
43.95471811084573
 20
-40.96995354044346
 30
-131.142711022123
 70
   192
  0
VERTEX
  5
AE0
  8
0
 10
51.54637096159903
 20
-41.89379468524415
 30
-125.9033475334006
 70
   192
  0
VERTEX
  5
AE1
  8
0
 10
58.60852272774629
 20
-42.93471413188171
 30
-119.9999999999989
 70
   192
  0
VERTEX
  5
AE2
  8
0
 10
0.0
 20
0.0
 30
0.0
 70
   128
 71
     1
 72
     2
 73
    -3
  0
VERTEX
  5
AE3
  8
0
 10
0.0
 20
0.0
 30
0.0
 70
   128
 71
    -7
 72
    -1
 73
    -3
  0
VERTEX
  5
AE4
  8
0
 10
0.0
 20
0.0
 30
0.0
 70
   128
 71
     3
 72
    -4
 73
    -7
  0
VERTEX
  5
AE5
  8
0
 10
0.0
 20
0.0
 30
0.0
 70
   128
 71
     4
 72
    -5
 73
    -7
  0
VERTEX
  5
AE6
  8
0
 10
0.0
 20
0.0
 30
0.0
 70
   128
 71
     5
 72
     6
 73
    -7
  0
VERTEX
  5
AE7
  8
0
 10
0.0
 20
0.0
 30
0.0
 70
   128
 71
     7
 72
    -8
 73
    -1
  0
VERTEX
  5
AE8
  8
0
 10
0.0
 20
0.0
 30
0.0
 70
   128
 71
     8
 72
     9
 73
    -1
  0
SEQEND
  5
1337
  8
0
  0
POLYLINE
  5
AE9
  8
0
 66
     1
 10
0.0
 20
0.0
 30
0.0
 70
    64
 71
    21
 72
    21
  0
VERTEX
  5
AEA
  8
0
 10
-70.00000000000045
 20
30.12537886977173
 30
-165.0000000000006
 70
   192
  0
VERTEX
  5
AEB
  8
0
 10
-55.07517527229068
 20
28.67032155011852
 30
-165.0000000000005
 70
   192
  0
VERTEX
  5
AEC
  8
0
 10
-48.86279181137419
 20
32.13756374081359
 30
-164.9999999999982
 70
   192
  0
VERTEX
  5
AED
  8
0
 10
-42.07761503162462
 20
34.27692176179843
 30
-164.9999999999982
 70
   192
  0
VERTEX
  5
AEE
  8
0
 10
-35.00000000000287
 20
35.00000000000417
 30
-164.9999999999982
 70
   192
  0
VERTEX
  5
AEF
  8
0
 10
-10.25126265847215
 20
24.74873734153269
 30
-164.9999999999983
 70
   192
  0
VERTEX
  5
AF0
  8
0
 10
-0.0000000000006608
 20
0.0000000000019727
 30
-164.9999999999986
 70
   192
  0
VERTEX
  5
AF1
  8
0
 10
-10.25126265847214
 20
-24.74873734152875
 30
-164.9999999999988
 70
   192
  0
VERTEX
  5
AF2
  8
0
 10
-35.00000000000286
 20
-35.00000000000023
 30
-164.9999999999989
 70
   192
  0
VERTEX
  5
AF3
  8
0
 10
-42.07761503162408
 20
-34.27692176179459
 30
-164.9999999999989
 70
   192
  0
VERTEX
  5
AF4
  8
0
 10
-48.8627918113732
 20
-32.13756374081007
 30
-164.9999999999989
 70
   192
  0
VERTEX
  5
AF5
  8
0
 10
-55.07517527228936
 20
-28.6703215501155
 30
-164.9999999999988
 70
   192
  0
VERTEX
  5
AF6
  8
0
 10
-70.00000000000087
 20
-30.12537886977062
 30
-165.0000000000009
 70
   192
  0
VERTEX
  5
AF7
  8
0
 10
-11.00000000000286
 20
0.0
 30
-165.0
 70
   192
  0
VERTEX
  5
AF8
  8
0
 10
-18.02943725152572
 20
16.97056274847714
 30
-165.0
 70
   192
  0
VERTEX
  5
AF9
  8
0
 10
-35.00000000000286
 20
24.00000000000001
 30
-165.0
 70
   192
  0
VERTEX
  5
AFA
  8
0
 10
-51.97056274848001
 20
16.97056274847714
 30
-165.0
 70
   192
  0
VERTEX
  5
AFB
  8
0
 10
-59.00000000000287
 20
0.0
 30
-165.0
 70
   192
  0
VERTEX
  5
AFC
  8
0
 10
-51.97056274848001
 20
-16.97056274847714
 30
-165.0
 70
   192
  0
VERTEX
  5
AFD
  8
0
 10
-35.00000000000286
 20
-24.0
 30
-165.0
 70
   192
  0
VERTEX
  5
AFE
  8
0
 10
-18.02943725152572
 20
-16.97056274847714
 30
-165.0
 70
   192
  0
VERTEX
  5
AFF
  8
0
 10
0.0
 20
0.0
 30
0.0
 70
   128
 71
   -12
 72
    19
 73
   -20
  0
VERTEX
  5
B00
  8
0
 10
0.0
 20
0.0
 30
0.0
 70
   128
 71
    11
 72
   -12
 73
   -20
  0
VERTEX
  5
B01
  8
0
 10
0.0
 20
0.0
 30
0.0
 70
   128
 71
    10
 72
   -11
 73
   -20
  0
VERTEX
  5
B02
  8
0
 10
0.0
 20
0.0
 30
0.0
 70
   128
 71
     9
 72
   -10
 73
   -20
  0
VERTEX
  5
B03
  8
0
 10
0.0
 20
0.0
 30
0.0
 70
   128
 71
   -21
 72
     8
 73
    -9
  0
VERTEX
  5
B04
  8
0
 10
0.0
 20
0.0
 30
0.0
 70
   128
 71
    20
 72
   -21
 73
    -9
  0
VERTEX
  5
B05
  8
0
 10
0.0
 20
0.0
 30
0.0
 70
   128
 71
   -14
 72
     7
 73
    -8
  0
VERTEX
  5
B06
  8
0
 10
0.0
 20
0.0
 30
0.0
 70
   128
 71
    21
 72
   -14
 73
    -8
  0
VERTEX
  5
B07
  8
0
 10
0.0
 20
0.0
 30
0.0
 70
   128
 71
    -2
 72
    17
 73
   -18
  0
VERTEX
  5
B08
  8
0
 10
0.0
 20
0.0
 30
0.0
 70
   128
 71
     1
 72
    -2
 73
   -18
  0
VERTEX
  5
B09
  8
0
 10
0.0
 20
0.0
 30
0.0
 70
   128
 71
   -18
 72
    13
 73
    -1
  0
VERTEX
  5
B0A
  8
0
 10
0.0
 20
0.0
 30
0.0
 70
   128
 71
   -19
 72
    12
 73
   -13
  0
VERTEX
  5
B0B
  8
0
 10
0.0
 20
0.0
 30
0.0
 70
   128
 71
    18
 72
   -19
 73
   -13
  0
VERTEX
  5
B0C
  8
0
 10
0.0
 20
0.0
 30
0.0
 70
   128
 71
    -7
 72
    14
 73
   -15
  0
VERTEX
  5
B0D
  8
0
 10
0.0
 20
0.0
 30
0.0
 70
   128
 71
     6
 72
    -7
 73
   -15
  0
VERTEX
  5
B0E
  8
0
 10
0.0
 20
0.0
 30
0.0
 70
   128
 71
   -16
 72
     5
 73
    -6
  0
VERTEX
  5
B0F
  8
0
 10
0.0
 20
0.0
 30
0.0
 70
   128
 71
    15
 72
   -16
 73
    -6
  0
VERTEX
  5
B10
  8
0
 10
0.0
 20
0.0
 30
0.0
 70
   128
 71
     3
 72
     4
 73
    -5
  0
VERTEX
  5
B11
  8
0
 10
0.0
 20
0.0
 30
0.0
 70
   128
 71
     2
 72
    -3
 73
    -5
  0
VERTEX
  5
B12
  8
0
 10
0.0
 20
0.0
 30
0.0
 70
   128
 71
   -17
 72
    -2
 73
    -5
  0
VERTEX
  5
B13
  8
0
 10
0.0
 20
0.0
 30
0.0
 70
   128
 71
    16
 72
   -17
 73
    -5
  0
SEQEND
  5
1338
  8
0
  0
POLYLINE
  5
B14
  8
0
 66
     1
 10
0.0
 20
0.0
 30
0.0
 70
    64
 71
     9
 72
     7
  0
VERTEX
  5
B15
  8
0
 10
-119.9999999999977
 20
-34.99999999999954
 30
-135.452763083183
 70
   192
  0
VERTEX
  5
B16
  8
0
 10
-119.9999999999989
 20
-34.99999999999994
 30
-20.00000000000141
 70
   192
  0
VERTEX
  5
B17
  8
0
 10
-119.9999999999989
 20
-142.4999999999999
 30
-20.00000000000177
 70
   192
  0
VERTEX
  5
B18
  8
0
 10
-119.9999999999979
 20
-142.4999999999996
 30
-115.5000000000003
 70
   192
  0
VERTEX
  5
B19
  8
0
 10
-119.9999999999979
 20
-59.29616596866735
 30
-115.5000000000003
 70
   192
  0
VERTEX
  5
B1A
  8
0
 10
-119.9999999999978
 20
-53.99259551326736
 30
-117.5144016669003
 70
   192
  0
VERTEX
  5
B1B
  8
0
 10
-119.9999999999978
 20
-48.52247643178367
 30
-119.0188852611577
 70
   192
  0
VERTEX
  5
B1C
  8
0
 10
-119.9999999999978
 20
-42.93471413187985
 30
-120.0000000000008
 70
   192
  0
VERTEX
  5
B1D
  8
0
 10
-119.9999999999976
 20
-40.20997507381903
 30
-135.4527630831831
 70
   192
  0
VERTEX
  5
B1E
  8
0
 10
0.0
 20
0.0
 30
0.0
 70
   128
 71
     5
 72
     4
 73
    -3
  0
VERTEX
  5
B1F
  8
0
 10
0.0
 20
0.0
 30
0.0
 70
   128
 71
    -5
 72
     3
 73
    -2
  0
VERTEX
  5
B20
  8
0
 10
0.0
 20
0.0
 30
0.0
 70
   128
 71
    -2
 72
     6
 73
    -5
  0
VERTEX
  5
B21
  8
0
 10
0.0
 20
0.0
 30
0.0
 70
   128
 71
    -2
 72
     7
 73
    -6
  0
VERTEX
  5
B22
  8
0
 10
0.0
 20
0.0
 30
0.0
 70
   128
 71
    -2
 72
     8
 73
    -7
  0
VERTEX
  5
B23
  8
0
 10
0.0
 20
0.0
 30
0.0
 70
   128
 71
     2
 72
    -1
 73
    -8
  0
VERTEX
  5
B24
  8
0
 10
0.0
 20
0.0
 30
0.0
 70
   128
 71
     1
 72
     9
 73
    -8
  0
SEQEND
  5
1339
  8
0
  0
POLYLINE
  5
B25
  8
0
 66
     1
 10
0.0
 20
0.0
 30
0.0
 70
    64
 71
     9
 72
     7
  0
VERTEX
  5
B26
  8
0
 10
-119.9999999999976
 20
40.20997507382168
 30
-135.4527630831822
 70
   192
  0
VERTEX
  5
B27
  8
0
 10
-119.9999999999978
 20
42.93471413188236
 30
-120.0000000000008
 70
   192
  0
VERTEX
  5
B28
  8
0
 10
-119.9999999999978
 20
48.08318012849044
 30
-118.9426623628388
 70
   192
  0
VERTEX
  5
B29
  8
0
 10
-119.9999999999979
 20
53.11936026891938
 30
-117.4388157648314
 70
   192
  0
VERTEX
  5
B2A
  8
0
 10
-119.9999999999978
 20
58.00460933393447
 30
-115.5000000000003
 70
   192
  0
VERTEX
  5
B2B
  8
0
 10
-119.9999999999979
 20
142.5000000000004
 30
-115.5000000000008
 70
   192
  0
VERTEX
  5
B2C
  8
0
 10
-119.9999999999989
 20
142.5000000000001
 30
-20.00000000000077
 70
   192
  0
VERTEX
  5
B2D
  8
0
 10
-119.9999999999988
 20
35.00000000000006
 30
-20.00000000000115
 70
   192
  0
VERTEX
  5
B2E
  8
0
 10
-119.9999999999976
 20
35.00000000000047
 30
-135.4527630831823
 70
   192
  0
VERTEX
  5
B2F
  8
0
 10
0.0
 20
0.0
 30
0.0
 70
   128
 71
     2
 72
     1
 73
    -9
  0
VERTEX
  5
B30
  8
0
 10
0.0
 20
0.0
 30
0.0
 70
   128
 71
    -2
 72
     9
 73
    -8
  0
VERTEX
  5
B31
  8
0
 10
0.0
 20
0.0
 30
0.0
 70
   128
 71
    -8
 72
     3
 73
    -2
  0
VERTEX
  5
B32
  8
0
 10
0.0
 20
0.0
 30
0.0
 70
   128
 71
    -8
 72
     4
 73
    -3
  0
VERTEX
  5
B33
  8
0
 10
0.0
 20
0.0
 30
0.0
 70
   128
 71
    -8
 72
     5
 73
    -4
  0
VERTEX
  5
B34
  8
0
 10
0.0
 20
0.0
 30
0.0
 70
   128
 71
     8
 72
     7
 73
    -6
  0
VERTEX
  5
B35
  8
0
 10
0.0
 20
0.0
 30
0.0
 70
   128
 71
    -8
 72
     6
 73
    -5
  0
SEQEND
  5
133A
  8
0
  0
POLYLINE
  5
B36
  8
0
 66
     1
 10
0.0
 20
0.0
 30
0.0
 70
    64
 71
     4
 72
     2
  0
VERTEX
  5
B37
  8
0
 10
-119.9999999999988
 20
35.00000000000052
 30
-154.9999999999982
 70
   192
  0
VERTEX
  5
B38
  8
0
 10
-119.9999999999974
 20
-34.99999999999946
 30
-154.9999999999989
 70
   192
  0
VERTEX
  5
B39
  8
0
 10
-80.00000000000087
 20
-31.10030309581648
 30
-154.9999999999989
 70
   192
  0
VERTEX
  5
B3A
  8
0
 10
-80.00000000000048
 20
31.10030309581752
 30
-154.9999999999982
 70
   192
  0
VERTEX
  5
B3B
  8
0
 10
0.0
 20
0.0
 30
0.0
 70
   128
 71
     1
 72
     4
 73
    -3
  0
VERTEX
  5
B3C
  8
0
 10
0.0
 20
0.0
 30
0.0
 70
   128
 71
    -1
 72
     3
 73
     2
  0
SEQEND
  5
133B
  8
0
  0
POLYLINE
  5
B3D
  8
0
 66
     1
 10
0.0
 20
0.0
 30
0.0
 70
    64
 71
    28
 72
    26
  0
VERTEX
  5
B3E
  8
0
 10
74.0091400608696
 20
197.0826640517313
 30
-102.0862221369003
 70
   192
  0
VERTEX
  5
B3F
  8
0
 10
78.49999999999753
 20
198.2463446259526
 30
-94.73903214881193
 70
   192
  0
VERTEX
  5
B40
  8
0
 10
74.0091400608669
 20
-197.0826640517322
 30
-102.0862221369044
 70
   192
  0
VERTEX
  5
B41
  8
0
 10
78.49999999999477
 20
-198.2463446259536
 30
-94.73903214881608
 70
   192
  0
VERTEX
  5
B42
  8
0
 10
63.20790595103873
 20
58.00460933393258
 30
-115.4999999999983
 70
   192
  0
VERTEX
  5
B43
  8
0
 10
63.20790595104228
 20
194.95813035225
 30
-115.4999999999942
 70
   192
  0
VERTEX
  5
B44
  8
0
 10
63.20790595104064
 20
-59.29616596866924
 30
-115.4999999999967
 70
   192
  0
VERTEX
  5
B45
  8
0
 10
61.32974009213338
 20
53.20845073164428
 30
-117.4080023172424
 70
   192
  0
VERTEX
  5
B46
  8
0
 10
68.8927979577027
 20
195.9825119679864
 30
-109.0323090220222
 70
   192
  0
VERTEX
  5
B47
  8
0
 10
68.89279795770001
 20
-195.9825119679866
 30
-109.0323090220263
 70
   192
  0
VERTEX
  5
B48
  8
0
 10
63.2079059510397
 20
-194.9581303522486
 30
-115.4999999999982
 70
   192
  0
VERTEX
  5
B49
  8
0
 10
51.54637096159945
 20
41.89379468524322
 30
-125.9033475333998
 70
   192
  0
VERTEX
  5
B4A
  8
0
 10
58.6085227277459
 20
42.93471413188049
 30
-119.9999999999989
 70
   192
  0
VERTEX
  5
B4B
  8
0
 10
51.54637096159903
 20
-41.89379468524415
 30
-125.9033475334006
 70
   192
  0
VERTEX
  5
B4C
  8
0
 10
58.60852272774629
 20
-42.93471413188171
 30
-119.9999999999989
 70
   192
  0
VERTEX
  5
B4D
  8
0
 10
36.06164362241935
 20
39.98254539769009
 30
-135.5852087448617
 70
   192
  0
VERTEX
  5
B4E
  8
0
 10
35.93009424483407
 20
40.17493760576455
 30
-135.6514704387694
 70
   192
  0
VERTEX
  5
B4F
  8
0
 10
43.95471811084704
 20
40.9699535404428
 30
-131.1427110221217
 70
   192
  0
VERTEX
  5
B50
  8
0
 10
36.19266345182525
 20
39.78973006709089
 30
-135.5189720547964
 70
   192
  0
VERTEX
  5
B51
  8
0
 10
36.32315309569859
 20
39.59649013993663
 30
-135.4527630831822
 70
   192
  0
VERTEX
  5
B52
  8
0
 10
43.95471811084573
 20
-40.96995354044346
 30
-131.142711022123
 70
   192
  0
VERTEX
  5
B53
  8
0
 10
36.32315309569803
 20
-39.59649013993431
 30
-135.4527630831831
 70
   192
  0
VERTEX
  5
B54
  8
0
 10
36.19262272318695
 20
-39.78979019422339
 30
-135.5189926819599
 70
   192
  0
VERTEX
  5
B55
  8
0
 10
36.06160275925982
 20
-39.98260534800649
 30
-135.5852293648319
 70
   192
  0
VERTEX
  5
B56
  8
0
 10
35.93009424483161
 20
-40.17493760576495
 30
-135.6514704387712
 70
   192
  0
VERTEX
  5
B57
  8
0
 10
59.77287246673394
 20
48.19442921067908
 30
-118.9148051571501
 70
   192
  0
VERTEX
  5
B58
  8
0
 10
61.2550799303678
 20
-54.09284139068403
 30
-117.4817935635641
 70
   192
  0
VERTEX
  5
B59
  8
0
 10
59.69293913579216
 20
-48.6495675287789
 30
-118.9904743321
 70
   192
  0
VERTEX
  5
B5A
  8
0
 10
0.0
 20
0.0
 30
0.0
 70
   128
 71
     1
 72
    -2
 73
     3
  0
VERTEX
  5
B5B
  8
0
 10
0.0
 20
0.0
 30
0.0
 70
   128
 71
     2
 72
     4
 73
    -3
  0
VERTEX
  5
B5C
  8
0
 10
0.0
 20
0.0
 30
0.0
 70
   128
 71
     5
 72
     6
 73
     7
  0
VERTEX
  5
B5D
  8
0
 10
0.0
 20
0.0
 30
0.0
 70
   128
 71
     7
 72
     8
 73
     5
  0
VERTEX
  5
B5E
  8
0
 10
0.0
 20
0.0
 30
0.0
 70
   128
 71
     7
 72
     6
 73
    -9
  0
VERTEX
  5
B5F
  8
0
 10
0.0
 20
0.0
 30
0.0
 70
   128
 71
     9
 72
   -10
 73
    -7
  0
VERTEX
  5
B60
  8
0
 10
0.0
 20
0.0
 30
0.0
 70
   128
 71
    10
 72
    11
 73
    -7
  0
VERTEX
  5
B61
  8
0
 10
0.0
 20
0.0
 30
0.0
 70
   128
 71
    12
 72
   -13
 73
    14
  0
VERTEX
  5
B62
  8
0
 10
0.0
 20
0.0
 30
0.0
 70
   128
 71
    13
 72
    15
 73
   -14
  0
VERTEX
  5
B63
  8
0
 10
0.0
 20
0.0
 30
0.0
 70
   128
 71
    16
 72
    17
 73
    18
  0
VERTEX
  5
B64
  8
0
 10
0.0
 20
0.0
 30
0.0
 70
   128
 71
    18
 72
    19
 73
    16
  0
VERTEX
  5
B65
  8
0
 10
0.0
 20
0.0
 30
0.0
 70
   128
 71
    18
 72
    20
 73
    19
  0
VERTEX
  5
B66
  8
0
 10
0.0
 20
0.0
 30
0.0
 70
   128
 71
    21
 72
    22
 73
   -20
  0
VERTEX
  5
B67
  8
0
 10
0.0
 20
0.0
 30
0.0
 70
   128
 71
   -21
 72
    20
 73
    18
  0
VERTEX
  5
B68
  8
0
 10
0.0
 20
0.0
 30
0.0
 70
   128
 71
    21
 72
    23
 73
    22
  0
VERTEX
  5
B69
  8
0
 10
0.0
 20
0.0
 30
0.0
 70
   128
 71
    21
 72
    24
 73
    23
  0
VERTEX
  5
B6A
  8
0
 10
0.0
 20
0.0
 30
0.0
 70
   128
 71
    21
 72
    25
 73
    24
  0
VERTEX
  5
B6B
  8
0
 10
0.0
 20
0.0
 30
0.0
 70
   128
 71
     1
 72
     3
 73
   -10
  0
VERTEX
  5
B6C
  8
0
 10
0.0
 20
0.0
 30
0.0
 70
   128
 71
    -1
 72
    10
 73
     9
  0
VERTEX
  5
B6D
  8
0
 10
0.0
 20
0.0
 30
0.0
 70
   128
 71
     8
 72
    15
 73
    13
  0
VERTEX
  5
B6E
  8
0
 10
0.0
 20
0.0
 30
0.0
 70
   128
 71
     8
 72
    13
 73
    26
  0
VERTEX
  5
B6F
  8
0
 10
0.0
 20
0.0
 30
0.0
 70
   128
 71
     8
 72
     7
 73
    27
  0
VERTEX
  5
B70
  8
0
 10
0.0
 20
0.0
 30
0.0
 70
   128
 71
     8
 72
    27
 73
    28
  0
VERTEX
  5
B71
  8
0
 10
0.0
 20
0.0
 30
0.0
 70
   128
 71
     8
 72
    28
 73
    15
  0
VERTEX
  5
B72
  8
0
 10
0.0
 20
0.0
 30
0.0
 70
   128
 71
    12
 72
    14
 73
   -21
  0
VERTEX
  5
B73
  8
0
 10
0.0
 20
0.0
 30
0.0
 70
   128
 71
   -12
 72
    21
 73
    18
  0
SEQEND
  5
133C
  8
0
  0
POLYLINE
  5
B74
  8
0
 66
     1
 10
0.0
 20
0.0
 30
0.0
 70
    64
 71
     4
 72
     2
  0
VERTEX
  5
B75
  8
0
 10
163.4999999999974
 20
-198.5000000000022
 30
-29.99999999999897
 70
   192
  0
VERTEX
  5
B76
  8
0
 10
163.4999999999981
 20
-198.500000000002
 30
-89.01883030975222
 70
   192
  0
VERTEX
  5
B77
  8
0
 10
163.4999999999976
 20
198.4999999999979
 30
-89.0188303097483
 70
   192
  0
VERTEX
  5
B78
  8
0
 10
163.4999999999975
 20
198.4999999999978
 30
-29.99999999999758
 70
   192
  0
VERTEX
  5
B79
  8
0
 10
0.0
 20
0.0
 30
0.0
 70
   128
 71
     3
 72
     4
 73
    -1
  0
VERTEX
  5
B7A
  8
0
 10
0.0
 20
0.0
 30
0.0
 70
   128
 71
     2
 72
    -3
 73
     1
  0
SEQEND
  5
133D
  8
0
  0
POLYLINE
  5
B7B
  8
0
 66
     1
 10
0.0
 20
0.0
 30
0.0
 70
    64
 71
    10
 72
     8
  0
VERTEX
  5
B7C
  8
0
 10
163.4976344468705
 20
-198.7174981993278
 30
-89.01898950317988
 70
   192
  0
VERTEX
  5
B7D
  8
0
 10
163.4999999999981
 20
-198.5000000000021
 30
-89.01883030975222
 70
   192
  0
VERTEX
  5
B7E
  8
0
 10
163.4999999999974
 20
-198.5000000000022
 30
-29.99999999999897
 70
   192
  0
VERTEX
  5
B7F
  8
0
 10
163.4905377874876
 20
-198.9349192071436
 30
-89.01946708346287
 70
   192
  0
VERTEX
  5
B80
  8
0
 10
163.4787150582555
 20
-199.152108722602
 30
-89.02026271166868
 70
   192
  0
VERTEX
  5
B81
  8
0
 10
162.1602540378419
 20
-203.5000000000022
 30
-29.99999999999901
 70
   192
  0
VERTEX
  5
B82
  8
0
 10
158.4999999999975
 20
-207.1602540378466
 30
-29.99999999999906
 70
   192
  0
VERTEX
  5
B83
  8
0
 10
158.2132605665279
 20
-207.3195904004694
 30
-37.45281289697216
 70
   192
  0
VERTEX
  5
B84
  8
0
 10
161.9934621209452
 20
-203.7783616018657
 30
-59.81125158794971
 70
   192
  0
VERTEX
  5
B85
  8
0
 10
153.4999999999975
 20
-208.5000000000022
 30
-29.99999999999912
 70
   192
  0
VERTEX
  5
B86
  8
0
 10
0.0
 20
0.0
 30
0.0
 70
   128
 71
     1
 72
     2
 73
     3
  0
VERTEX
  5
B87
  8
0
 10
0.0
 20
0.0
 30
0.0
 70
   128
 71
     3
 72
     4
 73
     1
  0
VERTEX
  5
B88
  8
0
 10
0.0
 20
0.0
 30
0.0
 70
   128
 71
     3
 72
     5
 73
     4
  0
VERTEX
  5
B89
  8
0
 10
0.0
 20
0.0
 30
0.0
 70
   128
 71
     6
 72
     7
 73
     8
  0
VERTEX
  5
B8A
  8
0
 10
0.0
 20
0.0
 30
0.0
 70
   128
 71
     3
 72
     6
 73
     9
  0
VERTEX
  5
B8B
  8
0
 10
0.0
 20
0.0
 30
0.0
 70
   128
 71
     5
 72
     3
 73
     9
  0
VERTEX
  5
B8C
  8
0
 10
0.0
 20
0.0
 30
0.0
 70
   128
 71
     9
 72
     6
 73
     8
  0
VERTEX
  5
B8D
  8
0
 10
0.0
 20
0.0
 30
0.0
 70
   128
 71
     8
 72
     7
 73
    10
  0
SEQEND
  5
133E
  8
0
  0
POLYLINE
  5
B8E
  8
0
 66
     1
 10
0.0
 20
0.0
 30
0.0
 70
    64
 71
    10
 72
     8
  0
VERTEX
  5
B8F
  8
0
 10
163.4999999999976
 20
198.4999999999978
 30
-29.99999999999759
 70
   192
  0
VERTEX
  5
B90
  8
0
 10
163.4976344468706
 20
198.7174981993242
 30
-89.01898950317592
 70
   192
  0
VERTEX
  5
B91
  8
0
 10
163.4905377874878
 20
198.9349192071404
 30
-89.01946708345888
 70
   192
  0
VERTEX
  5
B92
  8
0
 10
163.4999999999982
 20
198.499999999998
 30
-89.01883030974825
 70
   192
  0
VERTEX
  5
B93
  8
0
 10
158.4999999999976
 20
207.1602540378421
 30
-29.99999999999761
 70
   192
  0
VERTEX
  5
B94
  8
0
 10
162.160254037842
 20
203.4999999999977
 30
-29.99999999999759
 70
   192
  0
VERTEX
  5
B95
  8
0
 10
161.9934621209451
 20
203.7783616018618
 30
-59.81125158795049
 70
   192
  0
VERTEX
  5
B96
  8
0
 10
153.4999999999977
 20
208.4999999999938
 30
-29.99999999999767
 70
   192
  0
VERTEX
  5
B97
  8
0
 10
158.2132605665278
 20
207.3195904004625
 30
-37.4528128969753
 70
   192
  0
VERTEX
  5
B98
  8
0
 10
163.4787150582562
 20
199.1521087225992
 30
-89.02026271166464
 70
   192
  0
VERTEX
  5
B99
  8
0
 10
0.0
 20
0.0
 30
0.0
 70
   128
 71
     1
 72
     2
 73
     3
  0
VERTEX
  5
B9A
  8
0
 10
0.0
 20
0.0
 30
0.0
 70
   128
 71
     1
 72
     4
 73
     2
  0
VERTEX
  5
B9B
  8
0
 10
0.0
 20
0.0
 30
0.0
 70
   128
 71
     5
 72
     6
 73
     7
  0
VERTEX
  5
B9C
  8
0
 10
0.0
 20
0.0
 30
0.0
 70
   128
 71
     6
 72
     1
 73
     3
  0
VERTEX
  5
B9D
  8
0
 10
0.0
 20
0.0
 30
0.0
 70
   128
 71
     8
 72
     5
 73
     9
  0
VERTEX
  5
B9E
  8
0
 10
0.0
 20
0.0
 30
0.0
 70
   128
 71
     9
 72
     5
 73
     7
  0
VERTEX
  5
B9F
  8
0
 10
0.0
 20
0.0
 30
0.0
 70
   128
 71
     7
 72
     6
 73
     3
  0
VERTEX
  5
BA0
  8
0
 10
0.0
 20
0.0
 30
0.0
 70
   128
 71
     7
 72
     3
 73
    10
  0
SEQEND
  5
133F
  8
0
  0
POLYLINE
  5
BA1
  8
0
 66
     1
 10
0.0
 20
0.0
 30
0.0
 70
    64
 71
     7
 72
     5
  0
VERTEX
  5
BA2
  8
0
 10
-152.4999999999976
 20
-34.99999999999952
 30
-142.9967103839265
 70
   192
  0
VERTEX
  5
BA3
  8
0
 10
-152.4999999999989
 20
-34.99999999999994
 30
-20.00000000000174
 70
   192
  0
VERTEX
  5
BA4
  8
0
 10
-119.9999999999989
 20
-34.99999999999994
 30
-20.00000000000141
 70
   192
  0
VERTEX
  5
BA5
  8
0
 10
-119.9999999999976
 20
-34.99999999999952
 30
-135.452763083183
 70
   192
  0
VERTEX
  5
BA6
  8
0
 10
-119.9999999999974
 20
-34.99999999999947
 30
-154.9999999999987
 70
   192
  0
VERTEX
  5
BA7
  8
0
 10
-131.6840349800117
 20
-34.99999999999947
 30
-153.6156695581345
 70
   192
  0
VERTEX
  5
BA8
  8
0
 10
-142.7210873477603
 20
-34.99999999999949
 30
-149.5393330634317
 70
   192
  0
VERTEX
  5
BA9
  8
0
 10
0.0
 20
0.0
 30
0.0
 70
   128
 71
     4
 72
     3
 73
    -2
  0
VERTEX
  5
BAA
  8
0
 10
0.0
 20
0.0
 30
0.0
 70
   128
 71
    -4
 72
     2
 73
    -1
  0
VERTEX
  5
BAB
  8
0
 10
0.0
 20
0.0
 30
0.0
 70
   128
 71
     1
 72
     7
 73
    -6
  0
VERTEX
  5
BAC
  8
0
 10
0.0
 20
0.0
 30
0.0
 70
   128
 71
    -1
 72
     6
 73
    -5
  0
VERTEX
  5
BAD
  8
0
 10
0.0
 20
0.0
 30
0.0
 70
   128
 71
    -1
 72
     5
 73
    -4
  0
SEQEND
  5
1340
  8
0
  0
POLYLINE
  5
BAE
  8
0
 66
     1
 10
0.0
 20
0.0
 30
0.0
 70
    64
 71
     4
 72
     2
  0
VERTEX
  5
BAF
  8
0
 10
-152.4999999999976
 20
35.00000000000049
 30
-142.9967103839258
 70
   192
  0
VERTEX
  5
BB0
  8
0
 10
-152.4999999999989
 20
35.00000000000006
 30
-20.00000000000149
 70
   192
  0
VERTEX
  5
BB1
  8
0
 10
-152.4999999999989
 20
-34.99999999999994
 30
-20.00000000000174
 70
   192
  0
VERTEX
  5
BB2
  8
0
 10
-152.4999999999979
 20
-34.99999999999995
 30
-142.9967103839265
 70
   192
  0
VERTEX
  5
BB3
  8
0
 10
0.0
 20
0.0
 30
0.0
 70
   128
 71
     1
 72
     4
 73
    -3
  0
VERTEX
  5
BB4
  8
0
 10
0.0
 20
0.0
 30
0.0
 70
   128
 71
    -1
 72
     3
 73
     2
  0
SEQEND
  5
1341
  8
0
  0
POLYLINE
  5
BB5
  8
0
 66
     1
 10
0.0
 20
0.0
 30
0.0
 70
    64
 71
     7
 72
     5
  0
VERTEX
  5
BB6
  8
0
 10
-119.9999999999974
 20
35.00000000000054
 30
-154.9999999999982
 70
   192
  0
VERTEX
  5
BB7
  8
0
 10
-119.9999999999976
 20
35.00000000000047
 30
-135.4527630831823
 70
   192
  0
VERTEX
  5
BB8
  8
0
 10
-119.9999999999988
 20
35.00000000000006
 30
-20.00000000000115
 70
   192
  0
VERTEX
  5
BB9
  8
0
 10
-152.4999999999989
 20
35.00000000000006
 30
-20.00000000000149
 70
   192
  0
VERTEX
  5
BBA
  8
0
 10
-152.4999999999975
 20
35.00000000000049
 30
-142.9967103839259
 70
   192
  0
VERTEX
  5
BBB
  8
0
 10
-142.7210873477599
 20
35.00000000000051
 30
-149.539333063431
 70
   192
  0
VERTEX
  5
BBC
  8
0
 10
-131.6840349800115
 20
35.00000000000053
 30
-153.6156695581337
 70
   192
  0
VERTEX
  5
BBD
  8
0
 10
0.0
 20
0.0
 30
0.0
 70
   128
 71
     2
 72
     1
 73
    -7
  0
VERTEX
  5
BBE
  8
0
 10
0.0
 20
0.0
 30
0.0
 70
   128
 71
    -2
 72
     7
 73
    -6
  0
VERTEX
  5
BBF
  8
0
 10
0.0
 20
0.0
 30
0.0
 70
   128
 71
    -2
 72
     6
 73
    -5
  0
VERTEX
  5
BC0
  8
0
 10
0.0
 20
0.0
 30
0.0
 70
   128
 71
     5
 72
     4
 73
    -3
  0
VERTEX
  5
BC1
  8
0
 10
0.0
 20
0.0
 30
0.0
 70
   128
 71
    -5
 72
     3
 73
    -2
  0
SEQEND
  5
1342
  8
0
  0
POLYLINE
  5
BC2
  8
0
 66
     1
 10
0.0
 20
0.0
 30
0.0
 70
    64
 71
     4
 72
     2
  0
VERTEX
  5
BC3
  8
0
 10
-204.9999999999979
 20
160.0000000000004
 30
-115.5000000000012
 70
   192
  0
VERTEX
  5
BC4
  8
0
 10
-204.9999999999989
 20
160.0000000000001
 30
-20.0000000000016
 70
   192
  0
VERTEX
  5
BC5
  8
0
 10
-119.9999999999989
 20
142.5000000000001
 30
-20.00000000000077
 70
   192
  0
VERTEX
  5
BC6
  8
0
 10
-119.9999999999979
 20
142.5000000000004
 30
-115.5000000000003
 70
   192
  0
VERTEX
  5
BC7
  8
0
 10
0.0
 20
0.0
 30
0.0
 70
   128
 71
     1
 72
     4
 73
    -3
  0
VERTEX
  5
BC8
  8
0
 10
0.0
 20
0.0
 30
0.0
 70
   128
 71
    -1
 72
     3
 73
     2
  0
SEQEND
  5
1343
  8
0
  0
POLYLINE
  5
BC9
  8
0
 66
     1
 10
0.0
 20
0.0
 30
0.0
 70
    64
 71
    24
 72
    26
  0
VERTEX
  5
BCA
  8
0
 10
-229.9999999999999
 20
-104.9581303522452
 30
-115.5000000000014
 70
   192
  0
VERTEX
  5
BCB
  8
0
 10
-230.0000000000009
 20
-194.9581303522455
 30
-115.5000000000014
 70
   192
  0
VERTEX
  5
BCC
  8
0
 10
-230.000000000002
 20
-208.499999999993
 30
-30.00000000000167
 70
   192
  0
VERTEX
  5
BCD
  8
0
 10
-230.0000000000025
 20
-265.0000000000023
 30
-30.00000000000334
 70
   192
  0
VERTEX
  5
BCE
  8
0
 10
-230.0000000000028
 20
-264.9999999999976
 30
-0.0000000000033253
 70
   192
  0
VERTEX
  5
BCF
  8
0
 10
-229.9999999999972
 20
265.0000000000025
 30
-0.0000000000014839
 70
   192
  0
VERTEX
  5
BD0
  8
0
 10
-229.9999999999969
 20
265.0000000000026
 30
-30.00000000000151
 70
   192
  0
VERTEX
  5
BD1
  8
0
 10
-229.9999999999975
 20
208.4999999999979
 30
-30.00000000000168
 70
   192
  0
VERTEX
  5
BD2
  8
0
 10
-229.9999999999968
 20
194.95813035225
 30
-115.5000000000014
 70
   192
  0
VERTEX
  5
BD3
  8
0
 10
-229.9999999999978
 20
104.9581303522497
 30
-115.5000000000014
 70
   192
  0
VERTEX
  5
BD4
  8
0
 10
-229.9999999999982
 20
101.8085384653169
 30
-79.50000000000115
 70
   192
  0
VERTEX
  5
BD5
  8
0
 10
-230.0000000000002
 20
-101.8085384653123
 30
-79.50000000000139
 70
   192
  0
VERTEX
  5
BD6
  8
0
 10
-230.000000000001
 20
-142.4999999999982
 30
-50.00000000000146
 70
   192
  0
VERTEX
  5
BD7
  8
0
 10
-230.0000000000008
 20
-135.4999999999982
 30
-60.0000000000015
 70
   192
  0
VERTEX
  5
BD8
  8
0
 10
-230.0000000000007
 20
-114.4999999999976
 30
-60.00000000000156
 70
   192
  0
VERTEX
  5
BD9
  8
0
 10
-230.0000000000006
 20
-107.4999999999974
 30
-50.00000000000153
 70
   192
  0
VERTEX
  5
BDA
  8
0
 10
-230.0000000000007
 20
-114.4999999999975
 30
-40.00000000000157
 70
   192
  0
VERTEX
  5
BDB
  8
0
 10
-230.000000000001
 20
-135.499999999998
 30
-40.00000000000153
 70
   192
  0
VERTEX
  5
BDC
  8
0
 10
-229.999999999998
 20
142.5000000000022
 30
-50.00000000000143
 70
   192
  0
VERTEX
  5
BDD
  8
0
 10
-229.9999999999982
 20
135.5000000000021
 30
-40.00000000000149
 70
   192
  0
VERTEX
  5
BDE
  8
0
 10
-229.9999999999984
 20
114.5000000000022
 30
-40.00000000000156
 70
   192
  0
VERTEX
  5
BDF
  8
0
 10
-229.9999999999984
 20
107.5000000000022
 30
-50.00000000000156
 70
   192
  0
VERTEX
  5
BE0
  8
0
 10
-229.9999999999982
 20
114.5000000000022
 30
-60.00000000000157
 70
   192
  0
VERTEX
  5
BE1
  8
0
 10
-229.999999999998
 20
135.5000000000023
 30
-60.00000000000149
 70
   192
  0
VERTEX
  5
BE2
  8
0
 10
0.0
 20
0.0
 30
0.0
 70
   128
 71
     6
 72
     7
 73
    -8
  0
VERTEX
  5
BE3
  8
0
 10
0.0
 20
0.0
 30
0.0
 70
   128
 71
    -3
 72
    13
 73
   -14
  0
VERTEX
  5
BE4
  8
0
 10
0.0
 20
0.0
 30
0.0
 70
   128
 71
     2
 72
    -3
 73
   -14
  0
VERTEX
  5
BE5
  8
0
 10
0.0
 20
0.0
 30
0.0
 70
   128
 71
     1
 72
    -2
 73
   -14
  0
VERTEX
  5
BE6
  8
0
 10
0.0
 20
0.0
 30
0.0
 70
   128
 71
    12
 72
    -1
 73
   -14
  0
VERTEX
  5
BE7
  8
0
 10
0.0
 20
0.0
 30
0.0
 70
   128
 71
    14
 72
   -15
 73
   -12
  0
VERTEX
  5
BE8
  8
0
 10
0.0
 20
0.0
 30
0.0
 70
   128
 71
   -16
 72
    11
 73
   -12
  0
VERTEX
  5
BE9
  8
0
 10
0.0
 20
0.0
 30
0.0
 70
   128
 71
    15
 72
   -16
 73
   -12
  0
VERTEX
  5
BEA
  8
0
 10
0.0
 20
0.0
 30
0.0
 70
   128
 71
    16
 72
   -17
 73
   -11
  0
VERTEX
  5
BEB
  8
0
 10
0.0
 20
0.0
 30
0.0
 70
   128
 71
     9
 72
    10
 73
   -11
  0
VERTEX
  5
BEC
  8
0
 10
0.0
 20
0.0
 30
0.0
 70
   128
 71
    -8
 72
    19
 73
   -20
  0
VERTEX
  5
BED
  8
0
 10
0.0
 20
0.0
 30
0.0
 70
   128
 71
    -6
 72
    -8
 73
   -20
  0
VERTEX
  5
BEE
  8
0
 10
0.0
 20
0.0
 30
0.0
 70
   128
 71
    20
 72
   -21
 73
    -6
  0
VERTEX
  5
BEF
  8
0
 10
0.0
 20
0.0
 30
0.0
 70
   128
 71
     5
 72
    -6
 73
   -21
  0
VERTEX
  5
BF0
  8
0
 10
0.0
 20
0.0
 30
0.0
 70
   128
 71
    21
 72
   -22
 73
    -5
  0
VERTEX
  5
BF1
  8
0
 10
0.0
 20
0.0
 30
0.0
 70
   128
 71
   -22
 72
   -11
 73
   -17
  0
VERTEX
  5
BF2
  8
0
 10
0.0
 20
0.0
 30
0.0
 70
   128
 71
   -17
 72
    -5
 73
   -22
  0
VERTEX
  5
BF3
  8
0
 10
0.0
 20
0.0
 30
0.0
 70
   128
 71
    22
 72
   -23
 73
   -11
  0
VERTEX
  5
BF4
  8
0
 10
0.0
 20
0.0
 30
0.0
 70
   128
 71
    23
 72
   -24
 73
   -11
  0
VERTEX
  5
BF5
  8
0
 10
0.0
 20
0.0
 30
0.0
 70
   128
 71
     8
 72
    -9
 73
   -11
  0
VERTEX
  5
BF6
  8
0
 10
0.0
 20
0.0
 30
0.0
 70
   128
 71
   -24
 72
    -8
 73
   -11
  0
VERTEX
  5
BF7
  8
0
 10
0.0
 20
0.0
 30
0.0
 70
   128
 71
    24
 72
   -19
 73
    -8
  0
VERTEX
  5
BF8
  8
0
 10
0.0
 20
0.0
 30
0.0
 70
   128
 71
    17
 72
   -18
 73
    -5
  0
VERTEX
  5
BF9
  8
0
 10
0.0
 20
0.0
 30
0.0
 70
   128
 71
   -13
 72
    -3
 73
    -5
  0
VERTEX
  5
BFA
  8
0
 10
0.0
 20
0.0
 30
0.0
 70
   128
 71
    18
 72
   -13
 73
    -5
  0
VERTEX
  5
BFB
  8
0
 10
0.0
 20
0.0
 30
0.0
 70
   128
 71
     3
 72
     4
 73
    -5
  0
SEQEND
  5
1344
  8
0
  0
POLYLINE
  5
BFC
  8
0
 66
     1
 10
0.0
 20
0.0
 30
0.0
 70
    64
 71
     9
 72
     7
  0
VERTEX
  5
BFD
  8
0
 10
-228.6602540378472
 20
-269.9999999999976
 30
-0.0000000000033378
 70
   192
  0
VERTEX
  5
BFE
  8
0
 10
-228.6602540378452
 20
-270.0000000000001
 30
-50.00000000000334
 70
   192
  0
VERTEX
  5
BFF
  8
0
 10
-225.0000000000013
 20
-273.6602540378424
 30
-50.00000000000332
 70
   192
  0
VERTEX
  5
C00
  8
0
 10
-225.0000000000029
 20
-273.660254037842
 30
-0.0000000000033122
 70
   192
  0
VERTEX
  5
C01
  8
0
 10
-230.0000000000025
 20
-264.9999999999975
 30
-30.00000000000333
 70
   192
  0
VERTEX
  5
C02
  8
0
 10
-230.0000000000022
 20
-264.9999999999974
 30
-50.00000000000104
 70
   192
  0
VERTEX
  5
C03
  8
0
 10
-230.0000000000028
 20
-264.9999999999976
 30
-0.0000000000033344
 70
   192
  0
VERTEX
  5
C04
  8
0
 10
-220.0000000000029
 20
-274.9999999999975
 30
-50.00000000000327
 70
   192
  0
VERTEX
  5
C05
  8
0
 10
-220.0000000000029
 20
-274.9999999999977
 30
-0.0000000000032685
 70
   192
  0
VERTEX
  5
C06
  8
0
 10
0.0
 20
0.0
 30
0.0
 70
   128
 71
     1
 72
     2
 73
    -3
  0
VERTEX
  5
C07
  8
0
 10
0.0
 20
0.0
 30
0.0
 70
   128
 71
    -1
 72
     3
 73
     4
  0
VERTEX
  5
C08
  8
0
 10
0.0
 20
0.0
 30
0.0
 70
   128
 71
     5
 72
     6
 73
    -2
  0
VERTEX
  5
C09
  8
0
 10
0.0
 20
0.0
 30
0.0
 70
   128
 71
     2
 72
     1
 73
    -7
  0
VERTEX
  5
C0A
  8
0
 10
0.0
 20
0.0
 30
0.0
 70
   128
 71
    -2
 72
     7
 73
    -5
  0
VERTEX
  5
C0B
  8
0
 10
0.0
 20
0.0
 30
0.0
 70
   128
 71
     4
 72
     3
 73
    -8
  0
VERTEX
  5
C0C
  8
0
 10
0.0
 20
0.0
 30
0.0
 70
   128
 71
    -4
 72
     8
 73
     9
  0
SEQEND
  5
1345
  8
0
  0
POLYLINE
  5
C0D
  8
0
 66
     1
 10
0.0
 20
0.0
 30
0.0
 70
    64
 71
     9
 72
     7
  0
VERTEX
  5
C0E
  8
0
 10
-224.9999999999971
 20
273.6602540378468
 30
-0.0000000000014013
 70
   192
  0
VERTEX
  5
C0F
  8
0
 10
-224.9999999999983
 20
273.660254037846
 30
-50.00000000000141
 70
   192
  0
VERTEX
  5
C10
  8
0
 10
-228.6602540378427
 20
269.9999999999997
 30
-50.00000000000147
 70
   192
  0
VERTEX
  5
C11
  8
0
 10
-228.6602540378415
 20
270.0000000000025
 30
-0.0000000000014524
 70
   192
  0
VERTEX
  5
C12
  8
0
 10
-219.9999999999971
 20
275.0000000000024
 30
-0.0000000000013442
 70
   192
  0
VERTEX
  5
C13
  8
0
 10
-219.9999999999966
 20
275.0000000000025
 30
-50.00000000000135
 70
   192
  0
VERTEX
  5
C14
  8
0
 10
-229.9999999999969
 20
265.0000000000026
 30
-30.00000000000151
 70
   192
  0
VERTEX
  5
C15
  8
0
 10
-229.9999999999972
 20
265.0000000000025
 30
-0.0000000000014779
 70
   192
  0
VERTEX
  5
C16
  8
0
 10
-229.9999999999967
 20
264.9999999999979
 30
-50.0000000000015
 70
   192
  0
VERTEX
  5
C17
  8
0
 10
0.0
 20
0.0
 30
0.0
 70
   128
 71
     1
 72
     2
 73
    -3
  0
VERTEX
  5
C18
  8
0
 10
0.0
 20
0.0
 30
0.0
 70
   128
 71
    -1
 72
     3
 73
     4
  0
VERTEX
  5
C19
  8
0
 10
0.0
 20
0.0
 30
0.0
 70
   128
 71
     5
 72
     6
 73
    -2
  0
VERTEX
  5
C1A
  8
0
 10
0.0
 20
0.0
 30
0.0
 70
   128
 71
    -5
 72
     2
 73
     1
  0
VERTEX
  5
C1B
  8
0
 10
0.0
 20
0.0
 30
0.0
 70
   128
 71
    -4
 72
     7
 73
     8
  0
VERTEX
  5
C1C
  8
0
 10
0.0
 20
0.0
 30
0.0
 70
   128
 71
     4
 72
     3
 73
    -9
  0
VERTEX
  5
C1D
  8
0
 10
0.0
 20
0.0
 30
0.0
 70
   128
 71
    -4
 72
     9
 73
    -7
  0
SEQEND
  5
1346
  8
0
  0
POLYLINE
  5
C1E
  8
0
 66
     1
 10
0.0
 20
0.0
 30
0.0
 70
    64
 71
     4
 72
     2
  0
VERTEX
  5
C1F
  8
0
 10
220.0000000000038
 20
274.9999999999978
 30
-49.99999999999674
 70
   192
  0
VERTEX
  5
C20
  8
0
 10
-219.9999999999972
 20
275.0000000000025
 30
-50.00000000000135
 70
   192
  0
VERTEX
  5
C21
  8
0
 10
-219.9999999999971
 20
275.0000000000023
 30
-0.0000000000013358
 70
   192
  0
VERTEX
  5
C22
  8
0
 10
220.0000000000029
 20
274.9999999999977
 30
0.0000000000032645
 70
   192
  0
VERTEX
  5
C23
  8
0
 10
0.0
 20
0.0
 30
0.0
 70
   128
 71
     3
 72
     4
 73
    -1
  0
VERTEX
  5
C24
  8
0
 10
0.0
 20
0.0
 30
0.0
 70
   128
 71
     2
 72
    -3
 73
     1
  0
SEQEND
  5
1347
  8
0
  0
POLYLINE
  5
C25
  8
0
 66
     1
 10
0.0
 20
0.0
 30
0.0
 70
    64
 71
     8
 72
     6
  0
VERTEX
  5
C26
  8
0
 10
228.6602540378472
 20
269.9999999999977
 30
0.0000000000033378
 70
   192
  0
VERTEX
  5
C27
  8
0
 10
228.6602540378476
 20
269.999999999998
 30
-49.99999999999667
 70
   192
  0
VERTEX
  5
C28
  8
0
 10
225.0000000000035
 20
273.6602540378422
 30
-49.9999999999967
 70
   192
  0
VERTEX
  5
C29
  8
0
 10
225.0000000000028
 20
273.660254037842
 30
0.0000000000033122
 70
   192
  0
VERTEX
  5
C2A
  8
0
 10
230.0000000000028
 20
264.9999999999977
 30
0.0000000000033344
 70
   192
  0
VERTEX
  5
C2B
  8
0
 10
230.0000000000033
 20
264.9999999999979
 30
-49.99999999999667
 70
   192
  0
VERTEX
  5
C2C
  8
0
 10
220.0000000000038
 20
274.9999999999979
 30
-49.99999999999675
 70
   192
  0
VERTEX
  5
C2D
  8
0
 10
220.0000000000029
 20
274.9999999999977
 30
0.0000000000032685
 70
   192
  0
VERTEX
  5
C2E
  8
0
 10
0.0
 20
0.0
 30
0.0
 70
   128
 71
     1
 72
     2
 73
    -3
  0
VERTEX
  5
C2F
  8
0
 10
0.0
 20
0.0
 30
0.0
 70
   128
 71
    -1
 72
     3
 73
     4
  0
VERTEX
  5
C30
  8
0
 10
0.0
 20
0.0
 30
0.0
 70
   128
 71
     5
 72
     6
 73
    -2
  0
VERTEX
  5
C31
  8
0
 10
0.0
 20
0.0
 30
0.0
 70
   128
 71
    -5
 72
     2
 73
     1
  0
VERTEX
  5
C32
  8
0
 10
0.0
 20
0.0
 30
0.0
 70
   128
 71
     4
 72
     3
 73
    -7
  0
VERTEX
  5
C33
  8
0
 10
0.0
 20
0.0
 30
0.0
 70
   128
 71
    -4
 72
     7
 73
     8
  0
SEQEND
  5
1348
  8
0
  0
POLYLINE
  5
C34
  8
0
 66
     1
 10
0.0
 20
0.0
 30
0.0
 70
    64
 71
     4
 72
     2
  0
VERTEX
  5
C35
  8
0
 10
229.9999999999978
 20
-265.0000000000022
 30
-49.99999999999851
 70
   192
  0
VERTEX
  5
C36
  8
0
 10
230.0000000000033
 20
264.9999999999982
 30
-49.99999999999667
 70
   192
  0
VERTEX
  5
C37
  8
0
 10
230.0000000000028
 20
264.9999999999977
 30
0.0000000000033253
 70
   192
  0
VERTEX
  5
C38
  8
0
 10
229.9999999999972
 20
-265.0000000000024
 30
0.0000000000014839
 70
   192
  0
VERTEX
  5
C39
  8
0
 10
0.0
 20
0.0
 30
0.0
 70
   128
 71
     3
 72
     4
 73
    -1
  0
VERTEX
  5
C3A
  8
0
 10
0.0
 20
0.0
 30
0.0
 70
   128
 71
     2
 72
    -3
 73
     1
  0
SEQEND
  5
1349
  8
0
  0
POLYLINE
  5
C3B
  8
0
 66
     1
 10
0.0
 20
0.0
 30
0.0
 70
    64
 71
     8
 72
     6
  0
VERTEX
  5
C3C
  8
0
 10
224.9999999999971
 20
-273.6602540378468
 30
0.0000000000014013
 70
   192
  0
VERTEX
  5
C3D
  8
0
 10
224.9999999999984
 20
-273.6602540378462
 30
-49.99999999999861
 70
   192
  0
VERTEX
  5
C3E
  8
0
 10
228.6602540378423
 20
-270.0000000000019
 30
-49.99999999999856
 70
   192
  0
VERTEX
  5
C3F
  8
0
 10
228.6602540378416
 20
-270.0000000000024
 30
0.0000000000014524
 70
   192
  0
VERTEX
  5
C40
  8
0
 10
219.9999999999971
 20
-275.0000000000023
 30
0.0000000000013442
 70
   192
  0
VERTEX
  5
C41
  8
0
 10
219.9999999999976
 20
-275.0000000000022
 30
-49.99999999999866
 70
   192
  0
VERTEX
  5
C42
  8
0
 10
229.9999999999978
 20
-265.0000000000022
 30
-49.99999999999852
 70
   192
  0
VERTEX
  5
C43
  8
0
 10
229.9999999999972
 20
-265.0000000000024
 30
0.0000000000014779
 70
   192
  0
VERTEX
  5
C44
  8
0
 10
0.0
 20
0.0
 30
0.0
 70
   128
 71
     1
 72
     2
 73
    -3
  0
VERTEX
  5
C45
  8
0
 10
0.0
 20
0.0
 30
0.0
 70
   128
 71
    -1
 72
     3
 73
     4
  0
VERTEX
  5
C46
  8
0
 10
0.0
 20
0.0
 30
0.0
 70
   128
 71
     5
 72
     6
 73
    -2
  0
VERTEX
  5
C47
  8
0
 10
0.0
 20
0.0
 30
0.0
 70
   128
 71
    -5
 72
     2
 73
     1
  0
VERTEX
  5
C48
  8
0
 10
0.0
 20
0.0
 30
0.0
 70
   128
 71
     4
 72
     3
 73
    -7
  0
VERTEX
  5
C49
  8
0
 10
0.0
 20
0.0
 30
0.0
 70
   128
 71
    -4
 72
     7
 73
     8
  0
SEQEND
  5
134A
  8
0
  0
POLYLINE
  5
C4A
  8
0
 66
     1
 10
0.0
 20
0.0
 30
0.0
 70
    64
 71
     4
 72
     2
  0
VERTEX
  5
C4B
  8
0
 10
-220.0000000000029
 20
-274.9999999999975
 30
-50.00000000000327
 70
   192
  0
VERTEX
  5
C4C
  8
0
 10
219.9999999999988
 20
-275.0000000000022
 30
-49.99999999999866
 70
   192
  0
VERTEX
  5
C4D
  8
0
 10
219.9999999999971
 20
-275.0000000000024
 30
0.0000000000013358
 70
   192
  0
VERTEX
  5
C4E
  8
0
 10
-220.0000000000029
 20
-274.9999999999977
 30
-0.0000000000032645
 70
   192
  0
VERTEX
  5
C4F
  8
0
 10
0.0
 20
0.0
 30
0.0
 70
   128
 71
     3
 72
     4
 73
    -1
  0
VERTEX
  5
C50
  8
0
 10
0.0
 20
0.0
 30
0.0
 70
   128
 71
     2
 72
    -3
 73
     1
  0
SEQEND
  5
134B
  8
0
  0
POLYLINE
  5
C51
  8
0
 66
     1
 10
0.0
 20
0.0
 30
0.0
 70
    64
 71
    32
 72
    32
  0
VERTEX
  5
C52
  8
0
 10
-230.0000000000028
 20
-264.9999999999976
 30
-0.0000000000033344
 70
   192
  0
VERTEX
  5
C53
  8
0
 10
-229.9999999999972
 20
265.0000000000025
 30
-0.0000000000014839
 70
   192
  0
VERTEX
  5
C54
  8
0
 10
-228.6602540378415
 20
270.0000000000025
 30
-0.0000000000014524
 70
   192
  0
VERTEX
  5
C55
  8
0
 10
-224.9999999999971
 20
273.6602540378468
 30
-0.0000000000014013
 70
   192
  0
VERTEX
  5
C56
  8
0
 10
-219.9999999999971
 20
275.0000000000023
 30
-0.0000000000013442
 70
   192
  0
VERTEX
  5
C57
  8
0
 10
220.0000000000029
 20
274.9999999999977
 30
0.0000000000032645
 70
   192
  0
VERTEX
  5
C58
  8
0
 10
225.0000000000028
 20
273.660254037842
 30
0.0000000000033122
 70
   192
  0
VERTEX
  5
C59
  8
0
 10
228.6602540378472
 20
269.9999999999977
 30
0.0000000000033378
 70
   192
  0
VERTEX
  5
C5A
  8
0
 10
230.0000000000028
 20
264.9999999999977
 30
0.0000000000033344
 70
   192
  0
VERTEX
  5
C5B
  8
0
 10
229.9999999999972
 20
-265.0000000000024
 30
0.0000000000014839
 70
   192
  0
VERTEX
  5
C5C
  8
0
 10
228.6602540378416
 20
-270.0000000000024
 30
0.0000000000014524
 70
   192
  0
VERTEX
  5
C5D
  8
0
 10
224.9999999999971
 20
-273.6602540378468
 30
0.0000000000014013
 70
   192
  0
VERTEX
  5
C5E
  8
0
 10
219.9999999999971
 20
-275.0000000000023
 30
0.0000000000013442
 70
   192
  0
VERTEX
  5
C5F
  8
0
 10
-220.0000000000029
 20
-274.9999999999977
 30
-0.0000000000032645
 70
   192
  0
VERTEX
  5
C60
  8
0
 10
-225.0000000000029
 20
-273.660254037842
 30
-0.0000000000033122
 70
   192
  0
VERTEX
  5
C61
  8
0
 10
-228.6602540378472
 20
-269.9999999999976
 30
-0.0000000000033378
 70
   192
  0
VERTEX
  5
C62
  8
0
 10
223.0000000000027
 20
257.9999999999977
 30
0.0000000000032368
 70
   192
  0
VERTEX
  5
C63
  8
0
 10
221.6602540378472
 20
262.9999999999977
 30
0.0000000000032402
 70
   192
  0
VERTEX
  5
C64
  8
0
 10
218.0000000000028
 20
266.6602540378421
 30
0.0000000000032147
 70
   192
  0
VERTEX
  5
C65
  8
0
 10
213.0000000000028
 20
267.9999999999977
 30
0.0
 70
   192
  0
VERTEX
  5
C66
  8
0
 10
-212.9999999999971
 20
268.0000000000022
 30
0.0
 70
   192
  0
VERTEX
  5
C67
  8
0
 10
-217.9999999999972
 20
266.6602540378466
 30
0.0
 70
   192
  0
VERTEX
  5
C68
  8
0
 10
-221.6602540378416
 20
263.0000000000023
 30
0.0
 70
   192
  0
VERTEX
  5
C69
  8
0
 10
-222.9999999999973
 20
258.0000000000023
 30
0.0
 70
   192
  0
VERTEX
  5
C6A
  8
0
 10
-223.0000000000028
 20
-257.9999999999977
 30
0.0
 70
   192
  0
VERTEX
  5
C6B
  8
0
 10
-221.6602540378472
 20
-262.9999999999977
 30
0.0
 70
   192
  0
VERTEX
  5
C6C
  8
0
 10
-218.0000000000028
 20
-266.6602540378421
 30
0.0
 70
   192
  0
VERTEX
  5
C6D
  8
0
 10
-213.0000000000028
 20
-267.9999999999978
 30
0.0
 70
   192
  0
VERTEX
  5
C6E
  8
0
 10
212.9999999999972
 20
-268.0000000000022
 30
0.0000000000012956
 70
   192
  0
VERTEX
  5
C6F
  8
0
 10
217.9999999999972
 20
-266.6602540378466
 30
0.0000000000013527
 70
   192
  0
VERTEX
  5
C70
  8
0
 10
221.6602540378416
 20
-263.0000000000023
 30
0.0000000000014038
 70
   192
  0
VERTEX
  5
C71
  8
0
 10
222.9999999999973
 20
-258.0000000000023
 30
0.0
 70
   192
  0
VERTEX
  5
C72
  8
0
 10
0.0
 20
0.0
 30
0.0
 70
   128
 71
    18
 72
   -17
 73
    -7
  0
VERTEX
  5
C73
  8
0
 10
0.0
 20
0.0
 30
0.0
 70
   128
 71
    -7
 72
    19
 73
   -18
  0
VERTEX
  5
C74
  8
0
 10
0.0
 20
0.0
 30
0.0
 70
   128
 71
    -7
 72
    20
 73
   -19
  0
VERTEX
  5
C75
  8
0
 10
0.0
 20
0.0
 30
0.0
 70
   128
 71
     7
 72
     6
 73
    -5
  0
VERTEX
  5
C76
  8
0
 10
0.0
 20
0.0
 30
0.0
 70
   128
 71
    -7
 72
    -5
 73
   -21
  0
VERTEX
  5
C77
  8
0
 10
0.0
 20
0.0
 30
0.0
 70
   128
 71
    -7
 72
    21
 73
   -20
  0
VERTEX
  5
C78
  8
0
 10
0.0
 20
0.0
 30
0.0
 70
   128
 71
    -5
 72
    22
 73
   -21
  0
VERTEX
  5
C79
  8
0
 10
0.0
 20
0.0
 30
0.0
 70
   128
 71
     5
 72
    -4
 73
   -23
  0
VERTEX
  5
C7A
  8
0
 10
0.0
 20
0.0
 30
0.0
 70
   128
 71
    -5
 72
    23
 73
   -22
  0
VERTEX
  5
C7B
  8
0
 10
0.0
 20
0.0
 30
0.0
 70
   128
 71
    -4
 72
    24
 73
   -23
  0
VERTEX
  5
C7C
  8
0
 10
0.0
 20
0.0
 30
0.0
 70
   128
 71
     4
 72
     3
 73
    -2
  0
VERTEX
  5
C7D
  8
0
 10
0.0
 20
0.0
 30
0.0
 70
   128
 71
    -4
 72
     2
 73
    -1
  0
VERTEX
  5
C7E
  8
0
 10
0.0
 20
0.0
 30
0.0
 70
   128
 71
    -4
 72
    -1
 73
   -25
  0
VERTEX
  5
C7F
  8
0
 10
0.0
 20
0.0
 30
0.0
 70
   128
 71
    -4
 72
    25
 73
   -24
  0
VERTEX
  5
C80
  8
0
 10
0.0
 20
0.0
 30
0.0
 70
   128
 71
    -1
 72
    26
 73
   -25
  0
VERTEX
  5
C81
  8
0
 10
0.0
 20
0.0
 30
0.0
 70
   128
 71
     1
 72
   -16
 73
   -27
  0
VERTEX
  5
C82
  8
0
 10
0.0
 20
0.0
 30
0.0
 70
   128
 71
    -1
 72
    27
 73
   -26
  0
VERTEX
  5
C83
  8
0
 10
0.0
 20
0.0
 30
0.0
 70
   128
 71
   -16
 72
    28
 73
   -27
  0
VERTEX
  5
C84
  8
0
 10
0.0
 20
0.0
 30
0.0
 70
   128
 71
    16
 72
    15
 73
   -14
  0
VERTEX
  5
C85
  8
0
 10
0.0
 20
0.0
 30
0.0
 70
   128
 71
   -16
 72
    14
 73
   -13
  0
VERTEX
  5
C86
  8
0
 10
0.0
 20
0.0
 30
0.0
 70
   128
 71
   -16
 72
   -13
 73
   -29
  0
VERTEX
  5
C87
  8
0
 10
0.0
 20
0.0
 30
0.0
 70
   128
 71
   -16
 72
    29
 73
   -28
  0
VERTEX
  5
C88
  8
0
 10
0.0
 20
0.0
 30
0.0
 70
   128
 71
   -13
 72
    30
 73
   -29
  0
VERTEX
  5
C89
  8
0
 10
0.0
 20
0.0
 30
0.0
 70
   128
 71
    13
 72
   -12
 73
   -31
  0
VERTEX
  5
C8A
  8
0
 10
0.0
 20
0.0
 30
0.0
 70
   128
 71
   -13
 72
    31
 73
   -30
  0
VERTEX
  5
C8B
  8
0
 10
0.0
 20
0.0
 30
0.0
 70
   128
 71
   -12
 72
    32
 73
   -31
  0
VERTEX
  5
C8C
  8
0
 10
0.0
 20
0.0
 30
0.0
 70
   128
 71
    12
 72
    11
 73
   -10
  0
VERTEX
  5
C8D
  8
0
 10
0.0
 20
0.0
 30
0.0
 70
   128
 71
   -12
 72
    10
 73
    -9
  0
VERTEX
  5
C8E
  8
0
 10
0.0
 20
0.0
 30
0.0
 70
   128
 71
   -12
 72
     9
 73
    -8
  0
VERTEX
  5
C8F
  8
0
 10
0.0
 20
0.0
 30
0.0
 70
   128
 71
   -12
 72
     8
 73
    -7
  0
VERTEX
  5
C90
  8
0
 10
0.0
 20
0.0
 30
0.0
 70
   128
 71
   -12
 72
    -7
 73
   -17
  0
VERTEX
  5
C91
  8
0
 10
0.0
 20
0.0
 30
0.0
 70
   128
 71
   -12
 72
    17
 73
   -32
  0
SEQEND
  5
134C
  8
0
  0
POLYLINE
  5
C92
  8
0
 66
     1
 10
0.0
 20
0.0
 30
0.0
 70
    64
 71
     4
 72
     2
  0
VERTEX
  5
C93
  8
0
 10
212.9999999999972
 20
-268.0000000000022
 30
0.0
 70
   192
  0
VERTEX
  5
C94
  8
0
 10
-213.0000000000028
 20
-267.9999999999978
 30
0.0
 70
   192
  0
VERTEX
  5
C95
  8
0
 10
-213.0000000000028
 20
-267.9999999999978
 30
-2.5
 70
   192
  0
VERTEX
  5
C96
  8
0
 10
212.9999999999972
 20
-268.0000000000022
 30
-2.5
 70
   192
  0
VERTEX
  5
C97
  8
0
 10
0.0
 20
0.0
 30
0.0
 70
   128
 71
     1
 72
     4
 73
    -3
  0
VERTEX
  5
C98
  8
0
 10
0.0
 20
0.0
 30
0.0
 70
   128
 71
    -1
 72
     3
 73
     2
  0
SEQEND
  5
134D
  8
0
  0
POLYLINE
  5
C99
  8
0
 66
     1
 10
0.0
 20
0.0
 30
0.0
 70
    64
 71
     8
 72
     6
  0
VERTEX
  5
C9A
  8
0
 10
-218.0000000000028
 20
-266.6602540378421
 30
-2.5
 70
   192
  0
VERTEX
  5
C9B
  8
0
 10
-221.6602540378472
 20
-262.9999999999977
 30
-2.5
 70
   192
  0
VERTEX
  5
C9C
  8
0
 10
-221.6602540378472
 20
-262.9999999999977
 30
0.0
 70
   192
  0
VERTEX
  5
C9D
  8
0
 10
-218.0000000000028
 20
-266.6602540378421
 30
0.0
 70
   192
  0
VERTEX
  5
C9E
  8
0
 10
-223.0000000000028
 20
-257.9999999999977
 30
-2.5
 70
   192
  0
VERTEX
  5
C9F
  8
0
 10
-223.0000000000028
 20
-257.9999999999977
 30
0.0
 70
   192
  0
VERTEX
  5
CA0
  8
0
 10
-213.0000000000028
 20
-267.9999999999978
 30
-2.5
 70
   192
  0
VERTEX
  5
CA1
  8
0
 10
-213.0000000000028
 20
-267.9999999999978
 30
0.0
 70
   192
  0
VERTEX
  5
CA2
  8
0
 10
0.0
 20
0.0
 30
0.0
 70
   128
 71
     1
 72
     2
 73
    -3
  0
VERTEX
  5
CA3
  8
0
 10
0.0
 20
0.0
 30
0.0
 70
   128
 71
     4
 72
    -1
 73
     3
  0
VERTEX
  5
CA4
  8
0
 10
0.0
 20
0.0
 30
0.0
 70
   128
 71
     2
 72
     5
 73
    -6
  0
VERTEX
  5
CA5
  8
0
 10
0.0
 20
0.0
 30
0.0
 70
   128
 71
     3
 72
    -2
 73
     6
  0
VERTEX
  5
CA6
  8
0
 10
0.0
 20
0.0
 30
0.0
 70
   128
 71
     7
 72
     1
 73
    -4
  0
VERTEX
  5
CA7
  8
0
 10
0.0
 20
0.0
 30
0.0
 70
   128
 71
     8
 72
    -7
 73
     4
  0
SEQEND
  5
134E
  8
0
  0
POLYLINE
  5
CA8
  8
0
 66
     1
 10
0.0
 20
0.0
 30
0.0
 70
    64
 71
     4
 72
     2
  0
VERTEX
  5
CA9
  8
0
 10
-223.0000000000027
 20
-257.9999999999977
 30
0.0
 70
   192
  0
VERTEX
  5
CAA
  8
0
 10
-222.9999999999973
 20
258.0000000000023
 30
0.0
 70
   192
  0
VERTEX
  5
CAB
  8
0
 10
-222.9999999999973
 20
258.0000000000023
 30
-2.5
 70
   192
  0
VERTEX
  5
CAC
  8
0
 10
-223.0000000000028
 20
-257.9999999999977
 30
-2.5
 70
   192
  0
VERTEX
  5
CAD
  8
0
 10
0.0
 20
0.0
 30
0.0
 70
   128
 71
     1
 72
     4
 73
    -3
  0
VERTEX
  5
CAE
  8
0
 10
0.0
 20
0.0
 30
0.0
 70
   128
 71
    -1
 72
     3
 73
     2
  0
SEQEND
  5
134F
  8
0
  0
POLYLINE
  5
CAF
  8
0
 66
     1
 10
0.0
 20
0.0
 30
0.0
 70
    64
 71
     8
 72
     6
  0
VERTEX
  5
CB0
  8
0
 10
-221.6602540378416
 20
263.0000000000023
 30
-2.5
 70
   192
  0
VERTEX
  5
CB1
  8
0
 10
-217.9999999999972
 20
266.6602540378466
 30
-2.5
 70
   192
  0
VERTEX
  5
CB2
  8
0
 10
-217.9999999999972
 20
266.6602540378466
 30
0.0
 70
   192
  0
VERTEX
  5
CB3
  8
0
 10
-221.6602540378416
 20
263.0000000000023
 30
0.0
 70
   192
  0
VERTEX
  5
CB4
  8
0
 10
-212.9999999999971
 20
268.0000000000022
 30
-2.5
 70
   192
  0
VERTEX
  5
CB5
  8
0
 10
-212.9999999999971
 20
268.0000000000022
 30
0.0
 70
   192
  0
VERTEX
  5
CB6
  8
0
 10
-222.9999999999973
 20
258.0000000000023
 30
-2.5
 70
   192
  0
VERTEX
  5
CB7
  8
0
 10
-222.9999999999973
 20
258.0000000000023
 30
0.0
 70
   192
  0
VERTEX
  5
CB8
  8
0
 10
0.0
 20
0.0
 30
0.0
 70
   128
 71
     1
 72
     2
 73
    -3
  0
VERTEX
  5
CB9
  8
0
 10
0.0
 20
0.0
 30
0.0
 70
   128
 71
     4
 72
    -1
 73
     3
  0
VERTEX
  5
CBA
  8
0
 10
0.0
 20
0.0
 30
0.0
 70
   128
 71
     2
 72
     5
 73
    -6
  0
VERTEX
  5
CBB
  8
0
 10
0.0
 20
0.0
 30
0.0
 70
   128
 71
     3
 72
    -2
 73
     6
  0
VERTEX
  5
CBC
  8
0
 10
0.0
 20
0.0
 30
0.0
 70
   128
 71
     7
 72
     1
 73
    -4
  0
VERTEX
  5
CBD
  8
0
 10
0.0
 20
0.0
 30
0.0
 70
   128
 71
     8
 72
    -7
 73
     4
  0
SEQEND
  5
1350
  8
0
  0
POLYLINE
  5
CBE
  8
0
 66
     1
 10
0.0
 20
0.0
 30
0.0
 70
    64
 71
     4
 72
     2
  0
VERTEX
  5
CBF
  8
0
 10
-212.9999999999971
 20
268.0000000000022
 30
0.0
 70
   192
  0
VERTEX
  5
CC0
  8
0
 10
213.0000000000028
 20
267.9999999999977
 30
0.0
 70
   192
  0
VERTEX
  5
CC1
  8
0
 10
213.0000000000028
 20
267.9999999999977
 30
-2.5
 70
   192
  0
VERTEX
  5
CC2
  8
0
 10
-212.9999999999971
 20
268.0000000000022
 30
-2.5
 70
   192
  0
VERTEX
  5
CC3
  8
0
 10
0.0
 20
0.0
 30
0.0
 70
   128
 71
     1
 72
     4
 73
    -3
  0
VERTEX
  5
CC4
  8
0
 10
0.0
 20
0.0
 30
0.0
 70
   128
 71
    -1
 72
     3
 73
     2
  0
SEQEND
  5
1351
  8
0
  0
POLYLINE
  5
CC5
  8
0
 66
     1
 10
0.0
 20
0.0
 30
0.0
 70
    64
 71
     4
 72
     2
  0
VERTEX
  5
CC6
  8
0
 10
223.0000000000027
 20
257.9999999999977
 30
0.0
 70
   192
  0
VERTEX
  5
CC7
  8
0
 10
222.9999999999973
 20
-258.0000000000023
 30
0.0
 70
   192
  0
VERTEX
  5
CC8
  8
0
 10
222.9999999999973
 20
-258.0000000000023
 30
-2.5
 70
   192
  0
VERTEX
  5
CC9
  8
0
 10
223.0000000000027
 20
257.9999999999976
 30
-2.5
 70
   192
  0
VERTEX
  5
CCA
  8
0
 10
0.0
 20
0.0
 30
0.0
 70
   128
 71
     1
 72
     4
 73
    -3
  0
VERTEX
  5
CCB
  8
0
 10
0.0
 20
0.0
 30
0.0
 70
   128
 71
    -1
 72
     3
 73
     2
  0
SEQEND
  5
1352
  8
0
  0
POLYLINE
  5
CCC
  8
0
 66
     1
 10
0.0
 20
0.0
 30
0.0
 70
    64
 71
    38
 72
    38
  0
VERTEX
  5
CCD
  8
0
 10
-106.9412620521157
 20
264.4983843100665
 30
-4.999999999997477
 70
   192
  0
VERTEX
  5
CCE
  8
0
 10
216.7444627596916
 20
264.498384310063
 30
-4.999999999995216
 70
   192
  0
VERTEX
  5
CCF
  8
0
 10
215.5611461406801
 20
265.0491510443501
 30
-5.0
 70
   192
  0
VERTEX
  5
CD0
  8
0
 10
214.300262890221
 20
265.386427852236
 30
-5.0
 70
   192
  0
VERTEX
  5
CD1
  8
0
 10
213.0000000000028
 20
265.4999999999977
 30
-5.0
 70
   192
  0
VERTEX
  5
CD2
  8
0
 10
-212.9999999999971
 20
265.5000000000023
 30
-5.0
 70
   192
  0
VERTEX
  5
CD3
  8
0
 10
-216.7499999999972
 20
264.4951905283855
 30
-5.0
 70
   192
  0
VERTEX
  5
CD4
  8
0
 10
-219.4951905283805
 20
261.7500000000023
 30
-5.0
 70
   192
  0
VERTEX
  5
CD5
  8
0
 10
-220.4999999999973
 20
258.0000000000023
 30
-5.0
 70
   192
  0
VERTEX
  5
CD6
  8
0
 10
-220.5000000000027
 20
-257.9999999999977
 30
-5.0
 70
   192
  0
VERTEX
  5
CD7
  8
0
 10
-219.4951905283861
 20
-261.7499999999977
 30
-5.0
 70
   192
  0
VERTEX
  5
CD8
  8
0
 10
-216.7500000000028
 20
-264.495190528381
 30
-5.0
 70
   192
  0
VERTEX
  5
CD9
  8
0
 10
-213.0000000000028
 20
-265.4999999999977
 30
-5.0
 70
   192
  0
VERTEX
  5
CDA
  8
0
 10
212.9999999999972
 20
-265.5000000000022
 30
-5.0
 70
   192
  0
VERTEX
  5
CDB
  8
0
 10
214.3002628902155
 20
-265.3864278522405
 30
-5.0
 70
   192
  0
VERTEX
  5
CDC
  8
0
 10
215.5611461406746
 20
-265.0491510443546
 30
-5.0
 70
   192
  0
VERTEX
  5
CDD
  8
0
 10
216.7444627596861
 20
-264.4983843100676
 30
-5.0
 70
   192
  0
VERTEX
  5
CDE
  8
0
 10
-106.9412620521155
 20
-264.4983843100642
 30
-4.999999999999233
 70
   192
  0
VERTEX
  5
CDF
  8
0
 10
-110.7694974847797
 20
-243.8106037749582
 30
-4.999999999999877
 70
   192
  0
VERTEX
  5
CE0
  8
0
 10
-113.9599771434264
 20
-223.0190272267188
 30
-5.000000000000001
 70
   192
  0
VERTEX
  5
CE1
  8
0
 10
-115.8903634398151
 20
-202.0779241254605
 30
-5.0
 70
   192
  0
VERTEX
  5
CE2
  8
0
 10
-116.0007447100302
 20
-199.5263989723892
 30
-5.000000000000001
 70
   192
  0
VERTEX
  5
CE3
  8
0
 10
-116.076460401435
 20
-196.9737113853194
 30
-5.0
 70
   192
  0
VERTEX
  5
CE4
  8
0
 10
-116.1045737922898
 20
-194.4194275597195
 30
-5.0
 70
   192
  0
VERTEX
  5
CE5
  8
0
 10
-116.1045737922898
 20
194.4194275597175
 30
-5.0
 70
   192
  0
VERTEX
  5
CE6
  8
0
 10
-116.0764604014349
 20
196.9737113853189
 30
-5.0
 70
   192
  0
VERTEX
  5
CE7
  8
0
 10
-116.0007447100301
 20
199.5263989723902
 30
-5.0
 70
   192
  0
VERTEX
  5
CE8
  8
0
 10
-115.8903634398148
 20
202.077924125463
 30
-5.0
 70
   192
  0
VERTEX
  5
CE9
  8
0
 10
-113.9599752956611
 20
223.019041590715
 30
-5.000000000000001
 70
   192
  0
VERTEX
  5
CEA
  8
0
 10
-110.7687551518172
 20
243.8107339095968
 30
-5.000000000000002
 70
   192
  0
VERTEX
  5
CEB
  8
0
 10
-191.0000000000029
 20
0.0
 30
-5.000000000000004
 70
   192
  0
VERTEX
  5
CEC
  8
0
 10
-185.7279220613607
 20
12.72792206135785
 30
-5.000000000000004
 70
   192
  0
VERTEX
  5
CED
  8
0
 10
-173.0000000000029
 20
17.99999999999999
 30
-5.000000000000004
 70
   192
  0
VERTEX
  5
CEE
  8
0
 10
-160.272077938645
 20
12.72792206135785
 30
-5.000000000000004
 70
   192
  0
VERTEX
  5
CEF
  8
0
 10
-155.0000000000029
 20
0.0
 30
-5.000000000000004
 70
   192
  0
VERTEX
  5
CF0
  8
0
 10
-160.272077938645
 20
-12.72792206135785
 30
-5.000000000000004
 70
   192
  0
VERTEX
  5
CF1
  8
0
 10
-173.0000000000029
 20
-17.99999999999999
 30
-5.000000000000004
 70
   192
  0
VERTEX
  5
CF2
  8
0
 10
-185.7279220613607
 20
-12.72792206135785
 30
-5.000000000000004
 70
   192
  0
VERTEX
  5
CF3
  8
0
 10
0.0
 20
0.0
 30
0.0
 70
   128
 71
     3
 72
     4
 73
    -5
  0
VERTEX
  5
CF4
  8
0
 10
0.0
 20
0.0
 30
0.0
 70
   128
 71
     2
 72
    -3
 73
    -5
  0
VERTEX
  5
CF5
  8
0
 10
0.0
 20
0.0
 30
0.0
 70
   128
 71
    17
 72
   -18
 73
   -14
  0
VERTEX
  5
CF6
  8
0
 10
0.0
 20
0.0
 30
0.0
 70
   128
 71
    15
 72
    16
 73
   -17
  0
VERTEX
  5
CF7
  8
0
 10
0.0
 20
0.0
 30
0.0
 70
   128
 71
    14
 72
   -15
 73
   -17
  0
VERTEX
  5
CF8
  8
0
 10
0.0
 20
0.0
 30
0.0
 70
   128
 71
   -18
 72
    13
 73
   -14
  0
VERTEX
  5
CF9
  8
0
 10
0.0
 20
0.0
 30
0.0
 70
   128
 71
    11
 72
    12
 73
   -13
  0
VERTEX
  5
CFA
  8
0
 10
0.0
 20
0.0
 30
0.0
 70
   128
 71
   -19
 72
   -11
 73
   -13
  0
VERTEX
  5
CFB
  8
0
 10
0.0
 20
0.0
 30
0.0
 70
   128
 71
    18
 72
   -19
 73
   -13
  0
VERTEX
  5
CFC
  8
0
 10
0.0
 20
0.0
 30
0.0
 70
   128
 71
   -20
 72
    10
 73
   -11
  0
VERTEX
  5
CFD
  8
0
 10
0.0
 20
0.0
 30
0.0
 70
   128
 71
    19
 72
   -20
 73
   -11
  0
VERTEX
  5
CFE
  8
0
 10
0.0
 20
0.0
 30
0.0
 70
   128
 71
    20
 72
   -21
 73
   -10
  0
VERTEX
  5
CFF
  8
0
 10
0.0
 20
0.0
 30
0.0
 70
   128
 71
    21
 72
   -22
 73
   -10
  0
VERTEX
  5
D00
  8
0
 10
0.0
 20
0.0
 30
0.0
 70
   128
 71
    22
 72
   -23
 73
   -10
  0
VERTEX
  5
D01
  8
0
 10
0.0
 20
0.0
 30
0.0
 70
   128
 71
    23
 72
   -24
 73
   -10
  0
VERTEX
  5
D02
  8
0
 10
0.0
 20
0.0
 30
0.0
 70
   128
 71
     9
 72
   -10
 73
   -31
  0
VERTEX
  5
D03
  8
0
 10
0.0
 20
0.0
 30
0.0
 70
   128
 71
    31
 72
   -32
 73
    -9
  0
VERTEX
  5
D04
  8
0
 10
0.0
 20
0.0
 30
0.0
 70
   128
 71
   -33
 72
   -25
 73
    -9
  0
VERTEX
  5
D05
  8
0
 10
0.0
 20
0.0
 30
0.0
 70
   128
 71
    32
 72
   -33
 73
    -9
  0
VERTEX
  5
D06
  8
0
 10
0.0
 20
0.0
 30
0.0
 70
   128
 71
    33
 72
   -34
 73
   -25
  0
VERTEX
  5
D07
  8
0
 10
0.0
 20
0.0
 30
0.0
 70
   128
 71
    34
 72
   -35
 73
   -25
  0
VERTEX
  5
D08
  8
0
 10
0.0
 20
0.0
 30
0.0
 70
   128
 71
    24
 72
   -25
 73
   -35
  0
VERTEX
  5
D09
  8
0
 10
0.0
 20
0.0
 30
0.0
 70
   128
 71
    35
 72
   -36
 73
   -24
  0
VERTEX
  5
D0A
  8
0
 10
0.0
 20
0.0
 30
0.0
 70
   128
 71
    36
 72
   -37
 73
   -24
  0
VERTEX
  5
D0B
  8
0
 10
0.0
 20
0.0
 30
0.0
 70
   128
 71
   -38
 72
   -10
 73
   -24
  0
VERTEX
  5
D0C
  8
0
 10
0.0
 20
0.0
 30
0.0
 70
   128
 71
    37
 72
   -38
 73
   -24
  0
VERTEX
  5
D0D
  8
0
 10
0.0
 20
0.0
 30
0.0
 70
   128
 71
    38
 72
   -31
 73
   -10
  0
VERTEX
  5
D0E
  8
0
 10
0.0
 20
0.0
 30
0.0
 70
   128
 71
    25
 72
   -26
 73
    -9
  0
VERTEX
  5
D0F
  8
0
 10
0.0
 20
0.0
 30
0.0
 70
   128
 71
    26
 72
   -27
 73
    -9
  0
VERTEX
  5
D10
  8
0
 10
0.0
 20
0.0
 30
0.0
 70
   128
 71
    27
 72
   -28
 73
    -9
  0
VERTEX
  5
D11
  8
0
 10
0.0
 20
0.0
 30
0.0
 70
   128
 71
    28
 72
   -29
 73
    -9
  0
VERTEX
  5
D12
  8
0
 10
0.0
 20
0.0
 30
0.0
 70
   128
 71
     7
 72
     8
 73
    -9
  0
VERTEX
  5
D13
  8
0
 10
0.0
 20
0.0
 30
0.0
 70
   128
 71
   -30
 72
    -7
 73
    -9
  0
VERTEX
  5
D14
  8
0
 10
0.0
 20
0.0
 30
0.0
 70
   128
 71
    29
 72
   -30
 73
    -9
  0
VERTEX
  5
D15
  8
0
 10
0.0
 20
0.0
 30
0.0
 70
   128
 71
    -1
 72
     6
 73
    -7
  0
VERTEX
  5
D16
  8
0
 10
0.0
 20
0.0
 30
0.0
 70
   128
 71
    30
 72
    -1
 73
    -7
  0
VERTEX
  5
D17
  8
0
 10
0.0
 20
0.0
 30
0.0
 70
   128
 71
     5
 72
    -6
 73
    -1
  0
VERTEX
  5
D18
  8
0
 10
0.0
 20
0.0
 30
0.0
 70
   128
 71
     1
 72
    -2
 73
    -5
  0
SEQEND
  5
1353
  8
0
  0
POLYLINE
  5
D19
  8
0
 66
     1
 10
0.0
 20
0.0
 30
0.0
 70
    64
 71
    14
 72
    12
  0
VERTEX
  5
D1A
  8
0
 10
-97.60786401052465
 20
28.51589423065989
 30
-111.4761949916952
 70
   192
  0
VERTEX
  5
D1B
  8
0
 10
-53.94203439194319
 20
24.87013197423607
 30
-112.186921757867
 70
   192
  0
VERTEX
  5
D1C
  8
0
 10
-31.97257550772229
 20
31.95840885601349
 30
-110.7329746015021
 70
   192
  0
VERTEX
  5
D1D
  8
0
 10
-98.15196626621842
 20
52.19977662536462
 30
-104.891247325145
 70
   192
  0
VERTEX
  5
D1E
  8
0
 10
10.62350126183396
 20
46.04804508892846
 30
-106.9401861158295
 70
   192
  0
VERTEX
  5
D1F
  8
0
 10
19.62180872747764
 20
55.88391088647511
 30
-103.5446859197575
 70
   192
  0
VERTEX
  5
D20
  8
0
 10
28.95587237881363
 20
65.3837080610981
 30
-99.64143568970577
 70
   192
  0
VERTEX
  5
D21
  8
0
 10
38.57705128038373
 20
74.66407075191752
 30
-95.19312020999547
 70
   192
  0
VERTEX
  5
D22
  8
0
 10
-98.95330488067117
 20
74.66407075191896
 30
-95.19312020999644
 70
   192
  0
VERTEX
  5
D23
  8
0
 10
-97.3360968932896
 20
4.26964878414974
 30
-114.7652316125784
 70
   192
  0
VERTEX
  5
D24
  8
0
 10
-64.46576932314072
 20
4.269648784149396
 30
-114.7652316125782
 70
   192
  0
VERTEX
  5
D25
  8
0
 10
-4.13690480575637
 20
29.25275618643658
 30
-111.3230333950497
 70
   192
  0
VERTEX
  5
D26
  8
0
 10
-11.93232597696811
 20
20.44545170063771
 30
-112.9452924501102
 70
   192
  0
VERTEX
  5
D27
  8
0
 10
3.441552634883426
 20
37.85800513669668
 30
-109.2937314332747
 70
   192
  0
VERTEX
  5
D28
  8
0
 10
0.0
 20
0.0
 30
0.0
 70
   128
 71
     1
 72
     2
 73
     3
  0
VERTEX
  5
D29
  8
0
 10
0.0
 20
0.0
 30
0.0
 70
   128
 71
     4
 72
     5
 73
     6
  0
VERTEX
  5
D2A
  8
0
 10
0.0
 20
0.0
 30
0.0
 70
   128
 71
     7
 72
     8
 73
     9
  0
VERTEX
  5
D2B
  8
0
 10
0.0
 20
0.0
 30
0.0
 70
   128
 71
     1
 72
    10
 73
    11
  0
VERTEX
  5
D2C
  8
0
 10
0.0
 20
0.0
 30
0.0
 70
   128
 71
     2
 72
     1
 73
    11
  0
VERTEX
  5
D2D
  8
0
 10
0.0
 20
0.0
 30
0.0
 70
   128
 71
    12
 72
     3
 73
    13
  0
VERTEX
  5
D2E
  8
0
 10
0.0
 20
0.0
 30
0.0
 70
   128
 71
     4
 72
     1
 73
     3
  0
VERTEX
  5
D2F
  8
0
 10
0.0
 20
0.0
 30
0.0
 70
   128
 71
    14
 72
     4
 73
     3
  0
VERTEX
  5
D30
  8
0
 10
0.0
 20
0.0
 30
0.0
 70
   128
 71
     3
 72
    12
 73
    14
  0
VERTEX
  5
D31
  8
0
 10
0.0
 20
0.0
 30
0.0
 70
   128
 71
    14
 72
     5
 73
     4
  0
VERTEX
  5
D32
  8
0
 10
0.0
 20
0.0
 30
0.0
 70
   128
 71
     9
 72
     4
 73
     6
  0
VERTEX
  5
D33
  8
0
 10
0.0
 20
0.0
 30
0.0
 70
   128
 71
     7
 72
     9
 73
     6
  0
SEQEND
  5
1354
  8
0
  0
POLYLINE
  5
D34
  8
0
 66
     1
 10
0.0
 20
0.0
 30
0.0
 70
    64
 71
    11
 72
     9
  0
VERTEX
  5
D35
  8
0
 10
-98.95330488067118
 20
74.66407075191896
 30
-95.19312020999642
 70
   192
  0
VERTEX
  5
D36
  8
0
 10
38.57705128038373
 20
74.66407075191752
 30
-95.19312020999547
 70
   192
  0
VERTEX
  5
D37
  8
0
 10
47.04183251860363
 20
82.78241848614846
 30
-90.90455003988669
 70
   192
  0
VERTEX
  5
D38
  8
0
 10
87.10695405344899
 20
123.3665035350892
 30
-65.99030523325511
 70
   192
  0
VERTEX
  5
D39
  8
0
 10
-100.5632578110761
 20
107.647664789393
 30
-76.36332409886741
 70
   192
  0
VERTEX
  5
D3A
  8
0
 10
63.54754768101547
 20
99.35536467885161
 30
-81.45706382562265
 70
   192
  0
VERTEX
  5
D3B
  8
0
 10
55.38031806094209
 20
91.03715430967334
 30
-86.31791329396746
 70
   192
  0
VERTEX
  5
D3C
  8
0
 10
-102.4140805003541
 20
138.9411711559742
 30
-54.71634720980213
 70
   192
  0
VERTEX
  5
D3D
  8
0
 10
110.0654041072399
 20
146.2481157328588
 30
-49.05807056432814
 70
   192
  0
VERTEX
  5
D3E
  8
0
 10
-104.4850780515257
 20
168.1946828107883
 30
-30.49423431523352
 70
   192
  0
VERTEX
  5
D3F
  8
0
 10
132.5161757364794
 20
168.1946828107858
 30
-30.49423431523187
 70
   192
  0
VERTEX
  5
D40
  8
0
 10
0.0
 20
0.0
 30
0.0
 70
   128
 71
     1
 72
     2
 73
     3
  0
VERTEX
  5
D41
  8
0
 10
0.0
 20
0.0
 30
0.0
 70
   128
 71
     4
 72
     5
 73
     6
  0
VERTEX
  5
D42
  8
0
 10
0.0
 20
0.0
 30
0.0
 70
   128
 71
     1
 72
     3
 73
     7
  0
VERTEX
  5
D43
  8
0
 10
0.0
 20
0.0
 30
0.0
 70
   128
 71
     5
 72
     1
 73
     7
  0
VERTEX
  5
D44
  8
0
 10
0.0
 20
0.0
 30
0.0
 70
   128
 71
     7
 72
     6
 73
     5
  0
VERTEX
  5
D45
  8
0
 10
0.0
 20
0.0
 30
0.0
 70
   128
 71
     8
 72
     5
 73
     4
  0
VERTEX
  5
D46
  8
0
 10
0.0
 20
0.0
 30
0.0
 70
   128
 71
     9
 72
     8
 73
     4
  0
VERTEX
  5
D47
  8
0
 10
0.0
 20
0.0
 30
0.0
 70
   128
 71
    10
 72
     8
 73
     9
  0
VERTEX
  5
D48
  8
0
 10
0.0
 20
0.0
 30
0.0
 70
   128
 71
    11
 72
    10
 73
     9
  0
SEQEND
  5
1355
  8
0
  0
POLYLINE
  5
D49
  8
0
 66
     1
 10
0.0
 20
0.0
 30
0.0
 70
    64
 71
    11
 72
     9
  0
VERTEX
  5
D4A
  8
0
 10
217.330248132808
 20
264.1274449594022
 30
-5.000249826941786
 70
   192
  0
VERTEX
  5
D4B
  8
0
 10
216.7444627596916
 20
264.498384310063
 30
-4.999999999999974
 70
   192
  0
VERTEX
  5
D4C
  8
0
 10
-106.9412620521157
 20
264.4983843100665
 30
-4.999999999997477
 70
   192
  0
VERTEX
  5
D4D
  8
0
 10
200.6874471941708
 20
243.1620356617394
 30
-5.844341939305989
 70
   192
  0
VERTEX
  5
D4E
  8
0
 10
218.3845015392317
 20
263.2335247214421
 30
-5.002962807107755
 70
   192
  0
VERTEX
  5
D4F
  8
0
 10
217.8769282640689
 20
263.7058284562081
 30
-5.001158055466285
 70
   192
  0
VERTEX
  5
D50
  8
0
 10
-106.8715323932098
 20
244.1409354219998
 30
-5.768548875189738
 70
   192
  0
VERTEX
  5
D51
  8
0
 10
-106.6623434164923
 20
223.8706241892049
 30
-8.074195500766427
 70
   192
  0
VERTEX
  5
D52
  8
0
 10
183.3265519893506
 20
223.4471714217304
 30
-8.138991122553977
 70
   192
  0
VERTEX
  5
D53
  8
0
 10
-106.3154821148665
 20
203.8606093645504
 30
-11.89724393374691
 70
   192
  0
VERTEX
  5
D54
  8
0
 10
166.1214417739517
 20
203.8606093645476
 30
-11.89724393374501
 70
   192
  0
VERTEX
  5
D55
  8
0
 10
0.0
 20
0.0
 30
0.0
 70
   128
 71
     1
 72
     2
 73
     3
  0
VERTEX
  5
D56
  8
0
 10
0.0
 20
0.0
 30
0.0
 70
   128
 71
     4
 72
     5
 73
     6
  0
VERTEX
  5
D57
  8
0
 10
0.0
 20
0.0
 30
0.0
 70
   128
 71
     6
 72
     1
 73
     3
  0
VERTEX
  5
D58
  8
0
 10
0.0
 20
0.0
 30
0.0
 70
   128
 71
     6
 72
     3
 73
     7
  0
VERTEX
  5
D59
  8
0
 10
0.0
 20
0.0
 30
0.0
 70
   128
 71
     6
 72
     7
 73
     4
  0
VERTEX
  5
D5A
  8
0
 10
0.0
 20
0.0
 30
0.0
 70
   128
 71
     4
 72
     7
 73
     8
  0
VERTEX
  5
D5B
  8
0
 10
0.0
 20
0.0
 30
0.0
 70
   128
 71
     4
 72
     8
 73
     9
  0
VERTEX
  5
D5C
  8
0
 10
0.0
 20
0.0
 30
0.0
 70
   128
 71
     9
 72
     8
 73
    10
  0
VERTEX
  5
D5D
  8
0
 10
0.0
 20
0.0
 30
0.0
 70
   128
 71
     9
 72
    10
 73
    11
  0
SEQEND
  5
1356
  8
0
  0
POLYLINE
  5
D5E
  8
0
 66
     1
 10
0.0
 20
0.0
 30
0.0
 70
    64
 71
    14
 72
    12
  0
VERTEX
  5
D5F
  8
0
 10
162.3929758399138
 20
199.9123011489834
 30
-12.91378578354891
 70
   192
  0
VERTEX
  5
D60
  8
0
 10
164.3566823785978
 20
201.9235041895176
 30
-12.36914257223216
 70
   192
  0
VERTEX
  5
D61
  8
0
 10
166.1214417739517
 20
203.8606093645476
 30
-11.89724393374509
 70
   192
  0
VERTEX
  5
D62
  8
0
 10
160.2303221578996
 20
197.8302085422605
 30
-13.53758343429425
 70
   192
  0
VERTEX
  5
D63
  8
0
 10
-106.3154821148665
 20
203.8606093645504
 30
-11.89724393374691
 70
   192
  0
VERTEX
  5
D64
  8
0
 10
-105.9087156209749
 20
191.0040668773969
 30
-16.03001042280647
 70
   192
  0
VERTEX
  5
D65
  8
0
 10
151.9661226793006
 20
189.5684298441485
 30
-16.64595530203354
 70
   192
  0
VERTEX
  5
D66
  8
0
 10
-105.2897460547742
 20
178.9432746571079
 30
-22.3187699921317
 70
   192
  0
VERTEX
  5
D67
  8
0
 10
144.2566843055552
 20
181.2167367367365
 30
-20.9277327604202
 70
   192
  0
VERTEX
  5
D68
  8
0
 10
137.1187752884073
 20
173.0840926289555
 30
-26.41786805637703
 70
   192
  0
VERTEX
  5
D69
  8
0
 10
135.6435190913466
 20
171.4162199961886
 30
-27.73505068000819
 70
   192
  0
VERTEX
  5
D6A
  8
0
 10
134.109319240704
 20
169.7860826628132
 30
-29.09421631750609
 70
   192
  0
VERTEX
  5
D6B
  8
0
 10
-104.4850780515257
 20
168.1946828107883
 30
-30.49423431523352
 70
   192
  0
VERTEX
  5
D6C
  8
0
 10
132.5161757364794
 20
168.1946828107858
 30
-30.49423431523187
 70
   192
  0
VERTEX
  5
D6D
  8
0
 10
0.0
 20
0.0
 30
0.0
 70
   128
 71
     1
 72
     2
 73
     3
  0
VERTEX
  5
D6E
  8
0
 10
0.0
 20
0.0
 30
0.0
 70
   128
 71
     4
 72
     1
 73
     3
  0
VERTEX
  5
D6F
  8
0
 10
0.0
 20
0.0
 30
0.0
 70
   128
 71
     4
 72
     3
 73
     5
  0
VERTEX
  5
D70
  8
0
 10
0.0
 20
0.0
 30
0.0
 70
   128
 71
     4
 72
     5
 73
     6
  0
VERTEX
  5
D71
  8
0
 10
0.0
 20
0.0
 30
0.0
 70
   128
 71
     4
 72
     6
 73
     7
  0
VERTEX
  5
D72
  8
0
 10
0.0
 20
0.0
 30
0.0
 70
   128
 71
     7
 72
     6
 73
     8
  0
VERTEX
  5
D73
  8
0
 10
0.0
 20
0.0
 30
0.0
 70
   128
 71
     7
 72
     8
 73
     9
  0
VERTEX
  5
D74
  8
0
 10
0.0
 20
0.0
 30
0.0
 70
   128
 71
    10
 72
     9
 73
     8
  0
VERTEX
  5
D75
  8
0
 10
0.0
 20
0.0
 30
0.0
 70
   128
 71
     8
 72
    11
 73
    10
  0
VERTEX
  5
D76
  8
0
 10
0.0
 20
0.0
 30
0.0
 70
   128
 71
     8
 72
    12
 73
    11
  0
VERTEX
  5
D77
  8
0
 10
0.0
 20
0.0
 30
0.0
 70
   128
 71
     8
 72
    13
 73
    14
  0
VERTEX
  5
D78
  8
0
 10
0.0
 20
0.0
 30
0.0
 70
   128
 71
     8
 72
    14
 73
    12
  0
SEQEND
  5
1357
  8
0
  0
POLYLINE
  5
D79
  8
0
 66
     1
 10
0.0
 20
0.0
 30
0.0
 70
    64
 71
    11
 72
     9
  0
VERTEX
  5
D7A
  8
0
 10
217.3302481167645
 20
-264.1274449706149
 30
-5.000249826935767
 70
   192
  0
VERTEX
  5
D7B
  8
0
 10
217.8769282344376
 20
-263.70582848138
 30
-5.001158055455432
 70
   192
  0
VERTEX
  5
D7C
  8
0
 10
218.3845014985089
 20
-263.2335247633689
 30
-5.002962807118566
 70
   192
  0
VERTEX
  5
D7D
  8
0
 10
-106.9412620521155
 20
-264.4983843100642
 30
-4.999999999999233
 70
   192
  0
VERTEX
  5
D7E
  8
0
 10
216.7444627596861
 20
-264.4983843100676
 30
-4.999999999996972
 70
   192
  0
VERTEX
  5
D7F
  8
0
 10
166.1214417739464
 20
-203.8606093645511
 30
-11.89724393374646
 70
   192
  0
VERTEX
  5
D80
  8
0
 10
-106.3154821148664
 20
-203.8606093645482
 30
-11.89724393374843
 70
   192
  0
VERTEX
  5
D81
  8
0
 10
-106.6623434164922
 20
-223.8706241892025
 30
-8.074195500768
 70
   192
  0
VERTEX
  5
D82
  8
0
 10
183.326541660941
 20
-223.4471597310566
 30
-8.13899285028563
 70
   192
  0
VERTEX
  5
D83
  8
0
 10
-106.8715323932097
 20
-244.1409354219976
 30
-5.768548875191381
 70
   192
  0
VERTEX
  5
D84
  8
0
 10
200.6874252677075
 20
-243.1620107726806
 30
-5.844343931015675
 70
   192
  0
VERTEX
  5
D85
  8
0
 10
0.0
 20
0.0
 30
0.0
 70
   128
 71
     1
 72
     2
 73
     3
  0
VERTEX
  5
D86
  8
0
 10
0.0
 20
0.0
 30
0.0
 70
   128
 71
     3
 72
     4
 73
     5
  0
VERTEX
  5
D87
  8
0
 10
0.0
 20
0.0
 30
0.0
 70
   128
 71
     3
 72
     5
 73
     1
  0
VERTEX
  5
D88
  8
0
 10
0.0
 20
0.0
 30
0.0
 70
   128
 71
     6
 72
     7
 73
     8
  0
VERTEX
  5
D89
  8
0
 10
0.0
 20
0.0
 30
0.0
 70
   128
 71
     6
 72
     8
 73
     9
  0
VERTEX
  5
D8A
  8
0
 10
0.0
 20
0.0
 30
0.0
 70
   128
 71
     9
 72
     8
 73
    10
  0
VERTEX
  5
D8B
  8
0
 10
0.0
 20
0.0
 30
0.0
 70
   128
 71
     9
 72
    10
 73
    11
  0
VERTEX
  5
D8C
  8
0
 10
0.0
 20
0.0
 30
0.0
 70
   128
 71
    11
 72
    10
 73
     4
  0
VERTEX
  5
D8D
  8
0
 10
0.0
 20
0.0
 30
0.0
 70
   128
 71
    11
 72
     4
 73
     3
  0
SEQEND
  5
1358
  8
0
  0
POLYLINE
  5
D8E
  8
0
 66
     1
 10
0.0
 20
0.0
 30
0.0
 70
    64
 71
    14
 72
    12
  0
VERTEX
  5
D8F
  8
0
 10
134.1093192407028
 20
-169.7860826628159
 30
-29.09421631750715
 70
   192
  0
VERTEX
  5
D90
  8
0
 10
132.5161757364783
 20
-168.1946828107884
 30
-30.494234315233
 70
   192
  0
VERTEX
  5
D91
  8
0
 10
-104.4850780515257
 20
-168.1946828107859
 30
-30.49423431523472
 70
   192
  0
VERTEX
  5
D92
  8
0
 10
-106.3154821148664
 20
-203.8606093645482
 30
-11.89724393374843
 70
   192
  0
VERTEX
  5
D93
  8
0
 10
162.3929758399121
 20
-199.9123011489896
 30
-12.91378578354939
 70
   192
  0
VERTEX
  5
D94
  8
0
 10
160.2303221578996
 20
-197.8302085422679
 30
-13.53758343429425
 70
   192
  0
VERTEX
  5
D95
  8
0
 10
166.1214417739464
 20
-203.8606093645511
 30
-11.89724393374653
 70
   192
  0
VERTEX
  5
D96
  8
0
 10
164.3566823785944
 20
-201.9235041895226
 30
-12.3691425722331
 70
   192
  0
VERTEX
  5
D97
  8
0
 10
135.6435190913459
 20
-171.4162199961918
 30
-27.73505068000888
 70
   192
  0
VERTEX
  5
D98
  8
0
 10
-105.2897460547742
 20
-178.9432746571055
 30
-22.31876999213293
 70
   192
  0
VERTEX
  5
D99
  8
0
 10
137.1187752884073
 20
-173.0840926289598
 30
-26.41786805637702
 70
   192
  0
VERTEX
  5
D9A
  8
0
 10
144.241734400276
 20
-181.2000930532144
 30
-20.93754120118015
 70
   192
  0
VERTEX
  5
D9B
  8
0
 10
-105.9087156209748
 20
-191.0040668773946
 30
-16.0300104228078
 70
   192
  0
VERTEX
  5
D9C
  8
0
 10
151.9562105782662
 20
-189.5580184032801
 30
-16.65054259530993
 70
   192
  0
VERTEX
  5
D9D
  8
0
 10
0.0
 20
0.0
 30
0.0
 70
   128
 71
     1
 72
     2
 73
     3
  0
VERTEX
  5
D9E
  8
0
 10
0.0
 20
0.0
 30
0.0
 70
   128
 71
     4
 72
     5
 73
     6
  0
VERTEX
  5
D9F
  8
0
 10
0.0
 20
0.0
 30
0.0
 70
   128
 71
     4
 72
     7
 73
     5
  0
VERTEX
  5
DA0
  8
0
 10
0.0
 20
0.0
 30
0.0
 70
   128
 71
     7
 72
     8
 73
     5
  0
VERTEX
  5
DA1
  8
0
 10
0.0
 20
0.0
 30
0.0
 70
   128
 71
     9
 72
     1
 73
     3
  0
VERTEX
  5
DA2
  8
0
 10
0.0
 20
0.0
 30
0.0
 70
   128
 71
     9
 72
     3
 73
    10
  0
VERTEX
  5
DA3
  8
0
 10
0.0
 20
0.0
 30
0.0
 70
   128
 71
    10
 72
    11
 73
     9
  0
VERTEX
  5
DA4
  8
0
 10
0.0
 20
0.0
 30
0.0
 70
   128
 71
    10
 72
    12
 73
    11
  0
VERTEX
  5
DA5
  8
0
 10
0.0
 20
0.0
 30
0.0
 70
   128
 71
    12
 72
    10
 73
    13
  0
VERTEX
  5
DA6
  8
0
 10
0.0
 20
0.0
 30
0.0
 70
   128
 71
    12
 72
    13
 73
    14
  0
VERTEX
  5
DA7
  8
0
 10
0.0
 20
0.0
 30
0.0
 70
   128
 71
    14
 72
    13
 73
     4
  0
VERTEX
  5
DA8
  8
0
 10
0.0
 20
0.0
 30
0.0
 70
   128
 71
    14
 72
     4
 73
     6
  0
SEQEND
  5
1359
  8
0
  0
POLYLINE
  5
DA9
  8
0
 66
     1
 10
0.0
 20
0.0
 30
0.0
 70
    64
 71
    11
 72
     9
  0
VERTEX
  5
DAA
  8
0
 10
110.0654041072684
 20
-146.2481147345645
 30
-49.0580731462707
 70
   192
  0
VERTEX
  5
DAB
  8
0
 10
-102.4140805003542
 20
-138.9411711559721
 30
-54.71634720980293
 70
   192
  0
VERTEX
  5
DAC
  8
0
 10
132.5161757364782
 20
-168.1946828107884
 30
-30.49423431523307
 70
   192
  0
VERTEX
  5
DAD
  8
0
 10
-104.4850780515257
 20
-168.1946828107859
 30
-30.49423431523472
 70
   192
  0
VERTEX
  5
DAE
  8
0
 10
87.10695405347924
 20
-123.3665047517535
 30
-65.99030041369551
 70
   192
  0
VERTEX
  5
DAF
  8
0
 10
-100.5632578110761
 20
-107.6476647893904
 30
-76.36332409886813
 70
   192
  0
VERTEX
  5
DB0
  8
0
 10
63.54754768101546
 20
-99.35536467885389
 30
-81.4570638256226
 70
   192
  0
VERTEX
  5
DB1
  8
0
 10
55.38031806094357
 20
-91.03714215060074
 30
-86.31791205695279
 70
   192
  0
VERTEX
  5
DB2
  8
0
 10
47.04183251859951
 20
-82.7824350192164
 30
-90.90455525179497
 70
   192
  0
VERTEX
  5
DB3
  8
0
 10
38.57705128038272
 20
-74.66407075191756
 30
-95.19312020999594
 70
   192
  0
VERTEX
  5
DB4
  8
0
 10
-98.95330488067124
 20
-74.66407075191613
 30
-95.1931202099969
 70
   192
  0
VERTEX
  5
DB5
  8
0
 10
0.0
 20
0.0
 30
0.0
 70
   128
 71
     1
 72
     2
 73
     3
  0
VERTEX
  5
DB6
  8
0
 10
0.0
 20
0.0
 30
0.0
 70
   128
 71
     2
 72
     4
 73
     3
  0
VERTEX
  5
DB7
  8
0
 10
0.0
 20
0.0
 30
0.0
 70
   128
 71
     2
 72
     1
 73
     5
  0
VERTEX
  5
DB8
  8
0
 10
0.0
 20
0.0
 30
0.0
 70
   128
 71
     6
 72
     7
 73
     8
  0
VERTEX
  5
DB9
  8
0
 10
0.0
 20
0.0
 30
0.0
 70
   128
 71
     8
 72
     9
 73
     6
  0
VERTEX
  5
DBA
  8
0
 10
0.0
 20
0.0
 30
0.0
 70
   128
 71
     2
 72
     5
 73
     7
  0
VERTEX
  5
DBB
  8
0
 10
0.0
 20
0.0
 30
0.0
 70
   128
 71
     6
 72
     2
 73
     7
  0
VERTEX
  5
DBC
  8
0
 10
0.0
 20
0.0
 30
0.0
 70
   128
 71
    10
 72
    11
 73
     6
  0
VERTEX
  5
DBD
  8
0
 10
0.0
 20
0.0
 30
0.0
 70
   128
 71
     9
 72
    10
 73
     6
  0
SEQEND
  5
135A
  8
0
  0
POLYLINE
  5
DBE
  8
0
 66
     1
 10
0.0
 20
0.0
 30
0.0
 70
    64
 71
    14
 72
    12
  0
VERTEX
  5
DBF
  8
0
 10
-98.95330488067124
 20
-74.66407075191611
 30
-95.1931202099969
 70
   192
  0
VERTEX
  5
DC0
  8
0
 10
38.57705128038272
 20
-74.66407075191756
 30
-95.19312020999594
 70
   192
  0
VERTEX
  5
DC1
  8
0
 10
28.95587237881464
 20
-65.3837104450169
 30
-99.64143720044385
 70
   192
  0
VERTEX
  5
DC2
  8
0
 10
19.62180872748182
 20
-55.88390917277012
 30
-103.5446847576784
 70
   192
  0
VERTEX
  5
DC3
  8
0
 10
10.62350126183398
 20
-46.04804508892897
 30
-106.9401861158295
 70
   192
  0
VERTEX
  5
DC4
  8
0
 10
-98.15196626621847
 20
-52.19977662536199
 30
-104.8912473251453
 70
   192
  0
VERTEX
  5
DC5
  8
0
 10
-31.90996626528157
 20
-31.95166131909268
 30
-110.7345179908875
 70
   192
  0
VERTEX
  5
DC6
  8
0
 10
3.441552040811579
 20
-37.85800446060704
 30
-109.2937316103496
 70
   192
  0
VERTEX
  5
DC7
  8
0
 10
-4.136906057736408
 20
-29.25275476811019
 30
-111.3230336929537
 70
   192
  0
VERTEX
  5
DC8
  8
0
 10
-53.9058229130657
 20
-24.90174705837231
 30
-112.1810882059693
 70
   192
  0
VERTEX
  5
DC9
  8
0
 10
-97.60786401052468
 20
-28.51589423065727
 30
-111.4761949916954
 70
   192
  0
VERTEX
  5
DCA
  8
0
 10
-11.93225912071507
 20
-20.44538674882131
 30
-112.9452805095955
 70
   192
  0
VERTEX
  5
DCB
  8
0
 10
-97.33609689328961
 20
-4.269648784147287
 30
-114.7652316125784
 70
   192
  0
VERTEX
  5
DCC
  8
0
 10
-64.46576932314096
 20
-4.269648784147631
 30
-114.7652316125782
 70
   192
  0
VERTEX
  5
DCD
  8
0
 10
0.0
 20
0.0
 30
0.0
 70
   128
 71
     1
 72
     2
 73
     3
  0
VERTEX
  5
DCE
  8
0
 10
0.0
 20
0.0
 30
0.0
 70
   128
 71
     1
 72
     3
 73
     4
  0
VERTEX
  5
DCF
  8
0
 10
0.0
 20
0.0
 30
0.0
 70
   128
 71
     5
 72
     6
 73
     1
  0
VERTEX
  5
DD0
  8
0
 10
0.0
 20
0.0
 30
0.0
 70
   128
 71
     4
 72
     5
 73
     1
  0
VERTEX
  5
DD1
  8
0
 10
0.0
 20
0.0
 30
0.0
 70
   128
 71
     7
 72
     5
 73
     8
  0
VERTEX
  5
DD2
  8
0
 10
0.0
 20
0.0
 30
0.0
 70
   128
 71
     8
 72
     9
 73
     7
  0
VERTEX
  5
DD3
  8
0
 10
0.0
 20
0.0
 30
0.0
 70
   128
 71
     6
 72
     5
 73
     7
  0
VERTEX
  5
DD4
  8
0
 10
0.0
 20
0.0
 30
0.0
 70
   128
 71
    10
 72
    11
 73
     6
  0
VERTEX
  5
DD5
  8
0
 10
0.0
 20
0.0
 30
0.0
 70
   128
 71
     7
 72
    10
 73
     6
  0
VERTEX
  5
DD6
  8
0
 10
0.0
 20
0.0
 30
0.0
 70
   128
 71
    12
 72
     7
 73
     9
  0
VERTEX
  5
DD7
  8
0
 10
0.0
 20
0.0
 30
0.0
 70
   128
 71
    13
 72
    11
 73
    10
  0
VERTEX
  5
DD8
  8
0
 10
0.0
 20
0.0
 30
0.0
 70
   128
 71
    14
 72
    13
 73
    10
  0
SEQEND
  5
135B
  8
0
  0
POLYLINE
  5
DD9
  8
0
 66
     1
 10
0.0
 20
0.0
 30
0.0
 70
    64
 71
    20
 72
    18
  0
VERTEX
  5
DDA
  8
0
 10
162.3929758399121
 20
-199.9123011489896
 30
-12.91378578354939
 70
   192
  0
VERTEX
  5
DDB
  8
0
 10
164.3566823785944
 20
-201.9235041895226
 30
-12.3691425722331
 70
   192
  0
VERTEX
  5
DDC
  8
0
 10
162.3929758399138
 20
199.9123011489834
 30
-12.91378578354891
 70
   192
  0
VERTEX
  5
DDD
  8
0
 10
160.2303221578996
 20
197.8302085422605
 30
-13.53758343429425
 70
   192
  0
VERTEX
  5
DDE
  8
0
 10
160.2303221578996
 20
-197.8302085422679
 30
-13.53758343429429
 70
   192
  0
VERTEX
  5
DDF
  8
0
 10
164.3566823785978
 20
201.9235041895176
 30
-12.36914257223216
 70
   192
  0
VERTEX
  5
DE0
  8
0
 10
166.1214417739517
 20
203.8606093645476
 30
-11.89724393374509
 70
   192
  0
VERTEX
  5
DE1
  8
0
 10
219.169829290719
 20
262.2701355817768
 30
-5.000255368629909
 70
   192
  0
VERTEX
  5
DE2
  8
0
 10
218.798067973144
 20
262.7674930368551
 30
-5.001169138839302
 70
   192
  0
VERTEX
  5
DE3
  8
0
 10
218.3845015392317
 20
263.2335247214421
 30
-5.002962807107755
 70
   192
  0
VERTEX
  5
DE4
  8
0
 10
219.1698292796891
 20
-262.2701355979136
 30
-5.000255368639166
 70
   192
  0
VERTEX
  5
DE5
  8
0
 10
219.4999999999973
 20
-261.7416573867762
 30
-5.0
 70
   192
  0
VERTEX
  5
DE6
  8
0
 10
219.4999999999973
 20
261.7416573867811
 30
-4.999999999999998
 70
   192
  0
VERTEX
  5
DE7
  8
0
 10
183.3265519893506
 20
223.4471714217304
 30
-8.138991122553977
 70
   192
  0
VERTEX
  5
DE8
  8
0
 10
166.1214417739464
 20
-203.8606093645511
 30
-11.89724393374646
 70
   192
  0
VERTEX
  5
DE9
  8
0
 10
183.326541660941
 20
-223.4471597310566
 30
-8.13899285028563
 70
   192
  0
VERTEX
  5
DEA
  8
0
 10
200.6874252677075
 20
-243.1620107726806
 30
-5.844343931015675
 70
   192
  0
VERTEX
  5
DEB
  8
0
 10
200.6874471941708
 20
243.1620356617394
 30
-5.844341939305989
 70
   192
  0
VERTEX
  5
DEC
  8
0
 10
218.7980679485571
 20
-262.767493066985
 30
-5.00116913886021
 70
   192
  0
VERTEX
  5
DED
  8
0
 10
218.3845014985089
 20
-263.2335247633689
 30
-5.002962807118566
 70
   192
  0
VERTEX
  5
DEE
  8
0
 10
0.0
 20
0.0
 30
0.0
 70
   128
 71
     1
 72
    -2
 73
     3
  0
VERTEX
  5
DEF
  8
0
 10
0.0
 20
0.0
 30
0.0
 70
   128
 71
     3
 72
     4
 73
    -5
  0
VERTEX
  5
DF0
  8
0
 10
0.0
 20
0.0
 30
0.0
 70
   128
 71
    -3
 72
     5
 73
     1
  0
VERTEX
  5
DF1
  8
0
 10
0.0
 20
0.0
 30
0.0
 70
   128
 71
     2
 72
     6
 73
    -3
  0
VERTEX
  5
DF2
  8
0
 10
0.0
 20
0.0
 30
0.0
 70
   128
 71
     2
 72
     7
 73
     6
  0
VERTEX
  5
DF3
  8
0
 10
0.0
 20
0.0
 30
0.0
 70
   128
 71
     8
 72
     9
 73
    10
  0
VERTEX
  5
DF4
  8
0
 10
0.0
 20
0.0
 30
0.0
 70
   128
 71
    10
 72
    11
 73
    12
  0
VERTEX
  5
DF5
  8
0
 10
0.0
 20
0.0
 30
0.0
 70
   128
 71
    10
 72
    12
 73
    13
  0
VERTEX
  5
DF6
  8
0
 10
0.0
 20
0.0
 30
0.0
 70
   128
 71
    10
 72
    13
 73
     8
  0
VERTEX
  5
DF7
  8
0
 10
0.0
 20
0.0
 30
0.0
 70
   128
 71
    14
 72
     7
 73
     2
  0
VERTEX
  5
DF8
  8
0
 10
0.0
 20
0.0
 30
0.0
 70
   128
 71
    14
 72
     2
 73
    15
  0
VERTEX
  5
DF9
  8
0
 10
0.0
 20
0.0
 30
0.0
 70
   128
 71
    15
 72
    16
 73
    14
  0
VERTEX
  5
DFA
  8
0
 10
0.0
 20
0.0
 30
0.0
 70
   128
 71
    14
 72
    16
 73
    17
  0
VERTEX
  5
DFB
  8
0
 10
0.0
 20
0.0
 30
0.0
 70
   128
 71
    14
 72
    17
 73
    18
  0
VERTEX
  5
DFC
  8
0
 10
0.0
 20
0.0
 30
0.0
 70
   128
 71
    19
 72
    11
 73
    10
  0
VERTEX
  5
DFD
  8
0
 10
0.0
 20
0.0
 30
0.0
 70
   128
 71
    19
 72
    10
 73
    18
  0
VERTEX
  5
DFE
  8
0
 10
0.0
 20
0.0
 30
0.0
 70
   128
 71
    19
 72
    18
 73
    17
  0
VERTEX
  5
DFF
  8
0
 10
0.0
 20
0.0
 30
0.0
 70
   128
 71
    17
 72
    20
 73
    19
  0
SEQEND
  5
135C
  8
0
  0
POLYLINE
  5
E00
  8
0
 66
     1
 10
0.0
 20
0.0
 30
0.0
 70
    64
 71
     8
 72
     6
  0
VERTEX
  5
E01
  8
0
 10
137.1187752884073
 20
173.0840926289555
 30
-26.41786805637703
 70
   192
  0
VERTEX
  5
E02
  8
0
 10
137.1187752884073
 20
-173.0840926289598
 30
-26.41786805637704
 70
   192
  0
VERTEX
  5
E03
  8
0
 10
144.241734400276
 20
-181.2000930532144
 30
-20.93754120118015
 70
   192
  0
VERTEX
  5
E04
  8
0
 10
144.2566843055552
 20
181.2167367367365
 30
-20.9277327604202
 70
   192
  0
VERTEX
  5
E05
  8
0
 10
151.9562105782662
 20
-189.5580184032801
 30
-16.65054259530993
 70
   192
  0
VERTEX
  5
E06
  8
0
 10
151.9661226793006
 20
189.5684298441485
 30
-16.64595530203354
 70
   192
  0
VERTEX
  5
E07
  8
0
 10
160.2303221578996
 20
197.8302085422605
 30
-13.53758343429429
 70
   192
  0
VERTEX
  5
E08
  8
0
 10
160.2303221578996
 20
-197.8302085422679
 30
-13.53758343429425
 70
   192
  0
VERTEX
  5
E09
  8
0
 10
0.0
 20
0.0
 30
0.0
 70
   128
 71
     1
 72
     2
 73
     3
  0
VERTEX
  5
E0A
  8
0
 10
0.0
 20
0.0
 30
0.0
 70
   128
 71
     1
 72
     3
 73
     4
  0
VERTEX
  5
E0B
  8
0
 10
0.0
 20
0.0
 30
0.0
 70
   128
 71
     4
 72
     3
 73
     5
  0
VERTEX
  5
E0C
  8
0
 10
0.0
 20
0.0
 30
0.0
 70
   128
 71
     4
 72
     5
 73
     6
  0
VERTEX
  5
E0D
  8
0
 10
0.0
 20
0.0
 30
0.0
 70
   128
 71
     7
 72
     6
 73
     5
  0
VERTEX
  5
E0E
  8
0
 10
0.0
 20
0.0
 30
0.0
 70
   128
 71
     5
 72
     8
 73
     7
  0
SEQEND
  5
135D
  8
0
  0
POLYLINE
  5
E0F
  8
0
 66
     1
 10
0.0
 20
0.0
 30
0.0
 70
    64
 71
    14
 72
    12
  0
VERTEX
  5
E10
  8
0
 10
132.5161757364783
 20
-168.1946828107884
 30
-30.494234315233
 70
   192
  0
VERTEX
  5
E11
  8
0
 10
137.1187752884073
 20
173.0840926289555
 30
-26.41786805637704
 70
   192
  0
VERTEX
  5
E12
  8
0
 10
135.6435190913466
 20
171.4162199961886
 30
-27.73505068000819
 70
   192
  0
VERTEX
  5
E13
  8
0
 10
134.109319240704
 20
169.7860826628132
 30
-29.09421631750609
 70
   192
  0
VERTEX
  5
E14
  8
0
 10
132.5161757364795
 20
168.1946828107858
 30
-30.49423431523191
 70
   192
  0
VERTEX
  5
E15
  8
0
 10
134.1093192407028
 20
-169.7860826628159
 30
-29.09421631750715
 70
   192
  0
VERTEX
  5
E16
  8
0
 10
135.6435190913459
 20
-171.4162199961918
 30
-27.73505068000888
 70
   192
  0
VERTEX
  5
E17
  8
0
 10
137.1187752884073
 20
-173.0840926289598
 30
-26.41786805637702
 70
   192
  0
VERTEX
  5
E18
  8
0
 10
110.0654041072684
 20
-146.2481147345645
 30
-49.0580731462707
 70
   192
  0
VERTEX
  5
E19
  8
0
 10
110.0654041072399
 20
146.2481157328588
 30
-49.05807056432814
 70
   192
  0
VERTEX
  5
E1A
  8
0
 10
87.10695405347924
 20
-123.3665047517535
 30
-65.99030041369551
 70
   192
  0
VERTEX
  5
E1B
  8
0
 10
87.10695405344899
 20
123.3665035350892
 30
-65.99030523325511
 70
   192
  0
VERTEX
  5
E1C
  8
0
 10
63.54754768101544
 20
-99.3553646788539
 30
-81.45706382562268
 70
   192
  0
VERTEX
  5
E1D
  8
0
 10
63.54754768101547
 20
99.35536467885161
 30
-81.45706382562265
 70
   192
  0
VERTEX
  5
E1E
  8
0
 10
0.0
 20
0.0
 30
0.0
 70
   128
 71
     1
 72
     2
 73
     3
  0
VERTEX
  5
E1F
  8
0
 10
0.0
 20
0.0
 30
0.0
 70
   128
 71
     3
 72
     4
 73
     1
  0
VERTEX
  5
E20
  8
0
 10
0.0
 20
0.0
 30
0.0
 70
   128
 71
     4
 72
     5
 73
     1
  0
VERTEX
  5
E21
  8
0
 10
0.0
 20
0.0
 30
0.0
 70
   128
 71
     1
 72
     6
 73
     2
  0
VERTEX
  5
E22
  8
0
 10
0.0
 20
0.0
 30
0.0
 70
   128
 71
     6
 72
     7
 73
     2
  0
VERTEX
  5
E23
  8
0
 10
0.0
 20
0.0
 30
0.0
 70
   128
 71
     7
 72
     8
 73
     2
  0
VERTEX
  5
E24
  8
0
 10
0.0
 20
0.0
 30
0.0
 70
   128
 71
     9
 72
     1
 73
     5
  0
VERTEX
  5
E25
  8
0
 10
0.0
 20
0.0
 30
0.0
 70
   128
 71
    10
 72
     9
 73
     5
  0
VERTEX
  5
E26
  8
0
 10
0.0
 20
0.0
 30
0.0
 70
   128
 71
    11
 72
     9
 73
    10
  0
VERTEX
  5
E27
  8
0
 10
0.0
 20
0.0
 30
0.0
 70
   128
 71
    12
 72
    11
 73
    10
  0
VERTEX
  5
E28
  8
0
 10
0.0
 20
0.0
 30
0.0
 70
   128
 71
    13
 72
    11
 73
    12
  0
VERTEX
  5
E29
  8
0
 10
0.0
 20
0.0
 30
0.0
 70
   128
 71
    14
 72
    13
 73
    12
  0
SEQEND
  5
135E
  8
0
  0
POLYLINE
  5
E2A
  8
0
 66
     1
 10
0.0
 20
0.0
 30
0.0
 70
    64
 71
    14
 72
    12
  0
VERTEX
  5
E2B
  8
0
 10
55.38031806094357
 20
-91.03714215060074
 30
-86.31791205695279
 70
   192
  0
VERTEX
  5
E2C
  8
0
 10
63.54754768101544
 20
99.35536467885163
 30
-81.45706382562268
 70
   192
  0
VERTEX
  5
E2D
  8
0
 10
55.38031806094209
 20
91.03715430967334
 30
-86.31791329396746
 70
   192
  0
VERTEX
  5
E2E
  8
0
 10
63.54754768101546
 20
-99.35536467885389
 30
-81.4570638256226
 70
   192
  0
VERTEX
  5
E2F
  8
0
 10
47.04183251860363
 20
82.78241848614846
 30
-90.90455003988669
 70
   192
  0
VERTEX
  5
E30
  8
0
 10
38.57705128038373
 20
74.6640707519174
 30
-95.19312020999546
 70
   192
  0
VERTEX
  5
E31
  8
0
 10
38.57705128038273
 20
-74.66407075191756
 30
-95.19312020999595
 70
   192
  0
VERTEX
  5
E32
  8
0
 10
10.62350126183397
 20
46.04804508892846
 30
-106.9401861158295
 70
   192
  0
VERTEX
  5
E33
  8
0
 10
10.62350126183402
 20
-46.048045088929
 30
-106.9401861158295
 70
   192
  0
VERTEX
  5
E34
  8
0
 10
19.62180872748182
 20
-55.88390917277012
 30
-103.5446847576784
 70
   192
  0
VERTEX
  5
E35
  8
0
 10
19.62180872747764
 20
55.88391088647511
 30
-103.5446859197575
 70
   192
  0
VERTEX
  5
E36
  8
0
 10
47.04183251859951
 20
-82.7824350192164
 30
-90.90455525179497
 70
   192
  0
VERTEX
  5
E37
  8
0
 10
28.95587237881464
 20
-65.3837104450169
 30
-99.64143720044385
 70
   192
  0
VERTEX
  5
E38
  8
0
 10
28.95587237881363
 20
65.3837080610981
 30
-99.64143568970577
 70
   192
  0
VERTEX
  5
E39
  8
0
 10
0.0
 20
0.0
 30
0.0
 70
   128
 71
     1
 72
     2
 73
     3
  0
VERTEX
  5
E3A
  8
0
 10
0.0
 20
0.0
 30
0.0
 70
   128
 71
     1
 72
     4
 73
     2
  0
VERTEX
  5
E3B
  8
0
 10
0.0
 20
0.0
 30
0.0
 70
   128
 71
     5
 72
     6
 73
     7
  0
VERTEX
  5
E3C
  8
0
 10
0.0
 20
0.0
 30
0.0
 70
   128
 71
     8
 72
     9
 73
    10
  0
VERTEX
  5
E3D
  8
0
 10
0.0
 20
0.0
 30
0.0
 70
   128
 71
    11
 72
     8
 73
    10
  0
VERTEX
  5
E3E
  8
0
 10
0.0
 20
0.0
 30
0.0
 70
   128
 71
     5
 72
     7
 73
    12
  0
VERTEX
  5
E3F
  8
0
 10
0.0
 20
0.0
 30
0.0
 70
   128
 71
     3
 72
     5
 73
    12
  0
VERTEX
  5
E40
  8
0
 10
0.0
 20
0.0
 30
0.0
 70
   128
 71
    12
 72
     1
 73
     3
  0
VERTEX
  5
E41
  8
0
 10
0.0
 20
0.0
 30
0.0
 70
   128
 71
    13
 72
     7
 73
     6
  0
VERTEX
  5
E42
  8
0
 10
0.0
 20
0.0
 30
0.0
 70
   128
 71
    14
 72
    13
 73
     6
  0
VERTEX
  5
E43
  8
0
 10
0.0
 20
0.0
 30
0.0
 70
   128
 71
    10
 72
    13
 73
    14
  0
VERTEX
  5
E44
  8
0
 10
0.0
 20
0.0
 30
0.0
 70
   128
 71
    11
 72
    10
 73
    14
  0
SEQEND
  5
135F
  8
0
  0
POLYLINE
  5
E45
  8
0
 66
     1
 10
0.0
 20
0.0
 30
0.0
 70
    64
 71
    13
 72
    11
  0
VERTEX
  5
E46
  8
0
 10
-4.152683039762418
 20
7.553806524847267
 30
-111.3267451221752
 70
   192
  0
VERTEX
  5
E47
  8
0
 10
-3.093292638578327
 20
-0.0000000000001723
 30
-111.0704127420118
 70
   192
  0
VERTEX
  5
E48
  8
0
 10
-4.13690480575637
 20
29.25275618643658
 30
-111.3230333950497
 70
   192
  0
VERTEX
  5
E49
  8
0
 10
3.441552634883426
 20
37.85800513669668
 30
-109.2937314332747
 70
   192
  0
VERTEX
  5
E4A
  8
0
 10
3.441552040811579
 20
-37.85800446060704
 30
-109.2937316103496
 70
   192
  0
VERTEX
  5
E4B
  8
0
 10
10.62350126183398
 20
-46.04804508892897
 30
-106.9401861158295
 70
   192
  0
VERTEX
  5
E4C
  8
0
 10
10.62350126183396
 20
46.04804508892846
 30
-106.9401861158295
 70
   192
  0
VERTEX
  5
E4D
  8
0
 10
-4.149996913541325
 20
-7.544266934823418
 30
-111.3261024565444
 70
   192
  0
VERTEX
  5
E4E
  8
0
 10
-4.136906057736408
 20
-29.25275476811019
 30
-111.3230336929537
 70
   192
  0
VERTEX
  5
E4F
  8
0
 10
-11.93232597696811
 20
20.44545170063771
 30
-112.9452924501102
 70
   192
  0
VERTEX
  5
E50
  8
0
 10
-7.207236673636312
 20
14.52693827731244
 30
-112.0172622811321
 70
   192
  0
VERTEX
  5
E51
  8
0
 10
-7.199283196720251
 20
-14.51324654384805
 30
-112.0155358785111
 70
   192
  0
VERTEX
  5
E52
  8
0
 10
-11.93225912071507
 20
-20.44538674882131
 30
-112.9452805095955
 70
   192
  0
VERTEX
  5
E53
  8
0
 10
0.0
 20
0.0
 30
0.0
 70
   128
 71
     1
 72
     2
 73
     3
  0
VERTEX
  5
E54
  8
0
 10
0.0
 20
0.0
 30
0.0
 70
   128
 71
     4
 72
     5
 73
    -6
  0
VERTEX
  5
E55
  8
0
 10
0.0
 20
0.0
 30
0.0
 70
   128
 71
    -4
 72
     6
 73
     7
  0
VERTEX
  5
E56
  8
0
 10
0.0
 20
0.0
 30
0.0
 70
   128
 71
     4
 72
     3
 73
     2
  0
VERTEX
  5
E57
  8
0
 10
0.0
 20
0.0
 30
0.0
 70
   128
 71
     5
 72
     4
 73
     2
  0
VERTEX
  5
E58
  8
0
 10
0.0
 20
0.0
 30
0.0
 70
   128
 71
     8
 72
     9
 73
     5
  0
VERTEX
  5
E59
  8
0
 10
0.0
 20
0.0
 30
0.0
 70
   128
 71
     2
 72
     8
 73
     5
  0
VERTEX
  5
E5A
  8
0
 10
0.0
 20
0.0
 30
0.0
 70
   128
 71
     3
 72
    10
 73
    11
  0
VERTEX
  5
E5B
  8
0
 10
0.0
 20
0.0
 30
0.0
 70
   128
 71
    11
 72
     1
 73
     3
  0
VERTEX
  5
E5C
  8
0
 10
0.0
 20
0.0
 30
0.0
 70
   128
 71
     9
 72
     8
 73
    12
  0
VERTEX
  5
E5D
  8
0
 10
0.0
 20
0.0
 30
0.0
 70
   128
 71
    12
 72
    13
 73
     9
  0
SEQEND
  5
1360
  8
0
  0
POLYLINE
  5
E5E
  8
0
 66
     1
 10
0.0
 20
0.0
 30
0.0
 70
    64
 71
    11
 72
     9
  0
VERTEX
  5
E5F
  8
0
 10
-97.33609689328961
 20
4.269648784149741
 30
-114.7652316125784
 70
   192
  0
VERTEX
  5
E60
  8
0
 10
-64.46576932314072
 20
4.26964878414939
 30
-114.7652316125777
 70
   192
  0
VERTEX
  5
E61
  8
0
 10
-64.63660109212421
 20
2.851900813638601
 30
-114.7652316125777
 70
   192
  0
VERTEX
  5
E62
  8
0
 10
-64.73925759782543
 20
1.427592404964868
 30
-114.7652316125777
 70
   192
  0
VERTEX
  5
E63
  8
0
 10
-64.77350269189924
 20
-0.0000000000000073
 30
-114.7652316125777
 70
   192
  0
VERTEX
  5
E64
  8
0
 10
-64.73925759782546
 20
-1.427592404964291
 30
-114.7652316125777
 70
   192
  0
VERTEX
  5
E65
  8
0
 10
-64.63660109212432
 20
-2.851900813637422
 30
-114.7652316125777
 70
   192
  0
VERTEX
  5
E66
  8
0
 10
-64.46576932314096
 20
-4.269648784147631
 30
-114.7652316125782
 70
   192
  0
VERTEX
  5
E67
  8
0
 10
-97.33609689328961
 20
-4.269648784147287
 30
-114.7652316125784
 70
   192
  0
VERTEX
  5
E68
  8
0
 10
-97.33804863671803
 20
-4.269648784147287
 30
-114.7652316125777
 70
   192
  0
VERTEX
  5
E69
  8
0
 10
-97.33804863671803
 20
4.269648784149741
 30
-114.7652316125784
 70
   192
  0
VERTEX
  5
E6A
  8
0
 10
0.0
 20
0.0
 30
0.0
 70
   128
 71
     1
 72
    11
 73
   -10
  0
VERTEX
  5
E6B
  8
0
 10
0.0
 20
0.0
 30
0.0
 70
   128
 71
    -1
 72
    10
 73
    -9
  0
VERTEX
  5
E6C
  8
0
 10
0.0
 20
0.0
 30
0.0
 70
   128
 71
     3
 72
     2
 73
    -1
  0
VERTEX
  5
E6D
  8
0
 10
0.0
 20
0.0
 30
0.0
 70
   128
 71
    -1
 72
     4
 73
    -3
  0
VERTEX
  5
E6E
  8
0
 10
0.0
 20
0.0
 30
0.0
 70
   128
 71
    -1
 72
    -9
 73
    -5
  0
VERTEX
  5
E6F
  8
0
 10
0.0
 20
0.0
 30
0.0
 70
   128
 71
    -1
 72
     5
 73
    -4
  0
VERTEX
  5
E70
  8
0
 10
0.0
 20
0.0
 30
0.0
 70
   128
 71
    -9
 72
     6
 73
    -5
  0
VERTEX
  5
E71
  8
0
 10
0.0
 20
0.0
 30
0.0
 70
   128
 71
    -9
 72
     7
 73
    -6
  0
VERTEX
  5
E72
  8
0
 10
0.0
 20
0.0
 30
0.0
 70
   128
 71
     9
 72
     8
 73
    -7
  0
SEQEND
  5
1361
  8
0
  0
POLYLINE
  5
E73
  8
0
 66
     1
 10
0.0
 20
0.0
 30
0.0
 70
    64
 71
    20
 72
    18
  0
VERTEX
  5
E74
  8
0
 10
-108.9152518615887
 20
70.08568214480873
 30
-87.17432568930559
 70
   192
  0
VERTEX
  5
E75
  8
0
 10
-108.1171004933605
 20
48.97244264293533
 30
-96.29723757367593
 70
   192
  0
VERTEX
  5
E76
  8
0
 10
-107.5737027118535
 20
26.71685964516185
 30
-102.5083026375059
 70
   192
  0
VERTEX
  5
E77
  8
0
 10
-107.2999956176355
 20
3.930702085307131
 30
-105.6367890400543
 70
   192
  0
VERTEX
  5
E78
  8
0
 10
-107.2999956176355
 20
-3.930702085304593
 30
-105.6367890400543
 70
   192
  0
VERTEX
  5
E79
  8
0
 10
-107.5737027118534
 20
-26.71685964515926
 30
-102.508302637506
 70
   192
  0
VERTEX
  5
E7A
  8
0
 10
-108.1171004933604
 20
-48.97244264293254
 30
-96.29723757367626
 70
   192
  0
VERTEX
  5
E7B
  8
0
 10
-108.9152518615887
 20
-70.08568214480596
 30
-87.174325689306
 70
   192
  0
VERTEX
  5
E7C
  8
0
 10
-110.5252047919936
 20
-102.3196490450648
 30
-68.77247948979397
 70
   192
  0
VERTEX
  5
E7D
  8
0
 10
-112.3760274812716
 20
-132.9019393578602
 30
-47.61747934820767
 70
   192
  0
VERTEX
  5
E7E
  8
0
 10
-114.4470250324432
 20
-161.490598475065
 30
-23.94586901942482
 70
   192
  0
VERTEX
  5
E7F
  8
0
 10
-115.1332323278594
 20
-171.5137989959391
 30
-16.10248374228079
 70
   192
  0
VERTEX
  5
E80
  8
0
 10
-115.6913361047948
 20
-182.6010769858233
 30
-9.723328381539755
 70
   192
  0
VERTEX
  5
E81
  8
0
 10
-116.1045737922898
 20
-194.4194275597195
 30
-5.0
 70
   192
  0
VERTEX
  5
E82
  8
0
 10
-116.1045737922898
 20
194.4194275597175
 30
-5.0
 70
   192
  0
VERTEX
  5
E83
  8
0
 10
-115.6913361047948
 20
182.601076985823
 30
-9.723328381539805
 70
   192
  0
VERTEX
  5
E84
  8
0
 10
-115.1332323278594
 20
171.5137989959402
 30
-16.10248374228043
 70
   192
  0
VERTEX
  5
E85
  8
0
 10
-114.4470250324433
 20
161.4905984750674
 30
-23.94586901942366
 70
   192
  0
VERTEX
  5
E86
  8
0
 10
-112.3760274812717
 20
132.9019393578628
 30
-47.61747934820653
 70
   192
  0
VERTEX
  5
E87
  8
0
 10
-110.5252047919936
 20
102.3196490450673
 30
-68.77247948979317
 70
   192
  0
VERTEX
  5
E88
  8
0
 10
0.0
 20
0.0
 30
0.0
 70
   128
 71
    16
 72
    15
 73
   -14
  0
VERTEX
  5
E89
  8
0
 10
0.0
 20
0.0
 30
0.0
 70
   128
 71
   -14
 72
    17
 73
   -16
  0
VERTEX
  5
E8A
  8
0
 10
0.0
 20
0.0
 30
0.0
 70
   128
 71
   -14
 72
    18
 73
   -17
  0
VERTEX
  5
E8B
  8
0
 10
0.0
 20
0.0
 30
0.0
 70
   128
 71
   -14
 72
    19
 73
   -18
  0
VERTEX
  5
E8C
  8
0
 10
0.0
 20
0.0
 30
0.0
 70
   128
 71
   -14
 72
    20
 73
   -19
  0
VERTEX
  5
E8D
  8
0
 10
0.0
 20
0.0
 30
0.0
 70
   128
 71
     9
 72
     8
 73
    -7
  0
VERTEX
  5
E8E
  8
0
 10
0.0
 20
0.0
 30
0.0
 70
   128
 71
    -9
 72
     7
 73
    -6
  0
VERTEX
  5
E8F
  8
0
 10
0.0
 20
0.0
 30
0.0
 70
   128
 71
    -9
 72
     6
 73
    -5
  0
VERTEX
  5
E90
  8
0
 10
0.0
 20
0.0
 30
0.0
 70
   128
 71
    -9
 72
     5
 73
    -4
  0
VERTEX
  5
E91
  8
0
 10
0.0
 20
0.0
 30
0.0
 70
   128
 71
    -9
 72
     4
 73
    -3
  0
VERTEX
  5
E92
  8
0
 10
0.0
 20
0.0
 30
0.0
 70
   128
 71
    -9
 72
     3
 73
    -2
  0
VERTEX
  5
E93
  8
0
 10
0.0
 20
0.0
 30
0.0
 70
   128
 71
    -9
 72
     2
 73
    -1
  0
VERTEX
  5
E94
  8
0
 10
0.0
 20
0.0
 30
0.0
 70
   128
 71
    -9
 72
     1
 73
   -20
  0
VERTEX
  5
E95
  8
0
 10
0.0
 20
0.0
 30
0.0
 70
   128
 71
   -20
 72
    10
 73
    -9
  0
VERTEX
  5
E96
  8
0
 10
0.0
 20
0.0
 30
0.0
 70
   128
 71
   -20
 72
    11
 73
   -10
  0
VERTEX
  5
E97
  8
0
 10
0.0
 20
0.0
 30
0.0
 70
   128
 71
   -20
 72
    12
 73
   -11
  0
VERTEX
  5
E98
  8
0
 10
0.0
 20
0.0
 30
0.0
 70
   128
 71
   -20
 72
    13
 73
   -12
  0
VERTEX
  5
E99
  8
0
 10
0.0
 20
0.0
 30
0.0
 70
   128
 71
   -20
 72
    14
 73
   -13
  0
SEQEND
  5
1362
  8
0
  0
POLYLINE
  5
E9A
  8
0
 66
     1
 10
0.0
 20
0.0
 30
0.0
 70
    64
 71
    24
 72
    22
  0
VERTEX
  5
E9B
  8
0
 10
-220.0000000000029
 20
-274.9999999999975
 30
-50.00000000000327
 70
   192
  0
VERTEX
  5
E9C
  8
0
 10
219.9999999999988
 20
-275.0000000000022
 30
-49.99999999999866
 70
   192
  0
VERTEX
  5
E9D
  8
0
 10
224.9999999999984
 20
-273.6602540378462
 30
-49.99999999999861
 70
   192
  0
VERTEX
  5
E9E
  8
0
 10
228.6602540378423
 20
-270.0000000000019
 30
-49.99999999999856
 70
   192
  0
VERTEX
  5
E9F
  8
0
 10
229.9999999999978
 20
-265.0000000000022
 30
-49.99999999999851
 70
   192
  0
VERTEX
  5
EA0
  8
0
 10
230.0000000000033
 20
264.9999999999982
 30
-49.99999999999667
 70
   192
  0
VERTEX
  5
EA1
  8
0
 10
228.6602540378476
 20
269.999999999998
 30
-49.99999999999667
 70
   192
  0
VERTEX
  5
EA2
  8
0
 10
225.0000000000035
 20
273.6602540378422
 30
-49.9999999999967
 70
   192
  0
VERTEX
  5
EA3
  8
0
 10
220.0000000000038
 20
274.9999999999978
 30
-49.99999999999674
 70
   192
  0
VERTEX
  5
EA4
  8
0
 10
-219.9999999999971
 20
275.0000000000026
 30
-50.00000000000136
 70
   192
  0
VERTEX
  5
EA5
  8
0
 10
-224.9999999999983
 20
273.660254037846
 30
-50.00000000000141
 70
   192
  0
VERTEX
  5
EA6
  8
0
 10
-228.6602540378427
 20
269.9999999999997
 30
-50.00000000000147
 70
   192
  0
VERTEX
  5
EA7
  8
0
 10
-229.9999999999966
 20
265.0000000000026
 30
-50.0000000000015
 70
   192
  0
VERTEX
  5
EA8
  8
0
 10
209.9999999999978
 20
264.9999999999978
 30
-49.99999999999689
 70
   192
  0
VERTEX
  5
EA9
  8
0
 10
214.9999999999978
 20
263.6602540378422
 30
-49.99999999999684
 70
   192
  0
VERTEX
  5
EAA
  8
0
 10
218.6602540378422
 20
259.9999999999978
 30
-49.99999999999682
 70
   192
  0
VERTEX
  5
EAB
  8
0
 10
219.9999999999978
 20
254.9999999999978
 30
-49.99999999999681
 70
   192
  0
VERTEX
  5
EAC
  8
0
 10
219.9999999999978
 20
-255.0000000000026
 30
-49.99999999999859
 70
   192
  0
VERTEX
  5
EAD
  8
0
 10
218.660254037842
 20
-260.0000000000024
 30
-49.99999999999863
 70
   192
  0
VERTEX
  5
EAE
  8
0
 10
214.9999999999976
 20
-263.6602540378466
 30
-49.99999999999868
 70
   192
  0
VERTEX
  5
EAF
  8
0
 10
209.9999999999977
 20
-264.9999999997946
 30
-49.99999999999844
 70
   192
  0
VERTEX
  5
EB0
  8
0
 10
-230.0000000000022
 20
-265.0000000000022
 30
-50.00000000000334
 70
   192
  0
VERTEX
  5
EB1
  8
0
 10
-228.6602540378452
 20
-270.0000000000001
 30
-50.00000000000334
 70
   192
  0
VERTEX
  5
EB2
  8
0
 10
-225.0000000000013
 20
-273.6602540378424
 30
-50.00000000000332
 70
   192
  0
VERTEX
  5
EB3
  8
0
 10
0.0
 20
0.0
 30
0.0
 70
   128
 71
    14
 72
    13
 73
   -12
  0
VERTEX
  5
EB4
  8
0
 10
0.0
 20
0.0
 30
0.0
 70
   128
 71
   -14
 72
    12
 73
   -11
  0
VERTEX
  5
EB5
  8
0
 10
0.0
 20
0.0
 30
0.0
 70
   128
 71
   -14
 72
    11
 73
   -10
  0
VERTEX
  5
EB6
  8
0
 10
0.0
 20
0.0
 30
0.0
 70
   128
 71
   -14
 72
    10
 73
    -9
  0
VERTEX
  5
EB7
  8
0
 10
0.0
 20
0.0
 30
0.0
 70
   128
 71
    -9
 72
    15
 73
   -14
  0
VERTEX
  5
EB8
  8
0
 10
0.0
 20
0.0
 30
0.0
 70
   128
 71
     9
 72
    -8
 73
   -16
  0
VERTEX
  5
EB9
  8
0
 10
0.0
 20
0.0
 30
0.0
 70
   128
 71
    -9
 72
    16
 73
   -15
  0
VERTEX
  5
EBA
  8
0
 10
0.0
 20
0.0
 30
0.0
 70
   128
 71
    -8
 72
    17
 73
   -16
  0
VERTEX
  5
EBB
  8
0
 10
0.0
 20
0.0
 30
0.0
 70
   128
 71
     8
 72
     7
 73
    -6
  0
VERTEX
  5
EBC
  8
0
 10
0.0
 20
0.0
 30
0.0
 70
   128
 71
    -8
 72
     6
 73
    -5
  0
VERTEX
  5
EBD
  8
0
 10
0.0
 20
0.0
 30
0.0
 70
   128
 71
    -8
 72
    -5
 73
   -18
  0
VERTEX
  5
EBE
  8
0
 10
0.0
 20
0.0
 30
0.0
 70
   128
 71
    -8
 72
    18
 73
   -17
  0
VERTEX
  5
EBF
  8
0
 10
0.0
 20
0.0
 30
0.0
 70
   128
 71
    -5
 72
    19
 73
   -18
  0
VERTEX
  5
EC0
  8
0
 10
0.0
 20
0.0
 30
0.0
 70
   128
 71
     5
 72
    -4
 73
   -20
  0
VERTEX
  5
EC1
  8
0
 10
0.0
 20
0.0
 30
0.0
 70
   128
 71
    -5
 72
    20
 73
   -19
  0
VERTEX
  5
EC2
  8
0
 10
0.0
 20
0.0
 30
0.0
 70
   128
 71
    -4
 72
    21
 73
   -20
  0
VERTEX
  5
EC3
  8
0
 10
0.0
 20
0.0
 30
0.0
 70
   128
 71
     4
 72
     3
 73
    -2
  0
VERTEX
  5
EC4
  8
0
 10
0.0
 20
0.0
 30
0.0
 70
   128
 71
    -4
 72
     2
 73
    -1
  0
VERTEX
  5
EC5
  8
0
 10
0.0
 20
0.0
 30
0.0
 70
   128
 71
    -4
 72
     1
 73
   -24
  0
VERTEX
  5
EC6
  8
0
 10
0.0
 20
0.0
 30
0.0
 70
   128
 71
    -4
 72
    24
 73
   -23
  0
VERTEX
  5
EC7
  8
0
 10
0.0
 20
0.0
 30
0.0
 70
   128
 71
    -4
 72
    23
 73
   -22
  0
VERTEX
  5
EC8
  8
0
 10
0.0
 20
0.0
 30
0.0
 70
   128
 71
    -4
 72
    22
 73
   -21
  0
SEQEND
  5
1363
  8
0
  0
POLYLINE
  5
EC9
  8
0
 66
     1
 10
0.0
 20
0.0
 30
0.0
 70
    64
 71
     4
 72
     2
  0
VERTEX
  5
ECA
  8
0
 10
-230.0000000000022
 20
-265.0000000000022
 30
-50.00000000000333
 70
   192
  0
VERTEX
  5
ECB
  8
0
 10
209.9999999999977
 20
-265.0000000000022
 30
-49.99999999999859
 70
   192
  0
VERTEX
  5
ECC
  8
0
 10
209.9999999999975
 20
-265.0000000000022
 30
-29.99999999999872
 70
   192
  0
VERTEX
  5
ECD
  8
0
 10
-230.0000000000025
 20
-264.9999999999975
 30
-30.00000000000333
 70
   192
  0
VERTEX
  5
ECE
  8
0
 10
0.0
 20
0.0
 30
0.0
 70
   128
 71
     1
 72
     4
 73
    -3
  0
VERTEX
  5
ECF
  8
0
 10
0.0
 20
0.0
 30
0.0
 70
   128
 71
    -1
 72
     3
 73
     2
  0
SEQEND
  5
1364
  8
0
  0
POLYLINE
  5
ED0
  8
0
 66
     1
 10
0.0
 20
0.0
 30
0.0
 70
    64
 71
     8
 72
     6
  0
VERTEX
  5
ED1
  8
0
 10
214.9999999999974
 20
-263.6602540378467
 30
-29.99999999999867
 70
   192
  0
VERTEX
  5
ED2
  8
0
 10
218.6602540378418
 20
-260.0000000000024
 30
-29.99999999999862
 70
   192
  0
VERTEX
  5
ED3
  8
0
 10
218.660254037842
 20
-260.0000000000024
 30
-49.99999999999863
 70
   192
  0
VERTEX
  5
ED4
  8
0
 10
214.9999999999976
 20
-263.6602540378466
 30
-49.99999999999868
 70
   192
  0
VERTEX
  5
ED5
  8
0
 10
219.9999999999975
 20
-255.0000000000026
 30
-29.99999999999859
 70
   192
  0
VERTEX
  5
ED6
  8
0
 10
219.9999999999977
 20
-255.0000000000026
 30
-49.9999999999977
 70
   192
  0
VERTEX
  5
ED7
  8
0
 10
209.9999999999975
 20
-265.0000000000022
 30
-29.99999999999872
 70
   192
  0
VERTEX
  5
ED8
  8
0
 10
209.9999999999977
 20
-265.0000000000022
 30
-49.99999999999859
 70
   192
  0
VERTEX
  5
ED9
  8
0
 10
0.0
 20
0.0
 30
0.0
 70
   128
 71
     1
 72
     2
 73
    -3
  0
VERTEX
  5
EDA
  8
0
 10
0.0
 20
0.0
 30
0.0
 70
   128
 71
     4
 72
    -1
 73
     3
  0
VERTEX
  5
EDB
  8
0
 10
0.0
 20
0.0
 30
0.0
 70
   128
 71
     2
 72
     5
 73
    -6
  0
VERTEX
  5
EDC
  8
0
 10
0.0
 20
0.0
 30
0.0
 70
   128
 71
     3
 72
    -2
 73
     6
  0
VERTEX
  5
EDD
  8
0
 10
0.0
 20
0.0
 30
0.0
 70
   128
 71
     7
 72
     1
 73
    -4
  0
VERTEX
  5
EDE
  8
0
 10
0.0
 20
0.0
 30
0.0
 70
   128
 71
     8
 72
    -7
 73
     4
  0
SEQEND
  5
1365
  8
0
  0
POLYLINE
  5
EDF
  8
0
 66
     1
 10
0.0
 20
0.0
 30
0.0
 70
    64
 71
     4
 72
     2
  0
VERTEX
  5
EE0
  8
0
 10
219.9999999999978
 20
-255.0000000000026
 30
-49.99999999999859
 70
   192
  0
VERTEX
  5
EE1
  8
0
 10
219.9999999999978
 20
254.9999999999978
 30
-49.99999999999682
 70
   192
  0
VERTEX
  5
EE2
  8
0
 10
219.9999999999976
 20
254.9999999999978
 30
-29.99999999999681
 70
   192
  0
VERTEX
  5
EE3
  8
0
 10
219.9999999999975
 20
-255.0000000000026
 30
-29.99999999999858
 70
   192
  0
VERTEX
  5
EE4
  8
0
 10
0.0
 20
0.0
 30
0.0
 70
   128
 71
     1
 72
     4
 73
    -3
  0
VERTEX
  5
EE5
  8
0
 10
0.0
 20
0.0
 30
0.0
 70
   128
 71
    -1
 72
     3
 73
     2
  0
SEQEND
  5
1366
  8
0
  0
POLYLINE
  5
EE6
  8
0
 66
     1
 10
0.0
 20
0.0
 30
0.0
 70
    64
 71
     8
 72
     6
  0
VERTEX
  5
EE7
  8
0
 10
218.660254037842
 20
259.9999999999978
 30
-29.99999999999681
 70
   192
  0
VERTEX
  5
EE8
  8
0
 10
214.9999999999976
 20
263.6602540378422
 30
-29.99999999999683
 70
   192
  0
VERTEX
  5
EE9
  8
0
 10
214.9999999999978
 20
263.6602540378422
 30
-49.99999999999684
 70
   192
  0
VERTEX
  5
EEA
  8
0
 10
218.6602540378422
 20
259.9999999999978
 30
-49.99999999999682
 70
   192
  0
VERTEX
  5
EEB
  8
0
 10
209.9999999999976
 20
264.9999999999978
 30
-29.99999999999688
 70
   192
  0
VERTEX
  5
EEC
  8
0
 10
209.9999999999978
 20
264.9999999999978
 30
-49.99999999999918
 70
   192
  0
VERTEX
  5
EED
  8
0
 10
219.9999999999976
 20
254.9999999999978
 30
-29.99999999999681
 70
   192
  0
VERTEX
  5
EEE
  8
0
 10
219.9999999999978
 20
254.9999999999978
 30
-49.99999999999682
 70
   192
  0
VERTEX
  5
EEF
  8
0
 10
0.0
 20
0.0
 30
0.0
 70
   128
 71
     1
 72
     2
 73
    -3
  0
VERTEX
  5
EF0
  8
0
 10
0.0
 20
0.0
 30
0.0
 70
   128
 71
     4
 72
    -1
 73
     3
  0
VERTEX
  5
EF1
  8
0
 10
0.0
 20
0.0
 30
0.0
 70
   128
 71
     2
 72
     5
 73
    -6
  0
VERTEX
  5
EF2
  8
0
 10
0.0
 20
0.0
 30
0.0
 70
   128
 71
     3
 72
    -2
 73
     6
  0
VERTEX
  5
EF3
  8
0
 10
0.0
 20
0.0
 30
0.0
 70
   128
 71
     7
 72
     1
 73
    -4
  0
VERTEX
  5
EF4
  8
0
 10
0.0
 20
0.0
 30
0.0
 70
   128
 71
     8
 72
    -7
 73
     4
  0
SEQEND
  5
1367
  8
0
  0
POLYLINE
  5
EF5
  8
0
 66
     1
 10
0.0
 20
0.0
 30
0.0
 70
    64
 71
     4
 72
     2
  0
VERTEX
  5
EF6
  8
0
 10
209.9999999999978
 20
264.9999999999978
 30
-49.99999999999687
 70
   192
  0
VERTEX
  5
EF7
  8
0
 10
-229.9999999999967
 20
265.0000000000027
 30
-50.00000000000148
 70
   192
  0
VERTEX
  5
EF8
  8
0
 10
-229.9999999999969
 20
264.9999999999978
 30
-30.00000000000149
 70
   192
  0
VERTEX
  5
EF9
  8
0
 10
209.9999999999976
 20
264.9999999999978
 30
-29.99999999999689
 70
   192
  0
VERTEX
  5
EFA
  8
0
 10
0.0
 20
0.0
 30
0.0
 70
   128
 71
     1
 72
     4
 73
    -3
  0
VERTEX
  5
EFB
  8
0
 10
0.0
 20
0.0
 30
0.0
 70
   128
 71
    -1
 72
     3
 73
     2
  0
SEQEND
  5
1368
  8
0
  0
POLYLINE
  5
EFC
  8
0
 66
     1
 10
0.0
 20
0.0
 30
0.0
 70
    64
 71
    20
 72
    18
  0
VERTEX
  5
EFD
  8
0
 10
-230.0000000000019
 20
-208.5000000000022
 30
-30.00000000000313
 70
   192
  0
VERTEX
  5
EFE
  8
0
 10
153.4999999999975
 20
-208.5000000000022
 30
-29.99999999999912
 70
   192
  0
VERTEX
  5
EFF
  8
0
 10
158.4999999999975
 20
-207.1602540378466
 30
-29.99999999999906
 70
   192
  0
VERTEX
  5
F00
  8
0
 10
162.1602540378419
 20
-203.5000000000022
 30
-29.99999999999901
 70
   192
  0
VERTEX
  5
F01
  8
0
 10
163.4999999999975
 20
-198.5000000000022
 30
-29.99999999999898
 70
   192
  0
VERTEX
  5
F02
  8
0
 10
163.4999999999975
 20
198.4999999999978
 30
-29.99999999999758
 70
   192
  0
VERTEX
  5
F03
  8
0
 10
162.160254037842
 20
203.4999999999977
 30
-29.99999999999759
 70
   192
  0
VERTEX
  5
F04
  8
0
 10
158.4999999999976
 20
207.1602540378421
 30
-29.99999999999761
 70
   192
  0
VERTEX
  5
F05
  8
0
 10
153.4999999999977
 20
208.4999999999978
 30
-29.99999999999766
 70
   192
  0
VERTEX
  5
F06
  8
0
 10
-229.9999999999975
 20
208.4999999999979
 30
-30.00000000000169
 70
   192
  0
VERTEX
  5
F07
  8
0
 10
-229.9999999999969
 20
264.9999999999978
 30
-30.00000000000149
 70
   192
  0
VERTEX
  5
F08
  8
0
 10
209.9999999999976
 20
265.0000000002005
 30
-29.99999999999688
 70
   192
  0
VERTEX
  5
F09
  8
0
 10
214.9999999999976
 20
263.6602540378422
 30
-29.99999999999683
 70
   192
  0
VERTEX
  5
F0A
  8
0
 10
218.660254037842
 20
259.9999999999978
 30
-29.99999999999681
 70
   192
  0
VERTEX
  5
F0B
  8
0
 10
219.9999999999976
 20
254.9999999999978
 30
-29.99999999999681
 70
   192
  0
VERTEX
  5
F0C
  8
0
 10
219.9999999999976
 20
-255.0000000000026
 30
-29.99999999999858
 70
   192
  0
VERTEX
  5
F0D
  8
0
 10
218.6602540378418
 20
-260.0000000000024
 30
-29.99999999999862
 70
   192
  0
VERTEX
  5
F0E
  8
0
 10
214.9999999999974
 20
-263.6602540378467
 30
-29.99999999999867
 70
   192
  0
VERTEX
  5
F0F
  8
0
 10
209.9999999999975
 20
-265.0000000000022
 30
-29.99999999999873
 70
   192
  0
VERTEX
  5
F10
  8
0
 10
-230.0000000000024
 20
-264.9999999999974
 30
-30.00000000000333
 70
   192
  0
VERTEX
  5
F11
  8
0
 10
0.0
 20
0.0
 30
0.0
 70
   128
 71
    20
 72
     1
 73
    -2
  0
VERTEX
  5
F12
  8
0
 10
0.0
 20
0.0
 30
0.0
 70
   128
 71
    19
 72
   -20
 73
    -2
  0
VERTEX
  5
F13
  8
0
 10
0.0
 20
0.0
 30
0.0
 70
   128
 71
     2
 72
    -3
 73
   -19
  0
VERTEX
  5
F14
  8
0
 10
0.0
 20
0.0
 30
0.0
 70
   128
 71
     3
 72
    -4
 73
   -19
  0
VERTEX
  5
F15
  8
0
 10
0.0
 20
0.0
 30
0.0
 70
   128
 71
     4
 72
    -5
 73
   -19
  0
VERTEX
  5
F16
  8
0
 10
0.0
 20
0.0
 30
0.0
 70
   128
 71
    17
 72
    18
 73
   -19
  0
VERTEX
  5
F17
  8
0
 10
0.0
 20
0.0
 30
0.0
 70
   128
 71
    16
 72
   -17
 73
   -19
  0
VERTEX
  5
F18
  8
0
 10
0.0
 20
0.0
 30
0.0
 70
   128
 71
    15
 72
   -16
 73
   -19
  0
VERTEX
  5
F19
  8
0
 10
0.0
 20
0.0
 30
0.0
 70
   128
 71
    -6
 72
   -15
 73
   -19
  0
VERTEX
  5
F1A
  8
0
 10
0.0
 20
0.0
 30
0.0
 70
   128
 71
     5
 72
    -6
 73
   -19
  0
VERTEX
  5
F1B
  8
0
 10
0.0
 20
0.0
 30
0.0
 70
   128
 71
     6
 72
    -7
 73
   -15
  0
VERTEX
  5
F1C
  8
0
 10
0.0
 20
0.0
 30
0.0
 70
   128
 71
     7
 72
    -8
 73
   -15
  0
VERTEX
  5
F1D
  8
0
 10
0.0
 20
0.0
 30
0.0
 70
   128
 71
     8
 72
    -9
 73
   -15
  0
VERTEX
  5
F1E
  8
0
 10
0.0
 20
0.0
 30
0.0
 70
   128
 71
    13
 72
    14
 73
   -15
  0
VERTEX
  5
F1F
  8
0
 10
0.0
 20
0.0
 30
0.0
 70
   128
 71
    12
 72
   -13
 73
   -15
  0
VERTEX
  5
F20
  8
0
 10
0.0
 20
0.0
 30
0.0
 70
   128
 71
    11
 72
   -12
 73
   -15
  0
VERTEX
  5
F21
  8
0
 10
0.0
 20
0.0
 30
0.0
 70
   128
 71
    10
 72
   -11
 73
   -15
  0
VERTEX
  5
F22
  8
0
 10
0.0
 20
0.0
 30
0.0
 70
   128
 71
     9
 72
   -10
 73
   -15
  0
SEQEND
  5
1369
  8
0
  0
POLYLINE
  5
F23
  8
0
 66
     1
 10
0.0
 20
0.0
 30
0.0
 70
    64
 71
    10
 72
     8
  0
VERTEX
  5
F24
  8
0
 10
63.2079059510397
 20
-194.9581303522486
 30
-115.4999999999982
 70
   192
  0
VERTEX
  5
F25
  8
0
 10
68.89279795770001
 20
-195.9825119679866
 30
-109.0323090220263
 70
   192
  0
VERTEX
  5
F26
  8
0
 10
74.0091400608669
 20
-197.0826640517322
 30
-102.0862221369044
 70
   192
  0
VERTEX
  5
F27
  8
0
 10
78.49999999999477
 20
-198.2463446259536
 30
-94.73903214881608
 70
   192
  0
VERTEX
  5
F28
  8
0
 10
163.4787150582558
 20
-199.152108722602
 30
-89.02026271166865
 70
   192
  0
VERTEX
  5
F29
  8
0
 10
161.9934621209452
 20
-203.7783616018657
 30
-59.81125158794971
 70
   192
  0
VERTEX
  5
F2A
  8
0
 10
158.2132605665279
 20
-207.3195904004694
 30
-37.45281289697216
 70
   192
  0
VERTEX
  5
F2B
  8
0
 10
153.4999999999975
 20
-208.5000000000062
 30
-29.99999999999913
 70
   192
  0
VERTEX
  5
F2C
  8
0
 10
-230.0000000000019
 20
-208.5000000000022
 30
-30.00000000000313
 70
   192
  0
VERTEX
  5
F2D
  8
0
 10
-230.0000000000009
 20
-194.9581303522452
 30
-115.5000000000013
 70
   192
  0
VERTEX
  5
F2E
  8
0
 10
0.0
 20
0.0
 30
0.0
 70
   128
 71
    10
 72
     1
 73
    -2
  0
VERTEX
  5
F2F
  8
0
 10
0.0
 20
0.0
 30
0.0
 70
   128
 71
     2
 72
    -3
 73
   -10
  0
VERTEX
  5
F30
  8
0
 10
0.0
 20
0.0
 30
0.0
 70
   128
 71
     3
 72
    -4
 73
   -10
  0
VERTEX
  5
F31
  8
0
 10
0.0
 20
0.0
 30
0.0
 70
   128
 71
     9
 72
   -10
 73
    -4
  0
VERTEX
  5
F32
  8
0
 10
0.0
 20
0.0
 30
0.0
 70
   128
 71
     8
 72
    -9
 73
    -4
  0
VERTEX
  5
F33
  8
0
 10
0.0
 20
0.0
 30
0.0
 70
   128
 71
     6
 72
     7
 73
    -8
  0
VERTEX
  5
F34
  8
0
 10
0.0
 20
0.0
 30
0.0
 70
   128
 71
     5
 72
    -6
 73
    -8
  0
VERTEX
  5
F35
  8
0
 10
0.0
 20
0.0
 30
0.0
 70
   128
 71
     4
 72
    -5
 73
    -8
  0
SEQEND
  5
136A
  8
0
  0
POLYLINE
  5
F36
  8
0
 66
     1
 10
0.0
 20
0.0
 30
0.0
 70
    64
 71
     8
 72
     6
  0
VERTEX
  5
F37
  8
0
 10
63.20790595104064
 20
-59.29616596866924
 30
-115.4999999999967
 70
   192
  0
VERTEX
  5
F38
  8
0
 10
63.2079059510397
 20
-194.9581303522486
 30
-115.4999999999981
 70
   192
  0
VERTEX
  5
F39
  8
0
 10
-230.0000000000009
 20
-194.9581303522452
 30
-115.5000000000014
 70
   192
  0
VERTEX
  5
F3A
  8
0
 10
-229.9999999999999
 20
-104.9581303522452
 30
-115.5000000000014
 70
   192
  0
VERTEX
  5
F3B
  8
0
 10
-204.999999999998
 20
-104.9581303522454
 30
-115.5000000000012
 70
   192
  0
VERTEX
  5
F3C
  8
0
 10
-205.0000000000005
 20
-159.9999999999998
 30
-115.5000000000011
 70
   192
  0
VERTEX
  5
F3D
  8
0
 10
-119.9999999999979
 20
-142.4999999999995
 30
-115.5000000000002
 70
   192
  0
VERTEX
  5
F3E
  8
0
 10
-119.9999999999979
 20
-59.29616596866737
 30
-115.5000000000003
 70
   192
  0
VERTEX
  5
F3F
  8
0
 10
0.0
 20
0.0
 30
0.0
 70
   128
 71
     4
 72
     5
 73
    -6
  0
VERTEX
  5
F40
  8
0
 10
0.0
 20
0.0
 30
0.0
 70
   128
 71
     3
 72
    -4
 73
    -6
  0
VERTEX
  5
F41
  8
0
 10
0.0
 20
0.0
 30
0.0
 70
   128
 71
     6
 72
    -7
 73
    -3
  0
VERTEX
  5
F42
  8
0
 10
0.0
 20
0.0
 30
0.0
 70
   128
 71
     2
 72
    -3
 73
    -7
  0
VERTEX
  5
F43
  8
0
 10
0.0
 20
0.0
 30
0.0
 70
   128
 71
     8
 72
     1
 73
    -2
  0
VERTEX
  5
F44
  8
0
 10
0.0
 20
0.0
 30
0.0
 70
   128
 71
     7
 72
    -8
 73
    -2
  0
SEQEND
  5
136B
  8
0
  0
POLYLINE
  5
F45
  8
0
 66
     1
 10
0.0
 20
0.0
 30
0.0
 70
    64
 71
     4
 72
     2
  0
VERTEX
  5
F46
  8
0
 10
-204.999999999998
 20
-104.9581303522454
 30
-115.5000000000012
 70
   192
  0
VERTEX
  5
F47
  8
0
 10
-229.9999999999999
 20
-104.9581303522452
 30
-115.5000000000014
 70
   192
  0
VERTEX
  5
F48
  8
0
 10
-230.0000000000003
 20
-101.8085384653121
 30
-79.50000000000142
 70
   192
  0
VERTEX
  5
F49
  8
0
 10
-204.9999999999983
 20
-101.8085384653123
 30
-79.50000000000112
 70
   192
  0
VERTEX
  5
F4A
  8
0
 10
0.0
 20
0.0
 30
0.0
 70
   128
 71
     3
 72
     4
 73
    -1
  0
VERTEX
  5
F4B
  8
0
 10
0.0
 20
0.0
 30
0.0
 70
   128
 71
     2
 72
    -3
 73
     1
  0
SEQEND
  5
136C
  8
0
  0
POLYLINE
  5
F4C
  8
0
 66
     1
 10
0.0
 20
0.0
 30
0.0
 70
    64
 71
     4
 72
     2
  0
VERTEX
  5
F4D
  8
0
 10
-204.9999999999983
 20
-101.8085384653123
 30
-79.50000000000112
 70
   192
  0
VERTEX
  5
F4E
  8
0
 10
-230.0000000000002
 20
-101.8085384653121
 30
-79.50000000000138
 70
   192
  0
VERTEX
  5
F4F
  8
0
 10
-229.9999999999981
 20
101.8085384653168
 30
-79.50000000000142
 70
   192
  0
VERTEX
  5
F50
  8
0
 10
-204.9999999999984
 20
101.8085384653166
 30
-79.50000000000115
 70
   192
  0
VERTEX
  5
F51
  8
0
 10
0.0
 20
0.0
 30
0.0
 70
   128
 71
     3
 72
     4
 73
    -1
  0
VERTEX
  5
F52
  8
0
 10
0.0
 20
0.0
 30
0.0
 70
   128
 71
     2
 72
    -3
 73
     1
  0
SEQEND
  5
136D
  8
0
  0
POLYLINE
  5
F53
  8
0
 66
     1
 10
0.0
 20
0.0
 30
0.0
 70
    64
 71
     4
 72
     2
  0
VERTEX
  5
F54
  8
0
 10
-204.9999999999984
 20
101.8085384653166
 30
-79.50000000000115
 70
   192
  0
VERTEX
  5
F55
  8
0
 10
-229.9999999999982
 20
101.8085384653169
 30
-79.5000000000014
 70
   192
  0
VERTEX
  5
F56
  8
0
 10
-229.9999999999978
 20
104.95813035225
 30
-115.5000000000014
 70
   192
  0
VERTEX
  5
F57
  8
0
 10
-204.999999999998
 20
104.9581303522497
 30
-115.5000000000012
 70
   192
  0
VERTEX
  5
F58
  8
0
 10
0.0
 20
0.0
 30
0.0
 70
   128
 71
     3
 72
     4
 73
    -1
  0
VERTEX
  5
F59
  8
0
 10
0.0
 20
0.0
 30
0.0
 70
   128
 71
     2
 72
    -3
 73
     1
  0
SEQEND
  5
136E
  8
0
  0
POLYLINE
  5
F5A
  8
0
 66
     1
 10
0.0
 20
0.0
 30
0.0
 70
    64
 71
     8
 72
     6
  0
VERTEX
  5
F5B
  8
0
 10
63.20790595104228
 20
194.95813035225
 30
-115.4999999999942
 70
   192
  0
VERTEX
  5
F5C
  8
0
 10
63.20790595104132
 20
58.00460933393251
 30
-115.4999999999956
 70
   192
  0
VERTEX
  5
F5D
  8
0
 10
-119.9999999999979
 20
58.00460933393448
 30
-115.5000000000003
 70
   192
  0
VERTEX
  5
F5E
  8
0
 10
-119.9999999999979
 20
142.5000000000004
 30
-115.5000000000003
 70
   192
  0
VERTEX
  5
F5F
  8
0
 10
-204.9999999999989
 20
160.0000000000006
 30
-115.5000000000012
 70
   192
  0
VERTEX
  5
F60
  8
0
 10
-204.9999999999978
 20
104.9581303522497
 30
-115.5000000000012
 70
   192
  0
VERTEX
  5
F61
  8
0
 10
-229.9999999999977
 20
104.95813035225
 30
-115.5000000000014
 70
   192
  0
VERTEX
  5
F62
  8
0
 10
-229.9999999999969
 20
194.95813035225
 30
-115.5000000000014
 70
   192
  0
VERTEX
  5
F63
  8
0
 10
0.0
 20
0.0
 30
0.0
 70
   128
 71
     2
 72
     3
 73
    -4
  0
VERTEX
  5
F64
  8
0
 10
0.0
 20
0.0
 30
0.0
 70
   128
 71
     1
 72
    -2
 73
    -4
  0
VERTEX
  5
F65
  8
0
 10
0.0
 20
0.0
 30
0.0
 70
   128
 71
    -4
 72
     8
 73
    -1
  0
VERTEX
  5
F66
  8
0
 10
0.0
 20
0.0
 30
0.0
 70
   128
 71
     4
 72
    -5
 73
    -8
  0
VERTEX
  5
F67
  8
0
 10
0.0
 20
0.0
 30
0.0
 70
   128
 71
     6
 72
     7
 73
    -8
  0
VERTEX
  5
F68
  8
0
 10
0.0
 20
0.0
 30
0.0
 70
   128
 71
     5
 72
    -6
 73
    -8
  0
SEQEND
  5
136F
  8
0
  0
POLYLINE
  5
F69
  8
0
 66
     1
 10
0.0
 20
0.0
 30
0.0
 70
    64
 71
    10
 72
     8
  0
VERTEX
  5
F6A
  8
0
 10
153.4999999999977
 20
208.4999999999938
 30
-29.99999999999767
 70
   192
  0
VERTEX
  5
F6B
  8
0
 10
158.2132605665278
 20
207.3195904004625
 30
-37.4528128969753
 70
   192
  0
VERTEX
  5
F6C
  8
0
 10
161.9934621209451
 20
203.7783616018618
 30
-59.81125158795049
 70
   192
  0
VERTEX
  5
F6D
  8
0
 10
163.4787150582562
 20
199.1521087225992
 30
-89.02026271166464
 70
   192
  0
VERTEX
  5
F6E
  8
0
 10
78.49999999999795
 20
198.2463446259526
 30
-94.7390321488119
 70
   192
  0
VERTEX
  5
F6F
  8
0
 10
74.0091400608696
 20
197.0826640517313
 30
-102.0862221369003
 70
   192
  0
VERTEX
  5
F70
  8
0
 10
68.8927979577027
 20
195.9825119679864
 30
-109.0323090220222
 70
   192
  0
VERTEX
  5
F71
  8
0
 10
63.20790595104228
 20
194.95813035225
 30
-115.4999999999942
 70
   192
  0
VERTEX
  5
F72
  8
0
 10
-229.9999999999968
 20
194.95813035225
 30
-115.5000000000014
 70
   192
  0
VERTEX
  5
F73
  8
0
 10
-229.9999999999975
 20
208.4999999999978
 30
-30.00000000000169
 70
   192
  0
VERTEX
  5
F74
  8
0
 10
0.0
 20
0.0
 30
0.0
 70
   128
 71
     3
 72
     4
 73
    -5
  0
VERTEX
  5
F75
  8
0
 10
0.0
 20
0.0
 30
0.0
 70
   128
 71
     2
 72
    -3
 73
    -5
  0
VERTEX
  5
F76
  8
0
 10
0.0
 20
0.0
 30
0.0
 70
   128
 71
     1
 72
    -2
 73
    -5
  0
VERTEX
  5
F77
  8
0
 10
0.0
 20
0.0
 30
0.0
 70
   128
 71
    10
 72
    -1
 73
    -5
  0
VERTEX
  5
F78
  8
0
 10
0.0
 20
0.0
 30
0.0
 70
   128
 71
     5
 72
    -6
 73
   -10
  0
VERTEX
  5
F79
  8
0
 10
0.0
 20
0.0
 30
0.0
 70
   128
 71
     6
 72
    -7
 73
   -10
  0
VERTEX
  5
F7A
  8
0
 10
0.0
 20
0.0
 30
0.0
 70
   128
 71
     8
 72
     9
 73
   -10
  0
VERTEX
  5
F7B
  8
0
 10
0.0
 20
0.0
 30
0.0
 70
   128
 71
     7
 72
    -8
 73
   -10
  0
SEQEND
  5
1370
  8
0
  0
POLYLINE
  5
F7C
  8
0
 66
     1
 10
0.0
 20
0.0
 30
0.0
 70
    64
 71
    20
 72
    22
  0
VERTEX
  5
F7D
  8
0
 10
-204.9999999999979
 20
-159.9999999999996
 30
-115.5000000000012
 70
   192
  0
VERTEX
  5
F7E
  8
0
 10
-204.9999999999989
 20
-159.9999999999999
 30
-20.00000000000271
 70
   192
  0
VERTEX
  5
F7F
  8
0
 10
-204.9999999999989
 20
160.0000000000001
 30
-20.0000000000016
 70
   192
  0
VERTEX
  5
F80
  8
0
 10
-204.9999999999972
 20
160.0000000000006
 30
-115.5000000000012
 70
   192
  0
VERTEX
  5
F81
  8
0
 10
-204.9999999999977
 20
104.9581303522497
 30
-115.5000000000012
 70
   192
  0
VERTEX
  5
F82
  8
0
 10
-204.9999999999981
 20
101.8085384653166
 30
-79.50000000000115
 70
   192
  0
VERTEX
  5
F83
  8
0
 10
-205.0000000000003
 20
-101.8085384653123
 30
-79.50000000000112
 70
   192
  0
VERTEX
  5
F84
  8
0
 10
-204.9999999999999
 20
-104.9581303522455
 30
-115.5000000000012
 70
   192
  0
VERTEX
  5
F85
  8
0
 10
-205.0000000000018
 20
-142.4999999999985
 30
-50.00000000000145
 70
   192
  0
VERTEX
  5
F86
  8
0
 10
-205.0000000000016
 20
-135.4999999999982
 30
-60.00000000000134
 70
   192
  0
VERTEX
  5
F87
  8
0
 10
-205.0000000000013
 20
-114.4999999999978
 30
-60.00000000000123
 70
   192
  0
VERTEX
  5
F88
  8
0
 10
-205.0000000000014
 20
-107.4999999999976
 30
-50.00000000000126
 70
   192
  0
VERTEX
  5
F89
  8
0
 10
-205.0000000000015
 20
-114.4999999999979
 30
-40.00000000000127
 70
   192
  0
VERTEX
  5
F8A
  8
0
 10
-205.0000000000018
 20
-135.4999999999985
 30
-40.00000000000139
 70
   192
  0
VERTEX
  5
F8B
  8
0
 10
-204.9999999999988
 20
142.5000000000019
 30
-50.00000000000142
 70
   192
  0
VERTEX
  5
F8C
  8
0
 10
-204.9999999999989
 20
135.500000000002
 30
-40.00000000000135
 70
   192
  0
VERTEX
  5
F8D
  8
0
 10
-204.9999999999991
 20
114.5000000000019
 30
-40.00000000000127
 70
   192
  0
VERTEX
  5
F8E
  8
0
 10
-204.9999999999991
 20
107.5000000000019
 30
-50.00000000000129
 70
   192
  0
VERTEX
  5
F8F
  8
0
 10
-204.9999999999989
 20
114.5000000000019
 30
-60.00000000000129
 70
   192
  0
VERTEX
  5
F90
  8
0
 10
-204.9999999999988
 20
135.5000000000018
 30
-60.00000000000136
 70
   192
  0
VERTEX
  5
F91
  8
0
 10
0.0
 20
0.0
 30
0.0
 70
   128
 71
    -9
 72
     2
 73
    -1
  0
VERTEX
  5
F92
  8
0
 10
0.0
 20
0.0
 30
0.0
 70
   128
 71
    -1
 72
    10
 73
    -9
  0
VERTEX
  5
F93
  8
0
 10
0.0
 20
0.0
 30
0.0
 70
   128
 71
     1
 72
     8
 73
    -7
  0
VERTEX
  5
F94
  8
0
 10
0.0
 20
0.0
 30
0.0
 70
   128
 71
    -1
 72
    -7
 73
   -11
  0
VERTEX
  5
F95
  8
0
 10
0.0
 20
0.0
 30
0.0
 70
   128
 71
    -1
 72
    11
 73
   -10
  0
VERTEX
  5
F96
  8
0
 10
0.0
 20
0.0
 30
0.0
 70
   128
 71
     7
 72
    -6
 73
   -12
  0
VERTEX
  5
F97
  8
0
 10
0.0
 20
0.0
 30
0.0
 70
   128
 71
    -7
 72
    12
 73
   -11
  0
VERTEX
  5
F98
  8
0
 10
0.0
 20
0.0
 30
0.0
 70
   128
 71
    -6
 72
    13
 73
   -12
  0
VERTEX
  5
F99
  8
0
 10
0.0
 20
0.0
 30
0.0
 70
   128
 71
     6
 72
     5
 73
    -4
  0
VERTEX
  5
F9A
  8
0
 10
0.0
 20
0.0
 30
0.0
 70
   128
 71
    16
 72
   -15
 73
    -3
  0
VERTEX
  5
F9B
  8
0
 10
0.0
 20
0.0
 30
0.0
 70
   128
 71
    -3
 72
    17
 73
   -16
  0
VERTEX
  5
F9C
  8
0
 10
0.0
 20
0.0
 30
0.0
 70
   128
 71
   -17
 72
     3
 73
    -2
  0
VERTEX
  5
F9D
  8
0
 10
0.0
 20
0.0
 30
0.0
 70
   128
 71
    -2
 72
    18
 73
   -17
  0
VERTEX
  5
F9E
  8
0
 10
0.0
 20
0.0
 30
0.0
 70
   128
 71
    -2
 72
   -13
 73
    -6
  0
VERTEX
  5
F9F
  8
0
 10
0.0
 20
0.0
 30
0.0
 70
   128
 71
    -2
 72
    -6
 73
   -18
  0
VERTEX
  5
FA0
  8
0
 10
0.0
 20
0.0
 30
0.0
 70
   128
 71
    -6
 72
    19
 73
   -18
  0
VERTEX
  5
FA1
  8
0
 10
0.0
 20
0.0
 30
0.0
 70
   128
 71
    -6
 72
    -4
 73
   -20
  0
VERTEX
  5
FA2
  8
0
 10
0.0
 20
0.0
 30
0.0
 70
   128
 71
    -6
 72
    20
 73
   -19
  0
VERTEX
  5
FA3
  8
0
 10
0.0
 20
0.0
 30
0.0
 70
   128
 71
    -4
 72
    15
 73
   -20
  0
VERTEX
  5
FA4
  8
0
 10
0.0
 20
0.0
 30
0.0
 70
   128
 71
     4
 72
    -3
 73
   -15
  0
VERTEX
  5
FA5
  8
0
 10
0.0
 20
0.0
 30
0.0
 70
   128
 71
    -2
 72
    14
 73
   -13
  0
VERTEX
  5
FA6
  8
0
 10
0.0
 20
0.0
 30
0.0
 70
   128
 71
    -2
 72
     9
 73
   -14
  0
SEQEND
  5
1371
  8
0
  0
POLYLINE
  5
FA7
  8
0
 66
     1
 10
0.0
 20
0.0
 30
0.0
 70
    64
 71
     4
 72
     2
  0
VERTEX
  5
FA8
  8
0
 10
-119.9999999999989
 20
-142.4999999999999
 30
-20.00000000000177
 70
   192
  0
VERTEX
  5
FA9
  8
0
 10
-204.9999999999989
 20
-159.9999999999999
 30
-20.00000000000271
 70
   192
  0
VERTEX
  5
FAA
  8
0
 10
-204.9999999999989
 20
-159.9999999999998
 30
-115.5000000000011
 70
   192
  0
VERTEX
  5
FAB
  8
0
 10
-119.9999999999979
 20
-142.4999999999996
 30
-115.5000000000003
 70
   192
  0
VERTEX
  5
FAC
  8
0
 10
0.0
 20
0.0
 30
0.0
 70
   128
 71
     1
 72
     4
 73
    -3
  0
VERTEX
  5
FAD
  8
0
 10
0.0
 20
0.0
 30
0.0
 70
   128
 71
    -1
 72
     3
 73
     2
  0
SEQEND
  5
1372
  8
0
  0
POLYLINE
  5
FAE
  8
0
 66
     1
 10
0.0
 20
0.0
 30
0.0
 70
    64
 71
    16
 72
    16
  0
VERTEX
  5
FAF
  8
0
 10
-204.9999999999989
 20
-159.9999999999999
 30
-20.00000000000271
 70
   192
  0
VERTEX
  5
FB0
  8
0
 10
-204.9999999999989
 20
160.0000000000001
 30
-20.0000000000016
 70
   192
  0
VERTEX
  5
FB1
  8
0
 10
-119.9999999999989
 20
142.5000000000001
 30
-20.00000000000077
 70
   192
  0
VERTEX
  5
FB2
  8
0
 10
-119.9999999999988
 20
35.00000000000006
 30
-20.00000000000115
 70
   192
  0
VERTEX
  5
FB3
  8
0
 10
-152.4999999999989
 20
35.00000000000006
 30
-20.00000000000149
 70
   192
  0
VERTEX
  5
FB4
  8
0
 10
-152.4999999999989
 20
-34.99999999999994
 30
-20.00000000000174
 70
   192
  0
VERTEX
  5
FB5
  8
0
 10
-119.9999999999989
 20
-34.99999999999994
 30
-20.00000000000141
 70
   192
  0
VERTEX
  5
FB6
  8
0
 10
-119.9999999999989
 20
-142.4999999999999
 30
-20.00000000000177
 70
   192
  0
VERTEX
  5
FB7
  8
0
 10
-191.0000000000029
 20
-0.000000000000002
 30
-20.00000000000201
 70
   192
  0
VERTEX
  5
FB8
  8
0
 10
-185.7279220613607
 20
-12.72792206135785
 30
-20.000000000002
 70
   192
  0
VERTEX
  5
FB9
  8
0
 10
-173.0000000000029
 20
-17.99999999999999
 30
-20.00000000000189
 70
   192
  0
VERTEX
  5
FBA
  8
0
 10
-160.272077938645
 20
-12.72792206135785
 30
-20.00000000000173
 70
   192
  0
VERTEX
  5
FBB
  8
0
 10
-155.0000000000029
 20
0.0000000000000022
 30
-20.00000000000164
 70
   192
  0
VERTEX
  5
FBC
  8
0
 10
-160.272077938645
 20
12.72792206135785
 30
-20.00000000000165
 70
   192
  0
VERTEX
  5
FBD
  8
0
 10
-173.0000000000029
 20
17.99999999999999
 30
-20.00000000000176
 70
   192
  0
VERTEX
  5
FBE
  8
0
 10
-185.7279220613607
 20
12.72792206135785
 30
-20.00000000000191
 70
   192
  0
VERTEX
  5
FBF
  8
0
 10
0.0
 20
0.0
 30
0.0
 70
   128
 71
     3
 72
     4
 73
    -5
  0
VERTEX
  5
FC0
  8
0
 10
0.0
 20
0.0
 30
0.0
 70
   128
 71
     2
 72
    -3
 73
    -5
  0
VERTEX
  5
FC1
  8
0
 10
0.0
 20
0.0
 30
0.0
 70
   128
 71
    -1
 72
     9
 73
   -10
  0
VERTEX
  5
FC2
  8
0
 10
0.0
 20
0.0
 30
0.0
 70
   128
 71
   -11
 72
    -6
 73
    -1
  0
VERTEX
  5
FC3
  8
0
 10
0.0
 20
0.0
 30
0.0
 70
   128
 71
    10
 72
   -11
 73
    -1
  0
VERTEX
  5
FC4
  8
0
 10
0.0
 20
0.0
 30
0.0
 70
   128
 71
    11
 72
   -12
 73
    -6
  0
VERTEX
  5
FC5
  8
0
 10
0.0
 20
0.0
 30
0.0
 70
   128
 71
    12
 72
   -13
 73
    -6
  0
VERTEX
  5
FC6
  8
0
 10
0.0
 20
0.0
 30
0.0
 70
   128
 71
     5
 72
    -6
 73
   -13
  0
VERTEX
  5
FC7
  8
0
 10
0.0
 20
0.0
 30
0.0
 70
   128
 71
    13
 72
   -14
 73
    -5
  0
VERTEX
  5
FC8
  8
0
 10
0.0
 20
0.0
 30
0.0
 70
   128
 71
    14
 72
   -15
 73
    -5
  0
VERTEX
  5
FC9
  8
0
 10
0.0
 20
0.0
 30
0.0
 70
   128
 71
   -16
 72
    -2
 73
    -5
  0
VERTEX
  5
FCA
  8
0
 10
0.0
 20
0.0
 30
0.0
 70
   128
 71
    15
 72
   -16
 73
    -5
  0
VERTEX
  5
FCB
  8
0
 10
0.0
 20
0.0
 30
0.0
 70
   128
 71
    16
 72
    -9
 73
    -2
  0
VERTEX
  5
FCC
  8
0
 10
0.0
 20
0.0
 30
0.0
 70
   128
 71
    -9
 72
     1
 73
    -2
  0
VERTEX
  5
FCD
  8
0
 10
0.0
 20
0.0
 30
0.0
 70
   128
 71
     7
 72
     8
 73
    -1
  0
VERTEX
  5
FCE
  8
0
 10
0.0
 20
0.0
 30
0.0
 70
   128
 71
     6
 72
    -7
 73
    -1
  0
SEQEND
  5
1373
  8
0
  0
POLYLINE
  5
FCF
  8
0
 66
     1
 10
0.0
 20
0.0
 30
0.0
 70
    64
 71
    10
 72
     8
  0
VERTEX
  5
FD0
  8
0
 10
-155.0000000000029
 20
-0.000000000000002
 30
-20.00000000000164
 70
   192
  0
VERTEX
  5
FD1
  8
0
 10
-191.0000000000029
 20
0.0000000000000022
 30
-20.00000000000202
 70
   192
  0
VERTEX
  5
FD2
  8
0
 10
-191.0000000000029
 20
0.0000000000000022
 30
-5.0
 70
   192
  0
VERTEX
  5
FD3
  8
0
 10
-155.0000000000029
 20
0.0
 30
-5.0
 70
   192
  0
VERTEX
  5
FD4
  8
0
 10
-173.0000000000029
 20
17.99999999999999
 30
-5.000000000000004
 70
   192
  0
VERTEX
  5
FD5
  8
0
 10
-173.0000000000029
 20
17.99999999999999
 30
-20.00000000000176
 70
   192
  0
VERTEX
  5
FD6
  8
0
 10
-160.272077938645
 20
12.72792206135785
 30
-5.000000000000004
 70
   192
  0
VERTEX
  5
FD7
  8
0
 10
-160.272077938645
 20
12.72792206135785
 30
-20.00000000000165
 70
   192
  0
VERTEX
  5
FD8
  8
0
 10
-185.7279220613607
 20
12.72792206135785
 30
-5.000000000000004
 70
   192
  0
VERTEX
  5
FD9
  8
0
 10
-185.7279220613607
 20
12.72792206135785
 30
-20.00000000000191
 70
   192
  0
VERTEX
  5
FDA
  8
0
 10
0.0
 20
0.0
 30
0.0
 70
   128
 71
     8
 72
     1
 73
    -4
  0
VERTEX
  5
FDB
  8
0
 10
0.0
 20
0.0
 30
0.0
 70
   128
 71
     7
 72
    -8
 73
     4
  0
VERTEX
  5
FDC
  8
0
 10
0.0
 20
0.0
 30
0.0
 70
   128
 71
     6
 72
     8
 73
    -7
  0
VERTEX
  5
FDD
  8
0
 10
0.0
 20
0.0
 30
0.0
 70
   128
 71
     5
 72
    -6
 73
     7
  0
VERTEX
  5
FDE
  8
0
 10
0.0
 20
0.0
 30
0.0
 70
   128
 71
    10
 72
     6
 73
    -5
  0
VERTEX
  5
FDF
  8
0
 10
0.0
 20
0.0
 30
0.0
 70
   128
 71
     9
 72
   -10
 73
     5
  0
VERTEX
  5
FE0
  8
0
 10
0.0
 20
0.0
 30
0.0
 70
   128
 71
     3
 72
     2
 73
   -10
  0
VERTEX
  5
FE1
  8
0
 10
0.0
 20
0.0
 30
0.0
 70
   128
 71
     9
 72
    -3
 73
    10
  0
SEQEND
  5
1374
  8
0
  0
POLYLINE
  5
FE2
  8
0
 66
     1
 10
0.0
 20
0.0
 30
0.0
 70
    64
 71
    10
 72
     8
  0
VERTEX
  5
FE3
  8
0
 10
-11.00000000000286
 20
0.0
 30
-165.0
 70
   192
  0
VERTEX
  5
FE4
  8
0
 10
-59.00000000000287
 20
0.0000000000000029
 30
-165.0
 70
   192
  0
VERTEX
  5
FE5
  8
0
 10
-59.00000000000287
 20
0.0000000000000029
 30
-124.7652316125781
 70
   192
  0
VERTEX
  5
FE6
  8
0
 10
-11.00000000000286
 20
0.0
 30
-124.7652316125781
 70
   192
  0
VERTEX
  5
FE7
  8
0
 10
-35.00000000000286
 20
24.0
 30
-124.7652316125781
 70
   192
  0
VERTEX
  5
FE8
  8
0
 10
-35.00000000000286
 20
24.00000000000001
 30
-165.0
 70
   192
  0
VERTEX
  5
FE9
  8
0
 10
-18.02943725152571
 20
16.97056274847714
 30
-124.7652316125781
 70
   192
  0
VERTEX
  5
FEA
  8
0
 10
-18.02943725152572
 20
16.97056274847714
 30
-165.0
 70
   192
  0
VERTEX
  5
FEB
  8
0
 10
-51.97056274847999
 20
16.97056274847714
 30
-124.7652316125781
 70
   192
  0
VERTEX
  5
FEC
  8
0
 10
-51.97056274848001
 20
16.97056274847714
 30
-165.0
 70
   192
  0
VERTEX
  5
FED
  8
0
 10
0.0
 20
0.0
 30
0.0
 70
   128
 71
     8
 72
     1
 73
    -4
  0
VERTEX
  5
FEE
  8
0
 10
0.0
 20
0.0
 30
0.0
 70
   128
 71
     7
 72
    -8
 73
     4
  0
VERTEX
  5
FEF
  8
0
 10
0.0
 20
0.0
 30
0.0
 70
   128
 71
     6
 72
     8
 73
    -7
  0
VERTEX
  5
FF0
  8
0
 10
0.0
 20
0.0
 30
0.0
 70
   128
 71
     5
 72
    -6
 73
     7
  0
VERTEX
  5
FF1
  8
0
 10
0.0
 20
0.0
 30
0.0
 70
   128
 71
    10
 72
     6
 73
    -5
  0
VERTEX
  5
FF2
  8
0
 10
0.0
 20
0.0
 30
0.0
 70
   128
 71
     9
 72
   -10
 73
     5
  0
VERTEX
  5
FF3
  8
0
 10
0.0
 20
0.0
 30
0.0
 70
   128
 71
     3
 72
     2
 73
   -10
  0
VERTEX
  5
FF4
  8
0
 10
0.0
 20
0.0
 30
0.0
 70
   128
 71
     9
 72
    -3
 73
    10
  0
SEQEND
  5
1375
  8
0
  0
POLYLINE
  5
FF5
  8
0
 66
     1
 10
0.0
 20
0.0
 30
0.0
 70
    64
 71
     8
 72
     6
  0
VERTEX
  5
FF6
  8
0
 10
-119.9999999999979
 20
53.11936026891938
 30
-117.4388157648314
 70
   192
  0
VERTEX
  5
FF7
  8
0
 10
59.77287246673394
 20
48.19442921067908
 30
-118.9148051571501
 70
   192
  0
VERTEX
  5
FF8
  8
0
 10
-119.9999999999978
 20
48.08318012849044
 30
-118.9426623628388
 70
   192
  0
VERTEX
  5
FF9
  8
0
 10
58.6085227277459
 20
42.93471413188049
 30
-119.9999999999989
 70
   192
  0
VERTEX
  5
FFA
  8
0
 10
-119.9999999999976
 20
42.93471413188236
 30
-120.0000000000008
 70
   192
  0
VERTEX
  5
FFB
  8
0
 10
-119.9999999999979
 20
58.0046093339345
 30
-115.5000000000003
 70
   192
  0
VERTEX
  5
FFC
  8
0
 10
63.2079059510387
 20
58.00460933393256
 30
-115.4999999999983
 70
   192
  0
VERTEX
  5
FFD
  8
0
 10
61.32974009213338
 20
53.20845073164428
 30
-117.4080023172424
 70
   192
  0
VERTEX
  5
FFE
  8
0
 10
0.0
 20
0.0
 30
0.0
 70
   128
 71
     1
 72
     2
 73
     3
  0
VERTEX
  5
FFF
  8
0
 10
0.0
 20
0.0
 30
0.0
 70
   128
 71
     3
 72
     4
 73
     5
  0
VERTEX
  5
1000
  8
0
 10
0.0
 20
0.0
 30
0.0
 70
   128
 71
     6
 72
     7
 73
     8
  0
VERTEX
  5
1001
  8
0
 10
0.0
 20
0.0
 30
0.0
 70
   128
 71
     6
 72
     8
 73
     1
  0
VERTEX
  5
1002
  8
0
 10
0.0
 20
0.0
 30
0.0
 70
   128
 71
     1
 72
     8
 73
     2
  0
VERTEX
  5
1003
  8
0
 10
0.0
 20
0.0
 30
0.0
 70
   128
 71
     3
 72
     2
 73
     4
  0
SEQEND
  5
1376
  8
0
  0
POLYLINE
  5
1004
  8
0
 66
     1
 10
0.0
 20
0.0
 30
0.0
 70
    64
 71
     9
 72
     7
  0
VERTEX
  5
1005
  8
0
 10
61.2550799303678
 20
-54.09284139068403
 30
-117.4817935635641
 70
   192
  0
VERTEX
  5
1006
  8
0
 10
61.71556735437702
 20
-55.31981476457255
 30
-117.0144754290532
 70
   192
  0
VERTEX
  5
1007
  8
0
 10
63.20790595103905
 20
-59.29616596866927
 30
-115.4999999999984
 70
   192
  0
VERTEX
  5
1008
  8
0
 10
-119.9999999999979
 20
-59.29616596866736
 30
-115.5000000000003
 70
   192
  0
VERTEX
  5
1009
  8
0
 10
-119.9999999999978
 20
-48.52247643178367
 30
-119.0188852611577
 70
   192
  0
VERTEX
  5
100A
  8
0
 10
-119.9999999999978
 20
-42.93471413187984
 30
-120.0000000000008
 70
   192
  0
VERTEX
  5
100B
  8
0
 10
58.60852272774633
 20
-42.93471413188172
 30
-119.9999999999989
 70
   192
  0
VERTEX
  5
100C
  8
0
 10
59.69293913579216
 20
-48.6495675287789
 30
-118.9904743321
 70
   192
  0
VERTEX
  5
100D
  8
0
 10
-119.9999999999978
 20
-53.99259551326736
 30
-117.5144016669003
 70
   192
  0
VERTEX
  5
100E
  8
0
 10
0.0
 20
0.0
 30
0.0
 70
   128
 71
     1
 72
     2
 73
    -3
  0
VERTEX
  5
100F
  8
0
 10
0.0
 20
0.0
 30
0.0
 70
   128
 71
    -1
 72
     3
 73
     4
  0
VERTEX
  5
1010
  8
0
 10
0.0
 20
0.0
 30
0.0
 70
   128
 71
     5
 72
     6
 73
     7
  0
VERTEX
  5
1011
  8
0
 10
0.0
 20
0.0
 30
0.0
 70
   128
 71
     7
 72
     8
 73
     9
  0
VERTEX
  5
1012
  8
0
 10
0.0
 20
0.0
 30
0.0
 70
   128
 71
     7
 72
     9
 73
     5
  0
VERTEX
  5
1013
  8
0
 10
0.0
 20
0.0
 30
0.0
 70
   128
 71
     8
 72
     1
 73
     4
  0
VERTEX
  5
1014
  8
0
 10
0.0
 20
0.0
 30
0.0
 70
   128
 71
     8
 72
     4
 73
     9
  0
SEQEND
  5
1377
  8
0
  0
POLYLINE
  5
1015
  8
0
 66
     1
 10
0.0
 20
0.0
 30
0.0
 70
    64
 71
     8
 72
     6
  0
VERTEX
  5
1016
  8
0
 10
-131.6840349800115
 20
35.00000000000053
 30
-153.6156695581337
 70
   192
  0
VERTEX
  5
1017
  8
0
 10
-131.6840349800117
 20
-34.99999999999947
 30
-153.6156695581345
 70
   192
  0
VERTEX
  5
1018
  8
0
 10
-142.7210873477603
 20
-34.99999999999949
 30
-149.5393330634317
 70
   192
  0
VERTEX
  5
1019
  8
0
 10
-142.7210873477599
 20
35.00000000000051
 30
-149.539333063431
 70
   192
  0
VERTEX
  5
101A
  8
0
 10
-119.9999999999974
 20
35.00000000000053
 30
-154.999999999998
 70
   192
  0
VERTEX
  5
101B
  8
0
 10
-119.9999999999992
 20
-34.99999999999945
 30
-154.9999999999989
 70
   192
  0
VERTEX
  5
101C
  8
0
 10
-152.499999999998
 20
-34.99999999999951
 30
-142.9967103839266
 70
   192
  0
VERTEX
  5
101D
  8
0
 10
-152.4999999999974
 20
35.00000000000049
 30
-142.9967103839258
 70
   192
  0
VERTEX
  5
101E
  8
0
 10
0.0
 20
0.0
 30
0.0
 70
   128
 71
     1
 72
     2
 73
    -3
  0
VERTEX
  5
101F
  8
0
 10
0.0
 20
0.0
 30
0.0
 70
   128
 71
    -1
 72
     3
 73
     4
  0
VERTEX
  5
1020
  8
0
 10
0.0
 20
0.0
 30
0.0
 70
   128
 71
     5
 72
     6
 73
    -2
  0
VERTEX
  5
1021
  8
0
 10
0.0
 20
0.0
 30
0.0
 70
   128
 71
    -5
 72
     2
 73
     1
  0
VERTEX
  5
1022
  8
0
 10
0.0
 20
0.0
 30
0.0
 70
   128
 71
     4
 72
     3
 73
    -7
  0
VERTEX
  5
1023
  8
0
 10
0.0
 20
0.0
 30
0.0
 70
   128
 71
    -4
 72
     7
 73
     8
  0
SEQEND
  5
1378
  8
0
  0
POLYLINE
  5
1024
  8
0
 66
     1
 10
0.0
 20
0.0
 30
0.0
 70
    64
 71
    10
 72
     8
  0
VERTEX
  5
1025
  8
0
 10
163.4999999999981
 20
-198.5000000000021
 30
-89.01883030975222
 70
   192
  0
VERTEX
  5
1026
  8
0
 10
163.4976344468705
 20
-198.7174981993278
 30
-89.01898950317988
 70
   192
  0
VERTEX
  5
1027
  8
0
 10
163.4905377874876
 20
-198.9349192071436
 30
-89.01946708346287
 70
   192
  0
VERTEX
  5
1028
  8
0
 10
163.4787150582555
 20
-199.152108722602
 30
-89.02026271166868
 70
   192
  0
VERTEX
  5
1029
  8
0
 10
78.49999999999477
 20
-198.2463446259536
 30
-94.73903214881605
 70
   192
  0
VERTEX
  5
102A
  8
0
 10
78.49999999999754
 20
198.2463446259526
 30
-94.73903214881193
 70
   192
  0
VERTEX
  5
102B
  8
0
 10
163.4787150582563
 20
199.1521087225992
 30
-89.02026271166466
 70
   192
  0
VERTEX
  5
102C
  8
0
 10
163.4905377874878
 20
198.9349192071404
 30
-89.01946708345888
 70
   192
  0
VERTEX
  5
102D
  8
0
 10
163.4976344468706
 20
198.7174981993242
 30
-89.01898950317592
 70
   192
  0
VERTEX
  5
102E
  8
0
 10
163.4999999999982
 20
198.4999999999979
 30
-89.01883030974825
 70
   192
  0
VERTEX
  5
102F
  8
0
 10
0.0
 20
0.0
 30
0.0
 70
   128
 71
     7
 72
     8
 73
    -9
  0
VERTEX
  5
1030
  8
0
 10
0.0
 20
0.0
 30
0.0
 70
   128
 71
     9
 72
   -10
 73
    -7
  0
VERTEX
  5
1031
  8
0
 10
0.0
 20
0.0
 30
0.0
 70
   128
 71
     6
 72
    -7
 73
   -10
  0
VERTEX
  5
1032
  8
0
 10
0.0
 20
0.0
 30
0.0
 70
   128
 71
    -1
 72
     5
 73
    -6
  0
VERTEX
  5
1033
  8
0
 10
0.0
 20
0.0
 30
0.0
 70
   128
 71
    10
 72
    -1
 73
    -6
  0
VERTEX
  5
1034
  8
0
 10
0.0
 20
0.0
 30
0.0
 70
   128
 71
     1
 72
     2
 73
    -3
  0
VERTEX
  5
1035
  8
0
 10
0.0
 20
0.0
 30
0.0
 70
   128
 71
    -5
 72
    -1
 73
    -3
  0
VERTEX
  5
1036
  8
0
 10
0.0
 20
0.0
 30
0.0
 70
   128
 71
     3
 72
     4
 73
    -5
  0
SEQEND
  5
1379
  8
0
  0
POLYLINE
  5
1037
  8
0
 66
     1
 10
0.0
 20
0.0
 30
0.0
 70
    64
 71
     8
 72
     6
  0
VERTEX
  5
1038
  8
0
 10
-230.000000000001
 20
-142.4999999999982
 30
-50.00000000000146
 70
   192
  0
VERTEX
  5
1039
  8
0
 10
-230.0000000000008
 20
-135.4999999999982
 30
-60.0000000000015
 70
   192
  0
VERTEX
  5
103A
  8
0
 10
-230.0000000000007
 20
-114.4999999999976
 30
-60.00000000000156
 70
   192
  0
VERTEX
  5
103B
  8
0
 10
-230.0000000000006
 20
-107.4999999999974
 30
-50.00000000000153
 70
   192
  0
VERTEX
  5
103C
  8
0
 10
-205.0000000000014
 20
-107.4999999999976
 30
-50.00000000000126
 70
   192
  0
VERTEX
  5
103D
  8
0
 10
-205.0000000000013
 20
-114.4999999999978
 30
-60.00000000000123
 70
   192
  0
VERTEX
  5
103E
  8
0
 10
-205.0000000000016
 20
-135.4999999999982
 30
-60.00000000000134
 70
   192
  0
VERTEX
  5
103F
  8
0
 10
-205.0000000000018
 20
-142.4999999999985
 30
-50.00000000000131
 70
   192
  0
VERTEX
  5
1040
  8
0
 10
0.0
 20
0.0
 30
0.0
 70
   128
 71
     6
 72
     5
 73
    -4
  0
VERTEX
  5
1041
  8
0
 10
0.0
 20
0.0
 30
0.0
 70
   128
 71
    -6
 72
     4
 73
     3
  0
VERTEX
  5
1042
  8
0
 10
0.0
 20
0.0
 30
0.0
 70
   128
 71
     3
 72
     2
 73
    -7
  0
VERTEX
  5
1043
  8
0
 10
0.0
 20
0.0
 30
0.0
 70
   128
 71
    -3
 72
     7
 73
     6
  0
VERTEX
  5
1044
  8
0
 10
0.0
 20
0.0
 30
0.0
 70
   128
 71
     2
 72
     1
 73
    -8
  0
VERTEX
  5
1045
  8
0
 10
0.0
 20
0.0
 30
0.0
 70
   128
 71
    -2
 72
     8
 73
     7
  0
SEQEND
  5
137A
  8
0
  0
POLYLINE
  5
1046
  8
0
 66
     1
 10
0.0
 20
0.0
 30
0.0
 70
    64
 71
     8
 72
     6
  0
VERTEX
  5
1047
  8
0
 10
-229.999999999998
 20
142.5000000000022
 30
-50.00000000000143
 70
   192
  0
VERTEX
  5
1048
  8
0
 10
-229.9999999999982
 20
135.5000000000021
 30
-40.00000000000149
 70
   192
  0
VERTEX
  5
1049
  8
0
 10
-229.9999999999984
 20
114.5000000000022
 30
-40.00000000000156
 70
   192
  0
VERTEX
  5
104A
  8
0
 10
-229.9999999999984
 20
107.5000000000022
 30
-50.00000000000156
 70
   192
  0
VERTEX
  5
104B
  8
0
 10
-204.9999999999991
 20
107.5000000000019
 30
-50.00000000000129
 70
   192
  0
VERTEX
  5
104C
  8
0
 10
-204.9999999999991
 20
114.5000000000019
 30
-40.00000000000127
 70
   192
  0
VERTEX
  5
104D
  8
0
 10
-204.9999999999989
 20
135.500000000002
 30
-40.00000000000135
 70
   192
  0
VERTEX
  5
104E
  8
0
 10
-204.9999999999988
 20
142.5000000000019
 30
-50.00000000000129
 70
   192
  0
VERTEX
  5
104F
  8
0
 10
0.0
 20
0.0
 30
0.0
 70
   128
 71
     6
 72
     5
 73
    -4
  0
VERTEX
  5
1050
  8
0
 10
0.0
 20
0.0
 30
0.0
 70
   128
 71
    -6
 72
     4
 73
     3
  0
VERTEX
  5
1051
  8
0
 10
0.0
 20
0.0
 30
0.0
 70
   128
 71
     3
 72
     2
 73
    -7
  0
VERTEX
  5
1052
  8
0
 10
0.0
 20
0.0
 30
0.0
 70
   128
 71
    -3
 72
     7
 73
     6
  0
VERTEX
  5
1053
  8
0
 10
0.0
 20
0.0
 30
0.0
 70
   128
 71
     2
 72
     1
 73
    -8
  0
VERTEX
  5
1054
  8
0
 10
0.0
 20
0.0
 30
0.0
 70
   128
 71
    -2
 72
     8
 73
     7
  0
SEQEND
  5
137B
  8
0
  0
POLYLINE
  5
1055
  8
0
 66
     1
 10
0.0
 20
0.0
 30
0.0
 70
    64
 71
    15
 72
    13
  0
VERTEX
  5
1056
  8
0
 10
-11.00000000000286
 20
-0.0000000000000027
 30
-124.7652316125781
 70
   192
  0
VERTEX
  5
1057
  8
0
 10
-3.093292638578356
 20
0.0
 30
-111.0704127420118
 70
   192
  0
VERTEX
  5
1058
  8
0
 10
-4.152683039762418
 20
7.553806524847267
 30
-111.3267451221752
 70
   192
  0
VERTEX
  5
1059
  8
0
 10
-7.207236673636312
 20
14.52693827731244
 30
-112.0172622811321
 70
   192
  0
VERTEX
  5
105A
  8
0
 10
-18.02943725152571
 20
16.97056274847714
 30
-124.7652316125781
 70
   192
  0
VERTEX
  5
105B
  8
0
 10
-11.93232597696811
 20
20.44545170063771
 30
-112.9452924501102
 70
   192
  0
VERTEX
  5
105C
  8
0
 10
-51.97056274847999
 20
16.97056274847714
 30
-124.7652316125781
 70
   192
  0
VERTEX
  5
105D
  8
0
 10
-35.00000000000286
 20
24.0
 30
-124.7652316125781
 70
   192
  0
VERTEX
  5
105E
  8
0
 10
-53.94203439194319
 20
24.87013197423607
 30
-112.186921757867
 70
   192
  0
VERTEX
  5
105F
  8
0
 10
-59.00000000000286
 20
0.0000000000000029
 30
-124.7652316125781
 70
   192
  0
VERTEX
  5
1060
  8
0
 10
-64.46576932314072
 20
4.269648784149396
 30
-114.7652316125779
 70
   192
  0
VERTEX
  5
1061
  8
0
 10
-64.63660109212421
 20
2.851900813638601
 30
-114.7652316125777
 70
   192
  0
VERTEX
  5
1062
  8
0
 10
-64.73925759782543
 20
1.427592404964868
 30
-114.7652316125777
 70
   192
  0
VERTEX
  5
1063
  8
0
 10
-64.77350269189922
 20
0.0000000000000036
 30
-114.7652316125777
 70
   192
  0
VERTEX
  5
1064
  8
0
 10
-31.97257550772229
 20
31.95840885601349
 30
-110.7329746015021
 70
   192
  0
VERTEX
  5
1065
  8
0
 10
0.0
 20
0.0
 30
0.0
 70
   128
 71
     1
 72
     2
 73
     3
  0
VERTEX
  5
1066
  8
0
 10
0.0
 20
0.0
 30
0.0
 70
   128
 71
     4
 72
     5
 73
     1
  0
VERTEX
  5
1067
  8
0
 10
0.0
 20
0.0
 30
0.0
 70
   128
 71
     3
 72
     4
 73
     1
  0
VERTEX
  5
1068
  8
0
 10
0.0
 20
0.0
 30
0.0
 70
   128
 71
     4
 72
     6
 73
     5
  0
VERTEX
  5
1069
  8
0
 10
0.0
 20
0.0
 30
0.0
 70
   128
 71
     7
 72
     8
 73
     9
  0
VERTEX
  5
106A
  8
0
 10
0.0
 20
0.0
 30
0.0
 70
   128
 71
    10
 72
     7
 73
    11
  0
VERTEX
  5
106B
  8
0
 10
0.0
 20
0.0
 30
0.0
 70
   128
 71
    11
 72
    12
 73
    10
  0
VERTEX
  5
106C
  8
0
 10
0.0
 20
0.0
 30
0.0
 70
   128
 71
    12
 72
    13
 73
    10
  0
VERTEX
  5
106D
  8
0
 10
0.0
 20
0.0
 30
0.0
 70
   128
 71
    13
 72
    14
 73
    10
  0
VERTEX
  5
106E
  8
0
 10
0.0
 20
0.0
 30
0.0
 70
   128
 71
     8
 72
     5
 73
     6
  0
VERTEX
  5
106F
  8
0
 10
0.0
 20
0.0
 30
0.0
 70
   128
 71
     8
 72
     6
 73
    15
  0
VERTEX
  5
1070
  8
0
 10
0.0
 20
0.0
 30
0.0
 70
   128
 71
     9
 72
     8
 73
    15
  0
VERTEX
  5
1071
  8
0
 10
0.0
 20
0.0
 30
0.0
 70
   128
 71
    11
 72
     7
 73
     9
  0
SEQEND
  5
137C
  8
0
  0
POLYLINE
  5
1072
  8
0
 66
     1
 10
0.0
 20
0.0
 30
0.0
 70
    64
 71
    23
 72
    21
  0
VERTEX
  5
1073
  8
0
 10
-119.9999999999976
 20
40.20997507382169
 30
-135.4527630831822
 70
   192
  0
VERTEX
  5
1074
  8
0
 10
35.97909624303026
 20
40.20997507381976
 30
-135.4527630831822
 70
   192
  0
VERTEX
  5
1075
  8
0
 10
36.09436943753112
 20
40.00580999297978
 30
-135.4527630831822
 70
   192
  0
VERTEX
  5
1076
  8
0
 10
36.20905537086748
 20
39.80131445195358
 30
-135.4527630831822
 70
   192
  0
VERTEX
  5
1077
  8
0
 10
36.32315309569858
 20
39.59649013993667
 30
-135.4527630831822
 70
   192
  0
VERTEX
  5
1078
  8
0
 10
36.32315309569804
 20
-39.5964901399343
 30
-135.4527630831831
 70
   192
  0
VERTEX
  5
1079
  8
0
 10
36.20905537086639
 20
-39.80131445195221
 30
-135.4527630831831
 70
   192
  0
VERTEX
  5
107A
  8
0
 10
36.09436943752947
 20
-40.00580999297939
 30
-135.4527630831831
 70
   192
  0
VERTEX
  5
107B
  8
0
 10
35.97909624302806
 20
-40.20997507382037
 30
-135.4527630831831
 70
   192
  0
VERTEX
  5
107C
  8
0
 10
-119.9999999999976
 20
-40.20997507381903
 30
-135.4527630831831
 70
   192
  0
VERTEX
  5
107D
  8
0
 10
-119.9999999999976
 20
-34.99999999999942
 30
-135.452763083183
 70
   192
  0
VERTEX
  5
107E
  8
0
 10
-55.07517527229123
 20
-28.6703215501175
 30
-135.4527630831829
 70
   192
  0
VERTEX
  5
107F
  8
0
 10
-48.86279181137473
 20
-32.13756374081044
 30
-135.452763083183
 70
   192
  0
VERTEX
  5
1080
  8
0
 10
-42.0776150316249
 20
-34.27692176179541
 30
-135.452763083183
 70
   192
  0
VERTEX
  5
1081
  8
0
 10
-35.00000000000286
 20
-35.00000000000119
 30
-135.452763083183
 70
   192
  0
VERTEX
  5
1082
  8
0
 10
-10.25126265847167
 20
-24.74873734152953
 30
-135.4527630831829
 70
   192
  0
VERTEX
  5
1083
  8
0
 10
0.0
 20
0.0000000000016632
 30
-135.4527630831827
 70
   192
  0
VERTEX
  5
1084
  8
0
 10
-10.25126265847168
 20
24.74873734153285
 30
-135.4527630831824
 70
   192
  0
VERTEX
  5
1085
  8
0
 10
-35.00000000000286
 20
35.00000000000452
 30
-135.4527630831823
 70
   192
  0
VERTEX
  5
1086
  8
0
 10
-42.07761503162476
 20
34.27692176179877
 30
-135.4527630831823
 70
   192
  0
VERTEX
  5
1087
  8
0
 10
-48.86279181137443
 20
32.1375637408139
 30
-135.4527630831823
 70
   192
  0
VERTEX
  5
1088
  8
0
 10
-55.07517527229105
 20
28.67032155011876
 30
-135.4527630831824
 70
   192
  0
VERTEX
  5
1089
  8
0
 10
-119.9999999999976
 20
35.00000000000047
 30
-135.4527630831823
 70
   192
  0
VERTEX
  5
108A
  8
0
 10
0.0
 20
0.0
 30
0.0
 70
   128
 71
    11
 72
    12
 73
   -13
  0
VERTEX
  5
108B
  8
0
 10
0.0
 20
0.0
 30
0.0
 70
   128
 71
    10
 72
   -11
 73
   -13
  0
VERTEX
  5
108C
  8
0
 10
0.0
 20
0.0
 30
0.0
 70
   128
 71
    13
 72
   -14
 73
   -10
  0
VERTEX
  5
108D
  8
0
 10
0.0
 20
0.0
 30
0.0
 70
   128
 71
    14
 72
   -15
 73
   -10
  0
VERTEX
  5
108E
  8
0
 10
0.0
 20
0.0
 30
0.0
 70
   128
 71
   -15
 72
     9
 73
   -10
  0
VERTEX
  5
108F
  8
0
 10
0.0
 20
0.0
 30
0.0
 70
   128
 71
    15
 72
   -16
 73
    -9
  0
VERTEX
  5
1090
  8
0
 10
0.0
 20
0.0
 30
0.0
 70
   128
 71
     5
 72
     6
 73
    -7
  0
VERTEX
  5
1091
  8
0
 10
0.0
 20
0.0
 30
0.0
 70
   128
 71
   -17
 72
    -5
 73
    -7
  0
VERTEX
  5
1092
  8
0
 10
0.0
 20
0.0
 30
0.0
 70
   128
 71
    16
 72
   -17
 73
    -7
  0
VERTEX
  5
1093
  8
0
 10
0.0
 20
0.0
 30
0.0
 70
   128
 71
     7
 72
    -8
 73
   -16
  0
VERTEX
  5
1094
  8
0
 10
0.0
 20
0.0
 30
0.0
 70
   128
 71
     8
 72
    -9
 73
   -16
  0
VERTEX
  5
1095
  8
0
 10
0.0
 20
0.0
 30
0.0
 70
   128
 71
   -18
 72
     2
 73
    -3
  0
VERTEX
  5
1096
  8
0
 10
0.0
 20
0.0
 30
0.0
 70
   128
 71
     3
 72
    -4
 73
   -18
  0
VERTEX
  5
1097
  8
0
 10
0.0
 20
0.0
 30
0.0
 70
   128
 71
    -5
 72
    17
 73
   -18
  0
VERTEX
  5
1098
  8
0
 10
0.0
 20
0.0
 30
0.0
 70
   128
 71
     4
 72
    -5
 73
   -18
  0
VERTEX
  5
1099
  8
0
 10
0.0
 20
0.0
 30
0.0
 70
   128
 71
    18
 72
   -19
 73
    -2
  0
VERTEX
  5
109A
  8
0
 10
0.0
 20
0.0
 30
0.0
 70
   128
 71
     1
 72
    -2
 73
   -19
  0
VERTEX
  5
109B
  8
0
 10
0.0
 20
0.0
 30
0.0
 70
   128
 71
    19
 72
   -20
 73
    -1
  0
VERTEX
  5
109C
  8
0
 10
0.0
 20
0.0
 30
0.0
 70
   128
 71
    20
 72
   -21
 73
    -1
  0
VERTEX
  5
109D
  8
0
 10
0.0
 20
0.0
 30
0.0
 70
   128
 71
    22
 72
    23
 73
    -1
  0
VERTEX
  5
109E
  8
0
 10
0.0
 20
0.0
 30
0.0
 70
   128
 71
    21
 72
   -22
 73
    -1
  0
SEQEND
  5
137D
  8
0
  0
POLYLINE
  5
109F
  8
0
 66
     1
 10
0.0
 20
0.0
 30
0.0
 70
    64
 71
     9
 72
     7
  0
VERTEX
  5
10A0
  8
0
 10
36.09436943753112
 20
40.00580999297978
 30
-135.4527630831822
 70
   192
  0
VERTEX
  5
10A1
  8
0
 10
35.97909624303027
 20
40.20997507381976
 30
-135.4527630831822
 70
   192
  0
VERTEX
  5
10A2
  8
0
 10
35.96276230295931
 20
40.1982959152994
 30
-135.5189988825672
 70
   192
  0
VERTEX
  5
10A3
  8
0
 10
35.94642830357422
 20
40.18661675928041
 30
-135.5852346677663
 70
   192
  0
VERTEX
  5
10A4
  8
0
 10
36.20905537086748
 20
39.80131445195358
 30
-135.4527630831822
 70
   192
  0
VERTEX
  5
10A5
  8
0
 10
36.19266345182525
 20
39.78973006709089
 30
-135.5189720547964
 70
   192
  0
VERTEX
  5
10A6
  8
0
 10
36.32315309569858
 20
39.59649013993664
 30
-135.4527630831822
 70
   192
  0
VERTEX
  5
10A7
  8
0
 10
36.06164362241935
 20
39.98254539769009
 30
-135.5852087448617
 70
   192
  0
VERTEX
  5
10A8
  8
0
 10
35.93009424483407
 20
40.17493760576455
 30
-135.6514704387694
 70
   192
  0
VERTEX
  5
10A9
  8
0
 10
0.0
 20
0.0
 30
0.0
 70
   128
 71
     1
 72
     2
 73
     3
  0
VERTEX
  5
10AA
  8
0
 10
0.0
 20
0.0
 30
0.0
 70
   128
 71
     3
 72
     4
 73
     1
  0
VERTEX
  5
10AB
  8
0
 10
0.0
 20
0.0
 30
0.0
 70
   128
 71
     5
 72
     6
 73
     7
  0
VERTEX
  5
10AC
  8
0
 10
0.0
 20
0.0
 30
0.0
 70
   128
 71
     8
 72
     6
 73
     5
  0
VERTEX
  5
10AD
  8
0
 10
0.0
 20
0.0
 30
0.0
 70
   128
 71
     1
 72
     8
 73
     5
  0
VERTEX
  5
10AE
  8
0
 10
0.0
 20
0.0
 30
0.0
 70
   128
 71
     9
 72
     8
 73
     1
  0
VERTEX
  5
10AF
  8
0
 10
0.0
 20
0.0
 30
0.0
 70
   128
 71
     4
 72
     9
 73
     1
  0
SEQEND
  5
137E
  8
0
  0
POLYLINE
  5
10B0
  8
0
 66
     1
 10
0.0
 20
0.0
 30
0.0
 70
    64
 71
     8
 72
     6
  0
VERTEX
  5
10B1
  8
0
 10
-42.07761503162408
 20
-34.27692176179459
 30
-164.9999999999989
 70
   192
  0
VERTEX
  5
10B2
  8
0
 10
-42.0776150316249
 20
-34.27692176179541
 30
-135.452763083183
 70
   192
  0
VERTEX
  5
10B3
  8
0
 10
-48.86279181137473
 20
-32.13756374081044
 30
-135.452763083183
 70
   192
  0
VERTEX
  5
10B4
  8
0
 10
-48.8627918113732
 20
-32.13756374081007
 30
-164.9999999999989
 70
   192
  0
VERTEX
  5
10B5
  8
0
 10
-35.00000000000286
 20
-35.00000000000022
 30
-164.9999999999989
 70
   192
  0
VERTEX
  5
10B6
  8
0
 10
-35.00000000000286
 20
-35.00000000000087
 30
-135.452763083183
 70
   192
  0
VERTEX
  5
10B7
  8
0
 10
-55.07517527229145
 20
-28.67032155011516
 30
-135.452763083183
 70
   192
  0
VERTEX
  5
10B8
  8
0
 10
-55.07517527229108
 20
-28.6703215501143
 30
-165.0000000000007
 70
   192
  0
VERTEX
  5
10B9
  8
0
 10
0.0
 20
0.0
 30
0.0
 70
   128
 71
     1
 72
     2
 73
    -3
  0
VERTEX
  5
10BA
  8
0
 10
0.0
 20
0.0
 30
0.0
 70
   128
 71
    -1
 72
     3
 73
     4
  0
VERTEX
  5
10BB
  8
0
 10
0.0
 20
0.0
 30
0.0
 70
   128
 71
     5
 72
     6
 73
    -2
  0
VERTEX
  5
10BC
  8
0
 10
0.0
 20
0.0
 30
0.0
 70
   128
 71
    -5
 72
     2
 73
     1
  0
VERTEX
  5
10BD
  8
0
 10
0.0
 20
0.0
 30
0.0
 70
   128
 71
     4
 72
     3
 73
    -7
  0
VERTEX
  5
10BE
  8
0
 10
0.0
 20
0.0
 30
0.0
 70
   128
 71
    -4
 72
     7
 73
     8
  0
SEQEND
  5
137F
  8
0
  0
POLYLINE
  5
10BF
  8
0
 66
     1
 10
0.0
 20
0.0
 30
0.0
 70
    64
 71
     9
 72
     7
  0
VERTEX
  5
10C0
  8
0
 10
36.06160275925982
 20
-39.98260534800649
 30
-135.5852293648319
 70
   192
  0
VERTEX
  5
10C1
  8
0
 10
35.93009424483161
 20
-40.17493760576495
 30
-135.6514704387712
 70
   192
  0
VERTEX
  5
10C2
  8
0
 10
35.94642830357183
 20
-40.18661675928089
 30
-135.5852346677677
 70
   192
  0
VERTEX
  5
10C3
  8
0
 10
35.962762302957
 20
-40.19829591529994
 30
-135.5189988825684
 70
   192
  0
VERTEX
  5
10C4
  8
0
 10
36.09436943752947
 20
-40.00580999297939
 30
-135.4527630831831
 70
   192
  0
VERTEX
  5
10C5
  8
0
 10
35.97909624302806
 20
-40.20997507382037
 30
-135.4527630831831
 70
   192
  0
VERTEX
  5
10C6
  8
0
 10
36.19262272318695
 20
-39.78979019422339
 30
-135.5189926819599
 70
   192
  0
VERTEX
  5
10C7
  8
0
 10
36.20905537086639
 20
-39.80131445195221
 30
-135.4527630831831
 70
   192
  0
VERTEX
  5
10C8
  8
0
 10
36.32315309569803
 20
-39.59649013993432
 30
-135.4527630831831
 70
   192
  0
VERTEX
  5
10C9
  8
0
 10
0.0
 20
0.0
 30
0.0
 70
   128
 71
     1
 72
     2
 73
     3
  0
VERTEX
  5
10CA
  8
0
 10
0.0
 20
0.0
 30
0.0
 70
   128
 71
     4
 72
     5
 73
     1
  0
VERTEX
  5
10CB
  8
0
 10
0.0
 20
0.0
 30
0.0
 70
   128
 71
     3
 72
     4
 73
     1
  0
VERTEX
  5
10CC
  8
0
 10
0.0
 20
0.0
 30
0.0
 70
   128
 71
     4
 72
     6
 73
     5
  0
VERTEX
  5
10CD
  8
0
 10
0.0
 20
0.0
 30
0.0
 70
   128
 71
     7
 72
     1
 73
     5
  0
VERTEX
  5
10CE
  8
0
 10
0.0
 20
0.0
 30
0.0
 70
   128
 71
     8
 72
     7
 73
     5
  0
VERTEX
  5
10CF
  8
0
 10
0.0
 20
0.0
 30
0.0
 70
   128
 71
     9
 72
     7
 73
     8
  0
SEQEND
  5
1380
  8
0
  0
POLYLINE
  5
10D0
  8
0
 66
     1
 10
0.0
 20
0.0
 30
0.0
 70
    64
 71
     8
 72
     6
  0
VERTEX
  5
10D1
  8
0
 10
-70.00000000000087
 20
-30.12537886977062
 30
-165.0000000000009
 70
   192
  0
VERTEX
  5
10D2
  8
0
 10
-55.07517527229068
 20
-28.67032155011737
 30
-165.0000000000007
 70
   192
  0
VERTEX
  5
10D3
  8
0
 10
-55.07517527229145
 20
-28.67032155011515
 30
-135.452763083183
 70
   192
  0
VERTEX
  5
10D4
  8
0
 10
-119.9999999999976
 20
-34.99999999999952
 30
-135.452763083183
 70
   192
  0
VERTEX
  5
10D5
  8
0
 10
-119.9999999999974
 20
-34.99999999999945
 30
-154.9999999999989
 70
   192
  0
VERTEX
  5
10D6
  8
0
 10
-80.00000000000091
 20
-31.10030309581648
 30
-154.9999999999989
 70
   192
  0
VERTEX
  5
10D7
  8
0
 10
-75.10958323589242
 20
-30.62352451793747
 30
-156.2773958089716
 70
   192
  0
VERTEX
  5
10D8
  8
0
 10
-71.27739580897396
 20
-30.24991528181235
 30
-160.1095832358906
 70
   192
  0
VERTEX
  5
10D9
  8
0
 10
0.0
 20
0.0
 30
0.0
 70
   128
 71
     4
 72
     5
 73
    -6
  0
VERTEX
  5
10DA
  8
0
 10
0.0
 20
0.0
 30
0.0
 70
   128
 71
     3
 72
    -4
 73
    -6
  0
VERTEX
  5
10DB
  8
0
 10
0.0
 20
0.0
 30
0.0
 70
   128
 71
     6
 72
    -7
 73
    -3
  0
VERTEX
  5
10DC
  8
0
 10
0.0
 20
0.0
 30
0.0
 70
   128
 71
    -8
 72
     2
 73
    -3
  0
VERTEX
  5
10DD
  8
0
 10
0.0
 20
0.0
 30
0.0
 70
   128
 71
     7
 72
    -8
 73
    -3
  0
VERTEX
  5
10DE
  8
0
 10
0.0
 20
0.0
 30
0.0
 70
   128
 71
     8
 72
     1
 73
    -2
  0
SEQEND
  5
1381
  8
0
  0
POLYLINE
  5
10DF
  8
0
 66
     1
 10
0.0
 20
0.0
 30
0.0
 70
    64
 71
     8
 72
     6
  0
VERTEX
  5
10E0
  8
0
 10
-55.07517527229068
 20
28.67032155011852
 30
-165.0000000000005
 70
   192
  0
VERTEX
  5
10E1
  8
0
 10
-55.07517527229109
 20
28.67032155011842
 30
-135.4527630831824
 70
   192
  0
VERTEX
  5
10E2
  8
0
 10
-119.9999999999976
 20
35.00000000000048
 30
-135.4527630831823
 70
   192
  0
VERTEX
  5
10E3
  8
0
 10
-119.9999999999974
 20
35.00000000000054
 30
-154.9999999999981
 70
   192
  0
VERTEX
  5
10E4
  8
0
 10
-80.00000000000047
 20
31.10030309581752
 30
-154.9999999999982
 70
   192
  0
VERTEX
  5
10E5
  8
0
 10
-75.10958323589112
 20
30.62352451793844
 30
-156.2773958089714
 70
   192
  0
VERTEX
  5
10E6
  8
0
 10
-71.27739580897247
 20
30.24991528181334
 30
-160.109583235891
 70
   192
  0
VERTEX
  5
10E7
  8
0
 10
-70.00000000000045
 20
30.12537886977173
 30
-165.0000000000006
 70
   192
  0
VERTEX
  5
10E8
  8
0
 10
0.0
 20
0.0
 30
0.0
 70
   128
 71
     5
 72
     4
 73
    -3
  0
VERTEX
  5
10E9
  8
0
 10
0.0
 20
0.0
 30
0.0
 70
   128
 71
    -5
 72
     3
 73
    -2
  0
VERTEX
  5
10EA
  8
0
 10
0.0
 20
0.0
 30
0.0
 70
   128
 71
    -2
 72
     6
 73
    -5
  0
VERTEX
  5
10EB
  8
0
 10
0.0
 20
0.0
 30
0.0
 70
   128
 71
     2
 72
    -1
 73
    -7
  0
VERTEX
  5
10EC
  8
0
 10
0.0
 20
0.0
 30
0.0
 70
   128
 71
    -2
 72
     7
 73
    -6
  0
VERTEX
  5
10ED
  8
0
 10
0.0
 20
0.0
 30
0.0
 70
   128
 71
     1
 72
     8
 73
    -7
  0
SEQEND
  5
1382
  8
0
  0
POLYLINE
  5
10EE
  8
0
 66
     1
 10
0.0
 20
0.0
 30
0.0
 70
    64
 71
     9
 72
     7
  0
VERTEX
  5
10EF
  8
0
 10
-115.8903634398152
 20
-202.0779241254604
 30
-5.00000000000002
 70
   192
  0
VERTEX
  5
10F0
  8
0
 10
-113.8435564670359
 20
-202.9485609718326
 30
-8.598555549283267
 70
   192
  0
VERTEX
  5
10F1
  8
0
 10
-110.4494478184593
 20
-203.5804881135207
 30
-11.04349397644475
 70
   192
  0
VERTEX
  5
10F2
  8
0
 10
-106.3154821148664
 20
-203.8606093645482
 30
-11.89724393374843
 70
   192
  0
VERTEX
  5
10F3
  8
0
 10
-106.6623434164922
 20
-223.8706241892025
 30
-8.074195500768
 70
   192
  0
VERTEX
  5
10F4
  8
0
 10
-106.8715323932097
 20
-244.1409354219976
 30
-5.768548875191381
 70
   192
  0
VERTEX
  5
10F5
  8
0
 10
-106.9412620521155
 20
-264.4983843100642
 30
-4.999999999999233
 70
   192
  0
VERTEX
  5
10F6
  8
0
 10
-110.7694974847797
 20
-243.8106037749582
 30
-4.999999999999877
 70
   192
  0
VERTEX
  5
10F7
  8
0
 10
-113.9599771434264
 20
-223.0190272267188
 30
-5.000000000000001
 70
   192
  0
VERTEX
  5
10F8
  8
0
 10
0.0
 20
0.0
 30
0.0
 70
   128
 71
     5
 72
     4
 73
     3
  0
VERTEX
  5
10F9
  8
0
 10
0.0
 20
0.0
 30
0.0
 70
   128
 71
     5
 72
     3
 73
     8
  0
VERTEX
  5
10FA
  8
0
 10
0.0
 20
0.0
 30
0.0
 70
   128
 71
     8
 72
     6
 73
     5
  0
VERTEX
  5
10FB
  8
0
 10
0.0
 20
0.0
 30
0.0
 70
   128
 71
     8
 72
     7
 73
     6
  0
VERTEX
  5
10FC
  8
0
 10
0.0
 20
0.0
 30
0.0
 70
   128
 71
     3
 72
     2
 73
     9
  0
VERTEX
  5
10FD
  8
0
 10
0.0
 20
0.0
 30
0.0
 70
   128
 71
     3
 72
     9
 73
     8
  0
VERTEX
  5
10FE
  8
0
 10
0.0
 20
0.0
 30
0.0
 70
   128
 71
     2
 72
     1
 73
     9
  0
SEQEND
  5
1383
  8
0
  0
POLYLINE
  5
10FF
  8
0
 66
     1
 10
0.0
 20
0.0
 30
0.0
 70
    64
 71
    15
 72
    13
  0
VERTEX
  5
1100
  8
0
 10
-115.8903634398151
 20
-202.0779241254605
 30
-5.0
 70
   192
  0
VERTEX
  5
1101
  8
0
 10
-116.0007447100302
 20
-199.5263989723892
 30
-5.000000000000001
 70
   192
  0
VERTEX
  5
1102
  8
0
 10
-116.076460401435
 20
-196.9737113853194
 30
-5.0
 70
   192
  0
VERTEX
  5
1103
  8
0
 10
-116.1045737922898
 20
-194.4194275597195
 30
-5.0
 70
   192
  0
VERTEX
  5
1104
  8
0
 10
-115.6913361047948
 20
-182.6010769858233
 30
-9.723328381539755
 70
   192
  0
VERTEX
  5
1105
  8
0
 10
-115.1332323278594
 20
-171.5137989959391
 30
-16.10248374228079
 70
   192
  0
VERTEX
  5
1106
  8
0
 10
-114.4470250324432
 20
-161.490598475065
 30
-23.94586901942482
 70
   192
  0
VERTEX
  5
1107
  8
0
 10
-112.9071527931613
 20
-164.723396207432
 30
-27.38913208275749
 70
   192
  0
VERTEX
  5
1108
  8
0
 10
-109.2888600442842
 20
-167.1583960911159
 30
-29.76757303533577
 70
   192
  0
VERTEX
  5
1109
  8
0
 10
-104.4850780515257
 20
-168.1946828107859
 30
-30.49423431523472
 70
   192
  0
VERTEX
  5
110A
  8
0
 10
-105.2897460547742
 20
-178.9432746571055
 30
-22.31876999213293
 70
   192
  0
VERTEX
  5
110B
  8
0
 10
-105.9087156209748
 20
-191.0040668773946
 30
-16.0300104228078
 70
   192
  0
VERTEX
  5
110C
  8
0
 10
-106.3154821148664
 20
-203.8606093645482
 30
-11.89724393374841
 70
   192
  0
VERTEX
  5
110D
  8
0
 10
-110.4494478184593
 20
-203.5804881135207
 30
-11.04349397644475
 70
   192
  0
VERTEX
  5
110E
  8
0
 10
-113.8435564670359
 20
-202.9485609718326
 30
-8.598555549283267
 70
   192
  0
VERTEX
  5
110F
  8
0
 10
0.0
 20
0.0
 30
0.0
 70
   128
 71
    11
 72
    10
 73
     9
  0
VERTEX
  5
1110
  8
0
 10
0.0
 20
0.0
 30
0.0
 70
   128
 71
     9
 72
    14
 73
    12
  0
VERTEX
  5
1111
  8
0
 10
0.0
 20
0.0
 30
0.0
 70
   128
 71
     9
 72
    12
 73
    11
  0
VERTEX
  5
1112
  8
0
 10
0.0
 20
0.0
 30
0.0
 70
   128
 71
    14
 72
    13
 73
    12
  0
VERTEX
  5
1113
  8
0
 10
0.0
 20
0.0
 30
0.0
 70
   128
 71
     9
 72
     8
 73
    15
  0
VERTEX
  5
1114
  8
0
 10
0.0
 20
0.0
 30
0.0
 70
   128
 71
     9
 72
    15
 73
    14
  0
VERTEX
  5
1115
  8
0
 10
0.0
 20
0.0
 30
0.0
 70
   128
 71
     2
 72
     1
 73
    15
  0
VERTEX
  5
1116
  8
0
 10
0.0
 20
0.0
 30
0.0
 70
   128
 71
    15
 72
     8
 73
     5
  0
VERTEX
  5
1117
  8
0
 10
0.0
 20
0.0
 30
0.0
 70
   128
 71
    15
 72
     5
 73
     3
  0
VERTEX
  5
1118
  8
0
 10
0.0
 20
0.0
 30
0.0
 70
   128
 71
    15
 72
     3
 73
     2
  0
VERTEX
  5
1119
  8
0
 10
0.0
 20
0.0
 30
0.0
 70
   128
 71
     5
 72
     4
 73
     3
  0
VERTEX
  5
111A
  8
0
 10
0.0
 20
0.0
 30
0.0
 70
   128
 71
     8
 72
     6
 73
     5
  0
VERTEX
  5
111B
  8
0
 10
0.0
 20
0.0
 30
0.0
 70
   128
 71
     8
 72
     7
 73
     6
  0
SEQEND
  5
1384
  8
0
  0
POLYLINE
  5
111C
  8
0
 66
     1
 10
0.0
 20
0.0
 30
0.0
 70
    64
 71
    12
 72
    10
  0
VERTEX
  5
111D
  8
0
 10
-114.4470250324432
 20
-161.490598475065
 30
-23.94586901942482
 70
   192
  0
VERTEX
  5
111E
  8
0
 10
-112.3760274812716
 20
-132.9019393578602
 30
-47.61747934820767
 70
   192
  0
VERTEX
  5
111F
  8
0
 10
-110.5252047919936
 20
-102.3196490450648
 30
-68.77247948979397
 70
   192
  0
VERTEX
  5
1120
  8
0
 10
-108.9152518615887
 20
-70.08568214480596
 30
-87.174325689306
 70
   192
  0
VERTEX
  5
1121
  8
0
 10
-107.336835364579
 20
-72.27820303187362
 30
-91.29368689321997
 70
   192
  0
VERTEX
  5
1122
  8
0
 10
-103.7239302482083
 20
-73.93864989582977
 30
-94.20186777457032
 70
   192
  0
VERTEX
  5
1123
  8
0
 10
-98.95330488067124
 20
-74.66407075191613
 30
-95.1931202099969
 70
   192
  0
VERTEX
  5
1124
  8
0
 10
-100.5632578110761
 20
-107.6476647893904
 30
-76.36332409886813
 70
   192
  0
VERTEX
  5
1125
  8
0
 10
-102.4140805003542
 20
-138.9411711559721
 30
-54.71634720980293
 70
   192
  0
VERTEX
  5
1126
  8
0
 10
-104.4850780515257
 20
-168.1946828107859
 30
-30.49423431523471
 70
   192
  0
VERTEX
  5
1127
  8
0
 10
-109.2888600442842
 20
-167.1583960911159
 30
-29.76757303533577
 70
   192
  0
VERTEX
  5
1128
  8
0
 10
-112.9071527931613
 20
-164.723396207432
 30
-27.38913208275749
 70
   192
  0
VERTEX
  5
1129
  8
0
 10
0.0
 20
0.0
 30
0.0
 70
   128
 71
     8
 72
     7
 73
     6
  0
VERTEX
  5
112A
  8
0
 10
0.0
 20
0.0
 30
0.0
 70
   128
 71
     6
 72
    11
 73
     9
  0
VERTEX
  5
112B
  8
0
 10
0.0
 20
0.0
 30
0.0
 70
   128
 71
     6
 72
     9
 73
     8
  0
VERTEX
  5
112C
  8
0
 10
0.0
 20
0.0
 30
0.0
 70
   128
 71
    11
 72
    10
 73
     9
  0
VERTEX
  5
112D
  8
0
 10
0.0
 20
0.0
 30
0.0
 70
   128
 71
     6
 72
     5
 73
    12
  0
VERTEX
  5
112E
  8
0
 10
0.0
 20
0.0
 30
0.0
 70
   128
 71
     6
 72
    12
 73
    11
  0
VERTEX
  5
112F
  8
0
 10
0.0
 20
0.0
 30
0.0
 70
   128
 71
     2
 72
     1
 73
    12
  0
VERTEX
  5
1130
  8
0
 10
0.0
 20
0.0
 30
0.0
 70
   128
 71
    12
 72
     5
 73
     3
  0
VERTEX
  5
1131
  8
0
 10
0.0
 20
0.0
 30
0.0
 70
   128
 71
    12
 72
     3
 73
     2
  0
VERTEX
  5
1132
  8
0
 10
0.0
 20
0.0
 30
0.0
 70
   128
 71
     5
 72
     4
 73
     3
  0
SEQEND
  5
1385
  8
0
  0
POLYLINE
  5
1133
  8
0
 66
     1
 10
0.0
 20
0.0
 30
0.0
 70
    64
 71
    13
 72
    11
  0
VERTEX
  5
1134
  8
0
 10
-98.95330488067124
 20
-74.6640707519161
 30
-95.19312020999685
 70
   192
  0
VERTEX
  5
1135
  8
0
 10
-103.7239302482083
 20
-73.93864989582977
 30
-94.20186777457032
 70
   192
  0
VERTEX
  5
1136
  8
0
 10
-107.336835364579
 20
-72.27820303187362
 30
-91.29368689321997
 70
   192
  0
VERTEX
  5
1137
  8
0
 10
-108.9152518615887
 20
-70.08568214480596
 30
-87.174325689306
 70
   192
  0
VERTEX
  5
1138
  8
0
 10
-108.1171004933604
 20
-48.97244264293254
 30
-96.29723757367626
 70
   192
  0
VERTEX
  5
1139
  8
0
 10
-107.5737027118534
 20
-26.71685964515926
 30
-102.508302637506
 70
   192
  0
VERTEX
  5
113A
  8
0
 10
-107.2999956176355
 20
-3.930702085304593
 30
-105.6367890400543
 70
   192
  0
VERTEX
  5
113B
  8
0
 10
-105.6885619920627
 20
-4.093615412843493
 30
-110.2666039112374
 70
   192
  0
VERTEX
  5
113C
  8
0
 10
-102.0823952010313
 20
-4.215654584933072
 30
-113.5682215527673
 70
   192
  0
VERTEX
  5
113D
  8
0
 10
-97.33804863671803
 20
-4.269648784147287
 30
-114.7652316125784
 70
   192
  0
VERTEX
  5
113E
  8
0
 10
-97.33609689328961
 20
-4.269648784147287
 30
-114.7652316125784
 70
   192
  0
VERTEX
  5
113F
  8
0
 10
-97.60786401052468
 20
-28.51589423065727
 30
-111.4761949916954
 70
   192
  0
VERTEX
  5
1140
  8
0
 10
-98.15196626621847
 20
-52.19977662536199
 30
-104.8912473251453
 70
   192
  0
VERTEX
  5
1141
  8
0
 10
0.0
 20
0.0
 30
0.0
 70
   128
 71
     8
 72
     7
 73
     6
  0
VERTEX
  5
1142
  8
0
 10
0.0
 20
0.0
 30
0.0
 70
   128
 71
     6
 72
    12
 73
     9
  0
VERTEX
  5
1143
  8
0
 10
0.0
 20
0.0
 30
0.0
 70
   128
 71
     6
 72
     9
 73
     8
  0
VERTEX
  5
1144
  8
0
 10
0.0
 20
0.0
 30
0.0
 70
   128
 71
    12
 72
    10
 73
     9
  0
VERTEX
  5
1145
  8
0
 10
0.0
 20
0.0
 30
0.0
 70
   128
 71
    12
 72
    11
 73
    10
  0
VERTEX
  5
1146
  8
0
 10
0.0
 20
0.0
 30
0.0
 70
   128
 71
     6
 72
     5
 73
    13
  0
VERTEX
  5
1147
  8
0
 10
0.0
 20
0.0
 30
0.0
 70
   128
 71
     6
 72
    13
 73
    12
  0
VERTEX
  5
1148
  8
0
 10
0.0
 20
0.0
 30
0.0
 70
   128
 71
     2
 72
     1
 73
    13
  0
VERTEX
  5
1149
  8
0
 10
0.0
 20
0.0
 30
0.0
 70
   128
 71
    13
 72
     5
 73
     3
  0
VERTEX
  5
114A
  8
0
 10
0.0
 20
0.0
 30
0.0
 70
   128
 71
    13
 72
     3
 73
     2
  0
VERTEX
  5
114B
  8
0
 10
0.0
 20
0.0
 30
0.0
 70
   128
 71
     5
 72
     4
 73
     3
  0
SEQEND
  5
1386
  8
0
  0
POLYLINE
  5
114C
  8
0
 66
     1
 10
0.0
 20
0.0
 30
0.0
 70
    64
 71
     8
 72
     6
  0
VERTEX
  5
114D
  8
0
 10
-105.6885619920627
 20
4.093615412844974
 30
-110.2666039112375
 70
   192
  0
VERTEX
  5
114E
  8
0
 10
-107.2999956176355
 20
3.930702085307131
 30
-105.6367890400543
 70
   192
  0
VERTEX
  5
114F
  8
0
 10
-107.2999956176355
 20
-3.930702085304593
 30
-105.6367890400543
 70
   192
  0
VERTEX
  5
1150
  8
0
 10
-105.6885619920627
 20
-4.093615412843493
 30
-110.2666039112374
 70
   192
  0
VERTEX
  5
1151
  8
0
 10
-102.0823952010313
 20
4.215654584935015
 30
-113.5682215527673
 70
   192
  0
VERTEX
  5
1152
  8
0
 10
-102.0823952010313
 20
-4.215654584933072
 30
-113.5682215527673
 70
   192
  0
VERTEX
  5
1153
  8
0
 10
-97.33804863671803
 20
4.269648784149737
 30
-114.7652316125777
 70
   192
  0
VERTEX
  5
1154
  8
0
 10
-97.33804863671803
 20
-4.269648784147287
 30
-114.7652316125784
 70
   192
  0
VERTEX
  5
1155
  8
0
 10
0.0
 20
0.0
 30
0.0
 70
   128
 71
     1
 72
     2
 73
    -3
  0
VERTEX
  5
1156
  8
0
 10
0.0
 20
0.0
 30
0.0
 70
   128
 71
     4
 72
    -1
 73
     3
  0
VERTEX
  5
1157
  8
0
 10
0.0
 20
0.0
 30
0.0
 70
   128
 71
     5
 72
     1
 73
    -4
  0
VERTEX
  5
1158
  8
0
 10
0.0
 20
0.0
 30
0.0
 70
   128
 71
     6
 72
    -5
 73
     4
  0
VERTEX
  5
1159
  8
0
 10
0.0
 20
0.0
 30
0.0
 70
   128
 71
     7
 72
     5
 73
    -6
  0
VERTEX
  5
115A
  8
0
 10
0.0
 20
0.0
 30
0.0
 70
   128
 71
     8
 72
    -7
 73
     6
  0
SEQEND
  5
1387
  8
0
  0
POLYLINE
  5
115B
  8
0
 66
     1
 10
0.0
 20
0.0
 30
0.0
 70
    64
 71
    13
 72
    11
  0
VERTEX
  5
115C
  8
0
 10
-97.33804863671803
 20
4.26964878414974
 30
-114.7652316125784
 70
   192
  0
VERTEX
  5
115D
  8
0
 10
-102.0823952010313
 20
4.215654584935015
 30
-113.5682215527673
 70
   192
  0
VERTEX
  5
115E
  8
0
 10
-105.6885619920627
 20
4.093615412844974
 30
-110.2666039112375
 70
   192
  0
VERTEX
  5
115F
  8
0
 10
-107.2999956176355
 20
3.930702085307131
 30
-105.6367890400543
 70
   192
  0
VERTEX
  5
1160
  8
0
 10
-107.5737027118535
 20
26.71685964516185
 30
-102.5083026375059
 70
   192
  0
VERTEX
  5
1161
  8
0
 10
-108.1171004933605
 20
48.97244264293533
 30
-96.29723757367593
 70
   192
  0
VERTEX
  5
1162
  8
0
 10
-108.9152518615888
 20
70.08568214480873
 30
-87.17432568930559
 70
   192
  0
VERTEX
  5
1163
  8
0
 10
-107.3368353645791
 20
72.27820303187644
 30
-91.29368689321957
 70
   192
  0
VERTEX
  5
1164
  8
0
 10
-103.7239302482082
 20
73.93864989583263
 30
-94.20186777456992
 70
   192
  0
VERTEX
  5
1165
  8
0
 10
-98.95330488067118
 20
74.66407075191896
 30
-95.19312020999642
 70
   192
  0
VERTEX
  5
1166
  8
0
 10
-98.15196626621842
 20
52.19977662536462
 30
-104.891247325145
 70
   192
  0
VERTEX
  5
1167
  8
0
 10
-97.60786401052465
 20
28.51589423065989
 30
-111.4761949916952
 70
   192
  0
VERTEX
  5
1168
  8
0
 10
-97.33609689328961
 20
4.269648784149741
 30
-114.7652316125784
 70
   192
  0
VERTEX
  5
1169
  8
0
 10
0.0
 20
0.0
 30
0.0
 70
   128
 71
     1
 72
    13
 73
    12
  0
VERTEX
  5
116A
  8
0
 10
0.0
 20
0.0
 30
0.0
 70
   128
 71
     8
 72
     7
 73
     6
  0
VERTEX
  5
116B
  8
0
 10
0.0
 20
0.0
 30
0.0
 70
   128
 71
     6
 72
    11
 73
     9
  0
VERTEX
  5
116C
  8
0
 10
0.0
 20
0.0
 30
0.0
 70
   128
 71
     6
 72
     9
 73
     8
  0
VERTEX
  5
116D
  8
0
 10
0.0
 20
0.0
 30
0.0
 70
   128
 71
    11
 72
    10
 73
     9
  0
VERTEX
  5
116E
  8
0
 10
0.0
 20
0.0
 30
0.0
 70
   128
 71
     6
 72
     5
 73
    12
  0
VERTEX
  5
116F
  8
0
 10
0.0
 20
0.0
 30
0.0
 70
   128
 71
     6
 72
    12
 73
    11
  0
VERTEX
  5
1170
  8
0
 10
0.0
 20
0.0
 30
0.0
 70
   128
 71
     2
 72
     1
 73
    12
  0
VERTEX
  5
1171
  8
0
 10
0.0
 20
0.0
 30
0.0
 70
   128
 71
    12
 72
     5
 73
     3
  0
VERTEX
  5
1172
  8
0
 10
0.0
 20
0.0
 30
0.0
 70
   128
 71
    12
 72
     3
 73
     2
  0
VERTEX
  5
1173
  8
0
 10
0.0
 20
0.0
 30
0.0
 70
   128
 71
     5
 72
     4
 73
     3
  0
SEQEND
  5
1388
  8
0
  0
POLYLINE
  5
1174
  8
0
 66
     1
 10
0.0
 20
0.0
 30
0.0
 70
    64
 71
    12
 72
    10
  0
VERTEX
  5
1175
  8
0
 10
-108.9152518615887
 20
70.08568214480873
 30
-87.17432568930559
 70
   192
  0
VERTEX
  5
1176
  8
0
 10
-110.5252047919936
 20
102.3196490450673
 30
-68.77247948979317
 70
   192
  0
VERTEX
  5
1177
  8
0
 10
-112.3760274812717
 20
132.9019393578628
 30
-47.61747934820653
 70
   192
  0
VERTEX
  5
1178
  8
0
 10
-114.4470250324433
 20
161.4905984750674
 30
-23.94586901942366
 70
   192
  0
VERTEX
  5
1179
  8
0
 10
-112.9071527931614
 20
164.7233962074344
 30
-27.38913208275635
 70
   192
  0
VERTEX
  5
117A
  8
0
 10
-109.2888600442842
 20
167.1583960911183
 30
-29.76757303533462
 70
   192
  0
VERTEX
  5
117B
  8
0
 10
-104.4850780515257
 20
168.1946828107883
 30
-30.49423431523352
 70
   192
  0
VERTEX
  5
117C
  8
0
 10
-102.4140805003541
 20
138.9411711559742
 30
-54.71634720980213
 70
   192
  0
VERTEX
  5
117D
  8
0
 10
-100.5632578110761
 20
107.647664789393
 30
-76.36332409886741
 70
   192
  0
VERTEX
  5
117E
  8
0
 10
-98.95330488067118
 20
74.66407075191896
 30
-95.19312020999642
 70
   192
  0
VERTEX
  5
117F
  8
0
 10
-103.7239302482082
 20
73.93864989583263
 30
-94.20186777456992
 70
   192
  0
VERTEX
  5
1180
  8
0
 10
-107.3368353645791
 20
72.27820303187644
 30
-91.29368689321957
 70
   192
  0
VERTEX
  5
1181
  8
0
 10
0.0
 20
0.0
 30
0.0
 70
   128
 71
     8
 72
     7
 73
     6
  0
VERTEX
  5
1182
  8
0
 10
0.0
 20
0.0
 30
0.0
 70
   128
 71
     6
 72
    11
 73
     9
  0
VERTEX
  5
1183
  8
0
 10
0.0
 20
0.0
 30
0.0
 70
   128
 71
     6
 72
     9
 73
     8
  0
VERTEX
  5
1184
  8
0
 10
0.0
 20
0.0
 30
0.0
 70
   128
 71
    11
 72
    10
 73
     9
  0
VERTEX
  5
1185
  8
0
 10
0.0
 20
0.0
 30
0.0
 70
   128
 71
     6
 72
     5
 73
    12
  0
VERTEX
  5
1186
  8
0
 10
0.0
 20
0.0
 30
0.0
 70
   128
 71
     6
 72
    12
 73
    11
  0
VERTEX
  5
1187
  8
0
 10
0.0
 20
0.0
 30
0.0
 70
   128
 71
     2
 72
     1
 73
    12
  0
VERTEX
  5
1188
  8
0
 10
0.0
 20
0.0
 30
0.0
 70
   128
 71
    12
 72
     5
 73
     3
  0
VERTEX
  5
1189
  8
0
 10
0.0
 20
0.0
 30
0.0
 70
   128
 71
    12
 72
     3
 73
     2
  0
VERTEX
  5
118A
  8
0
 10
0.0
 20
0.0
 30
0.0
 70
   128
 71
     5
 72
     4
 73
     3
  0
SEQEND
  5
1389
  8
0
  0
POLYLINE
  5
118B
  8
0
 66
     1
 10
0.0
 20
0.0
 30
0.0
 70
    64
 71
    15
 72
    13
  0
VERTEX
  5
118C
  8
0
 10
-114.4470250324433
 20
161.4905984750674
 30
-23.94586901942366
 70
   192
  0
VERTEX
  5
118D
  8
0
 10
-115.1332323278594
 20
171.5137989959402
 30
-16.10248374228043
 70
   192
  0
VERTEX
  5
118E
  8
0
 10
-115.6913361047948
 20
182.601076985823
 30
-9.723328381539805
 70
   192
  0
VERTEX
  5
118F
  8
0
 10
-116.1045737922898
 20
194.4194275597175
 30
-5.0
 70
   192
  0
VERTEX
  5
1190
  8
0
 10
-116.0764604014349
 20
196.9737113853189
 30
-5.0
 70
   192
  0
VERTEX
  5
1191
  8
0
 10
-116.0007447100301
 20
199.5263989723902
 30
-5.0
 70
   192
  0
VERTEX
  5
1192
  8
0
 10
-115.8903634398148
 20
202.077924125463
 30
-5.000000000000004
 70
   192
  0
VERTEX
  5
1193
  8
0
 10
-113.8435564670354
 20
202.948560971835
 30
-8.598555549282551
 70
   192
  0
VERTEX
  5
1194
  8
0
 10
-110.4494478184589
 20
203.580488113523
 30
-11.04349397644347
 70
   192
  0
VERTEX
  5
1195
  8
0
 10
-106.3154821148665
 20
203.8606093645504
 30
-11.89724393374691
 70
   192
  0
VERTEX
  5
1196
  8
0
 10
-105.9087156209749
 20
191.0040668773969
 30
-16.03001042280647
 70
   192
  0
VERTEX
  5
1197
  8
0
 10
-105.2897460547742
 20
178.9432746571079
 30
-22.3187699921317
 70
   192
  0
VERTEX
  5
1198
  8
0
 10
-104.4850780515257
 20
168.1946828107883
 30
-30.49423431523353
 70
   192
  0
VERTEX
  5
1199
  8
0
 10
-109.2888600442842
 20
167.1583960911183
 30
-29.76757303533462
 70
   192
  0
VERTEX
  5
119A
  8
0
 10
-112.9071527931614
 20
164.7233962074344
 30
-27.38913208275635
 70
   192
  0
VERTEX
  5
119B
  8
0
 10
0.0
 20
0.0
 30
0.0
 70
   128
 71
    11
 72
    10
 73
     9
  0
VERTEX
  5
119C
  8
0
 10
0.0
 20
0.0
 30
0.0
 70
   128
 71
     9
 72
    14
 73
    12
  0
VERTEX
  5
119D
  8
0
 10
0.0
 20
0.0
 30
0.0
 70
   128
 71
     9
 72
    12
 73
    11
  0
VERTEX
  5
119E
  8
0
 10
0.0
 20
0.0
 30
0.0
 70
   128
 71
    14
 72
    13
 73
    12
  0
VERTEX
  5
119F
  8
0
 10
0.0
 20
0.0
 30
0.0
 70
   128
 71
     9
 72
     8
 73
    15
  0
VERTEX
  5
11A0
  8
0
 10
0.0
 20
0.0
 30
0.0
 70
   128
 71
     9
 72
    15
 73
    14
  0
VERTEX
  5
11A1
  8
0
 10
0.0
 20
0.0
 30
0.0
 70
   128
 71
     2
 72
     1
 73
     5
  0
VERTEX
  5
11A2
  8
0
 10
0.0
 20
0.0
 30
0.0
 70
   128
 71
     5
 72
     3
 73
     2
  0
VERTEX
  5
11A3
  8
0
 10
0.0
 20
0.0
 30
0.0
 70
   128
 71
     5
 72
     4
 73
     3
  0
VERTEX
  5
11A4
  8
0
 10
0.0
 20
0.0
 30
0.0
 70
   128
 71
     1
 72
    15
 73
     8
  0
VERTEX
  5
11A5
  8
0
 10
0.0
 20
0.0
 30
0.0
 70
   128
 71
     1
 72
     8
 73
     6
  0
VERTEX
  5
11A6
  8
0
 10
0.0
 20
0.0
 30
0.0
 70
   128
 71
     1
 72
     6
 73
     5
  0
VERTEX
  5
11A7
  8
0
 10
0.0
 20
0.0
 30
0.0
 70
   128
 71
     8
 72
     7
 73
     6
  0
SEQEND
  5
138A
  8
0
  0
POLYLINE
  5
11A8
  8
0
 66
     1
 10
0.0
 20
0.0
 30
0.0
 70
    64
 71
     9
 72
     7
  0
VERTEX
  5
11A9
  8
0
 10
-106.3154821148665
 20
203.8606093645504
 30
-11.8972439337469
 70
   192
  0
VERTEX
  5
11AA
  8
0
 10
-110.4494478184589
 20
203.580488113523
 30
-11.04349397644347
 70
   192
  0
VERTEX
  5
11AB
  8
0
 10
-113.8435564670354
 20
202.948560971835
 30
-8.598555549282551
 70
   192
  0
VERTEX
  5
11AC
  8
0
 10
-115.8903634398148
 20
202.077924125463
 30
-5.0
 70
   192
  0
VERTEX
  5
11AD
  8
0
 10
-113.9599752956611
 20
223.019041590715
 30
-5.000000000000001
 70
   192
  0
VERTEX
  5
11AE
  8
0
 10
-110.7687551518172
 20
243.8107339095968
 30
-5.000000000000002
 70
   192
  0
VERTEX
  5
11AF
  8
0
 10
-106.9412620521157
 20
264.4983843100665
 30
-4.999999999997476
 70
   192
  0
VERTEX
  5
11B0
  8
0
 10
-106.8715323932098
 20
244.1409354219998
 30
-5.768548875189738
 70
   192
  0
VERTEX
  5
11B1
  8
0
 10
-106.6623434164923
 20
223.8706241892049
 30
-8.074195500766427
 70
   192
  0
VERTEX
  5
11B2
  8
0
 10
0.0
 20
0.0
 30
0.0
 70
   128
 71
     8
 72
     7
 73
     6
  0
VERTEX
  5
11B3
  8
0
 10
0.0
 20
0.0
 30
0.0
 70
   128
 71
     6
 72
     9
 73
     8
  0
VERTEX
  5
11B4
  8
0
 10
0.0
 20
0.0
 30
0.0
 70
   128
 71
     5
 72
     4
 73
     3
  0
VERTEX
  5
11B5
  8
0
 10
0.0
 20
0.0
 30
0.0
 70
   128
 71
     2
 72
     1
 73
     9
  0
VERTEX
  5
11B6
  8
0
 10
0.0
 20
0.0
 30
0.0
 70
   128
 71
     2
 72
     9
 73
     6
  0
VERTEX
  5
11B7
  8
0
 10
0.0
 20
0.0
 30
0.0
 70
   128
 71
     6
 72
     5
 73
     3
  0
VERTEX
  5
11B8
  8
0
 10
0.0
 20
0.0
 30
0.0
 70
   128
 71
     6
 72
     3
 73
     2
  0
SEQEND
  5
138B
  8
0
  0
POLYLINE
  5
11B9
  8
0
 66
     1
 10
0.0
 20
0.0
 30
0.0
 70
    64
 71
    17
 72
    15
  0
VERTEX
  5
11BA
  8
0
 10
213.0000000000028
 20
267.9999999999977
 30
0.0
 70
   192
  0
VERTEX
  5
11BB
  8
0
 10
213.0000000000028
 20
267.9999999999977
 30
-2.5
 70
   192
  0
VERTEX
  5
11BC
  8
0
 10
214.7336838536271
 20
267.8485704696487
 30
-2.5
 70
   192
  0
VERTEX
  5
11BD
  8
0
 10
216.4148615209058
 20
267.3988680591342
 30
-2.5
 70
   192
  0
VERTEX
  5
11BE
  8
0
 10
217.9926170129212
 20
266.6645124134182
 30
-2.5
 70
   192
  0
VERTEX
  5
11BF
  8
0
 10
218.7742699166784
 20
266.1648777383057
 30
-2.500251724446101
 70
   192
  0
VERTEX
  5
11C0
  8
0
 10
218.0000000000028
 20
266.6602540378421
 30
0.0000000000032147
 70
   192
  0
VERTEX
  5
11C1
  8
0
 10
219.502983279794
 20
265.5972778043595
 30
-2.501161537320412
 70
   192
  0
VERTEX
  5
11C2
  8
0
 10
221.2252803304702
 20
263.6876565803698
 30
-2.500255065151005
 70
   192
  0
VERTEX
  5
11C3
  8
0
 10
221.6666666666622
 20
262.9888765157089
 30
-2.5
 70
   192
  0
VERTEX
  5
11C4
  8
0
 10
221.6602540378472
 20
262.9999999999977
 30
0.0000000000032402
 70
   192
  0
VERTEX
  5
11C5
  8
0
 10
222.8488198156152
 20
259.732266792267
 30
-2.5
 70
   192
  0
VERTEX
  5
11C6
  8
0
 10
223.0000000000027
 20
257.9999999999976
 30
-2.5
 70
   192
  0
VERTEX
  5
11C7
  8
0
 10
223.0000000000027
 20
257.9999999999976
 30
0.0
 70
   192
  0
VERTEX
  5
11C8
  8
0
 10
220.1787570311338
 20
264.9617129708107
 30
-2.502961397926935
 70
   192
  0
VERTEX
  5
11C9
  8
0
 10
220.7293103367567
 20
264.3452687595117
 30
-2.501168218730201
 70
   192
  0
VERTEX
  5
11CA
  8
0
 10
222.399850352083
 20
261.4121567019235
 30
-2.5
 70
   192
  0
VERTEX
  5
11CB
  8
0
 10
0.0
 20
0.0
 30
0.0
 70
   128
 71
     1
 72
     2
 73
     3
  0
VERTEX
  5
11CC
  8
0
 10
0.0
 20
0.0
 30
0.0
 70
   128
 71
     1
 72
     3
 73
     4
  0
VERTEX
  5
11CD
  8
0
 10
0.0
 20
0.0
 30
0.0
 70
   128
 71
     5
 72
     6
 73
     7
  0
VERTEX
  5
11CE
  8
0
 10
0.0
 20
0.0
 30
0.0
 70
   128
 71
     7
 72
     6
 73
     8
  0
VERTEX
  5
11CF
  8
0
 10
0.0
 20
0.0
 30
0.0
 70
   128
 71
     9
 72
    10
 73
    11
  0
VERTEX
  5
11D0
  8
0
 10
0.0
 20
0.0
 30
0.0
 70
   128
 71
    12
 72
    13
 73
    14
  0
VERTEX
  5
11D1
  8
0
 10
0.0
 20
0.0
 30
0.0
 70
   128
 71
    15
 72
    16
 73
    11
  0
VERTEX
  5
11D2
  8
0
 10
0.0
 20
0.0
 30
0.0
 70
   128
 71
    16
 72
     9
 73
    11
  0
VERTEX
  5
11D3
  8
0
 10
0.0
 20
0.0
 30
0.0
 70
   128
 71
    12
 72
    14
 73
    11
  0
VERTEX
  5
11D4
  8
0
 10
0.0
 20
0.0
 30
0.0
 70
   128
 71
    17
 72
    12
 73
    11
  0
VERTEX
  5
11D5
  8
0
 10
0.0
 20
0.0
 30
0.0
 70
   128
 71
     7
 72
     1
 73
     4
  0
VERTEX
  5
11D6
  8
0
 10
0.0
 20
0.0
 30
0.0
 70
   128
 71
     5
 72
     7
 73
     4
  0
VERTEX
  5
11D7
  8
0
 10
0.0
 20
0.0
 30
0.0
 70
   128
 71
    11
 72
     7
 73
     8
  0
VERTEX
  5
11D8
  8
0
 10
0.0
 20
0.0
 30
0.0
 70
   128
 71
    15
 72
    11
 73
     8
  0
VERTEX
  5
11D9
  8
0
 10
0.0
 20
0.0
 30
0.0
 70
   128
 71
    17
 72
    11
 73
    10
  0
SEQEND
  5
138C
  8
0
  0
POLYLINE
  5
11DA
  8
0
 66
     1
 10
0.0
 20
0.0
 30
0.0
 70
    64
 71
    17
 72
    15
  0
VERTEX
  5
11DB
  8
0
 10
214.7336838536216
 20
-267.8485704696533
 30
-2.5
 70
   192
  0
VERTEX
  5
11DC
  8
0
 10
212.9999999999972
 20
-268.0000000000022
 30
-2.5
 70
   192
  0
VERTEX
  5
11DD
  8
0
 10
212.9999999999972
 20
-268.0000000000022
 30
0.0
 70
   192
  0
VERTEX
  5
11DE
  8
0
 10
217.9999999999972
 20
-266.6602540378466
 30
0.0000000000013527
 70
   192
  0
VERTEX
  5
11DF
  8
0
 10
218.7677733979866
 20
-266.169452892635
 30
-2.500248337577773
 70
   192
  0
VERTEX
  5
11E0
  8
0
 10
217.9926170129157
 20
-266.6645124134227
 30
-2.5
 70
   192
  0
VERTEX
  5
11E1
  8
0
 10
221.666666666664
 20
-262.9888765157008
 30
-2.5
 70
   192
  0
VERTEX
  5
11E2
  8
0
 10
221.2207698688166
 20
-263.6941899196146
 30
-2.500256741902992
 70
   192
  0
VERTEX
  5
11E3
  8
0
 10
221.6602540378416
 20
-263.0000000000023
 30
0.0000000000014038
 70
   192
  0
VERTEX
  5
11E4
  8
0
 10
220.7192856396208
 20
-264.3574747610668
 30
-2.501165289873074
 70
   192
  0
VERTEX
  5
11E5
  8
0
 10
222.9999999999973
 20
-258.0000000000023
 30
0.0
 70
   192
  0
VERTEX
  5
11E6
  8
0
 10
222.9999999999973
 20
-258.0000000000023
 30
-2.5
 70
   192
  0
VERTEX
  5
11E7
  8
0
 10
222.8488198156106
 20
-259.7322667922668
 30
-2.5
 70
   192
  0
VERTEX
  5
11E8
  8
0
 10
222.3998503520808
 20
-261.4121567019191
 30
-2.5
 70
   192
  0
VERTEX
  5
11E9
  8
0
 10
220.1622143505659
 20
-264.9787309445587
 30
-2.502933127301905
 70
   192
  0
VERTEX
  5
11EA
  8
0
 10
219.4909725294019
 20
-265.6075256256688
 30
-2.501148481224618
 70
   192
  0
VERTEX
  5
11EB
  8
0
 10
216.4148615209004
 20
-267.3988680591387
 30
-2.5
 70
   192
  0
VERTEX
  5
11EC
  8
0
 10
0.0
 20
0.0
 30
0.0
 70
   128
 71
     1
 72
     2
 73
     3
  0
VERTEX
  5
11ED
  8
0
 10
0.0
 20
0.0
 30
0.0
 70
   128
 71
     4
 72
     5
 73
     6
  0
VERTEX
  5
11EE
  8
0
 10
0.0
 20
0.0
 30
0.0
 70
   128
 71
     7
 72
     8
 73
     9
  0
VERTEX
  5
11EF
  8
0
 10
0.0
 20
0.0
 30
0.0
 70
   128
 71
     9
 72
     8
 73
    10
  0
VERTEX
  5
11F0
  8
0
 10
0.0
 20
0.0
 30
0.0
 70
   128
 71
    11
 72
    12
 73
    13
  0
VERTEX
  5
11F1
  8
0
 10
0.0
 20
0.0
 30
0.0
 70
   128
 71
    11
 72
    13
 73
    14
  0
VERTEX
  5
11F2
  8
0
 10
0.0
 20
0.0
 30
0.0
 70
   128
 71
     9
 72
    10
 73
    15
  0
VERTEX
  5
11F3
  8
0
 10
0.0
 20
0.0
 30
0.0
 70
   128
 71
    16
 72
     5
 73
     4
  0
VERTEX
  5
11F4
  8
0
 10
0.0
 20
0.0
 30
0.0
 70
   128
 71
     1
 72
     3
 73
     4
  0
VERTEX
  5
11F5
  8
0
 10
0.0
 20
0.0
 30
0.0
 70
   128
 71
    17
 72
     1
 73
     4
  0
VERTEX
  5
11F6
  8
0
 10
0.0
 20
0.0
 30
0.0
 70
   128
 71
     4
 72
     6
 73
    17
  0
VERTEX
  5
11F7
  8
0
 10
0.0
 20
0.0
 30
0.0
 70
   128
 71
    15
 72
    16
 73
     4
  0
VERTEX
  5
11F8
  8
0
 10
0.0
 20
0.0
 30
0.0
 70
   128
 71
     9
 72
    15
 73
     4
  0
VERTEX
  5
11F9
  8
0
 10
0.0
 20
0.0
 30
0.0
 70
   128
 71
    14
 72
     7
 73
     9
  0
VERTEX
  5
11FA
  8
0
 10
0.0
 20
0.0
 30
0.0
 70
   128
 71
    11
 72
    14
 73
     9
  0
SEQEND
  5
138D
  8
0
  0
POLYLINE
  5
11FB
  8
0
 66
     1
 10
0.0
 20
0.0
 30
0.0
 70
    64
 71
    12
 72
    10
  0
VERTEX
  5
11FC
  8
0
 10
221.376388374862
 20
262.8217808365184
 30
-3.750000000000005
 70
   192
  0
VERTEX
  5
11FD
  8
0
 10
220.5833333333297
 20
262.365266951245
 30
-4.665063509461104
 70
   192
  0
VERTEX
  5
11FE
  8
0
 10
222.6650635094638
 20
257.9999999999976
 30
-3.75
 70
   192
  0
VERTEX
  5
11FF
  8
0
 10
221.7500000000027
 20
257.9999999999976
 30
-4.665063509461096
 70
   192
  0
VERTEX
  5
1200
  8
0
 10
219.4999999999973
 20
261.7416573867811
 30
-5.000000000000009
 70
   192
  0
VERTEX
  5
1201
  8
0
 10
220.0498877640629
 20
260.5591175264421
 30
-5.0
 70
   192
  0
VERTEX
  5
1202
  8
0
 10
220.3866148617121
 20
259.2992000941996
 30
-5.0
 70
   192
  0
VERTEX
  5
1203
  8
0
 10
220.5000000000027
 20
257.9999999999976
 30
-5.0
 70
   192
  0
VERTEX
  5
1204
  8
0
 10
223.0000000000027
 20
257.9999999999976
 30
-2.5
 70
   192
  0
VERTEX
  5
1205
  8
0
 10
222.8488198156152
 20
259.732266792267
 30
-2.5
 70
   192
  0
VERTEX
  5
1206
  8
0
 10
222.399850352083
 20
261.4121567019235
 30
-2.5
 70
   192
  0
VERTEX
  5
1207
  8
0
 10
221.6666666666622
 20
262.9888765157089
 30
-2.5
 70
   192
  0
VERTEX
  5
1208
  8
0
 10
0.0
 20
0.0
 30
0.0
 70
   128
 71
     1
 72
    -2
 73
     3
  0
VERTEX
  5
1209
  8
0
 10
0.0
 20
0.0
 30
0.0
 70
   128
 71
    -3
 72
     2
 73
     4
  0
VERTEX
  5
120A
  8
0
 10
0.0
 20
0.0
 30
0.0
 70
   128
 71
     2
 72
     5
 73
     6
  0
VERTEX
  5
120B
  8
0
 10
0.0
 20
0.0
 30
0.0
 70
   128
 71
     6
 72
     7
 73
     2
  0
VERTEX
  5
120C
  8
0
 10
0.0
 20
0.0
 30
0.0
 70
   128
 71
     2
 72
     7
 73
     8
  0
VERTEX
  5
120D
  8
0
 10
0.0
 20
0.0
 30
0.0
 70
   128
 71
     4
 72
     2
 73
     8
  0
VERTEX
  5
120E
  8
0
 10
0.0
 20
0.0
 30
0.0
 70
   128
 71
     3
 72
     9
 73
    10
  0
VERTEX
  5
120F
  8
0
 10
0.0
 20
0.0
 30
0.0
 70
   128
 71
    11
 72
     1
 73
    -3
  0
VERTEX
  5
1210
  8
0
 10
0.0
 20
0.0
 30
0.0
 70
   128
 71
    10
 72
   -11
 73
     3
  0
VERTEX
  5
1211
  8
0
 10
0.0
 20
0.0
 30
0.0
 70
   128
 71
    11
 72
    12
 73
     1
  0
SEQEND
  5
138E
  8
0
  0
POLYLINE
  5
1212
  8
0
 66
     1
 10
0.0
 20
0.0
 30
0.0
 70
    64
 71
    12
 72
    10
  0
VERTEX
  5
1213
  8
0
 10
219.4999999999973
 20
261.7416573867811
 30
-5.0
 70
   192
  0
VERTEX
  5
1214
  8
0
 10
219.169829290719
 20
262.2701355817768
 30
-5.000255368629909
 70
   192
  0
VERTEX
  5
1215
  8
0
 10
218.798067973144
 20
262.7674930368551
 30
-5.001169138839302
 70
   192
  0
VERTEX
  5
1216
  8
0
 10
218.3845015392317
 20
263.2335247214421
 30
-5.002962807107755
 70
   192
  0
VERTEX
  5
1217
  8
0
 10
219.2796791299812
 20
264.0999514850664
 30
-4.665218549321865
 70
   192
  0
VERTEX
  5
1218
  8
0
 10
219.9362943180161
 20
264.7324277506629
 30
-3.750564426527204
 70
   192
  0
VERTEX
  5
1219
  8
0
 10
220.1787570311338
 20
264.9617129708107
 30
-2.502961397926935
 70
   192
  0
VERTEX
  5
121A
  8
0
 10
220.7293103367567
 20
264.3452687595117
 30
-2.501168218730201
 70
   192
  0
VERTEX
  5
121B
  8
0
 10
221.2252803304702
 20
263.6876565803698
 30
-2.500255065151005
 70
   192
  0
VERTEX
  5
121C
  8
0
 10
221.6666666666622
 20
262.9888765157089
 30
-2.5
 70
   192
  0
VERTEX
  5
121D
  8
0
 10
221.376388374862
 20
262.8217808365184
 30
-3.750000000000005
 70
   192
  0
VERTEX
  5
121E
  8
0
 10
220.5833333333297
 20
262.365266951245
 30
-4.665063509461104
 70
   192
  0
VERTEX
  5
121F
  8
0
 10
0.0
 20
0.0
 30
0.0
 70
   128
 71
     8
 72
     7
 73
     6
  0
VERTEX
  5
1220
  8
0
 10
0.0
 20
0.0
 30
0.0
 70
   128
 71
     8
 72
     6
 73
    11
  0
VERTEX
  5
1221
  8
0
 10
0.0
 20
0.0
 30
0.0
 70
   128
 71
    11
 72
     9
 73
     8
  0
VERTEX
  5
1222
  8
0
 10
0.0
 20
0.0
 30
0.0
 70
   128
 71
    11
 72
    10
 73
     9
  0
VERTEX
  5
1223
  8
0
 10
0.0
 20
0.0
 30
0.0
 70
   128
 71
     6
 72
     5
 73
    12
  0
VERTEX
  5
1224
  8
0
 10
0.0
 20
0.0
 30
0.0
 70
   128
 71
     6
 72
    12
 73
    11
  0
VERTEX
  5
1225
  8
0
 10
0.0
 20
0.0
 30
0.0
 70
   128
 71
     2
 72
     1
 73
    12
  0
VERTEX
  5
1226
  8
0
 10
0.0
 20
0.0
 30
0.0
 70
   128
 71
     2
 72
    12
 73
     5
  0
VERTEX
  5
1227
  8
0
 10
0.0
 20
0.0
 30
0.0
 70
   128
 71
     5
 72
     3
 73
     2
  0
VERTEX
  5
1228
  8
0
 10
0.0
 20
0.0
 30
0.0
 70
   128
 71
     5
 72
     4
 73
     3
  0
SEQEND
  5
138F
  8
0
  0
POLYLINE
  5
1229
  8
0
 66
     1
 10
0.0
 20
0.0
 30
0.0
 70
    64
 71
     8
 72
     6
  0
VERTEX
  5
122A
  8
0
 10
221.7499999999973
 20
-258.0000000000023
 30
-4.665063509461096
 70
   192
  0
VERTEX
  5
122B
  8
0
 10
222.6650635094584
 20
-258.0000000000023
 30
-3.75
 70
   192
  0
VERTEX
  5
122C
  8
0
 10
222.6650635094638
 20
257.9999999999976
 30
-3.75
 70
   192
  0
VERTEX
  5
122D
  8
0
 10
221.7500000000027
 20
257.9999999999976
 30
-4.665063509461096
 70
   192
  0
VERTEX
  5
122E
  8
0
 10
222.9999999999973
 20
-258.0000000000023
 30
-2.5
 70
   192
  0
VERTEX
  5
122F
  8
0
 10
223.0000000000027
 20
257.9999999999976
 30
-2.5
 70
   192
  0
VERTEX
  5
1230
  8
0
 10
220.4999999999973
 20
-258.0000000000023
 30
-5.0
 70
   192
  0
VERTEX
  5
1231
  8
0
 10
220.5000000000027
 20
257.9999999999976
 30
-5.0
 70
   192
  0
VERTEX
  5
1232
  8
0
 10
0.0
 20
0.0
 30
0.0
 70
   128
 71
     1
 72
     2
 73
    -3
  0
VERTEX
  5
1233
  8
0
 10
0.0
 20
0.0
 30
0.0
 70
   128
 71
     4
 72
    -1
 73
     3
  0
VERTEX
  5
1234
  8
0
 10
0.0
 20
0.0
 30
0.0
 70
   128
 71
     2
 72
     5
 73
    -6
  0
VERTEX
  5
1235
  8
0
 10
0.0
 20
0.0
 30
0.0
 70
   128
 71
     3
 72
    -2
 73
     6
  0
VERTEX
  5
1236
  8
0
 10
0.0
 20
0.0
 30
0.0
 70
   128
 71
     7
 72
     1
 73
    -4
  0
VERTEX
  5
1237
  8
0
 10
0.0
 20
0.0
 30
0.0
 70
   128
 71
     8
 72
    -7
 73
     4
  0
SEQEND
  5
1390
  8
0
  0
POLYLINE
  5
1238
  8
0
 66
     1
 10
0.0
 20
0.0
 30
0.0
 70
    64
 71
    12
 72
    10
  0
VERTEX
  5
1239
  8
0
 10
218.3845015392317
 20
263.2335247214421
 30
-5.002962807107755
 70
   192
  0
VERTEX
  5
123A
  8
0
 10
217.8769282640689
 20
263.7058284562081
 30
-5.001158055466285
 70
   192
  0
VERTEX
  5
123B
  8
0
 10
217.330248132808
 20
264.1274449594022
 30
-5.000249826941786
 70
   192
  0
VERTEX
  5
123C
  8
0
 10
216.7444627596916
 20
264.498384310063
 30
-4.99999999999995
 70
   192
  0
VERTEX
  5
123D
  8
0
 10
217.3685398863064
 20
265.5814483617406
 30
-4.665063509461049
 70
   192
  0
VERTEX
  5
123E
  8
0
 10
217.82539605083
 20
266.3743062754199
 30
-3.749999999999975
 70
   192
  0
VERTEX
  5
123F
  8
0
 10
217.9926170129212
 20
266.6645124134182
 30
-2.5
 70
   192
  0
VERTEX
  5
1240
  8
0
 10
218.7742699166784
 20
266.1648777383057
 30
-2.500251724446101
 70
   192
  0
VERTEX
  5
1241
  8
0
 10
219.502983279794
 20
265.5972778043595
 30
-2.501161537320412
 70
   192
  0
VERTEX
  5
1242
  8
0
 10
220.1787570311338
 20
264.9617129708107
 30
-2.502961397926935
 70
   192
  0
VERTEX
  5
1243
  8
0
 10
219.9362943180161
 20
264.7324277506629
 30
-3.750564426527204
 70
   192
  0
VERTEX
  5
1244
  8
0
 10
219.2796791299812
 20
264.0999514850664
 30
-4.665218549321865
 70
   192
  0
VERTEX
  5
1245
  8
0
 10
0.0
 20
0.0
 30
0.0
 70
   128
 71
     8
 72
     7
 73
     6
  0
VERTEX
  5
1246
  8
0
 10
0.0
 20
0.0
 30
0.0
 70
   128
 71
     8
 72
     6
 73
    11
  0
VERTEX
  5
1247
  8
0
 10
0.0
 20
0.0
 30
0.0
 70
   128
 71
    11
 72
     9
 73
     8
  0
VERTEX
  5
1248
  8
0
 10
0.0
 20
0.0
 30
0.0
 70
   128
 71
    11
 72
    10
 73
     9
  0
VERTEX
  5
1249
  8
0
 10
0.0
 20
0.0
 30
0.0
 70
   128
 71
     6
 72
     5
 73
    12
  0
VERTEX
  5
124A
  8
0
 10
0.0
 20
0.0
 30
0.0
 70
   128
 71
     6
 72
    12
 73
    11
  0
VERTEX
  5
124B
  8
0
 10
0.0
 20
0.0
 30
0.0
 70
   128
 71
     3
 72
     2
 73
     1
  0
VERTEX
  5
124C
  8
0
 10
0.0
 20
0.0
 30
0.0
 70
   128
 71
     3
 72
     1
 73
    12
  0
VERTEX
  5
124D
  8
0
 10
0.0
 20
0.0
 30
0.0
 70
   128
 71
     3
 72
    12
 73
     5
  0
VERTEX
  5
124E
  8
0
 10
0.0
 20
0.0
 30
0.0
 70
   128
 71
     5
 72
     4
 73
     3
  0
SEQEND
  5
1391
  8
0
  0
POLYLINE
  5
124F
  8
0
 66
     1
 10
0.0
 20
0.0
 30
0.0
 70
    64
 71
    12
 72
    10
  0
VERTEX
  5
1250
  8
0
 10
222.6650635094584
 20
-258.0000000000023
 30
-3.75
 70
   192
  0
VERTEX
  5
1251
  8
0
 10
221.7499999999973
 20
-258.0000000000023
 30
-4.665063509461096
 70
   192
  0
VERTEX
  5
1252
  8
0
 10
221.3763883748636
 20
-262.8217808365109
 30
-3.749999999999998
 70
   192
  0
VERTEX
  5
1253
  8
0
 10
220.5833333333306
 20
-262.3652669512385
 30
-4.665063509461094
 70
   192
  0
VERTEX
  5
1254
  8
0
 10
220.4999999999973
 20
-258.0000000000023
 30
-5.0
 70
   192
  0
VERTEX
  5
1255
  8
0
 10
220.3866148617073
 20
-259.2992000942007
 30
-5.0
 70
   192
  0
VERTEX
  5
1256
  8
0
 10
220.0498877640599
 20
-260.5591175264398
 30
-5.0
 70
   192
  0
VERTEX
  5
1257
  8
0
 10
219.4999999999973
 20
-261.7416573867762
 30
-5.0
 70
   192
  0
VERTEX
  5
1258
  8
0
 10
222.9999999999973
 20
-258.0000000000023
 30
-2.5
 70
   192
  0
VERTEX
  5
1259
  8
0
 10
222.8488198156106
 20
-259.7322667922668
 30
-2.5
 70
   192
  0
VERTEX
  5
125A
  8
0
 10
221.666666666664
 20
-262.9888765157008
 30
-2.5
 70
   192
  0
VERTEX
  5
125B
  8
0
 10
222.3998503520808
 20
-261.4121567019191
 30
-2.5
 70
   192
  0
VERTEX
  5
125C
  8
0
 10
0.0
 20
0.0
 30
0.0
 70
   128
 71
     1
 72
    -2
 73
     3
  0
VERTEX
  5
125D
  8
0
 10
0.0
 20
0.0
 30
0.0
 70
   128
 71
    -3
 72
     2
 73
     4
  0
VERTEX
  5
125E
  8
0
 10
0.0
 20
0.0
 30
0.0
 70
   128
 71
     2
 72
     5
 73
     6
  0
VERTEX
  5
125F
  8
0
 10
0.0
 20
0.0
 30
0.0
 70
   128
 71
     6
 72
    -7
 73
     2
  0
VERTEX
  5
1260
  8
0
 10
0.0
 20
0.0
 30
0.0
 70
   128
 71
     7
 72
     8
 73
     4
  0
VERTEX
  5
1261
  8
0
 10
0.0
 20
0.0
 30
0.0
 70
   128
 71
    -2
 72
     7
 73
     4
  0
VERTEX
  5
1262
  8
0
 10
0.0
 20
0.0
 30
0.0
 70
   128
 71
     9
 72
     1
 73
    10
  0
VERTEX
  5
1263
  8
0
 10
0.0
 20
0.0
 30
0.0
 70
   128
 71
     3
 72
    11
 73
    12
  0
VERTEX
  5
1264
  8
0
 10
0.0
 20
0.0
 30
0.0
 70
   128
 71
    10
 72
     1
 73
    -3
  0
VERTEX
  5
1265
  8
0
 10
0.0
 20
0.0
 30
0.0
 70
   128
 71
    12
 72
   -10
 73
     3
  0
SEQEND
  5
1392
  8
0
  0
POLYLINE
  5
1266
  8
0
 66
     1
 10
0.0
 20
0.0
 30
0.0
 70
    64
 71
    12
 72
    10
  0
VERTEX
  5
1267
  8
0
 10
213.0000000000028
 20
267.6650635094588
 30
-3.750000000000002
 70
   192
  0
VERTEX
  5
1268
  8
0
 10
213.0000000000028
 20
266.7499999999977
 30
-4.665063509461099
 70
   192
  0
VERTEX
  5
1269
  8
0
 10
217.3685398863064
 20
265.5814483617406
 30
-4.665063509461049
 70
   192
  0
VERTEX
  5
126A
  8
0
 10
217.82539605083
 20
266.3743062754199
 30
-3.749999999999975
 70
   192
  0
VERTEX
  5
126B
  8
0
 10
213.0000000000028
 20
265.4999999999977
 30
-5.000000000000002
 70
   192
  0
VERTEX
  5
126C
  8
0
 10
214.300262890221
 20
265.386427852236
 30
-5.0
 70
   192
  0
VERTEX
  5
126D
  8
0
 10
215.5611461406801
 20
265.0491510443501
 30
-5.0
 70
   192
  0
VERTEX
  5
126E
  8
0
 10
216.7444627596916
 20
264.498384310063
 30
-4.99999999999995
 70
   192
  0
VERTEX
  5
126F
  8
0
 10
213.0000000000028
 20
267.9999999999977
 30
-2.5
 70
   192
  0
VERTEX
  5
1270
  8
0
 10
214.7336838536271
 20
267.8485704696487
 30
-2.5
 70
   192
  0
VERTEX
  5
1271
  8
0
 10
217.9926170129212
 20
266.6645124134182
 30
-2.500000000000001
 70
   192
  0
VERTEX
  5
1272
  8
0
 10
216.4148615209058
 20
267.3988680591342
 30
-2.5
 70
   192
  0
VERTEX
  5
1273
  8
0
 10
0.0
 20
0.0
 30
0.0
 70
   128
 71
     1
 72
     2
 73
    -3
  0
VERTEX
  5
1274
  8
0
 10
0.0
 20
0.0
 30
0.0
 70
   128
 71
     4
 72
    -1
 73
     3
  0
VERTEX
  5
1275
  8
0
 10
0.0
 20
0.0
 30
0.0
 70
   128
 71
     2
 72
     5
 73
     6
  0
VERTEX
  5
1276
  8
0
 10
0.0
 20
0.0
 30
0.0
 70
   128
 71
     6
 72
     7
 73
     2
  0
VERTEX
  5
1277
  8
0
 10
0.0
 20
0.0
 30
0.0
 70
   128
 71
     2
 72
     7
 73
     8
  0
VERTEX
  5
1278
  8
0
 10
0.0
 20
0.0
 30
0.0
 70
   128
 71
     3
 72
     2
 73
     8
  0
VERTEX
  5
1279
  8
0
 10
0.0
 20
0.0
 30
0.0
 70
   128
 71
     9
 72
     1
 73
    10
  0
VERTEX
  5
127A
  8
0
 10
0.0
 20
0.0
 30
0.0
 70
   128
 71
     4
 72
    11
 73
    12
  0
VERTEX
  5
127B
  8
0
 10
0.0
 20
0.0
 30
0.0
 70
   128
 71
    10
 72
     1
 73
    -4
  0
VERTEX
  5
127C
  8
0
 10
0.0
 20
0.0
 30
0.0
 70
   128
 71
    12
 72
   -10
 73
     4
  0
SEQEND
  5
1393
  8
0
  0
POLYLINE
  5
127D
  8
0
 66
     1
 10
0.0
 20
0.0
 30
0.0
 70
    64
 71
    12
 72
    10
  0
VERTEX
  5
127E
  8
0
 10
221.666666666664
 20
-262.9888765157008
 30
-2.5
 70
   192
  0
VERTEX
  5
127F
  8
0
 10
221.2207698688166
 20
-263.6941899196146
 30
-2.500256741902992
 70
   192
  0
VERTEX
  5
1280
  8
0
 10
220.7192856396208
 20
-264.3574747610668
 30
-2.501165289873074
 70
   192
  0
VERTEX
  5
1281
  8
0
 10
220.1622143505659
 20
-264.9787309445587
 30
-2.502933127301905
 70
   192
  0
VERTEX
  5
1282
  8
0
 10
219.9073147210193
 20
-264.732780285625
 30
-3.785491941870088
 70
   192
  0
VERTEX
  5
1283
  8
0
 10
219.2463410237509
 20
-264.0836729203342
 30
-4.685263342664327
 70
   192
  0
VERTEX
  5
1284
  8
0
 10
218.3845014985089
 20
-263.2335247633689
 30
-5.002962807118566
 70
   192
  0
VERTEX
  5
1285
  8
0
 10
218.7980679485571
 20
-262.767493066985
 30
-5.00116913886021
 70
   192
  0
VERTEX
  5
1286
  8
0
 10
219.1698292796891
 20
-262.2701355979136
 30
-5.000255368639166
 70
   192
  0
VERTEX
  5
1287
  8
0
 10
219.4999999999973
 20
-261.7416573867762
 30
-4.999999999999997
 70
   192
  0
VERTEX
  5
1288
  8
0
 10
220.5833333333306
 20
-262.3652669512385
 30
-4.665063509461094
 70
   192
  0
VERTEX
  5
1289
  8
0
 10
221.3763883748636
 20
-262.8217808365109
 30
-3.749999999999998
 70
   192
  0
VERTEX
  5
128A
  8
0
 10
0.0
 20
0.0
 30
0.0
 70
   128
 71
     8
 72
     7
 73
     6
  0
VERTEX
  5
128B
  8
0
 10
0.0
 20
0.0
 30
0.0
 70
   128
 71
     6
 72
     9
 73
     8
  0
VERTEX
  5
128C
  8
0
 10
0.0
 20
0.0
 30
0.0
 70
   128
 71
     6
 72
    11
 73
    10
  0
VERTEX
  5
128D
  8
0
 10
0.0
 20
0.0
 30
0.0
 70
   128
 71
     6
 72
    10
 73
     9
  0
VERTEX
  5
128E
  8
0
 10
0.0
 20
0.0
 30
0.0
 70
   128
 71
     6
 72
     5
 73
    12
  0
VERTEX
  5
128F
  8
0
 10
0.0
 20
0.0
 30
0.0
 70
   128
 71
     6
 72
    12
 73
    11
  0
VERTEX
  5
1290
  8
0
 10
0.0
 20
0.0
 30
0.0
 70
   128
 71
     2
 72
     1
 73
    12
  0
VERTEX
  5
1291
  8
0
 10
0.0
 20
0.0
 30
0.0
 70
   128
 71
     2
 72
    12
 73
     5
  0
VERTEX
  5
1292
  8
0
 10
0.0
 20
0.0
 30
0.0
 70
   128
 71
     5
 72
     3
 73
     2
  0
VERTEX
  5
1293
  8
0
 10
0.0
 20
0.0
 30
0.0
 70
   128
 71
     5
 72
     4
 73
     3
  0
SEQEND
  5
1394
  8
0
  0
POLYLINE
  5
1294
  8
0
 66
     1
 10
0.0
 20
0.0
 30
0.0
 70
    64
 71
     8
 72
     6
  0
VERTEX
  5
1295
  8
0
 10
213.0000000000028
 20
266.7499999999977
 30
-4.665063509461099
 70
   192
  0
VERTEX
  5
1296
  8
0
 10
213.0000000000028
 20
267.6650635094588
 30
-3.750000000000002
 70
   192
  0
VERTEX
  5
1297
  8
0
 10
-212.9999999999971
 20
267.6650635094633
 30
-3.750000000000002
 70
   192
  0
VERTEX
  5
1298
  8
0
 10
-212.9999999999971
 20
266.7500000000022
 30
-4.665063509461099
 70
   192
  0
VERTEX
  5
1299
  8
0
 10
213.0000000000028
 20
267.9999999999977
 30
-2.5
 70
   192
  0
VERTEX
  5
129A
  8
0
 10
-212.9999999999971
 20
268.0000000000022
 30
-2.5
 70
   192
  0
VERTEX
  5
129B
  8
0
 10
213.0000000000028
 20
265.4999999999977
 30
-5.000000000000002
 70
   192
  0
VERTEX
  5
129C
  8
0
 10
-212.9999999999971
 20
265.5000000000022
 30
-5.000000000000002
 70
   192
  0
VERTEX
  5
129D
  8
0
 10
0.0
 20
0.0
 30
0.0
 70
   128
 71
     1
 72
     2
 73
    -3
  0
VERTEX
  5
129E
  8
0
 10
0.0
 20
0.0
 30
0.0
 70
   128
 71
     4
 72
    -1
 73
     3
  0
VERTEX
  5
129F
  8
0
 10
0.0
 20
0.0
 30
0.0
 70
   128
 71
     2
 72
     5
 73
    -6
  0
VERTEX
  5
12A0
  8
0
 10
0.0
 20
0.0
 30
0.0
 70
   128
 71
     3
 72
    -2
 73
     6
  0
VERTEX
  5
12A1
  8
0
 10
0.0
 20
0.0
 30
0.0
 70
   128
 71
     7
 72
     1
 73
    -4
  0
VERTEX
  5
12A2
  8
0
 10
0.0
 20
0.0
 30
0.0
 70
   128
 71
     8
 72
    -7
 73
     4
  0
SEQEND
  5
1395
  8
0
  0
POLYLINE
  5
12A3
  8
0
 66
     1
 10
0.0
 20
0.0
 30
0.0
 70
    64
 71
    12
 72
    10
  0
VERTEX
  5
12A4
  8
0
 10
220.1622143505659
 20
-264.9787309445587
 30
-2.502933127301905
 70
   192
  0
VERTEX
  5
12A5
  8
0
 10
219.4909725294019
 20
-265.6075256256688
 30
-2.501148481224618
 70
   192
  0
VERTEX
  5
12A6
  8
0
 10
218.7677733979866
 20
-266.169452892635
 30
-2.500248337577773
 70
   192
  0
VERTEX
  5
12A7
  8
0
 10
217.9926170129157
 20
-266.6645124134227
 30
-2.5
 70
   192
  0
VERTEX
  5
12A8
  8
0
 10
217.825396050824
 20
-266.3743062754236
 30
-3.749999999998732
 70
   192
  0
VERTEX
  5
12A9
  8
0
 10
217.3685398863005
 20
-265.5814483617444
 30
-4.665063509458604
 70
   192
  0
VERTEX
  5
12AA
  8
0
 10
216.7444627596861
 20
-264.4983843100676
 30
-4.999999999999974
 70
   192
  0
VERTEX
  5
12AB
  8
0
 10
217.3302481167645
 20
-264.1274449706149
 30
-5.000249826935767
 70
   192
  0
VERTEX
  5
12AC
  8
0
 10
217.8769282344376
 20
-263.70582848138
 30
-5.001158055455432
 70
   192
  0
VERTEX
  5
12AD
  8
0
 10
218.3845014985089
 20
-263.2335247633689
 30
-5.002962807118566
 70
   192
  0
VERTEX
  5
12AE
  8
0
 10
219.2463410237509
 20
-264.0836729203342
 30
-4.685263342664327
 70
   192
  0
VERTEX
  5
12AF
  8
0
 10
219.9073147210193
 20
-264.732780285625
 30
-3.785491941870088
 70
   192
  0
VERTEX
  5
12B0
  8
0
 10
0.0
 20
0.0
 30
0.0
 70
   128
 71
     8
 72
     7
 73
     6
  0
VERTEX
  5
12B1
  8
0
 10
0.0
 20
0.0
 30
0.0
 70
   128
 71
     6
 72
    11
 73
    10
  0
VERTEX
  5
12B2
  8
0
 10
0.0
 20
0.0
 30
0.0
 70
   128
 71
     6
 72
    10
 73
     9
  0
VERTEX
  5
12B3
  8
0
 10
0.0
 20
0.0
 30
0.0
 70
   128
 71
     6
 72
     9
 73
     8
  0
VERTEX
  5
12B4
  8
0
 10
0.0
 20
0.0
 30
0.0
 70
   128
 71
     6
 72
     5
 73
    12
  0
VERTEX
  5
12B5
  8
0
 10
0.0
 20
0.0
 30
0.0
 70
   128
 71
     6
 72
    12
 73
    11
  0
VERTEX
  5
12B6
  8
0
 10
0.0
 20
0.0
 30
0.0
 70
   128
 71
     2
 72
     1
 73
    12
  0
VERTEX
  5
12B7
  8
0
 10
0.0
 20
0.0
 30
0.0
 70
   128
 71
     2
 72
    12
 73
     5
  0
VERTEX
  5
12B8
  8
0
 10
0.0
 20
0.0
 30
0.0
 70
   128
 71
     5
 72
     3
 73
     2
  0
VERTEX
  5
12B9
  8
0
 10
0.0
 20
0.0
 30
0.0
 70
   128
 71
     5
 72
     4
 73
     3
  0
SEQEND
  5
1396
  8
0
  0
POLYLINE
  5
12BA
  8
0
 66
     1
 10
0.0
 20
0.0
 30
0.0
 70
    64
 71
    12
 72
    10
  0
VERTEX
  5
12BB
  8
0
 10
-222.6650635094584
 20
258.0000000000023
 30
-3.750000000000009
 70
   192
  0
VERTEX
  5
12BC
  8
0
 10
-221.7499999999973
 20
258.0000000000023
 30
-4.665063509461106
 70
   192
  0
VERTEX
  5
12BD
  8
0
 10
-212.9999999999971
 20
267.6650635094633
 30
-3.750000000000002
 70
   192
  0
VERTEX
  5
12BE
  8
0
 10
-212.9999999999971
 20
266.7500000000022
 30
-4.665063509461099
 70
   192
  0
VERTEX
  5
12BF
  8
0
 10
-220.4999999999973
 20
258.0000000000023
 30
-5.0
 70
   192
  0
VERTEX
  5
12C0
  8
0
 10
-219.4951905283805
 20
261.7500000000023
 30
-5.0
 70
   192
  0
VERTEX
  5
12C1
  8
0
 10
-216.7499999999972
 20
264.4951905283855
 30
-5.0
 70
   192
  0
VERTEX
  5
12C2
  8
0
 10
-212.9999999999971
 20
265.5000000000022
 30
-5.000000000000002
 70
   192
  0
VERTEX
  5
12C3
  8
0
 10
-222.9999999999973
 20
258.0000000000023
 30
-2.5
 70
   192
  0
VERTEX
  5
12C4
  8
0
 10
-221.6602540378416
 20
263.0000000000023
 30
-2.5
 70
   192
  0
VERTEX
  5
12C5
  8
0
 10
-212.9999999999971
 20
268.0000000000022
 30
-2.5
 70
   192
  0
VERTEX
  5
12C6
  8
0
 10
-217.9999999999972
 20
266.6602540378466
 30
-2.5
 70
   192
  0
VERTEX
  5
12C7
  8
0
 10
0.0
 20
0.0
 30
0.0
 70
   128
 71
     1
 72
    -2
 73
     3
  0
VERTEX
  5
12C8
  8
0
 10
0.0
 20
0.0
 30
0.0
 70
   128
 71
     2
 72
     4
 73
    -3
  0
VERTEX
  5
12C9
  8
0
 10
0.0
 20
0.0
 30
0.0
 70
   128
 71
     2
 72
     5
 73
     6
  0
VERTEX
  5
12CA
  8
0
 10
0.0
 20
0.0
 30
0.0
 70
   128
 71
     6
 72
     7
 73
     2
  0
VERTEX
  5
12CB
  8
0
 10
0.0
 20
0.0
 30
0.0
 70
   128
 71
     2
 72
     7
 73
     8
  0
VERTEX
  5
12CC
  8
0
 10
0.0
 20
0.0
 30
0.0
 70
   128
 71
     4
 72
     2
 73
     8
  0
VERTEX
  5
12CD
  8
0
 10
0.0
 20
0.0
 30
0.0
 70
   128
 71
     9
 72
     1
 73
    10
  0
VERTEX
  5
12CE
  8
0
 10
0.0
 20
0.0
 30
0.0
 70
   128
 71
     3
 72
    11
 73
    12
  0
VERTEX
  5
12CF
  8
0
 10
0.0
 20
0.0
 30
0.0
 70
   128
 71
    10
 72
     1
 73
    -3
  0
VERTEX
  5
12D0
  8
0
 10
0.0
 20
0.0
 30
0.0
 70
   128
 71
    12
 72
   -10
 73
     3
  0
SEQEND
  5
1397
  8
0
  0
POLYLINE
  5
12D1
  8
0
 66
     1
 10
0.0
 20
0.0
 30
0.0
 70
    64
 71
    12
 72
    10
  0
VERTEX
  5
12D2
  8
0
 10
217.825396050824
 20
-266.3743062754236
 30
-3.749999999998732
 70
   192
  0
VERTEX
  5
12D3
  8
0
 10
217.3685398863005
 20
-265.5814483617444
 30
-4.665063509458604
 70
   192
  0
VERTEX
  5
12D4
  8
0
 10
212.9999999999972
 20
-267.6650635094633
 30
-3.75
 70
   192
  0
VERTEX
  5
12D5
  8
0
 10
212.9999999999972
 20
-266.7500000000022
 30
-4.665063509461098
 70
   192
  0
VERTEX
  5
12D6
  8
0
 10
216.7444627596861
 20
-264.4983843100676
 30
-4.999999999997028
 70
   192
  0
VERTEX
  5
12D7
  8
0
 10
215.5611461406746
 20
-265.0491510443546
 30
-5.0
 70
   192
  0
VERTEX
  5
12D8
  8
0
 10
214.3002628902155
 20
-265.3864278522405
 30
-5.0
 70
   192
  0
VERTEX
  5
12D9
  8
0
 10
212.9999999999972
 20
-265.5000000000022
 30
-5.0
 70
   192
  0
VERTEX
  5
12DA
  8
0
 10
217.9926170129157
 20
-266.6645124134227
 30
-2.5
 70
   192
  0
VERTEX
  5
12DB
  8
0
 10
216.4148615209004
 20
-267.3988680591387
 30
-2.5
 70
   192
  0
VERTEX
  5
12DC
  8
0
 10
212.9999999999972
 20
-268.0000000000022
 30
-2.5
 70
   192
  0
VERTEX
  5
12DD
  8
0
 10
214.7336838536216
 20
-267.8485704696533
 30
-2.5
 70
   192
  0
VERTEX
  5
12DE
  8
0
 10
0.0
 20
0.0
 30
0.0
 70
   128
 71
     1
 72
    -2
 73
     3
  0
VERTEX
  5
12DF
  8
0
 10
0.0
 20
0.0
 30
0.0
 70
   128
 71
     2
 72
     4
 73
    -3
  0
VERTEX
  5
12E0
  8
0
 10
0.0
 20
0.0
 30
0.0
 70
   128
 71
     2
 72
     5
 73
     6
  0
VERTEX
  5
12E1
  8
0
 10
0.0
 20
0.0
 30
0.0
 70
   128
 71
     6
 72
     7
 73
     2
  0
VERTEX
  5
12E2
  8
0
 10
0.0
 20
0.0
 30
0.0
 70
   128
 71
     2
 72
     7
 73
     8
  0
VERTEX
  5
12E3
  8
0
 10
0.0
 20
0.0
 30
0.0
 70
   128
 71
     4
 72
     2
 73
     8
  0
VERTEX
  5
12E4
  8
0
 10
0.0
 20
0.0
 30
0.0
 70
   128
 71
     9
 72
     1
 73
    10
  0
VERTEX
  5
12E5
  8
0
 10
0.0
 20
0.0
 30
0.0
 70
   128
 71
     3
 72
    11
 73
    12
  0
VERTEX
  5
12E6
  8
0
 10
0.0
 20
0.0
 30
0.0
 70
   128
 71
    10
 72
     1
 73
    -3
  0
VERTEX
  5
12E7
  8
0
 10
0.0
 20
0.0
 30
0.0
 70
   128
 71
    12
 72
   -10
 73
     3
  0
SEQEND
  5
1398
  8
0
  0
POLYLINE
  5
12E8
  8
0
 66
     1
 10
0.0
 20
0.0
 30
0.0
 70
    64
 71
     8
 72
     6
  0
VERTEX
  5
12E9
  8
0
 10
-221.7499999999973
 20
258.0000000000023
 30
-4.665063509461106
 70
   192
  0
VERTEX
  5
12EA
  8
0
 10
-222.6650635094584
 20
258.0000000000023
 30
-3.750000000000009
 70
   192
  0
VERTEX
  5
12EB
  8
0
 10
-222.6650635094638
 20
-257.9999999999977
 30
-3.749999999999976
 70
   192
  0
VERTEX
  5
12EC
  8
0
 10
-221.7500000000028
 20
-257.9999999999977
 30
-4.665063509461069
 70
   192
  0
VERTEX
  5
12ED
  8
0
 10
-222.9999999999973
 20
258.0000000000023
 30
-2.500000000000001
 70
   192
  0
VERTEX
  5
12EE
  8
0
 10
-223.0000000000027
 20
-257.9999999999977
 30
-2.5
 70
   192
  0
VERTEX
  5
12EF
  8
0
 10
-220.4999999999973
 20
258.0000000000023
 30
-5.0
 70
   192
  0
VERTEX
  5
12F0
  8
0
 10
-220.5000000000028
 20
-257.9999999999977
 30
-5.0
 70
   192
  0
VERTEX
  5
12F1
  8
0
 10
0.0
 20
0.0
 30
0.0
 70
   128
 71
     1
 72
     2
 73
    -3
  0
VERTEX
  5
12F2
  8
0
 10
0.0
 20
0.0
 30
0.0
 70
   128
 71
     4
 72
    -1
 73
     3
  0
VERTEX
  5
12F3
  8
0
 10
0.0
 20
0.0
 30
0.0
 70
   128
 71
     2
 72
     5
 73
    -6
  0
VERTEX
  5
12F4
  8
0
 10
0.0
 20
0.0
 30
0.0
 70
   128
 71
     3
 72
    -2
 73
     6
  0
VERTEX
  5
12F5
  8
0
 10
0.0
 20
0.0
 30
0.0
 70
   128
 71
     7
 72
     1
 73
    -4
  0
VERTEX
  5
12F6
  8
0
 10
0.0
 20
0.0
 30
0.0
 70
   128
 71
     8
 72
    -7
 73
     4
  0
SEQEND
  5
1399
  8
0
  0
POLYLINE
  5
12F7
  8
0
 66
     1
 10
0.0
 20
0.0
 30
0.0
 70
    64
 71
     8
 72
     6
  0
VERTEX
  5
12F8
  8
0
 10
-213.0000000000028
 20
-266.7499999999978
 30
-4.665063509461098
 70
   192
  0
VERTEX
  5
12F9
  8
0
 10
-213.0000000000028
 20
-267.6650635094589
 30
-3.75
 70
   192
  0
VERTEX
  5
12FA
  8
0
 10
212.9999999999972
 20
-267.6650635094633
 30
-3.75
 70
   192
  0
VERTEX
  5
12FB
  8
0
 10
212.9999999999972
 20
-266.7500000000022
 30
-4.665063509461098
 70
   192
  0
VERTEX
  5
12FC
  8
0
 10
-213.0000000000028
 20
-267.9999999999978
 30
-2.5
 70
   192
  0
VERTEX
  5
12FD
  8
0
 10
212.9999999999972
 20
-268.0000000000022
 30
-2.5
 70
   192
  0
VERTEX
  5
12FE
  8
0
 10
-213.0000000000028
 20
-265.4999999999978
 30
-5.0
 70
   192
  0
VERTEX
  5
12FF
  8
0
 10
212.9999999999972
 20
-265.5000000000022
 30
-5.000000000000002
 70
   192
  0
VERTEX
  5
1300
  8
0
 10
0.0
 20
0.0
 30
0.0
 70
   128
 71
     1
 72
     2
 73
    -3
  0
VERTEX
  5
1301
  8
0
 10
0.0
 20
0.0
 30
0.0
 70
   128
 71
     4
 72
    -1
 73
     3
  0
VERTEX
  5
1302
  8
0
 10
0.0
 20
0.0
 30
0.0
 70
   128
 71
     2
 72
     5
 73
    -6
  0
VERTEX
  5
1303
  8
0
 10
0.0
 20
0.0
 30
0.0
 70
   128
 71
     3
 72
    -2
 73
     6
  0
VERTEX
  5
1304
  8
0
 10
0.0
 20
0.0
 30
0.0
 70
   128
 71
     7
 72
     1
 73
    -4
  0
VERTEX
  5
1305
  8
0
 10
0.0
 20
0.0
 30
0.0
 70
   128
 71
     8
 72
    -7
 73
     4
  0
SEQEND
  5
139A
  8
0
  0
POLYLINE
  5
1306
  8
0
 66
     1
 10
0.0
 20
0.0
 30
0.0
 70
    64
 71
    12
 72
    10
  0
VERTEX
  5
1307
  8
0
 10
-213.0000000000028
 20
-267.6650635094589
 30
-3.75
 70
   192
  0
VERTEX
  5
1308
  8
0
 10
-213.0000000000028
 20
-266.7499999999978
 30
-4.665063509461098
 70
   192
  0
VERTEX
  5
1309
  8
0
 10
-221.7500000000028
 20
-257.9999999999977
 30
-4.665063509461069
 70
   192
  0
VERTEX
  5
130A
  8
0
 10
-222.6650635094638
 20
-257.9999999999977
 30
-3.749999999999976
 70
   192
  0
VERTEX
  5
130B
  8
0
 10
-213.0000000000028
 20
-265.4999999999978
 30
-5.000000000000002
 70
   192
  0
VERTEX
  5
130C
  8
0
 10
-216.7500000000028
 20
-264.495190528381
 30
-5.0
 70
   192
  0
VERTEX
  5
130D
  8
0
 10
-219.4951905283861
 20
-261.7499999999977
 30
-5.0
 70
   192
  0
VERTEX
  5
130E
  8
0
 10
-220.5000000000028
 20
-257.9999999999977
 30
-5.0
 70
   192
  0
VERTEX
  5
130F
  8
0
 10
-213.0000000000028
 20
-267.9999999999977
 30
-2.5
 70
   192
  0
VERTEX
  5
1310
  8
0
 10
-218.0000000000028
 20
-266.6602540378421
 30
-2.5
 70
   192
  0
VERTEX
  5
1311
  8
0
 10
-223.0000000000027
 20
-257.9999999999977
 30
-2.5
 70
   192
  0
VERTEX
  5
1312
  8
0
 10
-221.6602540378472
 20
-262.9999999999977
 30
-2.5
 70
   192
  0
VERTEX
  5
1313
  8
0
 10
0.0
 20
0.0
 30
0.0
 70
   128
 71
     1
 72
     2
 73
    -3
  0
VERTEX
  5
1314
  8
0
 10
0.0
 20
0.0
 30
0.0
 70
   128
 71
     4
 72
    -1
 73
     3
  0
VERTEX
  5
1315
  8
0
 10
0.0
 20
0.0
 30
0.0
 70
   128
 71
     2
 72
     5
 73
     6
  0
VERTEX
  5
1316
  8
0
 10
0.0
 20
0.0
 30
0.0
 70
   128
 71
     6
 72
     7
 73
     2
  0
VERTEX
  5
1317
  8
0
 10
0.0
 20
0.0
 30
0.0
 70
   128
 71
     2
 72
     7
 73
     8
  0
VERTEX
  5
1318
  8
0
 10
0.0
 20
0.0
 30
0.0
 70
   128
 71
     3
 72
     2
 73
     8
  0
VERTEX
  5
1319
  8
0
 10
0.0
 20
0.0
 30
0.0
 70
   128
 71
     9
 72
     1
 73
    10
  0
VERTEX
  5
131A
  8
0
 10
0.0
 20
0.0
 30
0.0
 70
   128
 71
     4
 72
    11
 73
    12
  0
VERTEX
  5
131B
  8
0
 10
0.0
 20
0.0
 30
0.0
 70
   128
 71
    10
 72
     1
 73
    -4
  0
VERTEX
  5
131C
  8
0
 10
0.0
 20
0.0
 30
0.0
 70
   128
 71
    12
 72
   -10
 73
     4
  0
SEQEND
  5
139B
  8
0
  0
POLYLINE
  5
131D
  8
0
 66
     1
 10
0.0
 20
0.0
 30
0.0
 70
    64
 71
     8
 72
     6
  0
VERTEX
  5
131E
  8
0
 10
-75.10958323589112
 20
30.62352451793844
 30
-156.2773958089714
 70
   192
  0
VERTEX
  5
131F
  8
0
 10
-75.10958323589242
 20
-30.62352451793747
 30
-156.2773958089716
 70
   192
  0
VERTEX
  5
1320
  8
0
 10
-80.00000000000044
 20
31.10030309581751
 30
-154.9999999999982
 70
   192
  0
VERTEX
  5
1321
  8
0
 10
-80.0000000000009
 20
-31.10030309581648
 30
-154.9999999999989
 70
   192
  0
VERTEX
  5
1322
  8
0
 10
-71.27739580897396
 20
-30.24991528181235
 30
-160.1095832358906
 70
   192
  0
VERTEX
  5
1323
  8
0
 10
-71.27739580897247
 20
30.24991528181334
 30
-160.109583235891
 70
   192
  0
VERTEX
  5
1324
  8
0
 10
-70.00000000000087
 20
-30.12537886977062
 30
-165.0000000000009
 70
   192
  0
VERTEX
  5
1325
  8
0
 10
-70.00000000000045
 20
30.12537886977173
 30
-165.0000000000007
 70
   192
  0
VERTEX
  5
1326
  8
0
 10
0.0
 20
0.0
 30
0.0
 70
   128
 71
     1
 72
    -2
 73
     3
  0
VERTEX
  5
1327
  8
0
 10
0.0
 20
0.0
 30
0.0
 70
   128
 71
     2
 72
     4
 73
    -3
  0
VERTEX
  5
1328
  8
0
 10
0.0
 20
0.0
 30
0.0
 70
   128
 71
     5
 72
     2
 73
    -1
  0
VERTEX
  5
1329
  8
0
 10
0.0
 20
0.0
 30
0.0
 70
   128
 71
     6
 72
    -5
 73
     1
  0
VERTEX
  5
132A
  8
0
 10
0.0
 20
0.0
 30
0.0
 70
   128
 71
     7
 72
     5
 73
    -6
  0
VERTEX
  5
132B
  8
0
 10
0.0
 20
0.0
 30
0.0
 70
   128
 71
     8
 72
    -7
 73
     6
  0
SEQEND
  5
139C
  8
0
  0
ENDBLK
  5
132D
  8
0
  0
ENDSEC
  0
SECTION
  2
ENTITIES
  0
INSERT
  5
BE
  8
0
  2
*X1
 10
0.0
 20
0.0
 30
0.0
  0
ENDSEC
  0
EOF
