  0
SECTION
  2
HEADER
  9
$ACADVER
  1
AC1009
  9
$DWGCODEPAGE
  3
ansi_1250
  9
$INSBASE
 10
0.0
 20
0.0
 30
0.0
  9
$EXTMIN
 10
-210.0000000000003
 20
0.0
 30
-20.0
  9
$EXTMAX
 10
210.0000000000001
 20
1700.0
 30
0.0
  9
$LIMMIN
 10
0.0
 20
0.0
  9
$LIMMAX
 10
420.0
 20
297.0
  9
$ORTHOMODE
 70
     0
  9
$REGENMODE
 70
     1
  9
$FILLMODE
 70
     1
  9
$QTEXTMODE
 70
     0
  9
$MIRRTEXT
 70
     0
  9
$DRAGMODE
 70
     2
  9
$LTSCALE
 40
1.0
  9
$OSMODE
 70
   511
  9
$ATTMODE
 70
     1
  9
$TEXTSIZE
 40
2.5
  9
$TRACEWID
 40
1.0
  9
$TEXTSTYLE
  7
STANDARD
  9
$CLAYER
  8
0
  9
$CELTYPE
  6
BYLAYER
  9
$CECOLOR
 62
   256
  9
$DIMSCALE
 40
1.0
  9
$DIMASZ
 40
2.5
  9
$DIMEXO
 40
0.625
  9
$DIMDLI
 40
3.75
  9
$DIMRND
 40
0.0
  9
$DIMDLE
 40
0.0
  9
$DIMEXE
 40
1.25
  9
$DIMTP
 40
0.0
  9
$DIMTM
 40
0.0
  9
$DIMTXT
 40
2.5
  9
$DIMCEN
 40
-2.5
  9
$DIMTSZ
 40
0.0
  9
$DIMTOL
 70
     0
  9
$DIMLIM
 70
     0
  9
$DIMTIH
 70
     0
  9
$DIMTOH
 70
     0
  9
$DIMSE1
 70
     0
  9
$DIMSE2
 70
     0
  9
$DIMTAD
 70
     1
  9
$DIMZIN
 70
     8
  9
$DIMBLK
  1

  9
$DIMASO
 70
     1
  9
$DIMSHO
 70
     1
  9
$DIMPOST
  1

  9
$DIMAPOST
  1

  9
$DIMALT
 70
     0
  9
$DIMALTD
 70
     3
  9
$DIMALTF
 40
0.03937007874016
  9
$DIMLFAC
 40
1.0
  9
$DIMTOFL
 70
     1
  9
$DIMTVP
 40
0.0
  9
$DIMTIX
 70
     0
  9
$DIMSOXD
 70
     0
  9
$DIMSAH
 70
     0
  9
$DIMBLK1
  1

  9
$DIMBLK2
  1

  9
$DIMSTYLE
  2
ISO-25
  9
$DIMCLRD
 70
     0
  9
$DIMCLRE
 70
     0
  9
$DIMCLRT
 70
     0
  9
$DIMTFAC
 40
1.0
  9
$DIMGAP
 40
0.625
  9
$LUNITS
 70
     2
  9
$LUPREC
 70
     3
  9
$SKETCHINC
 40
1.0
  9
$FILLETRAD
 40
10.0
  9
$AUNITS
 70
     0
  9
$AUPREC
 70
     0
  9
$MENU
  1
.
  9
$ELEVATION
 40
0.0
  9
$PELEVATION
 40
0.0
  9
$THICKNESS
 40
0.0
  9
$LIMCHECK
 70
     0
  9
$CHAMFERA
 40
10.0
  9
$CHAMFERB
 40
10.0
  9
$SKPOLY
 70
     0
  9
$TDCREATE
 40
2455022.679026181
  9
$TDUPDATE
 40
2460356.504727095
  9
$TDINDWG
 40
0.000217581
  9
$TDUSRTIMER
 40
0.000217581
  9
$USRTIMER
 70
     1
  9
$ANGBASE
 50
0.0
  9
$ANGDIR
 70
     0
  9
$PDMODE
 70
     0
  9
$PDSIZE
 40
0.0
  9
$PLINEWID
 40
0.0
  9
$COORDS
 70
     1
  9
$SPLFRAME
 70
     0
  9
$SPLINETYPE
 70
     6
  9
$SPLINESEGS
 70
     8
  9
$ATTDIA
 70
     0
  9
$ATTREQ
 70
     1
  9
$HANDLING
 70
     1
  9
$HANDSEED
  5
3FB
  9
$SURFTAB1
 70
     6
  9
$SURFTAB2
 70
     6
  9
$SURFTYPE
 70
     6
  9
$SURFU
 70
     6
  9
$SURFV
 70
     6
  9
$UCSNAME
  2

  9
$UCSORG
 10
0.0
 20
0.0
 30
0.0
  9
$UCSXDIR
 10
1.0
 20
0.0
 30
0.0
  9
$UCSYDIR
 10
0.0
 20
1.0
 30
0.0
  9
$PUCSNAME
  2

  9
$PUCSORG
 10
0.0
 20
0.0
 30
0.0
  9
$PUCSXDIR
 10
1.0
 20
0.0
 30
0.0
  9
$PUCSYDIR
 10
0.0
 20
1.0
 30
0.0
  9
$USERI1
 70
     0
  9
$USERI2
 70
     0
  9
$USERI3
 70
     0
  9
$USERI4
 70
     0
  9
$USERI5
 70
     0
  9
$USERR1
 40
0.0
  9
$USERR2
 40
0.0
  9
$USERR3
 40
0.0
  9
$USERR4
 40
0.0
  9
$USERR5
 40
0.0
  9
$WORLDVIEW
 70
     1
  9
$SHADEDGE
 70
     3
  9
$SHADEDIF
 70
    70
  9
$TILEMODE
 70
     1
  9
$MAXACTVP
 70
    64
  9
$PLIMCHECK
 70
     0
  9
$PEXTMIN
 10
1.000000000000000E+20
 20
1.000000000000000E+20
 30
1.000000000000000E+20
  9
$PEXTMAX
 10
-1.000000000000000E+20
 20
-1.000000000000000E+20
 30
-1.000000000000000E+20
  9
$PLIMMIN
 10
0.0
 20
0.0
  9
$PLIMMAX
 10
0.0
 20
0.0
  9
$UNITMODE
 70
     0
  9
$VISRETAIN
 70
     1
  9
$PLINEGEN
 70
     0
  9
$PSLTSCALE
 70
     1
  0
ENDSEC
  0
SECTION
  2
TABLES
  0
TABLE
  2
VPORT
 70
     1
  0
VPORT
  2
*ACTIVE
 70
     0
 10
0.0
 20
0.0
 11
1.0
 21
1.0
 12
134.1869158878503
 22
850.0
 13
0.0
 23
0.0
 14
10.0
 24
10.0
 15
10.0
 25
10.0
 16
0.0
 26
0.0
 36
1.0
 17
-134.1869158878504
 27
0.0
 37
0.0
 40
1734.0
 41
1.89041095890411
 42
50.0
 43
0.0
 44
0.0
 50
0.0
 51
0.0
 71
    16
 72
  1000
 73
     1
 74
     3
 75
     0
 76
     0
 77
     0
 78
     0
  0
ENDTAB
  0
TABLE
  2
LTYPE
 70
     1
  0
LTYPE
  2
CONTINUOUS
 70
     0
  3
Solid line
 72
    65
 73
     0
 40
0.0
  0
ENDTAB
  0
TABLE
  2
LAYER
 70
     1
  0
LAYER
  2
0
 70
     0
 62
     7
  6
CONTINUOUS
  0
ENDTAB
  0
TABLE
  2
STYLE
 70
     2
  0
STYLE
  2
STANDARD
 70
     0
 40
0.0
 41
1.0
 50
0.0
 71
     0
 42
2.5
  3
arial.ttf
  4

  0
STYLE
  2
ANNOTATIVE
 70
     0
 40
0.0
 41
1.0
 50
0.0
 71
     0
 42
2.5
  3
arial.ttf
  4

  0
ENDTAB
  0
TABLE
  2
VIEW
 70
     0
  0
ENDTAB
  0
TABLE
  2
UCS
 70
     0
  0
ENDTAB
  0
TABLE
  2
APPID
 70
     2
  0
APPID
  2
ACAD
 70
     0
  0
APPID
  2
ACADANNOTATIVE
 70
     0
  0
ENDTAB
  0
TABLE
  2
DIMSTYLE
 70
     2
  0
DIMSTYLE
  2
ISO-25
 70
     0
  3

  4

  5

  6

  7

 40
1.0
 41
2.5
 42
0.625
 43
3.75
 44
1.25
 45
0.0
 46
0.0
 47
0.0
 48
0.0
140
2.5
141
-2.5
142
0.0
143
0.03937007874016
144
1.0
145
0.0
146
1.0
147
0.625
 71
     0
 72
     0
 73
     0
 74
     0
 75
     0
 76
     0
 77
     1
 78
     8
170
     0
171
     3
172
     1
173
     0
174
     0
175
     0
176
     0
177
     0
178
     0
  0
DIMSTYLE
  2
ANNOTATIVE
 70
     0
  3

  4

  5

  6

  7

 40
0.0
 41
2.5
 42
0.625
 43
3.75
 44
1.25
 45
0.0
 46
0.0
 47
0.0
 48
0.0
140
2.5
141
-2.5
142
0.0
143
0.03937007874016
144
1.0
145
0.0
146
1.0
147
0.625
 71
     0
 72
     0
 73
     0
 74
     0
 75
     0
 76
     0
 77
     1
 78
     8
170
     0
171
     3
172
     1
173
     0
174
     0
175
     0
176
     0
177
     0
178
     0
  0
ENDTAB
  0
ENDSEC
  0
SECTION
  2
BLOCKS
  0
BLOCK
  8
0
  2
$MODEL_SPACE
 70
     0
 10
0.0
 20
0.0
 30
0.0
  3
$MODEL_SPACE
  1

  0
ENDBLK
  5
21
  8
0
  0
BLOCK
 67
     1
  8
0
  2
$PAPER_SPACE
 70
     0
 10
0.0
 20
0.0
 30
0.0
  3
$PAPER_SPACE
  1

  0
ENDBLK
  5
1D
 67
     1
  8
0
  0
BLOCK
  8
0
  2
*X1
 70
     1
 10
0.0
 20
0.0
 30
0.0
  3
*X1
  1

  0
POLYLINE
  5
265
  8
0
 66
     1
 10
0.0
 20
0.0
 30
0.0
 70
    64
 71
    10
 72
     8
  0
VERTEX
  5
266
  8
0
 10
-190.0000000000003
 20
351.9999999999999
 30
-17.99999999998979
 70
   192
  0
VERTEX
  5
267
  8
0
 10
-190.0000000000003
 20
351.9999999999999
 30
-1.999999999989669
 70
   192
  0
VERTEX
  5
268
  8
0
 10
190.0
 20
351.9999999999999
 30
-1.999999999989675
 70
   192
  0
VERTEX
  5
269
  8
0
 10
190.0000000000001
 20
351.9999999999999
 30
-17.9999999999898
 70
   192
  0
VERTEX
  5
26A
  8
0
 10
190.0000000000001
 20
359.9999999999999
 30
-9.999999999989733
 70
   192
  0
VERTEX
  5
26B
  8
0
 10
-190.0000000000003
 20
359.9999999999999
 30
-9.999999999989733
 70
   192
  0
VERTEX
  5
26C
  8
0
 10
190.0000000000001
 20
357.6568542494923
 30
-15.65685424948216
 70
   192
  0
VERTEX
  5
26D
  8
0
 10
-190.0000000000003
 20
357.6568542494923
 30
-15.65685424948216
 70
   192
  0
VERTEX
  5
26E
  8
0
 10
190.0000000000001
 20
357.6568542494923
 30
-4.343145750497309
 70
   192
  0
VERTEX
  5
26F
  8
0
 10
-190.0000000000003
 20
357.6568542494923
 30
-4.343145750497308
 70
   192
  0
VERTEX
  5
270
  8
0
 10
0.0
 20
0.0
 30
0.0
 70
   128
 71
     7
 72
     4
 73
    -1
  0
VERTEX
  5
271
  8
0
 10
0.0
 20
0.0
 30
0.0
 70
   128
 71
    -7
 72
     1
 73
     8
  0
VERTEX
  5
272
  8
0
 10
0.0
 20
0.0
 30
0.0
 70
   128
 71
     6
 72
     5
 73
    -7
  0
VERTEX
  5
273
  8
0
 10
0.0
 20
0.0
 30
0.0
 70
   128
 71
    -6
 72
     7
 73
     8
  0
VERTEX
  5
274
  8
0
 10
0.0
 20
0.0
 30
0.0
 70
   128
 71
    10
 72
     9
 73
    -5
  0
VERTEX
  5
275
  8
0
 10
0.0
 20
0.0
 30
0.0
 70
   128
 71
   -10
 72
     5
 73
     6
  0
VERTEX
  5
276
  8
0
 10
0.0
 20
0.0
 30
0.0
 70
   128
 71
     2
 72
     3
 73
    -9
  0
VERTEX
  5
277
  8
0
 10
0.0
 20
0.0
 30
0.0
 70
   128
 71
    -2
 72
     9
 73
    10
  0
SEQEND
  5
3E9
  8
0
  0
POLYLINE
  5
278
  8
0
 66
     1
 10
0.0
 20
0.0
 30
0.0
 70
    64
 71
    10
 72
     8
  0
VERTEX
  5
279
  8
0
 10
-190.0000000000003
 20
683.9999999999999
 30
-17.99999999999327
 70
   192
  0
VERTEX
  5
27A
  8
0
 10
-190.0000000000003
 20
683.9999999999999
 30
-1.999999999993202
 70
   192
  0
VERTEX
  5
27B
  8
0
 10
189.9999999999999
 20
683.9999999999999
 30
-1.999999999993153
 70
   192
  0
VERTEX
  5
27C
  8
0
 10
190.0
 20
683.9999999999999
 30
-17.99999999999322
 70
   192
  0
VERTEX
  5
27D
  8
0
 10
190.0
 20
691.9999999999999
 30
-9.99999999999321
 70
   192
  0
VERTEX
  5
27E
  8
0
 10
-190.0000000000003
 20
691.9999999999999
 30
-9.99999999999321
 70
   192
  0
VERTEX
  5
27F
  8
0
 10
190.0
 20
689.6568542494923
 30
-15.6568542494856
 70
   192
  0
VERTEX
  5
280
  8
0
 10
-190.0000000000003
 20
689.6568542494923
 30
-15.6568542494856
 70
   192
  0
VERTEX
  5
281
  8
0
 10
190.0
 20
689.6568542494923
 30
-4.343145750500825
 70
   192
  0
VERTEX
  5
282
  8
0
 10
-190.0000000000003
 20
689.6568542494923
 30
-4.343145750500824
 70
   192
  0
VERTEX
  5
283
  8
0
 10
0.0
 20
0.0
 30
0.0
 70
   128
 71
     7
 72
     4
 73
    -1
  0
VERTEX
  5
284
  8
0
 10
0.0
 20
0.0
 30
0.0
 70
   128
 71
    -7
 72
     1
 73
     8
  0
VERTEX
  5
285
  8
0
 10
0.0
 20
0.0
 30
0.0
 70
   128
 71
     6
 72
     5
 73
    -7
  0
VERTEX
  5
286
  8
0
 10
0.0
 20
0.0
 30
0.0
 70
   128
 71
    -6
 72
     7
 73
     8
  0
VERTEX
  5
287
  8
0
 10
0.0
 20
0.0
 30
0.0
 70
   128
 71
    10
 72
     9
 73
    -5
  0
VERTEX
  5
288
  8
0
 10
0.0
 20
0.0
 30
0.0
 70
   128
 71
   -10
 72
     5
 73
     6
  0
VERTEX
  5
289
  8
0
 10
0.0
 20
0.0
 30
0.0
 70
   128
 71
     2
 72
     3
 73
    -9
  0
VERTEX
  5
28A
  8
0
 10
0.0
 20
0.0
 30
0.0
 70
   128
 71
    -2
 72
     9
 73
    10
  0
SEQEND
  5
3EA
  8
0
  0
POLYLINE
  5
28B
  8
0
 66
     1
 10
0.0
 20
0.0
 30
0.0
 70
    64
 71
    10
 72
     8
  0
VERTEX
  5
28C
  8
0
 10
-190.0000000000002
 20
1016.0
 30
-17.99999999999674
 70
   192
  0
VERTEX
  5
28D
  8
0
 10
-190.0000000000002
 20
1016.0
 30
-1.999999999996678
 70
   192
  0
VERTEX
  5
28E
  8
0
 10
189.9999999999999
 20
1016.0
 30
-1.999999999996631
 70
   192
  0
VERTEX
  5
28F
  8
0
 10
189.9999999999999
 20
1016.0
 30
-17.9999999999967
 70
   192
  0
VERTEX
  5
290
  8
0
 10
189.9999999999999
 20
1024.0
 30
-9.999999999996687
 70
   192
  0
VERTEX
  5
291
  8
0
 10
-190.0000000000002
 20
1024.0
 30
-9.999999999996687
 70
   192
  0
VERTEX
  5
292
  8
0
 10
189.9999999999999
 20
1021.656854249492
 30
-15.65685424948907
 70
   192
  0
VERTEX
  5
293
  8
0
 10
-190.0000000000002
 20
1021.656854249492
 30
-15.65685424948907
 70
   192
  0
VERTEX
  5
294
  8
0
 10
189.9999999999999
 20
1021.656854249492
 30
-4.343145750504301
 70
   192
  0
VERTEX
  5
295
  8
0
 10
-190.0000000000002
 20
1021.656854249492
 30
-4.3431457505043
 70
   192
  0
VERTEX
  5
296
  8
0
 10
0.0
 20
0.0
 30
0.0
 70
   128
 71
     7
 72
     4
 73
    -1
  0
VERTEX
  5
297
  8
0
 10
0.0
 20
0.0
 30
0.0
 70
   128
 71
    -7
 72
     1
 73
     8
  0
VERTEX
  5
298
  8
0
 10
0.0
 20
0.0
 30
0.0
 70
   128
 71
     6
 72
     5
 73
    -7
  0
VERTEX
  5
299
  8
0
 10
0.0
 20
0.0
 30
0.0
 70
   128
 71
    -6
 72
     7
 73
     8
  0
VERTEX
  5
29A
  8
0
 10
0.0
 20
0.0
 30
0.0
 70
   128
 71
    10
 72
     9
 73
    -5
  0
VERTEX
  5
29B
  8
0
 10
0.0
 20
0.0
 30
0.0
 70
   128
 71
   -10
 72
     5
 73
     6
  0
VERTEX
  5
29C
  8
0
 10
0.0
 20
0.0
 30
0.0
 70
   128
 71
     2
 72
     3
 73
    -9
  0
VERTEX
  5
29D
  8
0
 10
0.0
 20
0.0
 30
0.0
 70
   128
 71
    -2
 72
     9
 73
    10
  0
SEQEND
  5
3EB
  8
0
  0
POLYLINE
  5
29E
  8
0
 66
     1
 10
0.0
 20
0.0
 30
0.0
 70
    64
 71
    10
 72
     8
  0
VERTEX
  5
29F
  8
0
 10
-190.0000000000002
 20
1348.0
 30
-18.00000000000022
 70
   192
  0
VERTEX
  5
2A0
  8
0
 10
-190.0000000000002
 20
1348.0
 30
-2.000000000000156
 70
   192
  0
VERTEX
  5
2A1
  8
0
 10
189.9999999999999
 20
1348.0
 30
-2.000000000000107
 70
   192
  0
VERTEX
  5
2A2
  8
0
 10
189.9999999999999
 20
1348.0
 30
-18.00000000000017
 70
   192
  0
VERTEX
  5
2A3
  8
0
 10
189.9999999999999
 20
1356.0
 30
-10.00000000000017
 70
   192
  0
VERTEX
  5
2A4
  8
0
 10
-190.0000000000002
 20
1356.0
 30
-10.00000000000017
 70
   192
  0
VERTEX
  5
2A5
  8
0
 10
189.9999999999999
 20
1353.656854249492
 30
-15.65685424949255
 70
   192
  0
VERTEX
  5
2A6
  8
0
 10
-190.0000000000002
 20
1353.656854249492
 30
-15.65685424949255
 70
   192
  0
VERTEX
  5
2A7
  8
0
 10
189.9999999999999
 20
1353.656854249492
 30
-4.343145750507779
 70
   192
  0
VERTEX
  5
2A8
  8
0
 10
-190.0000000000002
 20
1353.656854249492
 30
-4.343145750507778
 70
   192
  0
VERTEX
  5
2A9
  8
0
 10
0.0
 20
0.0
 30
0.0
 70
   128
 71
     7
 72
     4
 73
    -1
  0
VERTEX
  5
2AA
  8
0
 10
0.0
 20
0.0
 30
0.0
 70
   128
 71
    -7
 72
     1
 73
     8
  0
VERTEX
  5
2AB
  8
0
 10
0.0
 20
0.0
 30
0.0
 70
   128
 71
     6
 72
     5
 73
    -7
  0
VERTEX
  5
2AC
  8
0
 10
0.0
 20
0.0
 30
0.0
 70
   128
 71
    -6
 72
     7
 73
     8
  0
VERTEX
  5
2AD
  8
0
 10
0.0
 20
0.0
 30
0.0
 70
   128
 71
    10
 72
     9
 73
    -5
  0
VERTEX
  5
2AE
  8
0
 10
0.0
 20
0.0
 30
0.0
 70
   128
 71
   -10
 72
     5
 73
     6
  0
VERTEX
  5
2AF
  8
0
 10
0.0
 20
0.0
 30
0.0
 70
   128
 71
     2
 72
     3
 73
    -9
  0
VERTEX
  5
2B0
  8
0
 10
0.0
 20
0.0
 30
0.0
 70
   128
 71
    -2
 72
     9
 73
    10
  0
SEQEND
  5
3EC
  8
0
  0
POLYLINE
  5
2B1
  8
0
 66
     1
 10
0.0
 20
0.0
 30
0.0
 70
    64
 71
     4
 72
     2
  0
VERTEX
  5
2B2
  8
0
 10
-210.0000000000003
 20
0.0
 30
0.0
 70
   192
  0
VERTEX
  5
2B3
  8
0
 10
-210.0000000000001
 20
1700.0
 30
0.0
 70
   192
  0
VERTEX
  5
2B4
  8
0
 10
-210.0000000000001
 20
1700.0
 30
-20.0
 70
   192
  0
VERTEX
  5
2B5
  8
0
 10
-210.0000000000003
 20
0.0
 30
-20.0
 70
   192
  0
VERTEX
  5
2B6
  8
0
 10
0.0
 20
0.0
 30
0.0
 70
   128
 71
     3
 72
     4
 73
    -1
  0
VERTEX
  5
2B7
  8
0
 10
0.0
 20
0.0
 30
0.0
 70
   128
 71
     2
 72
    -3
 73
     1
  0
SEQEND
  5
3ED
  8
0
  0
POLYLINE
  5
2B8
  8
0
 66
     1
 10
0.0
 20
0.0
 30
0.0
 70
    64
 71
     4
 72
     2
  0
VERTEX
  5
2B9
  8
0
 10
-210.0000000000001
 20
1700.0
 30
0.0
 70
   192
  0
VERTEX
  5
2BA
  8
0
 10
209.9999999999999
 20
1700.0
 30
0.0
 70
   192
  0
VERTEX
  5
2BB
  8
0
 10
209.9999999999999
 20
1700.0
 30
-20.0
 70
   192
  0
VERTEX
  5
2BC
  8
0
 10
-210.0000000000001
 20
1700.0
 30
-20.0
 70
   192
  0
VERTEX
  5
2BD
  8
0
 10
0.0
 20
0.0
 30
0.0
 70
   128
 71
     3
 72
     4
 73
    -1
  0
VERTEX
  5
2BE
  8
0
 10
0.0
 20
0.0
 30
0.0
 70
   128
 71
     2
 72
    -3
 73
     1
  0
SEQEND
  5
3EE
  8
0
  0
POLYLINE
  5
2BF
  8
0
 66
     1
 10
0.0
 20
0.0
 30
0.0
 70
    64
 71
     4
 72
     2
  0
VERTEX
  5
2C0
  8
0
 10
209.9999999999999
 20
1700.0
 30
0.0
 70
   192
  0
VERTEX
  5
2C1
  8
0
 10
210.0000000000001
 20
0.0
 30
0.0
 70
   192
  0
VERTEX
  5
2C2
  8
0
 10
210.0000000000001
 20
0.0
 30
-20.0
 70
   192
  0
VERTEX
  5
2C3
  8
0
 10
209.9999999999999
 20
1700.0
 30
-20.0
 70
   192
  0
VERTEX
  5
2C4
  8
0
 10
0.0
 20
0.0
 30
0.0
 70
   128
 71
     3
 72
     4
 73
    -1
  0
VERTEX
  5
2C5
  8
0
 10
0.0
 20
0.0
 30
0.0
 70
   128
 71
     2
 72
    -3
 73
     1
  0
SEQEND
  5
3EF
  8
0
  0
POLYLINE
  5
2C6
  8
0
 66
     1
 10
0.0
 20
0.0
 30
0.0
 70
    64
 71
     4
 72
     2
  0
VERTEX
  5
2C7
  8
0
 10
210.0000000000001
 20
0.0
 30
0.0
 70
   192
  0
VERTEX
  5
2C8
  8
0
 10
-210.0000000000003
 20
0.0
 30
0.0
 70
   192
  0
VERTEX
  5
2C9
  8
0
 10
-210.0000000000003
 20
0.0
 30
-20.0
 70
   192
  0
VERTEX
  5
2CA
  8
0
 10
210.0000000000001
 20
0.0
 30
-20.0
 70
   192
  0
VERTEX
  5
2CB
  8
0
 10
0.0
 20
0.0
 30
0.0
 70
   128
 71
     3
 72
     4
 73
    -1
  0
VERTEX
  5
2CC
  8
0
 10
0.0
 20
0.0
 30
0.0
 70
   128
 71
     2
 72
    -3
 73
     1
  0
SEQEND
  5
3F0
  8
0
  0
POLYLINE
  5
2CD
  8
0
 66
     1
 10
0.0
 20
0.0
 30
0.0
 70
    64
 71
     8
 72
     8
  0
VERTEX
  5
2CE
  8
0
 10
-210.0000000000003
 20
0.0
 30
-20.0
 70
   192
  0
VERTEX
  5
2CF
  8
0
 10
-210.0000000000001
 20
1700.0
 30
-20.0
 70
   192
  0
VERTEX
  5
2D0
  8
0
 10
209.9999999999999
 20
1700.0
 30
-20.0
 70
   192
  0
VERTEX
  5
2D1
  8
0
 10
210.0000000000001
 20
0.0
 30
-20.0
 70
   192
  0
VERTEX
  5
2D2
  8
0
 10
190.0000000000001
 20
20.0
 30
-20.0
 70
   192
  0
VERTEX
  5
2D3
  8
0
 10
189.9999999999999
 20
1680.0
 30
-20.0
 70
   192
  0
VERTEX
  5
2D4
  8
0
 10
-190.0000000000001
 20
1680.0
 30
-20.0
 70
   192
  0
VERTEX
  5
2D5
  8
0
 10
-190.0000000000003
 20
20.0
 30
-20.0
 70
   192
  0
VERTEX
  5
2D6
  8
0
 10
0.0
 20
0.0
 30
0.0
 70
   128
 71
    -4
 72
     5
 73
    -6
  0
VERTEX
  5
2D7
  8
0
 10
0.0
 20
0.0
 30
0.0
 70
   128
 71
     3
 72
    -4
 73
    -6
  0
VERTEX
  5
2D8
  8
0
 10
0.0
 20
0.0
 30
0.0
 70
   128
 71
    -7
 72
     2
 73
    -3
  0
VERTEX
  5
2D9
  8
0
 10
0.0
 20
0.0
 30
0.0
 70
   128
 71
     6
 72
    -7
 73
    -3
  0
VERTEX
  5
2DA
  8
0
 10
0.0
 20
0.0
 30
0.0
 70
   128
 71
    -8
 72
     1
 73
    -2
  0
VERTEX
  5
2DB
  8
0
 10
0.0
 20
0.0
 30
0.0
 70
   128
 71
     7
 72
    -8
 73
    -2
  0
VERTEX
  5
2DC
  8
0
 10
0.0
 20
0.0
 30
0.0
 70
   128
 71
    -5
 72
     4
 73
    -1
  0
VERTEX
  5
2DD
  8
0
 10
0.0
 20
0.0
 30
0.0
 70
   128
 71
     8
 72
    -5
 73
    -1
  0
SEQEND
  5
3F1
  8
0
  0
POLYLINE
  5
2DE
  8
0
 66
     1
 10
0.0
 20
0.0
 30
0.0
 70
    64
 71
     8
 72
     8
  0
VERTEX
  5
2DF
  8
0
 10
-210.0000000000001
 20
1700.0
 30
0.0
 70
   192
  0
VERTEX
  5
2E0
  8
0
 10
209.9999999999999
 20
1700.0
 30
0.0
 70
   192
  0
VERTEX
  5
2E1
  8
0
 10
210.0000000000001
 20
0.0
 30
0.0
 70
   192
  0
VERTEX
  5
2E2
  8
0
 10
-210.0000000000003
 20
0.0
 30
0.0
 70
   192
  0
VERTEX
  5
2E3
  8
0
 10
-190.0000000000001
 20
1680.0
 30
0.0
 70
   192
  0
VERTEX
  5
2E4
  8
0
 10
-190.0000000000004
 20
19.99999999999995
 30
0.0
 70
   192
  0
VERTEX
  5
2E5
  8
0
 10
190.0000000000001
 20
20.0
 30
0.0
 70
   192
  0
VERTEX
  5
2E6
  8
0
 10
189.9999999999999
 20
1680.0
 30
0.0
 70
   192
  0
VERTEX
  5
2E7
  8
0
 10
0.0
 20
0.0
 30
0.0
 70
   128
 71
     6
 72
    -5
 73
    -1
  0
VERTEX
  5
2E8
  8
0
 10
0.0
 20
0.0
 30
0.0
 70
   128
 71
    -6
 72
     1
 73
    -4
  0
VERTEX
  5
2E9
  8
0
 10
0.0
 20
0.0
 30
0.0
 70
   128
 71
     4
 72
    -3
 73
    -7
  0
VERTEX
  5
2EA
  8
0
 10
0.0
 20
0.0
 30
0.0
 70
   128
 71
    -4
 72
     7
 73
    -6
  0
VERTEX
  5
2EB
  8
0
 10
0.0
 20
0.0
 30
0.0
 70
   128
 71
     3
 72
    -2
 73
    -8
  0
VERTEX
  5
2EC
  8
0
 10
0.0
 20
0.0
 30
0.0
 70
   128
 71
    -3
 72
     8
 73
    -7
  0
VERTEX
  5
2ED
  8
0
 10
0.0
 20
0.0
 30
0.0
 70
   128
 71
     2
 72
    -1
 73
    -5
  0
VERTEX
  5
2EE
  8
0
 10
0.0
 20
0.0
 30
0.0
 70
   128
 71
    -2
 72
     5
 73
    -8
  0
SEQEND
  5
3F2
  8
0
  0
POLYLINE
  5
2EF
  8
0
 66
     1
 10
0.0
 20
0.0
 30
0.0
 70
    64
 71
    36
 72
    42
  0
VERTEX
  5
2F0
  8
0
 10
190.0000000000001
 20
20.00000000000002
 30
0.0
 70
   192
  0
VERTEX
  5
2F1
  8
0
 10
190.0000000000001
 20
20.0
 30
-20.0
 70
   192
  0
VERTEX
  5
2F2
  8
0
 10
189.9999999999999
 20
1680.0
 30
-20.0
 70
   192
  0
VERTEX
  5
2F3
  8
0
 10
189.9999999999999
 20
1680.0
 30
0.0
 70
   192
  0
VERTEX
  5
2F4
  8
0
 10
190.0
 20
683.9999999999999
 30
-1.999999999993204
 70
   192
  0
VERTEX
  5
2F5
  8
0
 10
190.0
 20
689.6568542494923
 30
-4.343145750500825
 70
   192
  0
VERTEX
  5
2F6
  8
0
 10
190.0
 20
691.9999999999999
 30
-9.99999999999321
 70
   192
  0
VERTEX
  5
2F7
  8
0
 10
190.0
 20
689.6568542494923
 30
-15.6568542494856
 70
   192
  0
VERTEX
  5
2F8
  8
0
 10
190.0
 20
683.9999999999999
 30
-17.99999999999322
 70
   192
  0
VERTEX
  5
2F9
  8
0
 10
190.0
 20
678.3431457505075
 30
-15.6568542494856
 70
   192
  0
VERTEX
  5
2FA
  8
0
 10
190.0
 20
675.9999999999999
 30
-9.99999999999321
 70
   192
  0
VERTEX
  5
2FB
  8
0
 10
190.0
 20
678.3431457505075
 30
-4.343145750500824
 70
   192
  0
VERTEX
  5
2FC
  8
0
 10
189.9999999999999
 20
1016.0
 30
-1.99999999999668
 70
   192
  0
VERTEX
  5
2FD
  8
0
 10
189.9999999999999
 20
1021.656854249492
 30
-4.343145750504301
 70
   192
  0
VERTEX
  5
2FE
  8
0
 10
189.9999999999999
 20
1024.0
 30
-9.999999999996687
 70
   192
  0
VERTEX
  5
2FF
  8
0
 10
189.9999999999999
 20
1021.656854249492
 30
-15.65685424948907
 70
   192
  0
VERTEX
  5
300
  8
0
 10
189.9999999999999
 20
1016.0
 30
-17.9999999999967
 70
   192
  0
VERTEX
  5
301
  8
0
 10
189.9999999999999
 20
1010.343145750507
 30
-15.65685424948907
 70
   192
  0
VERTEX
  5
302
  8
0
 10
189.9999999999999
 20
1008.0
 30
-9.999999999996687
 70
   192
  0
VERTEX
  5
303
  8
0
 10
189.9999999999999
 20
1010.343145750507
 30
-4.3431457505043
 70
   192
  0
VERTEX
  5
304
  8
0
 10
189.9999999999999
 20
1348.0
 30
-2.000000000000158
 70
   192
  0
VERTEX
  5
305
  8
0
 10
189.9999999999999
 20
1353.656854249492
 30
-4.343145750507779
 70
   192
  0
VERTEX
  5
306
  8
0
 10
189.9999999999999
 20
1356.0
 30
-10.00000000000017
 70
   192
  0
VERTEX
  5
307
  8
0
 10
189.9999999999999
 20
1353.656854249492
 30
-15.65685424949255
 70
   192
  0
VERTEX
  5
308
  8
0
 10
189.9999999999999
 20
1348.0
 30
-18.00000000000017
 70
   192
  0
VERTEX
  5
309
  8
0
 10
189.9999999999999
 20
1342.343145750507
 30
-15.65685424949255
 70
   192
  0
VERTEX
  5
30A
  8
0
 10
189.9999999999999
 20
1340.0
 30
-10.00000000000017
 70
   192
  0
VERTEX
  5
30B
  8
0
 10
189.9999999999999
 20
1342.343145750507
 30
-4.343145750507778
 70
   192
  0
VERTEX
  5
30C
  8
0
 10
190.0000000000001
 20
351.9999999999999
 30
-1.99999999998967
 70
   192
  0
VERTEX
  5
30D
  8
0
 10
190.0000000000001
 20
357.6568542494923
 30
-4.343145750497309
 70
   192
  0
VERTEX
  5
30E
  8
0
 10
190.0000000000001
 20
359.9999999999999
 30
-9.999999999989733
 70
   192
  0
VERTEX
  5
30F
  8
0
 10
190.0000000000001
 20
357.6568542494923
 30
-15.65685424948216
 70
   192
  0
VERTEX
  5
310
  8
0
 10
190.0000000000001
 20
351.9999999999999
 30
-17.9999999999898
 70
   192
  0
VERTEX
  5
311
  8
0
 10
190.0000000000001
 20
346.3431457505075
 30
-15.65685424948216
 70
   192
  0
VERTEX
  5
312
  8
0
 10
190.0000000000001
 20
343.9999999999998
 30
-9.999999999989733
 70
   192
  0
VERTEX
  5
313
  8
0
 10
190.0000000000001
 20
346.3431457505075
 30
-4.343145750497308
 70
   192
  0
VERTEX
  5
314
  8
0
 10
0.0
 20
0.0
 30
0.0
 70
   128
 71
    -5
 72
     1
 73
    -4
  0
VERTEX
  5
315
  8
0
 10
0.0
 20
0.0
 30
0.0
 70
   128
 71
    -4
 72
   -13
 73
    -5
  0
VERTEX
  5
316
  8
0
 10
0.0
 20
0.0
 30
0.0
 70
   128
 71
     6
 72
    -5
 73
   -20
  0
VERTEX
  5
317
  8
0
 10
0.0
 20
0.0
 30
0.0
 70
   128
 71
    20
 72
   -19
 73
    -7
  0
VERTEX
  5
318
  8
0
 10
0.0
 20
0.0
 30
0.0
 70
   128
 71
   -20
 72
     7
 73
    -6
  0
VERTEX
  5
319
  8
0
 10
0.0
 20
0.0
 30
0.0
 70
   128
 71
    -5
 72
    13
 73
   -20
  0
VERTEX
  5
31A
  8
0
 10
0.0
 20
0.0
 30
0.0
 70
   128
 71
    19
 72
   -18
 73
    -8
  0
VERTEX
  5
31B
  8
0
 10
0.0
 20
0.0
 30
0.0
 70
   128
 71
   -19
 72
     8
 73
    -7
  0
VERTEX
  5
31C
  8
0
 10
0.0
 20
0.0
 30
0.0
 70
   128
 71
    14
 72
   -13
 73
   -21
  0
VERTEX
  5
31D
  8
0
 10
0.0
 20
0.0
 30
0.0
 70
   128
 71
    28
 72
   -27
 73
   -15
  0
VERTEX
  5
31E
  8
0
 10
0.0
 20
0.0
 30
0.0
 70
   128
 71
   -28
 72
    15
 73
   -14
  0
VERTEX
  5
31F
  8
0
 10
0.0
 20
0.0
 30
0.0
 70
   128
 71
   -14
 72
    21
 73
   -28
  0
VERTEX
  5
320
  8
0
 10
0.0
 20
0.0
 30
0.0
 70
   128
 71
    27
 72
   -26
 73
   -16
  0
VERTEX
  5
321
  8
0
 10
0.0
 20
0.0
 30
0.0
 70
   128
 71
   -27
 72
    16
 73
   -15
  0
VERTEX
  5
322
  8
0
 10
0.0
 20
0.0
 30
0.0
 70
   128
 71
   -21
 72
   -13
 73
    -4
  0
VERTEX
  5
323
  8
0
 10
0.0
 20
0.0
 30
0.0
 70
   128
 71
    -4
 72
    22
 73
   -21
  0
VERTEX
  5
324
  8
0
 10
0.0
 20
0.0
 30
0.0
 70
   128
 71
     4
 72
    -3
 73
   -23
  0
VERTEX
  5
325
  8
0
 10
0.0
 20
0.0
 30
0.0
 70
   128
 71
    -4
 72
    23
 73
   -22
  0
VERTEX
  5
326
  8
0
 10
0.0
 20
0.0
 30
0.0
 70
   128
 71
    -3
 72
    24
 73
   -23
  0
VERTEX
  5
327
  8
0
 10
0.0
 20
0.0
 30
0.0
 70
   128
 71
    -3
 72
    25
 73
   -24
  0
VERTEX
  5
328
  8
0
 10
0.0
 20
0.0
 30
0.0
 70
   128
 71
    -3
 72
   -17
 73
   -25
  0
VERTEX
  5
329
  8
0
 10
0.0
 20
0.0
 30
0.0
 70
   128
 71
    17
 72
   -16
 73
   -26
  0
VERTEX
  5
32A
  8
0
 10
0.0
 20
0.0
 30
0.0
 70
   128
 71
   -17
 72
    26
 73
   -25
  0
VERTEX
  5
32B
  8
0
 10
0.0
 20
0.0
 30
0.0
 70
   128
 71
    -3
 72
    -9
 73
   -17
  0
VERTEX
  5
32C
  8
0
 10
0.0
 20
0.0
 30
0.0
 70
   128
 71
     9
 72
    -8
 73
   -18
  0
VERTEX
  5
32D
  8
0
 10
0.0
 20
0.0
 30
0.0
 70
   128
 71
    -9
 72
    18
 73
   -17
  0
VERTEX
  5
32E
  8
0
 10
0.0
 20
0.0
 30
0.0
 70
   128
 71
     3
 72
    -2
 73
    -9
  0
VERTEX
  5
32F
  8
0
 10
0.0
 20
0.0
 30
0.0
 70
   128
 71
    33
 72
   -32
 73
   -10
  0
VERTEX
  5
330
  8
0
 10
0.0
 20
0.0
 30
0.0
 70
   128
 71
   -33
 72
    10
 73
    -9
  0
VERTEX
  5
331
  8
0
 10
0.0
 20
0.0
 30
0.0
 70
   128
 71
   -33
 72
    -9
 73
    -2
  0
VERTEX
  5
332
  8
0
 10
0.0
 20
0.0
 30
0.0
 70
   128
 71
    -2
 72
    34
 73
   -33
  0
VERTEX
  5
333
  8
0
 10
0.0
 20
0.0
 30
0.0
 70
   128
 71
     2
 72
    -1
 73
   -35
  0
VERTEX
  5
334
  8
0
 10
0.0
 20
0.0
 30
0.0
 70
   128
 71
    -2
 72
    35
 73
   -34
  0
VERTEX
  5
335
  8
0
 10
0.0
 20
0.0
 30
0.0
 70
   128
 71
    -1
 72
    36
 73
   -35
  0
VERTEX
  5
336
  8
0
 10
0.0
 20
0.0
 30
0.0
 70
   128
 71
    -1
 72
    29
 73
   -36
  0
VERTEX
  5
337
  8
0
 10
0.0
 20
0.0
 30
0.0
 70
   128
 71
    -1
 72
    -5
 73
   -29
  0
VERTEX
  5
338
  8
0
 10
0.0
 20
0.0
 30
0.0
 70
   128
 71
    32
 72
   -31
 73
   -11
  0
VERTEX
  5
339
  8
0
 10
0.0
 20
0.0
 30
0.0
 70
   128
 71
   -32
 72
    11
 73
   -10
  0
VERTEX
  5
33A
  8
0
 10
0.0
 20
0.0
 30
0.0
 70
   128
 71
    30
 72
   -29
 73
   -12
  0
VERTEX
  5
33B
  8
0
 10
0.0
 20
0.0
 30
0.0
 70
   128
 71
    12
 72
   -11
 73
   -31
  0
VERTEX
  5
33C
  8
0
 10
0.0
 20
0.0
 30
0.0
 70
   128
 71
   -12
 72
    31
 73
   -30
  0
VERTEX
  5
33D
  8
0
 10
0.0
 20
0.0
 30
0.0
 70
   128
 71
   -29
 72
     5
 73
   -12
  0
SEQEND
  5
3F3
  8
0
  0
POLYLINE
  5
33E
  8
0
 66
     1
 10
0.0
 20
0.0
 30
0.0
 70
    64
 71
     4
 72
     2
  0
VERTEX
  5
33F
  8
0
 10
-190.0000000000003
 20
19.99999999999995
 30
0.0
 70
   192
  0
VERTEX
  5
340
  8
0
 10
-190.0000000000004
 20
19.99999999999995
 30
-20.0
 70
   192
  0
VERTEX
  5
341
  8
0
 10
190.0000000000001
 20
20.00000000000002
 30
-20.0
 70
   192
  0
VERTEX
  5
342
  8
0
 10
190.0000000000001
 20
20.00000000000002
 30
0.0
 70
   192
  0
VERTEX
  5
343
  8
0
 10
0.0
 20
0.0
 30
0.0
 70
   128
 71
     1
 72
     4
 73
    -3
  0
VERTEX
  5
344
  8
0
 10
0.0
 20
0.0
 30
0.0
 70
   128
 71
    -1
 72
     3
 73
     2
  0
SEQEND
  5
3F4
  8
0
  0
POLYLINE
  5
345
  8
0
 66
     1
 10
0.0
 20
0.0
 30
0.0
 70
    64
 71
    36
 72
    42
  0
VERTEX
  5
346
  8
0
 10
-190.0000000000001
 20
1680.0
 30
0.0
 70
   192
  0
VERTEX
  5
347
  8
0
 10
-190.0000000000001
 20
1680.0
 30
-20.0
 70
   192
  0
VERTEX
  5
348
  8
0
 10
-190.0000000000003
 20
19.99999999999995
 30
-20.0
 70
   192
  0
VERTEX
  5
349
  8
0
 10
-190.0000000000003
 20
20.0
 30
0.0
 70
   192
  0
VERTEX
  5
34A
  8
0
 10
-190.0000000000003
 20
683.9999999999999
 30
-1.999999999993204
 70
   192
  0
VERTEX
  5
34B
  8
0
 10
-190.0000000000003
 20
678.3431457505075
 30
-4.343145750500825
 70
   192
  0
VERTEX
  5
34C
  8
0
 10
-190.0000000000003
 20
675.9999999999999
 30
-9.99999999999321
 70
   192
  0
VERTEX
  5
34D
  8
0
 10
-190.0000000000003
 20
678.3431457505075
 30
-15.6568542494856
 70
   192
  0
VERTEX
  5
34E
  8
0
 10
-190.0000000000003
 20
683.9999999999999
 30
-17.99999999999322
 70
   192
  0
VERTEX
  5
34F
  8
0
 10
-190.0000000000003
 20
689.6568542494923
 30
-15.6568542494856
 70
   192
  0
VERTEX
  5
350
  8
0
 10
-190.0000000000003
 20
691.9999999999999
 30
-9.99999999999321
 70
   192
  0
VERTEX
  5
351
  8
0
 10
-190.0000000000003
 20
689.6568542494923
 30
-4.343145750500824
 70
   192
  0
VERTEX
  5
352
  8
0
 10
-190.0000000000002
 20
1016.0
 30
-1.99999999999668
 70
   192
  0
VERTEX
  5
353
  8
0
 10
-190.0000000000002
 20
1010.343145750507
 30
-4.343145750504301
 70
   192
  0
VERTEX
  5
354
  8
0
 10
-190.0000000000002
 20
1008.0
 30
-9.999999999996687
 70
   192
  0
VERTEX
  5
355
  8
0
 10
-190.0000000000002
 20
1010.343145750507
 30
-15.65685424948907
 70
   192
  0
VERTEX
  5
356
  8
0
 10
-190.0000000000002
 20
1016.0
 30
-17.9999999999967
 70
   192
  0
VERTEX
  5
357
  8
0
 10
-190.0000000000002
 20
1021.656854249492
 30
-15.65685424948907
 70
   192
  0
VERTEX
  5
358
  8
0
 10
-190.0000000000002
 20
1024.0
 30
-9.999999999996687
 70
   192
  0
VERTEX
  5
359
  8
0
 10
-190.0000000000002
 20
1021.656854249492
 30
-4.3431457505043
 70
   192
  0
VERTEX
  5
35A
  8
0
 10
-190.0000000000002
 20
1348.0
 30
-2.000000000000158
 70
   192
  0
VERTEX
  5
35B
  8
0
 10
-190.0000000000002
 20
1342.343145750507
 30
-4.343145750507779
 70
   192
  0
VERTEX
  5
35C
  8
0
 10
-190.0000000000002
 20
1340.0
 30
-10.00000000000017
 70
   192
  0
VERTEX
  5
35D
  8
0
 10
-190.0000000000002
 20
1342.343145750507
 30
-15.65685424949255
 70
   192
  0
VERTEX
  5
35E
  8
0
 10
-190.0000000000002
 20
1348.0
 30
-18.00000000000017
 70
   192
  0
VERTEX
  5
35F
  8
0
 10
-190.0000000000002
 20
1353.656854249492
 30
-15.65685424949255
 70
   192
  0
VERTEX
  5
360
  8
0
 10
-190.0000000000002
 20
1356.0
 30
-10.00000000000017
 70
   192
  0
VERTEX
  5
361
  8
0
 10
-190.0000000000002
 20
1353.656854249492
 30
-4.343145750507778
 70
   192
  0
VERTEX
  5
362
  8
0
 10
-190.0000000000003
 20
351.9999999999999
 30
-1.99999999998967
 70
   192
  0
VERTEX
  5
363
  8
0
 10
-190.0000000000003
 20
346.3431457505075
 30
-4.343145750497309
 70
   192
  0
VERTEX
  5
364
  8
0
 10
-190.0000000000003
 20
343.9999999999998
 30
-9.999999999989733
 70
   192
  0
VERTEX
  5
365
  8
0
 10
-190.0000000000003
 20
346.3431457505075
 30
-15.65685424948216
 70
   192
  0
VERTEX
  5
366
  8
0
 10
-190.0000000000003
 20
351.9999999999999
 30
-17.9999999999898
 70
   192
  0
VERTEX
  5
367
  8
0
 10
-190.0000000000003
 20
357.6568542494923
 30
-15.65685424948216
 70
   192
  0
VERTEX
  5
368
  8
0
 10
-190.0000000000003
 20
359.9999999999999
 30
-9.999999999989733
 70
   192
  0
VERTEX
  5
369
  8
0
 10
-190.0000000000003
 20
357.6568542494923
 30
-4.343145750497308
 70
   192
  0
VERTEX
  5
36A
  8
0
 10
0.0
 20
0.0
 30
0.0
 70
   128
 71
    22
 72
   -21
 73
   -13
  0
VERTEX
  5
36B
  8
0
 10
0.0
 20
0.0
 30
0.0
 70
   128
 71
    20
 72
   -19
 73
   -23
  0
VERTEX
  5
36C
  8
0
 10
0.0
 20
0.0
 30
0.0
 70
   128
 71
   -20
 72
    23
 73
   -22
  0
VERTEX
  5
36D
  8
0
 10
0.0
 20
0.0
 30
0.0
 70
   128
 71
   -22
 72
    13
 73
   -20
  0
VERTEX
  5
36E
  8
0
 10
0.0
 20
0.0
 30
0.0
 70
   128
 71
    19
 72
   -18
 73
   -24
  0
VERTEX
  5
36F
  8
0
 10
0.0
 20
0.0
 30
0.0
 70
   128
 71
   -19
 72
    24
 73
   -23
  0
VERTEX
  5
370
  8
0
 10
0.0
 20
0.0
 30
0.0
 70
   128
 71
   -13
 72
     1
 73
    -4
  0
VERTEX
  5
371
  8
0
 10
0.0
 20
0.0
 30
0.0
 70
   128
 71
    -4
 72
    -5
 73
   -13
  0
VERTEX
  5
372
  8
0
 10
0.0
 20
0.0
 30
0.0
 70
   128
 71
    14
 72
   -13
 73
   -12
  0
VERTEX
  5
373
  8
0
 10
0.0
 20
0.0
 30
0.0
 70
   128
 71
    12
 72
   -11
 73
   -15
  0
VERTEX
  5
374
  8
0
 10
0.0
 20
0.0
 30
0.0
 70
   128
 71
   -12
 72
    15
 73
   -14
  0
VERTEX
  5
375
  8
0
 10
0.0
 20
0.0
 30
0.0
 70
   128
 71
   -13
 72
     5
 73
   -12
  0
VERTEX
  5
376
  8
0
 10
0.0
 20
0.0
 30
0.0
 70
   128
 71
    11
 72
   -10
 73
   -16
  0
VERTEX
  5
377
  8
0
 10
0.0
 20
0.0
 30
0.0
 70
   128
 71
   -11
 72
    16
 73
   -15
  0
VERTEX
  5
378
  8
0
 10
0.0
 20
0.0
 30
0.0
 70
   128
 71
     6
 72
    -5
 73
   -29
  0
VERTEX
  5
379
  8
0
 10
0.0
 20
0.0
 30
0.0
 70
   128
 71
    36
 72
   -35
 73
    -7
  0
VERTEX
  5
37A
  8
0
 10
0.0
 20
0.0
 30
0.0
 70
   128
 71
   -36
 72
     7
 73
    -6
  0
VERTEX
  5
37B
  8
0
 10
0.0
 20
0.0
 30
0.0
 70
   128
 71
    -6
 72
    29
 73
   -36
  0
VERTEX
  5
37C
  8
0
 10
0.0
 20
0.0
 30
0.0
 70
   128
 71
    35
 72
   -34
 73
    -8
  0
VERTEX
  5
37D
  8
0
 10
0.0
 20
0.0
 30
0.0
 70
   128
 71
   -35
 72
     8
 73
    -7
  0
VERTEX
  5
37E
  8
0
 10
0.0
 20
0.0
 30
0.0
 70
   128
 71
   -29
 72
    -5
 73
    -4
  0
VERTEX
  5
37F
  8
0
 10
0.0
 20
0.0
 30
0.0
 70
   128
 71
    -4
 72
    30
 73
   -29
  0
VERTEX
  5
380
  8
0
 10
0.0
 20
0.0
 30
0.0
 70
   128
 71
    -4
 72
    31
 73
   -30
  0
VERTEX
  5
381
  8
0
 10
0.0
 20
0.0
 30
0.0
 70
   128
 71
     4
 72
    -3
 73
   -32
  0
VERTEX
  5
382
  8
0
 10
0.0
 20
0.0
 30
0.0
 70
   128
 71
    -4
 72
    32
 73
   -31
  0
VERTEX
  5
383
  8
0
 10
0.0
 20
0.0
 30
0.0
 70
   128
 71
    -3
 72
    33
 73
   -32
  0
VERTEX
  5
384
  8
0
 10
0.0
 20
0.0
 30
0.0
 70
   128
 71
    -3
 72
    -9
 73
   -33
  0
VERTEX
  5
385
  8
0
 10
0.0
 20
0.0
 30
0.0
 70
   128
 71
     9
 72
    -8
 73
   -34
  0
VERTEX
  5
386
  8
0
 10
0.0
 20
0.0
 30
0.0
 70
   128
 71
    -9
 72
    34
 73
   -33
  0
VERTEX
  5
387
  8
0
 10
0.0
 20
0.0
 30
0.0
 70
   128
 71
    -3
 72
   -17
 73
    -9
  0
VERTEX
  5
388
  8
0
 10
0.0
 20
0.0
 30
0.0
 70
   128
 71
    17
 72
   -16
 73
   -10
  0
VERTEX
  5
389
  8
0
 10
0.0
 20
0.0
 30
0.0
 70
   128
 71
   -17
 72
    10
 73
    -9
  0
VERTEX
  5
38A
  8
0
 10
0.0
 20
0.0
 30
0.0
 70
   128
 71
    -3
 72
   -25
 73
   -17
  0
VERTEX
  5
38B
  8
0
 10
0.0
 20
0.0
 30
0.0
 70
   128
 71
    25
 72
   -24
 73
   -18
  0
VERTEX
  5
38C
  8
0
 10
0.0
 20
0.0
 30
0.0
 70
   128
 71
   -25
 72
    18
 73
   -17
  0
VERTEX
  5
38D
  8
0
 10
0.0
 20
0.0
 30
0.0
 70
   128
 71
     3
 72
    -2
 73
   -25
  0
VERTEX
  5
38E
  8
0
 10
0.0
 20
0.0
 30
0.0
 70
   128
 71
    -2
 72
    26
 73
   -25
  0
VERTEX
  5
38F
  8
0
 10
0.0
 20
0.0
 30
0.0
 70
   128
 71
     2
 72
    -1
 73
   -27
  0
VERTEX
  5
390
  8
0
 10
0.0
 20
0.0
 30
0.0
 70
   128
 71
    -2
 72
    27
 73
   -26
  0
VERTEX
  5
391
  8
0
 10
0.0
 20
0.0
 30
0.0
 70
   128
 71
    -1
 72
    28
 73
   -27
  0
VERTEX
  5
392
  8
0
 10
0.0
 20
0.0
 30
0.0
 70
   128
 71
    -1
 72
    21
 73
   -28
  0
VERTEX
  5
393
  8
0
 10
0.0
 20
0.0
 30
0.0
 70
   128
 71
    -1
 72
   -13
 73
   -21
  0
SEQEND
  5
3F5
  8
0
  0
POLYLINE
  5
394
  8
0
 66
     1
 10
0.0
 20
0.0
 30
0.0
 70
    64
 71
     4
 72
     2
  0
VERTEX
  5
395
  8
0
 10
189.9999999999999
 20
1680.0
 30
0.0
 70
   192
  0
VERTEX
  5
396
  8
0
 10
189.9999999999999
 20
1680.0
 30
-20.0
 70
   192
  0
VERTEX
  5
397
  8
0
 10
-190.0000000000001
 20
1680.0
 30
-20.0
 70
   192
  0
VERTEX
  5
398
  8
0
 10
-190.0000000000001
 20
1680.0
 30
0.0
 70
   192
  0
VERTEX
  5
399
  8
0
 10
0.0
 20
0.0
 30
0.0
 70
   128
 71
     1
 72
     4
 73
    -3
  0
VERTEX
  5
39A
  8
0
 10
0.0
 20
0.0
 30
0.0
 70
   128
 71
    -1
 72
     3
 73
     2
  0
SEQEND
  5
3F6
  8
0
  0
POLYLINE
  5
39B
  8
0
 66
     1
 10
0.0
 20
0.0
 30
0.0
 70
    64
 71
    10
 72
     8
  0
VERTEX
  5
39C
  8
0
 10
-190.0000000000002
 20
1348.0
 30
-2.000000000000107
 70
   192
  0
VERTEX
  5
39D
  8
0
 10
-190.0000000000002
 20
1348.0
 30
-18.00000000000017
 70
   192
  0
VERTEX
  5
39E
  8
0
 10
189.9999999999999
 20
1348.0
 30
-18.00000000000022
 70
   192
  0
VERTEX
  5
39F
  8
0
 10
189.9999999999999
 20
1348.0
 30
-2.000000000000156
 70
   192
  0
VERTEX
  5
3A0
  8
0
 10
189.9999999999999
 20
1340.0
 30
-10.00000000000017
 70
   192
  0
VERTEX
  5
3A1
  8
0
 10
-190.0000000000002
 20
1340.0
 30
-10.00000000000017
 70
   192
  0
VERTEX
  5
3A2
  8
0
 10
189.9999999999999
 20
1342.343145750507
 30
-4.343145750507778
 70
   192
  0
VERTEX
  5
3A3
  8
0
 10
-190.0000000000002
 20
1342.343145750507
 30
-4.343145750507779
 70
   192
  0
VERTEX
  5
3A4
  8
0
 10
189.9999999999999
 20
1342.343145750507
 30
-15.65685424949255
 70
   192
  0
VERTEX
  5
3A5
  8
0
 10
-190.0000000000002
 20
1342.343145750507
 30
-15.65685424949255
 70
   192
  0
VERTEX
  5
3A6
  8
0
 10
0.0
 20
0.0
 30
0.0
 70
   128
 71
     8
 72
     7
 73
    -4
  0
VERTEX
  5
3A7
  8
0
 10
0.0
 20
0.0
 30
0.0
 70
   128
 71
    -8
 72
     4
 73
     1
  0
VERTEX
  5
3A8
  8
0
 10
0.0
 20
0.0
 30
0.0
 70
   128
 71
     6
 72
     5
 73
    -7
  0
VERTEX
  5
3A9
  8
0
 10
0.0
 20
0.0
 30
0.0
 70
   128
 71
    -6
 72
     7
 73
     8
  0
VERTEX
  5
3AA
  8
0
 10
0.0
 20
0.0
 30
0.0
 70
   128
 71
    10
 72
     9
 73
    -5
  0
VERTEX
  5
3AB
  8
0
 10
0.0
 20
0.0
 30
0.0
 70
   128
 71
   -10
 72
     5
 73
     6
  0
VERTEX
  5
3AC
  8
0
 10
0.0
 20
0.0
 30
0.0
 70
   128
 71
     2
 72
     3
 73
    -9
  0
VERTEX
  5
3AD
  8
0
 10
0.0
 20
0.0
 30
0.0
 70
   128
 71
    -2
 72
     9
 73
    10
  0
SEQEND
  5
3F7
  8
0
  0
POLYLINE
  5
3AE
  8
0
 66
     1
 10
0.0
 20
0.0
 30
0.0
 70
    64
 71
    10
 72
     8
  0
VERTEX
  5
3AF
  8
0
 10
-190.0000000000002
 20
1016.0
 30
-1.999999999996631
 70
   192
  0
VERTEX
  5
3B0
  8
0
 10
-190.0000000000002
 20
1016.0
 30
-17.9999999999967
 70
   192
  0
VERTEX
  5
3B1
  8
0
 10
189.9999999999999
 20
1016.0
 30
-17.99999999999674
 70
   192
  0
VERTEX
  5
3B2
  8
0
 10
189.9999999999999
 20
1016.0
 30
-1.999999999996678
 70
   192
  0
VERTEX
  5
3B3
  8
0
 10
189.9999999999999
 20
1008.0
 30
-9.999999999996687
 70
   192
  0
VERTEX
  5
3B4
  8
0
 10
-190.0000000000002
 20
1008.0
 30
-9.999999999996687
 70
   192
  0
VERTEX
  5
3B5
  8
0
 10
189.9999999999999
 20
1010.343145750507
 30
-4.3431457505043
 70
   192
  0
VERTEX
  5
3B6
  8
0
 10
-190.0000000000002
 20
1010.343145750507
 30
-4.343145750504301
 70
   192
  0
VERTEX
  5
3B7
  8
0
 10
189.9999999999999
 20
1010.343145750507
 30
-15.65685424948907
 70
   192
  0
VERTEX
  5
3B8
  8
0
 10
-190.0000000000002
 20
1010.343145750507
 30
-15.65685424948907
 70
   192
  0
VERTEX
  5
3B9
  8
0
 10
0.0
 20
0.0
 30
0.0
 70
   128
 71
     8
 72
     7
 73
    -4
  0
VERTEX
  5
3BA
  8
0
 10
0.0
 20
0.0
 30
0.0
 70
   128
 71
    -8
 72
     4
 73
     1
  0
VERTEX
  5
3BB
  8
0
 10
0.0
 20
0.0
 30
0.0
 70
   128
 71
     6
 72
     5
 73
    -7
  0
VERTEX
  5
3BC
  8
0
 10
0.0
 20
0.0
 30
0.0
 70
   128
 71
    -6
 72
     7
 73
     8
  0
VERTEX
  5
3BD
  8
0
 10
0.0
 20
0.0
 30
0.0
 70
   128
 71
    10
 72
     9
 73
    -5
  0
VERTEX
  5
3BE
  8
0
 10
0.0
 20
0.0
 30
0.0
 70
   128
 71
   -10
 72
     5
 73
     6
  0
VERTEX
  5
3BF
  8
0
 10
0.0
 20
0.0
 30
0.0
 70
   128
 71
     2
 72
     3
 73
    -9
  0
VERTEX
  5
3C0
  8
0
 10
0.0
 20
0.0
 30
0.0
 70
   128
 71
    -2
 72
     9
 73
    10
  0
SEQEND
  5
3F8
  8
0
  0
POLYLINE
  5
3C1
  8
0
 66
     1
 10
0.0
 20
0.0
 30
0.0
 70
    64
 71
    10
 72
     8
  0
VERTEX
  5
3C2
  8
0
 10
-190.0000000000003
 20
683.9999999999999
 30
-1.999999999993153
 70
   192
  0
VERTEX
  5
3C3
  8
0
 10
-190.0000000000003
 20
683.9999999999999
 30
-17.99999999999322
 70
   192
  0
VERTEX
  5
3C4
  8
0
 10
189.9999999999999
 20
683.9999999999999
 30
-17.99999999999327
 70
   192
  0
VERTEX
  5
3C5
  8
0
 10
190.0
 20
683.9999999999999
 30
-1.999999999993202
 70
   192
  0
VERTEX
  5
3C6
  8
0
 10
190.0
 20
675.9999999999999
 30
-9.99999999999321
 70
   192
  0
VERTEX
  5
3C7
  8
0
 10
-190.0000000000003
 20
675.9999999999999
 30
-9.99999999999321
 70
   192
  0
VERTEX
  5
3C8
  8
0
 10
190.0
 20
678.3431457505075
 30
-4.343145750500824
 70
   192
  0
VERTEX
  5
3C9
  8
0
 10
-190.0000000000003
 20
678.3431457505075
 30
-4.343145750500825
 70
   192
  0
VERTEX
  5
3CA
  8
0
 10
190.0
 20
678.3431457505075
 30
-15.6568542494856
 70
   192
  0
VERTEX
  5
3CB
  8
0
 10
-190.0000000000003
 20
678.3431457505075
 30
-15.6568542494856
 70
   192
  0
VERTEX
  5
3CC
  8
0
 10
0.0
 20
0.0
 30
0.0
 70
   128
 71
     8
 72
     7
 73
    -4
  0
VERTEX
  5
3CD
  8
0
 10
0.0
 20
0.0
 30
0.0
 70
   128
 71
    -8
 72
     4
 73
     1
  0
VERTEX
  5
3CE
  8
0
 10
0.0
 20
0.0
 30
0.0
 70
   128
 71
     6
 72
     5
 73
    -7
  0
VERTEX
  5
3CF
  8
0
 10
0.0
 20
0.0
 30
0.0
 70
   128
 71
    -6
 72
     7
 73
     8
  0
VERTEX
  5
3D0
  8
0
 10
0.0
 20
0.0
 30
0.0
 70
   128
 71
    10
 72
     9
 73
    -5
  0
VERTEX
  5
3D1
  8
0
 10
0.0
 20
0.0
 30
0.0
 70
   128
 71
   -10
 72
     5
 73
     6
  0
VERTEX
  5
3D2
  8
0
 10
0.0
 20
0.0
 30
0.0
 70
   128
 71
     2
 72
     3
 73
    -9
  0
VERTEX
  5
3D3
  8
0
 10
0.0
 20
0.0
 30
0.0
 70
   128
 71
    -2
 72
     9
 73
    10
  0
SEQEND
  5
3F9
  8
0
  0
POLYLINE
  5
3D4
  8
0
 66
     1
 10
0.0
 20
0.0
 30
0.0
 70
    64
 71
    10
 72
     8
  0
VERTEX
  5
3D5
  8
0
 10
-190.0000000000003
 20
351.9999999999999
 30
-1.999999999989675
 70
   192
  0
VERTEX
  5
3D6
  8
0
 10
-190.0000000000003
 20
351.9999999999999
 30
-17.9999999999898
 70
   192
  0
VERTEX
  5
3D7
  8
0
 10
190.0
 20
351.9999999999999
 30
-17.99999999998979
 70
   192
  0
VERTEX
  5
3D8
  8
0
 10
190.0000000000001
 20
351.9999999999999
 30
-1.999999999989669
 70
   192
  0
VERTEX
  5
3D9
  8
0
 10
190.0000000000001
 20
343.9999999999998
 30
-9.999999999989733
 70
   192
  0
VERTEX
  5
3DA
  8
0
 10
-190.0000000000003
 20
343.9999999999998
 30
-9.999999999989733
 70
   192
  0
VERTEX
  5
3DB
  8
0
 10
190.0000000000001
 20
346.3431457505075
 30
-4.343145750497308
 70
   192
  0
VERTEX
  5
3DC
  8
0
 10
-190.0000000000003
 20
346.3431457505075
 30
-4.343145750497309
 70
   192
  0
VERTEX
  5
3DD
  8
0
 10
190.0000000000001
 20
346.3431457505075
 30
-15.65685424948216
 70
   192
  0
VERTEX
  5
3DE
  8
0
 10
-190.0000000000003
 20
346.3431457505075
 30
-15.65685424948216
 70
   192
  0
VERTEX
  5
3DF
  8
0
 10
0.0
 20
0.0
 30
0.0
 70
   128
 71
     8
 72
     7
 73
    -4
  0
VERTEX
  5
3E0
  8
0
 10
0.0
 20
0.0
 30
0.0
 70
   128
 71
    -8
 72
     4
 73
     1
  0
VERTEX
  5
3E1
  8
0
 10
0.0
 20
0.0
 30
0.0
 70
   128
 71
     6
 72
     5
 73
    -7
  0
VERTEX
  5
3E2
  8
0
 10
0.0
 20
0.0
 30
0.0
 70
   128
 71
    -6
 72
     7
 73
     8
  0
VERTEX
  5
3E3
  8
0
 10
0.0
 20
0.0
 30
0.0
 70
   128
 71
    10
 72
     9
 73
    -5
  0
VERTEX
  5
3E4
  8
0
 10
0.0
 20
0.0
 30
0.0
 70
   128
 71
   -10
 72
     5
 73
     6
  0
VERTEX
  5
3E5
  8
0
 10
0.0
 20
0.0
 30
0.0
 70
   128
 71
     2
 72
     3
 73
    -9
  0
VERTEX
  5
3E6
  8
0
 10
0.0
 20
0.0
 30
0.0
 70
   128
 71
    -2
 72
     9
 73
    10
  0
SEQEND
  5
3FA
  8
0
  0
ENDBLK
  5
3E8
  8
0
  0
ENDSEC
  0
SECTION
  2
ENTITIES
  0
INSERT
  5
BF
  8
0
  2
*X1
 10
0.0
 20
0.0
 30
0.0
  0
ENDSEC
  0
EOF
