  0
SECTION
  2
HEADER
  9
$ACADVER
  1
AC1009
  9
$DWGCODEPAGE
  3
ansi_1250
  9
$INSBASE
 10
0.0
 20
0.0
 30
0.0
  9
$EXTMIN
 10
-379.0024504438159
 20
-30.00140750230929
 30
-158.7980187713036
  9
$EXTMAX
 10
378.9975495564552
 20
223.9985924985075
 30
371.2019812288822
  9
$LIMMIN
 10
0.0
 20
0.0
  9
$LIMMAX
 10
420.0
 20
297.0
  9
$ORTHOMODE
 70
     0
  9
$REGENMODE
 70
     1
  9
$FILLMODE
 70
     1
  9
$QTEXTMODE
 70
     0
  9
$MIRRTEXT
 70
     0
  9
$DRAGMODE
 70
     2
  9
$LTSCALE
 40
1.0
  9
$OSMODE
 70
   511
  9
$ATTMODE
 70
     1
  9
$TEXTSIZE
 40
2.5
  9
$TRACEWID
 40
1.0
  9
$TEXTSTYLE
  7
STANDARD
  9
$CLAYER
  8
0
  9
$CELTYPE
  6
BYLAYER
  9
$CECOLOR
 62
   256
  9
$DIMSCALE
 40
1.0
  9
$DIMASZ
 40
2.5
  9
$DIMEXO
 40
0.625
  9
$DIMDLI
 40
3.75
  9
$DIMRND
 40
0.0
  9
$DIMDLE
 40
0.0
  9
$DIMEXE
 40
1.25
  9
$DIMTP
 40
0.0
  9
$DIMTM
 40
0.0
  9
$DIMTXT
 40
2.5
  9
$DIMCEN
 40
-2.5
  9
$DIMTSZ
 40
0.0
  9
$DIMTOL
 70
     0
  9
$DIMLIM
 70
     0
  9
$DIMTIH
 70
     0
  9
$DIMTOH
 70
     0
  9
$DIMSE1
 70
     0
  9
$DIMSE2
 70
     0
  9
$DIMTAD
 70
     1
  9
$DIMZIN
 70
     8
  9
$DIMBLK
  1

  9
$DIMASO
 70
     1
  9
$DIMSHO
 70
     1
  9
$DIMPOST
  1

  9
$DIMAPOST
  1

  9
$DIMALT
 70
     0
  9
$DIMALTD
 70
     3
  9
$DIMALTF
 40
0.03937007874016
  9
$DIMLFAC
 40
1.0
  9
$DIMTOFL
 70
     1
  9
$DIMTVP
 40
0.0
  9
$DIMTIX
 70
     0
  9
$DIMSOXD
 70
     0
  9
$DIMSAH
 70
     0
  9
$DIMBLK1
  1

  9
$DIMBLK2
  1

  9
$DIMSTYLE
  2
ISO-25
  9
$DIMCLRD
 70
     0
  9
$DIMCLRE
 70
     0
  9
$DIMCLRT
 70
     0
  9
$DIMTFAC
 40
1.0
  9
$DIMGAP
 40
0.625
  9
$LUNITS
 70
     2
  9
$LUPREC
 70
     3
  9
$SKETCHINC
 40
1.0
  9
$FILLETRAD
 40
10.0
  9
$AUNITS
 70
     0
  9
$AUPREC
 70
     0
  9
$MENU
  1
.
  9
$ELEVATION
 40
0.0
  9
$PELEVATION
 40
0.0
  9
$THICKNESS
 40
0.0
  9
$LIMCHECK
 70
     0
  9
$CHAMFERA
 40
10.0
  9
$CHAMFERB
 40
10.0
  9
$SKPOLY
 70
     0
  9
$TDCREATE
 40
2455022.679026181
  9
$TDUPDATE
 40
2460397.378079063
  9
$TDINDWG
 40
0.0001994213
  9
$TDUSRTIMER
 40
0.0001994213
  9
$USRTIMER
 70
     1
  9
$ANGBASE
 50
0.0
  9
$ANGDIR
 70
     0
  9
$PDMODE
 70
     0
  9
$PDSIZE
 40
0.0
  9
$PLINEWID
 40
0.0
  9
$COORDS
 70
     1
  9
$SPLFRAME
 70
     0
  9
$SPLINETYPE
 70
     6
  9
$SPLINESEGS
 70
     8
  9
$ATTDIA
 70
     0
  9
$ATTREQ
 70
     1
  9
$HANDLING
 70
     1
  9
$HANDSEED
  5
D47
  9
$SURFTAB1
 70
     6
  9
$SURFTAB2
 70
     6
  9
$SURFTYPE
 70
     6
  9
$SURFU
 70
     6
  9
$SURFV
 70
     6
  9
$UCSNAME
  2

  9
$UCSORG
 10
0.0
 20
0.0
 30
0.0
  9
$UCSXDIR
 10
1.0
 20
0.0
 30
0.0
  9
$UCSYDIR
 10
0.0
 20
1.0
 30
0.0
  9
$PUCSNAME
  2

  9
$PUCSORG
 10
0.0
 20
0.0
 30
0.0
  9
$PUCSXDIR
 10
1.0
 20
0.0
 30
0.0
  9
$PUCSYDIR
 10
0.0
 20
1.0
 30
0.0
  9
$USERI1
 70
     0
  9
$USERI2
 70
     0
  9
$USERI3
 70
     0
  9
$USERI4
 70
     0
  9
$USERI5
 70
     0
  9
$USERR1
 40
0.0
  9
$USERR2
 40
0.0
  9
$USERR3
 40
0.0
  9
$USERR4
 40
0.0
  9
$USERR5
 40
0.0
  9
$WORLDVIEW
 70
     1
  9
$SHADEDGE
 70
     3
  9
$SHADEDIF
 70
    70
  9
$TILEMODE
 70
     1
  9
$MAXACTVP
 70
    64
  9
$PLIMCHECK
 70
     0
  9
$PEXTMIN
 10
1.000000000000000E+20
 20
1.000000000000000E+20
 30
1.000000000000000E+20
  9
$PEXTMAX
 10
-1.000000000000000E+20
 20
-1.000000000000000E+20
 30
-1.000000000000000E+20
  9
$PLIMMIN
 10
0.0
 20
0.0
  9
$PLIMMAX
 10
0.0
 20
0.0
  9
$UNITMODE
 70
     0
  9
$VISRETAIN
 70
     1
  9
$PLINEGEN
 70
     0
  9
$PSLTSCALE
 70
     1
  0
ENDSEC
  0
SECTION
  2
TABLES
  0
TABLE
  2
VPORT
 70
     1
  0
VPORT
  2
*ACTIVE
 70
     0
 10
0.0
 20
0.0
 11
1.0
 21
1.0
 12
134.18446544417
 22
96.99859249809911
 13
0.0
 23
0.0
 14
10.0
 24
10.0
 15
10.0
 25
10.0
 16
0.0
 26
0.0
 36
1.0
 17
-134.1869158878504
 27
0.0
 37
0.0
 40
424.7796047432349
 41
1.820143884892086
 42
50.0
 43
0.0
 44
0.0
 50
0.0
 51
0.0
 71
    16
 72
  1000
 73
     1
 74
     3
 75
     0
 76
     0
 77
     0
 78
     0
  0
ENDTAB
  0
TABLE
  2
LTYPE
 70
     1
  0
LTYPE
  2
CONTINUOUS
 70
     0
  3
Solid line
 72
    65
 73
     0
 40
0.0
  0
ENDTAB
  0
TABLE
  2
LAYER
 70
     1
  0
LAYER
  2
0
 70
     0
 62
     7
  6
CONTINUOUS
  0
ENDTAB
  0
TABLE
  2
STYLE
 70
     2
  0
STYLE
  2
STANDARD
 70
     0
 40
0.0
 41
1.0
 50
0.0
 71
     0
 42
2.5
  3
arial.ttf
  4

  0
STYLE
  2
ANNOTATIVE
 70
     0
 40
0.0
 41
1.0
 50
0.0
 71
     0
 42
2.5
  3
arial.ttf
  4

  0
ENDTAB
  0
TABLE
  2
VIEW
 70
     0
  0
ENDTAB
  0
TABLE
  2
UCS
 70
     0
  0
ENDTAB
  0
TABLE
  2
APPID
 70
     2
  0
APPID
  2
ACAD
 70
     0
  0
APPID
  2
ACADANNOTATIVE
 70
     0
  0
ENDTAB
  0
TABLE
  2
DIMSTYLE
 70
     2
  0
DIMSTYLE
  2
ISO-25
 70
     0
  3

  4

  5

  6

  7

 40
1.0
 41
2.5
 42
0.625
 43
3.75
 44
1.25
 45
0.0
 46
0.0
 47
0.0
 48
0.0
140
2.5
141
-2.5
142
0.0
143
0.03937007874016
144
1.0
145
0.0
146
1.0
147
0.625
 71
     0
 72
     0
 73
     0
 74
     0
 75
     0
 76
     0
 77
     1
 78
     8
170
     0
171
     3
172
     1
173
     0
174
     0
175
     0
176
     0
177
     0
178
     0
  0
DIMSTYLE
  2
ANNOTATIVE
 70
     0
  3

  4

  5

  6

  7

 40
0.0
 41
2.5
 42
0.625
 43
3.75
 44
1.25
 45
0.0
 46
0.0
 47
0.0
 48
0.0
140
2.5
141
-2.5
142
0.0
143
0.03937007874016
144
1.0
145
0.0
146
1.0
147
0.625
 71
     0
 72
     0
 73
     0
 74
     0
 75
     0
 76
     0
 77
     1
 78
     8
170
     0
171
     3
172
     1
173
     0
174
     0
175
     0
176
     0
177
     0
178
     0
  0
ENDTAB
  0
ENDSEC
  0
SECTION
  2
BLOCKS
  0
BLOCK
  8
0
  2
$MODEL_SPACE
 70
     0
 10
0.0
 20
0.0
 30
0.0
  3
$MODEL_SPACE
  1

  0
ENDBLK
  5
21
  8
0
  0
BLOCK
 67
     1
  8
0
  2
$PAPER_SPACE
 70
     0
 10
0.0
 20
0.0
 30
0.0
  3
$PAPER_SPACE
  1

  0
ENDBLK
  5
1D
 67
     1
  8
0
  0
BLOCK
  8
0
  2
*X1
 70
     1
 10
0.0
 20
0.0
 30
0.0
  3
*X1
  1

  0
POLYLINE
  5
70B
  8
0
 66
     1
 10
0.0
 20
0.0
 30
0.0
 70
    64
 71
    14
 72
    12
  0
VERTEX
  5
70C
  8
0
 10
-45.00245044357021
 20
-25.00140750184443
 30
-1.899057828623069
 70
   192
  0
VERTEX
  5
70D
  8
0
 10
-45.0024504435701
 20
-0.001407501844465
 30
-1.899057828603513
 70
   192
  0
VERTEX
  5
70E
  8
0
 10
-38.97347274658796
 20
-0.0014075018619507
 30
20.60087654563299
 70
   192
  0
VERTEX
  5
70F
  8
0
 10
-38.97356885728035
 20
-25.00140750186195
 30
20.60093934624027
 70
   192
  0
VERTEX
  5
710
  8
0
 10
-0.0024504435700567
 20
-0.0014075018794912
 30
43.10094217139669
 70
   192
  0
VERTEX
  5
711
  8
0
 10
-0.0024504435700567
 20
-25.00140750187946
 30
43.10094217137723
 70
   192
  0
VERTEX
  5
712
  8
0
 10
-22.50239675670378
 20
-25.00140750187481
 30
37.07183116899841
 70
   192
  0
VERTEX
  5
713
  8
0
 10
-22.50238481780657
 20
-0.001407501874774
 30
37.07196447441439
 70
   192
  0
VERTEX
  5
714
  8
0
 10
22.49748393066642
 20
-0.0014075018747732
 30
37.07196447441439
 70
   192
  0
VERTEX
  5
715
  8
0
 10
22.49754673129001
 20
-25.00140750187482
 30
37.07206058508317
 70
   192
  0
VERTEX
  5
716
  8
0
 10
44.99754955642965
 20
-0.0014075018444637
 30
-1.899057828603445
 70
   192
  0
VERTEX
  5
717
  8
0
 10
44.99754955642998
 20
-25.00140750184443
 30
-1.899057828622972
 70
   192
  0
VERTEX
  5
718
  8
0
 10
38.96843855404722
 20
-25.00140750186198
 30
20.6008884845061
 70
   192
  0
VERTEX
  5
719
  8
0
 10
38.96857185944783
 20
-0.0014075018619492
 30
20.60087654563304
 70
   192
  0
VERTEX
  5
71A
  8
0
 10
0.0
 20
0.0
 30
0.0
 70
   128
 71
     1
 72
     2
 73
     3
  0
VERTEX
  5
71B
  8
0
 10
0.0
 20
0.0
 30
0.0
 70
   128
 71
     4
 72
     1
 73
     3
  0
VERTEX
  5
71C
  8
0
 10
0.0
 20
0.0
 30
0.0
 70
   128
 71
     5
 72
     6
 73
     7
  0
VERTEX
  5
71D
  8
0
 10
0.0
 20
0.0
 30
0.0
 70
   128
 71
     8
 72
     5
 73
     7
  0
VERTEX
  5
71E
  8
0
 10
0.0
 20
0.0
 30
0.0
 70
   128
 71
     6
 72
     5
 73
     9
  0
VERTEX
  5
71F
  8
0
 10
0.0
 20
0.0
 30
0.0
 70
   128
 71
    10
 72
     6
 73
     9
  0
VERTEX
  5
720
  8
0
 10
0.0
 20
0.0
 30
0.0
 70
   128
 71
    11
 72
    12
 73
    13
  0
VERTEX
  5
721
  8
0
 10
0.0
 20
0.0
 30
0.0
 70
   128
 71
    14
 72
    11
 73
    13
  0
VERTEX
  5
722
  8
0
 10
0.0
 20
0.0
 30
0.0
 70
   128
 71
     7
 72
     4
 73
     3
  0
VERTEX
  5
723
  8
0
 10
0.0
 20
0.0
 30
0.0
 70
   128
 71
     8
 72
     7
 73
     3
  0
VERTEX
  5
724
  8
0
 10
0.0
 20
0.0
 30
0.0
 70
   128
 71
    13
 72
    10
 73
     9
  0
VERTEX
  5
725
  8
0
 10
0.0
 20
0.0
 30
0.0
 70
   128
 71
    14
 72
    13
 73
     9
  0
SEQEND
  5
D03
  8
0
  0
POLYLINE
  5
726
  8
0
 66
     1
 10
0.0
 20
0.0
 30
0.0
 70
    64
 71
    12
 72
    10
  0
VERTEX
  5
727
  8
0
 10
-0.0024504435800488
 20
-30.00140750188335
 30
48.10094217246334
 70
   192
  0
VERTEX
  5
728
  8
0
 10
-0.0024504435751706
 20
-29.36270959743278
 30
45.6557337901196
 70
   192
  0
VERTEX
  5
729
  8
0
 10
-0.0024504435713414
 20
-27.4466158840853
 30
43.7396400763574
 70
   192
  0
VERTEX
  5
72A
  8
0
 10
-0.0024504435700567
 20
-25.00140750187946
 30
43.10094217137723
 70
   192
  0
VERTEX
  5
72B
  8
0
 10
22.49754673129001
 20
-25.00140750187482
 30
37.07206058508317
 70
   192
  0
VERTEX
  5
72C
  8
0
 10
38.96843855404722
 20
-25.00140750186198
 30
20.6008884845061
 70
   192
  0
VERTEX
  5
72D
  8
0
 10
44.99754955642965
 20
-25.00140750184443
 30
-1.899057828622983
 70
   192
  0
VERTEX
  5
72E
  8
0
 10
45.66742253777346
 20
-27.5014075018786
 30
-1.899057828624449
 70
   192
  0
VERTEX
  5
72F
  8
0
 10
47.49754955686367
 20
-29.33153452077107
 30
-1.899057828624594
 70
   192
  0
VERTEX
  5
730
  8
0
 10
49.99754955697022
 20
-30.0014075018291
 30
-1.899057828623367
 70
   192
  0
VERTEX
  5
731
  8
0
 10
43.2972424528538
 20
-30.00140750186389
 30
23.10317350759075
 70
   192
  0
VERTEX
  5
732
  8
0
 10
24.9985897162989
 20
-30.00140750187814
 30
41.40162166886306
 70
   192
  0
VERTEX
  5
733
  8
0
 10
0.0
 20
0.0
 30
0.0
 70
   128
 71
     6
 72
     7
 73
     8
  0
VERTEX
  5
734
  8
0
 10
0.0
 20
0.0
 30
0.0
 70
   128
 71
     9
 72
    11
 73
     6
  0
VERTEX
  5
735
  8
0
 10
0.0
 20
0.0
 30
0.0
 70
   128
 71
     8
 72
     9
 73
     6
  0
VERTEX
  5
736
  8
0
 10
0.0
 20
0.0
 30
0.0
 70
   128
 71
     9
 72
    10
 73
    11
  0
VERTEX
  5
737
  8
0
 10
0.0
 20
0.0
 30
0.0
 70
   128
 71
    12
 72
     5
 73
     6
  0
VERTEX
  5
738
  8
0
 10
0.0
 20
0.0
 30
0.0
 70
   128
 71
    11
 72
    12
 73
     6
  0
VERTEX
  5
739
  8
0
 10
0.0
 20
0.0
 30
0.0
 70
   128
 71
    12
 72
     1
 73
     2
  0
VERTEX
  5
73A
  8
0
 10
0.0
 20
0.0
 30
0.0
 70
   128
 71
     3
 72
     5
 73
    12
  0
VERTEX
  5
73B
  8
0
 10
0.0
 20
0.0
 30
0.0
 70
   128
 71
     2
 72
     3
 73
    12
  0
VERTEX
  5
73C
  8
0
 10
0.0
 20
0.0
 30
0.0
 70
   128
 71
     3
 72
     4
 73
     5
  0
SEQEND
  5
D04
  8
0
  0
POLYLINE
  5
73D
  8
0
 66
     1
 10
0.0
 20
0.0
 30
0.0
 70
    64
 71
    12
 72
    10
  0
VERTEX
  5
73E
  8
0
 10
-0.0024504435700567
 20
-30.00140750180552
 30
-51.89905782971747
 70
   192
  0
VERTEX
  5
73F
  8
0
 10
-0.0024504435700651
 20
-29.36270959735875
 30
-49.45384944737231
 70
   192
  0
VERTEX
  5
740
  8
0
 10
-0.0024504435700651
 20
-27.44661588401425
 30
-47.53775573360687
 70
   192
  0
VERTEX
  5
741
  8
0
 10
-0.0024504435700567
 20
-25.0014075018094
 30
-46.89905782862296
 70
   192
  0
VERTEX
  5
742
  8
0
 10
-22.50244761853552
 20
-25.00140750181412
 30
-40.87017624221647
 70
   192
  0
VERTEX
  5
743
  8
0
 10
-38.97333944115407
 20
-25.00140750182691
 30
-24.39900414181024
 70
   192
  0
VERTEX
  5
744
  8
0
 10
-45.00245044357021
 20
-25.00140750184443
 30
-1.899057828623069
 70
   192
  0
VERTEX
  5
745
  8
0
 10
-45.67232342514362
 20
-27.5014075019366
 30
-1.899057828626148
 70
   192
  0
VERTEX
  5
746
  8
0
 10
-47.50245044442189
 20
-29.33153452081582
 30
-1.899057828630138
 70
   192
  0
VERTEX
  5
747
  8
0
 10
-50.00245044466012
 20
-30.00140750186001
 30
-1.899057828634164
 70
   192
  0
VERTEX
  5
748
  8
0
 10
-43.30214334059997
 20
-30.00140750182495
 30
-26.90128916351834
 70
   192
  0
VERTEX
  5
749
  8
0
 10
-25.00349060395609
 20
-30.00140750181071
 30
-45.19973732624568
 70
   192
  0
VERTEX
  5
74A
  8
0
 10
0.0
 20
0.0
 30
0.0
 70
   128
 71
     6
 72
     7
 73
     8
  0
VERTEX
  5
74B
  8
0
 10
0.0
 20
0.0
 30
0.0
 70
   128
 71
     9
 72
    11
 73
     6
  0
VERTEX
  5
74C
  8
0
 10
0.0
 20
0.0
 30
0.0
 70
   128
 71
     8
 72
     9
 73
     6
  0
VERTEX
  5
74D
  8
0
 10
0.0
 20
0.0
 30
0.0
 70
   128
 71
     9
 72
    10
 73
    11
  0
VERTEX
  5
74E
  8
0
 10
0.0
 20
0.0
 30
0.0
 70
   128
 71
    12
 72
     5
 73
     6
  0
VERTEX
  5
74F
  8
0
 10
0.0
 20
0.0
 30
0.0
 70
   128
 71
    11
 72
    12
 73
     6
  0
VERTEX
  5
750
  8
0
 10
0.0
 20
0.0
 30
0.0
 70
   128
 71
    12
 72
     1
 73
     2
  0
VERTEX
  5
751
  8
0
 10
0.0
 20
0.0
 30
0.0
 70
   128
 71
     3
 72
     5
 73
    12
  0
VERTEX
  5
752
  8
0
 10
0.0
 20
0.0
 30
0.0
 70
   128
 71
     2
 72
     3
 73
    12
  0
VERTEX
  5
753
  8
0
 10
0.0
 20
0.0
 30
0.0
 70
   128
 71
     3
 72
     4
 73
     5
  0
SEQEND
  5
D05
  8
0
  0
POLYLINE
  5
754
  8
0
 66
     1
 10
0.0
 20
0.0
 30
0.0
 70
    64
 71
    12
 72
    10
  0
VERTEX
  5
755
  8
0
 10
-0.0024504436200168
 20
9.998592498112748
 30
53.1009421753695
 70
   192
  0
VERTEX
  5
756
  8
0
 10
-0.0024504435955876
 20
8.721196689280966
 30
48.21052541020435
 70
   192
  0
VERTEX
  5
757
  8
0
 10
-0.002450443576442
 20
4.889009262777186
 30
44.37833798217514
 70
   192
  0
VERTEX
  5
758
  8
0
 10
-0.0024504435700567
 20
-0.0014075018794912
 30
43.10094217139669
 70
   192
  0
VERTEX
  5
759
  8
0
 10
-22.50238481780657
 20
-0.001407501874774
 30
37.07196447441439
 70
   192
  0
VERTEX
  5
75A
  8
0
 10
-38.97347274658796
 20
-0.0014075018619507
 30
20.60087654563299
 70
   192
  0
VERTEX
  5
75B
  8
0
 10
-45.00245044357021
 20
-0.0014075018444637
 30
-1.899057828603515
 70
   192
  0
VERTEX
  5
75C
  8
0
 10
-46.34219640753182
 20
4.99859249849092
 30
-1.899057828605718
 70
   192
  0
VERTEX
  5
75D
  8
0
 10
-50.00245044667285
 20
8.658846536178679
 30
-1.89905782861956
 70
   192
  0
VERTEX
  5
75E
  8
0
 10
-55.00245044754016
 20
9.998592498211986
 30
-1.899057828641318
 70
   192
  0
VERTEX
  5
75F
  8
0
 10
-47.63377137184857
 20
9.998592498134148
 30
25.60090078075897
 70
   192
  0
VERTEX
  5
760
  8
0
 10
-27.50243228544815
 20
9.998592498118468
 30
45.73231004761959
 70
   192
  0
VERTEX
  5
761
  8
0
 10
0.0
 20
0.0
 30
0.0
 70
   128
 71
     6
 72
     7
 73
     8
  0
VERTEX
  5
762
  8
0
 10
0.0
 20
0.0
 30
0.0
 70
   128
 71
     9
 72
    11
 73
     6
  0
VERTEX
  5
763
  8
0
 10
0.0
 20
0.0
 30
0.0
 70
   128
 71
     8
 72
     9
 73
     6
  0
VERTEX
  5
764
  8
0
 10
0.0
 20
0.0
 30
0.0
 70
   128
 71
     9
 72
    10
 73
    11
  0
VERTEX
  5
765
  8
0
 10
0.0
 20
0.0
 30
0.0
 70
   128
 71
    12
 72
     5
 73
     6
  0
VERTEX
  5
766
  8
0
 10
0.0
 20
0.0
 30
0.0
 70
   128
 71
    11
 72
    12
 73
     6
  0
VERTEX
  5
767
  8
0
 10
0.0
 20
0.0
 30
0.0
 70
   128
 71
    12
 72
     1
 73
     2
  0
VERTEX
  5
768
  8
0
 10
0.0
 20
0.0
 30
0.0
 70
   128
 71
     3
 72
     5
 73
    12
  0
VERTEX
  5
769
  8
0
 10
0.0
 20
0.0
 30
0.0
 70
   128
 71
     2
 72
     3
 73
    12
  0
VERTEX
  5
76A
  8
0
 10
0.0
 20
0.0
 30
0.0
 70
   128
 71
     3
 72
     4
 73
     5
  0
SEQEND
  5
D06
  8
0
  0
POLYLINE
  5
76B
  8
0
 66
     1
 10
0.0
 20
0.0
 30
0.0
 70
    64
 71
    12
 72
    10
  0
VERTEX
  5
76C
  8
0
 10
-0.0024504435300887
 20
9.998592498198402
 30
-56.89905783256064
 70
   192
  0
VERTEX
  5
76D
  8
0
 10
-0.0024504435496381
 20
8.721196689359003
 30
-52.00864106739748
 70
   192
  0
VERTEX
  5
76E
  8
0
 10
-0.0024504435649546
 20
4.889009262849266
 30
-48.17645363937427
 70
   192
  0
VERTEX
  5
76F
  8
0
 10
-0.0024504435700567
 20
-0.0014075018093807
 30
-46.8990578286035
 70
   192
  0
VERTEX
  5
770
  8
0
 10
22.49748393066644
 20
-0.0014075018140909
 30
-40.87008013162141
 70
   192
  0
VERTEX
  5
771
  8
0
 10
38.96857185944783
 20
-0.0014075018269143
 30
-24.39899220284004
 70
   192
  0
VERTEX
  5
772
  8
0
 10
44.99754955642965
 20
-0.0014075018444637
 30
-1.899057828603445
 70
   192
  0
VERTEX
  5
773
  8
0
 10
46.33729551955976
 20
4.998592498280392
 30
-1.899057828596451
 70
   192
  0
VERTEX
  5
774
  8
0
 10
49.99754955801973
 20
8.658846536015647
 30
-1.899057828585256
 70
   192
  0
VERTEX
  5
775
  8
0
 10
54.99754955840985
 20
9.998592498098946
 30
-1.899057828572817
 70
   192
  0
VERTEX
  5
776
  8
0
 10
47.6288704845484
 20
9.998592498176984
 30
-29.39901643809626
 70
   192
  0
VERTEX
  5
777
  8
0
 10
27.4975313981855
 20
9.998592498192636
 30
-49.53042570492467
 70
   192
  0
VERTEX
  5
778
  8
0
 10
0.0
 20
0.0
 30
0.0
 70
   128
 71
     6
 72
     7
 73
     8
  0
VERTEX
  5
779
  8
0
 10
0.0
 20
0.0
 30
0.0
 70
   128
 71
     9
 72
    11
 73
     6
  0
VERTEX
  5
77A
  8
0
 10
0.0
 20
0.0
 30
0.0
 70
   128
 71
     8
 72
     9
 73
     6
  0
VERTEX
  5
77B
  8
0
 10
0.0
 20
0.0
 30
0.0
 70
   128
 71
     9
 72
    10
 73
    11
  0
VERTEX
  5
77C
  8
0
 10
0.0
 20
0.0
 30
0.0
 70
   128
 71
    12
 72
     5
 73
     6
  0
VERTEX
  5
77D
  8
0
 10
0.0
 20
0.0
 30
0.0
 70
   128
 71
    11
 72
    12
 73
     6
  0
VERTEX
  5
77E
  8
0
 10
0.0
 20
0.0
 30
0.0
 70
   128
 71
    12
 72
     1
 73
     2
  0
VERTEX
  5
77F
  8
0
 10
0.0
 20
0.0
 30
0.0
 70
   128
 71
     3
 72
     5
 73
    12
  0
VERTEX
  5
780
  8
0
 10
0.0
 20
0.0
 30
0.0
 70
   128
 71
     2
 72
     3
 73
    12
  0
VERTEX
  5
781
  8
0
 10
0.0
 20
0.0
 30
0.0
 70
   128
 71
     3
 72
     4
 73
     5
  0
SEQEND
  5
D07
  8
0
  0
POLYLINE
  5
782
  8
0
 66
     1
 10
0.0
 20
0.0
 30
0.0
 70
    64
 71
    12
 72
    10
  0
VERTEX
  5
783
  8
0
 10
-0.0024506751556963
 20
187.721004715197
 30
371.2019812288585
 70
   192
  0
VERTEX
  5
784
  8
0
 10
-0.002450598802064
 20
185.2757985999765
 30
370.5632833140171
 70
   192
  0
VERTEX
  5
785
  8
0
 10
-0.0024506207583486
 20
183.3597066628358
 30
368.6471895694982
 70
   192
  0
VERTEX
  5
786
  8
0
 10
-0.0024507324500878
 20
182.721009350457
 30
366.2019811478089
 70
   192
  0
VERTEX
  5
787
  8
0
 10
100.2433484987556
 20
182.7210000775507
 30
360.48212867509
 70
   192
  0
VERTEX
  5
788
  8
0
 10
199.3423310916509
 20
182.7210000775635
 30
343.9549875040693
 70
   192
  0
VERTEX
  5
789
  8
0
 10
296.3004960008513
 20
182.7210000775868
 30
317.5265041163353
 70
   192
  0
VERTEX
  5
78A
  8
0
 10
297.0740059343531
 20
183.3908734299746
 30
319.9038319249217
 70
   192
  0
VERTEX
  5
78B
  8
0
 10
297.6402549055589
 20
185.2210018039987
 30
321.6441559931888
 70
   192
  0
VERTEX
  5
78C
  8
0
 10
297.8475162330258
 20
187.7210032398815
 30
322.2811577106987
 70
   192
  0
VERTEX
  5
78D
  8
0
 10
200.4466307638463
 20
187.7210073682178
 30
348.8315801388015
 70
   192
  0
VERTEX
  5
78E
  8
0
 10
100.7868213953432
 20
187.7210077507047
 30
365.4524282025108
 70
   192
  0
VERTEX
  5
78F
  8
0
 10
0.0
 20
0.0
 30
0.0
 70
   128
 71
     6
 72
     7
 73
     8
  0
VERTEX
  5
790
  8
0
 10
0.0
 20
0.0
 30
0.0
 70
   128
 71
     9
 72
    11
 73
     6
  0
VERTEX
  5
791
  8
0
 10
0.0
 20
0.0
 30
0.0
 70
   128
 71
     8
 72
     9
 73
     6
  0
VERTEX
  5
792
  8
0
 10
0.0
 20
0.0
 30
0.0
 70
   128
 71
     9
 72
    10
 73
    11
  0
VERTEX
  5
793
  8
0
 10
0.0
 20
0.0
 30
0.0
 70
   128
 71
    12
 72
     5
 73
     6
  0
VERTEX
  5
794
  8
0
 10
0.0
 20
0.0
 30
0.0
 70
   128
 71
    11
 72
    12
 73
     6
  0
VERTEX
  5
795
  8
0
 10
0.0
 20
0.0
 30
0.0
 70
   128
 71
    12
 72
     1
 73
     2
  0
VERTEX
  5
796
  8
0
 10
0.0
 20
0.0
 30
0.0
 70
   128
 71
     3
 72
     5
 73
    12
  0
VERTEX
  5
797
  8
0
 10
0.0
 20
0.0
 30
0.0
 70
   128
 71
     2
 72
     3
 73
    12
  0
VERTEX
  5
798
  8
0
 10
0.0
 20
0.0
 30
0.0
 70
   128
 71
     3
 72
     4
 73
     5
  0
SEQEND
  5
D08
  8
0
  0
POLYLINE
  5
799
  8
0
 66
     1
 10
0.0
 20
0.0
 30
0.0
 70
    64
 71
    12
 72
    10
  0
VERTEX
  5
79A
  8
0
 10
-0.0024504435700567
 20
223.998592497869
 30
366.2019812288861
 70
   192
  0
VERTEX
  5
79B
  8
0
 10
-0.0024504435700397
 20
223.3598945933807
 30
368.64718961094
 70
   192
  0
VERTEX
  5
79C
  8
0
 10
-0.0024504435700397
 20
221.44380087992
 30
370.5632833243978
 70
   192
  0
VERTEX
  5
79D
  8
0
 10
-0.0024504435700567
 20
218.9985924978651
 30
371.2019812288822
 70
   192
  0
VERTEX
  5
79E
  8
0
 10
125.036915645643
 20
218.9985924978719
 30
362.3934776539989
 70
   192
  0
VERTEX
  5
79F
  8
0
 10
247.9131208906537
 20
218.998592497891
 30
337.1703636493692
 70
   192
  0
VERTEX
  5
7A0
  8
0
 10
366.4630044472594
 20
218.9985924979206
 30
297.3362342950231
 70
   192
  0
VERTEX
  5
7A1
  8
0
 10
366.2129725415494
 20
221.4985928949647
 30
296.7148105676361
 70
   192
  0
VERTEX
  5
7A2
  8
0
 10
365.5298372368121
 20
223.3287202045566
 30
295.0169613032513
 70
   192
  0
VERTEX
  5
7A3
  8
0
 10
364.5966570562798
 20
223.998593292033
 30
292.697656076292
 70
   192
  0
VERTEX
  5
7A4
  8
0
 10
246.4266520660635
 20
223.9985924978953
 30
332.393022082209
 70
   192
  0
VERTEX
  5
7A5
  8
0
 10
124.3216158455676
 20
223.9985924978758
 30
357.4449137847641
 70
   192
  0
VERTEX
  5
7A6
  8
0
 10
0.0
 20
0.0
 30
0.0
 70
   128
 71
     6
 72
     7
 73
     8
  0
VERTEX
  5
7A7
  8
0
 10
0.0
 20
0.0
 30
0.0
 70
   128
 71
     8
 72
     9
 73
     6
  0
VERTEX
  5
7A8
  8
0
 10
0.0
 20
0.0
 30
0.0
 70
   128
 71
    10
 72
    11
 73
     6
  0
VERTEX
  5
7A9
  8
0
 10
0.0
 20
0.0
 30
0.0
 70
   128
 71
     9
 72
    10
 73
     6
  0
VERTEX
  5
7AA
  8
0
 10
0.0
 20
0.0
 30
0.0
 70
   128
 71
    12
 72
     5
 73
     6
  0
VERTEX
  5
7AB
  8
0
 10
0.0
 20
0.0
 30
0.0
 70
   128
 71
    11
 72
    12
 73
     6
  0
VERTEX
  5
7AC
  8
0
 10
0.0
 20
0.0
 30
0.0
 70
   128
 71
    12
 72
     1
 73
     2
  0
VERTEX
  5
7AD
  8
0
 10
0.0
 20
0.0
 30
0.0
 70
   128
 71
     3
 72
     5
 73
    12
  0
VERTEX
  5
7AE
  8
0
 10
0.0
 20
0.0
 30
0.0
 70
   128
 71
     2
 72
     3
 73
    12
  0
VERTEX
  5
7AF
  8
0
 10
0.0
 20
0.0
 30
0.0
 70
   128
 71
     3
 72
     4
 73
     5
  0
SEQEND
  5
D09
  8
0
  0
POLYLINE
  5
7B0
  8
0
 66
     1
 10
0.0
 20
0.0
 30
0.0
 70
    64
 71
    12
 72
    10
  0
VERTEX
  5
7B1
  8
0
 10
-0.0024683802799519
 20
9.99859249789237
 30
336.2019878417416
 70
   192
  0
VERTEX
  5
7B2
  8
0
 10
-0.00246843073437
 20
10.63729040237685
 30
338.6471962237964
 70
   192
  0
VERTEX
  5
7B3
  8
0
 10
-0.002468470271101
 20
12.55338411583458
 30
340.563289937257
 70
   192
  0
VERTEX
  5
7B4
  8
0
 10
-0.002468483450091
 20
14.99859249788843
 30
341.2019878417454
 70
   192
  0
VERTEX
  5
7B5
  8
0
 10
118.9682478265702
 20
14.99859249789487
 30
332.9470439356672
 70
   192
  0
VERTEX
  5
7B6
  8
0
 10
235.8223223894568
 20
14.99859249791325
 30
309.3554713393789
 70
   192
  0
VERTEX
  5
7B7
  8
0
 10
348.9975495564282
 20
14.99859249794233
 30
272.0029492869695
 70
   192
  0
VERTEX
  5
7B8
  8
0
 10
348.2372698462505
 20
12.34816561307805
 30
271.4860029862792
 70
   192
  0
VERTEX
  5
7B9
  8
0
 10
346.3751499347609
 20
10.60007447633157
 30
270.217137782693
 70
   192
  0
VERTEX
  5
7BA
  8
0
 10
343.99754955643
 20
9.99859249794499
 30
268.5959293331559
 70
   192
  0
VERTEX
  5
7BB
  8
0
 10
232.3051413789354
 20
9.998592497916542
 30
305.115468859433
 70
   192
  0
VERTEX
  5
7BC
  8
0
 10
117.1077098835469
 20
9.998592497898603
 30
328.1546409312258
 70
   192
  0
VERTEX
  5
7BD
  8
0
 10
0.0
 20
0.0
 30
0.0
 70
   128
 71
     7
 72
     8
 73
     9
  0
VERTEX
  5
7BE
  8
0
 10
0.0
 20
0.0
 30
0.0
 70
   128
 71
    11
 72
     6
 73
     7
  0
VERTEX
  5
7BF
  8
0
 10
0.0
 20
0.0
 30
0.0
 70
   128
 71
    10
 72
    11
 73
     7
  0
VERTEX
  5
7C0
  8
0
 10
0.0
 20
0.0
 30
0.0
 70
   128
 71
     9
 72
    10
 73
     7
  0
VERTEX
  5
7C1
  8
0
 10
0.0
 20
0.0
 30
0.0
 70
   128
 71
    12
 72
     5
 73
     6
  0
VERTEX
  5
7C2
  8
0
 10
0.0
 20
0.0
 30
0.0
 70
   128
 71
    11
 72
    12
 73
     6
  0
VERTEX
  5
7C3
  8
0
 10
0.0
 20
0.0
 30
0.0
 70
   128
 71
    12
 72
     1
 73
     2
  0
VERTEX
  5
7C4
  8
0
 10
0.0
 20
0.0
 30
0.0
 70
   128
 71
     2
 72
     3
 73
    12
  0
VERTEX
  5
7C5
  8
0
 10
0.0
 20
0.0
 30
0.0
 70
   128
 71
     4
 72
     5
 73
    12
  0
VERTEX
  5
7C6
  8
0
 10
0.0
 20
0.0
 30
0.0
 70
   128
 71
     3
 72
     4
 73
    12
  0
SEQEND
  5
D0A
  8
0
  0
POLYLINE
  5
7C7
  8
0
 66
     1
 10
0.0
 20
0.0
 30
0.0
 70
    64
 71
    45
 72
    45
  0
VERTEX
  5
7C8
  8
0
 10
338.3005083092025
 20
-30.00140750207159
 30
289.8276289240775
 70
   192
  0
VERTEX
  5
7C9
  8
0
 10
171.921755977986
 20
-30.00140750210772
 30
336.2922009323876
 70
   192
  0
VERTEX
  5
7CA
  8
0
 10
-0.0510775585743071
 20
-30.00140750212056
 30
352.8153841140942
 70
   192
  0
VERTEX
  5
7CB
  8
0
 10
-171.9547462581574
 20
-30.00140750210772
 30
336.2868693820692
 70
   192
  0
VERTEX
  5
7CC
  8
0
 10
-338.3053960723992
 20
-30.00140750207159
 30
289.8276311996142
 70
   192
  0
VERTEX
  5
7CD
  8
0
 10
-339.972765620224
 20
-30.00140750207103
 30
289.2086539969431
 70
   192
  0
VERTEX
  5
7CE
  8
0
 10
-341.6394263381573
 20
-30.00140750207014
 30
288.5868088263222
 70
   192
  0
VERTEX
  5
7CF
  8
0
 10
-343.305378226199
 20
-30.00140750206859
 30
287.9620956877516
 70
   192
  0
VERTEX
  5
7D0
  8
0
 10
-343.305378226199
 20
-30.00140750207608
 30
295.6584709334025
 70
   192
  0
VERTEX
  5
7D1
  8
0
 10
-349.7934954735857
 20
-30.00140750194534
 30
293.1691714124059
 70
   192
  0
VERTEX
  5
7D2
  8
0
 10
-356.2700925181653
 20
-30.00140750104154
 30
290.6360071079457
 70
   192
  0
VERTEX
  5
7D3
  8
0
 10
-362.735169389237
 20
-30.00140749859176
 30
288.0589780351694
 70
   192
  0
VERTEX
  5
7D4
  8
0
 10
-366.0253009456325
 20
-30.00140750206848
 30
285.9005238839786
 70
   192
  0
VERTEX
  5
7D5
  8
0
 10
-368.2280974027914
 20
-30.00140750206596
 30
282.6397513352919
 70
   192
  0
VERTEX
  5
7D6
  8
0
 10
-369.002450443574
 20
-30.00140750206298
 30
278.7817630034573
 70
   192
  0
VERTEX
  5
7D7
  8
0
 10
-369.002450443574
 20
-30.00140750173784
 30
-138.7980187713115
 70
   192
  0
VERTEX
  5
7D8
  8
0
 10
-367.6634703390429
 20
-30.00140750173396
 30
-143.7962696935745
 70
   192
  0
VERTEX
  5
7D9
  8
0
 10
-364.0008723459023
 20
-30.00140750173111
 30
-147.4589277100063
 70
   192
  0
VERTEX
  5
7DA
  8
0
 10
-359.002450443574
 20
-30.00140750173008
 30
-148.7980187713113
 70
   192
  0
VERTEX
  5
7DB
  8
0
 10
358.99754955643
 20
-30.00140750173008
 30
-148.7980187713113
 70
   192
  0
VERTEX
  5
7DC
  8
0
 10
363.9958004789294
 20
-30.00140750173111
 30
-147.4590386667997
 70
   192
  0
VERTEX
  5
7DD
  8
0
 10
367.6584584954503
 20
-30.00140750173396
 30
-143.7964406733211
 70
   192
  0
VERTEX
  5
7DE
  8
0
 10
368.9975495564299
 20
-30.00140750173785
 30
-138.7980187713113
 70
   192
  0
VERTEX
  5
7DF
  8
0
 10
368.9975495564297
 20
-30.00140750206294
 30
278.7817630034573
 70
   192
  0
VERTEX
  5
7E0
  8
0
 10
368.2232140621588
 20
-30.00140750206595
 30
282.639780638066
 70
   192
  0
VERTEX
  5
7E1
  8
0
 10
366.020367266625
 20
-30.00140750206849
 30
285.9005177808536
 70
   192
  0
VERTEX
  5
7E2
  8
0
 10
362.7302685020901
 20
-30.00140749859148
 30
288.0589780351694
 70
   192
  0
VERTEX
  5
7E3
  8
0
 10
356.2651961428485
 20
-30.00140750104148
 30
290.6360053263867
 70
   192
  0
VERTEX
  5
7E4
  8
0
 10
349.7886036257816
 20
-30.0014075019455
 30
293.1691679106058
 70
   192
  0
VERTEX
  5
7E5
  8
0
 10
343.300490945134
 20
-30.00140750207675
 30
295.6584657726795
 70
   192
  0
VERTEX
  5
7E6
  8
0
 10
343.3004909427797
 20
-30.00140750207009
 30
287.9620928377857
 70
   192
  0
VERTEX
  5
7E7
  8
0
 10
341.6345388945779
 20
-30.00140750207116
 30
288.5868061674829
 70
   192
  0
VERTEX
  5
7E8
  8
0
 10
339.967878023782
 20
-30.00140750207115
 30
289.2086515295801
 70
   192
  0
VERTEX
  5
7E9
  8
0
 10
-50.00245044466012
 20
-30.00140750184443
 30
-1.899057828633977
 70
   192
  0
VERTEX
  5
7EA
  8
0
 10
-43.30312994160584
 20
-30.00140750186388
 30
23.10198233136843
 70
   192
  0
VERTEX
  5
7EB
  8
0
 10
-25.00468177902333
 20
-30.00140750187813
 30
41.40063506790852
 70
   192
  0
VERTEX
  5
7EC
  8
0
 10
-0.0024504435800488
 20
-30.00140750188335
 30
48.10094217246334
 70
   192
  0
VERTEX
  5
7ED
  8
0
 10
24.9985897162989
 20
-30.00140750187814
 30
41.40162166886306
 70
   192
  0
VERTEX
  5
7EE
  8
0
 10
43.2972424528538
 20
-30.00140750186389
 30
23.10317350759075
 70
   192
  0
VERTEX
  5
7EF
  8
0
 10
49.99754955697022
 20
-30.00140750184443
 30
-1.899057828623332
 70
   192
  0
VERTEX
  5
7F0
  8
0
 10
43.29822905334915
 20
-30.00140750182497
 30
-26.90009798977619
 70
   192
  0
VERTEX
  5
7F1
  8
0
 10
24.99978089279355
 20
-30.00140750181071
 30
-45.19875072455883
 70
   192
  0
VERTEX
  5
7F2
  8
0
 10
-0.0024504435700567
 20
-30.00140750180552
 30
-51.89905782971747
 70
   192
  0
VERTEX
  5
7F3
  8
0
 10
-25.00349060395609
 20
-30.00140750181071
 30
-45.19973732624568
 70
   192
  0
VERTEX
  5
7F4
  8
0
 10
-43.30214334059997
 20
-30.00140750182495
 30
-26.90128916351834
 70
   192
  0
VERTEX
  5
7F5
  8
0
 10
0.0
 20
0.0
 30
0.0
 70
   128
 71
    26
 72
    27
 73
   -28
  0
VERTEX
  5
7F6
  8
0
 10
0.0
 20
0.0
 30
0.0
 70
   128
 71
    25
 72
   -26
 73
   -28
  0
VERTEX
  5
7F7
  8
0
 10
0.0
 20
0.0
 30
0.0
 70
   128
 71
    24
 72
   -25
 73
   -28
  0
VERTEX
  5
7F8
  8
0
 10
0.0
 20
0.0
 30
0.0
 70
   128
 71
   -31
 72
   -24
 73
   -28
  0
VERTEX
  5
7F9
  8
0
 10
0.0
 20
0.0
 30
0.0
 70
   128
 71
    28
 72
   -29
 73
   -31
  0
VERTEX
  5
7FA
  8
0
 10
0.0
 20
0.0
 30
0.0
 70
   128
 71
    29
 72
    30
 73
   -31
  0
VERTEX
  5
7FB
  8
0
 10
0.0
 20
0.0
 30
0.0
 70
   128
 71
    23
 72
   -24
 73
   -31
  0
VERTEX
  5
7FC
  8
0
 10
0.0
 20
0.0
 30
0.0
 70
   128
 71
    22
 72
   -23
 73
   -31
  0
VERTEX
  5
7FD
  8
0
 10
0.0
 20
0.0
 30
0.0
 70
   128
 71
    21
 72
   -22
 73
   -31
  0
VERTEX
  5
7FE
  8
0
 10
0.0
 20
0.0
 30
0.0
 70
   128
 71
    20
 72
   -21
 73
   -31
  0
VERTEX
  5
7FF
  8
0
 10
0.0
 20
0.0
 30
0.0
 70
   128
 71
    31
 72
   -32
 73
   -20
  0
VERTEX
  5
800
  8
0
 10
0.0
 20
0.0
 30
0.0
 70
   128
 71
    32
 72
   -33
 73
   -20
  0
VERTEX
  5
801
  8
0
 10
0.0
 20
0.0
 30
0.0
 70
   128
 71
    33
 72
    -1
 73
   -20
  0
VERTEX
  5
802
  8
0
 10
0.0
 20
0.0
 30
0.0
 70
   128
 71
    -5
 72
    34
 73
   -35
  0
VERTEX
  5
803
  8
0
 10
0.0
 20
0.0
 30
0.0
 70
   128
 71
   -36
 72
     4
 73
    -5
  0
VERTEX
  5
804
  8
0
 10
0.0
 20
0.0
 30
0.0
 70
   128
 71
    35
 72
   -36
 73
    -5
  0
VERTEX
  5
805
  8
0
 10
0.0
 20
0.0
 30
0.0
 70
   128
 71
   -37
 72
     3
 73
    -4
  0
VERTEX
  5
806
  8
0
 10
0.0
 20
0.0
 30
0.0
 70
   128
 71
    36
 72
   -37
 73
    -4
  0
VERTEX
  5
807
  8
0
 10
0.0
 20
0.0
 30
0.0
 70
   128
 71
   -38
 72
     2
 73
    -3
  0
VERTEX
  5
808
  8
0
 10
0.0
 20
0.0
 30
0.0
 70
   128
 71
    37
 72
   -38
 73
    -3
  0
VERTEX
  5
809
  8
0
 10
0.0
 20
0.0
 30
0.0
 70
   128
 71
   -20
 72
     1
 73
    -2
  0
VERTEX
  5
80A
  8
0
 10
0.0
 20
0.0
 30
0.0
 70
   128
 71
   -39
 72
   -20
 73
    -2
  0
VERTEX
  5
80B
  8
0
 10
0.0
 20
0.0
 30
0.0
 70
   128
 71
    38
 72
   -39
 73
    -2
  0
VERTEX
  5
80C
  8
0
 10
0.0
 20
0.0
 30
0.0
 70
   128
 71
    39
 72
   -40
 73
   -20
  0
VERTEX
  5
80D
  8
0
 10
0.0
 20
0.0
 30
0.0
 70
   128
 71
    40
 72
   -41
 73
   -20
  0
VERTEX
  5
80E
  8
0
 10
0.0
 20
0.0
 30
0.0
 70
   128
 71
    41
 72
   -42
 73
   -20
  0
VERTEX
  5
80F
  8
0
 10
0.0
 20
0.0
 30
0.0
 70
   128
 71
    42
 72
   -43
 73
   -20
  0
VERTEX
  5
810
  8
0
 10
0.0
 20
0.0
 30
0.0
 70
   128
 71
    19
 72
   -20
 73
   -43
  0
VERTEX
  5
811
  8
0
 10
0.0
 20
0.0
 30
0.0
 70
   128
 71
    43
 72
   -44
 73
   -19
  0
VERTEX
  5
812
  8
0
 10
0.0
 20
0.0
 30
0.0
 70
   128
 71
    44
 72
   -45
 73
   -19
  0
VERTEX
  5
813
  8
0
 10
0.0
 20
0.0
 30
0.0
 70
   128
 71
    17
 72
    18
 73
   -19
  0
VERTEX
  5
814
  8
0
 10
0.0
 20
0.0
 30
0.0
 70
   128
 71
    16
 72
   -17
 73
   -19
  0
VERTEX
  5
815
  8
0
 10
0.0
 20
0.0
 30
0.0
 70
   128
 71
   -34
 72
   -16
 73
   -19
  0
VERTEX
  5
816
  8
0
 10
0.0
 20
0.0
 30
0.0
 70
   128
 71
    45
 72
   -34
 73
   -19
  0
VERTEX
  5
817
  8
0
 10
0.0
 20
0.0
 30
0.0
 70
   128
 71
     5
 72
    -6
 73
   -34
  0
VERTEX
  5
818
  8
0
 10
0.0
 20
0.0
 30
0.0
 70
   128
 71
     6
 72
    -7
 73
   -34
  0
VERTEX
  5
819
  8
0
 10
0.0
 20
0.0
 30
0.0
 70
   128
 71
     7
 72
    -8
 73
   -34
  0
VERTEX
  5
81A
  8
0
 10
0.0
 20
0.0
 30
0.0
 70
   128
 71
    -8
 72
   -10
 73
   -34
  0
VERTEX
  5
81B
  8
0
 10
0.0
 20
0.0
 30
0.0
 70
   128
 71
     8
 72
     9
 73
   -10
  0
VERTEX
  5
81C
  8
0
 10
0.0
 20
0.0
 30
0.0
 70
   128
 71
    10
 72
   -11
 73
   -34
  0
VERTEX
  5
81D
  8
0
 10
0.0
 20
0.0
 30
0.0
 70
   128
 71
    15
 72
   -16
 73
   -34
  0
VERTEX
  5
81E
  8
0
 10
0.0
 20
0.0
 30
0.0
 70
   128
 71
    14
 72
   -15
 73
   -34
  0
VERTEX
  5
81F
  8
0
 10
0.0
 20
0.0
 30
0.0
 70
   128
 71
    13
 72
   -14
 73
   -34
  0
VERTEX
  5
820
  8
0
 10
0.0
 20
0.0
 30
0.0
 70
   128
 71
    12
 72
   -13
 73
   -34
  0
VERTEX
  5
821
  8
0
 10
0.0
 20
0.0
 30
0.0
 70
   128
 71
    11
 72
   -12
 73
   -34
  0
SEQEND
  5
D0B
  8
0
  0
POLYLINE
  5
822
  8
0
 66
     1
 10
0.0
 20
0.0
 30
0.0
 70
    64
 71
    12
 72
    10
  0
VERTEX
  5
823
  8
0
 10
-45.00245044357021
 20
-25.00140750184443
 30
-1.899057828623069
 70
   192
  0
VERTEX
  5
824
  8
0
 10
-38.97356885728035
 20
-25.00140750186195
 30
20.60093934624027
 70
   192
  0
VERTEX
  5
825
  8
0
 10
-22.50239675670378
 20
-25.00140750187481
 30
37.07183116899841
 70
   192
  0
VERTEX
  5
826
  8
0
 10
-0.0024504435700586
 20
-25.00140750187946
 30
43.10094217137723
 70
   192
  0
VERTEX
  5
827
  8
0
 10
-0.0024504435713414
 20
-27.4466158840853
 30
43.7396400763574
 70
   192
  0
VERTEX
  5
828
  8
0
 10
-0.0024504435751706
 20
-29.36270959743278
 30
45.6557337901196
 70
   192
  0
VERTEX
  5
829
  8
0
 10
-0.0024504435800488
 20
-30.00140750188335
 30
48.10094217246334
 70
   192
  0
VERTEX
  5
82A
  8
0
 10
-25.00468177902333
 20
-30.00140750187813
 30
41.40063506790852
 70
   192
  0
VERTEX
  5
82B
  8
0
 10
-43.30312994160584
 20
-30.00140750186388
 30
23.10198233136843
 70
   192
  0
VERTEX
  5
82C
  8
0
 10
-50.00245044466012
 20
-30.00140750184443
 30
-1.899057828633977
 70
   192
  0
VERTEX
  5
82D
  8
0
 10
-47.50245044442189
 20
-29.33153452081582
 30
-1.899057828630138
 70
   192
  0
VERTEX
  5
82E
  8
0
 10
-45.67232342514362
 20
-27.5014075019366
 30
-1.899057828626148
 70
   192
  0
VERTEX
  5
82F
  8
0
 10
0.0
 20
0.0
 30
0.0
 70
   128
 71
     6
 72
     7
 73
     8
  0
VERTEX
  5
830
  8
0
 10
0.0
 20
0.0
 30
0.0
 70
   128
 71
    11
 72
     6
 73
     8
  0
VERTEX
  5
831
  8
0
 10
0.0
 20
0.0
 30
0.0
 70
   128
 71
     8
 72
     9
 73
    11
  0
VERTEX
  5
832
  8
0
 10
0.0
 20
0.0
 30
0.0
 70
   128
 71
     9
 72
    10
 73
    11
  0
VERTEX
  5
833
  8
0
 10
0.0
 20
0.0
 30
0.0
 70
   128
 71
    12
 72
     5
 73
     6
  0
VERTEX
  5
834
  8
0
 10
0.0
 20
0.0
 30
0.0
 70
   128
 71
    11
 72
    12
 73
     6
  0
VERTEX
  5
835
  8
0
 10
0.0
 20
0.0
 30
0.0
 70
   128
 71
    12
 72
     1
 73
     2
  0
VERTEX
  5
836
  8
0
 10
0.0
 20
0.0
 30
0.0
 70
   128
 71
     2
 72
     3
 73
    12
  0
VERTEX
  5
837
  8
0
 10
0.0
 20
0.0
 30
0.0
 70
   128
 71
     3
 72
     5
 73
    12
  0
VERTEX
  5
838
  8
0
 10
0.0
 20
0.0
 30
0.0
 70
   128
 71
     3
 72
     4
 73
     5
  0
SEQEND
  5
D0C
  8
0
  0
POLYLINE
  5
839
  8
0
 66
     1
 10
0.0
 20
0.0
 30
0.0
 70
    64
 71
    12
 72
    10
  0
VERTEX
  5
83A
  8
0
 10
44.99754955642965
 20
-25.00140750184443
 30
-1.899057828622985
 70
   192
  0
VERTEX
  5
83B
  8
0
 10
38.96866797001781
 20
-25.00140750182691
 30
-24.39905500358455
 70
   192
  0
VERTEX
  5
83C
  8
0
 10
22.49749586961067
 20
-25.00140750181411
 30
-40.86994682620573
 70
   192
  0
VERTEX
  5
83D
  8
0
 10
-0.0024504435700549
 20
-25.0014075018094
 30
-46.89905782862296
 70
   192
  0
VERTEX
  5
83E
  8
0
 10
-0.0024504435700651
 20
-27.44661588401425
 30
-47.53775573360687
 70
   192
  0
VERTEX
  5
83F
  8
0
 10
-0.0024504435700651
 20
-29.36270959735875
 30
-49.45384944737231
 70
   192
  0
VERTEX
  5
840
  8
0
 10
-0.0024504435700567
 20
-30.00140750180552
 30
-51.89905782971747
 70
   192
  0
VERTEX
  5
841
  8
0
 10
24.99978089279355
 20
-30.00140750181071
 30
-45.19875072455883
 70
   192
  0
VERTEX
  5
842
  8
0
 10
43.29822905334915
 20
-30.00140750182497
 30
-26.90009798977619
 70
   192
  0
VERTEX
  5
843
  8
0
 10
49.99754955697022
 20
-30.00140750184443
 30
-1.899057828623332
 70
   192
  0
VERTEX
  5
844
  8
0
 10
47.49754955686367
 20
-29.33153452077107
 30
-1.899057828624594
 70
   192
  0
VERTEX
  5
845
  8
0
 10
45.66742253777346
 20
-27.5014075018786
 30
-1.899057828624449
 70
   192
  0
VERTEX
  5
846
  8
0
 10
0.0
 20
0.0
 30
0.0
 70
   128
 71
     6
 72
     7
 73
     8
  0
VERTEX
  5
847
  8
0
 10
0.0
 20
0.0
 30
0.0
 70
   128
 71
    11
 72
     6
 73
     8
  0
VERTEX
  5
848
  8
0
 10
0.0
 20
0.0
 30
0.0
 70
   128
 71
     8
 72
     9
 73
    11
  0
VERTEX
  5
849
  8
0
 10
0.0
 20
0.0
 30
0.0
 70
   128
 71
     9
 72
    10
 73
    11
  0
VERTEX
  5
84A
  8
0
 10
0.0
 20
0.0
 30
0.0
 70
   128
 71
    12
 72
     5
 73
     6
  0
VERTEX
  5
84B
  8
0
 10
0.0
 20
0.0
 30
0.0
 70
   128
 71
    11
 72
    12
 73
     6
  0
VERTEX
  5
84C
  8
0
 10
0.0
 20
0.0
 30
0.0
 70
   128
 71
    12
 72
     1
 73
     2
  0
VERTEX
  5
84D
  8
0
 10
0.0
 20
0.0
 30
0.0
 70
   128
 71
     2
 72
     3
 73
    12
  0
VERTEX
  5
84E
  8
0
 10
0.0
 20
0.0
 30
0.0
 70
   128
 71
     3
 72
     5
 73
    12
  0
VERTEX
  5
84F
  8
0
 10
0.0
 20
0.0
 30
0.0
 70
   128
 71
     3
 72
     4
 73
     5
  0
SEQEND
  5
D0D
  8
0
  0
POLYLINE
  5
850
  8
0
 66
     1
 10
0.0
 20
0.0
 30
0.0
 70
    64
 71
    31
 72
    29
  0
VERTEX
  5
851
  8
0
 10
-340.8657454201833
 20
-29.36588094079966
 30
288.8758651144149
 70
   192
  0
VERTEX
  5
852
  8
0
 10
-343.305378226199
 20
-30.00140750206859
 30
287.9620956877516
 70
   192
  0
VERTEX
  5
853
  8
0
 10
-341.6394263381573
 20
-30.00140750207014
 30
288.5868088263222
 70
   192
  0
VERTEX
  5
854
  8
0
 10
-339.972765620224
 20
-30.00140750207103
 30
289.2086539969431
 70
   192
  0
VERTEX
  5
855
  8
0
 10
-332.3985664613076
 20
162.1985033886065
 30
291.9952276603421
 70
   192
  0
VERTEX
  5
856
  8
0
 10
-338.3053813138013
 20
140.7209996863526
 30
289.8275986488902
 70
   192
  0
VERTEX
  5
857
  8
0
 10
-338.3053802846005
 20
85.4801970604328
 30
289.8276113307683
 70
   192
  0
VERTEX
  5
858
  8
0
 10
-316.9072813753559
 20
177.3214423912306
 30
297.4947504468332
 70
   192
  0
VERTEX
  5
859
  8
0
 10
-296.3053853947759
 20
182.7210000775951
 30
304.396552342117
 70
   192
  0
VERTEX
  5
85A
  8
0
 10
-99.91864988988435
 20
182.7210000775615
 30
347.1643695915803
 70
   192
  0
VERTEX
  5
85B
  8
0
 10
-338.3053782262004
 20
-25.00140740890855
 30
289.8276366945238
 70
   192
  0
VERTEX
  5
85C
  8
0
 10
-338.3053960723992
 20
-30.00140750207159
 30
289.8276311996142
 70
   192
  0
VERTEX
  5
85D
  8
0
 10
-171.9547462581574
 20
-30.00140750210772
 30
336.2868693820692
 70
   192
  0
VERTEX
  5
85E
  8
0
 10
-0.0510775585743071
 20
-30.00140750212056
 30
352.8153841140942
 70
   192
  0
VERTEX
  5
85F
  8
0
 10
-339.0106699711216
 20
-27.56187036304491
 30
289.566194271685
 70
   192
  0
VERTEX
  5
860
  8
0
 10
338.3005083092025
 20
-30.00140750207159
 30
289.8276289240775
 70
   192
  0
VERTEX
  5
861
  8
0
 10
339.0104612099111
 20
-27.56934874836526
 30
289.564455350716
 70
   192
  0
VERTEX
  5
862
  8
0
 10
338.3004909215896
 20
-25.00140742014178
 30
289.8276342491773
 70
   192
  0
VERTEX
  5
863
  8
0
 10
171.921755977986
 20
-30.00140750210772
 30
336.2922009323876
 70
   192
  0
VERTEX
  5
864
  8
0
 10
338.3004918266872
 20
30.23939484972881
 30
289.8276216132545
 70
   192
  0
VERTEX
  5
865
  8
0
 10
338.3004927317833
 20
85.48019711959226
 30
289.8276089773216
 70
   192
  0
VERTEX
  5
866
  8
0
 10
296.3004977178596
 20
182.7210000775939
 30
304.3965521235908
 70
   192
  0
VERTEX
  5
867
  8
0
 10
100.8740170396756
 20
182.7210000775613
 30
347.0562778337751
 70
   192
  0
VERTEX
  5
868
  8
0
 10
316.9193235547823
 20
177.3119203579715
 30
297.4888820221461
 70
   192
  0
VERTEX
  5
869
  8
0
 10
332.4307506516619
 20
162.1368570721878
 30
291.981756450637
 70
   192
  0
VERTEX
  5
86A
  8
0
 10
338.3004936368829
 20
140.7209993894543
 30
289.8275926239542
 70
   192
  0
VERTEX
  5
86B
  8
0
 10
341.6345388945779
 20
-30.00140750207116
 30
288.5868061674829
 70
   192
  0
VERTEX
  5
86C
  8
0
 10
343.30049092159
 20
-30.00140750207203
 30
287.9620928377857
 70
   192
  0
VERTEX
  5
86D
  8
0
 10
340.8627859976212
 20
-29.3669561669382
 30
288.8751430681511
 70
   192
  0
VERTEX
  5
86E
  8
0
 10
339.967878023782
 20
-30.00140750207115
 30
289.2086515295801
 70
   192
  0
VERTEX
  5
86F
  8
0
 10
-338.3053792553998
 20
30.2393948257657
 30
289.8276240126464
 70
   192
  0
VERTEX
  5
870
  8
0
 10
0.0
 20
0.0
 30
0.0
 70
   128
 71
     1
 72
     2
 73
     3
  0
VERTEX
  5
871
  8
0
 10
0.0
 20
0.0
 30
0.0
 70
   128
 71
     3
 72
     4
 73
     1
  0
VERTEX
  5
872
  8
0
 10
0.0
 20
0.0
 30
0.0
 70
   128
 71
     5
 72
     6
 73
     7
  0
VERTEX
  5
873
  8
0
 10
0.0
 20
0.0
 30
0.0
 70
   128
 71
     8
 72
     5
 73
     7
  0
VERTEX
  5
874
  8
0
 10
0.0
 20
0.0
 30
0.0
 70
   128
 71
     9
 72
     8
 73
     7
  0
VERTEX
  5
875
  8
0
 10
0.0
 20
0.0
 30
0.0
 70
   128
 71
    10
 72
     9
 73
     7
  0
VERTEX
  5
876
  8
0
 10
0.0
 20
0.0
 30
0.0
 70
   128
 71
    11
 72
    12
 73
    13
  0
VERTEX
  5
877
  8
0
 10
0.0
 20
0.0
 30
0.0
 70
   128
 71
    13
 72
    14
 73
    11
  0
VERTEX
  5
878
  8
0
 10
0.0
 20
0.0
 30
0.0
 70
   128
 71
    11
 72
    15
 73
    12
  0
VERTEX
  5
879
  8
0
 10
0.0
 20
0.0
 30
0.0
 70
   128
 71
     1
 72
     4
 73
    12
  0
VERTEX
  5
87A
  8
0
 10
0.0
 20
0.0
 30
0.0
 70
   128
 71
    15
 72
     1
 73
    12
  0
VERTEX
  5
87B
  8
0
 10
0.0
 20
0.0
 30
0.0
 70
   128
 71
    16
 72
    17
 73
    18
  0
VERTEX
  5
87C
  8
0
 10
0.0
 20
0.0
 30
0.0
 70
   128
 71
    19
 72
    16
 73
    18
  0
VERTEX
  5
87D
  8
0
 10
0.0
 20
0.0
 30
0.0
 70
   128
 71
    18
 72
   -20
 73
    19
  0
VERTEX
  5
87E
  8
0
 10
0.0
 20
0.0
 30
0.0
 70
   128
 71
    20
 72
    21
 73
   -19
  0
VERTEX
  5
87F
  8
0
 10
0.0
 20
0.0
 30
0.0
 70
   128
 71
    22
 72
    23
 73
    19
  0
VERTEX
  5
880
  8
0
 10
0.0
 20
0.0
 30
0.0
 70
   128
 71
    24
 72
    22
 73
    19
  0
VERTEX
  5
881
  8
0
 10
0.0
 20
0.0
 30
0.0
 70
   128
 71
    25
 72
    24
 73
    19
  0
VERTEX
  5
882
  8
0
 10
0.0
 20
0.0
 30
0.0
 70
   128
 71
    26
 72
    25
 73
    19
  0
VERTEX
  5
883
  8
0
 10
0.0
 20
0.0
 30
0.0
 70
   128
 71
    21
 72
    26
 73
    19
  0
VERTEX
  5
884
  8
0
 10
0.0
 20
0.0
 30
0.0
 70
   128
 71
    27
 72
    28
 73
    29
  0
VERTEX
  5
885
  8
0
 10
0.0
 20
0.0
 30
0.0
 70
   128
 71
    17
 72
    16
 73
    30
  0
VERTEX
  5
886
  8
0
 10
0.0
 20
0.0
 30
0.0
 70
   128
 71
    29
 72
    17
 73
    30
  0
VERTEX
  5
887
  8
0
 10
0.0
 20
0.0
 30
0.0
 70
   128
 71
    30
 72
    27
 73
    29
  0
VERTEX
  5
888
  8
0
 10
0.0
 20
0.0
 30
0.0
 70
   128
 71
    31
 72
    11
 73
   -14
  0
VERTEX
  5
889
  8
0
 10
0.0
 20
0.0
 30
0.0
 70
   128
 71
     7
 72
   -31
 73
    14
  0
VERTEX
  5
88A
  8
0
 10
0.0
 20
0.0
 30
0.0
 70
   128
 71
    10
 72
     7
 73
    14
  0
VERTEX
  5
88B
  8
0
 10
0.0
 20
0.0
 30
0.0
 70
   128
 71
    23
 72
    10
 73
    14
  0
VERTEX
  5
88C
  8
0
 10
0.0
 20
0.0
 30
0.0
 70
   128
 71
    19
 72
    23
 73
    14
  0
SEQEND
  5
D0E
  8
0
  0
POLYLINE
  5
88D
  8
0
 66
     1
 10
0.0
 20
0.0
 30
0.0
 70
    64
 71
     9
 72
     7
  0
VERTEX
  5
88E
  8
0
 10
343.30049092159
 20
-30.00140750207203
 30
287.9620928377857
 70
   192
  0
VERTEX
  5
88F
  8
0
 10
343.3004909427797
 20
-30.00140750207009
 30
287.9620928377857
 70
   192
  0
VERTEX
  5
890
  8
0
 10
343.300490945134
 20
-30.00140750207991
 30
295.6584657107123
 70
   192
  0
VERTEX
  5
891
  8
0
 10
340.8004909115337
 20
-29.3315345151956
 30
295.6584657107135
 70
   192
  0
VERTEX
  5
892
  8
0
 10
340.8627859976212
 20
-29.3669561669382
 30
288.8751430681511
 70
   192
  0
VERTEX
  5
893
  8
0
 10
338.3004909215933
 20
-25.00140742015344
 30
295.6584657107173
 70
   192
  0
VERTEX
  5
894
  8
0
 10
338.3004909215899
 20
-25.0014074201489
 30
289.8276342491773
 70
   192
  0
VERTEX
  5
895
  8
0
 10
339.0104612099111
 20
-27.56934874836526
 30
289.564455350716
 70
   192
  0
VERTEX
  5
896
  8
0
 10
338.9703638792848
 20
-27.50140746157597
 30
295.6584657107152
 70
   192
  0
VERTEX
  5
897
  8
0
 10
0.0
 20
0.0
 30
0.0
 70
   128
 71
     1
 72
     2
 73
     3
  0
VERTEX
  5
898
  8
0
 10
0.0
 20
0.0
 30
0.0
 70
   128
 71
     3
 72
     4
 73
     5
  0
VERTEX
  5
899
  8
0
 10
0.0
 20
0.0
 30
0.0
 70
   128
 71
     6
 72
     7
 73
     8
  0
VERTEX
  5
89A
  8
0
 10
0.0
 20
0.0
 30
0.0
 70
   128
 71
     6
 72
     8
 73
     9
  0
VERTEX
  5
89B
  8
0
 10
0.0
 20
0.0
 30
0.0
 70
   128
 71
     9
 72
     8
 73
     5
  0
VERTEX
  5
89C
  8
0
 10
0.0
 20
0.0
 30
0.0
 70
   128
 71
     9
 72
     5
 73
     4
  0
VERTEX
  5
89D
  8
0
 10
0.0
 20
0.0
 30
0.0
 70
   128
 71
     5
 72
     1
 73
     3
  0
SEQEND
  5
D0F
  8
0
  0
POLYLINE
  5
89E
  8
0
 66
     1
 10
0.0
 20
0.0
 30
0.0
 70
    64
 71
    12
 72
    10
  0
VERTEX
  5
89F
  8
0
 10
366.4629903305499
 20
-20.00140750207741
 30
297.3361992099283
 70
   192
  0
VERTEX
  5
8A0
  8
0
 10
359.3512193068725
 20
-20.00140750207961
 30
300.1686083066592
 70
   192
  0
VERTEX
  5
8A1
  8
0
 10
352.2195014930835
 20
-20.00140750208177
 30
302.9507929594072
 70
   192
  0
VERTEX
  5
8A2
  8
0
 10
345.0681331194785
 20
-20.0014075020839
 30
305.6824749746881
 70
   192
  0
VERTEX
  5
8A3
  8
0
 10
344.8254696405537
 20
-25.07037369362766
 30
304.2989577085556
 70
   192
  0
VERTEX
  5
8A4
  8
0
 10
344.1738218893355
 20
-28.70241742484483
 30
300.5987264896775
 70
   192
  0
VERTEX
  5
8A5
  8
0
 10
343.300490945134
 20
-30.00140750207675
 30
295.6584657726795
 70
   192
  0
VERTEX
  5
8A6
  8
0
 10
349.7886036257816
 20
-30.0014075019455
 30
293.1691679106058
 70
   192
  0
VERTEX
  5
8A7
  8
0
 10
356.2651961428485
 20
-30.00140750104148
 30
290.6360053263867
 70
   192
  0
VERTEX
  5
8A8
  8
0
 10
362.7302685020901
 20
-30.00140749859148
 30
288.0589780351694
 70
   192
  0
VERTEX
  5
8A9
  8
0
 10
364.5966289933963
 20
-28.66166152485589
 30
292.6975875713853
 70
   192
  0
VERTEX
  5
8AA
  8
0
 10
365.9628996982573
 20
-25.00140749337842
 30
296.0932854283698
 70
   192
  0
VERTEX
  5
8AB
  8
0
 10
0.0
 20
0.0
 30
0.0
 70
   128
 71
     6
 72
     7
 73
     8
  0
VERTEX
  5
8AC
  8
0
 10
0.0
 20
0.0
 30
0.0
 70
   128
 71
     9
 72
    11
 73
     6
  0
VERTEX
  5
8AD
  8
0
 10
0.0
 20
0.0
 30
0.0
 70
   128
 71
     8
 72
     9
 73
     6
  0
VERTEX
  5
8AE
  8
0
 10
0.0
 20
0.0
 30
0.0
 70
   128
 71
     9
 72
    10
 73
    11
  0
VERTEX
  5
8AF
  8
0
 10
0.0
 20
0.0
 30
0.0
 70
   128
 71
    12
 72
     5
 73
     6
  0
VERTEX
  5
8B0
  8
0
 10
0.0
 20
0.0
 30
0.0
 70
   128
 71
    11
 72
    12
 73
     6
  0
VERTEX
  5
8B1
  8
0
 10
0.0
 20
0.0
 30
0.0
 70
   128
 71
    12
 72
     1
 73
     2
  0
VERTEX
  5
8B2
  8
0
 10
0.0
 20
0.0
 30
0.0
 70
   128
 71
     3
 72
     5
 73
    12
  0
VERTEX
  5
8B3
  8
0
 10
0.0
 20
0.0
 30
0.0
 70
   128
 71
     2
 72
     3
 73
    12
  0
VERTEX
  5
8B4
  8
0
 10
0.0
 20
0.0
 30
0.0
 70
   128
 71
     3
 72
     4
 73
     5
  0
SEQEND
  5
D10
  8
0
  0
POLYLINE
  5
8B5
  8
0
 66
     1
 10
0.0
 20
0.0
 30
0.0
 70
    64
 71
    12
 72
    10
  0
VERTEX
  5
8B6
  8
0
 10
368.9975495564299
 20
-30.00140750206298
 30
278.7817630034573
 70
   192
  0
VERTEX
  5
8B7
  8
0
 10
373.99754955643
 20
-28.66166153990734
 30
278.7817630034584
 70
   192
  0
VERTEX
  5
8B8
  8
0
 10
377.6578035942744
 20
-25.00140750206288
 30
278.7817630034613
 70
   192
  0
VERTEX
  5
8B9
  8
0
 10
378.9975495564299
 20
-20.0014075020628
 30
278.7817630034651
 70
   192
  0
VERTEX
  5
8BA
  8
0
 10
377.4489392200901
 20
-20.00140750206899
 30
286.4979079390164
 70
   192
  0
VERTEX
  5
8BB
  8
0
 10
373.0433749410965
 20
-20.00140750207407
 30
293.0193000956077
 70
   192
  0
VERTEX
  5
8BC
  8
0
 10
366.4629903305499
 20
-20.00140750207741
 30
297.3361992099283
 70
   192
  0
VERTEX
  5
8BD
  8
0
 10
365.9628996982573
 20
-25.00140749337842
 30
296.0932854283698
 70
   192
  0
VERTEX
  5
8BE
  8
0
 10
364.5966289933963
 20
-28.66166152485589
 30
292.6975875713853
 70
   192
  0
VERTEX
  5
8BF
  8
0
 10
362.7302685020902
 20
-30.00140748467663
 30
288.0589780351693
 70
   192
  0
VERTEX
  5
8C0
  8
0
 10
366.020367266625
 20
-30.00140750206849
 30
285.9005177808536
 70
   192
  0
VERTEX
  5
8C1
  8
0
 10
368.2232140621588
 20
-30.00140750206595
 30
282.639780638066
 70
   192
  0
VERTEX
  5
8C2
  8
0
 10
0.0
 20
0.0
 30
0.0
 70
   128
 71
     6
 72
     7
 73
     8
  0
VERTEX
  5
8C3
  8
0
 10
0.0
 20
0.0
 30
0.0
 70
   128
 71
     9
 72
    11
 73
     6
  0
VERTEX
  5
8C4
  8
0
 10
0.0
 20
0.0
 30
0.0
 70
   128
 71
     8
 72
     9
 73
     6
  0
VERTEX
  5
8C5
  8
0
 10
0.0
 20
0.0
 30
0.0
 70
   128
 71
     9
 72
    10
 73
    11
  0
VERTEX
  5
8C6
  8
0
 10
0.0
 20
0.0
 30
0.0
 70
   128
 71
    12
 72
     5
 73
     6
  0
VERTEX
  5
8C7
  8
0
 10
0.0
 20
0.0
 30
0.0
 70
   128
 71
    11
 72
    12
 73
     6
  0
VERTEX
  5
8C8
  8
0
 10
0.0
 20
0.0
 30
0.0
 70
   128
 71
    12
 72
     1
 73
     2
  0
VERTEX
  5
8C9
  8
0
 10
0.0
 20
0.0
 30
0.0
 70
   128
 71
     3
 72
     5
 73
    12
  0
VERTEX
  5
8CA
  8
0
 10
0.0
 20
0.0
 30
0.0
 70
   128
 71
     2
 72
     3
 73
    12
  0
VERTEX
  5
8CB
  8
0
 10
0.0
 20
0.0
 30
0.0
 70
   128
 71
     3
 72
     4
 73
     5
  0
SEQEND
  5
D11
  8
0
  0
POLYLINE
  5
8CC
  8
0
 66
     1
 10
0.0
 20
0.0
 30
0.0
 70
    64
 71
     8
 72
     6
  0
VERTEX
  5
8CD
  8
0
 10
377.6578035942743
 20
-25.00140750173785
 30
-138.798018771315
 70
   192
  0
VERTEX
  5
8CE
  8
0
 10
377.6578035942744
 20
-25.00140750206288
 30
278.7817630034613
 70
   192
  0
VERTEX
  5
8CF
  8
0
 10
373.99754955643
 20
-28.66166153990734
 30
278.7817630034584
 70
   192
  0
VERTEX
  5
8D0
  8
0
 10
373.9975495564299
 20
-28.66166153958224
 30
-138.7980187713178
 70
   192
  0
VERTEX
  5
8D1
  8
0
 10
378.9975495564299
 20
-20.00140750173785
 30
-138.7980187713038
 70
   192
  0
VERTEX
  5
8D2
  8
0
 10
378.9975495564299
 20
-20.00140750206299
 30
278.7817630034651
 70
   192
  0
VERTEX
  5
8D3
  8
0
 10
368.9975495564299
 20
-30.00140750206298
 30
278.7817630034573
 70
   192
  0
VERTEX
  5
8D4
  8
0
 10
368.9975495564297
 20
-30.00140750173784
 30
-138.7980187713113
 70
   192
  0
VERTEX
  5
8D5
  8
0
 10
0.0
 20
0.0
 30
0.0
 70
   128
 71
     1
 72
     2
 73
    -3
  0
VERTEX
  5
8D6
  8
0
 10
0.0
 20
0.0
 30
0.0
 70
   128
 71
    -1
 72
     3
 73
     4
  0
VERTEX
  5
8D7
  8
0
 10
0.0
 20
0.0
 30
0.0
 70
   128
 71
     5
 72
     6
 73
    -2
  0
VERTEX
  5
8D8
  8
0
 10
0.0
 20
0.0
 30
0.0
 70
   128
 71
    -5
 72
     2
 73
     1
  0
VERTEX
  5
8D9
  8
0
 10
0.0
 20
0.0
 30
0.0
 70
   128
 71
     4
 72
     3
 73
    -7
  0
VERTEX
  5
8DA
  8
0
 10
0.0
 20
0.0
 30
0.0
 70
   128
 71
    -4
 72
     7
 73
     8
  0
SEQEND
  5
D12
  8
0
  0
POLYLINE
  5
8DB
  8
0
 66
     1
 10
0.0
 20
0.0
 30
0.0
 70
    64
 71
    12
 72
    10
  0
VERTEX
  5
8DC
  8
0
 10
358.9975495564299
 20
-30.00140750173005
 30
-148.7980187713113
 70
   192
  0
VERTEX
  5
8DD
  8
0
 10
358.9975495564299
 20
-28.66166153957058
 30
-153.7980187713102
 70
   192
  0
VERTEX
  5
8DE
  8
0
 10
358.9975495564299
 20
-25.00140750172343
 30
-157.4582728091518
 70
   192
  0
VERTEX
  5
8DF
  8
0
 10
358.9975495564299
 20
-20.00140750172247
 30
-158.7980187713035
 70
   192
  0
VERTEX
  5
8E0
  8
0
 10
368.9971660138618
 20
-20.00140750172441
 30
-156.1180001652909
 70
   192
  0
VERTEX
  5
8E1
  8
0
 10
376.3175309504173
 20
-20.00140750173011
 30
-148.7976352287378
 70
   192
  0
VERTEX
  5
8E2
  8
0
 10
378.9975495564228
 20
-20.00140750173784
 30
-138.7980187713036
 70
   192
  0
VERTEX
  5
8E3
  8
0
 10
377.6578035942743
 20
-25.00140750173785
 30
-138.798018771315
 70
   192
  0
VERTEX
  5
8E4
  8
0
 10
373.9975495564299
 20
-28.66166153958224
 30
-138.7980187713178
 70
   192
  0
VERTEX
  5
8E5
  8
0
 10
368.9975495564299
 20
-30.00140750173785
 30
-138.7980187713115
 70
   192
  0
VERTEX
  5
8E6
  8
0
 10
367.6584584954503
 20
-30.00140750173396
 30
-143.7964406733211
 70
   192
  0
VERTEX
  5
8E7
  8
0
 10
363.9958004789294
 20
-30.00140750173111
 30
-147.4590386667997
 70
   192
  0
VERTEX
  5
8E8
  8
0
 10
0.0
 20
0.0
 30
0.0
 70
   128
 71
     6
 72
     7
 73
     8
  0
VERTEX
  5
8E9
  8
0
 10
0.0
 20
0.0
 30
0.0
 70
   128
 71
     9
 72
    11
 73
     6
  0
VERTEX
  5
8EA
  8
0
 10
0.0
 20
0.0
 30
0.0
 70
   128
 71
     8
 72
     9
 73
     6
  0
VERTEX
  5
8EB
  8
0
 10
0.0
 20
0.0
 30
0.0
 70
   128
 71
     9
 72
    10
 73
    11
  0
VERTEX
  5
8EC
  8
0
 10
0.0
 20
0.0
 30
0.0
 70
   128
 71
    12
 72
     5
 73
     6
  0
VERTEX
  5
8ED
  8
0
 10
0.0
 20
0.0
 30
0.0
 70
   128
 71
    11
 72
    12
 73
     6
  0
VERTEX
  5
8EE
  8
0
 10
0.0
 20
0.0
 30
0.0
 70
   128
 71
    12
 72
     1
 73
     2
  0
VERTEX
  5
8EF
  8
0
 10
0.0
 20
0.0
 30
0.0
 70
   128
 71
     3
 72
     5
 73
    12
  0
VERTEX
  5
8F0
  8
0
 10
0.0
 20
0.0
 30
0.0
 70
   128
 71
     2
 72
     3
 73
    12
  0
VERTEX
  5
8F1
  8
0
 10
0.0
 20
0.0
 30
0.0
 70
   128
 71
     3
 72
     4
 73
     5
  0
SEQEND
  5
D13
  8
0
  0
POLYLINE
  5
8F2
  8
0
 66
     1
 10
0.0
 20
0.0
 30
0.0
 70
    64
 71
     8
 72
     6
  0
VERTEX
  5
8F3
  8
0
 10
-359.0024504435741
 20
-25.0014075017233
 30
-157.4582728091518
 70
   192
  0
VERTEX
  5
8F4
  8
0
 10
358.9975495564299
 20
-25.00140750172343
 30
-157.4582728091518
 70
   192
  0
VERTEX
  5
8F5
  8
0
 10
358.9975495564299
 20
-28.66166153957058
 30
-153.7980187713102
 70
   192
  0
VERTEX
  5
8F6
  8
0
 10
-359.0024504435741
 20
-28.66166153957054
 30
-153.7980187713103
 70
   192
  0
VERTEX
  5
8F7
  8
0
 10
-359.002450443574
 20
-20.00140750172224
 30
-158.7980187713035
 70
   192
  0
VERTEX
  5
8F8
  8
0
 10
358.9975495564228
 20
-20.0014075017223
 30
-158.7980187713036
 70
   192
  0
VERTEX
  5
8F9
  8
0
 10
358.9975495564299
 20
-30.00140750173005
 30
-148.7980187713113
 70
   192
  0
VERTEX
  5
8FA
  8
0
 10
-359.002450443574
 20
-30.00140750173008
 30
-148.7980187713113
 70
   192
  0
VERTEX
  5
8FB
  8
0
 10
0.0
 20
0.0
 30
0.0
 70
   128
 71
     1
 72
     2
 73
    -3
  0
VERTEX
  5
8FC
  8
0
 10
0.0
 20
0.0
 30
0.0
 70
   128
 71
    -1
 72
     3
 73
     4
  0
VERTEX
  5
8FD
  8
0
 10
0.0
 20
0.0
 30
0.0
 70
   128
 71
     5
 72
     6
 73
    -2
  0
VERTEX
  5
8FE
  8
0
 10
0.0
 20
0.0
 30
0.0
 70
   128
 71
    -5
 72
     2
 73
     1
  0
VERTEX
  5
8FF
  8
0
 10
0.0
 20
0.0
 30
0.0
 70
   128
 71
     4
 72
     3
 73
    -7
  0
VERTEX
  5
900
  8
0
 10
0.0
 20
0.0
 30
0.0
 70
   128
 71
    -4
 72
     7
 73
     8
  0
SEQEND
  5
D14
  8
0
  0
POLYLINE
  5
901
  8
0
 66
     1
 10
0.0
 20
0.0
 30
0.0
 70
    64
 71
    12
 72
    10
  0
VERTEX
  5
902
  8
0
 10
-369.002450443574
 20
-30.00140750173774
 30
-138.7980187713115
 70
   192
  0
VERTEX
  5
903
  8
0
 10
-374.0024504435743
 20
-28.66166153958201
 30
-138.7980187713104
 70
   192
  0
VERTEX
  5
904
  8
0
 10
-377.6627044814188
 20
-25.00140750173722
 30
-138.7980187713075
 70
   192
  0
VERTEX
  5
905
  8
0
 10
-379.002450443574
 20
-20.00140750173679
 30
-138.7980187713036
 70
   192
  0
VERTEX
  5
906
  8
0
 10
-376.322431837561
 20
-20.00140750173011
 30
-148.7976352287371
 70
   192
  0
VERTEX
  5
907
  8
0
 10
-369.0020669010087
 20
-20.0014075017244
 30
-156.1180001652903
 70
   192
  0
VERTEX
  5
908
  8
0
 10
-359.0024504435717
 20
-20.00140750172224
 30
-158.7980187713012
 70
   192
  0
VERTEX
  5
909
  8
0
 10
-359.0024504435741
 20
-25.0014075017233
 30
-157.4582728091518
 70
   192
  0
VERTEX
  5
90A
  8
0
 10
-359.0024504435741
 20
-28.66166153957054
 30
-153.7980187713103
 70
   192
  0
VERTEX
  5
90B
  8
0
 10
-359.002450443574
 20
-30.00140750173005
 30
-148.7980187713113
 70
   192
  0
VERTEX
  5
90C
  8
0
 10
-364.0008723459023
 20
-30.00140750173111
 30
-147.4589277100063
 70
   192
  0
VERTEX
  5
90D
  8
0
 10
-367.6634703390429
 20
-30.00140750173396
 30
-143.7962696935745
 70
   192
  0
VERTEX
  5
90E
  8
0
 10
0.0
 20
0.0
 30
0.0
 70
   128
 71
     6
 72
     7
 73
     8
  0
VERTEX
  5
90F
  8
0
 10
0.0
 20
0.0
 30
0.0
 70
   128
 71
     9
 72
    11
 73
     6
  0
VERTEX
  5
910
  8
0
 10
0.0
 20
0.0
 30
0.0
 70
   128
 71
     8
 72
     9
 73
     6
  0
VERTEX
  5
911
  8
0
 10
0.0
 20
0.0
 30
0.0
 70
   128
 71
     9
 72
    10
 73
    11
  0
VERTEX
  5
912
  8
0
 10
0.0
 20
0.0
 30
0.0
 70
   128
 71
    12
 72
     5
 73
     6
  0
VERTEX
  5
913
  8
0
 10
0.0
 20
0.0
 30
0.0
 70
   128
 71
    11
 72
    12
 73
     6
  0
VERTEX
  5
914
  8
0
 10
0.0
 20
0.0
 30
0.0
 70
   128
 71
    12
 72
     1
 73
     2
  0
VERTEX
  5
915
  8
0
 10
0.0
 20
0.0
 30
0.0
 70
   128
 71
     3
 72
     5
 73
    12
  0
VERTEX
  5
916
  8
0
 10
0.0
 20
0.0
 30
0.0
 70
   128
 71
     2
 72
     3
 73
    12
  0
VERTEX
  5
917
  8
0
 10
0.0
 20
0.0
 30
0.0
 70
   128
 71
     3
 72
     4
 73
     5
  0
SEQEND
  5
D15
  8
0
  0
POLYLINE
  5
918
  8
0
 66
     1
 10
0.0
 20
0.0
 30
0.0
 70
    64
 71
     8
 72
     6
  0
VERTEX
  5
919
  8
0
 10
-377.6627044814184
 20
-25.00140750206297
 30
278.7817630034591
 70
   192
  0
VERTEX
  5
91A
  8
0
 10
-377.6627044814188
 20
-25.00140750173722
 30
-138.7980187713075
 70
   192
  0
VERTEX
  5
91B
  8
0
 10
-374.0024504435743
 20
-28.66166153958201
 30
-138.7980187713104
 70
   192
  0
VERTEX
  5
91C
  8
0
 10
-374.002450443574
 20
-28.66166153990736
 30
278.7817630034562
 70
   192
  0
VERTEX
  5
91D
  8
0
 10
-379.0024504435739
 20
-20.00140750206298
 30
278.7817630034652
 70
   192
  0
VERTEX
  5
91E
  8
0
 10
-379.002450443574
 20
-20.00140750173789
 30
-138.7980187713036
 70
   192
  0
VERTEX
  5
91F
  8
0
 10
-369.002450443574
 20
-30.00140750173774
 30
-138.7980187713115
 70
   192
  0
VERTEX
  5
920
  8
0
 10
-369.002450443574
 20
-30.00140750206294
 30
278.7817630034573
 70
   192
  0
VERTEX
  5
921
  8
0
 10
0.0
 20
0.0
 30
0.0
 70
   128
 71
     1
 72
     2
 73
    -3
  0
VERTEX
  5
922
  8
0
 10
0.0
 20
0.0
 30
0.0
 70
   128
 71
    -1
 72
     3
 73
     4
  0
VERTEX
  5
923
  8
0
 10
0.0
 20
0.0
 30
0.0
 70
   128
 71
     5
 72
     6
 73
    -2
  0
VERTEX
  5
924
  8
0
 10
0.0
 20
0.0
 30
0.0
 70
   128
 71
    -5
 72
     2
 73
     1
  0
VERTEX
  5
925
  8
0
 10
0.0
 20
0.0
 30
0.0
 70
   128
 71
     4
 72
     3
 73
    -7
  0
VERTEX
  5
926
  8
0
 10
0.0
 20
0.0
 30
0.0
 70
   128
 71
    -4
 72
     7
 73
     8
  0
SEQEND
  5
D16
  8
0
  0
POLYLINE
  5
927
  8
0
 66
     1
 10
0.0
 20
0.0
 30
0.0
 70
    64
 71
    12
 72
    10
  0
VERTEX
  5
928
  8
0
 10
-362.735169389237
 20
-30.00140748467805
 30
288.0589780351694
 70
   192
  0
VERTEX
  5
929
  8
0
 10
-364.6015298805418
 20
-28.6616615248529
 30
292.6975875713838
 70
   192
  0
VERTEX
  5
92A
  8
0
 10
-365.9678005854036
 20
-25.00140749337617
 30
296.0932854283679
 70
   192
  0
VERTEX
  5
92B
  8
0
 10
-366.4678903718116
 20
-20.00140750207724
 30
297.3361971076002
 70
   192
  0
VERTEX
  5
92C
  8
0
 10
-373.0482758282427
 20
-20.00140750207407
 30
293.0193000956085
 70
   192
  0
VERTEX
  5
92D
  8
0
 10
-377.4538401072357
 20
-20.00140750206896
 30
286.4979079390175
 70
   192
  0
VERTEX
  5
92E
  8
0
 10
-379.0024504435739
 20
-20.00140750206297
 30
278.7817630034651
 70
   192
  0
VERTEX
  5
92F
  8
0
 10
-377.6627044814184
 20
-25.00140750206297
 30
278.7817630034591
 70
   192
  0
VERTEX
  5
930
  8
0
 10
-374.002450443574
 20
-28.66166153990736
 30
278.7817630034562
 70
   192
  0
VERTEX
  5
931
  8
0
 10
-369.002450443574
 20
-30.00140750206298
 30
278.7817630034574
 70
   192
  0
VERTEX
  5
932
  8
0
 10
-368.2280974027914
 20
-30.00140750206596
 30
282.6397513352919
 70
   192
  0
VERTEX
  5
933
  8
0
 10
-366.0253009456325
 20
-30.00140750206848
 30
285.9005238839786
 70
   192
  0
VERTEX
  5
934
  8
0
 10
0.0
 20
0.0
 30
0.0
 70
   128
 71
     6
 72
     7
 73
     8
  0
VERTEX
  5
935
  8
0
 10
0.0
 20
0.0
 30
0.0
 70
   128
 71
     9
 72
    11
 73
     6
  0
VERTEX
  5
936
  8
0
 10
0.0
 20
0.0
 30
0.0
 70
   128
 71
     8
 72
     9
 73
     6
  0
VERTEX
  5
937
  8
0
 10
0.0
 20
0.0
 30
0.0
 70
   128
 71
     9
 72
    10
 73
    11
  0
VERTEX
  5
938
  8
0
 10
0.0
 20
0.0
 30
0.0
 70
   128
 71
    12
 72
     5
 73
     6
  0
VERTEX
  5
939
  8
0
 10
0.0
 20
0.0
 30
0.0
 70
   128
 71
    11
 72
    12
 73
     6
  0
VERTEX
  5
93A
  8
0
 10
0.0
 20
0.0
 30
0.0
 70
   128
 71
    12
 72
     1
 73
     2
  0
VERTEX
  5
93B
  8
0
 10
0.0
 20
0.0
 30
0.0
 70
   128
 71
     3
 72
     5
 73
    12
  0
VERTEX
  5
93C
  8
0
 10
0.0
 20
0.0
 30
0.0
 70
   128
 71
     2
 72
     3
 73
    12
  0
VERTEX
  5
93D
  8
0
 10
0.0
 20
0.0
 30
0.0
 70
   128
 71
     3
 72
     4
 73
     5
  0
SEQEND
  5
D17
  8
0
  0
POLYLINE
  5
93E
  8
0
 66
     1
 10
0.0
 20
0.0
 30
0.0
 70
    64
 71
    12
 72
    10
  0
VERTEX
  5
93F
  8
0
 10
-362.735169389237
 20
-30.00140749859176
 30
288.0589780351694
 70
   192
  0
VERTEX
  5
940
  8
0
 10
-356.2700925181653
 20
-30.00140750104154
 30
290.6360071079457
 70
   192
  0
VERTEX
  5
941
  8
0
 10
-349.7934954735857
 20
-30.00140750194534
 30
293.1691714124059
 70
   192
  0
VERTEX
  5
942
  8
0
 10
-343.3053782497429
 20
-30.00140750207614
 30
295.6584709334025
 70
   192
  0
VERTEX
  5
943
  8
0
 10
-344.1854777941804
 20
-28.67846966482282
 30
300.6408508793677
 70
   192
  0
VERTEX
  5
944
  8
0
 10
-344.8304057720169
 20
-25.0700409094019
 30
304.2992175978932
 70
   192
  0
VERTEX
  5
945
  8
0
 10
-345.073019978691
 20
-20.0014075020839
 30
305.6824802906845
 70
   192
  0
VERTEX
  5
946
  8
0
 10
-352.2243932321825
 20
-20.00140750208176
 30
302.9507964941087
 70
   192
  0
VERTEX
  5
947
  8
0
 10
-359.3561156862741
 20
-20.00140750207956
 30
300.1686100838152
 70
   192
  0
VERTEX
  5
948
  8
0
 10
-366.4678912176968
 20
-20.00140750207724
 30
297.3361992099243
 70
   192
  0
VERTEX
  5
949
  8
0
 10
-365.9678005854036
 20
-25.00140749337617
 30
296.0932854283679
 70
   192
  0
VERTEX
  5
94A
  8
0
 10
-364.6015298805418
 20
-28.6616615248529
 30
292.6975875713838
 70
   192
  0
VERTEX
  5
94B
  8
0
 10
0.0
 20
0.0
 30
0.0
 70
   128
 71
     6
 72
     7
 73
     8
  0
VERTEX
  5
94C
  8
0
 10
0.0
 20
0.0
 30
0.0
 70
   128
 71
     9
 72
    11
 73
     6
  0
VERTEX
  5
94D
  8
0
 10
0.0
 20
0.0
 30
0.0
 70
   128
 71
     8
 72
     9
 73
     6
  0
VERTEX
  5
94E
  8
0
 10
0.0
 20
0.0
 30
0.0
 70
   128
 71
     9
 72
    10
 73
    11
  0
VERTEX
  5
94F
  8
0
 10
0.0
 20
0.0
 30
0.0
 70
   128
 71
    12
 72
     5
 73
     6
  0
VERTEX
  5
950
  8
0
 10
0.0
 20
0.0
 30
0.0
 70
   128
 71
    11
 72
    12
 73
     6
  0
VERTEX
  5
951
  8
0
 10
0.0
 20
0.0
 30
0.0
 70
   128
 71
    12
 72
     1
 73
     2
  0
VERTEX
  5
952
  8
0
 10
0.0
 20
0.0
 30
0.0
 70
   128
 71
     3
 72
     5
 73
    12
  0
VERTEX
  5
953
  8
0
 10
0.0
 20
0.0
 30
0.0
 70
   128
 71
     2
 72
     3
 73
    12
  0
VERTEX
  5
954
  8
0
 10
0.0
 20
0.0
 30
0.0
 70
   128
 71
     3
 72
     4
 73
     5
  0
SEQEND
  5
D18
  8
0
  0
POLYLINE
  5
955
  8
0
 66
     1
 10
0.0
 20
0.0
 30
0.0
 70
    64
 71
     8
 72
     6
  0
VERTEX
  5
956
  8
0
 10
-339.0106699711216
 20
-27.56187036304491
 30
289.566194271685
 70
   192
  0
VERTEX
  5
957
  8
0
 10
-338.975251180149
 20
-27.50140745508906
 30
295.6584708714366
 70
   192
  0
VERTEX
  5
958
  8
0
 10
-340.8053782129004
 20
-29.33153451332029
 30
295.6584708714351
 70
   192
  0
VERTEX
  5
959
  8
0
 10
-338.3053782262004
 20
-25.00140740890855
 30
289.8276366945238
 70
   192
  0
VERTEX
  5
95A
  8
0
 10
-338.3053782261991
 20
-25.00140740892025
 30
295.6584708714392
 70
   192
  0
VERTEX
  5
95B
  8
0
 10
-340.8657454201833
 20
-29.36588094079966
 30
288.8758651144149
 70
   192
  0
VERTEX
  5
95C
  8
0
 10
-343.3053782497429
 20
-30.00140750207614
 30
295.6584708714353
 70
   192
  0
VERTEX
  5
95D
  8
0
 10
-343.305378226199
 20
-30.00140750207009
 30
287.9620956877516
 70
   192
  0
VERTEX
  5
95E
  8
0
 10
0.0
 20
0.0
 30
0.0
 70
   128
 71
     1
 72
     2
 73
     3
  0
VERTEX
  5
95F
  8
0
 10
0.0
 20
0.0
 30
0.0
 70
   128
 71
     4
 72
     5
 73
     2
  0
VERTEX
  5
960
  8
0
 10
0.0
 20
0.0
 30
0.0
 70
   128
 71
     4
 72
     2
 73
     1
  0
VERTEX
  5
961
  8
0
 10
0.0
 20
0.0
 30
0.0
 70
   128
 71
     1
 72
     3
 73
     6
  0
VERTEX
  5
962
  8
0
 10
0.0
 20
0.0
 30
0.0
 70
   128
 71
     6
 72
     3
 73
     7
  0
VERTEX
  5
963
  8
0
 10
0.0
 20
0.0
 30
0.0
 70
   128
 71
     6
 72
     7
 73
     8
  0
SEQEND
  5
D19
  8
0
  0
POLYLINE
  5
964
  8
0
 66
     1
 10
0.0
 20
0.0
 30
0.0
 70
    64
 71
    14
 72
    12
  0
VERTEX
  5
965
  8
0
 10
44.99754955642965
 20
-25.00140750184443
 30
-1.899057828622985
 70
   192
  0
VERTEX
  5
966
  8
0
 10
44.99754955642998
 20
-0.001407501844465
 30
-1.899057828603508
 70
   192
  0
VERTEX
  5
967
  8
0
 10
38.96857185944783
 20
-0.0014075018269143
 30
-24.39899220284004
 70
   192
  0
VERTEX
  5
968
  8
0
 10
38.96866797001781
 20
-25.00140750182691
 30
-24.39905500358455
 70
   192
  0
VERTEX
  5
969
  8
0
 10
-0.0024504435700567
 20
-0.0014075018093807
 30
-46.8990578286035
 70
   192
  0
VERTEX
  5
96A
  8
0
 10
-0.0024504435700567
 20
-25.0014075018094
 30
-46.89905782862296
 70
   192
  0
VERTEX
  5
96B
  8
0
 10
22.49749586961067
 20
-25.00140750181411
 30
-40.86994682620573
 70
   192
  0
VERTEX
  5
96C
  8
0
 10
22.49748393066644
 20
-0.0014075018140909
 30
-40.87008013162141
 70
   192
  0
VERTEX
  5
96D
  8
0
 10
-22.50238481780656
 20
-0.0014075018140918
 30
-40.87008013162139
 70
   192
  0
VERTEX
  5
96E
  8
0
 10
-22.50244761853552
 20
-25.00140750181412
 30
-40.87017624221647
 70
   192
  0
VERTEX
  5
96F
  8
0
 10
-45.0024504435701
 20
-0.001407501844465
 30
-1.899057828603513
 70
   192
  0
VERTEX
  5
970
  8
0
 10
-45.0024504435701
 20
-25.00140750184443
 30
-1.899057828622977
 70
   192
  0
VERTEX
  5
971
  8
0
 10
-38.97333944115407
 20
-25.00140750182691
 30
-24.39900414181024
 70
   192
  0
VERTEX
  5
972
  8
0
 10
-38.97347274658796
 20
-0.0014075018269158
 30
-24.39899220284001
 70
   192
  0
VERTEX
  5
973
  8
0
 10
0.0
 20
0.0
 30
0.0
 70
   128
 71
     1
 72
     2
 73
     3
  0
VERTEX
  5
974
  8
0
 10
0.0
 20
0.0
 30
0.0
 70
   128
 71
     4
 72
     1
 73
     3
  0
VERTEX
  5
975
  8
0
 10
0.0
 20
0.0
 30
0.0
 70
   128
 71
     5
 72
     6
 73
     7
  0
VERTEX
  5
976
  8
0
 10
0.0
 20
0.0
 30
0.0
 70
   128
 71
     8
 72
     5
 73
     7
  0
VERTEX
  5
977
  8
0
 10
0.0
 20
0.0
 30
0.0
 70
   128
 71
     6
 72
     5
 73
     9
  0
VERTEX
  5
978
  8
0
 10
0.0
 20
0.0
 30
0.0
 70
   128
 71
    10
 72
     6
 73
     9
  0
VERTEX
  5
979
  8
0
 10
0.0
 20
0.0
 30
0.0
 70
   128
 71
    11
 72
    12
 73
    13
  0
VERTEX
  5
97A
  8
0
 10
0.0
 20
0.0
 30
0.0
 70
   128
 71
    14
 72
    11
 73
    13
  0
VERTEX
  5
97B
  8
0
 10
0.0
 20
0.0
 30
0.0
 70
   128
 71
     7
 72
     4
 73
     3
  0
VERTEX
  5
97C
  8
0
 10
0.0
 20
0.0
 30
0.0
 70
   128
 71
     8
 72
     7
 73
     3
  0
VERTEX
  5
97D
  8
0
 10
0.0
 20
0.0
 30
0.0
 70
   128
 71
    13
 72
    10
 73
     9
  0
VERTEX
  5
97E
  8
0
 10
0.0
 20
0.0
 30
0.0
 70
   128
 71
    14
 72
    13
 73
     9
  0
SEQEND
  5
D1A
  8
0
  0
POLYLINE
  5
97F
  8
0
 66
     1
 10
0.0
 20
0.0
 30
0.0
 70
    64
 71
    11
 72
     9
  0
VERTEX
  5
980
  8
0
 10
-338.3053813138012
 20
140.7210000776053
 30
289.8275986488902
 70
   192
  0
VERTEX
  5
981
  8
0
 10
-338.3053813138011
 20
140.7209982031632
 30
301.00529065019
 70
   192
  0
VERTEX
  5
982
  8
0
 10
-338.305378319355
 20
-20.00140740892436
 30
301.0052894414271
 70
   192
  0
VERTEX
  5
983
  8
0
 10
-338.3053784812595
 20
-20.00140740892436
 30
301.0052915376244
 70
   192
  0
VERTEX
  5
984
  8
0
 10
-338.3053782716078
 20
-22.56416293644945
 30
300.2498797736311
 70
   192
  0
VERTEX
  5
985
  8
0
 10
-338.3053782380346
 20
-24.36616233224395
 30
298.2673362017029
 70
   192
  0
VERTEX
  5
986
  8
0
 10
-338.3053782261991
 20
-25.00140740892021
 30
295.6584708714392
 70
   192
  0
VERTEX
  5
987
  8
0
 10
-338.3053782261991
 20
-25.00140740891572
 30
289.8276366945238
 70
   192
  0
VERTEX
  5
988
  8
0
 10
-338.3053792553998
 20
30.2393948257657
 30
289.8276240126464
 70
   192
  0
VERTEX
  5
989
  8
0
 10
-338.3053802846005
 20
85.4801970604328
 30
289.8276113307683
 70
   192
  0
VERTEX
  5
98A
  8
0
 10
-338.3053813138013
 20
140.7209996863526
 30
289.8275986488902
 70
   192
  0
VERTEX
  5
98B
  8
0
 10
0.0
 20
0.0
 30
0.0
 70
   128
 71
     8
 72
    -9
 73
    -3
  0
VERTEX
  5
98C
  8
0
 10
0.0
 20
0.0
 30
0.0
 70
   128
 71
     7
 72
    -8
 73
    -3
  0
VERTEX
  5
98D
  8
0
 10
0.0
 20
0.0
 30
0.0
 70
   128
 71
     6
 72
    -7
 73
    -3
  0
VERTEX
  5
98E
  8
0
 10
0.0
 20
0.0
 30
0.0
 70
   128
 71
     5
 72
    -6
 73
    -3
  0
VERTEX
  5
98F
  8
0
 10
0.0
 20
0.0
 30
0.0
 70
   128
 71
     3
 72
     4
 73
    -5
  0
VERTEX
  5
990
  8
0
 10
0.0
 20
0.0
 30
0.0
 70
   128
 71
   -10
 72
     2
 73
    -3
  0
VERTEX
  5
991
  8
0
 10
0.0
 20
0.0
 30
0.0
 70
   128
 71
     9
 72
   -10
 73
    -3
  0
VERTEX
  5
992
  8
0
 10
0.0
 20
0.0
 30
0.0
 70
   128
 71
    10
 72
   -11
 73
    -2
  0
VERTEX
  5
993
  8
0
 10
0.0
 20
0.0
 30
0.0
 70
   128
 71
    11
 72
     1
 73
    -2
  0
SEQEND
  5
D1B
  8
0
  0
POLYLINE
  5
994
  8
0
 66
     1
 10
0.0
 20
0.0
 30
0.0
 70
    64
 71
     9
 72
     7
  0
VERTEX
  5
995
  8
0
 10
-338.3053813138011
 20
140.7209992950891
 30
301.0052906501902
 70
   192
  0
VERTEX
  5
996
  8
0
 10
-338.3053813138011
 20
140.7209982031632
 30
301.00529065019
 70
   192
  0
VERTEX
  5
997
  8
0
 10
-338.3053813138013
 20
140.7209996863526
 30
289.8275986488902
 70
   192
  0
VERTEX
  5
998
  8
0
 10
-332.3985664613076
 20
162.1985033886065
 30
291.9952276603421
 70
   192
  0
VERTEX
  5
999
  8
0
 10
-332.4294976089774
 20
162.1464107025907
 30
303.4656708868329
 70
   192
  0
VERTEX
  5
99A
  8
0
 10
-317.0772233901951
 20
177.2248446062223
 30
309.6645206646895
 70
   192
  0
VERTEX
  5
99B
  8
0
 10
-316.9072813753559
 20
177.3214423912306
 30
297.4947504468332
 70
   192
  0
VERTEX
  5
99C
  8
0
 10
-296.3053853947761
 20
182.7210000775848
 30
317.5265044300009
 70
   192
  0
VERTEX
  5
99D
  8
0
 10
-296.3053853947759
 20
182.7210000775951
 30
304.396552342117
 70
   192
  0
VERTEX
  5
99E
  8
0
 10
0.0
 20
0.0
 30
0.0
 70
   128
 71
     1
 72
     2
 73
     3
  0
VERTEX
  5
99F
  8
0
 10
0.0
 20
0.0
 30
0.0
 70
   128
 71
     4
 72
     5
 73
     1
  0
VERTEX
  5
9A0
  8
0
 10
0.0
 20
0.0
 30
0.0
 70
   128
 71
     4
 72
     1
 73
     3
  0
VERTEX
  5
9A1
  8
0
 10
0.0
 20
0.0
 30
0.0
 70
   128
 71
     6
 72
     5
 73
     4
  0
VERTEX
  5
9A2
  8
0
 10
0.0
 20
0.0
 30
0.0
 70
   128
 71
     7
 72
     6
 73
     4
  0
VERTEX
  5
9A3
  8
0
 10
0.0
 20
0.0
 30
0.0
 70
   128
 71
     8
 72
     6
 73
     7
  0
VERTEX
  5
9A4
  8
0
 10
0.0
 20
0.0
 30
0.0
 70
   128
 71
     9
 72
     8
 73
     7
  0
SEQEND
  5
D1C
  8
0
  0
POLYLINE
  5
9A5
  8
0
 66
     1
 10
0.0
 20
0.0
 30
0.0
 70
    64
 71
    13
 72
    11
  0
VERTEX
  5
9A6
  8
0
 10
296.3004960008513
 20
182.7210000775868
 30
317.5265041163353
 70
   192
  0
VERTEX
  5
9A7
  8
0
 10
199.3423310916509
 20
182.7210000775635
 30
343.9549875040693
 70
   192
  0
VERTEX
  5
9A8
  8
0
 10
100.2433484987556
 20
182.7210000775507
 30
360.48212867509
 70
   192
  0
VERTEX
  5
9A9
  8
0
 10
-0.0024507324500878
 20
182.721009350457
 30
366.2019811478089
 70
   192
  0
VERTEX
  5
9AA
  8
0
 10
-100.2485445102544
 20
182.7210000775512
 30
360.4820064055504
 70
   192
  0
VERTEX
  5
9AB
  8
0
 10
-199.3469152309703
 20
182.7210000775641
 30
343.9550215995073
 70
   192
  0
VERTEX
  5
9AC
  8
0
 10
-296.3053834902927
 20
182.7210000775864
 30
317.5265044300009
 70
   192
  0
VERTEX
  5
9AD
  8
0
 10
-296.3053853947761
 20
182.7210000775848
 30
317.5265044300009
 70
   192
  0
VERTEX
  5
9AE
  8
0
 10
-296.3053853947761
 20
182.7210000775951
 30
304.396552342117
 70
   192
  0
VERTEX
  5
9AF
  8
0
 10
-99.91864988988435
 20
182.7210000775615
 30
347.1643695915803
 70
   192
  0
VERTEX
  5
9B0
  8
0
 10
100.8740170396756
 20
182.7210000775613
 30
347.0562778337751
 70
   192
  0
VERTEX
  5
9B1
  8
0
 10
296.3004977178596
 20
182.7210000775939
 30
304.3965521235908
 70
   192
  0
VERTEX
  5
9B2
  8
0
 10
296.3004977178598
 20
182.7210000775839
 30
317.5265041163353
 70
   192
  0
VERTEX
  5
9B3
  8
0
 10
0.0
 20
0.0
 30
0.0
 70
   128
 71
    12
 72
    13
 73
    -1
  0
VERTEX
  5
9B4
  8
0
 10
0.0
 20
0.0
 30
0.0
 70
   128
 71
     5
 72
     6
 73
    -7
  0
VERTEX
  5
9B5
  8
0
 10
0.0
 20
0.0
 30
0.0
 70
   128
 71
   -10
 72
    -5
 73
    -7
  0
VERTEX
  5
9B6
  8
0
 10
0.0
 20
0.0
 30
0.0
 70
   128
 71
     9
 72
   -10
 73
    -7
  0
VERTEX
  5
9B7
  8
0
 10
0.0
 20
0.0
 30
0.0
 70
   128
 71
     7
 72
     8
 73
    -9
  0
VERTEX
  5
9B8
  8
0
 10
0.0
 20
0.0
 30
0.0
 70
   128
 71
     3
 72
     4
 73
    -5
  0
VERTEX
  5
9B9
  8
0
 10
0.0
 20
0.0
 30
0.0
 70
   128
 71
   -11
 72
    -3
 73
    -5
  0
VERTEX
  5
9BA
  8
0
 10
0.0
 20
0.0
 30
0.0
 70
   128
 71
    10
 72
   -11
 73
    -5
  0
VERTEX
  5
9BB
  8
0
 10
0.0
 20
0.0
 30
0.0
 70
   128
 71
     1
 72
     2
 73
    -3
  0
VERTEX
  5
9BC
  8
0
 10
0.0
 20
0.0
 30
0.0
 70
   128
 71
   -12
 72
    -1
 73
    -3
  0
VERTEX
  5
9BD
  8
0
 10
0.0
 20
0.0
 30
0.0
 70
   128
 71
    11
 72
   -12
 73
    -3
  0
SEQEND
  5
D1D
  8
0
  0
POLYLINE
  5
9BE
  8
0
 66
     1
 10
0.0
 20
0.0
 30
0.0
 70
    64
 71
     8
 72
     6
  0
VERTEX
  5
9BF
  8
0
 10
317.0720510933349
 20
177.2250261666883
 30
309.6646306179763
 70
   192
  0
VERTEX
  5
9C0
  8
0
 10
296.3004960008513
 20
182.7210000775868
 30
317.5265041163353
 70
   192
  0
VERTEX
  5
9C1
  8
0
 10
296.3004977178596
 20
182.7210000775939
 30
304.3965521235908
 70
   192
  0
VERTEX
  5
9C2
  8
0
 10
316.9193235547823
 20
177.3119203579715
 30
297.4888820221461
 70
   192
  0
VERTEX
  5
9C3
  8
0
 10
332.4454469925379
 20
162.1112387567612
 30
303.4572524647879
 70
   192
  0
VERTEX
  5
9C4
  8
0
 10
332.4307506516619
 20
162.1368570721878
 30
291.981756450637
 70
   192
  0
VERTEX
  5
9C5
  8
0
 10
338.3004936368836
 20
140.7209993894437
 30
301.0052856576753
 70
   192
  0
VERTEX
  5
9C6
  8
0
 10
338.3004936368829
 20
140.7209993894543
 30
289.8275926239542
 70
   192
  0
VERTEX
  5
9C7
  8
0
 10
0.0
 20
0.0
 30
0.0
 70
   128
 71
     1
 72
     2
 73
     3
  0
VERTEX
  5
9C8
  8
0
 10
0.0
 20
0.0
 30
0.0
 70
   128
 71
     4
 72
     1
 73
     3
  0
VERTEX
  5
9C9
  8
0
 10
0.0
 20
0.0
 30
0.0
 70
   128
 71
     5
 72
     1
 73
     4
  0
VERTEX
  5
9CA
  8
0
 10
0.0
 20
0.0
 30
0.0
 70
   128
 71
     6
 72
     5
 73
     4
  0
VERTEX
  5
9CB
  8
0
 10
0.0
 20
0.0
 30
0.0
 70
   128
 71
     7
 72
     5
 73
     6
  0
VERTEX
  5
9CC
  8
0
 10
0.0
 20
0.0
 30
0.0
 70
   128
 71
     8
 72
     7
 73
     6
  0
SEQEND
  5
D1E
  8
0
  0
POLYLINE
  5
9CD
  8
0
 66
     1
 10
0.0
 20
0.0
 30
0.0
 70
    64
 71
    10
 72
     8
  0
VERTEX
  5
9CE
  8
0
 10
338.3004936368829
 20
140.7209993894543
 30
289.8275926239542
 70
   192
  0
VERTEX
  5
9CF
  8
0
 10
338.3004927317833
 20
85.48019711959226
 30
289.8276089773216
 70
   192
  0
VERTEX
  5
9D0
  8
0
 10
338.3004918266872
 20
30.23939484972881
 30
289.8276216132545
 70
   192
  0
VERTEX
  5
9D1
  8
0
 10
338.3004909215896
 20
-25.00140742014178
 30
289.8276342491773
 70
   192
  0
VERTEX
  5
9D2
  8
0
 10
338.3004909215899
 20
-25.00140742015344
 30
295.6584657107173
 70
   192
  0
VERTEX
  5
9D3
  8
0
 10
338.3004909319932
 20
-24.36646424928904
 30
298.2668271931076
 70
   192
  0
VERTEX
  5
9D4
  8
0
 10
338.3004909615205
 20
-22.56432086882809
 30
300.2498360831637
 70
   192
  0
VERTEX
  5
9D5
  8
0
 10
338.3004911654079
 20
-20.00140742015727
 30
301.0052864549928
 70
   192
  0
VERTEX
  5
9D6
  8
0
 10
338.3004910035128
 20
-20.00140742015725
 30
301.0052844050822
 70
   192
  0
VERTEX
  5
9D7
  8
0
 10
338.3004936368801
 20
140.7209993894437
 30
301.0052856576754
 70
   192
  0
VERTEX
  5
9D8
  8
0
 10
0.0
 20
0.0
 30
0.0
 70
   128
 71
     7
 72
     8
 73
    -9
  0
VERTEX
  5
9D9
  8
0
 10
0.0
 20
0.0
 30
0.0
 70
   128
 71
    10
 72
     1
 73
    -2
  0
VERTEX
  5
9DA
  8
0
 10
0.0
 20
0.0
 30
0.0
 70
   128
 71
    -3
 72
     9
 73
   -10
  0
VERTEX
  5
9DB
  8
0
 10
0.0
 20
0.0
 30
0.0
 70
   128
 71
     2
 72
    -3
 73
   -10
  0
VERTEX
  5
9DC
  8
0
 10
0.0
 20
0.0
 30
0.0
 70
   128
 71
     6
 72
    -7
 73
    -9
  0
VERTEX
  5
9DD
  8
0
 10
0.0
 20
0.0
 30
0.0
 70
   128
 71
     5
 72
    -6
 73
    -9
  0
VERTEX
  5
9DE
  8
0
 10
0.0
 20
0.0
 30
0.0
 70
   128
 71
     4
 72
    -5
 73
    -9
  0
VERTEX
  5
9DF
  8
0
 10
0.0
 20
0.0
 30
0.0
 70
   128
 71
     3
 72
    -4
 73
    -9
  0
SEQEND
  5
D1F
  8
0
  0
POLYLINE
  5
9E0
  8
0
 66
     1
 10
0.0
 20
0.0
 30
0.0
 70
    64
 71
    14
 72
    12
  0
VERTEX
  5
9E1
  8
0
 10
345.0681099381511
 20
-20.00140750208389
 30
305.6824136369378
 70
   192
  0
VERTEX
  5
9E2
  8
0
 10
341.9057025673687
 20
-20.00140746717703
 30
305.8068047310134
 70
   192
  0
VERTEX
  5
9E3
  8
0
 10
339.3021193030648
 20
-20.00140743565888
 30
304.0074582638479
 70
   192
  0
VERTEX
  5
9E4
  8
0
 10
338.300491651099
 20
-20.00140742015725
 30
301.0052864549932
 70
   192
  0
VERTEX
  5
9E5
  8
0
 10
338.3004909615205
 20
-22.56432086882809
 30
300.2498360831637
 70
   192
  0
VERTEX
  5
9E6
  8
0
 10
338.3004909319932
 20
-24.36646424928904
 30
298.2668271931076
 70
   192
  0
VERTEX
  5
9E7
  8
0
 10
338.3004909215908
 20
-25.00140742015344
 30
295.6584657107173
 70
   192
  0
VERTEX
  5
9E8
  8
0
 10
338.9703638792848
 20
-27.50140746157597
 30
295.6584657107152
 70
   192
  0
VERTEX
  5
9E9
  8
0
 10
340.8004909115337
 20
-29.3315345151956
 30
295.6584657107135
 70
   192
  0
VERTEX
  5
9EA
  8
0
 10
343.300490945134
 20
-30.00140750207991
 30
295.6584657107123
 70
   192
  0
VERTEX
  5
9EB
  8
0
 10
343.300490945134
 20
-30.00140750207675
 30
295.6584657726795
 70
   192
  0
VERTEX
  5
9EC
  8
0
 10
344.1738218893355
 20
-28.70241742484483
 30
300.5987264896775
 70
   192
  0
VERTEX
  5
9ED
  8
0
 10
344.8254696405537
 20
-25.07037369362766
 30
304.2989577085556
 70
   192
  0
VERTEX
  5
9EE
  8
0
 10
345.0681331194785
 20
-20.0014075020839
 30
305.6824749746881
 70
   192
  0
VERTEX
  5
9EF
  8
0
 10
0.0
 20
0.0
 30
0.0
 70
   128
 71
    11
 72
     7
 73
     8
  0
VERTEX
  5
9F0
  8
0
 10
0.0
 20
0.0
 30
0.0
 70
   128
 71
     8
 72
     9
 73
    11
  0
VERTEX
  5
9F1
  8
0
 10
0.0
 20
0.0
 30
0.0
 70
   128
 71
     9
 72
    10
 73
    11
  0
VERTEX
  5
9F2
  8
0
 10
0.0
 20
0.0
 30
0.0
 70
   128
 71
    12
 72
     6
 73
     7
  0
VERTEX
  5
9F3
  8
0
 10
0.0
 20
0.0
 30
0.0
 70
   128
 71
    11
 72
    12
 73
     7
  0
VERTEX
  5
9F4
  8
0
 10
0.0
 20
0.0
 30
0.0
 70
   128
 71
    13
 72
     5
 73
     6
  0
VERTEX
  5
9F5
  8
0
 10
0.0
 20
0.0
 30
0.0
 70
   128
 71
    12
 72
    13
 73
     6
  0
VERTEX
  5
9F6
  8
0
 10
0.0
 20
0.0
 30
0.0
 70
   128
 71
    14
 72
     4
 73
     5
  0
VERTEX
  5
9F7
  8
0
 10
0.0
 20
0.0
 30
0.0
 70
   128
 71
    13
 72
    14
 73
     5
  0
VERTEX
  5
9F8
  8
0
 10
0.0
 20
0.0
 30
0.0
 70
   128
 71
    14
 72
     1
 73
    -2
  0
VERTEX
  5
9F9
  8
0
 10
0.0
 20
0.0
 30
0.0
 70
   128
 71
     2
 72
    -3
 73
   -14
  0
VERTEX
  5
9FA
  8
0
 10
0.0
 20
0.0
 30
0.0
 70
   128
 71
     3
 72
     4
 73
   -14
  0
SEQEND
  5
D20
  8
0
  0
POLYLINE
  5
9FB
  8
0
 66
     1
 10
0.0
 20
0.0
 30
0.0
 70
    64
 71
    30
 72
    28
  0
VERTEX
  5
9FC
  8
0
 10
-345.072997129487
 20
-20.00140750208391
 30
305.6824195052661
 70
   192
  0
VERTEX
  5
9FD
  8
0
 10
-345.072997129487
 20
140.7209992019301
 30
305.6824195053912
 70
   192
  0
VERTEX
  5
9FE
  8
0
 10
-345.0729993678621
 20
140.7209992019301
 30
305.6824186594461
 70
   192
  0
VERTEX
  5
9FF
  8
0
 10
-366.4679072296124
 20
218.9985924979226
 30
297.336239005285
 70
   192
  0
VERTEX
  5
A00
  8
0
 10
-366.4678920679171
 20
-20.00140750207724
 30
297.3362013230031
 70
   192
  0
VERTEX
  5
A01
  8
0
 10
-359.3561156862741
 20
-20.00140750207956
 30
300.1686100838152
 70
   192
  0
VERTEX
  5
A02
  8
0
 10
-352.2243932321825
 20
-20.00140750208176
 30
302.9507964941087
 70
   192
  0
VERTEX
  5
A03
  8
0
 10
-125.0418166029776
 20
218.998592497872
 30
362.3934778284531
 70
   192
  0
VERTEX
  5
A04
  8
0
 10
-100.7917177965606
 20
187.7210014533853
 30
365.4524286567006
 70
   192
  0
VERTEX
  5
A05
  8
0
 10
-0.0024506751556963
 20
187.7210047151969
 30
371.2019812288584
 70
   192
  0
VERTEX
  5
A06
  8
0
 10
-0.0024504435700567
 20
218.9985924978651
 30
371.2019812288822
 70
   192
  0
VERTEX
  5
A07
  8
0
 10
-247.9180223393413
 20
218.9985924978916
 30
337.1703650450023
 70
   192
  0
VERTEX
  5
A08
  8
0
 10
-200.4515224490276
 20
187.7210002517066
 30
348.8315816068089
 70
   192
  0
VERTEX
  5
A09
  8
0
 10
-338.4645097439832
 20
164.7022219996851
 30
308.1552891907048
 70
   192
  0
VERTEX
  5
A0A
  8
0
 10
-321.0314311453761
 20
181.6698947844468
 30
314.4433899158315
 70
   192
  0
VERTEX
  5
A0B
  8
0
 10
-297.852402009225
 20
187.7210000801387
 30
322.2811560790536
 70
   192
  0
VERTEX
  5
A0C
  8
0
 10
125.036915645643
 20
218.9985924978719
 30
362.3934776539989
 70
   192
  0
VERTEX
  5
A0D
  8
0
 10
100.7868213953432
 20
187.7210077507047
 30
365.4524282025108
 70
   192
  0
VERTEX
  5
A0E
  8
0
 10
200.4466307638463
 20
187.7210073682178
 30
348.8315801388015
 70
   192
  0
VERTEX
  5
A0F
  8
0
 10
247.9131208906537
 20
218.998592497891
 30
337.1703636493692
 70
   192
  0
VERTEX
  5
A10
  8
0
 10
297.847514882748
 20
187.7210032398787
 30
322.2811535607296
 70
   192
  0
VERTEX
  5
A11
  8
0
 10
366.46299118077
 20
218.9985924979206
 30
297.3362013231892
 70
   192
  0
VERTEX
  5
A12
  8
0
 10
321.026343019586
 20
181.6699572516896
 30
314.4434553426897
 70
   192
  0
VERTEX
  5
A13
  8
0
 10
338.4601557385368
 20
164.7011953868483
 30
308.1550877164107
 70
   192
  0
VERTEX
  5
A14
  8
0
 10
345.0681117675152
 20
140.7209993075171
 30
305.6824136379926
 70
   192
  0
VERTEX
  5
A15
  8
0
 10
352.2195014930835
 20
-20.00140750208177
 30
302.9507929594072
 70
   192
  0
VERTEX
  5
A16
  8
0
 10
345.0681116572794
 20
-20.00140750208391
 30
305.682413679527
 70
   192
  0
VERTEX
  5
A17
  8
0
 10
345.0681116572794
 20
140.7209993075171
 30
305.6824136796521
 70
   192
  0
VERTEX
  5
A18
  8
0
 10
359.3512193068725
 20
-20.00140750207961
 30
300.1686083066592
 70
   192
  0
VERTEX
  5
A19
  8
0
 10
366.4629903305499
 20
-20.00140750207741
 30
297.3361992099283
 70
   192
  0
VERTEX
  5
A1A
  8
0
 10
0.0
 20
0.0
 30
0.0
 70
   128
 71
     1
 72
     2
 73
     3
  0
VERTEX
  5
A1B
  8
0
 10
0.0
 20
0.0
 30
0.0
 70
   128
 71
     4
 72
     5
 73
     6
  0
VERTEX
  5
A1C
  8
0
 10
0.0
 20
0.0
 30
0.0
 70
   128
 71
     3
 72
     4
 73
     6
  0
VERTEX
  5
A1D
  8
0
 10
0.0
 20
0.0
 30
0.0
 70
   128
 71
     6
 72
     7
 73
     3
  0
VERTEX
  5
A1E
  8
0
 10
0.0
 20
0.0
 30
0.0
 70
   128
 71
     7
 72
     1
 73
     3
  0
VERTEX
  5
A1F
  8
0
 10
0.0
 20
0.0
 30
0.0
 70
   128
 71
     8
 72
     9
 73
    10
  0
VERTEX
  5
A20
  8
0
 10
0.0
 20
0.0
 30
0.0
 70
   128
 71
    11
 72
     8
 73
    10
  0
VERTEX
  5
A21
  8
0
 10
0.0
 20
0.0
 30
0.0
 70
   128
 71
    12
 72
    13
 73
     9
  0
VERTEX
  5
A22
  8
0
 10
0.0
 20
0.0
 30
0.0
 70
   128
 71
     8
 72
    12
 73
     9
  0
VERTEX
  5
A23
  8
0
 10
0.0
 20
0.0
 30
0.0
 70
   128
 71
     4
 72
     3
 73
    14
  0
VERTEX
  5
A24
  8
0
 10
0.0
 20
0.0
 30
0.0
 70
   128
 71
    14
 72
    15
 73
     4
  0
VERTEX
  5
A25
  8
0
 10
0.0
 20
0.0
 30
0.0
 70
   128
 71
    15
 72
    16
 73
     4
  0
VERTEX
  5
A26
  8
0
 10
0.0
 20
0.0
 30
0.0
 70
   128
 71
    13
 72
    12
 73
     4
  0
VERTEX
  5
A27
  8
0
 10
0.0
 20
0.0
 30
0.0
 70
   128
 71
    16
 72
    13
 73
     4
  0
VERTEX
  5
A28
  8
0
 10
0.0
 20
0.0
 30
0.0
 70
   128
 71
    17
 72
    11
 73
    18
  0
VERTEX
  5
A29
  8
0
 10
0.0
 20
0.0
 30
0.0
 70
   128
 71
    19
 72
    20
 73
    17
  0
VERTEX
  5
A2A
  8
0
 10
0.0
 20
0.0
 30
0.0
 70
   128
 71
    18
 72
    19
 73
    17
  0
VERTEX
  5
A2B
  8
0
 10
0.0
 20
0.0
 30
0.0
 70
   128
 71
    20
 72
    19
 73
    21
  0
VERTEX
  5
A2C
  8
0
 10
0.0
 20
0.0
 30
0.0
 70
   128
 71
    22
 72
    20
 73
    21
  0
VERTEX
  5
A2D
  8
0
 10
0.0
 20
0.0
 30
0.0
 70
   128
 71
    21
 72
    23
 73
    22
  0
VERTEX
  5
A2E
  8
0
 10
0.0
 20
0.0
 30
0.0
 70
   128
 71
    23
 72
    24
 73
    22
  0
VERTEX
  5
A2F
  8
0
 10
0.0
 20
0.0
 30
0.0
 70
   128
 71
    24
 72
    25
 73
    22
  0
VERTEX
  5
A30
  8
0
 10
0.0
 20
0.0
 30
0.0
 70
   128
 71
    26
 72
    22
 73
    25
  0
VERTEX
  5
A31
  8
0
 10
0.0
 20
0.0
 30
0.0
 70
   128
 71
    27
 72
    26
 73
    25
  0
VERTEX
  5
A32
  8
0
 10
0.0
 20
0.0
 30
0.0
 70
   128
 71
    25
 72
    28
 73
    27
  0
VERTEX
  5
A33
  8
0
 10
0.0
 20
0.0
 30
0.0
 70
   128
 71
    26
 72
    29
 73
    22
  0
VERTEX
  5
A34
  8
0
 10
0.0
 20
0.0
 30
0.0
 70
   128
 71
    29
 72
    30
 73
    22
  0
VERTEX
  5
A35
  8
0
 10
0.0
 20
0.0
 30
0.0
 70
   128
 71
    11
 72
    10
 73
    18
  0
SEQEND
  5
D21
  8
0
  0
POLYLINE
  5
A36
  8
0
 66
     1
 10
0.0
 20
0.0
 30
0.0
 70
    64
 71
     8
 72
     6
  0
VERTEX
  5
A37
  8
0
 10
377.4489392200901
 20
-20.00140750206899
 30
286.4979079390164
 70
   192
  0
VERTEX
  5
A38
  8
0
 10
377.4488094964934
 20
218.9985924979314
 30
286.497864139758
 70
   192
  0
VERTEX
  5
A39
  8
0
 10
373.0432858853523
 20
218.9985924979264
 30
293.0191960973247
 70
   192
  0
VERTEX
  5
A3A
  8
0
 10
373.0433749410965
 20
-20.00140750207407
 30
293.0193000956077
 70
   192
  0
VERTEX
  5
A3B
  8
0
 10
378.9975495564348
 20
-20.00140750206281
 30
278.7817630034651
 70
   192
  0
VERTEX
  5
A3C
  8
0
 10
378.9975495564299
 20
218.998592497937
 30
278.7817630036512
 70
   192
  0
VERTEX
  5
A3D
  8
0
 10
366.4630044472594
 20
218.9985924979206
 30
297.3362342950231
 70
   192
  0
VERTEX
  5
A3E
  8
0
 10
366.46299118077
 20
-20.00140750207741
 30
297.3362013230031
 70
   192
  0
VERTEX
  5
A3F
  8
0
 10
0.0
 20
0.0
 30
0.0
 70
   128
 71
     1
 72
     2
 73
    -3
  0
VERTEX
  5
A40
  8
0
 10
0.0
 20
0.0
 30
0.0
 70
   128
 71
    -1
 72
     3
 73
     4
  0
VERTEX
  5
A41
  8
0
 10
0.0
 20
0.0
 30
0.0
 70
   128
 71
     5
 72
     6
 73
     2
  0
VERTEX
  5
A42
  8
0
 10
0.0
 20
0.0
 30
0.0
 70
   128
 71
     5
 72
     2
 73
     1
  0
VERTEX
  5
A43
  8
0
 10
0.0
 20
0.0
 30
0.0
 70
   128
 71
     4
 72
     3
 73
     7
  0
VERTEX
  5
A44
  8
0
 10
0.0
 20
0.0
 30
0.0
 70
   128
 71
     4
 72
     7
 73
     8
  0
SEQEND
  5
D22
  8
0
  0
POLYLINE
  5
A45
  8
0
 66
     1
 10
0.0
 20
0.0
 30
0.0
 70
    64
 71
     4
 72
     2
  0
VERTEX
  5
A46
  8
0
 10
378.9975495564299
 20
-20.00140750173784
 30
-138.7980187713036
 70
   192
  0
VERTEX
  5
A47
  8
0
 10
378.9975495564299
 20
218.9985924982622
 30
-138.7980187711175
 70
   192
  0
VERTEX
  5
A48
  8
0
 10
378.9975495564299
 20
218.9985924979371
 30
278.7817630036512
 70
   192
  0
VERTEX
  5
A49
  8
0
 10
378.9975495564299
 20
-20.0014075020628
 30
278.7817630034651
 70
   192
  0
VERTEX
  5
A4A
  8
0
 10
0.0
 20
0.0
 30
0.0
 70
   128
 71
     3
 72
     4
 73
    -1
  0
VERTEX
  5
A4B
  8
0
 10
0.0
 20
0.0
 30
0.0
 70
   128
 71
     2
 72
    -3
 73
     1
  0
SEQEND
  5
D23
  8
0
  0
POLYLINE
  5
A4C
  8
0
 66
     1
 10
0.0
 20
0.0
 30
0.0
 70
    64
 71
     8
 72
     6
  0
VERTEX
  5
A4D
  8
0
 10
368.9971660138618
 20
-20.00140750172441
 30
-156.1180001652909
 70
   192
  0
VERTEX
  5
A4E
  8
0
 10
368.997520389424
 20
218.9985924982745
 30
-156.1184731280144
 70
   192
  0
VERTEX
  5
A4F
  8
0
 10
376.3180039133268
 20
218.9985924982689
 30
-148.7979896041115
 70
   192
  0
VERTEX
  5
A50
  8
0
 10
376.3175309504173
 20
-20.00140750173011
 30
-148.7976352287378
 70
   192
  0
VERTEX
  5
A51
  8
0
 10
358.9975495564228
 20
-20.00140750172247
 30
-158.7980187712965
 70
   192
  0
VERTEX
  5
A52
  8
0
 10
358.9975495564299
 20
218.9985924982779
 30
-158.7980187711175
 70
   192
  0
VERTEX
  5
A53
  8
0
 10
378.9975495564299
 20
218.9985924982622
 30
-138.7980187711175
 70
   192
  0
VERTEX
  5
A54
  8
0
 10
378.9975495564299
 20
-20.00140750173784
 30
-138.7980187713036
 70
   192
  0
VERTEX
  5
A55
  8
0
 10
0.0
 20
0.0
 30
0.0
 70
   128
 71
     1
 72
     2
 73
    -3
  0
VERTEX
  5
A56
  8
0
 10
0.0
 20
0.0
 30
0.0
 70
   128
 71
    -1
 72
     3
 73
     4
  0
VERTEX
  5
A57
  8
0
 10
0.0
 20
0.0
 30
0.0
 70
   128
 71
     5
 72
     6
 73
     2
  0
VERTEX
  5
A58
  8
0
 10
0.0
 20
0.0
 30
0.0
 70
   128
 71
     5
 72
     2
 73
     1
  0
VERTEX
  5
A59
  8
0
 10
0.0
 20
0.0
 30
0.0
 70
   128
 71
     4
 72
     3
 73
     7
  0
VERTEX
  5
A5A
  8
0
 10
0.0
 20
0.0
 30
0.0
 70
   128
 71
     4
 72
     7
 73
     8
  0
SEQEND
  5
D24
  8
0
  0
POLYLINE
  5
A5B
  8
0
 66
     1
 10
0.0
 20
0.0
 30
0.0
 70
    64
 71
     4
 72
     2
  0
VERTEX
  5
A5C
  8
0
 10
-359.002450443574
 20
-20.00140750172224
 30
-158.7980187713036
 70
   192
  0
VERTEX
  5
A5D
  8
0
 10
-359.002450443574
 20
218.9985924982777
 30
-158.7980187711175
 70
   192
  0
VERTEX
  5
A5E
  8
0
 10
358.9975495564299
 20
218.9985924982777
 30
-158.7980187711175
 70
   192
  0
VERTEX
  5
A5F
  8
0
 10
358.9975495564299
 20
-20.00140750172247
 30
-158.7980187713036
 70
   192
  0
VERTEX
  5
A60
  8
0
 10
0.0
 20
0.0
 30
0.0
 70
   128
 71
     3
 72
     4
 73
    -1
  0
VERTEX
  5
A61
  8
0
 10
0.0
 20
0.0
 30
0.0
 70
   128
 71
     2
 72
    -3
 73
     1
  0
SEQEND
  5
D25
  8
0
  0
POLYLINE
  5
A62
  8
0
 66
     1
 10
0.0
 20
0.0
 30
0.0
 70
    64
 71
     8
 72
     6
  0
VERTEX
  5
A63
  8
0
 10
-376.322431837561
 20
-20.00140750173011
 30
-148.7976352287371
 70
   192
  0
VERTEX
  5
A64
  8
0
 10
-376.3229048004707
 20
218.9985924982696
 30
-148.7979896041115
 70
   192
  0
VERTEX
  5
A65
  8
0
 10
-369.0024212765679
 20
218.9985924982753
 30
-156.1184731280144
 70
   192
  0
VERTEX
  5
A66
  8
0
 10
-369.0020669010087
 20
-20.0014075017244
 30
-156.1180001652903
 70
   192
  0
VERTEX
  5
A67
  8
0
 10
-379.0024504435716
 20
-20.00140750173679
 30
-138.7980187713036
 70
   192
  0
VERTEX
  5
A68
  8
0
 10
-379.002450443574
 20
218.9985924982622
 30
-138.7980187711175
 70
   192
  0
VERTEX
  5
A69
  8
0
 10
-359.0024504435738
 20
218.9985924982777
 30
-158.7980187711175
 70
   192
  0
VERTEX
  5
A6A
  8
0
 10
-359.002450443574
 20
-20.00140750172224
 30
-158.7980187713036
 70
   192
  0
VERTEX
  5
A6B
  8
0
 10
0.0
 20
0.0
 30
0.0
 70
   128
 71
     1
 72
     2
 73
    -3
  0
VERTEX
  5
A6C
  8
0
 10
0.0
 20
0.0
 30
0.0
 70
   128
 71
    -1
 72
     3
 73
     4
  0
VERTEX
  5
A6D
  8
0
 10
0.0
 20
0.0
 30
0.0
 70
   128
 71
     5
 72
     6
 73
     2
  0
VERTEX
  5
A6E
  8
0
 10
0.0
 20
0.0
 30
0.0
 70
   128
 71
     5
 72
     2
 73
     1
  0
VERTEX
  5
A6F
  8
0
 10
0.0
 20
0.0
 30
0.0
 70
   128
 71
     4
 72
     3
 73
     7
  0
VERTEX
  5
A70
  8
0
 10
0.0
 20
0.0
 30
0.0
 70
   128
 71
     4
 72
     7
 73
     8
  0
SEQEND
  5
D26
  8
0
  0
POLYLINE
  5
A71
  8
0
 66
     1
 10
0.0
 20
0.0
 30
0.0
 70
    64
 71
     4
 72
     2
  0
VERTEX
  5
A72
  8
0
 10
-379.002450443574
 20
-20.00140750206297
 30
278.7817630034651
 70
   192
  0
VERTEX
  5
A73
  8
0
 10
-379.002450443574
 20
218.998592497937
 30
278.7817630036512
 70
   192
  0
VERTEX
  5
A74
  8
0
 10
-379.0024504435747
 20
218.9985924982621
 30
-138.7980187711175
 70
   192
  0
VERTEX
  5
A75
  8
0
 10
-379.002450443574
 20
-20.00140750173679
 30
-138.7980187713036
 70
   192
  0
VERTEX
  5
A76
  8
0
 10
0.0
 20
0.0
 30
0.0
 70
   128
 71
     3
 72
     4
 73
    -1
  0
VERTEX
  5
A77
  8
0
 10
0.0
 20
0.0
 30
0.0
 70
   128
 71
     2
 72
    -3
 73
     1
  0
SEQEND
  5
D27
  8
0
  0
POLYLINE
  5
A78
  8
0
 66
     1
 10
0.0
 20
0.0
 30
0.0
 70
    64
 71
     8
 72
     6
  0
VERTEX
  5
A79
  8
0
 10
-377.4537103836157
 20
218.9985924979314
 30
286.497864139746
 70
   192
  0
VERTEX
  5
A7A
  8
0
 10
-377.4538401072357
 20
-20.00140750206896
 30
286.4979079390175
 70
   192
  0
VERTEX
  5
A7B
  8
0
 10
-373.0482758282427
 20
-20.00140750207407
 30
293.0193000956085
 70
   192
  0
VERTEX
  5
A7C
  8
0
 10
-373.0481867724818
 20
218.9985924979263
 30
293.0191960973034
 70
   192
  0
VERTEX
  5
A7D
  8
0
 10
-379.0024504435694
 20
218.998592497937
 30
278.7817630036512
 70
   192
  0
VERTEX
  5
A7E
  8
0
 10
-379.002450443574
 20
-20.00140750206297
 30
278.7817630034651
 70
   192
  0
VERTEX
  5
A7F
  8
0
 10
-366.4678912176968
 20
-20.00140750207724
 30
297.3361992099243
 70
   192
  0
VERTEX
  5
A80
  8
0
 10
-366.4678920679171
 20
218.9985924979226
 30
297.3362013231892
 70
   192
  0
VERTEX
  5
A81
  8
0
 10
0.0
 20
0.0
 30
0.0
 70
   128
 71
     1
 72
     2
 73
    -3
  0
VERTEX
  5
A82
  8
0
 10
0.0
 20
0.0
 30
0.0
 70
   128
 71
    -1
 72
     3
 73
     4
  0
VERTEX
  5
A83
  8
0
 10
0.0
 20
0.0
 30
0.0
 70
   128
 71
     5
 72
     6
 73
     2
  0
VERTEX
  5
A84
  8
0
 10
0.0
 20
0.0
 30
0.0
 70
   128
 71
     5
 72
     2
 73
     1
  0
VERTEX
  5
A85
  8
0
 10
0.0
 20
0.0
 30
0.0
 70
   128
 71
     4
 72
     3
 73
     7
  0
VERTEX
  5
A86
  8
0
 10
0.0
 20
0.0
 30
0.0
 70
   128
 71
     4
 72
     7
 73
     8
  0
SEQEND
  5
D28
  8
0
  0
POLYLINE
  5
A87
  8
0
 66
     1
 10
0.0
 20
0.0
 30
0.0
 70
    64
 71
    14
 72
    12
  0
VERTEX
  5
A88
  8
0
 10
-343.3053782497429
 20
-30.00140750207614
 30
295.6584708714353
 70
   192
  0
VERTEX
  5
A89
  8
0
 10
-340.8053782129004
 20
-29.33153451332029
 30
295.6584708714351
 70
   192
  0
VERTEX
  5
A8A
  8
0
 10
-338.975251180149
 20
-27.50140745508906
 30
295.6584708714366
 70
   192
  0
VERTEX
  5
A8B
  8
0
 10
-338.3053782261992
 20
-25.00140740892021
 30
295.6584708714392
 70
   192
  0
VERTEX
  5
A8C
  8
0
 10
-338.3053782380346
 20
-24.36616233224395
 30
298.2673362017029
 70
   192
  0
VERTEX
  5
A8D
  8
0
 10
-338.3053782716078
 20
-22.56416293644945
 30
300.2498797736311
 70
   192
  0
VERTEX
  5
A8E
  8
0
 10
-338.3053784812595
 20
-20.00140740892436
 30
301.0052915376244
 70
   192
  0
VERTEX
  5
A8F
  8
0
 10
-339.3070065015992
 20
-20.00140742635097
 30
304.0074632366751
 70
   192
  0
VERTEX
  5
A90
  8
0
 10
-341.9105895525717
 20
-20.0014074621906
 30
305.8068097639967
 70
   192
  0
VERTEX
  5
A91
  8
0
 10
-345.0729967925814
 20
-20.00140750208389
 30
305.682418940262
 70
   192
  0
VERTEX
  5
A92
  8
0
 10
-345.073019978691
 20
-20.0014075020839
 30
305.6824802906845
 70
   192
  0
VERTEX
  5
A93
  8
0
 10
-344.8304057720169
 20
-25.0700409094019
 30
304.2992175978932
 70
   192
  0
VERTEX
  5
A94
  8
0
 10
-344.1854777941804
 20
-28.67846966482282
 30
300.6408508793677
 70
   192
  0
VERTEX
  5
A95
  8
0
 10
-343.3053782497429
 20
-30.00140750207614
 30
295.6584709334025
 70
   192
  0
VERTEX
  5
A96
  8
0
 10
0.0
 20
0.0
 30
0.0
 70
   128
 71
    11
 72
     7
 73
    -8
  0
VERTEX
  5
A97
  8
0
 10
0.0
 20
0.0
 30
0.0
 70
   128
 71
     8
 72
    -9
 73
   -11
  0
VERTEX
  5
A98
  8
0
 10
0.0
 20
0.0
 30
0.0
 70
   128
 71
     9
 72
    10
 73
   -11
  0
VERTEX
  5
A99
  8
0
 10
0.0
 20
0.0
 30
0.0
 70
   128
 71
    12
 72
     6
 73
     7
  0
VERTEX
  5
A9A
  8
0
 10
0.0
 20
0.0
 30
0.0
 70
   128
 71
    11
 72
    12
 73
     7
  0
VERTEX
  5
A9B
  8
0
 10
0.0
 20
0.0
 30
0.0
 70
   128
 71
    13
 72
     5
 73
     6
  0
VERTEX
  5
A9C
  8
0
 10
0.0
 20
0.0
 30
0.0
 70
   128
 71
    12
 72
    13
 73
     6
  0
VERTEX
  5
A9D
  8
0
 10
0.0
 20
0.0
 30
0.0
 70
   128
 71
    14
 72
     4
 73
     5
  0
VERTEX
  5
A9E
  8
0
 10
0.0
 20
0.0
 30
0.0
 70
   128
 71
    13
 72
    14
 73
     5
  0
VERTEX
  5
A9F
  8
0
 10
0.0
 20
0.0
 30
0.0
 70
   128
 71
    14
 72
     1
 73
     2
  0
VERTEX
  5
AA0
  8
0
 10
0.0
 20
0.0
 30
0.0
 70
   128
 71
     2
 72
     3
 73
    14
  0
VERTEX
  5
AA1
  8
0
 10
0.0
 20
0.0
 30
0.0
 70
   128
 71
     3
 72
     4
 73
    14
  0
SEQEND
  5
D29
  8
0
  0
POLYLINE
  5
AA2
  8
0
 66
     1
 10
0.0
 20
0.0
 30
0.0
 70
    64
 71
    12
 72
    10
  0
VERTEX
  5
AA3
  8
0
 10
44.99754955642965
 20
-0.0014075018444637
 30
-1.899057828603445
 70
   192
  0
VERTEX
  5
AA4
  8
0
 10
38.96857185944783
 20
-0.0014075018619492
 30
20.60087654563304
 70
   192
  0
VERTEX
  5
AA5
  8
0
 10
22.49748393066642
 20
-0.0014075018747732
 30
37.07196447441439
 70
   192
  0
VERTEX
  5
AA6
  8
0
 10
-0.0024504435700567
 20
-0.0014075018794912
 30
43.10094217139669
 70
   192
  0
VERTEX
  5
AA7
  8
0
 10
-0.002450443576442
 20
4.889009262777186
 30
44.37833798217514
 70
   192
  0
VERTEX
  5
AA8
  8
0
 10
-0.0024504435955876
 20
8.721196689280966
 30
48.21052541020435
 70
   192
  0
VERTEX
  5
AA9
  8
0
 10
-0.0024504436200168
 20
9.998592498112748
 30
53.1009421753695
 70
   192
  0
VERTEX
  5
AAA
  8
0
 10
27.49750816592068
 20
9.998592498118462
 30
45.73226310008981
 70
   192
  0
VERTEX
  5
AAB
  8
0
 10
47.62891743212529
 20
9.998592498134146
 30
25.60092401309506
 70
   192
  0
VERTEX
  5
AAC
  8
0
 10
54.99754955840985
 20
9.998592498155546
 30
-1.899057828572817
 70
   192
  0
VERTEX
  5
AAD
  8
0
 10
49.99754955801973
 20
8.658846536015647
 30
-1.899057828585256
 70
   192
  0
VERTEX
  5
AAE
  8
0
 10
46.33729551955976
 20
4.998592498280392
 30
-1.899057828596451
 70
   192
  0
VERTEX
  5
AAF
  8
0
 10
0.0
 20
0.0
 30
0.0
 70
   128
 71
     6
 72
     7
 73
     8
  0
VERTEX
  5
AB0
  8
0
 10
0.0
 20
0.0
 30
0.0
 70
   128
 71
     9
 72
    11
 73
     6
  0
VERTEX
  5
AB1
  8
0
 10
0.0
 20
0.0
 30
0.0
 70
   128
 71
     8
 72
     9
 73
     6
  0
VERTEX
  5
AB2
  8
0
 10
0.0
 20
0.0
 30
0.0
 70
   128
 71
     9
 72
    10
 73
    11
  0
VERTEX
  5
AB3
  8
0
 10
0.0
 20
0.0
 30
0.0
 70
   128
 71
    12
 72
     5
 73
     6
  0
VERTEX
  5
AB4
  8
0
 10
0.0
 20
0.0
 30
0.0
 70
   128
 71
    11
 72
    12
 73
     6
  0
VERTEX
  5
AB5
  8
0
 10
0.0
 20
0.0
 30
0.0
 70
   128
 71
    12
 72
     1
 73
     2
  0
VERTEX
  5
AB6
  8
0
 10
0.0
 20
0.0
 30
0.0
 70
   128
 71
     3
 72
     5
 73
    12
  0
VERTEX
  5
AB7
  8
0
 10
0.0
 20
0.0
 30
0.0
 70
   128
 71
     2
 72
     3
 73
    12
  0
VERTEX
  5
AB8
  8
0
 10
0.0
 20
0.0
 30
0.0
 70
   128
 71
     3
 72
     4
 73
     5
  0
SEQEND
  5
D2A
  8
0
  0
POLYLINE
  5
AB9
  8
0
 66
     1
 10
0.0
 20
0.0
 30
0.0
 70
    64
 71
    12
 72
    10
  0
VERTEX
  5
ABA
  8
0
 10
-45.00245044357021
 20
-0.0014075018444637
 30
-1.899057828603515
 70
   192
  0
VERTEX
  5
ABB
  8
0
 10
-38.97347274658796
 20
-0.0014075018269158
 30
-24.39899220284001
 70
   192
  0
VERTEX
  5
ABC
  8
0
 10
-22.50238481780656
 20
-0.0014075018140918
 30
-40.87008013162139
 70
   192
  0
VERTEX
  5
ABD
  8
0
 10
-0.0024504435700567
 20
-0.0014075018093807
 30
-46.8990578286035
 70
   192
  0
VERTEX
  5
ABE
  8
0
 10
-0.0024504435649546
 20
4.889009262849266
 30
-48.17645363937427
 70
   192
  0
VERTEX
  5
ABF
  8
0
 10
-0.0024504435496381
 20
8.721196689359003
 30
-52.00864106739748
 70
   192
  0
VERTEX
  5
AC0
  8
0
 10
-0.0024504435300887
 20
9.998592498198402
 30
-56.89905783256064
 70
   192
  0
VERTEX
  5
AC1
  8
0
 10
-27.5024090530718
 20
9.998592498192657
 30
-49.53037875671682
 70
   192
  0
VERTEX
  5
AC2
  8
0
 10
-47.63381831990412
 20
9.998592498176984
 30
-29.39903967035592
 70
   192
  0
VERTEX
  5
AC3
  8
0
 10
-55.00245044754016
 20
9.998592498155546
 30
-1.899057828641332
 70
   192
  0
VERTEX
  5
AC4
  8
0
 10
-50.00245044667285
 20
8.658846536178679
 30
-1.89905782861956
 70
   192
  0
VERTEX
  5
AC5
  8
0
 10
-46.34219640753182
 20
4.99859249849092
 30
-1.899057828605718
 70
   192
  0
VERTEX
  5
AC6
  8
0
 10
0.0
 20
0.0
 30
0.0
 70
   128
 71
     6
 72
     7
 73
     8
  0
VERTEX
  5
AC7
  8
0
 10
0.0
 20
0.0
 30
0.0
 70
   128
 71
     9
 72
    11
 73
     6
  0
VERTEX
  5
AC8
  8
0
 10
0.0
 20
0.0
 30
0.0
 70
   128
 71
     8
 72
     9
 73
     6
  0
VERTEX
  5
AC9
  8
0
 10
0.0
 20
0.0
 30
0.0
 70
   128
 71
     9
 72
    10
 73
    11
  0
VERTEX
  5
ACA
  8
0
 10
0.0
 20
0.0
 30
0.0
 70
   128
 71
    12
 72
     5
 73
     6
  0
VERTEX
  5
ACB
  8
0
 10
0.0
 20
0.0
 30
0.0
 70
   128
 71
    11
 72
    12
 73
     6
  0
VERTEX
  5
ACC
  8
0
 10
0.0
 20
0.0
 30
0.0
 70
   128
 71
    12
 72
     1
 73
     2
  0
VERTEX
  5
ACD
  8
0
 10
0.0
 20
0.0
 30
0.0
 70
   128
 71
     3
 72
     5
 73
    12
  0
VERTEX
  5
ACE
  8
0
 10
0.0
 20
0.0
 30
0.0
 70
   128
 71
     2
 72
     3
 73
    12
  0
VERTEX
  5
ACF
  8
0
 10
0.0
 20
0.0
 30
0.0
 70
   128
 71
     3
 72
     4
 73
     5
  0
SEQEND
  5
D2B
  8
0
  0
POLYLINE
  5
AD0
  8
0
 66
     1
 10
0.0
 20
0.0
 30
0.0
 70
    64
 71
    10
 72
     8
  0
VERTEX
  5
AD1
  8
0
 10
-345.072997129487
 20
140.7209992019301
 30
305.6824195053912
 70
   192
  0
VERTEX
  5
AD2
  8
0
 10
-345.072997129487
 20
-20.00140750208391
 30
305.6824195052661
 70
   192
  0
VERTEX
  5
AD3
  8
0
 10
-345.0729967925814
 20
-20.00140750208389
 30
305.682418940262
 70
   192
  0
VERTEX
  5
AD4
  8
0
 10
-338.305378966975
 20
-20.00140740892425
 30
301.0052915376248
 70
   192
  0
VERTEX
  5
AD5
  8
0
 10
-338.305378319355
 20
-20.00140740892436
 30
301.0052894414271
 70
   192
  0
VERTEX
  5
AD6
  8
0
 10
-338.3053813138011
 20
140.7209992950891
 30
301.0052906501902
 70
   192
  0
VERTEX
  5
AD7
  8
0
 10
-341.9105895525717
 20
-20.0014074621906
 30
305.8068097639967
 70
   192
  0
VERTEX
  5
AD8
  8
0
 10
-339.3070065015992
 20
-20.00140742635097
 30
304.0074632366751
 70
   192
  0
VERTEX
  5
AD9
  8
0
 10
-339.3070101914921
 20
140.720999277491
 30
304.0074612596474
 70
   192
  0
VERTEX
  5
ADA
  8
0
 10
-341.9105926611159
 20
140.7209992416514
 30
305.8068075578293
 70
   192
  0
VERTEX
  5
ADB
  8
0
 10
0.0
 20
0.0
 30
0.0
 70
   128
 71
     1
 72
     2
 73
     3
  0
VERTEX
  5
ADC
  8
0
 10
0.0
 20
0.0
 30
0.0
 70
   128
 71
     4
 72
     5
 73
     6
  0
VERTEX
  5
ADD
  8
0
 10
0.0
 20
0.0
 30
0.0
 70
   128
 71
     7
 72
     8
 73
     9
  0
VERTEX
  5
ADE
  8
0
 10
0.0
 20
0.0
 30
0.0
 70
   128
 71
     3
 72
     7
 73
    10
  0
VERTEX
  5
ADF
  8
0
 10
0.0
 20
0.0
 30
0.0
 70
   128
 71
     1
 72
     3
 73
    10
  0
VERTEX
  5
AE0
  8
0
 10
0.0
 20
0.0
 30
0.0
 70
   128
 71
    10
 72
     7
 73
     9
  0
VERTEX
  5
AE1
  8
0
 10
0.0
 20
0.0
 30
0.0
 70
   128
 71
     9
 72
     8
 73
     4
  0
VERTEX
  5
AE2
  8
0
 10
0.0
 20
0.0
 30
0.0
 70
   128
 71
     9
 72
     4
 73
     6
  0
SEQEND
  5
D2C
  8
0
  0
POLYLINE
  5
AE3
  8
0
 66
     1
 10
0.0
 20
0.0
 30
0.0
 70
    64
 71
    13
 72
    11
  0
VERTEX
  5
AE4
  8
0
 10
-345.0729993678619
 20
140.7209992019301
 30
305.6824186594458
 70
   192
  0
VERTEX
  5
AE5
  8
0
 10
-341.9105926611159
 20
140.7209992416514
 30
305.8068075578293
 70
   192
  0
VERTEX
  5
AE6
  8
0
 10
-339.3070101914921
 20
140.720999277491
 30
304.0074612596474
 70
   192
  0
VERTEX
  5
AE7
  8
0
 10
-338.3053813138009
 20
140.7209992950897
 30
301.0052906501902
 70
   192
  0
VERTEX
  5
AE8
  8
0
 10
-332.4294976089774
 20
162.1464107025907
 30
303.4656708868329
 70
   192
  0
VERTEX
  5
AE9
  8
0
 10
-317.0772233901951
 20
177.2248446062223
 30
309.6645206646895
 70
   192
  0
VERTEX
  5
AEA
  8
0
 10
-296.3053834902927
 20
182.7210000775864
 30
317.5265044300009
 70
   192
  0
VERTEX
  5
AEB
  8
0
 10
-296.3053818801387
 20
182.7210000079056
 30
317.5265049538963
 70
   192
  0
VERTEX
  5
AEC
  8
0
 10
-297.0788920733018
 20
183.3908731332733
 30
319.9038314583631
 70
   192
  0
VERTEX
  5
AED
  8
0
 10
-297.6451409399749
 20
185.2210001605657
 30
321.6441551687179
 70
   192
  0
VERTEX
  5
AEE
  8
0
 10
-297.8524025688918
 20
187.7210000801387
 30
322.2811577991454
 70
   192
  0
VERTEX
  5
AEF
  8
0
 10
-321.0314311453761
 20
181.6698947844468
 30
314.4433899158315
 70
   192
  0
VERTEX
  5
AF0
  8
0
 10
-338.4645097439832
 20
164.7022219996851
 30
308.1552891907048
 70
   192
  0
VERTEX
  5
AF1
  8
0
 10
0.0
 20
0.0
 30
0.0
 70
   128
 71
     9
 72
     6
 73
     7
  0
VERTEX
  5
AF2
  8
0
 10
0.0
 20
0.0
 30
0.0
 70
   128
 71
     7
 72
     8
 73
     9
  0
VERTEX
  5
AF3
  8
0
 10
0.0
 20
0.0
 30
0.0
 70
   128
 71
    10
 72
    12
 73
     6
  0
VERTEX
  5
AF4
  8
0
 10
0.0
 20
0.0
 30
0.0
 70
   128
 71
     9
 72
    10
 73
     6
  0
VERTEX
  5
AF5
  8
0
 10
0.0
 20
0.0
 30
0.0
 70
   128
 71
    10
 72
    11
 73
    12
  0
VERTEX
  5
AF6
  8
0
 10
0.0
 20
0.0
 30
0.0
 70
   128
 71
    13
 72
     5
 73
     6
  0
VERTEX
  5
AF7
  8
0
 10
0.0
 20
0.0
 30
0.0
 70
   128
 71
    12
 72
    13
 73
     6
  0
VERTEX
  5
AF8
  8
0
 10
0.0
 20
0.0
 30
0.0
 70
   128
 71
    13
 72
     1
 73
     2
  0
VERTEX
  5
AF9
  8
0
 10
0.0
 20
0.0
 30
0.0
 70
   128
 71
     3
 72
     5
 73
    13
  0
VERTEX
  5
AFA
  8
0
 10
0.0
 20
0.0
 30
0.0
 70
   128
 71
     2
 72
     3
 73
    13
  0
VERTEX
  5
AFB
  8
0
 10
0.0
 20
0.0
 30
0.0
 70
   128
 71
     3
 72
     4
 73
     5
  0
SEQEND
  5
D2D
  8
0
  0
POLYLINE
  5
AFC
  8
0
 66
     1
 10
0.0
 20
0.0
 30
0.0
 70
    64
 71
    12
 72
    10
  0
VERTEX
  5
AFD
  8
0
 10
-296.3053834902927
 20
182.7210000775864
 30
317.5265044300009
 70
   192
  0
VERTEX
  5
AFE
  8
0
 10
-199.3469152309703
 20
182.7210000775641
 30
343.9550215995073
 70
   192
  0
VERTEX
  5
AFF
  8
0
 10
-100.2485445102544
 20
182.7210000775512
 30
360.4820064055504
 70
   192
  0
VERTEX
  5
B00
  8
0
 10
-0.0024507324500878
 20
182.721009350457
 30
366.2019811478089
 70
   192
  0
VERTEX
  5
B01
  8
0
 10
-0.0024506207583486
 20
183.3597066628358
 30
368.6471895694982
 70
   192
  0
VERTEX
  5
B02
  8
0
 10
-0.002450598802064
 20
185.2757985999765
 30
370.5632833140171
 70
   192
  0
VERTEX
  5
B03
  8
0
 10
-0.0024506751556963
 20
187.721004715197
 30
371.2019812288585
 70
   192
  0
VERTEX
  5
B04
  8
0
 10
-100.7917177965606
 20
187.7210014533853
 30
365.4524286567006
 70
   192
  0
VERTEX
  5
B05
  8
0
 10
-200.4515224490276
 20
187.7210002517066
 30
348.8315816068089
 70
   192
  0
VERTEX
  5
B06
  8
0
 10
-297.852402009225
 20
187.7210000801387
 30
322.2811560790536
 70
   192
  0
VERTEX
  5
B07
  8
0
 10
-297.6451409399749
 20
185.2210001605657
 30
321.6441551687179
 70
   192
  0
VERTEX
  5
B08
  8
0
 10
-297.0788920733018
 20
183.3908731332733
 30
319.9038314583631
 70
   192
  0
VERTEX
  5
B09
  8
0
 10
0.0
 20
0.0
 30
0.0
 70
   128
 71
     6
 72
     7
 73
     8
  0
VERTEX
  5
B0A
  8
0
 10
0.0
 20
0.0
 30
0.0
 70
   128
 71
     8
 72
     9
 73
     6
  0
VERTEX
  5
B0B
  8
0
 10
0.0
 20
0.0
 30
0.0
 70
   128
 71
     9
 72
    11
 73
     6
  0
VERTEX
  5
B0C
  8
0
 10
0.0
 20
0.0
 30
0.0
 70
   128
 71
     9
 72
    10
 73
    11
  0
VERTEX
  5
B0D
  8
0
 10
0.0
 20
0.0
 30
0.0
 70
   128
 71
    12
 72
     5
 73
     6
  0
VERTEX
  5
B0E
  8
0
 10
0.0
 20
0.0
 30
0.0
 70
   128
 71
    11
 72
    12
 73
     6
  0
VERTEX
  5
B0F
  8
0
 10
0.0
 20
0.0
 30
0.0
 70
   128
 71
    12
 72
     1
 73
     2
  0
VERTEX
  5
B10
  8
0
 10
0.0
 20
0.0
 30
0.0
 70
   128
 71
     2
 72
     3
 73
    12
  0
VERTEX
  5
B11
  8
0
 10
0.0
 20
0.0
 30
0.0
 70
   128
 71
     3
 72
     5
 73
    12
  0
VERTEX
  5
B12
  8
0
 10
0.0
 20
0.0
 30
0.0
 70
   128
 71
     3
 72
     4
 73
     5
  0
SEQEND
  5
D2E
  8
0
  0
POLYLINE
  5
B13
  8
0
 66
     1
 10
0.0
 20
0.0
 30
0.0
 70
    64
 71
    13
 72
    11
  0
VERTEX
  5
B14
  8
0
 10
297.8475162330258
 20
187.7210032398815
 30
322.2811577106987
 70
   192
  0
VERTEX
  5
B15
  8
0
 10
297.6402549055589
 20
185.2210018039987
 30
321.6441559931888
 70
   192
  0
VERTEX
  5
B16
  8
0
 10
297.0740059343531
 20
183.3908734299746
 30
319.9038319249217
 70
   192
  0
VERTEX
  5
B17
  8
0
 10
296.3004953970267
 20
182.7209999354356
 30
317.5265043128015
 70
   192
  0
VERTEX
  5
B18
  8
0
 10
296.3004960008513
 20
182.7210000775868
 30
317.5265041163353
 70
   192
  0
VERTEX
  5
B19
  8
0
 10
317.0720510933349
 20
177.2250261666883
 30
309.6646306179763
 70
   192
  0
VERTEX
  5
B1A
  8
0
 10
332.4454469925379
 20
162.1112387567612
 30
303.4572524647879
 70
   192
  0
VERTEX
  5
B1B
  8
0
 10
338.300493636881
 20
140.7209993894438
 30
301.0052856576753
 70
   192
  0
VERTEX
  5
B1C
  8
0
 10
339.3021225309588
 20
140.720999373942
 30
304.0074562889526
 70
   192
  0
VERTEX
  5
B1D
  8
0
 10
341.905705036604
 20
140.7209993424239
 30
305.8068025805392
 70
   192
  0
VERTEX
  5
B1E
  8
0
 10
345.0681117675165
 20
140.7209993075171
 30
305.6824136379963
 70
   192
  0
VERTEX
  5
B1F
  8
0
 10
338.4601557385368
 20
164.7011953868483
 30
308.1550877164107
 70
   192
  0
VERTEX
  5
B20
  8
0
 10
321.026343019586
 20
181.6699572516896
 30
314.4434553426897
 70
   192
  0
VERTEX
  5
B21
  8
0
 10
0.0
 20
0.0
 30
0.0
 70
   128
 71
     7
 72
     8
 73
     9
  0
VERTEX
  5
B22
  8
0
 10
0.0
 20
0.0
 30
0.0
 70
   128
 71
    10
 72
    12
 73
     7
  0
VERTEX
  5
B23
  8
0
 10
0.0
 20
0.0
 30
0.0
 70
   128
 71
     9
 72
    10
 73
     7
  0
VERTEX
  5
B24
  8
0
 10
0.0
 20
0.0
 30
0.0
 70
   128
 71
    10
 72
    11
 73
    12
  0
VERTEX
  5
B25
  8
0
 10
0.0
 20
0.0
 30
0.0
 70
   128
 71
    13
 72
     6
 73
     7
  0
VERTEX
  5
B26
  8
0
 10
0.0
 20
0.0
 30
0.0
 70
   128
 71
    12
 72
    13
 73
     7
  0
VERTEX
  5
B27
  8
0
 10
0.0
 20
0.0
 30
0.0
 70
   128
 71
     5
 72
     1
 73
     2
  0
VERTEX
  5
B28
  8
0
 10
0.0
 20
0.0
 30
0.0
 70
   128
 71
     2
 72
     3
 73
     5
  0
VERTEX
  5
B29
  8
0
 10
0.0
 20
0.0
 30
0.0
 70
   128
 71
     3
 72
     4
 73
     5
  0
VERTEX
  5
B2A
  8
0
 10
0.0
 20
0.0
 30
0.0
 70
   128
 71
     6
 72
    13
 73
     1
  0
VERTEX
  5
B2B
  8
0
 10
0.0
 20
0.0
 30
0.0
 70
   128
 71
     5
 72
     6
 73
     1
  0
SEQEND
  5
D2F
  8
0
  0
POLYLINE
  5
B2C
  8
0
 66
     1
 10
0.0
 20
0.0
 30
0.0
 70
    64
 71
    10
 72
     8
  0
VERTEX
  5
B2D
  8
0
 10
345.0681099381511
 20
-20.00140750208389
 30
305.6824136369378
 70
   192
  0
VERTEX
  5
B2E
  8
0
 10
345.0681116572794
 20
-20.00140750208391
 30
305.682413679527
 70
   192
  0
VERTEX
  5
B2F
  8
0
 10
345.0681116572794
 20
140.7209993075171
 30
305.6824136796521
 70
   192
  0
VERTEX
  5
B30
  8
0
 10
338.3004936368847
 20
140.7209993894437
 30
301.0052856576753
 70
   192
  0
VERTEX
  5
B31
  8
0
 10
338.3004910035128
 20
-20.00140742015725
 30
301.0052844050822
 70
   192
  0
VERTEX
  5
B32
  8
0
 10
338.300491651099
 20
-20.00140742015725
 30
301.0052864549932
 70
   192
  0
VERTEX
  5
B33
  8
0
 10
341.9057025673687
 20
-20.00140746717703
 30
305.8068047310134
 70
   192
  0
VERTEX
  5
B34
  8
0
 10
341.905705036604
 20
140.7209993424239
 30
305.8068025805392
 70
   192
  0
VERTEX
  5
B35
  8
0
 10
339.3021225309588
 20
140.720999373942
 30
304.0074562889526
 70
   192
  0
VERTEX
  5
B36
  8
0
 10
339.3021193030648
 20
-20.00140743565888
 30
304.0074582638479
 70
   192
  0
VERTEX
  5
B37
  8
0
 10
0.0
 20
0.0
 30
0.0
 70
   128
 71
     1
 72
     2
 73
     3
  0
VERTEX
  5
B38
  8
0
 10
0.0
 20
0.0
 30
0.0
 70
   128
 71
     4
 72
     5
 73
     6
  0
VERTEX
  5
B39
  8
0
 10
0.0
 20
0.0
 30
0.0
 70
   128
 71
     7
 72
     8
 73
     9
  0
VERTEX
  5
B3A
  8
0
 10
0.0
 20
0.0
 30
0.0
 70
   128
 71
     7
 72
     9
 73
    10
  0
VERTEX
  5
B3B
  8
0
 10
0.0
 20
0.0
 30
0.0
 70
   128
 71
     1
 72
     3
 73
     8
  0
VERTEX
  5
B3C
  8
0
 10
0.0
 20
0.0
 30
0.0
 70
   128
 71
     1
 72
     8
 73
     7
  0
VERTEX
  5
B3D
  8
0
 10
0.0
 20
0.0
 30
0.0
 70
   128
 71
    10
 72
     9
 73
     4
  0
VERTEX
  5
B3E
  8
0
 10
0.0
 20
0.0
 30
0.0
 70
   128
 71
    10
 72
     4
 73
     6
  0
SEQEND
  5
D30
  8
0
  0
POLYLINE
  5
B3F
  8
0
 66
     1
 10
0.0
 20
0.0
 30
0.0
 70
    64
 71
    12
 72
    10
  0
VERTEX
  5
B40
  8
0
 10
-366.4679072296124
 20
218.9985924979226
 30
297.336239005285
 70
   192
  0
VERTEX
  5
B41
  8
0
 10
-247.9180223393413
 20
218.9985924978916
 30
337.1703650450023
 70
   192
  0
VERTEX
  5
B42
  8
0
 10
-125.0418166029776
 20
218.998592497872
 30
362.3934778284531
 70
   192
  0
VERTEX
  5
B43
  8
0
 10
-0.0024504435700567
 20
218.9985924978651
 30
371.2019812288822
 70
   192
  0
VERTEX
  5
B44
  8
0
 10
-0.0024504435700397
 20
221.44380087992
 30
370.5632833243978
 70
   192
  0
VERTEX
  5
B45
  8
0
 10
-0.0024504435700397
 20
223.3598945933807
 30
368.64718961094
 70
   192
  0
VERTEX
  5
B46
  8
0
 10
-0.0024504435700567
 20
223.998592497869
 30
366.2019812288861
 70
   192
  0
VERTEX
  5
B47
  8
0
 10
-124.3265167327145
 20
223.9985924978758
 30
357.4449137847642
 70
   192
  0
VERTEX
  5
B48
  8
0
 10
-246.4315529532073
 20
223.9985924978953
 30
332.3930220822085
 70
   192
  0
VERTEX
  5
B49
  8
0
 10
-364.6015579457667
 20
223.9985924979262
 30
292.6976560817145
 70
   192
  0
VERTEX
  5
B4A
  8
0
 10
-365.5347381256789
 20
223.3287202040558
 30
295.0169613073335
 70
   192
  0
VERTEX
  5
B4B
  8
0
 10
-366.2178734296295
 20
221.4985928942824
 30
296.7148105699023
 70
   192
  0
VERTEX
  5
B4C
  8
0
 10
0.0
 20
0.0
 30
0.0
 70
   128
 71
     6
 72
     7
 73
     8
  0
VERTEX
  5
B4D
  8
0
 10
0.0
 20
0.0
 30
0.0
 70
   128
 71
     8
 72
     9
 73
     6
  0
VERTEX
  5
B4E
  8
0
 10
0.0
 20
0.0
 30
0.0
 70
   128
 71
     9
 72
    11
 73
     6
  0
VERTEX
  5
B4F
  8
0
 10
0.0
 20
0.0
 30
0.0
 70
   128
 71
     9
 72
    10
 73
    11
  0
VERTEX
  5
B50
  8
0
 10
0.0
 20
0.0
 30
0.0
 70
   128
 71
    12
 72
     5
 73
     6
  0
VERTEX
  5
B51
  8
0
 10
0.0
 20
0.0
 30
0.0
 70
   128
 71
    11
 72
    12
 73
     6
  0
VERTEX
  5
B52
  8
0
 10
0.0
 20
0.0
 30
0.0
 70
   128
 71
    12
 72
     1
 73
     2
  0
VERTEX
  5
B53
  8
0
 10
0.0
 20
0.0
 30
0.0
 70
   128
 71
     2
 72
     3
 73
    12
  0
VERTEX
  5
B54
  8
0
 10
0.0
 20
0.0
 30
0.0
 70
   128
 71
     3
 72
     5
 73
    12
  0
VERTEX
  5
B55
  8
0
 10
0.0
 20
0.0
 30
0.0
 70
   128
 71
     3
 72
     4
 73
     5
  0
SEQEND
  5
D31
  8
0
  0
POLYLINE
  5
B56
  8
0
 66
     1
 10
0.0
 20
0.0
 30
0.0
 70
    64
 71
    12
 72
    10
  0
VERTEX
  5
B57
  8
0
 10
373.9975495633598
 20
223.9985924978973
 30
278.7817630038293
 70
   192
  0
VERTEX
  5
B58
  8
0
 10
372.8360918052479
 20
223.9985924979325
 30
284.5688717050712
 70
   192
  0
VERTEX
  5
B59
  8
0
 10
369.5319185946954
 20
223.9985924979287
 30
289.4599158230967
 70
   192
  0
VERTEX
  5
B5A
  8
0
 10
364.5966570562795
 20
223.9985924979262
 30
292.6976560762921
 70
   192
  0
VERTEX
  5
B5B
  8
0
 10
365.5298372368121
 20
223.3287202045566
 30
295.0169613032513
 70
   192
  0
VERTEX
  5
B5C
  8
0
 10
366.2129725415494
 20
221.4985928949647
 30
296.7148105676361
 70
   192
  0
VERTEX
  5
B5D
  8
0
 10
366.4630174172618
 20
218.9985924979206
 30
297.3362665301735
 70
   192
  0
VERTEX
  5
B5E
  8
0
 10
373.0432858853523
 20
218.9985924979264
 30
293.0191960973247
 70
   192
  0
VERTEX
  5
B5F
  8
0
 10
377.4488094964934
 20
218.9985924979314
 30
286.497864139758
 70
   192
  0
VERTEX
  5
B60
  8
0
 10
378.997549556398
 20
218.998592497937
 30
278.7817630036512
 70
   192
  0
VERTEX
  5
B61
  8
0
 10
378.3276765797037
 20
221.4985924982008
 30
278.7817630036905
 70
   192
  0
VERTEX
  5
B62
  8
0
 10
376.4975495626952
 20
223.3287195177459
 30
278.7817630037941
 70
   192
  0
VERTEX
  5
B63
  8
0
 10
0.0
 20
0.0
 30
0.0
 70
   128
 71
     6
 72
     7
 73
     8
  0
VERTEX
  5
B64
  8
0
 10
0.0
 20
0.0
 30
0.0
 70
   128
 71
     9
 72
    11
 73
     6
  0
VERTEX
  5
B65
  8
0
 10
0.0
 20
0.0
 30
0.0
 70
   128
 71
     8
 72
     9
 73
     6
  0
VERTEX
  5
B66
  8
0
 10
0.0
 20
0.0
 30
0.0
 70
   128
 71
     9
 72
    10
 73
    11
  0
VERTEX
  5
B67
  8
0
 10
0.0
 20
0.0
 30
0.0
 70
   128
 71
    12
 72
     5
 73
     6
  0
VERTEX
  5
B68
  8
0
 10
0.0
 20
0.0
 30
0.0
 70
   128
 71
    11
 72
    12
 73
     6
  0
VERTEX
  5
B69
  8
0
 10
0.0
 20
0.0
 30
0.0
 70
   128
 71
    12
 72
     1
 73
     2
  0
VERTEX
  5
B6A
  8
0
 10
0.0
 20
0.0
 30
0.0
 70
   128
 71
     3
 72
     5
 73
    12
  0
VERTEX
  5
B6B
  8
0
 10
0.0
 20
0.0
 30
0.0
 70
   128
 71
     2
 72
     3
 73
    12
  0
VERTEX
  5
B6C
  8
0
 10
0.0
 20
0.0
 30
0.0
 70
   128
 71
     3
 72
     4
 73
     5
  0
SEQEND
  5
D32
  8
0
  0
POLYLINE
  5
B6D
  8
0
 66
     1
 10
0.0
 20
0.0
 30
0.0
 70
    64
 71
    10
 72
     8
  0
VERTEX
  5
B6E
  8
0
 10
373.9975495604899
 20
223.9985924982622
 30
-138.7980187711138
 70
   192
  0
VERTEX
  5
B6F
  8
0
 10
373.99754955643
 20
223.9985924982622
 30
-138.7980187710127
 70
   192
  0
VERTEX
  5
B70
  8
0
 10
373.99754955643
 20
223.9985924979371
 30
278.7817630038293
 70
   192
  0
VERTEX
  5
B71
  8
0
 10
376.497549558774
 20
223.3287195158311
 30
-138.7980187711193
 70
   192
  0
VERTEX
  5
B72
  8
0
 10
376.4975495626952
 20
223.3287195177459
 30
278.7817630037941
 70
   192
  0
VERTEX
  5
B73
  8
0
 10
378.3276765797037
 20
221.4985924982008
 30
278.7817630036905
 70
   192
  0
VERTEX
  5
B74
  8
0
 10
378.3276765760289
 20
221.4985924970902
 30
-138.7980187711207
 70
   192
  0
VERTEX
  5
B75
  8
0
 10
373.9975495633598
 20
223.9985924977783
 30
278.7817630039341
 70
   192
  0
VERTEX
  5
B76
  8
0
 10
378.9975495562711
 20
218.998592497937
 30
278.7817630036512
 70
   192
  0
VERTEX
  5
B77
  8
0
 10
378.9975495564299
 20
218.9985924982622
 30
-138.7980187711175
 70
   192
  0
VERTEX
  5
B78
  8
0
 10
0.0
 20
0.0
 30
0.0
 70
   128
 71
     1
 72
     2
 73
     3
  0
VERTEX
  5
B79
  8
0
 10
0.0
 20
0.0
 30
0.0
 70
   128
 71
     4
 72
     5
 73
    -6
  0
VERTEX
  5
B7A
  8
0
 10
0.0
 20
0.0
 30
0.0
 70
   128
 71
    -4
 72
     6
 73
     7
  0
VERTEX
  5
B7B
  8
0
 10
0.0
 20
0.0
 30
0.0
 70
   128
 71
     4
 72
     1
 73
     3
  0
VERTEX
  5
B7C
  8
0
 10
0.0
 20
0.0
 30
0.0
 70
   128
 71
     4
 72
     3
 73
     8
  0
VERTEX
  5
B7D
  8
0
 10
0.0
 20
0.0
 30
0.0
 70
   128
 71
     8
 72
     5
 73
     4
  0
VERTEX
  5
B7E
  8
0
 10
0.0
 20
0.0
 30
0.0
 70
   128
 71
     7
 72
     6
 73
    -9
  0
VERTEX
  5
B7F
  8
0
 10
0.0
 20
0.0
 30
0.0
 70
   128
 71
    -7
 72
     9
 73
    10
  0
SEQEND
  5
D33
  8
0
  0
POLYLINE
  5
B80
  8
0
 66
     1
 10
0.0
 20
0.0
 30
0.0
 70
    64
 71
    12
 72
    10
  0
VERTEX
  5
B81
  8
0
 10
358.9975495563797
 20
223.9985924982522
 30
-153.7980187749034
 70
   192
  0
VERTEX
  5
B82
  8
0
 10
366.4972618982877
 20
223.9985924982723
 30
-151.7880048181225
 70
   192
  0
VERTEX
  5
B83
  8
0
 10
371.9875356038825
 20
223.998592498268
 30
-146.2977311128784
 70
   192
  0
VERTEX
  5
B84
  8
0
 10
373.9975495604899
 20
223.9985924982622
 30
-138.7980187710127
 70
   192
  0
VERTEX
  5
B85
  8
0
 10
376.497549558774
 20
223.3287195158311
 30
-138.7980187711193
 70
   192
  0
VERTEX
  5
B86
  8
0
 10
378.3276765760289
 20
221.4985924970902
 30
-138.7980187711207
 70
   192
  0
VERTEX
  5
B87
  8
0
 10
378.99754955643
 20
218.9985924982622
 30
-138.7980187711177
 70
   192
  0
VERTEX
  5
B88
  8
0
 10
376.3180039133268
 20
218.9985924982689
 30
-148.7979896041115
 70
   192
  0
VERTEX
  5
B89
  8
0
 10
368.997520389424
 20
218.9985924982745
 30
-156.1184731280144
 70
   192
  0
VERTEX
  5
B8A
  8
0
 10
358.9975495564299
 20
218.9985924982779
 30
-158.7980187711002
 70
   192
  0
VERTEX
  5
B8B
  8
0
 10
358.9975495564192
 20
221.4985924984213
 30
-158.1281457924172
 70
   192
  0
VERTEX
  5
B8C
  8
0
 10
358.99754955639
 20
223.3287195176826
 30
-156.2980187745402
 70
   192
  0
VERTEX
  5
B8D
  8
0
 10
0.0
 20
0.0
 30
0.0
 70
   128
 71
     6
 72
     7
 73
     8
  0
VERTEX
  5
B8E
  8
0
 10
0.0
 20
0.0
 30
0.0
 70
   128
 71
     9
 72
    11
 73
    -6
  0
VERTEX
  5
B8F
  8
0
 10
0.0
 20
0.0
 30
0.0
 70
   128
 71
     8
 72
    -9
 73
     6
  0
VERTEX
  5
B90
  8
0
 10
0.0
 20
0.0
 30
0.0
 70
   128
 71
     9
 72
    10
 73
    11
  0
VERTEX
  5
B91
  8
0
 10
0.0
 20
0.0
 30
0.0
 70
   128
 71
    12
 72
     5
 73
    -6
  0
VERTEX
  5
B92
  8
0
 10
0.0
 20
0.0
 30
0.0
 70
   128
 71
    11
 72
   -12
 73
     6
  0
VERTEX
  5
B93
  8
0
 10
0.0
 20
0.0
 30
0.0
 70
   128
 71
    12
 72
     1
 73
     2
  0
VERTEX
  5
B94
  8
0
 10
0.0
 20
0.0
 30
0.0
 70
   128
 71
     3
 72
     5
 73
   -12
  0
VERTEX
  5
B95
  8
0
 10
0.0
 20
0.0
 30
0.0
 70
   128
 71
     2
 72
    -3
 73
    12
  0
VERTEX
  5
B96
  8
0
 10
0.0
 20
0.0
 30
0.0
 70
   128
 71
     3
 72
     4
 73
     5
  0
SEQEND
  5
D34
  8
0
  0
POLYLINE
  5
B97
  8
0
 66
     1
 10
0.0
 20
0.0
 30
0.0
 70
    64
 71
     9
 72
     7
  0
VERTEX
  5
B98
  8
0
 10
-359.0024504435732
 20
223.9985924982738
 30
-153.7980187751763
 70
   192
  0
VERTEX
  5
B99
  8
0
 10
-359.0024504434726
 20
223.9985924982738
 30
-153.7980187711136
 70
   192
  0
VERTEX
  5
B9A
  8
0
 10
358.9975495563797
 20
223.9985924982738
 30
-153.7980187711136
 70
   192
  0
VERTEX
  5
B9B
  8
0
 10
-359.0024504435735
 20
223.3287195158437
 30
-156.2980187734597
 70
   192
  0
VERTEX
  5
B9C
  8
0
 10
358.99754955639
 20
223.3287195176826
 30
-156.2980187745402
 70
   192
  0
VERTEX
  5
B9D
  8
0
 10
358.9975495564192
 20
221.4985924984213
 30
-158.1281457924172
 70
   192
  0
VERTEX
  5
B9E
  8
0
 10
-359.0024504435735
 20
221.4985924971044
 30
-158.1281457907149
 70
   192
  0
VERTEX
  5
B9F
  8
0
 10
358.9975495564299
 20
218.9985924982779
 30
-158.7980187710308
 70
   192
  0
VERTEX
  5
BA0
  8
0
 10
-359.0024504435738
 20
218.9985924982777
 30
-158.7980187711175
 70
   192
  0
VERTEX
  5
BA1
  8
0
 10
0.0
 20
0.0
 30
0.0
 70
   128
 71
     1
 72
     2
 73
     3
  0
VERTEX
  5
BA2
  8
0
 10
0.0
 20
0.0
 30
0.0
 70
   128
 71
     4
 72
     5
 73
    -6
  0
VERTEX
  5
BA3
  8
0
 10
0.0
 20
0.0
 30
0.0
 70
   128
 71
    -4
 72
     6
 73
     7
  0
VERTEX
  5
BA4
  8
0
 10
0.0
 20
0.0
 30
0.0
 70
   128
 71
     1
 72
     3
 73
    -5
  0
VERTEX
  5
BA5
  8
0
 10
0.0
 20
0.0
 30
0.0
 70
   128
 71
    -1
 72
     5
 73
     4
  0
VERTEX
  5
BA6
  8
0
 10
0.0
 20
0.0
 30
0.0
 70
   128
 71
     7
 72
     6
 73
    -8
  0
VERTEX
  5
BA7
  8
0
 10
0.0
 20
0.0
 30
0.0
 70
   128
 71
    -7
 72
     8
 73
     9
  0
SEQEND
  5
D35
  8
0
  0
POLYLINE
  5
BA8
  8
0
 66
     1
 10
0.0
 20
0.0
 30
0.0
 70
    64
 71
    12
 72
    10
  0
VERTEX
  5
BA9
  8
0
 10
-374.0024504473636
 20
223.9985924982405
 30
-138.7980187710661
 70
   192
  0
VERTEX
  5
BAA
  8
0
 10
-371.9924364905822
 20
223.998592498268
 30
-146.2977311129781
 70
   192
  0
VERTEX
  5
BAB
  8
0
 10
-366.5021627853381
 20
223.9985924982723
 30
-151.7880048185716
 70
   192
  0
VERTEX
  5
BAC
  8
0
 10
-359.0024504434726
 20
223.9985924982738
 30
-153.7980187751763
 70
   192
  0
VERTEX
  5
BAD
  8
0
 10
-359.0024504435735
 20
223.3287195158437
 30
-156.2980187734597
 70
   192
  0
VERTEX
  5
BAE
  8
0
 10
-359.0024504435735
 20
221.4985924971044
 30
-158.1281457907149
 70
   192
  0
VERTEX
  5
BAF
  8
0
 10
-359.0024504435732
 20
218.9985924982777
 30
-158.7980187711175
 70
   192
  0
VERTEX
  5
BB0
  8
0
 10
-369.0024212765679
 20
218.9985924982753
 30
-156.1184731280144
 70
   192
  0
VERTEX
  5
BB1
  8
0
 10
-376.3229048004707
 20
218.9985924982696
 30
-148.7979896041115
 70
   192
  0
VERTEX
  5
BB2
  8
0
 10
-379.0024504435569
 20
218.9985924982622
 30
-138.7980187711175
 70
   192
  0
VERTEX
  5
BB3
  8
0
 10
-378.3325774648755
 20
221.4985924984061
 30
-138.7980187711054
 70
   192
  0
VERTEX
  5
BB4
  8
0
 10
-376.5024504469998
 20
223.3287195176689
 30
-138.7980187710762
 70
   192
  0
VERTEX
  5
BB5
  8
0
 10
0.0
 20
0.0
 30
0.0
 70
   128
 71
     6
 72
     7
 73
     8
  0
VERTEX
  5
BB6
  8
0
 10
0.0
 20
0.0
 30
0.0
 70
   128
 71
     9
 72
    11
 73
    -6
  0
VERTEX
  5
BB7
  8
0
 10
0.0
 20
0.0
 30
0.0
 70
   128
 71
     8
 72
    -9
 73
     6
  0
VERTEX
  5
BB8
  8
0
 10
0.0
 20
0.0
 30
0.0
 70
   128
 71
     9
 72
    10
 73
    11
  0
VERTEX
  5
BB9
  8
0
 10
0.0
 20
0.0
 30
0.0
 70
   128
 71
    12
 72
     5
 73
    -6
  0
VERTEX
  5
BBA
  8
0
 10
0.0
 20
0.0
 30
0.0
 70
   128
 71
    11
 72
   -12
 73
     6
  0
VERTEX
  5
BBB
  8
0
 10
0.0
 20
0.0
 30
0.0
 70
   128
 71
    12
 72
     1
 73
     2
  0
VERTEX
  5
BBC
  8
0
 10
0.0
 20
0.0
 30
0.0
 70
   128
 71
     3
 72
     5
 73
   -12
  0
VERTEX
  5
BBD
  8
0
 10
0.0
 20
0.0
 30
0.0
 70
   128
 71
     2
 72
    -3
 73
    12
  0
VERTEX
  5
BBE
  8
0
 10
0.0
 20
0.0
 30
0.0
 70
   128
 71
     3
 72
     4
 73
     5
  0
SEQEND
  5
D36
  8
0
  0
POLYLINE
  5
BBF
  8
0
 66
     1
 10
0.0
 20
0.0
 30
0.0
 70
    64
 71
     8
 72
     6
  0
VERTEX
  5
BC0
  8
0
 10
-376.5024504436087
 20
223.3287195168394
 30
278.7817630036582
 70
   192
  0
VERTEX
  5
BC1
  8
0
 10
-376.5024504469998
 20
223.3287195176689
 30
-138.7980187710762
 70
   192
  0
VERTEX
  5
BC2
  8
0
 10
-378.3325774648755
 20
221.4985924984061
 30
-138.7980187711054
 70
   192
  0
VERTEX
  5
BC3
  8
0
 10
-378.3325774625063
 20
221.4985924979198
 30
278.7817630036568
 70
   192
  0
VERTEX
  5
BC4
  8
0
 10
-374.0024504436339
 20
223.9985924979371
 30
278.7817630036551
 70
   192
  0
VERTEX
  5
BC5
  8
0
 10
-374.002450443574
 20
223.9985924982622
 30
-138.7980187710661
 70
   192
  0
VERTEX
  5
BC6
  8
0
 10
-379.0024504434874
 20
218.9985924982622
 30
-138.7980187711175
 70
   192
  0
VERTEX
  5
BC7
  8
0
 10
-379.0024504435721
 20
218.998592497937
 30
278.7817630036511
 70
   192
  0
VERTEX
  5
BC8
  8
0
 10
0.0
 20
0.0
 30
0.0
 70
   128
 71
     1
 72
     2
 73
    -3
  0
VERTEX
  5
BC9
  8
0
 10
0.0
 20
0.0
 30
0.0
 70
   128
 71
    -1
 72
     3
 73
     4
  0
VERTEX
  5
BCA
  8
0
 10
0.0
 20
0.0
 30
0.0
 70
   128
 71
     5
 72
     6
 73
    -2
  0
VERTEX
  5
BCB
  8
0
 10
0.0
 20
0.0
 30
0.0
 70
   128
 71
    -5
 72
     2
 73
     1
  0
VERTEX
  5
BCC
  8
0
 10
0.0
 20
0.0
 30
0.0
 70
   128
 71
     4
 72
     3
 73
    -7
  0
VERTEX
  5
BCD
  8
0
 10
0.0
 20
0.0
 30
0.0
 70
   128
 71
    -4
 72
     7
 73
     8
  0
SEQEND
  5
D37
  8
0
  0
POLYLINE
  5
BCE
  8
0
 66
     1
 10
0.0
 20
0.0
 30
0.0
 70
    64
 71
    12
 72
    10
  0
VERTEX
  5
BCF
  8
0
 10
-364.6015579457667
 20
223.9985924979262
 30
292.6976560817145
 70
   192
  0
VERTEX
  5
BD0
  8
0
 10
-369.5368194822781
 20
223.9985924979287
 30
289.4599158239151
 70
   192
  0
VERTEX
  5
BD1
  8
0
 10
-372.8409926915462
 20
223.9985924979325
 30
284.5688717049757
 70
   192
  0
VERTEX
  5
BD2
  8
0
 10
-374.0024504436339
 20
223.998592497937
 30
278.7817630036561
 70
   192
  0
VERTEX
  5
BD3
  8
0
 10
-376.5024504436087
 20
223.3287195168394
 30
278.7817630036582
 70
   192
  0
VERTEX
  5
BD4
  8
0
 10
-378.3325774625063
 20
221.4985924979198
 30
278.7817630036568
 70
   192
  0
VERTEX
  5
BD5
  8
0
 10
-379.0024504435741
 20
218.998592497937
 30
278.7817630036512
 70
   192
  0
VERTEX
  5
BD6
  8
0
 10
-377.4537103836157
 20
218.9985924979314
 30
286.497864139746
 70
   192
  0
VERTEX
  5
BD7
  8
0
 10
-373.0481867724818
 20
218.9985924979263
 30
293.0191960973034
 70
   192
  0
VERTEX
  5
BD8
  8
0
 10
-366.4679072296124
 20
218.9985924979226
 30
297.336239005285
 70
   192
  0
VERTEX
  5
BD9
  8
0
 10
-366.2178734296295
 20
221.4985928942824
 30
296.7148105699023
 70
   192
  0
VERTEX
  5
BDA
  8
0
 10
-365.5347381256789
 20
223.3287202040558
 30
295.0169613073335
 70
   192
  0
VERTEX
  5
BDB
  8
0
 10
0.0
 20
0.0
 30
0.0
 70
   128
 71
     6
 72
     7
 73
     8
  0
VERTEX
  5
BDC
  8
0
 10
0.0
 20
0.0
 30
0.0
 70
   128
 71
     9
 72
    11
 73
     6
  0
VERTEX
  5
BDD
  8
0
 10
0.0
 20
0.0
 30
0.0
 70
   128
 71
     8
 72
     9
 73
     6
  0
VERTEX
  5
BDE
  8
0
 10
0.0
 20
0.0
 30
0.0
 70
   128
 71
     9
 72
    10
 73
    11
  0
VERTEX
  5
BDF
  8
0
 10
0.0
 20
0.0
 30
0.0
 70
   128
 71
    12
 72
     5
 73
     6
  0
VERTEX
  5
BE0
  8
0
 10
0.0
 20
0.0
 30
0.0
 70
   128
 71
    11
 72
    12
 73
     6
  0
VERTEX
  5
BE1
  8
0
 10
0.0
 20
0.0
 30
0.0
 70
   128
 71
    12
 72
     1
 73
     2
  0
VERTEX
  5
BE2
  8
0
 10
0.0
 20
0.0
 30
0.0
 70
   128
 71
     3
 72
     5
 73
    12
  0
VERTEX
  5
BE3
  8
0
 10
0.0
 20
0.0
 30
0.0
 70
   128
 71
     2
 72
     3
 73
    12
  0
VERTEX
  5
BE4
  8
0
 10
0.0
 20
0.0
 30
0.0
 70
   128
 71
     3
 72
     4
 73
     5
  0
SEQEND
  5
D38
  8
0
  0
POLYLINE
  5
BE5
  8
0
 66
     1
 10
0.0
 20
0.0
 30
0.0
 70
    64
 71
    21
 72
    21
  0
VERTEX
  5
BE6
  8
0
 10
343.9975495564298
 20
9.998592497944975
 30
268.5959293331559
 70
   192
  0
VERTEX
  5
BE7
  8
0
 10
343.9975495564298
 20
9.998592498250469
 30
-123.7980187713675
 70
   192
  0
VERTEX
  5
BE8
  8
0
 10
-344.0024504436533
 20
9.998592498250469
 30
-123.7980187712803
 70
   192
  0
VERTEX
  5
BE9
  8
0
 10
-344.0024504435733
 20
9.998592497944975
 30
268.5959293107804
 70
   192
  0
VERTEX
  5
BEA
  8
0
 10
-232.310530272528
 20
9.998592497916544
 30
305.1153352678733
 70
   192
  0
VERTEX
  5
BEB
  8
0
 10
-117.113076480203
 20
9.998592497898604
 30
328.1545842844861
 70
   192
  0
VERTEX
  5
BEC
  8
0
 10
-0.0024683802799519
 20
9.998592497892368
 30
336.2019878417415
 70
   192
  0
VERTEX
  5
BED
  8
0
 10
117.1077098835469
 20
9.998592497898603
 30
328.1546409312258
 70
   192
  0
VERTEX
  5
BEE
  8
0
 10
232.3051413789354
 20
9.998592497916542
 30
305.115468859433
 70
   192
  0
VERTEX
  5
BEF
  8
0
 10
-55.00245044754016
 20
9.998592498155546
 30
-1.899057828641332
 70
   192
  0
VERTEX
  5
BF0
  8
0
 10
-47.63381831990412
 20
9.998592498176984
 30
-29.39903967035592
 70
   192
  0
VERTEX
  5
BF1
  8
0
 10
-27.5024090530718
 20
9.998592498192657
 30
-49.53037875671682
 70
   192
  0
VERTEX
  5
BF2
  8
0
 10
-0.0024504435300887
 20
9.9985924981984
 30
-56.89905783256063
 70
   192
  0
VERTEX
  5
BF3
  8
0
 10
27.4975313981855
 20
9.998592498192636
 30
-49.53042570492467
 70
   192
  0
VERTEX
  5
BF4
  8
0
 10
47.6288704845484
 20
9.998592498176984
 30
-29.39901643809626
 70
   192
  0
VERTEX
  5
BF5
  8
0
 10
54.99754955840985
 20
9.998592498155546
 30
-1.899057828572817
 70
   192
  0
VERTEX
  5
BF6
  8
0
 10
47.62891743212529
 20
9.998592498134146
 30
25.60092401309506
 70
   192
  0
VERTEX
  5
BF7
  8
0
 10
27.49750816592068
 20
9.998592498118462
 30
45.73226310008981
 70
   192
  0
VERTEX
  5
BF8
  8
0
 10
-0.0024504436200168
 20
9.998592498112746
 30
53.1009421753695
 70
   192
  0
VERTEX
  5
BF9
  8
0
 10
-27.50243228544815
 20
9.998592498118468
 30
45.73231004761959
 70
   192
  0
VERTEX
  5
BFA
  8
0
 10
-47.63377137184857
 20
9.998592498134148
 30
25.60090078075897
 70
   192
  0
VERTEX
  5
BFB
  8
0
 10
0.0
 20
0.0
 30
0.0
 70
   128
 71
    -3
 72
    10
 73
   -11
  0
VERTEX
  5
BFC
  8
0
 10
0.0
 20
0.0
 30
0.0
 70
   128
 71
    11
 72
   -12
 73
    -3
  0
VERTEX
  5
BFD
  8
0
 10
0.0
 20
0.0
 30
0.0
 70
   128
 71
    12
 72
   -13
 73
    -3
  0
VERTEX
  5
BFE
  8
0
 10
0.0
 20
0.0
 30
0.0
 70
   128
 71
   -13
 72
     2
 73
    -3
  0
VERTEX
  5
BFF
  8
0
 10
0.0
 20
0.0
 30
0.0
 70
   128
 71
    13
 72
   -14
 73
    -2
  0
VERTEX
  5
C00
  8
0
 10
0.0
 20
0.0
 30
0.0
 70
   128
 71
    14
 72
   -15
 73
    -2
  0
VERTEX
  5
C01
  8
0
 10
0.0
 20
0.0
 30
0.0
 70
   128
 71
    15
 72
   -16
 73
    -2
  0
VERTEX
  5
C02
  8
0
 10
0.0
 20
0.0
 30
0.0
 70
   128
 71
    16
 72
   -17
 73
    -2
  0
VERTEX
  5
C03
  8
0
 10
0.0
 20
0.0
 30
0.0
 70
   128
 71
     9
 72
     1
 73
    -2
  0
VERTEX
  5
C04
  8
0
 10
0.0
 20
0.0
 30
0.0
 70
   128
 71
     8
 72
    -9
 73
    -2
  0
VERTEX
  5
C05
  8
0
 10
0.0
 20
0.0
 30
0.0
 70
   128
 71
   -18
 72
    -8
 73
    -2
  0
VERTEX
  5
C06
  8
0
 10
0.0
 20
0.0
 30
0.0
 70
   128
 71
    17
 72
   -18
 73
    -2
  0
VERTEX
  5
C07
  8
0
 10
0.0
 20
0.0
 30
0.0
 70
   128
 71
   -19
 72
     7
 73
    -8
  0
VERTEX
  5
C08
  8
0
 10
0.0
 20
0.0
 30
0.0
 70
   128
 71
    18
 72
   -19
 73
    -8
  0
VERTEX
  5
C09
  8
0
 10
0.0
 20
0.0
 30
0.0
 70
   128
 71
   -20
 72
     6
 73
    -7
  0
VERTEX
  5
C0A
  8
0
 10
0.0
 20
0.0
 30
0.0
 70
   128
 71
    19
 72
   -20
 73
    -7
  0
VERTEX
  5
C0B
  8
0
 10
0.0
 20
0.0
 30
0.0
 70
   128
 71
     4
 72
     5
 73
    -6
  0
VERTEX
  5
C0C
  8
0
 10
0.0
 20
0.0
 30
0.0
 70
   128
 71
     3
 72
    -4
 73
    -6
  0
VERTEX
  5
C0D
  8
0
 10
0.0
 20
0.0
 30
0.0
 70
   128
 71
   -21
 72
    -3
 73
    -6
  0
VERTEX
  5
C0E
  8
0
 10
0.0
 20
0.0
 30
0.0
 70
   128
 71
    20
 72
   -21
 73
    -6
  0
VERTEX
  5
C0F
  8
0
 10
0.0
 20
0.0
 30
0.0
 70
   128
 71
    21
 72
   -10
 73
    -3
  0
SEQEND
  5
D39
  8
0
  0
POLYLINE
  5
C10
  8
0
 66
     1
 10
0.0
 20
0.0
 30
0.0
 70
    64
 71
    28
 72
    28
  0
VERTEX
  5
C11
  8
0
 10
-374.002450443574
 20
223.9985924982622
 30
-138.7980187710661
 70
   192
  0
VERTEX
  5
C12
  8
0
 10
-374.002450443574
 20
223.9985924979371
 30
278.781763003656
 70
   192
  0
VERTEX
  5
C13
  8
0
 10
-372.8409926915462
 20
223.9985924979325
 30
284.5688717049757
 70
   192
  0
VERTEX
  5
C14
  8
0
 10
-369.5368194822781
 20
223.9985924979287
 30
289.4599158239151
 70
   192
  0
VERTEX
  5
C15
  8
0
 10
-364.6015579457667
 20
223.9985924979262
 30
292.6976560817145
 70
   192
  0
VERTEX
  5
C16
  8
0
 10
-246.4315529532073
 20
223.9985924978953
 30
332.3930220822085
 70
   192
  0
VERTEX
  5
C17
  8
0
 10
-124.3265167327145
 20
223.9985924978758
 30
357.4449137847642
 70
   192
  0
VERTEX
  5
C18
  8
0
 10
-0.0024504435700567
 20
223.998592497869
 30
366.2019812288861
 70
   192
  0
VERTEX
  5
C19
  8
0
 10
124.3216158455676
 20
223.9985924978758
 30
357.4449137847641
 70
   192
  0
VERTEX
  5
C1A
  8
0
 10
246.4266520660635
 20
223.9985924978953
 30
332.393022082209
 70
   192
  0
VERTEX
  5
C1B
  8
0
 10
364.5966570562795
 20
223.9985924979262
 30
292.6976560762921
 70
   192
  0
VERTEX
  5
C1C
  8
0
 10
369.5319185946954
 20
223.9985924979287
 30
289.4599158230967
 70
   192
  0
VERTEX
  5
C1D
  8
0
 10
372.8360918052479
 20
223.9985924979325
 30
284.5688717050712
 70
   192
  0
VERTEX
  5
C1E
  8
0
 10
373.9975495633598
 20
223.9985924978973
 30
278.7817630038293
 70
   192
  0
VERTEX
  5
C1F
  8
0
 10
373.99754955643
 20
223.9985924982622
 30
-138.7980187710127
 70
   192
  0
VERTEX
  5
C20
  8
0
 10
371.9875356038825
 20
223.998592498268
 30
-146.2977311128784
 70
   192
  0
VERTEX
  5
C21
  8
0
 10
366.4972618982877
 20
223.9985924982723
 30
-151.7880048181225
 70
   192
  0
VERTEX
  5
C22
  8
0
 10
358.9975495563797
 20
223.9985924982522
 30
-153.7980187749034
 70
   192
  0
VERTEX
  5
C23
  8
0
 10
-359.0024504434726
 20
223.9985924982738
 30
-153.7980187711136
 70
   192
  0
VERTEX
  5
C24
  8
0
 10
-366.5021627853381
 20
223.9985924982723
 30
-151.7880048185716
 70
   192
  0
VERTEX
  5
C25
  8
0
 10
-371.9924364905822
 20
223.998592498268
 30
-146.2977311129781
 70
   192
  0
VERTEX
  5
C26
  8
0
 10
353.99754955643
 20
223.9985924982583
 30
-133.7980187711045
 70
   192
  0
VERTEX
  5
C27
  8
0
 10
353.99754955643
 20
223.9985924979397
 30
275.39818129303
 70
   192
  0
VERTEX
  5
C28
  8
0
 10
180.3129235844838
 20
223.998592497899
 30
327.5473217117268
 70
   192
  0
VERTEX
  5
C29
  8
0
 10
-0.0024504656437836
 20
223.9985924978846
 30
346.2019878419065
 70
   192
  0
VERTEX
  5
C2A
  8
0
 10
-180.3178246570196
 20
223.9985924978991
 30
327.5473224219753
 70
   192
  0
VERTEX
  5
C2B
  8
0
 10
-354.0024504435739
 20
223.9985924979397
 30
275.3981812687041
 70
   192
  0
VERTEX
  5
C2C
  8
0
 10
-354.002450443574
 20
223.9985924982583
 30
-133.7980187712375
 70
   192
  0
VERTEX
  5
C2D
  8
0
 10
0.0
 20
0.0
 30
0.0
 70
   128
 71
   -15
 72
    22
 73
   -23
  0
VERTEX
  5
C2E
  8
0
 10
0.0
 20
0.0
 30
0.0
 70
   128
 71
    14
 72
   -15
 73
   -23
  0
VERTEX
  5
C2F
  8
0
 10
0.0
 20
0.0
 30
0.0
 70
   128
 71
    13
 72
   -14
 73
   -23
  0
VERTEX
  5
C30
  8
0
 10
0.0
 20
0.0
 30
0.0
 70
   128
 71
    12
 72
   -13
 73
   -23
  0
VERTEX
  5
C31
  8
0
 10
0.0
 20
0.0
 30
0.0
 70
   128
 71
    11
 72
   -12
 73
   -23
  0
VERTEX
  5
C32
  8
0
 10
0.0
 20
0.0
 30
0.0
 70
   128
 71
     9
 72
    10
 73
   -11
  0
VERTEX
  5
C33
  8
0
 10
0.0
 20
0.0
 30
0.0
 70
   128
 71
   -24
 72
    -9
 73
   -11
  0
VERTEX
  5
C34
  8
0
 10
0.0
 20
0.0
 30
0.0
 70
   128
 71
    23
 72
   -24
 73
   -11
  0
VERTEX
  5
C35
  8
0
 10
0.0
 20
0.0
 30
0.0
 70
   128
 71
   -25
 72
     8
 73
    -9
  0
VERTEX
  5
C36
  8
0
 10
0.0
 20
0.0
 30
0.0
 70
   128
 71
    24
 72
   -25
 73
    -9
  0
VERTEX
  5
C37
  8
0
 10
0.0
 20
0.0
 30
0.0
 70
   128
 71
   -26
 72
     7
 73
    -8
  0
VERTEX
  5
C38
  8
0
 10
0.0
 20
0.0
 30
0.0
 70
   128
 71
    25
 72
   -26
 73
    -8
  0
VERTEX
  5
C39
  8
0
 10
0.0
 20
0.0
 30
0.0
 70
   128
 71
     5
 72
     6
 73
    -7
  0
VERTEX
  5
C3A
  8
0
 10
0.0
 20
0.0
 30
0.0
 70
   128
 71
   -27
 72
    -5
 73
    -7
  0
VERTEX
  5
C3B
  8
0
 10
0.0
 20
0.0
 30
0.0
 70
   128
 71
    26
 72
   -27
 73
    -7
  0
VERTEX
  5
C3C
  8
0
 10
0.0
 20
0.0
 30
0.0
 70
   128
 71
     3
 72
     4
 73
    -5
  0
VERTEX
  5
C3D
  8
0
 10
0.0
 20
0.0
 30
0.0
 70
   128
 71
     2
 72
    -3
 73
    -5
  0
VERTEX
  5
C3E
  8
0
 10
0.0
 20
0.0
 30
0.0
 70
   128
 71
     1
 72
    -2
 73
    -5
  0
VERTEX
  5
C3F
  8
0
 10
0.0
 20
0.0
 30
0.0
 70
   128
 71
   -28
 72
    -1
 73
    -5
  0
VERTEX
  5
C40
  8
0
 10
0.0
 20
0.0
 30
0.0
 70
   128
 71
    27
 72
   -28
 73
    -5
  0
VERTEX
  5
C41
  8
0
 10
0.0
 20
0.0
 30
0.0
 70
   128
 71
    20
 72
    21
 73
    -1
  0
VERTEX
  5
C42
  8
0
 10
0.0
 20
0.0
 30
0.0
 70
   128
 71
    19
 72
   -20
 73
    -1
  0
VERTEX
  5
C43
  8
0
 10
0.0
 20
0.0
 30
0.0
 70
   128
 71
    18
 72
   -19
 73
    -1
  0
VERTEX
  5
C44
  8
0
 10
0.0
 20
0.0
 30
0.0
 70
   128
 71
    17
 72
   -18
 73
    -1
  0
VERTEX
  5
C45
  8
0
 10
0.0
 20
0.0
 30
0.0
 70
   128
 71
    16
 72
   -17
 73
    -1
  0
VERTEX
  5
C46
  8
0
 10
0.0
 20
0.0
 30
0.0
 70
   128
 71
    15
 72
   -16
 73
    -1
  0
VERTEX
  5
C47
  8
0
 10
0.0
 20
0.0
 30
0.0
 70
   128
 71
   -22
 72
   -15
 73
    -1
  0
VERTEX
  5
C48
  8
0
 10
0.0
 20
0.0
 30
0.0
 70
   128
 71
    28
 72
   -22
 73
    -1
  0
SEQEND
  5
D3A
  8
0
  0
POLYLINE
  5
C49
  8
0
 66
     1
 10
0.0
 20
0.0
 30
0.0
 70
    64
 71
     8
 72
     6
  0
VERTEX
  5
C4A
  8
0
 10
-346.4476588257373
 20
10.63729040265919
 30
-126.2432271532826
 70
   192
  0
VERTEX
  5
C4B
  8
0
 10
-344.0024504436533
 20
9.998592498250469
 30
-123.7980187712002
 70
   192
  0
VERTEX
  5
C4C
  8
0
 10
343.9975495563426
 20
9.998592498250469
 30
-123.7980187713675
 70
   192
  0
VERTEX
  5
C4D
  8
0
 10
346.442757938427
 20
10.6372904026569
 30
-126.2432271534506
 70
   192
  0
VERTEX
  5
C4E
  8
0
 10
-348.3637525392097
 20
12.55338411611339
 30
-128.1593208667534
 70
   192
  0
VERTEX
  5
C4F
  8
0
 10
348.3588516518985
 20
12.55338411611015
 30
-128.1593208669208
 70
   192
  0
VERTEX
  5
C50
  8
0
 10
348.9975495563414
 20
14.99859249821195
 30
-128.7980187713624
 70
   192
  0
VERTEX
  5
C51
  8
0
 10
-349.0024504436548
 20
14.99859249825436
 30
-128.7980187712764
 70
   192
  0
VERTEX
  5
C52
  8
0
 10
0.0
 20
0.0
 30
0.0
 70
   128
 71
     1
 72
     2
 73
    -3
  0
VERTEX
  5
C53
  8
0
 10
0.0
 20
0.0
 30
0.0
 70
   128
 71
    -1
 72
     3
 73
     4
  0
VERTEX
  5
C54
  8
0
 10
0.0
 20
0.0
 30
0.0
 70
   128
 71
     5
 72
     1
 73
     4
  0
VERTEX
  5
C55
  8
0
 10
0.0
 20
0.0
 30
0.0
 70
   128
 71
     4
 72
     6
 73
     7
  0
VERTEX
  5
C56
  8
0
 10
0.0
 20
0.0
 30
0.0
 70
   128
 71
     5
 72
     4
 73
     7
  0
VERTEX
  5
C57
  8
0
 10
0.0
 20
0.0
 30
0.0
 70
   128
 71
     7
 72
     8
 73
     5
  0
SEQEND
  5
D3B
  8
0
  0
POLYLINE
  5
C58
  8
0
 66
     1
 10
0.0
 20
0.0
 30
0.0
 70
    64
 71
     8
 72
     6
  0
VERTEX
  5
C59
  8
0
 10
346.442757938427
 20
10.6372904026569
 30
-126.2432271534506
 70
   192
  0
VERTEX
  5
C5A
  8
0
 10
343.9975495563426
 20
9.998592498250469
 30
-123.7980187713675
 70
   192
  0
VERTEX
  5
C5B
  8
0
 10
343.99754955643
 20
9.99859249794499
 30
268.5959293331559
 70
   192
  0
VERTEX
  5
C5C
  8
0
 10
346.3751499347609
 20
10.60007447633157
 30
270.217137782693
 70
   192
  0
VERTEX
  5
C5D
  8
0
 10
348.3588516518985
 20
12.55338411611015
 30
-128.1593208669208
 70
   192
  0
VERTEX
  5
C5E
  8
0
 10
348.2372698462505
 20
12.34816561307805
 30
271.4860029862792
 70
   192
  0
VERTEX
  5
C5F
  8
0
 10
348.9975495564282
 20
14.99859249794233
 30
272.0029492869695
 70
   192
  0
VERTEX
  5
C60
  8
0
 10
348.9975495564299
 20
14.99859249825434
 30
-128.7980187713624
 70
   192
  0
VERTEX
  5
C61
  8
0
 10
0.0
 20
0.0
 30
0.0
 70
   128
 71
     1
 72
     2
 73
     3
  0
VERTEX
  5
C62
  8
0
 10
0.0
 20
0.0
 30
0.0
 70
   128
 71
     1
 72
     3
 73
     4
  0
VERTEX
  5
C63
  8
0
 10
0.0
 20
0.0
 30
0.0
 70
   128
 71
     5
 72
     1
 73
     4
  0
VERTEX
  5
C64
  8
0
 10
0.0
 20
0.0
 30
0.0
 70
   128
 71
     4
 72
     6
 73
     7
  0
VERTEX
  5
C65
  8
0
 10
0.0
 20
0.0
 30
0.0
 70
   128
 71
     5
 72
     4
 73
     7
  0
VERTEX
  5
C66
  8
0
 10
0.0
 20
0.0
 30
0.0
 70
   128
 71
     7
 72
     8
 73
     5
  0
SEQEND
  5
D3C
  8
0
  0
POLYLINE
  5
C67
  8
0
 66
     1
 10
0.0
 20
0.0
 30
0.0
 70
    64
 71
    12
 72
    10
  0
VERTEX
  5
C68
  8
0
 10
-349.0024504435742
 20
14.99859249794233
 30
272.0029492869695
 70
   192
  0
VERTEX
  5
C69
  8
0
 10
-235.827234681683
 20
14.99859249791325
 30
309.355466879443
 70
   192
  0
VERTEX
  5
C6A
  8
0
 10
-118.973174194881
 20
14.99859249789488
 30
332.9470430380713
 70
   192
  0
VERTEX
  5
C6B
  8
0
 10
-0.002468483450091
 20
14.99859249788843
 30
341.2019878417454
 70
   192
  0
VERTEX
  5
C6C
  8
0
 10
-0.002468470271101
 20
12.55338411583458
 30
340.563289937257
 70
   192
  0
VERTEX
  5
C6D
  8
0
 10
-0.00246843073437
 20
10.63729040237685
 30
338.6471962237964
 70
   192
  0
VERTEX
  5
C6E
  8
0
 10
-0.0024683802799519
 20
9.99859249789237
 30
336.2019878417416
 70
   192
  0
VERTEX
  5
C6F
  8
0
 10
-117.113076480203
 20
9.998592497898604
 30
328.1545842844861
 70
   192
  0
VERTEX
  5
C70
  8
0
 10
-232.310530272528
 20
9.998592497916544
 30
305.1153352678733
 70
   192
  0
VERTEX
  5
C71
  8
0
 10
-344.0024504435731
 20
9.99859249794499
 30
268.5959293107804
 70
   192
  0
VERTEX
  5
C72
  8
0
 10
-346.390268108141
 20
10.60522153040942
 30
270.2235895015742
 70
   192
  0
VERTEX
  5
C73
  8
0
 10
-348.2450156923394
 20
12.35373413394389
 30
271.4882679584695
 70
   192
  0
VERTEX
  5
C74
  8
0
 10
0.0
 20
0.0
 30
0.0
 70
   128
 71
     3
 72
     4
 73
     5
  0
VERTEX
  5
C75
  8
0
 10
0.0
 20
0.0
 30
0.0
 70
   128
 71
     8
 72
     3
 73
     5
  0
VERTEX
  5
C76
  8
0
 10
0.0
 20
0.0
 30
0.0
 70
   128
 71
     5
 72
     6
 73
     8
  0
VERTEX
  5
C77
  8
0
 10
0.0
 20
0.0
 30
0.0
 70
   128
 71
     6
 72
     7
 73
     8
  0
VERTEX
  5
C78
  8
0
 10
0.0
 20
0.0
 30
0.0
 70
   128
 71
     9
 72
     2
 73
     3
  0
VERTEX
  5
C79
  8
0
 10
0.0
 20
0.0
 30
0.0
 70
   128
 71
     8
 72
     9
 73
     3
  0
VERTEX
  5
C7A
  8
0
 10
0.0
 20
0.0
 30
0.0
 70
   128
 71
    11
 72
     1
 73
     2
  0
VERTEX
  5
C7B
  8
0
 10
0.0
 20
0.0
 30
0.0
 70
   128
 71
    10
 72
    11
 73
     2
  0
VERTEX
  5
C7C
  8
0
 10
0.0
 20
0.0
 30
0.0
 70
   128
 71
     9
 72
    10
 73
     2
  0
VERTEX
  5
C7D
  8
0
 10
0.0
 20
0.0
 30
0.0
 70
   128
 71
    11
 72
    12
 73
     1
  0
SEQEND
  5
D3D
  8
0
  0
POLYLINE
  5
C7E
  8
0
 66
     1
 10
0.0
 20
0.0
 30
0.0
 70
    64
 71
     8
 72
     6
  0
VERTEX
  5
C7F
  8
0
 10
-346.390268108141
 20
10.60522153040942
 30
270.2235895015742
 70
   192
  0
VERTEX
  5
C80
  8
0
 10
-344.0024504435731
 20
9.99859249794499
 30
268.5959293107804
 70
   192
  0
VERTEX
  5
C81
  8
0
 10
-344.0024504436533
 20
9.998592498250469
 30
-123.7980187712002
 70
   192
  0
VERTEX
  5
C82
  8
0
 10
-346.4476588257373
 20
10.63729040265919
 30
-126.2432271532826
 70
   192
  0
VERTEX
  5
C83
  8
0
 10
-348.2450156923394
 20
12.35373413394389
 30
271.4882679584695
 70
   192
  0
VERTEX
  5
C84
  8
0
 10
-348.3637525392097
 20
12.55338411611339
 30
-128.1593208667534
 70
   192
  0
VERTEX
  5
C85
  8
0
 10
-349.0024504436548
 20
14.99859249821372
 30
-128.7980187711977
 70
   192
  0
VERTEX
  5
C86
  8
0
 10
-349.002450443574
 20
14.9985924979423
 30
272.0029492869695
 70
   192
  0
VERTEX
  5
C87
  8
0
 10
0.0
 20
0.0
 30
0.0
 70
   128
 71
     1
 72
     2
 73
     3
  0
VERTEX
  5
C88
  8
0
 10
0.0
 20
0.0
 30
0.0
 70
   128
 71
     1
 72
     3
 73
     4
  0
VERTEX
  5
C89
  8
0
 10
0.0
 20
0.0
 30
0.0
 70
   128
 71
     5
 72
     1
 73
     4
  0
VERTEX
  5
C8A
  8
0
 10
0.0
 20
0.0
 30
0.0
 70
   128
 71
     4
 72
     6
 73
     7
  0
VERTEX
  5
C8B
  8
0
 10
0.0
 20
0.0
 30
0.0
 70
   128
 71
     5
 72
     4
 73
     7
  0
VERTEX
  5
C8C
  8
0
 10
0.0
 20
0.0
 30
0.0
 70
   128
 71
     7
 72
     8
 73
     5
  0
SEQEND
  5
D3E
  8
0
  0
POLYLINE
  5
C8D
  8
0
 66
     1
 10
0.0
 20
0.0
 30
0.0
 70
    64
 71
    14
 72
    12
  0
VERTEX
  5
C8E
  8
0
 10
-180.3178246570196
 20
223.9985924978991
 30
327.5473224219753
 70
   192
  0
VERTEX
  5
C8F
  8
0
 10
-0.0024504656437836
 20
223.9985924978846
 30
346.2019878419065
 70
   192
  0
VERTEX
  5
C90
  8
0
 10
-177.6591945131206
 20
218.9985924979026
 30
322.9852745709787
 70
   192
  0
VERTEX
  5
C91
  8
0
 10
-349.0024504435742
 20
218.9985924979424
 30
272.0029492871283
 70
   192
  0
VERTEX
  5
C92
  8
0
 10
-349.7786716674116
 20
221.6742749582673
 30
272.5307563011203
 70
   192
  0
VERTEX
  5
C93
  8
0
 10
-351.6404870656447
 20
223.4054850404796
 30
273.795654806859
 70
   192
  0
VERTEX
  5
C94
  8
0
 10
-354.0024504435739
 20
223.9985924979397
 30
275.3981812687041
 70
   192
  0
VERTEX
  5
C95
  8
0
 10
180.3129235844838
 20
223.998592497899
 30
327.5473217117268
 70
   192
  0
VERTEX
  5
C96
  8
0
 10
353.99754955643
 20
223.9985924979397
 30
275.3981812930301
 70
   192
  0
VERTEX
  5
C97
  8
0
 10
351.6055620081607
 20
223.3896782558575
 30
273.7762283514314
 70
   192
  0
VERTEX
  5
C98
  8
0
 10
349.7737936683881
 20
221.6743105509327
 30
272.5307752506795
 70
   192
  0
VERTEX
  5
C99
  8
0
 10
177.6542925920079
 20
218.9985924979026
 30
322.9852743447734
 70
   192
  0
VERTEX
  5
C9A
  8
0
 10
-0.0024504660381976
 20
218.9985924978884
 30
341.2019878419034
 70
   192
  0
VERTEX
  5
C9B
  8
0
 10
348.9975495564282
 20
218.9985924979424
 30
272.0029492871283
 70
   192
  0
VERTEX
  5
C9C
  8
0
 10
0.0
 20
0.0
 30
0.0
 70
   128
 71
     1
 72
     2
 73
     3
  0
VERTEX
  5
C9D
  8
0
 10
0.0
 20
0.0
 30
0.0
 70
   128
 71
     3
 72
     4
 73
     5
  0
VERTEX
  5
C9E
  8
0
 10
0.0
 20
0.0
 30
0.0
 70
   128
 71
     1
 72
     3
 73
     5
  0
VERTEX
  5
C9F
  8
0
 10
0.0
 20
0.0
 30
0.0
 70
   128
 71
     5
 72
     6
 73
     1
  0
VERTEX
  5
CA0
  8
0
 10
0.0
 20
0.0
 30
0.0
 70
   128
 71
     6
 72
     7
 73
     1
  0
VERTEX
  5
CA1
  8
0
 10
0.0
 20
0.0
 30
0.0
 70
   128
 71
     8
 72
     9
 73
    10
  0
VERTEX
  5
CA2
  8
0
 10
0.0
 20
0.0
 30
0.0
 70
   128
 71
    10
 72
    11
 73
     8
  0
VERTEX
  5
CA3
  8
0
 10
0.0
 20
0.0
 30
0.0
 70
   128
 71
     8
 72
    12
 73
    13
  0
VERTEX
  5
CA4
  8
0
 10
0.0
 20
0.0
 30
0.0
 70
   128
 71
     2
 72
     8
 73
    13
  0
VERTEX
  5
CA5
  8
0
 10
0.0
 20
0.0
 30
0.0
 70
   128
 71
    11
 72
    14
 73
    12
  0
VERTEX
  5
CA6
  8
0
 10
0.0
 20
0.0
 30
0.0
 70
   128
 71
     8
 72
    11
 73
    12
  0
VERTEX
  5
CA7
  8
0
 10
0.0
 20
0.0
 30
0.0
 70
   128
 71
     2
 72
    13
 73
     3
  0
SEQEND
  5
D3F
  8
0
  0
POLYLINE
  5
CA8
  8
0
 66
     1
 10
0.0
 20
0.0
 30
0.0
 70
    64
 71
     8
 72
     6
  0
VERTEX
  5
CA9
  8
0
 10
353.99754955643
 20
223.9985924979397
 30
275.3981812930301
 70
   192
  0
VERTEX
  5
CAA
  8
0
 10
351.5523411743902
 20
223.3598945937403
 30
-131.3528103890556
 70
   192
  0
VERTEX
  5
CAB
  8
0
 10
351.6055620081607
 20
223.3896782558575
 30
273.7762283514314
 70
   192
  0
VERTEX
  5
CAC
  8
0
 10
353.99754955643
 20
223.9985924982583
 30
-133.7980187711045
 70
   192
  0
VERTEX
  5
CAD
  8
0
 10
349.6362474609317
 20
221.443800880275
 30
-129.436716675599
 70
   192
  0
VERTEX
  5
CAE
  8
0
 10
349.7737936683881
 20
221.6743105509327
 30
272.5307752506795
 70
   192
  0
VERTEX
  5
CAF
  8
0
 10
348.9975495564395
 20
218.9985924982266
 30
-128.7980187711097
 70
   192
  0
VERTEX
  5
CB0
  8
0
 10
348.9975495564299
 20
218.9985924979423
 30
272.0029492871282
 70
   192
  0
VERTEX
  5
CB1
  8
0
 10
0.0
 20
0.0
 30
0.0
 70
   128
 71
     1
 72
     2
 73
     3
  0
VERTEX
  5
CB2
  8
0
 10
0.0
 20
0.0
 30
0.0
 70
   128
 71
     1
 72
     4
 73
     2
  0
VERTEX
  5
CB3
  8
0
 10
0.0
 20
0.0
 30
0.0
 70
   128
 71
     3
 72
     2
 73
     5
  0
VERTEX
  5
CB4
  8
0
 10
0.0
 20
0.0
 30
0.0
 70
   128
 71
     3
 72
     5
 73
     6
  0
VERTEX
  5
CB5
  8
0
 10
0.0
 20
0.0
 30
0.0
 70
   128
 71
     6
 72
     5
 73
     7
  0
VERTEX
  5
CB6
  8
0
 10
0.0
 20
0.0
 30
0.0
 70
   128
 71
     6
 72
     7
 73
     8
  0
SEQEND
  5
D40
  8
0
  0
POLYLINE
  5
CB7
  8
0
 66
     1
 10
0.0
 20
0.0
 30
0.0
 70
    64
 71
     8
 72
     6
  0
VERTEX
  5
CB8
  8
0
 10
353.9975495564391
 20
223.9985924982583
 30
-133.7980187711046
 70
   192
  0
VERTEX
  5
CB9
  8
0
 10
-351.5572420613362
 20
223.3598945938843
 30
-131.3528103891228
 70
   192
  0
VERTEX
  5
CBA
  8
0
 10
351.5523411743902
 20
223.3598945937403
 30
-131.3528103890556
 70
   192
  0
VERTEX
  5
CBB
  8
0
 10
-354.0024504434502
 20
223.9985924982583
 30
-133.7980187711136
 70
   192
  0
VERTEX
  5
CBC
  8
0
 10
-349.6411483478539
 20
221.4438008804237
 30
-129.4367166756415
 70
   192
  0
VERTEX
  5
CBD
  8
0
 10
349.6362474609317
 20
221.443800880275
 30
-129.436716675599
 70
   192
  0
VERTEX
  5
CBE
  8
0
 10
-349.0024504434506
 20
218.9985924983158
 30
-128.7980187712409
 70
   192
  0
VERTEX
  5
CBF
  8
0
 10
348.9975495564395
 20
218.9985924982543
 30
-128.7980187711175
 70
   192
  0
VERTEX
  5
CC0
  8
0
 10
0.0
 20
0.0
 30
0.0
 70
   128
 71
    -1
 72
     2
 73
     3
  0
VERTEX
  5
CC1
  8
0
 10
0.0
 20
0.0
 30
0.0
 70
   128
 71
     1
 72
     4
 73
    -2
  0
VERTEX
  5
CC2
  8
0
 10
0.0
 20
0.0
 30
0.0
 70
   128
 71
     3
 72
     2
 73
    -5
  0
VERTEX
  5
CC3
  8
0
 10
0.0
 20
0.0
 30
0.0
 70
   128
 71
    -3
 72
     5
 73
     6
  0
VERTEX
  5
CC4
  8
0
 10
0.0
 20
0.0
 30
0.0
 70
   128
 71
     6
 72
     5
 73
    -7
  0
VERTEX
  5
CC5
  8
0
 10
0.0
 20
0.0
 30
0.0
 70
   128
 71
    -6
 72
     7
 73
     8
  0
SEQEND
  5
D41
  8
0
  0
POLYLINE
  5
CC6
  8
0
 66
     1
 10
0.0
 20
0.0
 30
0.0
 70
    64
 71
     8
 72
     6
  0
VERTEX
  5
CC7
  8
0
 10
-354.0024504434502
 20
223.9985924982583
 30
-133.7980187712375
 70
   192
  0
VERTEX
  5
CC8
  8
0
 10
-351.6404870656447
 20
223.4054850404796
 30
273.795654806859
 70
   192
  0
VERTEX
  5
CC9
  8
0
 10
-351.5572420613362
 20
223.3598945938843
 30
-131.3528103891228
 70
   192
  0
VERTEX
  5
CCA
  8
0
 10
-354.002450443574
 20
223.9985924979397
 30
275.3981812687041
 70
   192
  0
VERTEX
  5
CCB
  8
0
 10
-349.7786716674116
 20
221.6742749582673
 30
272.5307563011203
 70
   192
  0
VERTEX
  5
CCC
  8
0
 10
-349.6411483478539
 20
221.4438008804237
 30
-129.4367166756415
 70
   192
  0
VERTEX
  5
CCD
  8
0
 10
-349.0024504435742
 20
218.9985924979424
 30
272.0029492871283
 70
   192
  0
VERTEX
  5
CCE
  8
0
 10
-349.002450443574
 20
218.9985924982543
 30
-128.7980187712409
 70
   192
  0
VERTEX
  5
CCF
  8
0
 10
0.0
 20
0.0
 30
0.0
 70
   128
 71
     1
 72
     2
 73
     3
  0
VERTEX
  5
CD0
  8
0
 10
0.0
 20
0.0
 30
0.0
 70
   128
 71
     1
 72
     4
 73
     2
  0
VERTEX
  5
CD1
  8
0
 10
0.0
 20
0.0
 30
0.0
 70
   128
 71
     3
 72
     2
 73
     5
  0
VERTEX
  5
CD2
  8
0
 10
0.0
 20
0.0
 30
0.0
 70
   128
 71
     3
 72
     5
 73
     6
  0
VERTEX
  5
CD3
  8
0
 10
0.0
 20
0.0
 30
0.0
 70
   128
 71
     6
 72
     5
 73
     7
  0
VERTEX
  5
CD4
  8
0
 10
0.0
 20
0.0
 30
0.0
 70
   128
 71
     6
 72
     7
 73
     8
  0
SEQEND
  5
D42
  8
0
  0
POLYLINE
  5
CD5
  8
0
 66
     1
 10
0.0
 20
0.0
 30
0.0
 70
    64
 71
     4
 72
     2
  0
VERTEX
  5
CD6
  8
0
 10
348.9975495564395
 20
218.9985924982543
 30
-128.7980187711175
 70
   192
  0
VERTEX
  5
CD7
  8
0
 10
-349.0024504434506
 20
218.9985924982543
 30
-128.7980187711175
 70
   192
  0
VERTEX
  5
CD8
  8
0
 10
-349.0024504435731
 20
14.99859249821372
 30
-128.7980187712764
 70
   192
  0
VERTEX
  5
CD9
  8
0
 10
348.9975495563413
 20
14.99859249825436
 30
-128.7980187712763
 70
   192
  0
VERTEX
  5
CDA
  8
0
 10
0.0
 20
0.0
 30
0.0
 70
   128
 71
     3
 72
     4
 73
    -1
  0
VERTEX
  5
CDB
  8
0
 10
0.0
 20
0.0
 30
0.0
 70
   128
 71
     2
 72
    -3
 73
     1
  0
SEQEND
  5
D43
  8
0
  0
POLYLINE
  5
CDC
  8
0
 66
     1
 10
0.0
 20
0.0
 30
0.0
 70
    64
 71
     4
 72
     2
  0
VERTEX
  5
CDD
  8
0
 10
348.9975495564299
 20
218.9985924979423
 30
272.0029492871282
 70
   192
  0
VERTEX
  5
CDE
  8
0
 10
348.9975495564299
 20
218.9985924982543
 30
-128.7980187711097
 70
   192
  0
VERTEX
  5
CDF
  8
0
 10
348.9975495564299
 20
14.99859249821195
 30
-128.7980187712763
 70
   192
  0
VERTEX
  5
CE0
  8
0
 10
348.9975495564299
 20
14.9985924979423
 30
272.0029492869695
 70
   192
  0
VERTEX
  5
CE1
  8
0
 10
0.0
 20
0.0
 30
0.0
 70
   128
 71
     3
 72
     4
 73
    -1
  0
VERTEX
  5
CE2
  8
0
 10
0.0
 20
0.0
 30
0.0
 70
   128
 71
     2
 72
    -3
 73
     1
  0
SEQEND
  5
D44
  8
0
  0
POLYLINE
  5
CE3
  8
0
 66
     1
 10
0.0
 20
0.0
 30
0.0
 70
    64
 71
    12
 72
    10
  0
VERTEX
  5
CE4
  8
0
 10
177.6542925920079
 20
218.9985924979026
 30
322.9852743447734
 70
   192
  0
VERTEX
  5
CE5
  8
0
 10
118.9682478265702
 20
14.99859249789487
 30
332.9470439356672
 70
   192
  0
VERTEX
  5
CE6
  8
0
 10
-0.002468483450091
 20
14.99859249788843
 30
341.2019878417454
 70
   192
  0
VERTEX
  5
CE7
  8
0
 10
-0.0024504660381976
 20
218.9985924978884
 30
341.2019878419034
 70
   192
  0
VERTEX
  5
CE8
  8
0
 10
348.9975495564282
 20
218.9985924979424
 30
272.0029492871283
 70
   192
  0
VERTEX
  5
CE9
  8
0
 10
348.9975495564299
 20
14.99859249794233
 30
272.0029492869694
 70
   192
  0
VERTEX
  5
CEA
  8
0
 10
235.8223223894568
 20
14.99859249791325
 30
309.3554713393789
 70
   192
  0
VERTEX
  5
CEB
  8
0
 10
-177.6591945131206
 20
218.9985924979026
 30
322.9852745709787
 70
   192
  0
VERTEX
  5
CEC
  8
0
 10
-118.973174194881
 20
14.99859249789488
 30
332.9470430380713
 70
   192
  0
VERTEX
  5
CED
  8
0
 10
-235.827234681683
 20
14.99859249791325
 30
309.355466879443
 70
   192
  0
VERTEX
  5
CEE
  8
0
 10
-349.0024504435742
 20
14.99859249794233
 30
272.0029492869695
 70
   192
  0
VERTEX
  5
CEF
  8
0
 10
-349.0024504435742
 20
218.9985924979424
 30
272.0029492871283
 70
   192
  0
VERTEX
  5
CF0
  8
0
 10
0.0
 20
0.0
 30
0.0
 70
   128
 71
     1
 72
     2
 73
     3
  0
VERTEX
  5
CF1
  8
0
 10
0.0
 20
0.0
 30
0.0
 70
   128
 71
     4
 72
     1
 73
     3
  0
VERTEX
  5
CF2
  8
0
 10
0.0
 20
0.0
 30
0.0
 70
   128
 71
     5
 72
     6
 73
     7
  0
VERTEX
  5
CF3
  8
0
 10
0.0
 20
0.0
 30
0.0
 70
   128
 71
     1
 72
     5
 73
     7
  0
VERTEX
  5
CF4
  8
0
 10
0.0
 20
0.0
 30
0.0
 70
   128
 71
     7
 72
     2
 73
     1
  0
VERTEX
  5
CF5
  8
0
 10
0.0
 20
0.0
 30
0.0
 70
   128
 71
     8
 72
     9
 73
    10
  0
VERTEX
  5
CF6
  8
0
 10
0.0
 20
0.0
 30
0.0
 70
   128
 71
    11
 72
    12
 73
     8
  0
VERTEX
  5
CF7
  8
0
 10
0.0
 20
0.0
 30
0.0
 70
   128
 71
    10
 72
    11
 73
     8
  0
VERTEX
  5
CF8
  8
0
 10
0.0
 20
0.0
 30
0.0
 70
   128
 71
     9
 72
     8
 73
     4
  0
VERTEX
  5
CF9
  8
0
 10
0.0
 20
0.0
 30
0.0
 70
   128
 71
     3
 72
     9
 73
     4
  0
SEQEND
  5
D45
  8
0
  0
POLYLINE
  5
CFA
  8
0
 66
     1
 10
0.0
 20
0.0
 30
0.0
 70
    64
 71
     4
 72
     2
  0
VERTEX
  5
CFB
  8
0
 10
-349.002450443574
 20
218.9985924982543
 30
-128.7980187712409
 70
   192
  0
VERTEX
  5
CFC
  8
0
 10
-349.002450443574
 20
218.9985924979423
 30
272.0029492871283
 70
   192
  0
VERTEX
  5
CFD
  8
0
 10
-349.002450443574
 20
14.99859249794233
 30
272.0029492869694
 70
   192
  0
VERTEX
  5
CFE
  8
0
 10
-349.002450443574
 20
14.99859249825434
 30
-128.7980187711977
 70
   192
  0
VERTEX
  5
CFF
  8
0
 10
0.0
 20
0.0
 30
0.0
 70
   128
 71
     3
 72
     4
 73
    -1
  0
VERTEX
  5
D00
  8
0
 10
0.0
 20
0.0
 30
0.0
 70
   128
 71
     2
 72
    -3
 73
     1
  0
SEQEND
  5
D46
  8
0
  0
ENDBLK
  5
D02
  8
0
  0
ENDSEC
  0
SECTION
  2
ENTITIES
  0
INSERT
  5
BF
  8
0
  2
*X1
 10
0.0
 20
0.0
 30
0.0
  0
ENDSEC
  0
EOF
