  0
SECTION
  2
HEADER
  9
$ACADVER
  1
AC1009
  9
$DWGCODEPAGE
  3
ansi_1250
  9
$INSBASE
 10
0.0
 20
0.0
 30
0.0
  9
$EXTMIN
 10
-15.16823864484027
 20
-2.064183219550813
 30
-14.99953558129167
  9
$EXTMAX
 10
14.83066135515975
 20
28.34794459777396
 30
14.99936441870833
  9
$LIMMIN
 10
0.0
 20
0.0
  9
$LIMMAX
 10
420.0
 20
297.0
  9
$ORTHOMODE
 70
     0
  9
$REGENMODE
 70
     1
  9
$FILLMODE
 70
     1
  9
$QTEXTMODE
 70
     0
  9
$MIRRTEXT
 70
     0
  9
$DRAGMODE
 70
     2
  9
$LTSCALE
 40
1.0
  9
$OSMODE
 70
   511
  9
$ATTMODE
 70
     1
  9
$TEXTSIZE
 40
2.5
  9
$TRACEWID
 40
1.0
  9
$TEXTSTYLE
  7
STANDARD
  9
$CLAYER
  8
0
  9
$CELTYPE
  6
BYLAYER
  9
$CECOLOR
 62
   256
  9
$DIMSCALE
 40
1.0
  9
$DIMASZ
 40
2.5
  9
$DIMEXO
 40
0.625
  9
$DIMDLI
 40
3.75
  9
$DIMRND
 40
0.0
  9
$DIMDLE
 40
0.0
  9
$DIMEXE
 40
1.25
  9
$DIMTP
 40
0.0
  9
$DIMTM
 40
0.0
  9
$DIMTXT
 40
2.5
  9
$DIMCEN
 40
-2.5
  9
$DIMTSZ
 40
0.0
  9
$DIMTOL
 70
     0
  9
$DIMLIM
 70
     0
  9
$DIMTIH
 70
     0
  9
$DIMTOH
 70
     0
  9
$DIMSE1
 70
     0
  9
$DIMSE2
 70
     0
  9
$DIMTAD
 70
     1
  9
$DIMZIN
 70
     8
  9
$DIMBLK
  1

  9
$DIMASO
 70
     1
  9
$DIMSHO
 70
     1
  9
$DIMPOST
  1

  9
$DIMAPOST
  1

  9
$DIMALT
 70
     0
  9
$DIMALTD
 70
     3
  9
$DIMALTF
 40
0.03937007874016
  9
$DIMLFAC
 40
1.0
  9
$DIMTOFL
 70
     1
  9
$DIMTVP
 40
0.0
  9
$DIMTIX
 70
     0
  9
$DIMSOXD
 70
     0
  9
$DIMSAH
 70
     0
  9
$DIMBLK1
  1

  9
$DIMBLK2
  1

  9
$DIMSTYLE
  2
ISO-25
  9
$DIMCLRD
 70
     0
  9
$DIMCLRE
 70
     0
  9
$DIMCLRT
 70
     0
  9
$DIMTFAC
 40
1.0
  9
$DIMGAP
 40
0.625
  9
$LUNITS
 70
     2
  9
$LUPREC
 70
     3
  9
$SKETCHINC
 40
1.0
  9
$FILLETRAD
 40
10.0
  9
$AUNITS
 70
     0
  9
$AUPREC
 70
     0
  9
$MENU
  1
.
  9
$ELEVATION
 40
0.0
  9
$PELEVATION
 40
0.0
  9
$THICKNESS
 40
0.0
  9
$LIMCHECK
 70
     0
  9
$CHAMFERA
 40
10.0
  9
$CHAMFERB
 40
10.0
  9
$SKPOLY
 70
     0
  9
$TDCREATE
 40
2455022.679026181
  9
$TDUPDATE
 40
2460376.500207465
  9
$TDINDWG
 40
0.0080557755
  9
$TDUSRTIMER
 40
0.0080557755
  9
$USRTIMER
 70
     1
  9
$ANGBASE
 50
0.0
  9
$ANGDIR
 70
     0
  9
$PDMODE
 70
     0
  9
$PDSIZE
 40
0.0
  9
$PLINEWID
 40
0.0
  9
$COORDS
 70
     1
  9
$SPLFRAME
 70
     0
  9
$SPLINETYPE
 70
     6
  9
$SPLINESEGS
 70
     8
  9
$ATTDIA
 70
     0
  9
$ATTREQ
 70
     1
  9
$HANDLING
 70
     1
  9
$HANDSEED
  5
E6C
  9
$SURFTAB1
 70
     6
  9
$SURFTAB2
 70
     6
  9
$SURFTYPE
 70
     6
  9
$SURFU
 70
     6
  9
$SURFV
 70
     6
  9
$UCSNAME
  2

  9
$UCSORG
 10
0.0
 20
0.0
 30
0.0
  9
$UCSXDIR
 10
1.0
 20
0.0
 30
0.0
  9
$UCSYDIR
 10
0.0
 20
1.0
 30
0.0
  9
$PUCSNAME
  2

  9
$PUCSORG
 10
0.0
 20
0.0
 30
0.0
  9
$PUCSXDIR
 10
1.0
 20
0.0
 30
0.0
  9
$PUCSYDIR
 10
0.0
 20
1.0
 30
0.0
  9
$USERI1
 70
     0
  9
$USERI2
 70
     0
  9
$USERI3
 70
     0
  9
$USERI4
 70
     0
  9
$USERI5
 70
     0
  9
$USERR1
 40
0.0
  9
$USERR2
 40
0.0
  9
$USERR3
 40
0.0
  9
$USERR4
 40
0.0
  9
$USERR5
 40
0.0
  9
$WORLDVIEW
 70
     1
  9
$SHADEDGE
 70
     3
  9
$SHADEDIF
 70
    70
  9
$TILEMODE
 70
     1
  9
$MAXACTVP
 70
    64
  9
$PLIMCHECK
 70
     0
  9
$PEXTMIN
 10
1.000000000000000E+20
 20
1.000000000000000E+20
 30
1.000000000000000E+20
  9
$PEXTMAX
 10
-1.000000000000000E+20
 20
-1.000000000000000E+20
 30
-1.000000000000000E+20
  9
$PLIMMIN
 10
0.0
 20
0.0
  9
$PLIMMAX
 10
0.0
 20
0.0
  9
$UNITMODE
 70
     0
  9
$VISRETAIN
 70
     1
  9
$PLINEGEN
 70
     0
  9
$PSLTSCALE
 70
     1
  0
ENDSEC
  0
SECTION
  2
TABLES
  0
TABLE
  2
VPORT
 70
     1
  0
VPORT
  2
*ACTIVE
 70
     0
 10
0.0
 20
0.0
 11
1.0
 21
1.0
 12
132.6419237612047
 22
12.87407893049051
 13
0.0
 23
0.0
 14
10.0
 24
10.0
 15
10.0
 25
10.0
 16
-0.2253651145862128
 26
-0.4042917314924992
 36
-0.88643034750303
 17
-111.5563488884909
 27
88.56983679069813
 37
-6.083038735978091
 40
49.63259259787404
 41
1.820143884892086
 42
50.0
 43
0.0
 44
0.0
 50
0.0
 51
0.0000000000016837
 71
    16
 72
  1000
 73
     1
 74
     3
 75
     0
 76
     0
 77
     0
 78
     0
  0
ENDTAB
  0
TABLE
  2
LTYPE
 70
     1
  0
LTYPE
  2
CONTINUOUS
 70
     0
  3
Solid line
 72
    65
 73
     0
 40
0.0
  0
ENDTAB
  0
TABLE
  2
LAYER
 70
     1
  0
LAYER
  2
0
 70
     0
 62
     7
  6
CONTINUOUS
  0
ENDTAB
  0
TABLE
  2
STYLE
 70
     2
  0
STYLE
  2
STANDARD
 70
     0
 40
0.0
 41
1.0
 50
0.0
 71
     0
 42
2.5
  3
arial.ttf
  4

  0
STYLE
  2
ANNOTATIVE
 70
     0
 40
0.0
 41
1.0
 50
0.0
 71
     0
 42
2.5
  3
arial.ttf
  4

  0
ENDTAB
  0
TABLE
  2
VIEW
 70
     0
  0
ENDTAB
  0
TABLE
  2
UCS
 70
     0
  0
ENDTAB
  0
TABLE
  2
APPID
 70
     2
  0
APPID
  2
ACAD
 70
     0
  0
APPID
  2
ACADANNOTATIVE
 70
     0
  0
ENDTAB
  0
TABLE
  2
DIMSTYLE
 70
     2
  0
DIMSTYLE
  2
ISO-25
 70
     0
  3

  4

  5

  6

  7

 40
1.0
 41
2.5
 42
0.625
 43
3.75
 44
1.25
 45
0.0
 46
0.0
 47
0.0
 48
0.0
140
2.5
141
-2.5
142
0.0
143
0.03937007874016
144
1.0
145
0.0
146
1.0
147
0.625
 71
     0
 72
     0
 73
     0
 74
     0
 75
     0
 76
     0
 77
     1
 78
     8
170
     0
171
     3
172
     1
173
     0
174
     0
175
     0
176
     0
177
     0
178
     0
  0
DIMSTYLE
  2
ANNOTATIVE
 70
     0
  3

  4

  5

  6

  7

 40
0.0
 41
2.5
 42
0.625
 43
3.75
 44
1.25
 45
0.0
 46
0.0
 47
0.0
 48
0.0
140
2.5
141
-2.5
142
0.0
143
0.03937007874016
144
1.0
145
0.0
146
1.0
147
0.625
 71
     0
 72
     0
 73
     0
 74
     0
 75
     0
 76
     0
 77
     1
 78
     8
170
     0
171
     3
172
     1
173
     0
174
     0
175
     0
176
     0
177
     0
178
     0
  0
ENDTAB
  0
ENDSEC
  0
SECTION
  2
BLOCKS
  0
BLOCK
  8
0
  2
$MODEL_SPACE
 70
     0
 10
0.0
 20
0.0
 30
0.0
  3
$MODEL_SPACE
  1

  0
ENDBLK
  5
21
  8
0
  0
BLOCK
 67
     1
  8
0
  2
$PAPER_SPACE
 70
     0
 10
0.0
 20
0.0
 30
0.0
  3
$PAPER_SPACE
  1

  0
ENDBLK
  5
1D
 67
     1
  8
0
  0
BLOCK
  8
0
  2
*X1
 70
     1
 10
0.0
 20
0.0
 30
0.0
  3
*X1
  1

  0
POLYLINE
  5
79D
  8
0
 66
     1
 10
0.0
 20
0.0
 30
0.0
 70
    64
 71
    18
 72
    16
  0
VERTEX
  5
79E
  8
0
 10
1.215572010995913
 20
24.50259381690413
 30
-4.260709581271816
 70
   192
  0
VERTEX
  5
79F
  8
0
 10
3.455514604826949
 20
24.50259381690413
 30
-2.633296026562931
 70
   192
  0
VERTEX
  5
7A0
  8
0
 10
3.042780284874866
 20
12.51851349140059
 30
-2.892027202465412
 70
   192
  0
VERTEX
  5
7A1
  8
0
 10
0.2848132837963995
 20
12.51851349140059
 30
-4.297962571263078
 70
   192
  0
VERTEX
  5
7A2
  8
0
 10
3.774855154551766
 20
16.51115792133578
 30
-0.0000855812916668
 70
   192
  0
VERTEX
  5
7A3
  8
0
 10
4.152958840909989
 20
12.51851349140061
 30
-0.0000855812916668
 70
   192
  0
VERTEX
  5
7A4
  8
0
 10
3.827771794261928
 20
20.52131649310972
 30
-0.0000855812916668
 70
   192
  0
VERTEX
  5
7A5
  8
0
 10
4.311096542821804
 20
24.50259381690413
 30
-0.0000855812916668
 70
   192
  0
VERTEX
  5
7A6
  8
0
 10
-4.165349083942452
 20
20.5213164931097
 30
-0.0000855812916673
 70
   192
  0
VERTEX
  5
7A7
  8
0
 10
-4.64867383250234
 20
24.50259381690412
 30
-0.0000855812916674
 70
   192
  0
VERTEX
  5
7A8
  8
0
 10
-4.479982517591512
 20
12.51851349140059
 30
-0.301977786400086
 70
   192
  0
VERTEX
  5
7A9
  8
0
 10
-4.11243244423229
 20
16.51115792133578
 30
-0.0000855812916673
 70
   192
  0
VERTEX
  5
7AA
  8
0
 10
-4.490536130590518
 20
12.51851349140059
 30
-0.0000855812916636
 70
   192
  0
VERTEX
  5
7AB
  8
0
 10
-4.448065628282849
 20
12.51851349140059
 30
-0.6045008375986469
 70
   192
  0
VERTEX
  5
7AC
  8
0
 10
-4.395101845986675
 20
12.51851349140059
 30
-0.9032899083429727
 70
   192
  0
VERTEX
  5
7AD
  8
0
 10
-3.793091894507482
 20
24.50259381690413
 30
-2.633296026562928
 70
   192
  0
VERTEX
  5
7AE
  8
0
 10
-2.706425342206127
 20
12.51851349140059
 30
-3.498356771861475
 70
   192
  0
VERTEX
  5
7AF
  8
0
 10
-1.553149300676448
 20
24.50259381690413
 30
-4.260709581271815
 70
   192
  0
VERTEX
  5
7B0
  8
0
 10
0.0
 20
0.0
 30
0.0
 70
   128
 71
     1
 72
     2
 73
     3
  0
VERTEX
  5
7B1
  8
0
 10
0.0
 20
0.0
 30
0.0
 70
   128
 71
     1
 72
     3
 73
     4
  0
VERTEX
  5
7B2
  8
0
 10
0.0
 20
0.0
 30
0.0
 70
   128
 71
     5
 72
     6
 73
     3
  0
VERTEX
  5
7B3
  8
0
 10
0.0
 20
0.0
 30
0.0
 70
   128
 71
     3
 72
     2
 73
     7
  0
VERTEX
  5
7B4
  8
0
 10
0.0
 20
0.0
 30
0.0
 70
   128
 71
     3
 72
     7
 73
     5
  0
VERTEX
  5
7B5
  8
0
 10
0.0
 20
0.0
 30
0.0
 70
   128
 71
     2
 72
     8
 73
     7
  0
VERTEX
  5
7B6
  8
0
 10
0.0
 20
0.0
 30
0.0
 70
   128
 71
     9
 72
    10
 73
    11
  0
VERTEX
  5
7B7
  8
0
 10
0.0
 20
0.0
 30
0.0
 70
   128
 71
    11
 72
    12
 73
     9
  0
VERTEX
  5
7B8
  8
0
 10
0.0
 20
0.0
 30
0.0
 70
   128
 71
    11
 72
    13
 73
    12
  0
VERTEX
  5
7B9
  8
0
 10
0.0
 20
0.0
 30
0.0
 70
   128
 71
    10
 72
    14
 73
    11
  0
VERTEX
  5
7BA
  8
0
 10
0.0
 20
0.0
 30
0.0
 70
   128
 71
    10
 72
    15
 73
    14
  0
VERTEX
  5
7BB
  8
0
 10
0.0
 20
0.0
 30
0.0
 70
   128
 71
    10
 72
    16
 73
    17
  0
VERTEX
  5
7BC
  8
0
 10
0.0
 20
0.0
 30
0.0
 70
   128
 71
    10
 72
    17
 73
    15
  0
VERTEX
  5
7BD
  8
0
 10
0.0
 20
0.0
 30
0.0
 70
   128
 71
    18
 72
     1
 73
     4
  0
VERTEX
  5
7BE
  8
0
 10
0.0
 20
0.0
 30
0.0
 70
   128
 71
    18
 72
     4
 73
    17
  0
VERTEX
  5
7BF
  8
0
 10
0.0
 20
0.0
 30
0.0
 70
   128
 71
    17
 72
    16
 73
    18
  0
SEQEND
  5
E40
  8
0
  0
POLYLINE
  5
7C0
  8
0
 66
     1
 10
0.0
 20
0.0
 30
0.0
 70
    64
 71
    14
 72
    12
  0
VERTEX
  5
7C1
  8
0
 10
-3.336545839973284
 20
24.50259381690413
 30
3.167671613841353
 70
   192
  0
VERTEX
  5
7C2
  8
0
 10
-0.1687886448402658
 20
24.50259381690413
 30
4.479799606370404
 70
   192
  0
VERTEX
  5
7C3
  8
0
 10
-0.1687886448402651
 20
26.39149459777395
 30
5.900077101335506
 70
   192
  0
VERTEX
  5
7C4
  8
0
 10
-4.34083368782975
 20
26.39149459777395
 30
4.17195946169782
 70
   192
  0
VERTEX
  5
7C5
  8
0
 10
4.003256398149219
 20
26.39149459777395
 30
4.171959461697819
 70
   192
  0
VERTEX
  5
7C6
  8
0
 10
2.998968550292753
 20
24.50259381690413
 30
3.167671613841353
 70
   192
  0
VERTEX
  5
7C7
  8
0
 10
-4.913524660201302
 20
25.27251623903025
 30
-0.0000855812916639
 70
   192
  0
VERTEX
  5
7C8
  8
0
 10
-4.648673832502324
 20
24.50259381690413
 30
-0.000085581291664
 70
   192
  0
VERTEX
  5
7C9
  8
0
 10
-5.402840284385296
 20
25.9232824927303
 30
-0.0000855812916639
 70
   192
  0
VERTEX
  5
7CA
  8
0
 10
-6.068951327467436
 20
26.39149459777395
 30
-0.0000855812916636
 70
   192
  0
VERTEX
  5
7CB
  8
0
 10
5.065262994704764
 20
25.9232824927303
 30
-0.0000855812916645
 70
   192
  0
VERTEX
  5
7CC
  8
0
 10
5.731374037786904
 20
26.39149459777395
 30
-0.0000855812916645
 70
   192
  0
VERTEX
  5
7CD
  8
0
 10
4.575947370520771
 20
25.27251623903025
 30
-0.0000855812916645
 70
   192
  0
VERTEX
  5
7CE
  8
0
 10
4.311096542821805
 20
24.50259381690413
 30
-0.0000855812916654
 70
   192
  0
VERTEX
  5
7CF
  8
0
 10
0.0
 20
0.0
 30
0.0
 70
   128
 71
     1
 72
     2
 73
    -3
  0
VERTEX
  5
7D0
  8
0
 10
0.0
 20
0.0
 30
0.0
 70
   128
 71
    -1
 72
     3
 73
     4
  0
VERTEX
  5
7D1
  8
0
 10
0.0
 20
0.0
 30
0.0
 70
   128
 71
     5
 72
     3
 73
    -2
  0
VERTEX
  5
7D2
  8
0
 10
0.0
 20
0.0
 30
0.0
 70
   128
 71
    -5
 72
     2
 73
     6
  0
VERTEX
  5
7D3
  8
0
 10
0.0
 20
0.0
 30
0.0
 70
   128
 71
     7
 72
     8
 73
     1
  0
VERTEX
  5
7D4
  8
0
 10
0.0
 20
0.0
 30
0.0
 70
   128
 71
     1
 72
     9
 73
     7
  0
VERTEX
  5
7D5
  8
0
 10
0.0
 20
0.0
 30
0.0
 70
   128
 71
     1
 72
     4
 73
    10
  0
VERTEX
  5
7D6
  8
0
 10
0.0
 20
0.0
 30
0.0
 70
   128
 71
     1
 72
    10
 73
     9
  0
VERTEX
  5
7D7
  8
0
 10
0.0
 20
0.0
 30
0.0
 70
   128
 71
    11
 72
    12
 73
     5
  0
VERTEX
  5
7D8
  8
0
 10
0.0
 20
0.0
 30
0.0
 70
   128
 71
     5
 72
     6
 73
    13
  0
VERTEX
  5
7D9
  8
0
 10
0.0
 20
0.0
 30
0.0
 70
   128
 71
     5
 72
    13
 73
    11
  0
VERTEX
  5
7DA
  8
0
 10
0.0
 20
0.0
 30
0.0
 70
   128
 71
     6
 72
    14
 73
    13
  0
SEQEND
  5
E41
  8
0
  0
POLYLINE
  5
7DB
  8
0
 66
     1
 10
0.0
 20
0.0
 30
0.0
 70
    64
 71
    17
 72
    15
  0
VERTEX
  5
7DC
  8
0
 10
11.12678069672017
 20
0.892429597773949
 30
6.52141441870834
 70
   192
  0
VERTEX
  5
7DD
  8
0
 10
12.87421135515974
 20
0.892429597773949
 30
-0.0000855812916595
 70
   192
  0
VERTEX
  5
7DE
  8
0
 10
12.91537870449045
 20
0.772372855069927
 30
-0.0000855812916645
 70
   192
  0
VERTEX
  5
7DF
  8
0
 10
13.02155599947674
 20
0.702840458670741
 30
-0.0000855812916645
 70
   192
  0
VERTEX
  5
7E0
  8
0
 10
13.14805988205994
 20
0.7130942292451254
 30
-0.0000855812916623
 70
   192
  0
VERTEX
  5
7E1
  8
0
 10
10.60476812493898
 20
0.7130942292451254
 30
7.827361589833022
 70
   192
  0
VERTEX
  5
7E2
  8
0
 10
-10.94234541461952
 20
0.7130942292451254
 30
7.827361589833018
 70
   192
  0
VERTEX
  5
7E3
  8
0
 10
-13.48563717174047
 20
0.7130942292451254
 30
-0.0000855812916662
 70
   192
  0
VERTEX
  5
7E4
  8
0
 10
-13.35913328915727
 20
0.702840458670741
 30
-0.0000855812916661
 70
   192
  0
VERTEX
  5
7E5
  8
0
 10
-13.25295599417099
 20
0.772372855069927
 30
-0.0000855812916661
 70
   192
  0
VERTEX
  5
7E6
  8
0
 10
-11.4643579864007
 20
0.892429597773949
 30
6.521414418708334
 70
   192
  0
VERTEX
  5
7E7
  8
0
 10
-13.21178864484027
 20
0.892429597773949
 30
-0.0000855812916661
 70
   192
  0
VERTEX
  5
7E8
  8
0
 10
-4.283921151169415
 20
0.7130942292451254
 30
12.66498998673229
 70
   192
  0
VERTEX
  5
7E9
  8
0
 10
-0.1687886448402708
 20
0.892429597773949
 30
13.04291441870834
 70
   192
  0
VERTEX
  5
7EA
  8
0
 10
6.352711355159732
 20
0.892429597773949
 30
11.29548376026877
 70
   192
  0
VERTEX
  5
7EB
  8
0
 10
3.946343861488879
 20
0.7130942292451254
 30
12.66498998673229
 70
   192
  0
VERTEX
  5
7EC
  8
0
 10
-6.690288644840271
 20
0.892429597773949
 30
11.29548376026877
 70
   192
  0
VERTEX
  5
7ED
  8
0
 10
0.0
 20
0.0
 30
0.0
 70
   128
 71
     1
 72
     2
 73
     3
  0
VERTEX
  5
7EE
  8
0
 10
0.0
 20
0.0
 30
0.0
 70
   128
 71
     4
 72
     5
 73
     6
  0
VERTEX
  5
7EF
  8
0
 10
0.0
 20
0.0
 30
0.0
 70
   128
 71
     7
 72
     8
 73
     9
  0
VERTEX
  5
7F0
  8
0
 10
0.0
 20
0.0
 30
0.0
 70
   128
 71
    10
 72
    11
 73
     7
  0
VERTEX
  5
7F1
  8
0
 10
0.0
 20
0.0
 30
0.0
 70
   128
 71
     9
 72
    10
 73
     7
  0
VERTEX
  5
7F2
  8
0
 10
0.0
 20
0.0
 30
0.0
 70
   128
 71
    10
 72
    12
 73
    11
  0
VERTEX
  5
7F3
  8
0
 10
0.0
 20
0.0
 30
0.0
 70
   128
 71
    13
 72
    14
 73
    15
  0
VERTEX
  5
7F4
  8
0
 10
0.0
 20
0.0
 30
0.0
 70
   128
 71
    16
 72
    13
 73
    15
  0
VERTEX
  5
7F5
  8
0
 10
0.0
 20
0.0
 30
0.0
 70
   128
 71
     4
 72
     6
 73
    16
  0
VERTEX
  5
7F6
  8
0
 10
0.0
 20
0.0
 30
0.0
 70
   128
 71
     3
 72
     4
 73
    16
  0
VERTEX
  5
7F7
  8
0
 10
0.0
 20
0.0
 30
0.0
 70
   128
 71
     1
 72
     3
 73
    16
  0
VERTEX
  5
7F8
  8
0
 10
0.0
 20
0.0
 30
0.0
 70
   128
 71
    15
 72
     1
 73
    16
  0
VERTEX
  5
7F9
  8
0
 10
0.0
 20
0.0
 30
0.0
 70
   128
 71
    14
 72
    13
 73
    17
  0
VERTEX
  5
7FA
  8
0
 10
0.0
 20
0.0
 30
0.0
 70
   128
 71
     7
 72
    11
 73
    17
  0
VERTEX
  5
7FB
  8
0
 10
0.0
 20
0.0
 30
0.0
 70
   128
 71
    13
 72
     7
 73
    17
  0
SEQEND
  5
E42
  8
0
  0
POLYLINE
  5
7FC
  8
0
 66
     1
 10
0.0
 20
0.0
 30
0.0
 70
    64
 71
    16
 72
    14
  0
VERTEX
  5
7FD
  8
0
 10
-0.1687886448402662
 20
26.39149459777397
 30
-6.308929073626301
 70
   192
  0
VERTEX
  5
7FE
  8
0
 10
-0.1687886448402658
 20
26.60415110543932
 30
-6.521585581291662
 70
   192
  0
VERTEX
  5
7FF
  8
0
 10
4.442608228667801
 20
26.60415110543932
 30
-4.611482454799734
 70
   192
  0
VERTEX
  5
800
  8
0
 10
2.800078880964269
 20
26.39149459777397
 30
-5.566712192175168
 70
   192
  0
VERTEX
  5
801
  8
0
 10
6.246383101327051
 20
26.41998516752104
 30
-0.0000855812916645
 70
   192
  0
VERTEX
  5
802
  8
0
 10
6.140054847494372
 20
26.39149459777396
 30
-0.0000855812916645
 70
   192
  0
VERTEX
  5
803
  8
0
 10
4.878286149027445
 20
26.39149459777397
 30
-3.785391676692447
 70
   192
  0
VERTEX
  5
804
  8
0
 10
-5.215863438707977
 20
26.39149459777397
 30
-3.785391676692447
 70
   192
  0
VERTEX
  5
805
  8
0
 10
-6.477632137174903
 20
26.39149459777396
 30
-0.0000855812916646
 70
   192
  0
VERTEX
  5
806
  8
0
 10
-6.583960391007583
 20
26.41998516752104
 30
-0.0000855812916637
 70
   192
  0
VERTEX
  5
807
  8
0
 10
-6.661798075093186
 20
26.49782285160664
 30
-0.0000855812916637
 70
   192
  0
VERTEX
  5
808
  8
0
 10
-3.137656170644802
 20
26.39149459777397
 30
-5.566712192175168
 70
   192
  0
VERTEX
  5
809
  8
0
 10
-4.780185518348333
 20
26.60415110543932
 30
-4.611482454799734
 70
   192
  0
VERTEX
  5
80A
  8
0
 10
6.352711355159733
 20
26.60415110543932
 30
-0.0000855812916667
 70
   192
  0
VERTEX
  5
80B
  8
0
 10
6.324220785412654
 20
26.49782285160664
 30
-0.0000855812916645
 70
   192
  0
VERTEX
  5
80C
  8
0
 10
-6.690288644840265
 20
26.60415110543932
 30
-0.0000855812916637
 70
   192
  0
VERTEX
  5
80D
  8
0
 10
0.0
 20
0.0
 30
0.0
 70
   128
 71
     1
 72
     2
 73
     3
  0
VERTEX
  5
80E
  8
0
 10
0.0
 20
0.0
 30
0.0
 70
   128
 71
     4
 72
     1
 73
     3
  0
VERTEX
  5
80F
  8
0
 10
0.0
 20
0.0
 30
0.0
 70
   128
 71
     5
 72
     6
 73
     7
  0
VERTEX
  5
810
  8
0
 10
0.0
 20
0.0
 30
0.0
 70
   128
 71
     8
 72
     9
 73
    10
  0
VERTEX
  5
811
  8
0
 10
0.0
 20
0.0
 30
0.0
 70
   128
 71
     8
 72
    10
 73
    11
  0
VERTEX
  5
812
  8
0
 10
0.0
 20
0.0
 30
0.0
 70
   128
 71
     2
 72
     1
 73
    12
  0
VERTEX
  5
813
  8
0
 10
0.0
 20
0.0
 30
0.0
 70
   128
 71
    13
 72
     2
 73
    12
  0
VERTEX
  5
814
  8
0
 10
0.0
 20
0.0
 30
0.0
 70
   128
 71
    12
 72
     8
 73
    13
  0
VERTEX
  5
815
  8
0
 10
0.0
 20
0.0
 30
0.0
 70
   128
 71
     3
 72
    14
 73
    15
  0
VERTEX
  5
816
  8
0
 10
0.0
 20
0.0
 30
0.0
 70
   128
 71
     7
 72
     4
 73
     3
  0
VERTEX
  5
817
  8
0
 10
0.0
 20
0.0
 30
0.0
 70
   128
 71
     5
 72
     7
 73
     3
  0
VERTEX
  5
818
  8
0
 10
0.0
 20
0.0
 30
0.0
 70
   128
 71
    15
 72
     5
 73
     3
  0
VERTEX
  5
819
  8
0
 10
0.0
 20
0.0
 30
0.0
 70
   128
 71
     8
 72
    11
 73
    16
  0
VERTEX
  5
81A
  8
0
 10
0.0
 20
0.0
 30
0.0
 70
   128
 71
    13
 72
     8
 73
    16
  0
SEQEND
  5
E43
  8
0
  0
POLYLINE
  5
81B
  8
0
 66
     1
 10
0.0
 20
0.0
 30
0.0
 70
    64
 71
    16
 72
    14
  0
VERTEX
  5
81C
  8
0
 10
-3.620018308843507
 20
26.65389548243051
 30
-5.977790707934147
 70
   192
  0
VERTEX
  5
81D
  8
0
 10
-0.1687886448402666
 20
26.65389548243051
 30
-6.90254490929815
 70
   192
  0
VERTEX
  5
81E
  8
0
 10
-0.1687886448402658
 20
26.60415110543932
 30
-6.521585581291662
 70
   192
  0
VERTEX
  5
81F
  8
0
 10
-4.780185518348333
 20
26.60415110543932
 30
-4.611482454799734
 70
   192
  0
VERTEX
  5
820
  8
0
 10
-6.943497560722842
 20
26.6435630276947
 30
-0.0000855812916677
 70
   192
  0
VERTEX
  5
821
  8
0
 10
-7.071247972846738
 20
26.65389548243051
 30
-0.0000855812916677
 70
   192
  0
VERTEX
  5
822
  8
0
 10
-6.146493771482746
 20
26.65389548243051
 30
-3.45131524529491
 70
   192
  0
VERTEX
  5
823
  8
0
 10
-6.816408853043541
 20
26.62696821527941
 30
-0.0000855812916677
 70
   192
  0
VERTEX
  5
824
  8
0
 10
5.808916481802213
 20
26.65389548243051
 30
-3.451315245294912
 70
   192
  0
VERTEX
  5
825
  8
0
 10
6.733670683166218
 20
26.65389548243051
 30
-0.0000855812916681
 70
   192
  0
VERTEX
  5
826
  8
0
 10
6.605920271042311
 20
26.6435630276947
 30
-0.0000855812916668
 70
   192
  0
VERTEX
  5
827
  8
0
 10
4.442608228667801
 20
26.60415110543932
 30
-4.611482454799734
 70
   192
  0
VERTEX
  5
828
  8
0
 10
3.282441019162974
 20
26.65389548243051
 30
-5.977790707934148
 70
   192
  0
VERTEX
  5
829
  8
0
 10
-6.690288644840263
 20
26.60415110543932
 30
-0.0000855812916666
 70
   192
  0
VERTEX
  5
82A
  8
0
 10
6.478831563363009
 20
26.62696821527941
 30
-0.0000855812916668
 70
   192
  0
VERTEX
  5
82B
  8
0
 10
6.352711355159729
 20
26.60415110543933
 30
-0.0000855812916668
 70
   192
  0
VERTEX
  5
82C
  8
0
 10
0.0
 20
0.0
 30
0.0
 70
   128
 71
     1
 72
     2
 73
     3
  0
VERTEX
  5
82D
  8
0
 10
0.0
 20
0.0
 30
0.0
 70
   128
 71
     1
 72
     3
 73
     4
  0
VERTEX
  5
82E
  8
0
 10
0.0
 20
0.0
 30
0.0
 70
   128
 71
     5
 72
     6
 73
     7
  0
VERTEX
  5
82F
  8
0
 10
0.0
 20
0.0
 30
0.0
 70
   128
 71
     7
 72
     8
 73
     5
  0
VERTEX
  5
830
  8
0
 10
0.0
 20
0.0
 30
0.0
 70
   128
 71
     9
 72
    10
 73
    11
  0
VERTEX
  5
831
  8
0
 10
0.0
 20
0.0
 30
0.0
 70
   128
 71
    12
 72
     3
 73
     2
  0
VERTEX
  5
832
  8
0
 10
0.0
 20
0.0
 30
0.0
 70
   128
 71
    12
 72
     2
 73
    13
  0
VERTEX
  5
833
  8
0
 10
0.0
 20
0.0
 30
0.0
 70
   128
 71
     1
 72
     4
 73
    14
  0
VERTEX
  5
834
  8
0
 10
0.0
 20
0.0
 30
0.0
 70
   128
 71
     1
 72
    14
 73
     8
  0
VERTEX
  5
835
  8
0
 10
0.0
 20
0.0
 30
0.0
 70
   128
 71
     1
 72
     8
 73
     7
  0
VERTEX
  5
836
  8
0
 10
0.0
 20
0.0
 30
0.0
 70
   128
 71
    15
 72
    16
 73
    12
  0
VERTEX
  5
837
  8
0
 10
0.0
 20
0.0
 30
0.0
 70
   128
 71
    12
 72
    13
 73
     9
  0
VERTEX
  5
838
  8
0
 10
0.0
 20
0.0
 30
0.0
 70
   128
 71
    12
 72
     9
 73
    11
  0
VERTEX
  5
839
  8
0
 10
0.0
 20
0.0
 30
0.0
 70
   128
 71
    12
 72
    11
 73
    15
  0
SEQEND
  5
E44
  8
0
  0
POLYLINE
  5
83A
  8
0
 66
     1
 10
0.0
 20
0.0
 30
0.0
 70
    64
 71
    28
 72
    26
  0
VERTEX
  5
83B
  8
0
 10
7.482785692059299
 20
-0.2905293201709601
 30
-6.810486206672484
 70
   192
  0
VERTEX
  5
83C
  8
0
 10
4.56708941664136
 20
-0.2905293201709586
 30
-9.08301492694137
 70
   192
  0
VERTEX
  5
83D
  8
0
 10
5.933195874718974
 20
0.0916265660681987
 30
-9.573776001151801
 70
   192
  0
VERTEX
  5
83E
  8
0
 10
8.88893530183628
 20
0.0916265660681997
 30
-6.844601651699028
 70
   192
  0
VERTEX
  5
83F
  8
0
 10
2.21082041730908
 20
0.0916265660682121
 30
-11.10086141199822
 70
   192
  0
VERTEX
  5
840
  8
0
 10
1.03433206415636
 20
-0.2905293201709625
 30
-10.17262936693697
 70
   192
  0
VERTEX
  5
841
  8
0
 10
10.29963000554764
 20
0.1282014109779436
 30
-0.0000855812916658
 70
   192
  0
VERTEX
  5
842
  8
0
 10
10.07465542984904
 20
-0.2905293201709575
 30
-0.0000855812916658
 70
   192
  0
VERTEX
  5
843
  8
0
 10
11.13007001593813
 20
0.0916265660682032
 30
-1.106599254292785
 70
   192
  0
VERTEX
  5
844
  8
0
 10
10.749058958318
 20
0.2829999940819025
 30
-0.0000855812916659
 70
   192
  0
VERTEX
  5
845
  8
0
 10
11.18417411085757
 20
0.091626566068201
 30
-0.0000855812916659
 70
   192
  0
VERTEX
  5
846
  8
0
 10
9.401917900130645
 20
-0.2905293201709507
 30
-3.651074863847625
 70
   192
  0
VERTEX
  5
847
  8
0
 10
10.97028846763223
 20
0.0916265660682043
 30
-2.193581626979122
 70
   192
  0
VERTEX
  5
848
  8
0
 10
10.70719290404614
 20
0.0916265660681976
 30
-3.256277940558029
 70
   192
  0
VERTEX
  5
849
  8
0
 10
-8.625988711565682
 20
-0.2905293201709637
 30
-5.779697466415712
 70
   192
  0
VERTEX
  5
84A
  8
0
 10
-10.12753059206636
 20
-0.290529320170956
 30
-2.398336056085112
 70
   192
  0
VERTEX
  5
84B
  8
0
 10
-10.80798278551783
 20
0.0916265660682034
 30
-3.962068843401012
 70
   192
  0
VERTEX
  5
84C
  8
0
 10
-11.08663624799852
 20
0.2829999940819027
 30
-0.0000855812916645
 70
   192
  0
VERTEX
  5
84D
  8
0
 10
-11.5217514005381
 20
0.0916265660682052
 30
-0.0000855812916645
 70
   192
  0
VERTEX
  5
84E
  8
0
 10
-10.3804146970434
 20
-0.290529320170952
 30
-0.8069911048759817
 70
   192
  0
VERTEX
  5
84F
  8
0
 10
-10.63720729522817
 20
0.1282014109779403
 30
-0.0000855812916645
 70
   192
  0
VERTEX
  5
850
  8
0
 10
-10.41223271952958
 20
-0.2905293201709631
 30
-0.0000855812916751
 70
   192
  0
VERTEX
  5
851
  8
0
 10
-10.28551398788899
 20
-0.290529320170951
 30
-1.606407929807137
 70
   192
  0
VERTEX
  5
852
  8
0
 10
-2.655568958573904
 20
-0.2905293201709558
 30
-9.93709067249064
 70
   192
  0
VERTEX
  5
853
  8
0
 10
-6.021979050691307
 20
-0.2905293201709633
 30
-8.406530048730964
 70
   192
  0
VERTEX
  5
854
  8
0
 10
-5.626857659202188
 20
0.0916265660681978
 30
-9.954946000540374
 70
   192
  0
VERTEX
  5
855
  8
0
 10
-1.810913711471753
 20
0.0916265660682012
 30
-11.2336597497299
 70
   192
  0
VERTEX
  5
856
  8
0
 10
-8.757255382524495
 20
0.0916265660682037
 30
-7.424908975013148
 70
   192
  0
VERTEX
  5
857
  8
0
 10
0.0
 20
0.0
 30
0.0
 70
   128
 71
     1
 72
     2
 73
     3
  0
VERTEX
  5
858
  8
0
 10
0.0
 20
0.0
 30
0.0
 70
   128
 71
     1
 72
     3
 73
     4
  0
VERTEX
  5
859
  8
0
 10
0.0
 20
0.0
 30
0.0
 70
   128
 71
     5
 72
     3
 73
     2
  0
VERTEX
  5
85A
  8
0
 10
0.0
 20
0.0
 30
0.0
 70
   128
 71
     5
 72
     2
 73
     6
  0
VERTEX
  5
85B
  8
0
 10
0.0
 20
0.0
 30
0.0
 70
   128
 71
     7
 72
     8
 73
     9
  0
VERTEX
  5
85C
  8
0
 10
0.0
 20
0.0
 30
0.0
 70
   128
 71
     9
 72
    10
 73
     7
  0
VERTEX
  5
85D
  8
0
 10
0.0
 20
0.0
 30
0.0
 70
   128
 71
     9
 72
    11
 73
    10
  0
VERTEX
  5
85E
  8
0
 10
0.0
 20
0.0
 30
0.0
 70
   128
 71
     8
 72
    12
 73
    13
  0
VERTEX
  5
85F
  8
0
 10
0.0
 20
0.0
 30
0.0
 70
   128
 71
     8
 72
    13
 73
     9
  0
VERTEX
  5
860
  8
0
 10
0.0
 20
0.0
 30
0.0
 70
   128
 71
    12
 72
    14
 73
    13
  0
VERTEX
  5
861
  8
0
 10
0.0
 20
0.0
 30
0.0
 70
   128
 71
    15
 72
    16
 73
    17
  0
VERTEX
  5
862
  8
0
 10
0.0
 20
0.0
 30
0.0
 70
   128
 71
    18
 72
    19
 73
    20
  0
VERTEX
  5
863
  8
0
 10
0.0
 20
0.0
 30
0.0
 70
   128
 71
    20
 72
    21
 73
    18
  0
VERTEX
  5
864
  8
0
 10
0.0
 20
0.0
 30
0.0
 70
   128
 71
    20
 72
    22
 73
    21
  0
VERTEX
  5
865
  8
0
 10
0.0
 20
0.0
 30
0.0
 70
   128
 71
    19
 72
    23
 73
    20
  0
VERTEX
  5
866
  8
0
 10
0.0
 20
0.0
 30
0.0
 70
   128
 71
    19
 72
    17
 73
    16
  0
VERTEX
  5
867
  8
0
 10
0.0
 20
0.0
 30
0.0
 70
   128
 71
    19
 72
    16
 73
    23
  0
VERTEX
  5
868
  8
0
 10
0.0
 20
0.0
 30
0.0
 70
   128
 71
    24
 72
    25
 73
    26
  0
VERTEX
  5
869
  8
0
 10
0.0
 20
0.0
 30
0.0
 70
   128
 71
    24
 72
    26
 73
    27
  0
VERTEX
  5
86A
  8
0
 10
0.0
 20
0.0
 30
0.0
 70
   128
 71
    28
 72
    26
 73
    25
  0
VERTEX
  5
86B
  8
0
 10
0.0
 20
0.0
 30
0.0
 70
   128
 71
    24
 72
    27
 73
     5
  0
VERTEX
  5
86C
  8
0
 10
0.0
 20
0.0
 30
0.0
 70
   128
 71
    24
 72
     5
 73
     6
  0
VERTEX
  5
86D
  8
0
 10
0.0
 20
0.0
 30
0.0
 70
   128
 71
     1
 72
     4
 73
    14
  0
VERTEX
  5
86E
  8
0
 10
0.0
 20
0.0
 30
0.0
 70
   128
 71
     1
 72
    14
 73
    12
  0
VERTEX
  5
86F
  8
0
 10
0.0
 20
0.0
 30
0.0
 70
   128
 71
    15
 72
    28
 73
    25
  0
VERTEX
  5
870
  8
0
 10
0.0
 20
0.0
 30
0.0
 70
   128
 71
    15
 72
    17
 73
    28
  0
SEQEND
  5
E45
  8
0
  0
POLYLINE
  5
871
  8
0
 66
     1
 10
0.0
 20
0.0
 30
0.0
 70
    64
 71
    22
 72
    20
  0
VERTEX
  5
872
  8
0
 10
-2.688893625665763
 20
6.778018658198949
 30
-13.66909617705095
 70
   192
  0
VERTEX
  5
873
  8
0
 10
2.727935318300844
 20
6.778018658198949
 30
-13.59426705950967
 70
   192
  0
VERTEX
  5
874
  8
0
 10
-0.1687886448524859
 20
4.649843493101219
 30
-14.99953558129167
 70
   192
  0
VERTEX
  5
875
  8
0
 10
-5.170569075772333
 20
4.649843493101228
 30
-14.14100821113605
 70
   192
  0
VERTEX
  5
876
  8
0
 10
-12.9493584827121
 20
4.649843493101225
 30
-7.851234218388059
 70
   192
  0
VERTEX
  5
877
  8
0
 10
-11.61518577189449
 20
6.778018658198949
 30
-7.885056893295673
 70
   192
  0
VERTEX
  5
878
  8
0
 10
-7.726741163901686
 20
6.778018658198953
 30
-11.66499593246774
 70
   192
  0
VERTEX
  5
879
  8
0
 10
-9.599767443556122
 20
4.649843493101224
 30
-11.6637101980509
 70
   192
  0
VERTEX
  5
87A
  8
0
 10
-14.83701573443534
 20
4.649843493101225
 30
-3.134828688879488
 70
   192
  0
VERTEX
  5
87B
  8
0
 10
-14.7090720370299
 20
5.465603028496958
 30
-3.107485873635965
 70
   192
  0
VERTEX
  5
87C
  8
0
 10
-14.33807482586065
 20
6.199534689278682
 30
-3.028200153313243
 70
   192
  0
VERTEX
  5
87D
  8
0
 10
-13.76123839258654
 20
6.778018658198946
 30
-2.9049245848086
 70
   192
  0
VERTEX
  5
87E
  8
0
 10
13.49505126197712
 20
6.778018658198951
 30
-2.548076708086604
 70
   192
  0
VERTEX
  5
87F
  8
0
 10
13.42366110290602
 20
6.778018658198949
 30
2.904753422225268
 70
   192
  0
VERTEX
  5
880
  8
0
 10
14.00049753618012
 20
6.199534689278683
 30
3.02802899072991
 70
   192
  0
VERTEX
  5
881
  8
0
 10
14.37149474734938
 20
5.465603028496959
 30
3.107314711052632
 70
   192
  0
VERTEX
  5
882
  8
0
 10
14.41255805785335
 20
4.649843493101231
 30
-3.516877960484086
 70
   192
  0
VERTEX
  5
883
  8
0
 10
14.49943844475002
 20
4.649843493101227
 30
3.134657526318526
 70
   192
  0
VERTEX
  5
884
  8
0
 10
6.28911111304731
 20
4.649843493101241
 30
-13.53814419468139
 70
   192
  0
VERTEX
  5
885
  8
0
 10
7.702890893680483
 20
6.778018658198951
 30
-11.45562754481058
 70
   192
  0
VERTEX
  5
886
  8
0
 10
11.48306974664616
 20
6.778018658198951
 30
-7.578144422849221
 70
   192
  0
VERTEX
  5
887
  8
0
 10
11.48582150119574
 20
4.649843493101222
 30
-9.442202009636251
 70
   192
  0
VERTEX
  5
888
  8
0
 10
0.0
 20
0.0
 30
0.0
 70
   128
 71
     1
 72
     2
 73
     3
  0
VERTEX
  5
889
  8
0
 10
0.0
 20
0.0
 30
0.0
 70
   128
 71
     3
 72
     4
 73
     1
  0
VERTEX
  5
88A
  8
0
 10
0.0
 20
0.0
 30
0.0
 70
   128
 71
     5
 72
     6
 73
     7
  0
VERTEX
  5
88B
  8
0
 10
0.0
 20
0.0
 30
0.0
 70
   128
 71
     8
 72
     5
 73
     7
  0
VERTEX
  5
88C
  8
0
 10
0.0
 20
0.0
 30
0.0
 70
   128
 71
     5
 72
     9
 73
    10
  0
VERTEX
  5
88D
  8
0
 10
0.0
 20
0.0
 30
0.0
 70
   128
 71
    10
 72
    11
 73
     5
  0
VERTEX
  5
88E
  8
0
 10
0.0
 20
0.0
 30
0.0
 70
   128
 71
    11
 72
     6
 73
     5
  0
VERTEX
  5
88F
  8
0
 10
0.0
 20
0.0
 30
0.0
 70
   128
 71
    11
 72
    12
 73
     6
  0
VERTEX
  5
890
  8
0
 10
0.0
 20
0.0
 30
0.0
 70
   128
 71
    13
 72
    14
 73
    15
  0
VERTEX
  5
891
  8
0
 10
0.0
 20
0.0
 30
0.0
 70
   128
 71
    15
 72
    16
 73
    13
  0
VERTEX
  5
892
  8
0
 10
0.0
 20
0.0
 30
0.0
 70
   128
 71
    16
 72
    17
 73
    13
  0
VERTEX
  5
893
  8
0
 10
0.0
 20
0.0
 30
0.0
 70
   128
 71
    16
 72
    18
 73
    17
  0
VERTEX
  5
894
  8
0
 10
0.0
 20
0.0
 30
0.0
 70
   128
 71
    19
 72
    20
 73
    21
  0
VERTEX
  5
895
  8
0
 10
0.0
 20
0.0
 30
0.0
 70
   128
 71
    22
 72
    19
 73
    21
  0
VERTEX
  5
896
  8
0
 10
0.0
 20
0.0
 30
0.0
 70
   128
 71
     2
 72
    20
 73
    19
  0
VERTEX
  5
897
  8
0
 10
0.0
 20
0.0
 30
0.0
 70
   128
 71
     3
 72
     2
 73
    19
  0
VERTEX
  5
898
  8
0
 10
0.0
 20
0.0
 30
0.0
 70
   128
 71
     7
 72
     1
 73
     4
  0
VERTEX
  5
899
  8
0
 10
0.0
 20
0.0
 30
0.0
 70
   128
 71
     8
 72
     7
 73
     4
  0
VERTEX
  5
89A
  8
0
 10
0.0
 20
0.0
 30
0.0
 70
   128
 71
    21
 72
    13
 73
    17
  0
VERTEX
  5
89B
  8
0
 10
0.0
 20
0.0
 30
0.0
 70
   128
 71
    22
 72
    21
 73
    17
  0
SEQEND
  5
E46
  8
0
  0
POLYLINE
  5
89C
  8
0
 66
     1
 10
0.0
 20
0.0
 30
0.0
 70
    64
 71
    17
 72
    15
  0
VERTEX
  5
89D
  8
0
 10
4.386102534955413
 20
11.57362217991489
 30
0.9733390626390042
 70
   192
  0
VERTEX
  5
89E
  8
0
 10
4.057524556300478
 20
12.51851349140059
 30
0.9031187457861246
 70
   192
  0
VERTEX
  5
89F
  8
0
 10
2.367300185851805
 20
12.51851349140059
 30
3.49930790521818
 70
   192
  0
VERTEX
  5
8A0
  8
0
 10
5.039008440973116
 20
10.82531838405066
 30
1.112871418956247
 70
   192
  0
VERTEX
  5
8A1
  8
0
 10
3.21591399558229
 20
10.38419760242872
 30
5.225535026243182
 70
   192
  0
VERTEX
  5
8A2
  8
0
 10
5.919746099100101
 20
10.38419760242882
 30
1.301093641489575
 70
   192
  0
VERTEX
  5
8A3
  8
0
 10
-5.37658573065365
 20
10.82531838405066
 30
-1.113042581539577
 70
   192
  0
VERTEX
  5
8A4
  8
0
 10
-6.257323388780633
 20
10.38419760242882
 30
-1.301264804072904
 70
   192
  0
VERTEX
  5
8A5
  8
0
 10
-4.448065628282849
 20
12.51851349140059
 30
-0.6045008375986469
 70
   192
  0
VERTEX
  5
8A6
  8
0
 10
-4.723679824635948
 20
11.57362217991489
 30
-0.9735102252223354
 70
   192
  0
VERTEX
  5
8A7
  8
0
 10
-4.395101845986675
 20
12.51851349140059
 30
-0.9032899083429727
 70
   192
  0
VERTEX
  5
8A8
  8
0
 10
-4.479982517591512
 20
12.51851349140059
 30
-0.301977786400086
 70
   192
  0
VERTEX
  5
8A9
  8
0
 10
-4.490536130590518
 20
12.51851349140059
 30
-0.0000855812916635
 70
   192
  0
VERTEX
  5
8AA
  8
0
 10
-3.381755528022547
 20
12.51851349140059
 30
2.890302824816164
 70
   192
  0
VERTEX
  5
8AB
  8
0
 10
-5.392367216347424
 20
10.38419760242882
 30
3.387767663059055
 70
   192
  0
VERTEX
  5
8AC
  8
0
 10
-1.466734783550669
 20
10.38419760242882
 30
6.089139206723104
 70
   192
  0
VERTEX
  5
8AD
  8
0
 10
-0.6244276903625926
 20
12.51851349140059
 30
4.297575921291351
 70
   192
  0
VERTEX
  5
8AE
  8
0
 10
0.0
 20
0.0
 30
0.0
 70
   128
 71
     1
 72
     2
 73
     3
  0
VERTEX
  5
8AF
  8
0
 10
0.0
 20
0.0
 30
0.0
 70
   128
 71
     3
 72
     4
 73
     1
  0
VERTEX
  5
8B0
  8
0
 10
0.0
 20
0.0
 30
0.0
 70
   128
 71
     3
 72
     5
 73
     4
  0
VERTEX
  5
8B1
  8
0
 10
0.0
 20
0.0
 30
0.0
 70
   128
 71
     5
 72
     6
 73
     4
  0
VERTEX
  5
8B2
  8
0
 10
0.0
 20
0.0
 30
0.0
 70
   128
 71
     7
 72
     8
 73
     9
  0
VERTEX
  5
8B3
  8
0
 10
0.0
 20
0.0
 30
0.0
 70
   128
 71
     9
 72
    10
 73
     7
  0
VERTEX
  5
8B4
  8
0
 10
0.0
 20
0.0
 30
0.0
 70
   128
 71
     9
 72
    11
 73
    10
  0
VERTEX
  5
8B5
  8
0
 10
0.0
 20
0.0
 30
0.0
 70
   128
 71
     8
 72
    12
 73
     9
  0
VERTEX
  5
8B6
  8
0
 10
0.0
 20
0.0
 30
0.0
 70
   128
 71
     8
 72
    13
 73
    12
  0
VERTEX
  5
8B7
  8
0
 10
0.0
 20
0.0
 30
0.0
 70
   128
 71
    14
 72
    15
 73
    16
  0
VERTEX
  5
8B8
  8
0
 10
0.0
 20
0.0
 30
0.0
 70
   128
 71
    14
 72
    16
 73
    17
  0
VERTEX
  5
8B9
  8
0
 10
0.0
 20
0.0
 30
0.0
 70
   128
 71
    17
 72
    16
 73
     5
  0
VERTEX
  5
8BA
  8
0
 10
0.0
 20
0.0
 30
0.0
 70
   128
 71
    17
 72
     5
 73
     3
  0
VERTEX
  5
8BB
  8
0
 10
0.0
 20
0.0
 30
0.0
 70
   128
 71
    13
 72
     8
 73
    15
  0
VERTEX
  5
8BC
  8
0
 10
0.0
 20
0.0
 30
0.0
 70
   128
 71
    13
 72
    15
 73
    14
  0
SEQEND
  5
E47
  8
0
  0
POLYLINE
  5
8BD
  8
0
 66
     1
 10
0.0
 20
0.0
 30
0.0
 70
    64
 71
    25
 72
    23
  0
VERTEX
  5
8BE
  8
0
 10
-14.65922701279062
 20
2.31762341961957
 30
-3.874449555821211
 70
   192
  0
VERTEX
  5
8BF
  8
0
 10
-14.18571849781665
 20
1.138717056073903
 30
-2.584335150130125
 70
   192
  0
VERTEX
  5
8C0
  8
0
 10
-14.10898474418248
 20
1.138717056073907
 30
2.97036910598881
 70
   192
  0
VERTEX
  5
8C1
  8
0
 10
-15.08539153053942
 20
2.317623419619612
 30
1.574226539239568
 70
   192
  0
VERTEX
  5
8C2
  8
0
 10
-8.351464202971272
 20
2.317623419619614
 30
-12.57097739583153
 70
   192
  0
VERTEX
  5
8C3
  8
0
 10
-8.254457245258408
 20
1.138717056073903
 30
-11.73782947104809
 70
   192
  0
VERTEX
  5
8C4
  8
0
 10
-12.13060760665559
 20
1.138717056073903
 30
-7.75041173327119
 70
   192
  0
VERTEX
  5
8C5
  8
0
 10
-12.31020689812396
 20
2.317623419619622
 30
-8.807438367533937
 70
   192
  0
VERTEX
  5
8C6
  8
0
 10
-3.303531752450443
 20
2.317623419619613
 30
-14.66831267088196
 70
   192
  0
VERTEX
  5
8C7
  8
0
 10
-3.284465409829671
 20
1.838393482035787
 30
-14.57909660636603
 70
   192
  0
VERTEX
  5
8C8
  8
0
 10
-3.229933612180326
 20
1.426204014347447
 30
-14.32392903311822
 70
   192
  0
VERTEX
  5
8C9
  8
0
 10
-3.147564925774978
 20
1.138717056073905
 30
-13.93850587217985
 70
   192
  0
VERTEX
  5
8CA
  8
0
 10
1.928799358272727
 20
2.317623419619613
 30
14.85198398548729
 70
   192
  0
VERTEX
  5
8CB
  8
0
 10
2.809987636094434
 20
1.138717056073915
 30
13.93833470959652
 70
   192
  0
VERTEX
  5
8CC
  8
0
 10
2.892356322499782
 20
1.426204014347454
 30
14.32375787053489
 70
   192
  0
VERTEX
  5
8CD
  8
0
 10
2.946888120149127
 20
1.838393482035795
 30
14.5789254437827
 70
   192
  0
VERTEX
  5
8CE
  8
0
 10
2.965954462769901
 20
2.317623419619622
 30
14.66814150829864
 70
   192
  0
VERTEX
  5
8CF
  8
0
 10
0.8838849890693371
 20
2.317623419619612
 30
14.96239162229053
 70
   192
  0
VERTEX
  5
8D0
  8
0
 10
-0.1687886448402679
 20
2.317623419619622
 30
14.99936441870833
 70
   192
  0
VERTEX
  5
8D1
  8
0
 10
-2.781634149650285
 20
1.138717056073903
 30
14.0115419724687
 70
   192
  0
VERTEX
  5
8D2
  8
0
 10
-5.549901684428724
 20
2.317623419619607
 30
14.000883055116
 70
   192
  0
VERTEX
  5
8D3
  8
0
 10
-13.53169175356936
 20
2.317623419619615
 30
6.812866848398285
 70
   192
  0
VERTEX
  5
8D4
  8
0
 10
-11.9159101358698
 20
1.138717056073906
 30
8.071952928263737
 70
   192
  0
VERTEX
  5
8D5
  8
0
 10
-7.939732888373685
 20
1.138717056073903
 30
11.94834920746612
 70
   192
  0
VERTEX
  5
8D6
  8
0
 10
-10.20582433298833
 20
2.317623419619624
 30
11.14627772237569
 70
   192
  0
VERTEX
  5
8D7
  8
0
 10
0.0
 20
0.0
 30
0.0
 70
   128
 71
     1
 72
     2
 73
     3
  0
VERTEX
  5
8D8
  8
0
 10
0.0
 20
0.0
 30
0.0
 70
   128
 71
     4
 72
     1
 73
     3
  0
VERTEX
  5
8D9
  8
0
 10
0.0
 20
0.0
 30
0.0
 70
   128
 71
     5
 72
     6
 73
     7
  0
VERTEX
  5
8DA
  8
0
 10
0.0
 20
0.0
 30
0.0
 70
   128
 71
     8
 72
     5
 73
     7
  0
VERTEX
  5
8DB
  8
0
 10
0.0
 20
0.0
 30
0.0
 70
   128
 71
     5
 72
     9
 73
    10
  0
VERTEX
  5
8DC
  8
0
 10
0.0
 20
0.0
 30
0.0
 70
   128
 71
    10
 72
    11
 73
     5
  0
VERTEX
  5
8DD
  8
0
 10
0.0
 20
0.0
 30
0.0
 70
   128
 71
    11
 72
     6
 73
     5
  0
VERTEX
  5
8DE
  8
0
 10
0.0
 20
0.0
 30
0.0
 70
   128
 71
    11
 72
    12
 73
     6
  0
VERTEX
  5
8DF
  8
0
 10
0.0
 20
0.0
 30
0.0
 70
   128
 71
    13
 72
    14
 73
    15
  0
VERTEX
  5
8E0
  8
0
 10
0.0
 20
0.0
 30
0.0
 70
   128
 71
    15
 72
    16
 73
    13
  0
VERTEX
  5
8E1
  8
0
 10
0.0
 20
0.0
 30
0.0
 70
   128
 71
    16
 72
    17
 73
    13
  0
VERTEX
  5
8E2
  8
0
 10
0.0
 20
0.0
 30
0.0
 70
   128
 71
    13
 72
    18
 73
    14
  0
VERTEX
  5
8E3
  8
0
 10
0.0
 20
0.0
 30
0.0
 70
   128
 71
    19
 72
    20
 73
    14
  0
VERTEX
  5
8E4
  8
0
 10
0.0
 20
0.0
 30
0.0
 70
   128
 71
    18
 72
    19
 73
    14
  0
VERTEX
  5
8E5
  8
0
 10
0.0
 20
0.0
 30
0.0
 70
   128
 71
    19
 72
    21
 73
    20
  0
VERTEX
  5
8E6
  8
0
 10
0.0
 20
0.0
 30
0.0
 70
   128
 71
    22
 72
    23
 73
    24
  0
VERTEX
  5
8E7
  8
0
 10
0.0
 20
0.0
 30
0.0
 70
   128
 71
    25
 72
    22
 73
    24
  0
VERTEX
  5
8E8
  8
0
 10
0.0
 20
0.0
 30
0.0
 70
   128
 71
     3
 72
    23
 73
    22
  0
VERTEX
  5
8E9
  8
0
 10
0.0
 20
0.0
 30
0.0
 70
   128
 71
     4
 72
     3
 73
    22
  0
VERTEX
  5
8EA
  8
0
 10
0.0
 20
0.0
 30
0.0
 70
   128
 71
     7
 72
     2
 73
     1
  0
VERTEX
  5
8EB
  8
0
 10
0.0
 20
0.0
 30
0.0
 70
   128
 71
     8
 72
     7
 73
     1
  0
VERTEX
  5
8EC
  8
0
 10
0.0
 20
0.0
 30
0.0
 70
   128
 71
    24
 72
    20
 73
    21
  0
VERTEX
  5
8ED
  8
0
 10
0.0
 20
0.0
 30
0.0
 70
   128
 71
    25
 72
    24
 73
    21
  0
SEQEND
  5
E48
  8
0
  0
POLYLINE
  5
8EE
  8
0
 66
     1
 10
0.0
 20
0.0
 30
0.0
 70
    64
 71
    25
 72
    32
  0
VERTEX
  5
8EF
  8
0
 10
5.315886147371629
 20
27.26894883136781
 30
-5.48476037350356
 70
   192
  0
VERTEX
  5
8F0
  8
0
 10
5.364887603369418
 20
27.63057959777399
 30
-5.53376182950135
 70
   192
  0
VERTEX
  5
8F1
  8
0
 10
7.657011355159735
 20
27.63057959777399
 30
-0.0000855812916654
 70
   192
  0
VERTEX
  5
8F2
  8
0
 10
7.587712831511634
 20
27.26894883136781
 30
-0.0000855812916652
 70
   192
  0
VERTEX
  5
8F3
  8
0
 10
5.36488760336942
 20
27.63057959777399
 30
5.533590666918019
 70
   192
  0
VERTEX
  5
8F4
  8
0
 10
5.315886147371629
 20
27.26894883136781
 30
5.484589210920229
 70
   192
  0
VERTEX
  5
8F5
  8
0
 10
7.389635626239455
 20
26.95855469910547
 30
-0.0000855812916652
 70
   192
  0
VERTEX
  5
8F6
  8
0
 10
5.175824412325193
 20
26.95855469910547
 30
-5.344698638457124
 70
   192
  0
VERTEX
  5
8F7
  8
0
 10
-0.1687886448402658
 20
27.15740386238008
 30
7.70366047291388
 70
   192
  0
VERTEX
  5
8F8
  8
0
 10
5.175824412325193
 20
26.95855469910547
 30
5.344527475873793
 70
   192
  0
VERTEX
  5
8F9
  8
0
 10
7.090843748939568
 20
26.74337451727886
 30
-0.0000855812916652
 70
   192
  0
VERTEX
  5
8FA
  8
0
 10
4.964546649722983
 20
26.74337451727886
 30
-5.133420875854914
 70
   192
  0
VERTEX
  5
8FB
  8
0
 10
-0.1687886448402648
 20
26.80230518606567
 30
-7.368127342511091
 70
   192
  0
VERTEX
  5
8FC
  8
0
 10
4.964546649722983
 20
26.74337451727886
 30
5.133249713271583
 70
   192
  0
VERTEX
  5
8FD
  8
0
 10
6.733670683166218
 20
26.65389548243051
 30
-0.0000855812916681
 70
   192
  0
VERTEX
  5
8FE
  8
0
 10
5.808916481802213
 20
26.65389548243051
 30
-3.451315245294912
 70
   192
  0
VERTEX
  5
8FF
  8
0
 10
-0.1687886448402658
 20
26.65389548243051
 30
6.902373746714817
 70
   192
  0
VERTEX
  5
900
  8
0
 10
3.282441019162979
 20
26.65389548243051
 30
5.977619545350811
 70
   192
  0
VERTEX
  5
901
  8
0
 10
5.808916481802214
 20
26.65389548243051
 30
3.451144082711576
 70
   192
  0
VERTEX
  5
902
  8
0
 10
-0.1687886448402648
 20
27.15740386238008
 30
-7.703831635497211
 70
   192
  0
VERTEX
  5
903
  8
0
 10
-0.1687886448402658
 20
26.80230518606567
 30
7.367956179927758
 70
   192
  0
VERTEX
  5
904
  8
0
 10
3.282441019162974
 20
26.65389548243051
 30
-5.977790707934148
 70
   192
  0
VERTEX
  5
905
  8
0
 10
-0.1687886448402666
 20
26.65389548243051
 30
-6.90254490929815
 70
   192
  0
VERTEX
  5
906
  8
0
 10
-0.1687886448402648
 20
27.63057959777399
 30
-7.825885581291665
 70
   192
  0
VERTEX
  5
907
  8
0
 10
-0.1687886448402648
 20
27.63057959777399
 30
7.825714418708336
 70
   192
  0
VERTEX
  5
908
  8
0
 10
0.0
 20
0.0
 30
0.0
 70
   128
 71
     1
 72
     2
 73
    -3
  0
VERTEX
  5
909
  8
0
 10
0.0
 20
0.0
 30
0.0
 70
   128
 71
    -1
 72
     3
 73
     4
  0
VERTEX
  5
90A
  8
0
 10
0.0
 20
0.0
 30
0.0
 70
   128
 71
     4
 72
     3
 73
    -5
  0
VERTEX
  5
90B
  8
0
 10
0.0
 20
0.0
 30
0.0
 70
   128
 71
    -4
 72
     5
 73
     6
  0
VERTEX
  5
90C
  8
0
 10
0.0
 20
0.0
 30
0.0
 70
   128
 71
     7
 72
     8
 73
    -1
  0
VERTEX
  5
90D
  8
0
 10
0.0
 20
0.0
 30
0.0
 70
   128
 71
    -7
 72
     1
 73
     4
  0
VERTEX
  5
90E
  8
0
 10
0.0
 20
0.0
 30
0.0
 70
   128
 71
     9
 72
    10
 73
     6
  0
VERTEX
  5
90F
  8
0
 10
0.0
 20
0.0
 30
0.0
 70
   128
 71
    10
 72
     7
 73
    -4
  0
VERTEX
  5
910
  8
0
 10
0.0
 20
0.0
 30
0.0
 70
   128
 71
   -10
 72
     4
 73
     6
  0
VERTEX
  5
911
  8
0
 10
0.0
 20
0.0
 30
0.0
 70
   128
 71
    11
 72
    12
 73
    -8
  0
VERTEX
  5
912
  8
0
 10
0.0
 20
0.0
 30
0.0
 70
   128
 71
   -11
 72
     8
 73
     7
  0
VERTEX
  5
913
  8
0
 10
0.0
 20
0.0
 30
0.0
 70
   128
 71
    13
 72
     8
 73
    12
  0
VERTEX
  5
914
  8
0
 10
0.0
 20
0.0
 30
0.0
 70
   128
 71
    14
 72
    11
 73
    -7
  0
VERTEX
  5
915
  8
0
 10
0.0
 20
0.0
 30
0.0
 70
   128
 71
   -14
 72
     7
 73
    10
  0
VERTEX
  5
916
  8
0
 10
0.0
 20
0.0
 30
0.0
 70
   128
 71
    12
 72
    11
 73
    15
  0
VERTEX
  5
917
  8
0
 10
0.0
 20
0.0
 30
0.0
 70
   128
 71
    12
 72
    15
 73
    16
  0
VERTEX
  5
918
  8
0
 10
0.0
 20
0.0
 30
0.0
 70
   128
 71
    14
 72
    17
 73
    18
  0
VERTEX
  5
919
  8
0
 10
0.0
 20
0.0
 30
0.0
 70
   128
 71
    19
 72
    15
 73
    11
  0
VERTEX
  5
91A
  8
0
 10
0.0
 20
0.0
 30
0.0
 70
   128
 71
    19
 72
    11
 73
    14
  0
VERTEX
  5
91B
  8
0
 10
0.0
 20
0.0
 30
0.0
 70
   128
 71
     1
 72
     8
 73
    13
  0
VERTEX
  5
91C
  8
0
 10
0.0
 20
0.0
 30
0.0
 70
   128
 71
     1
 72
    13
 73
    20
  0
VERTEX
  5
91D
  8
0
 10
0.0
 20
0.0
 30
0.0
 70
   128
 71
    21
 72
    14
 73
    10
  0
VERTEX
  5
91E
  8
0
 10
0.0
 20
0.0
 30
0.0
 70
   128
 71
    21
 72
    10
 73
     9
  0
VERTEX
  5
91F
  8
0
 10
0.0
 20
0.0
 30
0.0
 70
   128
 71
    12
 72
    22
 73
    23
  0
VERTEX
  5
920
  8
0
 10
0.0
 20
0.0
 30
0.0
 70
   128
 71
    12
 72
    23
 73
    13
  0
VERTEX
  5
921
  8
0
 10
0.0
 20
0.0
 30
0.0
 70
   128
 71
    17
 72
    14
 73
    21
  0
VERTEX
  5
922
  8
0
 10
0.0
 20
0.0
 30
0.0
 70
   128
 71
     2
 72
     1
 73
    20
  0
VERTEX
  5
923
  8
0
 10
0.0
 20
0.0
 30
0.0
 70
   128
 71
     2
 72
    20
 73
    24
  0
VERTEX
  5
924
  8
0
 10
0.0
 20
0.0
 30
0.0
 70
   128
 71
     9
 72
     6
 73
     5
  0
VERTEX
  5
925
  8
0
 10
0.0
 20
0.0
 30
0.0
 70
   128
 71
     9
 72
     5
 73
    25
  0
VERTEX
  5
926
  8
0
 10
0.0
 20
0.0
 30
0.0
 70
   128
 71
    16
 72
    22
 73
    12
  0
VERTEX
  5
927
  8
0
 10
0.0
 20
0.0
 30
0.0
 70
   128
 71
    18
 72
    19
 73
    14
  0
SEQEND
  5
E49
  8
0
  0
POLYLINE
  5
928
  8
0
 66
     1
 10
0.0
 20
0.0
 30
0.0
 70
    64
 71
    25
 72
    23
  0
VERTEX
  5
929
  8
0
 10
11.8792573679907
 20
0.2701567354374962
 30
-2.221339310930171
 70
   192
  0
VERTEX
  5
92A
  8
0
 10
12.0648082803672
 20
0.8652302488062735
 30
-3.271029220289653
 70
   192
  0
VERTEX
  5
92B
  8
0
 10
12.42459897831431
 20
0.8652302488063042
 30
1.329032243027938
 70
   192
  0
VERTEX
  5
92C
  8
0
 10
11.81330199800465
 20
0.2701567354374962
 30
2.553125080869452
 70
   192
  0
VERTEX
  5
92D
  8
0
 10
10.11281701065944
 20
0.2701567354375031
 30
-6.661764499066198
 70
   192
  0
VERTEX
  5
92E
  8
0
 10
6.781128945112878
 20
0.2701567354375032
 30
-10.08909080240168
 70
   192
  0
VERTEX
  5
92F
  8
0
 10
6.739460229764415
 20
0.8652302488063053
 30
-10.61309945598674
 70
   192
  0
VERTEX
  5
930
  8
0
 10
10.08164086180267
 20
0.8652302488063016
 30
-7.435720116910723
 70
   192
  0
VERTEX
  5
931
  8
0
 10
2.391574720822861
 20
0.2701567354374996
 30
-11.98064985408347
 70
   192
  0
VERTEX
  5
932
  8
0
 10
2.436219018685092
 20
0.4078940951251618
 30
-12.18955140576361
 70
   192
  0
VERTEX
  5
933
  8
0
 10
2.466468378983878
 20
0.6168313759592592
 30
-12.3310955358393
 70
   192
  0
VERTEX
  5
934
  8
0
 10
2.47772781441295
 20
0.8652302488063028
 30
-12.38378117868297
 70
   192
  0
VERTEX
  5
935
  8
0
 10
-2.804045668664399
 20
0.616831375959264
 30
12.33092437325598
 70
   192
  0
VERTEX
  5
936
  8
0
 10
-0.1687886448402668
 20
0.8652302488063103
 30
12.66324597157968
 70
   192
  0
VERTEX
  5
937
  8
0
 10
-1.057511580892134
 20
0.8652302488063011
 30
12.63203157508677
 70
   192
  0
VERTEX
  5
938
  8
0
 10
-1.939683733976526
 20
0.8652302488063056
 30
12.53881958992676
 70
   192
  0
VERTEX
  5
939
  8
0
 10
-2.815305104093468
 20
0.8652302488063103
 30
12.38361001609964
 70
   192
  0
VERTEX
  5
93A
  8
0
 10
-2.773796308365613
 20
0.4078940951251666
 30
12.1893802431803
 70
   192
  0
VERTEX
  5
93B
  8
0
 10
2.077044301215702
 20
0.2701567354374996
 30
12.04340291818949
 70
   192
  0
VERTEX
  5
93C
  8
0
 10
-2.729152010503388
 20
0.2701567354375081
 30
11.98047869150014
 70
   192
  0
VERTEX
  5
93D
  8
0
 10
6.510612250453148
 20
0.2701567354374962
 30
10.27001590499748
 70
   192
  0
VERTEX
  5
93E
  8
0
 10
4.374232502187657
 20
0.865230248806297
 30
11.8202750255428
 70
   192
  0
VERTEX
  5
93F
  8
0
 10
9.928276921394835
 20
0.2701567354374988
 30
6.938116440989403
 70
   192
  0
VERTEX
  5
940
  8
0
 10
11.11288318810906
 20
0.8652302488063088
 30
5.751770351499475
 70
   192
  0
VERTEX
  5
941
  8
0
 10
8.305009442891027
 20
0.8652302488063048
 30
9.410265739796635
 70
   192
  0
VERTEX
  5
942
  8
0
 10
0.0
 20
0.0
 30
0.0
 70
   128
 71
     1
 72
     2
 73
     3
  0
VERTEX
  5
943
  8
0
 10
0.0
 20
0.0
 30
0.0
 70
   128
 71
     4
 72
     1
 73
     3
  0
VERTEX
  5
944
  8
0
 10
0.0
 20
0.0
 30
0.0
 70
   128
 71
     1
 72
     5
 73
     2
  0
VERTEX
  5
945
  8
0
 10
0.0
 20
0.0
 30
0.0
 70
   128
 71
     6
 72
     7
 73
     8
  0
VERTEX
  5
946
  8
0
 10
0.0
 20
0.0
 30
0.0
 70
   128
 71
     5
 72
     6
 73
     8
  0
VERTEX
  5
947
  8
0
 10
0.0
 20
0.0
 30
0.0
 70
   128
 71
     6
 72
     9
 73
    10
  0
VERTEX
  5
948
  8
0
 10
0.0
 20
0.0
 30
0.0
 70
   128
 71
    10
 72
    11
 73
     6
  0
VERTEX
  5
949
  8
0
 10
0.0
 20
0.0
 30
0.0
 70
   128
 71
    11
 72
     7
 73
     6
  0
VERTEX
  5
94A
  8
0
 10
0.0
 20
0.0
 30
0.0
 70
   128
 71
    11
 72
    12
 73
     7
  0
VERTEX
  5
94B
  8
0
 10
0.0
 20
0.0
 30
0.0
 70
   128
 71
    13
 72
    14
 73
    15
  0
VERTEX
  5
94C
  8
0
 10
0.0
 20
0.0
 30
0.0
 70
   128
 71
    15
 72
    16
 73
    13
  0
VERTEX
  5
94D
  8
0
 10
0.0
 20
0.0
 30
0.0
 70
   128
 71
    16
 72
    17
 73
    13
  0
VERTEX
  5
94E
  8
0
 10
0.0
 20
0.0
 30
0.0
 70
   128
 71
    13
 72
    18
 73
    14
  0
VERTEX
  5
94F
  8
0
 10
0.0
 20
0.0
 30
0.0
 70
   128
 71
    18
 72
    19
 73
    14
  0
VERTEX
  5
950
  8
0
 10
0.0
 20
0.0
 30
0.0
 70
   128
 71
    18
 72
    20
 73
    19
  0
VERTEX
  5
951
  8
0
 10
0.0
 20
0.0
 30
0.0
 70
   128
 71
    19
 72
    21
 73
    22
  0
VERTEX
  5
952
  8
0
 10
0.0
 20
0.0
 30
0.0
 70
   128
 71
    22
 72
    14
 73
    19
  0
VERTEX
  5
953
  8
0
 10
0.0
 20
0.0
 30
0.0
 70
   128
 71
    23
 72
    24
 73
    25
  0
VERTEX
  5
954
  8
0
 10
0.0
 20
0.0
 30
0.0
 70
   128
 71
    21
 72
    23
 73
    25
  0
VERTEX
  5
955
  8
0
 10
0.0
 20
0.0
 30
0.0
 70
   128
 71
    23
 72
     4
 73
    24
  0
VERTEX
  5
956
  8
0
 10
0.0
 20
0.0
 30
0.0
 70
   128
 71
     8
 72
     2
 73
     5
  0
VERTEX
  5
957
  8
0
 10
0.0
 20
0.0
 30
0.0
 70
   128
 71
     3
 72
    24
 73
     4
  0
VERTEX
  5
958
  8
0
 10
0.0
 20
0.0
 30
0.0
 70
   128
 71
    25
 72
    22
 73
    21
  0
SEQEND
  5
E4A
  8
0
  0
POLYLINE
  5
959
  8
0
 66
     1
 10
0.0
 20
0.0
 30
0.0
 70
    64
 71
    25
 72
    23
  0
VERTEX
  5
95A
  8
0
 10
1.015968803304395
 20
0.0312618863623755
 30
-11.56841610191195
 70
   192
  0
VERTEX
  5
95B
  8
0
 10
2.21082041730908
 20
0.0916265660682121
 30
-11.10086141199822
 70
   192
  0
VERTEX
  5
95C
  8
0
 10
-1.810913711471753
 20
0.0916265660682012
 30
-11.2336597497299
 70
   192
  0
VERTEX
  5
95D
  8
0
 10
-3.49729479860521
 20
0.0312618863623759
 30
-11.1423909096157
 70
   192
  0
VERTEX
  5
95E
  8
0
 10
5.352544827029899
 20
0.0312618863623849
 30
-10.23457618598984
 70
   192
  0
VERTEX
  5
95F
  8
0
 10
8.849287868937576
 20
0.031261886362379
 30
-7.34203472555148
 70
   192
  0
VERTEX
  5
960
  8
0
 10
8.88893530183628
 20
0.0916265660681997
 30
-6.844601651699028
 70
   192
  0
VERTEX
  5
961
  8
0
 10
5.933195874718974
 20
0.0916265660681987
 30
-9.573776001151801
 70
   192
  0
VERTEX
  5
962
  8
0
 10
10.97147955632365
 20
0.0312618863623849
 30
-3.33540350487635
 70
   192
  0
VERTEX
  5
963
  8
0
 10
10.87806495583647
 20
0.0149344130353366
 30
-3.307435830701904
 70
   192
  0
VERTEX
  5
964
  8
0
 10
10.78553896193145
 20
0.0360679131138607
 30
-3.279734199080758
 70
   192
  0
VERTEX
  5
965
  8
0
 10
10.7071929040503
 20
0.0916265660681995
 30
-3.256277940544149
 70
   192
  0
VERTEX
  5
966
  8
0
 10
-11.12564017852032
 20
0.03606791311387
 30
3.271121052588238
 70
   192
  0
VERTEX
  5
967
  8
0
 10
-11.5217514005381
 20
0.0916265660682042
 30
-0.0000855812916746
 70
   192
  0
VERTEX
  5
968
  8
0
 10
-11.46856803687089
 20
0.0916265660682069
 30
1.097853898394174
 70
   192
  0
VERTEX
  5
969
  8
0
 10
-11.31040959314187
 20
0.0916265660682079
 30
2.180457482713145
 70
   192
  0
VERTEX
  5
96A
  8
0
 10
-11.04727606935106
 20
0.0916265660682056
 30
3.247725171665271
 70
   192
  0
VERTEX
  5
96B
  8
0
 10
-11.2181874908352
 20
0.0149344130353463
 30
3.298751378787474
 70
   192
  0
VERTEX
  5
96C
  8
0
 10
-11.73508931854237
 20
0.0312618863623802
 30
-1.204498289115476
 70
   192
  0
VERTEX
  5
96D
  8
0
 10
-11.31162361446967
 20
0.0312618863623858
 30
3.326647062738064
 70
   192
  0
VERTEX
  5
96E
  8
0
 10
-10.39558286802157
 20
0.0312618863623848
 30
-5.535661537048633
 70
   192
  0
VERTEX
  5
96F
  8
0
 10
-10.80798278551783
 20
0.0916265660682034
 30
-3.962068843401012
 70
   192
  0
VERTEX
  5
970
  8
0
 10
-7.503291273180783
 20
0.0312618863623934
 30
-9.024219430363148
 70
   192
  0
VERTEX
  5
971
  8
0
 10
-5.626857659202188
 20
0.0916265660681978
 30
-9.954946000540374
 70
   192
  0
VERTEX
  5
972
  8
0
 10
-8.757255382524495
 20
0.0916265660682037
 30
-7.424908975013148
 70
   192
  0
VERTEX
  5
973
  8
0
 10
0.0
 20
0.0
 30
0.0
 70
   128
 71
     1
 72
     2
 73
     3
  0
VERTEX
  5
974
  8
0
 10
0.0
 20
0.0
 30
0.0
 70
   128
 71
     4
 72
     1
 73
     3
  0
VERTEX
  5
975
  8
0
 10
0.0
 20
0.0
 30
0.0
 70
   128
 71
     1
 72
     5
 73
     2
  0
VERTEX
  5
976
  8
0
 10
0.0
 20
0.0
 30
0.0
 70
   128
 71
     6
 72
     7
 73
     8
  0
VERTEX
  5
977
  8
0
 10
0.0
 20
0.0
 30
0.0
 70
   128
 71
     5
 72
     6
 73
     8
  0
VERTEX
  5
978
  8
0
 10
0.0
 20
0.0
 30
0.0
 70
   128
 71
     6
 72
     9
 73
    10
  0
VERTEX
  5
979
  8
0
 10
0.0
 20
0.0
 30
0.0
 70
   128
 71
    10
 72
    11
 73
     6
  0
VERTEX
  5
97A
  8
0
 10
0.0
 20
0.0
 30
0.0
 70
   128
 71
    11
 72
     7
 73
     6
  0
VERTEX
  5
97B
  8
0
 10
0.0
 20
0.0
 30
0.0
 70
   128
 71
    11
 72
    12
 73
     7
  0
VERTEX
  5
97C
  8
0
 10
0.0
 20
0.0
 30
0.0
 70
   128
 71
    13
 72
    14
 73
    15
  0
VERTEX
  5
97D
  8
0
 10
0.0
 20
0.0
 30
0.0
 70
   128
 71
    15
 72
    16
 73
    13
  0
VERTEX
  5
97E
  8
0
 10
0.0
 20
0.0
 30
0.0
 70
   128
 71
    16
 72
    17
 73
    13
  0
VERTEX
  5
97F
  8
0
 10
0.0
 20
0.0
 30
0.0
 70
   128
 71
    13
 72
    18
 73
    14
  0
VERTEX
  5
980
  8
0
 10
0.0
 20
0.0
 30
0.0
 70
   128
 71
    18
 72
    19
 73
    14
  0
VERTEX
  5
981
  8
0
 10
0.0
 20
0.0
 30
0.0
 70
   128
 71
    18
 72
    20
 73
    19
  0
VERTEX
  5
982
  8
0
 10
0.0
 20
0.0
 30
0.0
 70
   128
 71
    14
 72
    19
 73
    21
  0
VERTEX
  5
983
  8
0
 10
0.0
 20
0.0
 30
0.0
 70
   128
 71
    22
 72
    14
 73
    21
  0
VERTEX
  5
984
  8
0
 10
0.0
 20
0.0
 30
0.0
 70
   128
 71
    23
 72
     4
 73
    24
  0
VERTEX
  5
985
  8
0
 10
0.0
 20
0.0
 30
0.0
 70
   128
 71
    24
 72
    25
 73
    23
  0
VERTEX
  5
986
  8
0
 10
0.0
 20
0.0
 30
0.0
 70
   128
 71
     3
 72
    24
 73
     4
  0
VERTEX
  5
987
  8
0
 10
0.0
 20
0.0
 30
0.0
 70
   128
 71
     8
 72
     2
 73
     5
  0
VERTEX
  5
988
  8
0
 10
0.0
 20
0.0
 30
0.0
 70
   128
 71
    22
 72
    21
 73
    23
  0
VERTEX
  5
989
  8
0
 10
0.0
 20
0.0
 30
0.0
 70
   128
 71
    25
 72
    22
 73
    23
  0
SEQEND
  5
E4B
  8
0
  0
POLYLINE
  5
98A
  8
0
 66
     1
 10
0.0
 20
0.0
 30
0.0
 70
    64
 71
    25
 72
    23
  0
VERTEX
  5
98B
  8
0
 10
1.400996049194898
 20
-0.507978625610112
 30
9.939978998794427
 70
   192
  0
VERTEX
  5
98C
  8
0
 10
2.319075111196804
 20
-0.2905293201709611
 30
9.936648310822214
 70
   192
  0
VERTEX
  5
98D
  8
0
 10
-1.373327683837569
 20
-0.2905293201709617
 30
10.172290356257
 70
   192
  0
VERTEX
  5
98E
  8
0
 10
-2.518784670279039
 20
-0.5079786256101185
 30
9.784934935923967
 70
   192
  0
VERTEX
  5
98F
  8
0
 10
7.969902219277228
 20
-0.5079786256101253
 30
5.91859829776787
 70
   192
  0
VERTEX
  5
990
  8
0
 10
8.289243531273051
 20
-0.29052932017097
 30
5.778308505227477
 70
   192
  0
VERTEX
  5
991
  8
0
 10
5.686111063610031
 20
-0.2905293201709599
 30
8.40516848478368
 70
   192
  0
VERTEX
  5
992
  8
0
 10
5.085071928768696
 20
-0.507978625610112
 30
8.58280769050115
 70
   192
  0
VERTEX
  5
993
  8
0
 10
9.614432402400245
 20
-0.5079786256101186
 30
2.357390565510091
 70
   192
  0
VERTEX
  5
994
  8
0
 10
9.698897947323546
 20
-0.4607943038628963
 30
2.377744343297458
 70
   192
  0
VERTEX
  5
995
  8
0
 10
9.760226054745859
 20
-0.3846659298539687
 30
2.392522661162052
 70
   192
  0
VERTEX
  5
996
  8
0
 10
9.789606961646284
 20
-0.2905293201709623
 30
2.39960261845365
 70
   192
  0
VERTEX
  5
997
  8
0
 10
-10.41223271952958
 20
-0.2905293201709631
 30
-0.0000855812916751
 70
   192
  0
VERTEX
  5
998
  8
0
 10
-10.3804146970434
 20
-0.290529320170952
 30
-0.8069911048759817
 70
   192
  0
VERTEX
  5
999
  8
0
 10
-10.28551398788899
 20
-0.290529320170951
 30
-1.606407929807137
 70
   192
  0
VERTEX
  5
99A
  8
0
 10
-10.09814866333416
 20
-0.3846659298539659
 30
-2.391260340607638
 70
   192
  0
VERTEX
  5
99B
  8
0
 10
-10.12753059206636
 20
-0.290529320170956
 30
-2.398336056085112
 70
   192
  0
VERTEX
  5
99C
  8
0
 10
-10.03681842299577
 20
-0.4607943038628954
 30
-2.376490876875152
 70
   192
  0
VERTEX
  5
99D
  8
0
 10
-10.10604545673371
 20
-0.5079786256101252
 30
1.587376196637534
 70
   192
  0
VERTEX
  5
99E
  8
0
 10
-9.952349940468102
 20
-0.5079786256101171
 30
-2.356149293630945
 70
   192
  0
VERTEX
  5
99F
  8
0
 10
-6.080153984320969
 20
-0.507978625610135
 30
8.143922480623878
 70
   192
  0
VERTEX
  5
9A0
  8
0
 10
-4.908749270556865
 20
-0.2905293201709664
 30
9.080713930752628
 70
   192
  0
VERTEX
  5
9A1
  8
0
 10
-7.825057739805831
 20
-0.2905293201709556
 30
6.805036758296558
 70
   192
  0
VERTEX
  5
9A2
  8
0
 10
-8.743991050373834
 20
-0.5079786256101184
 30
5.26631846189
 70
   192
  0
VERTEX
  5
9A3
  8
0
 10
-9.74263169887666
 20
-0.2905293201709607
 30
3.642671024352839
 70
   192
  0
VERTEX
  5
9A4
  8
0
 10
0.0
 20
0.0
 30
0.0
 70
   128
 71
     1
 72
     2
 73
     3
  0
VERTEX
  5
9A5
  8
0
 10
0.0
 20
0.0
 30
0.0
 70
   128
 71
     4
 72
     1
 73
     3
  0
VERTEX
  5
9A6
  8
0
 10
0.0
 20
0.0
 30
0.0
 70
   128
 71
     5
 72
     6
 73
     7
  0
VERTEX
  5
9A7
  8
0
 10
0.0
 20
0.0
 30
0.0
 70
   128
 71
     8
 72
     5
 73
     7
  0
VERTEX
  5
9A8
  8
0
 10
0.0
 20
0.0
 30
0.0
 70
   128
 71
     5
 72
     9
 73
    10
  0
VERTEX
  5
9A9
  8
0
 10
0.0
 20
0.0
 30
0.0
 70
   128
 71
    10
 72
    11
 73
     5
  0
VERTEX
  5
9AA
  8
0
 10
0.0
 20
0.0
 30
0.0
 70
   128
 71
    11
 72
     6
 73
     5
  0
VERTEX
  5
9AB
  8
0
 10
0.0
 20
0.0
 30
0.0
 70
   128
 71
    11
 72
    12
 73
     6
  0
VERTEX
  5
9AC
  8
0
 10
0.0
 20
0.0
 30
0.0
 70
   128
 71
    13
 72
    14
 73
    15
  0
VERTEX
  5
9AD
  8
0
 10
0.0
 20
0.0
 30
0.0
 70
   128
 71
    16
 72
    13
 73
    15
  0
VERTEX
  5
9AE
  8
0
 10
0.0
 20
0.0
 30
0.0
 70
   128
 71
    15
 72
    17
 73
    16
  0
VERTEX
  5
9AF
  8
0
 10
0.0
 20
0.0
 30
0.0
 70
   128
 71
    16
 72
    18
 73
    13
  0
VERTEX
  5
9B0
  8
0
 10
0.0
 20
0.0
 30
0.0
 70
   128
 71
    18
 72
    19
 73
    13
  0
VERTEX
  5
9B1
  8
0
 10
0.0
 20
0.0
 30
0.0
 70
   128
 71
    18
 72
    20
 73
    19
  0
VERTEX
  5
9B2
  8
0
 10
0.0
 20
0.0
 30
0.0
 70
   128
 71
    21
 72
    22
 73
    23
  0
VERTEX
  5
9B3
  8
0
 10
0.0
 20
0.0
 30
0.0
 70
   128
 71
    24
 72
    21
 73
    23
  0
VERTEX
  5
9B4
  8
0
 10
0.0
 20
0.0
 30
0.0
 70
   128
 71
    13
 72
    19
 73
    24
  0
VERTEX
  5
9B5
  8
0
 10
0.0
 20
0.0
 30
0.0
 70
   128
 71
    25
 72
    13
 73
    24
  0
VERTEX
  5
9B6
  8
0
 10
0.0
 20
0.0
 30
0.0
 70
   128
 71
     2
 72
     1
 73
     8
  0
VERTEX
  5
9B7
  8
0
 10
0.0
 20
0.0
 30
0.0
 70
   128
 71
     7
 72
     2
 73
     8
  0
VERTEX
  5
9B8
  8
0
 10
0.0
 20
0.0
 30
0.0
 70
   128
 71
    22
 72
    21
 73
     4
  0
VERTEX
  5
9B9
  8
0
 10
0.0
 20
0.0
 30
0.0
 70
   128
 71
     3
 72
    22
 73
     4
  0
VERTEX
  5
9BA
  8
0
 10
0.0
 20
0.0
 30
0.0
 70
   128
 71
    23
 72
    25
 73
    24
  0
SEQEND
  5
E4C
  8
0
  0
POLYLINE
  5
9BB
  8
0
 66
     1
 10
0.0
 20
0.0
 30
0.0
 70
    64
 71
    10
 72
     8
  0
VERTEX
  5
9BC
  8
0
 10
0.0533407240911905
 20
28.34794459777394
 30
2.152009418708333
 70
   192
  0
VERTEX
  5
9BD
  8
0
 10
0.05334072409119
 20
28.34794459777394
 30
-2.152180581291664
 70
   192
  0
VERTEX
  5
9BE
  8
0
 10
0.05334072409119
 20
12.69634459777394
 30
-2.152180581291664
 70
   192
  0
VERTEX
  5
9BF
  8
0
 10
0.0533407240911905
 20
12.69634459777394
 30
2.152009418708333
 70
   192
  0
VERTEX
  5
9C0
  8
0
 10
-2.098754275908808
 20
12.69634459777394
 30
-0.0000855812916654
 70
   192
  0
VERTEX
  5
9C1
  8
0
 10
-2.098754275908808
 20
28.34794459777394
 30
-0.0000855812916654
 70
   192
  0
VERTEX
  5
9C2
  8
0
 10
-1.468420244166471
 20
12.69634459777394
 30
1.521675386965996
 70
   192
  0
VERTEX
  5
9C3
  8
0
 10
-1.468420244166471
 20
28.34794459777394
 30
1.521675386965996
 70
   192
  0
VERTEX
  5
9C4
  8
0
 10
-1.468420244166472
 20
12.69634459777394
 30
-1.521846549549327
 70
   192
  0
VERTEX
  5
9C5
  8
0
 10
-1.468420244166472
 20
28.34794459777394
 30
-1.521846549549327
 70
   192
  0
VERTEX
  5
9C6
  8
0
 10
0.0
 20
0.0
 30
0.0
 70
   128
 71
     8
 72
     1
 73
    -4
  0
VERTEX
  5
9C7
  8
0
 10
0.0
 20
0.0
 30
0.0
 70
   128
 71
     7
 72
    -8
 73
     4
  0
VERTEX
  5
9C8
  8
0
 10
0.0
 20
0.0
 30
0.0
 70
   128
 71
     6
 72
     8
 73
    -7
  0
VERTEX
  5
9C9
  8
0
 10
0.0
 20
0.0
 30
0.0
 70
   128
 71
     5
 72
    -6
 73
     7
  0
VERTEX
  5
9CA
  8
0
 10
0.0
 20
0.0
 30
0.0
 70
   128
 71
    10
 72
     6
 73
    -5
  0
VERTEX
  5
9CB
  8
0
 10
0.0
 20
0.0
 30
0.0
 70
   128
 71
     9
 72
   -10
 73
     5
  0
VERTEX
  5
9CC
  8
0
 10
0.0
 20
0.0
 30
0.0
 70
   128
 71
     2
 72
    10
 73
    -9
  0
VERTEX
  5
9CD
  8
0
 10
0.0
 20
0.0
 30
0.0
 70
   128
 71
     3
 72
    -2
 73
     9
  0
SEQEND
  5
E4D
  8
0
  0
POLYLINE
  5
9CE
  8
0
 66
     1
 10
0.0
 20
0.0
 30
0.0
 70
    64
 71
    21
 72
    19
  0
VERTEX
  5
9CF
  8
0
 10
1.928799358272727
 20
2.317623419619613
 30
14.85198398548729
 70
   192
  0
VERTEX
  5
9D0
  8
0
 10
2.965954462769899
 20
2.317623419619622
 30
14.66814150829863
 70
   192
  0
VERTEX
  5
9D1
  8
0
 10
4.834206105821679
 20
4.649843493101236
 30
14.14040747331393
 70
   192
  0
VERTEX
  5
9D2
  8
0
 10
-0.168788644822446
 20
4.649843493101227
 30
14.99936441870833
 70
   192
  0
VERTEX
  5
9D3
  8
0
 10
0.8838849890693371
 20
2.317623419619612
 30
14.96239162229053
 70
   192
  0
VERTEX
  5
9D4
  8
0
 10
-0.1687886448402658
 20
2.317623419619622
 30
14.99936441870833
 70
   192
  0
VERTEX
  5
9D5
  8
0
 10
9.264212604093125
 20
4.649843493101234
 30
11.66190343174213
 70
   192
  0
VERTEX
  5
9D6
  8
0
 10
8.015681616204327
 20
2.31762341961938
 30
12.56963783844105
 70
   192
  0
VERTEX
  5
9D7
  8
0
 10
11.97652475079541
 20
2.317623419619611
 30
8.801895038108293
 70
   192
  0
VERTEX
  5
9D8
  8
0
 10
14.32376482692947
 20
2.317623419619609
 30
3.866359060804596
 70
   192
  0
VERTEX
  5
9D9
  8
0
 10
14.49943844475002
 20
4.649843493101227
 30
3.134657526318525
 70
   192
  0
VERTEX
  5
9DA
  8
0
 10
12.61384255629931
 20
4.649843493101226
 30
7.847706457119706
 70
   192
  0
VERTEX
  5
9DB
  8
0
 10
11.48582150119574
 20
4.649843493101222
 30
-9.442202009636251
 70
   192
  0
VERTEX
  5
9DC
  8
0
 10
14.41255805785335
 20
4.649843493101231
 30
-3.516877960484086
 70
   192
  0
VERTEX
  5
9DD
  8
0
 10
14.74706635072887
 20
2.317623419619623
 30
-1.581467904974035
 70
   192
  0
VERTEX
  5
9DE
  8
0
 10
13.19115460315318
 20
2.317623419619624
 30
-6.818840358587453
 70
   192
  0
VERTEX
  5
9DF
  8
0
 10
9.862856269020753
 20
2.317623419619626
 30
-11.15130070020246
 70
   192
  0
VERTEX
  5
9E0
  8
0
 10
5.203629328545167
 20
2.317623419619627
 30
-14.00439296943997
 70
   192
  0
VERTEX
  5
9E1
  8
0
 10
6.28911111304731
 20
4.649843493101241
 30
-13.53814419468139
 70
   192
  0
VERTEX
  5
9E2
  8
0
 10
-0.168788644851507
 20
2.317623419619616
 30
-14.99953558129167
 70
   192
  0
VERTEX
  5
9E3
  8
0
 10
-0.1687886448402639
 20
4.649843493101219
 30
-14.99953558129167
 70
   192
  0
VERTEX
  5
9E4
  8
0
 10
0.0
 20
0.0
 30
0.0
 70
   128
 71
     1
 72
     2
 73
     3
  0
VERTEX
  5
9E5
  8
0
 10
0.0
 20
0.0
 30
0.0
 70
   128
 71
     1
 72
     3
 73
     4
  0
VERTEX
  5
9E6
  8
0
 10
0.0
 20
0.0
 30
0.0
 70
   128
 71
     4
 72
     5
 73
     1
  0
VERTEX
  5
9E7
  8
0
 10
0.0
 20
0.0
 30
0.0
 70
   128
 71
     4
 72
     6
 73
     5
  0
VERTEX
  5
9E8
  8
0
 10
0.0
 20
0.0
 30
0.0
 70
   128
 71
     7
 72
     3
 73
     2
  0
VERTEX
  5
9E9
  8
0
 10
0.0
 20
0.0
 30
0.0
 70
   128
 71
     7
 72
     2
 73
     8
  0
VERTEX
  5
9EA
  8
0
 10
0.0
 20
0.0
 30
0.0
 70
   128
 71
     9
 72
    10
 73
    11
  0
VERTEX
  5
9EB
  8
0
 10
0.0
 20
0.0
 30
0.0
 70
   128
 71
     9
 72
    11
 73
    12
  0
VERTEX
  5
9EC
  8
0
 10
0.0
 20
0.0
 30
0.0
 70
   128
 71
    13
 72
    14
 73
    15
  0
VERTEX
  5
9ED
  8
0
 10
0.0
 20
0.0
 30
0.0
 70
   128
 71
    13
 72
    15
 73
    16
  0
VERTEX
  5
9EE
  8
0
 10
0.0
 20
0.0
 30
0.0
 70
   128
 71
    17
 72
    18
 73
    19
  0
VERTEX
  5
9EF
  8
0
 10
0.0
 20
0.0
 30
0.0
 70
   128
 71
    18
 72
    20
 73
    21
  0
VERTEX
  5
9F0
  8
0
 10
0.0
 20
0.0
 30
0.0
 70
   128
 71
    18
 72
    21
 73
    19
  0
VERTEX
  5
9F1
  8
0
 10
0.0
 20
0.0
 30
0.0
 70
   128
 71
    11
 72
    10
 73
    15
  0
VERTEX
  5
9F2
  8
0
 10
0.0
 20
0.0
 30
0.0
 70
   128
 71
    11
 72
    15
 73
    14
  0
VERTEX
  5
9F3
  8
0
 10
0.0
 20
0.0
 30
0.0
 70
   128
 71
     7
 72
     8
 73
     9
  0
VERTEX
  5
9F4
  8
0
 10
0.0
 20
0.0
 30
0.0
 70
   128
 71
     7
 72
     9
 73
    12
  0
VERTEX
  5
9F5
  8
0
 10
0.0
 20
0.0
 30
0.0
 70
   128
 71
    13
 72
    17
 73
    19
  0
VERTEX
  5
9F6
  8
0
 10
0.0
 20
0.0
 30
0.0
 70
   128
 71
    13
 72
    16
 73
    17
  0
SEQEND
  5
E4E
  8
0
  0
POLYLINE
  5
9F7
  8
0
 66
     1
 10
0.0
 20
0.0
 30
0.0
 70
    64
 71
    13
 72
    11
  0
VERTEX
  5
9F8
  8
0
 10
-0.168788644840265
 20
0.892429597773949
 30
-13.04308558129167
 70
   192
  0
VERTEX
  5
9F9
  8
0
 10
-0.1687886448402642
 20
1.326996778467239
 30
-13.04308558129167
 70
   192
  0
VERTEX
  5
9FA
  8
0
 10
-7.835271690490994
 20
1.326996778467239
 30
-10.5520942389241
 70
   192
  0
VERTEX
  5
9FB
  8
0
 10
-6.690288644840265
 20
0.892429597773949
 30
-11.2956549228521
 70
   192
  0
VERTEX
  5
9FC
  8
0
 10
-11.4643579864007
 20
0.892429597773949
 30
6.521414418708334
 70
   192
  0
VERTEX
  5
9FD
  8
0
 10
-13.21178864484027
 20
0.892429597773949
 30
-0.0000855812916661
 70
   192
  0
VERTEX
  5
9FE
  8
0
 10
-12.57341878687796
 20
1.326996778467239
 30
4.030423076340775
 70
   192
  0
VERTEX
  5
9FF
  8
0
 10
-0.1687886448402658
 20
1.326996778467239
 30
13.04291441870834
 70
   192
  0
VERTEX
  5
A00
  8
0
 10
-0.1687886448402658
 20
0.8924295977739491
 30
13.04291441870834
 70
   192
  0
VERTEX
  5
A01
  8
0
 10
-6.690288644840271
 20
0.892429597773949
 30
11.29548376026877
 70
   192
  0
VERTEX
  5
A02
  8
0
 10
-7.835271690490994
 20
1.326996778467239
 30
10.55192307634078
 70
   192
  0
VERTEX
  5
A03
  8
0
 10
-11.4643579864007
 20
0.892429597773949
 30
-6.521585581291668
 70
   192
  0
VERTEX
  5
A04
  8
0
 10
-12.57341878687796
 20
1.326996778467239
 30
-4.030594238924104
 70
   192
  0
VERTEX
  5
A05
  8
0
 10
0.0
 20
0.0
 30
0.0
 70
   128
 71
     1
 72
     2
 73
     3
  0
VERTEX
  5
A06
  8
0
 10
0.0
 20
0.0
 30
0.0
 70
   128
 71
     4
 72
     1
 73
     3
  0
VERTEX
  5
A07
  8
0
 10
0.0
 20
0.0
 30
0.0
 70
   128
 71
     5
 72
     6
 73
     7
  0
VERTEX
  5
A08
  8
0
 10
0.0
 20
0.0
 30
0.0
 70
   128
 71
     8
 72
     9
 73
    10
  0
VERTEX
  5
A09
  8
0
 10
0.0
 20
0.0
 30
0.0
 70
   128
 71
    11
 72
     8
 73
    10
  0
VERTEX
  5
A0A
  8
0
 10
0.0
 20
0.0
 30
0.0
 70
   128
 71
     6
 72
    12
 73
    13
  0
VERTEX
  5
A0B
  8
0
 10
0.0
 20
0.0
 30
0.0
 70
   128
 71
     7
 72
     6
 73
    13
  0
VERTEX
  5
A0C
  8
0
 10
0.0
 20
0.0
 30
0.0
 70
   128
 71
    12
 72
     4
 73
     3
  0
VERTEX
  5
A0D
  8
0
 10
0.0
 20
0.0
 30
0.0
 70
   128
 71
    13
 72
    12
 73
     3
  0
VERTEX
  5
A0E
  8
0
 10
0.0
 20
0.0
 30
0.0
 70
   128
 71
    10
 72
     5
 73
     7
  0
VERTEX
  5
A0F
  8
0
 10
0.0
 20
0.0
 30
0.0
 70
   128
 71
    11
 72
    10
 73
     7
  0
SEQEND
  5
E4F
  8
0
  0
POLYLINE
  5
A10
  8
0
 66
     1
 10
0.0
 20
0.0
 30
0.0
 70
    64
 71
    18
 72
    16
  0
VERTEX
  5
A11
  8
0
 10
4.374232502187657
 20
0.865230248806297
 30
11.8202750255428
 70
   192
  0
VERTEX
  5
A12
  8
0
 10
8.305009442891027
 20
0.8652302488063048
 30
9.410265739796635
 70
   192
  0
VERTEX
  5
A13
  8
0
 10
7.279268532802608
 20
1.326996778467239
 30
10.25128566065154
 70
   192
  0
VERTEX
  5
A14
  8
0
 10
-0.1687886448402673
 20
1.326996778467239
 30
12.67130613633658
 70
   192
  0
VERTEX
  5
A15
  8
0
 10
-0.1687886448402658
 20
0.8652302488063102
 30
12.66324597157968
 70
   192
  0
VERTEX
  5
A16
  8
0
 10
0.715798226392117
 20
0.8652302488062988
 30
-12.63249355499995
 70
   192
  0
VERTEX
  5
A17
  8
0
 10
-0.1687886448241163
 20
0.865230248806295
 30
-12.66341713416301
 70
   192
  0
VERTEX
  5
A18
  8
0
 10
-0.1687886448402642
 20
1.326996778467239
 30
-12.67147729891992
 70
   192
  0
VERTEX
  5
A19
  8
0
 10
1.602233565901294
 20
0.8652302488062991
 30
-12.53897255387512
 70
   192
  0
VERTEX
  5
A1A
  8
0
 10
2.477727814412941
 20
0.8652302488063027
 30
-12.38378117868297
 70
   192
  0
VERTEX
  5
A1B
  8
0
 10
7.279268532802613
 20
1.326996778467239
 30
-10.25145682323488
 70
   192
  0
VERTEX
  5
A1C
  8
0
 10
6.739460229764415
 20
0.8652302488063053
 30
-10.61309945598674
 70
   192
  0
VERTEX
  5
A1D
  8
0
 10
12.42459897831431
 20
0.8652302488063042
 30
1.329032243027938
 70
   192
  0
VERTEX
  5
A1E
  8
0
 10
11.88242101873852
 20
1.326996778467239
 30
-3.915760964420749
 70
   192
  0
VERTEX
  5
A1F
  8
0
 10
11.88242101873852
 20
1.326996778467239
 30
3.91558980183742
 70
   192
  0
VERTEX
  5
A20
  8
0
 10
11.11288318810906
 20
0.8652302488063088
 30
5.751770351499475
 70
   192
  0
VERTEX
  5
A21
  8
0
 10
12.0648082803672
 20
0.8652302488062735
 30
-3.271029220289653
 70
   192
  0
VERTEX
  5
A22
  8
0
 10
10.08164086180267
 20
0.8652302488063016
 30
-7.435720116910723
 70
   192
  0
VERTEX
  5
A23
  8
0
 10
0.0
 20
0.0
 30
0.0
 70
   128
 71
     1
 72
     2
 73
     3
  0
VERTEX
  5
A24
  8
0
 10
0.0
 20
0.0
 30
0.0
 70
   128
 71
     3
 72
     4
 73
     5
  0
VERTEX
  5
A25
  8
0
 10
0.0
 20
0.0
 30
0.0
 70
   128
 71
     3
 72
     5
 73
     1
  0
VERTEX
  5
A26
  8
0
 10
0.0
 20
0.0
 30
0.0
 70
   128
 71
     6
 72
     7
 73
     8
  0
VERTEX
  5
A27
  8
0
 10
0.0
 20
0.0
 30
0.0
 70
   128
 71
     8
 72
     9
 73
     6
  0
VERTEX
  5
A28
  8
0
 10
0.0
 20
0.0
 30
0.0
 70
   128
 71
     8
 72
    10
 73
     9
  0
VERTEX
  5
A29
  8
0
 10
0.0
 20
0.0
 30
0.0
 70
   128
 71
     8
 72
    11
 73
    12
  0
VERTEX
  5
A2A
  8
0
 10
0.0
 20
0.0
 30
0.0
 70
   128
 71
     8
 72
    12
 73
    10
  0
VERTEX
  5
A2B
  8
0
 10
0.0
 20
0.0
 30
0.0
 70
   128
 71
    13
 72
    14
 73
    15
  0
VERTEX
  5
A2C
  8
0
 10
0.0
 20
0.0
 30
0.0
 70
   128
 71
    15
 72
    16
 73
    13
  0
VERTEX
  5
A2D
  8
0
 10
0.0
 20
0.0
 30
0.0
 70
   128
 71
    13
 72
    17
 73
    14
  0
VERTEX
  5
A2E
  8
0
 10
0.0
 20
0.0
 30
0.0
 70
   128
 71
     3
 72
     2
 73
    16
  0
VERTEX
  5
A2F
  8
0
 10
0.0
 20
0.0
 30
0.0
 70
   128
 71
     3
 72
    16
 73
    15
  0
VERTEX
  5
A30
  8
0
 10
0.0
 20
0.0
 30
0.0
 70
   128
 71
    18
 72
    11
 73
    14
  0
VERTEX
  5
A31
  8
0
 10
0.0
 20
0.0
 30
0.0
 70
   128
 71
    14
 72
    17
 73
    18
  0
VERTEX
  5
A32
  8
0
 10
0.0
 20
0.0
 30
0.0
 70
   128
 71
    18
 72
    12
 73
    11
  0
SEQEND
  5
E50
  8
0
  0
POLYLINE
  5
A33
  8
0
 66
     1
 10
0.0
 20
0.0
 30
0.0
 70
    64
 71
    10
 72
     8
  0
VERTEX
  5
A34
  8
0
 10
-0.1687886448402658
 20
28.34794459777395
 30
-7.825885581291665
 70
   192
  0
VERTEX
  5
A35
  8
0
 10
-0.1687886448402658
 20
28.34794459777395
 30
7.825714418708338
 70
   192
  0
VERTEX
  5
A36
  8
0
 10
-0.1687886448402648
 20
27.63057959777399
 30
7.825714418708336
 70
   192
  0
VERTEX
  5
A37
  8
0
 10
-0.1687886448402666
 20
27.63057959777399
 30
-7.825885581291666
 70
   192
  0
VERTEX
  5
A38
  8
0
 10
7.657011355159735
 20
27.63057959777399
 30
-0.0000855812916654
 70
   192
  0
VERTEX
  5
A39
  8
0
 10
7.657011355159737
 20
28.34794459777395
 30
-0.0000855812916645
 70
   192
  0
VERTEX
  5
A3A
  8
0
 10
5.364887603369418
 20
27.63057959777399
 30
-5.53376182950135
 70
   192
  0
VERTEX
  5
A3B
  8
0
 10
5.364887603369419
 20
28.34794459777395
 30
-5.53376182950135
 70
   192
  0
VERTEX
  5
A3C
  8
0
 10
5.36488760336942
 20
27.63057959777399
 30
5.533590666918019
 70
   192
  0
VERTEX
  5
A3D
  8
0
 10
5.36488760336942
 20
28.34794459777395
 30
5.533590666918021
 70
   192
  0
VERTEX
  5
A3E
  8
0
 10
0.0
 20
0.0
 30
0.0
 70
   128
 71
     7
 72
     4
 73
    -1
  0
VERTEX
  5
A3F
  8
0
 10
0.0
 20
0.0
 30
0.0
 70
   128
 71
    -7
 72
     1
 73
     8
  0
VERTEX
  5
A40
  8
0
 10
0.0
 20
0.0
 30
0.0
 70
   128
 71
     6
 72
     5
 73
    -7
  0
VERTEX
  5
A41
  8
0
 10
0.0
 20
0.0
 30
0.0
 70
   128
 71
    -6
 72
     7
 73
     8
  0
VERTEX
  5
A42
  8
0
 10
0.0
 20
0.0
 30
0.0
 70
   128
 71
    10
 72
     9
 73
    -5
  0
VERTEX
  5
A43
  8
0
 10
0.0
 20
0.0
 30
0.0
 70
   128
 71
   -10
 72
     5
 73
     6
  0
VERTEX
  5
A44
  8
0
 10
0.0
 20
0.0
 30
0.0
 70
   128
 71
     2
 72
     3
 73
    -9
  0
VERTEX
  5
A45
  8
0
 10
0.0
 20
0.0
 30
0.0
 70
   128
 71
    -2
 72
     9
 73
    10
  0
SEQEND
  5
E51
  8
0
  0
POLYLINE
  5
A46
  8
0
 66
     1
 10
0.0
 20
0.0
 30
0.0
 70
    64
 71
    24
 72
    24
  0
VERTEX
  5
A47
  8
0
 10
-13.83757217031032
 20
6.778018658198945
 30
2.521250714246813
 70
   192
  0
VERTEX
  5
A48
  8
0
 10
-11.83025272818613
 20
6.778018658198948
 30
7.563183236765482
 70
   192
  0
VERTEX
  5
A49
  8
0
 10
-6.257323388780633
 20
10.38419760242882
 30
-1.301264804072908
 70
   192
  0
VERTEX
  5
A4A
  8
0
 10
-11.61518577189449
 20
6.778018658198949
 30
-7.885056893295673
 70
   192
  0
VERTEX
  5
A4B
  8
0
 10
-13.7612383925825
 20
6.778018658198951
 30
-2.90492458482753
 70
   192
  0
VERTEX
  5
A4C
  8
0
 10
-7.726741163901686
 20
6.778018658198953
 30
-11.66499593246774
 70
   192
  0
VERTEX
  5
A4D
  8
0
 10
-3.554260532500669
 20
10.38419760242882
 30
-5.225207856973625
 70
   192
  0
VERTEX
  5
A4E
  8
0
 10
-5.392367216347424
 20
10.38419760242882
 30
3.387767663059055
 70
   192
  0
VERTEX
  5
A4F
  8
0
 10
1.128755566868604
 20
10.38419760242883
 30
-6.089396028019386
 70
   192
  0
VERTEX
  5
A50
  8
0
 10
-2.688893625665763
 20
6.778018658198949
 30
-13.66909617705095
 70
   192
  0
VERTEX
  5
A51
  8
0
 10
2.727935318300844
 20
6.778018658198949
 30
-13.59426705950967
 70
   192
  0
VERTEX
  5
A52
  8
0
 10
11.48306974664616
 20
6.778018658198951
 30
-7.578144422849221
 70
   192
  0
VERTEX
  5
A53
  8
0
 10
7.702890893680483
 20
6.778018658198951
 30
-11.45562754481058
 70
   192
  0
VERTEX
  5
A54
  8
0
 10
5.050487200545042
 20
10.38419760242877
 30
-3.394563795649264
 70
   192
  0
VERTEX
  5
A55
  8
0
 10
5.919746099100101
 20
10.38419760242882
 30
1.301093641489575
 70
   192
  0
VERTEX
  5
A56
  8
0
 10
13.49505126197712
 20
6.778018658198951
 30
-2.548076708086604
 70
   192
  0
VERTEX
  5
A57
  8
0
 10
13.42366110290602
 20
6.778018658198949
 30
2.904753422225268
 70
   192
  0
VERTEX
  5
A58
  8
0
 10
7.387446555552666
 20
6.778018658198947
 30
11.6659372790367
 70
   192
  0
VERTEX
  5
A59
  8
0
 10
11.27563423181887
 20
6.778018658198956
 30
7.887750928269213
 70
   192
  0
VERTEX
  5
A5A
  8
0
 10
3.21591399558229
 20
10.38419760242872
 30
5.225535026243182
 70
   192
  0
VERTEX
  5
A5B
  8
0
 10
2.35205080198864
 20
6.778018658198941
 30
13.66878953678905
 70
   192
  0
VERTEX
  5
A5C
  8
0
 10
-1.466734783550669
 20
10.38419760242882
 30
6.089139206723104
 70
   192
  0
VERTEX
  5
A5D
  8
0
 10
-8.046247054145967
 20
6.778018658198947
 30
11.45148325406972
 70
   192
  0
VERTEX
  5
A5E
  8
0
 10
-3.066409896540983
 20
6.778018658198949
 30
13.59390466672064
 70
   192
  0
VERTEX
  5
A5F
  8
0
 10
0.0
 20
0.0
 30
0.0
 70
   128
 71
     1
 72
     2
 73
     3
  0
VERTEX
  5
A60
  8
0
 10
0.0
 20
0.0
 30
0.0
 70
   128
 71
     4
 72
     5
 73
    -1
  0
VERTEX
  5
A61
  8
0
 10
0.0
 20
0.0
 30
0.0
 70
   128
 71
     6
 72
    -4
 73
     1
  0
VERTEX
  5
A62
  8
0
 10
0.0
 20
0.0
 30
0.0
 70
   128
 71
     7
 72
     6
 73
     1
  0
VERTEX
  5
A63
  8
0
 10
0.0
 20
0.0
 30
0.0
 70
   128
 71
     3
 72
     7
 73
     1
  0
VERTEX
  5
A64
  8
0
 10
0.0
 20
0.0
 30
0.0
 70
   128
 71
     3
 72
     2
 73
     8
  0
VERTEX
  5
A65
  8
0
 10
0.0
 20
0.0
 30
0.0
 70
   128
 71
     6
 72
     7
 73
     9
  0
VERTEX
  5
A66
  8
0
 10
0.0
 20
0.0
 30
0.0
 70
   128
 71
    10
 72
     6
 73
     9
  0
VERTEX
  5
A67
  8
0
 10
0.0
 20
0.0
 30
0.0
 70
   128
 71
    11
 72
    10
 73
     9
  0
VERTEX
  5
A68
  8
0
 10
0.0
 20
0.0
 30
0.0
 70
   128
 71
    12
 72
    13
 73
    11
  0
VERTEX
  5
A69
  8
0
 10
0.0
 20
0.0
 30
0.0
 70
   128
 71
    14
 72
    12
 73
   -11
  0
VERTEX
  5
A6A
  8
0
 10
0.0
 20
0.0
 30
0.0
 70
   128
 71
     9
 72
   -14
 73
    11
  0
VERTEX
  5
A6B
  8
0
 10
0.0
 20
0.0
 30
0.0
 70
   128
 71
    12
 72
    14
 73
    15
  0
VERTEX
  5
A6C
  8
0
 10
0.0
 20
0.0
 30
0.0
 70
   128
 71
    16
 72
    12
 73
    15
  0
VERTEX
  5
A6D
  8
0
 10
0.0
 20
0.0
 30
0.0
 70
   128
 71
    17
 72
    16
 73
    15
  0
VERTEX
  5
A6E
  8
0
 10
0.0
 20
0.0
 30
0.0
 70
   128
 71
    18
 72
    19
 73
    17
  0
VERTEX
  5
A6F
  8
0
 10
0.0
 20
0.0
 30
0.0
 70
   128
 71
    20
 72
    18
 73
   -17
  0
VERTEX
  5
A70
  8
0
 10
0.0
 20
0.0
 30
0.0
 70
   128
 71
    15
 72
   -20
 73
    17
  0
VERTEX
  5
A71
  8
0
 10
0.0
 20
0.0
 30
0.0
 70
   128
 71
    21
 72
    18
 73
    22
  0
VERTEX
  5
A72
  8
0
 10
0.0
 20
0.0
 30
0.0
 70
   128
 71
    23
 72
    24
 73
   -21
  0
VERTEX
  5
A73
  8
0
 10
0.0
 20
0.0
 30
0.0
 70
   128
 71
     2
 72
   -23
 73
    21
  0
VERTEX
  5
A74
  8
0
 10
0.0
 20
0.0
 30
0.0
 70
   128
 71
     8
 72
     2
 73
    21
  0
VERTEX
  5
A75
  8
0
 10
0.0
 20
0.0
 30
0.0
 70
   128
 71
    22
 72
     8
 73
    21
  0
VERTEX
  5
A76
  8
0
 10
0.0
 20
0.0
 30
0.0
 70
   128
 71
    20
 72
    22
 73
    18
  0
SEQEND
  5
E52
  8
0
  0
POLYLINE
  5
A77
  8
0
 66
     1
 10
0.0
 20
0.0
 30
0.0
 70
    64
 71
    21
 72
    19
  0
VERTEX
  5
A78
  8
0
 10
-2.266527220819582
 20
2.317623419619617
 30
-14.85213359217046
 70
   192
  0
VERTEX
  5
A79
  8
0
 10
-3.303531752450443
 20
2.317623419619613
 30
-14.66831267088196
 70
   192
  0
VERTEX
  5
A7A
  8
0
 10
-5.170569075772333
 20
4.649843493101228
 30
-14.14100821113605
 70
   192
  0
VERTEX
  5
A7B
  8
0
 10
-0.1687886448524859
 20
4.649843493101219
 30
-14.99953558129167
 70
   192
  0
VERTEX
  5
A7C
  8
0
 10
-1.216563196919439
 20
2.317623419619619
 30
-14.96290725188751
 70
   192
  0
VERTEX
  5
A7D
  8
0
 10
-0.1687886448402639
 20
2.317623419619616
 30
-14.99953558129167
 70
   192
  0
VERTEX
  5
A7E
  8
0
 10
-8.351464202971272
 20
2.317623419619614
 30
-12.57097739583153
 70
   192
  0
VERTEX
  5
A7F
  8
0
 10
-9.599767443556122
 20
4.649843493101224
 30
-11.6637101980509
 70
   192
  0
VERTEX
  5
A80
  8
0
 10
-12.31020689812396
 20
2.317623419619622
 30
-8.807438367533937
 70
   192
  0
VERTEX
  5
A81
  8
0
 10
-14.65922701279062
 20
2.31762341961957
 30
-3.874449555821211
 70
   192
  0
VERTEX
  5
A82
  8
0
 10
-14.83701573443534
 20
4.649843493101225
 30
-3.134828688879488
 70
   192
  0
VERTEX
  5
A83
  8
0
 10
-12.9493584827121
 20
4.649843493101225
 30
-7.851234218388059
 70
   192
  0
VERTEX
  5
A84
  8
0
 10
-11.82514316068468
 20
4.649843493101224
 30
9.439877326657369
 70
   192
  0
VERTEX
  5
A85
  8
0
 10
-14.75490271175509
 20
4.649843493101229
 30
3.49688120857773
 70
   192
  0
VERTEX
  5
A86
  8
0
 10
-15.08539153053942
 20
2.317623419619612
 30
1.574226539239568
 70
   192
  0
VERTEX
  5
A87
  8
0
 10
-13.53169175356936
 20
2.317623419619615
 30
6.812866848398285
 70
   192
  0
VERTEX
  5
A88
  8
0
 10
-10.20582433298833
 20
2.317623419619624
 30
11.14627772237569
 70
   192
  0
VERTEX
  5
A89
  8
0
 10
-5.549901684428724
 20
2.317623419619607
 30
14.000883055116
 70
   192
  0
VERTEX
  5
A8A
  8
0
 10
-6.629867641898922
 20
4.649843493101224
 30
13.53645601899411
 70
   192
  0
VERTEX
  5
A8B
  8
0
 10
-0.1687886448402679
 20
2.317623419619622
 30
14.99936441870833
 70
   192
  0
VERTEX
  5
A8C
  8
0
 10
-0.1687886448402658
 20
4.649843493101227
 30
14.99936441870833
 70
   192
  0
VERTEX
  5
A8D
  8
0
 10
0.0
 20
0.0
 30
0.0
 70
   128
 71
     1
 72
     2
 73
     3
  0
VERTEX
  5
A8E
  8
0
 10
0.0
 20
0.0
 30
0.0
 70
   128
 71
     1
 72
     3
 73
     4
  0
VERTEX
  5
A8F
  8
0
 10
0.0
 20
0.0
 30
0.0
 70
   128
 71
     4
 72
     5
 73
     1
  0
VERTEX
  5
A90
  8
0
 10
0.0
 20
0.0
 30
0.0
 70
   128
 71
     4
 72
     6
 73
     5
  0
VERTEX
  5
A91
  8
0
 10
0.0
 20
0.0
 30
0.0
 70
   128
 71
     2
 72
     7
 73
     8
  0
VERTEX
  5
A92
  8
0
 10
0.0
 20
0.0
 30
0.0
 70
   128
 71
     2
 72
     8
 73
     3
  0
VERTEX
  5
A93
  8
0
 10
0.0
 20
0.0
 30
0.0
 70
   128
 71
     9
 72
    10
 73
    11
  0
VERTEX
  5
A94
  8
0
 10
0.0
 20
0.0
 30
0.0
 70
   128
 71
     9
 72
    11
 73
    12
  0
VERTEX
  5
A95
  8
0
 10
0.0
 20
0.0
 30
0.0
 70
   128
 71
    13
 72
    14
 73
    15
  0
VERTEX
  5
A96
  8
0
 10
0.0
 20
0.0
 30
0.0
 70
   128
 71
    13
 72
    15
 73
    16
  0
VERTEX
  5
A97
  8
0
 10
0.0
 20
0.0
 30
0.0
 70
   128
 71
    17
 72
    18
 73
    19
  0
VERTEX
  5
A98
  8
0
 10
0.0
 20
0.0
 30
0.0
 70
   128
 71
    18
 72
    20
 73
    21
  0
VERTEX
  5
A99
  8
0
 10
0.0
 20
0.0
 30
0.0
 70
   128
 71
    18
 72
    21
 73
    19
  0
VERTEX
  5
A9A
  8
0
 10
0.0
 20
0.0
 30
0.0
 70
   128
 71
    11
 72
    10
 73
    15
  0
VERTEX
  5
A9B
  8
0
 10
0.0
 20
0.0
 30
0.0
 70
   128
 71
    11
 72
    15
 73
    14
  0
VERTEX
  5
A9C
  8
0
 10
0.0
 20
0.0
 30
0.0
 70
   128
 71
     8
 72
     7
 73
     9
  0
VERTEX
  5
A9D
  8
0
 10
0.0
 20
0.0
 30
0.0
 70
   128
 71
     8
 72
     9
 73
    12
  0
VERTEX
  5
A9E
  8
0
 10
0.0
 20
0.0
 30
0.0
 70
   128
 71
    13
 72
    17
 73
    19
  0
VERTEX
  5
A9F
  8
0
 10
0.0
 20
0.0
 30
0.0
 70
   128
 71
    13
 72
    16
 73
    17
  0
SEQEND
  5
E53
  8
0
  0
POLYLINE
  5
AA0
  8
0
 66
     1
 10
0.0
 20
0.0
 30
0.0
 70
    64
 71
    17
 72
    15
  0
VERTEX
  5
AA1
  8
0
 10
-4.11243244423229
 20
16.51115792133578
 30
-0.0000855812916673
 70
   192
  0
VERTEX
  5
AA2
  8
0
 10
-4.49053613059052
 20
12.5185134914006
 30
-0.0000855812916674
 70
   192
  0
VERTEX
  5
AA3
  8
0
 10
-3.381755528022547
 20
12.51851349140059
 30
2.890302824816164
 70
   192
  0
VERTEX
  5
AA4
  8
0
 10
-3.336545839973284
 20
24.50259381690413
 30
3.167671613841353
 70
   192
  0
VERTEX
  5
AA5
  8
0
 10
-4.165349083942452
 20
20.5213164931097
 30
-0.0000855812916673
 70
   192
  0
VERTEX
  5
AA6
  8
0
 10
-4.648673832502336
 20
24.50259381690413
 30
-0.0000855812916654
 70
   192
  0
VERTEX
  5
AA7
  8
0
 10
-0.1687886448402658
 20
24.50259381690413
 30
4.479799606370404
 70
   192
  0
VERTEX
  5
AA8
  8
0
 10
-0.6244276903625926
 20
12.51851349140059
 30
4.297575921291351
 70
   192
  0
VERTEX
  5
AA9
  8
0
 10
3.827771794261928
 20
20.52131649310972
 30
-0.0000855812916668
 70
   192
  0
VERTEX
  5
AAA
  8
0
 10
4.311096542821815
 20
24.50259381690412
 30
-0.0000855812916668
 70
   192
  0
VERTEX
  5
AAB
  8
0
 10
4.142305977641007
 20
12.51851349140061
 30
0.3032181818906107
 70
   192
  0
VERTEX
  5
AAC
  8
0
 10
3.774855154551766
 20
16.51115792133578
 30
-0.0000855812916668
 70
   192
  0
VERTEX
  5
AAD
  8
0
 10
4.152958840909976
 20
12.51851349140061
 30
-0.000085581291663
 70
   192
  0
VERTEX
  5
AAE
  8
0
 10
4.110494549437842
 20
12.51851349140061
 30
0.6042862909165398
 70
   192
  0
VERTEX
  5
AAF
  8
0
 10
4.057524556300479
 20
12.51851349140059
 30
0.9031187457861247
 70
   192
  0
VERTEX
  5
AB0
  8
0
 10
2.998968550292753
 20
24.50259381690413
 30
3.167671613841353
 70
   192
  0
VERTEX
  5
AB1
  8
0
 10
2.367300185851805
 20
12.51851349140059
 30
3.49930790521818
 70
   192
  0
VERTEX
  5
AB2
  8
0
 10
0.0
 20
0.0
 30
0.0
 70
   128
 71
     1
 72
     2
 73
     3
  0
VERTEX
  5
AB3
  8
0
 10
0.0
 20
0.0
 30
0.0
 70
   128
 71
     3
 72
     4
 73
     5
  0
VERTEX
  5
AB4
  8
0
 10
0.0
 20
0.0
 30
0.0
 70
   128
 71
     3
 72
     5
 73
     1
  0
VERTEX
  5
AB5
  8
0
 10
0.0
 20
0.0
 30
0.0
 70
   128
 71
     4
 72
     6
 73
     5
  0
VERTEX
  5
AB6
  8
0
 10
0.0
 20
0.0
 30
0.0
 70
   128
 71
     7
 72
     4
 73
     3
  0
VERTEX
  5
AB7
  8
0
 10
0.0
 20
0.0
 30
0.0
 70
   128
 71
     7
 72
     3
 73
     8
  0
VERTEX
  5
AB8
  8
0
 10
0.0
 20
0.0
 30
0.0
 70
   128
 71
     9
 72
    10
 73
    11
  0
VERTEX
  5
AB9
  8
0
 10
0.0
 20
0.0
 30
0.0
 70
   128
 71
    11
 72
    12
 73
     9
  0
VERTEX
  5
ABA
  8
0
 10
0.0
 20
0.0
 30
0.0
 70
   128
 71
    11
 72
    13
 73
    12
  0
VERTEX
  5
ABB
  8
0
 10
0.0
 20
0.0
 30
0.0
 70
   128
 71
    10
 72
    14
 73
    11
  0
VERTEX
  5
ABC
  8
0
 10
0.0
 20
0.0
 30
0.0
 70
   128
 71
    10
 72
    15
 73
    14
  0
VERTEX
  5
ABD
  8
0
 10
0.0
 20
0.0
 30
0.0
 70
   128
 71
    10
 72
    16
 73
    17
  0
VERTEX
  5
ABE
  8
0
 10
0.0
 20
0.0
 30
0.0
 70
   128
 71
    10
 72
    17
 73
    15
  0
VERTEX
  5
ABF
  8
0
 10
0.0
 20
0.0
 30
0.0
 70
   128
 71
     8
 72
    17
 73
    16
  0
VERTEX
  5
AC0
  8
0
 10
0.0
 20
0.0
 30
0.0
 70
   128
 71
     8
 72
    16
 73
     7
  0
SEQEND
  5
E54
  8
0
  0
POLYLINE
  5
AC1
  8
0
 66
     1
 10
0.0
 20
0.0
 30
0.0
 70
    64
 71
    15
 72
    13
  0
VERTEX
  5
AC2
  8
0
 10
3.455514604826949
 20
24.50259381690413
 30
-2.633296026562931
 70
   192
  0
VERTEX
  5
AC3
  8
0
 10
1.215572010995913
 20
24.50259381690413
 30
-4.260709581271816
 70
   192
  0
VERTEX
  5
AC4
  8
0
 10
-0.1687886448402658
 20
26.39149459777395
 30
-5.900248263918836
 70
   192
  0
VERTEX
  5
AC5
  8
0
 10
4.003256398149219
 20
26.39149459777395
 30
-4.17213062428115
 70
   192
  0
VERTEX
  5
AC6
  8
0
 10
-4.34083368782975
 20
26.39149459777395
 30
-4.17213062428115
 70
   192
  0
VERTEX
  5
AC7
  8
0
 10
-1.553149300676448
 20
24.50259381690413
 30
-4.260709581271815
 70
   192
  0
VERTEX
  5
AC8
  8
0
 10
-3.793091894507482
 20
24.50259381690413
 30
-2.633296026562928
 70
   192
  0
VERTEX
  5
AC9
  8
0
 10
4.575947370520771
 20
25.27251623903025
 30
-0.0000855812916645
 70
   192
  0
VERTEX
  5
ACA
  8
0
 10
4.311096542821792
 20
24.50259381690413
 30
-0.0000855812916645
 70
   192
  0
VERTEX
  5
ACB
  8
0
 10
5.065262994704764
 20
25.9232824927303
 30
-0.0000855812916645
 70
   192
  0
VERTEX
  5
ACC
  8
0
 10
5.731374037786905
 20
26.39149459777395
 30
-0.0000855812916649
 70
   192
  0
VERTEX
  5
ACD
  8
0
 10
-5.402840284385296
 20
25.9232824927303
 30
-0.0000855812916639
 70
   192
  0
VERTEX
  5
ACE
  8
0
 10
-6.068951327467436
 20
26.39149459777395
 30
-0.0000855812916638
 70
   192
  0
VERTEX
  5
ACF
  8
0
 10
-4.913524660201302
 20
25.27251623903025
 30
-0.0000855812916639
 70
   192
  0
VERTEX
  5
AD0
  8
0
 10
-4.648673832502336
 20
24.50259381690413
 30
-0.0000855812916639
 70
   192
  0
VERTEX
  5
AD1
  8
0
 10
0.0
 20
0.0
 30
0.0
 70
   128
 71
     1
 72
     2
 73
     3
  0
VERTEX
  5
AD2
  8
0
 10
0.0
 20
0.0
 30
0.0
 70
   128
 71
     1
 72
     3
 73
     4
  0
VERTEX
  5
AD3
  8
0
 10
0.0
 20
0.0
 30
0.0
 70
   128
 71
     5
 72
     3
 73
     6
  0
VERTEX
  5
AD4
  8
0
 10
0.0
 20
0.0
 30
0.0
 70
   128
 71
     5
 72
     6
 73
     7
  0
VERTEX
  5
AD5
  8
0
 10
0.0
 20
0.0
 30
0.0
 70
   128
 71
     6
 72
     3
 73
     2
  0
VERTEX
  5
AD6
  8
0
 10
0.0
 20
0.0
 30
0.0
 70
   128
 71
     8
 72
     9
 73
     1
  0
VERTEX
  5
AD7
  8
0
 10
0.0
 20
0.0
 30
0.0
 70
   128
 71
     1
 72
    10
 73
     8
  0
VERTEX
  5
AD8
  8
0
 10
0.0
 20
0.0
 30
0.0
 70
   128
 71
     1
 72
     4
 73
    11
  0
VERTEX
  5
AD9
  8
0
 10
0.0
 20
0.0
 30
0.0
 70
   128
 71
     1
 72
    11
 73
    10
  0
VERTEX
  5
ADA
  8
0
 10
0.0
 20
0.0
 30
0.0
 70
   128
 71
    12
 72
    13
 73
     5
  0
VERTEX
  5
ADB
  8
0
 10
0.0
 20
0.0
 30
0.0
 70
   128
 71
     5
 72
     7
 73
    14
  0
VERTEX
  5
ADC
  8
0
 10
0.0
 20
0.0
 30
0.0
 70
   128
 71
     5
 72
    14
 73
    12
  0
VERTEX
  5
ADD
  8
0
 10
0.0
 20
0.0
 30
0.0
 70
   128
 71
     7
 72
    15
 73
    14
  0
SEQEND
  5
E55
  8
0
  0
POLYLINE
  5
ADE
  8
0
 66
     1
 10
0.0
 20
0.0
 30
0.0
 70
    64
 71
    26
 72
    26
  0
VERTEX
  5
ADF
  8
0
 10
-2.781634149650285
 20
1.138717056073903
 30
14.0115419724687
 70
   192
  0
VERTEX
  5
AE0
  8
0
 10
-7.939732888373685
 20
1.138717056073903
 30
11.94834920746612
 70
   192
  0
VERTEX
  5
AE1
  8
0
 10
-11.9159101358698
 20
1.138717056073906
 30
8.071952928263737
 70
   192
  0
VERTEX
  5
AE2
  8
0
 10
-4.283921151169415
 20
0.7130942292451254
 30
12.66498998673229
 70
   192
  0
VERTEX
  5
AE3
  8
0
 10
-10.94234541461952
 20
0.7130942292451254
 30
7.827361589833018
 70
   192
  0
VERTEX
  5
AE4
  8
0
 10
11.79417114298539
 20
1.138717056073903
 30
7.748479540856345
 70
   192
  0
VERTEX
  5
AE5
  8
0
 10
7.919818081425111
 20
1.138717056073903
 30
11.73563380718712
 70
   192
  0
VERTEX
  5
AE6
  8
0
 10
2.809987636094434
 20
1.138717056073915
 30
13.93833470959652
 70
   192
  0
VERTEX
  5
AE7
  8
0
 10
10.60476812493898
 20
0.7130942292451254
 30
7.827361589833022
 70
   192
  0
VERTEX
  5
AE8
  8
0
 10
3.946343861488879
 20
0.7130942292451254
 30
12.66498998673229
 70
   192
  0
VERTEX
  5
AE9
  8
0
 10
13.14805988205994
 20
0.7130942292451254
 30
-0.0000855812916645
 70
   192
  0
VERTEX
  5
AEA
  8
0
 10
-12.13060760665559
 20
1.138717056073903
 30
-7.75041173327119
 70
   192
  0
VERTEX
  5
AEB
  8
0
 10
-8.254457245258408
 20
1.138717056073903
 30
-11.73782947104809
 70
   192
  0
VERTEX
  5
AEC
  8
0
 10
-3.147564925774978
 20
1.138717056073907
 30
-13.93850587217985
 70
   192
  0
VERTEX
  5
AED
  8
0
 10
-10.94234541461951
 20
0.7130942292451254
 30
-7.827532752416349
 70
   192
  0
VERTEX
  5
AEE
  8
0
 10
-4.283921151169412
 20
0.7130942292451254
 30
-12.66516114931562
 70
   192
  0
VERTEX
  5
AEF
  8
0
 10
11.57425858944247
 20
1.138717056073907
 30
-8.07805005204214
 70
   192
  0
VERTEX
  5
AF0
  8
0
 10
13.77121135688681
 20
1.1387170560739
 30
-2.971460395944181
 70
   192
  0
VERTEX
  5
AF1
  8
0
 10
10.60476812493898
 20
0.7130942292451254
 30
-7.827532752416349
 70
   192
  0
VERTEX
  5
AF2
  8
0
 10
2.416723579543365
 20
1.138717056073907
 30
-14.01678258432576
 70
   192
  0
VERTEX
  5
AF3
  8
0
 10
7.586989122644189
 20
1.138717056073904
 30
-11.95837055693497
 70
   192
  0
VERTEX
  5
AF4
  8
0
 10
3.946343861488881
 20
0.7130942292451254
 30
-12.66516114931562
 70
   192
  0
VERTEX
  5
AF5
  8
0
 10
-14.18571849781665
 20
1.138717056073903
 30
-2.584335150130125
 70
   192
  0
VERTEX
  5
AF6
  8
0
 10
-13.48563717174047
 20
0.7130942292451254
 30
-0.0000855812916645
 70
   192
  0
VERTEX
  5
AF7
  8
0
 10
-14.10898474418248
 20
1.138717056073907
 30
2.97036910598881
 70
   192
  0
VERTEX
  5
AF8
  8
0
 10
13.84800228212596
 20
1.138717056073903
 30
2.584917148012221
 70
   192
  0
VERTEX
  5
AF9
  8
0
 10
0.0
 20
0.0
 30
0.0
 70
   128
 71
     1
 72
     2
 73
     3
  0
VERTEX
  5
AFA
  8
0
 10
0.0
 20
0.0
 30
0.0
 70
   128
 71
     4
 72
     1
 73
     3
  0
VERTEX
  5
AFB
  8
0
 10
0.0
 20
0.0
 30
0.0
 70
   128
 71
     5
 72
     4
 73
     3
  0
VERTEX
  5
AFC
  8
0
 10
0.0
 20
0.0
 30
0.0
 70
   128
 71
     6
 72
     7
 73
     8
  0
VERTEX
  5
AFD
  8
0
 10
0.0
 20
0.0
 30
0.0
 70
   128
 71
     9
 72
     6
 73
     8
  0
VERTEX
  5
AFE
  8
0
 10
0.0
 20
0.0
 30
0.0
 70
   128
 71
    10
 72
     9
 73
     8
  0
VERTEX
  5
AFF
  8
0
 10
0.0
 20
0.0
 30
0.0
 70
   128
 71
     9
 72
    11
 73
     6
  0
VERTEX
  5
B00
  8
0
 10
0.0
 20
0.0
 30
0.0
 70
   128
 71
    12
 72
    13
 73
    14
  0
VERTEX
  5
B01
  8
0
 10
0.0
 20
0.0
 30
0.0
 70
   128
 71
    15
 72
    12
 73
    14
  0
VERTEX
  5
B02
  8
0
 10
0.0
 20
0.0
 30
0.0
 70
   128
 71
    16
 72
    15
 73
    14
  0
VERTEX
  5
B03
  8
0
 10
0.0
 20
0.0
 30
0.0
 70
   128
 71
    17
 72
    18
 73
    19
  0
VERTEX
  5
B04
  8
0
 10
0.0
 20
0.0
 30
0.0
 70
   128
 71
    20
 72
    21
 73
    17
  0
VERTEX
  5
B05
  8
0
 10
0.0
 20
0.0
 30
0.0
 70
   128
 71
    22
 72
    20
 73
    17
  0
VERTEX
  5
B06
  8
0
 10
0.0
 20
0.0
 30
0.0
 70
   128
 71
    19
 72
    22
 73
    17
  0
VERTEX
  5
B07
  8
0
 10
0.0
 20
0.0
 30
0.0
 70
   128
 71
    23
 72
    12
 73
    24
  0
VERTEX
  5
B08
  8
0
 10
0.0
 20
0.0
 30
0.0
 70
   128
 71
    25
 72
    23
 73
    24
  0
VERTEX
  5
B09
  8
0
 10
0.0
 20
0.0
 30
0.0
 70
   128
 71
     5
 72
     3
 73
    25
  0
VERTEX
  5
B0A
  8
0
 10
0.0
 20
0.0
 30
0.0
 70
   128
 71
    24
 72
     5
 73
    25
  0
VERTEX
  5
B0B
  8
0
 10
0.0
 20
0.0
 30
0.0
 70
   128
 71
    24
 72
    12
 73
    15
  0
VERTEX
  5
B0C
  8
0
 10
0.0
 20
0.0
 30
0.0
 70
   128
 71
     1
 72
     4
 73
    10
  0
VERTEX
  5
B0D
  8
0
 10
0.0
 20
0.0
 30
0.0
 70
   128
 71
     1
 72
    10
 73
     8
  0
VERTEX
  5
B0E
  8
0
 10
0.0
 20
0.0
 30
0.0
 70
   128
 71
    26
 72
     6
 73
    11
  0
VERTEX
  5
B0F
  8
0
 10
0.0
 20
0.0
 30
0.0
 70
   128
 71
    18
 72
    26
 73
    11
  0
VERTEX
  5
B10
  8
0
 10
0.0
 20
0.0
 30
0.0
 70
   128
 71
    11
 72
    19
 73
    18
  0
VERTEX
  5
B11
  8
0
 10
0.0
 20
0.0
 30
0.0
 70
   128
 71
    16
 72
    14
 73
    20
  0
VERTEX
  5
B12
  8
0
 10
0.0
 20
0.0
 30
0.0
 70
   128
 71
    22
 72
    16
 73
    20
  0
SEQEND
  5
E56
  8
0
  0
POLYLINE
  5
B13
  8
0
 66
     1
 10
0.0
 20
0.0
 30
0.0
 70
    64
 71
    20
 72
    20
  0
VERTEX
  5
B14
  8
0
 10
-6.477632137174903
 20
26.39149459777396
 30
-0.0000855812916646
 70
   192
  0
VERTEX
  5
B15
  8
0
 10
-5.215863438707977
 20
26.39149459777397
 30
3.785220514109124
 70
   192
  0
VERTEX
  5
B16
  8
0
 10
-3.137656170644803
 20
26.39149459777397
 30
5.566541029591848
 70
   192
  0
VERTEX
  5
B17
  8
0
 10
-0.1687886448402656
 20
26.39149459777397
 30
6.308757911042981
 70
   192
  0
VERTEX
  5
B18
  8
0
 10
2.800078880964271
 20
26.39149459777397
 30
5.566541029591847
 70
   192
  0
VERTEX
  5
B19
  8
0
 10
4.878286149027446
 20
26.39149459777397
 30
3.785220514109124
 70
   192
  0
VERTEX
  5
B1A
  8
0
 10
6.140054847494372
 20
26.39149459777396
 30
-0.0000855812916645
 70
   192
  0
VERTEX
  5
B1B
  8
0
 10
4.878286149027445
 20
26.39149459777397
 30
-3.785391676692447
 70
   192
  0
VERTEX
  5
B1C
  8
0
 10
2.800078880964269
 20
26.39149459777397
 30
-5.566712192175168
 70
   192
  0
VERTEX
  5
B1D
  8
0
 10
-0.1687886448402662
 20
26.39149459777397
 30
-6.308929073626301
 70
   192
  0
VERTEX
  5
B1E
  8
0
 10
-3.137656170644802
 20
26.39149459777397
 30
-5.566712192175168
 70
   192
  0
VERTEX
  5
B1F
  8
0
 10
-5.215863438707977
 20
26.39149459777397
 30
-3.785391676692447
 70
   192
  0
VERTEX
  5
B20
  8
0
 10
5.731374037786905
 20
26.39149459777395
 30
-0.0000855812916652
 70
   192
  0
VERTEX
  5
B21
  8
0
 10
4.003256398149219
 20
26.39149459777395
 30
4.171959461697819
 70
   192
  0
VERTEX
  5
B22
  8
0
 10
-0.1687886448402651
 20
26.39149459777395
 30
5.900077101335506
 70
   192
  0
VERTEX
  5
B23
  8
0
 10
-4.34083368782975
 20
26.39149459777395
 30
4.17195946169782
 70
   192
  0
VERTEX
  5
B24
  8
0
 10
-6.068951327467437
 20
26.39149459777395
 30
-0.0000855812916645
 70
   192
  0
VERTEX
  5
B25
  8
0
 10
-4.34083368782975
 20
26.39149459777395
 30
-4.17213062428115
 70
   192
  0
VERTEX
  5
B26
  8
0
 10
-0.1687886448402658
 20
26.39149459777395
 30
-5.900248263918836
 70
   192
  0
VERTEX
  5
B27
  8
0
 10
4.003256398149219
 20
26.39149459777395
 30
-4.17213062428115
 70
   192
  0
VERTEX
  5
B28
  8
0
 10
0.0
 20
0.0
 30
0.0
 70
   128
 71
    14
 72
   -13
 73
    -7
  0
VERTEX
  5
B29
  8
0
 10
0.0
 20
0.0
 30
0.0
 70
   128
 71
   -14
 72
     7
 73
    -6
  0
VERTEX
  5
B2A
  8
0
 10
0.0
 20
0.0
 30
0.0
 70
   128
 71
   -14
 72
     6
 73
    -5
  0
VERTEX
  5
B2B
  8
0
 10
0.0
 20
0.0
 30
0.0
 70
   128
 71
     5
 72
    -4
 73
   -15
  0
VERTEX
  5
B2C
  8
0
 10
0.0
 20
0.0
 30
0.0
 70
   128
 71
    -5
 72
    15
 73
   -14
  0
VERTEX
  5
B2D
  8
0
 10
0.0
 20
0.0
 30
0.0
 70
   128
 71
     4
 72
    -3
 73
   -16
  0
VERTEX
  5
B2E
  8
0
 10
0.0
 20
0.0
 30
0.0
 70
   128
 71
    -4
 72
    16
 73
   -15
  0
VERTEX
  5
B2F
  8
0
 10
0.0
 20
0.0
 30
0.0
 70
   128
 71
     3
 72
    -2
 73
   -16
  0
VERTEX
  5
B30
  8
0
 10
0.0
 20
0.0
 30
0.0
 70
   128
 71
     2
 72
    -1
 73
   -17
  0
VERTEX
  5
B31
  8
0
 10
0.0
 20
0.0
 30
0.0
 70
   128
 71
    -2
 72
    17
 73
   -16
  0
VERTEX
  5
B32
  8
0
 10
0.0
 20
0.0
 30
0.0
 70
   128
 71
     1
 72
   -12
 73
   -18
  0
VERTEX
  5
B33
  8
0
 10
0.0
 20
0.0
 30
0.0
 70
   128
 71
    -1
 72
    18
 73
   -17
  0
VERTEX
  5
B34
  8
0
 10
0.0
 20
0.0
 30
0.0
 70
   128
 71
   -18
 72
    12
 73
   -11
  0
VERTEX
  5
B35
  8
0
 10
0.0
 20
0.0
 30
0.0
 70
   128
 71
    11
 72
   -10
 73
   -19
  0
VERTEX
  5
B36
  8
0
 10
0.0
 20
0.0
 30
0.0
 70
   128
 71
   -11
 72
    19
 73
   -18
  0
VERTEX
  5
B37
  8
0
 10
0.0
 20
0.0
 30
0.0
 70
   128
 71
    10
 72
    -9
 73
   -20
  0
VERTEX
  5
B38
  8
0
 10
0.0
 20
0.0
 30
0.0
 70
   128
 71
   -10
 72
    20
 73
   -19
  0
VERTEX
  5
B39
  8
0
 10
0.0
 20
0.0
 30
0.0
 70
   128
 71
     9
 72
    -8
 73
   -20
  0
VERTEX
  5
B3A
  8
0
 10
0.0
 20
0.0
 30
0.0
 70
   128
 71
     8
 72
    -7
 73
   -13
  0
VERTEX
  5
B3B
  8
0
 10
0.0
 20
0.0
 30
0.0
 70
   128
 71
    -8
 72
    13
 73
   -20
  0
SEQEND
  5
E57
  8
0
  0
POLYLINE
  5
B3C
  8
0
 66
     1
 10
0.0
 20
0.0
 30
0.0
 70
    64
 71
    17
 72
    15
  0
VERTEX
  5
B3D
  8
0
 10
-11.4643579864007
 20
0.892429597773949
 30
-6.521585581291668
 70
   192
  0
VERTEX
  5
B3E
  8
0
 10
-13.21178864484027
 20
0.892429597773949
 30
-0.0000855812916661
 70
   192
  0
VERTEX
  5
B3F
  8
0
 10
-13.25295599417099
 20
0.772372855069927
 30
-0.0000855812916661
 70
   192
  0
VERTEX
  5
B40
  8
0
 10
-13.35913328915727
 20
0.702840458670741
 30
-0.0000855812916661
 70
   192
  0
VERTEX
  5
B41
  8
0
 10
-13.48563717174047
 20
0.7130942292451262
 30
-0.0000855812916662
 70
   192
  0
VERTEX
  5
B42
  8
0
 10
-10.94234541461951
 20
0.7130942292451254
 30
-7.827532752416349
 70
   192
  0
VERTEX
  5
B43
  8
0
 10
10.60476812493898
 20
0.7130942292451254
 30
-7.827532752416349
 70
   192
  0
VERTEX
  5
B44
  8
0
 10
13.14805988205994
 20
0.7130942292451254
 30
-0.0000855812916645
 70
   192
  0
VERTEX
  5
B45
  8
0
 10
13.02155599947674
 20
0.702840458670741
 30
-0.0000855812916645
 70
   192
  0
VERTEX
  5
B46
  8
0
 10
12.91537870449045
 20
0.772372855069927
 30
-0.0000855812916645
 70
   192
  0
VERTEX
  5
B47
  8
0
 10
11.12678069672017
 20
0.892429597773949
 30
-6.521585581291665
 70
   192
  0
VERTEX
  5
B48
  8
0
 10
12.87421135515974
 20
0.892429597773949
 30
-0.0000855812916645
 70
   192
  0
VERTEX
  5
B49
  8
0
 10
-6.690288644840265
 20
0.892429597773949
 30
-11.2956549228521
 70
   192
  0
VERTEX
  5
B4A
  8
0
 10
3.946343861488881
 20
0.7130942292451254
 30
-12.66516114931562
 70
   192
  0
VERTEX
  5
B4B
  8
0
 10
-0.1687886448402622
 20
0.892429597773949
 30
-13.04308558129167
 70
   192
  0
VERTEX
  5
B4C
  8
0
 10
-4.283921151169412
 20
0.7130942292451254
 30
-12.66516114931562
 70
   192
  0
VERTEX
  5
B4D
  8
0
 10
6.352711355159737
 20
0.892429597773949
 30
-11.2956549228521
 70
   192
  0
VERTEX
  5
B4E
  8
0
 10
0.0
 20
0.0
 30
0.0
 70
   128
 71
     1
 72
     2
 73
     3
  0
VERTEX
  5
B4F
  8
0
 10
0.0
 20
0.0
 30
0.0
 70
   128
 71
     4
 72
     5
 73
     6
  0
VERTEX
  5
B50
  8
0
 10
0.0
 20
0.0
 30
0.0
 70
   128
 71
     7
 72
     8
 73
     9
  0
VERTEX
  5
B51
  8
0
 10
0.0
 20
0.0
 30
0.0
 70
   128
 71
    10
 72
    11
 73
     7
  0
VERTEX
  5
B52
  8
0
 10
0.0
 20
0.0
 30
0.0
 70
   128
 71
     9
 72
    10
 73
     7
  0
VERTEX
  5
B53
  8
0
 10
0.0
 20
0.0
 30
0.0
 70
   128
 71
    10
 72
    12
 73
    11
  0
VERTEX
  5
B54
  8
0
 10
0.0
 20
0.0
 30
0.0
 70
   128
 71
     3
 72
     4
 73
    13
  0
VERTEX
  5
B55
  8
0
 10
0.0
 20
0.0
 30
0.0
 70
   128
 71
     1
 72
     3
 73
    13
  0
VERTEX
  5
B56
  8
0
 10
0.0
 20
0.0
 30
0.0
 70
   128
 71
     4
 72
     6
 73
    13
  0
VERTEX
  5
B57
  8
0
 10
0.0
 20
0.0
 30
0.0
 70
   128
 71
    14
 72
    15
 73
    13
  0
VERTEX
  5
B58
  8
0
 10
0.0
 20
0.0
 30
0.0
 70
   128
 71
    16
 72
    14
 73
    13
  0
VERTEX
  5
B59
  8
0
 10
0.0
 20
0.0
 30
0.0
 70
   128
 71
    13
 72
     6
 73
    16
  0
VERTEX
  5
B5A
  8
0
 10
0.0
 20
0.0
 30
0.0
 70
   128
 71
    15
 72
    14
 73
    17
  0
VERTEX
  5
B5B
  8
0
 10
0.0
 20
0.0
 30
0.0
 70
   128
 71
     7
 72
    11
 73
    17
  0
VERTEX
  5
B5C
  8
0
 10
0.0
 20
0.0
 30
0.0
 70
   128
 71
    14
 72
     7
 73
    17
  0
SEQEND
  5
E58
  8
0
  0
POLYLINE
  5
B5D
  8
0
 66
     1
 10
0.0
 20
0.0
 30
0.0
 70
    64
 71
    17
 72
    15
  0
VERTEX
  5
B5E
  8
0
 10
-3.137656170644803
 20
26.39149459777397
 30
5.566541029591848
 70
   192
  0
VERTEX
  5
B5F
  8
0
 10
-2.184042973656487
 20
26.60415110543932
 30
6.202229489727175
 70
   192
  0
VERTEX
  5
B60
  8
0
 10
-5.444792973656485
 20
26.60415110543932
 30
3.833155941533694
 70
   192
  0
VERTEX
  5
B61
  8
0
 10
-5.215863438707977
 20
26.39149459777397
 30
3.785220514109124
 70
   192
  0
VERTEX
  5
B62
  8
0
 10
-0.1687886448402656
 20
26.39149459777397
 30
6.308757911042981
 70
   192
  0
VERTEX
  5
B63
  8
0
 10
-6.583960391007583
 20
26.41998516752104
 30
-0.0000855812916637
 70
   192
  0
VERTEX
  5
B64
  8
0
 10
-6.477632137174903
 20
26.39149459777397
 30
-0.0000855812916638
 70
   192
  0
VERTEX
  5
B65
  8
0
 10
4.878286149027446
 20
26.39149459777397
 30
3.785220514109124
 70
   192
  0
VERTEX
  5
B66
  8
0
 10
6.140054847494372
 20
26.39149459777396
 30
-0.0000855812916645
 70
   192
  0
VERTEX
  5
B67
  8
0
 10
6.246383101327051
 20
26.41998516752104
 30
-0.0000855812916645
 70
   192
  0
VERTEX
  5
B68
  8
0
 10
6.324220785412654
 20
26.49782285160664
 30
-0.0000855812916645
 70
   192
  0
VERTEX
  5
B69
  8
0
 10
1.846465683975951
 20
26.60415110543932
 30
6.202229489727177
 70
   192
  0
VERTEX
  5
B6A
  8
0
 10
2.800078880964271
 20
26.39149459777397
 30
5.566541029591847
 70
   192
  0
VERTEX
  5
B6B
  8
0
 10
5.107215683975951
 20
26.60415110543932
 30
3.833155941533698
 70
   192
  0
VERTEX
  5
B6C
  8
0
 10
-6.690288644840265
 20
26.60415110543932
 30
-0.0000855812916637
 70
   192
  0
VERTEX
  5
B6D
  8
0
 10
-6.661798075093186
 20
26.49782285160664
 30
-0.0000855812916637
 70
   192
  0
VERTEX
  5
B6E
  8
0
 10
6.352711355159734
 20
26.60415110543932
 30
-0.0000855812916645
 70
   192
  0
VERTEX
  5
B6F
  8
0
 10
0.0
 20
0.0
 30
0.0
 70
   128
 71
     1
 72
     2
 73
     3
  0
VERTEX
  5
B70
  8
0
 10
0.0
 20
0.0
 30
0.0
 70
   128
 71
     4
 72
     1
 73
     3
  0
VERTEX
  5
B71
  8
0
 10
0.0
 20
0.0
 30
0.0
 70
   128
 71
     1
 72
     5
 73
     2
  0
VERTEX
  5
B72
  8
0
 10
0.0
 20
0.0
 30
0.0
 70
   128
 71
     6
 72
     7
 73
     4
  0
VERTEX
  5
B73
  8
0
 10
0.0
 20
0.0
 30
0.0
 70
   128
 71
     8
 72
     9
 73
    10
  0
VERTEX
  5
B74
  8
0
 10
0.0
 20
0.0
 30
0.0
 70
   128
 71
     8
 72
    10
 73
    11
  0
VERTEX
  5
B75
  8
0
 10
0.0
 20
0.0
 30
0.0
 70
   128
 71
    12
 72
    13
 73
     8
  0
VERTEX
  5
B76
  8
0
 10
0.0
 20
0.0
 30
0.0
 70
   128
 71
    14
 72
    12
 73
     8
  0
VERTEX
  5
B77
  8
0
 10
0.0
 20
0.0
 30
0.0
 70
   128
 71
     5
 72
    13
 73
    12
  0
VERTEX
  5
B78
  8
0
 10
0.0
 20
0.0
 30
0.0
 70
   128
 71
     2
 72
     5
 73
    12
  0
VERTEX
  5
B79
  8
0
 10
0.0
 20
0.0
 30
0.0
 70
   128
 71
     3
 72
    15
 73
    16
  0
VERTEX
  5
B7A
  8
0
 10
0.0
 20
0.0
 30
0.0
 70
   128
 71
     6
 72
     4
 73
     3
  0
VERTEX
  5
B7B
  8
0
 10
0.0
 20
0.0
 30
0.0
 70
   128
 71
    16
 72
     6
 73
     3
  0
VERTEX
  5
B7C
  8
0
 10
0.0
 20
0.0
 30
0.0
 70
   128
 71
     8
 72
    11
 73
    17
  0
VERTEX
  5
B7D
  8
0
 10
0.0
 20
0.0
 30
0.0
 70
   128
 71
    14
 72
     8
 73
    17
  0
SEQEND
  5
E59
  8
0
  0
POLYLINE
  5
B7E
  8
0
 66
     1
 10
0.0
 20
0.0
 30
0.0
 70
    64
 71
    13
 72
    11
  0
VERTEX
  5
B7F
  8
0
 10
-0.1687886448402681
 20
0.892429597773949
 30
13.04291441870834
 70
   192
  0
VERTEX
  5
B80
  8
0
 10
-0.1687886448402658
 20
1.326996778467239
 30
13.04291441870834
 70
   192
  0
VERTEX
  5
B81
  8
0
 10
7.497694400810465
 20
1.326996778467239
 30
10.55192307634078
 70
   192
  0
VERTEX
  5
B82
  8
0
 10
6.352711355159732
 20
0.892429597773949
 30
11.29548376026877
 70
   192
  0
VERTEX
  5
B83
  8
0
 10
11.12678069672017
 20
0.892429597773949
 30
-6.521585581291665
 70
   192
  0
VERTEX
  5
B84
  8
0
 10
12.87421135515974
 20
0.892429597773949
 30
-0.0000855812916645
 70
   192
  0
VERTEX
  5
B85
  8
0
 10
12.23584149719742
 20
1.326996778467239
 30
-4.030594238924107
 70
   192
  0
VERTEX
  5
B86
  8
0
 10
-0.1687886448402642
 20
1.326996778467239
 30
-13.04308558129167
 70
   192
  0
VERTEX
  5
B87
  8
0
 10
-0.1687886448402642
 20
0.8924295977739491
 30
-13.04308558129167
 70
   192
  0
VERTEX
  5
B88
  8
0
 10
6.352711355159737
 20
0.892429597773949
 30
-11.2956549228521
 70
   192
  0
VERTEX
  5
B89
  8
0
 10
7.49769440081046
 20
1.326996778467239
 30
-10.55209423892411
 70
   192
  0
VERTEX
  5
B8A
  8
0
 10
11.12678069672017
 20
0.892429597773949
 30
6.52141441870834
 70
   192
  0
VERTEX
  5
B8B
  8
0
 10
12.23584149719743
 20
1.326996778467239
 30
4.030423076340773
 70
   192
  0
VERTEX
  5
B8C
  8
0
 10
0.0
 20
0.0
 30
0.0
 70
   128
 71
     1
 72
     2
 73
     3
  0
VERTEX
  5
B8D
  8
0
 10
0.0
 20
0.0
 30
0.0
 70
   128
 71
     4
 72
     1
 73
     3
  0
VERTEX
  5
B8E
  8
0
 10
0.0
 20
0.0
 30
0.0
 70
   128
 71
     5
 72
     6
 73
     7
  0
VERTEX
  5
B8F
  8
0
 10
0.0
 20
0.0
 30
0.0
 70
   128
 71
     8
 72
     9
 73
    10
  0
VERTEX
  5
B90
  8
0
 10
0.0
 20
0.0
 30
0.0
 70
   128
 71
    11
 72
     8
 73
    10
  0
VERTEX
  5
B91
  8
0
 10
0.0
 20
0.0
 30
0.0
 70
   128
 71
     6
 72
    12
 73
    13
  0
VERTEX
  5
B92
  8
0
 10
0.0
 20
0.0
 30
0.0
 70
   128
 71
     7
 72
     6
 73
    13
  0
VERTEX
  5
B93
  8
0
 10
0.0
 20
0.0
 30
0.0
 70
   128
 71
    12
 72
     4
 73
     3
  0
VERTEX
  5
B94
  8
0
 10
0.0
 20
0.0
 30
0.0
 70
   128
 71
    13
 72
    12
 73
     3
  0
VERTEX
  5
B95
  8
0
 10
0.0
 20
0.0
 30
0.0
 70
   128
 71
    10
 72
     5
 73
     7
  0
VERTEX
  5
B96
  8
0
 10
0.0
 20
0.0
 30
0.0
 70
   128
 71
    11
 72
    10
 73
     7
  0
SEQEND
  5
E5A
  8
0
  0
POLYLINE
  5
B97
  8
0
 66
     1
 10
0.0
 20
0.0
 30
0.0
 70
    64
 71
    17
 72
    15
  0
VERTEX
  5
B98
  8
0
 10
6.605920271042311
 20
26.6435630276947
 30
-0.0000855812916668
 70
   192
  0
VERTEX
  5
B99
  8
0
 10
6.733670683166206
 20
26.65389548243051
 30
-0.0000855812916668
 70
   192
  0
VERTEX
  5
B9A
  8
0
 10
5.808916481802214
 20
26.65389548243051
 30
3.451144082711576
 70
   192
  0
VERTEX
  5
B9B
  8
0
 10
6.478831563363009
 20
26.62696821527941
 30
-0.0000855812916668
 70
   192
  0
VERTEX
  5
B9C
  8
0
 10
-6.146493771482746
 20
26.65389548243051
 30
3.451144082711576
 70
   192
  0
VERTEX
  5
B9D
  8
0
 10
-7.071247972846749
 20
26.65389548243051
 30
-0.0000855812916664
 70
   192
  0
VERTEX
  5
B9E
  8
0
 10
-6.943497560722842
 20
26.6435630276947
 30
-0.0000855812916677
 70
   192
  0
VERTEX
  5
B9F
  8
0
 10
-5.444792973656485
 20
26.60415110543932
 30
3.833155941533694
 70
   192
  0
VERTEX
  5
BA0
  8
0
 10
-2.184042973656487
 20
26.60415110543932
 30
6.202229489727175
 70
   192
  0
VERTEX
  5
BA1
  8
0
 10
-3.620018308843507
 20
26.65389548243051
 30
5.977619545350814
 70
   192
  0
VERTEX
  5
BA2
  8
0
 10
-0.1687886448402641
 20
26.65389548243051
 30
6.902373746714817
 70
   192
  0
VERTEX
  5
BA3
  8
0
 10
1.846465683975951
 20
26.60415110543932
 30
6.202229489727177
 70
   192
  0
VERTEX
  5
BA4
  8
0
 10
3.282441019162979
 20
26.65389548243051
 30
5.977619545350811
 70
   192
  0
VERTEX
  5
BA5
  8
0
 10
5.107215683975951
 20
26.60415110543932
 30
3.833155941533698
 70
   192
  0
VERTEX
  5
BA6
  8
0
 10
6.352711355159731
 20
26.60415110543932
 30
-0.0000855812916645
 70
   192
  0
VERTEX
  5
BA7
  8
0
 10
-6.816408853043541
 20
26.62696821527941
 30
-0.0000855812916677
 70
   192
  0
VERTEX
  5
BA8
  8
0
 10
-6.690288644840261
 20
26.60415110543933
 30
-0.0000855812916676
 70
   192
  0
VERTEX
  5
BA9
  8
0
 10
0.0
 20
0.0
 30
0.0
 70
   128
 71
     1
 72
     2
 73
     3
  0
VERTEX
  5
BAA
  8
0
 10
0.0
 20
0.0
 30
0.0
 70
   128
 71
     3
 72
     4
 73
     1
  0
VERTEX
  5
BAB
  8
0
 10
0.0
 20
0.0
 30
0.0
 70
   128
 71
     5
 72
     6
 73
     7
  0
VERTEX
  5
BAC
  8
0
 10
0.0
 20
0.0
 30
0.0
 70
   128
 71
     8
 72
     9
 73
    10
  0
VERTEX
  5
BAD
  8
0
 10
0.0
 20
0.0
 30
0.0
 70
   128
 71
     9
 72
    11
 73
    10
  0
VERTEX
  5
BAE
  8
0
 10
0.0
 20
0.0
 30
0.0
 70
   128
 71
     9
 72
    12
 73
    13
  0
VERTEX
  5
BAF
  8
0
 10
0.0
 20
0.0
 30
0.0
 70
   128
 71
     9
 72
    13
 73
    11
  0
VERTEX
  5
BB0
  8
0
 10
0.0
 20
0.0
 30
0.0
 70
   128
 71
     3
 72
    13
 73
    12
  0
VERTEX
  5
BB1
  8
0
 10
0.0
 20
0.0
 30
0.0
 70
   128
 71
     3
 72
    12
 73
    14
  0
VERTEX
  5
BB2
  8
0
 10
0.0
 20
0.0
 30
0.0
 70
   128
 71
    14
 72
    15
 73
     4
  0
VERTEX
  5
BB3
  8
0
 10
0.0
 20
0.0
 30
0.0
 70
   128
 71
    14
 72
     4
 73
     3
  0
VERTEX
  5
BB4
  8
0
 10
0.0
 20
0.0
 30
0.0
 70
   128
 71
     5
 72
     8
 73
    10
  0
VERTEX
  5
BB5
  8
0
 10
0.0
 20
0.0
 30
0.0
 70
   128
 71
    16
 72
    17
 73
     8
  0
VERTEX
  5
BB6
  8
0
 10
0.0
 20
0.0
 30
0.0
 70
   128
 71
     8
 72
     5
 73
     7
  0
VERTEX
  5
BB7
  8
0
 10
0.0
 20
0.0
 30
0.0
 70
   128
 71
     8
 72
     7
 73
    16
  0
SEQEND
  5
E5B
  8
0
  0
POLYLINE
  5
BB8
  8
0
 66
     1
 10
0.0
 20
0.0
 30
0.0
 70
    64
 71
    20
 72
    20
  0
VERTEX
  5
BB9
  8
0
 10
-0.1687886448402658
 20
1.326996778467239
 30
13.04291441870834
 70
   192
  0
VERTEX
  5
BBA
  8
0
 10
-7.835271690490994
 20
1.326996778467239
 30
10.55192307634078
 70
   192
  0
VERTEX
  5
BBB
  8
0
 10
-12.57341878687796
 20
1.326996778467239
 30
4.030423076340775
 70
   192
  0
VERTEX
  5
BBC
  8
0
 10
-12.57341878687796
 20
1.326996778467239
 30
-4.030594238924104
 70
   192
  0
VERTEX
  5
BBD
  8
0
 10
-7.835271690490994
 20
1.326996778467239
 30
-10.5520942389241
 70
   192
  0
VERTEX
  5
BBE
  8
0
 10
-0.1687886448402658
 20
1.326996778467239
 30
-13.04308558129167
 70
   192
  0
VERTEX
  5
BBF
  8
0
 10
7.49769440081046
 20
1.326996778467239
 30
-10.55209423892411
 70
   192
  0
VERTEX
  5
BC0
  8
0
 10
12.23584149719742
 20
1.326996778467239
 30
-4.030594238924107
 70
   192
  0
VERTEX
  5
BC1
  8
0
 10
12.23584149719743
 20
1.326996778467239
 30
4.030423076340773
 70
   192
  0
VERTEX
  5
BC2
  8
0
 10
7.497694400810465
 20
1.326996778467239
 30
10.55192307634078
 70
   192
  0
VERTEX
  5
BC3
  8
0
 10
-0.1687886448402673
 20
1.326996778467239
 30
12.67130613633658
 70
   192
  0
VERTEX
  5
BC4
  8
0
 10
7.279268532802608
 20
1.326996778467239
 30
10.25128566065154
 70
   192
  0
VERTEX
  5
BC5
  8
0
 10
11.88242101873852
 20
1.326996778467239
 30
3.91558980183742
 70
   192
  0
VERTEX
  5
BC6
  8
0
 10
11.88242101873852
 20
1.326996778467239
 30
-3.915760964420749
 70
   192
  0
VERTEX
  5
BC7
  8
0
 10
7.279268532802613
 20
1.326996778467239
 30
-10.25145682323488
 70
   192
  0
VERTEX
  5
BC8
  8
0
 10
-0.1687886448402637
 20
1.326996778467239
 30
-12.67147729891992
 70
   192
  0
VERTEX
  5
BC9
  8
0
 10
-7.616845822483142
 20
1.326996778467239
 30
-10.25145682323488
 70
   192
  0
VERTEX
  5
BCA
  8
0
 10
-12.21999830841905
 20
1.326996778467239
 30
-3.915760964420751
 70
   192
  0
VERTEX
  5
BCB
  8
0
 10
-12.21999830841905
 20
1.326996778467239
 30
3.915589801837417
 70
   192
  0
VERTEX
  5
BCC
  8
0
 10
-7.616845822483142
 20
1.326996778467239
 30
10.25128566065154
 70
   192
  0
VERTEX
  5
BCD
  8
0
 10
0.0
 20
0.0
 30
0.0
 70
   128
 71
    -1
 72
    11
 73
   -12
  0
VERTEX
  5
BCE
  8
0
 10
0.0
 20
0.0
 30
0.0
 70
   128
 71
    10
 72
    -1
 73
   -12
  0
VERTEX
  5
BCF
  8
0
 10
0.0
 20
0.0
 30
0.0
 70
   128
 71
   -13
 72
     9
 73
   -10
  0
VERTEX
  5
BD0
  8
0
 10
0.0
 20
0.0
 30
0.0
 70
   128
 71
    12
 72
   -13
 73
   -10
  0
VERTEX
  5
BD1
  8
0
 10
0.0
 20
0.0
 30
0.0
 70
   128
 71
   -14
 72
     8
 73
    -9
  0
VERTEX
  5
BD2
  8
0
 10
0.0
 20
0.0
 30
0.0
 70
   128
 71
    13
 72
   -14
 73
    -9
  0
VERTEX
  5
BD3
  8
0
 10
0.0
 20
0.0
 30
0.0
 70
   128
 71
   -15
 72
     7
 73
    -8
  0
VERTEX
  5
BD4
  8
0
 10
0.0
 20
0.0
 30
0.0
 70
   128
 71
    14
 72
   -15
 73
    -8
  0
VERTEX
  5
BD5
  8
0
 10
0.0
 20
0.0
 30
0.0
 70
   128
 71
   -16
 72
     6
 73
    -7
  0
VERTEX
  5
BD6
  8
0
 10
0.0
 20
0.0
 30
0.0
 70
   128
 71
    15
 72
   -16
 73
    -7
  0
VERTEX
  5
BD7
  8
0
 10
0.0
 20
0.0
 30
0.0
 70
   128
 71
   -17
 72
     5
 73
    -6
  0
VERTEX
  5
BD8
  8
0
 10
0.0
 20
0.0
 30
0.0
 70
   128
 71
    16
 72
   -17
 73
    -6
  0
VERTEX
  5
BD9
  8
0
 10
0.0
 20
0.0
 30
0.0
 70
   128
 71
   -18
 72
     4
 73
    -5
  0
VERTEX
  5
BDA
  8
0
 10
0.0
 20
0.0
 30
0.0
 70
   128
 71
    17
 72
   -18
 73
    -5
  0
VERTEX
  5
BDB
  8
0
 10
0.0
 20
0.0
 30
0.0
 70
   128
 71
   -19
 72
     3
 73
    -4
  0
VERTEX
  5
BDC
  8
0
 10
0.0
 20
0.0
 30
0.0
 70
   128
 71
    18
 72
   -19
 73
    -4
  0
VERTEX
  5
BDD
  8
0
 10
0.0
 20
0.0
 30
0.0
 70
   128
 71
   -20
 72
     2
 73
    -3
  0
VERTEX
  5
BDE
  8
0
 10
0.0
 20
0.0
 30
0.0
 70
   128
 71
    19
 72
   -20
 73
    -3
  0
VERTEX
  5
BDF
  8
0
 10
0.0
 20
0.0
 30
0.0
 70
   128
 71
   -11
 72
     1
 73
    -2
  0
VERTEX
  5
BE0
  8
0
 10
0.0
 20
0.0
 30
0.0
 70
   128
 71
    20
 72
   -11
 73
    -2
  0
SEQEND
  5
E5C
  8
0
  0
POLYLINE
  5
BE1
  8
0
 66
     1
 10
0.0
 20
0.0
 30
0.0
 70
    64
 71
    18
 72
    16
  0
VERTEX
  5
BE2
  8
0
 10
-4.704468955618561
 20
0.8652302488062936
 30
-11.82326493950006
 70
   192
  0
VERTEX
  5
BE3
  8
0
 10
-8.63803559269287
 20
0.8652302488063
 30
-9.41453310380919
 70
   192
  0
VERTEX
  5
BE4
  8
0
 10
-7.616845822483142
 20
1.326996778467239
 30
-10.25145682323488
 70
   192
  0
VERTEX
  5
BE5
  8
0
 10
-0.1687886448402658
 20
1.326996778467239
 30
-12.67147729891992
 70
   192
  0
VERTEX
  5
BE6
  8
0
 10
-0.1687886448402642
 20
0.8652302488062951
 30
-12.66341713416301
 70
   192
  0
VERTEX
  5
BE7
  8
0
 10
-1.057511580892134
 20
0.8652302488063011
 30
12.63203157508677
 70
   192
  0
VERTEX
  5
BE8
  8
0
 10
-0.1687886448402668
 20
0.8652302488063103
 30
12.66324597157968
 70
   192
  0
VERTEX
  5
BE9
  8
0
 10
-0.1687886448402658
 20
1.326996778467239
 30
12.67130613633659
 70
   192
  0
VERTEX
  5
BEA
  8
0
 10
-1.939683733976526
 20
0.8652302488063056
 30
12.53881958992676
 70
   192
  0
VERTEX
  5
BEB
  8
0
 10
-2.815305104093468
 20
0.8652302488063103
 30
12.38361001609964
 70
   192
  0
VERTEX
  5
BEC
  8
0
 10
-7.616845822483142
 20
1.326996778467239
 30
10.25128566065154
 70
   192
  0
VERTEX
  5
BED
  8
0
 10
-7.078552702871288
 20
0.8652302488061101
 30
10.61194187251233
 70
   192
  0
VERTEX
  5
BEE
  8
0
 10
-12.76154485946408
 20
0.865230248806296
 30
-1.335172446255976
 70
   192
  0
VERTEX
  5
BEF
  8
0
 10
-12.21999830841905
 20
1.326996778467239
 30
3.915589801837417
 70
   192
  0
VERTEX
  5
BF0
  8
0
 10
-12.21999830841905
 20
1.326996778467239
 30
-3.915760964420751
 70
   192
  0
VERTEX
  5
BF1
  8
0
 10
-11.44796160630605
 20
0.8652302488062918
 30
-5.75684016380481
 70
   192
  0
VERTEX
  5
BF2
  8
0
 10
-12.40417125291899
 20
0.8652302488062926
 30
3.264172137068146
 70
   192
  0
VERTEX
  5
BF3
  8
0
 10
-10.42250663733191
 20
0.8652302488063125
 30
7.431013486033434
 70
   192
  0
VERTEX
  5
BF4
  8
0
 10
0.0
 20
0.0
 30
0.0
 70
   128
 71
     1
 72
     2
 73
     3
  0
VERTEX
  5
BF5
  8
0
 10
0.0
 20
0.0
 30
0.0
 70
   128
 71
     3
 72
     4
 73
     5
  0
VERTEX
  5
BF6
  8
0
 10
0.0
 20
0.0
 30
0.0
 70
   128
 71
     3
 72
     5
 73
     1
  0
VERTEX
  5
BF7
  8
0
 10
0.0
 20
0.0
 30
0.0
 70
   128
 71
     6
 72
     7
 73
     8
  0
VERTEX
  5
BF8
  8
0
 10
0.0
 20
0.0
 30
0.0
 70
   128
 71
     8
 72
     9
 73
     6
  0
VERTEX
  5
BF9
  8
0
 10
0.0
 20
0.0
 30
0.0
 70
   128
 71
     8
 72
    10
 73
     9
  0
VERTEX
  5
BFA
  8
0
 10
0.0
 20
0.0
 30
0.0
 70
   128
 71
     8
 72
    11
 73
    12
  0
VERTEX
  5
BFB
  8
0
 10
0.0
 20
0.0
 30
0.0
 70
   128
 71
     8
 72
    12
 73
    10
  0
VERTEX
  5
BFC
  8
0
 10
0.0
 20
0.0
 30
0.0
 70
   128
 71
    13
 72
    14
 73
    15
  0
VERTEX
  5
BFD
  8
0
 10
0.0
 20
0.0
 30
0.0
 70
   128
 71
    15
 72
    16
 73
    13
  0
VERTEX
  5
BFE
  8
0
 10
0.0
 20
0.0
 30
0.0
 70
   128
 71
    13
 72
    17
 73
    14
  0
VERTEX
  5
BFF
  8
0
 10
0.0
 20
0.0
 30
0.0
 70
   128
 71
     3
 72
     2
 73
    16
  0
VERTEX
  5
C00
  8
0
 10
0.0
 20
0.0
 30
0.0
 70
   128
 71
     3
 72
    16
 73
    15
  0
VERTEX
  5
C01
  8
0
 10
0.0
 20
0.0
 30
0.0
 70
   128
 71
    18
 72
    11
 73
    14
  0
VERTEX
  5
C02
  8
0
 10
0.0
 20
0.0
 30
0.0
 70
   128
 71
    14
 72
    17
 73
    18
  0
VERTEX
  5
C03
  8
0
 10
0.0
 20
0.0
 30
0.0
 70
   128
 71
    18
 72
    12
 73
    11
  0
SEQEND
  5
E5D
  8
0
  0
POLYLINE
  5
C04
  8
0
 66
     1
 10
0.0
 20
0.0
 30
0.0
 70
    64
 71
    10
 72
     8
  0
VERTEX
  5
C05
  8
0
 10
-0.1687886448402648
 20
28.34794459777395
 30
7.825714418708336
 70
   192
  0
VERTEX
  5
C06
  8
0
 10
-0.1687886448402666
 20
28.34794459777395
 30
-7.825885581291666
 70
   192
  0
VERTEX
  5
C07
  8
0
 10
-0.1687886448402658
 20
27.63057959777399
 30
-7.825885581291665
 70
   192
  0
VERTEX
  5
C08
  8
0
 10
-0.1687886448402666
 20
27.63057959777399
 30
7.825714418708336
 70
   192
  0
VERTEX
  5
C09
  8
0
 10
-7.994588644840267
 20
27.63057959777399
 30
-0.0000855812916654
 70
   192
  0
VERTEX
  5
C0A
  8
0
 10
-7.994588644840267
 20
28.34794459777395
 30
-0.0000855812916637
 70
   192
  0
VERTEX
  5
C0B
  8
0
 10
-5.702464893049951
 20
27.63057959777399
 30
5.533590666918019
 70
   192
  0
VERTEX
  5
C0C
  8
0
 10
-5.70246489304995
 20
28.34794459777395
 30
5.533590666918021
 70
   192
  0
VERTEX
  5
C0D
  8
0
 10
-5.70246489304995
 20
27.63057959777399
 30
-5.53376182950135
 70
   192
  0
VERTEX
  5
C0E
  8
0
 10
-5.702464893049951
 20
28.34794459777395
 30
-5.533761829501349
 70
   192
  0
VERTEX
  5
C0F
  8
0
 10
0.0
 20
0.0
 30
0.0
 70
   128
 71
     8
 72
     7
 73
    -4
  0
VERTEX
  5
C10
  8
0
 10
0.0
 20
0.0
 30
0.0
 70
   128
 71
    -8
 72
     4
 73
     1
  0
VERTEX
  5
C11
  8
0
 10
0.0
 20
0.0
 30
0.0
 70
   128
 71
     6
 72
     5
 73
    -7
  0
VERTEX
  5
C12
  8
0
 10
0.0
 20
0.0
 30
0.0
 70
   128
 71
    -6
 72
     7
 73
     8
  0
VERTEX
  5
C13
  8
0
 10
0.0
 20
0.0
 30
0.0
 70
   128
 71
    10
 72
     9
 73
    -5
  0
VERTEX
  5
C14
  8
0
 10
0.0
 20
0.0
 30
0.0
 70
   128
 71
   -10
 72
     5
 73
     6
  0
VERTEX
  5
C15
  8
0
 10
0.0
 20
0.0
 30
0.0
 70
   128
 71
     2
 72
     3
 73
    -9
  0
VERTEX
  5
C16
  8
0
 10
0.0
 20
0.0
 30
0.0
 70
   128
 71
    -2
 72
     9
 73
    10
  0
SEQEND
  5
E5E
  8
0
  0
POLYLINE
  5
C17
  8
0
 66
     1
 10
0.0
 20
0.0
 30
0.0
 70
    64
 71
    16
 72
    16
  0
VERTEX
  5
C18
  8
0
 10
-0.1687886448402648
 20
28.34794459777395
 30
7.825714418708336
 70
   192
  0
VERTEX
  5
C19
  8
0
 10
-5.70246489304995
 20
28.34794459777395
 30
5.533590666918021
 70
   192
  0
VERTEX
  5
C1A
  8
0
 10
-7.994588644840267
 20
28.34794459777395
 30
-0.0000855812916637
 70
   192
  0
VERTEX
  5
C1B
  8
0
 10
-5.702464893049951
 20
28.34794459777395
 30
-5.533761829501349
 70
   192
  0
VERTEX
  5
C1C
  8
0
 10
-0.1687886448402658
 20
28.34794459777395
 30
-7.825885581291666
 70
   192
  0
VERTEX
  5
C1D
  8
0
 10
5.364887603369419
 20
28.34794459777395
 30
-5.53376182950135
 70
   192
  0
VERTEX
  5
C1E
  8
0
 10
7.657011355159737
 20
28.34794459777395
 30
-0.0000855812916645
 70
   192
  0
VERTEX
  5
C1F
  8
0
 10
5.36488760336942
 20
28.34794459777395
 30
5.533590666918021
 70
   192
  0
VERTEX
  5
C20
  8
0
 10
0.05334072409119
 20
28.34794459777394
 30
-2.152180581291664
 70
   192
  0
VERTEX
  5
C21
  8
0
 10
-1.468420244166472
 20
28.34794459777394
 30
-1.521846549549327
 70
   192
  0
VERTEX
  5
C22
  8
0
 10
-2.098754275908808
 20
28.34794459777394
 30
-0.0000855812916654
 70
   192
  0
VERTEX
  5
C23
  8
0
 10
-1.468420244166471
 20
28.34794459777394
 30
1.521675386965996
 70
   192
  0
VERTEX
  5
C24
  8
0
 10
0.0533407240911903
 20
28.34794459777394
 30
2.152009418708333
 70
   192
  0
VERTEX
  5
C25
  8
0
 10
1.575101692348852
 20
28.34794459777394
 30
1.521675386965996
 70
   192
  0
VERTEX
  5
C26
  8
0
 10
2.205435724091189
 20
28.34794459777394
 30
-0.0000855812916657
 70
   192
  0
VERTEX
  5
C27
  8
0
 10
1.575101692348852
 20
28.34794459777394
 30
-1.521846549549327
 70
   192
  0
VERTEX
  5
C28
  8
0
 10
0.0
 20
0.0
 30
0.0
 70
   128
 71
    10
 72
    -9
 73
    -5
  0
VERTEX
  5
C29
  8
0
 10
0.0
 20
0.0
 30
0.0
 70
   128
 71
   -10
 72
     5
 73
    -4
  0
VERTEX
  5
C2A
  8
0
 10
0.0
 20
0.0
 30
0.0
 70
   128
 71
     4
 72
    -3
 73
   -11
  0
VERTEX
  5
C2B
  8
0
 10
0.0
 20
0.0
 30
0.0
 70
   128
 71
    -4
 72
    11
 73
   -10
  0
VERTEX
  5
C2C
  8
0
 10
0.0
 20
0.0
 30
0.0
 70
   128
 71
     3
 72
    -2
 73
   -12
  0
VERTEX
  5
C2D
  8
0
 10
0.0
 20
0.0
 30
0.0
 70
   128
 71
    -3
 72
    12
 73
   -11
  0
VERTEX
  5
C2E
  8
0
 10
0.0
 20
0.0
 30
0.0
 70
   128
 71
     2
 72
    -1
 73
   -13
  0
VERTEX
  5
C2F
  8
0
 10
0.0
 20
0.0
 30
0.0
 70
   128
 71
    -2
 72
    13
 73
   -12
  0
VERTEX
  5
C30
  8
0
 10
0.0
 20
0.0
 30
0.0
 70
   128
 71
     1
 72
    -8
 73
   -14
  0
VERTEX
  5
C31
  8
0
 10
0.0
 20
0.0
 30
0.0
 70
   128
 71
    -1
 72
    14
 73
   -13
  0
VERTEX
  5
C32
  8
0
 10
0.0
 20
0.0
 30
0.0
 70
   128
 71
     8
 72
    -7
 73
   -15
  0
VERTEX
  5
C33
  8
0
 10
0.0
 20
0.0
 30
0.0
 70
   128
 71
    -8
 72
    15
 73
   -14
  0
VERTEX
  5
C34
  8
0
 10
0.0
 20
0.0
 30
0.0
 70
   128
 71
     7
 72
    -6
 73
   -16
  0
VERTEX
  5
C35
  8
0
 10
0.0
 20
0.0
 30
0.0
 70
   128
 71
    -7
 72
    16
 73
   -15
  0
VERTEX
  5
C36
  8
0
 10
0.0
 20
0.0
 30
0.0
 70
   128
 71
     6
 72
    -5
 73
    -9
  0
VERTEX
  5
C37
  8
0
 10
0.0
 20
0.0
 30
0.0
 70
   128
 71
    -6
 72
     9
 73
   -16
  0
SEQEND
  5
E5F
  8
0
  0
POLYLINE
  5
C38
  8
0
 66
     1
 10
0.0
 20
0.0
 30
0.0
 70
    64
 71
    32
 72
    32
  0
VERTEX
  5
C39
  8
0
 10
-9.173700640966423
 20
0.031261886362375
 30
7.358003925317519
 70
   192
  0
VERTEX
  5
C3A
  8
0
 10
-10.45137488056757
 20
0.2701567354374962
 30
6.660079669177466
 70
   192
  0
VERTEX
  5
C3B
  8
0
 10
-12.21671532516542
 20
0.2701567354374954
 30
2.22181553074058
 70
   192
  0
VERTEX
  5
C3C
  8
0
 10
-11.31162361446967
 20
0.0312618863623858
 30
3.326647062738064
 70
   192
  0
VERTEX
  5
C3D
  8
0
 10
-5.677436957654788
 20
0.0312618863623764
 30
10.24123830827334
 70
   192
  0
VERTEX
  5
C3E
  8
0
 10
-7.12123165767635
 20
0.2701567354374996
 30
10.08717950950436
 70
   192
  0
VERTEX
  5
C3F
  8
0
 10
-1.346549540914256
 20
0.0312618863623896
 30
11.56895936619709
 70
   192
  0
VERTEX
  5
C40
  8
0
 10
7.168435433266226
 20
0.0312618863623785
 30
9.021835725885827
 70
   192
  0
VERTEX
  5
C41
  8
0
 10
6.510612250453148
 20
0.2701567354374962
 30
10.27001590499748
 70
   192
  0
VERTEX
  5
C42
  8
0
 10
2.077044301215702
 20
0.2701567354374996
 30
12.04340291818949
 70
   192
  0
VERTEX
  5
C43
  8
0
 10
3.162995585618896
 20
0.0312618863623811
 30
11.14123997211143
 70
   192
  0
VERTEX
  5
C44
  8
0
 10
10.06149081578326
 20
0.0312618863623845
 30
5.529046665525517
 70
   192
  0
VERTEX
  5
C45
  8
0
 10
9.928276921394835
 20
0.2701567354374988
 30
6.938116440989403
 70
   192
  0
VERTEX
  5
C46
  8
0
 10
11.39913592772033
 20
0.0312618863623803
 30
1.188628988652692
 70
   192
  0
VERTEX
  5
C47
  8
0
 10
11.81330199800465
 20
0.2701567354374962
 30
2.553125080869452
 70
   192
  0
VERTEX
  5
C48
  8
0
 10
-7.503291273180783
 20
0.0312618863623934
 30
-9.024219430363148
 70
   192
  0
VERTEX
  5
C49
  8
0
 10
-6.835153418585827
 20
0.2701567354374962
 30
-10.27865365092517
 70
   192
  0
VERTEX
  5
C4A
  8
0
 10
-2.391127671492129
 20
0.2701567354374962
 30
-12.04793145137753
 70
   192
  0
VERTEX
  5
C4B
  8
0
 10
-3.49729479860521
 20
0.0312618863623759
 30
-11.1423909096157
 70
   192
  0
VERTEX
  5
C4C
  8
0
 10
-10.39558286802157
 20
0.0312618863623848
 30
-5.535661537048633
 70
   192
  0
VERTEX
  5
C4D
  8
0
 10
-10.26235227778117
 20
0.2701567354374962
 30
-6.943381199836086
 70
   192
  0
VERTEX
  5
C4E
  8
0
 10
-11.73508931854237
 20
0.0312618863623802
 30
-1.204498289115476
 70
   192
  0
VERTEX
  5
C4F
  8
0
 10
-12.15071073486263
 20
0.2701567354374962
 30
-2.554087125410037
 70
   192
  0
VERTEX
  5
C50
  8
0
 10
8.849287868937576
 20
0.031261886362379
 30
-7.34203472555148
 70
   192
  0
VERTEX
  5
C51
  8
0
 10
10.11281701065944
 20
0.2701567354375031
 30
-6.661764499066198
 70
   192
  0
VERTEX
  5
C52
  8
0
 10
11.8792573679907
 20
0.2701567354374962
 30
-2.221339310930171
 70
   192
  0
VERTEX
  5
C53
  8
0
 10
10.97147955632365
 20
0.0312618863623849
 30
-3.33540350487635
 70
   192
  0
VERTEX
  5
C54
  8
0
 10
5.352544827029899
 20
0.0312618863623849
 30
-10.23457618598984
 70
   192
  0
VERTEX
  5
C55
  8
0
 10
6.781128945112878
 20
0.2701567354375032
 30
-10.08909080240168
 70
   192
  0
VERTEX
  5
C56
  8
0
 10
1.015968803304395
 20
0.0312618863623755
 30
-11.56841610191195
 70
   192
  0
VERTEX
  5
C57
  8
0
 10
-2.729152010503388
 20
0.2701567354375081
 30
11.98047869150014
 70
   192
  0
VERTEX
  5
C58
  8
0
 10
2.391574720822861
 20
0.2701567354374996
 30
-11.98064985408347
 70
   192
  0
VERTEX
  5
C59
  8
0
 10
0.0
 20
0.0
 30
0.0
 70
   128
 71
     1
 72
     2
 73
     3
  0
VERTEX
  5
C5A
  8
0
 10
0.0
 20
0.0
 30
0.0
 70
   128
 71
     4
 72
     1
 73
     3
  0
VERTEX
  5
C5B
  8
0
 10
0.0
 20
0.0
 30
0.0
 70
   128
 71
     5
 72
     6
 73
     2
  0
VERTEX
  5
C5C
  8
0
 10
0.0
 20
0.0
 30
0.0
 70
   128
 71
     1
 72
     5
 73
     2
  0
VERTEX
  5
C5D
  8
0
 10
0.0
 20
0.0
 30
0.0
 70
   128
 71
     5
 72
     7
 73
     6
  0
VERTEX
  5
C5E
  8
0
 10
0.0
 20
0.0
 30
0.0
 70
   128
 71
     8
 72
     9
 73
    10
  0
VERTEX
  5
C5F
  8
0
 10
0.0
 20
0.0
 30
0.0
 70
   128
 71
    11
 72
     8
 73
    10
  0
VERTEX
  5
C60
  8
0
 10
0.0
 20
0.0
 30
0.0
 70
   128
 71
    12
 72
    13
 73
     9
  0
VERTEX
  5
C61
  8
0
 10
0.0
 20
0.0
 30
0.0
 70
   128
 71
     8
 72
    12
 73
     9
  0
VERTEX
  5
C62
  8
0
 10
0.0
 20
0.0
 30
0.0
 70
   128
 71
    14
 72
    15
 73
    13
  0
VERTEX
  5
C63
  8
0
 10
0.0
 20
0.0
 30
0.0
 70
   128
 71
    12
 72
    14
 73
    13
  0
VERTEX
  5
C64
  8
0
 10
0.0
 20
0.0
 30
0.0
 70
   128
 71
    16
 72
    17
 73
    18
  0
VERTEX
  5
C65
  8
0
 10
0.0
 20
0.0
 30
0.0
 70
   128
 71
    19
 72
    16
 73
    18
  0
VERTEX
  5
C66
  8
0
 10
0.0
 20
0.0
 30
0.0
 70
   128
 71
    20
 72
    21
 73
    17
  0
VERTEX
  5
C67
  8
0
 10
0.0
 20
0.0
 30
0.0
 70
   128
 71
    16
 72
    20
 73
    17
  0
VERTEX
  5
C68
  8
0
 10
0.0
 20
0.0
 30
0.0
 70
   128
 71
    22
 72
    23
 73
    21
  0
VERTEX
  5
C69
  8
0
 10
0.0
 20
0.0
 30
0.0
 70
   128
 71
    20
 72
    22
 73
    21
  0
VERTEX
  5
C6A
  8
0
 10
0.0
 20
0.0
 30
0.0
 70
   128
 71
    24
 72
    25
 73
    26
  0
VERTEX
  5
C6B
  8
0
 10
0.0
 20
0.0
 30
0.0
 70
   128
 71
    27
 72
    24
 73
    26
  0
VERTEX
  5
C6C
  8
0
 10
0.0
 20
0.0
 30
0.0
 70
   128
 71
    28
 72
    29
 73
    25
  0
VERTEX
  5
C6D
  8
0
 10
0.0
 20
0.0
 30
0.0
 70
   128
 71
    24
 72
    28
 73
    25
  0
VERTEX
  5
C6E
  8
0
 10
0.0
 20
0.0
 30
0.0
 70
   128
 71
    28
 72
    30
 73
    29
  0
VERTEX
  5
C6F
  8
0
 10
0.0
 20
0.0
 30
0.0
 70
   128
 71
     3
 72
    23
 73
    22
  0
VERTEX
  5
C70
  8
0
 10
0.0
 20
0.0
 30
0.0
 70
   128
 71
     4
 72
     3
 73
    22
  0
VERTEX
  5
C71
  8
0
 10
0.0
 20
0.0
 30
0.0
 70
   128
 71
    31
 72
     6
 73
     7
  0
VERTEX
  5
C72
  8
0
 10
0.0
 20
0.0
 30
0.0
 70
   128
 71
    11
 72
    10
 73
    31
  0
VERTEX
  5
C73
  8
0
 10
0.0
 20
0.0
 30
0.0
 70
   128
 71
     7
 72
    11
 73
    31
  0
VERTEX
  5
C74
  8
0
 10
0.0
 20
0.0
 30
0.0
 70
   128
 71
    14
 72
    27
 73
    26
  0
VERTEX
  5
C75
  8
0
 10
0.0
 20
0.0
 30
0.0
 70
   128
 71
    15
 72
    14
 73
    26
  0
VERTEX
  5
C76
  8
0
 10
0.0
 20
0.0
 30
0.0
 70
   128
 71
    32
 72
    29
 73
    30
  0
VERTEX
  5
C77
  8
0
 10
0.0
 20
0.0
 30
0.0
 70
   128
 71
    18
 72
    32
 73
    30
  0
VERTEX
  5
C78
  8
0
 10
0.0
 20
0.0
 30
0.0
 70
   128
 71
    19
 72
    18
 73
    30
  0
SEQEND
  5
E60
  8
0
  0
POLYLINE
  5
C79
  8
0
 66
     1
 10
0.0
 20
0.0
 30
0.0
 70
    64
 71
    28
 72
    26
  0
VERTEX
  5
C7A
  8
0
 10
-2.553699029276017
 20
0.0916265660682014
 30
11.09955251147843
 70
   192
  0
VERTEX
  5
C7B
  8
0
 10
-6.275477494169373
 20
0.0916265660682045
 30
9.570604813332006
 70
   192
  0
VERTEX
  5
C7C
  8
0
 10
-4.908749270556865
 20
-0.2905293201709664
 30
9.080713930752628
 70
   192
  0
VERTEX
  5
C7D
  8
0
 10
-1.373327683837569
 20
-0.2905293201709617
 30
10.172290356257
 70
   192
  0
VERTEX
  5
C7E
  8
0
 10
-7.825057739805831
 20
-0.2905293201709556
 30
6.805036758296558
 70
   192
  0
VERTEX
  5
C7F
  8
0
 10
-9.230542465111755
 20
0.0916265660682017
 30
6.839094269615707
 70
   192
  0
VERTEX
  5
C80
  8
0
 10
-10.63720729522817
 20
0.1282014109779403
 30
-0.0000855812916645
 70
   192
  0
VERTEX
  5
C81
  8
0
 10
-10.41223271952957
 20
-0.2905293201709625
 30
-0.0000855812916645
 70
   192
  0
VERTEX
  5
C82
  8
0
 10
-11.46856803687089
 20
0.0916265660682069
 30
1.097853898394174
 70
   192
  0
VERTEX
  5
C83
  8
0
 10
-11.08663624799852
 20
0.2829999940819027
 30
-0.0000855812916645
 70
   192
  0
VERTEX
  5
C84
  8
0
 10
-11.5217514005381
 20
0.0916265660682042
 30
-0.0000855812916746
 70
   192
  0
VERTEX
  5
C85
  8
0
 10
-9.74263169887666
 20
-0.2905293201709607
 30
3.642671024352839
 70
   192
  0
VERTEX
  5
C86
  8
0
 10
-11.31040959314187
 20
0.0916265660682079
 30
2.180457482713145
 70
   192
  0
VERTEX
  5
C87
  8
0
 10
-11.04727606935106
 20
0.0916265660682056
 30
3.247725171665271
 70
   192
  0
VERTEX
  5
C88
  8
0
 10
10.749058958318
 20
0.2829999940819025
 30
-0.0000855812916659
 70
   192
  0
VERTEX
  5
C89
  8
0
 10
11.18417411085758
 20
0.0916265660682016
 30
-0.0000855812916659
 70
   192
  0
VERTEX
  5
C8A
  8
0
 10
10.04259066671015
 20
-0.2905293201709611
 30
0.8099433921331242
 70
   192
  0
VERTEX
  5
C8B
  8
0
 10
10.29963000554764
 20
0.1282014109779436
 30
-0.0000855812916658
 70
   192
  0
VERTEX
  5
C8C
  8
0
 10
10.07465542984904
 20
-0.2905293201709576
 30
-0.0000855812916658
 70
   192
  0
VERTEX
  5
C8D
  8
0
 10
9.947369003513268
 20
-0.2905293201709619
 30
1.60980637947856
 70
   192
  0
VERTEX
  5
C8E
  8
0
 10
8.289243531273051
 20
-0.29052932017097
 30
5.778308505227477
 70
   192
  0
VERTEX
  5
C8F
  8
0
 10
9.789606961639757
 20
-0.2905293201709625
 30
2.399602618480741
 70
   192
  0
VERTEX
  5
C90
  8
0
 10
10.46620563594705
 20
0.0916265660682052
 30
3.973157424098679
 70
   192
  0
VERTEX
  5
C91
  8
0
 10
8.412809486685305
 20
0.0916265660682108
 30
7.432675469708094
 70
   192
  0
VERTEX
  5
C92
  8
0
 10
5.282301703017822
 20
0.0916265660682086
 30
9.958597933699185
 70
   192
  0
VERTEX
  5
C93
  8
0
 10
5.686111063610031
 20
-0.2905293201709599
 30
8.40516848478368
 70
   192
  0
VERTEX
  5
C94
  8
0
 10
1.467187708307124
 20
0.0916265660682042
 30
11.23438568816311
 70
   192
  0
VERTEX
  5
C95
  8
0
 10
2.319075111196804
 20
-0.2905293201709611
 30
9.936648310822214
 70
   192
  0
VERTEX
  5
C96
  8
0
 10
0.0
 20
0.0
 30
0.0
 70
   128
 71
     1
 72
     2
 73
     3
  0
VERTEX
  5
C97
  8
0
 10
0.0
 20
0.0
 30
0.0
 70
   128
 71
     1
 72
     3
 73
     4
  0
VERTEX
  5
C98
  8
0
 10
0.0
 20
0.0
 30
0.0
 70
   128
 71
     5
 72
     3
 73
     2
  0
VERTEX
  5
C99
  8
0
 10
0.0
 20
0.0
 30
0.0
 70
   128
 71
     5
 72
     2
 73
     6
  0
VERTEX
  5
C9A
  8
0
 10
0.0
 20
0.0
 30
0.0
 70
   128
 71
     7
 72
     8
 73
     9
  0
VERTEX
  5
C9B
  8
0
 10
0.0
 20
0.0
 30
0.0
 70
   128
 71
     9
 72
    10
 73
     7
  0
VERTEX
  5
C9C
  8
0
 10
0.0
 20
0.0
 30
0.0
 70
   128
 71
     9
 72
    11
 73
    10
  0
VERTEX
  5
C9D
  8
0
 10
0.0
 20
0.0
 30
0.0
 70
   128
 71
     8
 72
    12
 73
    13
  0
VERTEX
  5
C9E
  8
0
 10
0.0
 20
0.0
 30
0.0
 70
   128
 71
     8
 72
    13
 73
     9
  0
VERTEX
  5
C9F
  8
0
 10
0.0
 20
0.0
 30
0.0
 70
   128
 71
    12
 72
    14
 73
    13
  0
VERTEX
  5
CA0
  8
0
 10
0.0
 20
0.0
 30
0.0
 70
   128
 71
    15
 72
    16
 73
    17
  0
VERTEX
  5
CA1
  8
0
 10
0.0
 20
0.0
 30
0.0
 70
   128
 71
    17
 72
    18
 73
    15
  0
VERTEX
  5
CA2
  8
0
 10
0.0
 20
0.0
 30
0.0
 70
   128
 71
    17
 72
    19
 73
    18
  0
VERTEX
  5
CA3
  8
0
 10
0.0
 20
0.0
 30
0.0
 70
   128
 71
    16
 72
    20
 73
    17
  0
VERTEX
  5
CA4
  8
0
 10
0.0
 20
0.0
 30
0.0
 70
   128
 71
    21
 72
    22
 73
    23
  0
VERTEX
  5
CA5
  8
0
 10
0.0
 20
0.0
 30
0.0
 70
   128
 71
    22
 72
    20
 73
    16
  0
VERTEX
  5
CA6
  8
0
 10
0.0
 20
0.0
 30
0.0
 70
   128
 71
    22
 72
    16
 73
    23
  0
VERTEX
  5
CA7
  8
0
 10
0.0
 20
0.0
 30
0.0
 70
   128
 71
    24
 72
    25
 73
    26
  0
VERTEX
  5
CA8
  8
0
 10
0.0
 20
0.0
 30
0.0
 70
   128
 71
    25
 72
    27
 73
    28
  0
VERTEX
  5
CA9
  8
0
 10
0.0
 20
0.0
 30
0.0
 70
   128
 71
    25
 72
    28
 73
    26
  0
VERTEX
  5
CAA
  8
0
 10
0.0
 20
0.0
 30
0.0
 70
   128
 71
    28
 72
    27
 73
     1
  0
VERTEX
  5
CAB
  8
0
 10
0.0
 20
0.0
 30
0.0
 70
   128
 71
    28
 72
     1
 73
     4
  0
VERTEX
  5
CAC
  8
0
 10
0.0
 20
0.0
 30
0.0
 70
   128
 71
     5
 72
     6
 73
    14
  0
VERTEX
  5
CAD
  8
0
 10
0.0
 20
0.0
 30
0.0
 70
   128
 71
     5
 72
    14
 73
    12
  0
VERTEX
  5
CAE
  8
0
 10
0.0
 20
0.0
 30
0.0
 70
   128
 71
    21
 72
    24
 73
    26
  0
VERTEX
  5
CAF
  8
0
 10
0.0
 20
0.0
 30
0.0
 70
   128
 71
    21
 72
    23
 73
    24
  0
SEQEND
  5
E61
  8
0
  0
POLYLINE
  5
CB0
  8
0
 66
     1
 10
0.0
 20
0.0
 30
0.0
 70
    64
 71
    17
 72
    16
  0
VERTEX
  5
CB1
  8
0
 10
-8.743991050373834
 20
-0.5079786256101184
 30
5.26631846189
 70
   192
  0
VERTEX
  5
CB2
  8
0
 10
-10.10604545673371
 20
-0.5079786256101252
 30
1.587376196637534
 70
   192
  0
VERTEX
  5
CB3
  8
0
 10
-6.080153984320969
 20
-0.507978625610135
 30
8.143922480623878
 70
   192
  0
VERTEX
  5
CB4
  8
0
 10
5.085071928768696
 20
-0.507978625610112
 30
8.58280769050115
 70
   192
  0
VERTEX
  5
CB5
  8
0
 10
1.400996049194898
 20
-0.507978625610112
 30
9.939978998794427
 70
   192
  0
VERTEX
  5
CB6
  8
0
 10
7.969902219277228
 20
-0.5079786256101253
 30
5.91859829776787
 70
   192
  0
VERTEX
  5
CB7
  8
0
 10
-9.952349940468102
 20
-0.5079786256101171
 30
-2.356149293630945
 70
   192
  0
VERTEX
  5
CB8
  8
0
 10
-8.295627298806519
 20
-0.5079786256101252
 30
-5.935033039720313
 70
   192
  0
VERTEX
  5
CB9
  8
0
 10
-5.408497400140413
 20
-0.5079786256101183
 30
-8.591625606312778
 70
   192
  0
VERTEX
  5
CBA
  8
0
 10
8.415915477596826
 20
-0.5079786256101257
 30
-5.250986739390202
 70
   192
  0
VERTEX
  5
CBB
  8
0
 10
9.772153125063834
 20
-0.5079786256101255
 30
-1.564305696647798
 70
   192
  0
VERTEX
  5
CBC
  8
0
 10
5.753001672169074
 20
-0.507978625610118
 30
-8.136516450123715
 70
   192
  0
VERTEX
  5
CBD
  8
0
 10
-0.1671147879985548
 20
-2.064183148367258
 30
-0.0015254655924402
 70
   192
  0
VERTEX
  5
CBE
  8
0
 10
-2.518784670279039
 20
-0.5079786256101185
 30
9.784934935923967
 70
   192
  0
VERTEX
  5
CBF
  8
0
 10
9.614432402400245
 20
-0.5079786256101186
 30
2.357390565510091
 70
   192
  0
VERTEX
  5
CC0
  8
0
 10
-1.726628254157434
 20
-0.5079786256101374
 30
-9.942029254026295
 70
   192
  0
VERTEX
  5
CC1
  8
0
 10
2.191778790214693
 20
-0.5079786256101192
 30
-9.78256119978759
 70
   192
  0
VERTEX
  5
CC2
  8
0
 10
0.0
 20
0.0
 30
0.0
 70
   128
 71
     1
 72
    -2
 73
     3
  0
VERTEX
  5
CC3
  8
0
 10
0.0
 20
0.0
 30
0.0
 70
   128
 71
     4
 72
    -5
 73
     6
  0
VERTEX
  5
CC4
  8
0
 10
0.0
 20
0.0
 30
0.0
 70
   128
 71
     7
 72
     8
 73
    -9
  0
VERTEX
  5
CC5
  8
0
 10
0.0
 20
0.0
 30
0.0
 70
   128
 71
    10
 72
    11
 73
    12
  0
VERTEX
  5
CC6
  8
0
 10
0.0
 20
0.0
 30
0.0
 70
   128
 71
     2
 72
    -7
 73
    -9
  0
VERTEX
  5
CC7
  8
0
 10
0.0
 20
0.0
 30
0.0
 70
   128
 71
    -3
 72
    -2
 73
     9
  0
VERTEX
  5
CC8
  8
0
 10
0.0
 20
0.0
 30
0.0
 70
   128
 71
    13
 72
     3
 73
     9
  0
VERTEX
  5
CC9
  8
0
 10
0.0
 20
0.0
 30
0.0
 70
   128
 71
     3
 72
    13
 73
     6
  0
VERTEX
  5
CCA
  8
0
 10
0.0
 20
0.0
 30
0.0
 70
   128
 71
    14
 72
     3
 73
    -6
  0
VERTEX
  5
CCB
  8
0
 10
0.0
 20
0.0
 30
0.0
 70
   128
 71
     5
 72
   -14
 73
    -6
  0
VERTEX
  5
CCC
  8
0
 10
0.0
 20
0.0
 30
0.0
 70
   128
 71
    13
 72
    12
 73
    11
  0
VERTEX
  5
CCD
  8
0
 10
0.0
 20
0.0
 30
0.0
 70
   128
 71
     6
 72
    13
 73
    11
  0
VERTEX
  5
CCE
  8
0
 10
0.0
 20
0.0
 30
0.0
 70
   128
 71
    15
 72
     6
 73
    11
  0
VERTEX
  5
CCF
  8
0
 10
0.0
 20
0.0
 30
0.0
 70
   128
 71
    13
 72
     9
 73
    16
  0
VERTEX
  5
CD0
  8
0
 10
0.0
 20
0.0
 30
0.0
 70
   128
 71
    12
 72
    13
 73
    16
  0
VERTEX
  5
CD1
  8
0
 10
0.0
 20
0.0
 30
0.0
 70
   128
 71
    17
 72
    12
 73
    16
  0
SEQEND
  5
E62
  8
0
  0
POLYLINE
  5
CD2
  8
0
 66
     1
 10
0.0
 20
0.0
 30
0.0
 70
    64
 71
     8
 72
     6
  0
VERTEX
  5
CD3
  8
0
 10
0.0533407240911905
 20
12.69634459777394
 30
2.152009418708333
 70
   192
  0
VERTEX
  5
CD4
  8
0
 10
-1.468420244166471
 20
12.69634459777394
 30
1.521675386965996
 70
   192
  0
VERTEX
  5
CD5
  8
0
 10
-2.098754275908808
 20
12.69634459777394
 30
-0.0000855812916654
 70
   192
  0
VERTEX
  5
CD6
  8
0
 10
-1.468420244166472
 20
12.69634459777394
 30
-1.521846549549327
 70
   192
  0
VERTEX
  5
CD7
  8
0
 10
0.0533407240911903
 20
12.69634459777394
 30
-2.152180581291664
 70
   192
  0
VERTEX
  5
CD8
  8
0
 10
1.575101692348852
 20
12.69634459777394
 30
-1.521846549549327
 70
   192
  0
VERTEX
  5
CD9
  8
0
 10
2.205435724091189
 20
12.69634459777394
 30
-0.0000855812916657
 70
   192
  0
VERTEX
  5
CDA
  8
0
 10
1.575101692348852
 20
12.69634459777394
 30
1.521675386965996
 70
   192
  0
VERTEX
  5
CDB
  8
0
 10
0.0
 20
0.0
 30
0.0
 70
   128
 71
     1
 72
     8
 73
    -7
  0
VERTEX
  5
CDC
  8
0
 10
0.0
 20
0.0
 30
0.0
 70
   128
 71
    -1
 72
     7
 73
    -6
  0
VERTEX
  5
CDD
  8
0
 10
0.0
 20
0.0
 30
0.0
 70
   128
 71
    -1
 72
     6
 73
    -5
  0
VERTEX
  5
CDE
  8
0
 10
0.0
 20
0.0
 30
0.0
 70
   128
 71
    -1
 72
     5
 73
    -4
  0
VERTEX
  5
CDF
  8
0
 10
0.0
 20
0.0
 30
0.0
 70
   128
 71
    -1
 72
     4
 73
    -3
  0
VERTEX
  5
CE0
  8
0
 10
0.0
 20
0.0
 30
0.0
 70
   128
 71
    -1
 72
     3
 73
     2
  0
SEQEND
  5
E63
  8
0
  0
POLYLINE
  5
CE1
  8
0
 66
     1
 10
0.0
 20
0.0
 30
0.0
 70
    64
 71
    10
 72
     8
  0
VERTEX
  5
CE2
  8
0
 10
0.0533407240911903
 20
28.34794459777394
 30
-2.152180581291664
 70
   192
  0
VERTEX
  5
CE3
  8
0
 10
0.0533407240911905
 20
28.34794459777394
 30
2.152009418708333
 70
   192
  0
VERTEX
  5
CE4
  8
0
 10
0.0533407240911905
 20
12.69634459777394
 30
2.152009418708333
 70
   192
  0
VERTEX
  5
CE5
  8
0
 10
0.0533407240911903
 20
12.69634459777394
 30
-2.152180581291664
 70
   192
  0
VERTEX
  5
CE6
  8
0
 10
2.205435724091189
 20
12.69634459777394
 30
-0.0000855812916657
 70
   192
  0
VERTEX
  5
CE7
  8
0
 10
2.205435724091189
 20
28.34794459777394
 30
-0.0000855812916657
 70
   192
  0
VERTEX
  5
CE8
  8
0
 10
1.575101692348852
 20
12.69634459777394
 30
-1.521846549549327
 70
   192
  0
VERTEX
  5
CE9
  8
0
 10
1.575101692348852
 20
28.34794459777394
 30
-1.521846549549327
 70
   192
  0
VERTEX
  5
CEA
  8
0
 10
1.575101692348852
 20
12.69634459777394
 30
1.521675386965996
 70
   192
  0
VERTEX
  5
CEB
  8
0
 10
1.575101692348852
 20
28.34794459777394
 30
1.521675386965996
 70
   192
  0
VERTEX
  5
CEC
  8
0
 10
0.0
 20
0.0
 30
0.0
 70
   128
 71
     8
 72
     1
 73
    -4
  0
VERTEX
  5
CED
  8
0
 10
0.0
 20
0.0
 30
0.0
 70
   128
 71
     7
 72
    -8
 73
     4
  0
VERTEX
  5
CEE
  8
0
 10
0.0
 20
0.0
 30
0.0
 70
   128
 71
     6
 72
     8
 73
    -7
  0
VERTEX
  5
CEF
  8
0
 10
0.0
 20
0.0
 30
0.0
 70
   128
 71
     5
 72
    -6
 73
     7
  0
VERTEX
  5
CF0
  8
0
 10
0.0
 20
0.0
 30
0.0
 70
   128
 71
    10
 72
     6
 73
    -5
  0
VERTEX
  5
CF1
  8
0
 10
0.0
 20
0.0
 30
0.0
 70
   128
 71
     9
 72
   -10
 73
     5
  0
VERTEX
  5
CF2
  8
0
 10
0.0
 20
0.0
 30
0.0
 70
   128
 71
     3
 72
     2
 73
   -10
  0
VERTEX
  5
CF3
  8
0
 10
0.0
 20
0.0
 30
0.0
 70
   128
 71
     9
 72
    -3
 73
    10
  0
SEQEND
  5
E64
  8
0
  0
POLYLINE
  5
CF4
  8
0
 66
     1
 10
0.0
 20
0.0
 30
0.0
 70
    64
 71
    25
 72
    23
  0
VERTEX
  5
CF5
  8
0
 10
-1.726628254157434
 20
-0.5079786256101374
 30
-9.942029254026295
 70
   192
  0
VERTEX
  5
CF6
  8
0
 10
-2.655568958573904
 20
-0.2905293201709558
 30
-9.93709067249064
 70
   192
  0
VERTEX
  5
CF7
  8
0
 10
1.03433206415636
 20
-0.2905293201709625
 30
-10.17262936693697
 70
   192
  0
VERTEX
  5
CF8
  8
0
 10
-5.408497400140413
 20
-0.5079786256101183
 30
-8.591625606312778
 70
   192
  0
VERTEX
  5
CF9
  8
0
 10
-8.295627298806519
 20
-0.5079786256101252
 30
-5.935033039720313
 70
   192
  0
VERTEX
  5
CFA
  8
0
 10
-8.625988711565682
 20
-0.2905293201709637
 30
-5.779697466415712
 70
   192
  0
VERTEX
  5
CFB
  8
0
 10
-6.021979050691307
 20
-0.2905293201709633
 30
-8.406530048730964
 70
   192
  0
VERTEX
  5
CFC
  8
0
 10
-9.952349940468102
 20
-0.5079786256101171
 30
-2.356149293630945
 70
   192
  0
VERTEX
  5
CFD
  8
0
 10
-10.03681842299577
 20
-0.4607943038628954
 30
-2.376490876875152
 70
   192
  0
VERTEX
  5
CFE
  8
0
 10
-10.09814866333416
 20
-0.3846659298539659
 30
-2.391260340607638
 70
   192
  0
VERTEX
  5
CFF
  8
0
 10
-10.12753059206636
 20
-0.2905293201709567
 30
-2.39833605608513
 70
   192
  0
VERTEX
  5
D00
  8
0
 10
9.401917900130645
 20
-0.2905293201709507
 30
-3.651074863847625
 70
   192
  0
VERTEX
  5
D01
  8
0
 10
10.07465542984904
 20
-0.2905293201709576
 30
-0.0000855812916658
 70
   192
  0
VERTEX
  5
D02
  8
0
 10
9.760226054745859
 20
-0.3846659298539687
 30
2.392522661162052
 70
   192
  0
VERTEX
  5
D03
  8
0
 10
10.04259066671015
 20
-0.2905293201709611
 30
0.8099433921331242
 70
   192
  0
VERTEX
  5
D04
  8
0
 10
9.947369003513268
 20
-0.2905293201709619
 30
1.60980637947856
 70
   192
  0
VERTEX
  5
D05
  8
0
 10
9.789606961646284
 20
-0.2905293201709623
 30
2.39960261845365
 70
   192
  0
VERTEX
  5
D06
  8
0
 10
9.698897947323546
 20
-0.4607943038628963
 30
2.377744343297458
 70
   192
  0
VERTEX
  5
D07
  8
0
 10
9.614432402403548
 20
-0.5079786256101194
 30
2.357390565496388
 70
   192
  0
VERTEX
  5
D08
  8
0
 10
9.772153125063834
 20
-0.5079786256101255
 30
-1.564305696647798
 70
   192
  0
VERTEX
  5
D09
  8
0
 10
8.415915477596826
 20
-0.5079786256101257
 30
-5.250986739390202
 70
   192
  0
VERTEX
  5
D0A
  8
0
 10
5.753001672169074
 20
-0.507978625610118
 30
-8.136516450123715
 70
   192
  0
VERTEX
  5
D0B
  8
0
 10
4.56708941664136
 20
-0.2905293201709586
 30
-9.08301492694137
 70
   192
  0
VERTEX
  5
D0C
  8
0
 10
7.482785692059299
 20
-0.2905293201709601
 30
-6.810486206672484
 70
   192
  0
VERTEX
  5
D0D
  8
0
 10
2.191778790214693
 20
-0.5079786256101192
 30
-9.78256119978759
 70
   192
  0
VERTEX
  5
D0E
  8
0
 10
0.0
 20
0.0
 30
0.0
 70
   128
 71
     1
 72
     2
 73
     3
  0
VERTEX
  5
D0F
  8
0
 10
0.0
 20
0.0
 30
0.0
 70
   128
 71
     1
 72
     4
 73
     2
  0
VERTEX
  5
D10
  8
0
 10
0.0
 20
0.0
 30
0.0
 70
   128
 71
     5
 72
     6
 73
     7
  0
VERTEX
  5
D11
  8
0
 10
0.0
 20
0.0
 30
0.0
 70
   128
 71
     5
 72
     8
 73
     9
  0
VERTEX
  5
D12
  8
0
 10
0.0
 20
0.0
 30
0.0
 70
   128
 71
     9
 72
    10
 73
     5
  0
VERTEX
  5
D13
  8
0
 10
0.0
 20
0.0
 30
0.0
 70
   128
 71
    10
 72
     6
 73
     5
  0
VERTEX
  5
D14
  8
0
 10
0.0
 20
0.0
 30
0.0
 70
   128
 71
    10
 72
    11
 73
     6
  0
VERTEX
  5
D15
  8
0
 10
0.0
 20
0.0
 30
0.0
 70
   128
 71
    12
 72
    13
 73
    14
  0
VERTEX
  5
D16
  8
0
 10
0.0
 20
0.0
 30
0.0
 70
   128
 71
    13
 72
    15
 73
    14
  0
VERTEX
  5
D17
  8
0
 10
0.0
 20
0.0
 30
0.0
 70
   128
 71
    15
 72
    16
 73
    14
  0
VERTEX
  5
D18
  8
0
 10
0.0
 20
0.0
 30
0.0
 70
   128
 71
    16
 72
    17
 73
    14
  0
VERTEX
  5
D19
  8
0
 10
0.0
 20
0.0
 30
0.0
 70
   128
 71
    18
 72
    19
 73
    20
  0
VERTEX
  5
D1A
  8
0
 10
0.0
 20
0.0
 30
0.0
 70
   128
 71
    20
 72
    21
 73
    18
  0
VERTEX
  5
D1B
  8
0
 10
0.0
 20
0.0
 30
0.0
 70
   128
 71
    22
 72
    23
 73
    24
  0
VERTEX
  5
D1C
  8
0
 10
0.0
 20
0.0
 30
0.0
 70
   128
 71
    22
 72
    25
 73
    23
  0
VERTEX
  5
D1D
  8
0
 10
0.0
 20
0.0
 30
0.0
 70
   128
 71
     3
 72
    23
 73
    25
  0
VERTEX
  5
D1E
  8
0
 10
0.0
 20
0.0
 30
0.0
 70
   128
 71
     1
 72
     3
 73
    25
  0
VERTEX
  5
D1F
  8
0
 10
0.0
 20
0.0
 30
0.0
 70
   128
 71
     7
 72
     2
 73
     4
  0
VERTEX
  5
D20
  8
0
 10
0.0
 20
0.0
 30
0.0
 70
   128
 71
     5
 72
     7
 73
     4
  0
VERTEX
  5
D21
  8
0
 10
0.0
 20
0.0
 30
0.0
 70
   128
 71
    24
 72
    12
 73
    14
  0
VERTEX
  5
D22
  8
0
 10
0.0
 20
0.0
 30
0.0
 70
   128
 71
    14
 72
    18
 73
    24
  0
VERTEX
  5
D23
  8
0
 10
0.0
 20
0.0
 30
0.0
 70
   128
 71
    22
 72
    24
 73
    18
  0
VERTEX
  5
D24
  8
0
 10
0.0
 20
0.0
 30
0.0
 70
   128
 71
    18
 72
    21
 73
    22
  0
SEQEND
  5
E65
  8
0
  0
POLYLINE
  5
D25
  8
0
 66
     1
 10
0.0
 20
0.0
 30
0.0
 70
    64
 71
    25
 72
    23
  0
VERTEX
  5
D26
  8
0
 10
-1.346549540914256
 20
0.0312618863623896
 30
11.56895936619709
 70
   192
  0
VERTEX
  5
D27
  8
0
 10
-2.553699029276017
 20
0.0916265660682014
 30
11.09955251147843
 70
   192
  0
VERTEX
  5
D28
  8
0
 10
1.467187708307124
 20
0.0916265660682042
 30
11.23438568816311
 70
   192
  0
VERTEX
  5
D29
  8
0
 10
3.162995585618896
 20
0.0312618863623811
 30
11.14123997211143
 70
   192
  0
VERTEX
  5
D2A
  8
0
 10
-5.677436957654788
 20
0.0312618863623764
 30
10.24123830827334
 70
   192
  0
VERTEX
  5
D2B
  8
0
 10
-9.173700640966423
 20
0.031261886362375
 30
7.358003925317519
 70
   192
  0
VERTEX
  5
D2C
  8
0
 10
-9.230542465111755
 20
0.0916265660682017
 30
6.839094269615707
 70
   192
  0
VERTEX
  5
D2D
  8
0
 10
-6.275477494169373
 20
0.0916265660682045
 30
9.570604813332006
 70
   192
  0
VERTEX
  5
D2E
  8
0
 10
-11.31162361446967
 20
0.0312618863623858
 30
3.326647062738064
 70
   192
  0
VERTEX
  5
D2F
  8
0
 10
-11.2181874908352
 20
0.0149344130353463
 30
3.298751378787474
 70
   192
  0
VERTEX
  5
D30
  8
0
 10
-11.12564017852032
 20
0.03606791311387
 30
3.271121052588238
 70
   192
  0
VERTEX
  5
D31
  8
0
 10
-11.04727606935106
 20
0.0916265660682051
 30
3.247725171665275
 70
   192
  0
VERTEX
  5
D32
  8
0
 10
11.18417411085757
 20
0.091626566068201
 30
-0.0000855812916659
 70
   192
  0
VERTEX
  5
D33
  8
0
 10
11.13007001593813
 20
0.0916265660682032
 30
-1.106599254292785
 70
   192
  0
VERTEX
  5
D34
  8
0
 10
10.78553896193145
 20
0.0360679131138607
 30
-3.279734199080758
 70
   192
  0
VERTEX
  5
D35
  8
0
 10
10.97028846763223
 20
0.0916265660682043
 30
-2.193581626979122
 70
   192
  0
VERTEX
  5
D36
  8
0
 10
10.7071929040503
 20
0.0916265660681995
 30
-3.256277940544149
 70
   192
  0
VERTEX
  5
D37
  8
0
 10
10.87806495583647
 20
0.0149344130353366
 30
-3.307435830701904
 70
   192
  0
VERTEX
  5
D38
  8
0
 10
10.97147955632208
 20
0.0312618863623843
 30
-3.33540350488161
 70
   192
  0
VERTEX
  5
D39
  8
0
 10
11.39913592772033
 20
0.0312618863623803
 30
1.188628988652692
 70
   192
  0
VERTEX
  5
D3A
  8
0
 10
10.06149081578326
 20
0.0312618863623845
 30
5.529046665525517
 70
   192
  0
VERTEX
  5
D3B
  8
0
 10
7.168435433266226
 20
0.0312618863623785
 30
9.021835725885827
 70
   192
  0
VERTEX
  5
D3C
  8
0
 10
5.282301703017822
 20
0.0916265660682086
 30
9.958597933699185
 70
   192
  0
VERTEX
  5
D3D
  8
0
 10
8.412809486685305
 20
0.0916265660682108
 30
7.432675469708094
 70
   192
  0
VERTEX
  5
D3E
  8
0
 10
10.46620563594705
 20
0.0916265660682052
 30
3.973157424098679
 70
   192
  0
VERTEX
  5
D3F
  8
0
 10
0.0
 20
0.0
 30
0.0
 70
   128
 71
     1
 72
     2
 73
     3
  0
VERTEX
  5
D40
  8
0
 10
0.0
 20
0.0
 30
0.0
 70
   128
 71
     4
 72
     1
 73
     3
  0
VERTEX
  5
D41
  8
0
 10
0.0
 20
0.0
 30
0.0
 70
   128
 71
     1
 72
     5
 73
     2
  0
VERTEX
  5
D42
  8
0
 10
0.0
 20
0.0
 30
0.0
 70
   128
 71
     6
 72
     7
 73
     8
  0
VERTEX
  5
D43
  8
0
 10
0.0
 20
0.0
 30
0.0
 70
   128
 71
     5
 72
     6
 73
     8
  0
VERTEX
  5
D44
  8
0
 10
0.0
 20
0.0
 30
0.0
 70
   128
 71
     6
 72
     9
 73
    10
  0
VERTEX
  5
D45
  8
0
 10
0.0
 20
0.0
 30
0.0
 70
   128
 71
    10
 72
    11
 73
     6
  0
VERTEX
  5
D46
  8
0
 10
0.0
 20
0.0
 30
0.0
 70
   128
 71
    11
 72
     7
 73
     6
  0
VERTEX
  5
D47
  8
0
 10
0.0
 20
0.0
 30
0.0
 70
   128
 71
    11
 72
    12
 73
     7
  0
VERTEX
  5
D48
  8
0
 10
0.0
 20
0.0
 30
0.0
 70
   128
 71
    13
 72
    14
 73
    15
  0
VERTEX
  5
D49
  8
0
 10
0.0
 20
0.0
 30
0.0
 70
   128
 71
    14
 72
    16
 73
    15
  0
VERTEX
  5
D4A
  8
0
 10
0.0
 20
0.0
 30
0.0
 70
   128
 71
    16
 72
    17
 73
    15
  0
VERTEX
  5
D4B
  8
0
 10
0.0
 20
0.0
 30
0.0
 70
   128
 71
    18
 72
    19
 73
    20
  0
VERTEX
  5
D4C
  8
0
 10
0.0
 20
0.0
 30
0.0
 70
   128
 71
    20
 72
    21
 73
    18
  0
VERTEX
  5
D4D
  8
0
 10
0.0
 20
0.0
 30
0.0
 70
   128
 71
    22
 72
     4
 73
    23
  0
VERTEX
  5
D4E
  8
0
 10
0.0
 20
0.0
 30
0.0
 70
   128
 71
    23
 72
    24
 73
    22
  0
VERTEX
  5
D4F
  8
0
 10
0.0
 20
0.0
 30
0.0
 70
   128
 71
     8
 72
     2
 73
     5
  0
VERTEX
  5
D50
  8
0
 10
0.0
 20
0.0
 30
0.0
 70
   128
 71
     3
 72
    23
 73
     4
  0
VERTEX
  5
D51
  8
0
 10
0.0
 20
0.0
 30
0.0
 70
   128
 71
    15
 72
    24
 73
    25
  0
VERTEX
  5
D52
  8
0
 10
0.0
 20
0.0
 30
0.0
 70
   128
 71
    25
 72
    13
 73
    15
  0
VERTEX
  5
D53
  8
0
 10
0.0
 20
0.0
 30
0.0
 70
   128
 71
    15
 72
    18
 73
    24
  0
VERTEX
  5
D54
  8
0
 10
0.0
 20
0.0
 30
0.0
 70
   128
 71
    18
 72
    22
 73
    24
  0
VERTEX
  5
D55
  8
0
 10
0.0
 20
0.0
 30
0.0
 70
   128
 71
    18
 72
    21
 73
    22
  0
SEQEND
  5
E66
  8
0
  0
POLYLINE
  5
D56
  8
0
 66
     1
 10
0.0
 20
0.0
 30
0.0
 70
    64
 71
    25
 72
    23
  0
VERTEX
  5
D57
  8
0
 10
-12.21671532516542
 20
0.2701567354374954
 30
2.22181553074058
 70
   192
  0
VERTEX
  5
D58
  8
0
 10
-12.40417125291899
 20
0.8652302488062926
 30
3.264172137068146
 70
   192
  0
VERTEX
  5
D59
  8
0
 10
-12.76154485946408
 20
0.865230248806296
 30
-1.335172446255976
 70
   192
  0
VERTEX
  5
D5A
  8
0
 10
-12.15071073486263
 20
0.2701567354374962
 30
-2.554087125410037
 70
   192
  0
VERTEX
  5
D5B
  8
0
 10
-10.45137488056757
 20
0.2701567354374962
 30
6.660079669177466
 70
   192
  0
VERTEX
  5
D5C
  8
0
 10
-7.12123165767635
 20
0.2701567354374996
 30
10.08717950950436
 70
   192
  0
VERTEX
  5
D5D
  8
0
 10
-7.078552702871288
 20
0.8652302488061101
 30
10.61194187251233
 70
   192
  0
VERTEX
  5
D5E
  8
0
 10
-10.42250663733191
 20
0.8652302488063125
 30
7.431013486033434
 70
   192
  0
VERTEX
  5
D5F
  8
0
 10
-2.729152010503388
 20
0.2701567354375081
 30
11.98047869150014
 70
   192
  0
VERTEX
  5
D60
  8
0
 10
-2.773796308365613
 20
0.4078940951251666
 30
12.1893802431803
 70
   192
  0
VERTEX
  5
D61
  8
0
 10
-2.804045668664399
 20
0.616831375959264
 30
12.33092437325598
 70
   192
  0
VERTEX
  5
D62
  8
0
 10
-2.815305104093471
 20
0.8652302488063096
 30
12.38361001609965
 70
   192
  0
VERTEX
  5
D63
  8
0
 10
-0.1687886448241163
 20
0.865230248806295
 30
-12.66341713416301
 70
   192
  0
VERTEX
  5
D64
  8
0
 10
0.715798226392117
 20
0.8652302488062988
 30
-12.63249355499995
 70
   192
  0
VERTEX
  5
D65
  8
0
 10
2.466468378983878
 20
0.6168313759592592
 30
-12.3310955358393
 70
   192
  0
VERTEX
  5
D66
  8
0
 10
1.602233565901294
 20
0.8652302488062991
 30
-12.53897255387512
 70
   192
  0
VERTEX
  5
D67
  8
0
 10
2.47772781441295
 20
0.8652302488063028
 30
-12.38378117868297
 70
   192
  0
VERTEX
  5
D68
  8
0
 10
2.436219018685092
 20
0.4078940951251618
 30
-12.18955140576361
 70
   192
  0
VERTEX
  5
D69
  8
0
 10
2.391574720822868
 20
0.2701567354374989
 30
-11.98064985408346
 70
   192
  0
VERTEX
  5
D6A
  8
0
 10
-2.391127671492129
 20
0.2701567354374962
 30
-12.04793145137753
 70
   192
  0
VERTEX
  5
D6B
  8
0
 10
-6.835153418585827
 20
0.2701567354374962
 30
-10.27865365092517
 70
   192
  0
VERTEX
  5
D6C
  8
0
 10
-10.26235227778117
 20
0.2701567354374962
 30
-6.943381199836086
 70
   192
  0
VERTEX
  5
D6D
  8
0
 10
-11.44796160630605
 20
0.8652302488062918
 30
-5.75684016380481
 70
   192
  0
VERTEX
  5
D6E
  8
0
 10
-8.63803559269287
 20
0.8652302488063
 30
-9.41453310380919
 70
   192
  0
VERTEX
  5
D6F
  8
0
 10
-4.704468955618561
 20
0.8652302488062936
 30
-11.82326493950006
 70
   192
  0
VERTEX
  5
D70
  8
0
 10
0.0
 20
0.0
 30
0.0
 70
   128
 71
     1
 72
     2
 73
     3
  0
VERTEX
  5
D71
  8
0
 10
0.0
 20
0.0
 30
0.0
 70
   128
 71
     4
 72
     1
 73
     3
  0
VERTEX
  5
D72
  8
0
 10
0.0
 20
0.0
 30
0.0
 70
   128
 71
     1
 72
     5
 73
     2
  0
VERTEX
  5
D73
  8
0
 10
0.0
 20
0.0
 30
0.0
 70
   128
 71
     6
 72
     7
 73
     8
  0
VERTEX
  5
D74
  8
0
 10
0.0
 20
0.0
 30
0.0
 70
   128
 71
     5
 72
     6
 73
     8
  0
VERTEX
  5
D75
  8
0
 10
0.0
 20
0.0
 30
0.0
 70
   128
 71
     6
 72
     9
 73
    10
  0
VERTEX
  5
D76
  8
0
 10
0.0
 20
0.0
 30
0.0
 70
   128
 71
    10
 72
    11
 73
     6
  0
VERTEX
  5
D77
  8
0
 10
0.0
 20
0.0
 30
0.0
 70
   128
 71
    11
 72
     7
 73
     6
  0
VERTEX
  5
D78
  8
0
 10
0.0
 20
0.0
 30
0.0
 70
   128
 71
    11
 72
    12
 73
     7
  0
VERTEX
  5
D79
  8
0
 10
0.0
 20
0.0
 30
0.0
 70
   128
 71
    13
 72
    14
 73
    15
  0
VERTEX
  5
D7A
  8
0
 10
0.0
 20
0.0
 30
0.0
 70
   128
 71
    14
 72
    16
 73
    15
  0
VERTEX
  5
D7B
  8
0
 10
0.0
 20
0.0
 30
0.0
 70
   128
 71
    16
 72
    17
 73
    15
  0
VERTEX
  5
D7C
  8
0
 10
0.0
 20
0.0
 30
0.0
 70
   128
 71
    18
 72
    19
 73
    20
  0
VERTEX
  5
D7D
  8
0
 10
0.0
 20
0.0
 30
0.0
 70
   128
 71
    20
 72
    21
 73
    18
  0
VERTEX
  5
D7E
  8
0
 10
0.0
 20
0.0
 30
0.0
 70
   128
 71
    22
 72
    23
 73
    24
  0
VERTEX
  5
D7F
  8
0
 10
0.0
 20
0.0
 30
0.0
 70
   128
 71
    21
 72
    22
 73
    24
  0
VERTEX
  5
D80
  8
0
 10
0.0
 20
0.0
 30
0.0
 70
   128
 71
    22
 72
     4
 73
    23
  0
VERTEX
  5
D81
  8
0
 10
0.0
 20
0.0
 30
0.0
 70
   128
 71
     8
 72
     2
 73
     5
  0
VERTEX
  5
D82
  8
0
 10
0.0
 20
0.0
 30
0.0
 70
   128
 71
     3
 72
    23
 73
     4
  0
VERTEX
  5
D83
  8
0
 10
0.0
 20
0.0
 30
0.0
 70
   128
 71
    15
 72
    24
 73
    25
  0
VERTEX
  5
D84
  8
0
 10
0.0
 20
0.0
 30
0.0
 70
   128
 71
    25
 72
    13
 73
    15
  0
VERTEX
  5
D85
  8
0
 10
0.0
 20
0.0
 30
0.0
 70
   128
 71
    15
 72
    18
 73
    24
  0
VERTEX
  5
D86
  8
0
 10
0.0
 20
0.0
 30
0.0
 70
   128
 71
    18
 72
    21
 73
    24
  0
SEQEND
  5
E67
  8
0
  0
POLYLINE
  5
D87
  8
0
 66
     1
 10
0.0
 20
0.0
 30
0.0
 70
    64
 71
    25
 72
    32
  0
VERTEX
  5
D88
  8
0
 10
-5.653463437052162
 20
27.26894883136781
 30
5.484589210920228
 70
   192
  0
VERTEX
  5
D89
  8
0
 10
-5.702464893049951
 20
27.63057959777399
 30
5.533590666918019
 70
   192
  0
VERTEX
  5
D8A
  8
0
 10
-7.994588644840267
 20
27.63057959777399
 30
-0.0000855812916654
 70
   192
  0
VERTEX
  5
D8B
  8
0
 10
-7.925290121192165
 20
27.26894883136781
 30
-0.0000855812916671
 70
   192
  0
VERTEX
  5
D8C
  8
0
 10
-5.65346343705216
 20
27.26894883136781
 30
-5.484760373503562
 70
   192
  0
VERTEX
  5
D8D
  8
0
 10
-5.70246489304995
 20
27.63057959777399
 30
-5.53376182950135
 70
   192
  0
VERTEX
  5
D8E
  8
0
 10
-0.1687886448402648
 20
27.63057959777399
 30
-7.825885581291666
 70
   192
  0
VERTEX
  5
D8F
  8
0
 10
-7.727212915919987
 20
26.95855469910547
 30
-0.0000855812916671
 70
   192
  0
VERTEX
  5
D90
  8
0
 10
-5.513401702005726
 20
26.95855469910547
 30
5.344527475873791
 70
   192
  0
VERTEX
  5
D91
  8
0
 10
-0.1687886448402648
 20
27.15740386238008
 30
-7.703831635497211
 70
   192
  0
VERTEX
  5
D92
  8
0
 10
-5.513401702005724
 20
26.95855469910547
 30
-5.344698638457126
 70
   192
  0
VERTEX
  5
D93
  8
0
 10
-7.428421038620099
 20
26.74337451727886
 30
-0.000085581291667
 70
   192
  0
VERTEX
  5
D94
  8
0
 10
-5.302123939403516
 20
26.74337451727886
 30
5.133249713271582
 70
   192
  0
VERTEX
  5
D95
  8
0
 10
-0.1687886448402658
 20
26.80230518606567
 30
7.367956179927758
 70
   192
  0
VERTEX
  5
D96
  8
0
 10
-5.302123939403514
 20
26.74337451727886
 30
-5.133420875854916
 70
   192
  0
VERTEX
  5
D97
  8
0
 10
-7.071247972846749
 20
26.65389548243051
 30
-0.000085581291668
 70
   192
  0
VERTEX
  5
D98
  8
0
 10
-6.146493771482746
 20
26.65389548243051
 30
3.451144082711576
 70
   192
  0
VERTEX
  5
D99
  8
0
 10
-0.1687886448402649
 20
26.65389548243051
 30
-6.90254490929815
 70
   192
  0
VERTEX
  5
D9A
  8
0
 10
-3.620018308843507
 20
26.65389548243051
 30
-5.977790707934147
 70
   192
  0
VERTEX
  5
D9B
  8
0
 10
-6.146493771482746
 20
26.65389548243051
 30
-3.45131524529491
 70
   192
  0
VERTEX
  5
D9C
  8
0
 10
-0.1687886448402658
 20
27.15740386238008
 30
7.70366047291388
 70
   192
  0
VERTEX
  5
D9D
  8
0
 10
-0.1687886448402648
 20
26.80230518606567
 30
-7.368127342511091
 70
   192
  0
VERTEX
  5
D9E
  8
0
 10
-3.620018308843507
 20
26.65389548243051
 30
5.977619545350814
 70
   192
  0
VERTEX
  5
D9F
  8
0
 10
-0.1687886448402658
 20
26.65389548243051
 30
6.902373746714817
 70
   192
  0
VERTEX
  5
DA0
  8
0
 10
-0.1687886448402658
 20
27.63057959777399
 30
7.825714418708334
 70
   192
  0
VERTEX
  5
DA1
  8
0
 10
0.0
 20
0.0
 30
0.0
 70
   128
 71
     1
 72
     2
 73
    -3
  0
VERTEX
  5
DA2
  8
0
 10
0.0
 20
0.0
 30
0.0
 70
   128
 71
    -1
 72
     3
 73
     4
  0
VERTEX
  5
DA3
  8
0
 10
0.0
 20
0.0
 30
0.0
 70
   128
 71
     5
 72
     6
 73
     7
  0
VERTEX
  5
DA4
  8
0
 10
0.0
 20
0.0
 30
0.0
 70
   128
 71
     4
 72
     3
 73
    -6
  0
VERTEX
  5
DA5
  8
0
 10
0.0
 20
0.0
 30
0.0
 70
   128
 71
    -4
 72
     6
 73
     5
  0
VERTEX
  5
DA6
  8
0
 10
0.0
 20
0.0
 30
0.0
 70
   128
 71
     8
 72
     9
 73
    -1
  0
VERTEX
  5
DA7
  8
0
 10
0.0
 20
0.0
 30
0.0
 70
   128
 71
    -8
 72
     1
 73
     4
  0
VERTEX
  5
DA8
  8
0
 10
0.0
 20
0.0
 30
0.0
 70
   128
 71
    10
 72
    11
 73
     5
  0
VERTEX
  5
DA9
  8
0
 10
0.0
 20
0.0
 30
0.0
 70
   128
 71
    11
 72
     8
 73
    -4
  0
VERTEX
  5
DAA
  8
0
 10
0.0
 20
0.0
 30
0.0
 70
   128
 71
   -11
 72
     4
 73
     5
  0
VERTEX
  5
DAB
  8
0
 10
0.0
 20
0.0
 30
0.0
 70
   128
 71
    12
 72
    13
 73
    -9
  0
VERTEX
  5
DAC
  8
0
 10
0.0
 20
0.0
 30
0.0
 70
   128
 71
   -12
 72
     9
 73
     8
  0
VERTEX
  5
DAD
  8
0
 10
0.0
 20
0.0
 30
0.0
 70
   128
 71
    14
 72
     9
 73
    13
  0
VERTEX
  5
DAE
  8
0
 10
0.0
 20
0.0
 30
0.0
 70
   128
 71
    15
 72
    12
 73
    -8
  0
VERTEX
  5
DAF
  8
0
 10
0.0
 20
0.0
 30
0.0
 70
   128
 71
   -15
 72
     8
 73
    11
  0
VERTEX
  5
DB0
  8
0
 10
0.0
 20
0.0
 30
0.0
 70
   128
 71
    13
 72
    12
 73
    16
  0
VERTEX
  5
DB1
  8
0
 10
0.0
 20
0.0
 30
0.0
 70
   128
 71
    13
 72
    16
 73
    17
  0
VERTEX
  5
DB2
  8
0
 10
0.0
 20
0.0
 30
0.0
 70
   128
 71
    15
 72
    18
 73
    19
  0
VERTEX
  5
DB3
  8
0
 10
0.0
 20
0.0
 30
0.0
 70
   128
 71
    20
 72
    16
 73
    12
  0
VERTEX
  5
DB4
  8
0
 10
0.0
 20
0.0
 30
0.0
 70
   128
 71
    20
 72
    12
 73
    15
  0
VERTEX
  5
DB5
  8
0
 10
0.0
 20
0.0
 30
0.0
 70
   128
 71
     1
 72
     9
 73
    14
  0
VERTEX
  5
DB6
  8
0
 10
0.0
 20
0.0
 30
0.0
 70
   128
 71
     1
 72
    14
 73
    21
  0
VERTEX
  5
DB7
  8
0
 10
0.0
 20
0.0
 30
0.0
 70
   128
 71
    22
 72
    15
 73
    11
  0
VERTEX
  5
DB8
  8
0
 10
0.0
 20
0.0
 30
0.0
 70
   128
 71
    22
 72
    11
 73
    10
  0
VERTEX
  5
DB9
  8
0
 10
0.0
 20
0.0
 30
0.0
 70
   128
 71
    13
 72
    23
 73
    24
  0
VERTEX
  5
DBA
  8
0
 10
0.0
 20
0.0
 30
0.0
 70
   128
 71
    13
 72
    24
 73
    14
  0
VERTEX
  5
DBB
  8
0
 10
0.0
 20
0.0
 30
0.0
 70
   128
 71
    18
 72
    15
 73
    22
  0
VERTEX
  5
DBC
  8
0
 10
0.0
 20
0.0
 30
0.0
 70
   128
 71
     2
 72
     1
 73
    21
  0
VERTEX
  5
DBD
  8
0
 10
0.0
 20
0.0
 30
0.0
 70
   128
 71
     2
 72
    21
 73
    25
  0
VERTEX
  5
DBE
  8
0
 10
0.0
 20
0.0
 30
0.0
 70
   128
 71
    10
 72
     5
 73
     7
  0
VERTEX
  5
DBF
  8
0
 10
0.0
 20
0.0
 30
0.0
 70
   128
 71
    17
 72
    23
 73
    13
  0
VERTEX
  5
DC0
  8
0
 10
0.0
 20
0.0
 30
0.0
 70
   128
 71
    19
 72
    20
 73
    15
  0
SEQEND
  5
E68
  8
0
  0
POLYLINE
  5
DC1
  8
0
 66
     1
 10
0.0
 20
0.0
 30
0.0
 70
    64
 71
    25
 72
    23
  0
VERTEX
  5
DC2
  8
0
 10
14.32376482692947
 20
2.317623419619609
 30
3.866359060804596
 70
   192
  0
VERTEX
  5
DC3
  8
0
 10
13.84800228212596
 20
1.138717056073903
 30
2.584917148012221
 70
   192
  0
VERTEX
  5
DC4
  8
0
 10
13.77121135688681
 20
1.1387170560739
 30
-2.971460395944181
 70
   192
  0
VERTEX
  5
DC5
  8
0
 10
14.74706635072887
 20
2.317623419619623
 30
-1.581467904974035
 70
   192
  0
VERTEX
  5
DC6
  8
0
 10
8.015681616204327
 20
2.31762341961938
 30
12.56963783844105
 70
   192
  0
VERTEX
  5
DC7
  8
0
 10
7.919818081425111
 20
1.138717056073903
 30
11.73563380718712
 70
   192
  0
VERTEX
  5
DC8
  8
0
 10
11.79417114298539
 20
1.138717056073903
 30
7.748479540856345
 70
   192
  0
VERTEX
  5
DC9
  8
0
 10
11.97652475079541
 20
2.317623419619611
 30
8.801895038108293
 70
   192
  0
VERTEX
  5
DCA
  8
0
 10
2.965954462769899
 20
2.317623419619622
 30
14.66814150829863
 70
   192
  0
VERTEX
  5
DCB
  8
0
 10
2.946888120149127
 20
1.838393482035795
 30
14.5789254437827
 70
   192
  0
VERTEX
  5
DCC
  8
0
 10
2.892356322499782
 20
1.426204014347454
 30
14.32375787053489
 70
   192
  0
VERTEX
  5
DCD
  8
0
 10
2.809987636094434
 20
1.138717056073912
 30
13.93833470959652
 70
   192
  0
VERTEX
  5
DCE
  8
0
 10
-3.229933612180326
 20
1.426204014347447
 30
-14.32392903311822
 70
   192
  0
VERTEX
  5
DCF
  8
0
 10
7.586989122644189
 20
1.138717056073904
 30
-11.95837055693497
 70
   192
  0
VERTEX
  5
DD0
  8
0
 10
2.416723579543365
 20
1.138717056073907
 30
-14.01678258432576
 70
   192
  0
VERTEX
  5
DD1
  8
0
 10
-3.147564925774978
 20
1.138717056073905
 30
-13.93850587217985
 70
   192
  0
VERTEX
  5
DD2
  8
0
 10
-3.284465409829671
 20
1.838393482035787
 30
-14.57909660636603
 70
   192
  0
VERTEX
  5
DD3
  8
0
 10
-3.303531752450444
 20
2.317623419619614
 30
-14.66831267088196
 70
   192
  0
VERTEX
  5
DD4
  8
0
 10
-2.266527220819582
 20
2.317623419619617
 30
-14.85213359217046
 70
   192
  0
VERTEX
  5
DD5
  8
0
 10
-1.216563196919439
 20
2.317623419619619
 30
-14.96290725188751
 70
   192
  0
VERTEX
  5
DD6
  8
0
 10
-0.168788644851507
 20
2.317623419619616
 30
-14.99953558129167
 70
   192
  0
VERTEX
  5
DD7
  8
0
 10
5.203629328545167
 20
2.317623419619627
 30
-14.00439296943997
 70
   192
  0
VERTEX
  5
DD8
  8
0
 10
13.19115460315318
 20
2.317623419619624
 30
-6.818840358587453
 70
   192
  0
VERTEX
  5
DD9
  8
0
 10
11.57425858944247
 20
1.138717056073907
 30
-8.07805005204214
 70
   192
  0
VERTEX
  5
DDA
  8
0
 10
9.862856269020753
 20
2.317623419619626
 30
-11.15130070020246
 70
   192
  0
VERTEX
  5
DDB
  8
0
 10
0.0
 20
0.0
 30
0.0
 70
   128
 71
     1
 72
     2
 73
     3
  0
VERTEX
  5
DDC
  8
0
 10
0.0
 20
0.0
 30
0.0
 70
   128
 71
     4
 72
     1
 73
     3
  0
VERTEX
  5
DDD
  8
0
 10
0.0
 20
0.0
 30
0.0
 70
   128
 71
     5
 72
     6
 73
     7
  0
VERTEX
  5
DDE
  8
0
 10
0.0
 20
0.0
 30
0.0
 70
   128
 71
     8
 72
     5
 73
     7
  0
VERTEX
  5
DDF
  8
0
 10
0.0
 20
0.0
 30
0.0
 70
   128
 71
     5
 72
     9
 73
    10
  0
VERTEX
  5
DE0
  8
0
 10
0.0
 20
0.0
 30
0.0
 70
   128
 71
    10
 72
    11
 73
     5
  0
VERTEX
  5
DE1
  8
0
 10
0.0
 20
0.0
 30
0.0
 70
   128
 71
    11
 72
     6
 73
     5
  0
VERTEX
  5
DE2
  8
0
 10
0.0
 20
0.0
 30
0.0
 70
   128
 71
    11
 72
    12
 73
     6
  0
VERTEX
  5
DE3
  8
0
 10
0.0
 20
0.0
 30
0.0
 70
   128
 71
    13
 72
    14
 73
    15
  0
VERTEX
  5
DE4
  8
0
 10
0.0
 20
0.0
 30
0.0
 70
   128
 71
    15
 72
    16
 73
    13
  0
VERTEX
  5
DE5
  8
0
 10
0.0
 20
0.0
 30
0.0
 70
   128
 71
    13
 72
    17
 73
    14
  0
VERTEX
  5
DE6
  8
0
 10
0.0
 20
0.0
 30
0.0
 70
   128
 71
    17
 72
    18
 73
    19
  0
VERTEX
  5
DE7
  8
0
 10
0.0
 20
0.0
 30
0.0
 70
   128
 71
    19
 72
    20
 73
    17
  0
VERTEX
  5
DE8
  8
0
 10
0.0
 20
0.0
 30
0.0
 70
   128
 71
    20
 72
    21
 73
    17
  0
VERTEX
  5
DE9
  8
0
 10
0.0
 20
0.0
 30
0.0
 70
   128
 71
    21
 72
    22
 73
    17
  0
VERTEX
  5
DEA
  8
0
 10
0.0
 20
0.0
 30
0.0
 70
   128
 71
    23
 72
    24
 73
    14
  0
VERTEX
  5
DEB
  8
0
 10
0.0
 20
0.0
 30
0.0
 70
   128
 71
    25
 72
    23
 73
    14
  0
VERTEX
  5
DEC
  8
0
 10
0.0
 20
0.0
 30
0.0
 70
   128
 71
     3
 72
    24
 73
    23
  0
VERTEX
  5
DED
  8
0
 10
0.0
 20
0.0
 30
0.0
 70
   128
 71
     4
 72
     3
 73
    23
  0
VERTEX
  5
DEE
  8
0
 10
0.0
 20
0.0
 30
0.0
 70
   128
 71
     7
 72
     2
 73
     1
  0
VERTEX
  5
DEF
  8
0
 10
0.0
 20
0.0
 30
0.0
 70
   128
 71
     8
 72
     7
 73
     1
  0
VERTEX
  5
DF0
  8
0
 10
0.0
 20
0.0
 30
0.0
 70
   128
 71
    25
 72
    14
 73
    17
  0
VERTEX
  5
DF1
  8
0
 10
0.0
 20
0.0
 30
0.0
 70
   128
 71
    17
 72
    22
 73
    25
  0
SEQEND
  5
E69
  8
0
  0
POLYLINE
  5
DF2
  8
0
 66
     1
 10
0.0
 20
0.0
 30
0.0
 70
    64
 71
    17
 72
    15
  0
VERTEX
  5
DF3
  8
0
 10
-4.723679824635948
 20
11.57362217991489
 30
-0.9735102252223354
 70
   192
  0
VERTEX
  5
DF4
  8
0
 10
-4.395101845981015
 20
12.51851349140059
 30
-0.9032899083694562
 70
   192
  0
VERTEX
  5
DF5
  8
0
 10
-2.706425342206127
 20
12.51851349140059
 30
-3.498356771861475
 70
   192
  0
VERTEX
  5
DF6
  8
0
 10
-3.554260532500669
 20
10.38419760242882
 30
-5.225207856973625
 70
   192
  0
VERTEX
  5
DF7
  8
0
 10
-6.257323388780633
 20
10.38419760242882
 30
-1.301264804072908
 70
   192
  0
VERTEX
  5
DF8
  8
0
 10
-5.37658573065365
 20
10.82531838405066
 30
-1.113042581539577
 70
   192
  0
VERTEX
  5
DF9
  8
0
 10
5.039008440973116
 20
10.82531838405066
 30
1.112871418956247
 70
   192
  0
VERTEX
  5
DFA
  8
0
 10
5.9197460991001
 20
10.38419760242882
 30
1.301093641489574
 70
   192
  0
VERTEX
  5
DFB
  8
0
 10
5.050487200545042
 20
10.38419760242877
 30
-3.394563795649264
 70
   192
  0
VERTEX
  5
DFC
  8
0
 10
4.386102534955413
 20
11.57362217991489
 30
0.9733390626390042
 70
   192
  0
VERTEX
  5
DFD
  8
0
 10
4.110494549437842
 20
12.51851349140061
 30
0.6042862909165398
 70
   192
  0
VERTEX
  5
DFE
  8
0
 10
4.057524556300479
 20
12.51851349140059
 30
0.9031187457861247
 70
   192
  0
VERTEX
  5
DFF
  8
0
 10
4.142305977641007
 20
12.51851349140061
 30
0.3032181818906107
 70
   192
  0
VERTEX
  5
E00
  8
0
 10
4.152958840909976
 20
12.51851349140061
 30
-0.000085581291663
 70
   192
  0
VERTEX
  5
E01
  8
0
 10
3.042780284874866
 20
12.51851349140059
 30
-2.892027202465412
 70
   192
  0
VERTEX
  5
E02
  8
0
 10
1.128755566868604
 20
10.38419760242883
 30
-6.089396028019386
 70
   192
  0
VERTEX
  5
E03
  8
0
 10
0.2848132837963995
 20
12.51851349140059
 30
-4.297962571263078
 70
   192
  0
VERTEX
  5
E04
  8
0
 10
0.0
 20
0.0
 30
0.0
 70
   128
 71
     1
 72
     2
 73
     3
  0
VERTEX
  5
E05
  8
0
 10
0.0
 20
0.0
 30
0.0
 70
   128
 71
     4
 72
     5
 73
     6
  0
VERTEX
  5
E06
  8
0
 10
0.0
 20
0.0
 30
0.0
 70
   128
 71
     7
 72
     8
 73
     9
  0
VERTEX
  5
E07
  8
0
 10
0.0
 20
0.0
 30
0.0
 70
   128
 71
    10
 72
     7
 73
    11
  0
VERTEX
  5
E08
  8
0
 10
0.0
 20
0.0
 30
0.0
 70
   128
 71
    11
 72
    12
 73
    10
  0
VERTEX
  5
E09
  8
0
 10
0.0
 20
0.0
 30
0.0
 70
   128
 71
     7
 72
    13
 73
    11
  0
VERTEX
  5
E0A
  8
0
 10
0.0
 20
0.0
 30
0.0
 70
   128
 71
     7
 72
    14
 73
    13
  0
VERTEX
  5
E0B
  8
0
 10
0.0
 20
0.0
 30
0.0
 70
   128
 71
    15
 72
     9
 73
    16
  0
VERTEX
  5
E0C
  8
0
 10
0.0
 20
0.0
 30
0.0
 70
   128
 71
    15
 72
    16
 73
    17
  0
VERTEX
  5
E0D
  8
0
 10
0.0
 20
0.0
 30
0.0
 70
   128
 71
     1
 72
     3
 73
    17
  0
VERTEX
  5
E0E
  8
0
 10
0.0
 20
0.0
 30
0.0
 70
   128
 71
    17
 72
     6
 73
     1
  0
VERTEX
  5
E0F
  8
0
 10
0.0
 20
0.0
 30
0.0
 70
   128
 71
    17
 72
    16
 73
     6
  0
VERTEX
  5
E10
  8
0
 10
0.0
 20
0.0
 30
0.0
 70
   128
 71
    16
 72
     4
 73
     6
  0
VERTEX
  5
E11
  8
0
 10
0.0
 20
0.0
 30
0.0
 70
   128
 71
     7
 72
     9
 73
    15
  0
VERTEX
  5
E12
  8
0
 10
0.0
 20
0.0
 30
0.0
 70
   128
 71
    15
 72
    14
 73
     7
  0
SEQEND
  5
E6A
  8
0
  0
POLYLINE
  5
E13
  8
0
 66
     1
 10
0.0
 20
0.0
 30
0.0
 70
    64
 71
    22
 72
    20
  0
VERTEX
  5
E14
  8
0
 10
2.35205080198864
 20
6.778018658198941
 30
13.66878953678905
 70
   192
  0
VERTEX
  5
E15
  8
0
 10
-3.066409896540983
 20
6.778018658198949
 30
13.59390466672064
 70
   192
  0
VERTEX
  5
E16
  8
0
 10
-0.168788644822446
 20
4.649843493101227
 30
14.99936441870833
 70
   192
  0
VERTEX
  5
E17
  8
0
 10
4.834206105821679
 20
4.649843493101236
 30
14.14040747331393
 70
   192
  0
VERTEX
  5
E18
  8
0
 10
12.61384255629931
 20
4.649843493101226
 30
7.847706457119706
 70
   192
  0
VERTEX
  5
E19
  8
0
 10
11.27563423181887
 20
6.778018658198956
 30
7.887750928269213
 70
   192
  0
VERTEX
  5
E1A
  8
0
 10
7.387446555552666
 20
6.778018658198947
 30
11.6659372790367
 70
   192
  0
VERTEX
  5
E1B
  8
0
 10
9.264212604093125
 20
4.649843493101234
 30
11.66190343174213
 70
   192
  0
VERTEX
  5
E1C
  8
0
 10
14.49943844475002
 20
4.649843493101227
 30
3.134657526318525
 70
   192
  0
VERTEX
  5
E1D
  8
0
 10
14.37149474734938
 20
5.465603028496959
 30
3.107314711052632
 70
   192
  0
VERTEX
  5
E1E
  8
0
 10
14.00049753618012
 20
6.199534689278683
 30
3.02802899072991
 70
   192
  0
VERTEX
  5
E1F
  8
0
 10
13.42366110290602
 20
6.778018658198946
 30
2.904753422225268
 70
   192
  0
VERTEX
  5
E20
  8
0
 10
-14.33807482586065
 20
6.199534689278682
 30
-3.028200153313243
 70
   192
  0
VERTEX
  5
E21
  8
0
 10
-11.83025272818613
 20
6.778018658198948
 30
7.563183236765482
 70
   192
  0
VERTEX
  5
E22
  8
0
 10
-13.83757217031032
 20
6.778018658198945
 30
2.521250714246813
 70
   192
  0
VERTEX
  5
E23
  8
0
 10
-13.76123839258654
 20
6.778018658198946
 30
-2.9049245848086
 70
   192
  0
VERTEX
  5
E24
  8
0
 10
-14.7090720370299
 20
5.465603028496958
 30
-3.107485873635965
 70
   192
  0
VERTEX
  5
E25
  8
0
 10
-14.83701573443055
 20
4.649843493101224
 30
-3.134828688901858
 70
   192
  0
VERTEX
  5
E26
  8
0
 10
-14.75490271175509
 20
4.649843493101229
 30
3.49688120857773
 70
   192
  0
VERTEX
  5
E27
  8
0
 10
-6.629867641898922
 20
4.649843493101224
 30
13.53645601899411
 70
   192
  0
VERTEX
  5
E28
  8
0
 10
-8.046247054145967
 20
6.778018658198947
 30
11.45148325406972
 70
   192
  0
VERTEX
  5
E29
  8
0
 10
-11.82514316068468
 20
4.649843493101224
 30
9.439877326657369
 70
   192
  0
VERTEX
  5
E2A
  8
0
 10
0.0
 20
0.0
 30
0.0
 70
   128
 71
     1
 72
     2
 73
     3
  0
VERTEX
  5
E2B
  8
0
 10
0.0
 20
0.0
 30
0.0
 70
   128
 71
     3
 72
     4
 73
     1
  0
VERTEX
  5
E2C
  8
0
 10
0.0
 20
0.0
 30
0.0
 70
   128
 71
     5
 72
     6
 73
     7
  0
VERTEX
  5
E2D
  8
0
 10
0.0
 20
0.0
 30
0.0
 70
   128
 71
     8
 72
     5
 73
     7
  0
VERTEX
  5
E2E
  8
0
 10
0.0
 20
0.0
 30
0.0
 70
   128
 71
     5
 72
     9
 73
    10
  0
VERTEX
  5
E2F
  8
0
 10
0.0
 20
0.0
 30
0.0
 70
   128
 71
    10
 72
    11
 73
     5
  0
VERTEX
  5
E30
  8
0
 10
0.0
 20
0.0
 30
0.0
 70
   128
 71
    11
 72
     6
 73
     5
  0
VERTEX
  5
E31
  8
0
 10
0.0
 20
0.0
 30
0.0
 70
   128
 71
    11
 72
    12
 73
     6
  0
VERTEX
  5
E32
  8
0
 10
0.0
 20
0.0
 30
0.0
 70
   128
 71
    13
 72
    14
 73
    15
  0
VERTEX
  5
E33
  8
0
 10
0.0
 20
0.0
 30
0.0
 70
   128
 71
    15
 72
    16
 73
    13
  0
VERTEX
  5
E34
  8
0
 10
0.0
 20
0.0
 30
0.0
 70
   128
 71
    13
 72
    17
 73
    14
  0
VERTEX
  5
E35
  8
0
 10
0.0
 20
0.0
 30
0.0
 70
   128
 71
    17
 72
    18
 73
    19
  0
VERTEX
  5
E36
  8
0
 10
0.0
 20
0.0
 30
0.0
 70
   128
 71
    20
 72
    21
 73
    14
  0
VERTEX
  5
E37
  8
0
 10
0.0
 20
0.0
 30
0.0
 70
   128
 71
    22
 72
    20
 73
    14
  0
VERTEX
  5
E38
  8
0
 10
0.0
 20
0.0
 30
0.0
 70
   128
 71
     2
 72
    21
 73
    20
  0
VERTEX
  5
E39
  8
0
 10
0.0
 20
0.0
 30
0.0
 70
   128
 71
     3
 72
     2
 73
    20
  0
VERTEX
  5
E3A
  8
0
 10
0.0
 20
0.0
 30
0.0
 70
   128
 71
     7
 72
     1
 73
     4
  0
VERTEX
  5
E3B
  8
0
 10
0.0
 20
0.0
 30
0.0
 70
   128
 71
     8
 72
     7
 73
     4
  0
VERTEX
  5
E3C
  8
0
 10
0.0
 20
0.0
 30
0.0
 70
   128
 71
    22
 72
    14
 73
    17
  0
VERTEX
  5
E3D
  8
0
 10
0.0
 20
0.0
 30
0.0
 70
   128
 71
    17
 72
    19
 73
    22
  0
SEQEND
  5
E6B
  8
0
  0
ENDBLK
  5
E3F
  8
0
  0
ENDSEC
  0
SECTION
  2
ENTITIES
  0
INSERT
  5
BE
  8
0
  2
*X1
 10
0.0
 20
0.0
 30
0.0
  0
ENDSEC
  0
EOF
