  0
SECTION
  2
HEADER
  9
$ACADVER
  1
AC1009
  9
$DWGCODEPAGE
  3
ansi_1250
  9
$INSBASE
 10
0.0
 20
0.0
 30
0.0
  9
$EXTMIN
 10
-103.008
 20
0.0
 30
-133.2
  9
$EXTMAX
 10
103.008
 20
274.688
 30
134.976
  9
$LIMMIN
 10
0.0
 20
0.0
  9
$LIMMAX
 10
420.0
 20
297.0
  9
$ORTHOMODE
 70
     0
  9
$REGENMODE
 70
     1
  9
$FILLMODE
 70
     1
  9
$QTEXTMODE
 70
     0
  9
$MIRRTEXT
 70
     0
  9
$DRAGMODE
 70
     2
  9
$LTSCALE
 40
1.0
  9
$OSMODE
 70
   511
  9
$ATTMODE
 70
     1
  9
$TEXTSIZE
 40
2.5
  9
$TRACEWID
 40
1.0
  9
$TEXTSTYLE
  7
STANDARD
  9
$CLAYER
  8
0
  9
$CELTYPE
  6
BYLAYER
  9
$CECOLOR
 62
   256
  9
$DIMSCALE
 40
1.0
  9
$DIMASZ
 40
2.5
  9
$DIMEXO
 40
0.625
  9
$DIMDLI
 40
3.75
  9
$DIMRND
 40
0.0
  9
$DIMDLE
 40
0.0
  9
$DIMEXE
 40
1.25
  9
$DIMTP
 40
0.0
  9
$DIMTM
 40
0.0
  9
$DIMTXT
 40
2.5
  9
$DIMCEN
 40
-2.5
  9
$DIMTSZ
 40
0.0
  9
$DIMTOL
 70
     0
  9
$DIMLIM
 70
     0
  9
$DIMTIH
 70
     0
  9
$DIMTOH
 70
     0
  9
$DIMSE1
 70
     0
  9
$DIMSE2
 70
     0
  9
$DIMTAD
 70
     1
  9
$DIMZIN
 70
     8
  9
$DIMBLK
  1

  9
$DIMASO
 70
     1
  9
$DIMSHO
 70
     1
  9
$DIMPOST
  1

  9
$DIMAPOST
  1

  9
$DIMALT
 70
     0
  9
$DIMALTD
 70
     3
  9
$DIMALTF
 40
0.03937007874016
  9
$DIMLFAC
 40
1.0
  9
$DIMTOFL
 70
     1
  9
$DIMTVP
 40
0.0
  9
$DIMTIX
 70
     0
  9
$DIMSOXD
 70
     0
  9
$DIMSAH
 70
     0
  9
$DIMBLK1
  1

  9
$DIMBLK2
  1

  9
$DIMSTYLE
  2
ISO-25
  9
$DIMCLRD
 70
     0
  9
$DIMCLRE
 70
     0
  9
$DIMCLRT
 70
     0
  9
$DIMTFAC
 40
1.0
  9
$DIMGAP
 40
0.625
  9
$LUNITS
 70
     2
  9
$LUPREC
 70
     3
  9
$SKETCHINC
 40
1.0
  9
$FILLETRAD
 40
10.0
  9
$AUNITS
 70
     0
  9
$AUPREC
 70
     0
  9
$MENU
  1
.
  9
$ELEVATION
 40
0.0
  9
$PELEVATION
 40
0.0
  9
$THICKNESS
 40
0.0
  9
$LIMCHECK
 70
     0
  9
$CHAMFERA
 40
10.0
  9
$CHAMFERB
 40
10.0
  9
$SKPOLY
 70
     0
  9
$TDCREATE
 40
2455022.679026181
  9
$TDUPDATE
 40
2460392.488581875
  9
$TDINDWG
 40
0.0001765046
  9
$TDUSRTIMER
 40
0.0001766898
  9
$USRTIMER
 70
     1
  9
$ANGBASE
 50
0.0
  9
$ANGDIR
 70
     0
  9
$PDMODE
 70
     0
  9
$PDSIZE
 40
0.0
  9
$PLINEWID
 40
0.0
  9
$COORDS
 70
     1
  9
$SPLFRAME
 70
     0
  9
$SPLINETYPE
 70
     6
  9
$SPLINESEGS
 70
     8
  9
$ATTDIA
 70
     0
  9
$ATTREQ
 70
     1
  9
$HANDLING
 70
     1
  9
$HANDSEED
  5
8E4
  9
$SURFTAB1
 70
     6
  9
$SURFTAB2
 70
     6
  9
$SURFTYPE
 70
     6
  9
$SURFU
 70
     6
  9
$SURFV
 70
     6
  9
$UCSNAME
  2

  9
$UCSORG
 10
0.0
 20
0.0
 30
0.0
  9
$UCSXDIR
 10
1.0
 20
0.0
 30
0.0
  9
$UCSYDIR
 10
0.0
 20
1.0
 30
0.0
  9
$PUCSNAME
  2

  9
$PUCSORG
 10
0.0
 20
0.0
 30
0.0
  9
$PUCSXDIR
 10
1.0
 20
0.0
 30
0.0
  9
$PUCSYDIR
 10
0.0
 20
1.0
 30
0.0
  9
$USERI1
 70
     0
  9
$USERI2
 70
     0
  9
$USERI3
 70
     0
  9
$USERI4
 70
     0
  9
$USERI5
 70
     0
  9
$USERR1
 40
0.0
  9
$USERR2
 40
0.0
  9
$USERR3
 40
0.0
  9
$USERR4
 40
0.0
  9
$USERR5
 40
0.0
  9
$WORLDVIEW
 70
     1
  9
$SHADEDGE
 70
     3
  9
$SHADEDIF
 70
    70
  9
$TILEMODE
 70
     1
  9
$MAXACTVP
 70
    64
  9
$PLIMCHECK
 70
     0
  9
$PEXTMIN
 10
1.000000000000000E+20
 20
1.000000000000000E+20
 30
1.000000000000000E+20
  9
$PEXTMAX
 10
-1.000000000000000E+20
 20
-1.000000000000000E+20
 30
-1.000000000000000E+20
  9
$PLIMMIN
 10
0.0
 20
0.0
  9
$PLIMMAX
 10
0.0
 20
0.0
  9
$UNITMODE
 70
     0
  9
$VISRETAIN
 70
     1
  9
$PLINEGEN
 70
     0
  9
$PSLTSCALE
 70
     1
  0
ENDSEC
  0
SECTION
  2
TABLES
  0
TABLE
  2
VPORT
 70
     1
  0
VPORT
  2
*ACTIVE
 70
     0
 10
0.0
 20
0.0
 11
1.0
 21
1.0
 12
344.1869158878504
 22
148.5
 13
0.0
 23
0.0
 14
10.0
 24
10.0
 15
10.0
 25
10.0
 16
0.0
 26
0.0
 36
1.0
 17
-134.1869158878504
 27
0.0
 37
0.0
 40
385.2
 41
1.11214953271028
 42
50.0
 43
0.0
 44
0.0
 50
0.0
 51
0.0
 71
    16
 72
  1000
 73
     1
 74
     3
 75
     0
 76
     0
 77
     0
 78
     0
  0
ENDTAB
  0
TABLE
  2
LTYPE
 70
     1
  0
LTYPE
  2
CONTINUOUS
 70
     0
  3
Solid line
 72
    65
 73
     0
 40
0.0
  0
ENDTAB
  0
TABLE
  2
LAYER
 70
     1
  0
LAYER
  2
0
 70
     0
 62
     7
  6
CONTINUOUS
  0
ENDTAB
  0
TABLE
  2
STYLE
 70
     2
  0
STYLE
  2
STANDARD
 70
     0
 40
0.0
 41
1.0
 50
0.0
 71
     0
 42
2.5
  3
arial.ttf
  4

  0
STYLE
  2
ANNOTATIVE
 70
     0
 40
0.0
 41
1.0
 50
0.0
 71
     0
 42
2.5
  3
arial.ttf
  4

  0
ENDTAB
  0
TABLE
  2
VIEW
 70
     0
  0
ENDTAB
  0
TABLE
  2
UCS
 70
     0
  0
ENDTAB
  0
TABLE
  2
APPID
 70
     2
  0
APPID
  2
ACAD
 70
     0
  0
APPID
  2
ACADANNOTATIVE
 70
     0
  0
ENDTAB
  0
TABLE
  2
DIMSTYLE
 70
     2
  0
DIMSTYLE
  2
ISO-25
 70
     0
  3

  4

  5

  6

  7

 40
1.0
 41
2.5
 42
0.625
 43
3.75
 44
1.25
 45
0.0
 46
0.0
 47
0.0
 48
0.0
140
2.5
141
-2.5
142
0.0
143
0.03937007874016
144
1.0
145
0.0
146
1.0
147
0.625
 71
     0
 72
     0
 73
     0
 74
     0
 75
     0
 76
     0
 77
     1
 78
     8
170
     0
171
     3
172
     1
173
     0
174
     0
175
     0
176
     0
177
     0
178
     0
  0
DIMSTYLE
  2
ANNOTATIVE
 70
     0
  3

  4

  5

  6

  7

 40
0.0
 41
2.5
 42
0.625
 43
3.75
 44
1.25
 45
0.0
 46
0.0
 47
0.0
 48
0.0
140
2.5
141
-2.5
142
0.0
143
0.03937007874016
144
1.0
145
0.0
146
1.0
147
0.625
 71
     0
 72
     0
 73
     0
 74
     0
 75
     0
 76
     0
 77
     1
 78
     8
170
     0
171
     3
172
     1
173
     0
174
     0
175
     0
176
     0
177
     0
178
     0
  0
ENDTAB
  0
ENDSEC
  0
SECTION
  2
BLOCKS
  0
BLOCK
  8
0
  2
$MODEL_SPACE
 70
     0
 10
0.0
 20
0.0
 30
0.0
  3
$MODEL_SPACE
  1

  0
ENDBLK
  5
21
  8
0
  0
BLOCK
 67
     1
  8
0
  2
$PAPER_SPACE
 70
     0
 10
0.0
 20
0.0
 30
0.0
  3
$PAPER_SPACE
  1

  0
ENDBLK
  5
1D
 67
     1
  8
0
  0
BLOCK
  8
0
  2
*X1
 70
     1
 10
0.0
 20
0.0
 30
0.0
  3
*X1
  1

  0
POLYLINE
  5
4DA
  8
0
 66
     1
 10
0.0
 20
0.0
 30
0.0
 70
    64
 71
    35
 72
    50
  0
VERTEX
  5
4DB
  8
0
 10
73.82693362181583
 20
274.688
 30
-42.62399999999997
 70
   192
  0
VERTEX
  5
4DC
  8
0
 10
85.24799999999999
 20
274.688
 30
0.0000000000000237
 70
   192
  0
VERTEX
  5
4DD
  8
0
 10
92.04445775880399
 20
273.3361004974004
 30
0.0000000000000056
 70
   192
  0
VERTEX
  5
4DE
  8
0
 10
65.08526025188904
 20
273.3361004974004
 30
-65.08526025188903
 70
   192
  0
VERTEX
  5
4DF
  8
0
 10
0.0000000000000104
 20
274.6879999999999
 30
-85.24799999999999
 70
   192
  0
VERTEX
  5
4E0
  8
0
 10
42.62400000000003
 20
274.688
 30
-73.8269336218158
 70
   192
  0
VERTEX
  5
4E1
  8
0
 10
65.08526025188904
 20
273.3361004974004
 30
65.08526025188904
 70
   192
  0
VERTEX
  5
4E2
  8
0
 10
73.82693362181581
 20
274.688
 30
42.62400000000002
 70
   192
  0
VERTEX
  5
4E3
  8
0
 10
90.36116151562439
 20
269.486216433873
 30
-37.4288186115574
 70
   192
  0
VERTEX
  5
4E4
  8
0
 10
69.1594388825908
 20
269.486216433873
 30
-69.15943888259079
 70
   192
  0
VERTEX
  5
4E5
  8
0
 10
97.80621643387308
 20
269.486216433873
 30
0.000000000000006
 70
   192
  0
VERTEX
  5
4E6
  8
0
 10
0.0000000000000115
 20
272.3086111712116
 30
-94.12799999999999
 70
   192
  0
VERTEX
  5
4E7
  8
0
 10
37.42881861155741
 20
269.486216433873
 30
-90.36116151562439
 70
   192
  0
VERTEX
  5
4E8
  8
0
 10
37.4288186115574
 20
269.486216433873
 30
90.36116151562439
 70
   192
  0
VERTEX
  5
4E9
  8
0
 10
69.1594388825908
 20
269.486216433873
 30
69.1594388825908
 70
   192
  0
VERTEX
  5
4EA
  8
0
 10
0.0
 20
272.3086111712116
 30
94.12799999999999
 70
   192
  0
VERTEX
  5
4EB
  8
0
 10
90.36116151562439
 20
269.486216433873
 30
37.4288186115574
 70
   192
  0
VERTEX
  5
4EC
  8
0
 10
71.88171801069302
 20
263.7244577588039
 30
-71.881718010693
 70
   192
  0
VERTEX
  5
4ED
  8
0
 10
38.90210545919572
 20
263.7244577588039
 30
-93.91799060445871
 70
   192
  0
VERTEX
  5
4EE
  8
0
 10
0.0000000000000123
 20
265.8079999999999
 30
-100.6286111712116
 70
   192
  0
VERTEX
  5
4EF
  8
0
 10
101.6561004974004
 20
263.7244577588039
 30
0.0000000000000062
 70
   192
  0
VERTEX
  5
4F0
  8
0
 10
93.91799060445871
 20
263.7244577588039
 30
-38.90210545919571
 70
   192
  0
VERTEX
  5
4F1
  8
0
 10
71.88171801069302
 20
263.7244577588039
 30
71.88171801069302
 70
   192
  0
VERTEX
  5
4F2
  8
0
 10
93.91799060445871
 20
263.7244577588039
 30
38.90210545919572
 70
   192
  0
VERTEX
  5
4F3
  8
0
 10
38.90210545919571
 20
263.7244577588039
 30
93.91799060445871
 70
   192
  0
VERTEX
  5
4F4
  8
0
 10
89.20754479302742
 20
256.9279999999999
 30
-51.50400000000002
 70
   192
  0
VERTEX
  5
4F5
  8
0
 10
103.008
 20
256.9279999999999
 30
-0.00000000000004
 70
   192
  0
VERTEX
  5
4F6
  8
0
 10
51.50400000000004
 20
256.9279999999999
 30
89.2075447930274
 70
   192
  0
VERTEX
  5
4F7
  8
0
 10
0.0
 20
265.8079999999999
 30
100.6286111712116
 70
   192
  0
VERTEX
  5
4F8
  8
0
 10
-0.0000000000000126
 20
256.9279999999999
 30
-103.008
 70
   192
  0
VERTEX
  5
4F9
  8
0
 10
0.0
 20
256.9279999999999
 30
103.008
 70
   192
  0
VERTEX
  5
4FA
  8
0
 10
42.62399999999999
 20
274.688
 30
73.82693362181583
 70
   192
  0
VERTEX
  5
4FB
  8
0
 10
0.0
 20
274.688
 30
85.24799999999999
 70
   192
  0
VERTEX
  5
4FC
  8
0
 10
51.50399999999997
 20
256.9279999999999
 30
-89.20754479302745
 70
   192
  0
VERTEX
  5
4FD
  8
0
 10
89.20754479302745
 20
256.9279999999999
 30
51.50399999999994
 70
   192
  0
VERTEX
  5
4FE
  8
0
 10
0.0
 20
0.0
 30
0.0
 70
   128
 71
     1
 72
     2
 73
     3
  0
VERTEX
  5
4FF
  8
0
 10
0.0
 20
0.0
 30
0.0
 70
   128
 71
     1
 72
     3
 73
     4
  0
VERTEX
  5
500
  8
0
 10
0.0
 20
0.0
 30
0.0
 70
   128
 71
     4
 72
     5
 73
     6
  0
VERTEX
  5
501
  8
0
 10
0.0
 20
0.0
 30
0.0
 70
   128
 71
     7
 72
     3
 73
     2
  0
VERTEX
  5
502
  8
0
 10
0.0
 20
0.0
 30
0.0
 70
   128
 71
     7
 72
     2
 73
     8
  0
VERTEX
  5
503
  8
0
 10
0.0
 20
0.0
 30
0.0
 70
   128
 71
     9
 72
    10
 73
     4
  0
VERTEX
  5
504
  8
0
 10
0.0
 20
0.0
 30
0.0
 70
   128
 71
     9
 72
     4
 73
     3
  0
VERTEX
  5
505
  8
0
 10
0.0
 20
0.0
 30
0.0
 70
   128
 71
     3
 72
    11
 73
     9
  0
VERTEX
  5
506
  8
0
 10
0.0
 20
0.0
 30
0.0
 70
   128
 71
    12
 72
     4
 73
    10
  0
VERTEX
  5
507
  8
0
 10
0.0
 20
0.0
 30
0.0
 70
   128
 71
    12
 72
    10
 73
    13
  0
VERTEX
  5
508
  8
0
 10
0.0
 20
0.0
 30
0.0
 70
   128
 71
    14
 72
    15
 73
     7
  0
VERTEX
  5
509
  8
0
 10
0.0
 20
0.0
 30
0.0
 70
   128
 71
    14
 72
     7
 73
    16
  0
VERTEX
  5
50A
  8
0
 10
0.0
 20
0.0
 30
0.0
 70
   128
 71
    17
 72
    11
 73
     3
  0
VERTEX
  5
50B
  8
0
 10
0.0
 20
0.0
 30
0.0
 70
   128
 71
    17
 72
     3
 73
     7
  0
VERTEX
  5
50C
  8
0
 10
0.0
 20
0.0
 30
0.0
 70
   128
 71
     7
 72
    15
 73
    17
  0
VERTEX
  5
50D
  8
0
 10
0.0
 20
0.0
 30
0.0
 70
   128
 71
    18
 72
    19
 73
   -13
  0
VERTEX
  5
50E
  8
0
 10
0.0
 20
0.0
 30
0.0
 70
   128
 71
   -18
 72
    13
 73
    10
  0
VERTEX
  5
50F
  8
0
 10
0.0
 20
0.0
 30
0.0
 70
   128
 71
    20
 72
    13
 73
    19
  0
VERTEX
  5
510
  8
0
 10
0.0
 20
0.0
 30
0.0
 70
   128
 71
    21
 72
    22
 73
    -9
  0
VERTEX
  5
511
  8
0
 10
0.0
 20
0.0
 30
0.0
 70
   128
 71
   -21
 72
     9
 73
    11
  0
VERTEX
  5
512
  8
0
 10
0.0
 20
0.0
 30
0.0
 70
   128
 71
    22
 72
    18
 73
   -10
  0
VERTEX
  5
513
  8
0
 10
0.0
 20
0.0
 30
0.0
 70
   128
 71
   -22
 72
    10
 73
     9
  0
VERTEX
  5
514
  8
0
 10
0.0
 20
0.0
 30
0.0
 70
   128
 71
    23
 72
    24
 73
   -17
  0
VERTEX
  5
515
  8
0
 10
0.0
 20
0.0
 30
0.0
 70
   128
 71
   -23
 72
    17
 73
    15
  0
VERTEX
  5
516
  8
0
 10
0.0
 20
0.0
 30
0.0
 70
   128
 71
    24
 72
    21
 73
   -11
  0
VERTEX
  5
517
  8
0
 10
0.0
 20
0.0
 30
0.0
 70
   128
 71
   -24
 72
    11
 73
    17
  0
VERTEX
  5
518
  8
0
 10
0.0
 20
0.0
 30
0.0
 70
   128
 71
    25
 72
    23
 73
   -15
  0
VERTEX
  5
519
  8
0
 10
0.0
 20
0.0
 30
0.0
 70
   128
 71
   -25
 72
    15
 73
    14
  0
VERTEX
  5
51A
  8
0
 10
0.0
 20
0.0
 30
0.0
 70
   128
 71
    26
 72
    18
 73
    22
  0
VERTEX
  5
51B
  8
0
 10
0.0
 20
0.0
 30
0.0
 70
   128
 71
    24
 72
    27
 73
    21
  0
VERTEX
  5
51C
  8
0
 10
0.0
 20
0.0
 30
0.0
 70
   128
 71
    28
 72
    23
 73
    25
  0
VERTEX
  5
51D
  8
0
 10
0.0
 20
0.0
 30
0.0
 70
   128
 71
    13
 72
    20
 73
    12
  0
VERTEX
  5
51E
  8
0
 10
0.0
 20
0.0
 30
0.0
 70
   128
 71
    29
 72
    25
 73
    14
  0
VERTEX
  5
51F
  8
0
 10
0.0
 20
0.0
 30
0.0
 70
   128
 71
    29
 72
    14
 73
    16
  0
VERTEX
  5
520
  8
0
 10
0.0
 20
0.0
 30
0.0
 70
   128
 71
    19
 72
    30
 73
    20
  0
VERTEX
  5
521
  8
0
 10
0.0
 20
0.0
 30
0.0
 70
   128
 71
    31
 72
    25
 73
    29
  0
VERTEX
  5
522
  8
0
 10
0.0
 20
0.0
 30
0.0
 70
   128
 71
     4
 72
    12
 73
     5
  0
VERTEX
  5
523
  8
0
 10
0.0
 20
0.0
 30
0.0
 70
   128
 71
    16
 72
     7
 73
    32
  0
VERTEX
  5
524
  8
0
 10
0.0
 20
0.0
 30
0.0
 70
   128
 71
    16
 72
    32
 73
    33
  0
VERTEX
  5
525
  8
0
 10
0.0
 20
0.0
 30
0.0
 70
   128
 71
     1
 72
     4
 73
     6
  0
VERTEX
  5
526
  8
0
 10
0.0
 20
0.0
 30
0.0
 70
   128
 71
    32
 72
     7
 73
     8
  0
VERTEX
  5
527
  8
0
 10
0.0
 20
0.0
 30
0.0
 70
   128
 71
    26
 72
    34
 73
    19
  0
VERTEX
  5
528
  8
0
 10
0.0
 20
0.0
 30
0.0
 70
   128
 71
    26
 72
    19
 73
    18
  0
VERTEX
  5
529
  8
0
 10
0.0
 20
0.0
 30
0.0
 70
   128
 71
    34
 72
    30
 73
    19
  0
VERTEX
  5
52A
  8
0
 10
0.0
 20
0.0
 30
0.0
 70
   128
 71
    21
 72
    27
 73
    26
  0
VERTEX
  5
52B
  8
0
 10
0.0
 20
0.0
 30
0.0
 70
   128
 71
    21
 72
    26
 73
    22
  0
VERTEX
  5
52C
  8
0
 10
0.0
 20
0.0
 30
0.0
 70
   128
 71
    28
 72
    35
 73
    24
  0
VERTEX
  5
52D
  8
0
 10
0.0
 20
0.0
 30
0.0
 70
   128
 71
    28
 72
    24
 73
    23
  0
VERTEX
  5
52E
  8
0
 10
0.0
 20
0.0
 30
0.0
 70
   128
 71
    35
 72
    27
 73
    24
  0
VERTEX
  5
52F
  8
0
 10
0.0
 20
0.0
 30
0.0
 70
   128
 71
    31
 72
    28
 73
    25
  0
SEQEND
  5
8B7
  8
0
  0
POLYLINE
  5
530
  8
0
 66
     1
 10
0.0
 20
0.0
 30
0.0
 70
    64
 71
    14
 72
    12
  0
VERTEX
  5
531
  8
0
 10
51.50400000000003
 20
245.088
 30
-89.20754479302741
 70
   192
  0
VERTEX
  5
532
  8
0
 10
51.50399999999997
 20
256.9279999999999
 30
-89.20754479302745
 70
   192
  0
VERTEX
  5
533
  8
0
 10
89.20754479302742
 20
256.9279999999999
 30
-51.50400000000002
 70
   192
  0
VERTEX
  5
534
  8
0
 10
89.20754479302745
 20
245.088
 30
-51.50399999999996
 70
   192
  0
VERTEX
  5
535
  8
0
 10
89.20754479302742
 20
245.088
 30
51.504
 70
   192
  0
VERTEX
  5
536
  8
0
 10
89.20754479302745
 20
256.9279999999999
 30
51.50399999999994
 70
   192
  0
VERTEX
  5
537
  8
0
 10
51.50400000000004
 20
256.9279999999999
 30
89.2075447930274
 70
   192
  0
VERTEX
  5
538
  8
0
 10
51.50399999999998
 20
245.088
 30
89.20754479302744
 70
   192
  0
VERTEX
  5
539
  8
0
 10
0.0000000000000743
 20
256.9279999999999
 30
103.008
 70
   192
  0
VERTEX
  5
53A
  8
0
 10
0.0000000000000126
 20
245.088
 30
103.008
 70
   192
  0
VERTEX
  5
53B
  8
0
 10
103.008
 20
245.088
 30
0.0000000000000286
 70
   192
  0
VERTEX
  5
53C
  8
0
 10
103.008
 20
256.9279999999999
 30
-0.00000000000004
 70
   192
  0
VERTEX
  5
53D
  8
0
 10
0.0000000000000572
 20
245.088
 30
-103.008
 70
   192
  0
VERTEX
  5
53E
  8
0
 10
0.0
 20
256.9279999999999
 30
-103.008
 70
   192
  0
VERTEX
  5
53F
  8
0
 10
0.0
 20
0.0
 30
0.0
 70
   128
 71
     1
 72
     2
 73
    -3
  0
VERTEX
  5
540
  8
0
 10
0.0
 20
0.0
 30
0.0
 70
   128
 71
    -1
 72
     3
 73
     4
  0
VERTEX
  5
541
  8
0
 10
0.0
 20
0.0
 30
0.0
 70
   128
 71
     5
 72
     6
 73
    -7
  0
VERTEX
  5
542
  8
0
 10
0.0
 20
0.0
 30
0.0
 70
   128
 71
    -5
 72
     7
 73
     8
  0
VERTEX
  5
543
  8
0
 10
0.0
 20
0.0
 30
0.0
 70
   128
 71
     8
 72
     7
 73
    -9
  0
VERTEX
  5
544
  8
0
 10
0.0
 20
0.0
 30
0.0
 70
   128
 71
    -8
 72
     9
 73
    10
  0
VERTEX
  5
545
  8
0
 10
0.0
 20
0.0
 30
0.0
 70
   128
 71
    11
 72
    12
 73
    -6
  0
VERTEX
  5
546
  8
0
 10
0.0
 20
0.0
 30
0.0
 70
   128
 71
   -11
 72
     6
 73
     5
  0
VERTEX
  5
547
  8
0
 10
0.0
 20
0.0
 30
0.0
 70
   128
 71
     4
 72
     3
 73
   -12
  0
VERTEX
  5
548
  8
0
 10
0.0
 20
0.0
 30
0.0
 70
   128
 71
    -4
 72
    12
 73
    11
  0
VERTEX
  5
549
  8
0
 10
0.0
 20
0.0
 30
0.0
 70
   128
 71
    13
 72
    14
 73
    -2
  0
VERTEX
  5
54A
  8
0
 10
0.0
 20
0.0
 30
0.0
 70
   128
 71
   -13
 72
     2
 73
     1
  0
SEQEND
  5
8B8
  8
0
  0
POLYLINE
  5
54B
  8
0
 66
     1
 10
0.0
 20
0.0
 30
0.0
 70
    64
 71
    14
 72
    12
  0
VERTEX
  5
54C
  8
0
 10
-51.50400000000004
 20
245.088
 30
89.2075447930274
 70
   192
  0
VERTEX
  5
54D
  8
0
 10
-51.50399999999998
 20
256.9279999999999
 30
89.20754479302744
 70
   192
  0
VERTEX
  5
54E
  8
0
 10
-89.20754479302742
 20
256.9279999999999
 30
51.504
 70
   192
  0
VERTEX
  5
54F
  8
0
 10
-89.20754479302745
 20
245.088
 30
51.50399999999994
 70
   192
  0
VERTEX
  5
550
  8
0
 10
-89.20754479302742
 20
245.088
 30
-51.50400000000002
 70
   192
  0
VERTEX
  5
551
  8
0
 10
-89.20754479302745
 20
256.9279999999999
 30
-51.50399999999996
 70
   192
  0
VERTEX
  5
552
  8
0
 10
-51.50400000000003
 20
256.9279999999999
 30
-89.20754479302741
 70
   192
  0
VERTEX
  5
553
  8
0
 10
-51.50399999999997
 20
245.088
 30
-89.20754479302745
 70
   192
  0
VERTEX
  5
554
  8
0
 10
-0.0000000000000572
 20
256.9279999999999
 30
-103.008
 70
   192
  0
VERTEX
  5
555
  8
0
 10
0.0
 20
245.088
 30
-103.008
 70
   192
  0
VERTEX
  5
556
  8
0
 10
-103.008
 20
245.088
 30
-0.00000000000004
 70
   192
  0
VERTEX
  5
557
  8
0
 10
-103.008
 20
256.9279999999999
 30
0.0000000000000286
 70
   192
  0
VERTEX
  5
558
  8
0
 10
-0.0000000000000743
 20
245.088
 30
103.008
 70
   192
  0
VERTEX
  5
559
  8
0
 10
0.0000000000000126
 20
256.9279999999999
 30
103.008
 70
   192
  0
VERTEX
  5
55A
  8
0
 10
0.0
 20
0.0
 30
0.0
 70
   128
 71
     1
 72
     2
 73
    -3
  0
VERTEX
  5
55B
  8
0
 10
0.0
 20
0.0
 30
0.0
 70
   128
 71
    -1
 72
     3
 73
     4
  0
VERTEX
  5
55C
  8
0
 10
0.0
 20
0.0
 30
0.0
 70
   128
 71
     5
 72
     6
 73
    -7
  0
VERTEX
  5
55D
  8
0
 10
0.0
 20
0.0
 30
0.0
 70
   128
 71
    -5
 72
     7
 73
     8
  0
VERTEX
  5
55E
  8
0
 10
0.0
 20
0.0
 30
0.0
 70
   128
 71
     8
 72
     7
 73
    -9
  0
VERTEX
  5
55F
  8
0
 10
0.0
 20
0.0
 30
0.0
 70
   128
 71
    -8
 72
     9
 73
    10
  0
VERTEX
  5
560
  8
0
 10
0.0
 20
0.0
 30
0.0
 70
   128
 71
    11
 72
    12
 73
    -6
  0
VERTEX
  5
561
  8
0
 10
0.0
 20
0.0
 30
0.0
 70
   128
 71
   -11
 72
     6
 73
     5
  0
VERTEX
  5
562
  8
0
 10
0.0
 20
0.0
 30
0.0
 70
   128
 71
     4
 72
     3
 73
   -12
  0
VERTEX
  5
563
  8
0
 10
0.0
 20
0.0
 30
0.0
 70
   128
 71
    -4
 72
    12
 73
    11
  0
VERTEX
  5
564
  8
0
 10
0.0
 20
0.0
 30
0.0
 70
   128
 71
    13
 72
    14
 73
    -2
  0
VERTEX
  5
565
  8
0
 10
0.0
 20
0.0
 30
0.0
 70
   128
 71
   -13
 72
     2
 73
     1
  0
SEQEND
  5
8B9
  8
0
  0
POLYLINE
  5
566
  8
0
 66
     1
 10
0.0
 20
0.0
 30
0.0
 70
    64
 71
    12
 72
    10
  0
VERTEX
  5
567
  8
0
 10
0.0
 20
274.688
 30
85.24799999999999
 70
   192
  0
VERTEX
  5
568
  8
0
 10
42.62399999999999
 20
274.688
 30
73.82693362181583
 70
   192
  0
VERTEX
  5
569
  8
0
 10
73.82693362181581
 20
274.688
 30
42.62400000000002
 70
   192
  0
VERTEX
  5
56A
  8
0
 10
85.24799999999999
 20
274.688
 30
0.0000000000000237
 70
   192
  0
VERTEX
  5
56B
  8
0
 10
73.82693362181583
 20
274.688
 30
-42.62399999999997
 70
   192
  0
VERTEX
  5
56C
  8
0
 10
42.62400000000003
 20
274.688
 30
-73.8269336218158
 70
   192
  0
VERTEX
  5
56D
  8
0
 10
0.0000000000000473
 20
274.688
 30
-85.24799999999999
 70
   192
  0
VERTEX
  5
56E
  8
0
 10
-42.62399999999998
 20
274.688
 30
-73.82693362181583
 70
   192
  0
VERTEX
  5
56F
  8
0
 10
-73.82693362181581
 20
274.688
 30
-42.62400000000002
 70
   192
  0
VERTEX
  5
570
  8
0
 10
-85.24799999999999
 20
274.688
 30
-0.0000000000000331
 70
   192
  0
VERTEX
  5
571
  8
0
 10
-73.82693362181584
 20
274.688
 30
42.62399999999996
 70
   192
  0
VERTEX
  5
572
  8
0
 10
-42.62400000000004
 20
274.688
 30
73.8269336218158
 70
   192
  0
VERTEX
  5
573
  8
0
 10
0.0
 20
0.0
 30
0.0
 70
   128
 71
    11
 72
    12
 73
    -1
  0
VERTEX
  5
574
  8
0
 10
0.0
 20
0.0
 30
0.0
 70
   128
 71
    10
 72
   -11
 73
    -1
  0
VERTEX
  5
575
  8
0
 10
0.0
 20
0.0
 30
0.0
 70
   128
 71
     9
 72
   -10
 73
    -1
  0
VERTEX
  5
576
  8
0
 10
0.0
 20
0.0
 30
0.0
 70
   128
 71
     8
 72
    -9
 73
    -1
  0
VERTEX
  5
577
  8
0
 10
0.0
 20
0.0
 30
0.0
 70
   128
 71
     7
 72
    -8
 73
    -1
  0
VERTEX
  5
578
  8
0
 10
0.0
 20
0.0
 30
0.0
 70
   128
 71
     6
 72
    -7
 73
    -1
  0
VERTEX
  5
579
  8
0
 10
0.0
 20
0.0
 30
0.0
 70
   128
 71
     5
 72
    -6
 73
    -1
  0
VERTEX
  5
57A
  8
0
 10
0.0
 20
0.0
 30
0.0
 70
   128
 71
     4
 72
    -5
 73
    -1
  0
VERTEX
  5
57B
  8
0
 10
0.0
 20
0.0
 30
0.0
 70
   128
 71
     3
 72
    -4
 73
    -1
  0
VERTEX
  5
57C
  8
0
 10
0.0
 20
0.0
 30
0.0
 70
   128
 71
     2
 72
    -3
 73
     1
  0
SEQEND
  5
8BA
  8
0
  0
POLYLINE
  5
57D
  8
0
 66
     1
 10
0.0
 20
0.0
 30
0.0
 70
    64
 71
    12
 72
    10
  0
VERTEX
  5
57E
  8
0
 10
0.0
 20
245.088
 30
103.008
 70
   192
  0
VERTEX
  5
57F
  8
0
 10
51.50399999999998
 20
245.088
 30
89.20754479302744
 70
   192
  0
VERTEX
  5
580
  8
0
 10
89.20754479302742
 20
245.088
 30
51.504
 70
   192
  0
VERTEX
  5
581
  8
0
 10
103.008
 20
245.088
 30
0.0000000000000286
 70
   192
  0
VERTEX
  5
582
  8
0
 10
89.20754479302745
 20
245.088
 30
-51.50399999999996
 70
   192
  0
VERTEX
  5
583
  8
0
 10
51.50400000000003
 20
245.088
 30
-89.20754479302741
 70
   192
  0
VERTEX
  5
584
  8
0
 10
0.0000000000000126
 20
245.088
 30
-103.008
 70
   192
  0
VERTEX
  5
585
  8
0
 10
-51.50399999999997
 20
245.088
 30
-89.20754479302745
 70
   192
  0
VERTEX
  5
586
  8
0
 10
-89.20754479302742
 20
245.088
 30
-51.50400000000002
 70
   192
  0
VERTEX
  5
587
  8
0
 10
-103.008
 20
245.088
 30
-0.00000000000004
 70
   192
  0
VERTEX
  5
588
  8
0
 10
-89.20754479302745
 20
245.088
 30
51.50399999999994
 70
   192
  0
VERTEX
  5
589
  8
0
 10
-51.50400000000004
 20
245.088
 30
89.2075447930274
 70
   192
  0
VERTEX
  5
58A
  8
0
 10
0.0
 20
0.0
 30
0.0
 70
   128
 71
     1
 72
    12
 73
   -11
  0
VERTEX
  5
58B
  8
0
 10
0.0
 20
0.0
 30
0.0
 70
   128
 71
    -1
 72
    11
 73
   -10
  0
VERTEX
  5
58C
  8
0
 10
0.0
 20
0.0
 30
0.0
 70
   128
 71
    -1
 72
    10
 73
    -9
  0
VERTEX
  5
58D
  8
0
 10
0.0
 20
0.0
 30
0.0
 70
   128
 71
    -1
 72
     9
 73
    -8
  0
VERTEX
  5
58E
  8
0
 10
0.0
 20
0.0
 30
0.0
 70
   128
 71
    -1
 72
     8
 73
    -7
  0
VERTEX
  5
58F
  8
0
 10
0.0
 20
0.0
 30
0.0
 70
   128
 71
    -1
 72
     7
 73
    -6
  0
VERTEX
  5
590
  8
0
 10
0.0
 20
0.0
 30
0.0
 70
   128
 71
    -1
 72
     6
 73
    -5
  0
VERTEX
  5
591
  8
0
 10
0.0
 20
0.0
 30
0.0
 70
   128
 71
    -1
 72
     5
 73
    -4
  0
VERTEX
  5
592
  8
0
 10
0.0
 20
0.0
 30
0.0
 70
   128
 71
    -1
 72
     4
 73
    -3
  0
VERTEX
  5
593
  8
0
 10
0.0
 20
0.0
 30
0.0
 70
   128
 71
    -1
 72
     3
 73
     2
  0
SEQEND
  5
8BB
  8
0
  0
POLYLINE
  5
594
  8
0
 66
     1
 10
0.0
 20
0.0
 30
0.0
 70
    64
 71
    35
 72
    50
  0
VERTEX
  5
595
  8
0
 10
-73.82693362181584
 20
274.688
 30
42.62399999999996
 70
   192
  0
VERTEX
  5
596
  8
0
 10
-85.24799999999999
 20
274.688
 30
-0.0000000000000331
 70
   192
  0
VERTEX
  5
597
  8
0
 10
-92.04445775880399
 20
273.3361004974004
 30
-0.0000000000000169
 70
   192
  0
VERTEX
  5
598
  8
0
 10
-65.08526025188904
 20
273.3361004974004
 30
65.08526025188901
 70
   192
  0
VERTEX
  5
599
  8
0
 10
0.0
 20
274.6879999999999
 30
85.24799999999999
 70
   192
  0
VERTEX
  5
59A
  8
0
 10
-42.62400000000004
 20
274.688
 30
73.8269336218158
 70
   192
  0
VERTEX
  5
59B
  8
0
 10
-65.08526025188901
 20
273.3361004974004
 30
-65.08526025188904
 70
   192
  0
VERTEX
  5
59C
  8
0
 10
-73.82693362181581
 20
274.688
 30
-42.62400000000002
 70
   192
  0
VERTEX
  5
59D
  8
0
 10
-90.36116151562436
 20
269.486216433873
 30
37.42881861155742
 70
   192
  0
VERTEX
  5
59E
  8
0
 10
-69.1594388825908
 20
269.486216433873
 30
69.15943888259078
 70
   192
  0
VERTEX
  5
59F
  8
0
 10
-97.80621643387308
 20
269.486216433873
 30
-0.000000000000018
 70
   192
  0
VERTEX
  5
5A0
  8
0
 10
0.0
 20
272.3086111712116
 30
94.12799999999999
 70
   192
  0
VERTEX
  5
5A1
  8
0
 10
-37.42881861155746
 20
269.486216433873
 30
90.36116151562436
 70
   192
  0
VERTEX
  5
5A2
  8
0
 10
-37.42881861155739
 20
269.486216433873
 30
-90.3611615156244
 70
   192
  0
VERTEX
  5
5A3
  8
0
 10
-69.15943888259079
 20
269.486216433873
 30
-69.1594388825908
 70
   192
  0
VERTEX
  5
5A4
  8
0
 10
0.0000000000000115
 20
272.3086111712116
 30
-94.12799999999999
 70
   192
  0
VERTEX
  5
5A5
  8
0
 10
-90.36116151562436
 20
269.486216433873
 30
-37.42881861155745
 70
   192
  0
VERTEX
  5
5A6
  8
0
 10
-71.88171801069304
 20
263.7244577588039
 30
71.881718010693
 70
   192
  0
VERTEX
  5
5A7
  8
0
 10
-38.90210545919577
 20
263.7244577588039
 30
93.91799060445868
 70
   192
  0
VERTEX
  5
5A8
  8
0
 10
0.0
 20
265.8079999999999
 30
100.6286111712116
 70
   192
  0
VERTEX
  5
5A9
  8
0
 10
-101.6561004974004
 20
263.7244577588039
 30
-0.0000000000000187
 70
   192
  0
VERTEX
  5
5AA
  8
0
 10
-93.91799060445868
 20
263.7244577588039
 30
38.90210545919573
 70
   192
  0
VERTEX
  5
5AB
  8
0
 10
-71.881718010693
 20
263.7244577588039
 30
-71.88171801069304
 70
   192
  0
VERTEX
  5
5AC
  8
0
 10
-93.91799060445868
 20
263.7244577588039
 30
-38.90210545919577
 70
   192
  0
VERTEX
  5
5AD
  8
0
 10
-38.9021054591957
 20
263.7244577588039
 30
-93.91799060445872
 70
   192
  0
VERTEX
  5
5AE
  8
0
 10
-89.20754479302742
 20
256.9279999999999
 30
51.504
 70
   192
  0
VERTEX
  5
5AF
  8
0
 10
-103.008
 20
256.9279999999999
 30
0.0000000000000286
 70
   192
  0
VERTEX
  5
5B0
  8
0
 10
-51.50400000000003
 20
256.9279999999999
 30
-89.20754479302741
 70
   192
  0
VERTEX
  5
5B1
  8
0
 10
0.0000000000000123
 20
265.8079999999999
 30
-100.6286111712116
 70
   192
  0
VERTEX
  5
5B2
  8
0
 10
0.0
 20
256.9279999999999
 30
103.008
 70
   192
  0
VERTEX
  5
5B3
  8
0
 10
0.0000000000000126
 20
256.9279999999999
 30
-103.008
 70
   192
  0
VERTEX
  5
5B4
  8
0
 10
-42.62399999999998
 20
274.688
 30
-73.82693362181583
 70
   192
  0
VERTEX
  5
5B5
  8
0
 10
0.0000000000000104
 20
274.688
 30
-85.24799999999999
 70
   192
  0
VERTEX
  5
5B6
  8
0
 10
-51.50399999999998
 20
256.9279999999999
 30
89.20754479302744
 70
   192
  0
VERTEX
  5
5B7
  8
0
 10
-89.20754479302745
 20
256.9279999999999
 30
-51.50399999999996
 70
   192
  0
VERTEX
  5
5B8
  8
0
 10
0.0
 20
0.0
 30
0.0
 70
   128
 71
     1
 72
     2
 73
     3
  0
VERTEX
  5
5B9
  8
0
 10
0.0
 20
0.0
 30
0.0
 70
   128
 71
     1
 72
     3
 73
     4
  0
VERTEX
  5
5BA
  8
0
 10
0.0
 20
0.0
 30
0.0
 70
   128
 71
     4
 72
     5
 73
     6
  0
VERTEX
  5
5BB
  8
0
 10
0.0
 20
0.0
 30
0.0
 70
   128
 71
     7
 72
     3
 73
     2
  0
VERTEX
  5
5BC
  8
0
 10
0.0
 20
0.0
 30
0.0
 70
   128
 71
     7
 72
     2
 73
     8
  0
VERTEX
  5
5BD
  8
0
 10
0.0
 20
0.0
 30
0.0
 70
   128
 71
     9
 72
    10
 73
     4
  0
VERTEX
  5
5BE
  8
0
 10
0.0
 20
0.0
 30
0.0
 70
   128
 71
     4
 72
     3
 73
    11
  0
VERTEX
  5
5BF
  8
0
 10
0.0
 20
0.0
 30
0.0
 70
   128
 71
     4
 72
    11
 73
     9
  0
VERTEX
  5
5C0
  8
0
 10
0.0
 20
0.0
 30
0.0
 70
   128
 71
    12
 72
     4
 73
    10
  0
VERTEX
  5
5C1
  8
0
 10
0.0
 20
0.0
 30
0.0
 70
   128
 71
    12
 72
    10
 73
    13
  0
VERTEX
  5
5C2
  8
0
 10
0.0
 20
0.0
 30
0.0
 70
   128
 71
    14
 72
    15
 73
     7
  0
VERTEX
  5
5C3
  8
0
 10
0.0
 20
0.0
 30
0.0
 70
   128
 71
    14
 72
     7
 73
    16
  0
VERTEX
  5
5C4
  8
0
 10
0.0
 20
0.0
 30
0.0
 70
   128
 71
    17
 72
    11
 73
     3
  0
VERTEX
  5
5C5
  8
0
 10
0.0
 20
0.0
 30
0.0
 70
   128
 71
    17
 72
     3
 73
     7
  0
VERTEX
  5
5C6
  8
0
 10
0.0
 20
0.0
 30
0.0
 70
   128
 71
     7
 72
    15
 73
    17
  0
VERTEX
  5
5C7
  8
0
 10
0.0
 20
0.0
 30
0.0
 70
   128
 71
    18
 72
    19
 73
   -13
  0
VERTEX
  5
5C8
  8
0
 10
0.0
 20
0.0
 30
0.0
 70
   128
 71
   -18
 72
    13
 73
    10
  0
VERTEX
  5
5C9
  8
0
 10
0.0
 20
0.0
 30
0.0
 70
   128
 71
    20
 72
    13
 73
    19
  0
VERTEX
  5
5CA
  8
0
 10
0.0
 20
0.0
 30
0.0
 70
   128
 71
    21
 72
    22
 73
    -9
  0
VERTEX
  5
5CB
  8
0
 10
0.0
 20
0.0
 30
0.0
 70
   128
 71
   -21
 72
     9
 73
    11
  0
VERTEX
  5
5CC
  8
0
 10
0.0
 20
0.0
 30
0.0
 70
   128
 71
    22
 72
    18
 73
   -10
  0
VERTEX
  5
5CD
  8
0
 10
0.0
 20
0.0
 30
0.0
 70
   128
 71
   -22
 72
    10
 73
     9
  0
VERTEX
  5
5CE
  8
0
 10
0.0
 20
0.0
 30
0.0
 70
   128
 71
    23
 72
    24
 73
   -17
  0
VERTEX
  5
5CF
  8
0
 10
0.0
 20
0.0
 30
0.0
 70
   128
 71
   -23
 72
    17
 73
    15
  0
VERTEX
  5
5D0
  8
0
 10
0.0
 20
0.0
 30
0.0
 70
   128
 71
    24
 72
    21
 73
   -11
  0
VERTEX
  5
5D1
  8
0
 10
0.0
 20
0.0
 30
0.0
 70
   128
 71
   -24
 72
    11
 73
    17
  0
VERTEX
  5
5D2
  8
0
 10
0.0
 20
0.0
 30
0.0
 70
   128
 71
    25
 72
    23
 73
   -15
  0
VERTEX
  5
5D3
  8
0
 10
0.0
 20
0.0
 30
0.0
 70
   128
 71
   -25
 72
    15
 73
    14
  0
VERTEX
  5
5D4
  8
0
 10
0.0
 20
0.0
 30
0.0
 70
   128
 71
    26
 72
    18
 73
    22
  0
VERTEX
  5
5D5
  8
0
 10
0.0
 20
0.0
 30
0.0
 70
   128
 71
    24
 72
    27
 73
    21
  0
VERTEX
  5
5D6
  8
0
 10
0.0
 20
0.0
 30
0.0
 70
   128
 71
    28
 72
    23
 73
    25
  0
VERTEX
  5
5D7
  8
0
 10
0.0
 20
0.0
 30
0.0
 70
   128
 71
    13
 72
    20
 73
    12
  0
VERTEX
  5
5D8
  8
0
 10
0.0
 20
0.0
 30
0.0
 70
   128
 71
    29
 72
    25
 73
    14
  0
VERTEX
  5
5D9
  8
0
 10
0.0
 20
0.0
 30
0.0
 70
   128
 71
    29
 72
    14
 73
    16
  0
VERTEX
  5
5DA
  8
0
 10
0.0
 20
0.0
 30
0.0
 70
   128
 71
    19
 72
    30
 73
    20
  0
VERTEX
  5
5DB
  8
0
 10
0.0
 20
0.0
 30
0.0
 70
   128
 71
    31
 72
    25
 73
    29
  0
VERTEX
  5
5DC
  8
0
 10
0.0
 20
0.0
 30
0.0
 70
   128
 71
     4
 72
    12
 73
     5
  0
VERTEX
  5
5DD
  8
0
 10
0.0
 20
0.0
 30
0.0
 70
   128
 71
    16
 72
     7
 73
    32
  0
VERTEX
  5
5DE
  8
0
 10
0.0
 20
0.0
 30
0.0
 70
   128
 71
    16
 72
    32
 73
    33
  0
VERTEX
  5
5DF
  8
0
 10
0.0
 20
0.0
 30
0.0
 70
   128
 71
     1
 72
     4
 73
     6
  0
VERTEX
  5
5E0
  8
0
 10
0.0
 20
0.0
 30
0.0
 70
   128
 71
    32
 72
     7
 73
     8
  0
VERTEX
  5
5E1
  8
0
 10
0.0
 20
0.0
 30
0.0
 70
   128
 71
    26
 72
    34
 73
    19
  0
VERTEX
  5
5E2
  8
0
 10
0.0
 20
0.0
 30
0.0
 70
   128
 71
    26
 72
    19
 73
    18
  0
VERTEX
  5
5E3
  8
0
 10
0.0
 20
0.0
 30
0.0
 70
   128
 71
    34
 72
    30
 73
    19
  0
VERTEX
  5
5E4
  8
0
 10
0.0
 20
0.0
 30
0.0
 70
   128
 71
    21
 72
    27
 73
    26
  0
VERTEX
  5
5E5
  8
0
 10
0.0
 20
0.0
 30
0.0
 70
   128
 71
    21
 72
    26
 73
    22
  0
VERTEX
  5
5E6
  8
0
 10
0.0
 20
0.0
 30
0.0
 70
   128
 71
    28
 72
    35
 73
    24
  0
VERTEX
  5
5E7
  8
0
 10
0.0
 20
0.0
 30
0.0
 70
   128
 71
    28
 72
    24
 73
    23
  0
VERTEX
  5
5E8
  8
0
 10
0.0
 20
0.0
 30
0.0
 70
   128
 71
    35
 72
    27
 73
    24
  0
VERTEX
  5
5E9
  8
0
 10
0.0
 20
0.0
 30
0.0
 70
   128
 71
    31
 72
    28
 73
    25
  0
SEQEND
  5
8BC
  8
0
  0
ENDBLK
  5
8B6
  8
0
  0
BLOCK
  8
0
  2
*X2
 70
     1
 10
0.0
 20
0.0
 30
0.0
  3
*X2
  1

  0
POLYLINE
  5
5EB
  8
0
 66
     1
 10
0.0
 20
0.0
 30
0.0
 70
    64
 71
    31
 72
    29
  0
VERTEX
  5
5EC
  8
0
 10
55.58862170148729
 20
0.0
 30
-86.72112315537042
 70
   192
  0
VERTEX
  5
5ED
  8
0
 10
0.0000000000000172
 20
0.0
 30
-103.0079999999999
 70
   192
  0
VERTEX
  5
5EE
  8
0
 10
0.0
 20
245.088
 30
-103.008
 70
   192
  0
VERTEX
  5
5EF
  8
0
 10
51.50400000000003
 20
245.088
 30
-89.20754479302741
 70
   192
  0
VERTEX
  5
5F0
  8
0
 10
78.16396531009741
 20
0.0
 30
67.08980988944505
 70
   192
  0
VERTEX
  5
5F1
  8
0
 10
102.01049359213
 20
0.0
 30
14.30060352187961
 70
   192
  0
VERTEX
  5
5F2
  8
0
 10
103.008
 20
245.088
 30
0.0000000000000286
 70
   192
  0
VERTEX
  5
5F3
  8
0
 10
89.20754479302742
 20
245.088
 30
51.504
 70
   192
  0
VERTEX
  5
5F4
  8
0
 10
34.07636604265434
 20
74.59199999999998
 30
97.20827815225942
 70
   192
  0
VERTEX
  5
5F5
  8
0
 10
49.90337632499099
 20
74.59199999999998
 30
90.11271328378882
 70
   192
  0
VERTEX
  5
5F6
  8
0
 10
51.50399999999998
 20
245.088
 30
89.20754479302744
 70
   192
  0
VERTEX
  5
5F7
  8
0
 10
0.0
 20
245.088
 30
103.008
 70
   192
  0
VERTEX
  5
5F8
  8
0
 10
17.28319629137017
 20
74.59199999999998
 30
101.5477187826195
 70
   192
  0
VERTEX
  5
5F9
  8
0
 10
0.0000000000000126
 20
74.59199999999998
 30
103.008
 70
   192
  0
VERTEX
  5
5FA
  8
0
 10
9.992026245660213
 20
5.92
 30
102.5222291774132
 70
   192
  0
VERTEX
  5
5FB
  8
0
 10
19.88981059149394
 20
5.92
 30
101.0694983594679
 70
   192
  0
VERTEX
  5
5FC
  8
0
 10
17.28319629137017
 20
23.67999999999999
 30
101.5477187826195
 70
   192
  0
VERTEX
  5
5FD
  8
0
 10
0.0000000000000497
 20
23.67999999999999
 30
103.008
 70
   192
  0
VERTEX
  5
5FE
  8
0
 10
0.0000000000000126
 20
5.919999999999987
 30
103.008
 70
   192
  0
VERTEX
  5
5FF
  8
0
 10
29.59999999999999
 20
5.92
 30
98.66350928281436
 70
   192
  0
VERTEX
  5
600
  8
0
 10
34.07636604265434
 20
23.67999999999999
 30
97.20827815225942
 70
   192
  0
VERTEX
  5
601
  8
0
 10
49.90337632499093
 20
23.67999999999999
 30
90.11271328378884
 70
   192
  0
VERTEX
  5
602
  8
0
 10
52.47758557328418
 20
24.47754647054869
 30
88.63831737596139
 70
   192
  0
VERTEX
  5
603
  8
0
 10
93.59870512216487
 20
0.0
 30
-43.01081798168942
 70
   192
  0
VERTEX
  5
604
  8
0
 10
89.20754479302745
 20
245.088
 30
-51.50399999999996
 70
   192
  0
VERTEX
  5
605
  8
0
 10
29.59999999999999
 20
0.0
 30
98.66350928281436
 70
   192
  0
VERTEX
  5
606
  8
0
 10
54.32232987208309
 20
26.63543343257203
 30
87.51989812535336
 70
   192
  0
VERTEX
  5
607
  8
0
 10
54.9970260277274
 20
29.59999999999999
 30
87.09750393728557
 70
   192
  0
VERTEX
  5
608
  8
0
 10
54.99702602772741
 20
68.672
 30
87.09750393728554
 70
   192
  0
VERTEX
  5
609
  8
0
 10
54.32104571713696
 20
71.63862310692946
 30
87.5206973482119
 70
   192
  0
VERTEX
  5
60A
  8
0
 10
52.47578439101518
 20
73.79600252105594
 30
88.63938250115464
 70
   192
  0
VERTEX
  5
60B
  8
0
 10
0.0
 20
0.0
 30
0.0
 70
   128
 71
     1
 72
     2
 73
     3
  0
VERTEX
  5
60C
  8
0
 10
0.0
 20
0.0
 30
0.0
 70
   128
 71
     1
 72
     3
 73
     4
  0
VERTEX
  5
60D
  8
0
 10
0.0
 20
0.0
 30
0.0
 70
   128
 71
     5
 72
     6
 73
     7
  0
VERTEX
  5
60E
  8
0
 10
0.0
 20
0.0
 30
0.0
 70
   128
 71
     5
 72
     7
 73
     8
  0
VERTEX
  5
60F
  8
0
 10
0.0
 20
0.0
 30
0.0
 70
   128
 71
     9
 72
    10
 73
    11
  0
VERTEX
  5
610
  8
0
 10
0.0
 20
0.0
 30
0.0
 70
   128
 71
    11
 72
    12
 73
    13
  0
VERTEX
  5
611
  8
0
 10
0.0
 20
0.0
 30
0.0
 70
   128
 71
    11
 72
    13
 73
     9
  0
VERTEX
  5
612
  8
0
 10
0.0
 20
0.0
 30
0.0
 70
   128
 71
    12
 72
    14
 73
    13
  0
VERTEX
  5
613
  8
0
 10
0.0
 20
0.0
 30
0.0
 70
   128
 71
    15
 72
    16
 73
    17
  0
VERTEX
  5
614
  8
0
 10
0.0
 20
0.0
 30
0.0
 70
   128
 71
    17
 72
    18
 73
    19
  0
VERTEX
  5
615
  8
0
 10
0.0
 20
0.0
 30
0.0
 70
   128
 71
    17
 72
    19
 73
    15
  0
VERTEX
  5
616
  8
0
 10
0.0
 20
0.0
 30
0.0
 70
   128
 71
    16
 72
    20
 73
    21
  0
VERTEX
  5
617
  8
0
 10
0.0
 20
0.0
 30
0.0
 70
   128
 71
    16
 72
    21
 73
    17
  0
VERTEX
  5
618
  8
0
 10
0.0
 20
0.0
 30
0.0
 70
   128
 71
    20
 72
    22
 73
    21
  0
VERTEX
  5
619
  8
0
 10
0.0
 20
0.0
 30
0.0
 70
   128
 71
    20
 72
    23
 73
    22
  0
VERTEX
  5
61A
  8
0
 10
0.0
 20
0.0
 30
0.0
 70
   128
 71
    24
 72
    25
 73
     7
  0
VERTEX
  5
61B
  8
0
 10
0.0
 20
0.0
 30
0.0
 70
   128
 71
    24
 72
     7
 73
     6
  0
VERTEX
  5
61C
  8
0
 10
0.0
 20
0.0
 30
0.0
 70
   128
 71
     1
 72
     4
 73
    25
  0
VERTEX
  5
61D
  8
0
 10
0.0
 20
0.0
 30
0.0
 70
   128
 71
     1
 72
    25
 73
    24
  0
VERTEX
  5
61E
  8
0
 10
0.0
 20
0.0
 30
0.0
 70
   128
 71
    23
 72
    20
 73
    26
  0
VERTEX
  5
61F
  8
0
 10
0.0
 20
0.0
 30
0.0
 70
   128
 71
    23
 72
    26
 73
     5
  0
VERTEX
  5
620
  8
0
 10
0.0
 20
0.0
 30
0.0
 70
   128
 71
     5
 72
    27
 73
    23
  0
VERTEX
  5
621
  8
0
 10
0.0
 20
0.0
 30
0.0
 70
   128
 71
     5
 72
    28
 73
    27
  0
VERTEX
  5
622
  8
0
 10
0.0
 20
0.0
 30
0.0
 70
   128
 71
     5
 72
    29
 73
    28
  0
VERTEX
  5
623
  8
0
 10
0.0
 20
0.0
 30
0.0
 70
   128
 71
    30
 72
    29
 73
     5
  0
VERTEX
  5
624
  8
0
 10
0.0
 20
0.0
 30
0.0
 70
   128
 71
    30
 72
     5
 73
     8
  0
VERTEX
  5
625
  8
0
 10
0.0
 20
0.0
 30
0.0
 70
   128
 71
     8
 72
    31
 73
    30
  0
VERTEX
  5
626
  8
0
 10
0.0
 20
0.0
 30
0.0
 70
   128
 71
     8
 72
    11
 73
    10
  0
VERTEX
  5
627
  8
0
 10
0.0
 20
0.0
 30
0.0
 70
   128
 71
     8
 72
    10
 73
    31
  0
SEQEND
  5
8BF
  8
0
  0
POLYLINE
  5
628
  8
0
 66
     1
 10
0.0
 20
0.0
 30
0.0
 70
    64
 71
    31
 72
    29
  0
VERTEX
  5
629
  8
0
 10
-17.28319629137017
 20
74.59199999999998
 30
101.5477187826195
 70
   192
  0
VERTEX
  5
62A
  8
0
 10
0.0000000000000497
 20
74.59199999999998
 30
103.008
 70
   192
  0
VERTEX
  5
62B
  8
0
 10
0.0000000000000126
 20
245.088
 30
103.008
 70
   192
  0
VERTEX
  5
62C
  8
0
 10
-51.50400000000004
 20
245.088
 30
89.2075447930274
 70
   192
  0
VERTEX
  5
62D
  8
0
 10
-34.07636604265431
 20
74.59199999999998
 30
97.20827815225942
 70
   192
  0
VERTEX
  5
62E
  8
0
 10
-9.992026245660208
 20
5.92
 30
102.5222291774132
 70
   192
  0
VERTEX
  5
62F
  8
0
 10
-0.0000000000000252
 20
5.92
 30
103.008
 70
   192
  0
VERTEX
  5
630
  8
0
 10
0.0000000000000126
 20
23.67999999999998
 30
103.008
 70
   192
  0
VERTEX
  5
631
  8
0
 10
-17.28319629137017
 20
23.67999999999999
 30
101.5477187826195
 70
   192
  0
VERTEX
  5
632
  8
0
 10
-19.889810591494
 20
5.92
 30
101.0694983594679
 70
   192
  0
VERTEX
  5
633
  8
0
 10
-34.07636604265431
 20
23.67999999999999
 30
97.20827815225942
 70
   192
  0
VERTEX
  5
634
  8
0
 10
-29.59999999999999
 20
5.920000000000005
 30
98.66350928281436
 70
   192
  0
VERTEX
  5
635
  8
0
 10
-49.90337632499104
 20
74.59199999999998
 30
90.11271328378876
 70
   192
  0
VERTEX
  5
636
  8
0
 10
-52.47758557351912
 20
73.79445352925055
 30
88.63831737582233
 70
   192
  0
VERTEX
  5
637
  8
0
 10
-54.32232987212733
 20
71.63656656730306
 30
87.51989812532588
 70
   192
  0
VERTEX
  5
638
  8
0
 10
-54.99702602772733
 20
68.672
 30
87.0975039372856
 70
   192
  0
VERTEX
  5
639
  8
0
 10
-89.20754479302745
 20
245.088
 30
51.50399999999994
 70
   192
  0
VERTEX
  5
63A
  8
0
 10
-103.008
 20
245.088
 30
-0.00000000000004
 70
   192
  0
VERTEX
  5
63B
  8
0
 10
-102.01049359213
 20
0.0
 30
14.30060352187958
 70
   192
  0
VERTEX
  5
63C
  8
0
 10
-78.16396531009742
 20
0.0
 30
67.08980988944504
 70
   192
  0
VERTEX
  5
63D
  8
0
 10
-93.59870512216487
 20
0.0
 30
-43.01081798168945
 70
   192
  0
VERTEX
  5
63E
  8
0
 10
-89.20754479302742
 20
245.088
 30
-51.50400000000002
 70
   192
  0
VERTEX
  5
63F
  8
0
 10
-51.50399999999997
 20
245.088
 30
-89.20754479302745
 70
   192
  0
VERTEX
  5
640
  8
0
 10
0.0000000000000126
 20
245.088
 30
-103.008
 70
   192
  0
VERTEX
  5
641
  8
0
 10
0.0
 20
0.0
 30
-103.008
 70
   192
  0
VERTEX
  5
642
  8
0
 10
-55.58862170148728
 20
0.0
 30
-86.72112315537046
 70
   192
  0
VERTEX
  5
643
  8
0
 10
-54.32104571702239
 20
26.63337689286339
 30
87.52069734828301
 70
   192
  0
VERTEX
  5
644
  8
0
 10
-54.99702602772733
 20
29.59999999999999
 30
87.0975039372856
 70
   192
  0
VERTEX
  5
645
  8
0
 10
-52.4757843908166
 20
24.4759974787861
 30
88.6393825012722
 70
   192
  0
VERTEX
  5
646
  8
0
 10
-49.90337632499104
 20
23.67999999999999
 30
90.11271328378878
 70
   192
  0
VERTEX
  5
647
  8
0
 10
-29.60000000000002
 20
0.0
 30
98.66350928281432
 70
   192
  0
VERTEX
  5
648
  8
0
 10
0.0
 20
0.0
 30
0.0
 70
   128
 71
     1
 72
     2
 73
     3
  0
VERTEX
  5
649
  8
0
 10
0.0
 20
0.0
 30
0.0
 70
   128
 71
     3
 72
     4
 73
     5
  0
VERTEX
  5
64A
  8
0
 10
0.0
 20
0.0
 30
0.0
 70
   128
 71
     3
 72
     5
 73
     1
  0
VERTEX
  5
64B
  8
0
 10
0.0
 20
0.0
 30
0.0
 70
   128
 71
     6
 72
     7
 73
     8
  0
VERTEX
  5
64C
  8
0
 10
0.0
 20
0.0
 30
0.0
 70
   128
 71
     6
 72
     8
 73
     9
  0
VERTEX
  5
64D
  8
0
 10
0.0
 20
0.0
 30
0.0
 70
   128
 71
     9
 72
    10
 73
     6
  0
VERTEX
  5
64E
  8
0
 10
0.0
 20
0.0
 30
0.0
 70
   128
 71
     9
 72
    11
 73
    12
  0
VERTEX
  5
64F
  8
0
 10
0.0
 20
0.0
 30
0.0
 70
   128
 71
     9
 72
    12
 73
    10
  0
VERTEX
  5
650
  8
0
 10
0.0
 20
0.0
 30
0.0
 70
   128
 71
    13
 72
     5
 73
     4
  0
VERTEX
  5
651
  8
0
 10
0.0
 20
0.0
 30
0.0
 70
   128
 71
     4
 72
    14
 73
    13
  0
VERTEX
  5
652
  8
0
 10
0.0
 20
0.0
 30
0.0
 70
   128
 71
     4
 72
    15
 73
    14
  0
VERTEX
  5
653
  8
0
 10
0.0
 20
0.0
 30
0.0
 70
   128
 71
     4
 72
    16
 73
    15
  0
VERTEX
  5
654
  8
0
 10
0.0
 20
0.0
 30
0.0
 70
   128
 71
    17
 72
    18
 73
    19
  0
VERTEX
  5
655
  8
0
 10
0.0
 20
0.0
 30
0.0
 70
   128
 71
    17
 72
    19
 73
    20
  0
VERTEX
  5
656
  8
0
 10
0.0
 20
0.0
 30
0.0
 70
   128
 71
    21
 72
    18
 73
    22
  0
VERTEX
  5
657
  8
0
 10
0.0
 20
0.0
 30
0.0
 70
   128
 71
    23
 72
    24
 73
    25
  0
VERTEX
  5
658
  8
0
 10
0.0
 20
0.0
 30
0.0
 70
   128
 71
    23
 72
    25
 73
    26
  0
VERTEX
  5
659
  8
0
 10
0.0
 20
0.0
 30
0.0
 70
   128
 71
    19
 72
    18
 73
    21
  0
VERTEX
  5
65A
  8
0
 10
0.0
 20
0.0
 30
0.0
 70
   128
 71
    20
 72
    27
 73
    28
  0
VERTEX
  5
65B
  8
0
 10
0.0
 20
0.0
 30
0.0
 70
   128
 71
    20
 72
    29
 73
    27
  0
VERTEX
  5
65C
  8
0
 10
0.0
 20
0.0
 30
0.0
 70
   128
 71
    20
 72
    30
 73
    29
  0
VERTEX
  5
65D
  8
0
 10
0.0
 20
0.0
 30
0.0
 70
   128
 71
    20
 72
    31
 73
    12
  0
VERTEX
  5
65E
  8
0
 10
0.0
 20
0.0
 30
0.0
 70
   128
 71
    20
 72
    12
 73
    11
  0
VERTEX
  5
65F
  8
0
 10
0.0
 20
0.0
 30
0.0
 70
   128
 71
    20
 72
    11
 73
    30
  0
VERTEX
  5
660
  8
0
 10
0.0
 20
0.0
 30
0.0
 70
   128
 71
    16
 72
     4
 73
    17
  0
VERTEX
  5
661
  8
0
 10
0.0
 20
0.0
 30
0.0
 70
   128
 71
    16
 72
    17
 73
    20
  0
VERTEX
  5
662
  8
0
 10
0.0
 20
0.0
 30
0.0
 70
   128
 71
    20
 72
    28
 73
    16
  0
VERTEX
  5
663
  8
0
 10
0.0
 20
0.0
 30
0.0
 70
   128
 71
    21
 72
    22
 73
    23
  0
VERTEX
  5
664
  8
0
 10
0.0
 20
0.0
 30
0.0
 70
   128
 71
    21
 72
    23
 73
    26
  0
SEQEND
  5
8C0
  8
0
  0
POLYLINE
  5
665
  8
0
 66
     1
 10
0.0
 20
0.0
 30
0.0
 70
    64
 71
    12
 72
    10
  0
VERTEX
  5
666
  8
0
 10
0.0000000000000126
 20
245.088
 30
-103.008
 70
   192
  0
VERTEX
  5
667
  8
0
 10
-51.50399999999997
 20
245.088
 30
-89.20754479302745
 70
   192
  0
VERTEX
  5
668
  8
0
 10
-89.20754479302742
 20
245.088
 30
-51.50400000000002
 70
   192
  0
VERTEX
  5
669
  8
0
 10
-103.008
 20
245.088
 30
-0.00000000000004
 70
   192
  0
VERTEX
  5
66A
  8
0
 10
-89.20754479302745
 20
245.088
 30
51.50399999999994
 70
   192
  0
VERTEX
  5
66B
  8
0
 10
-51.50400000000004
 20
245.088
 30
89.2075447930274
 70
   192
  0
VERTEX
  5
66C
  8
0
 10
-0.0000000000000743
 20
245.088
 30
103.008
 70
   192
  0
VERTEX
  5
66D
  8
0
 10
51.50399999999998
 20
245.088
 30
89.20754479302744
 70
   192
  0
VERTEX
  5
66E
  8
0
 10
89.20754479302742
 20
245.088
 30
51.504
 70
   192
  0
VERTEX
  5
66F
  8
0
 10
103.008
 20
245.088
 30
0.0000000000000286
 70
   192
  0
VERTEX
  5
670
  8
0
 10
89.20754479302745
 20
245.088
 30
-51.50399999999996
 70
   192
  0
VERTEX
  5
671
  8
0
 10
51.50400000000003
 20
245.088
 30
-89.20754479302741
 70
   192
  0
VERTEX
  5
672
  8
0
 10
0.0
 20
0.0
 30
0.0
 70
   128
 71
    11
 72
    12
 73
    -1
  0
VERTEX
  5
673
  8
0
 10
0.0
 20
0.0
 30
0.0
 70
   128
 71
    10
 72
   -11
 73
    -1
  0
VERTEX
  5
674
  8
0
 10
0.0
 20
0.0
 30
0.0
 70
   128
 71
     9
 72
   -10
 73
    -1
  0
VERTEX
  5
675
  8
0
 10
0.0
 20
0.0
 30
0.0
 70
   128
 71
     8
 72
    -9
 73
    -1
  0
VERTEX
  5
676
  8
0
 10
0.0
 20
0.0
 30
0.0
 70
   128
 71
     7
 72
    -8
 73
    -1
  0
VERTEX
  5
677
  8
0
 10
0.0
 20
0.0
 30
0.0
 70
   128
 71
     6
 72
    -7
 73
    -1
  0
VERTEX
  5
678
  8
0
 10
0.0
 20
0.0
 30
0.0
 70
   128
 71
     5
 72
    -6
 73
    -1
  0
VERTEX
  5
679
  8
0
 10
0.0
 20
0.0
 30
0.0
 70
   128
 71
     4
 72
    -5
 73
    -1
  0
VERTEX
  5
67A
  8
0
 10
0.0
 20
0.0
 30
0.0
 70
   128
 71
     3
 72
    -4
 73
    -1
  0
VERTEX
  5
67B
  8
0
 10
0.0
 20
0.0
 30
0.0
 70
   128
 71
     2
 72
    -3
 73
     1
  0
SEQEND
  5
8C1
  8
0
  0
POLYLINE
  5
67C
  8
0
 66
     1
 10
0.0
 20
0.0
 30
0.0
 70
    64
 71
    15
 72
    13
  0
VERTEX
  5
67D
  8
0
 10
0.0000000000000126
 20
0.0
 30
-103.008
 70
   192
  0
VERTEX
  5
67E
  8
0
 10
-55.58862170148728
 20
0.0
 30
-86.72112315537046
 70
   192
  0
VERTEX
  5
67F
  8
0
 10
-93.59870512216487
 20
0.0
 30
-43.01081798168945
 70
   192
  0
VERTEX
  5
680
  8
0
 10
-102.01049359213
 20
0.0
 30
14.30060352187958
 70
   192
  0
VERTEX
  5
681
  8
0
 10
-78.16396531009742
 20
0.0
 30
67.08980988944504
 70
   192
  0
VERTEX
  5
682
  8
0
 10
-29.6
 20
0.0
 30
98.66350928281436
 70
   192
  0
VERTEX
  5
683
  8
0
 10
-23.67999999999996
 20
0.0
 30
123.9292177725093
 70
   192
  0
VERTEX
  5
684
  8
0
 10
-7.956630518941544
 20
0.0
 30
126.3802438886347
 70
   192
  0
VERTEX
  5
685
  8
0
 10
7.95663051894154
 20
0.0
 30
126.3802438886347
 70
   192
  0
VERTEX
  5
686
  8
0
 10
23.68
 20
0.0
 30
123.9292177725093
 70
   192
  0
VERTEX
  5
687
  8
0
 10
29.59999999999999
 20
0.0
 30
98.66350928281435
 70
   192
  0
VERTEX
  5
688
  8
0
 10
78.16396531009741
 20
0.0
 30
67.08980988944505
 70
   192
  0
VERTEX
  5
689
  8
0
 10
102.01049359213
 20
0.0
 30
14.30060352187961
 70
   192
  0
VERTEX
  5
68A
  8
0
 10
93.59870512216487
 20
0.0
 30
-43.01081798168942
 70
   192
  0
VERTEX
  5
68B
  8
0
 10
55.58862170148729
 20
0.0
 30
-86.72112315537042
 70
   192
  0
VERTEX
  5
68C
  8
0
 10
0.0
 20
0.0
 30
0.0
 70
   128
 71
    11
 72
    10
 73
    -9
  0
VERTEX
  5
68D
  8
0
 10
0.0
 20
0.0
 30
0.0
 70
   128
 71
   -11
 72
     9
 73
    -8
  0
VERTEX
  5
68E
  8
0
 10
0.0
 20
0.0
 30
0.0
 70
   128
 71
   -11
 72
     8
 73
    -7
  0
VERTEX
  5
68F
  8
0
 10
0.0
 20
0.0
 30
0.0
 70
   128
 71
     6
 72
     5
 73
    -4
  0
VERTEX
  5
690
  8
0
 10
0.0
 20
0.0
 30
0.0
 70
   128
 71
    -6
 72
     4
 73
    -3
  0
VERTEX
  5
691
  8
0
 10
0.0
 20
0.0
 30
0.0
 70
   128
 71
    -6
 72
     3
 73
    -2
  0
VERTEX
  5
692
  8
0
 10
0.0
 20
0.0
 30
0.0
 70
   128
 71
    -6
 72
     2
 73
    -1
  0
VERTEX
  5
693
  8
0
 10
0.0
 20
0.0
 30
0.0
 70
   128
 71
    -6
 72
     1
 73
   -15
  0
VERTEX
  5
694
  8
0
 10
0.0
 20
0.0
 30
0.0
 70
   128
 71
    -6
 72
    15
 73
   -14
  0
VERTEX
  5
695
  8
0
 10
0.0
 20
0.0
 30
0.0
 70
   128
 71
    -6
 72
    14
 73
   -13
  0
VERTEX
  5
696
  8
0
 10
0.0
 20
0.0
 30
0.0
 70
   128
 71
    -6
 72
    13
 73
   -12
  0
VERTEX
  5
697
  8
0
 10
0.0
 20
0.0
 30
0.0
 70
   128
 71
    -6
 72
    12
 73
   -11
  0
VERTEX
  5
698
  8
0
 10
0.0
 20
0.0
 30
0.0
 70
   128
 71
   -11
 72
     7
 73
    -6
  0
SEQEND
  5
8C2
  8
0
  0
POLYLINE
  5
699
  8
0
 66
     1
 10
0.0
 20
0.0
 30
0.0
 70
    64
 71
     4
 72
     2
  0
VERTEX
  5
69A
  8
0
 10
-29.6
 20
0.0
 30
98.66350928281436
 70
   192
  0
VERTEX
  5
69B
  8
0
 10
-23.68
 20
0.0
 30
123.9292177725093
 70
   192
  0
VERTEX
  5
69C
  8
0
 10
-23.68
 20
5.92
 30
123.9292177725093
 70
   192
  0
VERTEX
  5
69D
  8
0
 10
-29.6
 20
5.92
 30
98.66350928281436
 70
   192
  0
VERTEX
  5
69E
  8
0
 10
0.0
 20
0.0
 30
0.0
 70
   128
 71
     3
 72
     4
 73
    -1
  0
VERTEX
  5
69F
  8
0
 10
0.0
 20
0.0
 30
0.0
 70
   128
 71
     2
 72
    -3
 73
     1
  0
SEQEND
  5
8C3
  8
0
  0
POLYLINE
  5
6A0
  8
0
 66
     1
 10
0.0
 20
0.0
 30
0.0
 70
    64
 71
     8
 72
     6
  0
VERTEX
  5
6A1
  8
0
 10
7.95663051894154
 20
0.0
 30
126.3802438886347
 70
   192
  0
VERTEX
  5
6A2
  8
0
 10
7.95663051894154
 20
5.92
 30
126.3802438886347
 70
   192
  0
VERTEX
  5
6A3
  8
0
 10
-7.956630518941544
 20
5.92
 30
126.3802438886347
 70
   192
  0
VERTEX
  5
6A4
  8
0
 10
-7.956630518941544
 20
0.0
 30
126.3802438886347
 70
   192
  0
VERTEX
  5
6A5
  8
0
 10
23.67999999999996
 20
0.0
 30
123.9292177725093
 70
   192
  0
VERTEX
  5
6A6
  8
0
 10
23.68
 20
5.92
 30
123.9292177725093
 70
   192
  0
VERTEX
  5
6A7
  8
0
 10
-23.67999999999996
 20
5.92
 30
123.9292177725093
 70
   192
  0
VERTEX
  5
6A8
  8
0
 10
-23.68
 20
0.0
 30
123.9292177725093
 70
   192
  0
VERTEX
  5
6A9
  8
0
 10
0.0
 20
0.0
 30
0.0
 70
   128
 71
     1
 72
     2
 73
    -3
  0
VERTEX
  5
6AA
  8
0
 10
0.0
 20
0.0
 30
0.0
 70
   128
 71
    -1
 72
     3
 73
     4
  0
VERTEX
  5
6AB
  8
0
 10
0.0
 20
0.0
 30
0.0
 70
   128
 71
     5
 72
     6
 73
    -2
  0
VERTEX
  5
6AC
  8
0
 10
0.0
 20
0.0
 30
0.0
 70
   128
 71
    -5
 72
     2
 73
     1
  0
VERTEX
  5
6AD
  8
0
 10
0.0
 20
0.0
 30
0.0
 70
   128
 71
     4
 72
     3
 73
    -7
  0
VERTEX
  5
6AE
  8
0
 10
0.0
 20
0.0
 30
0.0
 70
   128
 71
    -4
 72
     7
 73
     8
  0
SEQEND
  5
8C4
  8
0
  0
POLYLINE
  5
6AF
  8
0
 66
     1
 10
0.0
 20
0.0
 30
0.0
 70
    64
 71
     4
 72
     2
  0
VERTEX
  5
6B0
  8
0
 10
23.68
 20
0.0
 30
123.9292177725093
 70
   192
  0
VERTEX
  5
6B1
  8
0
 10
23.68
 20
5.92
 30
123.9292177725093
 70
   192
  0
VERTEX
  5
6B2
  8
0
 10
29.59999999999999
 20
5.920000000000005
 30
98.66350928281436
 70
   192
  0
VERTEX
  5
6B3
  8
0
 10
29.6
 20
0.0
 30
98.66350928281436
 70
   192
  0
VERTEX
  5
6B4
  8
0
 10
0.0
 20
0.0
 30
0.0
 70
   128
 71
     1
 72
     4
 73
    -3
  0
VERTEX
  5
6B5
  8
0
 10
0.0
 20
0.0
 30
0.0
 70
   128
 71
    -1
 72
     3
 73
     2
  0
SEQEND
  5
8C5
  8
0
  0
POLYLINE
  5
6B6
  8
0
 66
     1
 10
0.0
 20
0.0
 30
0.0
 70
    64
 71
    11
 72
     9
  0
VERTEX
  5
6B7
  8
0
 10
-29.6
 20
5.92
 30
98.66350928281436
 70
   192
  0
VERTEX
  5
6B8
  8
0
 10
-23.68
 20
5.92
 30
123.9292177725093
 70
   192
  0
VERTEX
  5
6B9
  8
0
 10
-7.956630518941544
 20
5.92
 30
126.3802438886347
 70
   192
  0
VERTEX
  5
6BA
  8
0
 10
7.95663051894154
 20
5.92
 30
126.3802438886347
 70
   192
  0
VERTEX
  5
6BB
  8
0
 10
23.67999999999996
 20
5.92
 30
123.9292177725093
 70
   192
  0
VERTEX
  5
6BC
  8
0
 10
29.6
 20
5.92
 30
98.66350928281436
 70
   192
  0
VERTEX
  5
6BD
  8
0
 10
19.88981059149394
 20
5.92
 30
101.0694983594679
 70
   192
  0
VERTEX
  5
6BE
  8
0
 10
9.992026245660213
 20
5.92
 30
102.5222291774132
 70
   192
  0
VERTEX
  5
6BF
  8
0
 10
0.0
 20
5.92
 30
103.008
 70
   192
  0
VERTEX
  5
6C0
  8
0
 10
-9.992026245660208
 20
5.92
 30
102.5222291774132
 70
   192
  0
VERTEX
  5
6C1
  8
0
 10
-19.889810591494
 20
5.92
 30
101.0694983594679
 70
   192
  0
VERTEX
  5
6C2
  8
0
 10
0.0
 20
0.0
 30
0.0
 70
   128
 71
     5
 72
     6
 73
    -7
  0
VERTEX
  5
6C3
  8
0
 10
0.0
 20
0.0
 30
0.0
 70
   128
 71
    -8
 72
     4
 73
    -5
  0
VERTEX
  5
6C4
  8
0
 10
0.0
 20
0.0
 30
0.0
 70
   128
 71
     7
 72
    -8
 73
    -5
  0
VERTEX
  5
6C5
  8
0
 10
0.0
 20
0.0
 30
0.0
 70
   128
 71
    -9
 72
     3
 73
    -4
  0
VERTEX
  5
6C6
  8
0
 10
0.0
 20
0.0
 30
0.0
 70
   128
 71
     8
 72
    -9
 73
    -4
  0
VERTEX
  5
6C7
  8
0
 10
0.0
 20
0.0
 30
0.0
 70
   128
 71
     9
 72
   -10
 73
    -3
  0
VERTEX
  5
6C8
  8
0
 10
0.0
 20
0.0
 30
0.0
 70
   128
 71
   -11
 72
     2
 73
    -3
  0
VERTEX
  5
6C9
  8
0
 10
0.0
 20
0.0
 30
0.0
 70
   128
 71
    10
 72
   -11
 73
    -3
  0
VERTEX
  5
6CA
  8
0
 10
0.0
 20
0.0
 30
0.0
 70
   128
 71
    11
 72
     1
 73
    -2
  0
SEQEND
  5
8C6
  8
0
  0
POLYLINE
  5
6CB
  8
0
 66
     1
 10
0.0
 20
0.0
 30
0.0
 70
    64
 71
     8
 72
     6
  0
VERTEX
  5
6CC
  8
0
 10
50.47697835171497
 20
23.67999999999999
 30
91.14849159739562
 70
   192
  0
VERTEX
  5
6CD
  8
0
 10
49.90337632499093
 20
23.67999999999999
 30
90.11271328378884
 70
   192
  0
VERTEX
  5
6CE
  8
0
 10
52.47758557328418
 20
24.47754647054869
 30
88.63831737596139
 70
   192
  0
VERTEX
  5
6CF
  8
0
 10
54.32232987208309
 20
26.63543343257203
 30
87.51989812535336
 70
   192
  0
VERTEX
  5
6D0
  8
0
 10
54.9970260277274
 20
29.59999999999999
 30
87.09750393728557
 70
   192
  0
VERTEX
  5
6D1
  8
0
 10
55.62917575218405
 20
29.59999999999999
 30
88.09862467219686
 70
   192
  0
VERTEX
  5
6D2
  8
0
 10
54.94672445447696
 20
26.63543343257208
 30
88.52587394152079
 70
   192
  0
VERTEX
  5
6D3
  8
0
 10
53.08077621205776
 20
24.47754647054881
 30
89.65714861016771
 70
   192
  0
VERTEX
  5
6D4
  8
0
 10
0.0
 20
0.0
 30
0.0
 70
   128
 71
     5
 72
     6
 73
     7
  0
VERTEX
  5
6D5
  8
0
 10
0.0
 20
0.0
 30
0.0
 70
   128
 71
     4
 72
     5
 73
     7
  0
VERTEX
  5
6D6
  8
0
 10
0.0
 20
0.0
 30
0.0
 70
   128
 71
     8
 72
     3
 73
     4
  0
VERTEX
  5
6D7
  8
0
 10
0.0
 20
0.0
 30
0.0
 70
   128
 71
     7
 72
     8
 73
     4
  0
VERTEX
  5
6D8
  8
0
 10
0.0
 20
0.0
 30
0.0
 70
   128
 71
     1
 72
     2
 73
     3
  0
VERTEX
  5
6D9
  8
0
 10
0.0
 20
0.0
 30
0.0
 70
   128
 71
     8
 72
     1
 73
     3
  0
SEQEND
  5
8C7
  8
0
  0
POLYLINE
  5
6DA
  8
0
 66
     1
 10
0.0
 20
0.0
 30
0.0
 70
    64
 71
     4
 72
     2
  0
VERTEX
  5
6DB
  8
0
 10
55.62917575218405
 20
29.59999999999999
 30
88.09862467219686
 70
   192
  0
VERTEX
  5
6DC
  8
0
 10
54.9970260277274
 20
29.59999999999999
 30
87.09750393728557
 70
   192
  0
VERTEX
  5
6DD
  8
0
 10
54.9970260277274
 20
68.672
 30
87.09750393728557
 70
   192
  0
VERTEX
  5
6DE
  8
0
 10
55.62917575218405
 20
68.672
 30
88.09862467219686
 70
   192
  0
VERTEX
  5
6DF
  8
0
 10
0.0
 20
0.0
 30
0.0
 70
   128
 71
     3
 72
     4
 73
    -1
  0
VERTEX
  5
6E0
  8
0
 10
0.0
 20
0.0
 30
0.0
 70
   128
 71
     2
 72
    -3
 73
     1
  0
SEQEND
  5
8C8
  8
0
  0
POLYLINE
  5
6E1
  8
0
 66
     1
 10
0.0
 20
0.0
 30
0.0
 70
    64
 71
     8
 72
     6
  0
VERTEX
  5
6E2
  8
0
 10
55.62917575218405
 20
68.672
 30
88.09862467219686
 70
   192
  0
VERTEX
  5
6E3
  8
0
 10
54.99702602772741
 20
68.672
 30
87.09750393728554
 70
   192
  0
VERTEX
  5
6E4
  8
0
 10
54.32104571713696
 20
71.63862310692946
 30
87.5206973482119
 70
   192
  0
VERTEX
  5
6E5
  8
0
 10
52.47578439101518
 20
73.79600252105594
 30
88.63938250115464
 70
   192
  0
VERTEX
  5
6E6
  8
0
 10
49.90337632499099
 20
74.59199999999998
 30
90.1127132837888
 70
   192
  0
VERTEX
  5
6E7
  8
0
 10
50.47697835171497
 20
74.59200000000003
 30
91.14849159739559
 70
   192
  0
VERTEX
  5
6E8
  8
0
 10
53.07895432097447
 20
73.7960025210557
 30
89.65822596479896
 70
   192
  0
VERTEX
  5
6E9
  8
0
 10
54.94542555296638
 20
71.63862310692895
 30
88.52668237520268
 70
   192
  0
VERTEX
  5
6EA
  8
0
 10
0.0
 20
0.0
 30
0.0
 70
   128
 71
     5
 72
     6
 73
     7
  0
VERTEX
  5
6EB
  8
0
 10
0.0
 20
0.0
 30
0.0
 70
   128
 71
     4
 72
     5
 73
     7
  0
VERTEX
  5
6EC
  8
0
 10
0.0
 20
0.0
 30
0.0
 70
   128
 71
     8
 72
     3
 73
     4
  0
VERTEX
  5
6ED
  8
0
 10
0.0
 20
0.0
 30
0.0
 70
   128
 71
     7
 72
     8
 73
     4
  0
VERTEX
  5
6EE
  8
0
 10
0.0
 20
0.0
 30
0.0
 70
   128
 71
     1
 72
     2
 73
     3
  0
VERTEX
  5
6EF
  8
0
 10
0.0
 20
0.0
 30
0.0
 70
   128
 71
     8
 72
     1
 73
     3
  0
SEQEND
  5
8C9
  8
0
  0
POLYLINE
  5
6F0
  8
0
 66
     1
 10
0.0
 20
0.0
 30
0.0
 70
    64
 71
    17
 72
     9
  0
VERTEX
  5
6F1
  8
0
 10
50.47697835171497
 20
74.59200000000003
 30
91.14849159739559
 70
   192
  0
VERTEX
  5
6F2
  8
0
 10
49.90337632499099
 20
74.59199999999998
 30
90.1127132837888
 70
   192
  0
VERTEX
  5
6F3
  8
0
 10
37.25271281295536
 20
74.59199999999998
 30
95.78425844472308
 70
   192
  0
VERTEX
  5
6F4
  8
0
 10
30.70611925876625
 20
74.59199999999998
 30
98.0791670937129
 70
   192
  0
VERTEX
  5
6F5
  8
0
 10
34.07636604265434
 20
74.59199999999998
 30
97.20827815225942
 70
   192
  0
VERTEX
  5
6F6
  8
0
 10
17.28319629137017
 20
74.59199999999998
 30
101.5477187826195
 70
   192
  0
VERTEX
  5
6F7
  8
0
 10
3.468590955667466
 20
74.59199999999998
 30
102.7149339410404
 70
   192
  0
VERTEX
  5
6F8
  8
0
 10
17.48185372000653
 20
74.59199999999998
 30
102.7149339410404
 70
   192
  0
VERTEX
  5
6F9
  8
0
 10
-3.468590955667514
 20
74.59199999999998
 30
102.7149339410404
 70
   192
  0
VERTEX
  5
6FA
  8
0
 10
0.0000000000000497
 20
74.59199999999998
 30
103.008
 70
   192
  0
VERTEX
  5
6FB
  8
0
 10
-17.28319629137017
 20
74.59199999999998
 30
101.5477187826195
 70
   192
  0
VERTEX
  5
6FC
  8
0
 10
-30.70611925876628
 20
74.59199999999998
 30
98.0791670937129
 70
   192
  0
VERTEX
  5
6FD
  8
0
 10
-17.48185372000664
 20
74.59199999999998
 30
102.7149339410404
 70
   192
  0
VERTEX
  5
6FE
  8
0
 10
-37.2527128129553
 20
74.59199999999998
 30
95.7842584447231
 70
   192
  0
VERTEX
  5
6FF
  8
0
 10
-34.07636604265431
 20
74.59199999999998
 30
97.20827815225942
 70
   192
  0
VERTEX
  5
700
  8
0
 10
-49.90337632499104
 20
74.59199999999998
 30
90.11271328378878
 70
   192
  0
VERTEX
  5
701
  8
0
 10
-50.47697835171508
 20
74.59199999999998
 30
91.14849159739555
 70
   192
  0
VERTEX
  5
702
  8
0
 10
0.0
 20
0.0
 30
0.0
 70
   128
 71
     2
 72
     3
 73
     1
  0
VERTEX
  5
703
  8
0
 10
0.0
 20
0.0
 30
0.0
 70
   128
 71
     5
 72
     3
 73
     4
  0
VERTEX
  5
704
  8
0
 10
0.0
 20
0.0
 30
0.0
 70
   128
 71
     8
 72
     4
 73
    -6
  0
VERTEX
  5
705
  8
0
 10
0.0
 20
0.0
 30
0.0
 70
   128
 71
     6
 72
     7
 73
    -8
  0
VERTEX
  5
706
  8
0
 10
0.0
 20
0.0
 30
0.0
 70
   128
 71
    10
 72
     7
 73
     9
  0
VERTEX
  5
707
  8
0
 10
0.0
 20
0.0
 30
0.0
 70
   128
 71
    13
 72
     9
 73
   -11
  0
VERTEX
  5
708
  8
0
 10
0.0
 20
0.0
 30
0.0
 70
   128
 71
    11
 72
    12
 73
   -13
  0
VERTEX
  5
709
  8
0
 10
0.0
 20
0.0
 30
0.0
 70
   128
 71
    15
 72
    12
 73
    14
  0
VERTEX
  5
70A
  8
0
 10
0.0
 20
0.0
 30
0.0
 70
   128
 71
    16
 72
    17
 73
    14
  0
SEQEND
  5
8CA
  8
0
  0
POLYLINE
  5
70B
  8
0
 66
     1
 10
0.0
 20
0.0
 30
0.0
 70
    64
 71
     8
 72
     6
  0
VERTEX
  5
70C
  8
0
 10
-50.47697835171508
 20
74.59199999999998
 30
91.14849159739555
 70
   192
  0
VERTEX
  5
70D
  8
0
 10
-49.90337632499104
 20
74.59199999999998
 30
90.11271328378876
 70
   192
  0
VERTEX
  5
70E
  8
0
 10
-52.47758557351912
 20
73.79445352925055
 30
88.63831737582233
 70
   192
  0
VERTEX
  5
70F
  8
0
 10
-54.32232987212733
 20
71.63656656730306
 30
87.51989812532588
 70
   192
  0
VERTEX
  5
710
  8
0
 10
-54.99702602772733
 20
68.672
 30
87.0975039372856
 70
   192
  0
VERTEX
  5
711
  8
0
 10
-55.6291757521841
 20
68.672
 30
88.09862467219683
 70
   192
  0
VERTEX
  5
712
  8
0
 10
-54.94672445452214
 20
71.63656656730214
 30
88.52587394149272
 70
   192
  0
VERTEX
  5
713
  8
0
 10
-53.08077621229619
 20
73.79445352924992
 30
89.65714861002664
 70
   192
  0
VERTEX
  5
714
  8
0
 10
0.0
 20
0.0
 30
0.0
 70
   128
 71
     5
 72
     6
 73
     7
  0
VERTEX
  5
715
  8
0
 10
0.0
 20
0.0
 30
0.0
 70
   128
 71
     4
 72
     5
 73
     7
  0
VERTEX
  5
716
  8
0
 10
0.0
 20
0.0
 30
0.0
 70
   128
 71
     8
 72
     3
 73
     4
  0
VERTEX
  5
717
  8
0
 10
0.0
 20
0.0
 30
0.0
 70
   128
 71
     7
 72
     8
 73
     4
  0
VERTEX
  5
718
  8
0
 10
0.0
 20
0.0
 30
0.0
 70
   128
 71
     1
 72
     2
 73
     3
  0
VERTEX
  5
719
  8
0
 10
0.0
 20
0.0
 30
0.0
 70
   128
 71
     8
 72
     1
 73
     3
  0
SEQEND
  5
8CB
  8
0
  0
POLYLINE
  5
71A
  8
0
 66
     1
 10
0.0
 20
0.0
 30
0.0
 70
    64
 71
     4
 72
     2
  0
VERTEX
  5
71B
  8
0
 10
-55.6291757521841
 20
68.672
 30
88.09862467219683
 70
   192
  0
VERTEX
  5
71C
  8
0
 10
-54.99702602772733
 20
68.672
 30
87.0975039372856
 70
   192
  0
VERTEX
  5
71D
  8
0
 10
-54.99702602772733
 20
29.59999999999999
 30
87.0975039372856
 70
   192
  0
VERTEX
  5
71E
  8
0
 10
-55.6291757521841
 20
29.59999999999999
 30
88.09862467219683
 70
   192
  0
VERTEX
  5
71F
  8
0
 10
0.0
 20
0.0
 30
0.0
 70
   128
 71
     3
 72
     4
 73
    -1
  0
VERTEX
  5
720
  8
0
 10
0.0
 20
0.0
 30
0.0
 70
   128
 71
     2
 72
    -3
 73
     1
  0
SEQEND
  5
8CC
  8
0
  0
POLYLINE
  5
721
  8
0
 66
     1
 10
0.0
 20
0.0
 30
0.0
 70
    64
 71
     8
 72
     6
  0
VERTEX
  5
722
  8
0
 10
-55.6291757521841
 20
29.59999999999999
 30
88.09862467219683
 70
   192
  0
VERTEX
  5
723
  8
0
 10
-54.99702602772733
 20
29.59999999999999
 30
87.0975039372856
 70
   192
  0
VERTEX
  5
724
  8
0
 10
-54.32104571702239
 20
26.63337689286339
 30
87.52069734828301
 70
   192
  0
VERTEX
  5
725
  8
0
 10
-52.4757843908166
 20
24.4759974787861
 30
88.6393825012722
 70
   192
  0
VERTEX
  5
726
  8
0
 10
-49.90337632499105
 20
23.67999999999999
 30
90.11271328378876
 70
   192
  0
VERTEX
  5
727
  8
0
 10
-50.47697835171508
 20
23.67999999999999
 30
91.14849159739555
 70
   192
  0
VERTEX
  5
728
  8
0
 10
-53.07895432077224
 20
24.47599747878542
 30
89.6582259649187
 70
   192
  0
VERTEX
  5
729
  8
0
 10
-54.94542555284997
 20
26.63337689286283
 30
88.52668237527496
 70
   192
  0
VERTEX
  5
72A
  8
0
 10
0.0
 20
0.0
 30
0.0
 70
   128
 71
     5
 72
     6
 73
     7
  0
VERTEX
  5
72B
  8
0
 10
0.0
 20
0.0
 30
0.0
 70
   128
 71
     4
 72
     5
 73
     7
  0
VERTEX
  5
72C
  8
0
 10
0.0
 20
0.0
 30
0.0
 70
   128
 71
     8
 72
     3
 73
     4
  0
VERTEX
  5
72D
  8
0
 10
0.0
 20
0.0
 30
0.0
 70
   128
 71
     7
 72
     8
 73
     4
  0
VERTEX
  5
72E
  8
0
 10
0.0
 20
0.0
 30
0.0
 70
   128
 71
     1
 72
     2
 73
     3
  0
VERTEX
  5
72F
  8
0
 10
0.0
 20
0.0
 30
0.0
 70
   128
 71
     8
 72
     1
 73
     3
  0
SEQEND
  5
8CD
  8
0
  0
POLYLINE
  5
730
  8
0
 66
     1
 10
0.0
 20
0.0
 30
0.0
 70
    64
 71
    17
 72
     9
  0
VERTEX
  5
731
  8
0
 10
0.0000000000000497
 20
23.67999999999999
 30
103.008
 70
   192
  0
VERTEX
  5
732
  8
0
 10
3.468590955667462
 20
23.67999999999999
 30
102.7149339410404
 70
   192
  0
VERTEX
  5
733
  8
0
 10
-3.468590955667514
 20
23.67999999999999
 30
102.7149339410404
 70
   192
  0
VERTEX
  5
734
  8
0
 10
17.48185372000653
 20
23.67999999999999
 30
102.7149339410404
 70
   192
  0
VERTEX
  5
735
  8
0
 10
30.70611925876631
 20
23.67999999999999
 30
98.07916709371288
 70
   192
  0
VERTEX
  5
736
  8
0
 10
17.28319629137017
 20
23.67999999999999
 30
101.5477187826195
 70
   192
  0
VERTEX
  5
737
  8
0
 10
34.07636604265434
 20
23.67999999999999
 30
97.20827815225942
 70
   192
  0
VERTEX
  5
738
  8
0
 10
37.25271281295529
 20
23.67999999999999
 30
95.78425844472311
 70
   192
  0
VERTEX
  5
739
  8
0
 10
50.47697835171497
 20
23.67999999999999
 30
91.14849159739562
 70
   192
  0
VERTEX
  5
73A
  8
0
 10
49.90337632499099
 20
23.67999999999999
 30
90.11271328378882
 70
   192
  0
VERTEX
  5
73B
  8
0
 10
-17.28319629137017
 20
23.67999999999999
 30
101.5477187826195
 70
   192
  0
VERTEX
  5
73C
  8
0
 10
-30.70611925876628
 20
23.67999999999999
 30
98.0791670937129
 70
   192
  0
VERTEX
  5
73D
  8
0
 10
-17.48185372000664
 20
23.67999999999999
 30
102.7149339410404
 70
   192
  0
VERTEX
  5
73E
  8
0
 10
-37.25271281295528
 20
23.67999999999999
 30
95.7842584447231
 70
   192
  0
VERTEX
  5
73F
  8
0
 10
-34.07636604265431
 20
23.67999999999999
 30
97.20827815225942
 70
   192
  0
VERTEX
  5
740
  8
0
 10
-49.90337632499105
 20
23.67999999999999
 30
90.11271328378876
 70
   192
  0
VERTEX
  5
741
  8
0
 10
-50.47697835171508
 20
23.67999999999999
 30
91.14849159739555
 70
   192
  0
VERTEX
  5
742
  8
0
 10
0.0
 20
0.0
 30
0.0
 70
   128
 71
     1
 72
     3
 73
     2
  0
VERTEX
  5
743
  8
0
 10
0.0
 20
0.0
 30
0.0
 70
   128
 71
     6
 72
     5
 73
    -4
  0
VERTEX
  5
744
  8
0
 10
0.0
 20
0.0
 30
0.0
 70
   128
 71
     4
 72
     2
 73
    -6
  0
VERTEX
  5
745
  8
0
 10
0.0
 20
0.0
 30
0.0
 70
   128
 71
     7
 72
     5
 73
     8
  0
VERTEX
  5
746
  8
0
 10
0.0
 20
0.0
 30
0.0
 70
   128
 71
     8
 72
    10
 73
     9
  0
VERTEX
  5
747
  8
0
 10
0.0
 20
0.0
 30
0.0
 70
   128
 71
    11
 72
     3
 73
   -13
  0
VERTEX
  5
748
  8
0
 10
0.0
 20
0.0
 30
0.0
 70
   128
 71
    13
 72
    12
 73
   -11
  0
VERTEX
  5
749
  8
0
 10
0.0
 20
0.0
 30
0.0
 70
   128
 71
    14
 72
    12
 73
    15
  0
VERTEX
  5
74A
  8
0
 10
0.0
 20
0.0
 30
0.0
 70
   128
 71
    14
 72
    17
 73
    16
  0
SEQEND
  5
8CE
  8
0
  0
POLYLINE
  5
74B
  8
0
 66
     1
 10
0.0
 20
0.0
 30
0.0
 70
    64
 71
    40
 72
    40
  0
VERTEX
  5
74C
  8
0
 10
50.47697835171497
 20
23.67999999999999
 30
91.1484915973956
 70
   192
  0
VERTEX
  5
74D
  8
0
 10
50.21503532785698
 20
28.81270599362531
 30
91.29305553576944
 70
   192
  0
VERTEX
  5
74E
  8
0
 10
48.89802815565052
 20
28.41599999999999
 30
92.00519391039404
 70
   192
  0
VERTEX
  5
74F
  8
0
 10
53.08077621205776
 20
24.47754647054881
 30
89.65714861016771
 70
   192
  0
VERTEX
  5
750
  8
0
 10
51.17232664783014
 20
29.89604925482804
 30
90.75993530971354
 70
   192
  0
VERTEX
  5
751
  8
0
 10
51.52130467551646
 20
31.376
 30
90.56228811449391
 70
   192
  0
VERTEX
  5
752
  8
0
 10
54.94672445447696
 20
26.63543343257208
 30
88.52587394152079
 70
   192
  0
VERTEX
  5
753
  8
0
 10
55.62917575218405
 20
29.59999999999999
 30
88.09862467219686
 70
   192
  0
VERTEX
  5
754
  8
0
 10
55.62917575218405
 20
68.672
 30
88.09862467219686
 70
   192
  0
VERTEX
  5
755
  8
0
 10
51.5213046755165
 20
66.896
 30
90.5622881144939
 70
   192
  0
VERTEX
  5
756
  8
0
 10
51.17216811099279
 20
68.37618354684105
 30
90.76003015637679
 70
   192
  0
VERTEX
  5
757
  8
0
 10
54.94542555296638
 20
71.63862310692895
 30
88.52668237520268
 70
   192
  0
VERTEX
  5
758
  8
0
 10
50.21478612347449
 20
69.45951084610542
 30
91.2931986562607
 70
   192
  0
VERTEX
  5
759
  8
0
 10
48.89802815565053
 20
69.856
 30
92.00519391039403
 70
   192
  0
VERTEX
  5
75A
  8
0
 10
53.07895432097447
 20
73.7960025210557
 30
89.65822596479896
 70
   192
  0
VERTEX
  5
75B
  8
0
 10
50.47697835171497
 20
74.59200000000003
 30
91.14849159739559
 70
   192
  0
VERTEX
  5
75C
  8
0
 10
-50.47697835171508
 20
74.59199999999998
 30
91.14849159739555
 70
   192
  0
VERTEX
  5
75D
  8
0
 10
-50.21503532799754
 20
69.45929400633516
 30
91.293055535693
 70
   192
  0
VERTEX
  5
75E
  8
0
 10
-48.89802815565058
 20
69.856
 30
92.005193910394
 70
   192
  0
VERTEX
  5
75F
  8
0
 10
-53.08077621229619
 20
73.79445352924992
 30
89.65714861002664
 70
   192
  0
VERTEX
  5
760
  8
0
 10
-51.1723266478301
 20
68.37595074517179
 30
90.75993530971354
 70
   192
  0
VERTEX
  5
761
  8
0
 10
-51.5213046755164
 20
66.89600000000004
 30
90.56228811449394
 70
   192
  0
VERTEX
  5
762
  8
0
 10
-54.94672445452214
 20
71.63656656730214
 30
88.52587394149272
 70
   192
  0
VERTEX
  5
763
  8
0
 10
-55.6291757521841
 20
68.672
 30
88.09862467219683
 70
   192
  0
VERTEX
  5
764
  8
0
 10
-55.62917575218395
 20
29.59999999999999
 30
88.09862467219693
 70
   192
  0
VERTEX
  5
765
  8
0
 10
-51.5213046755164
 20
31.37599999999999
 30
90.56228811449394
 70
   192
  0
VERTEX
  5
766
  8
0
 10
-51.17216811093332
 20
29.89581645309983
 30
90.7600301564101
 70
   192
  0
VERTEX
  5
767
  8
0
 10
-54.94542555284997
 20
26.63337689286283
 30
88.52668237527496
 70
   192
  0
VERTEX
  5
768
  8
0
 10
-50.21478612359986
 20
28.8124891539891
 30
91.29319865619176
 70
   192
  0
VERTEX
  5
769
  8
0
 10
-48.89802815565054
 20
28.41599999999999
 30
92.00519391039403
 70
   192
  0
VERTEX
  5
76A
  8
0
 10
-53.07895432077224
 20
24.47599747878542
 30
89.6582259649187
 70
   192
  0
VERTEX
  5
76B
  8
0
 10
-50.47697835171508
 20
23.67999999999999
 30
91.14849159739555
 70
   192
  0
VERTEX
  5
76C
  8
0
 10
17.48185372000653
 20
74.59199999999998
 30
102.7149339410404
 70
   192
  0
VERTEX
  5
76D
  8
0
 10
-17.48185372000664
 20
74.59199999999998
 30
102.7149339410404
 70
   192
  0
VERTEX
  5
76E
  8
0
 10
-16.8912525500121
 20
69.856
 30
102.8137075067897
 70
   192
  0
VERTEX
  5
76F
  8
0
 10
16.89125255001208
 20
28.41599999999999
 30
102.8137075067897
 70
   192
  0
VERTEX
  5
770
  8
0
 10
17.48185372000653
 20
23.67999999999999
 30
102.7149339410404
 70
   192
  0
VERTEX
  5
771
  8
0
 10
16.89125255001208
 20
69.856
 30
102.8137075067897
 70
   192
  0
VERTEX
  5
772
  8
0
 10
-16.8912525500121
 20
28.41599999999999
 30
102.8137075067897
 70
   192
  0
VERTEX
  5
773
  8
0
 10
-17.48185372000664
 20
23.67999999999999
 30
102.7149339410404
 70
   192
  0
VERTEX
  5
774
  8
0
 10
0.0
 20
0.0
 30
0.0
 70
   128
 71
     1
 72
     2
 73
     3
  0
VERTEX
  5
775
  8
0
 10
0.0
 20
0.0
 30
0.0
 70
   128
 71
     1
 72
     4
 73
     5
  0
VERTEX
  5
776
  8
0
 10
0.0
 20
0.0
 30
0.0
 70
   128
 71
     1
 72
     5
 73
     2
  0
VERTEX
  5
777
  8
0
 10
0.0
 20
0.0
 30
0.0
 70
   128
 71
     4
 72
     6
 73
     5
  0
VERTEX
  5
778
  8
0
 10
0.0
 20
0.0
 30
0.0
 70
   128
 71
     4
 72
     7
 73
     8
  0
VERTEX
  5
779
  8
0
 10
0.0
 20
0.0
 30
0.0
 70
   128
 71
     4
 72
     8
 73
     9
  0
VERTEX
  5
77A
  8
0
 10
0.0
 20
0.0
 30
0.0
 70
   128
 71
     4
 72
     9
 73
    10
  0
VERTEX
  5
77B
  8
0
 10
0.0
 20
0.0
 30
0.0
 70
   128
 71
     4
 72
    10
 73
     6
  0
VERTEX
  5
77C
  8
0
 10
0.0
 20
0.0
 30
0.0
 70
   128
 71
     9
 72
    11
 73
    10
  0
VERTEX
  5
77D
  8
0
 10
0.0
 20
0.0
 30
0.0
 70
   128
 71
     9
 72
    12
 73
    13
  0
VERTEX
  5
77E
  8
0
 10
0.0
 20
0.0
 30
0.0
 70
   128
 71
     9
 72
    13
 73
    11
  0
VERTEX
  5
77F
  8
0
 10
0.0
 20
0.0
 30
0.0
 70
   128
 71
    12
 72
    14
 73
    13
  0
VERTEX
  5
780
  8
0
 10
0.0
 20
0.0
 30
0.0
 70
   128
 71
    12
 72
    15
 73
    16
  0
VERTEX
  5
781
  8
0
 10
0.0
 20
0.0
 30
0.0
 70
   128
 71
    17
 72
    18
 73
    19
  0
VERTEX
  5
782
  8
0
 10
0.0
 20
0.0
 30
0.0
 70
   128
 71
    17
 72
    20
 73
    21
  0
VERTEX
  5
783
  8
0
 10
0.0
 20
0.0
 30
0.0
 70
   128
 71
    17
 72
    21
 73
    18
  0
VERTEX
  5
784
  8
0
 10
0.0
 20
0.0
 30
0.0
 70
   128
 71
    20
 72
    22
 73
    21
  0
VERTEX
  5
785
  8
0
 10
0.0
 20
0.0
 30
0.0
 70
   128
 71
    20
 72
    23
 73
    24
  0
VERTEX
  5
786
  8
0
 10
0.0
 20
0.0
 30
0.0
 70
   128
 71
    20
 72
    24
 73
    25
  0
VERTEX
  5
787
  8
0
 10
0.0
 20
0.0
 30
0.0
 70
   128
 71
    20
 72
    25
 73
    26
  0
VERTEX
  5
788
  8
0
 10
0.0
 20
0.0
 30
0.0
 70
   128
 71
    20
 72
    26
 73
    22
  0
VERTEX
  5
789
  8
0
 10
0.0
 20
0.0
 30
0.0
 70
   128
 71
    25
 72
    27
 73
    26
  0
VERTEX
  5
78A
  8
0
 10
0.0
 20
0.0
 30
0.0
 70
   128
 71
    25
 72
    28
 73
    29
  0
VERTEX
  5
78B
  8
0
 10
0.0
 20
0.0
 30
0.0
 70
   128
 71
    25
 72
    29
 73
    27
  0
VERTEX
  5
78C
  8
0
 10
0.0
 20
0.0
 30
0.0
 70
   128
 71
    28
 72
    30
 73
    29
  0
VERTEX
  5
78D
  8
0
 10
0.0
 20
0.0
 30
0.0
 70
   128
 71
    28
 72
    31
 73
    32
  0
VERTEX
  5
78E
  8
0
 10
0.0
 20
0.0
 30
0.0
 70
   128
 71
    33
 72
    34
 73
   -35
  0
VERTEX
  5
78F
  8
0
 10
0.0
 20
0.0
 30
0.0
 70
   128
 71
    34
 72
    17
 73
    19
  0
VERTEX
  5
790
  8
0
 10
0.0
 20
0.0
 30
0.0
 70
   128
 71
     1
 72
     3
 73
    36
  0
VERTEX
  5
791
  8
0
 10
0.0
 20
0.0
 30
0.0
 70
   128
 71
     1
 72
    36
 73
    37
  0
VERTEX
  5
792
  8
0
 10
0.0
 20
0.0
 30
0.0
 70
   128
 71
    14
 72
    12
 73
    16
  0
VERTEX
  5
793
  8
0
 10
0.0
 20
0.0
 30
0.0
 70
   128
 71
    14
 72
    16
 73
    33
  0
VERTEX
  5
794
  8
0
 10
0.0
 20
0.0
 30
0.0
 70
   128
 71
    14
 72
    33
 73
    38
  0
VERTEX
  5
795
  8
0
 10
0.0
 20
0.0
 30
0.0
 70
   128
 71
    38
 72
   -33
 73
    35
  0
VERTEX
  5
796
  8
0
 10
0.0
 20
0.0
 30
0.0
 70
   128
 71
    37
 72
    36
 73
   -39
  0
VERTEX
  5
797
  8
0
 10
0.0
 20
0.0
 30
0.0
 70
   128
 71
   -37
 72
    39
 73
    40
  0
VERTEX
  5
798
  8
0
 10
0.0
 20
0.0
 30
0.0
 70
   128
 71
    35
 72
    34
 73
    19
  0
VERTEX
  5
799
  8
0
 10
0.0
 20
0.0
 30
0.0
 70
   128
 71
    40
 72
    39
 73
    30
  0
VERTEX
  5
79A
  8
0
 10
0.0
 20
0.0
 30
0.0
 70
   128
 71
    40
 72
    30
 73
    28
  0
VERTEX
  5
79B
  8
0
 10
0.0
 20
0.0
 30
0.0
 70
   128
 71
    40
 72
    28
 73
    32
  0
SEQEND
  5
8CF
  8
0
  0
POLYLINE
  5
79C
  8
0
 66
     1
 10
0.0
 20
0.0
 30
0.0
 70
    64
 71
     8
 72
     6
  0
VERTEX
  5
79D
  8
0
 10
-48.34236874479093
 20
69.856
 30
90.95968034323042
 70
   192
  0
VERTEX
  5
79E
  8
0
 10
-49.64658565235302
 20
69.45786567060412
 30
90.25444330275197
 70
   192
  0
VERTEX
  5
79F
  8
0
 10
-50.59144044273792
 20
68.37483727681933
 30
89.72822520303365
 70
   192
  0
VERTEX
  5
7A0
  8
0
 10
-50.93583530420372
 20
66.896
 30
89.53317120410195
 70
   192
  0
VERTEX
  5
7A1
  8
0
 10
-51.5213046755164
 20
66.896
 30
90.56228811449394
 70
   192
  0
VERTEX
  5
7A2
  8
0
 10
-51.1723266478301
 20
68.37595074517179
 30
90.75993530971354
 70
   192
  0
VERTEX
  5
7A3
  8
0
 10
-50.21503532799754
 20
69.45929400633516
 30
91.293055535693
 70
   192
  0
VERTEX
  5
7A4
  8
0
 10
-48.89802815565058
 20
69.856
 30
92.005193910394
 70
   192
  0
VERTEX
  5
7A5
  8
0
 10
0.0
 20
0.0
 30
0.0
 70
   128
 71
     6
 72
     5
 73
     4
  0
VERTEX
  5
7A6
  8
0
 10
0.0
 20
0.0
 30
0.0
 70
   128
 71
     6
 72
     4
 73
     3
  0
VERTEX
  5
7A7
  8
0
 10
0.0
 20
0.0
 30
0.0
 70
   128
 71
     3
 72
     2
 73
     7
  0
VERTEX
  5
7A8
  8
0
 10
0.0
 20
0.0
 30
0.0
 70
   128
 71
     3
 72
     7
 73
     6
  0
VERTEX
  5
7A9
  8
0
 10
0.0
 20
0.0
 30
0.0
 70
   128
 71
     2
 72
     1
 73
     8
  0
VERTEX
  5
7AA
  8
0
 10
0.0
 20
0.0
 30
0.0
 70
   128
 71
     2
 72
     8
 73
     7
  0
SEQEND
  5
8D0
  8
0
  0
POLYLINE
  5
7AB
  8
0
 66
     1
 10
0.0
 20
0.0
 30
0.0
 70
    64
 71
     4
 72
     2
  0
VERTEX
  5
7AC
  8
0
 10
-50.93583530420372
 20
66.896
 30
89.53317120410195
 70
   192
  0
VERTEX
  5
7AD
  8
0
 10
-50.93583530420371
 20
31.37599999999999
 30
89.53317120410196
 70
   192
  0
VERTEX
  5
7AE
  8
0
 10
-51.5213046755164
 20
31.376
 30
90.56228811449394
 70
   192
  0
VERTEX
  5
7AF
  8
0
 10
-51.5213046755164
 20
66.896
 30
90.56228811449394
 70
   192
  0
VERTEX
  5
7B0
  8
0
 10
0.0
 20
0.0
 30
0.0
 70
   128
 71
     1
 72
     4
 73
    -3
  0
VERTEX
  5
7B1
  8
0
 10
0.0
 20
0.0
 30
0.0
 70
   128
 71
    -1
 72
     3
 73
     2
  0
SEQEND
  5
8D1
  8
0
  0
POLYLINE
  5
7B2
  8
0
 66
     1
 10
0.0
 20
0.0
 30
0.0
 70
    64
 71
     8
 72
     6
  0
VERTEX
  5
7B3
  8
0
 10
-50.93583530420371
 20
31.37599999999999
 30
89.53317120410196
 70
   192
  0
VERTEX
  5
7B4
  8
0
 10
-50.59065846058033
 20
29.89577900703997
 30
89.728670749379
 70
   192
  0
VERTEX
  5
7B5
  8
0
 10
-49.64439936710094
 20
28.81259767103908
 30
90.25564758986762
 70
   192
  0
VERTEX
  5
7B6
  8
0
 10
-48.34236874479092
 20
28.41599999999999
 30
90.95968034323043
 70
   192
  0
VERTEX
  5
7B7
  8
0
 10
-48.89802815565059
 20
28.41599999999999
 30
92.00519391039401
 70
   192
  0
VERTEX
  5
7B8
  8
0
 10
-50.21478612359986
 20
28.8124891539891
 30
91.29319865619176
 70
   192
  0
VERTEX
  5
7B9
  8
0
 10
-51.17216811093332
 20
29.89581645309983
 30
90.7600301564101
 70
   192
  0
VERTEX
  5
7BA
  8
0
 10
-51.5213046755164
 20
31.37599999999999
 30
90.56228811449394
 70
   192
  0
VERTEX
  5
7BB
  8
0
 10
0.0
 20
0.0
 30
0.0
 70
   128
 71
     6
 72
     5
 73
     4
  0
VERTEX
  5
7BC
  8
0
 10
0.0
 20
0.0
 30
0.0
 70
   128
 71
     6
 72
     4
 73
     3
  0
VERTEX
  5
7BD
  8
0
 10
0.0
 20
0.0
 30
0.0
 70
   128
 71
     3
 72
     2
 73
     7
  0
VERTEX
  5
7BE
  8
0
 10
0.0
 20
0.0
 30
0.0
 70
   128
 71
     3
 72
     7
 73
     6
  0
VERTEX
  5
7BF
  8
0
 10
0.0
 20
0.0
 30
0.0
 70
   128
 71
     2
 72
     1
 73
     8
  0
VERTEX
  5
7C0
  8
0
 10
0.0
 20
0.0
 30
0.0
 70
   128
 71
     2
 72
     8
 73
     7
  0
SEQEND
  5
8D2
  8
0
  0
POLYLINE
  5
7C1
  8
0
 66
     1
 10
0.0
 20
0.0
 30
0.0
 70
    64
 71
     8
 72
     6
  0
VERTEX
  5
7C2
  8
0
 10
-48.34236874479092
 20
28.41599999999999
 30
90.95968034323043
 70
   192
  0
VERTEX
  5
7C3
  8
0
 10
-48.89802815565059
 20
28.41599999999999
 30
92.00519391039401
 70
   192
  0
VERTEX
  5
7C4
  8
0
 10
-16.8912525500121
 20
28.41599999999999
 30
102.8137075067897
 70
   192
  0
VERTEX
  5
7C5
  8
0
 10
16.89125255001208
 20
28.41599999999999
 30
102.8137075067897
 70
   192
  0
VERTEX
  5
7C6
  8
0
 10
48.89802815565053
 20
28.41599999999999
 30
92.00519391039403
 70
   192
  0
VERTEX
  5
7C7
  8
0
 10
48.34236874479087
 20
28.41599999999999
 30
90.95968034323049
 70
   192
  0
VERTEX
  5
7C8
  8
0
 10
16.69930649830743
 20
28.41599999999999
 30
101.6453699214853
 70
   192
  0
VERTEX
  5
7C9
  8
0
 10
-16.69930649830745
 20
28.41599999999999
 30
101.6453699214853
 70
   192
  0
VERTEX
  5
7CA
  8
0
 10
0.0
 20
0.0
 30
0.0
 70
   128
 71
     5
 72
     6
 73
    -7
  0
VERTEX
  5
7CB
  8
0
 10
0.0
 20
0.0
 30
0.0
 70
   128
 71
     4
 72
    -5
 73
    -7
  0
VERTEX
  5
7CC
  8
0
 10
0.0
 20
0.0
 30
0.0
 70
   128
 71
    -8
 72
     3
 73
    -4
  0
VERTEX
  5
7CD
  8
0
 10
0.0
 20
0.0
 30
0.0
 70
   128
 71
     7
 72
    -8
 73
    -4
  0
VERTEX
  5
7CE
  8
0
 10
0.0
 20
0.0
 30
0.0
 70
   128
 71
     1
 72
     2
 73
    -3
  0
VERTEX
  5
7CF
  8
0
 10
0.0
 20
0.0
 30
0.0
 70
   128
 71
     8
 72
    -1
 73
    -3
  0
SEQEND
  5
8D3
  8
0
  0
POLYLINE
  5
7D0
  8
0
 66
     1
 10
0.0
 20
0.0
 30
0.0
 70
    64
 71
     8
 72
     6
  0
VERTEX
  5
7D1
  8
0
 10
48.34236874479087
 20
28.41599999999999
 30
90.95968034323049
 70
   192
  0
VERTEX
  5
7D2
  8
0
 10
49.64658565223073
 20
28.81413432936624
 30
90.25444330281918
 70
   192
  0
VERTEX
  5
7D3
  8
0
 10
50.5914404427274
 20
29.89716272315952
 30
89.72822520303956
 70
   192
  0
VERTEX
  5
7D4
  8
0
 10
50.93583530420379
 20
31.37599999999999
 30
89.5331712041019
 70
   192
  0
VERTEX
  5
7D5
  8
0
 10
51.52130467551646
 20
31.37599999999999
 30
90.56228811449391
 70
   192
  0
VERTEX
  5
7D6
  8
0
 10
51.17232664783014
 20
29.89604925482804
 30
90.75993530971354
 70
   192
  0
VERTEX
  5
7D7
  8
0
 10
50.21503532785698
 20
28.81270599362531
 30
91.29305553576944
 70
   192
  0
VERTEX
  5
7D8
  8
0
 10
48.89802815565052
 20
28.41599999999999
 30
92.00519391039404
 70
   192
  0
VERTEX
  5
7D9
  8
0
 10
0.0
 20
0.0
 30
0.0
 70
   128
 71
     6
 72
     5
 73
     4
  0
VERTEX
  5
7DA
  8
0
 10
0.0
 20
0.0
 30
0.0
 70
   128
 71
     6
 72
     4
 73
     3
  0
VERTEX
  5
7DB
  8
0
 10
0.0
 20
0.0
 30
0.0
 70
   128
 71
     3
 72
     2
 73
     7
  0
VERTEX
  5
7DC
  8
0
 10
0.0
 20
0.0
 30
0.0
 70
   128
 71
     3
 72
     7
 73
     6
  0
VERTEX
  5
7DD
  8
0
 10
0.0
 20
0.0
 30
0.0
 70
   128
 71
     2
 72
     1
 73
     8
  0
VERTEX
  5
7DE
  8
0
 10
0.0
 20
0.0
 30
0.0
 70
   128
 71
     2
 72
     8
 73
     7
  0
SEQEND
  5
8D4
  8
0
  0
POLYLINE
  5
7DF
  8
0
 66
     1
 10
0.0
 20
0.0
 30
0.0
 70
    64
 71
     4
 72
     2
  0
VERTEX
  5
7E0
  8
0
 10
50.93583530420379
 20
31.37599999999999
 30
89.53317120410192
 70
   192
  0
VERTEX
  5
7E1
  8
0
 10
50.93583530420381
 20
66.896
 30
89.5331712041019
 70
   192
  0
VERTEX
  5
7E2
  8
0
 10
51.52130467551646
 20
66.89600000000004
 30
90.56228811449391
 70
   192
  0
VERTEX
  5
7E3
  8
0
 10
51.52130467551646
 20
31.37599999999999
 30
90.56228811449391
 70
   192
  0
VERTEX
  5
7E4
  8
0
 10
0.0
 20
0.0
 30
0.0
 70
   128
 71
     1
 72
     4
 73
    -3
  0
VERTEX
  5
7E5
  8
0
 10
0.0
 20
0.0
 30
0.0
 70
   128
 71
    -1
 72
     3
 73
     2
  0
SEQEND
  5
8D5
  8
0
  0
POLYLINE
  5
7E6
  8
0
 66
     1
 10
0.0
 20
0.0
 30
0.0
 70
    64
 71
     8
 72
     6
  0
VERTEX
  5
7E7
  8
0
 10
50.93583530420381
 20
66.896
 30
89.5331712041019
 70
   192
  0
VERTEX
  5
7E8
  8
0
 10
50.59065846069369
 20
68.37622099281445
 30
89.72867074931541
 70
   192
  0
VERTEX
  5
7E9
  8
0
 10
49.64439936706744
 20
69.45940232898235
 30
90.25564758988617
 70
   192
  0
VERTEX
  5
7EA
  8
0
 10
48.34236874479086
 20
69.856
 30
90.95968034323043
 70
   192
  0
VERTEX
  5
7EB
  8
0
 10
48.89802815565052
 20
69.856
 30
92.00519391039404
 70
   192
  0
VERTEX
  5
7EC
  8
0
 10
50.21478612347449
 20
69.45951084610542
 30
91.2931986562607
 70
   192
  0
VERTEX
  5
7ED
  8
0
 10
51.17216811099279
 20
68.37618354684105
 30
90.76003015637679
 70
   192
  0
VERTEX
  5
7EE
  8
0
 10
51.5213046755165
 20
66.896
 30
90.5622881144939
 70
   192
  0
VERTEX
  5
7EF
  8
0
 10
0.0
 20
0.0
 30
0.0
 70
   128
 71
     6
 72
     5
 73
     4
  0
VERTEX
  5
7F0
  8
0
 10
0.0
 20
0.0
 30
0.0
 70
   128
 71
     6
 72
     4
 73
     3
  0
VERTEX
  5
7F1
  8
0
 10
0.0
 20
0.0
 30
0.0
 70
   128
 71
     3
 72
     2
 73
     7
  0
VERTEX
  5
7F2
  8
0
 10
0.0
 20
0.0
 30
0.0
 70
   128
 71
     3
 72
     7
 73
     6
  0
VERTEX
  5
7F3
  8
0
 10
0.0
 20
0.0
 30
0.0
 70
   128
 71
     2
 72
     1
 73
     8
  0
VERTEX
  5
7F4
  8
0
 10
0.0
 20
0.0
 30
0.0
 70
   128
 71
     2
 72
     8
 73
     7
  0
SEQEND
  5
8D6
  8
0
  0
POLYLINE
  5
7F5
  8
0
 66
     1
 10
0.0
 20
0.0
 30
0.0
 70
    64
 71
     8
 72
     6
  0
VERTEX
  5
7F6
  8
0
 10
-48.34236874479093
 20
69.856
 30
90.95968034323042
 70
   192
  0
VERTEX
  5
7F7
  8
0
 10
-48.89802815565054
 20
69.856
 30
92.00519391039403
 70
   192
  0
VERTEX
  5
7F8
  8
0
 10
-16.8912525500121
 20
69.856
 30
102.8137075067897
 70
   192
  0
VERTEX
  5
7F9
  8
0
 10
16.89125255001208
 20
69.856
 30
102.8137075067897
 70
   192
  0
VERTEX
  5
7FA
  8
0
 10
48.89802815565052
 20
69.856
 30
92.00519391039404
 70
   192
  0
VERTEX
  5
7FB
  8
0
 10
48.34236874479087
 20
69.856
 30
90.95968034323045
 70
   192
  0
VERTEX
  5
7FC
  8
0
 10
16.69930649830743
 20
69.856
 30
101.6453699214853
 70
   192
  0
VERTEX
  5
7FD
  8
0
 10
-16.69930649830745
 20
69.856
 30
101.6453699214853
 70
   192
  0
VERTEX
  5
7FE
  8
0
 10
0.0
 20
0.0
 30
0.0
 70
   128
 71
     7
 72
     6
 73
    -5
  0
VERTEX
  5
7FF
  8
0
 10
0.0
 20
0.0
 30
0.0
 70
   128
 71
    -7
 72
     5
 73
    -4
  0
VERTEX
  5
800
  8
0
 10
0.0
 20
0.0
 30
0.0
 70
   128
 71
     4
 72
    -3
 73
    -8
  0
VERTEX
  5
801
  8
0
 10
0.0
 20
0.0
 30
0.0
 70
   128
 71
    -4
 72
     8
 73
    -7
  0
VERTEX
  5
802
  8
0
 10
0.0
 20
0.0
 30
0.0
 70
   128
 71
     3
 72
     2
 73
    -1
  0
VERTEX
  5
803
  8
0
 10
0.0
 20
0.0
 30
0.0
 70
   128
 71
    -3
 72
     1
 73
    -8
  0
SEQEND
  5
8D7
  8
0
  0
POLYLINE
  5
804
  8
0
 66
     1
 10
0.0
 20
0.0
 30
0.0
 70
    64
 71
    28
 72
    28
  0
VERTEX
  5
805
  8
0
 10
41.44
 20
47.36
 30
94.30468951224006
 70
   192
  0
VERTEX
  5
806
  8
0
 10
48.34236874479087
 20
28.41599999999999
 30
90.95968034323045
 70
   192
  0
VERTEX
  5
807
  8
0
 10
49.64658565223073
 20
28.81413432936624
 30
90.25444330281918
 70
   192
  0
VERTEX
  5
808
  8
0
 10
50.5914404427274
 20
29.89716272315952
 30
89.72822520303956
 70
   192
  0
VERTEX
  5
809
  8
0
 10
50.93583530420379
 20
31.37599999999999
 30
89.5331712041019
 70
   192
  0
VERTEX
  5
80A
  8
0
 10
50.93583530420379
 20
66.896
 30
89.53317120410192
 70
   192
  0
VERTEX
  5
80B
  8
0
 10
41.43999999999999
 20
53.28000000000002
 30
94.30468951224003
 70
   192
  0
VERTEX
  5
80C
  8
0
 10
50.59065846069369
 20
68.37622099281445
 30
89.72867074931541
 70
   192
  0
VERTEX
  5
80D
  8
0
 10
49.64439936706744
 20
69.45940232898235
 30
90.25564758988617
 70
   192
  0
VERTEX
  5
80E
  8
0
 10
48.34236874479086
 20
69.856
 30
90.95968034323043
 70
   192
  0
VERTEX
  5
80F
  8
0
 10
-41.44
 20
53.27999999999998
 30
94.30468951224006
 70
   192
  0
VERTEX
  5
810
  8
0
 10
-48.34236874479091
 20
69.856
 30
90.95968034323043
 70
   192
  0
VERTEX
  5
811
  8
0
 10
-49.64658565235302
 20
69.45786567060412
 30
90.25444330275197
 70
   192
  0
VERTEX
  5
812
  8
0
 10
-50.59144044273792
 20
68.37483727681933
 30
89.72822520303365
 70
   192
  0
VERTEX
  5
813
  8
0
 10
-50.93583530420372
 20
66.896
 30
89.53317120410195
 70
   192
  0
VERTEX
  5
814
  8
0
 10
-50.93583530420372
 20
31.37599999999999
 30
89.53317120410195
 70
   192
  0
VERTEX
  5
815
  8
0
 10
-41.43999999999999
 20
47.36000000000001
 30
94.30468951224003
 70
   192
  0
VERTEX
  5
816
  8
0
 10
-50.59065846058033
 20
29.89577900703997
 30
89.728670749379
 70
   192
  0
VERTEX
  5
817
  8
0
 10
-49.64439936710094
 20
28.81259767103908
 30
90.25564758986762
 70
   192
  0
VERTEX
  5
818
  8
0
 10
-48.34236874479092
 20
28.41599999999999
 30
90.95968034323043
 70
   192
  0
VERTEX
  5
819
  8
0
 10
16.69930649830743
 20
69.856
 30
101.6453699214853
 70
   192
  0
VERTEX
  5
81A
  8
0
 10
-16.69930649830745
 20
69.856
 30
101.6453699214853
 70
   192
  0
VERTEX
  5
81B
  8
0
 10
-14.17092859516154
 20
53.28000000000002
 30
102.0285883796832
 70
   192
  0
VERTEX
  5
81C
  8
0
 10
14.17092859516154
 20
53.28000000000002
 30
102.0285883796832
 70
   192
  0
VERTEX
  5
81D
  8
0
 10
-16.69930649830745
 20
28.41599999999999
 30
101.6453699214853
 70
   192
  0
VERTEX
  5
81E
  8
0
 10
14.17092859516154
 20
47.36000000000001
 30
102.0285883796832
 70
   192
  0
VERTEX
  5
81F
  8
0
 10
16.69930649830743
 20
28.41599999999999
 30
101.6453699214853
 70
   192
  0
VERTEX
  5
820
  8
0
 10
-14.17092859516154
 20
47.36000000000001
 30
102.0285883796832
 70
   192
  0
VERTEX
  5
821
  8
0
 10
0.0
 20
0.0
 30
0.0
 70
   128
 71
     1
 72
     2
 73
     3
  0
VERTEX
  5
822
  8
0
 10
0.0
 20
0.0
 30
0.0
 70
   128
 71
     1
 72
     3
 73
     4
  0
VERTEX
  5
823
  8
0
 10
0.0
 20
0.0
 30
0.0
 70
   128
 71
     1
 72
     4
 73
     5
  0
VERTEX
  5
824
  8
0
 10
0.0
 20
0.0
 30
0.0
 70
   128
 71
     5
 72
     6
 73
    -7
  0
VERTEX
  5
825
  8
0
 10
0.0
 20
0.0
 30
0.0
 70
   128
 71
    -5
 72
     7
 73
     1
  0
VERTEX
  5
826
  8
0
 10
0.0
 20
0.0
 30
0.0
 70
   128
 71
     6
 72
     8
 73
     9
  0
VERTEX
  5
827
  8
0
 10
0.0
 20
0.0
 30
0.0
 70
   128
 71
     6
 72
     9
 73
    10
  0
VERTEX
  5
828
  8
0
 10
0.0
 20
0.0
 30
0.0
 70
   128
 71
    11
 72
    12
 73
    13
  0
VERTEX
  5
829
  8
0
 10
0.0
 20
0.0
 30
0.0
 70
   128
 71
    11
 72
    13
 73
    14
  0
VERTEX
  5
82A
  8
0
 10
0.0
 20
0.0
 30
0.0
 70
   128
 71
    11
 72
    14
 73
    15
  0
VERTEX
  5
82B
  8
0
 10
0.0
 20
0.0
 30
0.0
 70
   128
 71
    15
 72
    16
 73
   -17
  0
VERTEX
  5
82C
  8
0
 10
0.0
 20
0.0
 30
0.0
 70
   128
 71
   -15
 72
    17
 73
    11
  0
VERTEX
  5
82D
  8
0
 10
0.0
 20
0.0
 30
0.0
 70
   128
 71
    16
 72
    18
 73
    19
  0
VERTEX
  5
82E
  8
0
 10
0.0
 20
0.0
 30
0.0
 70
   128
 71
    16
 72
    19
 73
    20
  0
VERTEX
  5
82F
  8
0
 10
0.0
 20
0.0
 30
0.0
 70
   128
 71
    21
 72
    22
 73
   -23
  0
VERTEX
  5
830
  8
0
 10
0.0
 20
0.0
 30
0.0
 70
   128
 71
     6
 72
    10
 73
    21
  0
VERTEX
  5
831
  8
0
 10
0.0
 20
0.0
 30
0.0
 70
   128
 71
     6
 72
    21
 73
    24
  0
VERTEX
  5
832
  8
0
 10
0.0
 20
0.0
 30
0.0
 70
   128
 71
    25
 72
    16
 73
    20
  0
VERTEX
  5
833
  8
0
 10
0.0
 20
0.0
 30
0.0
 70
   128
 71
    22
 72
    12
 73
    11
  0
VERTEX
  5
834
  8
0
 10
0.0
 20
0.0
 30
0.0
 70
   128
 71
     2
 72
     1
 73
    26
  0
VERTEX
  5
835
  8
0
 10
0.0
 20
0.0
 30
0.0
 70
   128
 71
     2
 72
    26
 73
    27
  0
VERTEX
  5
836
  8
0
 10
0.0
 20
0.0
 30
0.0
 70
   128
 71
     7
 72
     6
 73
    24
  0
VERTEX
  5
837
  8
0
 10
0.0
 20
0.0
 30
0.0
 70
   128
 71
    24
 72
   -21
 73
    23
  0
VERTEX
  5
838
  8
0
 10
0.0
 20
0.0
 30
0.0
 70
   128
 71
    27
 72
    26
 73
   -28
  0
VERTEX
  5
839
  8
0
 10
0.0
 20
0.0
 30
0.0
 70
   128
 71
   -27
 72
    28
 73
    25
  0
VERTEX
  5
83A
  8
0
 10
0.0
 20
0.0
 30
0.0
 70
   128
 71
    23
 72
    22
 73
    11
  0
VERTEX
  5
83B
  8
0
 10
0.0
 20
0.0
 30
0.0
 70
   128
 71
    25
 72
    28
 73
    17
  0
VERTEX
  5
83C
  8
0
 10
0.0
 20
0.0
 30
0.0
 70
   128
 71
    25
 72
    17
 73
    16
  0
SEQEND
  5
8D8
  8
0
  0
POLYLINE
  5
83D
  8
0
 66
     1
 10
0.0
 20
0.0
 30
0.0
 70
    64
 71
    10
 72
     8
  0
VERTEX
  5
83E
  8
0
 10
41.44
 20
53.27999999999998
 30
94.30468951224006
 70
   192
  0
VERTEX
  5
83F
  8
0
 10
-41.44
 20
53.27999999999999
 30
94.30468951224005
 70
   192
  0
VERTEX
  5
840
  8
0
 10
-41.44
 20
47.36000000000001
 30
94.30468951224006
 70
   192
  0
VERTEX
  5
841
  8
0
 10
41.43999999999998
 20
47.36
 30
94.30468951224005
 70
   192
  0
VERTEX
  5
842
  8
0
 10
-0.0000000000000041
 20
47.36
 30
134.976
 70
   192
  0
VERTEX
  5
843
  8
0
 10
-0.0000000000000041
 20
53.27999999999999
 30
134.976
 70
   192
  0
VERTEX
  5
844
  8
0
 10
29.03200430900254
 20
47.36
 30
123.1094463029887
 70
   192
  0
VERTEX
  5
845
  8
0
 10
29.03200430900254
 20
53.27999999999999
 30
123.1094463029887
 70
   192
  0
VERTEX
  5
846
  8
0
 10
-29.03200430900255
 20
47.36
 30
123.1094463029887
 70
   192
  0
VERTEX
  5
847
  8
0
 10
-29.03200430900255
 20
53.27999999999999
 30
123.1094463029887
 70
   192
  0
VERTEX
  5
848
  8
0
 10
0.0
 20
0.0
 30
0.0
 70
   128
 71
     4
 72
     1
 73
    -8
  0
VERTEX
  5
849
  8
0
 10
0.0
 20
0.0
 30
0.0
 70
   128
 71
    -4
 72
     8
 73
     7
  0
VERTEX
  5
84A
  8
0
 10
0.0
 20
0.0
 30
0.0
 70
   128
 71
     7
 72
     8
 73
    -6
  0
VERTEX
  5
84B
  8
0
 10
0.0
 20
0.0
 30
0.0
 70
   128
 71
    -7
 72
     6
 73
     5
  0
VERTEX
  5
84C
  8
0
 10
0.0
 20
0.0
 30
0.0
 70
   128
 71
     5
 72
     6
 73
   -10
  0
VERTEX
  5
84D
  8
0
 10
0.0
 20
0.0
 30
0.0
 70
   128
 71
    -5
 72
    10
 73
     9
  0
VERTEX
  5
84E
  8
0
 10
0.0
 20
0.0
 30
0.0
 70
   128
 71
    10
 72
     2
 73
    -3
  0
VERTEX
  5
84F
  8
0
 10
0.0
 20
0.0
 30
0.0
 70
   128
 71
   -10
 72
     3
 73
     9
  0
SEQEND
  5
8D9
  8
0
  0
POLYLINE
  5
850
  8
0
 66
     1
 10
0.0
 20
0.0
 30
0.0
 70
    64
 71
     7
 72
     5
  0
VERTEX
  5
851
  8
0
 10
41.43999999999999
 20
53.28000000000002
 30
94.30468951224003
 70
   192
  0
VERTEX
  5
852
  8
0
 10
14.17092859516154
 20
53.28000000000002
 30
102.0285883796832
 70
   192
  0
VERTEX
  5
853
  8
0
 10
-14.17092859516154
 20
53.28000000000002
 30
102.0285883796832
 70
   192
  0
VERTEX
  5
854
  8
0
 10
-41.43999999999999
 20
53.28000000000002
 30
94.30468951224003
 70
   192
  0
VERTEX
  5
855
  8
0
 10
-29.03200430900255
 20
53.27999999999999
 30
123.1094463029887
 70
   192
  0
VERTEX
  5
856
  8
0
 10
-0.0000000000000041
 20
53.27999999999999
 30
134.976
 70
   192
  0
VERTEX
  5
857
  8
0
 10
29.03200430900254
 20
53.27999999999999
 30
123.1094463029887
 70
   192
  0
VERTEX
  5
858
  8
0
 10
0.0
 20
0.0
 30
0.0
 70
   128
 71
     7
 72
     1
 73
    -2
  0
VERTEX
  5
859
  8
0
 10
0.0
 20
0.0
 30
0.0
 70
   128
 71
     5
 72
     6
 73
    -7
  0
VERTEX
  5
85A
  8
0
 10
0.0
 20
0.0
 30
0.0
 70
   128
 71
    -3
 72
    -5
 73
    -7
  0
VERTEX
  5
85B
  8
0
 10
0.0
 20
0.0
 30
0.0
 70
   128
 71
     2
 72
    -3
 73
    -7
  0
VERTEX
  5
85C
  8
0
 10
0.0
 20
0.0
 30
0.0
 70
   128
 71
     3
 72
     4
 73
    -5
  0
SEQEND
  5
8DA
  8
0
  0
POLYLINE
  5
85D
  8
0
 66
     1
 10
0.0
 20
0.0
 30
0.0
 70
    64
 71
     7
 72
     5
  0
VERTEX
  5
85E
  8
0
 10
41.43999999999999
 20
47.36000000000001
 30
94.30468951224003
 70
   192
  0
VERTEX
  5
85F
  8
0
 10
14.17092859516154
 20
47.36000000000001
 30
102.0285883796832
 70
   192
  0
VERTEX
  5
860
  8
0
 10
-14.17092859516154
 20
47.36000000000001
 30
102.0285883796832
 70
   192
  0
VERTEX
  5
861
  8
0
 10
-41.44
 20
47.36
 30
94.30468951224005
 70
   192
  0
VERTEX
  5
862
  8
0
 10
-29.03200430900255
 20
47.36
 30
123.1094463029887
 70
   192
  0
VERTEX
  5
863
  8
0
 10
-0.0000000000000041
 20
47.36
 30
134.976
 70
   192
  0
VERTEX
  5
864
  8
0
 10
29.03200430900254
 20
47.36
 30
123.1094463029887
 70
   192
  0
VERTEX
  5
865
  8
0
 10
0.0
 20
0.0
 30
0.0
 70
   128
 71
     2
 72
     1
 73
    -7
  0
VERTEX
  5
866
  8
0
 10
0.0
 20
0.0
 30
0.0
 70
   128
 71
     7
 72
     6
 73
    -5
  0
VERTEX
  5
867
  8
0
 10
0.0
 20
0.0
 30
0.0
 70
   128
 71
    -7
 72
    -5
 73
    -3
  0
VERTEX
  5
868
  8
0
 10
0.0
 20
0.0
 30
0.0
 70
   128
 71
    -7
 72
     3
 73
    -2
  0
VERTEX
  5
869
  8
0
 10
0.0
 20
0.0
 30
0.0
 70
   128
 71
     5
 72
     4
 73
    -3
  0
SEQEND
  5
8DB
  8
0
  0
ENDBLK
  5
8BE
  8
0
  0
BLOCK
  8
0
  2
*X3
 70
     1
 10
0.0
 20
0.0
 30
0.0
  3
*X3
  1

  0
POLYLINE
  5
86B
  8
0
 66
     1
 10
0.0
 20
0.0
 30
0.0
 70
    64
 71
     4
 72
     2
  0
VERTEX
  5
86C
  8
0
 10
-38.0487746573131
 20
245.088
 30
-95.72324070505034
 70
   192
  0
VERTEX
  5
86D
  8
0
 10
-38.04877465731312
 20
144.448
 30
-95.72324070505034
 70
   192
  0
VERTEX
  5
86E
  8
0
 10
-40.05401249396923
 20
144.448
 30
-127.0350978396638
 70
   192
  0
VERTEX
  5
86F
  8
0
 10
-40.05401249396927
 20
245.088
 30
-127.0350978396638
 70
   192
  0
VERTEX
  5
870
  8
0
 10
0.0
 20
0.0
 30
0.0
 70
   128
 71
     1
 72
     4
 73
    -3
  0
VERTEX
  5
871
  8
0
 10
0.0
 20
0.0
 30
0.0
 70
   128
 71
    -1
 72
     3
 73
     2
  0
SEQEND
  5
8DE
  8
0
  0
POLYLINE
  5
872
  8
0
 66
     1
 10
0.0
 20
0.0
 30
0.0
 70
    64
 71
     8
 72
     6
  0
VERTEX
  5
873
  8
0
 10
13.53779241394925
 20
245.088
 30
-132.5102568730316
 70
   192
  0
VERTEX
  5
874
  8
0
 10
13.53779241394925
 20
144.448
 30
-132.5102568730316
 70
   192
  0
VERTEX
  5
875
  8
0
 10
-13.53779241394922
 20
144.448
 30
-132.5102568730316
 70
   192
  0
VERTEX
  5
876
  8
0
 10
-13.53779241394922
 20
245.088
 30
-132.5102568730316
 70
   192
  0
VERTEX
  5
877
  8
0
 10
40.05401249396926
 20
245.088
 30
-127.0350978396638
 70
   192
  0
VERTEX
  5
878
  8
0
 10
40.05401249396926
 20
144.448
 30
-127.0350978396638
 70
   192
  0
VERTEX
  5
879
  8
0
 10
-40.05401249396922
 20
144.448
 30
-127.0350978396638
 70
   192
  0
VERTEX
  5
87A
  8
0
 10
-40.05401249396923
 20
245.088
 30
-127.0350978396638
 70
   192
  0
VERTEX
  5
87B
  8
0
 10
0.0
 20
0.0
 30
0.0
 70
   128
 71
     1
 72
     2
 73
    -3
  0
VERTEX
  5
87C
  8
0
 10
0.0
 20
0.0
 30
0.0
 70
   128
 71
    -1
 72
     3
 73
     4
  0
VERTEX
  5
87D
  8
0
 10
0.0
 20
0.0
 30
0.0
 70
   128
 71
     5
 72
     6
 73
    -2
  0
VERTEX
  5
87E
  8
0
 10
0.0
 20
0.0
 30
0.0
 70
   128
 71
    -5
 72
     2
 73
     1
  0
VERTEX
  5
87F
  8
0
 10
0.0
 20
0.0
 30
0.0
 70
   128
 71
     4
 72
     3
 73
    -7
  0
VERTEX
  5
880
  8
0
 10
0.0
 20
0.0
 30
0.0
 70
   128
 71
    -4
 72
     7
 73
     8
  0
SEQEND
  5
8DF
  8
0
  0
POLYLINE
  5
881
  8
0
 66
     1
 10
0.0
 20
0.0
 30
0.0
 70
    64
 71
     4
 72
     2
  0
VERTEX
  5
882
  8
0
 10
40.05401249396927
 20
245.088
 30
-127.0350978396638
 70
   192
  0
VERTEX
  5
883
  8
0
 10
38.04877465731312
 20
245.088
 30
-95.72324070505034
 70
   192
  0
VERTEX
  5
884
  8
0
 10
38.04877465731312
 20
144.448
 30
-95.72324070505034
 70
   192
  0
VERTEX
  5
885
  8
0
 10
40.05401249396927
 20
144.448
 30
-127.0350978396638
 70
   192
  0
VERTEX
  5
886
  8
0
 10
0.0
 20
0.0
 30
0.0
 70
   128
 71
     3
 72
     4
 73
    -1
  0
VERTEX
  5
887
  8
0
 10
0.0
 20
0.0
 30
0.0
 70
   128
 71
     2
 72
    -3
 73
     1
  0
SEQEND
  5
8E0
  8
0
  0
POLYLINE
  5
888
  8
0
 66
     1
 10
0.0
 20
0.0
 30
0.0
 70
    64
 71
     8
 72
     6
  0
VERTEX
  5
889
  8
0
 10
-12.9562199330481
 20
144.448
 30
-102.1899428957981
 70
   192
  0
VERTEX
  5
88A
  8
0
 10
12.95621993304815
 20
144.448
 30
-102.1899428957981
 70
   192
  0
VERTEX
  5
88B
  8
0
 10
12.95621993304815
 20
245.088
 30
-102.1899428957981
 70
   192
  0
VERTEX
  5
88C
  8
0
 10
-12.9562199330481
 20
245.088
 30
-102.1899428957981
 70
   192
  0
VERTEX
  5
88D
  8
0
 10
38.04877465731312
 20
144.448
 30
-95.72324070505032
 70
   192
  0
VERTEX
  5
88E
  8
0
 10
38.04877465731312
 20
245.088
 30
-95.72324070505032
 70
   192
  0
VERTEX
  5
88F
  8
0
 10
-38.0487746573131
 20
144.448
 30
-95.72324070505034
 70
   192
  0
VERTEX
  5
890
  8
0
 10
-38.04877465731307
 20
245.088
 30
-95.72324070505033
 70
   192
  0
VERTEX
  5
891
  8
0
 10
0.0
 20
0.0
 30
0.0
 70
   128
 71
     1
 72
     2
 73
    -3
  0
VERTEX
  5
892
  8
0
 10
0.0
 20
0.0
 30
0.0
 70
   128
 71
     4
 72
    -1
 73
     3
  0
VERTEX
  5
893
  8
0
 10
0.0
 20
0.0
 30
0.0
 70
   128
 71
     2
 72
     5
 73
    -6
  0
VERTEX
  5
894
  8
0
 10
0.0
 20
0.0
 30
0.0
 70
   128
 71
     3
 72
    -2
 73
     6
  0
VERTEX
  5
895
  8
0
 10
0.0
 20
0.0
 30
0.0
 70
   128
 71
     7
 72
     1
 73
    -4
  0
VERTEX
  5
896
  8
0
 10
0.0
 20
0.0
 30
0.0
 70
   128
 71
     8
 72
    -7
 73
     4
  0
SEQEND
  5
8E1
  8
0
  0
POLYLINE
  5
897
  8
0
 66
     1
 10
0.0
 20
0.0
 30
0.0
 70
    64
 71
     8
 72
     6
  0
VERTEX
  5
898
  8
0
 10
-38.04877465731307
 20
144.448
 30
-95.72324070505033
 70
   192
  0
VERTEX
  5
899
  8
0
 10
-12.9562199330481
 20
144.448
 30
-102.1899428957981
 70
   192
  0
VERTEX
  5
89A
  8
0
 10
12.95621993304815
 20
144.448
 30
-102.1899428957981
 70
   192
  0
VERTEX
  5
89B
  8
0
 10
38.04877465731312
 20
144.448
 30
-95.72324070505034
 70
   192
  0
VERTEX
  5
89C
  8
0
 10
40.05401249396926
 20
144.448
 30
-127.0350978396638
 70
   192
  0
VERTEX
  5
89D
  8
0
 10
13.53779241394925
 20
144.448
 30
-132.5102568730316
 70
   192
  0
VERTEX
  5
89E
  8
0
 10
-13.53779241394922
 20
144.448
 30
-132.5102568730316
 70
   192
  0
VERTEX
  5
89F
  8
0
 10
-40.05401249396927
 20
144.448
 30
-127.0350978396638
 70
   192
  0
VERTEX
  5
8A0
  8
0
 10
0.0
 20
0.0
 30
0.0
 70
   128
 71
     2
 72
     1
 73
    -8
  0
VERTEX
  5
8A1
  8
0
 10
0.0
 20
0.0
 30
0.0
 70
   128
 71
    -2
 72
     8
 73
    -7
  0
VERTEX
  5
8A2
  8
0
 10
0.0
 20
0.0
 30
0.0
 70
   128
 71
     7
 72
    -6
 73
    -3
  0
VERTEX
  5
8A3
  8
0
 10
0.0
 20
0.0
 30
0.0
 70
   128
 71
    -7
 72
     3
 73
    -2
  0
VERTEX
  5
8A4
  8
0
 10
0.0
 20
0.0
 30
0.0
 70
   128
 71
     6
 72
     5
 73
    -4
  0
VERTEX
  5
8A5
  8
0
 10
0.0
 20
0.0
 30
0.0
 70
   128
 71
    -6
 72
     4
 73
    -3
  0
SEQEND
  5
8E2
  8
0
  0
POLYLINE
  5
8A6
  8
0
 66
     1
 10
0.0
 20
0.0
 30
0.0
 70
    64
 71
     8
 72
     6
  0
VERTEX
  5
8A7
  8
0
 10
-40.05401249396927
 20
245.088
 30
-127.0350978396638
 70
   192
  0
VERTEX
  5
8A8
  8
0
 10
-38.04877465731312
 20
245.088
 30
-95.72324070505034
 70
   192
  0
VERTEX
  5
8A9
  8
0
 10
-12.9562199330481
 20
245.088
 30
-102.1899428957981
 70
   192
  0
VERTEX
  5
8AA
  8
0
 10
12.95621993304815
 20
245.088
 30
-102.1899428957981
 70
   192
  0
VERTEX
  5
8AB
  8
0
 10
38.04877465731312
 20
245.088
 30
-95.72324070505032
 70
   192
  0
VERTEX
  5
8AC
  8
0
 10
40.05401249396927
 20
245.088
 30
-127.0350978396638
 70
   192
  0
VERTEX
  5
8AD
  8
0
 10
13.53779241394925
 20
245.088
 30
-132.5102568730316
 70
   192
  0
VERTEX
  5
8AE
  8
0
 10
-13.53779241394922
 20
245.088
 30
-132.5102568730316
 70
   192
  0
VERTEX
  5
8AF
  8
0
 10
0.0
 20
0.0
 30
0.0
 70
   128
 71
     1
 72
     2
 73
    -3
  0
VERTEX
  5
8B0
  8
0
 10
0.0
 20
0.0
 30
0.0
 70
   128
 71
     8
 72
    -1
 73
    -3
  0
VERTEX
  5
8B1
  8
0
 10
0.0
 20
0.0
 30
0.0
 70
   128
 71
    -4
 72
     7
 73
    -8
  0
VERTEX
  5
8B2
  8
0
 10
0.0
 20
0.0
 30
0.0
 70
   128
 71
     3
 72
    -4
 73
    -8
  0
VERTEX
  5
8B3
  8
0
 10
0.0
 20
0.0
 30
0.0
 70
   128
 71
     5
 72
     6
 73
    -7
  0
VERTEX
  5
8B4
  8
0
 10
0.0
 20
0.0
 30
0.0
 70
   128
 71
     4
 72
    -5
 73
    -7
  0
SEQEND
  5
8E3
  8
0
  0
ENDBLK
  5
8DD
  8
0
  0
ENDSEC
  0
SECTION
  2
ENTITIES
  0
INSERT
  5
BE
  8
0
  2
*X1
 10
0.0
 20
0.0
 30
0.0
  0
INSERT
  5
BF
  8
0
  2
*X2
 10
0.0
 20
0.0
 30
0.0
  0
INSERT
  5
C0
  8
0
  2
*X3
 10
0.0
 20
0.0
 30
0.0
  0
ENDSEC
  0
EOF
