  0
SECTION
  2
HEADER
  9
$ACADVER
  1
AC1009
  9
$DWGCODEPAGE
  3
ansi_1250
  9
$INSBASE
 10
0.0
 20
0.0
 30
0.0
  9
$EXTMIN
 10
-0.0000000000003979
 20
-32.64617011646837
 30
-43.7188465119668
  9
$EXTMAX
 10
385.0000000000004
 20
32.35382988355499
 30
1.28115348814466
  9
$LIMMIN
 10
0.0
 20
0.0
  9
$LIMMAX
 10
420.0
 20
297.0
  9
$ORTHOMODE
 70
     0
  9
$REGENMODE
 70
     1
  9
$FILLMODE
 70
     1
  9
$QTEXTMODE
 70
     0
  9
$MIRRTEXT
 70
     0
  9
$DRAGMODE
 70
     2
  9
$LTSCALE
 40
1.0
  9
$OSMODE
 70
   511
  9
$ATTMODE
 70
     1
  9
$TEXTSIZE
 40
2.5
  9
$TRACEWID
 40
1.0
  9
$TEXTSTYLE
  7
STANDARD
  9
$CLAYER
  8
0
  9
$CELTYPE
  6
BYLAYER
  9
$CECOLOR
 62
   256
  9
$DIMSCALE
 40
1.0
  9
$DIMASZ
 40
2.5
  9
$DIMEXO
 40
0.625
  9
$DIMDLI
 40
3.75
  9
$DIMRND
 40
0.0
  9
$DIMDLE
 40
0.0
  9
$DIMEXE
 40
1.25
  9
$DIMTP
 40
0.0
  9
$DIMTM
 40
0.0
  9
$DIMTXT
 40
2.5
  9
$DIMCEN
 40
-2.5
  9
$DIMTSZ
 40
0.0
  9
$DIMTOL
 70
     0
  9
$DIMLIM
 70
     0
  9
$DIMTIH
 70
     0
  9
$DIMTOH
 70
     0
  9
$DIMSE1
 70
     0
  9
$DIMSE2
 70
     0
  9
$DIMTAD
 70
     1
  9
$DIMZIN
 70
     8
  9
$DIMBLK
  1

  9
$DIMASO
 70
     1
  9
$DIMSHO
 70
     1
  9
$DIMPOST
  1

  9
$DIMAPOST
  1

  9
$DIMALT
 70
     0
  9
$DIMALTD
 70
     3
  9
$DIMALTF
 40
0.03937007874016
  9
$DIMLFAC
 40
1.0
  9
$DIMTOFL
 70
     1
  9
$DIMTVP
 40
0.0
  9
$DIMTIX
 70
     0
  9
$DIMSOXD
 70
     0
  9
$DIMSAH
 70
     0
  9
$DIMBLK1
  1

  9
$DIMBLK2
  1

  9
$DIMSTYLE
  2
ISO-25
  9
$DIMCLRD
 70
     0
  9
$DIMCLRE
 70
     0
  9
$DIMCLRT
 70
     0
  9
$DIMTFAC
 40
1.0
  9
$DIMGAP
 40
0.625
  9
$LUNITS
 70
     2
  9
$LUPREC
 70
     3
  9
$SKETCHINC
 40
1.0
  9
$FILLETRAD
 40
10.0
  9
$AUNITS
 70
     0
  9
$AUPREC
 70
     0
  9
$MENU
  1
.
  9
$ELEVATION
 40
0.0
  9
$PELEVATION
 40
0.0
  9
$THICKNESS
 40
0.0
  9
$LIMCHECK
 70
     0
  9
$CHAMFERA
 40
10.0
  9
$CHAMFERB
 40
10.0
  9
$SKPOLY
 70
     0
  9
$TDCREATE
 40
2455022.720692848
  9
$TDUPDATE
 40
2460462.501250278
  9
$TDINDWG
 40
0.0001603819
  9
$TDUSRTIMER
 40
0.0001603819
  9
$USRTIMER
 70
     1
  9
$ANGBASE
 50
0.0
  9
$ANGDIR
 70
     0
  9
$PDMODE
 70
     0
  9
$PDSIZE
 40
0.0
  9
$PLINEWID
 40
0.0
  9
$COORDS
 70
     1
  9
$SPLFRAME
 70
     0
  9
$SPLINETYPE
 70
     6
  9
$SPLINESEGS
 70
     8
  9
$ATTDIA
 70
     0
  9
$ATTREQ
 70
     1
  9
$HANDLING
 70
     1
  9
$HANDSEED
  5
1448
  9
$SURFTAB1
 70
     6
  9
$SURFTAB2
 70
     6
  9
$SURFTYPE
 70
     6
  9
$SURFU
 70
     6
  9
$SURFV
 70
     6
  9
$UCSNAME
  2

  9
$UCSORG
 10
0.0
 20
0.0
 30
0.0
  9
$UCSXDIR
 10
1.0
 20
0.0
 30
0.0
  9
$UCSYDIR
 10
0.0
 20
1.0
 30
0.0
  9
$PUCSNAME
  2

  9
$PUCSORG
 10
0.0
 20
0.0
 30
0.0
  9
$PUCSXDIR
 10
1.0
 20
0.0
 30
0.0
  9
$PUCSYDIR
 10
0.0
 20
1.0
 30
0.0
  9
$USERI1
 70
     0
  9
$USERI2
 70
     0
  9
$USERI3
 70
     0
  9
$USERI4
 70
     0
  9
$USERI5
 70
     0
  9
$USERR1
 40
0.0
  9
$USERR2
 40
0.0
  9
$USERR3
 40
0.0
  9
$USERR4
 40
0.0
  9
$USERR5
 40
0.0
  9
$WORLDVIEW
 70
     1
  9
$SHADEDGE
 70
     3
  9
$SHADEDIF
 70
    70
  9
$TILEMODE
 70
     1
  9
$MAXACTVP
 70
    64
  9
$PLIMCHECK
 70
     0
  9
$PEXTMIN
 10
1.000000000000000E+20
 20
1.000000000000000E+20
 30
1.000000000000000E+20
  9
$PEXTMAX
 10
-1.000000000000000E+20
 20
-1.000000000000000E+20
 30
-1.000000000000000E+20
  9
$PLIMMIN
 10
0.0
 20
0.0
  9
$PLIMMAX
 10
0.0
 20
0.0
  9
$UNITMODE
 70
     0
  9
$VISRETAIN
 70
     1
  9
$PLINEGEN
 70
     0
  9
$PSLTSCALE
 70
     1
  0
ENDSEC
  0
SECTION
  2
TABLES
  0
TABLE
  2
VPORT
 70
     1
  0
VPORT
  2
*ACTIVE
 70
     0
 10
0.0
 20
0.0
 11
1.0
 21
1.0
 12
-231.1058914297716
 22
-150.6348168561721
 13
0.0
 23
0.0
 14
10.0
 24
10.0
 15
10.0
 25
10.0
 16
0.5773502691896226
 26
0.5773502691896226
 36
0.5773502691896226
 17
-134.1869158878504
 27
-0.0000000000000284
 37
0.0
 40
224.8631583875986
 41
1.89041095890411
 42
50.0
 43
0.0
 44
0.0
 50
0.0
 51
0.0
 71
    16
 72
  1000
 73
     1
 74
     3
 75
     0
 76
     0
 77
     0
 78
     0
  0
ENDTAB
  0
TABLE
  2
LTYPE
 70
     1
  0
LTYPE
  2
CONTINUOUS
 70
     0
  3
Solid line
 72
    65
 73
     0
 40
0.0
  0
ENDTAB
  0
TABLE
  2
LAYER
 70
     1
  0
LAYER
  2
0
 70
     0
 62
     7
  6
CONTINUOUS
  0
ENDTAB
  0
TABLE
  2
STYLE
 70
     2
  0
STYLE
  2
STANDARD
 70
     0
 40
0.0
 41
1.0
 50
0.0
 71
     0
 42
2.5
  3
arial.ttf
  4

  0
STYLE
  2
ANNOTATIVE
 70
     0
 40
0.0
 41
1.0
 50
0.0
 71
     0
 42
2.5
  3
arial.ttf
  4

  0
ENDTAB
  0
TABLE
  2
VIEW
 70
     0
  0
ENDTAB
  0
TABLE
  2
UCS
 70
     0
  0
ENDTAB
  0
TABLE
  2
APPID
 70
     2
  0
APPID
  2
ACAD
 70
     0
  0
APPID
  2
ACADANNOTATIVE
 70
     0
  0
ENDTAB
  0
TABLE
  2
DIMSTYLE
 70
     2
  0
DIMSTYLE
  2
ISO-25
 70
     0
  3

  4

  5

  6

  7

 40
1.0
 41
2.5
 42
0.625
 43
3.75
 44
1.25
 45
0.0
 46
0.0
 47
0.0
 48
0.0
140
2.5
141
-2.5
142
0.0
143
0.03937007874016
144
1.0
145
0.0
146
1.0
147
0.625
 71
     0
 72
     0
 73
     0
 74
     0
 75
     0
 76
     0
 77
     1
 78
     8
170
     0
171
     3
172
     1
173
     0
174
     0
175
     0
176
     0
177
     0
178
     0
  0
DIMSTYLE
  2
ANNOTATIVE
 70
     0
  3

  4

  5

  6

  7

 40
0.0
 41
2.5
 42
0.625
 43
3.75
 44
1.25
 45
0.0
 46
0.0
 47
0.0
 48
0.0
140
2.5
141
-2.5
142
0.0
143
0.03937007874016
144
1.0
145
0.0
146
1.0
147
0.625
 71
     0
 72
     0
 73
     0
 74
     0
 75
     0
 76
     0
 77
     1
 78
     8
170
     0
171
     3
172
     1
173
     0
174
     0
175
     0
176
     0
177
     0
178
     0
  0
ENDTAB
  0
ENDSEC
  0
SECTION
  2
BLOCKS
  0
BLOCK
  8
0
  2
$MODEL_SPACE
 70
     0
 10
0.0
 20
0.0
 30
0.0
  3
$MODEL_SPACE
  1

  0
ENDBLK
  5
21
  8
0
  0
BLOCK
 67
     1
  8
0
  2
$PAPER_SPACE
 70
     0
 10
0.0
 20
0.0
 30
0.0
  3
$PAPER_SPACE
  1

  0
ENDBLK
  5
1D
 67
     1
  8
0
  0
BLOCK
  8
0
  2
*X1
 70
     1
 10
0.0
 20
0.0
 30
0.0
  3
*X1
  1

  0
POLYLINE
  5
A8C
  8
0
 66
     1
 10
0.0
 20
0.0
 30
0.0
 70
    64
 71
    32
 72
    32
  0
VERTEX
  5
A8D
  8
0
 10
0.0158753192101315
 20
27.3538298835325
 30
1.2811534881217
 70
   192
  0
VERTEX
  5
A8E
  8
0
 10
0.0158753192358284
 20
29.79903826558506
 30
0.6424555836466447
 70
   192
  0
VERTEX
  5
A8F
  8
0
 10
0.0158753192342436
 20
31.71513197905169
 30
-1.273638129812123
 70
   192
  0
VERTEX
  5
A90
  8
0
 10
0.0158753192059962
 20
32.3538298835423
 30
-3.71884651186759
 70
   192
  0
VERTEX
  5
A91
  8
0
 10
0.0158753192067351
 20
32.3538298835393
 30
-38.7188465119316
 70
   192
  0
VERTEX
  5
A92
  8
0
 10
0.0158753193097891
 20
31.71513197903695
 30
-41.16405489397286
 70
   192
  0
VERTEX
  5
A93
  8
0
 10
0.0158753193108075
 20
29.79903826558326
 30
-43.08014860741007
 70
   192
  0
VERTEX
  5
A94
  8
0
 10
0.0158753192093926
 20
27.3538298835481
 30
-43.7188465118798
 70
   192
  0
VERTEX
  5
A95
  8
0
 10
0.0158753192087673
 20
-27.6461701164628
 30
-43.7188465119216
 70
   192
  0
VERTEX
  5
A96
  8
0
 10
0.015875319810585
 20
-30.09137849851737
 30
-43.08014860743634
 70
   192
  0
VERTEX
  5
A97
  8
0
 10
0.0158753198100459
 20
-32.00747221197768
 30
-41.164054893977
 70
   192
  0
VERTEX
  5
A98
  8
0
 10
0.0158753192073604
 20
-32.6461701164648
 30
-38.7188465119221
 70
   192
  0
VERTEX
  5
A99
  8
0
 10
0.0158753192072751
 20
-32.64617011646671
 30
-3.71884651186602
 70
   192
  0
VERTEX
  5
A9A
  8
0
 10
0.0158753197986475
 20
-32.00747221196854
 30
-1.273638129816073
 70
   192
  0
VERTEX
  5
A9B
  8
0
 10
0.015875319799252
 20
-30.0913784985113
 30
0.6424555836308594
 70
   192
  0
VERTEX
  5
A9C
  8
0
 10
0.0158753192088525
 20
-27.6461701164652
 30
1.2811534881086
 70
   192
  0
VERTEX
  5
A9D
  8
0
 10
0.0158753192088525
 20
-27.646170116468
 30
-1.2188465118914
 70
   192
  0
VERTEX
  5
A9E
  8
0
 10
0.0158753192088503
 20
-28.86877430749105
 30
-1.538195464130865
 70
   192
  0
VERTEX
  5
A9F
  8
0
 10
0.0158753192088503
 20
-29.82682116421964
 30
-2.496242320853476
 70
   192
  0
VERTEX
  5
AA0
  8
0
 10
0.0158753192088525
 20
-30.1461701164667
 30
-3.71884651187449
 70
   192
  0
VERTEX
  5
AA1
  8
0
 10
0.0158753192088525
 20
-30.1461701164648
 30
-38.7188465119217
 70
   192
  0
VERTEX
  5
AA2
  8
0
 10
0.0158753192088507
 20
-29.82682116422163
 30
-39.94145070294895
 70
   192
  0
VERTEX
  5
AA3
  8
0
 10
0.0158753192088507
 20
-28.86877430749189
 30
-40.89949755967859
 70
   192
  0
VERTEX
  5
AA4
  8
0
 10
0.0158753192088525
 20
-27.6461701164646
 30
-41.2188465119216
 70
   192
  0
VERTEX
  5
AA5
  8
0
 10
0.0158753192088525
 20
27.3538298835537
 30
-41.2188465118798
 70
   192
  0
VERTEX
  5
AA6
  8
0
 10
0.0158753192088505
 20
28.57643407456843
 30
-40.89949755964456
 70
   192
  0
VERTEX
  5
AA7
  8
0
 10
0.0158753192088505
 20
29.53448093129185
 30
-39.94145070293072
 70
   192
  0
VERTEX
  5
AA8
  8
0
 10
0.0158753192088525
 20
29.8538298835393
 30
-38.7188465119192
 70
   192
  0
VERTEX
  5
AA9
  8
0
 10
0.0158753192088525
 20
29.8538298835423
 30
-3.71884651186867
 70
   192
  0
VERTEX
  5
AAA
  8
0
 10
0.0158753192088521
 20
29.53448093129801
 30
-2.496242320843483
 70
   192
  0
VERTEX
  5
AAB
  8
0
 10
0.0158753192088521
 20
28.57643407456721
 30
-1.538195464117023
 70
   192
  0
VERTEX
  5
AAC
  8
0
 10
0.0158753192088525
 20
27.3538298835406
 30
-1.2188465118783
 70
   192
  0
VERTEX
  5
AAD
  8
0
 10
0.0
 20
0.0
 30
0.0
 70
   128
 71
   -15
 72
    17
 73
   -18
  0
VERTEX
  5
AAE
  8
0
 10
0.0
 20
0.0
 30
0.0
 70
   128
 71
   -19
 72
    14
 73
   -15
  0
VERTEX
  5
AAF
  8
0
 10
0.0
 20
0.0
 30
0.0
 70
   128
 71
    18
 72
   -19
 73
   -15
  0
VERTEX
  5
AB0
  8
0
 10
0.0
 20
0.0
 30
0.0
 70
   128
 71
    19
 72
   -20
 73
   -14
  0
VERTEX
  5
AB1
  8
0
 10
0.0
 20
0.0
 30
0.0
 70
   128
 71
    12
 72
    13
 73
   -14
  0
VERTEX
  5
AB2
  8
0
 10
0.0
 20
0.0
 30
0.0
 70
   128
 71
    11
 72
   -12
 73
   -14
  0
VERTEX
  5
AB3
  8
0
 10
0.0
 20
0.0
 30
0.0
 70
   128
 71
   -21
 72
   -11
 73
   -14
  0
VERTEX
  5
AB4
  8
0
 10
0.0
 20
0.0
 30
0.0
 70
   128
 71
    20
 72
   -21
 73
   -14
  0
VERTEX
  5
AB5
  8
0
 10
0.0
 20
0.0
 30
0.0
 70
   128
 71
    21
 72
   -22
 73
   -11
  0
VERTEX
  5
AB6
  8
0
 10
0.0
 20
0.0
 30
0.0
 70
   128
 71
   -23
 72
    10
 73
   -11
  0
VERTEX
  5
AB7
  8
0
 10
0.0
 20
0.0
 30
0.0
 70
   128
 71
    22
 72
   -23
 73
   -11
  0
VERTEX
  5
AB8
  8
0
 10
0.0
 20
0.0
 30
0.0
 70
   128
 71
    23
 72
   -24
 73
   -10
  0
VERTEX
  5
AB9
  8
0
 10
0.0
 20
0.0
 30
0.0
 70
   128
 71
     8
 72
     9
 73
   -10
  0
VERTEX
  5
ABA
  8
0
 10
0.0
 20
0.0
 30
0.0
 70
   128
 71
     7
 72
    -8
 73
   -10
  0
VERTEX
  5
ABB
  8
0
 10
0.0
 20
0.0
 30
0.0
 70
   128
 71
   -25
 72
    -7
 73
   -10
  0
VERTEX
  5
ABC
  8
0
 10
0.0
 20
0.0
 30
0.0
 70
   128
 71
    24
 72
   -25
 73
   -10
  0
VERTEX
  5
ABD
  8
0
 10
0.0
 20
0.0
 30
0.0
 70
   128
 71
    25
 72
   -26
 73
    -7
  0
VERTEX
  5
ABE
  8
0
 10
0.0
 20
0.0
 30
0.0
 70
   128
 71
   -27
 72
     6
 73
    -7
  0
VERTEX
  5
ABF
  8
0
 10
0.0
 20
0.0
 30
0.0
 70
   128
 71
    26
 72
   -27
 73
    -7
  0
VERTEX
  5
AC0
  8
0
 10
0.0
 20
0.0
 30
0.0
 70
   128
 71
    27
 72
   -28
 73
    -6
  0
VERTEX
  5
AC1
  8
0
 10
0.0
 20
0.0
 30
0.0
 70
   128
 71
     4
 72
     5
 73
    -6
  0
VERTEX
  5
AC2
  8
0
 10
0.0
 20
0.0
 30
0.0
 70
   128
 71
     3
 72
    -4
 73
    -6
  0
VERTEX
  5
AC3
  8
0
 10
0.0
 20
0.0
 30
0.0
 70
   128
 71
   -29
 72
    -3
 73
    -6
  0
VERTEX
  5
AC4
  8
0
 10
0.0
 20
0.0
 30
0.0
 70
   128
 71
    28
 72
   -29
 73
    -6
  0
VERTEX
  5
AC5
  8
0
 10
0.0
 20
0.0
 30
0.0
 70
   128
 71
    29
 72
   -30
 73
    -3
  0
VERTEX
  5
AC6
  8
0
 10
0.0
 20
0.0
 30
0.0
 70
   128
 71
   -31
 72
     2
 73
    -3
  0
VERTEX
  5
AC7
  8
0
 10
0.0
 20
0.0
 30
0.0
 70
   128
 71
    30
 72
   -31
 73
    -3
  0
VERTEX
  5
AC8
  8
0
 10
0.0
 20
0.0
 30
0.0
 70
   128
 71
    31
 72
   -32
 73
    -2
  0
VERTEX
  5
AC9
  8
0
 10
0.0
 20
0.0
 30
0.0
 70
   128
 71
    16
 72
     1
 73
    -2
  0
VERTEX
  5
ACA
  8
0
 10
0.0
 20
0.0
 30
0.0
 70
   128
 71
    15
 72
   -16
 73
    -2
  0
VERTEX
  5
ACB
  8
0
 10
0.0
 20
0.0
 30
0.0
 70
   128
 71
   -17
 72
   -15
 73
    -2
  0
VERTEX
  5
ACC
  8
0
 10
0.0
 20
0.0
 30
0.0
 70
   128
 71
    32
 72
   -17
 73
    -2
  0
SEQEND
  5
13E1
  8
0
  0
POLYLINE
  5
ACD
  8
0
 66
     1
 10
0.0
 20
0.0
 30
0.0
 70
    64
 71
     8
 72
     6
  0
VERTEX
  5
ACE
  8
0
 10
9.015875319208009
 20
-27.6461701164622
 30
-43.7188465119266
 70
   192
  0
VERTEX
  5
ACF
  8
0
 10
9.015875319811183
 20
-30.09137849851786
 30
-43.08014860743646
 70
   192
  0
VERTEX
  5
AD0
  8
0
 10
9.015875319810945
 20
-32.00747221197718
 30
-41.16405489397515
 70
   192
  0
VERTEX
  5
AD1
  8
0
 10
9.015875319207389
 20
-32.6461701164647
 30
-38.7188465119189
 70
   192
  0
VERTEX
  5
AD2
  8
0
 10
0.0158753192073604
 20
-32.6461701164648
 30
-38.7188465119221
 70
   192
  0
VERTEX
  5
AD3
  8
0
 10
0.0158753198100459
 20
-32.00747221197768
 30
-41.164054893977
 70
   192
  0
VERTEX
  5
AD4
  8
0
 10
0.015875319810585
 20
-30.09137849851737
 30
-43.08014860743634
 70
   192
  0
VERTEX
  5
AD5
  8
0
 10
0.0158753192087673
 20
-27.6461701164628
 30
-43.7188465119216
 70
   192
  0
VERTEX
  5
AD6
  8
0
 10
0.0
 20
0.0
 30
0.0
 70
   128
 71
     4
 72
     5
 73
    -6
  0
VERTEX
  5
AD7
  8
0
 10
0.0
 20
0.0
 30
0.0
 70
   128
 71
     3
 72
    -4
 73
     6
  0
VERTEX
  5
AD8
  8
0
 10
0.0
 20
0.0
 30
0.0
 70
   128
 71
     7
 72
     2
 73
    -3
  0
VERTEX
  5
AD9
  8
0
 10
0.0
 20
0.0
 30
0.0
 70
   128
 71
     6
 72
    -7
 73
     3
  0
VERTEX
  5
ADA
  8
0
 10
0.0
 20
0.0
 30
0.0
 70
   128
 71
     8
 72
     1
 73
    -2
  0
VERTEX
  5
ADB
  8
0
 10
0.0
 20
0.0
 30
0.0
 70
   128
 71
     7
 72
    -8
 73
     2
  0
SEQEND
  5
13E2
  8
0
  0
POLYLINE
  5
ADC
  8
0
 66
     1
 10
0.0
 20
0.0
 30
0.0
 70
    64
 71
     8
 72
     6
  0
VERTEX
  5
ADD
  8
0
 10
9.01587531920803
 20
32.3538298835405
 30
-38.7188465119491
 70
   192
  0
VERTEX
  5
ADE
  8
0
 10
9.015875319310332
 20
31.71513197903729
 30
-41.16405489398444
 70
   192
  0
VERTEX
  5
ADF
  8
0
 10
9.015875319310712
 20
29.79903826558338
 30
-43.08014860741388
 70
   192
  0
VERTEX
  5
AE0
  8
0
 10
9.01587531920902
 20
27.3538298835483
 30
-43.7188465118774
 70
   192
  0
VERTEX
  5
AE1
  8
0
 10
0.0158753192093926
 20
27.3538298835481
 30
-43.7188465118798
 70
   192
  0
VERTEX
  5
AE2
  8
0
 10
0.0158753193108075
 20
29.79903826558326
 30
-43.08014860741007
 70
   192
  0
VERTEX
  5
AE3
  8
0
 10
0.0158753193097891
 20
31.71513197903695
 30
-41.16405489397286
 70
   192
  0
VERTEX
  5
AE4
  8
0
 10
0.0158753192067351
 20
32.3538298835393
 30
-38.7188465119316
 70
   192
  0
VERTEX
  5
AE5
  8
0
 10
0.0
 20
0.0
 30
0.0
 70
   128
 71
     4
 72
     5
 73
    -6
  0
VERTEX
  5
AE6
  8
0
 10
0.0
 20
0.0
 30
0.0
 70
   128
 71
     3
 72
    -4
 73
     6
  0
VERTEX
  5
AE7
  8
0
 10
0.0
 20
0.0
 30
0.0
 70
   128
 71
     7
 72
     2
 73
    -3
  0
VERTEX
  5
AE8
  8
0
 10
0.0
 20
0.0
 30
0.0
 70
   128
 71
     6
 72
    -7
 73
     3
  0
VERTEX
  5
AE9
  8
0
 10
0.0
 20
0.0
 30
0.0
 70
   128
 71
     8
 72
     1
 73
    -2
  0
VERTEX
  5
AEA
  8
0
 10
0.0
 20
0.0
 30
0.0
 70
   128
 71
     7
 72
    -8
 73
     2
  0
SEQEND
  5
13E3
  8
0
  0
POLYLINE
  5
AEB
  8
0
 66
     1
 10
0.0
 20
0.0
 30
0.0
 70
    64
 71
     8
 72
     6
  0
VERTEX
  5
AEC
  8
0
 10
9.01587531920803
 20
27.3538298835303
 30
1.28115348812431
 70
   192
  0
VERTEX
  5
AED
  8
0
 10
9.015875319234707
 20
29.79903826558358
 30
0.6424555836470465
 70
   192
  0
VERTEX
  5
AEE
  8
0
 10
9.015875319234109
 20
31.7151319790512
 30
-1.273638129812578
 70
   192
  0
VERTEX
  5
AEF
  8
0
 10
9.01587531920647
 20
32.3538298835438
 30
-3.7188465118683
 70
   192
  0
VERTEX
  5
AF0
  8
0
 10
0.0158753192059962
 20
32.3538298835423
 30
-3.71884651186759
 70
   192
  0
VERTEX
  5
AF1
  8
0
 10
0.0158753192342436
 20
31.71513197905169
 30
-1.273638129812123
 70
   192
  0
VERTEX
  5
AF2
  8
0
 10
0.0158753192358284
 20
29.79903826558506
 30
0.6424555836466447
 70
   192
  0
VERTEX
  5
AF3
  8
0
 10
0.0158753192101315
 20
27.3538298835325
 30
1.2811534881217
 70
   192
  0
VERTEX
  5
AF4
  8
0
 10
0.0
 20
0.0
 30
0.0
 70
   128
 71
     4
 72
     5
 73
    -6
  0
VERTEX
  5
AF5
  8
0
 10
0.0
 20
0.0
 30
0.0
 70
   128
 71
     3
 72
    -4
 73
     6
  0
VERTEX
  5
AF6
  8
0
 10
0.0
 20
0.0
 30
0.0
 70
   128
 71
     7
 72
     2
 73
    -3
  0
VERTEX
  5
AF7
  8
0
 10
0.0
 20
0.0
 30
0.0
 70
   128
 71
     6
 72
    -7
 73
     3
  0
VERTEX
  5
AF8
  8
0
 10
0.0
 20
0.0
 30
0.0
 70
   128
 71
     8
 72
     1
 73
    -2
  0
VERTEX
  5
AF9
  8
0
 10
0.0
 20
0.0
 30
0.0
 70
   128
 71
     7
 72
    -8
 73
     2
  0
SEQEND
  5
13E4
  8
0
  0
POLYLINE
  5
AFA
  8
0
 66
     1
 10
0.0
 20
0.0
 30
0.0
 70
    64
 71
     8
 72
     6
  0
VERTEX
  5
AFB
  8
0
 10
9.01587531920779
 20
-32.64617011646671
 30
-3.71884651184721
 70
   192
  0
VERTEX
  5
AFC
  8
0
 10
9.015875319799518
 20
-32.00747221196394
 30
-1.273638129803772
 70
   192
  0
VERTEX
  5
AFD
  8
0
 10
9.015875319799845
 20
-30.09137849850761
 30
0.6424555836329244
 70
   192
  0
VERTEX
  5
AFE
  8
0
 10
9.01587531920864
 20
-27.6461701164649
 30
1.28115348810334
 70
   192
  0
VERTEX
  5
AFF
  8
0
 10
0.0158753192088525
 20
-27.6461701164652
 30
1.2811534881086
 70
   192
  0
VERTEX
  5
B00
  8
0
 10
0.015875319799252
 20
-30.0913784985113
 30
0.6424555836308594
 70
   192
  0
VERTEX
  5
B01
  8
0
 10
0.0158753197986475
 20
-32.00747221196854
 30
-1.273638129816073
 70
   192
  0
VERTEX
  5
B02
  8
0
 10
0.0158753192072751
 20
-32.64617011646671
 30
-3.71884651186602
 70
   192
  0
VERTEX
  5
B03
  8
0
 10
0.0
 20
0.0
 30
0.0
 70
   128
 71
     4
 72
     5
 73
    -6
  0
VERTEX
  5
B04
  8
0
 10
0.0
 20
0.0
 30
0.0
 70
   128
 71
     3
 72
    -4
 73
     6
  0
VERTEX
  5
B05
  8
0
 10
0.0
 20
0.0
 30
0.0
 70
   128
 71
     7
 72
     2
 73
    -3
  0
VERTEX
  5
B06
  8
0
 10
0.0
 20
0.0
 30
0.0
 70
   128
 71
     6
 72
    -7
 73
     3
  0
VERTEX
  5
B07
  8
0
 10
0.0
 20
0.0
 30
0.0
 70
   128
 71
     8
 72
     1
 73
    -2
  0
VERTEX
  5
B08
  8
0
 10
0.0
 20
0.0
 30
0.0
 70
   128
 71
     7
 72
    -8
 73
     2
  0
SEQEND
  5
13E5
  8
0
  0
POLYLINE
  5
B09
  8
0
 66
     1
 10
0.0
 20
0.0
 30
0.0
 70
    64
 71
    32
 72
    32
  0
VERTEX
  5
B0A
  8
0
 10
10.0158753192081
 20
-27.6461701164611
 30
-42.7188465119298
 70
   192
  0
VERTEX
  5
B0B
  8
0
 10
10.015875319209
 20
27.3538298835396
 30
-42.7188465118756
 70
   192
  0
VERTEX
  5
B0C
  8
0
 10
10.01587531924986
 20
29.30999658916843
 30
-42.20788818832687
 70
   192
  0
VERTEX
  5
B0D
  8
0
 10
10.01587531924951
 20
30.84287155994224
 30
-40.67501321758493
 70
   192
  0
VERTEX
  5
B0E
  8
0
 10
10.0158753192081
 20
31.3538298835411
 30
-38.7188465119573
 70
   192
  0
VERTEX
  5
B0F
  8
0
 10
10.0158753192066
 20
31.3538298835452
 30
-3.71884651187196
 70
   192
  0
VERTEX
  5
B10
  8
0
 10
10.01587531921742
 20
30.84287155996493
 30
-1.762679806221715
 70
   192
  0
VERTEX
  5
B11
  8
0
 10
10.01587531921799
 20
29.3099965891891
 30
-0.2298048354511362
 70
   192
  0
VERTEX
  5
B12
  8
0
 10
10.0158753192081
 20
27.3538298835337
 30
0.281153488125877
 70
   192
  0
VERTEX
  5
B13
  8
0
 10
10.0158753192086
 20
-27.6461701163613
 30
0.28115348810277
 70
   192
  0
VERTEX
  5
B14
  8
0
 10
10.01587531944522
 20
-29.60233682199108
 30
-0.2298048354078933
 70
   192
  0
VERTEX
  5
B15
  8
0
 10
10.01587531944503
 20
-31.13521179280108
 30
-1.762679806156201
 70
   192
  0
VERTEX
  5
B16
  8
0
 10
10.0158753192081
 20
-31.6461701164668
 30
-3.71884651184178
 70
   192
  0
VERTEX
  5
B17
  8
0
 10
10.0158753192075
 20
-31.64617011646481
 30
-38.7188465118112
 70
   192
  0
VERTEX
  5
B18
  8
0
 10
10.01587531944882
 20
-31.13521179294469
 30
-40.67501321745742
 70
   192
  0
VERTEX
  5
B19
  8
0
 10
10.01587531944905
 20
-29.6023368221718
 30
-42.20788818827434
 70
   192
  0
VERTEX
  5
B1A
  8
0
 10
10.0158753192081
 20
17.3960279501489
 30
-27.8534017437508
 70
   192
  0
VERTEX
  5
B1B
  8
0
 10
10.0158753192081
 20
17.12715034575864
 30
-28.86120178753499
 70
   192
  0
VERTEX
  5
B1C
  8
0
 10
10.0158753192081
 20
16.39302915906503
 30
-29.60120650742669
 70
   192
  0
VERTEX
  5
B1D
  8
0
 10
10.0158753192081
 20
15.3867711367303
 30
-29.8741025487612
 70
   192
  0
VERTEX
  5
B1E
  8
0
 10
10.0158753192081
 20
-17.9187037078408
 30
-29.8741025487237
 70
   192
  0
VERTEX
  5
B1F
  8
0
 10
10.0158753192081
 20
-18.92496173023774
 30
-29.60120650748027
 70
   192
  0
VERTEX
  5
B20
  8
0
 10
10.0158753192081
 20
-19.6590829169234
 30
-28.86120178755782
 70
   192
  0
VERTEX
  5
B21
  8
0
 10
10.0158753192081
 20
-19.9279605213094
 30
-27.853401743753
 70
   192
  0
VERTEX
  5
B22
  8
0
 10
10.0158753192081
 20
-19.927960521309
 30
-14.584291279087
 70
   192
  0
VERTEX
  5
B23
  8
0
 10
10.0158753192081
 20
-19.6590829169187
 30
-13.57649123530279
 70
   192
  0
VERTEX
  5
B24
  8
0
 10
10.0158753192081
 20
-18.92496173022511
 30
-12.83648651541107
 70
   192
  0
VERTEX
  5
B25
  8
0
 10
10.0158753192081
 20
-17.9187037078904
 30
-12.5635904740766
 70
   192
  0
VERTEX
  5
B26
  8
0
 10
10.0158753192081
 20
15.3867711366807
 30
-12.5635904741141
 70
   192
  0
VERTEX
  5
B27
  8
0
 10
10.0158753192081
 20
16.39302915907764
 30
-12.83648651535753
 70
   192
  0
VERTEX
  5
B28
  8
0
 10
10.0158753192081
 20
17.1271503457633
 30
-13.57649123527997
 70
   192
  0
VERTEX
  5
B29
  8
0
 10
10.0158753192081
 20
17.3960279501493
 30
-14.5842912790848
 70
   192
  0
VERTEX
  5
B2A
  8
0
 10
0.0
 20
0.0
 30
0.0
 70
   128
 71
    -2
 72
    17
 73
   -18
  0
VERTEX
  5
B2B
  8
0
 10
0.0
 20
0.0
 30
0.0
 70
   128
 71
    18
 72
   -19
 73
    -2
  0
VERTEX
  5
B2C
  8
0
 10
0.0
 20
0.0
 30
0.0
 70
   128
 71
    19
 72
   -20
 73
    -2
  0
VERTEX
  5
B2D
  8
0
 10
0.0
 20
0.0
 30
0.0
 70
   128
 71
   -21
 72
     1
 73
    -2
  0
VERTEX
  5
B2E
  8
0
 10
0.0
 20
0.0
 30
0.0
 70
   128
 71
    20
 72
   -21
 73
    -2
  0
VERTEX
  5
B2F
  8
0
 10
0.0
 20
0.0
 30
0.0
 70
   128
 71
    21
 72
   -22
 73
    -1
  0
VERTEX
  5
B30
  8
0
 10
0.0
 20
0.0
 30
0.0
 70
   128
 71
    22
 72
   -23
 73
    -1
  0
VERTEX
  5
B31
  8
0
 10
0.0
 20
0.0
 30
0.0
 70
   128
 71
    23
 72
   -24
 73
    -1
  0
VERTEX
  5
B32
  8
0
 10
0.0
 20
0.0
 30
0.0
 70
   128
 71
    15
 72
    16
 73
    -1
  0
VERTEX
  5
B33
  8
0
 10
0.0
 20
0.0
 30
0.0
 70
   128
 71
    14
 72
   -15
 73
    -1
  0
VERTEX
  5
B34
  8
0
 10
0.0
 20
0.0
 30
0.0
 70
   128
 71
    13
 72
   -14
 73
    -1
  0
VERTEX
  5
B35
  8
0
 10
0.0
 20
0.0
 30
0.0
 70
   128
 71
   -25
 72
   -13
 73
    -1
  0
VERTEX
  5
B36
  8
0
 10
0.0
 20
0.0
 30
0.0
 70
   128
 71
    24
 72
   -25
 73
    -1
  0
VERTEX
  5
B37
  8
0
 10
0.0
 20
0.0
 30
0.0
 70
   128
 71
    25
 72
   -26
 73
   -13
  0
VERTEX
  5
B38
  8
0
 10
0.0
 20
0.0
 30
0.0
 70
   128
 71
    26
 72
   -27
 73
   -13
  0
VERTEX
  5
B39
  8
0
 10
0.0
 20
0.0
 30
0.0
 70
   128
 71
    27
 72
   -28
 73
   -13
  0
VERTEX
  5
B3A
  8
0
 10
0.0
 20
0.0
 30
0.0
 70
   128
 71
    11
 72
    12
 73
   -13
  0
VERTEX
  5
B3B
  8
0
 10
0.0
 20
0.0
 30
0.0
 70
   128
 71
    10
 72
   -11
 73
   -13
  0
VERTEX
  5
B3C
  8
0
 10
0.0
 20
0.0
 30
0.0
 70
   128
 71
     9
 72
   -10
 73
   -13
  0
VERTEX
  5
B3D
  8
0
 10
0.0
 20
0.0
 30
0.0
 70
   128
 71
   -29
 72
    -9
 73
   -13
  0
VERTEX
  5
B3E
  8
0
 10
0.0
 20
0.0
 30
0.0
 70
   128
 71
    28
 72
   -29
 73
   -13
  0
VERTEX
  5
B3F
  8
0
 10
0.0
 20
0.0
 30
0.0
 70
   128
 71
    29
 72
   -30
 73
    -9
  0
VERTEX
  5
B40
  8
0
 10
0.0
 20
0.0
 30
0.0
 70
   128
 71
    30
 72
   -31
 73
    -9
  0
VERTEX
  5
B41
  8
0
 10
0.0
 20
0.0
 30
0.0
 70
   128
 71
    31
 72
   -32
 73
    -9
  0
VERTEX
  5
B42
  8
0
 10
0.0
 20
0.0
 30
0.0
 70
   128
 71
     7
 72
     8
 73
    -9
  0
VERTEX
  5
B43
  8
0
 10
0.0
 20
0.0
 30
0.0
 70
   128
 71
     6
 72
    -7
 73
    -9
  0
VERTEX
  5
B44
  8
0
 10
0.0
 20
0.0
 30
0.0
 70
   128
 71
     5
 72
    -6
 73
    -9
  0
VERTEX
  5
B45
  8
0
 10
0.0
 20
0.0
 30
0.0
 70
   128
 71
     4
 72
    -5
 73
    -9
  0
VERTEX
  5
B46
  8
0
 10
0.0
 20
0.0
 30
0.0
 70
   128
 71
     3
 72
    -4
 73
    -9
  0
VERTEX
  5
B47
  8
0
 10
0.0
 20
0.0
 30
0.0
 70
   128
 71
     2
 72
    -3
 73
    -9
  0
VERTEX
  5
B48
  8
0
 10
0.0
 20
0.0
 30
0.0
 70
   128
 71
   -17
 72
    -2
 73
    -9
  0
VERTEX
  5
B49
  8
0
 10
0.0
 20
0.0
 30
0.0
 70
   128
 71
    32
 72
   -17
 73
    -9
  0
SEQEND
  5
13E6
  8
0
  0
POLYLINE
  5
B4A
  8
0
 66
     1
 10
0.0
 20
0.0
 30
0.0
 70
    64
 71
     4
 72
     2
  0
VERTEX
  5
B4B
  8
0
 10
9.01587531920779
 20
-32.64617011646671
 30
-3.71884651184721
 70
   192
  0
VERTEX
  5
B4C
  8
0
 10
0.0158753192072751
 20
-32.64617011646671
 30
-3.71884651186602
 70
   192
  0
VERTEX
  5
B4D
  8
0
 10
0.0158753192073604
 20
-32.6461701164648
 30
-38.7188465119221
 70
   192
  0
VERTEX
  5
B4E
  8
0
 10
9.015875319207389
 20
-32.6461701164647
 30
-38.7188465119189
 70
   192
  0
VERTEX
  5
B4F
  8
0
 10
0.0
 20
0.0
 30
0.0
 70
   128
 71
     3
 72
     4
 73
    -1
  0
VERTEX
  5
B50
  8
0
 10
0.0
 20
0.0
 30
0.0
 70
   128
 71
     2
 72
    -3
 73
     1
  0
SEQEND
  5
13E7
  8
0
  0
POLYLINE
  5
B51
  8
0
 66
     1
 10
0.0
 20
0.0
 30
0.0
 70
    64
 71
     4
 72
     2
  0
VERTEX
  5
B52
  8
0
 10
9.015875319208009
 20
-27.6461701164622
 30
-43.7188465119266
 70
   192
  0
VERTEX
  5
B53
  8
0
 10
0.0158753192087673
 20
-27.6461701164628
 30
-43.7188465119216
 70
   192
  0
VERTEX
  5
B54
  8
0
 10
0.0158753192093926
 20
27.3538298835481
 30
-43.7188465118798
 70
   192
  0
VERTEX
  5
B55
  8
0
 10
9.01587531920902
 20
27.3538298835483
 30
-43.7188465118774
 70
   192
  0
VERTEX
  5
B56
  8
0
 10
0.0
 20
0.0
 30
0.0
 70
   128
 71
     3
 72
     4
 73
    -1
  0
VERTEX
  5
B57
  8
0
 10
0.0
 20
0.0
 30
0.0
 70
   128
 71
     2
 72
    -3
 73
     1
  0
SEQEND
  5
13E8
  8
0
  0
POLYLINE
  5
B58
  8
0
 66
     1
 10
0.0
 20
0.0
 30
0.0
 70
    64
 71
     4
 72
     2
  0
VERTEX
  5
B59
  8
0
 10
9.01587531920803
 20
32.3538298835405
 30
-38.7188465119491
 70
   192
  0
VERTEX
  5
B5A
  8
0
 10
0.0158753192067351
 20
32.3538298835393
 30
-38.7188465119316
 70
   192
  0
VERTEX
  5
B5B
  8
0
 10
0.0158753192059962
 20
32.3538298835423
 30
-3.71884651186759
 70
   192
  0
VERTEX
  5
B5C
  8
0
 10
9.01587531920647
 20
32.3538298835438
 30
-3.7188465118683
 70
   192
  0
VERTEX
  5
B5D
  8
0
 10
0.0
 20
0.0
 30
0.0
 70
   128
 71
     3
 72
     4
 73
    -1
  0
VERTEX
  5
B5E
  8
0
 10
0.0
 20
0.0
 30
0.0
 70
   128
 71
     2
 72
    -3
 73
     1
  0
SEQEND
  5
13E9
  8
0
  0
POLYLINE
  5
B5F
  8
0
 66
     1
 10
0.0
 20
0.0
 30
0.0
 70
    64
 71
     4
 72
     2
  0
VERTEX
  5
B60
  8
0
 10
9.01587531920803
 20
27.3538298835303
 30
1.28115348812431
 70
   192
  0
VERTEX
  5
B61
  8
0
 10
0.0158753192101315
 20
27.3538298835325
 30
1.2811534881217
 70
   192
  0
VERTEX
  5
B62
  8
0
 10
0.0158753192088525
 20
-27.6461701164652
 30
1.2811534881086
 70
   192
  0
VERTEX
  5
B63
  8
0
 10
9.01587531920864
 20
-27.6461701164649
 30
1.28115348810334
 70
   192
  0
VERTEX
  5
B64
  8
0
 10
0.0
 20
0.0
 30
0.0
 70
   128
 71
     3
 72
     4
 73
    -1
  0
VERTEX
  5
B65
  8
0
 10
0.0
 20
0.0
 30
0.0
 70
   128
 71
     2
 72
    -3
 73
     1
  0
SEQEND
  5
13EA
  8
0
  0
POLYLINE
  5
B66
  8
0
 66
     1
 10
0.0
 20
0.0
 30
0.0
 70
    64
 71
     8
 72
     6
  0
VERTEX
  5
B67
  8
0
 10
10.0158753192081
 20
-31.64617011646681
 30
-3.718846511841781
 70
   192
  0
VERTEX
  5
B68
  8
0
 10
9.888135738310709
 20
-32.13521179287766
 30
-3.718846511843446
 70
   192
  0
VERTEX
  5
B69
  8
0
 10
9.504916995618741
 20
-32.51843053556946
 30
-3.718846511845526
 70
   192
  0
VERTEX
  5
B6A
  8
0
 10
9.01587531920779
 20
-32.64617011646671
 30
-3.71884651184721
 70
   192
  0
VERTEX
  5
B6B
  8
0
 10
9.015875319207389
 20
-32.6461701164647
 30
-38.7188465119189
 70
   192
  0
VERTEX
  5
B6C
  8
0
 10
9.504916995618274
 20
-32.51843053556747
 30
-38.71884651188572
 70
   192
  0
VERTEX
  5
B6D
  8
0
 10
9.888135738310165
 20
-32.13521179287566
 30
-38.71884651184444
 70
   192
  0
VERTEX
  5
B6E
  8
0
 10
10.0158753192075
 20
-31.64617011646481
 30
-38.7188465118112
 70
   192
  0
VERTEX
  5
B6F
  8
0
 10
0.0
 20
0.0
 30
0.0
 70
   128
 71
     4
 72
     5
 73
    -6
  0
VERTEX
  5
B70
  8
0
 10
0.0
 20
0.0
 30
0.0
 70
   128
 71
     3
 72
    -4
 73
     6
  0
VERTEX
  5
B71
  8
0
 10
0.0
 20
0.0
 30
0.0
 70
   128
 71
     7
 72
     2
 73
    -3
  0
VERTEX
  5
B72
  8
0
 10
0.0
 20
0.0
 30
0.0
 70
   128
 71
     6
 72
    -7
 73
     3
  0
VERTEX
  5
B73
  8
0
 10
0.0
 20
0.0
 30
0.0
 70
   128
 71
     8
 72
     1
 73
    -2
  0
VERTEX
  5
B74
  8
0
 10
0.0
 20
0.0
 30
0.0
 70
   128
 71
     7
 72
    -8
 73
     2
  0
SEQEND
  5
13EB
  8
0
  0
POLYLINE
  5
B75
  8
0
 66
     1
 10
0.0
 20
0.0
 30
0.0
 70
    64
 71
     8
 72
     6
  0
VERTEX
  5
B76
  8
0
 10
10.0158753192081
 20
27.3538298835337
 30
0.281153488125877
 70
   192
  0
VERTEX
  5
B77
  8
0
 10
9.888135738310773
 20
27.35382988353272
 30
0.7701951645362455
 70
   192
  0
VERTEX
  5
B78
  8
0
 10
9.504916995618897
 20
27.35382988353141
 30
1.153413907227492
 70
   192
  0
VERTEX
  5
B79
  8
0
 10
9.01587531920803
 20
27.3538298835303
 30
1.28115348812431
 70
   192
  0
VERTEX
  5
B7A
  8
0
 10
9.01587531920864
 20
-27.6461701164649
 30
1.28115348810334
 70
   192
  0
VERTEX
  5
B7B
  8
0
 10
9.504916995619489
 20
-27.64617011643288
 30
1.153413907205887
 70
   192
  0
VERTEX
  5
B7C
  8
0
 10
9.888135738311318
 20
-27.64617011639317
 30
0.770195164513821
 70
   192
  0
VERTEX
  5
B7D
  8
0
 10
10.0158753192086
 20
-27.6461701163613
 30
0.28115348810277
 70
   192
  0
VERTEX
  5
B7E
  8
0
 10
0.0
 20
0.0
 30
0.0
 70
   128
 71
     4
 72
     5
 73
    -6
  0
VERTEX
  5
B7F
  8
0
 10
0.0
 20
0.0
 30
0.0
 70
   128
 71
     3
 72
    -4
 73
     6
  0
VERTEX
  5
B80
  8
0
 10
0.0
 20
0.0
 30
0.0
 70
   128
 71
     7
 72
     2
 73
    -3
  0
VERTEX
  5
B81
  8
0
 10
0.0
 20
0.0
 30
0.0
 70
   128
 71
     6
 72
    -7
 73
     3
  0
VERTEX
  5
B82
  8
0
 10
0.0
 20
0.0
 30
0.0
 70
   128
 71
     8
 72
     1
 73
    -2
  0
VERTEX
  5
B83
  8
0
 10
0.0
 20
0.0
 30
0.0
 70
   128
 71
     7
 72
    -8
 73
     2
  0
SEQEND
  5
13EC
  8
0
  0
POLYLINE
  5
B84
  8
0
 66
     1
 10
0.0
 20
0.0
 30
0.0
 70
    64
 71
     8
 72
     6
  0
VERTEX
  5
B85
  8
0
 10
10.0158753192081
 20
31.35382988354111
 30
-38.71884651195731
 70
   192
  0
VERTEX
  5
B86
  8
0
 10
9.888135738310808
 20
31.84287155995179
 30
-38.7188465119548
 70
   192
  0
VERTEX
  5
B87
  8
0
 10
9.504916995618931
 20
32.22609030264341
 30
-38.71884651195165
 70
   192
  0
VERTEX
  5
B88
  8
0
 10
9.01587531920803
 20
32.3538298835405
 30
-38.7188465119491
 70
   192
  0
VERTEX
  5
B89
  8
0
 10
9.01587531920647
 20
32.3538298835438
 30
-3.7188465118683
 70
   192
  0
VERTEX
  5
B8A
  8
0
 10
9.504916995617364
 20
32.22609030264696
 30
-3.718846511869504
 70
   192
  0
VERTEX
  5
B8B
  8
0
 10
9.888135738309265
 20
31.84287155995564
 30
-3.718846511870906
 70
   192
  0
VERTEX
  5
B8C
  8
0
 10
10.0158753192066
 20
31.3538298835452
 30
-3.71884651187196
 70
   192
  0
VERTEX
  5
B8D
  8
0
 10
0.0
 20
0.0
 30
0.0
 70
   128
 71
     4
 72
     5
 73
    -6
  0
VERTEX
  5
B8E
  8
0
 10
0.0
 20
0.0
 30
0.0
 70
   128
 71
     3
 72
    -4
 73
     6
  0
VERTEX
  5
B8F
  8
0
 10
0.0
 20
0.0
 30
0.0
 70
   128
 71
     7
 72
     2
 73
    -3
  0
VERTEX
  5
B90
  8
0
 10
0.0
 20
0.0
 30
0.0
 70
   128
 71
     6
 72
    -7
 73
     3
  0
VERTEX
  5
B91
  8
0
 10
0.0
 20
0.0
 30
0.0
 70
   128
 71
     8
 72
     1
 73
    -2
  0
VERTEX
  5
B92
  8
0
 10
0.0
 20
0.0
 30
0.0
 70
   128
 71
     7
 72
    -8
 73
     2
  0
SEQEND
  5
13ED
  8
0
  0
POLYLINE
  5
B93
  8
0
 66
     1
 10
0.0
 20
0.0
 30
0.0
 70
    64
 71
     8
 72
     6
  0
VERTEX
  5
B94
  8
0
 10
10.0158753192081
 20
-27.6461701164611
 30
-42.7188465119298
 70
   192
  0
VERTEX
  5
B95
  8
0
 10
9.88813573831077
 20
-27.64617011646139
 30
-43.20788818833969
 70
   192
  0
VERTEX
  5
B96
  8
0
 10
9.504916995618887
 20
-27.6461701164618
 30
-43.5911069310303
 70
   192
  0
VERTEX
  5
B97
  8
0
 10
9.015875319208009
 20
-27.6461701164622
 30
-43.7188465119266
 70
   192
  0
VERTEX
  5
B98
  8
0
 10
9.01587531920902
 20
27.35382988354829
 30
-43.7188465118774
 70
   192
  0
VERTEX
  5
B99
  8
0
 10
9.504916995619881
 20
27.35382988354564
 30
-43.59110693097955
 70
   192
  0
VERTEX
  5
B9A
  8
0
 10
9.888135738311721
 20
27.35382988354231
 30
-43.20788818828701
 70
   192
  0
VERTEX
  5
B9B
  8
0
 10
10.015875319209
 20
27.3538298835396
 30
-42.7188465118756
 70
   192
  0
VERTEX
  5
B9C
  8
0
 10
0.0
 20
0.0
 30
0.0
 70
   128
 71
     4
 72
     5
 73
    -6
  0
VERTEX
  5
B9D
  8
0
 10
0.0
 20
0.0
 30
0.0
 70
   128
 71
     3
 72
    -4
 73
     6
  0
VERTEX
  5
B9E
  8
0
 10
0.0
 20
0.0
 30
0.0
 70
   128
 71
     7
 72
     2
 73
    -3
  0
VERTEX
  5
B9F
  8
0
 10
0.0
 20
0.0
 30
0.0
 70
   128
 71
     6
 72
    -7
 73
     3
  0
VERTEX
  5
BA0
  8
0
 10
0.0
 20
0.0
 30
0.0
 70
   128
 71
     8
 72
     1
 73
    -2
  0
VERTEX
  5
BA1
  8
0
 10
0.0
 20
0.0
 30
0.0
 70
   128
 71
     7
 72
    -8
 73
     2
  0
SEQEND
  5
13EE
  8
0
  0
POLYLINE
  5
BA2
  8
0
 66
     1
 10
0.0
 20
0.0
 30
0.0
 70
    64
 71
    12
 72
    10
  0
VERTEX
  5
BA3
  8
0
 10
9.015875319208009
 20
-27.6461701164622
 30
-43.7188465119266
 70
   192
  0
VERTEX
  5
BA4
  8
0
 10
9.504916995618887
 20
-27.6461701164618
 30
-43.5911069310303
 70
   192
  0
VERTEX
  5
BA5
  8
0
 10
9.88813573831077
 20
-27.64617011646139
 30
-43.20788818833969
 70
   192
  0
VERTEX
  5
BA6
  8
0
 10
10.0158753192081
 20
-27.6461701164611
 30
-42.7188465119298
 70
   192
  0
VERTEX
  5
BA7
  8
0
 10
10.01587531944905
 20
-29.6023368221718
 30
-42.20788818827434
 70
   192
  0
VERTEX
  5
BA8
  8
0
 10
10.01587531944882
 20
-31.13521179294469
 30
-40.67501321745742
 70
   192
  0
VERTEX
  5
BA9
  8
0
 10
10.0158753192075
 20
-31.64617011646481
 30
-38.7188465118112
 70
   192
  0
VERTEX
  5
BAA
  8
0
 10
9.888135738310165
 20
-32.13521179287566
 30
-38.71884651184444
 70
   192
  0
VERTEX
  5
BAB
  8
0
 10
9.504916995618274
 20
-32.51843053556747
 30
-38.71884651188572
 70
   192
  0
VERTEX
  5
BAC
  8
0
 10
9.01587531920739
 20
-32.64617011646471
 30
-38.71884651191891
 70
   192
  0
VERTEX
  5
BAD
  8
0
 10
9.015875319810945
 20
-32.00747221197718
 30
-41.16405489397515
 70
   192
  0
VERTEX
  5
BAE
  8
0
 10
9.015875319811183
 20
-30.09137849851786
 30
-43.08014860743646
 70
   192
  0
VERTEX
  5
BAF
  8
0
 10
0.0
 20
0.0
 30
0.0
 70
   128
 71
     6
 72
     7
 73
     8
  0
VERTEX
  5
BB0
  8
0
 10
0.0
 20
0.0
 30
0.0
 70
   128
 71
     9
 72
    11
 73
     6
  0
VERTEX
  5
BB1
  8
0
 10
0.0
 20
0.0
 30
0.0
 70
   128
 71
     8
 72
     9
 73
     6
  0
VERTEX
  5
BB2
  8
0
 10
0.0
 20
0.0
 30
0.0
 70
   128
 71
     9
 72
    10
 73
    11
  0
VERTEX
  5
BB3
  8
0
 10
0.0
 20
0.0
 30
0.0
 70
   128
 71
    12
 72
     5
 73
    -6
  0
VERTEX
  5
BB4
  8
0
 10
0.0
 20
0.0
 30
0.0
 70
   128
 71
    11
 72
   -12
 73
     6
  0
VERTEX
  5
BB5
  8
0
 10
0.0
 20
0.0
 30
0.0
 70
   128
 71
    12
 72
     1
 73
     2
  0
VERTEX
  5
BB6
  8
0
 10
0.0
 20
0.0
 30
0.0
 70
   128
 71
     3
 72
     5
 73
    12
  0
VERTEX
  5
BB7
  8
0
 10
0.0
 20
0.0
 30
0.0
 70
   128
 71
     2
 72
     3
 73
    12
  0
VERTEX
  5
BB8
  8
0
 10
0.0
 20
0.0
 30
0.0
 70
   128
 71
     3
 72
     4
 73
     5
  0
SEQEND
  5
13EF
  8
0
  0
POLYLINE
  5
BB9
  8
0
 66
     1
 10
0.0
 20
0.0
 30
0.0
 70
    64
 71
    12
 72
    10
  0
VERTEX
  5
BBA
  8
0
 10
9.01587531920803
 20
32.3538298835405
 30
-38.7188465119491
 70
   192
  0
VERTEX
  5
BBB
  8
0
 10
9.504916995618931
 20
32.22609030264341
 30
-38.71884651195165
 70
   192
  0
VERTEX
  5
BBC
  8
0
 10
9.888135738310808
 20
31.84287155995179
 30
-38.7188465119548
 70
   192
  0
VERTEX
  5
BBD
  8
0
 10
10.0158753192081
 20
31.35382988354111
 30
-38.71884651195731
 70
   192
  0
VERTEX
  5
BBE
  8
0
 10
10.01587531924951
 20
30.84287155994224
 30
-40.67501321758493
 70
   192
  0
VERTEX
  5
BBF
  8
0
 10
10.01587531924986
 20
29.30999658916843
 30
-42.20788818832687
 70
   192
  0
VERTEX
  5
BC0
  8
0
 10
10.015875319209
 20
27.3538298835396
 30
-42.7188465118756
 70
   192
  0
VERTEX
  5
BC1
  8
0
 10
9.888135738311721
 20
27.35382988354231
 30
-43.20788818828701
 70
   192
  0
VERTEX
  5
BC2
  8
0
 10
9.504916995619881
 20
27.35382988354564
 30
-43.59110693097955
 70
   192
  0
VERTEX
  5
BC3
  8
0
 10
9.01587531920902
 20
27.3538298835483
 30
-43.7188465118774
 70
   192
  0
VERTEX
  5
BC4
  8
0
 10
9.015875319310712
 20
29.79903826558338
 30
-43.08014860741388
 70
   192
  0
VERTEX
  5
BC5
  8
0
 10
9.015875319310332
 20
31.71513197903729
 30
-41.16405489398444
 70
   192
  0
VERTEX
  5
BC6
  8
0
 10
0.0
 20
0.0
 30
0.0
 70
   128
 71
     6
 72
     7
 73
     8
  0
VERTEX
  5
BC7
  8
0
 10
0.0
 20
0.0
 30
0.0
 70
   128
 71
     9
 72
    11
 73
     6
  0
VERTEX
  5
BC8
  8
0
 10
0.0
 20
0.0
 30
0.0
 70
   128
 71
     8
 72
     9
 73
     6
  0
VERTEX
  5
BC9
  8
0
 10
0.0
 20
0.0
 30
0.0
 70
   128
 71
     9
 72
    10
 73
    11
  0
VERTEX
  5
BCA
  8
0
 10
0.0
 20
0.0
 30
0.0
 70
   128
 71
    12
 72
     5
 73
    -6
  0
VERTEX
  5
BCB
  8
0
 10
0.0
 20
0.0
 30
0.0
 70
   128
 71
    11
 72
   -12
 73
     6
  0
VERTEX
  5
BCC
  8
0
 10
0.0
 20
0.0
 30
0.0
 70
   128
 71
    12
 72
     1
 73
     2
  0
VERTEX
  5
BCD
  8
0
 10
0.0
 20
0.0
 30
0.0
 70
   128
 71
     3
 72
     5
 73
    12
  0
VERTEX
  5
BCE
  8
0
 10
0.0
 20
0.0
 30
0.0
 70
   128
 71
     2
 72
     3
 73
    12
  0
VERTEX
  5
BCF
  8
0
 10
0.0
 20
0.0
 30
0.0
 70
   128
 71
     3
 72
     4
 73
     5
  0
SEQEND
  5
13F0
  8
0
  0
POLYLINE
  5
BD0
  8
0
 66
     1
 10
0.0
 20
0.0
 30
0.0
 70
    64
 71
    12
 72
    10
  0
VERTEX
  5
BD1
  8
0
 10
9.01587531920803
 20
27.3538298835303
 30
1.28115348812431
 70
   192
  0
VERTEX
  5
BD2
  8
0
 10
9.504916995618897
 20
27.35382988353141
 30
1.153413907227492
 70
   192
  0
VERTEX
  5
BD3
  8
0
 10
9.888135738310773
 20
27.35382988353272
 30
0.7701951645362455
 70
   192
  0
VERTEX
  5
BD4
  8
0
 10
10.0158753192081
 20
27.3538298835337
 30
0.281153488125877
 70
   192
  0
VERTEX
  5
BD5
  8
0
 10
10.01587531921799
 20
29.3099965891891
 30
-0.2298048354511362
 70
   192
  0
VERTEX
  5
BD6
  8
0
 10
10.01587531921742
 20
30.84287155996493
 30
-1.762679806221715
 70
   192
  0
VERTEX
  5
BD7
  8
0
 10
10.0158753192066
 20
31.35382988354521
 30
-3.71884651187196
 70
   192
  0
VERTEX
  5
BD8
  8
0
 10
9.888135738309265
 20
31.84287155995564
 30
-3.718846511870906
 70
   192
  0
VERTEX
  5
BD9
  8
0
 10
9.504916995617364
 20
32.22609030264696
 30
-3.718846511869504
 70
   192
  0
VERTEX
  5
BDA
  8
0
 10
9.015875319206472
 20
32.3538298835438
 30
-3.7188465118683
 70
   192
  0
VERTEX
  5
BDB
  8
0
 10
9.015875319234109
 20
31.7151319790512
 30
-1.273638129812578
 70
   192
  0
VERTEX
  5
BDC
  8
0
 10
9.015875319234707
 20
29.79903826558358
 30
0.6424555836470465
 70
   192
  0
VERTEX
  5
BDD
  8
0
 10
0.0
 20
0.0
 30
0.0
 70
   128
 71
     6
 72
     7
 73
     8
  0
VERTEX
  5
BDE
  8
0
 10
0.0
 20
0.0
 30
0.0
 70
   128
 71
     9
 72
    11
 73
     6
  0
VERTEX
  5
BDF
  8
0
 10
0.0
 20
0.0
 30
0.0
 70
   128
 71
     8
 72
     9
 73
     6
  0
VERTEX
  5
BE0
  8
0
 10
0.0
 20
0.0
 30
0.0
 70
   128
 71
     9
 72
    10
 73
    11
  0
VERTEX
  5
BE1
  8
0
 10
0.0
 20
0.0
 30
0.0
 70
   128
 71
    12
 72
     5
 73
    -6
  0
VERTEX
  5
BE2
  8
0
 10
0.0
 20
0.0
 30
0.0
 70
   128
 71
    11
 72
   -12
 73
     6
  0
VERTEX
  5
BE3
  8
0
 10
0.0
 20
0.0
 30
0.0
 70
   128
 71
    12
 72
     1
 73
     2
  0
VERTEX
  5
BE4
  8
0
 10
0.0
 20
0.0
 30
0.0
 70
   128
 71
     3
 72
     5
 73
    12
  0
VERTEX
  5
BE5
  8
0
 10
0.0
 20
0.0
 30
0.0
 70
   128
 71
     2
 72
     3
 73
    12
  0
VERTEX
  5
BE6
  8
0
 10
0.0
 20
0.0
 30
0.0
 70
   128
 71
     3
 72
     4
 73
     5
  0
SEQEND
  5
13F1
  8
0
  0
POLYLINE
  5
BE7
  8
0
 66
     1
 10
0.0
 20
0.0
 30
0.0
 70
    64
 71
    12
 72
    10
  0
VERTEX
  5
BE8
  8
0
 10
9.01587531920779
 20
-32.64617011646671
 30
-3.71884651184721
 70
   192
  0
VERTEX
  5
BE9
  8
0
 10
9.504916995618741
 20
-32.51843053556946
 30
-3.718846511845526
 70
   192
  0
VERTEX
  5
BEA
  8
0
 10
9.888135738310709
 20
-32.13521179287766
 30
-3.718846511843446
 70
   192
  0
VERTEX
  5
BEB
  8
0
 10
10.0158753192081
 20
-31.64617011646681
 30
-3.718846511841781
 70
   192
  0
VERTEX
  5
BEC
  8
0
 10
10.01587531944503
 20
-31.13521179280108
 30
-1.762679806156201
 70
   192
  0
VERTEX
  5
BED
  8
0
 10
10.01587531944522
 20
-29.60233682199108
 30
-0.2298048354078933
 70
   192
  0
VERTEX
  5
BEE
  8
0
 10
10.0158753192086
 20
-27.6461701163613
 30
0.28115348810277
 70
   192
  0
VERTEX
  5
BEF
  8
0
 10
9.888135738311318
 20
-27.64617011639317
 30
0.770195164513821
 70
   192
  0
VERTEX
  5
BF0
  8
0
 10
9.504916995619489
 20
-27.64617011643288
 30
1.153413907205887
 70
   192
  0
VERTEX
  5
BF1
  8
0
 10
9.01587531920864
 20
-27.6461701164649
 30
1.28115348810334
 70
   192
  0
VERTEX
  5
BF2
  8
0
 10
9.015875319799845
 20
-30.09137849850761
 30
0.6424555836329244
 70
   192
  0
VERTEX
  5
BF3
  8
0
 10
9.015875319799518
 20
-32.00747221196394
 30
-1.273638129803772
 70
   192
  0
VERTEX
  5
BF4
  8
0
 10
0.0
 20
0.0
 30
0.0
 70
   128
 71
     6
 72
     7
 73
     8
  0
VERTEX
  5
BF5
  8
0
 10
0.0
 20
0.0
 30
0.0
 70
   128
 71
     9
 72
    11
 73
     6
  0
VERTEX
  5
BF6
  8
0
 10
0.0
 20
0.0
 30
0.0
 70
   128
 71
     8
 72
     9
 73
     6
  0
VERTEX
  5
BF7
  8
0
 10
0.0
 20
0.0
 30
0.0
 70
   128
 71
     9
 72
    10
 73
    11
  0
VERTEX
  5
BF8
  8
0
 10
0.0
 20
0.0
 30
0.0
 70
   128
 71
    12
 72
     5
 73
    -6
  0
VERTEX
  5
BF9
  8
0
 10
0.0
 20
0.0
 30
0.0
 70
   128
 71
    11
 72
   -12
 73
     6
  0
VERTEX
  5
BFA
  8
0
 10
0.0
 20
0.0
 30
0.0
 70
   128
 71
    12
 72
     1
 73
     2
  0
VERTEX
  5
BFB
  8
0
 10
0.0
 20
0.0
 30
0.0
 70
   128
 71
     3
 72
     5
 73
    12
  0
VERTEX
  5
BFC
  8
0
 10
0.0
 20
0.0
 30
0.0
 70
   128
 71
     2
 72
     3
 73
    12
  0
VERTEX
  5
BFD
  8
0
 10
0.0
 20
0.0
 30
0.0
 70
   128
 71
     3
 72
     4
 73
     5
  0
SEQEND
  5
13F2
  8
0
  0
POLYLINE
  5
BFE
  8
0
 66
     1
 10
0.0
 20
0.0
 30
0.0
 70
    64
 71
    32
 72
    32
  0
VERTEX
  5
BFF
  8
0
 10
7.87382803126902
 20
27.3538298835406
 30
-1.2188465118783
 70
   192
  0
VERTEX
  5
C00
  8
0
 10
7.873828031269026
 20
28.57643407456721
 30
-1.538195464117055
 70
   192
  0
VERTEX
  5
C01
  8
0
 10
7.873828031269026
 20
29.53448093129801
 30
-2.496242320843544
 70
   192
  0
VERTEX
  5
C02
  8
0
 10
7.87382803126902
 20
29.8538298835423
 30
-3.71884651186875
 70
   192
  0
VERTEX
  5
C03
  8
0
 10
7.87382803126902
 20
29.8538298835393
 30
-38.7188465119192
 70
   192
  0
VERTEX
  5
C04
  8
0
 10
7.873828031269023
 20
29.53448093129185
 30
-39.94145070293073
 70
   192
  0
VERTEX
  5
C05
  8
0
 10
7.873828031269023
 20
28.57643407456843
 30
-40.89949755964456
 70
   192
  0
VERTEX
  5
C06
  8
0
 10
7.87382803126902
 20
27.3538298835537
 30
-41.2188465118798
 70
   192
  0
VERTEX
  5
C07
  8
0
 10
7.87382803126902
 20
-27.6461701164646
 30
-41.2188465119216
 70
   192
  0
VERTEX
  5
C08
  8
0
 10
7.873828031269026
 20
-28.86877430749187
 30
-40.89949755967861
 70
   192
  0
VERTEX
  5
C09
  8
0
 10
7.873828031269025
 20
-29.82682116422161
 30
-39.94145070294898
 70
   192
  0
VERTEX
  5
C0A
  8
0
 10
7.87382803126902
 20
-30.1461701164648
 30
-38.7188465119217
 70
   192
  0
VERTEX
  5
C0B
  8
0
 10
7.87382803126902
 20
-30.1461701164667
 30
-3.71884651187455
 70
   192
  0
VERTEX
  5
C0C
  8
0
 10
7.873828031269026
 20
-29.82682116421963
 30
-2.496242320853507
 70
   192
  0
VERTEX
  5
C0D
  8
0
 10
7.873828031269024
 20
-28.86877430749104
 30
-1.538195464130873
 70
   192
  0
VERTEX
  5
C0E
  8
0
 10
7.87382803126902
 20
-27.646170116468
 30
-1.2188465118914
 70
   192
  0
VERTEX
  5
C0F
  8
0
 10
7.873828031269021
 20
15.3867711366766
 30
-28.8741025487213
 70
   192
  0
VERTEX
  5
C10
  8
0
 10
7.873828031268893
 20
15.88033978066511
 30
-28.74371865567243
 70
   192
  0
VERTEX
  5
C11
  8
0
 10
7.873828031268892
 20
16.2671059077763
 30
-28.35256697652585
 70
   192
  0
VERTEX
  5
C12
  8
0
 10
7.87382803126902
 20
16.3960279501467
 30
-27.8534017437476
 70
   192
  0
VERTEX
  5
C13
  8
0
 10
7.87382803126902
 20
16.3960279501467
 30
-14.5842912790902
 70
   192
  0
VERTEX
  5
C14
  8
0
 10
7.873828031269429
 20
16.26710590777633
 30
-14.08512604631194
 70
   192
  0
VERTEX
  5
C15
  8
0
 10
7.873828031269429
 20
15.88033978066514
 30
-13.69397436716536
 70
   192
  0
VERTEX
  5
C16
  8
0
 10
7.87382803126902
 20
15.3867711366766
 30
-13.5635904741165
 70
   192
  0
VERTEX
  5
C17
  8
0
 10
7.87382803126902
 20
-17.9187037078367
 30
-13.5635904741165
 70
   192
  0
VERTEX
  5
C18
  8
0
 10
7.873828031268945
 20
-18.41227235182521
 30
-13.69397436716536
 70
   192
  0
VERTEX
  5
C19
  8
0
 10
7.873828031268946
 20
-18.7990384789364
 30
-14.08512604631194
 70
   192
  0
VERTEX
  5
C1A
  8
0
 10
7.87382803126902
 20
-18.9279605213068
 30
-14.5842912790902
 70
   192
  0
VERTEX
  5
C1B
  8
0
 10
7.87382803126902
 20
-18.9279605213068
 30
-27.8534017437476
 70
   192
  0
VERTEX
  5
C1C
  8
0
 10
7.873828031268552
 20
-18.79903847893639
 30
-28.35256697652586
 70
   192
  0
VERTEX
  5
C1D
  8
0
 10
7.873828031268552
 20
-18.41227235182521
 30
-28.74371865567244
 70
   192
  0
VERTEX
  5
C1E
  8
0
 10
7.87382803126902
 20
-17.9187037078367
 30
-28.8741025487213
 70
   192
  0
VERTEX
  5
C1F
  8
0
 10
0.0
 20
0.0
 30
0.0
 70
   128
 71
    -5
 72
    17
 73
   -18
  0
VERTEX
  5
C20
  8
0
 10
0.0
 20
0.0
 30
0.0
 70
   128
 71
    18
 72
   -19
 73
    -5
  0
VERTEX
  5
C21
  8
0
 10
0.0
 20
0.0
 30
0.0
 70
   128
 71
    19
 72
   -20
 73
    -5
  0
VERTEX
  5
C22
  8
0
 10
0.0
 20
0.0
 30
0.0
 70
   128
 71
   -21
 72
     4
 73
    -5
  0
VERTEX
  5
C23
  8
0
 10
0.0
 20
0.0
 30
0.0
 70
   128
 71
    20
 72
   -21
 73
    -5
  0
VERTEX
  5
C24
  8
0
 10
0.0
 20
0.0
 30
0.0
 70
   128
 71
    21
 72
   -22
 73
    -4
  0
VERTEX
  5
C25
  8
0
 10
0.0
 20
0.0
 30
0.0
 70
   128
 71
    22
 72
   -23
 73
    -4
  0
VERTEX
  5
C26
  8
0
 10
0.0
 20
0.0
 30
0.0
 70
   128
 71
    23
 72
   -24
 73
    -4
  0
VERTEX
  5
C27
  8
0
 10
0.0
 20
0.0
 30
0.0
 70
   128
 71
     2
 72
     3
 73
    -4
  0
VERTEX
  5
C28
  8
0
 10
0.0
 20
0.0
 30
0.0
 70
   128
 71
     1
 72
    -2
 73
    -4
  0
VERTEX
  5
C29
  8
0
 10
0.0
 20
0.0
 30
0.0
 70
   128
 71
    16
 72
    -1
 73
    -4
  0
VERTEX
  5
C2A
  8
0
 10
0.0
 20
0.0
 30
0.0
 70
   128
 71
   -25
 72
   -16
 73
    -4
  0
VERTEX
  5
C2B
  8
0
 10
0.0
 20
0.0
 30
0.0
 70
   128
 71
    24
 72
   -25
 73
    -4
  0
VERTEX
  5
C2C
  8
0
 10
0.0
 20
0.0
 30
0.0
 70
   128
 71
    25
 72
   -26
 73
   -16
  0
VERTEX
  5
C2D
  8
0
 10
0.0
 20
0.0
 30
0.0
 70
   128
 71
    26
 72
   -27
 73
   -16
  0
VERTEX
  5
C2E
  8
0
 10
0.0
 20
0.0
 30
0.0
 70
   128
 71
    27
 72
   -28
 73
   -16
  0
VERTEX
  5
C2F
  8
0
 10
0.0
 20
0.0
 30
0.0
 70
   128
 71
    14
 72
    15
 73
   -16
  0
VERTEX
  5
C30
  8
0
 10
0.0
 20
0.0
 30
0.0
 70
   128
 71
    13
 72
   -14
 73
   -16
  0
VERTEX
  5
C31
  8
0
 10
0.0
 20
0.0
 30
0.0
 70
   128
 71
    12
 72
   -13
 73
   -16
  0
VERTEX
  5
C32
  8
0
 10
0.0
 20
0.0
 30
0.0
 70
   128
 71
   -29
 72
   -12
 73
   -16
  0
VERTEX
  5
C33
  8
0
 10
0.0
 20
0.0
 30
0.0
 70
   128
 71
    28
 72
   -29
 73
   -16
  0
VERTEX
  5
C34
  8
0
 10
0.0
 20
0.0
 30
0.0
 70
   128
 71
    29
 72
   -30
 73
   -12
  0
VERTEX
  5
C35
  8
0
 10
0.0
 20
0.0
 30
0.0
 70
   128
 71
    30
 72
   -31
 73
   -12
  0
VERTEX
  5
C36
  8
0
 10
0.0
 20
0.0
 30
0.0
 70
   128
 71
    31
 72
   -32
 73
   -12
  0
VERTEX
  5
C37
  8
0
 10
0.0
 20
0.0
 30
0.0
 70
   128
 71
    10
 72
    11
 73
   -12
  0
VERTEX
  5
C38
  8
0
 10
0.0
 20
0.0
 30
0.0
 70
   128
 71
     9
 72
   -10
 73
   -12
  0
VERTEX
  5
C39
  8
0
 10
0.0
 20
0.0
 30
0.0
 70
   128
 71
     8
 72
    -9
 73
   -12
  0
VERTEX
  5
C3A
  8
0
 10
0.0
 20
0.0
 30
0.0
 70
   128
 71
     7
 72
    -8
 73
   -12
  0
VERTEX
  5
C3B
  8
0
 10
0.0
 20
0.0
 30
0.0
 70
   128
 71
     6
 72
    -7
 73
   -12
  0
VERTEX
  5
C3C
  8
0
 10
0.0
 20
0.0
 30
0.0
 70
   128
 71
     5
 72
    -6
 73
   -12
  0
VERTEX
  5
C3D
  8
0
 10
0.0
 20
0.0
 30
0.0
 70
   128
 71
   -17
 72
    -5
 73
   -12
  0
VERTEX
  5
C3E
  8
0
 10
0.0
 20
0.0
 30
0.0
 70
   128
 71
    32
 72
   -17
 73
   -12
  0
SEQEND
  5
13F3
  8
0
  0
POLYLINE
  5
C3F
  8
0
 66
     1
 10
0.0
 20
0.0
 30
0.0
 70
    64
 71
     4
 72
     2
  0
VERTEX
  5
C40
  8
0
 10
0.0158753192088525
 20
27.3538298835406
 30
-1.2188465118783
 70
   192
  0
VERTEX
  5
C41
  8
0
 10
7.87382803126902
 20
27.3538298835406
 30
-1.2188465118783
 70
   192
  0
VERTEX
  5
C42
  8
0
 10
7.87382803126902
 20
-27.646170116468
 30
-1.2188465118914
 70
   192
  0
VERTEX
  5
C43
  8
0
 10
0.0158753192088525
 20
-27.646170116468
 30
-1.2188465118914
 70
   192
  0
VERTEX
  5
C44
  8
0
 10
0.0
 20
0.0
 30
0.0
 70
   128
 71
     3
 72
     4
 73
    -1
  0
VERTEX
  5
C45
  8
0
 10
0.0
 20
0.0
 30
0.0
 70
   128
 71
     2
 72
    -3
 73
     1
  0
SEQEND
  5
13F4
  8
0
  0
POLYLINE
  5
C46
  8
0
 66
     1
 10
0.0
 20
0.0
 30
0.0
 70
    64
 71
     8
 72
     6
  0
VERTEX
  5
C47
  8
0
 10
0.0158753192088525
 20
-30.1461701164667
 30
-3.71884651187449
 70
   192
  0
VERTEX
  5
C48
  8
0
 10
0.0158753192088503
 20
-29.82682116421964
 30
-2.496242320853476
 70
   192
  0
VERTEX
  5
C49
  8
0
 10
0.0158753192088503
 20
-28.86877430749105
 30
-1.538195464130865
 70
   192
  0
VERTEX
  5
C4A
  8
0
 10
0.0158753192088525
 20
-27.646170116468
 30
-1.2188465118914
 70
   192
  0
VERTEX
  5
C4B
  8
0
 10
7.87382803126902
 20
-27.646170116468
 30
-1.2188465118914
 70
   192
  0
VERTEX
  5
C4C
  8
0
 10
7.873828031269024
 20
-28.86877430749104
 30
-1.538195464130873
 70
   192
  0
VERTEX
  5
C4D
  8
0
 10
7.873828031269026
 20
-29.82682116421963
 30
-2.496242320853507
 70
   192
  0
VERTEX
  5
C4E
  8
0
 10
7.87382803126902
 20
-30.1461701164667
 30
-3.71884651187455
 70
   192
  0
VERTEX
  5
C4F
  8
0
 10
0.0
 20
0.0
 30
0.0
 70
   128
 71
     4
 72
     5
 73
    -6
  0
VERTEX
  5
C50
  8
0
 10
0.0
 20
0.0
 30
0.0
 70
   128
 71
     3
 72
    -4
 73
     6
  0
VERTEX
  5
C51
  8
0
 10
0.0
 20
0.0
 30
0.0
 70
   128
 71
     7
 72
     2
 73
    -3
  0
VERTEX
  5
C52
  8
0
 10
0.0
 20
0.0
 30
0.0
 70
   128
 71
     6
 72
    -7
 73
     3
  0
VERTEX
  5
C53
  8
0
 10
0.0
 20
0.0
 30
0.0
 70
   128
 71
     8
 72
     1
 73
    -2
  0
VERTEX
  5
C54
  8
0
 10
0.0
 20
0.0
 30
0.0
 70
   128
 71
     7
 72
    -8
 73
     2
  0
SEQEND
  5
13F5
  8
0
  0
POLYLINE
  5
C55
  8
0
 66
     1
 10
0.0
 20
0.0
 30
0.0
 70
    64
 71
     4
 72
     2
  0
VERTEX
  5
C56
  8
0
 10
0.0158753192088525
 20
-30.1461701164648
 30
-38.7188465119217
 70
   192
  0
VERTEX
  5
C57
  8
0
 10
0.0158753192088525
 20
-30.1461701164667
 30
-3.71884651187449
 70
   192
  0
VERTEX
  5
C58
  8
0
 10
7.87382803126902
 20
-30.1461701164667
 30
-3.71884651187455
 70
   192
  0
VERTEX
  5
C59
  8
0
 10
7.87382803126902
 20
-30.1461701164648
 30
-38.7188465119217
 70
   192
  0
VERTEX
  5
C5A
  8
0
 10
0.0
 20
0.0
 30
0.0
 70
   128
 71
     3
 72
     4
 73
    -1
  0
VERTEX
  5
C5B
  8
0
 10
0.0
 20
0.0
 30
0.0
 70
   128
 71
     2
 72
    -3
 73
     1
  0
SEQEND
  5
13F6
  8
0
  0
POLYLINE
  5
C5C
  8
0
 66
     1
 10
0.0
 20
0.0
 30
0.0
 70
    64
 71
     8
 72
     6
  0
VERTEX
  5
C5D
  8
0
 10
0.0158753192088525
 20
-27.6461701164646
 30
-41.2188465119216
 70
   192
  0
VERTEX
  5
C5E
  8
0
 10
0.0158753192088507
 20
-28.86877430749189
 30
-40.89949755967859
 70
   192
  0
VERTEX
  5
C5F
  8
0
 10
0.0158753192088507
 20
-29.82682116422163
 30
-39.94145070294895
 70
   192
  0
VERTEX
  5
C60
  8
0
 10
0.0158753192088525
 20
-30.1461701164648
 30
-38.7188465119217
 70
   192
  0
VERTEX
  5
C61
  8
0
 10
7.87382803126902
 20
-30.1461701164648
 30
-38.7188465119217
 70
   192
  0
VERTEX
  5
C62
  8
0
 10
7.873828031269025
 20
-29.82682116422161
 30
-39.94145070294898
 70
   192
  0
VERTEX
  5
C63
  8
0
 10
7.873828031269026
 20
-28.86877430749187
 30
-40.89949755967861
 70
   192
  0
VERTEX
  5
C64
  8
0
 10
7.87382803126902
 20
-27.6461701164646
 30
-41.2188465119216
 70
   192
  0
VERTEX
  5
C65
  8
0
 10
0.0
 20
0.0
 30
0.0
 70
   128
 71
     4
 72
     5
 73
    -6
  0
VERTEX
  5
C66
  8
0
 10
0.0
 20
0.0
 30
0.0
 70
   128
 71
     3
 72
    -4
 73
     6
  0
VERTEX
  5
C67
  8
0
 10
0.0
 20
0.0
 30
0.0
 70
   128
 71
     7
 72
     2
 73
    -3
  0
VERTEX
  5
C68
  8
0
 10
0.0
 20
0.0
 30
0.0
 70
   128
 71
     6
 72
    -7
 73
     3
  0
VERTEX
  5
C69
  8
0
 10
0.0
 20
0.0
 30
0.0
 70
   128
 71
     8
 72
     1
 73
    -2
  0
VERTEX
  5
C6A
  8
0
 10
0.0
 20
0.0
 30
0.0
 70
   128
 71
     7
 72
    -8
 73
     2
  0
SEQEND
  5
13F7
  8
0
  0
POLYLINE
  5
C6B
  8
0
 66
     1
 10
0.0
 20
0.0
 30
0.0
 70
    64
 71
     4
 72
     2
  0
VERTEX
  5
C6C
  8
0
 10
0.0158753192088525
 20
27.3538298835537
 30
-41.2188465118798
 70
   192
  0
VERTEX
  5
C6D
  8
0
 10
0.0158753192088525
 20
-27.6461701164646
 30
-41.2188465119216
 70
   192
  0
VERTEX
  5
C6E
  8
0
 10
7.87382803126902
 20
-27.6461701164646
 30
-41.2188465119216
 70
   192
  0
VERTEX
  5
C6F
  8
0
 10
7.87382803126902
 20
27.3538298835537
 30
-41.2188465118798
 70
   192
  0
VERTEX
  5
C70
  8
0
 10
0.0
 20
0.0
 30
0.0
 70
   128
 71
     3
 72
     4
 73
    -1
  0
VERTEX
  5
C71
  8
0
 10
0.0
 20
0.0
 30
0.0
 70
   128
 71
     2
 72
    -3
 73
     1
  0
SEQEND
  5
13F8
  8
0
  0
POLYLINE
  5
C72
  8
0
 66
     1
 10
0.0
 20
0.0
 30
0.0
 70
    64
 71
     8
 72
     6
  0
VERTEX
  5
C73
  8
0
 10
0.0158753192088525
 20
29.8538298835393
 30
-38.7188465119192
 70
   192
  0
VERTEX
  5
C74
  8
0
 10
0.0158753192088505
 20
29.53448093129185
 30
-39.94145070293072
 70
   192
  0
VERTEX
  5
C75
  8
0
 10
0.0158753192088505
 20
28.57643407456843
 30
-40.89949755964456
 70
   192
  0
VERTEX
  5
C76
  8
0
 10
0.0158753192088525
 20
27.3538298835537
 30
-41.2188465118798
 70
   192
  0
VERTEX
  5
C77
  8
0
 10
7.87382803126902
 20
27.3538298835537
 30
-41.2188465118798
 70
   192
  0
VERTEX
  5
C78
  8
0
 10
7.873828031269023
 20
28.57643407456843
 30
-40.89949755964456
 70
   192
  0
VERTEX
  5
C79
  8
0
 10
7.873828031269023
 20
29.53448093129185
 30
-39.94145070293073
 70
   192
  0
VERTEX
  5
C7A
  8
0
 10
7.87382803126902
 20
29.8538298835393
 30
-38.7188465119192
 70
   192
  0
VERTEX
  5
C7B
  8
0
 10
0.0
 20
0.0
 30
0.0
 70
   128
 71
     4
 72
     5
 73
    -6
  0
VERTEX
  5
C7C
  8
0
 10
0.0
 20
0.0
 30
0.0
 70
   128
 71
     3
 72
    -4
 73
     6
  0
VERTEX
  5
C7D
  8
0
 10
0.0
 20
0.0
 30
0.0
 70
   128
 71
     7
 72
     2
 73
    -3
  0
VERTEX
  5
C7E
  8
0
 10
0.0
 20
0.0
 30
0.0
 70
   128
 71
     6
 72
    -7
 73
     3
  0
VERTEX
  5
C7F
  8
0
 10
0.0
 20
0.0
 30
0.0
 70
   128
 71
     8
 72
     1
 73
    -2
  0
VERTEX
  5
C80
  8
0
 10
0.0
 20
0.0
 30
0.0
 70
   128
 71
     7
 72
    -8
 73
     2
  0
SEQEND
  5
13F9
  8
0
  0
POLYLINE
  5
C81
  8
0
 66
     1
 10
0.0
 20
0.0
 30
0.0
 70
    64
 71
     4
 72
     2
  0
VERTEX
  5
C82
  8
0
 10
0.0158753192088525
 20
29.8538298835423
 30
-3.71884651186867
 70
   192
  0
VERTEX
  5
C83
  8
0
 10
0.0158753192088525
 20
29.8538298835393
 30
-38.7188465119192
 70
   192
  0
VERTEX
  5
C84
  8
0
 10
7.87382803126902
 20
29.8538298835393
 30
-38.7188465119192
 70
   192
  0
VERTEX
  5
C85
  8
0
 10
7.87382803126902
 20
29.8538298835423
 30
-3.71884651186875
 70
   192
  0
VERTEX
  5
C86
  8
0
 10
0.0
 20
0.0
 30
0.0
 70
   128
 71
     3
 72
     4
 73
    -1
  0
VERTEX
  5
C87
  8
0
 10
0.0
 20
0.0
 30
0.0
 70
   128
 71
     2
 72
    -3
 73
     1
  0
SEQEND
  5
13FA
  8
0
  0
POLYLINE
  5
C88
  8
0
 66
     1
 10
0.0
 20
0.0
 30
0.0
 70
    64
 71
     8
 72
     6
  0
VERTEX
  5
C89
  8
0
 10
0.0158753192088525
 20
27.3538298835406
 30
-1.2188465118783
 70
   192
  0
VERTEX
  5
C8A
  8
0
 10
0.0158753192088521
 20
28.57643407456721
 30
-1.538195464117023
 70
   192
  0
VERTEX
  5
C8B
  8
0
 10
0.0158753192088521
 20
29.53448093129801
 30
-2.496242320843483
 70
   192
  0
VERTEX
  5
C8C
  8
0
 10
0.0158753192088525
 20
29.8538298835423
 30
-3.71884651186867
 70
   192
  0
VERTEX
  5
C8D
  8
0
 10
7.87382803126902
 20
29.8538298835423
 30
-3.71884651186875
 70
   192
  0
VERTEX
  5
C8E
  8
0
 10
7.873828031269026
 20
29.53448093129801
 30
-2.496242320843544
 70
   192
  0
VERTEX
  5
C8F
  8
0
 10
7.873828031269026
 20
28.57643407456721
 30
-1.538195464117055
 70
   192
  0
VERTEX
  5
C90
  8
0
 10
7.87382803126902
 20
27.3538298835406
 30
-1.2188465118783
 70
   192
  0
VERTEX
  5
C91
  8
0
 10
0.0
 20
0.0
 30
0.0
 70
   128
 71
     4
 72
     5
 73
    -6
  0
VERTEX
  5
C92
  8
0
 10
0.0
 20
0.0
 30
0.0
 70
   128
 71
     3
 72
    -4
 73
     6
  0
VERTEX
  5
C93
  8
0
 10
0.0
 20
0.0
 30
0.0
 70
   128
 71
     7
 72
     2
 73
    -3
  0
VERTEX
  5
C94
  8
0
 10
0.0
 20
0.0
 30
0.0
 70
   128
 71
     6
 72
    -7
 73
     3
  0
VERTEX
  5
C95
  8
0
 10
0.0
 20
0.0
 30
0.0
 70
   128
 71
     8
 72
     1
 73
    -2
  0
VERTEX
  5
C96
  8
0
 10
0.0
 20
0.0
 30
0.0
 70
   128
 71
     7
 72
    -8
 73
     2
  0
SEQEND
  5
13FB
  8
0
  0
POLYLINE
  5
C97
  8
0
 66
     1
 10
0.0
 20
0.0
 30
0.0
 70
    64
 71
     8
 72
     6
  0
VERTEX
  5
C98
  8
0
 10
9.015875319208067
 20
-17.9187037078367
 30
-28.8741025487213
 70
   192
  0
VERTEX
  5
C99
  8
0
 10
7.87382803126902
 20
-17.9187037078367
 30
-28.8741025487213
 70
   192
  0
VERTEX
  5
C9A
  8
0
 10
7.873828031268552
 20
-18.41227235182521
 30
-28.74371865567244
 70
   192
  0
VERTEX
  5
C9B
  8
0
 10
7.873828031268552
 20
-18.79903847893639
 30
-28.35256697652586
 70
   192
  0
VERTEX
  5
C9C
  8
0
 10
7.87382803126902
 20
-18.9279605213068
 30
-27.8534017437476
 70
   192
  0
VERTEX
  5
C9D
  8
0
 10
9.015875319208147
 20
-18.9279605213068
 30
-27.8534017437476
 70
   192
  0
VERTEX
  5
C9E
  8
0
 10
9.015875319208089
 20
-18.79167514068121
 30
-28.3645372331695
 70
   192
  0
VERTEX
  5
C9F
  8
0
 10
9.015875319208064
 20
-18.42208645822864
 30
-28.73749844621613
 70
   192
  0
VERTEX
  5
CA0
  8
0
 10
0.0
 20
0.0
 30
0.0
 70
   128
 71
     5
 72
     6
 73
     7
  0
VERTEX
  5
CA1
  8
0
 10
0.0
 20
0.0
 30
0.0
 70
   128
 71
     4
 72
     5
 73
     7
  0
VERTEX
  5
CA2
  8
0
 10
0.0
 20
0.0
 30
0.0
 70
   128
 71
     8
 72
     3
 73
     4
  0
VERTEX
  5
CA3
  8
0
 10
0.0
 20
0.0
 30
0.0
 70
   128
 71
     7
 72
     8
 73
     4
  0
VERTEX
  5
CA4
  8
0
 10
0.0
 20
0.0
 30
0.0
 70
   128
 71
     1
 72
     2
 73
     3
  0
VERTEX
  5
CA5
  8
0
 10
0.0
 20
0.0
 30
0.0
 70
   128
 71
     8
 72
     1
 73
     3
  0
SEQEND
  5
13FC
  8
0
  0
POLYLINE
  5
CA6
  8
0
 66
     1
 10
0.0
 20
0.0
 30
0.0
 70
    64
 71
     8
 72
     6
  0
VERTEX
  5
CA7
  8
0
 10
9.015875319208048
 20
16.3960279501467
 30
-27.8534017437476
 70
   192
  0
VERTEX
  5
CA8
  8
0
 10
7.87382803126902
 20
16.3960279501467
 30
-27.8534017437476
 70
   192
  0
VERTEX
  5
CA9
  8
0
 10
7.873828031268892
 20
16.2671059077763
 30
-28.35256697652585
 70
   192
  0
VERTEX
  5
CAA
  8
0
 10
7.873828031268893
 20
15.88033978066511
 30
-28.74371865567243
 70
   192
  0
VERTEX
  5
CAB
  8
0
 10
7.873828031269021
 20
15.3867711366766
 30
-28.8741025487213
 70
   192
  0
VERTEX
  5
CAC
  8
0
 10
9.01587531920807
 20
15.3867711366766
 30
-28.8741025487213
 70
   192
  0
VERTEX
  5
CAD
  8
0
 10
9.015875319208067
 20
15.89015388708691
 30
-28.73749844620778
 70
   192
  0
VERTEX
  5
CAE
  8
0
 10
9.015875319208064
 20
16.25974256952473
 30
-28.36453723316153
 70
   192
  0
VERTEX
  5
CAF
  8
0
 10
0.0
 20
0.0
 30
0.0
 70
   128
 71
     5
 72
     6
 73
     7
  0
VERTEX
  5
CB0
  8
0
 10
0.0
 20
0.0
 30
0.0
 70
   128
 71
     4
 72
     5
 73
     7
  0
VERTEX
  5
CB1
  8
0
 10
0.0
 20
0.0
 30
0.0
 70
   128
 71
     8
 72
     3
 73
     4
  0
VERTEX
  5
CB2
  8
0
 10
0.0
 20
0.0
 30
0.0
 70
   128
 71
     7
 72
     8
 73
     4
  0
VERTEX
  5
CB3
  8
0
 10
0.0
 20
0.0
 30
0.0
 70
   128
 71
     1
 72
     2
 73
     3
  0
VERTEX
  5
CB4
  8
0
 10
0.0
 20
0.0
 30
0.0
 70
   128
 71
     8
 72
     1
 73
     3
  0
SEQEND
  5
13FD
  8
0
  0
POLYLINE
  5
CB5
  8
0
 66
     1
 10
0.0
 20
0.0
 30
0.0
 70
    64
 71
     8
 72
     6
  0
VERTEX
  5
CB6
  8
0
 10
9.0158753192081
 20
15.3867711366766
 30
-13.5635904741165
 70
   192
  0
VERTEX
  5
CB7
  8
0
 10
7.87382803126902
 20
15.3867711366766
 30
-13.5635904741165
 70
   192
  0
VERTEX
  5
CB8
  8
0
 10
7.873828031269429
 20
15.88033978066514
 30
-13.69397436716536
 70
   192
  0
VERTEX
  5
CB9
  8
0
 10
7.873828031269429
 20
16.26710590777633
 30
-14.08512604631194
 70
   192
  0
VERTEX
  5
CBA
  8
0
 10
7.87382803126902
 20
16.3960279501467
 30
-14.5842912790902
 70
   192
  0
VERTEX
  5
CBB
  8
0
 10
9.015875319208147
 20
16.3960279501467
 30
-14.5842912790902
 70
   192
  0
VERTEX
  5
CBC
  8
0
 10
9.015875319208103
 20
16.25974256952111
 30
-14.0731557896683
 70
   192
  0
VERTEX
  5
CBD
  8
0
 10
9.015875319208092
 20
15.89015388706853
 30
-13.70019457662167
 70
   192
  0
VERTEX
  5
CBE
  8
0
 10
0.0
 20
0.0
 30
0.0
 70
   128
 71
     5
 72
     6
 73
     7
  0
VERTEX
  5
CBF
  8
0
 10
0.0
 20
0.0
 30
0.0
 70
   128
 71
     4
 72
     5
 73
     7
  0
VERTEX
  5
CC0
  8
0
 10
0.0
 20
0.0
 30
0.0
 70
   128
 71
     8
 72
     3
 73
     4
  0
VERTEX
  5
CC1
  8
0
 10
0.0
 20
0.0
 30
0.0
 70
   128
 71
     7
 72
     8
 73
     4
  0
VERTEX
  5
CC2
  8
0
 10
0.0
 20
0.0
 30
0.0
 70
   128
 71
     1
 72
     2
 73
     3
  0
VERTEX
  5
CC3
  8
0
 10
0.0
 20
0.0
 30
0.0
 70
   128
 71
     8
 72
     1
 73
     3
  0
SEQEND
  5
13FE
  8
0
  0
POLYLINE
  5
CC4
  8
0
 66
     1
 10
0.0
 20
0.0
 30
0.0
 70
    64
 71
     8
 72
     6
  0
VERTEX
  5
CC5
  8
0
 10
9.015875319208048
 20
-18.9279605213068
 30
-14.5842912790902
 70
   192
  0
VERTEX
  5
CC6
  8
0
 10
7.87382803126902
 20
-18.9279605213068
 30
-14.5842912790902
 70
   192
  0
VERTEX
  5
CC7
  8
0
 10
7.873828031268946
 20
-18.7990384789364
 30
-14.08512604631194
 70
   192
  0
VERTEX
  5
CC8
  8
0
 10
7.873828031268945
 20
-18.41227235182521
 30
-13.69397436716536
 70
   192
  0
VERTEX
  5
CC9
  8
0
 10
7.87382803126902
 20
-17.9187037078367
 30
-13.5635904741165
 70
   192
  0
VERTEX
  5
CCA
  8
0
 10
9.015875319208048
 20
-17.9187037078367
 30
-13.5635904741165
 70
   192
  0
VERTEX
  5
CCB
  8
0
 10
9.015875319208062
 20
-18.42208645824697
 30
-13.70019457663002
 70
   192
  0
VERTEX
  5
CCC
  8
0
 10
9.015875319208062
 20
-18.79167514068481
 30
-14.07315578967628
 70
   192
  0
VERTEX
  5
CCD
  8
0
 10
0.0
 20
0.0
 30
0.0
 70
   128
 71
     5
 72
     6
 73
     7
  0
VERTEX
  5
CCE
  8
0
 10
0.0
 20
0.0
 30
0.0
 70
   128
 71
     4
 72
     5
 73
     7
  0
VERTEX
  5
CCF
  8
0
 10
0.0
 20
0.0
 30
0.0
 70
   128
 71
     8
 72
     3
 73
     4
  0
VERTEX
  5
CD0
  8
0
 10
0.0
 20
0.0
 30
0.0
 70
   128
 71
     7
 72
     8
 73
     4
  0
VERTEX
  5
CD1
  8
0
 10
0.0
 20
0.0
 30
0.0
 70
   128
 71
     1
 72
     2
 73
     3
  0
VERTEX
  5
CD2
  8
0
 10
0.0
 20
0.0
 30
0.0
 70
   128
 71
     8
 72
     1
 73
     3
  0
SEQEND
  5
13FF
  8
0
  0
POLYLINE
  5
CD3
  8
0
 66
     1
 10
0.0
 20
0.0
 30
0.0
 70
    64
 71
     4
 72
     2
  0
VERTEX
  5
CD4
  8
0
 10
9.015875319208048
 20
16.3960279501467
 30
-27.8534017437476
 70
   192
  0
VERTEX
  5
CD5
  8
0
 10
9.015875319208149
 20
16.3960279501467
 30
-14.5842912790902
 70
   192
  0
VERTEX
  5
CD6
  8
0
 10
7.87382803126902
 20
16.3960279501467
 30
-14.5842912790902
 70
   192
  0
VERTEX
  5
CD7
  8
0
 10
7.87382803126902
 20
16.3960279501467
 30
-27.85340174374759
 70
   192
  0
VERTEX
  5
CD8
  8
0
 10
0.0
 20
0.0
 30
0.0
 70
   128
 71
     3
 72
     4
 73
    -1
  0
VERTEX
  5
CD9
  8
0
 10
0.0
 20
0.0
 30
0.0
 70
   128
 71
     2
 72
    -3
 73
     1
  0
SEQEND
  5
1400
  8
0
  0
POLYLINE
  5
CDA
  8
0
 66
     1
 10
0.0
 20
0.0
 30
0.0
 70
    64
 71
     4
 72
     2
  0
VERTEX
  5
CDB
  8
0
 10
9.015875319208048
 20
-18.9279605213068
 30
-14.5842912790902
 70
   192
  0
VERTEX
  5
CDC
  8
0
 10
9.015875319208149
 20
-18.9279605213068
 30
-27.8534017437476
 70
   192
  0
VERTEX
  5
CDD
  8
0
 10
7.87382803126902
 20
-18.9279605213068
 30
-27.8534017437476
 70
   192
  0
VERTEX
  5
CDE
  8
0
 10
7.87382803126902
 20
-18.9279605213068
 30
-14.5842912790902
 70
   192
  0
VERTEX
  5
CDF
  8
0
 10
0.0
 20
0.0
 30
0.0
 70
   128
 71
     3
 72
     4
 73
    -1
  0
VERTEX
  5
CE0
  8
0
 10
0.0
 20
0.0
 30
0.0
 70
   128
 71
     2
 72
    -3
 73
     1
  0
SEQEND
  5
1401
  8
0
  0
POLYLINE
  5
CE1
  8
0
 66
     1
 10
0.0
 20
0.0
 30
0.0
 70
    64
 71
     4
 72
     2
  0
VERTEX
  5
CE2
  8
0
 10
9.0158753192081
 20
15.3867711366766
 30
-13.5635904741165
 70
   192
  0
VERTEX
  5
CE3
  8
0
 10
9.015875319208048
 20
-17.9187037078367
 30
-13.5635904741165
 70
   192
  0
VERTEX
  5
CE4
  8
0
 10
7.87382803126902
 20
-17.9187037078367
 30
-13.5635904741165
 70
   192
  0
VERTEX
  5
CE5
  8
0
 10
7.87382803126902
 20
15.3867711366766
 30
-13.5635904741165
 70
   192
  0
VERTEX
  5
CE6
  8
0
 10
0.0
 20
0.0
 30
0.0
 70
   128
 71
     3
 72
     4
 73
    -1
  0
VERTEX
  5
CE7
  8
0
 10
0.0
 20
0.0
 30
0.0
 70
   128
 71
     2
 72
    -3
 73
     1
  0
SEQEND
  5
1402
  8
0
  0
POLYLINE
  5
CE8
  8
0
 66
     1
 10
0.0
 20
0.0
 30
0.0
 70
    64
 71
     4
 72
     2
  0
VERTEX
  5
CE9
  8
0
 10
9.01587531920807
 20
-17.9187037078367
 30
-28.8741025487213
 70
   192
  0
VERTEX
  5
CEA
  8
0
 10
9.01587531920807
 20
15.3867711366766
 30
-28.8741025487213
 70
   192
  0
VERTEX
  5
CEB
  8
0
 10
7.87382803126902
 20
15.3867711366766
 30
-28.8741025487213
 70
   192
  0
VERTEX
  5
CEC
  8
0
 10
7.87382803126902
 20
-17.9187037078367
 30
-28.8741025487213
 70
   192
  0
VERTEX
  5
CED
  8
0
 10
0.0
 20
0.0
 30
0.0
 70
   128
 71
     3
 72
     4
 73
    -1
  0
VERTEX
  5
CEE
  8
0
 10
0.0
 20
0.0
 30
0.0
 70
   128
 71
     2
 72
    -3
 73
     1
  0
SEQEND
  5
1403
  8
0
  0
POLYLINE
  5
CEF
  8
0
 66
     1
 10
0.0
 20
0.0
 30
0.0
 70
    64
 71
     8
 72
     6
  0
VERTEX
  5
CF0
  8
0
 10
10.0158753192081
 20
17.3960279501489
 30
-27.8534017437508
 70
   192
  0
VERTEX
  5
CF1
  8
0
 10
10.0158753192081
 20
17.3960279501493
 30
-14.5842912790848
 70
   192
  0
VERTEX
  5
CF2
  8
0
 10
9.888135738310822
 20
16.90698627373762
 30
-14.58429127908647
 70
   192
  0
VERTEX
  5
CF3
  8
0
 10
9.504916995618995
 20
16.52376753104478
 30
-14.58429127908854
 70
   192
  0
VERTEX
  5
CF4
  8
0
 10
9.015875319208149
 20
16.3960279501467
 30
-14.5842912790902
 70
   192
  0
VERTEX
  5
CF5
  8
0
 10
9.015875319208048
 20
16.3960279501467
 30
-27.8534017437476
 70
   192
  0
VERTEX
  5
CF6
  8
0
 10
9.504916995619551
 20
16.5237675310453
 30
-27.85340174374747
 70
   192
  0
VERTEX
  5
CF7
  8
0
 10
9.888135738310963
 20
16.90698627373754
 30
-27.85340174374869
 70
   192
  0
VERTEX
  5
CF8
  8
0
 10
0.0
 20
0.0
 30
0.0
 70
   128
 71
     5
 72
     6
 73
    -7
  0
VERTEX
  5
CF9
  8
0
 10
0.0
 20
0.0
 30
0.0
 70
   128
 71
     4
 72
    -5
 73
     7
  0
VERTEX
  5
CFA
  8
0
 10
0.0
 20
0.0
 30
0.0
 70
   128
 71
     8
 72
     3
 73
    -4
  0
VERTEX
  5
CFB
  8
0
 10
0.0
 20
0.0
 30
0.0
 70
   128
 71
     7
 72
    -8
 73
     4
  0
VERTEX
  5
CFC
  8
0
 10
0.0
 20
0.0
 30
0.0
 70
   128
 71
     1
 72
     2
 73
    -3
  0
VERTEX
  5
CFD
  8
0
 10
0.0
 20
0.0
 30
0.0
 70
   128
 71
     8
 72
    -1
 73
     3
  0
SEQEND
  5
1404
  8
0
  0
POLYLINE
  5
CFE
  8
0
 66
     1
 10
0.0
 20
0.0
 30
0.0
 70
    64
 71
     8
 72
     6
  0
VERTEX
  5
CFF
  8
0
 10
10.0158753192081
 20
-19.927960521309
 30
-14.584291279087
 70
   192
  0
VERTEX
  5
D00
  8
0
 10
10.0158753192081
 20
-19.9279605213094
 30
-27.853401743753
 70
   192
  0
VERTEX
  5
D01
  8
0
 10
9.888135738310822
 20
-19.43891884489772
 30
-27.85340174375134
 70
   192
  0
VERTEX
  5
D02
  8
0
 10
9.504916995618993
 20
-19.05570010220488
 30
-27.85340174374927
 70
   192
  0
VERTEX
  5
D03
  8
0
 10
9.015875319208149
 20
-18.9279605213068
 30
-27.8534017437476
 70
   192
  0
VERTEX
  5
D04
  8
0
 10
9.015875319208048
 20
-18.9279605213068
 30
-14.5842912790902
 70
   192
  0
VERTEX
  5
D05
  8
0
 10
9.504916995619551
 20
-19.0557001022054
 30
-14.58429127909034
 70
   192
  0
VERTEX
  5
D06
  8
0
 10
9.888135738310963
 20
-19.43891884489764
 30
-14.58429127908911
 70
   192
  0
VERTEX
  5
D07
  8
0
 10
0.0
 20
0.0
 30
0.0
 70
   128
 71
     5
 72
     6
 73
    -7
  0
VERTEX
  5
D08
  8
0
 10
0.0
 20
0.0
 30
0.0
 70
   128
 71
     4
 72
    -5
 73
     7
  0
VERTEX
  5
D09
  8
0
 10
0.0
 20
0.0
 30
0.0
 70
   128
 71
     8
 72
     3
 73
    -4
  0
VERTEX
  5
D0A
  8
0
 10
0.0
 20
0.0
 30
0.0
 70
   128
 71
     7
 72
    -8
 73
     4
  0
VERTEX
  5
D0B
  8
0
 10
0.0
 20
0.0
 30
0.0
 70
   128
 71
     1
 72
     2
 73
    -3
  0
VERTEX
  5
D0C
  8
0
 10
0.0
 20
0.0
 30
0.0
 70
   128
 71
     8
 72
    -1
 73
     3
  0
SEQEND
  5
1405
  8
0
  0
POLYLINE
  5
D0D
  8
0
 66
     1
 10
0.0
 20
0.0
 30
0.0
 70
    64
 71
     8
 72
     6
  0
VERTEX
  5
D0E
  8
0
 10
10.0158753192081
 20
15.3867711366807
 30
-12.5635904741141
 70
   192
  0
VERTEX
  5
D0F
  8
0
 10
10.0158753192081
 20
-17.9187037078904
 30
-12.5635904740766
 70
   192
  0
VERTEX
  5
D10
  8
0
 10
9.888135738313574
 20
-17.91870370785446
 30
-13.05263215049639
 70
   192
  0
VERTEX
  5
D11
  8
0
 10
9.50491699563
 20
-17.91870370783388
 30
-13.43585089319524
 70
   192
  0
VERTEX
  5
D12
  8
0
 10
9.015875319208048
 20
-17.9187037078367
 30
-13.5635904741165
 70
   192
  0
VERTEX
  5
D13
  8
0
 10
9.0158753192081
 20
15.3867711366766
 30
-13.5635904741165
 70
   192
  0
VERTEX
  5
D14
  8
0
 10
9.50491699561897
 20
15.38677113667788
 30
-13.43585089321848
 70
   192
  0
VERTEX
  5
D15
  8
0
 10
9.888135738310817
 20
15.38677113667945
 30
-13.05263215052571
 70
   192
  0
VERTEX
  5
D16
  8
0
 10
0.0
 20
0.0
 30
0.0
 70
   128
 71
     5
 72
     6
 73
    -7
  0
VERTEX
  5
D17
  8
0
 10
0.0
 20
0.0
 30
0.0
 70
   128
 71
     4
 72
    -5
 73
     7
  0
VERTEX
  5
D18
  8
0
 10
0.0
 20
0.0
 30
0.0
 70
   128
 71
     8
 72
     3
 73
    -4
  0
VERTEX
  5
D19
  8
0
 10
0.0
 20
0.0
 30
0.0
 70
   128
 71
     7
 72
    -8
 73
     4
  0
VERTEX
  5
D1A
  8
0
 10
0.0
 20
0.0
 30
0.0
 70
   128
 71
     1
 72
     2
 73
    -3
  0
VERTEX
  5
D1B
  8
0
 10
0.0
 20
0.0
 30
0.0
 70
   128
 71
     8
 72
    -1
 73
     3
  0
SEQEND
  5
1406
  8
0
  0
POLYLINE
  5
D1C
  8
0
 66
     1
 10
0.0
 20
0.0
 30
0.0
 70
    64
 71
    12
 72
    10
  0
VERTEX
  5
D1D
  8
0
 10
9.01587531920807
 20
-17.9187037078367
 30
-28.8741025487213
 70
   192
  0
VERTEX
  5
D1E
  8
0
 10
9.015875319208064
 20
-18.42208645822864
 30
-28.73749844621613
 70
   192
  0
VERTEX
  5
D1F
  8
0
 10
9.015875319208089
 20
-18.79167514068121
 30
-28.3645372331695
 70
   192
  0
VERTEX
  5
D20
  8
0
 10
9.015875319208149
 20
-18.9279605213068
 30
-27.8534017437476
 70
   192
  0
VERTEX
  5
D21
  8
0
 10
9.504916995618993
 20
-19.05570010220488
 30
-27.85340174374927
 70
   192
  0
VERTEX
  5
D22
  8
0
 10
9.888135738310822
 20
-19.43891884489772
 30
-27.85340174375134
 70
   192
  0
VERTEX
  5
D23
  8
0
 10
10.0158753192081
 20
-19.9279605213094
 30
-27.853401743753
 70
   192
  0
VERTEX
  5
D24
  8
0
 10
10.0158753192081
 20
-19.6590829169234
 30
-28.86120178755782
 70
   192
  0
VERTEX
  5
D25
  8
0
 10
10.0158753192081
 20
-18.92496173023774
 30
-29.60120650748027
 70
   192
  0
VERTEX
  5
D26
  8
0
 10
10.0158753192081
 20
-17.9187037078408
 30
-29.8741025487237
 70
   192
  0
VERTEX
  5
D27
  8
0
 10
9.888135738310813
 20
-17.91870370783955
 30
-29.38506087231211
 70
   192
  0
VERTEX
  5
D28
  8
0
 10
9.50491699561895
 20
-17.91870370783797
 30
-29.00184212961933
 70
   192
  0
VERTEX
  5
D29
  8
0
 10
0.0
 20
0.0
 30
0.0
 70
   128
 71
     6
 72
     7
 73
     8
  0
VERTEX
  5
D2A
  8
0
 10
0.0
 20
0.0
 30
0.0
 70
   128
 71
     9
 72
    11
 73
     6
  0
VERTEX
  5
D2B
  8
0
 10
0.0
 20
0.0
 30
0.0
 70
   128
 71
     8
 72
     9
 73
     6
  0
VERTEX
  5
D2C
  8
0
 10
0.0
 20
0.0
 30
0.0
 70
   128
 71
     9
 72
    10
 73
    11
  0
VERTEX
  5
D2D
  8
0
 10
0.0
 20
0.0
 30
0.0
 70
   128
 71
    12
 72
     5
 73
     6
  0
VERTEX
  5
D2E
  8
0
 10
0.0
 20
0.0
 30
0.0
 70
   128
 71
    11
 72
    12
 73
     6
  0
VERTEX
  5
D2F
  8
0
 10
0.0
 20
0.0
 30
0.0
 70
   128
 71
    12
 72
     1
 73
     2
  0
VERTEX
  5
D30
  8
0
 10
0.0
 20
0.0
 30
0.0
 70
   128
 71
     3
 72
     5
 73
    12
  0
VERTEX
  5
D31
  8
0
 10
0.0
 20
0.0
 30
0.0
 70
   128
 71
     2
 72
     3
 73
    12
  0
VERTEX
  5
D32
  8
0
 10
0.0
 20
0.0
 30
0.0
 70
   128
 71
     3
 72
     4
 73
     5
  0
SEQEND
  5
1407
  8
0
  0
POLYLINE
  5
D33
  8
0
 66
     1
 10
0.0
 20
0.0
 30
0.0
 70
    64
 71
    12
 72
    10
  0
VERTEX
  5
D34
  8
0
 10
9.015875319208048
 20
16.3960279501467
 30
-27.8534017437476
 70
   192
  0
VERTEX
  5
D35
  8
0
 10
9.015875319208064
 20
16.25974256952473
 30
-28.36453723316153
 70
   192
  0
VERTEX
  5
D36
  8
0
 10
9.015875319208067
 20
15.89015388708691
 30
-28.73749844620778
 70
   192
  0
VERTEX
  5
D37
  8
0
 10
9.01587531920807
 20
15.3867711366766
 30
-28.8741025487213
 70
   192
  0
VERTEX
  5
D38
  8
0
 10
9.504916995618952
 20
15.38677113669318
 30
-29.00184212963087
 70
   192
  0
VERTEX
  5
D39
  8
0
 10
9.888135738310812
 20
15.38677113671376
 30
-29.38506087233801
 70
   192
  0
VERTEX
  5
D3A
  8
0
 10
10.0158753192081
 20
15.3867711367303
 30
-29.8741025487612
 70
   192
  0
VERTEX
  5
D3B
  8
0
 10
10.0158753192081
 20
16.39302915906503
 30
-29.60120650742669
 70
   192
  0
VERTEX
  5
D3C
  8
0
 10
10.0158753192081
 20
17.12715034575864
 30
-28.86120178753499
 70
   192
  0
VERTEX
  5
D3D
  8
0
 10
10.0158753192081
 20
17.3960279501489
 30
-27.8534017437508
 70
   192
  0
VERTEX
  5
D3E
  8
0
 10
9.888135738310963
 20
16.90698627373754
 30
-27.85340174374869
 70
   192
  0
VERTEX
  5
D3F
  8
0
 10
9.504916995619551
 20
16.5237675310453
 30
-27.85340174374747
 70
   192
  0
VERTEX
  5
D40
  8
0
 10
0.0
 20
0.0
 30
0.0
 70
   128
 71
     6
 72
     7
 73
     8
  0
VERTEX
  5
D41
  8
0
 10
0.0
 20
0.0
 30
0.0
 70
   128
 71
     9
 72
    11
 73
     6
  0
VERTEX
  5
D42
  8
0
 10
0.0
 20
0.0
 30
0.0
 70
   128
 71
     8
 72
     9
 73
     6
  0
VERTEX
  5
D43
  8
0
 10
0.0
 20
0.0
 30
0.0
 70
   128
 71
     9
 72
    10
 73
    11
  0
VERTEX
  5
D44
  8
0
 10
0.0
 20
0.0
 30
0.0
 70
   128
 71
    12
 72
     5
 73
     6
  0
VERTEX
  5
D45
  8
0
 10
0.0
 20
0.0
 30
0.0
 70
   128
 71
    11
 72
    12
 73
     6
  0
VERTEX
  5
D46
  8
0
 10
0.0
 20
0.0
 30
0.0
 70
   128
 71
    12
 72
     1
 73
     2
  0
VERTEX
  5
D47
  8
0
 10
0.0
 20
0.0
 30
0.0
 70
   128
 71
     3
 72
     5
 73
    12
  0
VERTEX
  5
D48
  8
0
 10
0.0
 20
0.0
 30
0.0
 70
   128
 71
     2
 72
     3
 73
    12
  0
VERTEX
  5
D49
  8
0
 10
0.0
 20
0.0
 30
0.0
 70
   128
 71
     3
 72
     4
 73
     5
  0
SEQEND
  5
1408
  8
0
  0
POLYLINE
  5
D4A
  8
0
 66
     1
 10
0.0
 20
0.0
 30
0.0
 70
    64
 71
    12
 72
    10
  0
VERTEX
  5
D4B
  8
0
 10
9.0158753192081
 20
15.3867711366766
 30
-13.5635904741165
 70
   192
  0
VERTEX
  5
D4C
  8
0
 10
9.015875319208092
 20
15.89015388706853
 30
-13.70019457662167
 70
   192
  0
VERTEX
  5
D4D
  8
0
 10
9.015875319208103
 20
16.25974256952111
 30
-14.0731557896683
 70
   192
  0
VERTEX
  5
D4E
  8
0
 10
9.015875319208149
 20
16.3960279501467
 30
-14.5842912790902
 70
   192
  0
VERTEX
  5
D4F
  8
0
 10
9.504916995618995
 20
16.52376753104478
 30
-14.58429127908854
 70
   192
  0
VERTEX
  5
D50
  8
0
 10
9.888135738310822
 20
16.90698627373762
 30
-14.58429127908647
 70
   192
  0
VERTEX
  5
D51
  8
0
 10
10.0158753192081
 20
17.3960279501493
 30
-14.5842912790848
 70
   192
  0
VERTEX
  5
D52
  8
0
 10
10.0158753192081
 20
17.1271503457633
 30
-13.57649123527997
 70
   192
  0
VERTEX
  5
D53
  8
0
 10
10.0158753192081
 20
16.39302915907764
 30
-12.83648651535753
 70
   192
  0
VERTEX
  5
D54
  8
0
 10
10.0158753192081
 20
15.3867711366807
 30
-12.5635904741141
 70
   192
  0
VERTEX
  5
D55
  8
0
 10
9.888135738310817
 20
15.38677113667945
 30
-13.05263215052571
 70
   192
  0
VERTEX
  5
D56
  8
0
 10
9.50491699561897
 20
15.38677113667788
 30
-13.43585089321848
 70
   192
  0
VERTEX
  5
D57
  8
0
 10
0.0
 20
0.0
 30
0.0
 70
   128
 71
     6
 72
     7
 73
     8
  0
VERTEX
  5
D58
  8
0
 10
0.0
 20
0.0
 30
0.0
 70
   128
 71
     9
 72
    11
 73
     6
  0
VERTEX
  5
D59
  8
0
 10
0.0
 20
0.0
 30
0.0
 70
   128
 71
     8
 72
     9
 73
     6
  0
VERTEX
  5
D5A
  8
0
 10
0.0
 20
0.0
 30
0.0
 70
   128
 71
     9
 72
    10
 73
    11
  0
VERTEX
  5
D5B
  8
0
 10
0.0
 20
0.0
 30
0.0
 70
   128
 71
    12
 72
     5
 73
     6
  0
VERTEX
  5
D5C
  8
0
 10
0.0
 20
0.0
 30
0.0
 70
   128
 71
    11
 72
    12
 73
     6
  0
VERTEX
  5
D5D
  8
0
 10
0.0
 20
0.0
 30
0.0
 70
   128
 71
    12
 72
     1
 73
     2
  0
VERTEX
  5
D5E
  8
0
 10
0.0
 20
0.0
 30
0.0
 70
   128
 71
     3
 72
     5
 73
    12
  0
VERTEX
  5
D5F
  8
0
 10
0.0
 20
0.0
 30
0.0
 70
   128
 71
     2
 72
     3
 73
    12
  0
VERTEX
  5
D60
  8
0
 10
0.0
 20
0.0
 30
0.0
 70
   128
 71
     3
 72
     4
 73
     5
  0
SEQEND
  5
1409
  8
0
  0
POLYLINE
  5
D61
  8
0
 66
     1
 10
0.0
 20
0.0
 30
0.0
 70
    64
 71
    12
 72
    10
  0
VERTEX
  5
D62
  8
0
 10
9.015875319208048
 20
-18.9279605213068
 30
-14.5842912790902
 70
   192
  0
VERTEX
  5
D63
  8
0
 10
9.015875319208062
 20
-18.79167514068481
 30
-14.07315578967628
 70
   192
  0
VERTEX
  5
D64
  8
0
 10
9.015875319208062
 20
-18.42208645824697
 30
-13.70019457663002
 70
   192
  0
VERTEX
  5
D65
  8
0
 10
9.015875319208048
 20
-17.9187037078367
 30
-13.5635904741165
 70
   192
  0
VERTEX
  5
D66
  8
0
 10
9.50491699563
 20
-17.91870370783388
 30
-13.43585089319524
 70
   192
  0
VERTEX
  5
D67
  8
0
 10
9.888135738313574
 20
-17.91870370785446
 30
-13.05263215049639
 70
   192
  0
VERTEX
  5
D68
  8
0
 10
10.0158753192081
 20
-17.9187037078904
 30
-12.5635904740766
 70
   192
  0
VERTEX
  5
D69
  8
0
 10
10.0158753192081
 20
-18.92496173022511
 30
-12.83648651541107
 70
   192
  0
VERTEX
  5
D6A
  8
0
 10
10.0158753192081
 20
-19.6590829169187
 30
-13.57649123530279
 70
   192
  0
VERTEX
  5
D6B
  8
0
 10
10.0158753192081
 20
-19.927960521309
 30
-14.584291279087
 70
   192
  0
VERTEX
  5
D6C
  8
0
 10
9.888135738310963
 20
-19.43891884489764
 30
-14.58429127908911
 70
   192
  0
VERTEX
  5
D6D
  8
0
 10
9.504916995619551
 20
-19.0557001022054
 30
-14.58429127909034
 70
   192
  0
VERTEX
  5
D6E
  8
0
 10
0.0
 20
0.0
 30
0.0
 70
   128
 71
     6
 72
     7
 73
     8
  0
VERTEX
  5
D6F
  8
0
 10
0.0
 20
0.0
 30
0.0
 70
   128
 71
     9
 72
    11
 73
     6
  0
VERTEX
  5
D70
  8
0
 10
0.0
 20
0.0
 30
0.0
 70
   128
 71
     8
 72
     9
 73
     6
  0
VERTEX
  5
D71
  8
0
 10
0.0
 20
0.0
 30
0.0
 70
   128
 71
     9
 72
    10
 73
    11
  0
VERTEX
  5
D72
  8
0
 10
0.0
 20
0.0
 30
0.0
 70
   128
 71
    12
 72
     5
 73
     6
  0
VERTEX
  5
D73
  8
0
 10
0.0
 20
0.0
 30
0.0
 70
   128
 71
    11
 72
    12
 73
     6
  0
VERTEX
  5
D74
  8
0
 10
0.0
 20
0.0
 30
0.0
 70
   128
 71
    12
 72
     1
 73
     2
  0
VERTEX
  5
D75
  8
0
 10
0.0
 20
0.0
 30
0.0
 70
   128
 71
     3
 72
     5
 73
    12
  0
VERTEX
  5
D76
  8
0
 10
0.0
 20
0.0
 30
0.0
 70
   128
 71
     2
 72
     3
 73
    12
  0
VERTEX
  5
D77
  8
0
 10
0.0
 20
0.0
 30
0.0
 70
   128
 71
     3
 72
     4
 73
     5
  0
SEQEND
  5
140A
  8
0
  0
POLYLINE
  5
D78
  8
0
 66
     1
 10
0.0
 20
0.0
 30
0.0
 70
    64
 71
     8
 72
     6
  0
VERTEX
  5
D79
  8
0
 10
10.0158753192081
 20
-17.9187037078408
 30
-29.8741025487237
 70
   192
  0
VERTEX
  5
D7A
  8
0
 10
10.0158753192081
 20
15.3867711367303
 30
-29.8741025487612
 70
   192
  0
VERTEX
  5
D7B
  8
0
 10
9.888135738310812
 20
15.38677113671376
 30
-29.38506087233801
 70
   192
  0
VERTEX
  5
D7C
  8
0
 10
9.504916995618952
 20
15.38677113669318
 30
-29.00184212963087
 70
   192
  0
VERTEX
  5
D7D
  8
0
 10
9.01587531920807
 20
15.3867711366766
 30
-28.8741025487213
 70
   192
  0
VERTEX
  5
D7E
  8
0
 10
9.01587531920807
 20
-17.9187037078367
 30
-28.8741025487213
 70
   192
  0
VERTEX
  5
D7F
  8
0
 10
9.50491699561895
 20
-17.91870370783797
 30
-29.00184212961933
 70
   192
  0
VERTEX
  5
D80
  8
0
 10
9.888135738310813
 20
-17.91870370783955
 30
-29.38506087231211
 70
   192
  0
VERTEX
  5
D81
  8
0
 10
0.0
 20
0.0
 30
0.0
 70
   128
 71
     5
 72
     6
 73
    -7
  0
VERTEX
  5
D82
  8
0
 10
0.0
 20
0.0
 30
0.0
 70
   128
 71
     4
 72
    -5
 73
     7
  0
VERTEX
  5
D83
  8
0
 10
0.0
 20
0.0
 30
0.0
 70
   128
 71
     8
 72
     3
 73
    -4
  0
VERTEX
  5
D84
  8
0
 10
0.0
 20
0.0
 30
0.0
 70
   128
 71
     7
 72
    -8
 73
     4
  0
VERTEX
  5
D85
  8
0
 10
0.0
 20
0.0
 30
0.0
 70
   128
 71
     1
 72
     2
 73
    -3
  0
VERTEX
  5
D86
  8
0
 10
0.0
 20
0.0
 30
0.0
 70
   128
 71
     8
 72
    -1
 73
     3
  0
SEQEND
  5
140B
  8
0
  0
ENDBLK
  5
13E0
  8
0
  0
BLOCK
  8
0
  2
*X2
 70
     1
 10
0.0
 20
0.0
 30
0.0
  3
*X2
  1

  0
POLYLINE
  5
D88
  8
0
 66
     1
 10
0.0
 20
0.0
 30
0.0
 70
    64
 71
    18
 72
    16
  0
VERTEX
  5
D89
  8
0
 10
344.318822035372
 20
0.8971316969297276
 30
-27.72018630479874
 70
   192
  0
VERTEX
  5
D8A
  8
0
 10
343.9999996210577
 20
-1.265966286284557
 30
-27.72007209616738
 70
   192
  0
VERTEX
  5
D8B
  8
0
 10
343.872260225479
 20
-1.265966286125353
 30
-28.20851441079005
 70
   192
  0
VERTEX
  5
D8C
  8
0
 10
343.4890416280049
 20
-1.265966286000594
 30
-28.59126348661712
 70
   192
  0
VERTEX
  5
D8D
  8
0
 10
343.0
 20
-1.265966285959
 30
-28.7188465118928
 70
   192
  0
VERTEX
  5
D8E
  8
0
 10
348.9013207474959
 20
5.771504930236239
 30
-27.7601956886299
 70
   192
  0
VERTEX
  5
D8F
  8
0
 10
347.02768269477
 20
4.76608092851098
 30
-27.7204258846791
 70
   192
  0
VERTEX
  5
D90
  8
0
 10
347.3431457505076
 20
6.148247276414133
 30
-28.7188465118928
 70
   192
  0
VERTEX
  5
D91
  8
0
 10
355.6568542494925
 20
6.148247276414105
 30
-28.7188465118928
 70
   192
  0
VERTEX
  5
D92
  8
0
 10
356.4517675392891
 20
4.392467285344613
 30
-27.90965638711575
 70
   192
  0
VERTEX
  5
D93
  8
0
 10
353.098453795582
 20
6.069217497594689
 30
-27.8396875712851
 70
   192
  0
VERTEX
  5
D94
  8
0
 10
359.2613190047452
 20
-1.265966285959052
 30
-28.39290169305351
 70
   192
  0
VERTEX
  5
D95
  8
0
 10
359.0481759411081
 20
-1.26596628595905
 30
-28.0254911937564
 70
   192
  0
VERTEX
  5
D96
  8
0
 10
358.3627158250185
 20
1.831689286842155
 30
-27.96674166094153
 70
   192
  0
VERTEX
  5
D97
  8
0
 10
350.9804281998954
 20
6.220699235874941
 30
-27.79997065130258
 70
   192
  0
VERTEX
  5
D98
  8
0
 10
345.3449439701527
 20
3.019246310677
 30
-27.72030609473892
 70
   192
  0
VERTEX
  5
D99
  8
0
 10
360.0
 20
-1.26596628595906
 30
-28.7188465118928
 70
   192
  0
VERTEX
  5
D9A
  8
0
 10
359.611568899554
 20
-1.265966285959056
 30
-28.64032428167698
 70
   192
  0
VERTEX
  5
D9B
  8
0
 10
0.0
 20
0.0
 30
0.0
 70
   128
 71
     1
 72
     2
 73
     3
  0
VERTEX
  5
D9C
  8
0
 10
0.0
 20
0.0
 30
0.0
 70
   128
 71
     3
 72
     4
 73
     1
  0
VERTEX
  5
D9D
  8
0
 10
0.0
 20
0.0
 30
0.0
 70
   128
 71
     4
 72
     5
 73
     1
  0
VERTEX
  5
D9E
  8
0
 10
0.0
 20
0.0
 30
0.0
 70
   128
 71
     6
 72
     7
 73
     8
  0
VERTEX
  5
D9F
  8
0
 10
0.0
 20
0.0
 30
0.0
 70
   128
 71
     9
 72
    10
 73
    11
  0
VERTEX
  5
DA0
  8
0
 10
0.0
 20
0.0
 30
0.0
 70
   128
 71
    12
 72
    13
 73
    14
  0
VERTEX
  5
DA1
  8
0
 10
0.0
 20
0.0
 30
0.0
 70
   128
 71
    15
 72
     6
 73
     8
  0
VERTEX
  5
DA2
  8
0
 10
0.0
 20
0.0
 30
0.0
 70
   128
 71
     1
 72
     5
 73
     8
  0
VERTEX
  5
DA3
  8
0
 10
0.0
 20
0.0
 30
0.0
 70
   128
 71
    16
 72
     1
 73
     8
  0
VERTEX
  5
DA4
  8
0
 10
0.0
 20
0.0
 30
0.0
 70
   128
 71
     9
 72
    17
 73
    18
  0
VERTEX
  5
DA5
  8
0
 10
0.0
 20
0.0
 30
0.0
 70
   128
 71
     8
 72
     7
 73
    16
  0
VERTEX
  5
DA6
  8
0
 10
0.0
 20
0.0
 30
0.0
 70
   128
 71
    11
 72
    15
 73
     8
  0
VERTEX
  5
DA7
  8
0
 10
0.0
 20
0.0
 30
0.0
 70
   128
 71
     9
 72
    11
 73
     8
  0
VERTEX
  5
DA8
  8
0
 10
0.0
 20
0.0
 30
0.0
 70
   128
 71
    14
 72
    10
 73
     9
  0
VERTEX
  5
DA9
  8
0
 10
0.0
 20
0.0
 30
0.0
 70
   128
 71
    12
 72
    14
 73
     9
  0
VERTEX
  5
DAA
  8
0
 10
0.0
 20
0.0
 30
0.0
 70
   128
 71
    18
 72
    12
 73
     9
  0
SEQEND
  5
140E
  8
0
  0
POLYLINE
  5
DAB
  8
0
 66
     1
 10
0.0
 20
0.0
 30
0.0
 70
    64
 71
   116
 72
   114
  0
VERTEX
  5
DAC
  8
0
 10
359.0101034607915
 20
-1.265970856628968
 30
-27.1490266288388
 70
   192
  0
VERTEX
  5
DAD
  8
0
 10
355.1678060549403
 20
-7.807841582158324
 30
-27.29615447835661
 70
   192
  0
VERTEX
  5
DAE
  8
0
 10
347.8321824061534
 20
-7.807835112509623
 30
-27.44328232787443
 70
   192
  0
VERTEX
  5
DAF
  8
0
 10
345.3068318339077
 20
3.116479840198525
 30
-25.90493220135254
 70
   192
  0
VERTEX
  5
DB0
  8
0
 10
357.0028588905977
 20
3.925343925186938
 30
-26.15985607984234
 70
   192
  0
VERTEX
  5
DB1
  8
0
 10
355.5372395949219
 20
-7.649954384137006
 30
-26.40803760192422
 70
   192
  0
VERTEX
  5
DB2
  8
0
 10
346.3240576346202
 20
4.375990955376635
 30
-24.15071954165617
 70
   192
  0
VERTEX
  5
DB3
  8
0
 10
357.9925992153519
 20
2.745706423117344
 30
-24.40765410834605
 70
   192
  0
VERTEX
  5
DB4
  8
0
 10
354.2819718432714
 20
-8.36442715109785
 30
-24.65509497589262
 70
   192
  0
VERTEX
  5
DB5
  8
0
 10
343.9673110857086
 20
-2.475332749164655
 30
-24.90337911828736
 70
   192
  0
VERTEX
  5
DB6
  8
0
 10
351.4877928036134
 20
6.348597652899917
 30
-25.15277278286558
 70
   192
  0
VERTEX
  5
DB7
  8
0
 10
348.485031344943
 20
-8.239006336041612
 30
-25.65456879382939
 70
   192
  0
VERTEX
  5
DB8
  8
0
 10
358.9053491717008
 20
-2.929797644763919
 30
-25.41045814598782
 70
   192
  0
VERTEX
  5
DB9
  8
0
 10
344.4429506217774
 20
-3.980615023842029
 30
-26.65305345122728
 70
   192
  0
VERTEX
  5
DBA
  8
0
 10
350.0598712660257
 20
6.141504917610236
 30
-26.90080918227883
 70
   192
  0
VERTEX
  5
DBB
  8
0
 10
343.9931326850308
 20
-1.265938234337874
 30
-27.59016934054242
 70
   192
  0
VERTEX
  5
DBC
  8
0
 10
344.3188244724546
 20
0.8971397898333295
 30
-27.63374874648787
 70
   192
  0
VERTEX
  5
DBD
  8
0
 10
345.3449465164793
 20
3.019249969862077
 30
-27.67708731558347
 70
   192
  0
VERTEX
  5
DBE
  8
0
 10
347.02768269477
 20
4.76608092851098
 30
-27.7204258846791
 70
   192
  0
VERTEX
  5
DBF
  8
0
 10
359.2451640396937
 20
-1.269515186829802
 30
-18.74644987349638
 70
   192
  0
VERTEX
  5
DC0
  8
0
 10
359.286031895394
 20
-1.26371730804804
 30
-19.0575632283065
 70
   192
  0
VERTEX
  5
DC1
  8
0
 10
349.9824087140975
 20
-8.894549267247392
 30
-19.31101392923039
 70
   192
  0
VERTEX
  5
DC2
  8
0
 10
344.3208330504348
 20
1.70770486332805
 30
-19.56641083277771
 70
   192
  0
VERTEX
  5
DC3
  8
0
 10
355.8166278555476
 20
5.194015559443598
 30
-19.82370254368168
 70
   192
  0
VERTEX
  5
DC4
  8
0
 10
356.9865440762425
 20
-6.752226627761949
 30
-20.08281371399566
 70
   192
  0
VERTEX
  5
DC5
  8
0
 10
345.0505479151749
 20
-5.572673960672505
 30
-20.34159257607651
 70
   192
  0
VERTEX
  5
DC6
  8
0
 10
348.536708987342
 20
5.891558423488277
 30
-20.59785945052742
 70
   192
  0
VERTEX
  5
DC7
  8
0
 10
359.0963936228143
 20
0.2410147670251868
 30
-20.8519362972068
 70
   192
  0
VERTEX
  5
DC8
  8
0
 10
351.4778486948553
 20
-9.0071299206834
 30
-21.10428948474825
 70
   192
  0
VERTEX
  5
DC9
  8
0
 10
344.0982942366858
 20
0.9767489719100032
 30
-21.37100684995016
 70
   192
  0
VERTEX
  5
DCA
  8
0
 10
354.7627825476719
 20
5.733784825650401
 30
-21.62098288974704
 70
   192
  0
VERTEX
  5
DCB
  8
0
 10
357.5399478127322
 20
-6.074350839051547
 30
-21.8821218625214
 70
   192
  0
VERTEX
  5
DCC
  8
0
 10
345.7529871595083
 20
-6.416082843184243
 30
-22.12804669357415
 70
   192
  0
VERTEX
  5
DCD
  8
0
 10
347.4927092756765
 20
5.313266623531033
 30
-22.38078821416806
 70
   192
  0
VERTEX
  5
DCE
  8
0
 10
358.7710706064898
 20
1.247125881249948
 30
-22.64183578623808
 70
   192
  0
VERTEX
  5
DCF
  8
0
 10
352.8856088769033
 20
-8.828249251064248
 30
-22.88656370571341
 70
   192
  0
VERTEX
  5
DD0
  8
0
 10
343.819517565553
 20
-0.8988568497527298
 30
-23.14039322499701
 70
   192
  0
VERTEX
  5
DD1
  8
0
 10
353.0852895436084
 20
6.243624103101413
 30
-23.39263822320999
 70
   192
  0
VERTEX
  5
DD2
  8
0
 10
358.4197249914494
 20
-4.544485849196212
 30
-23.65311956964558
 70
   192
  0
VERTEX
  5
DD3
  8
0
 10
347.0101413588666
 20
-7.46968144722986
 30
-23.89807069103956
 70
   192
  0
VERTEX
  5
DD4
  8
0
 10
348.9013207474959
 20
5.771504930236239
 30
-27.7601956886299
 70
   192
  0
VERTEX
  5
DD5
  8
0
 10
350.9804281998954
 20
6.220699235874941
 30
-27.79997065130258
 70
   192
  0
VERTEX
  5
DD6
  8
0
 10
353.098453795582
 20
6.069217497594689
 30
-27.8396875712851
 70
   192
  0
VERTEX
  5
DD7
  8
0
 10
356.4517675392891
 20
4.392467285344613
 30
-27.90965638711575
 70
   192
  0
VERTEX
  5
DD8
  8
0
 10
358.3627158250185
 20
1.831689286842155
 30
-27.96674166094153
 70
   192
  0
VERTEX
  5
DD9
  8
0
 10
359.2848142717473
 20
-1.263651745453163
 30
-27.8430444278647
 70
   192
  0
VERTEX
  5
DDA
  8
0
 10
357.4506779832993
 20
-5.321986856023012
 30
-18.89651280486156
 70
   192
  0
VERTEX
  5
DDB
  8
0
 10
358.3826895203882
 20
-3.386282489357411
 30
-18.8562986046511
 70
   192
  0
VERTEX
  5
DDC
  8
0
 10
358.9654010044487
 20
-1.271714874685421
 30
-18.62841493450178
 70
   192
  0
VERTEX
  5
DDD
  8
0
 10
358.713968104638
 20
-1.268215263870061
 30
-18.8162035555259
 70
   192
  0
VERTEX
  5
DDE
  8
0
 10
359.0481759411081
 20
-1.26596628595905
 30
-28.0254911937564
 70
   192
  0
VERTEX
  5
DDF
  8
0
 10
355.2072614139288
 20
-7.785578238978415
 30
-21.40835669465917
 70
   192
  0
VERTEX
  5
DE0
  8
0
 10
359.0
 20
-1.26596628595903
 30
-21.2609601424214
 70
   192
  0
VERTEX
  5
DE1
  8
0
 10
355.3406914270382
 20
5.176229237307648
 30
-21.11662681737564
 70
   192
  0
VERTEX
  5
DE2
  8
0
 10
347.7476003704165
 20
5.228125285404866
 30
-20.96826017380457
 70
   192
  0
VERTEX
  5
DE3
  8
0
 10
344.000000000003
 20
-1.265966285951737
 30
-20.82186420253338
 70
   192
  0
VERTEX
  5
DE4
  8
0
 10
347.5951052278056
 20
-7.669340115048813
 30
-20.67885087208581
 70
   192
  0
VERTEX
  5
DE5
  8
0
 10
355.0712337910475
 20
-7.861066769834334
 30
-20.53301409450551
 70
   192
  0
VERTEX
  5
DE6
  8
0
 10
359.0
 20
-1.26596628595904
 30
-20.3827678001912
 70
   192
  0
VERTEX
  5
DE7
  8
0
 10
355.2103145533028
 20
5.251910853187631
 30
-20.23559619670638
 70
   192
  0
VERTEX
  5
DE8
  8
0
 10
347.9827177979611
 20
5.358207154393746
 30
-20.09507330255612
 70
   192
  0
VERTEX
  5
DE9
  8
0
 10
344.0000000081698
 20
-1.265966284817827
 30
-19.94367279968045
 70
   192
  0
VERTEX
  5
DEA
  8
0
 10
347.5857287396325
 20
-7.663557024068415
 30
-19.8009476653872
 70
   192
  0
VERTEX
  5
DEB
  8
0
 10
355.4709191234134
 20
-7.628409948248113
 30
-19.64625752838448
 70
   192
  0
VERTEX
  5
DEC
  8
0
 10
359.0
 20
-1.26596628595905
 30
-19.5045941372399
 70
   192
  0
VERTEX
  5
DED
  8
0
 10
353.1095039106816
 20
6.059492302607155
 30
-19.31534662649542
 70
   192
  0
VERTEX
  5
DEE
  8
0
 10
344.6653062974955
 20
1.821197807212955
 30
-19.1248638030492
 70
   192
  0
VERTEX
  5
DEF
  8
0
 10
346.957635246618
 20
-7.233957777850559
 30
-18.9368833919394
 70
   192
  0
VERTEX
  5
DF0
  8
0
 10
359.260400336568
 20
-1.269142869762456
 30
-27.54839147462975
 70
   192
  0
VERTEX
  5
DF1
  8
0
 10
359.0
 20
-1.26596628595905
 30
-27.4084444112242
 70
   192
  0
VERTEX
  5
DF2
  8
0
 10
358.6836449069414
 20
0.879179010281673
 30
-27.36799137428043
 70
   192
  0
VERTEX
  5
DF3
  8
0
 10
357.7818642007247
 20
2.833898918379292
 30
-27.327876597189
 70
   192
  0
VERTEX
  5
DF4
  8
0
 10
356.3169290081634
 20
4.483489059141945
 30
-27.28659357751299
 70
   192
  0
VERTEX
  5
DF5
  8
0
 10
351.0661712631533
 20
6.221369962606234
 30
-27.18070621496329
 70
   192
  0
VERTEX
  5
DF6
  8
0
 10
346.0403699378981
 20
3.877351163233647
 30
-27.07484795343249
 70
   192
  0
VERTEX
  5
DF7
  8
0
 10
344.0000000958799
 20
-1.265965832305798
 30
-26.96926744997631
 70
   192
  0
VERTEX
  5
DF8
  8
0
 10
347.9073772026107
 20
-7.847252384132452
 30
-26.8195441746505
 70
   192
  0
VERTEX
  5
DF9
  8
0
 10
355.1853332157638
 20
-7.797409820349557
 30
-26.67795541080057
 70
   192
  0
VERTEX
  5
DFA
  8
0
 10
359.0
 20
-1.26596628595904
 30
-26.530144950215
 70
   192
  0
VERTEX
  5
DFB
  8
0
 10
355.4155436960911
 20
5.130788372797927
 30
-26.38744295714056
 70
   192
  0
VERTEX
  5
DFC
  8
0
 10
347.5348837961207
 20
5.10028450487527
 30
-26.23285203748537
 70
   192
  0
VERTEX
  5
DFD
  8
0
 10
344.0000000424122
 20
-1.265966286961741
 30
-26.09106636408332
 70
   192
  0
VERTEX
  5
DFE
  8
0
 10
347.8414029490342
 20
-7.813043248766721
 30
-25.94275295934553
 70
   192
  0
VERTEX
  5
DFF
  8
0
 10
355.2076849702917
 20
-7.785337987572985
 30
-25.79932916574797
 70
   192
  0
VERTEX
  5
E00
  8
0
 10
359.0
 20
-1.26596628595905
 30
-25.6519417024204
 70
   192
  0
VERTEX
  5
E01
  8
0
 10
355.3408245437519
 20
5.176150173833263
 30
-25.50761126145964
 70
   192
  0
VERTEX
  5
E02
  8
0
 10
347.7475998473376
 20
5.228124993869942
 30
-25.35924172280038
 70
   192
  0
VERTEX
  5
E03
  8
0
 10
344.0000000000028
 20
-1.265966285951801
 30
-25.21284576253199
 70
   192
  0
VERTEX
  5
E04
  8
0
 10
347.5951037647848
 20
-7.669339231674939
 30
-25.06983246397871
 70
   192
  0
VERTEX
  5
E05
  8
0
 10
355.0723394049881
 20
-7.860468211724424
 30
-24.92397222127479
 70
   192
  0
VERTEX
  5
E06
  8
0
 10
359.0
 20
-1.26596628595906
 30
-24.773749358871
 70
   192
  0
VERTEX
  5
E07
  8
0
 10
355.2111352596771
 20
5.251444518170703
 30
-24.62659528659223
 70
   192
  0
VERTEX
  5
E08
  8
0
 10
347.9814109940365
 20
5.357510757930655
 30
-24.48602722840996
 70
   192
  0
VERTEX
  5
E09
  8
0
 10
344.0000000084124
 20
-1.26596628481709
 30
-24.33465423573555
 70
   192
  0
VERTEX
  5
E0A
  8
0
 10
347.5875158568959
 20
-7.664650050050339
 30
-24.19188996635372
 70
   192
  0
VERTEX
  5
E0B
  8
0
 10
355.4687824549335
 20
-7.629747465333441
 30
-24.03728608105835
 70
   192
  0
VERTEX
  5
E0C
  8
0
 10
359.0
 20
-1.26596628595905
 30
-23.8955756391152
 70
   192
  0
VERTEX
  5
E0D
  8
0
 10
355.157734533853
 20
5.281550241337515
 30
-23.74724490565653
 70
   192
  0
VERTEX
  5
E0E
  8
0
 10
347.792079350973
 20
5.253288922683653
 30
-23.60383373928383
 70
   192
  0
VERTEX
  5
E0F
  8
0
 10
343.9999999991813
 20
-1.265966285953955
 30
-23.45645092269343
 70
   192
  0
VERTEX
  5
E10
  8
0
 10
347.6591210614598
 20
-7.708003409577837
 30
-23.31212181847136
 70
   192
  0
VERTEX
  5
E11
  8
0
 10
355.2522887791006
 20
-7.760121913323708
 30
-23.16375333993933
 70
   192
  0
VERTEX
  5
E12
  8
0
 10
359.0
 20
-1.26596628595906
 30
-23.0173549825751
 70
   192
  0
VERTEX
  5
E13
  8
0
 10
355.4048755854496
 20
5.137419201508457
 30
-22.87434123365272
 70
   192
  0
VERTEX
  5
E14
  8
0
 10
347.927531173903
 20
5.328465609827235
 30
-22.7284786989099
 70
   192
  0
VERTEX
  5
E15
  8
0
 10
343.9999999994304
 20
-1.26596628596254
 30
-22.57825857864472
 70
   192
  0
VERTEX
  5
E16
  8
0
 10
347.789305596445
 20
-7.783643726871199
 30
-22.43109453369701
 70
   192
  0
VERTEX
  5
E17
  8
0
 10
355.0244541086487
 20
-7.886032233811105
 30
-22.2904076320719
 70
   192
  0
VERTEX
  5
E18
  8
0
 10
359.0
 20
-1.26596628595905
 30
-22.139163390808
 70
   192
  0
VERTEX
  5
E19
  8
0
 10
355.4151354674752
 20
5.131038283570804
 30
-21.99645246582829
 70
   192
  0
VERTEX
  5
E1A
  8
0
 10
347.5338494441295
 20
5.099641270029396
 30
-21.84184770669521
 70
   192
  0
VERTEX
  5
E1B
  8
0
 10
344.0000000426546
 20
-1.265966286961647
 30
-21.70008480415517
 70
   192
  0
VERTEX
  5
E1C
  8
0
 10
347.8423241027086
 20
-7.813558137682094
 30
-21.55175179082377
 70
   192
  0
VERTEX
  5
E1D
  8
0
 10
350.8390634437437
 20
-8.526737980198416
 30
-18.9368833918954
 70
   192
  0
VERTEX
  5
E1E
  8
0
 10
353.5793197302276
 20
-8.205681824883046
 30
-18.93688339189539
 70
   192
  0
VERTEX
  5
E1F
  8
0
 10
356.0034856402441
 20
-6.900977590304826
 30
-18.93681725396351
 70
   192
  0
VERTEX
  5
E20
  8
0
 10
0.0
 20
0.0
 30
0.0
 70
   128
 71
     1
 72
     2
 73
     3
  0
VERTEX
  5
E21
  8
0
 10
0.0
 20
0.0
 30
0.0
 70
   128
 71
     4
 72
     5
 73
     6
  0
VERTEX
  5
E22
  8
0
 10
0.0
 20
0.0
 30
0.0
 70
   128
 71
     7
 72
     8
 73
     9
  0
VERTEX
  5
E23
  8
0
 10
0.0
 20
0.0
 30
0.0
 70
   128
 71
    10
 72
    11
 73
    12
  0
VERTEX
  5
E24
  8
0
 10
0.0
 20
0.0
 30
0.0
 70
   128
 71
    11
 72
    13
 73
    12
  0
VERTEX
  5
E25
  8
0
 10
0.0
 20
0.0
 30
0.0
 70
   128
 71
     4
 72
     6
 73
    14
  0
VERTEX
  5
E26
  8
0
 10
0.0
 20
0.0
 30
0.0
 70
   128
 71
    14
 72
    15
 73
    16
  0
VERTEX
  5
E27
  8
0
 10
0.0
 20
0.0
 30
0.0
 70
   128
 71
    15
 72
     1
 73
    16
  0
VERTEX
  5
E28
  8
0
 10
0.0
 20
0.0
 30
0.0
 70
   128
 71
     1
 72
     3
 73
    16
  0
VERTEX
  5
E29
  8
0
 10
0.0
 20
0.0
 30
0.0
 70
   128
 71
    17
 72
    18
 73
    19
  0
VERTEX
  5
E2A
  8
0
 10
0.0
 20
0.0
 30
0.0
 70
   128
 71
    20
 72
    21
 73
    22
  0
VERTEX
  5
E2B
  8
0
 10
0.0
 20
0.0
 30
0.0
 70
   128
 71
    22
 72
    23
 73
    20
  0
VERTEX
  5
E2C
  8
0
 10
0.0
 20
0.0
 30
0.0
 70
   128
 71
    23
 72
    24
 73
    20
  0
VERTEX
  5
E2D
  8
0
 10
0.0
 20
0.0
 30
0.0
 70
   128
 71
    24
 72
    25
 73
    20
  0
VERTEX
  5
E2E
  8
0
 10
0.0
 20
0.0
 30
0.0
 70
   128
 71
    25
 72
    26
 73
    20
  0
VERTEX
  5
E2F
  8
0
 10
0.0
 20
0.0
 30
0.0
 70
   128
 71
    26
 72
    27
 73
    20
  0
VERTEX
  5
E30
  8
0
 10
0.0
 20
0.0
 30
0.0
 70
   128
 71
    27
 72
    28
 73
    20
  0
VERTEX
  5
E31
  8
0
 10
0.0
 20
0.0
 30
0.0
 70
   128
 71
    28
 72
    29
 73
    20
  0
VERTEX
  5
E32
  8
0
 10
0.0
 20
0.0
 30
0.0
 70
   128
 71
    29
 72
    30
 73
    20
  0
VERTEX
  5
E33
  8
0
 10
0.0
 20
0.0
 30
0.0
 70
   128
 71
    30
 72
    31
 73
    20
  0
VERTEX
  5
E34
  8
0
 10
0.0
 20
0.0
 30
0.0
 70
   128
 71
    31
 72
    32
 73
    20
  0
VERTEX
  5
E35
  8
0
 10
0.0
 20
0.0
 30
0.0
 70
   128
 71
    32
 72
    33
 73
    20
  0
VERTEX
  5
E36
  8
0
 10
0.0
 20
0.0
 30
0.0
 70
   128
 71
    33
 72
    34
 73
    20
  0
VERTEX
  5
E37
  8
0
 10
0.0
 20
0.0
 30
0.0
 70
   128
 71
    34
 72
    35
 73
    20
  0
VERTEX
  5
E38
  8
0
 10
0.0
 20
0.0
 30
0.0
 70
   128
 71
    35
 72
    36
 73
    20
  0
VERTEX
  5
E39
  8
0
 10
0.0
 20
0.0
 30
0.0
 70
   128
 71
    36
 72
    37
 73
    20
  0
VERTEX
  5
E3A
  8
0
 10
0.0
 20
0.0
 30
0.0
 70
   128
 71
    37
 72
    38
 73
    20
  0
VERTEX
  5
E3B
  8
0
 10
0.0
 20
0.0
 30
0.0
 70
   128
 71
    38
 72
    39
 73
    20
  0
VERTEX
  5
E3C
  8
0
 10
0.0
 20
0.0
 30
0.0
 70
   128
 71
    39
 72
    40
 73
    20
  0
VERTEX
  5
E3D
  8
0
 10
0.0
 20
0.0
 30
0.0
 70
   128
 71
    40
 72
     7
 73
    20
  0
VERTEX
  5
E3E
  8
0
 10
0.0
 20
0.0
 30
0.0
 70
   128
 71
     7
 72
     9
 73
    20
  0
VERTEX
  5
E3F
  8
0
 10
0.0
 20
0.0
 30
0.0
 70
   128
 71
     9
 72
    10
 73
    20
  0
VERTEX
  5
E40
  8
0
 10
0.0
 20
0.0
 30
0.0
 70
   128
 71
    10
 72
    12
 73
    20
  0
VERTEX
  5
E41
  8
0
 10
0.0
 20
0.0
 30
0.0
 70
   128
 71
    12
 72
     4
 73
    20
  0
VERTEX
  5
E42
  8
0
 10
0.0
 20
0.0
 30
0.0
 70
   128
 71
     4
 72
    14
 73
    20
  0
VERTEX
  5
E43
  8
0
 10
0.0
 20
0.0
 30
0.0
 70
   128
 71
    14
 72
    16
 73
    20
  0
VERTEX
  5
E44
  8
0
 10
0.0
 20
0.0
 30
0.0
 70
   128
 71
    16
 72
    17
 73
    20
  0
VERTEX
  5
E45
  8
0
 10
0.0
 20
0.0
 30
0.0
 70
   128
 71
    17
 72
    19
 73
    20
  0
VERTEX
  5
E46
  8
0
 10
0.0
 20
0.0
 30
0.0
 70
   128
 71
    19
 72
    41
 73
    20
  0
VERTEX
  5
E47
  8
0
 10
0.0
 20
0.0
 30
0.0
 70
   128
 71
    41
 72
    42
 73
    20
  0
VERTEX
  5
E48
  8
0
 10
0.0
 20
0.0
 30
0.0
 70
   128
 71
    42
 72
    43
 73
    20
  0
VERTEX
  5
E49
  8
0
 10
0.0
 20
0.0
 30
0.0
 70
   128
 71
    43
 72
    44
 73
    20
  0
VERTEX
  5
E4A
  8
0
 10
0.0
 20
0.0
 30
0.0
 70
   128
 71
    44
 72
    45
 73
    20
  0
VERTEX
  5
E4B
  8
0
 10
0.0
 20
0.0
 30
0.0
 70
   128
 71
    45
 72
    46
 73
    20
  0
VERTEX
  5
E4C
  8
0
 10
0.0
 20
0.0
 30
0.0
 70
   128
 71
    47
 72
    48
 73
    49
  0
VERTEX
  5
E4D
  8
0
 10
0.0
 20
0.0
 30
0.0
 70
   128
 71
    48
 72
    50
 73
    49
  0
VERTEX
  5
E4E
  8
0
 10
0.0
 20
0.0
 30
0.0
 70
   128
 71
    46
 72
    45
 73
    51
  0
VERTEX
  5
E4F
  8
0
 10
0.0
 20
0.0
 30
0.0
 70
   128
 71
    52
 72
    53
 73
    46
  0
VERTEX
  5
E50
  8
0
 10
0.0
 20
0.0
 30
0.0
 70
   128
 71
    53
 72
    54
 73
    46
  0
VERTEX
  5
E51
  8
0
 10
0.0
 20
0.0
 30
0.0
 70
   128
 71
    54
 72
    55
 73
    46
  0
VERTEX
  5
E52
  8
0
 10
0.0
 20
0.0
 30
0.0
 70
   128
 71
    55
 72
    56
 73
    46
  0
VERTEX
  5
E53
  8
0
 10
0.0
 20
0.0
 30
0.0
 70
   128
 71
    56
 72
    57
 73
    46
  0
VERTEX
  5
E54
  8
0
 10
0.0
 20
0.0
 30
0.0
 70
   128
 71
    57
 72
    58
 73
    46
  0
VERTEX
  5
E55
  8
0
 10
0.0
 20
0.0
 30
0.0
 70
   128
 71
    58
 72
    59
 73
    46
  0
VERTEX
  5
E56
  8
0
 10
0.0
 20
0.0
 30
0.0
 70
   128
 71
    59
 72
    60
 73
    46
  0
VERTEX
  5
E57
  8
0
 10
0.0
 20
0.0
 30
0.0
 70
   128
 71
    60
 72
    61
 73
    46
  0
VERTEX
  5
E58
  8
0
 10
0.0
 20
0.0
 30
0.0
 70
   128
 71
    61
 72
    62
 73
    46
  0
VERTEX
  5
E59
  8
0
 10
0.0
 20
0.0
 30
0.0
 70
   128
 71
    62
 72
    63
 73
    46
  0
VERTEX
  5
E5A
  8
0
 10
0.0
 20
0.0
 30
0.0
 70
   128
 71
    63
 72
    64
 73
    46
  0
VERTEX
  5
E5B
  8
0
 10
0.0
 20
0.0
 30
0.0
 70
   128
 71
    64
 72
    65
 73
    46
  0
VERTEX
  5
E5C
  8
0
 10
0.0
 20
0.0
 30
0.0
 70
   128
 71
    65
 72
    66
 73
    46
  0
VERTEX
  5
E5D
  8
0
 10
0.0
 20
0.0
 30
0.0
 70
   128
 71
    66
 72
    67
 73
    46
  0
VERTEX
  5
E5E
  8
0
 10
0.0
 20
0.0
 30
0.0
 70
   128
 71
    67
 72
    68
 73
    46
  0
VERTEX
  5
E5F
  8
0
 10
0.0
 20
0.0
 30
0.0
 70
   128
 71
    68
 72
    20
 73
    46
  0
VERTEX
  5
E60
  8
0
 10
0.0
 20
0.0
 30
0.0
 70
   128
 71
    69
 72
    70
 73
    71
  0
VERTEX
  5
E61
  8
0
 10
0.0
 20
0.0
 30
0.0
 70
   128
 71
    71
 72
    72
 73
    69
  0
VERTEX
  5
E62
  8
0
 10
0.0
 20
0.0
 30
0.0
 70
   128
 71
    72
 72
    73
 73
    69
  0
VERTEX
  5
E63
  8
0
 10
0.0
 20
0.0
 30
0.0
 70
   128
 71
    73
 72
    74
 73
    69
  0
VERTEX
  5
E64
  8
0
 10
0.0
 20
0.0
 30
0.0
 70
   128
 71
    74
 72
    75
 73
    69
  0
VERTEX
  5
E65
  8
0
 10
0.0
 20
0.0
 30
0.0
 70
   128
 71
    75
 72
    76
 73
    69
  0
VERTEX
  5
E66
  8
0
 10
0.0
 20
0.0
 30
0.0
 70
   128
 71
    76
 72
    77
 73
    69
  0
VERTEX
  5
E67
  8
0
 10
0.0
 20
0.0
 30
0.0
 70
   128
 71
    77
 72
    78
 73
    69
  0
VERTEX
  5
E68
  8
0
 10
0.0
 20
0.0
 30
0.0
 70
   128
 71
    78
 72
    79
 73
    69
  0
VERTEX
  5
E69
  8
0
 10
0.0
 20
0.0
 30
0.0
 70
   128
 71
    79
 72
    80
 73
    69
  0
VERTEX
  5
E6A
  8
0
 10
0.0
 20
0.0
 30
0.0
 70
   128
 71
    80
 72
    81
 73
    69
  0
VERTEX
  5
E6B
  8
0
 10
0.0
 20
0.0
 30
0.0
 70
   128
 71
    81
 72
    82
 73
    69
  0
VERTEX
  5
E6C
  8
0
 10
0.0
 20
0.0
 30
0.0
 70
   128
 71
    82
 72
    83
 73
    69
  0
VERTEX
  5
E6D
  8
0
 10
0.0
 20
0.0
 30
0.0
 70
   128
 71
    83
 72
    84
 73
    69
  0
VERTEX
  5
E6E
  8
0
 10
0.0
 20
0.0
 30
0.0
 70
   128
 71
    84
 72
    85
 73
    69
  0
VERTEX
  5
E6F
  8
0
 10
0.0
 20
0.0
 30
0.0
 70
   128
 71
    85
 72
    86
 73
    69
  0
VERTEX
  5
E70
  8
0
 10
0.0
 20
0.0
 30
0.0
 70
   128
 71
    86
 72
    87
 73
    69
  0
VERTEX
  5
E71
  8
0
 10
0.0
 20
0.0
 30
0.0
 70
   128
 71
    87
 72
    88
 73
    69
  0
VERTEX
  5
E72
  8
0
 10
0.0
 20
0.0
 30
0.0
 70
   128
 71
    88
 72
    89
 73
    69
  0
VERTEX
  5
E73
  8
0
 10
0.0
 20
0.0
 30
0.0
 70
   128
 71
    89
 72
    90
 73
    69
  0
VERTEX
  5
E74
  8
0
 10
0.0
 20
0.0
 30
0.0
 70
   128
 71
    90
 72
    91
 73
    69
  0
VERTEX
  5
E75
  8
0
 10
0.0
 20
0.0
 30
0.0
 70
   128
 71
    91
 72
    92
 73
    69
  0
VERTEX
  5
E76
  8
0
 10
0.0
 20
0.0
 30
0.0
 70
   128
 71
    92
 72
    93
 73
    69
  0
VERTEX
  5
E77
  8
0
 10
0.0
 20
0.0
 30
0.0
 70
   128
 71
    93
 72
    94
 73
    69
  0
VERTEX
  5
E78
  8
0
 10
0.0
 20
0.0
 30
0.0
 70
   128
 71
    94
 72
    95
 73
    69
  0
VERTEX
  5
E79
  8
0
 10
0.0
 20
0.0
 30
0.0
 70
   128
 71
    95
 72
    96
 73
    69
  0
VERTEX
  5
E7A
  8
0
 10
0.0
 20
0.0
 30
0.0
 70
   128
 71
    96
 72
    97
 73
    69
  0
VERTEX
  5
E7B
  8
0
 10
0.0
 20
0.0
 30
0.0
 70
   128
 71
    97
 72
    98
 73
    69
  0
VERTEX
  5
E7C
  8
0
 10
0.0
 20
0.0
 30
0.0
 70
   128
 71
    98
 72
    99
 73
    69
  0
VERTEX
  5
E7D
  8
0
 10
0.0
 20
0.0
 30
0.0
 70
   128
 71
    99
 72
   100
 73
    69
  0
VERTEX
  5
E7E
  8
0
 10
0.0
 20
0.0
 30
0.0
 70
   128
 71
   100
 72
   101
 73
    69
  0
VERTEX
  5
E7F
  8
0
 10
0.0
 20
0.0
 30
0.0
 70
   128
 71
   101
 72
   102
 73
    69
  0
VERTEX
  5
E80
  8
0
 10
0.0
 20
0.0
 30
0.0
 70
   128
 71
   102
 72
   103
 73
    69
  0
VERTEX
  5
E81
  8
0
 10
0.0
 20
0.0
 30
0.0
 70
   128
 71
   103
 72
   104
 73
    69
  0
VERTEX
  5
E82
  8
0
 10
0.0
 20
0.0
 30
0.0
 70
   128
 71
   104
 72
   105
 73
    69
  0
VERTEX
  5
E83
  8
0
 10
0.0
 20
0.0
 30
0.0
 70
   128
 71
   105
 72
   106
 73
    69
  0
VERTEX
  5
E84
  8
0
 10
0.0
 20
0.0
 30
0.0
 70
   128
 71
   106
 72
   107
 73
    69
  0
VERTEX
  5
E85
  8
0
 10
0.0
 20
0.0
 30
0.0
 70
   128
 71
   107
 72
   108
 73
    69
  0
VERTEX
  5
E86
  8
0
 10
0.0
 20
0.0
 30
0.0
 70
   128
 71
   108
 72
   109
 73
    69
  0
VERTEX
  5
E87
  8
0
 10
0.0
 20
0.0
 30
0.0
 70
   128
 71
   109
 72
   110
 73
    69
  0
VERTEX
  5
E88
  8
0
 10
0.0
 20
0.0
 30
0.0
 70
   128
 71
   110
 72
   111
 73
    69
  0
VERTEX
  5
E89
  8
0
 10
0.0
 20
0.0
 30
0.0
 70
   128
 71
   111
 72
   112
 73
    69
  0
VERTEX
  5
E8A
  8
0
 10
0.0
 20
0.0
 30
0.0
 70
   128
 71
   112
 72
   113
 73
    69
  0
VERTEX
  5
E8B
  8
0
 10
0.0
 20
0.0
 30
0.0
 70
   128
 71
    46
 72
    69
 73
   113
  0
VERTEX
  5
E8C
  8
0
 10
0.0
 20
0.0
 30
0.0
 70
   128
 71
   113
 72
    52
 73
    46
  0
VERTEX
  5
E8D
  8
0
 10
0.0
 20
0.0
 30
0.0
 70
   128
 71
    68
 72
   114
 73
   115
  0
VERTEX
  5
E8E
  8
0
 10
0.0
 20
0.0
 30
0.0
 70
   128
 71
    20
 72
    68
 73
   115
  0
VERTEX
  5
E8F
  8
0
 10
0.0
 20
0.0
 30
0.0
 70
   128
 71
   115
 72
   116
 73
    20
  0
VERTEX
  5
E90
  8
0
 10
0.0
 20
0.0
 30
0.0
 70
   128
 71
   116
 72
    47
 73
    20
  0
VERTEX
  5
E91
  8
0
 10
0.0
 20
0.0
 30
0.0
 70
   128
 71
    47
 72
    49
 73
    20
  0
SEQEND
  5
140F
  8
0
  0
POLYLINE
  5
E92
  8
0
 66
     1
 10
0.0
 20
0.0
 30
0.0
 70
    64
 71
    11
 72
     9
  0
VERTEX
  5
E93
  8
0
 10
355.1678060549403
 20
-7.807841582158324
 30
-27.29615447835661
 70
   192
  0
VERTEX
  5
E94
  8
0
 10
359.0101034607915
 20
-1.265970856628974
 30
-27.1490266288388
 70
   192
  0
VERTEX
  5
E95
  8
0
 10
359.0
 20
-1.26596628595905
 30
-27.4084444112242
 70
   192
  0
VERTEX
  5
E96
  8
0
 10
359.0
 20
-1.268107995452929
 30
-27.51195169080741
 70
   192
  0
VERTEX
  5
E97
  8
0
 10
359.0000000000001
 20
-1.267679653554205
 30
-27.61541107515822
 70
   192
  0
VERTEX
  5
E98
  8
0
 10
355.1678099012468
 20
-7.807839425783712
 30
-27.71925317954805
 70
   192
  0
VERTEX
  5
E99
  8
0
 10
359.0
 20
-1.26596628595905
 30
-27.7188465118928
 70
   192
  0
VERTEX
  5
E9A
  8
0
 10
347.8321900987547
 20
-7.807839425784544
 30
-27.7196598472033
 70
   192
  0
VERTEX
  5
E9B
  8
0
 10
347.8321824061534
 20
-7.807835112509623
 30
-27.44328232787443
 70
   192
  0
VERTEX
  5
E9C
  8
0
 10
343.9999996210577
 20
-1.265966286284557
 30
-27.72007209616738
 70
   192
  0
VERTEX
  5
E9D
  8
0
 10
343.9931326850308
 20
-1.265938234337874
 30
-27.59016934054242
 70
   192
  0
VERTEX
  5
E9E
  8
0
 10
0.0
 20
0.0
 30
0.0
 70
   128
 71
     1
 72
     2
 73
     3
  0
VERTEX
  5
E9F
  8
0
 10
0.0
 20
0.0
 30
0.0
 70
   128
 71
     3
 72
     4
 73
     1
  0
VERTEX
  5
EA0
  8
0
 10
0.0
 20
0.0
 30
0.0
 70
   128
 71
     1
 72
     4
 73
     5
  0
VERTEX
  5
EA1
  8
0
 10
0.0
 20
0.0
 30
0.0
 70
   128
 71
     6
 72
     1
 73
     5
  0
VERTEX
  5
EA2
  8
0
 10
0.0
 20
0.0
 30
0.0
 70
   128
 71
     5
 72
     7
 73
     6
  0
VERTEX
  5
EA3
  8
0
 10
0.0
 20
0.0
 30
0.0
 70
   128
 71
     6
 72
     8
 73
     9
  0
VERTEX
  5
EA4
  8
0
 10
0.0
 20
0.0
 30
0.0
 70
   128
 71
     1
 72
     6
 73
     9
  0
VERTEX
  5
EA5
  8
0
 10
0.0
 20
0.0
 30
0.0
 70
   128
 71
     8
 72
    10
 73
    11
  0
VERTEX
  5
EA6
  8
0
 10
0.0
 20
0.0
 30
0.0
 70
   128
 71
     9
 72
     8
 73
    11
  0
SEQEND
  5
1410
  8
0
  0
POLYLINE
  5
EA7
  8
0
 66
     1
 10
0.0
 20
0.0
 30
0.0
 70
    64
 71
     8
 72
     6
  0
VERTEX
  5
EA8
  8
0
 10
359.0
 20
-1.26596628595902
 30
-21.8819789557314
 70
   192
  0
VERTEX
  5
EA9
  8
0
 10
359.0
 20
-1.26596628595905
 30
-22.139163390808
 70
   192
  0
VERTEX
  5
EAA
  8
0
 10
355.0244541086487
 20
-7.886032233811105
 30
-22.2904076320719
 70
   192
  0
VERTEX
  5
EAB
  8
0
 10
355.2085375423907
 20
-7.784854180593408
 30
-22.02919122784437
 70
   192
  0
VERTEX
  5
EAC
  8
0
 10
347.789305596445
 20
-7.783643726871199
 30
-22.43109453369701
 70
   192
  0
VERTEX
  5
EAD
  8
0
 10
347.844494251746
 20
-7.814770151600948
 30
-22.17259205295095
 70
   192
  0
VERTEX
  5
EAE
  8
0
 10
343.9999999994304
 20
-1.26596628596254
 30
-22.57825857864472
 70
   192
  0
VERTEX
  5
EAF
  8
0
 10
344.0000000421724
 20
-1.265966287060052
 30
-22.3210689377789
 70
   192
  0
VERTEX
  5
EB0
  8
0
 10
0.0
 20
0.0
 30
0.0
 70
   128
 71
     1
 72
     2
 73
     3
  0
VERTEX
  5
EB1
  8
0
 10
0.0
 20
0.0
 30
0.0
 70
   128
 71
     4
 72
     1
 73
     3
  0
VERTEX
  5
EB2
  8
0
 10
0.0
 20
0.0
 30
0.0
 70
   128
 71
     3
 72
     5
 73
     6
  0
VERTEX
  5
EB3
  8
0
 10
0.0
 20
0.0
 30
0.0
 70
   128
 71
     4
 72
     3
 73
     6
  0
VERTEX
  5
EB4
  8
0
 10
0.0
 20
0.0
 30
0.0
 70
   128
 71
     5
 72
     7
 73
     8
  0
VERTEX
  5
EB5
  8
0
 10
0.0
 20
0.0
 30
0.0
 70
   128
 71
     6
 72
     5
 73
     8
  0
SEQEND
  5
1411
  8
0
  0
POLYLINE
  5
EB6
  8
0
 66
     1
 10
0.0
 20
0.0
 30
0.0
 70
    64
 71
     8
 72
     6
  0
VERTEX
  5
EB7
  8
0
 10
359.0
 20
-1.26596628595904
 30
-22.7601625360246
 70
   192
  0
VERTEX
  5
EB8
  8
0
 10
359.0
 20
-1.26596628595906
 30
-23.0173549825751
 70
   192
  0
VERTEX
  5
EB9
  8
0
 10
355.2522887791006
 20
-7.760121913323708
 30
-23.16375333993933
 70
   192
  0
VERTEX
  5
EBA
  8
0
 10
355.0328503917706
 20
-7.881564062802089
 30
-22.9111621137274
 70
   192
  0
VERTEX
  5
EBB
  8
0
 10
347.6591210614598
 20
-7.708003409577837
 30
-23.31212181847136
 70
   192
  0
VERTEX
  5
EBC
  8
0
 10
347.7908994565403
 20
-7.784549819513978
 30
-23.05191989599707
 70
   192
  0
VERTEX
  5
EBD
  8
0
 10
343.9999999991813
 20
-1.265966285953955
 30
-23.45645092269343
 70
   192
  0
VERTEX
  5
EBE
  8
0
 10
343.9999999992494
 20
-1.265966285963696
 30
-23.19927773231149
 70
   192
  0
VERTEX
  5
EBF
  8
0
 10
0.0
 20
0.0
 30
0.0
 70
   128
 71
     1
 72
     2
 73
     3
  0
VERTEX
  5
EC0
  8
0
 10
0.0
 20
0.0
 30
0.0
 70
   128
 71
     4
 72
     1
 73
     3
  0
VERTEX
  5
EC1
  8
0
 10
0.0
 20
0.0
 30
0.0
 70
   128
 71
     3
 72
     5
 73
     6
  0
VERTEX
  5
EC2
  8
0
 10
0.0
 20
0.0
 30
0.0
 70
   128
 71
     4
 72
     3
 73
     6
  0
VERTEX
  5
EC3
  8
0
 10
0.0
 20
0.0
 30
0.0
 70
   128
 71
     5
 72
     7
 73
     8
  0
VERTEX
  5
EC4
  8
0
 10
0.0
 20
0.0
 30
0.0
 70
   128
 71
     6
 72
     5
 73
     8
  0
SEQEND
  5
1412
  8
0
  0
POLYLINE
  5
EC5
  8
0
 66
     1
 10
0.0
 20
0.0
 30
0.0
 70
    64
 71
     8
 72
     6
  0
VERTEX
  5
EC6
  8
0
 10
359.0
 20
-1.26596628595905
 30
-25.3947685126425
 70
   192
  0
VERTEX
  5
EC7
  8
0
 10
359.0
 20
-1.26596628595905
 30
-25.6519417024204
 70
   192
  0
VERTEX
  5
EC8
  8
0
 10
355.2076849702917
 20
-7.785337987572985
 30
-25.79932916574797
 70
   192
  0
VERTEX
  5
EC9
  8
0
 10
355.0796072281395
 20
-7.856690706350266
 30
-25.54474366233593
 70
   192
  0
VERTEX
  5
ECA
  8
0
 10
347.8414029490342
 20
-7.813043248766721
 30
-25.94275295934553
 70
   192
  0
VERTEX
  5
ECB
  8
0
 10
347.7485019559476
 20
-7.760397925246895
 30
-25.68746551670352
 70
   192
  0
VERTEX
  5
ECC
  8
0
 10
344.0000000424122
 20
-1.265966286961741
 30
-26.09106636408332
 70
   192
  0
VERTEX
  5
ECD
  8
0
 10
344.0000000000015
 20
-1.265967420059523
 30
-25.83386568016601
 70
   192
  0
VERTEX
  5
ECE
  8
0
 10
0.0
 20
0.0
 30
0.0
 70
   128
 71
     1
 72
     2
 73
     3
  0
VERTEX
  5
ECF
  8
0
 10
0.0
 20
0.0
 30
0.0
 70
   128
 71
     4
 72
     1
 73
     3
  0
VERTEX
  5
ED0
  8
0
 10
0.0
 20
0.0
 30
0.0
 70
   128
 71
     3
 72
     5
 73
     6
  0
VERTEX
  5
ED1
  8
0
 10
0.0
 20
0.0
 30
0.0
 70
   128
 71
     4
 72
     3
 73
     6
  0
VERTEX
  5
ED2
  8
0
 10
0.0
 20
0.0
 30
0.0
 70
   128
 71
     5
 72
     7
 73
     8
  0
VERTEX
  5
ED3
  8
0
 10
0.0
 20
0.0
 30
0.0
 70
   128
 71
     6
 72
     5
 73
     8
  0
SEQEND
  5
1413
  8
0
  0
POLYLINE
  5
ED4
  8
0
 66
     1
 10
0.0
 20
0.0
 30
0.0
 70
    64
 71
     8
 72
     6
  0
VERTEX
  5
ED5
  8
0
 10
359.0
 20
-1.26596628595905
 30
-19.2472854926055
 70
   192
  0
VERTEX
  5
ED6
  8
0
 10
359.0
 20
-1.26596628595905
 30
-19.5045941372399
 70
   192
  0
VERTEX
  5
ED7
  8
0
 10
355.4709191234134
 20
-7.628409948248113
 30
-19.64625752838448
 70
   192
  0
VERTEX
  5
ED8
  8
0
 10
355.6938913648534
 20
-7.488604299545077
 30
-19.38410882415782
 70
   192
  0
VERTEX
  5
ED9
  8
0
 10
347.5857287396325
 20
-7.663557024068415
 30
-19.8009476653872
 70
   192
  0
VERTEX
  5
EDA
  8
0
 10
347.7278370135589
 20
-7.746740778938545
 30
-19.54047066963797
 70
   192
  0
VERTEX
  5
EDB
  8
0
 10
344.0000000081698
 20
-1.265966284817827
 30
-19.94367279968045
 70
   192
  0
VERTEX
  5
EDC
  8
0
 10
344.0000001043327
 20
-1.265966755630018
 30
-19.68645999761574
 70
   192
  0
VERTEX
  5
EDD
  8
0
 10
0.0
 20
0.0
 30
0.0
 70
   128
 71
     1
 72
     2
 73
     3
  0
VERTEX
  5
EDE
  8
0
 10
0.0
 20
0.0
 30
0.0
 70
   128
 71
     4
 72
     1
 73
     3
  0
VERTEX
  5
EDF
  8
0
 10
0.0
 20
0.0
 30
0.0
 70
   128
 71
     3
 72
     5
 73
     6
  0
VERTEX
  5
EE0
  8
0
 10
0.0
 20
0.0
 30
0.0
 70
   128
 71
     4
 72
     3
 73
     6
  0
VERTEX
  5
EE1
  8
0
 10
0.0
 20
0.0
 30
0.0
 70
   128
 71
     5
 72
     7
 73
     8
  0
VERTEX
  5
EE2
  8
0
 10
0.0
 20
0.0
 30
0.0
 70
   128
 71
     6
 72
     5
 73
     8
  0
SEQEND
  5
1414
  8
0
  0
POLYLINE
  5
EE3
  8
0
 66
     1
 10
0.0
 20
0.0
 30
0.0
 70
    64
 71
     8
 72
     6
  0
VERTEX
  5
EE4
  8
0
 10
359.0
 20
-1.26596628595905
 30
-21.0037869507181
 70
   192
  0
VERTEX
  5
EE5
  8
0
 10
359.0
 20
-1.26596628595903
 30
-21.2609601424214
 70
   192
  0
VERTEX
  5
EE6
  8
0
 10
355.2072614139288
 20
-7.785578238978415
 30
-21.40835669465917
 70
   192
  0
VERTEX
  5
EE7
  8
0
 10
355.082873892074
 20
-7.854909840696314
 30
-21.15369297679883
 70
   192
  0
VERTEX
  5
EE8
  8
0
 10
347.8423241027086
 20
-7.813558137682094
 30
-21.55175179082377
 70
   192
  0
VERTEX
  5
EE9
  8
0
 10
347.7485017089645
 20
-7.760398071725096
 30
-21.29648395589626
 70
   192
  0
VERTEX
  5
EEA
  8
0
 10
344.0000000426546
 20
-1.265966286961647
 30
-21.70008480415517
 70
   192
  0
VERTEX
  5
EEB
  8
0
 10
344.0000000000017
 20
-1.26596741340109
 30
-21.44288412029136
 70
   192
  0
VERTEX
  5
EEC
  8
0
 10
0.0
 20
0.0
 30
0.0
 70
   128
 71
     1
 72
     2
 73
     3
  0
VERTEX
  5
EED
  8
0
 10
0.0
 20
0.0
 30
0.0
 70
   128
 71
     4
 72
     1
 73
     3
  0
VERTEX
  5
EEE
  8
0
 10
0.0
 20
0.0
 30
0.0
 70
   128
 71
     3
 72
     5
 73
     6
  0
VERTEX
  5
EEF
  8
0
 10
0.0
 20
0.0
 30
0.0
 70
   128
 71
     4
 72
     3
 73
     6
  0
VERTEX
  5
EF0
  8
0
 10
0.0
 20
0.0
 30
0.0
 70
   128
 71
     5
 72
     7
 73
     8
  0
VERTEX
  5
EF1
  8
0
 10
0.0
 20
0.0
 30
0.0
 70
   128
 71
     6
 72
     5
 73
     8
  0
SEQEND
  5
1415
  8
0
  0
POLYLINE
  5
EF2
  8
0
 66
     1
 10
0.0
 20
0.0
 30
0.0
 70
    64
 71
     8
 72
     6
  0
VERTEX
  5
EF3
  8
0
 10
359.0
 20
-1.26596628595905
 30
-26.2729605157295
 70
   192
  0
VERTEX
  5
EF4
  8
0
 10
359.0
 20
-1.26596628595904
 30
-26.530144950215
 70
   192
  0
VERTEX
  5
EF5
  8
0
 10
355.1853332157638
 20
-7.797409820349557
 30
-26.67795541080057
 70
   192
  0
VERTEX
  5
EF6
  8
0
 10
355.2508257737089
 20
-7.757384921867953
 30
-26.41928836321339
 70
   192
  0
VERTEX
  5
EF7
  8
0
 10
347.9073772026107
 20
-7.847252384132452
 30
-26.8195441746505
 70
   192
  0
VERTEX
  5
EF8
  8
0
 10
347.7493027443954
 20
-7.761640172612833
 30
-26.56558615360775
 70
   192
  0
VERTEX
  5
EF9
  8
0
 10
344.0000000958799
 20
-1.265965832305798
 30
-26.96926744997631
 70
   192
  0
VERTEX
  5
EFA
  8
0
 10
343.9964116652726
 20
-1.265999653356059
 30
-26.71144126798607
 70
   192
  0
VERTEX
  5
EFB
  8
0
 10
0.0
 20
0.0
 30
0.0
 70
   128
 71
     1
 72
     2
 73
     3
  0
VERTEX
  5
EFC
  8
0
 10
0.0
 20
0.0
 30
0.0
 70
   128
 71
     4
 72
     1
 73
     3
  0
VERTEX
  5
EFD
  8
0
 10
0.0
 20
0.0
 30
0.0
 70
   128
 71
     3
 72
     5
 73
     6
  0
VERTEX
  5
EFE
  8
0
 10
0.0
 20
0.0
 30
0.0
 70
   128
 71
     4
 72
     3
 73
     6
  0
VERTEX
  5
EFF
  8
0
 10
0.0
 20
0.0
 30
0.0
 70
   128
 71
     5
 72
     7
 73
     8
  0
VERTEX
  5
F00
  8
0
 10
0.0
 20
0.0
 30
0.0
 70
   128
 71
     6
 72
     5
 73
     8
  0
SEQEND
  5
1416
  8
0
  0
POLYLINE
  5
F01
  8
0
 66
     1
 10
0.0
 20
0.0
 30
0.0
 70
    64
 71
     8
 72
     6
  0
VERTEX
  5
F02
  8
0
 10
359.0
 20
-1.26596628595907
 30
-20.125578154195
 70
   192
  0
VERTEX
  5
F03
  8
0
 10
359.0
 20
-1.26596628595904
 30
-20.3827678001912
 70
   192
  0
VERTEX
  5
F04
  8
0
 10
355.0712337910475
 20
-7.861066769834334
 30
-20.53301409450551
 70
   192
  0
VERTEX
  5
F05
  8
0
 10
355.4689613832564
 20
-7.629643800574772
 30
-20.26711039888093
 70
   192
  0
VERTEX
  5
F06
  8
0
 10
347.5951052278056
 20
-7.669340115048813
 30
-20.67885087208581
 70
   192
  0
VERTEX
  5
F07
  8
0
 10
347.5843341243539
 20
-7.662697937943221
 30
-20.42179407160879
 70
   192
  0
VERTEX
  5
F08
  8
0
 10
344.000000000003
 20
-1.265966285951737
 30
-20.82186420253338
 70
   192
  0
VERTEX
  5
F09
  8
0
 10
343.9999999977261
 20
-1.265966285031649
 30
-20.5646716300135
 70
   192
  0
VERTEX
  5
F0A
  8
0
 10
0.0
 20
0.0
 30
0.0
 70
   128
 71
     1
 72
     2
 73
     3
  0
VERTEX
  5
F0B
  8
0
 10
0.0
 20
0.0
 30
0.0
 70
   128
 71
     4
 72
     1
 73
     3
  0
VERTEX
  5
F0C
  8
0
 10
0.0
 20
0.0
 30
0.0
 70
   128
 71
     3
 72
     5
 73
     6
  0
VERTEX
  5
F0D
  8
0
 10
0.0
 20
0.0
 30
0.0
 70
   128
 71
     4
 72
     3
 73
     6
  0
VERTEX
  5
F0E
  8
0
 10
0.0
 20
0.0
 30
0.0
 70
   128
 71
     5
 72
     7
 73
     8
  0
VERTEX
  5
F0F
  8
0
 10
0.0
 20
0.0
 30
0.0
 70
   128
 71
     6
 72
     5
 73
     8
  0
SEQEND
  5
1417
  8
0
  0
POLYLINE
  5
F10
  8
0
 66
     1
 10
0.0
 20
0.0
 30
0.0
 70
    64
 71
     8
 72
     6
  0
VERTEX
  5
F11
  8
0
 10
359.0
 20
-1.26596628595905
 30
-23.638374921356
 70
   192
  0
VERTEX
  5
F12
  8
0
 10
359.0
 20
-1.26596628595905
 30
-23.8955756391152
 70
   192
  0
VERTEX
  5
F13
  8
0
 10
355.4687824549335
 20
-7.629747465333441
 30
-24.03728608105835
 70
   192
  0
VERTEX
  5
F14
  8
0
 10
355.2519147403581
 20
-7.759868450934687
 30
-23.78469774049631
 70
   192
  0
VERTEX
  5
F15
  8
0
 10
347.5875158568959
 20
-7.664650050050339
 30
-24.19188996635372
 70
   192
  0
VERTEX
  5
F16
  8
0
 10
347.722890832616
 20
-7.745394549278202
 30
-23.93156487686637
 70
   192
  0
VERTEX
  5
F17
  8
0
 10
344.0000000084124
 20
-1.26596628481709
 30
-24.33465423573555
 70
   192
  0
VERTEX
  5
F18
  8
0
 10
344.0000006568193
 20
-1.265966288382092
 30
-24.0774697373005
 70
   192
  0
VERTEX
  5
F19
  8
0
 10
0.0
 20
0.0
 30
0.0
 70
   128
 71
     1
 72
     2
 73
     3
  0
VERTEX
  5
F1A
  8
0
 10
0.0
 20
0.0
 30
0.0
 70
   128
 71
     4
 72
     1
 73
     3
  0
VERTEX
  5
F1B
  8
0
 10
0.0
 20
0.0
 30
0.0
 70
   128
 71
     3
 72
     5
 73
     6
  0
VERTEX
  5
F1C
  8
0
 10
0.0
 20
0.0
 30
0.0
 70
   128
 71
     4
 72
     3
 73
     6
  0
VERTEX
  5
F1D
  8
0
 10
0.0
 20
0.0
 30
0.0
 70
   128
 71
     5
 72
     7
 73
     8
  0
VERTEX
  5
F1E
  8
0
 10
0.0
 20
0.0
 30
0.0
 70
   128
 71
     6
 72
     5
 73
     8
  0
SEQEND
  5
1418
  8
0
  0
POLYLINE
  5
F1F
  8
0
 66
     1
 10
0.0
 20
0.0
 30
0.0
 70
    64
 71
     8
 72
     6
  0
VERTEX
  5
F20
  8
0
 10
359.0
 20
-1.26596628595905
 30
-24.5165597797175
 70
   192
  0
VERTEX
  5
F21
  8
0
 10
359.0
 20
-1.26596628595906
 30
-24.773749358871
 70
   192
  0
VERTEX
  5
F22
  8
0
 10
355.0723394049881
 20
-7.860468211724424
 30
-24.92397222127479
 70
   192
  0
VERTEX
  5
F23
  8
0
 10
355.467627481467
 20
-7.630478199159546
 30
-24.65812139286979
 70
   192
  0
VERTEX
  5
F24
  8
0
 10
347.5951037647848
 20
-7.669339231674939
 30
-25.06983246397871
 70
   192
  0
VERTEX
  5
F25
  8
0
 10
347.5856962455459
 20
-7.663531119553438
 30
-24.81274586524138
 70
   192
  0
VERTEX
  5
F26
  8
0
 10
344.0000000000028
 20
-1.265966285951801
 30
-25.21284576253199
 70
   192
  0
VERTEX
  5
F27
  8
0
 10
343.9999999978095
 20
-1.265966285030967
 30
-24.95565336567709
 70
   192
  0
VERTEX
  5
F28
  8
0
 10
0.0
 20
0.0
 30
0.0
 70
   128
 71
     1
 72
     2
 73
     3
  0
VERTEX
  5
F29
  8
0
 10
0.0
 20
0.0
 30
0.0
 70
   128
 71
     4
 72
     1
 73
     3
  0
VERTEX
  5
F2A
  8
0
 10
0.0
 20
0.0
 30
0.0
 70
   128
 71
     3
 72
     5
 73
     6
  0
VERTEX
  5
F2B
  8
0
 10
0.0
 20
0.0
 30
0.0
 70
   128
 71
     4
 72
     3
 73
     6
  0
VERTEX
  5
F2C
  8
0
 10
0.0
 20
0.0
 30
0.0
 70
   128
 71
     5
 72
     7
 73
     8
  0
VERTEX
  5
F2D
  8
0
 10
0.0
 20
0.0
 30
0.0
 70
   128
 71
     6
 72
     5
 73
     8
  0
SEQEND
  5
1419
  8
0
  0
POLYLINE
  5
F2E
  8
0
 66
     1
 10
0.0
 20
0.0
 30
0.0
 70
    64
 71
    16
 72
    14
  0
VERTEX
  5
F2F
  8
0
 10
0.0000000000000057
 20
15.234033714041
 30
-13.7188465118928
 70
   192
  0
VERTEX
  5
F30
  8
0
 10
0.0000000000003039
 20
15.72307539045187
 30
-13.84658609279008
 70
   192
  0
VERTEX
  5
F31
  8
0
 10
0.0000000000003033
 20
16.10629413314371
 30
-14.22980483548193
 70
   192
  0
VERTEX
  5
F32
  8
0
 10
0.0000000000000043
 20
16.234033714041
 30
-14.7188465118928
 70
   192
  0
VERTEX
  5
F33
  8
0
 10
0.0000000000000028
 20
16.234033714041
 30
-27.7188465118928
 70
   192
  0
VERTEX
  5
F34
  8
0
 10
-0.0000000000000941
 20
16.10629413314368
 30
-28.20788818830366
 70
   192
  0
VERTEX
  5
F35
  8
0
 10
-0.0000000000000936
 20
15.72307539045183
 30
-28.5911069309955
 70
   192
  0
VERTEX
  5
F36
  8
0
 10
0.0000000000000043
 20
15.234033714041
 30
-28.7188465118928
 70
   192
  0
VERTEX
  5
F37
  8
0
 10
0.0000000000000057
 20
-17.765966285959
 30
-28.7188465118928
 70
   192
  0
VERTEX
  5
F38
  8
0
 10
-0.0000000000003378
 20
-18.25500796236987
 30
-28.59110693099553
 70
   192
  0
VERTEX
  5
F39
  8
0
 10
-0.0000000000003384
 20
-18.63822670506171
 30
-28.20788818830367
 70
   192
  0
VERTEX
  5
F3A
  8
0
 10
0.0000000000000043
 20
-18.765966285959
 30
-27.7188465118928
 70
   192
  0
VERTEX
  5
F3B
  8
0
 10
-0.0000000000000014
 20
-18.765966285959
 30
-14.7188465118928
 70
   192
  0
VERTEX
  5
F3C
  8
0
 10
-0.0000000000000581
 20
-18.63822670506172
 30
-14.22980483548193
 70
   192
  0
VERTEX
  5
F3D
  8
0
 10
-0.0000000000000614
 20
-18.25500796236987
 30
-13.84658609279008
 70
   192
  0
VERTEX
  5
F3E
  8
0
 10
-0.0000000000000099
 20
-17.765966285959
 30
-13.7188465118928
 70
   192
  0
VERTEX
  5
F3F
  8
0
 10
0.0
 20
0.0
 30
0.0
 70
   128
 71
    15
 72
    16
 73
    -1
  0
VERTEX
  5
F40
  8
0
 10
0.0
 20
0.0
 30
0.0
 70
   128
 71
    14
 72
   -15
 73
    -1
  0
VERTEX
  5
F41
  8
0
 10
0.0
 20
0.0
 30
0.0
 70
   128
 71
    13
 72
   -14
 73
    -1
  0
VERTEX
  5
F42
  8
0
 10
0.0
 20
0.0
 30
0.0
 70
   128
 71
    12
 72
   -13
 73
    -1
  0
VERTEX
  5
F43
  8
0
 10
0.0
 20
0.0
 30
0.0
 70
   128
 71
    11
 72
   -12
 73
    -1
  0
VERTEX
  5
F44
  8
0
 10
0.0
 20
0.0
 30
0.0
 70
   128
 71
    10
 72
   -11
 73
    -1
  0
VERTEX
  5
F45
  8
0
 10
0.0
 20
0.0
 30
0.0
 70
   128
 71
     9
 72
   -10
 73
    -1
  0
VERTEX
  5
F46
  8
0
 10
0.0
 20
0.0
 30
0.0
 70
   128
 71
     8
 72
    -9
 73
    -1
  0
VERTEX
  5
F47
  8
0
 10
0.0
 20
0.0
 30
0.0
 70
   128
 71
     7
 72
    -8
 73
    -1
  0
VERTEX
  5
F48
  8
0
 10
0.0
 20
0.0
 30
0.0
 70
   128
 71
     6
 72
    -7
 73
    -1
  0
VERTEX
  5
F49
  8
0
 10
0.0
 20
0.0
 30
0.0
 70
   128
 71
     5
 72
    -6
 73
    -1
  0
VERTEX
  5
F4A
  8
0
 10
0.0
 20
0.0
 30
0.0
 70
   128
 71
     4
 72
    -5
 73
    -1
  0
VERTEX
  5
F4B
  8
0
 10
0.0
 20
0.0
 30
0.0
 70
   128
 71
     3
 72
    -4
 73
    -1
  0
VERTEX
  5
F4C
  8
0
 10
0.0
 20
0.0
 30
0.0
 70
   128
 71
     2
 72
    -3
 73
     1
  0
SEQEND
  5
141A
  8
0
  0
POLYLINE
  5
F4D
  8
0
 66
     1
 10
0.0
 20
0.0
 30
0.0
 70
    64
 71
     4
 72
     2
  0
VERTEX
  5
F4E
  8
0
 10
0.0000000000000043
 20
16.234033714041
 30
-14.7188465118928
 70
   192
  0
VERTEX
  5
F4F
  8
0
 10
384.0
 20
16.234033714041
 30
-14.7188465118928
 70
   192
  0
VERTEX
  5
F50
  8
0
 10
384.0
 20
16.234033714041
 30
-27.7188465118928
 70
   192
  0
VERTEX
  5
F51
  8
0
 10
0.0000000000000028
 20
16.234033714041
 30
-27.7188465118928
 70
   192
  0
VERTEX
  5
F52
  8
0
 10
0.0
 20
0.0
 30
0.0
 70
   128
 71
     3
 72
     4
 73
    -1
  0
VERTEX
  5
F53
  8
0
 10
0.0
 20
0.0
 30
0.0
 70
   128
 71
     2
 72
    -3
 73
     1
  0
SEQEND
  5
141B
  8
0
  0
POLYLINE
  5
F54
  8
0
 66
     1
 10
0.0
 20
0.0
 30
0.0
 70
    64
 71
     4
 72
     2
  0
VERTEX
  5
F55
  8
0
 10
385.0
 20
15.234033714041
 30
-14.7188465118928
 70
   192
  0
VERTEX
  5
F56
  8
0
 10
385.0
 20
-17.765966285959
 30
-14.7188465118928
 70
   192
  0
VERTEX
  5
F57
  8
0
 10
385.0
 20
-17.765966285959
 30
-27.7188465118928
 70
   192
  0
VERTEX
  5
F58
  8
0
 10
385.0
 20
15.234033714041
 30
-27.7188465118928
 70
   192
  0
VERTEX
  5
F59
  8
0
 10
0.0
 20
0.0
 30
0.0
 70
   128
 71
     3
 72
     4
 73
    -1
  0
VERTEX
  5
F5A
  8
0
 10
0.0
 20
0.0
 30
0.0
 70
   128
 71
     2
 72
    -3
 73
     1
  0
SEQEND
  5
141C
  8
0
  0
POLYLINE
  5
F5B
  8
0
 66
     1
 10
0.0
 20
0.0
 30
0.0
 70
    64
 71
     4
 72
     2
  0
VERTEX
  5
F5C
  8
0
 10
-0.0000000000000014
 20
-18.765966285959
 30
-14.7188465118928
 70
   192
  0
VERTEX
  5
F5D
  8
0
 10
0.0000000000000043
 20
-18.765966285959
 30
-27.7188465118928
 70
   192
  0
VERTEX
  5
F5E
  8
0
 10
384.0
 20
-18.765966285959
 30
-27.7188465118928
 70
   192
  0
VERTEX
  5
F5F
  8
0
 10
384.0
 20
-18.765966285959
 30
-14.7188465118928
 70
   192
  0
VERTEX
  5
F60
  8
0
 10
0.0
 20
0.0
 30
0.0
 70
   128
 71
     3
 72
     4
 73
    -1
  0
VERTEX
  5
F61
  8
0
 10
0.0
 20
0.0
 30
0.0
 70
   128
 71
     2
 72
    -3
 73
     1
  0
SEQEND
  5
141D
  8
0
  0
POLYLINE
  5
F62
  8
0
 66
     1
 10
0.0
 20
0.0
 30
0.0
 70
    64
 71
     4
 72
     2
  0
VERTEX
  5
F63
  8
0
 10
0.0000000000000057
 20
15.234033714041
 30
-13.7188465118928
 70
   192
  0
VERTEX
  5
F64
  8
0
 10
-0.0000000000000099
 20
-17.765966285959
 30
-13.7188465118928
 70
   192
  0
VERTEX
  5
F65
  8
0
 10
384.0
 20
-17.7659662859591
 30
-13.7188465118928
 70
   192
  0
VERTEX
  5
F66
  8
0
 10
384.0
 20
15.234033714041
 30
-13.7188465118928
 70
   192
  0
VERTEX
  5
F67
  8
0
 10
0.0
 20
0.0
 30
0.0
 70
   128
 71
     3
 72
     4
 73
    -1
  0
VERTEX
  5
F68
  8
0
 10
0.0
 20
0.0
 30
0.0
 70
   128
 71
     2
 72
    -3
 73
     1
  0
SEQEND
  5
141E
  8
0
  0
POLYLINE
  5
F69
  8
0
 66
     1
 10
0.0
 20
0.0
 30
0.0
 70
    64
 71
     8
 72
     6
  0
VERTEX
  5
F6A
  8
0
 10
385.0000000000001
 20
-17.765966285959
 30
-14.7188465118928
 70
   192
  0
VERTEX
  5
F6B
  8
0
 10
384.8722604191027
 20
-18.25500796236989
 30
-14.71884651189189
 70
   192
  0
VERTEX
  5
F6C
  8
0
 10
384.4890416764109
 20
-18.63822670506175
 30
-14.71884651189189
 70
   192
  0
VERTEX
  5
F6D
  8
0
 10
384.0
 20
-18.765966285959
 30
-14.7188465118928
 70
   192
  0
VERTEX
  5
F6E
  8
0
 10
384.0
 20
-18.765966285959
 30
-27.7188465118928
 70
   192
  0
VERTEX
  5
F6F
  8
0
 10
384.4890416764108
 20
-18.63822670506175
 30
-27.71884651189185
 70
   192
  0
VERTEX
  5
F70
  8
0
 10
384.8722604191027
 20
-18.25500796236989
 30
-27.71884651189186
 70
   192
  0
VERTEX
  5
F71
  8
0
 10
385.0000000000001
 20
-17.765966285959
 30
-27.7188465118928
 70
   192
  0
VERTEX
  5
F72
  8
0
 10
0.0
 20
0.0
 30
0.0
 70
   128
 71
     4
 72
     5
 73
    -6
  0
VERTEX
  5
F73
  8
0
 10
0.0
 20
0.0
 30
0.0
 70
   128
 71
     3
 72
    -4
 73
     6
  0
VERTEX
  5
F74
  8
0
 10
0.0
 20
0.0
 30
0.0
 70
   128
 71
     7
 72
     2
 73
    -3
  0
VERTEX
  5
F75
  8
0
 10
0.0
 20
0.0
 30
0.0
 70
   128
 71
     6
 72
    -7
 73
     3
  0
VERTEX
  5
F76
  8
0
 10
0.0
 20
0.0
 30
0.0
 70
   128
 71
     8
 72
     1
 73
    -2
  0
VERTEX
  5
F77
  8
0
 10
0.0
 20
0.0
 30
0.0
 70
   128
 71
     7
 72
    -8
 73
     2
  0
SEQEND
  5
141F
  8
0
  0
POLYLINE
  5
F78
  8
0
 66
     1
 10
0.0
 20
0.0
 30
0.0
 70
    64
 71
     8
 72
     6
  0
VERTEX
  5
F79
  8
0
 10
385.0
 20
15.234033714041
 30
-14.7188465118928
 70
   192
  0
VERTEX
  5
F7A
  8
0
 10
384.8722604191028
 20
15.23403371404096
 30
-14.22980483548196
 70
   192
  0
VERTEX
  5
F7B
  8
0
 10
384.4890416764109
 20
15.23403371404097
 30
-13.84658609279012
 70
   192
  0
VERTEX
  5
F7C
  8
0
 10
384.0
 20
15.234033714041
 30
-13.7188465118928
 70
   192
  0
VERTEX
  5
F7D
  8
0
 10
384.0
 20
-17.7659662859591
 30
-13.7188465118928
 70
   192
  0
VERTEX
  5
F7E
  8
0
 10
384.4890416764109
 20
-17.7659662859584
 30
-13.84658609279005
 70
   192
  0
VERTEX
  5
F7F
  8
0
 10
384.8722604191027
 20
-17.76596628595836
 30
-14.2298048354819
 70
   192
  0
VERTEX
  5
F80
  8
0
 10
385.0
 20
-17.765966285959
 30
-14.7188465118928
 70
   192
  0
VERTEX
  5
F81
  8
0
 10
0.0
 20
0.0
 30
0.0
 70
   128
 71
     4
 72
     5
 73
    -6
  0
VERTEX
  5
F82
  8
0
 10
0.0
 20
0.0
 30
0.0
 70
   128
 71
     3
 72
    -4
 73
     6
  0
VERTEX
  5
F83
  8
0
 10
0.0
 20
0.0
 30
0.0
 70
   128
 71
     7
 72
     2
 73
    -3
  0
VERTEX
  5
F84
  8
0
 10
0.0
 20
0.0
 30
0.0
 70
   128
 71
     6
 72
    -7
 73
     3
  0
VERTEX
  5
F85
  8
0
 10
0.0
 20
0.0
 30
0.0
 70
   128
 71
     8
 72
     1
 73
    -2
  0
VERTEX
  5
F86
  8
0
 10
0.0
 20
0.0
 30
0.0
 70
   128
 71
     7
 72
    -8
 73
     2
  0
SEQEND
  5
1420
  8
0
  0
POLYLINE
  5
F87
  8
0
 66
     1
 10
0.0
 20
0.0
 30
0.0
 70
    64
 71
     8
 72
     6
  0
VERTEX
  5
F88
  8
0
 10
385.0
 20
15.234033714041
 30
-27.7188465118928
 70
   192
  0
VERTEX
  5
F89
  8
0
 10
384.8722604191027
 20
15.72307539045186
 30
-27.71884651189281
 70
   192
  0
VERTEX
  5
F8A
  8
0
 10
384.4890416764108
 20
16.10629413314371
 30
-27.7188465118928
 70
   192
  0
VERTEX
  5
F8B
  8
0
 10
384.0
 20
16.234033714041
 30
-27.7188465118928
 70
   192
  0
VERTEX
  5
F8C
  8
0
 10
384.0
 20
16.234033714041
 30
-14.7188465118928
 70
   192
  0
VERTEX
  5
F8D
  8
0
 10
384.4890416764109
 20
16.10629413314371
 30
-14.7188465118928
 70
   192
  0
VERTEX
  5
F8E
  8
0
 10
384.8722604191027
 20
15.72307539045186
 30
-14.7188465118928
 70
   192
  0
VERTEX
  5
F8F
  8
0
 10
385.0
 20
15.234033714041
 30
-14.7188465118928
 70
   192
  0
VERTEX
  5
F90
  8
0
 10
0.0
 20
0.0
 30
0.0
 70
   128
 71
     4
 72
     5
 73
    -6
  0
VERTEX
  5
F91
  8
0
 10
0.0
 20
0.0
 30
0.0
 70
   128
 71
     3
 72
    -4
 73
     6
  0
VERTEX
  5
F92
  8
0
 10
0.0
 20
0.0
 30
0.0
 70
   128
 71
     7
 72
     2
 73
    -3
  0
VERTEX
  5
F93
  8
0
 10
0.0
 20
0.0
 30
0.0
 70
   128
 71
     6
 72
    -7
 73
     3
  0
VERTEX
  5
F94
  8
0
 10
0.0
 20
0.0
 30
0.0
 70
   128
 71
     8
 72
     1
 73
    -2
  0
VERTEX
  5
F95
  8
0
 10
0.0
 20
0.0
 30
0.0
 70
   128
 71
     7
 72
    -8
 73
     2
  0
SEQEND
  5
1421
  8
0
  0
POLYLINE
  5
F96
  8
0
 66
     1
 10
0.0
 20
0.0
 30
0.0
 70
    64
 71
     8
 72
     6
  0
VERTEX
  5
F97
  8
0
 10
385.0
 20
-17.765966285959
 30
-27.7188465118928
 70
   192
  0
VERTEX
  5
F98
  8
0
 10
384.8722604191028
 20
-17.76596628595772
 30
-28.20788818830365
 70
   192
  0
VERTEX
  5
F99
  8
0
 10
384.489041676411
 20
-17.76596628595773
 30
-28.59110693099551
 70
   192
  0
VERTEX
  5
F9A
  8
0
 10
384.0
 20
-17.765966285959
 30
-28.7188465118928
 70
   192
  0
VERTEX
  5
F9B
  8
0
 10
384.0
 20
15.2340337140409
 30
-28.7188465118928
 70
   192
  0
VERTEX
  5
F9C
  8
0
 10
384.4890416764109
 20
15.23403371404221
 30
-28.59110693099552
 70
   192
  0
VERTEX
  5
F9D
  8
0
 10
384.8722604191027
 20
15.23403371404225
 30
-28.20788818830367
 70
   192
  0
VERTEX
  5
F9E
  8
0
 10
385.0
 20
15.234033714041
 30
-27.7188465118928
 70
   192
  0
VERTEX
  5
F9F
  8
0
 10
0.0
 20
0.0
 30
0.0
 70
   128
 71
     4
 72
     5
 73
    -6
  0
VERTEX
  5
FA0
  8
0
 10
0.0
 20
0.0
 30
0.0
 70
   128
 71
     3
 72
    -4
 73
     6
  0
VERTEX
  5
FA1
  8
0
 10
0.0
 20
0.0
 30
0.0
 70
   128
 71
     7
 72
     2
 73
    -3
  0
VERTEX
  5
FA2
  8
0
 10
0.0
 20
0.0
 30
0.0
 70
   128
 71
     6
 72
    -7
 73
     3
  0
VERTEX
  5
FA3
  8
0
 10
0.0
 20
0.0
 30
0.0
 70
   128
 71
     8
 72
     1
 73
    -2
  0
VERTEX
  5
FA4
  8
0
 10
0.0
 20
0.0
 30
0.0
 70
   128
 71
     7
 72
    -8
 73
     2
  0
SEQEND
  5
1422
  8
0
  0
POLYLINE
  5
FA5
  8
0
 66
     1
 10
0.0
 20
0.0
 30
0.0
 70
    64
 71
     8
 72
     6
  0
VERTEX
  5
FA6
  8
0
 10
0.0000000000000057
 20
-17.765966285959
 30
-28.7188465118928
 70
   192
  0
VERTEX
  5
FA7
  8
0
 10
384.0
 20
-17.765966285959
 30
-28.7188465118928
 70
   192
  0
VERTEX
  5
FA8
  8
0
 10
383.9999999999998
 20
-18.2550079623699
 30
-28.59110693099551
 70
   192
  0
VERTEX
  5
FA9
  8
0
 10
383.9999999999997
 20
-18.63822670506175
 30
-28.20788818830365
 70
   192
  0
VERTEX
  5
FAA
  8
0
 10
384.0
 20
-18.765966285959
 30
-27.7188465118928
 70
   192
  0
VERTEX
  5
FAB
  8
0
 10
0.0000000000000043
 20
-18.765966285959
 30
-27.7188465118928
 70
   192
  0
VERTEX
  5
FAC
  8
0
 10
-0.0000000000003384
 20
-18.63822670506171
 30
-28.20788818830367
 70
   192
  0
VERTEX
  5
FAD
  8
0
 10
-0.0000000000003378
 20
-18.25500796236987
 30
-28.59110693099553
 70
   192
  0
VERTEX
  5
FAE
  8
0
 10
0.0
 20
0.0
 30
0.0
 70
   128
 71
     5
 72
     6
 73
    -7
  0
VERTEX
  5
FAF
  8
0
 10
0.0
 20
0.0
 30
0.0
 70
   128
 71
     4
 72
    -5
 73
     7
  0
VERTEX
  5
FB0
  8
0
 10
0.0
 20
0.0
 30
0.0
 70
   128
 71
     8
 72
     3
 73
    -4
  0
VERTEX
  5
FB1
  8
0
 10
0.0
 20
0.0
 30
0.0
 70
   128
 71
     7
 72
    -8
 73
     4
  0
VERTEX
  5
FB2
  8
0
 10
0.0
 20
0.0
 30
0.0
 70
   128
 71
     1
 72
     2
 73
    -3
  0
VERTEX
  5
FB3
  8
0
 10
0.0
 20
0.0
 30
0.0
 70
   128
 71
     8
 72
    -1
 73
     3
  0
SEQEND
  5
1423
  8
0
  0
POLYLINE
  5
FB4
  8
0
 66
     1
 10
0.0
 20
0.0
 30
0.0
 70
    64
 71
     8
 72
     6
  0
VERTEX
  5
FB5
  8
0
 10
0.0000000000000028
 20
16.234033714041
 30
-27.7188465118928
 70
   192
  0
VERTEX
  5
FB6
  8
0
 10
384.0
 20
16.234033714041
 30
-27.7188465118928
 70
   192
  0
VERTEX
  5
FB7
  8
0
 10
384.0000000000002
 20
16.1062941331437
 30
-28.20788818830368
 70
   192
  0
VERTEX
  5
FB8
  8
0
 10
384.0000000000002
 20
15.72307539045181
 30
-28.59110693099552
 70
   192
  0
VERTEX
  5
FB9
  8
0
 10
384.0
 20
15.2340337140409
 30
-28.7188465118928
 70
   192
  0
VERTEX
  5
FBA
  8
0
 10
0.0000000000000043
 20
15.234033714041
 30
-28.7188465118928
 70
   192
  0
VERTEX
  5
FBB
  8
0
 10
-0.0000000000000936
 20
15.72307539045183
 30
-28.5911069309955
 70
   192
  0
VERTEX
  5
FBC
  8
0
 10
-0.0000000000000941
 20
16.10629413314368
 30
-28.20788818830366
 70
   192
  0
VERTEX
  5
FBD
  8
0
 10
0.0
 20
0.0
 30
0.0
 70
   128
 71
     5
 72
     6
 73
    -7
  0
VERTEX
  5
FBE
  8
0
 10
0.0
 20
0.0
 30
0.0
 70
   128
 71
     4
 72
    -5
 73
     7
  0
VERTEX
  5
FBF
  8
0
 10
0.0
 20
0.0
 30
0.0
 70
   128
 71
     8
 72
     3
 73
    -4
  0
VERTEX
  5
FC0
  8
0
 10
0.0
 20
0.0
 30
0.0
 70
   128
 71
     7
 72
    -8
 73
     4
  0
VERTEX
  5
FC1
  8
0
 10
0.0
 20
0.0
 30
0.0
 70
   128
 71
     1
 72
     2
 73
    -3
  0
VERTEX
  5
FC2
  8
0
 10
0.0
 20
0.0
 30
0.0
 70
   128
 71
     8
 72
    -1
 73
     3
  0
SEQEND
  5
1424
  8
0
  0
POLYLINE
  5
FC3
  8
0
 66
     1
 10
0.0
 20
0.0
 30
0.0
 70
    64
 71
     8
 72
     6
  0
VERTEX
  5
FC4
  8
0
 10
0.0000000000000057
 20
15.234033714041
 30
-13.7188465118928
 70
   192
  0
VERTEX
  5
FC5
  8
0
 10
384.0
 20
15.234033714041
 30
-13.7188465118928
 70
   192
  0
VERTEX
  5
FC6
  8
0
 10
384.0000000000005
 20
15.72307539045184
 30
-13.84658609279008
 70
   192
  0
VERTEX
  5
FC7
  8
0
 10
384.0000000000005
 20
16.10629413314368
 30
-14.22980483548192
 70
   192
  0
VERTEX
  5
FC8
  8
0
 10
384.0
 20
16.234033714041
 30
-14.7188465118928
 70
   192
  0
VERTEX
  5
FC9
  8
0
 10
0.0000000000000043
 20
16.234033714041
 30
-14.7188465118928
 70
   192
  0
VERTEX
  5
FCA
  8
0
 10
0.0000000000003033
 20
16.10629413314371
 30
-14.22980483548193
 70
   192
  0
VERTEX
  5
FCB
  8
0
 10
0.0000000000003039
 20
15.72307539045187
 30
-13.84658609279008
 70
   192
  0
VERTEX
  5
FCC
  8
0
 10
0.0
 20
0.0
 30
0.0
 70
   128
 71
     5
 72
     6
 73
    -7
  0
VERTEX
  5
FCD
  8
0
 10
0.0
 20
0.0
 30
0.0
 70
   128
 71
     4
 72
    -5
 73
     7
  0
VERTEX
  5
FCE
  8
0
 10
0.0
 20
0.0
 30
0.0
 70
   128
 71
     8
 72
     3
 73
    -4
  0
VERTEX
  5
FCF
  8
0
 10
0.0
 20
0.0
 30
0.0
 70
   128
 71
     7
 72
    -8
 73
     4
  0
VERTEX
  5
FD0
  8
0
 10
0.0
 20
0.0
 30
0.0
 70
   128
 71
     1
 72
     2
 73
    -3
  0
VERTEX
  5
FD1
  8
0
 10
0.0
 20
0.0
 30
0.0
 70
   128
 71
     8
 72
    -1
 73
     3
  0
SEQEND
  5
1425
  8
0
  0
POLYLINE
  5
FD2
  8
0
 66
     1
 10
0.0
 20
0.0
 30
0.0
 70
    64
 71
     8
 72
     6
  0
VERTEX
  5
FD3
  8
0
 10
-0.0000000000000014
 20
-18.765966285959
 30
-14.7188465118928
 70
   192
  0
VERTEX
  5
FD4
  8
0
 10
384.0
 20
-18.765966285959
 30
-14.7188465118928
 70
   192
  0
VERTEX
  5
FD5
  8
0
 10
383.9999999999999
 20
-18.63822670506176
 30
-14.22980483548193
 70
   192
  0
VERTEX
  5
FD6
  8
0
 10
384.0000000000001
 20
-18.25500796236996
 30
-13.84658609279008
 70
   192
  0
VERTEX
  5
FD7
  8
0
 10
384.0
 20
-17.7659662859591
 30
-13.7188465118928
 70
   192
  0
VERTEX
  5
FD8
  8
0
 10
-0.0000000000000099
 20
-17.765966285959
 30
-13.7188465118928
 70
   192
  0
VERTEX
  5
FD9
  8
0
 10
-0.0000000000000614
 20
-18.25500796236987
 30
-13.84658609279008
 70
   192
  0
VERTEX
  5
FDA
  8
0
 10
-0.0000000000000581
 20
-18.63822670506172
 30
-14.22980483548193
 70
   192
  0
VERTEX
  5
FDB
  8
0
 10
0.0
 20
0.0
 30
0.0
 70
   128
 71
     5
 72
     6
 73
    -7
  0
VERTEX
  5
FDC
  8
0
 10
0.0
 20
0.0
 30
0.0
 70
   128
 71
     4
 72
    -5
 73
     7
  0
VERTEX
  5
FDD
  8
0
 10
0.0
 20
0.0
 30
0.0
 70
   128
 71
     8
 72
     3
 73
    -4
  0
VERTEX
  5
FDE
  8
0
 10
0.0
 20
0.0
 30
0.0
 70
   128
 71
     7
 72
    -8
 73
     4
  0
VERTEX
  5
FDF
  8
0
 10
0.0
 20
0.0
 30
0.0
 70
   128
 71
     1
 72
     2
 73
    -3
  0
VERTEX
  5
FE0
  8
0
 10
0.0
 20
0.0
 30
0.0
 70
   128
 71
     8
 72
    -1
 73
     3
  0
SEQEND
  5
1426
  8
0
  0
POLYLINE
  5
FE1
  8
0
 66
     1
 10
0.0
 20
0.0
 30
0.0
 70
    64
 71
     9
 72
     7
  0
VERTEX
  5
FE2
  8
0
 10
385.0000000000001
 20
-17.765966285959
 30
-27.7188465118928
 70
   192
  0
VERTEX
  5
FE3
  8
0
 10
384.8722604191027
 20
-18.25500796236989
 30
-27.71884651189186
 70
   192
  0
VERTEX
  5
FE4
  8
0
 10
384.4890416764108
 20
-18.63822670506175
 30
-27.71884651189185
 70
   192
  0
VERTEX
  5
FE5
  8
0
 10
384.0
 20
-18.765966285959
 30
-27.7188465118928
 70
   192
  0
VERTEX
  5
FE6
  8
0
 10
383.9999999999997
 20
-18.63822670506175
 30
-28.20788818830365
 70
   192
  0
VERTEX
  5
FE7
  8
0
 10
383.9999999999998
 20
-18.2550079623699
 30
-28.59110693099551
 70
   192
  0
VERTEX
  5
FE8
  8
0
 10
384.0
 20
-17.765966285959
 30
-28.7188465118928
 70
   192
  0
VERTEX
  5
FE9
  8
0
 10
384.489041676411
 20
-17.76596628595773
 30
-28.59110693099551
 70
   192
  0
VERTEX
  5
FEA
  8
0
 10
384.8722604191028
 20
-17.76596628595772
 30
-28.20788818830365
 70
   192
  0
VERTEX
  5
FEB
  8
0
 10
0.0
 20
0.0
 30
0.0
 70
   128
 71
     3
 72
     4
 73
     5
  0
VERTEX
  5
FEC
  8
0
 10
0.0
 20
0.0
 30
0.0
 70
   128
 71
     2
 72
     3
 73
    -5
  0
VERTEX
  5
FED
  8
0
 10
0.0
 20
0.0
 30
0.0
 70
   128
 71
     9
 72
     1
 73
     2
  0
VERTEX
  5
FEE
  8
0
 10
0.0
 20
0.0
 30
0.0
 70
   128
 71
     6
 72
     9
 73
    -2
  0
VERTEX
  5
FEF
  8
0
 10
0.0
 20
0.0
 30
0.0
 70
   128
 71
     5
 72
    -6
 73
    -2
  0
VERTEX
  5
FF0
  8
0
 10
0.0
 20
0.0
 30
0.0
 70
   128
 71
     7
 72
     8
 73
     9
  0
VERTEX
  5
FF1
  8
0
 10
0.0
 20
0.0
 30
0.0
 70
   128
 71
     6
 72
     7
 73
     9
  0
SEQEND
  5
1427
  8
0
  0
POLYLINE
  5
FF2
  8
0
 66
     1
 10
0.0
 20
0.0
 30
0.0
 70
    64
 71
     9
 72
     7
  0
VERTEX
  5
FF3
  8
0
 10
385.0
 20
-17.765966285959
 30
-14.7188465118928
 70
   192
  0
VERTEX
  5
FF4
  8
0
 10
384.8722604191027
 20
-17.76596628595836
 30
-14.2298048354819
 70
   192
  0
VERTEX
  5
FF5
  8
0
 10
384.4890416764109
 20
-17.7659662859584
 30
-13.84658609279005
 70
   192
  0
VERTEX
  5
FF6
  8
0
 10
384.0
 20
-17.7659662859591
 30
-13.7188465118928
 70
   192
  0
VERTEX
  5
FF7
  8
0
 10
384.0000000000001
 20
-18.25500796236996
 30
-13.84658609279008
 70
   192
  0
VERTEX
  5
FF8
  8
0
 10
383.9999999999999
 20
-18.63822670506176
 30
-14.22980483548193
 70
   192
  0
VERTEX
  5
FF9
  8
0
 10
384.0
 20
-18.765966285959
 30
-14.7188465118928
 70
   192
  0
VERTEX
  5
FFA
  8
0
 10
384.4890416764109
 20
-18.63822670506175
 30
-14.71884651189189
 70
   192
  0
VERTEX
  5
FFB
  8
0
 10
384.8722604191027
 20
-18.25500796236989
 30
-14.71884651189189
 70
   192
  0
VERTEX
  5
FFC
  8
0
 10
0.0
 20
0.0
 30
0.0
 70
   128
 71
     3
 72
     4
 73
     5
  0
VERTEX
  5
FFD
  8
0
 10
0.0
 20
0.0
 30
0.0
 70
   128
 71
     2
 72
     3
 73
    -5
  0
VERTEX
  5
FFE
  8
0
 10
0.0
 20
0.0
 30
0.0
 70
   128
 71
     9
 72
     1
 73
     2
  0
VERTEX
  5
FFF
  8
0
 10
0.0
 20
0.0
 30
0.0
 70
   128
 71
     6
 72
     9
 73
    -2
  0
VERTEX
  5
1000
  8
0
 10
0.0
 20
0.0
 30
0.0
 70
   128
 71
     5
 72
    -6
 73
    -2
  0
VERTEX
  5
1001
  8
0
 10
0.0
 20
0.0
 30
0.0
 70
   128
 71
     7
 72
     8
 73
     9
  0
VERTEX
  5
1002
  8
0
 10
0.0
 20
0.0
 30
0.0
 70
   128
 71
     6
 72
     7
 73
     9
  0
SEQEND
  5
1428
  8
0
  0
POLYLINE
  5
1003
  8
0
 66
     1
 10
0.0
 20
0.0
 30
0.0
 70
    64
 71
     9
 72
     7
  0
VERTEX
  5
1004
  8
0
 10
385.0
 20
15.234033714041
 30
-14.7188465118928
 70
   192
  0
VERTEX
  5
1005
  8
0
 10
384.8722604191027
 20
15.72307539045186
 30
-14.7188465118928
 70
   192
  0
VERTEX
  5
1006
  8
0
 10
384.4890416764109
 20
16.10629413314371
 30
-14.7188465118928
 70
   192
  0
VERTEX
  5
1007
  8
0
 10
384.0
 20
16.234033714041
 30
-14.7188465118928
 70
   192
  0
VERTEX
  5
1008
  8
0
 10
384.0000000000005
 20
16.10629413314368
 30
-14.22980483548192
 70
   192
  0
VERTEX
  5
1009
  8
0
 10
384.0000000000005
 20
15.72307539045184
 30
-13.84658609279008
 70
   192
  0
VERTEX
  5
100A
  8
0
 10
384.0
 20
15.234033714041
 30
-13.7188465118928
 70
   192
  0
VERTEX
  5
100B
  8
0
 10
384.4890416764109
 20
15.23403371404097
 30
-13.84658609279012
 70
   192
  0
VERTEX
  5
100C
  8
0
 10
384.8722604191028
 20
15.23403371404096
 30
-14.22980483548196
 70
   192
  0
VERTEX
  5
100D
  8
0
 10
0.0
 20
0.0
 30
0.0
 70
   128
 71
     6
 72
     7
 73
     8
  0
VERTEX
  5
100E
  8
0
 10
0.0
 20
0.0
 30
0.0
 70
   128
 71
     5
 72
     6
 73
    -8
  0
VERTEX
  5
100F
  8
0
 10
0.0
 20
0.0
 30
0.0
 70
   128
 71
     3
 72
     4
 73
     5
  0
VERTEX
  5
1010
  8
0
 10
0.0
 20
0.0
 30
0.0
 70
   128
 71
     9
 72
     3
 73
    -5
  0
VERTEX
  5
1011
  8
0
 10
0.0
 20
0.0
 30
0.0
 70
   128
 71
     8
 72
    -9
 73
    -5
  0
VERTEX
  5
1012
  8
0
 10
0.0
 20
0.0
 30
0.0
 70
   128
 71
     1
 72
     2
 73
     3
  0
VERTEX
  5
1013
  8
0
 10
0.0
 20
0.0
 30
0.0
 70
   128
 71
     9
 72
     1
 73
     3
  0
SEQEND
  5
1429
  8
0
  0
POLYLINE
  5
1014
  8
0
 66
     1
 10
0.0
 20
0.0
 30
0.0
 70
    64
 71
     9
 72
     7
  0
VERTEX
  5
1015
  8
0
 10
385.0
 20
15.234033714041
 30
-27.7188465118928
 70
   192
  0
VERTEX
  5
1016
  8
0
 10
384.8722604191027
 20
15.23403371404225
 30
-28.20788818830367
 70
   192
  0
VERTEX
  5
1017
  8
0
 10
384.4890416764109
 20
15.23403371404221
 30
-28.59110693099552
 70
   192
  0
VERTEX
  5
1018
  8
0
 10
384.0
 20
15.2340337140409
 30
-28.7188465118928
 70
   192
  0
VERTEX
  5
1019
  8
0
 10
384.0000000000002
 20
15.72307539045181
 30
-28.59110693099552
 70
   192
  0
VERTEX
  5
101A
  8
0
 10
384.0000000000002
 20
16.1062941331437
 30
-28.20788818830368
 70
   192
  0
VERTEX
  5
101B
  8
0
 10
384.0
 20
16.234033714041
 30
-27.7188465118928
 70
   192
  0
VERTEX
  5
101C
  8
0
 10
384.4890416764108
 20
16.10629413314371
 30
-27.7188465118928
 70
   192
  0
VERTEX
  5
101D
  8
0
 10
384.8722604191027
 20
15.72307539045186
 30
-27.71884651189281
 70
   192
  0
VERTEX
  5
101E
  8
0
 10
0.0
 20
0.0
 30
0.0
 70
   128
 71
     3
 72
     4
 73
     5
  0
VERTEX
  5
101F
  8
0
 10
0.0
 20
0.0
 30
0.0
 70
   128
 71
     2
 72
     3
 73
    -5
  0
VERTEX
  5
1020
  8
0
 10
0.0
 20
0.0
 30
0.0
 70
   128
 71
     9
 72
     1
 73
     2
  0
VERTEX
  5
1021
  8
0
 10
0.0
 20
0.0
 30
0.0
 70
   128
 71
     6
 72
     9
 73
    -2
  0
VERTEX
  5
1022
  8
0
 10
0.0
 20
0.0
 30
0.0
 70
   128
 71
     5
 72
    -6
 73
    -2
  0
VERTEX
  5
1023
  8
0
 10
0.0
 20
0.0
 30
0.0
 70
   128
 71
     7
 72
     8
 73
     9
  0
VERTEX
  5
1024
  8
0
 10
0.0
 20
0.0
 30
0.0
 70
   128
 71
     6
 72
     7
 73
     9
  0
SEQEND
  5
142A
  8
0
  0
POLYLINE
  5
1025
  8
0
 66
     1
 10
0.0
 20
0.0
 30
0.0
 70
    64
 71
    10
 72
    10
  0
VERTEX
  5
1026
  8
0
 10
0.0000000000000043
 20
15.234033714041
 30
-28.7188465118928
 70
   192
  0
VERTEX
  5
1027
  8
0
 10
384.0
 20
15.2340337140409
 30
-28.7188465118928
 70
   192
  0
VERTEX
  5
1028
  8
0
 10
384.0
 20
-17.765966285959
 30
-28.7188465118928
 70
   192
  0
VERTEX
  5
1029
  8
0
 10
0.0000000000000057
 20
-17.765966285959
 30
-28.7188465118928
 70
   192
  0
VERTEX
  5
102A
  8
0
 10
343.0
 20
-1.265966285959
 30
-28.7188465118928
 70
   192
  0
VERTEX
  5
102B
  8
0
 10
347.3431457505075
 20
-8.68017984833216
 30
-28.7188465118928
 70
   192
  0
VERTEX
  5
102C
  8
0
 10
355.6568542494925
 20
-8.680179848332193
 30
-28.71884651189281
 70
   192
  0
VERTEX
  5
102D
  8
0
 10
360.0
 20
-1.26596628595906
 30
-28.7188465118928
 70
   192
  0
VERTEX
  5
102E
  8
0
 10
355.6568542494925
 20
6.148247276414105
 30
-28.7188465118928
 70
   192
  0
VERTEX
  5
102F
  8
0
 10
347.3431457505076
 20
6.148247276414133
 30
-28.7188465118928
 70
   192
  0
VERTEX
  5
1030
  8
0
 10
0.0
 20
0.0
 30
0.0
 70
   128
 71
    -4
 72
     5
 73
    -6
  0
VERTEX
  5
1031
  8
0
 10
0.0
 20
0.0
 30
0.0
 70
   128
 71
    -6
 72
     3
 73
    -4
  0
VERTEX
  5
1032
  8
0
 10
0.0
 20
0.0
 30
0.0
 70
   128
 71
     6
 72
    -7
 73
    -3
  0
VERTEX
  5
1033
  8
0
 10
0.0
 20
0.0
 30
0.0
 70
   128
 71
    -8
 72
     2
 73
    -3
  0
VERTEX
  5
1034
  8
0
 10
0.0
 20
0.0
 30
0.0
 70
   128
 71
     7
 72
    -8
 73
    -3
  0
VERTEX
  5
1035
  8
0
 10
0.0
 20
0.0
 30
0.0
 70
   128
 71
     8
 72
    -9
 73
    -2
  0
VERTEX
  5
1036
  8
0
 10
0.0
 20
0.0
 30
0.0
 70
   128
 71
     9
 72
   -10
 73
    -2
  0
VERTEX
  5
1037
  8
0
 10
0.0
 20
0.0
 30
0.0
 70
   128
 71
     1
 72
    -2
 73
   -10
  0
VERTEX
  5
1038
  8
0
 10
0.0
 20
0.0
 30
0.0
 70
   128
 71
    -5
 72
     4
 73
    -1
  0
VERTEX
  5
1039
  8
0
 10
0.0
 20
0.0
 30
0.0
 70
   128
 71
    10
 72
    -5
 73
    -1
  0
SEQEND
  5
142B
  8
0
  0
POLYLINE
  5
103A
  8
0
 66
     1
 10
0.0
 20
0.0
 30
0.0
 70
    64
 71
     8
 72
     6
  0
VERTEX
  5
103B
  8
0
 10
344.0000000000028
 20
-1.265966285951801
 30
-25.21284576253199
 70
   192
  0
VERTEX
  5
103C
  8
0
 10
347.7475998473376
 20
5.228124993869942
 30
-25.35924172280038
 70
   192
  0
VERTEX
  5
103D
  8
0
 10
347.9754622126434
 20
5.354336576544281
 30
-25.10683265163477
 70
   192
  0
VERTEX
  5
103E
  8
0
 10
343.9999999978095
 20
-1.265966285030967
 30
-24.95565336567709
 70
   192
  0
VERTEX
  5
103F
  8
0
 10
355.3408245437519
 20
5.176150173833263
 30
-25.50761126145964
 70
   192
  0
VERTEX
  5
1040
  8
0
 10
355.2093977728096
 20
5.252430860383282
 30
-25.2474174841898
 70
   192
  0
VERTEX
  5
1041
  8
0
 10
359.0
 20
-1.26596628595905
 30
-25.6519417024204
 70
   192
  0
VERTEX
  5
1042
  8
0
 10
359.0
 20
-1.26596628595905
 30
-25.3947685126425
 70
   192
  0
VERTEX
  5
1043
  8
0
 10
0.0
 20
0.0
 30
0.0
 70
   128
 71
     1
 72
     2
 73
     3
  0
VERTEX
  5
1044
  8
0
 10
0.0
 20
0.0
 30
0.0
 70
   128
 71
     4
 72
     1
 73
     3
  0
VERTEX
  5
1045
  8
0
 10
0.0
 20
0.0
 30
0.0
 70
   128
 71
     2
 72
     5
 73
     6
  0
VERTEX
  5
1046
  8
0
 10
0.0
 20
0.0
 30
0.0
 70
   128
 71
     3
 72
     2
 73
     6
  0
VERTEX
  5
1047
  8
0
 10
0.0
 20
0.0
 30
0.0
 70
   128
 71
     5
 72
     7
 73
     8
  0
VERTEX
  5
1048
  8
0
 10
0.0
 20
0.0
 30
0.0
 70
   128
 71
     6
 72
     5
 73
     8
  0
SEQEND
  5
142C
  8
0
  0
POLYLINE
  5
1049
  8
0
 66
     1
 10
0.0
 20
0.0
 30
0.0
 70
    64
 71
    15
 72
    13
  0
VERTEX
  5
104A
  8
0
 10
347.3431457505075
 20
-8.68017984833216
 30
-28.7188465118928
 70
   192
  0
VERTEX
  5
104B
  8
0
 10
343.0
 20
-1.265966285959
 30
-28.7188465118928
 70
   192
  0
VERTEX
  5
104C
  8
0
 10
343.4890416280049
 20
-1.265966286000594
 30
-28.59126348661712
 70
   192
  0
VERTEX
  5
104D
  8
0
 10
355.1678099012468
 20
-7.807839425783712
 30
-27.71925317954805
 70
   192
  0
VERTEX
  5
104E
  8
0
 10
359.0
 20
-1.26596628595905
 30
-27.7188465118928
 70
   192
  0
VERTEX
  5
104F
  8
0
 10
359.0050256951183
 20
-1.26596628595905
 30
-27.81897708976685
 70
   192
  0
VERTEX
  5
1050
  8
0
 10
359.0207996899815
 20
-1.26596628595905
 30
-27.92174242821456
 70
   192
  0
VERTEX
  5
1051
  8
0
 10
359.048175941108
 20
-1.26596628595905
 30
-28.0254911937564
 70
   192
  0
VERTEX
  5
1052
  8
0
 10
359.2613190047452
 20
-1.265966285959052
 30
-28.39290169305351
 70
   192
  0
VERTEX
  5
1053
  8
0
 10
359.611568899554
 20
-1.265966285959056
 30
-28.64032428167698
 70
   192
  0
VERTEX
  5
1054
  8
0
 10
355.6568542494925
 20
-8.680179848332193
 30
-28.71884651189281
 70
   192
  0
VERTEX
  5
1055
  8
0
 10
360.0
 20
-1.26596628595906
 30
-28.7188465118928
 70
   192
  0
VERTEX
  5
1056
  8
0
 10
347.8321900987547
 20
-7.807839425784544
 30
-27.7196598472033
 70
   192
  0
VERTEX
  5
1057
  8
0
 10
343.872260225479
 20
-1.265966286125353
 30
-28.20851441079005
 70
   192
  0
VERTEX
  5
1058
  8
0
 10
343.9999996210577
 20
-1.265966286284557
 30
-27.72007209616738
 70
   192
  0
VERTEX
  5
1059
  8
0
 10
0.0
 20
0.0
 30
0.0
 70
   128
 71
     1
 72
     2
 73
     3
  0
VERTEX
  5
105A
  8
0
 10
0.0
 20
0.0
 30
0.0
 70
   128
 71
     4
 72
     5
 73
     6
  0
VERTEX
  5
105B
  8
0
 10
0.0
 20
0.0
 30
0.0
 70
   128
 71
     6
 72
     7
 73
     4
  0
VERTEX
  5
105C
  8
0
 10
0.0
 20
0.0
 30
0.0
 70
   128
 71
     7
 72
     8
 73
     4
  0
VERTEX
  5
105D
  8
0
 10
0.0
 20
0.0
 30
0.0
 70
   128
 71
     8
 72
     9
 73
     4
  0
VERTEX
  5
105E
  8
0
 10
0.0
 20
0.0
 30
0.0
 70
   128
 71
    10
 72
    11
 73
     4
  0
VERTEX
  5
105F
  8
0
 10
0.0
 20
0.0
 30
0.0
 70
   128
 71
     9
 72
    10
 73
     4
  0
VERTEX
  5
1060
  8
0
 10
0.0
 20
0.0
 30
0.0
 70
   128
 71
    10
 72
    12
 73
    11
  0
VERTEX
  5
1061
  8
0
 10
0.0
 20
0.0
 30
0.0
 70
   128
 71
    13
 72
     4
 73
    11
  0
VERTEX
  5
1062
  8
0
 10
0.0
 20
0.0
 30
0.0
 70
   128
 71
     1
 72
    13
 73
    11
  0
VERTEX
  5
1063
  8
0
 10
0.0
 20
0.0
 30
0.0
 70
   128
 71
     1
 72
     3
 73
    14
  0
VERTEX
  5
1064
  8
0
 10
0.0
 20
0.0
 30
0.0
 70
   128
 71
    13
 72
     1
 73
    14
  0
VERTEX
  5
1065
  8
0
 10
0.0
 20
0.0
 30
0.0
 70
   128
 71
    14
 72
    15
 73
    13
  0
SEQEND
  5
142D
  8
0
  0
POLYLINE
  5
1066
  8
0
 66
     1
 10
0.0
 20
0.0
 30
0.0
 70
    64
 71
    10
 72
     8
  0
VERTEX
  5
1067
  8
0
 10
358.689544003156
 20
-1.26596628595941
 30
-18.9368833918954
 70
   192
  0
VERTEX
  5
1068
  8
0
 10
358.362344018019
 20
-3.377175500484093
 30
-18.9368833918954
 70
   192
  0
VERTEX
  5
1069
  8
0
 10
357.4423143487392
 20
-5.309164393631439
 30
-18.9368833918954
 70
   192
  0
VERTEX
  5
106A
  8
0
 10
356.0034856402441
 20
-6.900977590304826
 30
-18.93681725396351
 70
   192
  0
VERTEX
  5
106B
  8
0
 10
353.5793197302276
 20
-8.205681824883046
 30
-18.93688339189539
 70
   192
  0
VERTEX
  5
106C
  8
0
 10
350.8390634437437
 20
-8.526737980198416
 30
-18.9368833918954
 70
   192
  0
VERTEX
  5
106D
  8
0
 10
346.957635246618
 20
-7.233957777850559
 30
-18.9368833919394
 70
   192
  0
VERTEX
  5
106E
  8
0
 10
344.6660864138629
 20
1.823745669152048
 30
-18.9368833918954
 70
   192
  0
VERTEX
  5
106F
  8
0
 10
353.0409476431043
 20
6.074154360018843
 30
-18.9368833918954
 70
   192
  0
VERTEX
  5
1070
  8
0
 10
359.0
 20
-1.26596628595905
 30
-18.9368833918954
 70
   192
  0
VERTEX
  5
1071
  8
0
 10
0.0
 20
0.0
 30
0.0
 70
   128
 71
     9
 72
    10
 73
    -1
  0
VERTEX
  5
1072
  8
0
 10
0.0
 20
0.0
 30
0.0
 70
   128
 71
     7
 72
     8
 73
    -9
  0
VERTEX
  5
1073
  8
0
 10
0.0
 20
0.0
 30
0.0
 70
   128
 71
     6
 72
    -7
 73
    -9
  0
VERTEX
  5
1074
  8
0
 10
0.0
 20
0.0
 30
0.0
 70
   128
 71
     5
 72
    -6
 73
    -9
  0
VERTEX
  5
1075
  8
0
 10
0.0
 20
0.0
 30
0.0
 70
   128
 71
     4
 72
    -5
 73
    -9
  0
VERTEX
  5
1076
  8
0
 10
0.0
 20
0.0
 30
0.0
 70
   128
 71
     3
 72
    -4
 73
    -9
  0
VERTEX
  5
1077
  8
0
 10
0.0
 20
0.0
 30
0.0
 70
   128
 71
     2
 72
    -3
 73
    -9
  0
VERTEX
  5
1078
  8
0
 10
0.0
 20
0.0
 30
0.0
 70
   128
 71
     1
 72
    -2
 73
    -9
  0
SEQEND
  5
142E
  8
0
  0
POLYLINE
  5
1079
  8
0
 66
     1
 10
0.0
 20
0.0
 30
0.0
 70
    64
 71
     8
 72
     6
  0
VERTEX
  5
107A
  8
0
 10
344.6660864138629
 20
1.823745669152048
 30
-18.9368833918954
 70
   192
  0
VERTEX
  5
107B
  8
0
 10
346.957635246618
 20
-7.233957777850559
 30
-18.9368833919394
 70
   192
  0
VERTEX
  5
107C
  8
0
 10
344.6653062974955
 20
1.821197807212955
 30
-19.1248638030492
 70
   192
  0
VERTEX
  5
107D
  8
0
 10
353.1095039106816
 20
6.059492302607155
 30
-19.31534662649542
 70
   192
  0
VERTEX
  5
107E
  8
0
 10
353.0409476431043
 20
6.074154360018843
 30
-18.9368833918954
 70
   192
  0
VERTEX
  5
107F
  8
0
 10
359.0
 20
-1.26596628595905
 30
-19.5045941372399
 70
   192
  0
VERTEX
  5
1080
  8
0
 10
359.0
 20
-1.26596628595905
 30
-19.2472854926055
 70
   192
  0
VERTEX
  5
1081
  8
0
 10
359.0
 20
-1.26596628595905
 30
-18.9368833918954
 70
   192
  0
VERTEX
  5
1082
  8
0
 10
0.0
 20
0.0
 30
0.0
 70
   128
 71
     1
 72
     2
 73
     3
  0
VERTEX
  5
1083
  8
0
 10
0.0
 20
0.0
 30
0.0
 70
   128
 71
     1
 72
     3
 73
     4
  0
VERTEX
  5
1084
  8
0
 10
0.0
 20
0.0
 30
0.0
 70
   128
 71
     5
 72
     1
 73
     4
  0
VERTEX
  5
1085
  8
0
 10
0.0
 20
0.0
 30
0.0
 70
   128
 71
     4
 72
     6
 73
    -7
  0
VERTEX
  5
1086
  8
0
 10
0.0
 20
0.0
 30
0.0
 70
   128
 71
     8
 72
     5
 73
     4
  0
VERTEX
  5
1087
  8
0
 10
0.0
 20
0.0
 30
0.0
 70
   128
 71
     7
 72
     8
 73
    -4
  0
SEQEND
  5
142F
  8
0
  0
POLYLINE
  5
1088
  8
0
 66
     1
 10
0.0
 20
0.0
 30
0.0
 70
    64
 71
     8
 72
     6
  0
VERTEX
  5
1089
  8
0
 10
344.0000000084124
 20
-1.26596628481709
 30
-24.33465423573555
 70
   192
  0
VERTEX
  5
108A
  8
0
 10
347.9814109940365
 20
5.357510757930655
 30
-24.48602722840996
 70
   192
  0
VERTEX
  5
108B
  8
0
 10
347.7915574956313
 20
5.252992663335398
 30
-24.22468463219262
 70
   192
  0
VERTEX
  5
108C
  8
0
 10
344.0000006568193
 20
-1.265966288382092
 30
-24.0774697373005
 70
   192
  0
VERTEX
  5
108D
  8
0
 10
355.2111352596771
 20
5.251444518170703
 30
-24.62659528659223
 70
   192
  0
VERTEX
  5
108E
  8
0
 10
355.1550241770624
 20
5.283060919061596
 30
-24.36807352139042
 70
   192
  0
VERTEX
  5
108F
  8
0
 10
359.0
 20
-1.26596628595906
 30
-24.773749358871
 70
   192
  0
VERTEX
  5
1090
  8
0
 10
359.0
 20
-1.26596628595905
 30
-24.5165597797175
 70
   192
  0
VERTEX
  5
1091
  8
0
 10
0.0
 20
0.0
 30
0.0
 70
   128
 71
     1
 72
     2
 73
     3
  0
VERTEX
  5
1092
  8
0
 10
0.0
 20
0.0
 30
0.0
 70
   128
 71
     4
 72
     1
 73
     3
  0
VERTEX
  5
1093
  8
0
 10
0.0
 20
0.0
 30
0.0
 70
   128
 71
     2
 72
     5
 73
     6
  0
VERTEX
  5
1094
  8
0
 10
0.0
 20
0.0
 30
0.0
 70
   128
 71
     3
 72
     2
 73
     6
  0
VERTEX
  5
1095
  8
0
 10
0.0
 20
0.0
 30
0.0
 70
   128
 71
     5
 72
     7
 73
     8
  0
VERTEX
  5
1096
  8
0
 10
0.0
 20
0.0
 30
0.0
 70
   128
 71
     6
 72
     5
 73
     8
  0
SEQEND
  5
1430
  8
0
  0
POLYLINE
  5
1097
  8
0
 66
     1
 10
0.0
 20
0.0
 30
0.0
 70
    64
 71
     8
 72
     6
  0
VERTEX
  5
1098
  8
0
 10
344.000000000003
 20
-1.265966285951737
 30
-20.82186420253338
 70
   192
  0
VERTEX
  5
1099
  8
0
 10
347.7476003704165
 20
5.228125285404866
 30
-20.96826017380457
 70
   192
  0
VERTEX
  5
109A
  8
0
 10
347.9729382417897
 20
5.352988060250532
 30
-20.71579794687846
 70
   192
  0
VERTEX
  5
109B
  8
0
 10
343.9999999977261
 20
-1.265966285031649
 30
-20.5646716300135
 70
   192
  0
VERTEX
  5
109C
  8
0
 10
355.3406914270382
 20
5.176229237307648
 30
-21.11662681737564
 70
   192
  0
VERTEX
  5
109D
  8
0
 10
355.2097664776838
 20
5.25222162151456
 30
-20.85644383970309
 70
   192
  0
VERTEX
  5
109E
  8
0
 10
359.0
 20
-1.26596628595903
 30
-21.2609601424214
 70
   192
  0
VERTEX
  5
109F
  8
0
 10
359.0
 20
-1.26596628595905
 30
-21.0037869507181
 70
   192
  0
VERTEX
  5
10A0
  8
0
 10
0.0
 20
0.0
 30
0.0
 70
   128
 71
     1
 72
     2
 73
     3
  0
VERTEX
  5
10A1
  8
0
 10
0.0
 20
0.0
 30
0.0
 70
   128
 71
     4
 72
     1
 73
     3
  0
VERTEX
  5
10A2
  8
0
 10
0.0
 20
0.0
 30
0.0
 70
   128
 71
     2
 72
     5
 73
     6
  0
VERTEX
  5
10A3
  8
0
 10
0.0
 20
0.0
 30
0.0
 70
   128
 71
     3
 72
     2
 73
     6
  0
VERTEX
  5
10A4
  8
0
 10
0.0
 20
0.0
 30
0.0
 70
   128
 71
     5
 72
     7
 73
     8
  0
VERTEX
  5
10A5
  8
0
 10
0.0
 20
0.0
 30
0.0
 70
   128
 71
     6
 72
     5
 73
     8
  0
SEQEND
  5
1431
  8
0
  0
POLYLINE
  5
10A6
  8
0
 66
     1
 10
0.0
 20
0.0
 30
0.0
 70
    64
 71
    11
 72
     9
  0
VERTEX
  5
10A7
  8
0
 10
343.9964116652726
 20
-1.265999653356059
 30
-26.71144126798607
 70
   192
  0
VERTEX
  5
10A8
  8
0
 10
344.0000000958799
 20
-1.265965832305798
 30
-26.96926744997631
 70
   192
  0
VERTEX
  5
10A9
  8
0
 10
346.0403699378981
 20
3.877351163233647
 30
-27.07484795343249
 70
   192
  0
VERTEX
  5
10AA
  8
0
 10
358.6836449069414
 20
0.879179010281673
 30
-27.36799137428043
 70
   192
  0
VERTEX
  5
10AB
  8
0
 10
359.0
 20
-1.26596628595905
 30
-27.4084444112242
 70
   192
  0
VERTEX
  5
10AC
  8
0
 10
359.0101034607915
 20
-1.265970856628968
 30
-27.1490266288388
 70
   192
  0
VERTEX
  5
10AD
  8
0
 10
351.0661712631533
 20
6.221369962606234
 30
-27.18070621496329
 70
   192
  0
VERTEX
  5
10AE
  8
0
 10
347.7466104057432
 20
5.233344714004757
 30
-26.8581344222492
 70
   192
  0
VERTEX
  5
10AF
  8
0
 10
355.2541552389091
 20
5.236459896666786
 30
-27.00432635822933
 70
   192
  0
VERTEX
  5
10B0
  8
0
 10
356.3169290081634
 20
4.483489059141945
 30
-27.28659357751299
 70
   192
  0
VERTEX
  5
10B1
  8
0
 10
357.7818642007247
 20
2.833898918379292
 30
-27.327876597189
 70
   192
  0
VERTEX
  5
10B2
  8
0
 10
0.0
 20
0.0
 30
0.0
 70
   128
 71
     1
 72
     2
 73
     3
  0
VERTEX
  5
10B3
  8
0
 10
0.0
 20
0.0
 30
0.0
 70
   128
 71
     4
 72
     5
 73
     6
  0
VERTEX
  5
10B4
  8
0
 10
0.0
 20
0.0
 30
0.0
 70
   128
 71
     3
 72
     7
 73
     8
  0
VERTEX
  5
10B5
  8
0
 10
0.0
 20
0.0
 30
0.0
 70
   128
 71
     1
 72
     3
 73
     8
  0
VERTEX
  5
10B6
  8
0
 10
0.0
 20
0.0
 30
0.0
 70
   128
 71
     9
 72
     8
 73
     7
  0
VERTEX
  5
10B7
  8
0
 10
0.0
 20
0.0
 30
0.0
 70
   128
 71
     7
 72
    10
 73
     9
  0
VERTEX
  5
10B8
  8
0
 10
0.0
 20
0.0
 30
0.0
 70
   128
 71
     9
 72
    10
 73
    11
  0
VERTEX
  5
10B9
  8
0
 10
0.0
 20
0.0
 30
0.0
 70
   128
 71
    11
 72
     4
 73
     9
  0
VERTEX
  5
10BA
  8
0
 10
0.0
 20
0.0
 30
0.0
 70
   128
 71
     4
 72
     6
 73
     9
  0
SEQEND
  5
1432
  8
0
  0
POLYLINE
  5
10BB
  8
0
 66
     1
 10
0.0
 20
0.0
 30
0.0
 70
    64
 71
     8
 72
     6
  0
VERTEX
  5
10BC
  8
0
 10
344.0000000000017
 20
-1.26596741340109
 30
-21.44288412029136
 70
   192
  0
VERTEX
  5
10BD
  8
0
 10
344.0000000426546
 20
-1.265966286961647
 30
-21.70008480415517
 70
   192
  0
VERTEX
  5
10BE
  8
0
 10
347.5338494441295
 20
5.099641270029396
 30
-21.84184770669521
 70
   192
  0
VERTEX
  5
10BF
  8
0
 10
347.747930796322
 20
5.227846765095109
 30
-21.58920363920925
 70
   192
  0
VERTEX
  5
10C0
  8
0
 10
355.4151354674752
 20
5.131038283570804
 30
-21.99645246582829
 70
   192
  0
VERTEX
  5
10C1
  8
0
 10
355.2766931553144
 20
5.21370451675164
 30
-21.73606511908472
 70
   192
  0
VERTEX
  5
10C2
  8
0
 10
359.0
 20
-1.26596628595905
 30
-22.139163390808
 70
   192
  0
VERTEX
  5
10C3
  8
0
 10
359.0
 20
-1.26596628595902
 30
-21.8819789557314
 70
   192
  0
VERTEX
  5
10C4
  8
0
 10
0.0
 20
0.0
 30
0.0
 70
   128
 71
     1
 72
     2
 73
     3
  0
VERTEX
  5
10C5
  8
0
 10
0.0
 20
0.0
 30
0.0
 70
   128
 71
     1
 72
     3
 73
     4
  0
VERTEX
  5
10C6
  8
0
 10
0.0
 20
0.0
 30
0.0
 70
   128
 71
     3
 72
     5
 73
     6
  0
VERTEX
  5
10C7
  8
0
 10
0.0
 20
0.0
 30
0.0
 70
   128
 71
     4
 72
     3
 73
     6
  0
VERTEX
  5
10C8
  8
0
 10
0.0
 20
0.0
 30
0.0
 70
   128
 71
     5
 72
     7
 73
     8
  0
VERTEX
  5
10C9
  8
0
 10
0.0
 20
0.0
 30
0.0
 70
   128
 71
     6
 72
     5
 73
     8
  0
SEQEND
  5
1433
  8
0
  0
POLYLINE
  5
10CA
  8
0
 66
     1
 10
0.0
 20
0.0
 30
0.0
 70
    64
 71
     8
 72
     6
  0
VERTEX
  5
10CB
  8
0
 10
344.0000000081698
 20
-1.265966284817827
 30
-19.94367279968045
 70
   192
  0
VERTEX
  5
10CC
  8
0
 10
347.9827177979611
 20
5.358207154393746
 30
-20.09507330255612
 70
   192
  0
VERTEX
  5
10CD
  8
0
 10
347.7451203316531
 20
5.223841075784376
 30
-19.83272819954028
 70
   192
  0
VERTEX
  5
10CE
  8
0
 10
344.0000001043327
 20
-1.265966755630018
 30
-19.68645999761574
 70
   192
  0
VERTEX
  5
10CF
  8
0
 10
355.2103145533028
 20
5.251910853187631
 30
-20.23559619670638
 70
   192
  0
VERTEX
  5
10D0
  8
0
 10
355.2435745118293
 20
5.233332991408943
 30
-19.97898011986858
 70
   192
  0
VERTEX
  5
10D1
  8
0
 10
359.0
 20
-1.26596628595904
 30
-20.3827678001912
 70
   192
  0
VERTEX
  5
10D2
  8
0
 10
359.0
 20
-1.26596628595907
 30
-20.125578154195
 70
   192
  0
VERTEX
  5
10D3
  8
0
 10
0.0
 20
0.0
 30
0.0
 70
   128
 71
     1
 72
     2
 73
     3
  0
VERTEX
  5
10D4
  8
0
 10
0.0
 20
0.0
 30
0.0
 70
   128
 71
     4
 72
     1
 73
     3
  0
VERTEX
  5
10D5
  8
0
 10
0.0
 20
0.0
 30
0.0
 70
   128
 71
     2
 72
     5
 73
     6
  0
VERTEX
  5
10D6
  8
0
 10
0.0
 20
0.0
 30
0.0
 70
   128
 71
     3
 72
     2
 73
     6
  0
VERTEX
  5
10D7
  8
0
 10
0.0
 20
0.0
 30
0.0
 70
   128
 71
     5
 72
     7
 73
     8
  0
VERTEX
  5
10D8
  8
0
 10
0.0
 20
0.0
 30
0.0
 70
   128
 71
     6
 72
     5
 73
     8
  0
SEQEND
  5
1434
  8
0
  0
POLYLINE
  5
10D9
  8
0
 66
     1
 10
0.0
 20
0.0
 30
0.0
 70
    64
 71
     8
 72
     6
  0
VERTEX
  5
10DA
  8
0
 10
344.0000000000015
 20
-1.265967420059523
 30
-25.83386568016601
 70
   192
  0
VERTEX
  5
10DB
  8
0
 10
344.0000000424122
 20
-1.265966286961741
 30
-26.09106636408332
 70
   192
  0
VERTEX
  5
10DC
  8
0
 10
347.5348837961207
 20
5.10028450487527
 30
-26.23285203748537
 70
   192
  0
VERTEX
  5
10DD
  8
0
 10
347.7479306397362
 20
5.227846870410075
 30
-25.98018519505845
 70
   192
  0
VERTEX
  5
10DE
  8
0
 10
355.4155436960911
 20
5.130788372797927
 30
-26.38744295714056
 70
   192
  0
VERTEX
  5
10DF
  8
0
 10
355.2768524916161
 20
5.213611431416361
 30
-26.12705012377265
 70
   192
  0
VERTEX
  5
10E0
  8
0
 10
359.0
 20
-1.26596628595904
 30
-26.530144950215
 70
   192
  0
VERTEX
  5
10E1
  8
0
 10
359.0
 20
-1.26596628595905
 30
-26.2729605157295
 70
   192
  0
VERTEX
  5
10E2
  8
0
 10
0.0
 20
0.0
 30
0.0
 70
   128
 71
     1
 72
     2
 73
     3
  0
VERTEX
  5
10E3
  8
0
 10
0.0
 20
0.0
 30
0.0
 70
   128
 71
     1
 72
     3
 73
     4
  0
VERTEX
  5
10E4
  8
0
 10
0.0
 20
0.0
 30
0.0
 70
   128
 71
     3
 72
     5
 73
     6
  0
VERTEX
  5
10E5
  8
0
 10
0.0
 20
0.0
 30
0.0
 70
   128
 71
     4
 72
     3
 73
     6
  0
VERTEX
  5
10E6
  8
0
 10
0.0
 20
0.0
 30
0.0
 70
   128
 71
     5
 72
     7
 73
     8
  0
VERTEX
  5
10E7
  8
0
 10
0.0
 20
0.0
 30
0.0
 70
   128
 71
     6
 72
     5
 73
     8
  0
SEQEND
  5
1435
  8
0
  0
POLYLINE
  5
10E8
  8
0
 66
     1
 10
0.0
 20
0.0
 30
0.0
 70
    64
 71
     8
 72
     6
  0
VERTEX
  5
10E9
  8
0
 10
343.9999999991813
 20
-1.265966285953955
 30
-23.45645092269343
 70
   192
  0
VERTEX
  5
10EA
  8
0
 10
347.792079350973
 20
5.253288922683653
 30
-23.60383373928383
 70
   192
  0
VERTEX
  5
10EB
  8
0
 10
347.9181648796578
 20
5.323385773303192
 30
-23.3492026244063
 70
   192
  0
VERTEX
  5
10EC
  8
0
 10
343.9999999992494
 20
-1.265966285963696
 30
-23.19927773231149
 70
   192
  0
VERTEX
  5
10ED
  8
0
 10
355.157734533853
 20
5.281550241337515
 30
-23.74724490565653
 70
   192
  0
VERTEX
  5
10EE
  8
0
 10
355.2514141806443
 20
5.228514116231223
 30
-23.49197292723226
 70
   192
  0
VERTEX
  5
10EF
  8
0
 10
359.0
 20
-1.26596628595905
 30
-23.8955756391152
 70
   192
  0
VERTEX
  5
10F0
  8
0
 10
359.0
 20
-1.26596628595905
 30
-23.638374921356
 70
   192
  0
VERTEX
  5
10F1
  8
0
 10
0.0
 20
0.0
 30
0.0
 70
   128
 71
     1
 72
     2
 73
     3
  0
VERTEX
  5
10F2
  8
0
 10
0.0
 20
0.0
 30
0.0
 70
   128
 71
     4
 72
     1
 73
     3
  0
VERTEX
  5
10F3
  8
0
 10
0.0
 20
0.0
 30
0.0
 70
   128
 71
     2
 72
     5
 73
     6
  0
VERTEX
  5
10F4
  8
0
 10
0.0
 20
0.0
 30
0.0
 70
   128
 71
     3
 72
     2
 73
     6
  0
VERTEX
  5
10F5
  8
0
 10
0.0
 20
0.0
 30
0.0
 70
   128
 71
     5
 72
     7
 73
     8
  0
VERTEX
  5
10F6
  8
0
 10
0.0
 20
0.0
 30
0.0
 70
   128
 71
     6
 72
     5
 73
     8
  0
SEQEND
  5
1436
  8
0
  0
POLYLINE
  5
10F7
  8
0
 66
     1
 10
0.0
 20
0.0
 30
0.0
 70
    64
 71
     8
 72
     6
  0
VERTEX
  5
10F8
  8
0
 10
343.9999999994304
 20
-1.26596628596254
 30
-22.57825857864472
 70
   192
  0
VERTEX
  5
10F9
  8
0
 10
347.927531173903
 20
5.328465609827235
 30
-22.7284786989099
 70
   192
  0
VERTEX
  5
10FA
  8
0
 10
347.5350051347927
 20
5.100366372008301
 30
-22.46268287246596
 70
   192
  0
VERTEX
  5
10FB
  8
0
 10
344.0000000421724
 20
-1.265966287060052
 30
-22.3210689377789
 70
   192
  0
VERTEX
  5
10FC
  8
0
 10
355.4048755854496
 20
5.137419201508457
 30
-22.87434123365272
 70
   192
  0
VERTEX
  5
10FD
  8
0
 10
355.415807088432
 20
5.130617782524317
 30
-22.61728344781332
 70
   192
  0
VERTEX
  5
10FE
  8
0
 10
359.0
 20
-1.26596628595906
 30
-23.0173549825751
 70
   192
  0
VERTEX
  5
10FF
  8
0
 10
359.0
 20
-1.26596628595904
 30
-22.7601625360246
 70
   192
  0
VERTEX
  5
1100
  8
0
 10
0.0
 20
0.0
 30
0.0
 70
   128
 71
     1
 72
     2
 73
     3
  0
VERTEX
  5
1101
  8
0
 10
0.0
 20
0.0
 30
0.0
 70
   128
 71
     4
 72
     1
 73
     3
  0
VERTEX
  5
1102
  8
0
 10
0.0
 20
0.0
 30
0.0
 70
   128
 71
     2
 72
     5
 73
     6
  0
VERTEX
  5
1103
  8
0
 10
0.0
 20
0.0
 30
0.0
 70
   128
 71
     3
 72
     2
 73
     6
  0
VERTEX
  5
1104
  8
0
 10
0.0
 20
0.0
 30
0.0
 70
   128
 71
     5
 72
     7
 73
     8
  0
VERTEX
  5
1105
  8
0
 10
0.0
 20
0.0
 30
0.0
 70
   128
 71
     6
 72
     5
 73
     8
  0
SEQEND
  5
1437
  8
0
  0
POLYLINE
  5
1106
  8
0
 66
     1
 10
0.0
 20
0.0
 30
0.0
 70
    64
 71
     7
 72
     5
  0
VERTEX
  5
1107
  8
0
 10
343.9931326850308
 20
-1.265938234337874
 30
-27.59016934054242
 70
   192
  0
VERTEX
  5
1108
  8
0
 10
343.9999996210577
 20
-1.265966286284557
 30
-27.72007209616738
 70
   192
  0
VERTEX
  5
1109
  8
0
 10
344.318822035372
 20
0.8971316969297276
 30
-27.72018630479874
 70
   192
  0
VERTEX
  5
110A
  8
0
 10
344.3188244724546
 20
0.8971397898333295
 30
-27.63374874648787
 70
   192
  0
VERTEX
  5
110B
  8
0
 10
345.3449439701527
 20
3.019246310677
 30
-27.72030609473892
 70
   192
  0
VERTEX
  5
110C
  8
0
 10
345.3449465164793
 20
3.019249969862077
 30
-27.67708731558347
 70
   192
  0
VERTEX
  5
110D
  8
0
 10
347.02768269477
 20
4.76608092851098
 30
-27.7204258846791
 70
   192
  0
VERTEX
  5
110E
  8
0
 10
0.0
 20
0.0
 30
0.0
 70
   128
 71
     1
 72
     2
 73
     3
  0
VERTEX
  5
110F
  8
0
 10
0.0
 20
0.0
 30
0.0
 70
   128
 71
     1
 72
     3
 73
     4
  0
VERTEX
  5
1110
  8
0
 10
0.0
 20
0.0
 30
0.0
 70
   128
 71
     3
 72
     5
 73
     6
  0
VERTEX
  5
1111
  8
0
 10
0.0
 20
0.0
 30
0.0
 70
   128
 71
     4
 72
     3
 73
     6
  0
VERTEX
  5
1112
  8
0
 10
0.0
 20
0.0
 30
0.0
 70
   128
 71
     6
 72
     5
 73
     7
  0
SEQEND
  5
1438
  8
0
  0
POLYLINE
  5
1113
  8
0
 66
     1
 10
0.0
 20
0.0
 30
0.0
 70
    64
 71
    11
 72
     9
  0
VERTEX
  5
1114
  8
0
 10
359.0
 20
-1.26596628595905
 30
-19.2472854926055
 70
   192
  0
VERTEX
  5
1115
  8
0
 10
359.1233183421518
 20
-1.26228921804891
 30
-19.22616532832771
 70
   192
  0
VERTEX
  5
1116
  8
0
 10
359.2186623072831
 20
-1.261967900643991
 30
-19.16293255610011
 70
   192
  0
VERTEX
  5
1117
  8
0
 10
359.286031895394
 20
-1.26371730804804
 30
-19.0575632283065
 70
   192
  0
VERTEX
  5
1118
  8
0
 10
359.2451640396937
 20
-1.269515186829802
 30
-18.74644987349638
 70
   192
  0
VERTEX
  5
1119
  8
0
 10
358.9654010044487
 20
-1.271714874685421
 30
-18.62841493450178
 70
   192
  0
VERTEX
  5
111A
  8
0
 10
358.713968104638
 20
-1.26821526387006
 30
-18.8162035555259
 70
   192
  0
VERTEX
  5
111B
  8
0
 10
358.7004958532036
 20
-1.267489179515558
 30
-18.85516513921987
 70
   192
  0
VERTEX
  5
111C
  8
0
 10
358.6922819656692
 20
-1.266732842516269
 30
-18.89575007555123
 70
   192
  0
VERTEX
  5
111D
  8
0
 10
358.689544003156
 20
-1.26596628595941
 30
-18.9368833918954
 70
   192
  0
VERTEX
  5
111E
  8
0
 10
359.0
 20
-1.26596628595905
 30
-18.9368833918954
 70
   192
  0
VERTEX
  5
111F
  8
0
 10
0.0
 20
0.0
 30
0.0
 70
   128
 71
     9
 72
    10
 73
   -11
  0
VERTEX
  5
1120
  8
0
 10
0.0
 20
0.0
 30
0.0
 70
   128
 71
     8
 72
    -9
 73
   -11
  0
VERTEX
  5
1121
  8
0
 10
0.0
 20
0.0
 30
0.0
 70
   128
 71
     7
 72
    -8
 73
   -11
  0
VERTEX
  5
1122
  8
0
 10
0.0
 20
0.0
 30
0.0
 70
   128
 71
     6
 72
    -7
 73
   -11
  0
VERTEX
  5
1123
  8
0
 10
0.0
 20
0.0
 30
0.0
 70
   128
 71
     5
 72
    -6
 73
   -11
  0
VERTEX
  5
1124
  8
0
 10
0.0
 20
0.0
 30
0.0
 70
   128
 71
     3
 72
     4
 73
    -5
  0
VERTEX
  5
1125
  8
0
 10
0.0
 20
0.0
 30
0.0
 70
   128
 71
     2
 72
    -3
 73
    -5
  0
VERTEX
  5
1126
  8
0
 10
0.0
 20
0.0
 30
0.0
 70
   128
 71
     1
 72
    -2
 73
    -5
  0
VERTEX
  5
1127
  8
0
 10
0.0
 20
0.0
 30
0.0
 70
   128
 71
    11
 72
    -1
 73
    -5
  0
SEQEND
  5
1439
  8
0
  0
POLYLINE
  5
1128
  8
0
 66
     1
 10
0.0
 20
0.0
 30
0.0
 70
    64
 71
     9
 72
     7
  0
VERTEX
  5
1129
  8
0
 10
359.0
 20
-1.26596628595905
 30
-27.7188465118928
 70
   192
  0
VERTEX
  5
112A
  8
0
 10
359.0000000000001
 20
-1.267679653554205
 30
-27.61541107515822
 70
   192
  0
VERTEX
  5
112B
  8
0
 10
359.0
 20
-1.268107995452929
 30
-27.51195169080741
 70
   192
  0
VERTEX
  5
112C
  8
0
 10
359.0
 20
-1.26596628595905
 30
-27.4084444112242
 70
   192
  0
VERTEX
  5
112D
  8
0
 10
359.260400336568
 20
-1.269142869762456
 30
-27.54839147462975
 70
   192
  0
VERTEX
  5
112E
  8
0
 10
359.2848142717473
 20
-1.263651745453163
 30
-27.8430444278647
 70
   192
  0
VERTEX
  5
112F
  8
0
 10
359.0481759411081
 20
-1.26596628595905
 30
-28.0254911937564
 70
   192
  0
VERTEX
  5
1130
  8
0
 10
359.0207996899815
 20
-1.26596628595905
 30
-27.92174242821456
 70
   192
  0
VERTEX
  5
1131
  8
0
 10
359.0050256951183
 20
-1.26596628595905
 30
-27.81897708976685
 70
   192
  0
VERTEX
  5
1132
  8
0
 10
0.0
 20
0.0
 30
0.0
 70
   128
 71
     8
 72
     9
 73
    -1
  0
VERTEX
  5
1133
  8
0
 10
0.0
 20
0.0
 30
0.0
 70
   128
 71
     7
 72
    -8
 73
    -1
  0
VERTEX
  5
1134
  8
0
 10
0.0
 20
0.0
 30
0.0
 70
   128
 71
     6
 72
    -7
 73
    -1
  0
VERTEX
  5
1135
  8
0
 10
0.0
 20
0.0
 30
0.0
 70
   128
 71
    -6
 72
     1
 73
    -2
  0
VERTEX
  5
1136
  8
0
 10
0.0
 20
0.0
 30
0.0
 70
   128
 71
     5
 72
    -6
 73
    -2
  0
VERTEX
  5
1137
  8
0
 10
0.0
 20
0.0
 30
0.0
 70
   128
 71
     2
 72
    -3
 73
    -5
  0
VERTEX
  5
1138
  8
0
 10
0.0
 20
0.0
 30
0.0
 70
   128
 71
     3
 72
     4
 73
    -5
  0
SEQEND
  5
143A
  8
0
  0
POLYLINE
  5
1139
  8
0
 66
     1
 10
0.0
 20
0.0
 30
0.0
 70
    64
 71
   115
 72
   139
  0
VERTEX
  5
113A
  8
0
 10
344.3598196237026
 20
1.689334427608293
 30
-19.63226333215535
 70
   192
  0
VERTEX
  5
113B
  8
0
 10
356.9567638712617
 20
-6.718772834535558
 30
-20.14134861593886
 70
   192
  0
VERTEX
  5
113C
  8
0
 10
355.8166278555476
 20
5.194015559443598
 30
-19.82370254368168
 70
   192
  0
VERTEX
  5
113D
  8
0
 10
344.3208330504348
 20
1.70770486332805
 30
-19.56641083277771
 70
   192
  0
VERTEX
  5
113E
  8
0
 10
348.5505258658931
 20
5.847517306248768
 30
-20.64954006081613
 70
   192
  0
VERTEX
  5
113F
  8
0
 10
351.500804427755
 20
-8.954521149966736
 30
-21.15674169929825
 70
   192
  0
VERTEX
  5
1140
  8
0
 10
359.0963936228143
 20
0.2410147670251868
 30
-20.8519362972068
 70
   192
  0
VERTEX
  5
1141
  8
0
 10
348.536708987342
 20
5.891558423488277
 30
-20.59785945052742
 70
   192
  0
VERTEX
  5
1142
  8
0
 10
345.0505479151749
 20
-5.572673960672505
 30
-20.34159257607651
 70
   192
  0
VERTEX
  5
1143
  8
0
 10
356.9865440762425
 20
-6.752226627761949
 30
-20.08281371399566
 70
   192
  0
VERTEX
  5
1144
  8
0
 10
354.4318940246719
 20
5.820006678683412
 30
-21.66279742661981
 70
   192
  0
VERTEX
  5
1145
  8
0
 10
346.0877103937422
 20
-6.681026080693528
 30
-22.1678216729563
 70
   192
  0
VERTEX
  5
1146
  8
0
 10
357.5399478127322
 20
-6.074350839051547
 30
-21.8821218625214
 70
   192
  0
VERTEX
  5
1147
  8
0
 10
354.7627825476719
 20
5.733784825650401
 30
-21.62098288974704
 70
   192
  0
VERTEX
  5
1148
  8
0
 10
344.0982942366858
 20
0.9767489719100032
 30
-21.37100684995016
 70
   192
  0
VERTEX
  5
1149
  8
0
 10
351.4778486948553
 20
-9.0071299206834
 30
-21.10428948474825
 70
   192
  0
VERTEX
  5
114A
  8
0
 10
358.5528895644278
 20
1.657996442998799
 30
-22.67165863629552
 70
   192
  0
VERTEX
  5
114B
  8
0
 10
343.8787296459826
 20
-1.268144521669148
 30
-23.17428824123834
 70
   192
  0
VERTEX
  5
114C
  8
0
 10
352.8856088769033
 20
-8.828249251064248
 30
-22.88656370571341
 70
   192
  0
VERTEX
  5
114D
  8
0
 10
358.7710706064898
 20
1.247125881249948
 30
-22.64183578623808
 70
   192
  0
VERTEX
  5
114E
  8
0
 10
347.4927092756765
 20
5.313266623531033
 30
-22.38078821416806
 70
   192
  0
VERTEX
  5
114F
  8
0
 10
345.7529871595083
 20
-6.416082843184243
 30
-22.12804669357415
 70
   192
  0
VERTEX
  5
1150
  8
0
 10
358.5185753229726
 20
-4.170914807470521
 30
-23.67566333032841
 70
   192
  0
VERTEX
  5
1151
  8
0
 10
346.1365060847629
 20
4.095017674342897
 30
-24.17581416388547
 70
   192
  0
VERTEX
  5
1152
  8
0
 10
347.0101413588666
 20
-7.46968144722986
 30
-23.89807069103956
 70
   192
  0
VERTEX
  5
1153
  8
0
 10
358.4197249914494
 20
-4.544485849196212
 30
-23.65311956964558
 70
   192
  0
VERTEX
  5
1154
  8
0
 10
353.0852895436084
 20
6.243624103101413
 30
-23.39263822320999
 70
   192
  0
VERTEX
  5
1155
  8
0
 10
343.819517565553
 20
-0.8988568497527298
 30
-23.14039322499701
 70
   192
  0
VERTEX
  5
1156
  8
0
 10
351.4877928036134
 20
6.348597652899917
 30
-25.15277278286558
 70
   192
  0
VERTEX
  5
1157
  8
0
 10
343.9673110857086
 20
-2.475332749164655
 30
-24.90337911828736
 70
   192
  0
VERTEX
  5
1158
  8
0
 10
351.4994308287318
 20
6.276661673043772
 30
-25.17216605082201
 70
   192
  0
VERTEX
  5
1159
  8
0
 10
354.3929642842492
 20
-8.247005562849518
 30
-24.6746722491733
 70
   192
  0
VERTEX
  5
115A
  8
0
 10
354.2819718432714
 20
-8.36442715109785
 30
-24.65509497589262
 70
   192
  0
VERTEX
  5
115B
  8
0
 10
357.9925992153519
 20
2.745706423117344
 30
-24.40765410834605
 70
   192
  0
VERTEX
  5
115C
  8
0
 10
346.3240576346202
 20
4.375990955376635
 30
-24.15071954165617
 70
   192
  0
VERTEX
  5
115D
  8
0
 10
345.3068318339077
 20
3.116479840198525
 30
-25.90493220135254
 70
   192
  0
VERTEX
  5
115E
  8
0
 10
348.485031344943
 20
-8.239006336041612
 30
-25.65456879382939
 70
   192
  0
VERTEX
  5
115F
  8
0
 10
348.6237403974714
 20
-8.213335060276536
 30
-25.66832017785076
 70
   192
  0
VERTEX
  5
1160
  8
0
 10
358.9053491717008
 20
-2.929797644763919
 30
-25.41045814598782
 70
   192
  0
VERTEX
  5
1161
  8
0
 10
343.9964116652726
 20
-1.265999653356059
 30
-26.71144126798607
 70
   192
  0
VERTEX
  5
1162
  8
0
 10
347.7466104057432
 20
5.233344714004757
 30
-26.8581344222492
 70
   192
  0
VERTEX
  5
1163
  8
0
 10
344.4429506217774
 20
-3.980615023842029
 30
-26.65305345122728
 70
   192
  0
VERTEX
  5
1164
  8
0
 10
350.0598712660257
 20
6.141504917610236
 30
-26.90080918227883
 70
   192
  0
VERTEX
  5
1165
  8
0
 10
355.2541552389091
 20
5.236459896666786
 30
-27.00432635822933
 70
   192
  0
VERTEX
  5
1166
  8
0
 10
359.0101034607915
 20
-1.265970856628968
 30
-27.1490266288388
 70
   192
  0
VERTEX
  5
1167
  8
0
 10
355.5372395949219
 20
-7.649954384137006
 30
-26.40803760192422
 70
   192
  0
VERTEX
  5
1168
  8
0
 10
357.0028588905977
 20
3.925343925186938
 30
-26.15985607984234
 70
   192
  0
VERTEX
  5
1169
  8
0
 10
359.0
 20
-1.26596628595905
 30
-26.2729605157295
 70
   192
  0
VERTEX
  5
116A
  8
0
 10
355.2508257737089
 20
-7.757384921867953
 30
-26.41928836321339
 70
   192
  0
VERTEX
  5
116B
  8
0
 10
347.7493027443954
 20
-7.761640172612833
 30
-26.56558615360775
 70
   192
  0
VERTEX
  5
116C
  8
0
 10
344.425015253748
 20
1.661046368043643
 30
-19.69370231920101
 70
   192
  0
VERTEX
  5
116D
  8
0
 10
356.9044803539763
 20
-6.66521858985048
 30
-20.19798011014897
 70
   192
  0
VERTEX
  5
116E
  8
0
 10
348.5797986324462
 20
5.774575952093433
 30
-20.70111192104416
 70
   192
  0
VERTEX
  5
116F
  8
0
 10
351.5019268231578
 20
-8.872865804663702
 30
-21.20302555328069
 70
   192
  0
VERTEX
  5
1170
  8
0
 10
354.3988717641351
 20
5.742002698364162
 30
-21.70360590257204
 70
   192
  0
VERTEX
  5
1171
  8
0
 10
346.1497019341175
 20
-6.619982665253392
 30
-22.20296818776512
 70
   192
  0
VERTEX
  5
1172
  8
0
 10
358.4700998891034
 20
1.624317440371466
 30
-22.70099313538426
 70
   192
  0
VERTEX
  5
1173
  8
0
 10
343.9696762506943
 20
-1.2685016011923
 30
-23.19768491373131
 70
   192
  0
VERTEX
  5
1174
  8
0
 10
347.722890832616
 20
-7.745394549278202
 30
-23.93156487686637
 70
   192
  0
VERTEX
  5
1175
  8
0
 10
344.0000006568193
 20
-1.265966288382092
 30
-24.0774697373005
 70
   192
  0
VERTEX
  5
1176
  8
0
 10
358.4332657818176
 20
-4.135490128337332
 30
-23.69302307901657
 70
   192
  0
VERTEX
  5
1177
  8
0
 10
347.5856962455459
 20
-7.663531119553438
 30
-24.81274586524138
 70
   192
  0
VERTEX
  5
1178
  8
0
 10
343.9999999978095
 20
-1.265966285030967
 30
-24.95565336567709
 70
   192
  0
VERTEX
  5
1179
  8
0
 10
347.9754622126434
 20
5.354336576544281
 30
-25.10683265163477
 70
   192
  0
VERTEX
  5
117A
  8
0
 10
347.7915574956313
 20
5.252992663335398
 30
-24.22468463219262
 70
   192
  0
VERTEX
  5
117B
  8
0
 10
355.1550241770624
 20
5.283060919061596
 30
-24.36807352139042
 70
   192
  0
VERTEX
  5
117C
  8
0
 10
359.0
 20
-1.26596628595905
 30
-24.5165597797175
 70
   192
  0
VERTEX
  5
117D
  8
0
 10
355.467627481467
 20
-7.630478199159546
 30
-24.65812139286979
 70
   192
  0
VERTEX
  5
117E
  8
0
 10
347.7485019559476
 20
-7.760397925246895
 30
-25.68746551670352
 70
   192
  0
VERTEX
  5
117F
  8
0
 10
344.0000000000015
 20
-1.265967420059523
 30
-25.83386568016601
 70
   192
  0
VERTEX
  5
1180
  8
0
 10
347.7479306397362
 20
5.227846870410075
 30
-25.98018519505845
 70
   192
  0
VERTEX
  5
1181
  8
0
 10
355.2093977728096
 20
5.252430860383282
 30
-25.2474174841898
 70
   192
  0
VERTEX
  5
1182
  8
0
 10
359.0
 20
-1.26596628595905
 30
-25.3947685126425
 70
   192
  0
VERTEX
  5
1183
  8
0
 10
355.0796072281395
 20
-7.856690706350266
 30
-25.54474366233593
 70
   192
  0
VERTEX
  5
1184
  8
0
 10
344.5075419870552
 20
1.626035054197006
 30
-19.73196392657106
 70
   192
  0
VERTEX
  5
1185
  8
0
 10
356.8398346842301
 20
-6.599995891258956
 30
-20.23026194279373
 70
   192
  0
VERTEX
  5
1186
  8
0
 10
348.6154156100542
 20
5.68760229654438
 30
-20.72726596919135
 70
   192
  0
VERTEX
  5
1187
  8
0
 10
351.5025996096588
 20
-8.77755497526232
 30
-21.2229332126996
 70
   192
  0
VERTEX
  5
1188
  8
0
 10
355.2766931553144
 20
5.21370451675164
 30
-21.73606511908472
 70
   192
  0
VERTEX
  5
1189
  8
0
 10
359.0
 20
-1.26596628595902
 30
-21.8819789557314
 70
   192
  0
VERTEX
  5
118A
  8
0
 10
355.2085375423907
 20
-7.784854180593408
 30
-22.02919122784437
 70
   192
  0
VERTEX
  5
118B
  8
0
 10
347.844494251746
 20
-7.814770151600948
 30
-22.17259205295095
 70
   192
  0
VERTEX
  5
118C
  8
0
 10
347.747930796322
 20
5.227846765095109
 30
-21.58920363920925
 70
   192
  0
VERTEX
  5
118D
  8
0
 10
359.0
 20
-1.26596628595904
 30
-22.7601625360246
 70
   192
  0
VERTEX
  5
118E
  8
0
 10
355.0328503917706
 20
-7.881564062802089
 30
-22.9111621137274
 70
   192
  0
VERTEX
  5
118F
  8
0
 10
347.7908994565403
 20
-7.784549819513978
 30
-23.05191989599707
 70
   192
  0
VERTEX
  5
1190
  8
0
 10
344.0000000421724
 20
-1.265966287060052
 30
-22.3210689377789
 70
   192
  0
VERTEX
  5
1191
  8
0
 10
347.5350051347927
 20
5.100366372008301
 30
-22.46268287246596
 70
   192
  0
VERTEX
  5
1192
  8
0
 10
355.415807088432
 20
5.130617782524317
 30
-22.61728344781332
 70
   192
  0
VERTEX
  5
1193
  8
0
 10
343.9999999992494
 20
-1.265966285963696
 30
-23.19927773231149
 70
   192
  0
VERTEX
  5
1194
  8
0
 10
347.9181648796578
 20
5.323385773303192
 30
-23.3492026244063
 70
   192
  0
VERTEX
  5
1195
  8
0
 10
355.2514141806443
 20
5.228514116231223
 30
-23.49197292723226
 70
   192
  0
VERTEX
  5
1196
  8
0
 10
359.0
 20
-1.26596628595905
 30
-23.638374921356
 70
   192
  0
VERTEX
  5
1197
  8
0
 10
347.7451203316531
 20
5.223841075784376
 30
-19.83272819954028
 70
   192
  0
VERTEX
  5
1198
  8
0
 10
355.2435745118293
 20
5.233332991408943
 30
-19.97898011986858
 70
   192
  0
VERTEX
  5
1199
  8
0
 10
359.0
 20
-1.26596628595907
 30
-20.125578154195
 70
   192
  0
VERTEX
  5
119A
  8
0
 10
355.2097664776838
 20
5.25222162151456
 30
-20.85644383970309
 70
   192
  0
VERTEX
  5
119B
  8
0
 10
359.0
 20
-1.26596628595905
 30
-21.0037869507181
 70
   192
  0
VERTEX
  5
119C
  8
0
 10
355.082873892074
 20
-7.854909840696314
 30
-21.15369297679883
 70
   192
  0
VERTEX
  5
119D
  8
0
 10
355.4689613832564
 20
-7.629643800574772
 30
-20.26711039888093
 70
   192
  0
VERTEX
  5
119E
  8
0
 10
347.5843341243539
 20
-7.662697937943221
 30
-20.42179407160879
 70
   192
  0
VERTEX
  5
119F
  8
0
 10
343.9999999977261
 20
-1.265966285031649
 30
-20.5646716300135
 70
   192
  0
VERTEX
  5
11A0
  8
0
 10
347.9729382417897
 20
5.352988060250532
 30
-20.71579794687846
 70
   192
  0
VERTEX
  5
11A1
  8
0
 10
347.7485017089645
 20
-7.760398071725096
 30
-21.29648395589626
 70
   192
  0
VERTEX
  5
11A2
  8
0
 10
344.0000000000017
 20
-1.26596741340109
 30
-21.44288412029136
 70
   192
  0
VERTEX
  5
11A3
  8
0
 10
349.9824087140975
 20
-8.894549267247392
 30
-19.31101392923039
 70
   192
  0
VERTEX
  5
11A4
  8
0
 10
359.2186623072831
 20
-1.261967900643991
 30
-19.16293255610011
 70
   192
  0
VERTEX
  5
11A5
  8
0
 10
359.286031895394
 20
-1.26371730804804
 30
-19.0575632283065
 70
   192
  0
VERTEX
  5
11A6
  8
0
 10
355.2768524916161
 20
5.213611431416361
 30
-26.12705012377265
 70
   192
  0
VERTEX
  5
11A7
  8
0
 10
359.1233183421518
 20
-1.26228921804891
 30
-19.22616532832771
 70
   192
  0
VERTEX
  5
11A8
  8
0
 10
355.2519147403581
 20
-7.759868450934687
 30
-23.78469774049631
 70
   192
  0
VERTEX
  5
11A9
  8
0
 10
359.0
 20
-1.26596628595905
 30
-19.2472854926055
 70
   192
  0
VERTEX
  5
11AA
  8
0
 10
355.6938913648534
 20
-7.488604299545077
 30
-19.38410882415782
 70
   192
  0
VERTEX
  5
11AB
  8
0
 10
347.7278370135589
 20
-7.746740778938545
 30
-19.54047066963797
 70
   192
  0
VERTEX
  5
11AC
  8
0
 10
344.0000001043327
 20
-1.265966755630018
 30
-19.68645999761574
 70
   192
  0
VERTEX
  5
11AD
  8
0
 10
0.0
 20
0.0
 30
0.0
 70
   128
 71
     1
 72
     2
 73
     3
  0
VERTEX
  5
11AE
  8
0
 10
0.0
 20
0.0
 30
0.0
 70
   128
 71
     3
 72
     4
 73
     1
  0
VERTEX
  5
11AF
  8
0
 10
0.0
 20
0.0
 30
0.0
 70
   128
 71
     5
 72
     6
 73
     7
  0
VERTEX
  5
11B0
  8
0
 10
0.0
 20
0.0
 30
0.0
 70
   128
 71
     7
 72
     8
 73
     5
  0
VERTEX
  5
11B1
  8
0
 10
0.0
 20
0.0
 30
0.0
 70
   128
 71
     2
 72
     5
 73
     9
  0
VERTEX
  5
11B2
  8
0
 10
0.0
 20
0.0
 30
0.0
 70
   128
 71
     9
 72
    10
 73
     2
  0
VERTEX
  5
11B3
  8
0
 10
0.0
 20
0.0
 30
0.0
 70
   128
 71
    11
 72
    12
 73
    13
  0
VERTEX
  5
11B4
  8
0
 10
0.0
 20
0.0
 30
0.0
 70
   128
 71
    13
 72
    14
 73
    11
  0
VERTEX
  5
11B5
  8
0
 10
0.0
 20
0.0
 30
0.0
 70
   128
 71
     6
 72
    11
 73
    15
  0
VERTEX
  5
11B6
  8
0
 10
0.0
 20
0.0
 30
0.0
 70
   128
 71
    15
 72
    16
 73
     6
  0
VERTEX
  5
11B7
  8
0
 10
0.0
 20
0.0
 30
0.0
 70
   128
 71
    17
 72
    18
 73
    19
  0
VERTEX
  5
11B8
  8
0
 10
0.0
 20
0.0
 30
0.0
 70
   128
 71
    19
 72
    20
 73
    17
  0
VERTEX
  5
11B9
  8
0
 10
0.0
 20
0.0
 30
0.0
 70
   128
 71
    12
 72
    17
 73
    21
  0
VERTEX
  5
11BA
  8
0
 10
0.0
 20
0.0
 30
0.0
 70
   128
 71
    21
 72
    22
 73
    12
  0
VERTEX
  5
11BB
  8
0
 10
0.0
 20
0.0
 30
0.0
 70
   128
 71
    23
 72
    24
 73
    25
  0
VERTEX
  5
11BC
  8
0
 10
0.0
 20
0.0
 30
0.0
 70
   128
 71
    25
 72
    26
 73
    23
  0
VERTEX
  5
11BD
  8
0
 10
0.0
 20
0.0
 30
0.0
 70
   128
 71
    18
 72
    23
 73
    27
  0
VERTEX
  5
11BE
  8
0
 10
0.0
 20
0.0
 30
0.0
 70
   128
 71
    27
 72
    28
 73
    18
  0
VERTEX
  5
11BF
  8
0
 10
0.0
 20
0.0
 30
0.0
 70
   128
 71
    29
 72
    30
 73
    31
  0
VERTEX
  5
11C0
  8
0
 10
0.0
 20
0.0
 30
0.0
 70
   128
 71
    32
 72
    31
 73
    30
  0
VERTEX
  5
11C1
  8
0
 10
0.0
 20
0.0
 30
0.0
 70
   128
 71
    30
 72
    33
 73
    32
  0
VERTEX
  5
11C2
  8
0
 10
0.0
 20
0.0
 30
0.0
 70
   128
 71
    24
 72
    32
 73
    34
  0
VERTEX
  5
11C3
  8
0
 10
0.0
 20
0.0
 30
0.0
 70
   128
 71
    34
 72
    35
 73
    24
  0
VERTEX
  5
11C4
  8
0
 10
0.0
 20
0.0
 30
0.0
 70
   128
 71
    36
 72
    37
 73
    38
  0
VERTEX
  5
11C5
  8
0
 10
0.0
 20
0.0
 30
0.0
 70
   128
 71
    31
 72
    38
 73
    39
  0
VERTEX
  5
11C6
  8
0
 10
0.0
 20
0.0
 30
0.0
 70
   128
 71
    40
 72
    41
 73
    42
  0
VERTEX
  5
11C7
  8
0
 10
0.0
 20
0.0
 30
0.0
 70
   128
 71
    41
 72
    43
 73
    42
  0
VERTEX
  5
11C8
  8
0
 10
0.0
 20
0.0
 30
0.0
 70
   128
 71
    44
 72
    45
 73
    43
  0
VERTEX
  5
11C9
  8
0
 10
0.0
 20
0.0
 30
0.0
 70
   128
 71
    43
 72
    41
 73
    44
  0
VERTEX
  5
11CA
  8
0
 10
0.0
 20
0.0
 30
0.0
 70
   128
 71
    46
 72
    47
 73
    48
  0
VERTEX
  5
11CB
  8
0
 10
0.0
 20
0.0
 30
0.0
 70
   128
 71
    48
 72
    49
 73
    46
  0
VERTEX
  5
11CC
  8
0
 10
0.0
 20
0.0
 30
0.0
 70
   128
 71
    49
 72
    50
 73
    46
  0
VERTEX
  5
11CD
  8
0
 10
0.0
 20
0.0
 30
0.0
 70
   128
 71
     1
 72
    51
 73
    52
  0
VERTEX
  5
11CE
  8
0
 10
0.0
 20
0.0
 30
0.0
 70
   128
 71
     2
 72
     1
 73
    52
  0
VERTEX
  5
11CF
  8
0
 10
0.0
 20
0.0
 30
0.0
 70
   128
 71
     5
 72
    53
 73
    54
  0
VERTEX
  5
11D0
  8
0
 10
0.0
 20
0.0
 30
0.0
 70
   128
 71
     6
 72
     5
 73
    54
  0
VERTEX
  5
11D1
  8
0
 10
0.0
 20
0.0
 30
0.0
 70
   128
 71
     2
 72
    52
 73
    53
  0
VERTEX
  5
11D2
  8
0
 10
0.0
 20
0.0
 30
0.0
 70
   128
 71
     5
 72
     2
 73
    53
  0
VERTEX
  5
11D3
  8
0
 10
0.0
 20
0.0
 30
0.0
 70
   128
 71
    11
 72
    55
 73
    56
  0
VERTEX
  5
11D4
  8
0
 10
0.0
 20
0.0
 30
0.0
 70
   128
 71
    12
 72
    11
 73
    56
  0
VERTEX
  5
11D5
  8
0
 10
0.0
 20
0.0
 30
0.0
 70
   128
 71
     6
 72
    54
 73
    55
  0
VERTEX
  5
11D6
  8
0
 10
0.0
 20
0.0
 30
0.0
 70
   128
 71
    11
 72
     6
 73
    55
  0
VERTEX
  5
11D7
  8
0
 10
0.0
 20
0.0
 30
0.0
 70
   128
 71
    17
 72
    57
 73
    58
  0
VERTEX
  5
11D8
  8
0
 10
0.0
 20
0.0
 30
0.0
 70
   128
 71
    18
 72
    17
 73
    58
  0
VERTEX
  5
11D9
  8
0
 10
0.0
 20
0.0
 30
0.0
 70
   128
 71
    12
 72
    56
 73
    57
  0
VERTEX
  5
11DA
  8
0
 10
0.0
 20
0.0
 30
0.0
 70
   128
 71
    17
 72
    12
 73
    57
  0
VERTEX
  5
11DB
  8
0
 10
0.0
 20
0.0
 30
0.0
 70
   128
 71
    59
 72
    60
 73
    23
  0
VERTEX
  5
11DC
  8
0
 10
0.0
 20
0.0
 30
0.0
 70
   128
 71
    60
 72
    24
 73
    23
  0
VERTEX
  5
11DD
  8
0
 10
0.0
 20
0.0
 30
0.0
 70
   128
 71
    18
 72
    58
 73
    61
  0
VERTEX
  5
11DE
  8
0
 10
0.0
 20
0.0
 30
0.0
 70
   128
 71
    23
 72
    18
 73
    61
  0
VERTEX
  5
11DF
  8
0
 10
0.0
 20
0.0
 30
0.0
 70
   128
 71
    62
 72
    63
 73
    32
  0
VERTEX
  5
11E0
  8
0
 10
0.0
 20
0.0
 30
0.0
 70
   128
 71
    63
 72
    31
 73
    32
  0
VERTEX
  5
11E1
  8
0
 10
0.0
 20
0.0
 30
0.0
 70
   128
 71
    31
 72
    63
 73
    64
  0
VERTEX
  5
11E2
  8
0
 10
0.0
 20
0.0
 30
0.0
 70
   128
 71
    65
 72
    66
 73
    24
  0
VERTEX
  5
11E3
  8
0
 10
0.0
 20
0.0
 30
0.0
 70
   128
 71
    24
 72
    66
 73
    67
  0
VERTEX
  5
11E4
  8
0
 10
0.0
 20
0.0
 30
0.0
 70
   128
 71
    67
 72
    68
 73
    24
  0
VERTEX
  5
11E5
  8
0
 10
0.0
 20
0.0
 30
0.0
 70
   128
 71
    68
 72
    32
 73
    24
  0
VERTEX
  5
11E6
  8
0
 10
0.0
 20
0.0
 30
0.0
 70
   128
 71
    69
 72
    70
 73
    38
  0
VERTEX
  5
11E7
  8
0
 10
0.0
 20
0.0
 30
0.0
 70
   128
 71
    38
 72
    70
 73
    71
  0
VERTEX
  5
11E8
  8
0
 10
0.0
 20
0.0
 30
0.0
 70
   128
 71
    72
 72
    73
 73
    31
  0
VERTEX
  5
11E9
  8
0
 10
0.0
 20
0.0
 30
0.0
 70
   128
 71
    31
 72
    73
 73
    74
  0
VERTEX
  5
11EA
  8
0
 10
0.0
 20
0.0
 30
0.0
 70
   128
 71
    74
 72
    38
 73
    31
  0
VERTEX
  5
11EB
  8
0
 10
0.0
 20
0.0
 30
0.0
 70
   128
 71
    51
 72
    75
 73
    76
  0
VERTEX
  5
11EC
  8
0
 10
0.0
 20
0.0
 30
0.0
 70
   128
 71
    52
 72
    51
 73
    76
  0
VERTEX
  5
11ED
  8
0
 10
0.0
 20
0.0
 30
0.0
 70
   128
 71
    53
 72
    77
 73
    78
  0
VERTEX
  5
11EE
  8
0
 10
0.0
 20
0.0
 30
0.0
 70
   128
 71
    54
 72
    53
 73
    78
  0
VERTEX
  5
11EF
  8
0
 10
0.0
 20
0.0
 30
0.0
 70
   128
 71
    52
 72
    76
 73
    77
  0
VERTEX
  5
11F0
  8
0
 10
0.0
 20
0.0
 30
0.0
 70
   128
 71
    53
 72
    52
 73
    77
  0
VERTEX
  5
11F1
  8
0
 10
0.0
 20
0.0
 30
0.0
 70
   128
 71
    79
 72
    80
 73
    55
  0
VERTEX
  5
11F2
  8
0
 10
0.0
 20
0.0
 30
0.0
 70
   128
 71
    55
 72
    80
 73
    81
  0
VERTEX
  5
11F3
  8
0
 10
0.0
 20
0.0
 30
0.0
 70
   128
 71
    81
 72
    82
 73
    55
  0
VERTEX
  5
11F4
  8
0
 10
0.0
 20
0.0
 30
0.0
 70
   128
 71
    82
 72
    56
 73
    55
  0
VERTEX
  5
11F5
  8
0
 10
0.0
 20
0.0
 30
0.0
 70
   128
 71
    83
 72
    55
 73
    54
  0
VERTEX
  5
11F6
  8
0
 10
0.0
 20
0.0
 30
0.0
 70
   128
 71
    84
 72
    85
 73
    57
  0
VERTEX
  5
11F7
  8
0
 10
0.0
 20
0.0
 30
0.0
 70
   128
 71
    57
 72
    85
 73
    86
  0
VERTEX
  5
11F8
  8
0
 10
0.0
 20
0.0
 30
0.0
 70
   128
 71
    86
 72
    58
 73
    57
  0
VERTEX
  5
11F9
  8
0
 10
0.0
 20
0.0
 30
0.0
 70
   128
 71
    87
 72
    88
 73
    56
  0
VERTEX
  5
11FA
  8
0
 10
0.0
 20
0.0
 30
0.0
 70
   128
 71
    88
 72
    57
 73
    56
  0
VERTEX
  5
11FB
  8
0
 10
0.0
 20
0.0
 30
0.0
 70
   128
 71
    57
 72
    88
 73
    89
  0
VERTEX
  5
11FC
  8
0
 10
0.0
 20
0.0
 30
0.0
 70
   128
 71
    90
 72
    91
 73
    58
  0
VERTEX
  5
11FD
  8
0
 10
0.0
 20
0.0
 30
0.0
 70
   128
 71
    58
 72
    91
 73
    92
  0
VERTEX
  5
11FE
  8
0
 10
0.0
 20
0.0
 30
0.0
 70
   128
 71
    92
 72
    93
 73
    58
  0
VERTEX
  5
11FF
  8
0
 10
0.0
 20
0.0
 30
0.0
 70
   128
 71
    93
 72
    61
 73
    58
  0
VERTEX
  5
1200
  8
0
 10
0.0
 20
0.0
 30
0.0
 70
   128
 71
    94
 72
    95
 73
    75
  0
VERTEX
  5
1201
  8
0
 10
0.0
 20
0.0
 30
0.0
 70
   128
 71
    75
 72
    95
 73
    96
  0
VERTEX
  5
1202
  8
0
 10
0.0
 20
0.0
 30
0.0
 70
   128
 71
    96
 72
    76
 73
    75
  0
VERTEX
  5
1203
  8
0
 10
0.0
 20
0.0
 30
0.0
 70
   128
 71
    97
 72
    98
 73
    77
  0
VERTEX
  5
1204
  8
0
 10
0.0
 20
0.0
 30
0.0
 70
   128
 71
    98
 72
    78
 73
    77
  0
VERTEX
  5
1205
  8
0
 10
0.0
 20
0.0
 30
0.0
 70
   128
 71
    78
 72
    98
 73
    99
  0
VERTEX
  5
1206
  8
0
 10
0.0
 20
0.0
 30
0.0
 70
   128
 71
   100
 72
   101
 73
    76
  0
VERTEX
  5
1207
  8
0
 10
0.0
 20
0.0
 30
0.0
 70
   128
 71
    76
 72
   101
 73
   102
  0
VERTEX
  5
1208
  8
0
 10
0.0
 20
0.0
 30
0.0
 70
   128
 71
   102
 72
   103
 73
    76
  0
VERTEX
  5
1209
  8
0
 10
0.0
 20
0.0
 30
0.0
 70
   128
 71
   103
 72
    77
 73
    76
  0
VERTEX
  5
120A
  8
0
 10
0.0
 20
0.0
 30
0.0
 70
   128
 71
   104
 72
   105
 73
    78
  0
VERTEX
  5
120B
  8
0
 10
0.0
 20
0.0
 30
0.0
 70
   128
 71
   106
 72
     1
 73
     4
  0
VERTEX
  5
120C
  8
0
 10
0.0
 20
0.0
 30
0.0
 70
   128
 71
     3
 72
     2
 73
    10
  0
VERTEX
  5
120D
  8
0
 10
0.0
 20
0.0
 30
0.0
 70
   128
 71
   107
 72
     1
 73
   106
  0
VERTEX
  5
120E
  8
0
 10
0.0
 20
0.0
 30
0.0
 70
   128
 71
   106
 72
   108
 73
   107
  0
VERTEX
  5
120F
  8
0
 10
0.0
 20
0.0
 30
0.0
 70
   128
 71
     9
 72
     5
 73
     8
  0
VERTEX
  5
1210
  8
0
 10
0.0
 20
0.0
 30
0.0
 70
   128
 71
     7
 72
     6
 73
    16
  0
VERTEX
  5
1211
  8
0
 10
0.0
 20
0.0
 30
0.0
 70
   128
 71
    15
 72
    11
 73
    14
  0
VERTEX
  5
1212
  8
0
 10
0.0
 20
0.0
 30
0.0
 70
   128
 71
    13
 72
    12
 73
    22
  0
VERTEX
  5
1213
  8
0
 10
0.0
 20
0.0
 30
0.0
 70
   128
 71
    21
 72
    17
 73
    20
  0
VERTEX
  5
1214
  8
0
 10
0.0
 20
0.0
 30
0.0
 70
   128
 71
    19
 72
    18
 73
    28
  0
VERTEX
  5
1215
  8
0
 10
0.0
 20
0.0
 30
0.0
 70
   128
 71
    27
 72
    23
 73
    26
  0
VERTEX
  5
1216
  8
0
 10
0.0
 20
0.0
 30
0.0
 70
   128
 71
    25
 72
    24
 73
    35
  0
VERTEX
  5
1217
  8
0
 10
0.0
 20
0.0
 30
0.0
 70
   128
 71
    34
 72
    32
 73
    33
  0
VERTEX
  5
1218
  8
0
 10
0.0
 20
0.0
 30
0.0
 70
   128
 71
    29
 72
    31
 73
    39
  0
VERTEX
  5
1219
  8
0
 10
0.0
 20
0.0
 30
0.0
 70
   128
 71
    39
 72
    38
 73
    37
  0
VERTEX
  5
121A
  8
0
 10
0.0
 20
0.0
 30
0.0
 70
   128
 71
    36
 72
    38
 73
    71
  0
VERTEX
  5
121B
  8
0
 10
0.0
 20
0.0
 30
0.0
 70
   128
 71
    71
 72
   109
 73
    36
  0
VERTEX
  5
121C
  8
0
 10
0.0
 20
0.0
 30
0.0
 70
   128
 71
   109
 72
    48
 73
    47
  0
VERTEX
  5
121D
  8
0
 10
0.0
 20
0.0
 30
0.0
 70
   128
 71
    36
 72
   109
 73
    47
  0
VERTEX
  5
121E
  8
0
 10
0.0
 20
0.0
 30
0.0
 70
   128
 71
    42
 72
    46
 73
    50
  0
VERTEX
  5
121F
  8
0
 10
0.0
 20
0.0
 30
0.0
 70
   128
 71
    50
 72
    40
 73
    42
  0
VERTEX
  5
1220
  8
0
 10
0.0
 20
0.0
 30
0.0
 70
   128
 71
   110
 72
    51
 73
     1
  0
VERTEX
  5
1221
  8
0
 10
0.0
 20
0.0
 30
0.0
 70
   128
 71
   107
 72
   110
 73
     1
  0
VERTEX
  5
1222
  8
0
 10
0.0
 20
0.0
 30
0.0
 70
   128
 71
    24
 72
    60
 73
    65
  0
VERTEX
  5
1223
  8
0
 10
0.0
 20
0.0
 30
0.0
 70
   128
 71
    23
 72
    61
 73
   111
  0
VERTEX
  5
1224
  8
0
 10
0.0
 20
0.0
 30
0.0
 70
   128
 71
   111
 72
    59
 73
    23
  0
VERTEX
  5
1225
  8
0
 10
0.0
 20
0.0
 30
0.0
 70
   128
 71
    31
 72
    64
 73
    72
  0
VERTEX
  5
1226
  8
0
 10
0.0
 20
0.0
 30
0.0
 70
   128
 71
    32
 72
    68
 73
    62
  0
VERTEX
  5
1227
  8
0
 10
0.0
 20
0.0
 30
0.0
 70
   128
 71
    38
 72
    74
 73
    69
  0
VERTEX
  5
1228
  8
0
 10
0.0
 20
0.0
 30
0.0
 70
   128
 71
   110
 72
   112
 73
   113
  0
VERTEX
  5
1229
  8
0
 10
0.0
 20
0.0
 30
0.0
 70
   128
 71
   113
 72
   114
 73
   110
  0
VERTEX
  5
122A
  8
0
 10
0.0
 20
0.0
 30
0.0
 70
   128
 71
   114
 72
   115
 73
   110
  0
VERTEX
  5
122B
  8
0
 10
0.0
 20
0.0
 30
0.0
 70
   128
 71
   115
 72
    51
 73
   110
  0
VERTEX
  5
122C
  8
0
 10
0.0
 20
0.0
 30
0.0
 70
   128
 71
   115
 72
    75
 73
    51
  0
VERTEX
  5
122D
  8
0
 10
0.0
 20
0.0
 30
0.0
 70
   128
 71
    56
 72
    82
 73
    87
  0
VERTEX
  5
122E
  8
0
 10
0.0
 20
0.0
 30
0.0
 70
   128
 71
    55
 72
    83
 73
    79
  0
VERTEX
  5
122F
  8
0
 10
0.0
 20
0.0
 30
0.0
 70
   128
 71
    54
 72
    78
 73
   105
  0
VERTEX
  5
1230
  8
0
 10
0.0
 20
0.0
 30
0.0
 70
   128
 71
   105
 72
    83
 73
    54
  0
VERTEX
  5
1231
  8
0
 10
0.0
 20
0.0
 30
0.0
 70
   128
 71
    58
 72
    86
 73
    90
  0
VERTEX
  5
1232
  8
0
 10
0.0
 20
0.0
 30
0.0
 70
   128
 71
    57
 72
    89
 73
    84
  0
VERTEX
  5
1233
  8
0
 10
0.0
 20
0.0
 30
0.0
 70
   128
 71
    61
 72
    93
 73
   111
  0
VERTEX
  5
1234
  8
0
 10
0.0
 20
0.0
 30
0.0
 70
   128
 71
    76
 72
    96
 73
   100
  0
VERTEX
  5
1235
  8
0
 10
0.0
 20
0.0
 30
0.0
 70
   128
 71
    75
 72
   115
 73
    94
  0
VERTEX
  5
1236
  8
0
 10
0.0
 20
0.0
 30
0.0
 70
   128
 71
    78
 72
    99
 73
   104
  0
VERTEX
  5
1237
  8
0
 10
0.0
 20
0.0
 30
0.0
 70
   128
 71
    77
 72
   103
 73
    97
  0
SEQEND
  5
143B
  8
0
  0
POLYLINE
  5
1238
  8
0
 66
     1
 10
0.0
 20
0.0
 30
0.0
 70
    64
 71
     9
 72
     7
  0
VERTEX
  5
1239
  8
0
 10
358.7004958532036
 20
-1.267489179515558
 30
-18.85516513921987
 70
   192
  0
VERTEX
  5
123A
  8
0
 10
358.713968104638
 20
-1.268215263870061
 30
-18.8162035555259
 70
   192
  0
VERTEX
  5
123B
  8
0
 10
358.3826895203882
 20
-3.386282489357411
 30
-18.8562986046511
 70
   192
  0
VERTEX
  5
123C
  8
0
 10
357.4506779832993
 20
-5.321986856023012
 30
-18.89651280486156
 70
   192
  0
VERTEX
  5
123D
  8
0
 10
356.0034856402441
 20
-6.900977590304826
 30
-18.93681725396351
 70
   192
  0
VERTEX
  5
123E
  8
0
 10
357.4423143487392
 20
-5.309164393631439
 30
-18.9368833918954
 70
   192
  0
VERTEX
  5
123F
  8
0
 10
358.362344018019
 20
-3.377175500484093
 30
-18.9368833918954
 70
   192
  0
VERTEX
  5
1240
  8
0
 10
358.689544003156
 20
-1.26596628595941
 30
-18.9368833918954
 70
   192
  0
VERTEX
  5
1241
  8
0
 10
358.6922819656692
 20
-1.266732842516269
 30
-18.89575007555123
 70
   192
  0
VERTEX
  5
1242
  8
0
 10
0.0
 20
0.0
 30
0.0
 70
   128
 71
     1
 72
     2
 73
     3
  0
VERTEX
  5
1243
  8
0
 10
0.0
 20
0.0
 30
0.0
 70
   128
 71
     4
 72
     5
 73
     6
  0
VERTEX
  5
1244
  8
0
 10
0.0
 20
0.0
 30
0.0
 70
   128
 71
     4
 72
     6
 73
     7
  0
VERTEX
  5
1245
  8
0
 10
0.0
 20
0.0
 30
0.0
 70
   128
 71
     3
 72
     4
 73
     7
  0
VERTEX
  5
1246
  8
0
 10
0.0
 20
0.0
 30
0.0
 70
   128
 71
     7
 72
     8
 73
     9
  0
VERTEX
  5
1247
  8
0
 10
0.0
 20
0.0
 30
0.0
 70
   128
 71
     1
 72
     3
 73
     7
  0
VERTEX
  5
1248
  8
0
 10
0.0
 20
0.0
 30
0.0
 70
   128
 71
     9
 72
     1
 73
     7
  0
SEQEND
  5
143C
  8
0
  0
ENDBLK
  5
140D
  8
0
  0
BLOCK
  8
0
  2
*X3
 70
     1
 10
0.0
 20
0.0
 30
0.0
  3
*X3
  1

  0
POLYLINE
  5
124A
  8
0
 66
     1
 10
0.0
 20
0.0
 30
0.0
 70
    64
 71
    18
 72
    16
  0
VERTEX
  5
124B
  8
0
 10
342.224587633329
 20
-1.26596628595905
 30
-42.7188465118928
 70
   192
  0
VERTEX
  5
124C
  8
0
 10
342.224587633329
 20
-1.26596628595905
 30
-31.2188465118928
 70
   192
  0
VERTEX
  5
124D
  8
0
 10
360.724587633329
 20
-1.26596628595905
 30
-31.2188465118928
 70
   192
  0
VERTEX
  5
124E
  8
0
 10
360.724587633329
 20
-1.26596628595905
 30
-42.7188465118928
 70
   192
  0
VERTEX
  5
124F
  8
0
 10
351.474587633329
 20
-10.515966285959
 30
-31.2188465118928
 70
   192
  0
VERTEX
  5
1250
  8
0
 10
351.4745876333291
 20
-10.515966285959
 30
-42.7188465118928
 70
   192
  0
VERTEX
  5
1251
  8
0
 10
358.0153253593045
 20
-7.806704011934584
 30
-31.21884651189279
 70
   192
  0
VERTEX
  5
1252
  8
0
 10
358.0153253593045
 20
-7.806704011934566
 30
-42.71884651189279
 70
   192
  0
VERTEX
  5
1253
  8
0
 10
344.9338499073535
 20
-7.806704011934583
 30
-31.21884651189279
 70
   192
  0
VERTEX
  5
1254
  8
0
 10
344.9338499073534
 20
-7.806704011934597
 30
-42.71884651189279
 70
   192
  0
VERTEX
  5
1255
  8
0
 10
354.8794636967763
 20
-9.866508070786487
 30
-31.2188465118928
 70
   192
  0
VERTEX
  5
1256
  8
0
 10
354.8794636967763
 20
-9.866508070786475
 30
-42.71884651189279
 70
   192
  0
VERTEX
  5
1257
  8
0
 10
360.0751294181564
 20
-4.670842349406357
 30
-31.2188465118928
 70
   192
  0
VERTEX
  5
1258
  8
0
 10
360.0751294181565
 20
-4.670842349406344
 30
-42.7188465118928
 70
   192
  0
VERTEX
  5
1259
  8
0
 10
342.8740458485016
 20
-4.670842349406367
 30
-42.7188465118928
 70
   192
  0
VERTEX
  5
125A
  8
0
 10
342.8740458485016
 20
-4.670842349406358
 30
-31.2188465118928
 70
   192
  0
VERTEX
  5
125B
  8
0
 10
348.0697115698817
 20
-9.866508070786487
 30
-31.2188465118928
 70
   192
  0
VERTEX
  5
125C
  8
0
 10
348.0697115698817
 20
-9.866508070786498
 30
-42.71884651189279
 70
   192
  0
VERTEX
  5
125D
  8
0
 10
0.0
 20
0.0
 30
0.0
 70
   128
 71
     5
 72
     6
 73
   -12
  0
VERTEX
  5
125E
  8
0
 10
0.0
 20
0.0
 30
0.0
 70
   128
 71
    11
 72
    -5
 73
    12
  0
VERTEX
  5
125F
  8
0
 10
0.0
 20
0.0
 30
0.0
 70
   128
 71
     8
 72
     7
 73
   -11
  0
VERTEX
  5
1260
  8
0
 10
0.0
 20
0.0
 30
0.0
 70
   128
 71
    12
 72
    -8
 73
    11
  0
VERTEX
  5
1261
  8
0
 10
0.0
 20
0.0
 30
0.0
 70
   128
 71
     7
 72
     8
 73
   -14
  0
VERTEX
  5
1262
  8
0
 10
0.0
 20
0.0
 30
0.0
 70
   128
 71
    13
 72
    -7
 73
    14
  0
VERTEX
  5
1263
  8
0
 10
0.0
 20
0.0
 30
0.0
 70
   128
 71
     4
 72
     3
 73
   -13
  0
VERTEX
  5
1264
  8
0
 10
0.0
 20
0.0
 30
0.0
 70
   128
 71
    14
 72
    -4
 73
    13
  0
VERTEX
  5
1265
  8
0
 10
0.0
 20
0.0
 30
0.0
 70
   128
 71
     2
 72
     1
 73
   -15
  0
VERTEX
  5
1266
  8
0
 10
0.0
 20
0.0
 30
0.0
 70
   128
 71
    16
 72
    -2
 73
    15
  0
VERTEX
  5
1267
  8
0
 10
0.0
 20
0.0
 30
0.0
 70
   128
 71
    10
 72
     9
 73
   -16
  0
VERTEX
  5
1268
  8
0
 10
0.0
 20
0.0
 30
0.0
 70
   128
 71
    15
 72
   -10
 73
    16
  0
VERTEX
  5
1269
  8
0
 10
0.0
 20
0.0
 30
0.0
 70
   128
 71
     9
 72
    10
 73
   -18
  0
VERTEX
  5
126A
  8
0
 10
0.0
 20
0.0
 30
0.0
 70
   128
 71
    17
 72
    -9
 73
    18
  0
VERTEX
  5
126B
  8
0
 10
0.0
 20
0.0
 30
0.0
 70
   128
 71
     6
 72
     5
 73
   -17
  0
VERTEX
  5
126C
  8
0
 10
0.0
 20
0.0
 30
0.0
 70
   128
 71
    18
 72
    -6
 73
    17
  0
SEQEND
  5
143F
  8
0
  0
POLYLINE
  5
126D
  8
0
 66
     1
 10
0.0
 20
0.0
 30
0.0
 70
    64
 71
    18
 72
    16
  0
VERTEX
  5
126E
  8
0
 10
360.724587633329
 20
-1.26596628595905
 30
-42.7188465118928
 70
   192
  0
VERTEX
  5
126F
  8
0
 10
360.724587633329
 20
-1.26596628595905
 30
-31.2188465118928
 70
   192
  0
VERTEX
  5
1270
  8
0
 10
342.224587633329
 20
-1.26596628595905
 30
-31.2188465118928
 70
   192
  0
VERTEX
  5
1271
  8
0
 10
342.224587633329
 20
-1.26596628595905
 30
-42.7188465118928
 70
   192
  0
VERTEX
  5
1272
  8
0
 10
351.474587633329
 20
7.984033714040949
 30
-31.2188465118928
 70
   192
  0
VERTEX
  5
1273
  8
0
 10
351.474587633329
 20
7.984033714040949
 30
-42.71884651189281
 70
   192
  0
VERTEX
  5
1274
  8
0
 10
344.9338499073535
 20
5.274771440016518
 30
-31.21884651189279
 70
   192
  0
VERTEX
  5
1275
  8
0
 10
344.9338499073534
 20
5.274771440016501
 30
-42.71884651189279
 70
   192
  0
VERTEX
  5
1276
  8
0
 10
358.0153253593045
 20
5.274771440016519
 30
-31.21884651189279
 70
   192
  0
VERTEX
  5
1277
  8
0
 10
358.0153253593044
 20
5.274771440016533
 30
-42.7188465118928
 70
   192
  0
VERTEX
  5
1278
  8
0
 10
348.0697115698817
 20
7.334575498868431
 30
-31.2188465118928
 70
   192
  0
VERTEX
  5
1279
  8
0
 10
348.0697115698816
 20
7.334575498868419
 30
-42.71884651189279
 70
   192
  0
VERTEX
  5
127A
  8
0
 10
342.8740458485016
 20
2.138909777488275
 30
-31.2188465118928
 70
   192
  0
VERTEX
  5
127B
  8
0
 10
342.8740458485016
 20
2.138909777488264
 30
-42.71884651189279
 70
   192
  0
VERTEX
  5
127C
  8
0
 10
360.0751294181565
 20
2.138909777488285
 30
-42.7188465118928
 70
   192
  0
VERTEX
  5
127D
  8
0
 10
360.0751294181564
 20
2.138909777488275
 30
-31.2188465118928
 70
   192
  0
VERTEX
  5
127E
  8
0
 10
354.8794636967763
 20
7.334575498868431
 30
-31.2188465118928
 70
   192
  0
VERTEX
  5
127F
  8
0
 10
354.8794636967762
 20
7.334575498868443
 30
-42.71884651189279
 70
   192
  0
VERTEX
  5
1280
  8
0
 10
0.0
 20
0.0
 30
0.0
 70
   128
 71
     5
 72
     6
 73
   -12
  0
VERTEX
  5
1281
  8
0
 10
0.0
 20
0.0
 30
0.0
 70
   128
 71
    11
 72
    -5
 73
    12
  0
VERTEX
  5
1282
  8
0
 10
0.0
 20
0.0
 30
0.0
 70
   128
 71
     8
 72
     7
 73
   -11
  0
VERTEX
  5
1283
  8
0
 10
0.0
 20
0.0
 30
0.0
 70
   128
 71
    12
 72
    -8
 73
    11
  0
VERTEX
  5
1284
  8
0
 10
0.0
 20
0.0
 30
0.0
 70
   128
 71
     7
 72
     8
 73
   -14
  0
VERTEX
  5
1285
  8
0
 10
0.0
 20
0.0
 30
0.0
 70
   128
 71
    13
 72
    -7
 73
    14
  0
VERTEX
  5
1286
  8
0
 10
0.0
 20
0.0
 30
0.0
 70
   128
 71
     4
 72
     3
 73
   -13
  0
VERTEX
  5
1287
  8
0
 10
0.0
 20
0.0
 30
0.0
 70
   128
 71
    14
 72
    -4
 73
    13
  0
VERTEX
  5
1288
  8
0
 10
0.0
 20
0.0
 30
0.0
 70
   128
 71
     2
 72
     1
 73
   -15
  0
VERTEX
  5
1289
  8
0
 10
0.0
 20
0.0
 30
0.0
 70
   128
 71
    16
 72
    -2
 73
    15
  0
VERTEX
  5
128A
  8
0
 10
0.0
 20
0.0
 30
0.0
 70
   128
 71
    10
 72
     9
 73
   -16
  0
VERTEX
  5
128B
  8
0
 10
0.0
 20
0.0
 30
0.0
 70
   128
 71
    15
 72
   -10
 73
    16
  0
VERTEX
  5
128C
  8
0
 10
0.0
 20
0.0
 30
0.0
 70
   128
 71
     9
 72
    10
 73
   -18
  0
VERTEX
  5
128D
  8
0
 10
0.0
 20
0.0
 30
0.0
 70
   128
 71
    17
 72
    -9
 73
    18
  0
VERTEX
  5
128E
  8
0
 10
0.0
 20
0.0
 30
0.0
 70
   128
 71
     6
 72
     5
 73
   -17
  0
VERTEX
  5
128F
  8
0
 10
0.0
 20
0.0
 30
0.0
 70
   128
 71
    18
 72
    -6
 73
    17
  0
SEQEND
  5
1440
  8
0
  0
POLYLINE
  5
1290
  8
0
 66
     1
 10
0.0
 20
0.0
 30
0.0
 70
    64
 71
    32
 72
    32
  0
VERTEX
  5
1291
  8
0
 10
363.474587633329
 20
-1.26596628595905
 30
-28.7188465118928
 70
   192
  0
VERTEX
  5
1292
  8
0
 10
362.6320472460781
 20
3.151170228783432
 30
-28.7188465118928
 70
   192
  0
VERTEX
  5
1293
  8
0
 10
359.9598690075675
 20
7.219315088279538
 30
-28.71884651189281
 70
   192
  0
VERTEX
  5
1294
  8
0
 10
355.8917241480714
 20
9.891493326790146
 30
-28.7188465118928
 70
   192
  0
VERTEX
  5
1295
  8
0
 10
351.4745876333291
 20
10.734033714041
 30
-28.7188465118928
 70
   192
  0
VERTEX
  5
1296
  8
0
 10
347.0574511185866
 20
9.891493326790178
 30
-28.71884651189281
 70
   192
  0
VERTEX
  5
1297
  8
0
 10
342.9893062590905
 20
7.219315088279581
 30
-28.71884651189281
 70
   192
  0
VERTEX
  5
1298
  8
0
 10
340.3171280205798
 20
3.151170228783458
 30
-28.7188465118928
 70
   192
  0
VERTEX
  5
1299
  8
0
 10
339.474587633329
 20
-1.26596628595905
 30
-28.7188465118928
 70
   192
  0
VERTEX
  5
129A
  8
0
 10
340.3171280205798
 20
-5.683102800701493
 30
-28.7188465118928
 70
   192
  0
VERTEX
  5
129B
  8
0
 10
342.9893062590904
 20
-9.751247660197565
 30
-28.71884651189281
 70
   192
  0
VERTEX
  5
129C
  8
0
 10
347.0574511185865
 20
-12.42342589870815
 30
-28.7188465118928
 70
   192
  0
VERTEX
  5
129D
  8
0
 10
351.474587633329
 20
-13.265966285959
 30
-28.7188465118928
 70
   192
  0
VERTEX
  5
129E
  8
0
 10
355.8917241480714
 20
-12.42342589870818
 30
-28.71884651189281
 70
   192
  0
VERTEX
  5
129F
  8
0
 10
359.9598690075675
 20
-9.75124766019761
 30
-28.71884651189281
 70
   192
  0
VERTEX
  5
12A0
  8
0
 10
362.6320472460781
 20
-5.683102800701519
 30
-28.7188465118928
 70
   192
  0
VERTEX
  5
12A1
  8
0
 10
343.974587633329
 20
-1.26596628595905
 30
-28.7188465118928
 70
   192
  0
VERTEX
  5
12A2
  8
0
 10
344.5011753753608
 20
1.494744035754975
 30
-28.71884651189281
 70
   192
  0
VERTEX
  5
12A3
  8
0
 10
346.17128677443
 20
4.037334572940015
 30
-28.71884651189281
 70
   192
  0
VERTEX
  5
12A4
  8
0
 10
348.713877311615
 20
5.707445972009122
 30
-28.71884651189281
 70
   192
  0
VERTEX
  5
12A5
  8
0
 10
351.474587633329
 20
6.23403371404089
 30
-28.7188465118928
 70
   192
  0
VERTEX
  5
12A6
  8
0
 10
354.2352979550429
 20
5.70744597200912
 30
-28.71884651189281
 70
   192
  0
VERTEX
  5
12A7
  8
0
 10
356.777888492228
 20
4.037334572940013
 30
-28.7188465118928
 70
   192
  0
VERTEX
  5
12A8
  8
0
 10
358.4479998912971
 20
1.494744035754975
 30
-28.71884651189281
 70
   192
  0
VERTEX
  5
12A9
  8
0
 10
358.974587633329
 20
-1.26596628595905
 30
-28.7188465118928
 70
   192
  0
VERTEX
  5
12AA
  8
0
 10
358.4479998912971
 20
-4.026676607673095
 30
-28.71884651189281
 70
   192
  0
VERTEX
  5
12AB
  8
0
 10
356.777888492228
 20
-6.569267144858156
 30
-28.71884651189281
 70
   192
  0
VERTEX
  5
12AC
  8
0
 10
354.2352979550429
 20
-8.239378543927275
 30
-28.71884651189281
 70
   192
  0
VERTEX
  5
12AD
  8
0
 10
351.474587633329
 20
-8.765966285959049
 30
-28.7188465118928
 70
   192
  0
VERTEX
  5
12AE
  8
0
 10
348.713877311615
 20
-8.239378543927275
 30
-28.71884651189281
 70
   192
  0
VERTEX
  5
12AF
  8
0
 10
346.1712867744299
 20
-6.569267144858153
 30
-28.7188465118928
 70
   192
  0
VERTEX
  5
12B0
  8
0
 10
344.5011753753608
 20
-4.026676607673095
 30
-28.71884651189281
 70
   192
  0
VERTEX
  5
12B1
  8
0
 10
0.0
 20
0.0
 30
0.0
 70
   128
 71
    -9
 72
    17
 73
   -18
  0
VERTEX
  5
12B2
  8
0
 10
0.0
 20
0.0
 30
0.0
 70
   128
 71
     8
 72
    -9
 73
   -18
  0
VERTEX
  5
12B3
  8
0
 10
0.0
 20
0.0
 30
0.0
 70
   128
 71
   -19
 72
     7
 73
    -8
  0
VERTEX
  5
12B4
  8
0
 10
0.0
 20
0.0
 30
0.0
 70
   128
 71
    18
 72
   -19
 73
    -8
  0
VERTEX
  5
12B5
  8
0
 10
0.0
 20
0.0
 30
0.0
 70
   128
 71
   -20
 72
     6
 73
    -7
  0
VERTEX
  5
12B6
  8
0
 10
0.0
 20
0.0
 30
0.0
 70
   128
 71
    19
 72
   -20
 73
    -7
  0
VERTEX
  5
12B7
  8
0
 10
0.0
 20
0.0
 30
0.0
 70
   128
 71
   -21
 72
     5
 73
    -6
  0
VERTEX
  5
12B8
  8
0
 10
0.0
 20
0.0
 30
0.0
 70
   128
 71
    20
 72
   -21
 73
    -6
  0
VERTEX
  5
12B9
  8
0
 10
0.0
 20
0.0
 30
0.0
 70
   128
 71
   -22
 72
     4
 73
    -5
  0
VERTEX
  5
12BA
  8
0
 10
0.0
 20
0.0
 30
0.0
 70
   128
 71
    21
 72
   -22
 73
    -5
  0
VERTEX
  5
12BB
  8
0
 10
0.0
 20
0.0
 30
0.0
 70
   128
 71
   -23
 72
     3
 73
    -4
  0
VERTEX
  5
12BC
  8
0
 10
0.0
 20
0.0
 30
0.0
 70
   128
 71
    22
 72
   -23
 73
    -4
  0
VERTEX
  5
12BD
  8
0
 10
0.0
 20
0.0
 30
0.0
 70
   128
 71
   -24
 72
     2
 73
    -3
  0
VERTEX
  5
12BE
  8
0
 10
0.0
 20
0.0
 30
0.0
 70
   128
 71
    23
 72
   -24
 73
    -3
  0
VERTEX
  5
12BF
  8
0
 10
0.0
 20
0.0
 30
0.0
 70
   128
 71
   -25
 72
     1
 73
    -2
  0
VERTEX
  5
12C0
  8
0
 10
0.0
 20
0.0
 30
0.0
 70
   128
 71
    24
 72
   -25
 73
    -2
  0
VERTEX
  5
12C1
  8
0
 10
0.0
 20
0.0
 30
0.0
 70
   128
 71
   -26
 72
    16
 73
    -1
  0
VERTEX
  5
12C2
  8
0
 10
0.0
 20
0.0
 30
0.0
 70
   128
 71
    25
 72
   -26
 73
    -1
  0
VERTEX
  5
12C3
  8
0
 10
0.0
 20
0.0
 30
0.0
 70
   128
 71
   -27
 72
    15
 73
   -16
  0
VERTEX
  5
12C4
  8
0
 10
0.0
 20
0.0
 30
0.0
 70
   128
 71
    26
 72
   -27
 73
   -16
  0
VERTEX
  5
12C5
  8
0
 10
0.0
 20
0.0
 30
0.0
 70
   128
 71
   -28
 72
    14
 73
   -15
  0
VERTEX
  5
12C6
  8
0
 10
0.0
 20
0.0
 30
0.0
 70
   128
 71
    27
 72
   -28
 73
   -15
  0
VERTEX
  5
12C7
  8
0
 10
0.0
 20
0.0
 30
0.0
 70
   128
 71
   -29
 72
    13
 73
   -14
  0
VERTEX
  5
12C8
  8
0
 10
0.0
 20
0.0
 30
0.0
 70
   128
 71
    28
 72
   -29
 73
   -14
  0
VERTEX
  5
12C9
  8
0
 10
0.0
 20
0.0
 30
0.0
 70
   128
 71
   -30
 72
    12
 73
   -13
  0
VERTEX
  5
12CA
  8
0
 10
0.0
 20
0.0
 30
0.0
 70
   128
 71
    29
 72
   -30
 73
   -13
  0
VERTEX
  5
12CB
  8
0
 10
0.0
 20
0.0
 30
0.0
 70
   128
 71
   -31
 72
    11
 73
   -12
  0
VERTEX
  5
12CC
  8
0
 10
0.0
 20
0.0
 30
0.0
 70
   128
 71
    30
 72
   -31
 73
   -12
  0
VERTEX
  5
12CD
  8
0
 10
0.0
 20
0.0
 30
0.0
 70
   128
 71
   -32
 72
    10
 73
   -11
  0
VERTEX
  5
12CE
  8
0
 10
0.0
 20
0.0
 30
0.0
 70
   128
 71
    31
 72
   -32
 73
   -11
  0
VERTEX
  5
12CF
  8
0
 10
0.0
 20
0.0
 30
0.0
 70
   128
 71
   -17
 72
     9
 73
   -10
  0
VERTEX
  5
12D0
  8
0
 10
0.0
 20
0.0
 30
0.0
 70
   128
 71
    32
 72
   -17
 73
   -10
  0
SEQEND
  5
1441
  8
0
  0
POLYLINE
  5
12D1
  8
0
 66
     1
 10
0.0
 20
0.0
 30
0.0
 70
    64
 71
    18
 72
    16
  0
VERTEX
  5
12D2
  8
0
 10
363.474587633329
 20
-1.26596628595905
 30
-31.2188465118928
 70
   192
  0
VERTEX
  5
12D3
  8
0
 10
363.474587633329
 20
-1.26596628595905
 30
-28.7188465118928
 70
   192
  0
VERTEX
  5
12D4
  8
0
 10
339.474587633329
 20
-1.26596628595905
 30
-28.7188465118928
 70
   192
  0
VERTEX
  5
12D5
  8
0
 10
339.474587633329
 20
-1.26596628595905
 30
-31.2188465118928
 70
   192
  0
VERTEX
  5
12D6
  8
0
 10
351.4745876333291
 20
10.734033714041
 30
-28.7188465118928
 70
   192
  0
VERTEX
  5
12D7
  8
0
 10
351.474587633329
 20
10.734033714041
 30
-31.2188465118928
 70
   192
  0
VERTEX
  5
12D8
  8
0
 10
342.9893062590905
 20
7.219315088279581
 30
-28.71884651189281
 70
   192
  0
VERTEX
  5
12D9
  8
0
 10
342.9893062590904
 20
7.219315088279538
 30
-31.21884651189279
 70
   192
  0
VERTEX
  5
12DA
  8
0
 10
340.3171280205798
 20
3.151170228783458
 30
-28.7188465118928
 70
   192
  0
VERTEX
  5
12DB
  8
0
 10
340.3171280205798
 20
3.151170228783431
 30
-31.21884651189279
 70
   192
  0
VERTEX
  5
12DC
  8
0
 10
347.0574511185866
 20
9.891493326790178
 30
-28.71884651189281
 70
   192
  0
VERTEX
  5
12DD
  8
0
 10
347.0574511185865
 20
9.891493326790144
 30
-31.21884651189279
 70
   192
  0
VERTEX
  5
12DE
  8
0
 10
359.9598690075675
 20
7.219315088279538
 30
-28.71884651189281
 70
   192
  0
VERTEX
  5
12DF
  8
0
 10
359.9598690075675
 20
7.219315088279581
 30
-31.2188465118928
 70
   192
  0
VERTEX
  5
12E0
  8
0
 10
355.8917241480714
 20
9.891493326790146
 30
-28.7188465118928
 70
   192
  0
VERTEX
  5
12E1
  8
0
 10
355.8917241480714
 20
9.891493326790178
 30
-31.2188465118928
 70
   192
  0
VERTEX
  5
12E2
  8
0
 10
362.6320472460781
 20
3.151170228783432
 30
-28.7188465118928
 70
   192
  0
VERTEX
  5
12E3
  8
0
 10
362.6320472460781
 20
3.151170228783457
 30
-31.21884651189279
 70
   192
  0
VERTEX
  5
12E4
  8
0
 10
0.0
 20
0.0
 30
0.0
 70
   128
 71
     9
 72
     7
 73
    -8
  0
VERTEX
  5
12E5
  8
0
 10
0.0
 20
0.0
 30
0.0
 70
   128
 71
    10
 72
    -9
 73
     8
  0
VERTEX
  5
12E6
  8
0
 10
0.0
 20
0.0
 30
0.0
 70
   128
 71
     3
 72
     9
 73
   -10
  0
VERTEX
  5
12E7
  8
0
 10
0.0
 20
0.0
 30
0.0
 70
   128
 71
     4
 72
    -3
 73
    10
  0
VERTEX
  5
12E8
  8
0
 10
0.0
 20
0.0
 30
0.0
 70
   128
 71
    11
 72
     5
 73
    -6
  0
VERTEX
  5
12E9
  8
0
 10
0.0
 20
0.0
 30
0.0
 70
   128
 71
    12
 72
   -11
 73
     6
  0
VERTEX
  5
12EA
  8
0
 10
0.0
 20
0.0
 30
0.0
 70
   128
 71
     7
 72
    11
 73
   -12
  0
VERTEX
  5
12EB
  8
0
 10
0.0
 20
0.0
 30
0.0
 70
   128
 71
     8
 72
    -7
 73
    12
  0
VERTEX
  5
12EC
  8
0
 10
0.0
 20
0.0
 30
0.0
 70
   128
 71
    15
 72
    13
 73
   -14
  0
VERTEX
  5
12ED
  8
0
 10
0.0
 20
0.0
 30
0.0
 70
   128
 71
    16
 72
   -15
 73
    14
  0
VERTEX
  5
12EE
  8
0
 10
0.0
 20
0.0
 30
0.0
 70
   128
 71
     5
 72
    15
 73
   -16
  0
VERTEX
  5
12EF
  8
0
 10
0.0
 20
0.0
 30
0.0
 70
   128
 71
     6
 72
    -5
 73
    16
  0
VERTEX
  5
12F0
  8
0
 10
0.0
 20
0.0
 30
0.0
 70
   128
 71
    17
 72
     2
 73
    -1
  0
VERTEX
  5
12F1
  8
0
 10
0.0
 20
0.0
 30
0.0
 70
   128
 71
    18
 72
   -17
 73
     1
  0
VERTEX
  5
12F2
  8
0
 10
0.0
 20
0.0
 30
0.0
 70
   128
 71
    13
 72
    17
 73
   -18
  0
VERTEX
  5
12F3
  8
0
 10
0.0
 20
0.0
 30
0.0
 70
   128
 71
    14
 72
   -13
 73
    18
  0
SEQEND
  5
1442
  8
0
  0
POLYLINE
  5
12F4
  8
0
 66
     1
 10
0.0
 20
0.0
 30
0.0
 70
    64
 71
    18
 72
    16
  0
VERTEX
  5
12F5
  8
0
 10
339.474587633329
 20
-1.26596628595905
 30
-31.2188465118928
 70
   192
  0
VERTEX
  5
12F6
  8
0
 10
339.474587633329
 20
-1.26596628595905
 30
-28.7188465118928
 70
   192
  0
VERTEX
  5
12F7
  8
0
 10
363.474587633329
 20
-1.26596628595905
 30
-28.7188465118928
 70
   192
  0
VERTEX
  5
12F8
  8
0
 10
363.474587633329
 20
-1.26596628595905
 30
-31.2188465118928
 70
   192
  0
VERTEX
  5
12F9
  8
0
 10
351.474587633329
 20
-13.265966285959
 30
-28.7188465118928
 70
   192
  0
VERTEX
  5
12FA
  8
0
 10
351.4745876333291
 20
-13.265966285959
 30
-31.2188465118928
 70
   192
  0
VERTEX
  5
12FB
  8
0
 10
359.9598690075675
 20
-9.75124766019761
 30
-28.71884651189281
 70
   192
  0
VERTEX
  5
12FC
  8
0
 10
359.9598690075675
 20
-9.751247660197564
 30
-31.21884651189279
 70
   192
  0
VERTEX
  5
12FD
  8
0
 10
362.6320472460781
 20
-5.683102800701519
 30
-28.7188465118928
 70
   192
  0
VERTEX
  5
12FE
  8
0
 10
362.6320472460781
 20
-5.683102800701493
 30
-31.21884651189279
 70
   192
  0
VERTEX
  5
12FF
  8
0
 10
355.8917241480714
 20
-12.42342589870818
 30
-28.71884651189281
 70
   192
  0
VERTEX
  5
1300
  8
0
 10
355.8917241480714
 20
-12.42342589870815
 30
-31.21884651189279
 70
   192
  0
VERTEX
  5
1301
  8
0
 10
342.9893062590904
 20
-9.751247660197565
 30
-28.71884651189281
 70
   192
  0
VERTEX
  5
1302
  8
0
 10
342.9893062590905
 20
-9.751247660197606
 30
-31.2188465118928
 70
   192
  0
VERTEX
  5
1303
  8
0
 10
347.0574511185865
 20
-12.42342589870815
 30
-28.7188465118928
 70
   192
  0
VERTEX
  5
1304
  8
0
 10
347.0574511185866
 20
-12.42342589870818
 30
-31.2188465118928
 70
   192
  0
VERTEX
  5
1305
  8
0
 10
340.3171280205798
 20
-5.683102800701493
 30
-28.7188465118928
 70
   192
  0
VERTEX
  5
1306
  8
0
 10
340.3171280205798
 20
-5.683102800701517
 30
-31.21884651189279
 70
   192
  0
VERTEX
  5
1307
  8
0
 10
0.0
 20
0.0
 30
0.0
 70
   128
 71
     9
 72
     7
 73
    -8
  0
VERTEX
  5
1308
  8
0
 10
0.0
 20
0.0
 30
0.0
 70
   128
 71
    10
 72
    -9
 73
     8
  0
VERTEX
  5
1309
  8
0
 10
0.0
 20
0.0
 30
0.0
 70
   128
 71
     3
 72
     9
 73
   -10
  0
VERTEX
  5
130A
  8
0
 10
0.0
 20
0.0
 30
0.0
 70
   128
 71
     4
 72
    -3
 73
    10
  0
VERTEX
  5
130B
  8
0
 10
0.0
 20
0.0
 30
0.0
 70
   128
 71
    11
 72
     5
 73
    -6
  0
VERTEX
  5
130C
  8
0
 10
0.0
 20
0.0
 30
0.0
 70
   128
 71
    12
 72
   -11
 73
     6
  0
VERTEX
  5
130D
  8
0
 10
0.0
 20
0.0
 30
0.0
 70
   128
 71
     7
 72
    11
 73
   -12
  0
VERTEX
  5
130E
  8
0
 10
0.0
 20
0.0
 30
0.0
 70
   128
 71
     8
 72
    -7
 73
    12
  0
VERTEX
  5
130F
  8
0
 10
0.0
 20
0.0
 30
0.0
 70
   128
 71
    15
 72
    13
 73
   -14
  0
VERTEX
  5
1310
  8
0
 10
0.0
 20
0.0
 30
0.0
 70
   128
 71
    16
 72
   -15
 73
    14
  0
VERTEX
  5
1311
  8
0
 10
0.0
 20
0.0
 30
0.0
 70
   128
 71
     5
 72
    15
 73
   -16
  0
VERTEX
  5
1312
  8
0
 10
0.0
 20
0.0
 30
0.0
 70
   128
 71
     6
 72
    -5
 73
    16
  0
VERTEX
  5
1313
  8
0
 10
0.0
 20
0.0
 30
0.0
 70
   128
 71
    17
 72
     2
 73
    -1
  0
VERTEX
  5
1314
  8
0
 10
0.0
 20
0.0
 30
0.0
 70
   128
 71
    18
 72
   -17
 73
     1
  0
VERTEX
  5
1315
  8
0
 10
0.0
 20
0.0
 30
0.0
 70
   128
 71
    13
 72
    17
 73
   -18
  0
VERTEX
  5
1316
  8
0
 10
0.0
 20
0.0
 30
0.0
 70
   128
 71
    14
 72
   -13
 73
    18
  0
SEQEND
  5
1443
  8
0
  0
POLYLINE
  5
1317
  8
0
 66
     1
 10
0.0
 20
0.0
 30
0.0
 70
    64
 71
    32
 72
    32
  0
VERTEX
  5
1318
  8
0
 10
339.474587633329
 20
-1.26596628595905
 30
-31.2188465118928
 70
   192
  0
VERTEX
  5
1319
  8
0
 10
340.3171280205798
 20
3.151170228783431
 30
-31.21884651189279
 70
   192
  0
VERTEX
  5
131A
  8
0
 10
342.9893062590904
 20
7.219315088279538
 30
-31.21884651189279
 70
   192
  0
VERTEX
  5
131B
  8
0
 10
347.0574511185865
 20
9.891493326790144
 30
-31.21884651189279
 70
   192
  0
VERTEX
  5
131C
  8
0
 10
351.474587633329
 20
10.734033714041
 30
-31.2188465118928
 70
   192
  0
VERTEX
  5
131D
  8
0
 10
355.8917241480714
 20
9.891493326790178
 30
-31.2188465118928
 70
   192
  0
VERTEX
  5
131E
  8
0
 10
359.9598690075675
 20
7.219315088279581
 30
-31.2188465118928
 70
   192
  0
VERTEX
  5
131F
  8
0
 10
362.6320472460781
 20
3.151170228783457
 30
-31.21884651189279
 70
   192
  0
VERTEX
  5
1320
  8
0
 10
363.474587633329
 20
-1.26596628595905
 30
-31.2188465118928
 70
   192
  0
VERTEX
  5
1321
  8
0
 10
362.6320472460781
 20
-5.683102800701493
 30
-31.21884651189279
 70
   192
  0
VERTEX
  5
1322
  8
0
 10
359.9598690075675
 20
-9.751247660197564
 30
-31.21884651189279
 70
   192
  0
VERTEX
  5
1323
  8
0
 10
355.8917241480714
 20
-12.42342589870815
 30
-31.21884651189279
 70
   192
  0
VERTEX
  5
1324
  8
0
 10
351.4745876333291
 20
-13.265966285959
 30
-31.2188465118928
 70
   192
  0
VERTEX
  5
1325
  8
0
 10
347.0574511185866
 20
-12.42342589870818
 30
-31.2188465118928
 70
   192
  0
VERTEX
  5
1326
  8
0
 10
342.9893062590905
 20
-9.751247660197606
 30
-31.2188465118928
 70
   192
  0
VERTEX
  5
1327
  8
0
 10
340.3171280205798
 20
-5.683102800701517
 30
-31.21884651189279
 70
   192
  0
VERTEX
  5
1328
  8
0
 10
360.724587633329
 20
-1.26596628595905
 30
-31.2188465118928
 70
   192
  0
VERTEX
  5
1329
  8
0
 10
360.0751294181564
 20
2.138909777488275
 30
-31.2188465118928
 70
   192
  0
VERTEX
  5
132A
  8
0
 10
358.0153253593045
 20
5.274771440016519
 30
-31.21884651189279
 70
   192
  0
VERTEX
  5
132B
  8
0
 10
354.8794636967763
 20
7.334575498868431
 30
-31.2188465118928
 70
   192
  0
VERTEX
  5
132C
  8
0
 10
351.474587633329
 20
7.984033714040949
 30
-31.2188465118928
 70
   192
  0
VERTEX
  5
132D
  8
0
 10
348.0697115698817
 20
7.334575498868431
 30
-31.2188465118928
 70
   192
  0
VERTEX
  5
132E
  8
0
 10
344.9338499073535
 20
5.274771440016518
 30
-31.21884651189279
 70
   192
  0
VERTEX
  5
132F
  8
0
 10
342.8740458485016
 20
2.138909777488275
 30
-31.2188465118928
 70
   192
  0
VERTEX
  5
1330
  8
0
 10
342.224587633329
 20
-1.26596628595905
 30
-31.2188465118928
 70
   192
  0
VERTEX
  5
1331
  8
0
 10
342.8740458485016
 20
-4.670842349406358
 30
-31.2188465118928
 70
   192
  0
VERTEX
  5
1332
  8
0
 10
344.9338499073535
 20
-7.806704011934583
 30
-31.21884651189279
 70
   192
  0
VERTEX
  5
1333
  8
0
 10
348.0697115698817
 20
-9.866508070786487
 30
-31.2188465118928
 70
   192
  0
VERTEX
  5
1334
  8
0
 10
351.474587633329
 20
-10.515966285959
 30
-31.2188465118928
 70
   192
  0
VERTEX
  5
1335
  8
0
 10
354.8794636967763
 20
-9.866508070786487
 30
-31.2188465118928
 70
   192
  0
VERTEX
  5
1336
  8
0
 10
358.0153253593045
 20
-7.806704011934584
 30
-31.21884651189279
 70
   192
  0
VERTEX
  5
1337
  8
0
 10
360.0751294181564
 20
-4.670842349406357
 30
-31.2188465118928
 70
   192
  0
VERTEX
  5
1338
  8
0
 10
0.0
 20
0.0
 30
0.0
 70
   128
 71
    -9
 72
    17
 73
   -18
  0
VERTEX
  5
1339
  8
0
 10
0.0
 20
0.0
 30
0.0
 70
   128
 71
     8
 72
    -9
 73
   -18
  0
VERTEX
  5
133A
  8
0
 10
0.0
 20
0.0
 30
0.0
 70
   128
 71
   -19
 72
     7
 73
    -8
  0
VERTEX
  5
133B
  8
0
 10
0.0
 20
0.0
 30
0.0
 70
   128
 71
    18
 72
   -19
 73
    -8
  0
VERTEX
  5
133C
  8
0
 10
0.0
 20
0.0
 30
0.0
 70
   128
 71
   -20
 72
     6
 73
    -7
  0
VERTEX
  5
133D
  8
0
 10
0.0
 20
0.0
 30
0.0
 70
   128
 71
    19
 72
   -20
 73
    -7
  0
VERTEX
  5
133E
  8
0
 10
0.0
 20
0.0
 30
0.0
 70
   128
 71
   -21
 72
     5
 73
    -6
  0
VERTEX
  5
133F
  8
0
 10
0.0
 20
0.0
 30
0.0
 70
   128
 71
    20
 72
   -21
 73
    -6
  0
VERTEX
  5
1340
  8
0
 10
0.0
 20
0.0
 30
0.0
 70
   128
 71
   -22
 72
     4
 73
    -5
  0
VERTEX
  5
1341
  8
0
 10
0.0
 20
0.0
 30
0.0
 70
   128
 71
    21
 72
   -22
 73
    -5
  0
VERTEX
  5
1342
  8
0
 10
0.0
 20
0.0
 30
0.0
 70
   128
 71
   -23
 72
     3
 73
    -4
  0
VERTEX
  5
1343
  8
0
 10
0.0
 20
0.0
 30
0.0
 70
   128
 71
    22
 72
   -23
 73
    -4
  0
VERTEX
  5
1344
  8
0
 10
0.0
 20
0.0
 30
0.0
 70
   128
 71
   -24
 72
     2
 73
    -3
  0
VERTEX
  5
1345
  8
0
 10
0.0
 20
0.0
 30
0.0
 70
   128
 71
    23
 72
   -24
 73
    -3
  0
VERTEX
  5
1346
  8
0
 10
0.0
 20
0.0
 30
0.0
 70
   128
 71
   -25
 72
     1
 73
    -2
  0
VERTEX
  5
1347
  8
0
 10
0.0
 20
0.0
 30
0.0
 70
   128
 71
    24
 72
   -25
 73
    -2
  0
VERTEX
  5
1348
  8
0
 10
0.0
 20
0.0
 30
0.0
 70
   128
 71
   -26
 72
    16
 73
    -1
  0
VERTEX
  5
1349
  8
0
 10
0.0
 20
0.0
 30
0.0
 70
   128
 71
    25
 72
   -26
 73
    -1
  0
VERTEX
  5
134A
  8
0
 10
0.0
 20
0.0
 30
0.0
 70
   128
 71
   -27
 72
    15
 73
   -16
  0
VERTEX
  5
134B
  8
0
 10
0.0
 20
0.0
 30
0.0
 70
   128
 71
    26
 72
   -27
 73
   -16
  0
VERTEX
  5
134C
  8
0
 10
0.0
 20
0.0
 30
0.0
 70
   128
 71
   -28
 72
    14
 73
   -15
  0
VERTEX
  5
134D
  8
0
 10
0.0
 20
0.0
 30
0.0
 70
   128
 71
    27
 72
   -28
 73
   -15
  0
VERTEX
  5
134E
  8
0
 10
0.0
 20
0.0
 30
0.0
 70
   128
 71
   -29
 72
    13
 73
   -14
  0
VERTEX
  5
134F
  8
0
 10
0.0
 20
0.0
 30
0.0
 70
   128
 71
    28
 72
   -29
 73
   -14
  0
VERTEX
  5
1350
  8
0
 10
0.0
 20
0.0
 30
0.0
 70
   128
 71
   -30
 72
    12
 73
   -13
  0
VERTEX
  5
1351
  8
0
 10
0.0
 20
0.0
 30
0.0
 70
   128
 71
    29
 72
   -30
 73
   -13
  0
VERTEX
  5
1352
  8
0
 10
0.0
 20
0.0
 30
0.0
 70
   128
 71
   -31
 72
    11
 73
   -12
  0
VERTEX
  5
1353
  8
0
 10
0.0
 20
0.0
 30
0.0
 70
   128
 71
    30
 72
   -31
 73
   -12
  0
VERTEX
  5
1354
  8
0
 10
0.0
 20
0.0
 30
0.0
 70
   128
 71
   -32
 72
    10
 73
   -11
  0
VERTEX
  5
1355
  8
0
 10
0.0
 20
0.0
 30
0.0
 70
   128
 71
    31
 72
   -32
 73
   -11
  0
VERTEX
  5
1356
  8
0
 10
0.0
 20
0.0
 30
0.0
 70
   128
 71
   -17
 72
     9
 73
   -10
  0
VERTEX
  5
1357
  8
0
 10
0.0
 20
0.0
 30
0.0
 70
   128
 71
    32
 72
   -17
 73
   -10
  0
SEQEND
  5
1444
  8
0
  0
POLYLINE
  5
1358
  8
0
 66
     1
 10
0.0
 20
0.0
 30
0.0
 70
    64
 71
    32
 72
    32
  0
VERTEX
  5
1359
  8
0
 10
360.724587633329
 20
-1.26596628595905
 30
-42.7188465118928
 70
   192
  0
VERTEX
  5
135A
  8
0
 10
360.0751294181565
 20
-4.670842349406344
 30
-42.7188465118928
 70
   192
  0
VERTEX
  5
135B
  8
0
 10
358.0153253593045
 20
-7.806704011934566
 30
-42.71884651189279
 70
   192
  0
VERTEX
  5
135C
  8
0
 10
354.8794636967763
 20
-9.866508070786475
 30
-42.71884651189279
 70
   192
  0
VERTEX
  5
135D
  8
0
 10
351.4745876333291
 20
-10.515966285959
 30
-42.7188465118928
 70
   192
  0
VERTEX
  5
135E
  8
0
 10
348.0697115698817
 20
-9.866508070786498
 30
-42.71884651189279
 70
   192
  0
VERTEX
  5
135F
  8
0
 10
344.9338499073534
 20
-7.806704011934597
 30
-42.71884651189279
 70
   192
  0
VERTEX
  5
1360
  8
0
 10
342.8740458485016
 20
-4.670842349406367
 30
-42.7188465118928
 70
   192
  0
VERTEX
  5
1361
  8
0
 10
342.224587633329
 20
-1.26596628595905
 30
-42.7188465118928
 70
   192
  0
VERTEX
  5
1362
  8
0
 10
342.8740458485016
 20
2.138909777488264
 30
-42.71884651189279
 70
   192
  0
VERTEX
  5
1363
  8
0
 10
344.9338499073534
 20
5.274771440016501
 30
-42.71884651189279
 70
   192
  0
VERTEX
  5
1364
  8
0
 10
348.0697115698816
 20
7.334575498868419
 30
-42.71884651189279
 70
   192
  0
VERTEX
  5
1365
  8
0
 10
351.474587633329
 20
7.984033714040949
 30
-42.71884651189281
 70
   192
  0
VERTEX
  5
1366
  8
0
 10
354.8794636967762
 20
7.334575498868443
 30
-42.71884651189279
 70
   192
  0
VERTEX
  5
1367
  8
0
 10
358.0153253593044
 20
5.274771440016533
 30
-42.7188465118928
 70
   192
  0
VERTEX
  5
1368
  8
0
 10
360.0751294181565
 20
2.138909777488285
 30
-42.7188465118928
 70
   192
  0
VERTEX
  5
1369
  8
0
 10
358.974587633329
 20
-1.26596628595905
 30
-42.7188465118928
 70
   192
  0
VERTEX
  5
136A
  8
0
 10
358.4479998912971
 20
1.494744035754998
 30
-42.7188465118928
 70
   192
  0
VERTEX
  5
136B
  8
0
 10
356.777888492228
 20
4.037334572940059
 30
-42.7188465118928
 70
   192
  0
VERTEX
  5
136C
  8
0
 10
354.2352979550429
 20
5.707445972009178
 30
-42.7188465118928
 70
   192
  0
VERTEX
  5
136D
  8
0
 10
351.474587633329
 20
6.234033714040949
 30
-42.7188465118928
 70
   192
  0
VERTEX
  5
136E
  8
0
 10
348.713877311615
 20
5.707445972009178
 30
-42.71884651189279
 70
   192
  0
VERTEX
  5
136F
  8
0
 10
346.1712867744299
 20
4.037334572940058
 30
-42.7188465118928
 70
   192
  0
VERTEX
  5
1370
  8
0
 10
344.5011753753608
 20
1.494744035754997
 30
-42.7188465118928
 70
   192
  0
VERTEX
  5
1371
  8
0
 10
343.974587633329
 20
-1.26596628595905
 30
-42.7188465118928
 70
   192
  0
VERTEX
  5
1372
  8
0
 10
344.5011753753608
 20
-4.026676607673095
 30
-42.7188465118928
 70
   192
  0
VERTEX
  5
1373
  8
0
 10
346.17128677443
 20
-6.569267144858156
 30
-42.7188465118928
 70
   192
  0
VERTEX
  5
1374
  8
0
 10
348.713877311615
 20
-8.239378543927275
 30
-42.7188465118928
 70
   192
  0
VERTEX
  5
1375
  8
0
 10
351.474587633329
 20
-8.765966285959049
 30
-42.7188465118928
 70
   192
  0
VERTEX
  5
1376
  8
0
 10
354.2352979550429
 20
-8.239378543927275
 30
-42.71884651189279
 70
   192
  0
VERTEX
  5
1377
  8
0
 10
356.777888492228
 20
-6.569267144858156
 30
-42.7188465118928
 70
   192
  0
VERTEX
  5
1378
  8
0
 10
358.4479998912971
 20
-4.026676607673094
 30
-42.7188465118928
 70
   192
  0
VERTEX
  5
1379
  8
0
 10
0.0
 20
0.0
 30
0.0
 70
   128
 71
    -1
 72
    17
 73
   -18
  0
VERTEX
  5
137A
  8
0
 10
0.0
 20
0.0
 30
0.0
 70
   128
 71
    16
 72
    -1
 73
   -18
  0
VERTEX
  5
137B
  8
0
 10
0.0
 20
0.0
 30
0.0
 70
   128
 71
   -19
 72
    15
 73
   -16
  0
VERTEX
  5
137C
  8
0
 10
0.0
 20
0.0
 30
0.0
 70
   128
 71
    18
 72
   -19
 73
   -16
  0
VERTEX
  5
137D
  8
0
 10
0.0
 20
0.0
 30
0.0
 70
   128
 71
   -20
 72
    14
 73
   -15
  0
VERTEX
  5
137E
  8
0
 10
0.0
 20
0.0
 30
0.0
 70
   128
 71
    19
 72
   -20
 73
   -15
  0
VERTEX
  5
137F
  8
0
 10
0.0
 20
0.0
 30
0.0
 70
   128
 71
   -21
 72
    13
 73
   -14
  0
VERTEX
  5
1380
  8
0
 10
0.0
 20
0.0
 30
0.0
 70
   128
 71
    20
 72
   -21
 73
   -14
  0
VERTEX
  5
1381
  8
0
 10
0.0
 20
0.0
 30
0.0
 70
   128
 71
   -22
 72
    12
 73
   -13
  0
VERTEX
  5
1382
  8
0
 10
0.0
 20
0.0
 30
0.0
 70
   128
 71
    21
 72
   -22
 73
   -13
  0
VERTEX
  5
1383
  8
0
 10
0.0
 20
0.0
 30
0.0
 70
   128
 71
   -23
 72
    11
 73
   -12
  0
VERTEX
  5
1384
  8
0
 10
0.0
 20
0.0
 30
0.0
 70
   128
 71
    22
 72
   -23
 73
   -12
  0
VERTEX
  5
1385
  8
0
 10
0.0
 20
0.0
 30
0.0
 70
   128
 71
   -24
 72
    10
 73
   -11
  0
VERTEX
  5
1386
  8
0
 10
0.0
 20
0.0
 30
0.0
 70
   128
 71
    23
 72
   -24
 73
   -11
  0
VERTEX
  5
1387
  8
0
 10
0.0
 20
0.0
 30
0.0
 70
   128
 71
   -25
 72
     9
 73
   -10
  0
VERTEX
  5
1388
  8
0
 10
0.0
 20
0.0
 30
0.0
 70
   128
 71
    24
 72
   -25
 73
   -10
  0
VERTEX
  5
1389
  8
0
 10
0.0
 20
0.0
 30
0.0
 70
   128
 71
   -26
 72
     8
 73
    -9
  0
VERTEX
  5
138A
  8
0
 10
0.0
 20
0.0
 30
0.0
 70
   128
 71
    25
 72
   -26
 73
    -9
  0
VERTEX
  5
138B
  8
0
 10
0.0
 20
0.0
 30
0.0
 70
   128
 71
   -27
 72
     7
 73
    -8
  0
VERTEX
  5
138C
  8
0
 10
0.0
 20
0.0
 30
0.0
 70
   128
 71
    26
 72
   -27
 73
    -8
  0
VERTEX
  5
138D
  8
0
 10
0.0
 20
0.0
 30
0.0
 70
   128
 71
   -28
 72
     6
 73
    -7
  0
VERTEX
  5
138E
  8
0
 10
0.0
 20
0.0
 30
0.0
 70
   128
 71
    27
 72
   -28
 73
    -7
  0
VERTEX
  5
138F
  8
0
 10
0.0
 20
0.0
 30
0.0
 70
   128
 71
   -29
 72
     5
 73
    -6
  0
VERTEX
  5
1390
  8
0
 10
0.0
 20
0.0
 30
0.0
 70
   128
 71
    28
 72
   -29
 73
    -6
  0
VERTEX
  5
1391
  8
0
 10
0.0
 20
0.0
 30
0.0
 70
   128
 71
   -30
 72
     4
 73
    -5
  0
VERTEX
  5
1392
  8
0
 10
0.0
 20
0.0
 30
0.0
 70
   128
 71
    29
 72
   -30
 73
    -5
  0
VERTEX
  5
1393
  8
0
 10
0.0
 20
0.0
 30
0.0
 70
   128
 71
   -31
 72
     3
 73
    -4
  0
VERTEX
  5
1394
  8
0
 10
0.0
 20
0.0
 30
0.0
 70
   128
 71
    30
 72
   -31
 73
    -4
  0
VERTEX
  5
1395
  8
0
 10
0.0
 20
0.0
 30
0.0
 70
   128
 71
   -32
 72
     2
 73
    -3
  0
VERTEX
  5
1396
  8
0
 10
0.0
 20
0.0
 30
0.0
 70
   128
 71
    31
 72
   -32
 73
    -3
  0
VERTEX
  5
1397
  8
0
 10
0.0
 20
0.0
 30
0.0
 70
   128
 71
   -17
 72
     1
 73
    -2
  0
VERTEX
  5
1398
  8
0
 10
0.0
 20
0.0
 30
0.0
 70
   128
 71
    32
 72
   -17
 73
    -2
  0
SEQEND
  5
1445
  8
0
  0
POLYLINE
  5
1399
  8
0
 66
     1
 10
0.0
 20
0.0
 30
0.0
 70
    64
 71
    18
 72
    16
  0
VERTEX
  5
139A
  8
0
 10
358.974587633329
 20
-1.26596628595905
 30
-42.7188465118928
 70
   192
  0
VERTEX
  5
139B
  8
0
 10
343.974587633329
 20
-1.26596628595905
 30
-42.7188465118928
 70
   192
  0
VERTEX
  5
139C
  8
0
 10
343.974587633329
 20
-1.26596628595905
 30
-28.7188465118928
 70
   192
  0
VERTEX
  5
139D
  8
0
 10
358.974587633329
 20
-1.26596628595905
 30
-28.7188465118928
 70
   192
  0
VERTEX
  5
139E
  8
0
 10
351.474587633329
 20
6.23403371404089
 30
-28.7188465118928
 70
   192
  0
VERTEX
  5
139F
  8
0
 10
351.474587633329
 20
6.234033714040949
 30
-42.7188465118928
 70
   192
  0
VERTEX
  5
13A0
  8
0
 10
346.17128677443
 20
4.037334572940015
 30
-28.71884651189281
 70
   192
  0
VERTEX
  5
13A1
  8
0
 10
346.1712867744299
 20
4.037334572940058
 30
-42.7188465118928
 70
   192
  0
VERTEX
  5
13A2
  8
0
 10
356.777888492228
 20
4.037334572940013
 30
-28.7188465118928
 70
   192
  0
VERTEX
  5
13A3
  8
0
 10
356.777888492228
 20
4.037334572940059
 30
-42.7188465118928
 70
   192
  0
VERTEX
  5
13A4
  8
0
 10
348.713877311615
 20
5.707445972009178
 30
-42.71884651189279
 70
   192
  0
VERTEX
  5
13A5
  8
0
 10
348.713877311615
 20
5.707445972009122
 30
-28.71884651189281
 70
   192
  0
VERTEX
  5
13A6
  8
0
 10
344.5011753753608
 20
1.494744035754997
 30
-42.7188465118928
 70
   192
  0
VERTEX
  5
13A7
  8
0
 10
344.5011753753608
 20
1.494744035754975
 30
-28.71884651189281
 70
   192
  0
VERTEX
  5
13A8
  8
0
 10
358.4479998912971
 20
1.494744035754975
 30
-28.71884651189281
 70
   192
  0
VERTEX
  5
13A9
  8
0
 10
358.4479998912971
 20
1.494744035754998
 30
-42.7188465118928
 70
   192
  0
VERTEX
  5
13AA
  8
0
 10
354.2352979550429
 20
5.707445972009178
 30
-42.7188465118928
 70
   192
  0
VERTEX
  5
13AB
  8
0
 10
354.2352979550429
 20
5.70744597200912
 30
-28.71884651189281
 70
   192
  0
VERTEX
  5
13AC
  8
0
 10
0.0
 20
0.0
 30
0.0
 70
   128
 71
     6
 72
     5
 73
   -12
  0
VERTEX
  5
13AD
  8
0
 10
0.0
 20
0.0
 30
0.0
 70
   128
 71
    11
 72
    -6
 73
    12
  0
VERTEX
  5
13AE
  8
0
 10
0.0
 20
0.0
 30
0.0
 70
   128
 71
     7
 72
     8
 73
   -11
  0
VERTEX
  5
13AF
  8
0
 10
0.0
 20
0.0
 30
0.0
 70
   128
 71
    12
 72
    -7
 73
    11
  0
VERTEX
  5
13B0
  8
0
 10
0.0
 20
0.0
 30
0.0
 70
   128
 71
     8
 72
     7
 73
   -14
  0
VERTEX
  5
13B1
  8
0
 10
0.0
 20
0.0
 30
0.0
 70
   128
 71
    13
 72
    -8
 73
    14
  0
VERTEX
  5
13B2
  8
0
 10
0.0
 20
0.0
 30
0.0
 70
   128
 71
     3
 72
     2
 73
   -13
  0
VERTEX
  5
13B3
  8
0
 10
0.0
 20
0.0
 30
0.0
 70
   128
 71
    14
 72
    -3
 73
    13
  0
VERTEX
  5
13B4
  8
0
 10
0.0
 20
0.0
 30
0.0
 70
   128
 71
     1
 72
     4
 73
   -15
  0
VERTEX
  5
13B5
  8
0
 10
0.0
 20
0.0
 30
0.0
 70
   128
 71
    16
 72
    -1
 73
    15
  0
VERTEX
  5
13B6
  8
0
 10
0.0
 20
0.0
 30
0.0
 70
   128
 71
     9
 72
    10
 73
   -16
  0
VERTEX
  5
13B7
  8
0
 10
0.0
 20
0.0
 30
0.0
 70
   128
 71
    15
 72
    -9
 73
    16
  0
VERTEX
  5
13B8
  8
0
 10
0.0
 20
0.0
 30
0.0
 70
   128
 71
    10
 72
     9
 73
   -18
  0
VERTEX
  5
13B9
  8
0
 10
0.0
 20
0.0
 30
0.0
 70
   128
 71
    17
 72
   -10
 73
    18
  0
VERTEX
  5
13BA
  8
0
 10
0.0
 20
0.0
 30
0.0
 70
   128
 71
     5
 72
     6
 73
   -17
  0
VERTEX
  5
13BB
  8
0
 10
0.0
 20
0.0
 30
0.0
 70
   128
 71
    18
 72
    -5
 73
    17
  0
SEQEND
  5
1446
  8
0
  0
POLYLINE
  5
13BC
  8
0
 66
     1
 10
0.0
 20
0.0
 30
0.0
 70
    64
 71
    18
 72
    16
  0
VERTEX
  5
13BD
  8
0
 10
343.974587633329
 20
-1.26596628595905
 30
-42.7188465118928
 70
   192
  0
VERTEX
  5
13BE
  8
0
 10
358.974587633329
 20
-1.26596628595905
 30
-42.7188465118928
 70
   192
  0
VERTEX
  5
13BF
  8
0
 10
358.974587633329
 20
-1.26596628595905
 30
-28.7188465118928
 70
   192
  0
VERTEX
  5
13C0
  8
0
 10
343.974587633329
 20
-1.26596628595905
 30
-28.7188465118928
 70
   192
  0
VERTEX
  5
13C1
  8
0
 10
351.474587633329
 20
-8.765966285959049
 30
-28.7188465118928
 70
   192
  0
VERTEX
  5
13C2
  8
0
 10
351.474587633329
 20
-8.765966285959049
 30
-42.7188465118928
 70
   192
  0
VERTEX
  5
13C3
  8
0
 10
356.777888492228
 20
-6.569267144858156
 30
-28.71884651189281
 70
   192
  0
VERTEX
  5
13C4
  8
0
 10
356.777888492228
 20
-6.569267144858156
 30
-42.7188465118928
 70
   192
  0
VERTEX
  5
13C5
  8
0
 10
346.1712867744299
 20
-6.569267144858153
 30
-28.7188465118928
 70
   192
  0
VERTEX
  5
13C6
  8
0
 10
346.17128677443
 20
-6.569267144858156
 30
-42.7188465118928
 70
   192
  0
VERTEX
  5
13C7
  8
0
 10
354.2352979550429
 20
-8.239378543927275
 30
-42.71884651189279
 70
   192
  0
VERTEX
  5
13C8
  8
0
 10
354.2352979550429
 20
-8.239378543927275
 30
-28.71884651189281
 70
   192
  0
VERTEX
  5
13C9
  8
0
 10
358.4479998912971
 20
-4.026676607673094
 30
-42.7188465118928
 70
   192
  0
VERTEX
  5
13CA
  8
0
 10
358.4479998912971
 20
-4.026676607673095
 30
-28.71884651189281
 70
   192
  0
VERTEX
  5
13CB
  8
0
 10
344.5011753753608
 20
-4.026676607673095
 30
-28.71884651189281
 70
   192
  0
VERTEX
  5
13CC
  8
0
 10
344.5011753753608
 20
-4.026676607673095
 30
-42.7188465118928
 70
   192
  0
VERTEX
  5
13CD
  8
0
 10
348.713877311615
 20
-8.239378543927275
 30
-42.7188465118928
 70
   192
  0
VERTEX
  5
13CE
  8
0
 10
348.713877311615
 20
-8.239378543927275
 30
-28.71884651189281
 70
   192
  0
VERTEX
  5
13CF
  8
0
 10
0.0
 20
0.0
 30
0.0
 70
   128
 71
     6
 72
     5
 73
   -12
  0
VERTEX
  5
13D0
  8
0
 10
0.0
 20
0.0
 30
0.0
 70
   128
 71
    11
 72
    -6
 73
    12
  0
VERTEX
  5
13D1
  8
0
 10
0.0
 20
0.0
 30
0.0
 70
   128
 71
     7
 72
     8
 73
   -11
  0
VERTEX
  5
13D2
  8
0
 10
0.0
 20
0.0
 30
0.0
 70
   128
 71
    12
 72
    -7
 73
    11
  0
VERTEX
  5
13D3
  8
0
 10
0.0
 20
0.0
 30
0.0
 70
   128
 71
     8
 72
     7
 73
   -14
  0
VERTEX
  5
13D4
  8
0
 10
0.0
 20
0.0
 30
0.0
 70
   128
 71
    13
 72
    -8
 73
    14
  0
VERTEX
  5
13D5
  8
0
 10
0.0
 20
0.0
 30
0.0
 70
   128
 71
     3
 72
     2
 73
   -13
  0
VERTEX
  5
13D6
  8
0
 10
0.0
 20
0.0
 30
0.0
 70
   128
 71
    14
 72
    -3
 73
    13
  0
VERTEX
  5
13D7
  8
0
 10
0.0
 20
0.0
 30
0.0
 70
   128
 71
     1
 72
     4
 73
   -15
  0
VERTEX
  5
13D8
  8
0
 10
0.0
 20
0.0
 30
0.0
 70
   128
 71
    16
 72
    -1
 73
    15
  0
VERTEX
  5
13D9
  8
0
 10
0.0
 20
0.0
 30
0.0
 70
   128
 71
     9
 72
    10
 73
   -16
  0
VERTEX
  5
13DA
  8
0
 10
0.0
 20
0.0
 30
0.0
 70
   128
 71
    15
 72
    -9
 73
    16
  0
VERTEX
  5
13DB
  8
0
 10
0.0
 20
0.0
 30
0.0
 70
   128
 71
    10
 72
     9
 73
   -18
  0
VERTEX
  5
13DC
  8
0
 10
0.0
 20
0.0
 30
0.0
 70
   128
 71
    17
 72
   -10
 73
    18
  0
VERTEX
  5
13DD
  8
0
 10
0.0
 20
0.0
 30
0.0
 70
   128
 71
     5
 72
     6
 73
   -17
  0
VERTEX
  5
13DE
  8
0
 10
0.0
 20
0.0
 30
0.0
 70
   128
 71
    18
 72
    -5
 73
    17
  0
SEQEND
  5
1447
  8
0
  0
ENDBLK
  5
143E
  8
0
  0
ENDSEC
  0
SECTION
  2
ENTITIES
  0
INSERT
  5
BE
  8
0
  2
*X1
 10
0.0
 20
0.0
 30
0.0
  0
INSERT
  5
BF
  8
0
  2
*X2
 10
0.0
 20
0.0
 30
0.0
  0
INSERT
  5
C0
  8
0
  2
*X3
 10
0.0
 20
0.0
 30
0.0
  0
ENDSEC
  0
EOF
