  0
SECTION
  2
HEADER
  9
$ACADVER
  1
AC1009
  9
$DWGCODEPAGE
  3
ansi_1250
  9
$INSBASE
 10
0.0
 20
0.0
 30
0.0
  9
$EXTMIN
 10
-209.9957581627749
 20
-0.0000000000000284
 30
-167.4994229200378
  9
$EXTMAX
 10
209.9957550392398
 20
150.0000488799829
 30
167.4994224692889
  9
$LIMMIN
 10
0.0
 20
0.0
  9
$LIMMAX
 10
420.0
 20
297.0
  9
$ORTHOMODE
 70
     0
  9
$REGENMODE
 70
     1
  9
$FILLMODE
 70
     1
  9
$QTEXTMODE
 70
     0
  9
$MIRRTEXT
 70
     0
  9
$DRAGMODE
 70
     2
  9
$LTSCALE
 40
1.0
  9
$OSMODE
 70
   511
  9
$ATTMODE
 70
     1
  9
$TEXTSIZE
 40
2.5
  9
$TRACEWID
 40
1.0
  9
$TEXTSTYLE
  7
STANDARD
  9
$CLAYER
  8
0
  9
$CELTYPE
  6
BYLAYER
  9
$CECOLOR
 62
   256
  9
$DIMSCALE
 40
1.0
  9
$DIMASZ
 40
2.5
  9
$DIMEXO
 40
0.625
  9
$DIMDLI
 40
3.75
  9
$DIMRND
 40
0.0
  9
$DIMDLE
 40
0.0
  9
$DIMEXE
 40
1.25
  9
$DIMTP
 40
0.0
  9
$DIMTM
 40
0.0
  9
$DIMTXT
 40
2.5
  9
$DIMCEN
 40
-2.5
  9
$DIMTSZ
 40
0.0
  9
$DIMTOL
 70
     0
  9
$DIMLIM
 70
     0
  9
$DIMTIH
 70
     0
  9
$DIMTOH
 70
     0
  9
$DIMSE1
 70
     0
  9
$DIMSE2
 70
     0
  9
$DIMTAD
 70
     1
  9
$DIMZIN
 70
     8
  9
$DIMBLK
  1

  9
$DIMASO
 70
     1
  9
$DIMSHO
 70
     1
  9
$DIMPOST
  1

  9
$DIMAPOST
  1

  9
$DIMALT
 70
     0
  9
$DIMALTD
 70
     3
  9
$DIMALTF
 40
0.03937007874016
  9
$DIMLFAC
 40
1.0
  9
$DIMTOFL
 70
     1
  9
$DIMTVP
 40
0.0
  9
$DIMTIX
 70
     0
  9
$DIMSOXD
 70
     0
  9
$DIMSAH
 70
     0
  9
$DIMBLK1
  1

  9
$DIMBLK2
  1

  9
$DIMSTYLE
  2
ISO-25
  9
$DIMCLRD
 70
     0
  9
$DIMCLRE
 70
     0
  9
$DIMCLRT
 70
     0
  9
$DIMTFAC
 40
1.0
  9
$DIMGAP
 40
0.625
  9
$LUNITS
 70
     2
  9
$LUPREC
 70
     3
  9
$SKETCHINC
 40
1.0
  9
$FILLETRAD
 40
10.0
  9
$AUNITS
 70
     0
  9
$AUPREC
 70
     0
  9
$MENU
  1
.
  9
$ELEVATION
 40
0.0
  9
$PELEVATION
 40
0.0
  9
$THICKNESS
 40
0.0
  9
$LIMCHECK
 70
     0
  9
$CHAMFERA
 40
10.0
  9
$CHAMFERB
 40
10.0
  9
$SKPOLY
 70
     0
  9
$TDCREATE
 40
2455022.679026181
  9
$TDUPDATE
 40
2460385.586297917
  9
$TDINDWG
 40
0.267628125
  9
$TDUSRTIMER
 40
0.267628125
  9
$USRTIMER
 70
     1
  9
$ANGBASE
 50
0.0
  9
$ANGDIR
 70
     0
  9
$PDMODE
 70
     0
  9
$PDSIZE
 40
0.0
  9
$PLINEWID
 40
0.0
  9
$COORDS
 70
     1
  9
$SPLFRAME
 70
     0
  9
$SPLINETYPE
 70
     6
  9
$SPLINESEGS
 70
     8
  9
$ATTDIA
 70
     0
  9
$ATTREQ
 70
     1
  9
$HANDLING
 70
     1
  9
$HANDSEED
  5
54D
  9
$SURFTAB1
 70
     6
  9
$SURFTAB2
 70
     6
  9
$SURFTYPE
 70
     6
  9
$SURFU
 70
     6
  9
$SURFV
 70
     6
  9
$UCSNAME
  2

  9
$UCSORG
 10
0.0
 20
0.0
 30
0.0
  9
$UCSXDIR
 10
1.0
 20
0.0
 30
0.0
  9
$UCSYDIR
 10
0.0
 20
1.0
 30
0.0
  9
$PUCSNAME
  2

  9
$PUCSORG
 10
0.0
 20
0.0
 30
0.0
  9
$PUCSXDIR
 10
1.0
 20
0.0
 30
0.0
  9
$PUCSYDIR
 10
0.0
 20
1.0
 30
0.0
  9
$USERI1
 70
     0
  9
$USERI2
 70
     0
  9
$USERI3
 70
     0
  9
$USERI4
 70
     0
  9
$USERI5
 70
     0
  9
$USERR1
 40
0.0
  9
$USERR2
 40
0.0
  9
$USERR3
 40
0.0
  9
$USERR4
 40
0.0
  9
$USERR5
 40
0.0
  9
$WORLDVIEW
 70
     1
  9
$SHADEDGE
 70
     3
  9
$SHADEDIF
 70
    70
  9
$TILEMODE
 70
     1
  9
$MAXACTVP
 70
    64
  9
$PLIMCHECK
 70
     0
  9
$PEXTMIN
 10
1.000000000000000E+20
 20
1.000000000000000E+20
 30
1.000000000000000E+20
  9
$PEXTMAX
 10
-1.000000000000000E+20
 20
-1.000000000000000E+20
 30
-1.000000000000000E+20
  9
$PLIMMIN
 10
0.0
 20
0.0
  9
$PLIMMAX
 10
0.0
 20
0.0
  9
$UNITMODE
 70
     0
  9
$VISRETAIN
 70
     1
  9
$PLINEGEN
 70
     0
  9
$PSLTSCALE
 70
     1
  0
ENDSEC
  0
SECTION
  2
TABLES
  0
TABLE
  2
VPORT
 70
     1
  0
VPORT
  2
*ACTIVE
 70
     0
 10
0.0
 20
0.0
 11
1.0
 21
1.0
 12
145.4832149264695
 22
-20.72560749528253
 13
0.0
 23
0.0
 14
10.0
 24
10.0
 15
10.0
 25
10.0
 16
0.0
 26
0.0
 36
1.0
 17
-145.483216488237
 27
95.72563193527395
 37
48.59305603006358
 40
235.361251943801
 41
1.820143884892086
 42
50.0
 43
0.0
 44
0.0
 50
0.0
 51
0.0
 71
    16
 72
  1000
 73
     1
 74
     3
 75
     0
 76
     0
 77
     0
 78
     0
  0
ENDTAB
  0
TABLE
  2
LTYPE
 70
     1
  0
LTYPE
  2
CONTINUOUS
 70
     0
  3
Solid line
 72
    65
 73
     0
 40
0.0
  0
ENDTAB
  0
TABLE
  2
LAYER
 70
     1
  0
LAYER
  2
0
 70
     0
 62
     7
  6
CONTINUOUS
  0
ENDTAB
  0
TABLE
  2
STYLE
 70
     2
  0
STYLE
  2
STANDARD
 70
     0
 40
0.0
 41
1.0
 50
0.0
 71
     0
 42
2.5
  3
arial.ttf
  4

  0
STYLE
  2
ANNOTATIVE
 70
     0
 40
0.0
 41
1.0
 50
0.0
 71
     0
 42
2.5
  3
arial.ttf
  4

  0
ENDTAB
  0
TABLE
  2
VIEW
 70
     0
  0
ENDTAB
  0
TABLE
  2
UCS
 70
     0
  0
ENDTAB
  0
TABLE
  2
APPID
 70
     2
  0
APPID
  2
ACAD
 70
     0
  0
APPID
  2
ACADANNOTATIVE
 70
     0
  0
ENDTAB
  0
TABLE
  2
DIMSTYLE
 70
     2
  0
DIMSTYLE
  2
ISO-25
 70
     0
  3

  4

  5

  6

  7

 40
1.0
 41
2.5
 42
0.625
 43
3.75
 44
1.25
 45
0.0
 46
0.0
 47
0.0
 48
0.0
140
2.5
141
-2.5
142
0.0
143
0.03937007874016
144
1.0
145
0.0
146
1.0
147
0.625
 71
     0
 72
     0
 73
     0
 74
     0
 75
     0
 76
     0
 77
     1
 78
     8
170
     0
171
     3
172
     1
173
     0
174
     0
175
     0
176
     0
177
     0
178
     0
  0
DIMSTYLE
  2
ANNOTATIVE
 70
     0
  3

  4

  5

  6

  7

 40
0.0
 41
2.5
 42
0.625
 43
3.75
 44
1.25
 45
0.0
 46
0.0
 47
0.0
 48
0.0
140
2.5
141
-2.5
142
0.0
143
0.03937007874016
144
1.0
145
0.0
146
1.0
147
0.625
 71
     0
 72
     0
 73
     0
 74
     0
 75
     0
 76
     0
 77
     1
 78
     8
170
     0
171
     3
172
     1
173
     0
174
     0
175
     0
176
     0
177
     0
178
     0
  0
ENDTAB
  0
ENDSEC
  0
SECTION
  2
BLOCKS
  0
BLOCK
  8
0
  2
$MODEL_SPACE
 70
     0
 10
0.0
 20
0.0
 30
0.0
  3
$MODEL_SPACE
  1

  0
ENDBLK
  5
21
  8
0
  0
BLOCK
 67
     1
  8
0
  2
$PAPER_SPACE
 70
     0
 10
0.0
 20
0.0
 30
0.0
  3
$PAPER_SPACE
  1

  0
ENDBLK
  5
1D
 67
     1
  8
0
  0
BLOCK
  8
0
  2
*X1
 70
     1
 10
0.0
 20
0.0
 30
0.0
  3
*X1
  1

  0
POLYLINE
  5
30D
  8
0
 66
     1
 10
0.0
 20
0.0
 30
0.0
 70
    64
 71
    10
 72
     8
  0
VERTEX
  5
30E
  8
0
 10
0.0000000000000028
 20
5.000000000000003
 30
-22.5
 70
   192
  0
VERTEX
  5
30F
  8
0
 10
-0.0000000000000025
 20
5.000000000000003
 30
22.5
 70
   192
  0
VERTEX
  5
310
  8
0
 10
0.0
 20
10.0
 30
37.5000000000002
 70
   192
  0
VERTEX
  5
311
  8
0
 10
0.0000000000000046
 20
10.0
 30
-37.5000000000002
 70
   192
  0
VERTEX
  5
312
  8
0
 10
-37.50000000000021
 20
10.0
 30
0.0
 70
   192
  0
VERTEX
  5
313
  8
0
 10
-22.5
 20
5.000000000000003
 30
-0.0000000000000025
 70
   192
  0
VERTEX
  5
314
  8
0
 10
-26.51650429449568
 20
10.0
 30
-26.51650429449568
 70
   192
  0
VERTEX
  5
315
  8
0
 10
-15.90990257669732
 20
5.000000000000003
 30
-15.90990257669733
 70
   192
  0
VERTEX
  5
316
  8
0
 10
-26.51650429449568
 20
10.0
 30
26.51650429449568
 70
   192
  0
VERTEX
  5
317
  8
0
 10
-15.90990257669733
 20
5.000000000000003
 30
15.90990257669732
 70
   192
  0
VERTEX
  5
318
  8
0
 10
0.0
 20
0.0
 30
0.0
 70
   128
 71
     8
 72
     1
 73
    -4
  0
VERTEX
  5
319
  8
0
 10
0.0
 20
0.0
 30
0.0
 70
   128
 71
     7
 72
    -8
 73
     4
  0
VERTEX
  5
31A
  8
0
 10
0.0
 20
0.0
 30
0.0
 70
   128
 71
     6
 72
     8
 73
    -7
  0
VERTEX
  5
31B
  8
0
 10
0.0
 20
0.0
 30
0.0
 70
   128
 71
     5
 72
    -6
 73
     7
  0
VERTEX
  5
31C
  8
0
 10
0.0
 20
0.0
 30
0.0
 70
   128
 71
    10
 72
     6
 73
    -5
  0
VERTEX
  5
31D
  8
0
 10
0.0
 20
0.0
 30
0.0
 70
   128
 71
     9
 72
   -10
 73
     5
  0
VERTEX
  5
31E
  8
0
 10
0.0
 20
0.0
 30
0.0
 70
   128
 71
     2
 72
    10
 73
    -9
  0
VERTEX
  5
31F
  8
0
 10
0.0
 20
0.0
 30
0.0
 70
   128
 71
     3
 72
    -2
 73
     9
  0
SEQEND
  5
53E
  8
0
  0
POLYLINE
  5
320
  8
0
 66
     1
 10
0.0
 20
0.0
 30
0.0
 70
    64
 71
    10
 72
     8
  0
VERTEX
  5
321
  8
0
 10
0.0000000000000028
 20
0.0
 30
-22.5
 70
   192
  0
VERTEX
  5
322
  8
0
 10
-0.0000000000000025
 20
0.0
 30
22.5
 70
   192
  0
VERTEX
  5
323
  8
0
 10
-0.0000000000000025
 20
5.000000000000003
 30
22.5
 70
   192
  0
VERTEX
  5
324
  8
0
 10
0.0000000000000028
 20
5.000000000000003
 30
-22.5
 70
   192
  0
VERTEX
  5
325
  8
0
 10
-22.5
 20
5.000000000000003
 30
-0.0000000000000025
 70
   192
  0
VERTEX
  5
326
  8
0
 10
-22.5
 20
0.0
 30
-0.0000000000000025
 70
   192
  0
VERTEX
  5
327
  8
0
 10
-15.90990257669732
 20
5.000000000000003
 30
-15.90990257669733
 70
   192
  0
VERTEX
  5
328
  8
0
 10
-15.90990257669732
 20
0.0
 30
-15.90990257669733
 70
   192
  0
VERTEX
  5
329
  8
0
 10
-15.90990257669733
 20
5.000000000000003
 30
15.90990257669732
 70
   192
  0
VERTEX
  5
32A
  8
0
 10
-15.90990257669733
 20
0.0
 30
15.90990257669732
 70
   192
  0
VERTEX
  5
32B
  8
0
 10
0.0
 20
0.0
 30
0.0
 70
   128
 71
     8
 72
     1
 73
    -4
  0
VERTEX
  5
32C
  8
0
 10
0.0
 20
0.0
 30
0.0
 70
   128
 71
     7
 72
    -8
 73
     4
  0
VERTEX
  5
32D
  8
0
 10
0.0
 20
0.0
 30
0.0
 70
   128
 71
     6
 72
     8
 73
    -7
  0
VERTEX
  5
32E
  8
0
 10
0.0
 20
0.0
 30
0.0
 70
   128
 71
     5
 72
    -6
 73
     7
  0
VERTEX
  5
32F
  8
0
 10
0.0
 20
0.0
 30
0.0
 70
   128
 71
    10
 72
     6
 73
    -5
  0
VERTEX
  5
330
  8
0
 10
0.0
 20
0.0
 30
0.0
 70
   128
 71
     9
 72
   -10
 73
     5
  0
VERTEX
  5
331
  8
0
 10
0.0
 20
0.0
 30
0.0
 70
   128
 71
     2
 72
    10
 73
    -9
  0
VERTEX
  5
332
  8
0
 10
0.0
 20
0.0
 30
0.0
 70
   128
 71
     3
 72
    -2
 73
     9
  0
SEQEND
  5
53F
  8
0
  0
POLYLINE
  5
333
  8
0
 66
     1
 10
0.0
 20
0.0
 30
0.0
 70
    64
 71
    22
 72
    20
  0
VERTEX
  5
334
  8
0
 10
-73.51593540921147
 20
24.03086555397913
 30
98.79432521734921
 70
   192
  0
VERTEX
  5
335
  8
0
 10
-82.17879700279323
 20
-0.0000000000000069
 30
54.13571451647205
 70
   192
  0
VERTEX
  5
336
  8
0
 10
-8.575298655625087
 20
-0.0000000000000069
 30
74.8444019590817
 70
   192
  0
VERTEX
  5
337
  8
0
 10
-23.94258786307236
 20
23.92125188171077
 30
110.38728966774
 70
   192
  0
VERTEX
  5
338
  8
0
 10
-149.5758192892529
 20
24.49239279496826
 30
34.12877764616998
 70
   192
  0
VERTEX
  5
339
  8
0
 10
-155.333214678891
 20
24.67088683441553
 30
-15.91851540852172
 70
   192
  0
VERTEX
  5
33A
  8
0
 10
-146.8374493919146
 20
11.70461855874404
 30
-14.17413781293158
 70
   192
  0
VERTEX
  5
33B
  8
0
 10
-110.7145521064616
 20
0.0000000000000208
 30
28.35882638144432
 70
   192
  0
VERTEX
  5
33C
  8
0
 10
-134.1294739415295
 20
3.041812425050935
 30
-11.56489580680524
 70
   192
  0
VERTEX
  5
33D
  8
0
 10
-119.1420522088468
 20
0.0
 30
-8.48763062785326
 70
   192
  0
VERTEX
  5
33E
  8
0
 10
154.1538103815993
 20
24.68823654513951
 30
20.9102763372949
 70
   192
  0
VERTEX
  5
33F
  8
0
 10
119.1777157362579
 20
0.0
 30
8.312182150352639
 70
   192
  0
VERTEX
  5
340
  8
0
 10
134.1767759743834
 20
3.041653830238602
 30
11.33026769737781
 70
   192
  0
VERTEX
  5
341
  8
0
 10
146.8947387613453
 20
11.70403241980406
 30
13.88935467119813
 70
   192
  0
VERTEX
  5
342
  8
0
 10
155.3974220859538
 20
24.66973791789999
 30
15.6002502370219
 70
   192
  0
VERTEX
  5
343
  8
0
 10
152.5745855709924
 20
24.7044464484836
 30
26.10968791572844
 70
   192
  0
VERTEX
  5
344
  8
0
 10
150.6701376725445
 20
24.71768346591385
 30
31.20191157432458
 70
   192
  0
VERTEX
  5
345
  8
0
 10
120.1002628064387
 20
24.63399898136673
 30
71.85330792881275
 70
   192
  0
VERTEX
  5
346
  8
0
 10
99.22826492611219
 20
-0.0000000000000069
 30
41.01130355627513
 70
   192
  0
VERTEX
  5
347
  8
0
 10
-117.9481015856087
 20
24.27712297323804
 30
73.9243453150912
 70
   192
  0
VERTEX
  5
348
  8
0
 10
66.72101785757619
 20
0.0000000000000069
 30
61.67952999090589
 70
   192
  0
VERTEX
  5
349
  8
0
 10
76.19023344738241
 20
24.30580066879048
 30
97.58624756347837
 70
   192
  0
VERTEX
  5
34A
  8
0
 10
0.0
 20
0.0
 30
0.0
 70
   128
 71
     1
 72
     2
 73
     3
  0
VERTEX
  5
34B
  8
0
 10
0.0
 20
0.0
 30
0.0
 70
   128
 71
     4
 72
     1
 73
     3
  0
VERTEX
  5
34C
  8
0
 10
0.0
 20
0.0
 30
0.0
 70
   128
 71
     5
 72
     6
 73
     7
  0
VERTEX
  5
34D
  8
0
 10
0.0
 20
0.0
 30
0.0
 70
   128
 71
     8
 72
     5
 73
     7
  0
VERTEX
  5
34E
  8
0
 10
0.0
 20
0.0
 30
0.0
 70
   128
 71
     7
 72
     9
 73
     8
  0
VERTEX
  5
34F
  8
0
 10
0.0
 20
0.0
 30
0.0
 70
   128
 71
     9
 72
    10
 73
     8
  0
VERTEX
  5
350
  8
0
 10
0.0
 20
0.0
 30
0.0
 70
   128
 71
    11
 72
    12
 73
    13
  0
VERTEX
  5
351
  8
0
 10
0.0
 20
0.0
 30
0.0
 70
   128
 71
    13
 72
    14
 73
    11
  0
VERTEX
  5
352
  8
0
 10
0.0
 20
0.0
 30
0.0
 70
   128
 71
    14
 72
    15
 73
    11
  0
VERTEX
  5
353
  8
0
 10
0.0
 20
0.0
 30
0.0
 70
   128
 71
    11
 72
    16
 73
    12
  0
VERTEX
  5
354
  8
0
 10
0.0
 20
0.0
 30
0.0
 70
   128
 71
    16
 72
    17
 73
    12
  0
VERTEX
  5
355
  8
0
 10
0.0
 20
0.0
 30
0.0
 70
   128
 71
    18
 72
    19
 73
    12
  0
VERTEX
  5
356
  8
0
 10
0.0
 20
0.0
 30
0.0
 70
   128
 71
    17
 72
    18
 73
    12
  0
VERTEX
  5
357
  8
0
 10
0.0
 20
0.0
 30
0.0
 70
   128
 71
    20
 72
     2
 73
     1
  0
VERTEX
  5
358
  8
0
 10
0.0
 20
0.0
 30
0.0
 70
   128
 71
     3
 72
    21
 73
    22
  0
VERTEX
  5
359
  8
0
 10
0.0
 20
0.0
 30
0.0
 70
   128
 71
     4
 72
     3
 73
    22
  0
VERTEX
  5
35A
  8
0
 10
0.0
 20
0.0
 30
0.0
 70
   128
 71
     2
 72
    20
 73
     5
  0
VERTEX
  5
35B
  8
0
 10
0.0
 20
0.0
 30
0.0
 70
   128
 71
     8
 72
     2
 73
     5
  0
VERTEX
  5
35C
  8
0
 10
0.0
 20
0.0
 30
0.0
 70
   128
 71
    19
 72
    18
 73
    22
  0
VERTEX
  5
35D
  8
0
 10
0.0
 20
0.0
 30
0.0
 70
   128
 71
    21
 72
    19
 73
    22
  0
SEQEND
  5
540
  8
0
  0
POLYLINE
  5
35E
  8
0
 66
     1
 10
0.0
 20
0.0
 30
0.0
 70
    64
 71
    21
 72
    19
  0
VERTEX
  5
35F
  8
0
 10
-116.088367275836
 20
46.66910095013611
 30
-73.08701016035661
 70
   192
  0
VERTEX
  5
360
  8
0
 10
-148.2652423183679
 20
46.88582174558584
 30
-32.71510817529567
 70
   192
  0
VERTEX
  5
361
  8
0
 10
-136.3568293585866
 20
27.49546502288017
 30
-27.4487376142527
 70
   192
  0
VERTEX
  5
362
  8
0
 10
-70.75365465204635
 20
46.21350575175822
 30
-98.0904753902791
 70
   192
  0
VERTEX
  5
363
  8
0
 10
10.85423800305426
 20
9.999999999999982
 30
-55.11086393631004
 70
   192
  0
VERTEX
  5
364
  8
0
 10
81.05454443024891
 20
46.08827065826046
 30
-94.32402249335829
 70
   192
  0
VERTEX
  5
365
  8
0
 10
31.27257450683786
 20
45.84136566092266
 30
-108.1621348954553
 70
   192
  0
VERTEX
  5
366
  8
0
 10
93.09018768328896
 20
9.999999999999993
 30
-18.84228211594485
 70
   192
  0
VERTEX
  5
367
  8
0
 10
97.61808789233334
 20
10.00000000000001
 30
10.34097636829996
 70
   192
  0
VERTEX
  5
368
  8
0
 10
150.0999462093761
 20
46.88229398371688
 30
28.2364951630842
 70
   192
  0
VERTEX
  5
369
  8
0
 10
152.1251651416499
 20
46.74057529488628
 30
-22.88767905733898
 70
   192
  0
VERTEX
  5
36A
  8
0
 10
149.5076189896017
 20
46.88388961109457
 30
29.76129399288273
 70
   192
  0
VERTEX
  5
36B
  8
0
 10
136.3369796760481
 20
27.49547501137316
 30
27.49360807693829
 70
   192
  0
VERTEX
  5
36C
  8
0
 10
148.8876933177392
 20
46.88507779082987
 30
31.27272007700162
 70
   192
  0
VERTEX
  5
36D
  8
0
 10
148.2420210366064
 20
46.88584133512468
 30
32.7675914097891
 70
   192
  0
VERTEX
  5
36E
  8
0
 10
118.5646149479402
 20
14.5460934680089
 30
19.62037584509403
 70
   192
  0
VERTEX
  5
36F
  8
0
 10
-118.5794370704207
 20
14.54609076617235
 30
-19.58687258532639
 70
   192
  0
VERTEX
  5
370
  8
0
 10
-97.6269867514651
 20
9.999999999999986
 30
-10.32087148894695
 70
   192
  0
VERTEX
  5
371
  8
0
 10
-49.72975229059605
 20
10.00000000000001
 30
-47.11850031532151
 70
   192
  0
VERTEX
  5
372
  8
0
 10
69.58195082150182
 20
10.00000000000001
 30
-38.64068432071905
 70
   192
  0
VERTEX
  5
373
  8
0
 10
124.4690834760093
 20
46.48077641016222
 30
-66.33280492952872
 70
   192
  0
VERTEX
  5
374
  8
0
 10
0.0
 20
0.0
 30
0.0
 70
   128
 71
     1
 72
     2
 73
     3
  0
VERTEX
  5
375
  8
0
 10
0.0
 20
0.0
 30
0.0
 70
   128
 71
     3
 72
     4
 73
     1
  0
VERTEX
  5
376
  8
0
 10
0.0
 20
0.0
 30
0.0
 70
   128
 71
     5
 72
     6
 73
     7
  0
VERTEX
  5
377
  8
0
 10
0.0
 20
0.0
 30
0.0
 70
   128
 71
     8
 72
     9
 73
    10
  0
VERTEX
  5
378
  8
0
 10
0.0
 20
0.0
 30
0.0
 70
   128
 71
     8
 72
    10
 73
    11
  0
VERTEX
  5
379
  8
0
 10
0.0
 20
0.0
 30
0.0
 70
   128
 71
    12
 72
    10
 73
    13
  0
VERTEX
  5
37A
  8
0
 10
0.0
 20
0.0
 30
0.0
 70
   128
 71
    13
 72
    14
 73
    12
  0
VERTEX
  5
37B
  8
0
 10
0.0
 20
0.0
 30
0.0
 70
   128
 71
    13
 72
    15
 73
    14
  0
VERTEX
  5
37C
  8
0
 10
0.0
 20
0.0
 30
0.0
 70
   128
 71
    10
 72
    16
 73
    13
  0
VERTEX
  5
37D
  8
0
 10
0.0
 20
0.0
 30
0.0
 70
   128
 71
    10
 72
     9
 73
    16
  0
VERTEX
  5
37E
  8
0
 10
0.0
 20
0.0
 30
0.0
 70
   128
 71
    17
 72
    18
 73
    19
  0
VERTEX
  5
37F
  8
0
 10
0.0
 20
0.0
 30
0.0
 70
   128
 71
    19
 72
     3
 73
    17
  0
VERTEX
  5
380
  8
0
 10
0.0
 20
0.0
 30
0.0
 70
   128
 71
    20
 72
     6
 73
     5
  0
VERTEX
  5
381
  8
0
 10
0.0
 20
0.0
 30
0.0
 70
   128
 71
     3
 72
    19
 73
     5
  0
VERTEX
  5
382
  8
0
 10
0.0
 20
0.0
 30
0.0
 70
   128
 71
     3
 72
     5
 73
     7
  0
VERTEX
  5
383
  8
0
 10
0.0
 20
0.0
 30
0.0
 70
   128
 71
     3
 72
     7
 73
     4
  0
VERTEX
  5
384
  8
0
 10
0.0
 20
0.0
 30
0.0
 70
   128
 71
     6
 72
    20
 73
    21
  0
VERTEX
  5
385
  8
0
 10
0.0
 20
0.0
 30
0.0
 70
   128
 71
    21
 72
    20
 73
     8
  0
VERTEX
  5
386
  8
0
 10
0.0
 20
0.0
 30
0.0
 70
   128
 71
    21
 72
     8
 73
    11
  0
SEQEND
  5
541
  8
0
  0
POLYLINE
  5
387
  8
0
 66
     1
 10
0.0
 20
0.0
 30
0.0
 70
    64
 71
    24
 72
    22
  0
VERTEX
  5
388
  8
0
 10
180.1311230798814
 20
115.6379267099034
 30
30.06792472157657
 70
   192
  0
VERTEX
  5
389
  8
0
 10
195.1858328866909
 20
150.0
 30
30.89295410601159
 70
   192
  0
VERTEX
  5
38A
  8
0
 10
193.0675062578595
 20
149.9999999999999
 30
-38.30521211860721
 70
   192
  0
VERTEX
  5
38B
  8
0
 10
152.1251651416499
 20
46.74057529488628
 30
-22.88767905733898
 70
   192
  0
VERTEX
  5
38C
  8
0
 10
150.0999462093761
 20
46.88229398371688
 30
28.2364951630842
 70
   192
  0
VERTEX
  5
38D
  8
0
 10
165.0986958185081
 20
81.26693557846697
 30
29.18823780948993
 70
   192
  0
VERTEX
  5
38E
  8
0
 10
-161.3281356164465
 20
150.0
 30
-91.64076124513119
 70
   192
  0
VERTEX
  5
38F
  8
0
 10
-195.1858328866909
 20
150.0
 30
-30.89295410601162
 70
   192
  0
VERTEX
  5
390
  8
0
 10
-148.2652423183679
 20
46.88582174558584
 30
-32.71510817529567
 70
   192
  0
VERTEX
  5
391
  8
0
 10
-116.088367275836
 20
46.66910095013611
 30
-73.08701016035661
 70
   192
  0
VERTEX
  5
392
  8
0
 10
-148.9055647517175
 20
46.8850499987677
 30
-31.23024458419409
 70
   192
  0
VERTEX
  5
393
  8
0
 10
-165.0986958185081
 20
81.266935578467
 30
-29.18823780948994
 70
   192
  0
VERTEX
  5
394
  8
0
 10
-149.5171715200949
 20
46.88386771125187
 30
-29.73738439957325
 70
   192
  0
VERTEX
  5
395
  8
0
 10
-150.0999462093761
 20
46.88229398371685
 30
-28.2364951630842
 70
   192
  0
VERTEX
  5
396
  8
0
 10
-180.1311230798814
 20
115.6379267099034
 30
-30.06792472157659
 70
   192
  0
VERTEX
  5
397
  8
0
 10
156.0283145138718
 20
150.0000000000001
 30
-97.21349342415853
 70
   192
  0
VERTEX
  5
398
  8
0
 10
124.4690834760093
 20
46.48077641016222
 30
-66.33280492952872
 70
   192
  0
VERTEX
  5
399
  8
0
 10
98.20521411934624
 20
149.9999999999999
 30
-136.1655898502238
 70
   192
  0
VERTEX
  5
39A
  8
0
 10
30.94273024099367
 20
150.0000000000001
 30
-154.6513035626293
 70
   192
  0
VERTEX
  5
39B
  8
0
 10
31.27257450683786
 20
45.84136566092266
 30
-108.1621348954553
 70
   192
  0
VERTEX
  5
39C
  8
0
 10
81.05454443024891
 20
46.08827065826046
 30
-94.32402249335829
 70
   192
  0
VERTEX
  5
39D
  8
0
 10
-105.2246670168136
 20
150.0
 30
-132.8336525884506
 70
   192
  0
VERTEX
  5
39E
  8
0
 10
-70.75365465204635
 20
46.21350575175822
 30
-98.0904753902791
 70
   192
  0
VERTEX
  5
39F
  8
0
 10
-38.71248967488027
 20
149.9999999999999
 30
-153.5473522939443
 70
   192
  0
VERTEX
  5
3A0
  8
0
 10
0.0
 20
0.0
 30
0.0
 70
   128
 71
     1
 72
     2
 73
     3
  0
VERTEX
  5
3A1
  8
0
 10
0.0
 20
0.0
 30
0.0
 70
   128
 71
     4
 72
     5
 73
     6
  0
VERTEX
  5
3A2
  8
0
 10
0.0
 20
0.0
 30
0.0
 70
   128
 71
     7
 72
     8
 73
     9
  0
VERTEX
  5
3A3
  8
0
 10
0.0
 20
0.0
 30
0.0
 70
   128
 71
     7
 72
     9
 73
    10
  0
VERTEX
  5
3A4
  8
0
 10
0.0
 20
0.0
 30
0.0
 70
   128
 71
    11
 72
     9
 73
    12
  0
VERTEX
  5
3A5
  8
0
 10
0.0
 20
0.0
 30
0.0
 70
   128
 71
    12
 72
    13
 73
    11
  0
VERTEX
  5
3A6
  8
0
 10
0.0
 20
0.0
 30
0.0
 70
   128
 71
    12
 72
    14
 73
    13
  0
VERTEX
  5
3A7
  8
0
 10
0.0
 20
0.0
 30
0.0
 70
   128
 71
     9
 72
    15
 73
    12
  0
VERTEX
  5
3A8
  8
0
 10
0.0
 20
0.0
 30
0.0
 70
   128
 71
     9
 72
     8
 73
    15
  0
VERTEX
  5
3A9
  8
0
 10
0.0
 20
0.0
 30
0.0
 70
   128
 71
     4
 72
    16
 73
    17
  0
VERTEX
  5
3AA
  8
0
 10
0.0
 20
0.0
 30
0.0
 70
   128
 71
     3
 72
    16
 73
     4
  0
VERTEX
  5
3AB
  8
0
 10
0.0
 20
0.0
 30
0.0
 70
   128
 71
     3
 72
     4
 73
     6
  0
VERTEX
  5
3AC
  8
0
 10
0.0
 20
0.0
 30
0.0
 70
   128
 71
     3
 72
     6
 73
     1
  0
VERTEX
  5
3AD
  8
0
 10
0.0
 20
0.0
 30
0.0
 70
   128
 71
    18
 72
    19
 73
    20
  0
VERTEX
  5
3AE
  8
0
 10
0.0
 20
0.0
 30
0.0
 70
   128
 71
    18
 72
    20
 73
    21
  0
VERTEX
  5
3AF
  8
0
 10
0.0
 20
0.0
 30
0.0
 70
   128
 71
    17
 72
    16
 73
    18
  0
VERTEX
  5
3B0
  8
0
 10
0.0
 20
0.0
 30
0.0
 70
   128
 71
    17
 72
    18
 73
    21
  0
VERTEX
  5
3B1
  8
0
 10
0.0
 20
0.0
 30
0.0
 70
   128
 71
    22
 72
     7
 73
    10
  0
VERTEX
  5
3B2
  8
0
 10
0.0
 20
0.0
 30
0.0
 70
   128
 71
    23
 72
    24
 73
    22
  0
VERTEX
  5
3B3
  8
0
 10
0.0
 20
0.0
 30
0.0
 70
   128
 71
    22
 72
    10
 73
    23
  0
VERTEX
  5
3B4
  8
0
 10
0.0
 20
0.0
 30
0.0
 70
   128
 71
    19
 72
    24
 73
    23
  0
VERTEX
  5
3B5
  8
0
 10
0.0
 20
0.0
 30
0.0
 70
   128
 71
    19
 72
    23
 73
    20
  0
SEQEND
  5
542
  8
0
  0
POLYLINE
  5
3B6
  8
0
 66
     1
 10
0.0
 20
0.0
 30
0.0
 70
    64
 71
    20
 72
    18
  0
VERTEX
  5
3B7
  8
0
 10
150.6701376725445
 20
24.71768346591385
 30
31.20191157432458
 70
   192
  0
VERTEX
  5
3B8
  8
0
 10
205.8221001420832
 20
150.0
 30
33.24514876238349
 70
   192
  0
VERTEX
  5
3B9
  8
0
 10
185.9186803328436
 20
150.0
 30
77.88227865754003
 70
   192
  0
VERTEX
  5
3BA
  8
0
 10
120.1002628064387
 20
24.63399898136673
 30
71.85330792881275
 70
   192
  0
VERTEX
  5
3BB
  8
0
 10
139.6493889928543
 20
150.0
 30
125.0966957932803
 70
   192
  0
VERTEX
  5
3BC
  8
0
 10
-209.2597550406454
 20
150.0
 30
14.05159224652376
 70
   192
  0
VERTEX
  5
3BD
  8
0
 10
-155.333214678891
 20
24.67088683441553
 30
-15.91851540852172
 70
   192
  0
VERTEX
  5
3BE
  8
0
 10
-149.5758192892529
 20
24.49239279496826
 30
34.12877764616998
 70
   192
  0
VERTEX
  5
3BF
  8
0
 10
-189.6659736756415
 20
150.0
 30
71.904457153675
 70
   192
  0
VERTEX
  5
3C0
  8
0
 10
-205.8221036217732
 20
150.0
 30
-33.24514964584844
 70
   192
  0
VERTEX
  5
3C1
  8
0
 10
-150.6701376725445
 20
24.71768346591383
 30
-31.20191157432459
 70
   192
  0
VERTEX
  5
3C2
  8
0
 10
-152.5393614653114
 20
24.70474502675762
 30
-26.21342796973599
 70
   192
  0
VERTEX
  5
3C3
  8
0
 10
-154.0971665253479
 20
24.68893128093303
 30
-21.11963784798763
 70
   192
  0
VERTEX
  5
3C4
  8
0
 10
-41.68048607575975
 20
150.0
 30
164.1676277502858
 70
   192
  0
VERTEX
  5
3C5
  8
0
 10
-133.63435926649
 20
150.0
 30
129.2090130753833
 70
   192
  0
VERTEX
  5
3C6
  8
0
 10
-73.51593540921147
 20
24.03086555397913
 30
98.79432521734921
 70
   192
  0
VERTEX
  5
3C7
  8
0
 10
-117.9481015856087
 20
24.27712297323804
 30
73.9243453150912
 70
   192
  0
VERTEX
  5
3C8
  8
0
 10
60.08055989989174
 20
150.0
 30
160.4985652035363
 70
   192
  0
VERTEX
  5
3C9
  8
0
 10
76.19023344738241
 20
24.30580066879048
 30
97.58624756347837
 70
   192
  0
VERTEX
  5
3CA
  8
0
 10
-23.94258786307236
 20
23.92125188171077
 30
110.38728966774
 70
   192
  0
VERTEX
  5
3CB
  8
0
 10
0.0
 20
0.0
 30
0.0
 70
   128
 71
     1
 72
     2
 73
     3
  0
VERTEX
  5
3CC
  8
0
 10
0.0
 20
0.0
 30
0.0
 70
   128
 71
     4
 72
     1
 73
     3
  0
VERTEX
  5
3CD
  8
0
 10
0.0
 20
0.0
 30
0.0
 70
   128
 71
     3
 72
     5
 73
     4
  0
VERTEX
  5
3CE
  8
0
 10
0.0
 20
0.0
 30
0.0
 70
   128
 71
     6
 72
     7
 73
     8
  0
VERTEX
  5
3CF
  8
0
 10
0.0
 20
0.0
 30
0.0
 70
   128
 71
     9
 72
     6
 73
     8
  0
VERTEX
  5
3D0
  8
0
 10
0.0
 20
0.0
 30
0.0
 70
   128
 71
    10
 72
    11
 73
    12
  0
VERTEX
  5
3D1
  8
0
 10
0.0
 20
0.0
 30
0.0
 70
   128
 71
    12
 72
    13
 73
    10
  0
VERTEX
  5
3D2
  8
0
 10
0.0
 20
0.0
 30
0.0
 70
   128
 71
     7
 72
     6
 73
    10
  0
VERTEX
  5
3D3
  8
0
 10
0.0
 20
0.0
 30
0.0
 70
   128
 71
    13
 72
     7
 73
    10
  0
VERTEX
  5
3D4
  8
0
 10
0.0
 20
0.0
 30
0.0
 70
   128
 71
    14
 72
    15
 73
    16
  0
VERTEX
  5
3D5
  8
0
 10
0.0
 20
0.0
 30
0.0
 70
   128
 71
    15
 72
     9
 73
    17
  0
VERTEX
  5
3D6
  8
0
 10
0.0
 20
0.0
 30
0.0
 70
   128
 71
     5
 72
    18
 73
    19
  0
VERTEX
  5
3D7
  8
0
 10
0.0
 20
0.0
 30
0.0
 70
   128
 71
    19
 72
     4
 73
     5
  0
VERTEX
  5
3D8
  8
0
 10
0.0
 20
0.0
 30
0.0
 70
   128
 71
    17
 72
     9
 73
     8
  0
VERTEX
  5
3D9
  8
0
 10
0.0
 20
0.0
 30
0.0
 70
   128
 71
    16
 72
    15
 73
    17
  0
VERTEX
  5
3DA
  8
0
 10
0.0
 20
0.0
 30
0.0
 70
   128
 71
    20
 72
    14
 73
    16
  0
VERTEX
  5
3DB
  8
0
 10
0.0
 20
0.0
 30
0.0
 70
   128
 71
    19
 72
    18
 73
    14
  0
VERTEX
  5
3DC
  8
0
 10
0.0
 20
0.0
 30
0.0
 70
   128
 71
    20
 72
    19
 73
    14
  0
SEQEND
  5
543
  8
0
  0
POLYLINE
  5
3DD
  8
0
 66
     1
 10
0.0
 20
0.0
 30
0.0
 70
    64
 71
    20
 72
    20
  0
VERTEX
  5
3DE
  8
0
 10
119.1777157362579
 20
0.0
 30
8.312182150352639
 70
   192
  0
VERTEX
  5
3DF
  8
0
 10
110.6358468874971
 20
0.0000000000000069
 30
-28.47413985466362
 70
   192
  0
VERTEX
  5
3E0
  8
0
 10
82.09880203949783
 20
-0.0000000000000069
 30
-54.18358389272678
 70
   192
  0
VERTEX
  5
3E1
  8
0
 10
8.556913753500112
 20
-0.0000000000000069
 30
-74.8452196296156
 70
   192
  0
VERTEX
  5
3E2
  8
0
 10
-66.65833493637952
 20
0.0
 30
-61.70677044977124
 70
   192
  0
VERTEX
  5
3E3
  8
0
 10
-99.14338760998837
 20
0.0
 30
-41.08994293636206
 70
   192
  0
VERTEX
  5
3E4
  8
0
 10
-119.1420522088468
 20
-0.0000000000000069
 30
-8.48763062785326
 70
   192
  0
VERTEX
  5
3E5
  8
0
 10
-110.7145521064616
 20
0.0000000000000208
 30
28.35882638144432
 70
   192
  0
VERTEX
  5
3E6
  8
0
 10
-82.17879700279323
 20
-0.0000000000000069
 30
54.13571451647205
 70
   192
  0
VERTEX
  5
3E7
  8
0
 10
-8.575298655625087
 20
-0.0000000000000069
 30
74.8444019590817
 70
   192
  0
VERTEX
  5
3E8
  8
0
 10
66.72101785757619
 20
0.0000000000000069
 30
61.67952999090589
 70
   192
  0
VERTEX
  5
3E9
  8
0
 10
99.22826492611219
 20
-0.0000000000000069
 30
41.01130355627513
 70
   192
  0
VERTEX
  5
3EA
  8
0
 10
-0.0000000000000025
 20
0.0
 30
22.5
 70
   192
  0
VERTEX
  5
3EB
  8
0
 10
-15.90990257669733
 20
0.0
 30
15.90990257669732
 70
   192
  0
VERTEX
  5
3EC
  8
0
 10
-22.5
 20
0.0
 30
-0.0000000000000025
 70
   192
  0
VERTEX
  5
3ED
  8
0
 10
-15.90990257669732
 20
0.0
 30
-15.90990257669733
 70
   192
  0
VERTEX
  5
3EE
  8
0
 10
0.0
 20
0.0
 30
-22.50000000000001
 70
   192
  0
VERTEX
  5
3EF
  8
0
 10
15.90990257669733
 20
0.0
 30
-15.90990257669733
 70
   192
  0
VERTEX
  5
3F0
  8
0
 10
22.50000000000001
 20
0.0
 30
0.0
 70
   192
  0
VERTEX
  5
3F1
  8
0
 10
15.90990257669732
 20
0.0
 30
15.90990257669732
 70
   192
  0
VERTEX
  5
3F2
  8
0
 10
0.0
 20
0.0
 30
0.0
 70
   128
 71
    14
 72
   -13
 73
   -10
  0
VERTEX
  5
3F3
  8
0
 10
0.0
 20
0.0
 30
0.0
 70
   128
 71
    10
 72
     9
 73
    -8
  0
VERTEX
  5
3F4
  8
0
 10
0.0
 20
0.0
 30
0.0
 70
   128
 71
   -10
 72
    -8
 73
   -15
  0
VERTEX
  5
3F5
  8
0
 10
0.0
 20
0.0
 30
0.0
 70
   128
 71
   -10
 72
    15
 73
   -14
  0
VERTEX
  5
3F6
  8
0
 10
0.0
 20
0.0
 30
0.0
 70
   128
 71
     8
 72
     7
 73
    -6
  0
VERTEX
  5
3F7
  8
0
 10
0.0
 20
0.0
 30
0.0
 70
   128
 71
    -8
 72
     6
 73
    -5
  0
VERTEX
  5
3F8
  8
0
 10
0.0
 20
0.0
 30
0.0
 70
   128
 71
    -8
 72
    -5
 73
   -16
  0
VERTEX
  5
3F9
  8
0
 10
0.0
 20
0.0
 30
0.0
 70
   128
 71
    -8
 72
    16
 73
   -15
  0
VERTEX
  5
3FA
  8
0
 10
0.0
 20
0.0
 30
0.0
 70
   128
 71
     5
 72
    -4
 73
   -16
  0
VERTEX
  5
3FB
  8
0
 10
0.0
 20
0.0
 30
0.0
 70
   128
 71
    -4
 72
    17
 73
   -16
  0
VERTEX
  5
3FC
  8
0
 10
0.0
 20
0.0
 30
0.0
 70
   128
 71
    -4
 72
    18
 73
   -17
  0
VERTEX
  5
3FD
  8
0
 10
0.0
 20
0.0
 30
0.0
 70
   128
 71
     4
 72
     3
 73
    -2
  0
VERTEX
  5
3FE
  8
0
 10
0.0
 20
0.0
 30
0.0
 70
   128
 71
    -4
 72
    -2
 73
   -19
  0
VERTEX
  5
3FF
  8
0
 10
0.0
 20
0.0
 30
0.0
 70
   128
 71
    -4
 72
    19
 73
   -18
  0
VERTEX
  5
400
  8
0
 10
0.0
 20
0.0
 30
0.0
 70
   128
 71
     2
 72
     1
 73
   -12
  0
VERTEX
  5
401
  8
0
 10
0.0
 20
0.0
 30
0.0
 70
   128
 71
    -2
 72
    12
 73
   -11
  0
VERTEX
  5
402
  8
0
 10
0.0
 20
0.0
 30
0.0
 70
   128
 71
    -2
 72
   -11
 73
   -20
  0
VERTEX
  5
403
  8
0
 10
0.0
 20
0.0
 30
0.0
 70
   128
 71
    -2
 72
    20
 73
   -19
  0
VERTEX
  5
404
  8
0
 10
0.0
 20
0.0
 30
0.0
 70
   128
 71
    11
 72
   -10
 73
   -20
  0
VERTEX
  5
405
  8
0
 10
0.0
 20
0.0
 30
0.0
 70
   128
 71
   -10
 72
    13
 73
   -20
  0
SEQEND
  5
544
  8
0
  0
POLYLINE
  5
406
  8
0
 66
     1
 10
0.0
 20
0.0
 30
0.0
 70
    64
 71
    32
 72
    32
  0
VERTEX
  5
407
  8
0
 10
205.8221001420832
 20
150.0
 30
33.24514876238349
 70
   192
  0
VERTEX
  5
408
  8
0
 10
209.2597520481099
 20
150.0
 30
-14.05159300630443
 70
   192
  0
VERTEX
  5
409
  8
0
 10
189.6659712398543
 20
150.0
 30
-71.90445777210081
 70
   192
  0
VERTEX
  5
40A
  8
0
 10
133.6343573219532
 20
150.0
 30
-129.2090135690826
 70
   192
  0
VERTEX
  5
40B
  8
0
 10
41.68048433591395
 20
150.0
 30
-164.1676281920149
 70
   192
  0
VERTEX
  5
40C
  8
0
 10
-60.08056184442133
 20
150.0
 30
-160.4985656972345
 70
   192
  0
VERTEX
  5
40D
  8
0
 10
-139.6493914286331
 20
150.0
 30
-125.0966964117048
 70
   192
  0
VERTEX
  5
40E
  8
0
 10
-185.9186833253745
 20
150.0
 30
-77.88227941732008
 70
   192
  0
VERTEX
  5
40F
  8
0
 10
-205.8221036217732
 20
150.0
 30
-33.24514964584844
 70
   192
  0
VERTEX
  5
410
  8
0
 10
-209.2597550406454
 20
150.0
 30
14.05159224652376
 70
   192
  0
VERTEX
  5
411
  8
0
 10
-189.6659736756415
 20
150.0
 30
71.904457153675
 70
   192
  0
VERTEX
  5
412
  8
0
 10
-133.63435926649
 20
150.0
 30
129.2090130753833
 70
   192
  0
VERTEX
  5
413
  8
0
 10
-41.68048607575975
 20
150.0
 30
164.1676277502858
 70
   192
  0
VERTEX
  5
414
  8
0
 10
60.08055989989174
 20
150.0
 30
160.4985652035363
 70
   192
  0
VERTEX
  5
415
  8
0
 10
139.6493889928543
 20
150.0
 30
125.0966957932803
 70
   192
  0
VERTEX
  5
416
  8
0
 10
185.9186803328436
 20
150.0
 30
77.88227865754003
 70
   192
  0
VERTEX
  5
417
  8
0
 10
-195.1858328866909
 20
150.0
 30
-30.89295410601162
 70
   192
  0
VERTEX
  5
418
  8
0
 10
-161.3281356164465
 20
150.0
 30
-91.64076124513119
 70
   192
  0
VERTEX
  5
419
  8
0
 10
-105.2246670168136
 20
150.0
 30
-132.8336525884506
 70
   192
  0
VERTEX
  5
41A
  8
0
 10
-38.71248967488027
 20
149.9999999999999
 30
-153.5473522939443
 70
   192
  0
VERTEX
  5
41B
  8
0
 10
30.94273024099367
 20
150.0000000000001
 30
-154.6513035626293
 70
   192
  0
VERTEX
  5
41C
  8
0
 10
98.20521411934624
 20
149.9999999999999
 30
-136.1655898502238
 70
   192
  0
VERTEX
  5
41D
  8
0
 10
156.0283145138718
 20
150.0000000000001
 30
-97.21349342415853
 70
   192
  0
VERTEX
  5
41E
  8
0
 10
193.0675062578595
 20
149.9999999999999
 30
-38.30521211860721
 70
   192
  0
VERTEX
  5
41F
  8
0
 10
195.1858328866909
 20
150.0
 30
30.89295410601159
 70
   192
  0
VERTEX
  5
420
  8
0
 10
161.3265381168023
 20
150.0
 30
91.64249787366188
 70
   192
  0
VERTEX
  5
421
  8
0
 10
105.207773763895
 20
150.0000000000001
 30
132.8419362186489
 70
   192
  0
VERTEX
  5
422
  8
0
 10
38.67569706916342
 20
150.0
 30
153.5531047089352
 70
   192
  0
VERTEX
  5
423
  8
0
 10
-31.01845442147613
 20
150.0
 30
154.6419212080264
 70
   192
  0
VERTEX
  5
424
  8
0
 10
-98.29536567917455
 20
150.0
 30
136.1253313810577
 70
   192
  0
VERTEX
  5
425
  8
0
 10
-156.1152391319284
 20
150.0
 30
97.12722672636806
 70
   192
  0
VERTEX
  5
426
  8
0
 10
-193.1151560871361
 20
150.0
 30
38.15671175158705
 70
   192
  0
VERTEX
  5
427
  8
0
 10
0.0
 20
0.0
 30
0.0
 70
   128
 71
    -9
 72
    17
 73
   -18
  0
VERTEX
  5
428
  8
0
 10
0.0
 20
0.0
 30
0.0
 70
   128
 71
     8
 72
    -9
 73
   -18
  0
VERTEX
  5
429
  8
0
 10
0.0
 20
0.0
 30
0.0
 70
   128
 71
   -19
 72
     7
 73
    -8
  0
VERTEX
  5
42A
  8
0
 10
0.0
 20
0.0
 30
0.0
 70
   128
 71
    18
 72
   -19
 73
    -8
  0
VERTEX
  5
42B
  8
0
 10
0.0
 20
0.0
 30
0.0
 70
   128
 71
     6
 72
    -7
 73
   -19
  0
VERTEX
  5
42C
  8
0
 10
0.0
 20
0.0
 30
0.0
 70
   128
 71
    19
 72
   -20
 73
    -6
  0
VERTEX
  5
42D
  8
0
 10
0.0
 20
0.0
 30
0.0
 70
   128
 71
   -21
 72
     5
 73
    -6
  0
VERTEX
  5
42E
  8
0
 10
0.0
 20
0.0
 30
0.0
 70
   128
 71
    20
 72
   -21
 73
    -6
  0
VERTEX
  5
42F
  8
0
 10
0.0
 20
0.0
 30
0.0
 70
   128
 71
    21
 72
   -22
 73
    -5
  0
VERTEX
  5
430
  8
0
 10
0.0
 20
0.0
 30
0.0
 70
   128
 71
   -22
 72
     4
 73
    -5
  0
VERTEX
  5
431
  8
0
 10
0.0
 20
0.0
 30
0.0
 70
   128
 71
    22
 72
   -23
 73
    -4
  0
VERTEX
  5
432
  8
0
 10
0.0
 20
0.0
 30
0.0
 70
   128
 71
     3
 72
    -4
 73
   -23
  0
VERTEX
  5
433
  8
0
 10
0.0
 20
0.0
 30
0.0
 70
   128
 71
    23
 72
   -24
 73
    -3
  0
VERTEX
  5
434
  8
0
 10
0.0
 20
0.0
 30
0.0
 70
   128
 71
   -24
 72
     2
 73
    -3
  0
VERTEX
  5
435
  8
0
 10
0.0
 20
0.0
 30
0.0
 70
   128
 71
   -25
 72
     1
 73
    -2
  0
VERTEX
  5
436
  8
0
 10
0.0
 20
0.0
 30
0.0
 70
   128
 71
    24
 72
   -25
 73
    -2
  0
VERTEX
  5
437
  8
0
 10
0.0
 20
0.0
 30
0.0
 70
   128
 71
   -26
 72
    16
 73
    -1
  0
VERTEX
  5
438
  8
0
 10
0.0
 20
0.0
 30
0.0
 70
   128
 71
    25
 72
   -26
 73
    -1
  0
VERTEX
  5
439
  8
0
 10
0.0
 20
0.0
 30
0.0
 70
   128
 71
   -27
 72
    15
 73
   -16
  0
VERTEX
  5
43A
  8
0
 10
0.0
 20
0.0
 30
0.0
 70
   128
 71
    26
 72
   -27
 73
   -16
  0
VERTEX
  5
43B
  8
0
 10
0.0
 20
0.0
 30
0.0
 70
   128
 71
    14
 72
   -15
 73
   -27
  0
VERTEX
  5
43C
  8
0
 10
0.0
 20
0.0
 30
0.0
 70
   128
 71
    27
 72
   -28
 73
   -14
  0
VERTEX
  5
43D
  8
0
 10
0.0
 20
0.0
 30
0.0
 70
   128
 71
   -29
 72
    13
 73
   -14
  0
VERTEX
  5
43E
  8
0
 10
0.0
 20
0.0
 30
0.0
 70
   128
 71
    28
 72
   -29
 73
   -14
  0
VERTEX
  5
43F
  8
0
 10
0.0
 20
0.0
 30
0.0
 70
   128
 71
    29
 72
   -30
 73
   -13
  0
VERTEX
  5
440
  8
0
 10
0.0
 20
0.0
 30
0.0
 70
   128
 71
   -30
 72
    12
 73
   -13
  0
VERTEX
  5
441
  8
0
 10
0.0
 20
0.0
 30
0.0
 70
   128
 71
    30
 72
   -31
 73
   -12
  0
VERTEX
  5
442
  8
0
 10
0.0
 20
0.0
 30
0.0
 70
   128
 71
    11
 72
   -12
 73
   -31
  0
VERTEX
  5
443
  8
0
 10
0.0
 20
0.0
 30
0.0
 70
   128
 71
    31
 72
   -32
 73
   -11
  0
VERTEX
  5
444
  8
0
 10
0.0
 20
0.0
 30
0.0
 70
   128
 71
   -32
 72
    10
 73
   -11
  0
VERTEX
  5
445
  8
0
 10
0.0
 20
0.0
 30
0.0
 70
   128
 71
   -17
 72
     9
 73
   -10
  0
VERTEX
  5
446
  8
0
 10
0.0
 20
0.0
 30
0.0
 70
   128
 71
    32
 72
   -17
 73
   -10
  0
SEQEND
  5
545
  8
0
  0
POLYLINE
  5
447
  8
0
 66
     1
 10
0.0
 20
0.0
 30
0.0
 70
    64
 71
    20
 72
    18
  0
VERTEX
  5
448
  8
0
 10
-150.6701376725445
 20
24.71768346591383
 30
-31.20191157432459
 70
   192
  0
VERTEX
  5
449
  8
0
 10
-205.8221036217732
 20
150.0
 30
-33.24514964584844
 70
   192
  0
VERTEX
  5
44A
  8
0
 10
-185.9186833253745
 20
150.0
 30
-77.88227941732008
 70
   192
  0
VERTEX
  5
44B
  8
0
 10
-120.2010439748912
 20
24.63466778413762
 30
-71.76797552066111
 70
   192
  0
VERTEX
  5
44C
  8
0
 10
-139.6493914286331
 20
150.0
 30
-125.0966964117048
 70
   192
  0
VERTEX
  5
44D
  8
0
 10
209.2597520481099
 20
150.0
 30
-14.05159300630443
 70
   192
  0
VERTEX
  5
44E
  8
0
 10
155.3974220859538
 20
24.66973791789999
 30
15.60025023702191
 70
   192
  0
VERTEX
  5
44F
  8
0
 10
149.4344022662165
 20
24.49126890931289
 30
-34.44371147439054
 70
   192
  0
VERTEX
  5
450
  8
0
 10
189.6659712398543
 20
150.0
 30
-71.90445777210081
 70
   192
  0
VERTEX
  5
451
  8
0
 10
205.8221001420832
 20
150.0
 30
33.24514876238349
 70
   192
  0
VERTEX
  5
452
  8
0
 10
150.6701376725445
 20
24.71768346591385
 30
31.20191157432458
 70
   192
  0
VERTEX
  5
453
  8
0
 10
152.5745855709924
 20
24.7044464484836
 30
26.10968791572844
 70
   192
  0
VERTEX
  5
454
  8
0
 10
154.1538103815993
 20
24.68823654513951
 30
20.9102763372949
 70
   192
  0
VERTEX
  5
455
  8
0
 10
41.68048433591395
 20
150.0
 30
-164.1676281920149
 70
   192
  0
VERTEX
  5
456
  8
0
 10
133.6343573219532
 20
150.0
 30
-129.2090135690826
 70
   192
  0
VERTEX
  5
457
  8
0
 10
73.25024174518249
 20
24.02975917698831
 30
-98.89362583771133
 70
   192
  0
VERTEX
  5
458
  8
0
 10
117.7062403230789
 20
24.27554133251713
 30
-74.11929648571433
 70
   192
  0
VERTEX
  5
459
  8
0
 10
-60.08056184442133
 20
150.0
 30
-160.4985656972345
 70
   192
  0
VERTEX
  5
45A
  8
0
 10
-76.35146710109741
 20
24.30696715366121
 30
-97.52248423787873
 70
   192
  0
VERTEX
  5
45B
  8
0
 10
23.71843782885104
 20
23.92121803992971
 30
-110.4114105278261
 70
   192
  0
VERTEX
  5
45C
  8
0
 10
0.0
 20
0.0
 30
0.0
 70
   128
 71
     1
 72
     2
 73
     3
  0
VERTEX
  5
45D
  8
0
 10
0.0
 20
0.0
 30
0.0
 70
   128
 71
     4
 72
     1
 73
     3
  0
VERTEX
  5
45E
  8
0
 10
0.0
 20
0.0
 30
0.0
 70
   128
 71
     3
 72
     5
 73
     4
  0
VERTEX
  5
45F
  8
0
 10
0.0
 20
0.0
 30
0.0
 70
   128
 71
     6
 72
     7
 73
     8
  0
VERTEX
  5
460
  8
0
 10
0.0
 20
0.0
 30
0.0
 70
   128
 71
     9
 72
     6
 73
     8
  0
VERTEX
  5
461
  8
0
 10
0.0
 20
0.0
 30
0.0
 70
   128
 71
    10
 72
    11
 73
    12
  0
VERTEX
  5
462
  8
0
 10
0.0
 20
0.0
 30
0.0
 70
   128
 71
    12
 72
    13
 73
    10
  0
VERTEX
  5
463
  8
0
 10
0.0
 20
0.0
 30
0.0
 70
   128
 71
     7
 72
     6
 73
    10
  0
VERTEX
  5
464
  8
0
 10
0.0
 20
0.0
 30
0.0
 70
   128
 71
    13
 72
     7
 73
    10
  0
VERTEX
  5
465
  8
0
 10
0.0
 20
0.0
 30
0.0
 70
   128
 71
    14
 72
    15
 73
    16
  0
VERTEX
  5
466
  8
0
 10
0.0
 20
0.0
 30
0.0
 70
   128
 71
    15
 72
     9
 73
    17
  0
VERTEX
  5
467
  8
0
 10
0.0
 20
0.0
 30
0.0
 70
   128
 71
     5
 72
    18
 73
    19
  0
VERTEX
  5
468
  8
0
 10
0.0
 20
0.0
 30
0.0
 70
   128
 71
    19
 72
     4
 73
     5
  0
VERTEX
  5
469
  8
0
 10
0.0
 20
0.0
 30
0.0
 70
   128
 71
    17
 72
     9
 73
     8
  0
VERTEX
  5
46A
  8
0
 10
0.0
 20
0.0
 30
0.0
 70
   128
 71
    16
 72
    15
 73
    17
  0
VERTEX
  5
46B
  8
0
 10
0.0
 20
0.0
 30
0.0
 70
   128
 71
    20
 72
    14
 73
    16
  0
VERTEX
  5
46C
  8
0
 10
0.0
 20
0.0
 30
0.0
 70
   128
 71
    19
 72
    18
 73
    14
  0
VERTEX
  5
46D
  8
0
 10
0.0
 20
0.0
 30
0.0
 70
   128
 71
    20
 72
    19
 73
    14
  0
SEQEND
  5
546
  8
0
  0
POLYLINE
  5
46E
  8
0
 66
     1
 10
0.0
 20
0.0
 30
0.0
 70
    64
 71
    18
 72
    18
  0
VERTEX
  5
46F
  8
0
 10
-97.62698675146511
 20
10.0
 30
-10.32087148894695
 70
   192
  0
VERTEX
  5
470
  8
0
 10
-93.08013734775543
 20
10.00000000000001
 30
18.85588363395657
 70
   192
  0
VERTEX
  5
471
  8
0
 10
-69.58108583934126
 20
9.99999999999998
 30
38.64117516005875
 70
   192
  0
VERTEX
  5
472
  8
0
 10
-10.82243256674492
 20
9.999999999999996
 30
55.11288972075431
 70
   192
  0
VERTEX
  5
473
  8
0
 10
49.8152471073797
 20
10.00000000000001
 30
47.08836554722153
 70
   192
  0
VERTEX
  5
474
  8
0
 10
97.61808789233334
 20
10.00000000000001
 30
10.34097636829996
 70
   192
  0
VERTEX
  5
475
  8
0
 10
93.09018768328896
 20
9.999999999999993
 30
-18.84228211594485
 70
   192
  0
VERTEX
  5
476
  8
0
 10
69.58195082150182
 20
10.00000000000001
 30
-38.64068432071905
 70
   192
  0
VERTEX
  5
477
  8
0
 10
10.85423800305426
 20
9.999999999999982
 30
-55.11086393631004
 70
   192
  0
VERTEX
  5
478
  8
0
 10
-49.72975229059605
 20
10.00000000000001
 30
-47.11850031532151
 70
   192
  0
VERTEX
  5
479
  8
0
 10
0.0
 20
10.0
 30
37.5000000000002
 70
   192
  0
VERTEX
  5
47A
  8
0
 10
-26.51650429449568
 20
10.0
 30
26.51650429449568
 70
   192
  0
VERTEX
  5
47B
  8
0
 10
-37.50000000000021
 20
10.0
 30
0.0
 70
   192
  0
VERTEX
  5
47C
  8
0
 10
-26.51650429449568
 20
10.0
 30
-26.51650429449568
 70
   192
  0
VERTEX
  5
47D
  8
0
 10
0.0
 20
10.0
 30
-37.50000000000021
 70
   192
  0
VERTEX
  5
47E
  8
0
 10
26.51650429449567
 20
10.0
 30
-26.51650429449568
 70
   192
  0
VERTEX
  5
47F
  8
0
 10
37.5000000000002
 20
10.0
 30
-0.0000000000000042
 70
   192
  0
VERTEX
  5
480
  8
0
 10
26.51650429449568
 20
10.0
 30
26.51650429449567
 70
   192
  0
VERTEX
  5
481
  8
0
 10
0.0
 20
0.0
 30
0.0
 70
   128
 71
    -4
 72
    11
 73
   -12
  0
VERTEX
  5
482
  8
0
 10
0.0
 20
0.0
 30
0.0
 70
   128
 71
     3
 72
    -4
 73
   -12
  0
VERTEX
  5
483
  8
0
 10
0.0
 20
0.0
 30
0.0
 70
   128
 71
   -13
 72
     2
 73
    -3
  0
VERTEX
  5
484
  8
0
 10
0.0
 20
0.0
 30
0.0
 70
   128
 71
    12
 72
   -13
 73
    -3
  0
VERTEX
  5
485
  8
0
 10
0.0
 20
0.0
 30
0.0
 70
   128
 71
    10
 72
     1
 73
    -2
  0
VERTEX
  5
486
  8
0
 10
0.0
 20
0.0
 30
0.0
 70
   128
 71
   -14
 72
   -10
 73
    -2
  0
VERTEX
  5
487
  8
0
 10
0.0
 20
0.0
 30
0.0
 70
   128
 71
    13
 72
   -14
 73
    -2
  0
VERTEX
  5
488
  8
0
 10
0.0
 20
0.0
 30
0.0
 70
   128
 71
   -15
 72
     9
 73
   -10
  0
VERTEX
  5
489
  8
0
 10
0.0
 20
0.0
 30
0.0
 70
   128
 71
    14
 72
   -15
 73
   -10
  0
VERTEX
  5
48A
  8
0
 10
0.0
 20
0.0
 30
0.0
 70
   128
 71
    15
 72
   -16
 73
    -9
  0
VERTEX
  5
48B
  8
0
 10
0.0
 20
0.0
 30
0.0
 70
   128
 71
     8
 72
    -9
 73
   -16
  0
VERTEX
  5
48C
  8
0
 10
0.0
 20
0.0
 30
0.0
 70
   128
 71
   -17
 72
     7
 73
    -8
  0
VERTEX
  5
48D
  8
0
 10
0.0
 20
0.0
 30
0.0
 70
   128
 71
    16
 72
   -17
 73
    -8
  0
VERTEX
  5
48E
  8
0
 10
0.0
 20
0.0
 30
0.0
 70
   128
 71
     5
 72
     6
 73
    -7
  0
VERTEX
  5
48F
  8
0
 10
0.0
 20
0.0
 30
0.0
 70
   128
 71
   -18
 72
    -5
 73
    -7
  0
VERTEX
  5
490
  8
0
 10
0.0
 20
0.0
 30
0.0
 70
   128
 71
    17
 72
   -18
 73
    -7
  0
VERTEX
  5
491
  8
0
 10
0.0
 20
0.0
 30
0.0
 70
   128
 71
   -11
 72
     4
 73
    -5
  0
VERTEX
  5
492
  8
0
 10
0.0
 20
0.0
 30
0.0
 70
   128
 71
    18
 72
   -11
 73
    -5
  0
SEQEND
  5
547
  8
0
  0
POLYLINE
  5
493
  8
0
 66
     1
 10
0.0
 20
0.0
 30
0.0
 70
    64
 71
    24
 72
    22
  0
VERTEX
  5
494
  8
0
 10
-180.1311230798814
 20
115.6379267099034
 30
-30.06792472157659
 70
   192
  0
VERTEX
  5
495
  8
0
 10
-195.1858328866909
 20
150.0
 30
-30.89295410601162
 70
   192
  0
VERTEX
  5
496
  8
0
 10
-193.1151560871361
 20
150.0
 30
38.15671175158705
 70
   192
  0
VERTEX
  5
497
  8
0
 10
-152.1337893678282
 20
46.74067174469614
 30
22.85837046009377
 70
   192
  0
VERTEX
  5
498
  8
0
 10
-165.0986958185081
 20
81.266935578467
 30
-29.18823780948994
 70
   192
  0
VERTEX
  5
499
  8
0
 10
-150.0999462093761
 20
46.88229398371685
 30
-28.2364951630842
 70
   192
  0
VERTEX
  5
49A
  8
0
 10
161.3265381168023
 20
150.0
 30
91.64249787366188
 70
   192
  0
VERTEX
  5
49B
  8
0
 10
195.1858328866909
 20
150.0
 30
30.89295410601159
 70
   192
  0
VERTEX
  5
49C
  8
0
 10
148.2420210366063
 20
46.88584133512469
 30
32.76759140978908
 70
   192
  0
VERTEX
  5
49D
  8
0
 10
116.1764164717988
 20
46.66998982001095
 30
73.016467137006
 70
   192
  0
VERTEX
  5
49E
  8
0
 10
148.8876933177392
 20
46.88507779082987
 30
31.27272007700162
 70
   192
  0
VERTEX
  5
49F
  8
0
 10
165.0986958185081
 20
81.26693557846697
 30
29.18823780948993
 70
   192
  0
VERTEX
  5
4A0
  8
0
 10
149.5076189896017
 20
46.88388961109457
 30
29.76129399288273
 70
   192
  0
VERTEX
  5
4A1
  8
0
 10
150.0999462093761
 20
46.88229398371689
 30
28.2364951630842
 70
   192
  0
VERTEX
  5
4A2
  8
0
 10
180.1311230798814
 20
115.6379267099034
 30
30.06792472157657
 70
   192
  0
VERTEX
  5
4A3
  8
0
 10
-156.1152391319284
 20
150.0
 30
97.12722672636806
 70
   192
  0
VERTEX
  5
4A4
  8
0
 10
-124.4965191430302
 20
46.48104482072031
 30
66.3067952858334
 70
   192
  0
VERTEX
  5
4A5
  8
0
 10
-98.29536567917455
 20
150.0
 30
136.1253313810577
 70
   192
  0
VERTEX
  5
4A6
  8
0
 10
-31.01845442147613
 20
150.0
 30
154.6419212080264
 70
   192
  0
VERTEX
  5
4A7
  8
0
 10
-31.28212699314172
 20
45.84138641568495
 30
108.1607613684763
 70
   192
  0
VERTEX
  5
4A8
  8
0
 10
-81.05909346974758
 20
46.08830502262398
 30
94.3220569946964
 70
   192
  0
VERTEX
  5
4A9
  8
0
 10
105.207773763895
 20
150.0000000000001
 30
132.8419362186489
 70
   192
  0
VERTEX
  5
4AA
  8
0
 10
70.88316605510647
 20
46.21466221013546
 30
98.04307726283776
 70
   192
  0
VERTEX
  5
4AB
  8
0
 10
38.67569706916342
 20
150.0
 30
153.5531047089352
 70
   192
  0
VERTEX
  5
4AC
  8
0
 10
0.0
 20
0.0
 30
0.0
 70
   128
 71
     1
 72
     2
 73
     3
  0
VERTEX
  5
4AD
  8
0
 10
0.0
 20
0.0
 30
0.0
 70
   128
 71
     3
 72
     4
 73
     5
  0
VERTEX
  5
4AE
  8
0
 10
0.0
 20
0.0
 30
0.0
 70
   128
 71
     3
 72
     5
 73
     1
  0
VERTEX
  5
4AF
  8
0
 10
0.0
 20
0.0
 30
0.0
 70
   128
 71
     4
 72
     6
 73
     5
  0
VERTEX
  5
4B0
  8
0
 10
0.0
 20
0.0
 30
0.0
 70
   128
 71
     7
 72
     8
 73
     9
  0
VERTEX
  5
4B1
  8
0
 10
0.0
 20
0.0
 30
0.0
 70
   128
 71
     7
 72
     9
 73
    10
  0
VERTEX
  5
4B2
  8
0
 10
0.0
 20
0.0
 30
0.0
 70
   128
 71
    11
 72
     9
 73
    12
  0
VERTEX
  5
4B3
  8
0
 10
0.0
 20
0.0
 30
0.0
 70
   128
 71
    12
 72
    13
 73
    11
  0
VERTEX
  5
4B4
  8
0
 10
0.0
 20
0.0
 30
0.0
 70
   128
 71
    12
 72
    14
 73
    13
  0
VERTEX
  5
4B5
  8
0
 10
0.0
 20
0.0
 30
0.0
 70
   128
 71
     9
 72
    15
 73
    12
  0
VERTEX
  5
4B6
  8
0
 10
0.0
 20
0.0
 30
0.0
 70
   128
 71
     9
 72
     8
 73
    15
  0
VERTEX
  5
4B7
  8
0
 10
0.0
 20
0.0
 30
0.0
 70
   128
 71
     3
 72
    16
 73
    17
  0
VERTEX
  5
4B8
  8
0
 10
0.0
 20
0.0
 30
0.0
 70
   128
 71
     3
 72
    17
 73
     4
  0
VERTEX
  5
4B9
  8
0
 10
0.0
 20
0.0
 30
0.0
 70
   128
 71
    18
 72
    19
 73
    20
  0
VERTEX
  5
4BA
  8
0
 10
0.0
 20
0.0
 30
0.0
 70
   128
 71
    18
 72
    20
 73
    21
  0
VERTEX
  5
4BB
  8
0
 10
0.0
 20
0.0
 30
0.0
 70
   128
 71
    17
 72
    16
 73
    18
  0
VERTEX
  5
4BC
  8
0
 10
0.0
 20
0.0
 30
0.0
 70
   128
 71
    17
 72
    18
 73
    21
  0
VERTEX
  5
4BD
  8
0
 10
0.0
 20
0.0
 30
0.0
 70
   128
 71
    22
 72
     7
 73
    10
  0
VERTEX
  5
4BE
  8
0
 10
0.0
 20
0.0
 30
0.0
 70
   128
 71
    23
 72
    24
 73
    22
  0
VERTEX
  5
4BF
  8
0
 10
0.0
 20
0.0
 30
0.0
 70
   128
 71
    22
 72
    10
 73
    23
  0
VERTEX
  5
4C0
  8
0
 10
0.0
 20
0.0
 30
0.0
 70
   128
 71
    19
 72
    24
 73
    23
  0
VERTEX
  5
4C1
  8
0
 10
0.0
 20
0.0
 30
0.0
 70
   128
 71
    19
 72
    23
 73
    20
  0
SEQEND
  5
548
  8
0
  0
POLYLINE
  5
4C2
  8
0
 66
     1
 10
0.0
 20
0.0
 30
0.0
 70
    64
 71
    21
 72
    19
  0
VERTEX
  5
4C3
  8
0
 10
118.5646149479402
 20
14.5460934680089
 30
19.62037584509403
 70
   192
  0
VERTEX
  5
4C4
  8
0
 10
97.6180878923334
 20
10.0
 30
10.34097636829978
 70
   192
  0
VERTEX
  5
4C5
  8
0
 10
116.1764164717988
 20
46.66998982001095
 30
73.016467137006
 70
   192
  0
VERTEX
  5
4C6
  8
0
 10
136.3369796760481
 20
27.49547501137316
 30
27.49360807693829
 70
   192
  0
VERTEX
  5
4C7
  8
0
 10
148.2420210366063
 20
46.88584133512469
 30
32.76759140978908
 70
   192
  0
VERTEX
  5
4C8
  8
0
 10
49.8152471073797
 20
10.00000000000001
 30
47.08836554722153
 70
   192
  0
VERTEX
  5
4C9
  8
0
 10
70.88316605510647
 20
46.21466221013546
 30
98.04307726283776
 70
   192
  0
VERTEX
  5
4CA
  8
0
 10
-10.82243256674492
 20
9.999999999999996
 30
55.11288972075431
 70
   192
  0
VERTEX
  5
4CB
  8
0
 10
-69.58108583934126
 20
9.99999999999998
 30
38.64117516005875
 70
   192
  0
VERTEX
  5
4CC
  8
0
 10
-81.05909346974758
 20
46.08830502262398
 30
94.3220569946964
 70
   192
  0
VERTEX
  5
4CD
  8
0
 10
-31.28212699314172
 20
45.84138641568495
 30
108.1607613684763
 70
   192
  0
VERTEX
  5
4CE
  8
0
 10
-93.08013734775543
 20
10.00000000000001
 30
18.85588363395657
 70
   192
  0
VERTEX
  5
4CF
  8
0
 10
-97.62698675146511
 20
10.0
 30
-10.32087148894695
 70
   192
  0
VERTEX
  5
4D0
  8
0
 10
-150.0999462093761
 20
46.88229398371685
 30
-28.2364951630842
 70
   192
  0
VERTEX
  5
4D1
  8
0
 10
-152.1337893678282
 20
46.74067174469614
 30
22.85837046009377
 70
   192
  0
VERTEX
  5
4D2
  8
0
 10
-149.5171715200949
 20
46.88386771125187
 30
-29.73738439957325
 70
   192
  0
VERTEX
  5
4D3
  8
0
 10
-136.3568293585866
 20
27.49546502288017
 30
-27.4487376142527
 70
   192
  0
VERTEX
  5
4D4
  8
0
 10
-148.9055647517175
 20
46.8850499987677
 30
-31.23024458419409
 70
   192
  0
VERTEX
  5
4D5
  8
0
 10
-148.2652423183677
 20
46.88582174558583
 30
-32.71510817529607
 70
   192
  0
VERTEX
  5
4D6
  8
0
 10
-118.5794370704207
 20
14.54609076617235
 30
-19.58687258532639
 70
   192
  0
VERTEX
  5
4D7
  8
0
 10
-124.4965191430302
 20
46.48104482072031
 30
66.3067952858334
 70
   192
  0
VERTEX
  5
4D8
  8
0
 10
0.0
 20
0.0
 30
0.0
 70
   128
 71
     1
 72
     2
 73
     3
  0
VERTEX
  5
4D9
  8
0
 10
0.0
 20
0.0
 30
0.0
 70
   128
 71
     3
 72
     4
 73
     1
  0
VERTEX
  5
4DA
  8
0
 10
0.0
 20
0.0
 30
0.0
 70
   128
 71
     3
 72
     5
 73
     4
  0
VERTEX
  5
4DB
  8
0
 10
0.0
 20
0.0
 30
0.0
 70
   128
 71
     2
 72
     6
 73
     7
  0
VERTEX
  5
4DC
  8
0
 10
0.0
 20
0.0
 30
0.0
 70
   128
 71
     2
 72
     7
 73
     3
  0
VERTEX
  5
4DD
  8
0
 10
0.0
 20
0.0
 30
0.0
 70
   128
 71
     8
 72
     9
 73
    10
  0
VERTEX
  5
4DE
  8
0
 10
0.0
 20
0.0
 30
0.0
 70
   128
 71
     8
 72
    10
 73
    11
  0
VERTEX
  5
4DF
  8
0
 10
0.0
 20
0.0
 30
0.0
 70
   128
 71
    12
 72
    13
 73
    14
  0
VERTEX
  5
4E0
  8
0
 10
0.0
 20
0.0
 30
0.0
 70
   128
 71
    12
 72
    14
 73
    15
  0
VERTEX
  5
4E1
  8
0
 10
0.0
 20
0.0
 30
0.0
 70
   128
 71
    16
 72
    14
 73
    17
  0
VERTEX
  5
4E2
  8
0
 10
0.0
 20
0.0
 30
0.0
 70
   128
 71
    17
 72
    18
 73
    16
  0
VERTEX
  5
4E3
  8
0
 10
0.0
 20
0.0
 30
0.0
 70
   128
 71
    17
 72
    19
 73
    18
  0
VERTEX
  5
4E4
  8
0
 10
0.0
 20
0.0
 30
0.0
 70
   128
 71
    14
 72
    20
 73
    17
  0
VERTEX
  5
4E5
  8
0
 10
0.0
 20
0.0
 30
0.0
 70
   128
 71
    14
 72
    13
 73
    20
  0
VERTEX
  5
4E6
  8
0
 10
0.0
 20
0.0
 30
0.0
 70
   128
 71
    21
 72
     9
 73
    12
  0
VERTEX
  5
4E7
  8
0
 10
0.0
 20
0.0
 30
0.0
 70
   128
 71
     6
 72
     8
 73
    11
  0
VERTEX
  5
4E8
  8
0
 10
0.0
 20
0.0
 30
0.0
 70
   128
 71
     6
 72
    11
 73
     7
  0
VERTEX
  5
4E9
  8
0
 10
0.0
 20
0.0
 30
0.0
 70
   128
 71
    10
 72
     9
 73
    21
  0
VERTEX
  5
4EA
  8
0
 10
0.0
 20
0.0
 30
0.0
 70
   128
 71
    21
 72
    12
 73
    15
  0
SEQEND
  5
549
  8
0
  0
POLYLINE
  5
4EB
  8
0
 66
     1
 10
0.0
 20
0.0
 30
0.0
 70
    64
 71
    22
 72
    20
  0
VERTEX
  5
4EC
  8
0
 10
73.25024174518249
 20
24.02975917698831
 30
-98.89362583771133
 70
   192
  0
VERTEX
  5
4ED
  8
0
 10
82.09880203949783
 20
-0.0000000000000069
 30
-54.18358389272678
 70
   192
  0
VERTEX
  5
4EE
  8
0
 10
8.556913753500112
 20
-0.0000000000000069
 30
-74.8452196296156
 70
   192
  0
VERTEX
  5
4EF
  8
0
 10
23.71843782885104
 20
23.92121803992971
 30
-110.4114105278261
 70
   192
  0
VERTEX
  5
4F0
  8
0
 10
149.4344022662165
 20
24.49126890931289
 30
-34.44371147439054
 70
   192
  0
VERTEX
  5
4F1
  8
0
 10
155.3974220859538
 20
24.66973791789999
 30
15.60025023702191
 70
   192
  0
VERTEX
  5
4F2
  8
0
 10
146.8947387613453
 20
11.70403241980406
 30
13.88935467119813
 70
   192
  0
VERTEX
  5
4F3
  8
0
 10
110.6358468874971
 20
0.0000000000000069
 30
-28.47413985466362
 70
   192
  0
VERTEX
  5
4F4
  8
0
 10
134.1767759743834
 20
3.041653830238602
 30
11.33026769737781
 70
   192
  0
VERTEX
  5
4F5
  8
0
 10
119.1777157362579
 20
0.0000000000000213
 30
8.31218215035264
 70
   192
  0
VERTEX
  5
4F6
  8
0
 10
-134.1294739415295
 20
3.041812425050935
 30
-11.56489580680524
 70
   192
  0
VERTEX
  5
4F7
  8
0
 10
-66.65833493637952
 20
0.0
 30
-61.70677044977124
 70
   192
  0
VERTEX
  5
4F8
  8
0
 10
-99.14338760998837
 20
0.0
 30
-41.08994293636206
 70
   192
  0
VERTEX
  5
4F9
  8
0
 10
-119.1420522088468
 20
0.0
 30
-8.48763062785326
 70
   192
  0
VERTEX
  5
4FA
  8
0
 10
-146.8374493919146
 20
11.70461855874404
 30
-14.17413781293158
 70
   192
  0
VERTEX
  5
4FB
  8
0
 10
-155.3332146788909
 20
24.67088683441554
 30
-15.91851540852229
 70
   192
  0
VERTEX
  5
4FC
  8
0
 10
-154.0971665253479
 20
24.68893128093303
 30
-21.11963784798763
 70
   192
  0
VERTEX
  5
4FD
  8
0
 10
-152.5393614653114
 20
24.70474502675762
 30
-26.21342796973599
 70
   192
  0
VERTEX
  5
4FE
  8
0
 10
-150.6701376725445
 20
24.71768346591382
 30
-31.20191157432459
 70
   192
  0
VERTEX
  5
4FF
  8
0
 10
-120.2010439748912
 20
24.63466778413762
 30
-71.76797552066111
 70
   192
  0
VERTEX
  5
500
  8
0
 10
117.7062403230789
 20
24.27554133251713
 30
-74.11929648571433
 70
   192
  0
VERTEX
  5
501
  8
0
 10
-76.35146710109741
 20
24.30696715366121
 30
-97.52248423787873
 70
   192
  0
VERTEX
  5
502
  8
0
 10
0.0
 20
0.0
 30
0.0
 70
   128
 71
     1
 72
     2
 73
     3
  0
VERTEX
  5
503
  8
0
 10
0.0
 20
0.0
 30
0.0
 70
   128
 71
     4
 72
     1
 73
     3
  0
VERTEX
  5
504
  8
0
 10
0.0
 20
0.0
 30
0.0
 70
   128
 71
     5
 72
     6
 73
     7
  0
VERTEX
  5
505
  8
0
 10
0.0
 20
0.0
 30
0.0
 70
   128
 71
     8
 72
     5
 73
     7
  0
VERTEX
  5
506
  8
0
 10
0.0
 20
0.0
 30
0.0
 70
   128
 71
     7
 72
     9
 73
     8
  0
VERTEX
  5
507
  8
0
 10
0.0
 20
0.0
 30
0.0
 70
   128
 71
     9
 72
    10
 73
     8
  0
VERTEX
  5
508
  8
0
 10
0.0
 20
0.0
 30
0.0
 70
   128
 71
    11
 72
    12
 73
    13
  0
VERTEX
  5
509
  8
0
 10
0.0
 20
0.0
 30
0.0
 70
   128
 71
    13
 72
    14
 73
    11
  0
VERTEX
  5
50A
  8
0
 10
0.0
 20
0.0
 30
0.0
 70
   128
 71
    11
 72
    15
 73
    12
  0
VERTEX
  5
50B
  8
0
 10
0.0
 20
0.0
 30
0.0
 70
   128
 71
    15
 72
    16
 73
    17
  0
VERTEX
  5
50C
  8
0
 10
0.0
 20
0.0
 30
0.0
 70
   128
 71
    17
 72
    18
 73
    15
  0
VERTEX
  5
50D
  8
0
 10
0.0
 20
0.0
 30
0.0
 70
   128
 71
    18
 72
    19
 73
    15
  0
VERTEX
  5
50E
  8
0
 10
0.0
 20
0.0
 30
0.0
 70
   128
 71
    19
 72
    20
 73
    15
  0
VERTEX
  5
50F
  8
0
 10
0.0
 20
0.0
 30
0.0
 70
   128
 71
    21
 72
     2
 73
     1
  0
VERTEX
  5
510
  8
0
 10
0.0
 20
0.0
 30
0.0
 70
   128
 71
     3
 72
    12
 73
    22
  0
VERTEX
  5
511
  8
0
 10
0.0
 20
0.0
 30
0.0
 70
   128
 71
     4
 72
     3
 73
    22
  0
VERTEX
  5
512
  8
0
 10
0.0
 20
0.0
 30
0.0
 70
   128
 71
     2
 72
    21
 73
     5
  0
VERTEX
  5
513
  8
0
 10
0.0
 20
0.0
 30
0.0
 70
   128
 71
     8
 72
     2
 73
     5
  0
VERTEX
  5
514
  8
0
 10
0.0
 20
0.0
 30
0.0
 70
   128
 71
    15
 72
    20
 73
    22
  0
VERTEX
  5
515
  8
0
 10
0.0
 20
0.0
 30
0.0
 70
   128
 71
    12
 72
    15
 73
    22
  0
SEQEND
  5
54A
  8
0
  0
POLYLINE
  5
516
  8
0
 66
     1
 10
0.0
 20
0.0
 30
0.0
 70
    64
 71
    10
 72
     8
  0
VERTEX
  5
517
  8
0
 10
0.0
 20
0.0
 30
22.5
 70
   192
  0
VERTEX
  5
518
  8
0
 10
0.0000000000000028
 20
0.0
 30
-22.5
 70
   192
  0
VERTEX
  5
519
  8
0
 10
0.0000000000000028
 20
5.000000000000003
 30
-22.5
 70
   192
  0
VERTEX
  5
51A
  8
0
 10
0.0
 20
5.000000000000003
 30
22.5
 70
   192
  0
VERTEX
  5
51B
  8
0
 10
22.50000000000001
 20
5.000000000000003
 30
0.0
 70
   192
  0
VERTEX
  5
51C
  8
0
 10
22.50000000000001
 20
0.0
 30
0.0
 70
   192
  0
VERTEX
  5
51D
  8
0
 10
15.90990257669732
 20
5.000000000000003
 30
15.90990257669732
 70
   192
  0
VERTEX
  5
51E
  8
0
 10
15.90990257669732
 20
0.0
 30
15.90990257669732
 70
   192
  0
VERTEX
  5
51F
  8
0
 10
15.90990257669733
 20
5.000000000000003
 30
-15.90990257669733
 70
   192
  0
VERTEX
  5
520
  8
0
 10
15.90990257669733
 20
0.0
 30
-15.90990257669733
 70
   192
  0
VERTEX
  5
521
  8
0
 10
0.0
 20
0.0
 30
0.0
 70
   128
 71
     8
 72
     1
 73
    -4
  0
VERTEX
  5
522
  8
0
 10
0.0
 20
0.0
 30
0.0
 70
   128
 71
     7
 72
    -8
 73
     4
  0
VERTEX
  5
523
  8
0
 10
0.0
 20
0.0
 30
0.0
 70
   128
 71
     6
 72
     8
 73
    -7
  0
VERTEX
  5
524
  8
0
 10
0.0
 20
0.0
 30
0.0
 70
   128
 71
     5
 72
    -6
 73
     7
  0
VERTEX
  5
525
  8
0
 10
0.0
 20
0.0
 30
0.0
 70
   128
 71
    10
 72
     6
 73
    -5
  0
VERTEX
  5
526
  8
0
 10
0.0
 20
0.0
 30
0.0
 70
   128
 71
     9
 72
   -10
 73
     5
  0
VERTEX
  5
527
  8
0
 10
0.0
 20
0.0
 30
0.0
 70
   128
 71
     3
 72
     2
 73
   -10
  0
VERTEX
  5
528
  8
0
 10
0.0
 20
0.0
 30
0.0
 70
   128
 71
     9
 72
    -3
 73
    10
  0
SEQEND
  5
54B
  8
0
  0
POLYLINE
  5
529
  8
0
 66
     1
 10
0.0
 20
0.0
 30
0.0
 70
    64
 71
    10
 72
     8
  0
VERTEX
  5
52A
  8
0
 10
0.0
 20
5.000000000000003
 30
22.5
 70
   192
  0
VERTEX
  5
52B
  8
0
 10
0.0000000000000028
 20
5.000000000000003
 30
-22.5
 70
   192
  0
VERTEX
  5
52C
  8
0
 10
0.0000000000000046
 20
10.0
 30
-37.5000000000002
 70
   192
  0
VERTEX
  5
52D
  8
0
 10
0.0
 20
10.0
 30
37.5000000000002
 70
   192
  0
VERTEX
  5
52E
  8
0
 10
37.5000000000002
 20
10.0
 30
-0.0000000000000042
 70
   192
  0
VERTEX
  5
52F
  8
0
 10
22.50000000000001
 20
5.000000000000003
 30
0.0
 70
   192
  0
VERTEX
  5
530
  8
0
 10
26.51650429449568
 20
10.0
 30
26.51650429449567
 70
   192
  0
VERTEX
  5
531
  8
0
 10
15.90990257669732
 20
5.000000000000003
 30
15.90990257669732
 70
   192
  0
VERTEX
  5
532
  8
0
 10
26.51650429449567
 20
10.0
 30
-26.51650429449568
 70
   192
  0
VERTEX
  5
533
  8
0
 10
15.90990257669733
 20
5.000000000000003
 30
-15.90990257669733
 70
   192
  0
VERTEX
  5
534
  8
0
 10
0.0
 20
0.0
 30
0.0
 70
   128
 71
     8
 72
     1
 73
    -4
  0
VERTEX
  5
535
  8
0
 10
0.0
 20
0.0
 30
0.0
 70
   128
 71
     7
 72
    -8
 73
     4
  0
VERTEX
  5
536
  8
0
 10
0.0
 20
0.0
 30
0.0
 70
   128
 71
     6
 72
     8
 73
    -7
  0
VERTEX
  5
537
  8
0
 10
0.0
 20
0.0
 30
0.0
 70
   128
 71
     5
 72
    -6
 73
     7
  0
VERTEX
  5
538
  8
0
 10
0.0
 20
0.0
 30
0.0
 70
   128
 71
    10
 72
     6
 73
    -5
  0
VERTEX
  5
539
  8
0
 10
0.0
 20
0.0
 30
0.0
 70
   128
 71
     9
 72
   -10
 73
     5
  0
VERTEX
  5
53A
  8
0
 10
0.0
 20
0.0
 30
0.0
 70
   128
 71
     3
 72
     2
 73
   -10
  0
VERTEX
  5
53B
  8
0
 10
0.0
 20
0.0
 30
0.0
 70
   128
 71
     9
 72
    -3
 73
    10
  0
SEQEND
  5
54C
  8
0
  0
ENDBLK
  5
53D
  8
0
  0
ENDSEC
  0
SECTION
  2
ENTITIES
  0
INSERT
  5
BD
  8
0
  2
*X1
 10
0.0
 20
0.0
 30
0.0
  0
ENDSEC
  0
EOF
