  0
SECTION
  2
HEADER
  9
$ACADVER
  1
AC1009
  9
$DWGCODEPAGE
  3
ansi_1250
  9
$INSBASE
 10
0.0
 20
0.0
 30
0.0
  9
$EXTMIN
 10
-400.0
 20
-30.00000000000006
 30
-60.0
  9
$EXTMAX
 10
400.0
 20
30.00000000000004
 30
10.0
  9
$LIMMIN
 10
0.0
 20
0.0
  9
$LIMMAX
 10
420.0
 20
297.0
  9
$ORTHOMODE
 70
     0
  9
$REGENMODE
 70
     1
  9
$FILLMODE
 70
     1
  9
$QTEXTMODE
 70
     0
  9
$MIRRTEXT
 70
     0
  9
$DRAGMODE
 70
     2
  9
$LTSCALE
 40
1.0
  9
$OSMODE
 70
   511
  9
$ATTMODE
 70
     1
  9
$TEXTSIZE
 40
2.5
  9
$TRACEWID
 40
1.0
  9
$TEXTSTYLE
  7
STANDARD
  9
$CLAYER
  8
0
  9
$CELTYPE
  6
BYLAYER
  9
$CECOLOR
 62
   256
  9
$DIMSCALE
 40
1.0
  9
$DIMASZ
 40
2.5
  9
$DIMEXO
 40
0.625
  9
$DIMDLI
 40
3.75
  9
$DIMRND
 40
0.0
  9
$DIMDLE
 40
0.0
  9
$DIMEXE
 40
1.25
  9
$DIMTP
 40
0.0
  9
$DIMTM
 40
0.0
  9
$DIMTXT
 40
2.5
  9
$DIMCEN
 40
-2.5
  9
$DIMTSZ
 40
0.0
  9
$DIMTOL
 70
     0
  9
$DIMLIM
 70
     0
  9
$DIMTIH
 70
     0
  9
$DIMTOH
 70
     0
  9
$DIMSE1
 70
     0
  9
$DIMSE2
 70
     0
  9
$DIMTAD
 70
     1
  9
$DIMZIN
 70
     8
  9
$DIMBLK
  1

  9
$DIMASO
 70
     1
  9
$DIMSHO
 70
     1
  9
$DIMPOST
  1

  9
$DIMAPOST
  1

  9
$DIMALT
 70
     0
  9
$DIMALTD
 70
     3
  9
$DIMALTF
 40
0.03937007874016
  9
$DIMLFAC
 40
1.0
  9
$DIMTOFL
 70
     1
  9
$DIMTVP
 40
0.0
  9
$DIMTIX
 70
     0
  9
$DIMSOXD
 70
     0
  9
$DIMSAH
 70
     0
  9
$DIMBLK1
  1

  9
$DIMBLK2
  1

  9
$DIMSTYLE
  2
ISO-25
  9
$DIMCLRD
 70
     0
  9
$DIMCLRE
 70
     0
  9
$DIMCLRT
 70
     0
  9
$DIMTFAC
 40
1.0
  9
$DIMGAP
 40
0.625
  9
$LUNITS
 70
     2
  9
$LUPREC
 70
     3
  9
$SKETCHINC
 40
1.0
  9
$FILLETRAD
 40
10.0
  9
$AUNITS
 70
     0
  9
$AUPREC
 70
     0
  9
$MENU
  1
.
  9
$ELEVATION
 40
0.0
  9
$PELEVATION
 40
0.0
  9
$THICKNESS
 40
0.0
  9
$LIMCHECK
 70
     0
  9
$CHAMFERA
 40
10.0
  9
$CHAMFERB
 40
10.0
  9
$SKPOLY
 70
     0
  9
$TDCREATE
 40
2455022.679026181
  9
$TDUPDATE
 40
2460356.533933495
  9
$TDINDWG
 40
0.0002113426
  9
$TDUSRTIMER
 40
0.0002113426
  9
$USRTIMER
 70
     1
  9
$ANGBASE
 50
0.0
  9
$ANGDIR
 70
     0
  9
$PDMODE
 70
     0
  9
$PDSIZE
 40
0.0
  9
$PLINEWID
 40
0.0
  9
$COORDS
 70
     1
  9
$SPLFRAME
 70
     0
  9
$SPLINETYPE
 70
     6
  9
$SPLINESEGS
 70
     8
  9
$ATTDIA
 70
     0
  9
$ATTREQ
 70
     1
  9
$HANDLING
 70
     1
  9
$HANDSEED
  5
200
  9
$SURFTAB1
 70
     6
  9
$SURFTAB2
 70
     6
  9
$SURFTYPE
 70
     6
  9
$SURFU
 70
     6
  9
$SURFV
 70
     6
  9
$UCSNAME
  2

  9
$UCSORG
 10
0.0
 20
0.0
 30
0.0
  9
$UCSXDIR
 10
1.0
 20
0.0
 30
0.0
  9
$UCSYDIR
 10
0.0
 20
1.0
 30
0.0
  9
$PUCSNAME
  2

  9
$PUCSORG
 10
0.0
 20
0.0
 30
0.0
  9
$PUCSXDIR
 10
1.0
 20
0.0
 30
0.0
  9
$PUCSYDIR
 10
0.0
 20
1.0
 30
0.0
  9
$USERI1
 70
     0
  9
$USERI2
 70
     0
  9
$USERI3
 70
     0
  9
$USERI4
 70
     0
  9
$USERI5
 70
     0
  9
$USERR1
 40
0.0
  9
$USERR2
 40
0.0
  9
$USERR3
 40
0.0
  9
$USERR4
 40
0.0
  9
$USERR5
 40
0.0
  9
$WORLDVIEW
 70
     1
  9
$SHADEDGE
 70
     3
  9
$SHADEDIF
 70
    70
  9
$TILEMODE
 70
     1
  9
$MAXACTVP
 70
    64
  9
$PLIMCHECK
 70
     0
  9
$PEXTMIN
 10
1.000000000000000E+20
 20
1.000000000000000E+20
 30
1.000000000000000E+20
  9
$PEXTMAX
 10
-1.000000000000000E+20
 20
-1.000000000000000E+20
 30
-1.000000000000000E+20
  9
$PLIMMIN
 10
0.0
 20
0.0
  9
$PLIMMAX
 10
0.0
 20
0.0
  9
$UNITMODE
 70
     0
  9
$VISRETAIN
 70
     1
  9
$PLINEGEN
 70
     0
  9
$PSLTSCALE
 70
     1
  0
ENDSEC
  0
SECTION
  2
TABLES
  0
TABLE
  2
VPORT
 70
     1
  0
VPORT
  2
*ACTIVE
 70
     0
 10
0.0
 20
0.0
 11
1.0
 21
1.0
 12
0.0
 22
0.0
 13
0.0
 23
0.0
 14
10.0
 24
10.0
 15
10.0
 25
10.0
 16
0.0
 26
0.0
 36
1.0
 17
0.0
 27
0.0
 37
0.0
 40
431.6521739130435
 41
1.89041095890411
 42
50.0
 43
0.0
 44
0.0
 50
0.0
 51
0.0
 71
    16
 72
  1000
 73
     1
 74
     3
 75
     0
 76
     0
 77
     0
 78
     0
  0
ENDTAB
  0
TABLE
  2
LTYPE
 70
     1
  0
LTYPE
  2
CONTINUOUS
 70
     0
  3
Solid line
 72
    65
 73
     0
 40
0.0
  0
ENDTAB
  0
TABLE
  2
LAYER
 70
     1
  0
LAYER
  2
0
 70
     0
 62
     7
  6
CONTINUOUS
  0
ENDTAB
  0
TABLE
  2
STYLE
 70
     2
  0
STYLE
  2
STANDARD
 70
     0
 40
0.0
 41
1.0
 50
0.0
 71
     0
 42
2.5
  3
arial.ttf
  4

  0
STYLE
  2
ANNOTATIVE
 70
     0
 40
0.0
 41
1.0
 50
0.0
 71
     0
 42
2.5
  3
arial.ttf
  4

  0
ENDTAB
  0
TABLE
  2
VIEW
 70
     0
  0
ENDTAB
  0
TABLE
  2
UCS
 70
     0
  0
ENDTAB
  0
TABLE
  2
APPID
 70
     2
  0
APPID
  2
ACAD
 70
     0
  0
APPID
  2
ACADANNOTATIVE
 70
     0
  0
ENDTAB
  0
TABLE
  2
DIMSTYLE
 70
     2
  0
DIMSTYLE
  2
ISO-25
 70
     0
  3

  4

  5

  6

  7

 40
1.0
 41
2.5
 42
0.625
 43
3.75
 44
1.25
 45
0.0
 46
0.0
 47
0.0
 48
0.0
140
2.5
141
-2.5
142
0.0
143
0.03937007874016
144
1.0
145
0.0
146
1.0
147
0.625
 71
     0
 72
     0
 73
     0
 74
     0
 75
     0
 76
     0
 77
     1
 78
     8
170
     0
171
     3
172
     1
173
     0
174
     0
175
     0
176
     0
177
     0
178
     0
  0
DIMSTYLE
  2
ANNOTATIVE
 70
     0
  3

  4

  5

  6

  7

 40
0.0
 41
2.5
 42
0.625
 43
3.75
 44
1.25
 45
0.0
 46
0.0
 47
0.0
 48
0.0
140
2.5
141
-2.5
142
0.0
143
0.03937007874016
144
1.0
145
0.0
146
1.0
147
0.625
 71
     0
 72
     0
 73
     0
 74
     0
 75
     0
 76
     0
 77
     1
 78
     8
170
     0
171
     3
172
     1
173
     0
174
     0
175
     0
176
     0
177
     0
178
     0
  0
ENDTAB
  0
ENDSEC
  0
SECTION
  2
BLOCKS
  0
BLOCK
  8
0
  2
$MODEL_SPACE
 70
     0
 10
0.0
 20
0.0
 30
0.0
  3
$MODEL_SPACE
  1

  0
ENDBLK
  5
21
  8
0
  0
BLOCK
 67
     1
  8
0
  2
$PAPER_SPACE
 70
     0
 10
0.0
 20
0.0
 30
0.0
  3
$PAPER_SPACE
  1

  0
ENDBLK
  5
1D
 67
     1
  8
0
  0
BLOCK
  8
0
  2
*X1
 70
     1
 10
0.0
 20
0.0
 30
0.0
  3
*X1
  1

  0
POLYLINE
  5
16A
  8
0
 66
     1
 10
0.0
 20
0.0
 30
0.0
 70
    64
 71
     4
 72
     2
  0
VERTEX
  5
16B
  8
0
 10
-360.0
 20
19.99999999999995
 30
0.0
 70
   192
  0
VERTEX
  5
16C
  8
0
 10
-360.0
 20
19.99999999999995
 30
-60.0
 70
   192
  0
VERTEX
  5
16D
  8
0
 10
-360.0
 20
-20.00000000000005
 30
-60.0
 70
   192
  0
VERTEX
  5
16E
  8
0
 10
-360.0
 20
-20.00000000000005
 30
0.0
 70
   192
  0
VERTEX
  5
16F
  8
0
 10
0.0
 20
0.0
 30
0.0
 70
   128
 71
     1
 72
     4
 73
    -3
  0
VERTEX
  5
170
  8
0
 10
0.0
 20
0.0
 30
0.0
 70
   128
 71
    -1
 72
     3
 73
     2
  0
SEQEND
  5
1F0
  8
0
  0
POLYLINE
  5
171
  8
0
 66
     1
 10
0.0
 20
0.0
 30
0.0
 70
    64
 71
     4
 72
     2
  0
VERTEX
  5
172
  8
0
 10
-360.0
 20
-20.00000000000005
 30
0.0
 70
   192
  0
VERTEX
  5
173
  8
0
 10
-360.0
 20
-20.00000000000005
 30
-60.0
 70
   192
  0
VERTEX
  5
174
  8
0
 10
-380.0
 20
-20.00000000000005
 30
-60.0
 70
   192
  0
VERTEX
  5
175
  8
0
 10
-380.0
 20
-20.00000000000005
 30
0.0
 70
   192
  0
VERTEX
  5
176
  8
0
 10
0.0
 20
0.0
 30
0.0
 70
   128
 71
     1
 72
     4
 73
    -3
  0
VERTEX
  5
177
  8
0
 10
0.0
 20
0.0
 30
0.0
 70
   128
 71
    -1
 72
     3
 73
     2
  0
SEQEND
  5
1F1
  8
0
  0
POLYLINE
  5
178
  8
0
 66
     1
 10
0.0
 20
0.0
 30
0.0
 70
    64
 71
     4
 72
     2
  0
VERTEX
  5
179
  8
0
 10
-380.0
 20
-20.00000000000006
 30
0.0
 70
   192
  0
VERTEX
  5
17A
  8
0
 10
-380.0
 20
19.99999999999994
 30
0.0
 70
   192
  0
VERTEX
  5
17B
  8
0
 10
-380.0
 20
19.99999999999995
 30
-60.0
 70
   192
  0
VERTEX
  5
17C
  8
0
 10
-380.0
 20
-20.00000000000006
 30
-60.0
 70
   192
  0
VERTEX
  5
17D
  8
0
 10
0.0
 20
0.0
 30
0.0
 70
   128
 71
     3
 72
     4
 73
    -1
  0
VERTEX
  5
17E
  8
0
 10
0.0
 20
0.0
 30
0.0
 70
   128
 71
     2
 72
    -3
 73
     1
  0
SEQEND
  5
1F2
  8
0
  0
POLYLINE
  5
17F
  8
0
 66
     1
 10
0.0
 20
0.0
 30
0.0
 70
    64
 71
     4
 72
     2
  0
VERTEX
  5
180
  8
0
 10
-380.0
 20
19.99999999999995
 30
0.0
 70
   192
  0
VERTEX
  5
181
  8
0
 10
-360.0
 20
19.99999999999996
 30
0.0
 70
   192
  0
VERTEX
  5
182
  8
0
 10
-360.0
 20
19.99999999999995
 30
-60.0
 70
   192
  0
VERTEX
  5
183
  8
0
 10
-380.0
 20
19.99999999999995
 30
-60.0
 70
   192
  0
VERTEX
  5
184
  8
0
 10
0.0
 20
0.0
 30
0.0
 70
   128
 71
     3
 72
     4
 73
    -1
  0
VERTEX
  5
185
  8
0
 10
0.0
 20
0.0
 30
0.0
 70
   128
 71
     2
 72
    -3
 73
     1
  0
SEQEND
  5
1F3
  8
0
  0
POLYLINE
  5
186
  8
0
 66
     1
 10
0.0
 20
0.0
 30
0.0
 70
    64
 71
     4
 72
     2
  0
VERTEX
  5
187
  8
0
 10
-360.0
 20
19.99999999999996
 30
-60.0
 70
   192
  0
VERTEX
  5
188
  8
0
 10
-380.0
 20
19.99999999999994
 30
-60.0
 70
   192
  0
VERTEX
  5
189
  8
0
 10
-380.0
 20
-20.00000000000005
 30
-60.0
 70
   192
  0
VERTEX
  5
18A
  8
0
 10
-360.0
 20
-20.00000000000005
 30
-60.0
 70
   192
  0
VERTEX
  5
18B
  8
0
 10
0.0
 20
0.0
 30
0.0
 70
   128
 71
     1
 72
     4
 73
    -3
  0
VERTEX
  5
18C
  8
0
 10
0.0
 20
0.0
 30
0.0
 70
   128
 71
    -1
 72
     3
 73
     2
  0
SEQEND
  5
1F4
  8
0
  0
POLYLINE
  5
18D
  8
0
 66
     1
 10
0.0
 20
0.0
 30
0.0
 70
    64
 71
     4
 72
     2
  0
VERTEX
  5
18E
  8
0
 10
-400.0
 20
29.99999999999994
 30
0.0
 70
   192
  0
VERTEX
  5
18F
  8
0
 10
-400.0
 20
29.99999999999995
 30
10.0
 70
   192
  0
VERTEX
  5
190
  8
0
 10
-400.0
 20
-30.00000000000005
 30
10.0
 70
   192
  0
VERTEX
  5
191
  8
0
 10
-400.0
 20
-30.00000000000005
 30
0.0
 70
   192
  0
VERTEX
  5
192
  8
0
 10
0.0
 20
0.0
 30
0.0
 70
   128
 71
     1
 72
     4
 73
    -3
  0
VERTEX
  5
193
  8
0
 10
0.0
 20
0.0
 30
0.0
 70
   128
 71
    -1
 72
     3
 73
     2
  0
SEQEND
  5
1F5
  8
0
  0
POLYLINE
  5
194
  8
0
 66
     1
 10
0.0
 20
0.0
 30
0.0
 70
    64
 71
     4
 72
     2
  0
VERTEX
  5
195
  8
0
 10
-400.0
 20
-30.00000000000005
 30
0.0
 70
   192
  0
VERTEX
  5
196
  8
0
 10
-400.0
 20
-30.00000000000005
 30
10.0
 70
   192
  0
VERTEX
  5
197
  8
0
 10
400.0
 20
-29.99999999999996
 30
10.0
 70
   192
  0
VERTEX
  5
198
  8
0
 10
400.0
 20
-29.99999999999996
 30
0.0
 70
   192
  0
VERTEX
  5
199
  8
0
 10
0.0
 20
0.0
 30
0.0
 70
   128
 71
     1
 72
     4
 73
    -3
  0
VERTEX
  5
19A
  8
0
 10
0.0
 20
0.0
 30
0.0
 70
   128
 71
    -1
 72
     3
 73
     2
  0
SEQEND
  5
1F6
  8
0
  0
POLYLINE
  5
19B
  8
0
 66
     1
 10
0.0
 20
0.0
 30
0.0
 70
    64
 71
     4
 72
     2
  0
VERTEX
  5
19C
  8
0
 10
400.0
 20
-29.99999999999996
 30
0.0
 70
   192
  0
VERTEX
  5
19D
  8
0
 10
400.0
 20
-29.99999999999996
 30
10.0
 70
   192
  0
VERTEX
  5
19E
  8
0
 10
400.0
 20
30.00000000000004
 30
10.0
 70
   192
  0
VERTEX
  5
19F
  8
0
 10
400.0
 20
30.00000000000004
 30
0.0
 70
   192
  0
VERTEX
  5
1A0
  8
0
 10
0.0
 20
0.0
 30
0.0
 70
   128
 71
     1
 72
     4
 73
    -3
  0
VERTEX
  5
1A1
  8
0
 10
0.0
 20
0.0
 30
0.0
 70
   128
 71
    -1
 72
     3
 73
     2
  0
SEQEND
  5
1F7
  8
0
  0
POLYLINE
  5
1A2
  8
0
 66
     1
 10
0.0
 20
0.0
 30
0.0
 70
    64
 71
     4
 72
     2
  0
VERTEX
  5
1A3
  8
0
 10
400.0
 20
30.00000000000004
 30
0.0
 70
   192
  0
VERTEX
  5
1A4
  8
0
 10
400.0
 20
30.00000000000004
 30
10.0
 70
   192
  0
VERTEX
  5
1A5
  8
0
 10
-400.0
 20
29.99999999999994
 30
10.0
 70
   192
  0
VERTEX
  5
1A6
  8
0
 10
-400.0
 20
29.99999999999994
 30
0.0
 70
   192
  0
VERTEX
  5
1A7
  8
0
 10
0.0
 20
0.0
 30
0.0
 70
   128
 71
     1
 72
     4
 73
    -3
  0
VERTEX
  5
1A8
  8
0
 10
0.0
 20
0.0
 30
0.0
 70
   128
 71
    -1
 72
     3
 73
     2
  0
SEQEND
  5
1F8
  8
0
  0
POLYLINE
  5
1A9
  8
0
 66
     1
 10
0.0
 20
0.0
 30
0.0
 70
    64
 71
     4
 72
     2
  0
VERTEX
  5
1AA
  8
0
 10
-400.0
 20
29.99999999999995
 30
10.0
 70
   192
  0
VERTEX
  5
1AB
  8
0
 10
-400.0
 20
-30.00000000000005
 30
10.0
 70
   192
  0
VERTEX
  5
1AC
  8
0
 10
400.0
 20
-29.99999999999996
 30
10.0
 70
   192
  0
VERTEX
  5
1AD
  8
0
 10
400.0
 20
30.00000000000004
 30
10.0
 70
   192
  0
VERTEX
  5
1AE
  8
0
 10
0.0
 20
0.0
 30
0.0
 70
   128
 71
     3
 72
     4
 73
    -1
  0
VERTEX
  5
1AF
  8
0
 10
0.0
 20
0.0
 30
0.0
 70
   128
 71
     2
 72
    -3
 73
     1
  0
SEQEND
  5
1F9
  8
0
  0
POLYLINE
  5
1B0
  8
0
 66
     1
 10
0.0
 20
0.0
 30
0.0
 70
    64
 71
    12
 72
    14
  0
VERTEX
  5
1B1
  8
0
 10
-400.0
 20
-30.00000000000005
 30
0.0
 70
   192
  0
VERTEX
  5
1B2
  8
0
 10
400.0
 20
-29.99999999999996
 30
0.0
 70
   192
  0
VERTEX
  5
1B3
  8
0
 10
400.0
 20
30.00000000000004
 30
0.0
 70
   192
  0
VERTEX
  5
1B4
  8
0
 10
-400.0
 20
29.99999999999995
 30
0.0
 70
   192
  0
VERTEX
  5
1B5
  8
0
 10
-360.0
 20
-20.00000000000005
 30
0.0
 70
   192
  0
VERTEX
  5
1B6
  8
0
 10
-380.0
 20
-20.00000000000006
 30
0.0
 70
   192
  0
VERTEX
  5
1B7
  8
0
 10
-380.0
 20
19.99999999999995
 30
0.0
 70
   192
  0
VERTEX
  5
1B8
  8
0
 10
-360.0
 20
19.99999999999995
 30
0.0
 70
   192
  0
VERTEX
  5
1B9
  8
0
 10
379.9999999999999
 20
-19.99999999999995
 30
0.0
 70
   192
  0
VERTEX
  5
1BA
  8
0
 10
359.9999999999999
 20
-19.99999999999995
 30
0.0
 70
   192
  0
VERTEX
  5
1BB
  8
0
 10
359.9999999999999
 20
20.00000000000005
 30
0.0
 70
   192
  0
VERTEX
  5
1BC
  8
0
 10
379.9999999999999
 20
20.00000000000006
 30
0.0
 70
   192
  0
VERTEX
  5
1BD
  8
0
 10
0.0
 20
0.0
 30
0.0
 70
   128
 71
     6
 72
    -5
 73
    -1
  0
VERTEX
  5
1BE
  8
0
 10
0.0
 20
0.0
 30
0.0
 70
   128
 71
     1
 72
    -4
 73
    -7
  0
VERTEX
  5
1BF
  8
0
 10
0.0
 20
0.0
 30
0.0
 70
   128
 71
    -1
 72
     7
 73
    -6
  0
VERTEX
  5
1C0
  8
0
 10
0.0
 20
0.0
 30
0.0
 70
   128
 71
    -4
 72
     8
 73
    -7
  0
VERTEX
  5
1C1
  8
0
 10
0.0
 20
0.0
 30
0.0
 70
   128
 71
    10
 72
    -9
 73
    -2
  0
VERTEX
  5
1C2
  8
0
 10
0.0
 20
0.0
 30
0.0
 70
   128
 71
    -8
 72
    -4
 73
   -11
  0
VERTEX
  5
1C3
  8
0
 10
0.0
 20
0.0
 30
0.0
 70
   128
 71
   -10
 72
    -2
 73
    -5
  0
VERTEX
  5
1C4
  8
0
 10
0.0
 20
0.0
 30
0.0
 70
   128
 71
     5
 72
    -8
 73
   -11
  0
VERTEX
  5
1C5
  8
0
 10
0.0
 20
0.0
 30
0.0
 70
   128
 71
    -5
 72
    11
 73
   -10
  0
VERTEX
  5
1C6
  8
0
 10
0.0
 20
0.0
 30
0.0
 70
   128
 71
     4
 72
    -3
 73
   -11
  0
VERTEX
  5
1C7
  8
0
 10
0.0
 20
0.0
 30
0.0
 70
   128
 71
    -3
 72
    12
 73
   -11
  0
VERTEX
  5
1C8
  8
0
 10
0.0
 20
0.0
 30
0.0
 70
   128
 71
     3
 72
    -2
 73
    -9
  0
VERTEX
  5
1C9
  8
0
 10
0.0
 20
0.0
 30
0.0
 70
   128
 71
    -3
 72
     9
 73
   -12
  0
VERTEX
  5
1CA
  8
0
 10
0.0
 20
0.0
 30
0.0
 70
   128
 71
     2
 72
    -1
 73
    -5
  0
SEQEND
  5
1FA
  8
0
  0
POLYLINE
  5
1CB
  8
0
 66
     1
 10
0.0
 20
0.0
 30
0.0
 70
    64
 71
     4
 72
     2
  0
VERTEX
  5
1CC
  8
0
 10
359.9999999999999
 20
20.00000000000005
 30
0.0
 70
   192
  0
VERTEX
  5
1CD
  8
0
 10
379.9999999999999
 20
20.00000000000005
 30
0.0
 70
   192
  0
VERTEX
  5
1CE
  8
0
 10
379.9999999999999
 20
20.00000000000005
 30
-60.0
 70
   192
  0
VERTEX
  5
1CF
  8
0
 10
359.9999999999999
 20
20.00000000000005
 30
-60.0
 70
   192
  0
VERTEX
  5
1D0
  8
0
 10
0.0
 20
0.0
 30
0.0
 70
   128
 71
     3
 72
     4
 73
    -1
  0
VERTEX
  5
1D1
  8
0
 10
0.0
 20
0.0
 30
0.0
 70
   128
 71
     2
 72
    -3
 73
     1
  0
SEQEND
  5
1FB
  8
0
  0
POLYLINE
  5
1D2
  8
0
 66
     1
 10
0.0
 20
0.0
 30
0.0
 70
    64
 71
     4
 72
     2
  0
VERTEX
  5
1D3
  8
0
 10
379.9999999999999
 20
20.00000000000005
 30
0.0
 70
   192
  0
VERTEX
  5
1D4
  8
0
 10
379.9999999999999
 20
20.00000000000006
 30
-60.0
 70
   192
  0
VERTEX
  5
1D5
  8
0
 10
379.9999999999999
 20
-19.99999999999995
 30
-60.0
 70
   192
  0
VERTEX
  5
1D6
  8
0
 10
379.9999999999999
 20
-19.99999999999994
 30
0.0
 70
   192
  0
VERTEX
  5
1D7
  8
0
 10
0.0
 20
0.0
 30
0.0
 70
   128
 71
     1
 72
     4
 73
    -3
  0
VERTEX
  5
1D8
  8
0
 10
0.0
 20
0.0
 30
0.0
 70
   128
 71
    -1
 72
     3
 73
     2
  0
SEQEND
  5
1FC
  8
0
  0
POLYLINE
  5
1D9
  8
0
 66
     1
 10
0.0
 20
0.0
 30
0.0
 70
    64
 71
     4
 72
     2
  0
VERTEX
  5
1DA
  8
0
 10
379.9999999999999
 20
-19.99999999999995
 30
0.0
 70
   192
  0
VERTEX
  5
1DB
  8
0
 10
379.9999999999999
 20
-19.99999999999995
 30
-60.0
 70
   192
  0
VERTEX
  5
1DC
  8
0
 10
359.9999999999999
 20
-19.99999999999995
 30
-60.0
 70
   192
  0
VERTEX
  5
1DD
  8
0
 10
359.9999999999999
 20
-19.99999999999996
 30
0.0
 70
   192
  0
VERTEX
  5
1DE
  8
0
 10
0.0
 20
0.0
 30
0.0
 70
   128
 71
     1
 72
     4
 73
    -3
  0
VERTEX
  5
1DF
  8
0
 10
0.0
 20
0.0
 30
0.0
 70
   128
 71
    -1
 72
     3
 73
     2
  0
SEQEND
  5
1FD
  8
0
  0
POLYLINE
  5
1E0
  8
0
 66
     1
 10
0.0
 20
0.0
 30
0.0
 70
    64
 71
     4
 72
     2
  0
VERTEX
  5
1E1
  8
0
 10
359.9999999999999
 20
-19.99999999999995
 30
0.0
 70
   192
  0
VERTEX
  5
1E2
  8
0
 10
359.9999999999999
 20
20.00000000000005
 30
0.0
 70
   192
  0
VERTEX
  5
1E3
  8
0
 10
359.9999999999999
 20
20.00000000000005
 30
-60.0
 70
   192
  0
VERTEX
  5
1E4
  8
0
 10
359.9999999999999
 20
-19.99999999999995
 30
-60.0
 70
   192
  0
VERTEX
  5
1E5
  8
0
 10
0.0
 20
0.0
 30
0.0
 70
   128
 71
     3
 72
     4
 73
    -1
  0
VERTEX
  5
1E6
  8
0
 10
0.0
 20
0.0
 30
0.0
 70
   128
 71
     2
 72
    -3
 73
     1
  0
SEQEND
  5
1FE
  8
0
  0
POLYLINE
  5
1E7
  8
0
 66
     1
 10
0.0
 20
0.0
 30
0.0
 70
    64
 71
     4
 72
     2
  0
VERTEX
  5
1E8
  8
0
 10
359.9999999999999
 20
20.00000000000005
 30
-60.0
 70
   192
  0
VERTEX
  5
1E9
  8
0
 10
359.9999999999999
 20
-19.99999999999996
 30
-60.0
 70
   192
  0
VERTEX
  5
1EA
  8
0
 10
379.9999999999999
 20
-19.99999999999994
 30
-60.0
 70
   192
  0
VERTEX
  5
1EB
  8
0
 10
379.9999999999999
 20
20.00000000000005
 30
-60.0
 70
   192
  0
VERTEX
  5
1EC
  8
0
 10
0.0
 20
0.0
 30
0.0
 70
   128
 71
     1
 72
     4
 73
    -3
  0
VERTEX
  5
1ED
  8
0
 10
0.0
 20
0.0
 30
0.0
 70
   128
 71
    -1
 72
     3
 73
     2
  0
SEQEND
  5
1FF
  8
0
  0
ENDBLK
  5
1EF
  8
0
  0
ENDSEC
  0
SECTION
  2
ENTITIES
  0
INSERT
  5
BF
  8
0
  2
*X1
 10
0.0
 20
0.0
 30
0.0
  0
ENDSEC
  0
EOF
