  0
SECTION
  2
HEADER
  9
$ACADVER
  1
AC1009
  9
$DWGCODEPAGE
  3
ansi_1250
  9
$INSBASE
 10
0.0
 20
0.0
 30
0.0
  9
$EXTMIN
 10
-490.0000000000002
 20
-290.0000000000001
 30
-17.00000000000007
  9
$EXTMAX
 10
490.0000000000001
 20
290.0000000000001
 30
5.0
  9
$LIMMIN
 10
0.0
 20
0.0
  9
$LIMMAX
 10
420.0
 20
297.0
  9
$ORTHOMODE
 70
     0
  9
$REGENMODE
 70
     1
  9
$FILLMODE
 70
     1
  9
$QTEXTMODE
 70
     0
  9
$MIRRTEXT
 70
     0
  9
$DRAGMODE
 70
     2
  9
$LTSCALE
 40
1.0
  9
$OSMODE
 70
   511
  9
$ATTMODE
 70
     1
  9
$TEXTSIZE
 40
2.5
  9
$TRACEWID
 40
1.0
  9
$TEXTSTYLE
  7
STANDARD
  9
$CLAYER
  8
0
  9
$CELTYPE
  6
BYLAYER
  9
$CECOLOR
 62
   256
  9
$DIMSCALE
 40
1.0
  9
$DIMASZ
 40
2.5
  9
$DIMEXO
 40
0.625
  9
$DIMDLI
 40
3.75
  9
$DIMRND
 40
0.0
  9
$DIMDLE
 40
0.0
  9
$DIMEXE
 40
1.25
  9
$DIMTP
 40
0.0
  9
$DIMTM
 40
0.0
  9
$DIMTXT
 40
2.5
  9
$DIMCEN
 40
-2.5
  9
$DIMTSZ
 40
0.0
  9
$DIMTOL
 70
     0
  9
$DIMLIM
 70
     0
  9
$DIMTIH
 70
     0
  9
$DIMTOH
 70
     0
  9
$DIMSE1
 70
     0
  9
$DIMSE2
 70
     0
  9
$DIMTAD
 70
     1
  9
$DIMZIN
 70
     8
  9
$DIMBLK
  1

  9
$DIMASO
 70
     1
  9
$DIMSHO
 70
     1
  9
$DIMPOST
  1

  9
$DIMAPOST
  1

  9
$DIMALT
 70
     0
  9
$DIMALTD
 70
     3
  9
$DIMALTF
 40
0.03937007874016
  9
$DIMLFAC
 40
1.0
  9
$DIMTOFL
 70
     1
  9
$DIMTVP
 40
0.0
  9
$DIMTIX
 70
     0
  9
$DIMSOXD
 70
     0
  9
$DIMSAH
 70
     0
  9
$DIMBLK1
  1

  9
$DIMBLK2
  1

  9
$DIMSTYLE
  2
ISO-25
  9
$DIMCLRD
 70
     0
  9
$DIMCLRE
 70
     0
  9
$DIMCLRT
 70
     0
  9
$DIMTFAC
 40
1.0
  9
$DIMGAP
 40
0.625
  9
$LUNITS
 70
     2
  9
$LUPREC
 70
     3
  9
$SKETCHINC
 40
1.0
  9
$FILLETRAD
 40
10.0
  9
$AUNITS
 70
     0
  9
$AUPREC
 70
     0
  9
$MENU
  1
.
  9
$ELEVATION
 40
0.0
  9
$PELEVATION
 40
0.0
  9
$THICKNESS
 40
0.0
  9
$LIMCHECK
 70
     0
  9
$CHAMFERA
 40
10.0
  9
$CHAMFERB
 40
10.0
  9
$SKPOLY
 70
     0
  9
$TDCREATE
 40
2455022.679026181
  9
$TDUPDATE
 40
2460377.54773647
  9
$TDINDWG
 40
0.0001907523
  9
$TDUSRTIMER
 40
0.0001907523
  9
$USRTIMER
 70
     1
  9
$ANGBASE
 50
0.0
  9
$ANGDIR
 70
     0
  9
$PDMODE
 70
     0
  9
$PDSIZE
 40
0.0
  9
$PLINEWID
 40
0.0
  9
$COORDS
 70
     1
  9
$SPLFRAME
 70
     0
  9
$SPLINETYPE
 70
     6
  9
$SPLINESEGS
 70
     8
  9
$ATTDIA
 70
     0
  9
$ATTREQ
 70
     1
  9
$HANDLING
 70
     1
  9
$HANDSEED
  5
4F8
  9
$SURFTAB1
 70
     6
  9
$SURFTAB2
 70
     6
  9
$SURFTYPE
 70
     6
  9
$SURFU
 70
     6
  9
$SURFV
 70
     6
  9
$UCSNAME
  2

  9
$UCSORG
 10
0.0
 20
0.0
 30
0.0
  9
$UCSXDIR
 10
1.0
 20
0.0
 30
0.0
  9
$UCSYDIR
 10
0.0
 20
1.0
 30
0.0
  9
$PUCSNAME
  2

  9
$PUCSORG
 10
0.0
 20
0.0
 30
0.0
  9
$PUCSXDIR
 10
1.0
 20
0.0
 30
0.0
  9
$PUCSYDIR
 10
0.0
 20
1.0
 30
0.0
  9
$USERI1
 70
     0
  9
$USERI2
 70
     0
  9
$USERI3
 70
     0
  9
$USERI4
 70
     0
  9
$USERI5
 70
     0
  9
$USERR1
 40
0.0
  9
$USERR2
 40
0.0
  9
$USERR3
 40
0.0
  9
$USERR4
 40
0.0
  9
$USERR5
 40
0.0
  9
$WORLDVIEW
 70
     1
  9
$SHADEDGE
 70
     3
  9
$SHADEDIF
 70
    70
  9
$TILEMODE
 70
     1
  9
$MAXACTVP
 70
    64
  9
$PLIMCHECK
 70
     0
  9
$PEXTMIN
 10
1.000000000000000E+20
 20
1.000000000000000E+20
 30
1.000000000000000E+20
  9
$PEXTMAX
 10
-1.000000000000000E+20
 20
-1.000000000000000E+20
 30
-1.000000000000000E+20
  9
$PLIMMIN
 10
0.0
 20
0.0
  9
$PLIMMAX
 10
0.0
 20
0.0
  9
$UNITMODE
 70
     0
  9
$VISRETAIN
 70
     1
  9
$PLINEGEN
 70
     0
  9
$PSLTSCALE
 70
     1
  0
ENDSEC
  0
SECTION
  2
TABLES
  0
TABLE
  2
VPORT
 70
     1
  0
VPORT
  2
*ACTIVE
 70
     0
 10
0.0
 20
0.0
 11
1.0
 21
1.0
 12
134.1869158878503
 22
0.0
 13
0.0
 23
0.0
 14
10.0
 24
10.0
 15
10.0
 25
10.0
 16
0.0
 26
0.0
 36
1.0
 17
-134.1869158878504
 27
0.0
 37
0.0
 40
591.6000000000001
 41
1.820143884892086
 42
50.0
 43
0.0
 44
0.0
 50
0.0
 51
0.0
 71
    16
 72
  1000
 73
     1
 74
     3
 75
     0
 76
     0
 77
     0
 78
     0
  0
ENDTAB
  0
TABLE
  2
LTYPE
 70
     1
  0
LTYPE
  2
CONTINUOUS
 70
     0
  3
Solid line
 72
    65
 73
     0
 40
0.0
  0
ENDTAB
  0
TABLE
  2
LAYER
 70
     1
  0
LAYER
  2
0
 70
     0
 62
     7
  6
CONTINUOUS
  0
ENDTAB
  0
TABLE
  2
STYLE
 70
     2
  0
STYLE
  2
STANDARD
 70
     0
 40
0.0
 41
1.0
 50
0.0
 71
     0
 42
2.5
  3
arial.ttf
  4

  0
STYLE
  2
ANNOTATIVE
 70
     0
 40
0.0
 41
1.0
 50
0.0
 71
     0
 42
2.5
  3
arial.ttf
  4

  0
ENDTAB
  0
TABLE
  2
VIEW
 70
     0
  0
ENDTAB
  0
TABLE
  2
UCS
 70
     0
  0
ENDTAB
  0
TABLE
  2
APPID
 70
     2
  0
APPID
  2
ACAD
 70
     0
  0
APPID
  2
ACADANNOTATIVE
 70
     0
  0
ENDTAB
  0
TABLE
  2
DIMSTYLE
 70
     2
  0
DIMSTYLE
  2
ISO-25
 70
     0
  3

  4

  5

  6

  7

 40
1.0
 41
2.5
 42
0.625
 43
3.75
 44
1.25
 45
0.0
 46
0.0
 47
0.0
 48
0.0
140
2.5
141
-2.5
142
0.0
143
0.03937007874016
144
1.0
145
0.0
146
1.0
147
0.625
 71
     0
 72
     0
 73
     0
 74
     0
 75
     0
 76
     0
 77
     1
 78
     8
170
     0
171
     3
172
     1
173
     0
174
     0
175
     0
176
     0
177
     0
178
     0
  0
DIMSTYLE
  2
ANNOTATIVE
 70
     0
  3

  4

  5

  6

  7

 40
0.0
 41
2.5
 42
0.625
 43
3.75
 44
1.25
 45
0.0
 46
0.0
 47
0.0
 48
0.0
140
2.5
141
-2.5
142
0.0
143
0.03937007874016
144
1.0
145
0.0
146
1.0
147
0.625
 71
     0
 72
     0
 73
     0
 74
     0
 75
     0
 76
     0
 77
     1
 78
     8
170
     0
171
     3
172
     1
173
     0
174
     0
175
     0
176
     0
177
     0
178
     0
  0
ENDTAB
  0
ENDSEC
  0
SECTION
  2
BLOCKS
  0
BLOCK
  8
0
  2
$MODEL_SPACE
 70
     0
 10
0.0
 20
0.0
 30
0.0
  3
$MODEL_SPACE
  1

  0
ENDBLK
  5
21
  8
0
  0
BLOCK
 67
     1
  8
0
  2
$PAPER_SPACE
 70
     0
 10
0.0
 20
0.0
 30
0.0
  3
$PAPER_SPACE
  1

  0
ENDBLK
  5
1D
 67
     1
  8
0
  0
BLOCK
  8
0
  2
*X1
 70
     1
 10
0.0
 20
0.0
 30
0.0
  3
*X1
  1

  0
POLYLINE
  5
2E5
  8
0
 66
     1
 10
0.0
 20
0.0
 30
0.0
 70
    64
 71
     4
 72
     2
  0
VERTEX
  5
2E6
  8
0
 10
449.9999999999998
 20
250.0
 30
0.0
 70
   192
  0
VERTEX
  5
2E7
  8
0
 10
450.0
 20
-250.0
 30
0.0
 70
   192
  0
VERTEX
  5
2E8
  8
0
 10
450.0
 20
-250.0
 30
-5.0
 70
   192
  0
VERTEX
  5
2E9
  8
0
 10
449.9999999999998
 20
250.0
 30
-5.0
 70
   192
  0
VERTEX
  5
2EA
  8
0
 10
0.0
 20
0.0
 30
0.0
 70
   128
 71
     3
 72
     4
 73
    -1
  0
VERTEX
  5
2EB
  8
0
 10
0.0
 20
0.0
 30
0.0
 70
   128
 71
     2
 72
    -3
 73
     1
  0
SEQEND
  5
4C1
  8
0
  0
POLYLINE
  5
2EC
  8
0
 66
     1
 10
0.0
 20
0.0
 30
0.0
 70
    64
 71
     4
 72
     2
  0
VERTEX
  5
2ED
  8
0
 10
449.9999999999999
 20
-250.0
 30
0.0
 70
   192
  0
VERTEX
  5
2EE
  8
0
 10
-450.0000000000001
 20
-250.0
 30
0.0
 70
   192
  0
VERTEX
  5
2EF
  8
0
 10
-450.0000000000001
 20
-250.0
 30
-5.0
 70
   192
  0
VERTEX
  5
2F0
  8
0
 10
449.9999999999999
 20
-250.0
 30
-5.0
 70
   192
  0
VERTEX
  5
2F1
  8
0
 10
0.0
 20
0.0
 30
0.0
 70
   128
 71
     3
 72
     4
 73
    -1
  0
VERTEX
  5
2F2
  8
0
 10
0.0
 20
0.0
 30
0.0
 70
   128
 71
     2
 72
    -3
 73
     1
  0
SEQEND
  5
4C2
  8
0
  0
POLYLINE
  5
2F3
  8
0
 66
     1
 10
0.0
 20
0.0
 30
0.0
 70
    64
 71
     4
 72
     2
  0
VERTEX
  5
2F4
  8
0
 10
-450.0000000000001
 20
-250.0
 30
0.0
 70
   192
  0
VERTEX
  5
2F5
  8
0
 10
-450.0000000000002
 20
250.0
 30
0.0
 70
   192
  0
VERTEX
  5
2F6
  8
0
 10
-450.0000000000002
 20
250.0
 30
-5.0
 70
   192
  0
VERTEX
  5
2F7
  8
0
 10
-450.0000000000001
 20
-250.0
 30
-5.0
 70
   192
  0
VERTEX
  5
2F8
  8
0
 10
0.0
 20
0.0
 30
0.0
 70
   128
 71
     3
 72
     4
 73
    -1
  0
VERTEX
  5
2F9
  8
0
 10
0.0
 20
0.0
 30
0.0
 70
   128
 71
     2
 72
    -3
 73
     1
  0
SEQEND
  5
4C3
  8
0
  0
POLYLINE
  5
2FA
  8
0
 66
     1
 10
0.0
 20
0.0
 30
0.0
 70
    64
 71
     4
 72
     2
  0
VERTEX
  5
2FB
  8
0
 10
-450.0000000000002
 20
250.0
 30
0.0
 70
   192
  0
VERTEX
  5
2FC
  8
0
 10
449.9999999999998
 20
250.0
 30
0.0
 70
   192
  0
VERTEX
  5
2FD
  8
0
 10
449.9999999999998
 20
250.0
 30
-5.0
 70
   192
  0
VERTEX
  5
2FE
  8
0
 10
-450.0000000000002
 20
250.0
 30
-5.0
 70
   192
  0
VERTEX
  5
2FF
  8
0
 10
0.0
 20
0.0
 30
0.0
 70
   128
 71
     3
 72
     4
 73
    -1
  0
VERTEX
  5
300
  8
0
 10
0.0
 20
0.0
 30
0.0
 70
   128
 71
     2
 72
    -3
 73
     1
  0
SEQEND
  5
4C4
  8
0
  0
POLYLINE
  5
301
  8
0
 66
     1
 10
0.0
 20
0.0
 30
0.0
 70
    64
 71
     4
 72
     2
  0
VERTEX
  5
302
  8
0
 10
449.9999999999998
 20
250.0
 30
-5.0
 70
   192
  0
VERTEX
  5
303
  8
0
 10
-450.0000000000002
 20
250.0
 30
-5.0
 70
   192
  0
VERTEX
  5
304
  8
0
 10
-450.0000000000001
 20
-250.0
 30
-5.0
 70
   192
  0
VERTEX
  5
305
  8
0
 10
450.0
 20
-250.0
 30
-5.0
 70
   192
  0
VERTEX
  5
306
  8
0
 10
0.0
 20
0.0
 30
0.0
 70
   128
 71
     1
 72
     4
 73
    -3
  0
VERTEX
  5
307
  8
0
 10
0.0
 20
0.0
 30
0.0
 70
   128
 71
    -1
 72
     3
 73
     2
  0
SEQEND
  5
4C5
  8
0
  0
POLYLINE
  5
308
  8
0
 66
     1
 10
0.0
 20
0.0
 30
0.0
 70
    64
 71
     4
 72
     2
  0
VERTEX
  5
309
  8
0
 10
450.0
 20
-250.0
 30
0.0
 70
   192
  0
VERTEX
  5
30A
  8
0
 10
449.9999999999998
 20
250.0
 30
0.0
 70
   192
  0
VERTEX
  5
30B
  8
0
 10
-450.0000000000002
 20
250.0
 30
0.0
 70
   192
  0
VERTEX
  5
30C
  8
0
 10
-450.0000000000001
 20
-250.0
 30
0.0
 70
   192
  0
VERTEX
  5
30D
  8
0
 10
0.0
 20
0.0
 30
0.0
 70
   128
 71
     3
 72
     4
 73
    -1
  0
VERTEX
  5
30E
  8
0
 10
0.0
 20
0.0
 30
0.0
 70
   128
 71
     2
 72
    -3
 73
     1
  0
SEQEND
  5
4C6
  8
0
  0
ENDBLK
  5
4C0
  8
0
  0
BLOCK
  8
0
  2
*X2
 70
     1
 10
0.0
 20
0.0
 30
0.0
  3
*X2
  1

  0
POLYLINE
  5
310
  8
0
 66
     1
 10
0.0
 20
0.0
 30
0.0
 70
    64
 71
    24
 72
    32
  0
VERTEX
  5
311
  8
0
 10
-490.0000000000001
 20
-290.0000000000001
 30
-16.99999999999999
 70
   192
  0
VERTEX
  5
312
  8
0
 10
-490.0000000000002
 20
290.0
 30
-16.99999999999999
 70
   192
  0
VERTEX
  5
313
  8
0
 10
489.9999999999999
 20
290.0
 30
-16.99999999999999
 70
   192
  0
VERTEX
  5
314
  8
0
 10
490.0000000000001
 20
-290.0
 30
-16.99999999999999
 70
   192
  0
VERTEX
  5
315
  8
0
 10
450.9999999999999
 20
251.0
 30
-17.0
 70
   192
  0
VERTEX
  5
316
  8
0
 10
-451.0000000000002
 20
251.0
 30
-17.0
 70
   192
  0
VERTEX
  5
317
  8
0
 10
-451.0000000000001
 20
-251.0
 30
-17.0
 70
   192
  0
VERTEX
  5
318
  8
0
 10
451.0000000000001
 20
-251.0
 30
-17.0
 70
   192
  0
VERTEX
  5
319
  8
0
 10
359.9999999999999
 20
272.5
 30
-17.0
 70
   192
  0
VERTEX
  5
31A
  8
0
 10
359.9999999999999
 20
267.5000000000001
 30
-17.0
 70
   192
  0
VERTEX
  5
31B
  8
0
 10
419.9999999999999
 20
267.5
 30
-17.0
 70
   192
  0
VERTEX
  5
31C
  8
0
 10
419.9999999999999
 20
272.5
 30
-17.0
 70
   192
  0
VERTEX
  5
31D
  8
0
 10
472.4999999999999
 20
240.0
 30
-16.99999999999999
 70
   192
  0
VERTEX
  5
31E
  8
0
 10
467.4999999999999
 20
240.0
 30
-17.0
 70
   192
  0
VERTEX
  5
31F
  8
0
 10
467.4999999999999
 20
180.0
 30
-17.0
 70
   192
  0
VERTEX
  5
320
  8
0
 10
472.4999999999999
 20
180.0
 30
-16.99999999999999
 70
   192
  0
VERTEX
  5
321
  8
0
 10
-419.9999999999999
 20
272.5000000000001
 30
-17.00000000000007
 70
   192
  0
VERTEX
  5
322
  8
0
 10
-419.9999999999999
 20
267.5000000000002
 30
-17.00000000000007
 70
   192
  0
VERTEX
  5
323
  8
0
 10
-359.9999999999999
 20
267.5000000000001
 30
-17.00000000000007
 70
   192
  0
VERTEX
  5
324
  8
0
 10
-359.9999999999999
 20
272.5000000000001
 30
-17.00000000000007
 70
   192
  0
VERTEX
  5
325
  8
0
 10
472.4999999999999
 20
-180.0000000000001
 30
-16.99999999999999
 70
   192
  0
VERTEX
  5
326
  8
0
 10
467.4999999999999
 20
-180.0000000000001
 30
-17.0
 70
   192
  0
VERTEX
  5
327
  8
0
 10
467.4999999999999
 20
-240.0
 30
-17.0
 70
   192
  0
VERTEX
  5
328
  8
0
 10
472.4999999999999
 20
-240.0
 30
-16.99999999999999
 70
   192
  0
VERTEX
  5
329
  8
0
 10
0.0
 20
0.0
 30
0.0
 70
   128
 71
    -5
 72
    13
 73
   -14
  0
VERTEX
  5
32A
  8
0
 10
0.0
 20
0.0
 30
0.0
 70
   128
 71
    14
 72
   -15
 73
    -5
  0
VERTEX
  5
32B
  8
0
 10
0.0
 20
0.0
 30
0.0
 70
   128
 71
     8
 72
    -5
 73
   -15
  0
VERTEX
  5
32C
  8
0
 10
0.0
 20
0.0
 30
0.0
 70
   128
 71
    15
 72
   -16
 73
    -8
  0
VERTEX
  5
32D
  8
0
 10
0.0
 20
0.0
 30
0.0
 70
   128
 71
     2
 72
    -3
 73
    -9
  0
VERTEX
  5
32E
  8
0
 10
0.0
 20
0.0
 30
0.0
 70
   128
 71
     9
 72
   -10
 73
    -2
  0
VERTEX
  5
32F
  8
0
 10
0.0
 20
0.0
 30
0.0
 70
   128
 71
    -2
 72
    17
 73
   -18
  0
VERTEX
  5
330
  8
0
 10
0.0
 20
0.0
 30
0.0
 70
   128
 71
    -6
 72
    -2
 73
   -18
  0
VERTEX
  5
331
  8
0
 10
0.0
 20
0.0
 30
0.0
 70
   128
 71
    18
 72
   -19
 73
    -6
  0
VERTEX
  5
332
  8
0
 10
0.0
 20
0.0
 30
0.0
 70
   128
 71
     5
 72
    -6
 73
   -19
  0
VERTEX
  5
333
  8
0
 10
0.0
 20
0.0
 30
0.0
 70
   128
 71
    19
 72
   -20
 73
    -5
  0
VERTEX
  5
334
  8
0
 10
0.0
 20
0.0
 30
0.0
 70
   128
 71
    -2
 72
   -10
 73
    -5
  0
VERTEX
  5
335
  8
0
 10
0.0
 20
0.0
 30
0.0
 70
   128
 71
   -20
 72
    -2
 73
    -5
  0
VERTEX
  5
336
  8
0
 10
0.0
 20
0.0
 30
0.0
 70
   128
 71
    20
 72
   -17
 73
    -2
  0
VERTEX
  5
337
  8
0
 10
0.0
 20
0.0
 30
0.0
 70
   128
 71
    10
 72
   -11
 73
    -5
  0
VERTEX
  5
338
  8
0
 10
0.0
 20
0.0
 30
0.0
 70
   128
 71
    11
 72
   -12
 73
    -5
  0
VERTEX
  5
339
  8
0
 10
0.0
 20
0.0
 30
0.0
 70
   128
 71
    -3
 72
    -5
 73
   -12
  0
VERTEX
  5
33A
  8
0
 10
0.0
 20
0.0
 30
0.0
 70
   128
 71
    12
 72
    -9
 73
    -3
  0
VERTEX
  5
33B
  8
0
 10
0.0
 20
0.0
 30
0.0
 70
   128
 71
    -7
 72
     1
 73
    -2
  0
VERTEX
  5
33C
  8
0
 10
0.0
 20
0.0
 30
0.0
 70
   128
 71
     6
 72
    -7
 73
    -2
  0
VERTEX
  5
33D
  8
0
 10
0.0
 20
0.0
 30
0.0
 70
   128
 71
    -8
 72
     4
 73
    -1
  0
VERTEX
  5
33E
  8
0
 10
0.0
 20
0.0
 30
0.0
 70
   128
 71
     7
 72
    -8
 73
    -1
  0
VERTEX
  5
33F
  8
0
 10
0.0
 20
0.0
 30
0.0
 70
   128
 71
     3
 72
    -4
 73
   -21
  0
VERTEX
  5
340
  8
0
 10
0.0
 20
0.0
 30
0.0
 70
   128
 71
    21
 72
   -22
 73
    -3
  0
VERTEX
  5
341
  8
0
 10
0.0
 20
0.0
 30
0.0
 70
   128
 71
    -8
 72
   -16
 73
    -3
  0
VERTEX
  5
342
  8
0
 10
0.0
 20
0.0
 30
0.0
 70
   128
 71
   -22
 72
    -8
 73
    -3
  0
VERTEX
  5
343
  8
0
 10
0.0
 20
0.0
 30
0.0
 70
   128
 71
    22
 72
   -23
 73
    -8
  0
VERTEX
  5
344
  8
0
 10
0.0
 20
0.0
 30
0.0
 70
   128
 71
    23
 72
   -24
 73
    -8
  0
VERTEX
  5
345
  8
0
 10
0.0
 20
0.0
 30
0.0
 70
   128
 71
    -4
 72
    -8
 73
   -24
  0
VERTEX
  5
346
  8
0
 10
0.0
 20
0.0
 30
0.0
 70
   128
 71
    24
 72
   -21
 73
    -4
  0
VERTEX
  5
347
  8
0
 10
0.0
 20
0.0
 30
0.0
 70
   128
 71
    16
 72
   -13
 73
    -3
  0
VERTEX
  5
348
  8
0
 10
0.0
 20
0.0
 30
0.0
 70
   128
 71
   -13
 72
    -5
 73
    -3
  0
SEQEND
  5
4C9
  8
0
  0
POLYLINE
  5
349
  8
0
 66
     1
 10
0.0
 20
0.0
 30
0.0
 70
    64
 71
     4
 72
     2
  0
VERTEX
  5
34A
  8
0
 10
489.9999999999999
 20
290.0000000000001
 30
-16.99999999999999
 70
   192
  0
VERTEX
  5
34B
  8
0
 10
489.9999999999999
 20
290.0000000000001
 30
-15.99999999999999
 70
   192
  0
VERTEX
  5
34C
  8
0
 10
490.0000000000001
 20
-290.0
 30
-15.99999999999999
 70
   192
  0
VERTEX
  5
34D
  8
0
 10
490.0000000000001
 20
-290.0000000000001
 30
-16.99999999999999
 70
   192
  0
VERTEX
  5
34E
  8
0
 10
0.0
 20
0.0
 30
0.0
 70
   128
 71
     3
 72
     4
 73
    -1
  0
VERTEX
  5
34F
  8
0
 10
0.0
 20
0.0
 30
0.0
 70
   128
 71
     2
 72
    -3
 73
     1
  0
SEQEND
  5
4CA
  8
0
  0
POLYLINE
  5
350
  8
0
 66
     1
 10
0.0
 20
0.0
 30
0.0
 70
    64
 71
     4
 72
     2
  0
VERTEX
  5
351
  8
0
 10
489.9999999999999
 20
290.0
 30
-16.0
 70
   192
  0
VERTEX
  5
352
  8
0
 10
487.9999999999999
 20
288.0
 30
-9.000000000000016
 70
   192
  0
VERTEX
  5
353
  8
0
 10
488.0000000000001
 20
-288.0
 30
-8.999999999999995
 70
   192
  0
VERTEX
  5
354
  8
0
 10
490.0000000000001
 20
-290.0000000000002
 30
-15.99999999999999
 70
   192
  0
VERTEX
  5
355
  8
0
 10
0.0
 20
0.0
 30
0.0
 70
   128
 71
     3
 72
     4
 73
    -1
  0
VERTEX
  5
356
  8
0
 10
0.0
 20
0.0
 30
0.0
 70
   128
 71
     2
 72
    -3
 73
     1
  0
SEQEND
  5
4CB
  8
0
  0
POLYLINE
  5
357
  8
0
 66
     1
 10
0.0
 20
0.0
 30
0.0
 70
    64
 71
     8
 72
     6
  0
VERTEX
  5
358
  8
0
 10
488.0
 20
288.0000000000001
 30
-8.999999999999984
 70
   192
  0
VERTEX
  5
359
  8
0
 10
476.4575641846081
 20
276.4575641846084
 30
-8.770993762275578
 70
   192
  0
VERTEX
  5
35A
  8
0
 10
465.276269258077
 20
265.2762692580769
 30
-4.726588956237799
 70
   192
  0
VERTEX
  5
35B
  8
0
 10
456.041702898578
 20
256.0417028985782
 30
4.999999999999999
 70
   192
  0
VERTEX
  5
35C
  8
0
 10
456.0417028985782
 20
-256.0417028985781
 30
4.999999999999999
 70
   192
  0
VERTEX
  5
35D
  8
0
 10
465.2762692580773
 20
-265.2762692580771
 30
-4.726588956237925
 70
   192
  0
VERTEX
  5
35E
  8
0
 10
476.4575641846088
 20
-276.4575641846088
 30
-8.770993762275626
 70
   192
  0
VERTEX
  5
35F
  8
0
 10
488.0000000000001
 20
-288.0000000000001
 30
-8.999999999999991
 70
   192
  0
VERTEX
  5
360
  8
0
 10
0.0
 20
0.0
 30
0.0
 70
   128
 71
     4
 72
     5
 73
    -6
  0
VERTEX
  5
361
  8
0
 10
0.0
 20
0.0
 30
0.0
 70
   128
 71
     3
 72
    -4
 73
     6
  0
VERTEX
  5
362
  8
0
 10
0.0
 20
0.0
 30
0.0
 70
   128
 71
     7
 72
     2
 73
    -3
  0
VERTEX
  5
363
  8
0
 10
0.0
 20
0.0
 30
0.0
 70
   128
 71
     6
 72
    -7
 73
     3
  0
VERTEX
  5
364
  8
0
 10
0.0
 20
0.0
 30
0.0
 70
   128
 71
     8
 72
     1
 73
    -2
  0
VERTEX
  5
365
  8
0
 10
0.0
 20
0.0
 30
0.0
 70
   128
 71
     7
 72
    -8
 73
     2
  0
SEQEND
  5
4CC
  8
0
  0
POLYLINE
  5
366
  8
0
 66
     1
 10
0.0
 20
0.0
 30
0.0
 70
    64
 71
     8
 72
     8
  0
VERTEX
  5
367
  8
0
 10
456.041702898578
 20
256.0417028985781
 30
4.999999999999999
 70
   192
  0
VERTEX
  5
368
  8
0
 10
-456.0417028985784
 20
256.0417028985781
 30
4.999999999999999
 70
   192
  0
VERTEX
  5
369
  8
0
 10
-456.0417028985783
 20
-256.0417028985782
 30
4.999999999999999
 70
   192
  0
VERTEX
  5
36A
  8
0
 10
456.0417028985782
 20
-256.0417028985781
 30
4.999999999999999
 70
   192
  0
VERTEX
  5
36B
  8
0
 10
-451.0000000000001
 20
-251.0
 30
4.999999999999999
 70
   192
  0
VERTEX
  5
36C
  8
0
 10
-451.0000000000002
 20
251.0
 30
4.999999999999999
 70
   192
  0
VERTEX
  5
36D
  8
0
 10
450.9999999999997
 20
251.0
 30
4.999999999999999
 70
   192
  0
VERTEX
  5
36E
  8
0
 10
451.0000000000001
 20
-251.0
 30
4.999999999999999
 70
   192
  0
VERTEX
  5
36F
  8
0
 10
0.0
 20
0.0
 30
0.0
 70
   128
 71
    -3
 72
     5
 73
    -6
  0
VERTEX
  5
370
  8
0
 10
0.0
 20
0.0
 30
0.0
 70
   128
 71
     2
 72
    -3
 73
    -6
  0
VERTEX
  5
371
  8
0
 10
0.0
 20
0.0
 30
0.0
 70
   128
 71
    -7
 72
     1
 73
    -2
  0
VERTEX
  5
372
  8
0
 10
0.0
 20
0.0
 30
0.0
 70
   128
 71
     6
 72
    -7
 73
    -2
  0
VERTEX
  5
373
  8
0
 10
0.0
 20
0.0
 30
0.0
 70
   128
 71
    -8
 72
     4
 73
    -1
  0
VERTEX
  5
374
  8
0
 10
0.0
 20
0.0
 30
0.0
 70
   128
 71
     7
 72
    -8
 73
    -1
  0
VERTEX
  5
375
  8
0
 10
0.0
 20
0.0
 30
0.0
 70
   128
 71
    -5
 72
     3
 73
    -4
  0
VERTEX
  5
376
  8
0
 10
0.0
 20
0.0
 30
0.0
 70
   128
 71
     8
 72
    -5
 73
    -4
  0
SEQEND
  5
4CD
  8
0
  0
POLYLINE
  5
377
  8
0
 66
     1
 10
0.0
 20
0.0
 30
0.0
 70
    64
 71
     4
 72
     2
  0
VERTEX
  5
378
  8
0
 10
450.9999999999998
 20
251.0
 30
4.999999999999961
 70
   192
  0
VERTEX
  5
379
  8
0
 10
445.9999999999999
 20
246.0000000000001
 30
2.499999999999988
 70
   192
  0
VERTEX
  5
37A
  8
0
 10
446.0000000000001
 20
-246.0
 30
2.5
 70
   192
  0
VERTEX
  5
37B
  8
0
 10
451.0
 20
-251.0
 30
4.999999999999972
 70
   192
  0
VERTEX
  5
37C
  8
0
 10
0.0
 20
0.0
 30
0.0
 70
   128
 71
     3
 72
     4
 73
    -1
  0
VERTEX
  5
37D
  8
0
 10
0.0
 20
0.0
 30
0.0
 70
   128
 71
     2
 72
    -3
 73
     1
  0
SEQEND
  5
4CE
  8
0
  0
POLYLINE
  5
37E
  8
0
 66
     1
 10
0.0
 20
0.0
 30
0.0
 70
    64
 71
     4
 72
     2
  0
VERTEX
  5
37F
  8
0
 10
445.9999999999999
 20
246.0000000000001
 30
2.500000000000008
 70
   192
  0
VERTEX
  5
380
  8
0
 10
445.9999999999999
 20
246.0000000000001
 30
0.0
 70
   192
  0
VERTEX
  5
381
  8
0
 10
446.0000000000001
 20
-246.0000000000001
 30
0.0
 70
   192
  0
VERTEX
  5
382
  8
0
 10
446.0000000000001
 20
-246.0000000000001
 30
2.500000000000008
 70
   192
  0
VERTEX
  5
383
  8
0
 10
0.0
 20
0.0
 30
0.0
 70
   128
 71
     3
 72
     4
 73
    -1
  0
VERTEX
  5
384
  8
0
 10
0.0
 20
0.0
 30
0.0
 70
   128
 71
     2
 72
    -3
 73
     1
  0
SEQEND
  5
4CF
  8
0
  0
POLYLINE
  5
385
  8
0
 66
     1
 10
0.0
 20
0.0
 30
0.0
 70
    64
 71
     8
 72
     8
  0
VERTEX
  5
386
  8
0
 10
-451.0000000000001
 20
-251.0
 30
0.0
 70
   192
  0
VERTEX
  5
387
  8
0
 10
-451.0000000000002
 20
251.0
 30
0.0
 70
   192
  0
VERTEX
  5
388
  8
0
 10
451.0
 20
251.0
 30
0.0
 70
   192
  0
VERTEX
  5
389
  8
0
 10
451.0000000000001
 20
-251.0
 30
0.0
 70
   192
  0
VERTEX
  5
38A
  8
0
 10
445.9999999999998
 20
246.0
 30
0.0
 70
   192
  0
VERTEX
  5
38B
  8
0
 10
-446.0000000000002
 20
246.0
 30
0.0
 70
   192
  0
VERTEX
  5
38C
  8
0
 10
-446.0000000000001
 20
-246.0
 30
0.0
 70
   192
  0
VERTEX
  5
38D
  8
0
 10
446.0000000000001
 20
-246.0
 30
0.0
 70
   192
  0
VERTEX
  5
38E
  8
0
 10
0.0
 20
0.0
 30
0.0
 70
   128
 71
    -3
 72
     5
 73
    -6
  0
VERTEX
  5
38F
  8
0
 10
0.0
 20
0.0
 30
0.0
 70
   128
 71
     2
 72
    -3
 73
    -6
  0
VERTEX
  5
390
  8
0
 10
0.0
 20
0.0
 30
0.0
 70
   128
 71
    -7
 72
     1
 73
    -2
  0
VERTEX
  5
391
  8
0
 10
0.0
 20
0.0
 30
0.0
 70
   128
 71
     6
 72
    -7
 73
    -2
  0
VERTEX
  5
392
  8
0
 10
0.0
 20
0.0
 30
0.0
 70
   128
 71
    -8
 72
     4
 73
    -1
  0
VERTEX
  5
393
  8
0
 10
0.0
 20
0.0
 30
0.0
 70
   128
 71
     7
 72
    -8
 73
    -1
  0
VERTEX
  5
394
  8
0
 10
0.0
 20
0.0
 30
0.0
 70
   128
 71
    -5
 72
     3
 73
    -4
  0
VERTEX
  5
395
  8
0
 10
0.0
 20
0.0
 30
0.0
 70
   128
 71
     8
 72
    -5
 73
    -4
  0
SEQEND
  5
4D0
  8
0
  0
POLYLINE
  5
396
  8
0
 66
     1
 10
0.0
 20
0.0
 30
0.0
 70
    64
 71
     4
 72
     2
  0
VERTEX
  5
397
  8
0
 10
450.9999999999999
 20
251.0000000000001
 30
0.0
 70
   192
  0
VERTEX
  5
398
  8
0
 10
450.9999999999999
 20
251.0000000000001
 30
-17.0
 70
   192
  0
VERTEX
  5
399
  8
0
 10
451.0000000000001
 20
-251.0000000000001
 30
-17.0
 70
   192
  0
VERTEX
  5
39A
  8
0
 10
451.0000000000001
 20
-251.0000000000001
 30
0.0
 70
   192
  0
VERTEX
  5
39B
  8
0
 10
0.0
 20
0.0
 30
0.0
 70
   128
 71
     3
 72
     4
 73
    -1
  0
VERTEX
  5
39C
  8
0
 10
0.0
 20
0.0
 30
0.0
 70
   128
 71
     2
 72
    -3
 73
     1
  0
SEQEND
  5
4D1
  8
0
  0
POLYLINE
  5
39D
  8
0
 66
     1
 10
0.0
 20
0.0
 30
0.0
 70
    64
 71
     4
 72
     2
  0
VERTEX
  5
39E
  8
0
 10
490.0000000000001
 20
-290.0
 30
-15.99999999999999
 70
   192
  0
VERTEX
  5
39F
  8
0
 10
-490.0000000000001
 20
-290.0
 30
-15.99999999999999
 70
   192
  0
VERTEX
  5
3A0
  8
0
 10
-490.0000000000001
 20
-290.0
 30
-16.99999999999999
 70
   192
  0
VERTEX
  5
3A1
  8
0
 10
490.0000000000001
 20
-290.0
 30
-16.99999999999999
 70
   192
  0
VERTEX
  5
3A2
  8
0
 10
0.0
 20
0.0
 30
0.0
 70
   128
 71
     3
 72
     4
 73
    -1
  0
VERTEX
  5
3A3
  8
0
 10
0.0
 20
0.0
 30
0.0
 70
   128
 71
     2
 72
    -3
 73
     1
  0
SEQEND
  5
4D2
  8
0
  0
POLYLINE
  5
3A4
  8
0
 66
     1
 10
0.0
 20
0.0
 30
0.0
 70
    64
 71
     4
 72
     2
  0
VERTEX
  5
3A5
  8
0
 10
488.0000000000001
 20
-288.0
 30
-8.999999999999995
 70
   192
  0
VERTEX
  5
3A6
  8
0
 10
-488.0000000000001
 20
-288.0
 30
-8.999999999999995
 70
   192
  0
VERTEX
  5
3A7
  8
0
 10
-490.0
 20
-290.0
 30
-16.00000000000003
 70
   192
  0
VERTEX
  5
3A8
  8
0
 10
490.0000000000001
 20
-290.0
 30
-15.99999999999999
 70
   192
  0
VERTEX
  5
3A9
  8
0
 10
0.0
 20
0.0
 30
0.0
 70
   128
 71
     3
 72
     4
 73
    -1
  0
VERTEX
  5
3AA
  8
0
 10
0.0
 20
0.0
 30
0.0
 70
   128
 71
     2
 72
    -3
 73
     1
  0
SEQEND
  5
4D3
  8
0
  0
POLYLINE
  5
3AB
  8
0
 66
     1
 10
0.0
 20
0.0
 30
0.0
 70
    64
 71
     8
 72
     6
  0
VERTEX
  5
3AC
  8
0
 10
456.0417028985782
 20
-256.0417028985781
 30
4.999999999999999
 70
   192
  0
VERTEX
  5
3AD
  8
0
 10
-456.0417028985783
 20
-256.0417028985781
 30
4.999999999999999
 70
   192
  0
VERTEX
  5
3AE
  8
0
 10
-465.276269258077
 20
-265.276269258077
 30
-4.726588956237858
 70
   192
  0
VERTEX
  5
3AF
  8
0
 10
-476.4575641846084
 20
-276.4575641846085
 30
-8.770993762275603
 70
   192
  0
VERTEX
  5
3B0
  8
0
 10
-488.0000000000001
 20
-288.0
 30
-8.999999999999991
 70
   192
  0
VERTEX
  5
3B1
  8
0
 10
488.0000000000001
 20
-288.0
 30
-8.999999999999995
 70
   192
  0
VERTEX
  5
3B2
  8
0
 10
476.4575641846088
 20
-276.4575641846088
 30
-8.770993762275626
 70
   192
  0
VERTEX
  5
3B3
  8
0
 10
465.2762692580773
 20
-265.2762692580771
 30
-4.726588956237925
 70
   192
  0
VERTEX
  5
3B4
  8
0
 10
0.0
 20
0.0
 30
0.0
 70
   128
 71
     5
 72
     6
 73
    -7
  0
VERTEX
  5
3B5
  8
0
 10
0.0
 20
0.0
 30
0.0
 70
   128
 71
     4
 72
    -5
 73
     7
  0
VERTEX
  5
3B6
  8
0
 10
0.0
 20
0.0
 30
0.0
 70
   128
 71
     8
 72
     3
 73
    -4
  0
VERTEX
  5
3B7
  8
0
 10
0.0
 20
0.0
 30
0.0
 70
   128
 71
     7
 72
    -8
 73
     4
  0
VERTEX
  5
3B8
  8
0
 10
0.0
 20
0.0
 30
0.0
 70
   128
 71
     1
 72
     2
 73
    -3
  0
VERTEX
  5
3B9
  8
0
 10
0.0
 20
0.0
 30
0.0
 70
   128
 71
     8
 72
    -1
 73
     3
  0
SEQEND
  5
4D4
  8
0
  0
POLYLINE
  5
3BA
  8
0
 66
     1
 10
0.0
 20
0.0
 30
0.0
 70
    64
 71
     4
 72
     2
  0
VERTEX
  5
3BB
  8
0
 10
446.0000000000001
 20
-246.0
 30
2.5
 70
   192
  0
VERTEX
  5
3BC
  8
0
 10
-446.0000000000001
 20
-246.0
 30
2.5
 70
   192
  0
VERTEX
  5
3BD
  8
0
 10
-451.0
 20
-250.9999999999999
 30
4.999999999999943
 70
   192
  0
VERTEX
  5
3BE
  8
0
 10
451.0000000000001
 20
-251.0
 30
4.999999999999999
 70
   192
  0
VERTEX
  5
3BF
  8
0
 10
0.0
 20
0.0
 30
0.0
 70
   128
 71
     3
 72
     4
 73
    -1
  0
VERTEX
  5
3C0
  8
0
 10
0.0
 20
0.0
 30
0.0
 70
   128
 71
     2
 72
    -3
 73
     1
  0
SEQEND
  5
4D5
  8
0
  0
POLYLINE
  5
3C1
  8
0
 66
     1
 10
0.0
 20
0.0
 30
0.0
 70
    64
 71
     4
 72
     2
  0
VERTEX
  5
3C2
  8
0
 10
446.0000000000001
 20
-246.0
 30
0.0
 70
   192
  0
VERTEX
  5
3C3
  8
0
 10
-446.0000000000001
 20
-246.0
 30
0.0
 70
   192
  0
VERTEX
  5
3C4
  8
0
 10
-446.0000000000001
 20
-246.0
 30
2.499999999999998
 70
   192
  0
VERTEX
  5
3C5
  8
0
 10
446.0000000000001
 20
-246.0
 30
2.5
 70
   192
  0
VERTEX
  5
3C6
  8
0
 10
0.0
 20
0.0
 30
0.0
 70
   128
 71
     3
 72
     4
 73
    -1
  0
VERTEX
  5
3C7
  8
0
 10
0.0
 20
0.0
 30
0.0
 70
   128
 71
     2
 72
    -3
 73
     1
  0
SEQEND
  5
4D6
  8
0
  0
POLYLINE
  5
3C8
  8
0
 66
     1
 10
0.0
 20
0.0
 30
0.0
 70
    64
 71
     4
 72
     2
  0
VERTEX
  5
3C9
  8
0
 10
451.0000000000001
 20
-251.0
 30
-17.0
 70
   192
  0
VERTEX
  5
3CA
  8
0
 10
-451.0000000000001
 20
-251.0
 30
-17.0
 70
   192
  0
VERTEX
  5
3CB
  8
0
 10
-451.0000000000001
 20
-251.0
 30
0.0
 70
   192
  0
VERTEX
  5
3CC
  8
0
 10
451.0000000000001
 20
-251.0
 30
0.0
 70
   192
  0
VERTEX
  5
3CD
  8
0
 10
0.0
 20
0.0
 30
0.0
 70
   128
 71
     3
 72
     4
 73
    -1
  0
VERTEX
  5
3CE
  8
0
 10
0.0
 20
0.0
 30
0.0
 70
   128
 71
     2
 72
    -3
 73
     1
  0
SEQEND
  5
4D7
  8
0
  0
POLYLINE
  5
3CF
  8
0
 66
     1
 10
0.0
 20
0.0
 30
0.0
 70
    64
 71
     4
 72
     2
  0
VERTEX
  5
3D0
  8
0
 10
-490.0000000000002
 20
290.0
 30
-15.99999999999999
 70
   192
  0
VERTEX
  5
3D1
  8
0
 10
489.9999999999999
 20
290.0
 30
-15.99999999999999
 70
   192
  0
VERTEX
  5
3D2
  8
0
 10
489.9999999999999
 20
290.0000000000001
 30
-16.99999999999999
 70
   192
  0
VERTEX
  5
3D3
  8
0
 10
-490.0000000000002
 20
290.0
 30
-16.99999999999999
 70
   192
  0
VERTEX
  5
3D4
  8
0
 10
0.0
 20
0.0
 30
0.0
 70
   128
 71
     3
 72
     4
 73
    -1
  0
VERTEX
  5
3D5
  8
0
 10
0.0
 20
0.0
 30
0.0
 70
   128
 71
     2
 72
    -3
 73
     1
  0
SEQEND
  5
4D8
  8
0
  0
POLYLINE
  5
3D6
  8
0
 66
     1
 10
0.0
 20
0.0
 30
0.0
 70
    64
 71
     4
 72
     2
  0
VERTEX
  5
3D7
  8
0
 10
-488.0000000000002
 20
288.0
 30
-8.999999999999995
 70
   192
  0
VERTEX
  5
3D8
  8
0
 10
488.0
 20
288.0
 30
-8.999999999999995
 70
   192
  0
VERTEX
  5
3D9
  8
0
 10
489.9999999999999
 20
290.0
 30
-16.0
 70
   192
  0
VERTEX
  5
3DA
  8
0
 10
-490.0000000000002
 20
290.0
 30
-15.99999999999999
 70
   192
  0
VERTEX
  5
3DB
  8
0
 10
0.0
 20
0.0
 30
0.0
 70
   128
 71
     3
 72
     4
 73
    -1
  0
VERTEX
  5
3DC
  8
0
 10
0.0
 20
0.0
 30
0.0
 70
   128
 71
     2
 72
    -3
 73
     1
  0
SEQEND
  5
4D9
  8
0
  0
POLYLINE
  5
3DD
  8
0
 66
     1
 10
0.0
 20
0.0
 30
0.0
 70
    64
 71
     8
 72
     6
  0
VERTEX
  5
3DE
  8
0
 10
-456.0417028985784
 20
256.0417028985781
 30
4.999999999999999
 70
   192
  0
VERTEX
  5
3DF
  8
0
 10
456.041702898578
 20
256.0417028985781
 30
4.999999999999999
 70
   192
  0
VERTEX
  5
3E0
  8
0
 10
465.276269258077
 20
265.2762692580769
 30
-4.726588956237799
 70
   192
  0
VERTEX
  5
3E1
  8
0
 10
476.4575641846081
 20
276.4575641846084
 30
-8.770993762275578
 70
   192
  0
VERTEX
  5
3E2
  8
0
 10
488.0
 20
288.0000000000001
 30
-8.999999999999984
 70
   192
  0
VERTEX
  5
3E3
  8
0
 10
-488.0000000000002
 20
288.0
 30
-8.999999999999995
 70
   192
  0
VERTEX
  5
3E4
  8
0
 10
-476.4575641846088
 20
276.4575641846085
 30
-8.770993762275602
 70
   192
  0
VERTEX
  5
3E5
  8
0
 10
-465.276269258077
 20
265.2762692580769
 30
-4.726588956237807
 70
   192
  0
VERTEX
  5
3E6
  8
0
 10
0.0
 20
0.0
 30
0.0
 70
   128
 71
     5
 72
     6
 73
    -7
  0
VERTEX
  5
3E7
  8
0
 10
0.0
 20
0.0
 30
0.0
 70
   128
 71
     4
 72
    -5
 73
     7
  0
VERTEX
  5
3E8
  8
0
 10
0.0
 20
0.0
 30
0.0
 70
   128
 71
     8
 72
     3
 73
    -4
  0
VERTEX
  5
3E9
  8
0
 10
0.0
 20
0.0
 30
0.0
 70
   128
 71
     7
 72
    -8
 73
     4
  0
VERTEX
  5
3EA
  8
0
 10
0.0
 20
0.0
 30
0.0
 70
   128
 71
     1
 72
     2
 73
    -3
  0
VERTEX
  5
3EB
  8
0
 10
0.0
 20
0.0
 30
0.0
 70
   128
 71
     8
 72
    -1
 73
     3
  0
SEQEND
  5
4DA
  8
0
  0
POLYLINE
  5
3EC
  8
0
 66
     1
 10
0.0
 20
0.0
 30
0.0
 70
    64
 71
     4
 72
     2
  0
VERTEX
  5
3ED
  8
0
 10
-446.0000000000002
 20
246.0
 30
2.5
 70
   192
  0
VERTEX
  5
3EE
  8
0
 10
445.9999999999999
 20
246.0
 30
2.5
 70
   192
  0
VERTEX
  5
3EF
  8
0
 10
450.9999999999998
 20
251.0
 30
4.999999999999961
 70
   192
  0
VERTEX
  5
3F0
  8
0
 10
-451.0000000000002
 20
251.0
 30
4.999999999999999
 70
   192
  0
VERTEX
  5
3F1
  8
0
 10
0.0
 20
0.0
 30
0.0
 70
   128
 71
     3
 72
     4
 73
    -1
  0
VERTEX
  5
3F2
  8
0
 10
0.0
 20
0.0
 30
0.0
 70
   128
 71
     2
 72
    -3
 73
     1
  0
SEQEND
  5
4DB
  8
0
  0
POLYLINE
  5
3F3
  8
0
 66
     1
 10
0.0
 20
0.0
 30
0.0
 70
    64
 71
     4
 72
     2
  0
VERTEX
  5
3F4
  8
0
 10
-446.0000000000002
 20
246.0
 30
0.0
 70
   192
  0
VERTEX
  5
3F5
  8
0
 10
445.9999999999998
 20
246.0
 30
0.0
 70
   192
  0
VERTEX
  5
3F6
  8
0
 10
445.9999999999999
 20
246.0000000000001
 30
2.500000000000008
 70
   192
  0
VERTEX
  5
3F7
  8
0
 10
-446.0000000000002
 20
246.0
 30
2.5
 70
   192
  0
VERTEX
  5
3F8
  8
0
 10
0.0
 20
0.0
 30
0.0
 70
   128
 71
     3
 72
     4
 73
    -1
  0
VERTEX
  5
3F9
  8
0
 10
0.0
 20
0.0
 30
0.0
 70
   128
 71
     2
 72
    -3
 73
     1
  0
SEQEND
  5
4DC
  8
0
  0
POLYLINE
  5
3FA
  8
0
 66
     1
 10
0.0
 20
0.0
 30
0.0
 70
    64
 71
     4
 72
     2
  0
VERTEX
  5
3FB
  8
0
 10
-451.0000000000002
 20
251.0
 30
-17.0
 70
   192
  0
VERTEX
  5
3FC
  8
0
 10
450.9999999999999
 20
251.0
 30
-17.0
 70
   192
  0
VERTEX
  5
3FD
  8
0
 10
450.9999999999999
 20
251.0000000000001
 30
0.0
 70
   192
  0
VERTEX
  5
3FE
  8
0
 10
-451.0000000000002
 20
251.0
 30
0.0
 70
   192
  0
VERTEX
  5
3FF
  8
0
 10
0.0
 20
0.0
 30
0.0
 70
   128
 71
     3
 72
     4
 73
    -1
  0
VERTEX
  5
400
  8
0
 10
0.0
 20
0.0
 30
0.0
 70
   128
 71
     2
 72
    -3
 73
     1
  0
SEQEND
  5
4DD
  8
0
  0
POLYLINE
  5
401
  8
0
 66
     1
 10
0.0
 20
0.0
 30
0.0
 70
    64
 71
     4
 72
     2
  0
VERTEX
  5
402
  8
0
 10
-490.0000000000001
 20
-290.0000000000001
 30
-15.99999999999999
 70
   192
  0
VERTEX
  5
403
  8
0
 10
-490.0000000000002
 20
290.0
 30
-15.99999999999999
 70
   192
  0
VERTEX
  5
404
  8
0
 10
-490.0000000000002
 20
290.0
 30
-16.99999999999999
 70
   192
  0
VERTEX
  5
405
  8
0
 10
-490.0000000000001
 20
-290.0000000000001
 30
-16.99999999999999
 70
   192
  0
VERTEX
  5
406
  8
0
 10
0.0
 20
0.0
 30
0.0
 70
   128
 71
     3
 72
     4
 73
    -1
  0
VERTEX
  5
407
  8
0
 10
0.0
 20
0.0
 30
0.0
 70
   128
 71
     2
 72
    -3
 73
     1
  0
SEQEND
  5
4DE
  8
0
  0
POLYLINE
  5
408
  8
0
 66
     1
 10
0.0
 20
0.0
 30
0.0
 70
    64
 71
     4
 72
     2
  0
VERTEX
  5
409
  8
0
 10
-488.0000000000001
 20
-288.0
 30
-8.999999999999995
 70
   192
  0
VERTEX
  5
40A
  8
0
 10
-488.0000000000002
 20
288.0
 30
-8.999999999999995
 70
   192
  0
VERTEX
  5
40B
  8
0
 10
-490.0000000000002
 20
290.0
 30
-16.00000000000004
 70
   192
  0
VERTEX
  5
40C
  8
0
 10
-490.0000000000001
 20
-290.0000000000001
 30
-15.99999999999999
 70
   192
  0
VERTEX
  5
40D
  8
0
 10
0.0
 20
0.0
 30
0.0
 70
   128
 71
     3
 72
     4
 73
    -1
  0
VERTEX
  5
40E
  8
0
 10
0.0
 20
0.0
 30
0.0
 70
   128
 71
     2
 72
    -3
 73
     1
  0
SEQEND
  5
4DF
  8
0
  0
POLYLINE
  5
40F
  8
0
 66
     1
 10
0.0
 20
0.0
 30
0.0
 70
    64
 71
     8
 72
     6
  0
VERTEX
  5
410
  8
0
 10
-456.0417028985783
 20
-256.0417028985782
 30
4.999999999999999
 70
   192
  0
VERTEX
  5
411
  8
0
 10
-456.0417028985784
 20
256.0417028985781
 30
4.999999999999999
 70
   192
  0
VERTEX
  5
412
  8
0
 10
-465.276269258077
 20
265.2762692580769
 30
-4.726588956237807
 70
   192
  0
VERTEX
  5
413
  8
0
 10
-476.4575641846088
 20
276.4575641846085
 30
-8.770993762275602
 70
   192
  0
VERTEX
  5
414
  8
0
 10
-488.0000000000002
 20
288.0000000000001
 30
-8.999999999999984
 70
   192
  0
VERTEX
  5
415
  8
0
 10
-488.0000000000001
 20
-288.0
 30
-8.999999999999995
 70
   192
  0
VERTEX
  5
416
  8
0
 10
-476.4575641846084
 20
-276.4575641846085
 30
-8.770993762275603
 70
   192
  0
VERTEX
  5
417
  8
0
 10
-465.276269258077
 20
-265.276269258077
 30
-4.726588956237858
 70
   192
  0
VERTEX
  5
418
  8
0
 10
0.0
 20
0.0
 30
0.0
 70
   128
 71
     5
 72
     6
 73
    -7
  0
VERTEX
  5
419
  8
0
 10
0.0
 20
0.0
 30
0.0
 70
   128
 71
     4
 72
    -5
 73
     7
  0
VERTEX
  5
41A
  8
0
 10
0.0
 20
0.0
 30
0.0
 70
   128
 71
     8
 72
     3
 73
    -4
  0
VERTEX
  5
41B
  8
0
 10
0.0
 20
0.0
 30
0.0
 70
   128
 71
     7
 72
    -8
 73
     4
  0
VERTEX
  5
41C
  8
0
 10
0.0
 20
0.0
 30
0.0
 70
   128
 71
     1
 72
     2
 73
    -3
  0
VERTEX
  5
41D
  8
0
 10
0.0
 20
0.0
 30
0.0
 70
   128
 71
     8
 72
    -1
 73
     3
  0
SEQEND
  5
4E0
  8
0
  0
POLYLINE
  5
41E
  8
0
 66
     1
 10
0.0
 20
0.0
 30
0.0
 70
    64
 71
     4
 72
     2
  0
VERTEX
  5
41F
  8
0
 10
-446.0000000000001
 20
-246.0
 30
2.5
 70
   192
  0
VERTEX
  5
420
  8
0
 10
-446.0000000000002
 20
245.9999999999999
 30
2.5
 70
   192
  0
VERTEX
  5
421
  8
0
 10
-451.0000000000002
 20
251.0
 30
4.999999999999988
 70
   192
  0
VERTEX
  5
422
  8
0
 10
-451.0000000000001
 20
-251.0
 30
4.999999999999999
 70
   192
  0
VERTEX
  5
423
  8
0
 10
0.0
 20
0.0
 30
0.0
 70
   128
 71
     3
 72
     4
 73
    -1
  0
VERTEX
  5
424
  8
0
 10
0.0
 20
0.0
 30
0.0
 70
   128
 71
     2
 72
    -3
 73
     1
  0
SEQEND
  5
4E1
  8
0
  0
POLYLINE
  5
425
  8
0
 66
     1
 10
0.0
 20
0.0
 30
0.0
 70
    64
 71
     4
 72
     2
  0
VERTEX
  5
426
  8
0
 10
-446.0000000000001
 20
-246.0
 30
0.0
 70
   192
  0
VERTEX
  5
427
  8
0
 10
-446.0000000000002
 20
246.0
 30
0.0
 70
   192
  0
VERTEX
  5
428
  8
0
 10
-446.0000000000002
 20
246.0
 30
2.500000000000004
 70
   192
  0
VERTEX
  5
429
  8
0
 10
-446.0000000000001
 20
-246.0
 30
2.5
 70
   192
  0
VERTEX
  5
42A
  8
0
 10
0.0
 20
0.0
 30
0.0
 70
   128
 71
     3
 72
     4
 73
    -1
  0
VERTEX
  5
42B
  8
0
 10
0.0
 20
0.0
 30
0.0
 70
   128
 71
     2
 72
    -3
 73
     1
  0
SEQEND
  5
4E2
  8
0
  0
POLYLINE
  5
42C
  8
0
 66
     1
 10
0.0
 20
0.0
 30
0.0
 70
    64
 71
     4
 72
     2
  0
VERTEX
  5
42D
  8
0
 10
-451.0000000000001
 20
-251.0
 30
-17.0
 70
   192
  0
VERTEX
  5
42E
  8
0
 10
-451.0000000000002
 20
251.0
 30
-17.0
 70
   192
  0
VERTEX
  5
42F
  8
0
 10
-451.0000000000002
 20
251.0
 30
0.0
 70
   192
  0
VERTEX
  5
430
  8
0
 10
-451.0000000000001
 20
-251.0
 30
0.0
 70
   192
  0
VERTEX
  5
431
  8
0
 10
0.0
 20
0.0
 30
0.0
 70
   128
 71
     3
 72
     4
 73
    -1
  0
VERTEX
  5
432
  8
0
 10
0.0
 20
0.0
 30
0.0
 70
   128
 71
     2
 72
    -3
 73
     1
  0
SEQEND
  5
4E3
  8
0
  0
POLYLINE
  5
433
  8
0
 66
     1
 10
0.0
 20
0.0
 30
0.0
 70
    64
 71
     4
 72
     2
  0
VERTEX
  5
434
  8
0
 10
419.9999999999999
 20
267.5
 30
-17.0
 70
   192
  0
VERTEX
  5
435
  8
0
 10
359.9999999999999
 20
267.5
 30
-17.0
 70
   192
  0
VERTEX
  5
436
  8
0
 10
359.9999999999999
 20
267.5
 30
-12.0
 70
   192
  0
VERTEX
  5
437
  8
0
 10
419.9999999999999
 20
267.5
 30
-12.0
 70
   192
  0
VERTEX
  5
438
  8
0
 10
0.0
 20
0.0
 30
0.0
 70
   128
 71
     3
 72
     4
 73
    -1
  0
VERTEX
  5
439
  8
0
 10
0.0
 20
0.0
 30
0.0
 70
   128
 71
     2
 72
    -3
 73
     1
  0
SEQEND
  5
4E4
  8
0
  0
POLYLINE
  5
43A
  8
0
 66
     1
 10
0.0
 20
0.0
 30
0.0
 70
    64
 71
     4
 72
     2
  0
VERTEX
  5
43B
  8
0
 10
419.9999999999999
 20
272.5
 30
-17.0
 70
   192
  0
VERTEX
  5
43C
  8
0
 10
419.9999999999999
 20
267.5
 30
-17.0
 70
   192
  0
VERTEX
  5
43D
  8
0
 10
419.9999999999999
 20
267.5
 30
-12.0
 70
   192
  0
VERTEX
  5
43E
  8
0
 10
419.9999999999999
 20
272.5
 30
-12.0
 70
   192
  0
VERTEX
  5
43F
  8
0
 10
0.0
 20
0.0
 30
0.0
 70
   128
 71
     3
 72
     4
 73
    -1
  0
VERTEX
  5
440
  8
0
 10
0.0
 20
0.0
 30
0.0
 70
   128
 71
     2
 72
    -3
 73
     1
  0
SEQEND
  5
4E5
  8
0
  0
POLYLINE
  5
441
  8
0
 66
     1
 10
0.0
 20
0.0
 30
0.0
 70
    64
 71
     4
 72
     2
  0
VERTEX
  5
442
  8
0
 10
359.9999999999999
 20
272.5
 30
-17.0
 70
   192
  0
VERTEX
  5
443
  8
0
 10
419.9999999999999
 20
272.5
 30
-17.0
 70
   192
  0
VERTEX
  5
444
  8
0
 10
419.9999999999999
 20
272.5
 30
-12.0
 70
   192
  0
VERTEX
  5
445
  8
0
 10
359.9999999999999
 20
272.5
 30
-12.00000000000001
 70
   192
  0
VERTEX
  5
446
  8
0
 10
0.0
 20
0.0
 30
0.0
 70
   128
 71
     3
 72
     4
 73
    -1
  0
VERTEX
  5
447
  8
0
 10
0.0
 20
0.0
 30
0.0
 70
   128
 71
     2
 72
    -3
 73
     1
  0
SEQEND
  5
4E6
  8
0
  0
POLYLINE
  5
448
  8
0
 66
     1
 10
0.0
 20
0.0
 30
0.0
 70
    64
 71
     4
 72
     2
  0
VERTEX
  5
449
  8
0
 10
359.9999999999999
 20
267.5000000000001
 30
-17.0
 70
   192
  0
VERTEX
  5
44A
  8
0
 10
359.9999999999999
 20
272.5
 30
-17.0
 70
   192
  0
VERTEX
  5
44B
  8
0
 10
359.9999999999999
 20
272.5
 30
-12.0
 70
   192
  0
VERTEX
  5
44C
  8
0
 10
359.9999999999999
 20
267.5
 30
-12.0
 70
   192
  0
VERTEX
  5
44D
  8
0
 10
0.0
 20
0.0
 30
0.0
 70
   128
 71
     3
 72
     4
 73
    -1
  0
VERTEX
  5
44E
  8
0
 10
0.0
 20
0.0
 30
0.0
 70
   128
 71
     2
 72
    -3
 73
     1
  0
SEQEND
  5
4E7
  8
0
  0
POLYLINE
  5
44F
  8
0
 66
     1
 10
0.0
 20
0.0
 30
0.0
 70
    64
 71
     4
 72
     2
  0
VERTEX
  5
450
  8
0
 10
419.9999999999999
 20
267.5
 30
-12.0
 70
   192
  0
VERTEX
  5
451
  8
0
 10
419.9999999999999
 20
272.5
 30
-12.0
 70
   192
  0
VERTEX
  5
452
  8
0
 10
359.9999999999999
 20
272.5
 30
-12.0
 70
   192
  0
VERTEX
  5
453
  8
0
 10
359.9999999999999
 20
267.5
 30
-12.00000000000001
 70
   192
  0
VERTEX
  5
454
  8
0
 10
0.0
 20
0.0
 30
0.0
 70
   128
 71
     1
 72
     4
 73
    -3
  0
VERTEX
  5
455
  8
0
 10
0.0
 20
0.0
 30
0.0
 70
   128
 71
    -1
 72
     3
 73
     2
  0
SEQEND
  5
4E8
  8
0
  0
POLYLINE
  5
456
  8
0
 66
     1
 10
0.0
 20
0.0
 30
0.0
 70
    64
 71
     4
 72
     2
  0
VERTEX
  5
457
  8
0
 10
467.4999999999999
 20
180.0
 30
-17.0
 70
   192
  0
VERTEX
  5
458
  8
0
 10
467.4999999999999
 20
240.0
 30
-17.0
 70
   192
  0
VERTEX
  5
459
  8
0
 10
467.4999999999999
 20
240.0
 30
-12.0
 70
   192
  0
VERTEX
  5
45A
  8
0
 10
467.4999999999999
 20
180.0
 30
-12.0
 70
   192
  0
VERTEX
  5
45B
  8
0
 10
0.0
 20
0.0
 30
0.0
 70
   128
 71
     3
 72
     4
 73
    -1
  0
VERTEX
  5
45C
  8
0
 10
0.0
 20
0.0
 30
0.0
 70
   128
 71
     2
 72
    -3
 73
     1
  0
SEQEND
  5
4E9
  8
0
  0
POLYLINE
  5
45D
  8
0
 66
     1
 10
0.0
 20
0.0
 30
0.0
 70
    64
 71
     4
 72
     2
  0
VERTEX
  5
45E
  8
0
 10
472.4999999999999
 20
180.0
 30
-16.99999999999999
 70
   192
  0
VERTEX
  5
45F
  8
0
 10
467.4999999999999
 20
180.0
 30
-17.0
 70
   192
  0
VERTEX
  5
460
  8
0
 10
467.4999999999999
 20
180.0
 30
-12.0
 70
   192
  0
VERTEX
  5
461
  8
0
 10
472.4999999999999
 20
180.0
 30
-11.99999999999999
 70
   192
  0
VERTEX
  5
462
  8
0
 10
0.0
 20
0.0
 30
0.0
 70
   128
 71
     3
 72
     4
 73
    -1
  0
VERTEX
  5
463
  8
0
 10
0.0
 20
0.0
 30
0.0
 70
   128
 71
     2
 72
    -3
 73
     1
  0
SEQEND
  5
4EA
  8
0
  0
POLYLINE
  5
464
  8
0
 66
     1
 10
0.0
 20
0.0
 30
0.0
 70
    64
 71
     4
 72
     2
  0
VERTEX
  5
465
  8
0
 10
472.4999999999999
 20
240.0
 30
-16.99999999999999
 70
   192
  0
VERTEX
  5
466
  8
0
 10
472.4999999999999
 20
180.0
 30
-16.99999999999999
 70
   192
  0
VERTEX
  5
467
  8
0
 10
472.4999999999999
 20
180.0
 30
-11.99999999999999
 70
   192
  0
VERTEX
  5
468
  8
0
 10
472.4999999999999
 20
240.0
 30
-11.99999999999999
 70
   192
  0
VERTEX
  5
469
  8
0
 10
0.0
 20
0.0
 30
0.0
 70
   128
 71
     3
 72
     4
 73
    -1
  0
VERTEX
  5
46A
  8
0
 10
0.0
 20
0.0
 30
0.0
 70
   128
 71
     2
 72
    -3
 73
     1
  0
SEQEND
  5
4EB
  8
0
  0
POLYLINE
  5
46B
  8
0
 66
     1
 10
0.0
 20
0.0
 30
0.0
 70
    64
 71
     4
 72
     2
  0
VERTEX
  5
46C
  8
0
 10
467.4999999999999
 20
240.0
 30
-17.0
 70
   192
  0
VERTEX
  5
46D
  8
0
 10
472.4999999999999
 20
240.0
 30
-16.99999999999999
 70
   192
  0
VERTEX
  5
46E
  8
0
 10
472.4999999999999
 20
240.0
 30
-11.99999999999999
 70
   192
  0
VERTEX
  5
46F
  8
0
 10
467.4999999999999
 20
240.0
 30
-11.99999999999999
 70
   192
  0
VERTEX
  5
470
  8
0
 10
0.0
 20
0.0
 30
0.0
 70
   128
 71
     3
 72
     4
 73
    -1
  0
VERTEX
  5
471
  8
0
 10
0.0
 20
0.0
 30
0.0
 70
   128
 71
     2
 72
    -3
 73
     1
  0
SEQEND
  5
4EC
  8
0
  0
POLYLINE
  5
472
  8
0
 66
     1
 10
0.0
 20
0.0
 30
0.0
 70
    64
 71
     4
 72
     2
  0
VERTEX
  5
473
  8
0
 10
467.4999999999999
 20
180.0
 30
-11.99999999999999
 70
   192
  0
VERTEX
  5
474
  8
0
 10
472.4999999999999
 20
180.0
 30
-11.99999999999999
 70
   192
  0
VERTEX
  5
475
  8
0
 10
472.4999999999999
 20
240.0
 30
-11.99999999999999
 70
   192
  0
VERTEX
  5
476
  8
0
 10
467.4999999999999
 20
240.0
 30
-12.0
 70
   192
  0
VERTEX
  5
477
  8
0
 10
0.0
 20
0.0
 30
0.0
 70
   128
 71
     1
 72
     4
 73
    -3
  0
VERTEX
  5
478
  8
0
 10
0.0
 20
0.0
 30
0.0
 70
   128
 71
    -1
 72
     3
 73
     2
  0
SEQEND
  5
4ED
  8
0
  0
POLYLINE
  5
479
  8
0
 66
     1
 10
0.0
 20
0.0
 30
0.0
 70
    64
 71
     4
 72
     2
  0
VERTEX
  5
47A
  8
0
 10
-359.9999999999999
 20
267.5000000000001
 30
-17.00000000000007
 70
   192
  0
VERTEX
  5
47B
  8
0
 10
-419.9999999999999
 20
267.5000000000001
 30
-17.00000000000007
 70
   192
  0
VERTEX
  5
47C
  8
0
 10
-419.9999999999999
 20
267.5000000000001
 30
-12.00000000000007
 70
   192
  0
VERTEX
  5
47D
  8
0
 10
-359.9999999999999
 20
267.5000000000001
 30
-12.00000000000007
 70
   192
  0
VERTEX
  5
47E
  8
0
 10
0.0
 20
0.0
 30
0.0
 70
   128
 71
     3
 72
     4
 73
    -1
  0
VERTEX
  5
47F
  8
0
 10
0.0
 20
0.0
 30
0.0
 70
   128
 71
     2
 72
    -3
 73
     1
  0
SEQEND
  5
4EE
  8
0
  0
POLYLINE
  5
480
  8
0
 66
     1
 10
0.0
 20
0.0
 30
0.0
 70
    64
 71
     4
 72
     2
  0
VERTEX
  5
481
  8
0
 10
-359.9999999999999
 20
272.5000000000001
 30
-17.00000000000007
 70
   192
  0
VERTEX
  5
482
  8
0
 10
-359.9999999999999
 20
267.5000000000001
 30
-17.00000000000007
 70
   192
  0
VERTEX
  5
483
  8
0
 10
-359.9999999999999
 20
267.5000000000001
 30
-12.00000000000007
 70
   192
  0
VERTEX
  5
484
  8
0
 10
-359.9999999999999
 20
272.5000000000001
 30
-12.00000000000007
 70
   192
  0
VERTEX
  5
485
  8
0
 10
0.0
 20
0.0
 30
0.0
 70
   128
 71
     3
 72
     4
 73
    -1
  0
VERTEX
  5
486
  8
0
 10
0.0
 20
0.0
 30
0.0
 70
   128
 71
     2
 72
    -3
 73
     1
  0
SEQEND
  5
4EF
  8
0
  0
POLYLINE
  5
487
  8
0
 66
     1
 10
0.0
 20
0.0
 30
0.0
 70
    64
 71
     4
 72
     2
  0
VERTEX
  5
488
  8
0
 10
-419.9999999999999
 20
272.5000000000001
 30
-17.00000000000007
 70
   192
  0
VERTEX
  5
489
  8
0
 10
-359.9999999999999
 20
272.5000000000001
 30
-17.00000000000007
 70
   192
  0
VERTEX
  5
48A
  8
0
 10
-359.9999999999999
 20
272.5000000000001
 30
-12.00000000000007
 70
   192
  0
VERTEX
  5
48B
  8
0
 10
-419.9999999999999
 20
272.5000000000001
 30
-12.00000000000007
 70
   192
  0
VERTEX
  5
48C
  8
0
 10
0.0
 20
0.0
 30
0.0
 70
   128
 71
     3
 72
     4
 73
    -1
  0
VERTEX
  5
48D
  8
0
 10
0.0
 20
0.0
 30
0.0
 70
   128
 71
     2
 72
    -3
 73
     1
  0
SEQEND
  5
4F0
  8
0
  0
POLYLINE
  5
48E
  8
0
 66
     1
 10
0.0
 20
0.0
 30
0.0
 70
    64
 71
     4
 72
     2
  0
VERTEX
  5
48F
  8
0
 10
-419.9999999999999
 20
267.5000000000002
 30
-17.00000000000007
 70
   192
  0
VERTEX
  5
490
  8
0
 10
-419.9999999999999
 20
272.5000000000001
 30
-17.00000000000007
 70
   192
  0
VERTEX
  5
491
  8
0
 10
-419.9999999999999
 20
272.5000000000001
 30
-12.00000000000007
 70
   192
  0
VERTEX
  5
492
  8
0
 10
-419.9999999999999
 20
267.5000000000001
 30
-12.00000000000007
 70
   192
  0
VERTEX
  5
493
  8
0
 10
0.0
 20
0.0
 30
0.0
 70
   128
 71
     3
 72
     4
 73
    -1
  0
VERTEX
  5
494
  8
0
 10
0.0
 20
0.0
 30
0.0
 70
   128
 71
     2
 72
    -3
 73
     1
  0
SEQEND
  5
4F1
  8
0
  0
POLYLINE
  5
495
  8
0
 66
     1
 10
0.0
 20
0.0
 30
0.0
 70
    64
 71
     4
 72
     2
  0
VERTEX
  5
496
  8
0
 10
-359.9999999999999
 20
267.5000000000001
 30
-12.00000000000007
 70
   192
  0
VERTEX
  5
497
  8
0
 10
-359.9999999999999
 20
272.5000000000001
 30
-12.00000000000007
 70
   192
  0
VERTEX
  5
498
  8
0
 10
-419.9999999999999
 20
272.5000000000001
 30
-12.00000000000007
 70
   192
  0
VERTEX
  5
499
  8
0
 10
-419.9999999999999
 20
267.5000000000001
 30
-12.00000000000007
 70
   192
  0
VERTEX
  5
49A
  8
0
 10
0.0
 20
0.0
 30
0.0
 70
   128
 71
     1
 72
     4
 73
    -3
  0
VERTEX
  5
49B
  8
0
 10
0.0
 20
0.0
 30
0.0
 70
   128
 71
    -1
 72
     3
 73
     2
  0
SEQEND
  5
4F2
  8
0
  0
POLYLINE
  5
49C
  8
0
 66
     1
 10
0.0
 20
0.0
 30
0.0
 70
    64
 71
     4
 72
     2
  0
VERTEX
  5
49D
  8
0
 10
467.4999999999999
 20
-240.0
 30
-17.0
 70
   192
  0
VERTEX
  5
49E
  8
0
 10
467.4999999999999
 20
-180.0000000000001
 30
-17.0
 70
   192
  0
VERTEX
  5
49F
  8
0
 10
467.4999999999999
 20
-180.0000000000001
 30
-12.0
 70
   192
  0
VERTEX
  5
4A0
  8
0
 10
467.4999999999999
 20
-240.0
 30
-12.0
 70
   192
  0
VERTEX
  5
4A1
  8
0
 10
0.0
 20
0.0
 30
0.0
 70
   128
 71
     3
 72
     4
 73
    -1
  0
VERTEX
  5
4A2
  8
0
 10
0.0
 20
0.0
 30
0.0
 70
   128
 71
     2
 72
    -3
 73
     1
  0
SEQEND
  5
4F3
  8
0
  0
POLYLINE
  5
4A3
  8
0
 66
     1
 10
0.0
 20
0.0
 30
0.0
 70
    64
 71
     4
 72
     2
  0
VERTEX
  5
4A4
  8
0
 10
472.4999999999999
 20
-240.0
 30
-16.99999999999999
 70
   192
  0
VERTEX
  5
4A5
  8
0
 10
467.4999999999999
 20
-240.0
 30
-17.0
 70
   192
  0
VERTEX
  5
4A6
  8
0
 10
467.4999999999999
 20
-240.0
 30
-12.0
 70
   192
  0
VERTEX
  5
4A7
  8
0
 10
472.4999999999999
 20
-240.0
 30
-11.99999999999999
 70
   192
  0
VERTEX
  5
4A8
  8
0
 10
0.0
 20
0.0
 30
0.0
 70
   128
 71
     3
 72
     4
 73
    -1
  0
VERTEX
  5
4A9
  8
0
 10
0.0
 20
0.0
 30
0.0
 70
   128
 71
     2
 72
    -3
 73
     1
  0
SEQEND
  5
4F4
  8
0
  0
POLYLINE
  5
4AA
  8
0
 66
     1
 10
0.0
 20
0.0
 30
0.0
 70
    64
 71
     4
 72
     2
  0
VERTEX
  5
4AB
  8
0
 10
472.4999999999999
 20
-180.0000000000001
 30
-16.99999999999999
 70
   192
  0
VERTEX
  5
4AC
  8
0
 10
472.4999999999999
 20
-240.0
 30
-16.99999999999999
 70
   192
  0
VERTEX
  5
4AD
  8
0
 10
472.4999999999999
 20
-240.0
 30
-11.99999999999999
 70
   192
  0
VERTEX
  5
4AE
  8
0
 10
472.4999999999999
 20
-180.0000000000001
 30
-11.99999999999999
 70
   192
  0
VERTEX
  5
4AF
  8
0
 10
0.0
 20
0.0
 30
0.0
 70
   128
 71
     3
 72
     4
 73
    -1
  0
VERTEX
  5
4B0
  8
0
 10
0.0
 20
0.0
 30
0.0
 70
   128
 71
     2
 72
    -3
 73
     1
  0
SEQEND
  5
4F5
  8
0
  0
POLYLINE
  5
4B1
  8
0
 66
     1
 10
0.0
 20
0.0
 30
0.0
 70
    64
 71
     4
 72
     2
  0
VERTEX
  5
4B2
  8
0
 10
467.4999999999999
 20
-180.0000000000001
 30
-17.0
 70
   192
  0
VERTEX
  5
4B3
  8
0
 10
472.4999999999999
 20
-180.0000000000001
 30
-16.99999999999999
 70
   192
  0
VERTEX
  5
4B4
  8
0
 10
472.4999999999999
 20
-180.0000000000001
 30
-11.99999999999999
 70
   192
  0
VERTEX
  5
4B5
  8
0
 10
467.4999999999999
 20
-180.0000000000001
 30
-11.99999999999999
 70
   192
  0
VERTEX
  5
4B6
  8
0
 10
0.0
 20
0.0
 30
0.0
 70
   128
 71
     3
 72
     4
 73
    -1
  0
VERTEX
  5
4B7
  8
0
 10
0.0
 20
0.0
 30
0.0
 70
   128
 71
     2
 72
    -3
 73
     1
  0
SEQEND
  5
4F6
  8
0
  0
POLYLINE
  5
4B8
  8
0
 66
     1
 10
0.0
 20
0.0
 30
0.0
 70
    64
 71
     4
 72
     2
  0
VERTEX
  5
4B9
  8
0
 10
467.4999999999999
 20
-240.0
 30
-11.99999999999999
 70
   192
  0
VERTEX
  5
4BA
  8
0
 10
472.4999999999999
 20
-240.0
 30
-11.99999999999999
 70
   192
  0
VERTEX
  5
4BB
  8
0
 10
472.4999999999999
 20
-180.0000000000001
 30
-11.99999999999999
 70
   192
  0
VERTEX
  5
4BC
  8
0
 10
467.4999999999999
 20
-180.0000000000001
 30
-12.0
 70
   192
  0
VERTEX
  5
4BD
  8
0
 10
0.0
 20
0.0
 30
0.0
 70
   128
 71
     1
 72
     4
 73
    -3
  0
VERTEX
  5
4BE
  8
0
 10
0.0
 20
0.0
 30
0.0
 70
   128
 71
    -1
 72
     3
 73
     2
  0
SEQEND
  5
4F7
  8
0
  0
ENDBLK
  5
4C8
  8
0
  0
ENDSEC
  0
SECTION
  2
ENTITIES
  0
INSERT
  5
BF
  8
0
  2
*X1
 10
0.0
 20
0.0
 30
0.0
  0
INSERT
  5
C0
  8
0
  2
*X2
 10
0.0
 20
0.0
 30
0.0
  0
ENDSEC
  0
EOF
