  0
SECTION
  2
HEADER
  9
$ACADVER
  1
AC1009
  9
$DWGCODEPAGE
  3
ansi_1250
  9
$INSBASE
 10
0.0
 20
0.0
 30
0.0
  9
$EXTMIN
 10
-180.0
 20
-2.999999999999659
 30
-180.0
  9
$EXTMAX
 10
180.0
 20
117.0000000000006
 30
180.0
  9
$LIMMIN
 10
0.0
 20
0.0
  9
$LIMMAX
 10
420.0
 20
297.0
  9
$ORTHOMODE
 70
     0
  9
$REGENMODE
 70
     1
  9
$FILLMODE
 70
     1
  9
$QTEXTMODE
 70
     0
  9
$MIRRTEXT
 70
     0
  9
$DRAGMODE
 70
     2
  9
$LTSCALE
 40
1.0
  9
$OSMODE
 70
   511
  9
$ATTMODE
 70
     1
  9
$TEXTSIZE
 40
2.5
  9
$TRACEWID
 40
1.0
  9
$TEXTSTYLE
  7
STANDARD
  9
$CLAYER
  8
0
  9
$CELTYPE
  6
BYLAYER
  9
$CECOLOR
 62
   256
  9
$DIMSCALE
 40
1.0
  9
$DIMASZ
 40
2.5
  9
$DIMEXO
 40
0.625
  9
$DIMDLI
 40
3.75
  9
$DIMRND
 40
0.0
  9
$DIMDLE
 40
0.0
  9
$DIMEXE
 40
1.25
  9
$DIMTP
 40
0.0
  9
$DIMTM
 40
0.0
  9
$DIMTXT
 40
2.5
  9
$DIMCEN
 40
-2.5
  9
$DIMTSZ
 40
0.0
  9
$DIMTOL
 70
     0
  9
$DIMLIM
 70
     0
  9
$DIMTIH
 70
     0
  9
$DIMTOH
 70
     0
  9
$DIMSE1
 70
     0
  9
$DIMSE2
 70
     0
  9
$DIMTAD
 70
     1
  9
$DIMZIN
 70
     8
  9
$DIMBLK
  1

  9
$DIMASO
 70
     1
  9
$DIMSHO
 70
     1
  9
$DIMPOST
  1

  9
$DIMAPOST
  1

  9
$DIMALT
 70
     0
  9
$DIMALTD
 70
     3
  9
$DIMALTF
 40
0.03937007874016
  9
$DIMLFAC
 40
1.0
  9
$DIMTOFL
 70
     1
  9
$DIMTVP
 40
0.0
  9
$DIMTIX
 70
     0
  9
$DIMSOXD
 70
     0
  9
$DIMSAH
 70
     0
  9
$DIMBLK1
  1

  9
$DIMBLK2
  1

  9
$DIMSTYLE
  2
ISO-25
  9
$DIMCLRD
 70
     0
  9
$DIMCLRE
 70
     0
  9
$DIMCLRT
 70
     0
  9
$DIMTFAC
 40
1.0
  9
$DIMGAP
 40
0.625
  9
$LUNITS
 70
     2
  9
$LUPREC
 70
     3
  9
$SKETCHINC
 40
1.0
  9
$FILLETRAD
 40
10.0
  9
$AUNITS
 70
     0
  9
$AUPREC
 70
     0
  9
$MENU
  1
.
  9
$ELEVATION
 40
0.0
  9
$PELEVATION
 40
0.0
  9
$THICKNESS
 40
0.0
  9
$LIMCHECK
 70
     0
  9
$CHAMFERA
 40
10.0
  9
$CHAMFERB
 40
10.0
  9
$SKPOLY
 70
     0
  9
$TDCREATE
 40
2455022.679026181
  9
$TDUPDATE
 40
2460378.39900779
  9
$TDINDWG
 40
0.0003797106
  9
$TDUSRTIMER
 40
0.0003797106
  9
$USRTIMER
 70
     1
  9
$ANGBASE
 50
0.0
  9
$ANGDIR
 70
     0
  9
$PDMODE
 70
     0
  9
$PDSIZE
 40
0.0
  9
$PLINEWID
 40
0.0
  9
$COORDS
 70
     1
  9
$SPLFRAME
 70
     0
  9
$SPLINETYPE
 70
     6
  9
$SPLINESEGS
 70
     8
  9
$ATTDIA
 70
     0
  9
$ATTREQ
 70
     1
  9
$HANDLING
 70
     1
  9
$HANDSEED
  5
F85
  9
$SURFTAB1
 70
     6
  9
$SURFTAB2
 70
     6
  9
$SURFTYPE
 70
     6
  9
$SURFU
 70
     6
  9
$SURFV
 70
     6
  9
$UCSNAME
  2

  9
$UCSORG
 10
0.0
 20
0.0
 30
0.0
  9
$UCSXDIR
 10
1.0
 20
0.0
 30
0.0
  9
$UCSYDIR
 10
0.0
 20
1.0
 30
0.0
  9
$PUCSNAME
  2

  9
$PUCSORG
 10
0.0
 20
0.0
 30
0.0
  9
$PUCSXDIR
 10
1.0
 20
0.0
 30
0.0
  9
$PUCSYDIR
 10
0.0
 20
1.0
 30
0.0
  9
$USERI1
 70
     0
  9
$USERI2
 70
     0
  9
$USERI3
 70
     0
  9
$USERI4
 70
     0
  9
$USERI5
 70
     0
  9
$USERR1
 40
0.0
  9
$USERR2
 40
0.0
  9
$USERR3
 40
0.0
  9
$USERR4
 40
0.0
  9
$USERR5
 40
0.0
  9
$WORLDVIEW
 70
     1
  9
$SHADEDGE
 70
     3
  9
$SHADEDIF
 70
    70
  9
$TILEMODE
 70
     1
  9
$MAXACTVP
 70
    64
  9
$PLIMCHECK
 70
     0
  9
$PEXTMIN
 10
1.000000000000000E+20
 20
1.000000000000000E+20
 30
1.000000000000000E+20
  9
$PEXTMAX
 10
-1.000000000000000E+20
 20
-1.000000000000000E+20
 30
-1.000000000000000E+20
  9
$PLIMMIN
 10
0.0
 20
0.0
  9
$PLIMMAX
 10
0.0
 20
0.0
  9
$UNITMODE
 70
     0
  9
$VISRETAIN
 70
     1
  9
$PLINEGEN
 70
     0
  9
$PSLTSCALE
 70
     1
  0
ENDSEC
  0
SECTION
  2
TABLES
  0
TABLE
  2
VPORT
 70
     1
  0
VPORT
  2
*ACTIVE
 70
     0
 10
0.0
 20
0.0
 11
1.0
 21
1.0
 12
0.0
 22
0.0
 13
0.0
 23
0.0
 14
10.0
 24
10.0
 15
10.0
 25
10.0
 16
0.0
 26
0.0
 36
1.0
 17
0.0
 27
57.00000000000047
 37
0.0
 40
201.7422924901186
 41
1.820143884892086
 42
50.0
 43
0.0
 44
0.0
 50
0.0
 51
0.0
 71
    16
 72
  1000
 73
     1
 74
     3
 75
     0
 76
     0
 77
     0
 78
     0
  0
ENDTAB
  0
TABLE
  2
LTYPE
 70
     1
  0
LTYPE
  2
CONTINUOUS
 70
     0
  3
Solid line
 72
    65
 73
     0
 40
0.0
  0
ENDTAB
  0
TABLE
  2
LAYER
 70
     1
  0
LAYER
  2
0
 70
     0
 62
     7
  6
CONTINUOUS
  0
ENDTAB
  0
TABLE
  2
STYLE
 70
     2
  0
STYLE
  2
STANDARD
 70
     0
 40
0.0
 41
1.0
 50
0.0
 71
     0
 42
2.5
  3
arial.ttf
  4

  0
STYLE
  2
ANNOTATIVE
 70
     0
 40
0.0
 41
1.0
 50
0.0
 71
     0
 42
2.5
  3
arial.ttf
  4

  0
ENDTAB
  0
TABLE
  2
VIEW
 70
     0
  0
ENDTAB
  0
TABLE
  2
UCS
 70
     0
  0
ENDTAB
  0
TABLE
  2
APPID
 70
     2
  0
APPID
  2
ACAD
 70
     0
  0
APPID
  2
ACADANNOTATIVE
 70
     0
  0
ENDTAB
  0
TABLE
  2
DIMSTYLE
 70
     2
  0
DIMSTYLE
  2
ISO-25
 70
     0
  3

  4

  5

  6

  7

 40
1.0
 41
2.5
 42
0.625
 43
3.75
 44
1.25
 45
0.0
 46
0.0
 47
0.0
 48
0.0
140
2.5
141
-2.5
142
0.0
143
0.03937007874016
144
1.0
145
0.0
146
1.0
147
0.625
 71
     0
 72
     0
 73
     0
 74
     0
 75
     0
 76
     0
 77
     1
 78
     8
170
     0
171
     3
172
     1
173
     0
174
     0
175
     0
176
     0
177
     0
178
     0
  0
DIMSTYLE
  2
ANNOTATIVE
 70
     0
  3

  4

  5

  6

  7

 40
0.0
 41
2.5
 42
0.625
 43
3.75
 44
1.25
 45
0.0
 46
0.0
 47
0.0
 48
0.0
140
2.5
141
-2.5
142
0.0
143
0.03937007874016
144
1.0
145
0.0
146
1.0
147
0.625
 71
     0
 72
     0
 73
     0
 74
     0
 75
     0
 76
     0
 77
     1
 78
     8
170
     0
171
     3
172
     1
173
     0
174
     0
175
     0
176
     0
177
     0
178
     0
  0
ENDTAB
  0
ENDSEC
  0
SECTION
  2
BLOCKS
  0
BLOCK
  8
0
  2
$MODEL_SPACE
 70
     0
 10
0.0
 20
0.0
 30
0.0
  3
$MODEL_SPACE
  1

  0
ENDBLK
  5
21
  8
0
  0
BLOCK
 67
     1
  8
0
  2
$PAPER_SPACE
 70
     0
 10
0.0
 20
0.0
 30
0.0
  3
$PAPER_SPACE
  1

  0
ENDBLK
  5
1D
 67
     1
  8
0
  0
BLOCK
  8
0
  2
*X1
 70
     1
 10
0.0
 20
0.0
 30
0.0
  3
*X1
  1

  0
POLYLINE
  5
829
  8
0
 66
     1
 10
0.0
 20
0.0
 30
0.0
 70
    64
 71
    14
 72
    12
  0
VERTEX
  5
82A
  8
0
 10
90.0
 20
115.2956124593617
 30
155.884572681199
 70
   192
  0
VERTEX
  5
82B
  8
0
 10
89.03258876928504
 20
30.03550686080364
 30
154.2089672777879
 70
   192
  0
VERTEX
  5
82C
  8
0
 10
154.2089672777879
 20
30.03550686080364
 30
89.0325887692851
 70
   192
  0
VERTEX
  5
82D
  8
0
 10
155.884572681199
 20
115.2956124593617
 30
90.00000000000006
 70
   192
  0
VERTEX
  5
82E
  8
0
 10
155.884572681199
 20
115.2956124593617
 30
-89.99999999999996
 70
   192
  0
VERTEX
  5
82F
  8
0
 10
154.208967277788
 20
30.03550686080364
 30
-89.03258876928501
 70
   192
  0
VERTEX
  5
830
  8
0
 10
89.03258876928514
 20
30.03550686080364
 30
-154.2089672777879
 70
   192
  0
VERTEX
  5
831
  8
0
 10
90.0000000000001
 20
115.2956124593617
 30
-155.884572681199
 70
   192
  0
VERTEX
  5
832
  8
0
 10
0.0000000000000988
 20
30.03550686080364
 30
-178.0651775385701
 70
   192
  0
VERTEX
  5
833
  8
0
 10
0.000000000000022
 20
115.2956124593617
 30
-180.0
 70
   192
  0
VERTEX
  5
834
  8
0
 10
180.0
 20
115.2956124593617
 30
0.00000000000005
 70
   192
  0
VERTEX
  5
835
  8
0
 10
178.0651775385701
 20
30.03550686080364
 30
0.0000000000000494
 70
   192
  0
VERTEX
  5
836
  8
0
 10
0.0
 20
115.2956124593617
 30
180.0
 70
   192
  0
VERTEX
  5
837
  8
0
 10
0.0
 20
30.03550686080364
 30
178.0651775385701
 70
   192
  0
VERTEX
  5
838
  8
0
 10
0.0
 20
0.0
 30
0.0
 70
   128
 71
     1
 72
     2
 73
    -3
  0
VERTEX
  5
839
  8
0
 10
0.0
 20
0.0
 30
0.0
 70
   128
 71
    -1
 72
     3
 73
     4
  0
VERTEX
  5
83A
  8
0
 10
0.0
 20
0.0
 30
0.0
 70
   128
 71
     5
 72
     6
 73
    -7
  0
VERTEX
  5
83B
  8
0
 10
0.0
 20
0.0
 30
0.0
 70
   128
 71
    -5
 72
     7
 73
     8
  0
VERTEX
  5
83C
  8
0
 10
0.0
 20
0.0
 30
0.0
 70
   128
 71
     8
 72
     7
 73
    -9
  0
VERTEX
  5
83D
  8
0
 10
0.0
 20
0.0
 30
0.0
 70
   128
 71
    -8
 72
     9
 73
    10
  0
VERTEX
  5
83E
  8
0
 10
0.0
 20
0.0
 30
0.0
 70
   128
 71
    11
 72
    12
 73
    -6
  0
VERTEX
  5
83F
  8
0
 10
0.0
 20
0.0
 30
0.0
 70
   128
 71
   -11
 72
     6
 73
     5
  0
VERTEX
  5
840
  8
0
 10
0.0
 20
0.0
 30
0.0
 70
   128
 71
     4
 72
     3
 73
   -12
  0
VERTEX
  5
841
  8
0
 10
0.0
 20
0.0
 30
0.0
 70
   128
 71
    -4
 72
    12
 73
    11
  0
VERTEX
  5
842
  8
0
 10
0.0
 20
0.0
 30
0.0
 70
   128
 71
    13
 72
    14
 73
    -2
  0
VERTEX
  5
843
  8
0
 10
0.0
 20
0.0
 30
0.0
 70
   128
 71
   -13
 72
     2
 73
     1
  0
SEQEND
  5
F60
  8
0
  0
POLYLINE
  5
844
  8
0
 66
     1
 10
0.0
 20
0.0
 30
0.0
 70
    64
 71
    39
 72
    58
  0
VERTEX
  5
845
  8
0
 10
89.03258876928514
 20
30.03550686080364
 30
-154.2089672777879
 70
   192
  0
VERTEX
  5
846
  8
0
 10
125.3640032455875
 20
23.89494011012225
 30
-125.3640032455875
 70
   192
  0
VERTEX
  5
847
  8
0
 10
67.84650965522715
 20
23.89494011012225
 30
-163.7959637693265
 70
   192
  0
VERTEX
  5
848
  8
0
 10
163.7959637693265
 20
23.89494011012225
 30
-67.84650965522712
 70
   192
  0
VERTEX
  5
849
  8
0
 10
178.0651775385701
 20
30.03550686080364
 30
0.0000000000000494
 70
   192
  0
VERTEX
  5
84A
  8
0
 10
177.2914736232945
 20
23.89494011012225
 30
0.0000000000000109
 70
   192
  0
VERTEX
  5
84B
  8
0
 10
154.2089672777879
 20
30.03550686080364
 30
89.0325887692851
 70
   192
  0
VERTEX
  5
84C
  8
0
 10
125.3640032455875
 20
23.89494011012225
 30
125.3640032455875
 70
   192
  0
VERTEX
  5
84D
  8
0
 10
163.7959637693265
 20
23.89494011012225
 30
67.84650965522715
 70
   192
  0
VERTEX
  5
84E
  8
0
 10
123.9432378604313
 20
18.04105001816028
 30
-123.9432378604313
 70
   192
  0
VERTEX
  5
84F
  8
0
 10
67.0775969695579
 20
18.04105001816028
 30
-161.9396443353031
 70
   192
  0
VERTEX
  5
850
  8
0
 10
175.2822079466564
 20
18.04105001816028
 30
0.0000000000000107
 70
   192
  0
VERTEX
  5
851
  8
0
 10
161.9396443353031
 20
18.04105001816028
 30
-67.07759696955789
 70
   192
  0
VERTEX
  5
852
  8
0
 10
123.9432378604313
 20
18.04105001816028
 30
123.9432378604313
 70
   192
  0
VERTEX
  5
853
  8
0
 10
161.9396443353031
 20
18.04105001816028
 30
67.0775969695579
 70
   192
  0
VERTEX
  5
854
  8
0
 10
0.0
 20
21.89929924640595
 30
176.7558785314674
 70
   192
  0
VERTEX
  5
855
  8
0
 10
67.07759696955789
 20
18.04105001816028
 30
161.9396443353031
 70
   192
  0
VERTEX
  5
856
  8
0
 10
67.84650965522714
 20
23.89494011012225
 30
163.7959637693265
 70
   192
  0
VERTEX
  5
857
  8
0
 10
121.7084697390463
 20
12.71969674522588
 30
-121.7084697390463
 70
   192
  0
VERTEX
  5
858
  8
0
 10
65.86814917753333
 20
12.71969674522588
 30
-159.0197790728151
 70
   192
  0
VERTEX
  5
859
  8
0
 10
0.0000000000000212
 20
14.4199463371682
 30
-173.2959047897086
 70
   192
  0
VERTEX
  5
85A
  8
0
 10
172.1217685606347
 20
12.71969674522588
 30
0.0000000000000105
 70
   192
  0
VERTEX
  5
85B
  8
0
 10
159.0197790728151
 20
12.71969674522588
 30
-65.8681491775333
 70
   192
  0
VERTEX
  5
85C
  8
0
 10
121.7084697390463
 20
12.71969674522588
 30
121.7084697390463
 70
   192
  0
VERTEX
  5
85D
  8
0
 10
159.0197790728151
 20
12.71969674522588
 30
65.86814917753331
 70
   192
  0
VERTEX
  5
85E
  8
0
 10
65.8681491775333
 20
12.71969674522588
 30
159.0197790728151
 70
   192
  0
VERTEX
  5
85F
  8
0
 10
145.4428110121206
 20
8.154374198479436
 30
-83.97144608954362
 70
   192
  0
VERTEX
  5
860
  8
0
 10
167.9428921790873
 20
8.154374198479436
 30
0.0000000000000466
 70
   192
  0
VERTEX
  5
861
  8
0
 10
0.0
 20
8.154374198479438
 30
167.9428921790873
 70
   192
  0
VERTEX
  5
862
  8
0
 10
83.97144608954365
 20
8.154374198479436
 30
145.4428110121206
 70
   192
  0
VERTEX
  5
863
  8
0
 10
145.4428110121205
 20
8.154374198479436
 30
83.9714460895437
 70
   192
  0
VERTEX
  5
864
  8
0
 10
0.0000000000000216
 20
21.89929924640595
 30
-176.7558785314674
 70
   192
  0
VERTEX
  5
865
  8
0
 10
0.0
 20
14.4199463371682
 30
173.2959047897086
 70
   192
  0
VERTEX
  5
866
  8
0
 10
83.97144608954373
 20
8.154374198479436
 30
-145.4428110121205
 70
   192
  0
VERTEX
  5
867
  8
0
 10
0.0000000000000932
 20
8.154374198479436
 30
-167.9428921790873
 70
   192
  0
VERTEX
  5
868
  8
0
 10
154.208967277788
 20
30.03550686080364
 30
-89.03258876928501
 70
   192
  0
VERTEX
  5
869
  8
0
 10
0.0000000000000218
 20
30.03550686080363
 30
-178.0651775385701
 70
   192
  0
VERTEX
  5
86A
  8
0
 10
89.03258876928504
 20
30.03550686080364
 30
154.2089672777879
 70
   192
  0
VERTEX
  5
86B
  8
0
 10
0.0
 20
30.03550686080364
 30
178.0651775385701
 70
   192
  0
VERTEX
  5
86C
  8
0
 10
0.0
 20
0.0
 30
0.0
 70
   128
 71
     1
 72
     2
 73
     3
  0
VERTEX
  5
86D
  8
0
 10
0.0
 20
0.0
 30
0.0
 70
   128
 71
     4
 72
     5
 73
     6
  0
VERTEX
  5
86E
  8
0
 10
0.0
 20
0.0
 30
0.0
 70
   128
 71
     7
 72
     8
 73
     9
  0
VERTEX
  5
86F
  8
0
 10
0.0
 20
0.0
 30
0.0
 70
   128
 71
    10
 72
    11
 73
    -3
  0
VERTEX
  5
870
  8
0
 10
0.0
 20
0.0
 30
0.0
 70
   128
 71
   -10
 72
     3
 73
     2
  0
VERTEX
  5
871
  8
0
 10
0.0
 20
0.0
 30
0.0
 70
   128
 71
    12
 72
    13
 73
    -4
  0
VERTEX
  5
872
  8
0
 10
0.0
 20
0.0
 30
0.0
 70
   128
 71
   -12
 72
     4
 73
     6
  0
VERTEX
  5
873
  8
0
 10
0.0
 20
0.0
 30
0.0
 70
   128
 71
    13
 72
    10
 73
    -2
  0
VERTEX
  5
874
  8
0
 10
0.0
 20
0.0
 30
0.0
 70
   128
 71
   -13
 72
     2
 73
     4
  0
VERTEX
  5
875
  8
0
 10
0.0
 20
0.0
 30
0.0
 70
   128
 71
    14
 72
    15
 73
    -9
  0
VERTEX
  5
876
  8
0
 10
0.0
 20
0.0
 30
0.0
 70
   128
 71
   -14
 72
     9
 73
     8
  0
VERTEX
  5
877
  8
0
 10
0.0
 20
0.0
 30
0.0
 70
   128
 71
    15
 72
    12
 73
    -6
  0
VERTEX
  5
878
  8
0
 10
0.0
 20
0.0
 30
0.0
 70
   128
 71
   -15
 72
     6
 73
     9
  0
VERTEX
  5
879
  8
0
 10
0.0
 20
0.0
 30
0.0
 70
   128
 71
    16
 72
    17
 73
    18
  0
VERTEX
  5
87A
  8
0
 10
0.0
 20
0.0
 30
0.0
 70
   128
 71
    17
 72
    14
 73
    -8
  0
VERTEX
  5
87B
  8
0
 10
0.0
 20
0.0
 30
0.0
 70
   128
 71
   -17
 72
     8
 73
    18
  0
VERTEX
  5
87C
  8
0
 10
0.0
 20
0.0
 30
0.0
 70
   128
 71
    19
 72
    20
 73
   -11
  0
VERTEX
  5
87D
  8
0
 10
0.0
 20
0.0
 30
0.0
 70
   128
 71
   -19
 72
    11
 73
    10
  0
VERTEX
  5
87E
  8
0
 10
0.0
 20
0.0
 30
0.0
 70
   128
 71
    21
 72
    11
 73
    20
  0
VERTEX
  5
87F
  8
0
 10
0.0
 20
0.0
 30
0.0
 70
   128
 71
    22
 72
    23
 73
   -13
  0
VERTEX
  5
880
  8
0
 10
0.0
 20
0.0
 30
0.0
 70
   128
 71
   -22
 72
    13
 73
    12
  0
VERTEX
  5
881
  8
0
 10
0.0
 20
0.0
 30
0.0
 70
   128
 71
    23
 72
    19
 73
   -10
  0
VERTEX
  5
882
  8
0
 10
0.0
 20
0.0
 30
0.0
 70
   128
 71
   -23
 72
    10
 73
    13
  0
VERTEX
  5
883
  8
0
 10
0.0
 20
0.0
 30
0.0
 70
   128
 71
    24
 72
    25
 73
   -15
  0
VERTEX
  5
884
  8
0
 10
0.0
 20
0.0
 30
0.0
 70
   128
 71
   -24
 72
    15
 73
    14
  0
VERTEX
  5
885
  8
0
 10
0.0
 20
0.0
 30
0.0
 70
   128
 71
    25
 72
    22
 73
   -12
  0
VERTEX
  5
886
  8
0
 10
0.0
 20
0.0
 30
0.0
 70
   128
 71
   -25
 72
    12
 73
    15
  0
VERTEX
  5
887
  8
0
 10
0.0
 20
0.0
 30
0.0
 70
   128
 71
    26
 72
    24
 73
   -14
  0
VERTEX
  5
888
  8
0
 10
0.0
 20
0.0
 30
0.0
 70
   128
 71
   -26
 72
    14
 73
    17
  0
VERTEX
  5
889
  8
0
 10
0.0
 20
0.0
 30
0.0
 70
   128
 71
    27
 72
    19
 73
    23
  0
VERTEX
  5
88A
  8
0
 10
0.0
 20
0.0
 30
0.0
 70
   128
 71
    23
 72
    22
 73
    28
  0
VERTEX
  5
88B
  8
0
 10
0.0
 20
0.0
 30
0.0
 70
   128
 71
    23
 72
    28
 73
    27
  0
VERTEX
  5
88C
  8
0
 10
0.0
 20
0.0
 30
0.0
 70
   128
 71
    26
 72
    29
 73
    30
  0
VERTEX
  5
88D
  8
0
 10
0.0
 20
0.0
 30
0.0
 70
   128
 71
    30
 72
    24
 73
    26
  0
VERTEX
  5
88E
  8
0
 10
0.0
 20
0.0
 30
0.0
 70
   128
 71
    31
 72
    28
 73
    22
  0
VERTEX
  5
88F
  8
0
 10
0.0
 20
0.0
 30
0.0
 70
   128
 71
    31
 72
    22
 73
    25
  0
VERTEX
  5
890
  8
0
 10
0.0
 20
0.0
 30
0.0
 70
   128
 71
     3
 72
    11
 73
    21
  0
VERTEX
  5
891
  8
0
 10
0.0
 20
0.0
 30
0.0
 70
   128
 71
     3
 72
    21
 73
    32
  0
VERTEX
  5
892
  8
0
 10
0.0
 20
0.0
 30
0.0
 70
   128
 71
    33
 72
    26
 73
    17
  0
VERTEX
  5
893
  8
0
 10
0.0
 20
0.0
 30
0.0
 70
   128
 71
    33
 72
    17
 73
    16
  0
VERTEX
  5
894
  8
0
 10
0.0
 20
0.0
 30
0.0
 70
   128
 71
    20
 72
    34
 73
    35
  0
VERTEX
  5
895
  8
0
 10
0.0
 20
0.0
 30
0.0
 70
   128
 71
    20
 72
    35
 73
    21
  0
VERTEX
  5
896
  8
0
 10
0.0
 20
0.0
 30
0.0
 70
   128
 71
    29
 72
    26
 73
    33
  0
VERTEX
  5
897
  8
0
 10
0.0
 20
0.0
 30
0.0
 70
   128
 71
    36
 72
     4
 73
     2
  0
VERTEX
  5
898
  8
0
 10
0.0
 20
0.0
 30
0.0
 70
   128
 71
    36
 72
     2
 73
     1
  0
VERTEX
  5
899
  8
0
 10
0.0
 20
0.0
 30
0.0
 70
   128
 71
     1
 72
     3
 73
    32
  0
VERTEX
  5
89A
  8
0
 10
0.0
 20
0.0
 30
0.0
 70
   128
 71
     1
 72
    32
 73
    37
  0
VERTEX
  5
89B
  8
0
 10
0.0
 20
0.0
 30
0.0
 70
   128
 71
     5
 72
     4
 73
    36
  0
VERTEX
  5
89C
  8
0
 10
0.0
 20
0.0
 30
0.0
 70
   128
 71
    38
 72
    18
 73
     8
  0
VERTEX
  5
89D
  8
0
 10
0.0
 20
0.0
 30
0.0
 70
   128
 71
    38
 72
     8
 73
     7
  0
VERTEX
  5
89E
  8
0
 10
0.0
 20
0.0
 30
0.0
 70
   128
 71
     7
 72
     9
 73
     6
  0
VERTEX
  5
89F
  8
0
 10
0.0
 20
0.0
 30
0.0
 70
   128
 71
     7
 72
     6
 73
     5
  0
VERTEX
  5
8A0
  8
0
 10
0.0
 20
0.0
 30
0.0
 70
   128
 71
    39
 72
    16
 73
    18
  0
VERTEX
  5
8A1
  8
0
 10
0.0
 20
0.0
 30
0.0
 70
   128
 71
    39
 72
    18
 73
    38
  0
VERTEX
  5
8A2
  8
0
 10
0.0
 20
0.0
 30
0.0
 70
   128
 71
    27
 72
    34
 73
    20
  0
VERTEX
  5
8A3
  8
0
 10
0.0
 20
0.0
 30
0.0
 70
   128
 71
    27
 72
    20
 73
    19
  0
VERTEX
  5
8A4
  8
0
 10
0.0
 20
0.0
 30
0.0
 70
   128
 71
    30
 72
    31
 73
    25
  0
VERTEX
  5
8A5
  8
0
 10
0.0
 20
0.0
 30
0.0
 70
   128
 71
    30
 72
    25
 73
    24
  0
SEQEND
  5
F61
  8
0
  0
POLYLINE
  5
8A6
  8
0
 66
     1
 10
0.0
 20
0.0
 30
0.0
 70
    64
 71
    27
 72
    34
  0
VERTEX
  5
8A7
  8
0
 10
-163.8738996889458
 20
3.000952838913065
 30
0.00000000000001
 70
   192
  0
VERTEX
  5
8A8
  8
0
 10
-162.948708020667
 20
1.006335166467094
 30
-0.0000000000000633
 70
   192
  0
VERTEX
  5
8A9
  8
0
 10
-141.1177206597508
 20
1.006335166467094
 30
81.47435401033346
 70
   192
  0
VERTEX
  5
8AA
  8
0
 10
-115.8763457295376
 20
3.000952838913065
 30
115.8763457295376
 70
   192
  0
VERTEX
  5
8AB
  8
0
 10
-81.4743540103336
 20
1.006335166467094
 30
141.1177206597507
 70
   192
  0
VERTEX
  5
8AC
  8
0
 10
-0.0000000000001176
 20
1.006335166467094
 30
162.948708020667
 70
   192
  0
VERTEX
  5
8AD
  8
0
 10
-115.8763457295376
 20
3.000952838913065
 30
-115.8763457295376
 70
   192
  0
VERTEX
  5
8AE
  8
0
 10
-141.1177206597507
 20
1.006335166467094
 30
-81.47435401033357
 70
   192
  0
VERTEX
  5
8AF
  8
0
 10
-116.6907520491538
 20
4.873908784851121
 30
116.6907520491538
 70
   192
  0
VERTEX
  5
8B0
  8
0
 10
-165.0256441514293
 20
4.873908784851121
 30
0.0000000000000101
 70
   192
  0
VERTEX
  5
8B1
  8
0
 10
-116.6907520491538
 20
4.873908784851121
 30
-116.6907520491538
 70
   192
  0
VERTEX
  5
8B2
  8
0
 10
0.0000000000000201
 20
3.640092304679534
 30
-164.2333580821001
 70
   192
  0
VERTEX
  5
8B3
  8
0
 10
-117.6542156436592
 20
6.599584040051786
 30
117.6542156436592
 70
   192
  0
VERTEX
  5
8B4
  8
0
 10
-166.3881874336315
 20
6.599584040051786
 30
0.0000000000000102
 70
   192
  0
VERTEX
  5
8B5
  8
0
 10
0.0
 20
6.042225661095916
 30
165.9116780103071
 70
   192
  0
VERTEX
  5
8B6
  8
0
 10
-117.6542156436592
 20
6.599584040051786
 30
-117.6542156436591
 70
   192
  0
VERTEX
  5
8B7
  8
0
 10
-167.9428921790873
 20
8.154374198479436
 30
-0.0000000000000653
 70
   192
  0
VERTEX
  5
8B8
  8
0
 10
-145.4428110121206
 20
8.154374198479436
 30
83.97144608954359
 70
   192
  0
VERTEX
  5
8B9
  8
0
 10
-83.97144608954363
 20
8.154374198479436
 30
-145.4428110121206
 70
   192
  0
VERTEX
  5
8BA
  8
0
 10
0.0000000000000206
 20
8.154374198479436
 30
-167.9428921790873
 70
   192
  0
VERTEX
  5
8BB
  8
0
 10
-145.4428110121205
 20
8.154374198479436
 30
-83.97144608954372
 70
   192
  0
VERTEX
  5
8BC
  8
0
 10
0.0
 20
3.640092304679534
 30
164.2333580821001
 70
   192
  0
VERTEX
  5
8BD
  8
0
 10
0.0000000000000203
 20
6.042225661095916
 30
-165.9116780103071
 70
   192
  0
VERTEX
  5
8BE
  8
0
 10
-0.0000000000001212
 20
8.154374198479436
 30
167.9428921790873
 70
   192
  0
VERTEX
  5
8BF
  8
0
 10
-83.97144608954376
 20
8.154374198479436
 30
145.4428110121205
 70
   192
  0
VERTEX
  5
8C0
  8
0
 10
-81.47435401033349
 20
1.006335166467094
 30
-141.1177206597508
 70
   192
  0
VERTEX
  5
8C1
  8
0
 10
0.00000000000002
 20
1.006335166467091
 30
-162.948708020667
 70
   192
  0
VERTEX
  5
8C2
  8
0
 10
0.0
 20
0.0
 30
0.0
 70
   128
 71
     1
 72
     2
 73
     3
  0
VERTEX
  5
8C3
  8
0
 10
0.0
 20
0.0
 30
0.0
 70
   128
 71
     4
 72
     1
 73
     3
  0
VERTEX
  5
8C4
  8
0
 10
0.0
 20
0.0
 30
0.0
 70
   128
 71
     5
 72
     6
 73
     4
  0
VERTEX
  5
8C5
  8
0
 10
0.0
 20
0.0
 30
0.0
 70
   128
 71
     2
 72
     1
 73
     7
  0
VERTEX
  5
8C6
  8
0
 10
0.0
 20
0.0
 30
0.0
 70
   128
 71
     8
 72
     2
 73
     7
  0
VERTEX
  5
8C7
  8
0
 10
0.0
 20
0.0
 30
0.0
 70
   128
 71
     4
 72
     9
 73
   -10
  0
VERTEX
  5
8C8
  8
0
 10
0.0
 20
0.0
 30
0.0
 70
   128
 71
     1
 72
    -4
 73
    10
  0
VERTEX
  5
8C9
  8
0
 10
0.0
 20
0.0
 30
0.0
 70
   128
 71
     7
 72
    11
 73
    12
  0
VERTEX
  5
8CA
  8
0
 10
0.0
 20
0.0
 30
0.0
 70
   128
 71
     1
 72
    10
 73
   -11
  0
VERTEX
  5
8CB
  8
0
 10
0.0
 20
0.0
 30
0.0
 70
   128
 71
     7
 72
    -1
 73
    11
  0
VERTEX
  5
8CC
  8
0
 10
0.0
 20
0.0
 30
0.0
 70
   128
 71
     9
 72
    13
 73
   -14
  0
VERTEX
  5
8CD
  8
0
 10
0.0
 20
0.0
 30
0.0
 70
   128
 71
    10
 72
    -9
 73
    14
  0
VERTEX
  5
8CE
  8
0
 10
0.0
 20
0.0
 30
0.0
 70
   128
 71
    13
 72
     9
 73
    15
  0
VERTEX
  5
8CF
  8
0
 10
0.0
 20
0.0
 30
0.0
 70
   128
 71
    10
 72
    14
 73
   -16
  0
VERTEX
  5
8D0
  8
0
 10
0.0
 20
0.0
 30
0.0
 70
   128
 71
    11
 72
   -10
 73
    16
  0
VERTEX
  5
8D1
  8
0
 10
0.0
 20
0.0
 30
0.0
 70
   128
 71
    17
 72
    14
 73
    13
  0
VERTEX
  5
8D2
  8
0
 10
0.0
 20
0.0
 30
0.0
 70
   128
 71
    18
 72
    17
 73
    13
  0
VERTEX
  5
8D3
  8
0
 10
0.0
 20
0.0
 30
0.0
 70
   128
 71
    19
 72
    20
 73
    16
  0
VERTEX
  5
8D4
  8
0
 10
0.0
 20
0.0
 30
0.0
 70
   128
 71
    14
 72
    17
 73
    21
  0
VERTEX
  5
8D5
  8
0
 10
0.0
 20
0.0
 30
0.0
 70
   128
 71
    16
 72
    14
 73
    21
  0
VERTEX
  5
8D6
  8
0
 10
0.0
 20
0.0
 30
0.0
 70
   128
 71
    15
 72
     9
 73
     4
  0
VERTEX
  5
8D7
  8
0
 10
0.0
 20
0.0
 30
0.0
 70
   128
 71
    22
 72
    15
 73
     4
  0
VERTEX
  5
8D8
  8
0
 10
0.0
 20
0.0
 30
0.0
 70
   128
 71
    11
 72
    16
 73
    23
  0
VERTEX
  5
8D9
  8
0
 10
0.0
 20
0.0
 30
0.0
 70
   128
 71
    12
 72
    11
 73
    23
  0
VERTEX
  5
8DA
  8
0
 10
0.0
 20
0.0
 30
0.0
 70
   128
 71
    24
 72
    25
 73
    13
  0
VERTEX
  5
8DB
  8
0
 10
0.0
 20
0.0
 30
0.0
 70
   128
 71
    15
 72
    24
 73
    13
  0
VERTEX
  5
8DC
  8
0
 10
0.0
 20
0.0
 30
0.0
 70
   128
 71
    23
 72
    16
 73
    20
  0
VERTEX
  5
8DD
  8
0
 10
0.0
 20
0.0
 30
0.0
 70
   128
 71
    22
 72
     4
 73
     6
  0
VERTEX
  5
8DE
  8
0
 10
0.0
 20
0.0
 30
0.0
 70
   128
 71
    26
 72
     7
 73
    12
  0
VERTEX
  5
8DF
  8
0
 10
0.0
 20
0.0
 30
0.0
 70
   128
 71
    27
 72
    26
 73
    12
  0
VERTEX
  5
8E0
  8
0
 10
0.0
 20
0.0
 30
0.0
 70
   128
 71
     5
 72
     4
 73
     3
  0
VERTEX
  5
8E1
  8
0
 10
0.0
 20
0.0
 30
0.0
 70
   128
 71
     8
 72
     7
 73
    26
  0
VERTEX
  5
8E2
  8
0
 10
0.0
 20
0.0
 30
0.0
 70
   128
 71
    13
 72
    25
 73
    18
  0
VERTEX
  5
8E3
  8
0
 10
0.0
 20
0.0
 30
0.0
 70
   128
 71
    16
 72
    21
 73
    19
  0
SEQEND
  5
F62
  8
0
  0
POLYLINE
  5
8E4
  8
0
 66
     1
 10
0.0
 20
0.0
 30
0.0
 70
    64
 71
    27
 72
    34
  0
VERTEX
  5
8E5
  8
0
 10
141.1177206597508
 20
1.006335166467094
 30
-81.47435401033347
 70
   192
  0
VERTEX
  5
8E6
  8
0
 10
162.948708020667
 20
1.006335166467094
 30
0.0000000000000452
 70
   192
  0
VERTEX
  5
8E7
  8
0
 10
162.6228486740648
 20
0.2959933345661026
 30
0.00000000000001
 70
   192
  0
VERTEX
  5
8E8
  8
0
 10
114.991719073305
 20
0.2959933345661026
 30
-114.991719073305
 70
   192
  0
VERTEX
  5
8E9
  8
0
 10
0.00000000000002
 20
1.006335166467092
 30
-162.948708020667
 70
   192
  0
VERTEX
  5
8EA
  8
0
 10
81.47435401033358
 20
1.006335166467094
 30
-141.1177206597507
 70
   192
  0
VERTEX
  5
8EB
  8
0
 10
114.991719073305
 20
0.2959933345661026
 30
114.991719073305
 70
   192
  0
VERTEX
  5
8EC
  8
0
 10
141.1177206597507
 20
1.006335166467094
 30
81.47435401033356
 70
   192
  0
VERTEX
  5
8ED
  8
0
 10
162.2219191452413
 20
-0.3748459493416325
 30
0.0000000000000099
 70
   192
  0
VERTEX
  5
8EE
  8
0
 10
114.7082190846959
 20
-0.3748459493416325
 30
-114.7082190846959
 70
   192
  0
VERTEX
  5
8EF
  8
0
 10
0.0
 20
0.0675902649613889
 30
162.4973310686113
 70
   192
  0
VERTEX
  5
8F0
  8
0
 10
114.7082190846959
 20
-0.3748459493416325
 30
114.7082190846959
 70
   192
  0
VERTEX
  5
8F1
  8
0
 10
161.7506431159273
 20
-0.9982789739004847
 30
0.0000000000000099
 70
   192
  0
VERTEX
  5
8F2
  8
0
 10
114.3749766085574
 20
-0.9982789739004847
 30
-114.3749766085574
 70
   192
  0
VERTEX
  5
8F3
  8
0
 10
0.0000000000000198
 20
-0.7962012065349855
 30
-161.9152250329784
 70
   192
  0
VERTEX
  5
8F4
  8
0
 10
114.3749766085574
 20
-0.9982789739004847
 30
114.3749766085574
 70
   192
  0
VERTEX
  5
8F5
  8
0
 10
161.2145730780445
 20
-1.566960560028252
 30
0.0000000000000447
 70
   192
  0
VERTEX
  5
8F6
  8
0
 10
139.6159157458494
 20
-1.566960560028252
 30
-80.60728653902223
 70
   192
  0
VERTEX
  5
8F7
  8
0
 10
0.0
 20
-1.566960560028262
 30
161.2145730780445
 70
   192
  0
VERTEX
  5
8F8
  8
0
 10
80.60728653902225
 20
-1.566960560028252
 30
139.6159157458494
 70
   192
  0
VERTEX
  5
8F9
  8
0
 10
139.6159157458494
 20
-1.566960560028252
 30
80.60728653902231
 70
   192
  0
VERTEX
  5
8FA
  8
0
 10
0.0000000000000199
 20
0.0675902649613889
 30
-162.4973310686113
 70
   192
  0
VERTEX
  5
8FB
  8
0
 10
0.0
 20
-0.7962012065349855
 30
161.9152250329784
 70
   192
  0
VERTEX
  5
8FC
  8
0
 10
80.60728653902234
 20
-1.566960560028252
 30
-139.6159157458494
 70
   192
  0
VERTEX
  5
8FD
  8
0
 10
0.0000000000000895
 20
-1.566960560028252
 30
-161.2145730780445
 70
   192
  0
VERTEX
  5
8FE
  8
0
 10
81.4743540103335
 20
1.006335166467094
 30
141.1177206597508
 70
   192
  0
VERTEX
  5
8FF
  8
0
 10
0.0
 20
1.006335166467094
 30
162.948708020667
 70
   192
  0
VERTEX
  5
900
  8
0
 10
0.0
 20
0.0
 30
0.0
 70
   128
 71
     1
 72
     2
 73
     3
  0
VERTEX
  5
901
  8
0
 10
0.0
 20
0.0
 30
0.0
 70
   128
 71
     1
 72
     3
 73
     4
  0
VERTEX
  5
902
  8
0
 10
0.0
 20
0.0
 30
0.0
 70
   128
 71
     4
 72
     5
 73
     6
  0
VERTEX
  5
903
  8
0
 10
0.0
 20
0.0
 30
0.0
 70
   128
 71
     7
 72
     3
 73
     2
  0
VERTEX
  5
904
  8
0
 10
0.0
 20
0.0
 30
0.0
 70
   128
 71
     7
 72
     2
 73
     8
  0
VERTEX
  5
905
  8
0
 10
0.0
 20
0.0
 30
0.0
 70
   128
 71
     9
 72
    10
 73
    -4
  0
VERTEX
  5
906
  8
0
 10
0.0
 20
0.0
 30
0.0
 70
   128
 71
    -9
 72
     4
 73
     3
  0
VERTEX
  5
907
  8
0
 10
0.0
 20
0.0
 30
0.0
 70
   128
 71
    11
 72
    12
 73
     7
  0
VERTEX
  5
908
  8
0
 10
0.0
 20
0.0
 30
0.0
 70
   128
 71
    12
 72
     9
 73
    -3
  0
VERTEX
  5
909
  8
0
 10
0.0
 20
0.0
 30
0.0
 70
   128
 71
   -12
 72
     3
 73
     7
  0
VERTEX
  5
90A
  8
0
 10
0.0
 20
0.0
 30
0.0
 70
   128
 71
    13
 72
    14
 73
   -10
  0
VERTEX
  5
90B
  8
0
 10
0.0
 20
0.0
 30
0.0
 70
   128
 71
   -13
 72
    10
 73
     9
  0
VERTEX
  5
90C
  8
0
 10
0.0
 20
0.0
 30
0.0
 70
   128
 71
    15
 72
    10
 73
    14
  0
VERTEX
  5
90D
  8
0
 10
0.0
 20
0.0
 30
0.0
 70
   128
 71
    16
 72
    13
 73
    -9
  0
VERTEX
  5
90E
  8
0
 10
0.0
 20
0.0
 30
0.0
 70
   128
 71
   -16
 72
     9
 73
    12
  0
VERTEX
  5
90F
  8
0
 10
0.0
 20
0.0
 30
0.0
 70
   128
 71
    14
 72
    13
 73
    17
  0
VERTEX
  5
910
  8
0
 10
0.0
 20
0.0
 30
0.0
 70
   128
 71
    14
 72
    17
 73
    18
  0
VERTEX
  5
911
  8
0
 10
0.0
 20
0.0
 30
0.0
 70
   128
 71
    16
 72
    19
 73
    20
  0
VERTEX
  5
912
  8
0
 10
0.0
 20
0.0
 30
0.0
 70
   128
 71
    21
 72
    17
 73
    13
  0
VERTEX
  5
913
  8
0
 10
0.0
 20
0.0
 30
0.0
 70
   128
 71
    21
 72
    13
 73
    16
  0
VERTEX
  5
914
  8
0
 10
0.0
 20
0.0
 30
0.0
 70
   128
 71
     4
 72
    10
 73
    15
  0
VERTEX
  5
915
  8
0
 10
0.0
 20
0.0
 30
0.0
 70
   128
 71
     4
 72
    15
 73
    22
  0
VERTEX
  5
916
  8
0
 10
0.0
 20
0.0
 30
0.0
 70
   128
 71
    23
 72
    16
 73
    12
  0
VERTEX
  5
917
  8
0
 10
0.0
 20
0.0
 30
0.0
 70
   128
 71
    23
 72
    12
 73
    11
  0
VERTEX
  5
918
  8
0
 10
0.0
 20
0.0
 30
0.0
 70
   128
 71
    14
 72
    24
 73
    25
  0
VERTEX
  5
919
  8
0
 10
0.0
 20
0.0
 30
0.0
 70
   128
 71
    14
 72
    25
 73
    15
  0
VERTEX
  5
91A
  8
0
 10
0.0
 20
0.0
 30
0.0
 70
   128
 71
    19
 72
    16
 73
    23
  0
VERTEX
  5
91B
  8
0
 10
0.0
 20
0.0
 30
0.0
 70
   128
 71
     4
 72
    22
 73
     5
  0
VERTEX
  5
91C
  8
0
 10
0.0
 20
0.0
 30
0.0
 70
   128
 71
    11
 72
     7
 73
    26
  0
VERTEX
  5
91D
  8
0
 10
0.0
 20
0.0
 30
0.0
 70
   128
 71
    11
 72
    26
 73
    27
  0
VERTEX
  5
91E
  8
0
 10
0.0
 20
0.0
 30
0.0
 70
   128
 71
     1
 72
     4
 73
     6
  0
VERTEX
  5
91F
  8
0
 10
0.0
 20
0.0
 30
0.0
 70
   128
 71
    26
 72
     7
 73
     8
  0
VERTEX
  5
920
  8
0
 10
0.0
 20
0.0
 30
0.0
 70
   128
 71
    18
 72
    24
 73
    14
  0
VERTEX
  5
921
  8
0
 10
0.0
 20
0.0
 30
0.0
 70
   128
 71
    20
 72
    21
 73
    16
  0
SEQEND
  5
F63
  8
0
  0
POLYLINE
  5
922
  8
0
 66
     1
 10
0.0
 20
0.0
 30
0.0
 70
    64
 71
    27
 72
    34
  0
VERTEX
  5
923
  8
0
 10
139.6159157458494
 20
-1.566960560028252
 30
-80.60728653902223
 70
   192
  0
VERTEX
  5
924
  8
0
 10
161.2145730780445
 20
-1.566960560028252
 30
0.0000000000000447
 70
   192
  0
VERTEX
  5
925
  8
0
 10
160.437972192928
 20
-2.176600395739325
 30
0.0000000000000098
 70
   192
  0
VERTEX
  5
926
  8
0
 10
113.4467780974381
 20
-2.176600395739325
 30
-113.4467780974381
 70
   192
  0
VERTEX
  5
927
  8
0
 10
0.0000000000000197
 20
-1.566960560028256
 30
-161.2145730780445
 70
   192
  0
VERTEX
  5
928
  8
0
 10
80.60728653902234
 20
-1.566960560028252
 30
-139.6159157458494
 70
   192
  0
VERTEX
  5
929
  8
0
 10
113.4467780974381
 20
-2.176600395739325
 30
113.4467780974381
 70
   192
  0
VERTEX
  5
92A
  8
0
 10
139.6159157458494
 20
-1.566960560028252
 30
80.60728653902231
 70
   192
  0
VERTEX
  5
92B
  8
0
 10
159.5601419859185
 20
-2.628467402403265
 30
0.0000000000000098
 70
   192
  0
VERTEX
  5
92C
  8
0
 10
112.8260584053313
 20
-2.628467402403265
 30
-112.8260584053313
 70
   192
  0
VERTEX
  5
92D
  8
0
 10
0.0
 20
-2.345681054359657
 30
160.1551117224099
 70
   192
  0
VERTEX
  5
92E
  8
0
 10
112.8260584053313
 20
-2.628467402403265
 30
112.8260584053313
 70
   192
  0
VERTEX
  5
92F
  8
0
 10
158.6127275108615
 20
-2.906272147687177
 30
0.0000000000000097
 70
   192
  0
VERTEX
  5
930
  8
0
 10
112.1561352054243
 20
-2.906272147687177
 30
-112.1561352054242
 70
   192
  0
VERTEX
  5
931
  8
0
 10
0.0000000000000195
 20
-2.833763079578989
 30
-158.9341940720203
 70
   192
  0
VERTEX
  5
932
  8
0
 10
112.1561352054243
 20
-2.906272147687177
 30
112.1561352054243
 70
   192
  0
VERTEX
  5
933
  8
0
 10
157.6298822769866
 20
-2.999999999999649
 30
0.0000000000000438
 70
   192
  0
VERTEX
  5
934
  8
0
 10
136.5114824474209
 20
-2.999999999999649
 30
-78.81494113849328
 70
   192
  0
VERTEX
  5
935
  8
0
 10
0.0
 20
-2.999999999999656
 30
157.6298822769866
 70
   192
  0
VERTEX
  5
936
  8
0
 10
78.81494113849331
 20
-2.999999999999649
 30
136.5114824474209
 70
   192
  0
VERTEX
  5
937
  8
0
 10
136.5114824474209
 20
-2.999999999999649
 30
78.81494113849335
 70
   192
  0
VERTEX
  5
938
  8
0
 10
0.0000000000000196
 20
-2.345681054359657
 30
-160.1551117224099
 70
   192
  0
VERTEX
  5
939
  8
0
 10
0.0
 20
-2.833763079578989
 30
158.9341940720203
 70
   192
  0
VERTEX
  5
93A
  8
0
 10
78.8149411384934
 20
-2.999999999999649
 30
-136.5114824474209
 70
   192
  0
VERTEX
  5
93B
  8
0
 10
0.0000000000000875
 20
-2.999999999999649
 30
-157.6298822769866
 70
   192
  0
VERTEX
  5
93C
  8
0
 10
80.60728653902225
 20
-1.566960560028252
 30
139.6159157458494
 70
   192
  0
VERTEX
  5
93D
  8
0
 10
0.0
 20
-1.566960560028252
 30
161.2145730780445
 70
   192
  0
VERTEX
  5
93E
  8
0
 10
0.0
 20
0.0
 30
0.0
 70
   128
 71
     1
 72
     2
 73
     3
  0
VERTEX
  5
93F
  8
0
 10
0.0
 20
0.0
 30
0.0
 70
   128
 71
     1
 72
     3
 73
     4
  0
VERTEX
  5
940
  8
0
 10
0.0
 20
0.0
 30
0.0
 70
   128
 71
     4
 72
     5
 73
     6
  0
VERTEX
  5
941
  8
0
 10
0.0
 20
0.0
 30
0.0
 70
   128
 71
     7
 72
     3
 73
     2
  0
VERTEX
  5
942
  8
0
 10
0.0
 20
0.0
 30
0.0
 70
   128
 71
     7
 72
     2
 73
     8
  0
VERTEX
  5
943
  8
0
 10
0.0
 20
0.0
 30
0.0
 70
   128
 71
     9
 72
    10
 73
    -4
  0
VERTEX
  5
944
  8
0
 10
0.0
 20
0.0
 30
0.0
 70
   128
 71
    -9
 72
     4
 73
     3
  0
VERTEX
  5
945
  8
0
 10
0.0
 20
0.0
 30
0.0
 70
   128
 71
    11
 72
    12
 73
     7
  0
VERTEX
  5
946
  8
0
 10
0.0
 20
0.0
 30
0.0
 70
   128
 71
    12
 72
     9
 73
    -3
  0
VERTEX
  5
947
  8
0
 10
0.0
 20
0.0
 30
0.0
 70
   128
 71
   -12
 72
     3
 73
     7
  0
VERTEX
  5
948
  8
0
 10
0.0
 20
0.0
 30
0.0
 70
   128
 71
    13
 72
    14
 73
   -10
  0
VERTEX
  5
949
  8
0
 10
0.0
 20
0.0
 30
0.0
 70
   128
 71
   -13
 72
    10
 73
     9
  0
VERTEX
  5
94A
  8
0
 10
0.0
 20
0.0
 30
0.0
 70
   128
 71
    15
 72
    10
 73
    14
  0
VERTEX
  5
94B
  8
0
 10
0.0
 20
0.0
 30
0.0
 70
   128
 71
    16
 72
    13
 73
    -9
  0
VERTEX
  5
94C
  8
0
 10
0.0
 20
0.0
 30
0.0
 70
   128
 71
   -16
 72
     9
 73
    12
  0
VERTEX
  5
94D
  8
0
 10
0.0
 20
0.0
 30
0.0
 70
   128
 71
    14
 72
    13
 73
    17
  0
VERTEX
  5
94E
  8
0
 10
0.0
 20
0.0
 30
0.0
 70
   128
 71
    14
 72
    17
 73
    18
  0
VERTEX
  5
94F
  8
0
 10
0.0
 20
0.0
 30
0.0
 70
   128
 71
    16
 72
    19
 73
    20
  0
VERTEX
  5
950
  8
0
 10
0.0
 20
0.0
 30
0.0
 70
   128
 71
    21
 72
    17
 73
    13
  0
VERTEX
  5
951
  8
0
 10
0.0
 20
0.0
 30
0.0
 70
   128
 71
    21
 72
    13
 73
    16
  0
VERTEX
  5
952
  8
0
 10
0.0
 20
0.0
 30
0.0
 70
   128
 71
     4
 72
    10
 73
    15
  0
VERTEX
  5
953
  8
0
 10
0.0
 20
0.0
 30
0.0
 70
   128
 71
     4
 72
    15
 73
    22
  0
VERTEX
  5
954
  8
0
 10
0.0
 20
0.0
 30
0.0
 70
   128
 71
    23
 72
    16
 73
    12
  0
VERTEX
  5
955
  8
0
 10
0.0
 20
0.0
 30
0.0
 70
   128
 71
    23
 72
    12
 73
    11
  0
VERTEX
  5
956
  8
0
 10
0.0
 20
0.0
 30
0.0
 70
   128
 71
    14
 72
    24
 73
    25
  0
VERTEX
  5
957
  8
0
 10
0.0
 20
0.0
 30
0.0
 70
   128
 71
    14
 72
    25
 73
    15
  0
VERTEX
  5
958
  8
0
 10
0.0
 20
0.0
 30
0.0
 70
   128
 71
    19
 72
    16
 73
    23
  0
VERTEX
  5
959
  8
0
 10
0.0
 20
0.0
 30
0.0
 70
   128
 71
     4
 72
    22
 73
     5
  0
VERTEX
  5
95A
  8
0
 10
0.0
 20
0.0
 30
0.0
 70
   128
 71
    11
 72
     7
 73
    26
  0
VERTEX
  5
95B
  8
0
 10
0.0
 20
0.0
 30
0.0
 70
   128
 71
    11
 72
    26
 73
    27
  0
VERTEX
  5
95C
  8
0
 10
0.0
 20
0.0
 30
0.0
 70
   128
 71
     1
 72
     4
 73
     6
  0
VERTEX
  5
95D
  8
0
 10
0.0
 20
0.0
 30
0.0
 70
   128
 71
    26
 72
     7
 73
     8
  0
VERTEX
  5
95E
  8
0
 10
0.0
 20
0.0
 30
0.0
 70
   128
 71
    18
 72
    24
 73
    14
  0
VERTEX
  5
95F
  8
0
 10
0.0
 20
0.0
 30
0.0
 70
   128
 71
    20
 72
    21
 73
    16
  0
SEQEND
  5
F64
  8
0
  0
POLYLINE
  5
960
  8
0
 66
     1
 10
0.0
 20
0.0
 30
0.0
 70
    64
 71
    27
 72
    34
  0
VERTEX
  5
961
  8
0
 10
134.6300322972257
 20
-2.999999999999649
 30
-77.72868538781121
 70
   192
  0
VERTEX
  5
962
  8
0
 10
155.4573707756225
 20
-2.999999999999649
 30
0.0000000000000431
 70
   192
  0
VERTEX
  5
963
  8
0
 10
154.8245277779789
 20
-2.881566652126799
 30
0.0000000000000095
 70
   192
  0
VERTEX
  5
964
  8
0
 10
109.4774734858138
 20
-2.881566652126799
 30
-109.4774734858138
 70
   192
  0
VERTEX
  5
965
  8
0
 10
0.000000000000019
 20
-2.999999999999647
 30
-155.4573707756225
 70
   192
  0
VERTEX
  5
966
  8
0
 10
77.72868538781132
 20
-2.999999999999649
 30
-134.6300322972257
 70
   192
  0
VERTEX
  5
967
  8
0
 10
109.4774734858138
 20
-2.881566652126799
 30
109.4774734858138
 70
   192
  0
VERTEX
  5
968
  8
0
 10
134.6300322972257
 20
-2.999999999999649
 30
77.72868538781128
 70
   192
  0
VERTEX
  5
969
  8
0
 10
154.277341597351
 20
-2.542296846094945
 30
0.0000000000000094
 70
   192
  0
VERTEX
  5
96A
  8
0
 10
109.0905544269203
 20
-2.542296846094945
 30
-109.0905544269203
 70
   192
  0
VERTEX
  5
96B
  8
0
 10
0.0
 20
-2.791317781199538
 30
154.6286129718239
 70
   192
  0
VERTEX
  5
96C
  8
0
 10
109.0905544269203
 20
-2.542296846094945
 30
109.0905544269203
 70
   192
  0
VERTEX
  5
96D
  8
0
 10
153.8898751952035
 20
-2.028111563573261
 30
0.0000000000000094
 70
   192
  0
VERTEX
  5
96E
  8
0
 10
108.8165743064799
 20
-2.028111563573261
 30
-108.8165743064799
 70
   192
  0
VERTEX
  5
96F
  8
0
 10
0.0000000000000189
 20
-2.215040574448736
 30
-153.9975089021335
 70
   192
  0
VERTEX
  5
970
  8
0
 10
108.8165743064799
 20
-2.028111563573261
 30
108.8165743064799
 70
   192
  0
VERTEX
  5
971
  8
0
 10
153.7145730780445
 20
-1.408607015345745
 30
0.0000000000000171
 70
   192
  0
VERTEX
  5
972
  8
0
 10
133.1207252174661
 20
-1.408607015345745
 30
-76.85728653902224
 70
   192
  0
VERTEX
  5
973
  8
0
 10
0.0
 20
-1.408607015345742
 30
153.7145730780446
 70
   192
  0
VERTEX
  5
974
  8
0
 10
76.85728653902227
 20
-1.408607015345745
 30
133.1207252174661
 70
   192
  0
VERTEX
  5
975
  8
0
 10
133.1207252174661
 20
-1.408607015345745
 30
76.85728653902227
 70
   192
  0
VERTEX
  5
976
  8
0
 10
0.0000000000000189
 20
-2.791317781199538
 30
-154.6286129718239
 70
   192
  0
VERTEX
  5
977
  8
0
 10
0.0
 20
-2.215040574448736
 30
153.9975089021335
 70
   192
  0
VERTEX
  5
978
  8
0
 10
76.8572865390223
 20
-1.408607015345745
 30
-133.1207252174661
 70
   192
  0
VERTEX
  5
979
  8
0
 10
0.0000000000000512
 20
-1.408607015345745
 30
-153.7145730780445
 70
   192
  0
VERTEX
  5
97A
  8
0
 10
77.72868538781124
 20
-2.999999999999649
 30
134.6300322972257
 70
   192
  0
VERTEX
  5
97B
  8
0
 10
0.0
 20
-2.999999999999649
 30
155.4573707756225
 70
   192
  0
VERTEX
  5
97C
  8
0
 10
0.0
 20
0.0
 30
0.0
 70
   128
 71
     1
 72
     2
 73
     3
  0
VERTEX
  5
97D
  8
0
 10
0.0
 20
0.0
 30
0.0
 70
   128
 71
     1
 72
     3
 73
     4
  0
VERTEX
  5
97E
  8
0
 10
0.0
 20
0.0
 30
0.0
 70
   128
 71
     4
 72
     5
 73
     6
  0
VERTEX
  5
97F
  8
0
 10
0.0
 20
0.0
 30
0.0
 70
   128
 71
     7
 72
     3
 73
     2
  0
VERTEX
  5
980
  8
0
 10
0.0
 20
0.0
 30
0.0
 70
   128
 71
     7
 72
     2
 73
     8
  0
VERTEX
  5
981
  8
0
 10
0.0
 20
0.0
 30
0.0
 70
   128
 71
     9
 72
    10
 73
    -4
  0
VERTEX
  5
982
  8
0
 10
0.0
 20
0.0
 30
0.0
 70
   128
 71
    -9
 72
     4
 73
     3
  0
VERTEX
  5
983
  8
0
 10
0.0
 20
0.0
 30
0.0
 70
   128
 71
    11
 72
    12
 73
     7
  0
VERTEX
  5
984
  8
0
 10
0.0
 20
0.0
 30
0.0
 70
   128
 71
    12
 72
     9
 73
    -3
  0
VERTEX
  5
985
  8
0
 10
0.0
 20
0.0
 30
0.0
 70
   128
 71
   -12
 72
     3
 73
     7
  0
VERTEX
  5
986
  8
0
 10
0.0
 20
0.0
 30
0.0
 70
   128
 71
    13
 72
    14
 73
   -10
  0
VERTEX
  5
987
  8
0
 10
0.0
 20
0.0
 30
0.0
 70
   128
 71
   -13
 72
    10
 73
     9
  0
VERTEX
  5
988
  8
0
 10
0.0
 20
0.0
 30
0.0
 70
   128
 71
    15
 72
    10
 73
    14
  0
VERTEX
  5
989
  8
0
 10
0.0
 20
0.0
 30
0.0
 70
   128
 71
    16
 72
    13
 73
    -9
  0
VERTEX
  5
98A
  8
0
 10
0.0
 20
0.0
 30
0.0
 70
   128
 71
   -16
 72
     9
 73
    12
  0
VERTEX
  5
98B
  8
0
 10
0.0
 20
0.0
 30
0.0
 70
   128
 71
    14
 72
    13
 73
    17
  0
VERTEX
  5
98C
  8
0
 10
0.0
 20
0.0
 30
0.0
 70
   128
 71
    14
 72
    17
 73
    18
  0
VERTEX
  5
98D
  8
0
 10
0.0
 20
0.0
 30
0.0
 70
   128
 71
    16
 72
    19
 73
    20
  0
VERTEX
  5
98E
  8
0
 10
0.0
 20
0.0
 30
0.0
 70
   128
 71
    21
 72
    17
 73
    13
  0
VERTEX
  5
98F
  8
0
 10
0.0
 20
0.0
 30
0.0
 70
   128
 71
    21
 72
    13
 73
    16
  0
VERTEX
  5
990
  8
0
 10
0.0
 20
0.0
 30
0.0
 70
   128
 71
     4
 72
    10
 73
    15
  0
VERTEX
  5
991
  8
0
 10
0.0
 20
0.0
 30
0.0
 70
   128
 71
     4
 72
    15
 73
    22
  0
VERTEX
  5
992
  8
0
 10
0.0
 20
0.0
 30
0.0
 70
   128
 71
    23
 72
    16
 73
    12
  0
VERTEX
  5
993
  8
0
 10
0.0
 20
0.0
 30
0.0
 70
   128
 71
    23
 72
    12
 73
    11
  0
VERTEX
  5
994
  8
0
 10
0.0
 20
0.0
 30
0.0
 70
   128
 71
    14
 72
    24
 73
    25
  0
VERTEX
  5
995
  8
0
 10
0.0
 20
0.0
 30
0.0
 70
   128
 71
    14
 72
    25
 73
    15
  0
VERTEX
  5
996
  8
0
 10
0.0
 20
0.0
 30
0.0
 70
   128
 71
    19
 72
    16
 73
    23
  0
VERTEX
  5
997
  8
0
 10
0.0
 20
0.0
 30
0.0
 70
   128
 71
     4
 72
    22
 73
     5
  0
VERTEX
  5
998
  8
0
 10
0.0
 20
0.0
 30
0.0
 70
   128
 71
    11
 72
     7
 73
    26
  0
VERTEX
  5
999
  8
0
 10
0.0
 20
0.0
 30
0.0
 70
   128
 71
    11
 72
    26
 73
    27
  0
VERTEX
  5
99A
  8
0
 10
0.0
 20
0.0
 30
0.0
 70
   128
 71
     1
 72
     4
 73
     6
  0
VERTEX
  5
99B
  8
0
 10
0.0
 20
0.0
 30
0.0
 70
   128
 71
    26
 72
     7
 73
     8
  0
VERTEX
  5
99C
  8
0
 10
0.0
 20
0.0
 30
0.0
 70
   128
 71
    18
 72
    24
 73
    14
  0
VERTEX
  5
99D
  8
0
 10
0.0
 20
0.0
 30
0.0
 70
   128
 71
    20
 72
    21
 73
    16
  0
SEQEND
  5
F65
  8
0
  0
POLYLINE
  5
99E
  8
0
 66
     1
 10
0.0
 20
0.0
 30
0.0
 70
    64
 71
    14
 72
    12
  0
VERTEX
  5
99F
  8
0
 10
-0.0000000000001104
 20
5.953162900988865
 30
153.0445995316499
 70
   192
  0
VERTEX
  5
9A0
  8
0
 10
0.0000000000000188
 20
-1.408607015345745
 30
153.7145730780445
 70
   192
  0
VERTEX
  5
9A1
  8
0
 10
-76.85728653902235
 20
-1.408607015345745
 30
133.1207252174661
 70
   192
  0
VERTEX
  5
9A2
  8
0
 10
-76.52229976582505
 20
5.953162900988865
 30
132.5405111064248
 70
   192
  0
VERTEX
  5
9A3
  8
0
 10
-153.7145730780445
 20
-1.408607015345745
 30
-0.0000000000000597
 70
   192
  0
VERTEX
  5
9A4
  8
0
 10
-153.0445995316499
 20
5.953162900988865
 30
-0.0000000000000595
 70
   192
  0
VERTEX
  5
9A5
  8
0
 10
-132.5405111064249
 20
5.953162900988865
 30
76.52229976582491
 70
   192
  0
VERTEX
  5
9A6
  8
0
 10
-133.1207252174662
 20
-1.408607015345745
 30
76.85728653902221
 70
   192
  0
VERTEX
  5
9A7
  8
0
 10
-133.1207252174661
 20
-1.408607015345745
 30
-76.85728653902233
 70
   192
  0
VERTEX
  5
9A8
  8
0
 10
-132.5405111064248
 20
5.953162900988865
 30
-76.52229976582503
 70
   192
  0
VERTEX
  5
9A9
  8
0
 10
0.0000000000000188
 20
-1.408607015345745
 30
-153.7145730780445
 70
   192
  0
VERTEX
  5
9AA
  8
0
 10
0.0000000000000187
 20
5.953162900988865
 30
-153.0445995316499
 70
   192
  0
VERTEX
  5
9AB
  8
0
 10
-76.52229976582494
 20
5.953162900988865
 30
-132.5405111064249
 70
   192
  0
VERTEX
  5
9AC
  8
0
 10
-76.85728653902224
 20
-1.408607015345745
 30
-133.1207252174661
 70
   192
  0
VERTEX
  5
9AD
  8
0
 10
0.0
 20
0.0
 30
0.0
 70
   128
 71
     1
 72
     2
 73
    -3
  0
VERTEX
  5
9AE
  8
0
 10
0.0
 20
0.0
 30
0.0
 70
   128
 71
     4
 72
    -1
 73
     3
  0
VERTEX
  5
9AF
  8
0
 10
0.0
 20
0.0
 30
0.0
 70
   128
 71
     5
 72
     6
 73
    -7
  0
VERTEX
  5
9B0
  8
0
 10
0.0
 20
0.0
 30
0.0
 70
   128
 71
     8
 72
    -5
 73
     7
  0
VERTEX
  5
9B1
  8
0
 10
0.0
 20
0.0
 30
0.0
 70
   128
 71
     6
 72
     5
 73
    -9
  0
VERTEX
  5
9B2
  8
0
 10
0.0
 20
0.0
 30
0.0
 70
   128
 71
    10
 72
    -6
 73
     9
  0
VERTEX
  5
9B3
  8
0
 10
0.0
 20
0.0
 30
0.0
 70
   128
 71
    11
 72
    12
 73
   -13
  0
VERTEX
  5
9B4
  8
0
 10
0.0
 20
0.0
 30
0.0
 70
   128
 71
    14
 72
   -11
 73
    13
  0
VERTEX
  5
9B5
  8
0
 10
0.0
 20
0.0
 30
0.0
 70
   128
 71
     7
 72
     4
 73
    -3
  0
VERTEX
  5
9B6
  8
0
 10
0.0
 20
0.0
 30
0.0
 70
   128
 71
     8
 72
    -7
 73
     3
  0
VERTEX
  5
9B7
  8
0
 10
0.0
 20
0.0
 30
0.0
 70
   128
 71
    13
 72
    10
 73
    -9
  0
VERTEX
  5
9B8
  8
0
 10
0.0
 20
0.0
 30
0.0
 70
   128
 71
    14
 72
   -13
 73
     9
  0
SEQEND
  5
F66
  8
0
  0
POLYLINE
  5
9B9
  8
0
 66
     1
 10
0.0
 20
0.0
 30
0.0
 70
    64
 71
    27
 72
    34
  0
VERTEX
  5
9BA
  8
0
 10
-149.8733003889806
 20
10.16161900607756
 30
0.0000000000000092
 70
   192
  0
VERTEX
  5
9BB
  8
0
 10
-148.0651775385701
 20
10.5
 30
-0.0000000000000575
 70
   192
  0
VERTEX
  5
9BC
  8
0
 10
-128.2282051642548
 20
10.5
 30
74.032588769285
 70
   192
  0
VERTEX
  5
9BD
  8
0
 10
-105.9764270238566
 20
10.16161900607756
 30
105.9764270238566
 70
   192
  0
VERTEX
  5
9BE
  8
0
 10
-74.03258876928514
 20
10.5
 30
128.2282051642547
 70
   192
  0
VERTEX
  5
9BF
  8
0
 10
-0.0000000000001069
 20
10.5
 30
148.0651775385701
 70
   192
  0
VERTEX
  5
9C0
  8
0
 10
-105.9764270238566
 20
10.16161900607756
 30
-105.9764270238566
 70
   192
  0
VERTEX
  5
9C1
  8
0
 10
-128.2282051642548
 20
10.5
 30
-74.0325887692851
 70
   192
  0
VERTEX
  5
9C2
  8
0
 10
-107.0819100492667
 20
9.192276703129407
 30
107.0819100492667
 70
   192
  0
VERTEX
  5
9C3
  8
0
 10
-151.4366894764887
 20
9.192276703129407
 30
0.0000000000000093
 70
   192
  0
VERTEX
  5
9C4
  8
0
 10
-107.0819100492667
 20
9.192276703129407
 30
-107.0819100492667
 70
   192
  0
VERTEX
  5
9C5
  8
0
 10
0.0000000000000184
 20
9.903765089142551
 30
-150.4330569779946
 70
   192
  0
VERTEX
  5
9C6
  8
0
 10
-107.8647103933822
 20
7.723175895924612
 30
107.8647103933822
 70
   192
  0
VERTEX
  5
9C7
  8
0
 10
-152.5437363397672
 20
7.723175895924612
 30
0.0000000000000093
 70
   192
  0
VERTEX
  5
9C8
  8
0
 10
0.0
 20
8.257258784140268
 30
152.2362114628245
 70
   192
  0
VERTEX
  5
9C9
  8
0
 10
-107.8647103933822
 20
7.723175895924612
 30
-107.8647103933821
 70
   192
  0
VERTEX
  5
9CA
  8
0
 10
-153.0445995316499
 20
5.953162900988865
 30
-0.0000000000000595
 70
   192
  0
VERTEX
  5
9CB
  8
0
 10
-132.5405111064249
 20
5.953162900988865
 30
76.52229976582491
 70
   192
  0
VERTEX
  5
9CC
  8
0
 10
-76.52229976582494
 20
5.953162900988865
 30
-132.5405111064249
 70
   192
  0
VERTEX
  5
9CD
  8
0
 10
0.0000000000000187
 20
5.953162900988865
 30
-153.0445995316499
 70
   192
  0
VERTEX
  5
9CE
  8
0
 10
-132.5405111064248
 20
5.953162900988865
 30
-76.52229976582503
 70
   192
  0
VERTEX
  5
9CF
  8
0
 10
0.0
 20
9.903765089142551
 30
150.4330569779946
 70
   192
  0
VERTEX
  5
9D0
  8
0
 10
0.0000000000000186
 20
8.257258784140268
 30
-152.2362114628245
 70
   192
  0
VERTEX
  5
9D1
  8
0
 10
-0.0000000000001104
 20
5.953162900988865
 30
153.0445995316499
 70
   192
  0
VERTEX
  5
9D2
  8
0
 10
-76.52229976582505
 20
5.953162900988865
 30
132.5405111064248
 70
   192
  0
VERTEX
  5
9D3
  8
0
 10
-74.03258876928503
 20
10.5
 30
-128.2282051642548
 70
   192
  0
VERTEX
  5
9D4
  8
0
 10
0.0000000000000181
 20
10.5
 30
-148.0651775385701
 70
   192
  0
VERTEX
  5
9D5
  8
0
 10
0.0
 20
0.0
 30
0.0
 70
   128
 71
     1
 72
     2
 73
     3
  0
VERTEX
  5
9D6
  8
0
 10
0.0
 20
0.0
 30
0.0
 70
   128
 71
     4
 72
     1
 73
     3
  0
VERTEX
  5
9D7
  8
0
 10
0.0
 20
0.0
 30
0.0
 70
   128
 71
     5
 72
     6
 73
     4
  0
VERTEX
  5
9D8
  8
0
 10
0.0
 20
0.0
 30
0.0
 70
   128
 71
     2
 72
     1
 73
     7
  0
VERTEX
  5
9D9
  8
0
 10
0.0
 20
0.0
 30
0.0
 70
   128
 71
     8
 72
     2
 73
     7
  0
VERTEX
  5
9DA
  8
0
 10
0.0
 20
0.0
 30
0.0
 70
   128
 71
     4
 72
     9
 73
   -10
  0
VERTEX
  5
9DB
  8
0
 10
0.0
 20
0.0
 30
0.0
 70
   128
 71
     1
 72
    -4
 73
    10
  0
VERTEX
  5
9DC
  8
0
 10
0.0
 20
0.0
 30
0.0
 70
   128
 71
     7
 72
    11
 73
    12
  0
VERTEX
  5
9DD
  8
0
 10
0.0
 20
0.0
 30
0.0
 70
   128
 71
     1
 72
    10
 73
   -11
  0
VERTEX
  5
9DE
  8
0
 10
0.0
 20
0.0
 30
0.0
 70
   128
 71
     7
 72
    -1
 73
    11
  0
VERTEX
  5
9DF
  8
0
 10
0.0
 20
0.0
 30
0.0
 70
   128
 71
     9
 72
    13
 73
   -14
  0
VERTEX
  5
9E0
  8
0
 10
0.0
 20
0.0
 30
0.0
 70
   128
 71
    10
 72
    -9
 73
    14
  0
VERTEX
  5
9E1
  8
0
 10
0.0
 20
0.0
 30
0.0
 70
   128
 71
    13
 72
     9
 73
    15
  0
VERTEX
  5
9E2
  8
0
 10
0.0
 20
0.0
 30
0.0
 70
   128
 71
    10
 72
    14
 73
   -16
  0
VERTEX
  5
9E3
  8
0
 10
0.0
 20
0.0
 30
0.0
 70
   128
 71
    11
 72
   -10
 73
    16
  0
VERTEX
  5
9E4
  8
0
 10
0.0
 20
0.0
 30
0.0
 70
   128
 71
    17
 72
    14
 73
    13
  0
VERTEX
  5
9E5
  8
0
 10
0.0
 20
0.0
 30
0.0
 70
   128
 71
    18
 72
    17
 73
    13
  0
VERTEX
  5
9E6
  8
0
 10
0.0
 20
0.0
 30
0.0
 70
   128
 71
    19
 72
    20
 73
    16
  0
VERTEX
  5
9E7
  8
0
 10
0.0
 20
0.0
 30
0.0
 70
   128
 71
    14
 72
    17
 73
    21
  0
VERTEX
  5
9E8
  8
0
 10
0.0
 20
0.0
 30
0.0
 70
   128
 71
    16
 72
    14
 73
    21
  0
VERTEX
  5
9E9
  8
0
 10
0.0
 20
0.0
 30
0.0
 70
   128
 71
    15
 72
     9
 73
     4
  0
VERTEX
  5
9EA
  8
0
 10
0.0
 20
0.0
 30
0.0
 70
   128
 71
    22
 72
    15
 73
     4
  0
VERTEX
  5
9EB
  8
0
 10
0.0
 20
0.0
 30
0.0
 70
   128
 71
    11
 72
    16
 73
    23
  0
VERTEX
  5
9EC
  8
0
 10
0.0
 20
0.0
 30
0.0
 70
   128
 71
    12
 72
    11
 73
    23
  0
VERTEX
  5
9ED
  8
0
 10
0.0
 20
0.0
 30
0.0
 70
   128
 71
    24
 72
    25
 73
    13
  0
VERTEX
  5
9EE
  8
0
 10
0.0
 20
0.0
 30
0.0
 70
   128
 71
    15
 72
    24
 73
    13
  0
VERTEX
  5
9EF
  8
0
 10
0.0
 20
0.0
 30
0.0
 70
   128
 71
    23
 72
    16
 73
    20
  0
VERTEX
  5
9F0
  8
0
 10
0.0
 20
0.0
 30
0.0
 70
   128
 71
    22
 72
     4
 73
     6
  0
VERTEX
  5
9F1
  8
0
 10
0.0
 20
0.0
 30
0.0
 70
   128
 71
    26
 72
     7
 73
    12
  0
VERTEX
  5
9F2
  8
0
 10
0.0
 20
0.0
 30
0.0
 70
   128
 71
    27
 72
    26
 73
    12
  0
VERTEX
  5
9F3
  8
0
 10
0.0
 20
0.0
 30
0.0
 70
   128
 71
     5
 72
     4
 73
     3
  0
VERTEX
  5
9F4
  8
0
 10
0.0
 20
0.0
 30
0.0
 70
   128
 71
     8
 72
     7
 73
    26
  0
VERTEX
  5
9F5
  8
0
 10
0.0
 20
0.0
 30
0.0
 70
   128
 71
    13
 72
    25
 73
    18
  0
VERTEX
  5
9F6
  8
0
 10
0.0
 20
0.0
 30
0.0
 70
   128
 71
    16
 72
    21
 73
    19
  0
SEQEND
  5
F67
  8
0
  0
POLYLINE
  5
9F7
  8
0
 66
     1
 10
0.0
 20
0.0
 30
0.0
 70
    64
 71
    23
 72
    30
  0
VERTEX
  5
9F8
  8
0
 10
-46.44983197776584
 20
8.958868952864387
 30
-0.0000000000000052
 70
   192
  0
VERTEX
  5
9F9
  8
0
 10
-32.84499117645397
 20
8.958868952864387
 30
32.84499117645397
 70
   192
  0
VERTEX
  5
9FA
  8
0
 10
-33.46709824236355
 20
9.615840986124576
 30
33.46709824236355
 70
   192
  0
VERTEX
  5
9FB
  8
0
 10
-47.32962422762329
 20
9.615840986124576
 30
0.0000000000000029
 70
   192
  0
VERTEX
  5
9FC
  8
0
 10
-32.84499117645397
 20
8.958868952864387
 30
-32.84499117645397
 70
   192
  0
VERTEX
  5
9FD
  8
0
 10
-33.46709824236355
 20
9.615840986124576
 30
-33.46709824236354
 70
   192
  0
VERTEX
  5
9FE
  8
0
 10
-34.16344546828846
 20
10.10148255898323
 30
34.16344546828846
 70
   192
  0
VERTEX
  5
9FF
  8
0
 10
-48.31440791864718
 20
10.10148255898323
 30
0.000000000000003
 70
   192
  0
VERTEX
  5
A00
  8
0
 10
-34.16344546828846
 20
10.10148255898323
 30
-34.16344546828845
 70
   192
  0
VERTEX
  5
A01
  8
0
 10
0.0000000000000058
 20
9.797685557153585
 30
-47.64778623920364
 70
   192
  0
VERTEX
  5
A02
  8
0
 10
-34.91071205689731
 20
10.39952944538375
 30
34.91071205689731
 70
   192
  0
VERTEX
  5
A03
  8
0
 10
-49.3712024629661
 20
10.39952944538375
 30
0.000000000000003
 70
   192
  0
VERTEX
  5
A04
  8
0
 10
0.0
 20
10.321774357656
 30
49.01308424232098
 70
   192
  0
VERTEX
  5
A05
  8
0
 10
-34.91071205689731
 20
10.39952944538375
 30
-34.9107120568973
 70
   192
  0
VERTEX
  5
A06
  8
0
 10
-35.68387191198887
 20
10.50000000000003
 30
35.68387191198885
 70
   192
  0
VERTEX
  5
A07
  8
0
 10
-50.46461561591899
 20
10.50000000000003
 30
-0.0000000000000056
 70
   192
  0
VERTEX
  5
A08
  8
0
 10
-0.0000000000000056
 20
10.50000000000003
 30
50.46461561591899
 70
   192
  0
VERTEX
  5
A09
  8
0
 10
-35.68387191198885
 20
10.50000000000003
 30
-35.68387191198887
 70
   192
  0
VERTEX
  5
A0A
  8
0
 10
0.0
 20
9.797685557153585
 30
47.64778623920364
 70
   192
  0
VERTEX
  5
A0B
  8
0
 10
0.000000000000006
 20
10.321774357656
 30
-49.01308424232098
 70
   192
  0
VERTEX
  5
A0C
  8
0
 10
0.0000000000000062
 20
10.50000000000003
 30
-50.46461561591899
 70
   192
  0
VERTEX
  5
A0D
  8
0
 10
-0.0000000000000052
 20
8.958868952864387
 30
46.44983197776584
 70
   192
  0
VERTEX
  5
A0E
  8
0
 10
0.0000000000000057
 20
8.958868952864389
 30
-46.44983197776584
 70
   192
  0
VERTEX
  5
A0F
  8
0
 10
0.0
 20
0.0
 30
0.0
 70
   128
 71
     1
 72
     2
 73
    -3
  0
VERTEX
  5
A10
  8
0
 10
0.0
 20
0.0
 30
0.0
 70
   128
 71
     4
 72
    -1
 73
     3
  0
VERTEX
  5
A11
  8
0
 10
0.0
 20
0.0
 30
0.0
 70
   128
 71
     5
 72
     1
 73
    -4
  0
VERTEX
  5
A12
  8
0
 10
0.0
 20
0.0
 30
0.0
 70
   128
 71
     6
 72
    -5
 73
     4
  0
VERTEX
  5
A13
  8
0
 10
0.0
 20
0.0
 30
0.0
 70
   128
 71
     3
 72
     7
 73
    -8
  0
VERTEX
  5
A14
  8
0
 10
0.0
 20
0.0
 30
0.0
 70
   128
 71
     4
 72
    -3
 73
     8
  0
VERTEX
  5
A15
  8
0
 10
0.0
 20
0.0
 30
0.0
 70
   128
 71
     6
 72
     9
 73
    10
  0
VERTEX
  5
A16
  8
0
 10
0.0
 20
0.0
 30
0.0
 70
   128
 71
     4
 72
     8
 73
    -9
  0
VERTEX
  5
A17
  8
0
 10
0.0
 20
0.0
 30
0.0
 70
   128
 71
     6
 72
    -4
 73
     9
  0
VERTEX
  5
A18
  8
0
 10
0.0
 20
0.0
 30
0.0
 70
   128
 71
     7
 72
    11
 73
   -12
  0
VERTEX
  5
A19
  8
0
 10
0.0
 20
0.0
 30
0.0
 70
   128
 71
     8
 72
    -7
 73
    12
  0
VERTEX
  5
A1A
  8
0
 10
0.0
 20
0.0
 30
0.0
 70
   128
 71
    11
 72
     7
 73
    13
  0
VERTEX
  5
A1B
  8
0
 10
0.0
 20
0.0
 30
0.0
 70
   128
 71
     8
 72
    12
 73
   -14
  0
VERTEX
  5
A1C
  8
0
 10
0.0
 20
0.0
 30
0.0
 70
   128
 71
     9
 72
    -8
 73
    14
  0
VERTEX
  5
A1D
  8
0
 10
0.0
 20
0.0
 30
0.0
 70
   128
 71
    15
 72
    16
 73
   -12
  0
VERTEX
  5
A1E
  8
0
 10
0.0
 20
0.0
 30
0.0
 70
   128
 71
    11
 72
   -15
 73
    12
  0
VERTEX
  5
A1F
  8
0
 10
0.0
 20
0.0
 30
0.0
 70
   128
 71
    17
 72
    15
 73
    11
  0
VERTEX
  5
A20
  8
0
 10
0.0
 20
0.0
 30
0.0
 70
   128
 71
    16
 72
    18
 73
   -14
  0
VERTEX
  5
A21
  8
0
 10
0.0
 20
0.0
 30
0.0
 70
   128
 71
    12
 72
   -16
 73
    14
  0
VERTEX
  5
A22
  8
0
 10
0.0
 20
0.0
 30
0.0
 70
   128
 71
    13
 72
     7
 73
     3
  0
VERTEX
  5
A23
  8
0
 10
0.0
 20
0.0
 30
0.0
 70
   128
 71
    19
 72
    13
 73
     3
  0
VERTEX
  5
A24
  8
0
 10
0.0
 20
0.0
 30
0.0
 70
   128
 71
     9
 72
    14
 73
    20
  0
VERTEX
  5
A25
  8
0
 10
0.0
 20
0.0
 30
0.0
 70
   128
 71
    10
 72
     9
 73
    20
  0
VERTEX
  5
A26
  8
0
 10
0.0
 20
0.0
 30
0.0
 70
   128
 71
    13
 72
    17
 73
    11
  0
VERTEX
  5
A27
  8
0
 10
0.0
 20
0.0
 30
0.0
 70
   128
 71
    14
 72
    18
 73
    21
  0
VERTEX
  5
A28
  8
0
 10
0.0
 20
0.0
 30
0.0
 70
   128
 71
    20
 72
    14
 73
    21
  0
VERTEX
  5
A29
  8
0
 10
0.0
 20
0.0
 30
0.0
 70
   128
 71
    19
 72
     3
 73
     2
  0
VERTEX
  5
A2A
  8
0
 10
0.0
 20
0.0
 30
0.0
 70
   128
 71
    22
 72
    19
 73
     2
  0
VERTEX
  5
A2B
  8
0
 10
0.0
 20
0.0
 30
0.0
 70
   128
 71
     5
 72
     6
 73
    10
  0
VERTEX
  5
A2C
  8
0
 10
0.0
 20
0.0
 30
0.0
 70
   128
 71
    23
 72
     5
 73
    10
  0
SEQEND
  5
F68
  8
0
  0
POLYLINE
  5
A2D
  8
0
 66
     1
 10
0.0
 20
0.0
 30
0.0
 70
    64
 71
    10
 72
     8
  0
VERTEX
  5
A2E
  8
0
 10
0.0
 20
0.0000000000000089
 30
36.5
 70
   192
  0
VERTEX
  5
A2F
  8
0
 10
0.0
 20
0.0
 30
-36.50000000000001
 70
   192
  0
VERTEX
  5
A30
  8
0
 10
0.0000000000000057
 20
8.958868952864387
 30
-46.44983197776584
 70
   192
  0
VERTEX
  5
A31
  8
0
 10
0.0
 20
8.958868952864387
 30
46.44983197776584
 70
   192
  0
VERTEX
  5
A32
  8
0
 10
46.44983197776585
 20
8.958868952864387
 30
0.0
 70
   192
  0
VERTEX
  5
A33
  8
0
 10
36.50000000000001
 20
0.0
 30
0.0
 70
   192
  0
VERTEX
  5
A34
  8
0
 10
32.84499117645397
 20
8.958868952864387
 30
32.84499117645397
 70
   192
  0
VERTEX
  5
A35
  8
0
 10
25.80939751330899
 20
0.0
 30
25.80939751330899
 70
   192
  0
VERTEX
  5
A36
  8
0
 10
32.84499117645397
 20
8.958868952864387
 30
-32.84499117645397
 70
   192
  0
VERTEX
  5
A37
  8
0
 10
25.80939751330899
 20
0.0
 30
-25.80939751330899
 70
   192
  0
VERTEX
  5
A38
  8
0
 10
0.0
 20
0.0
 30
0.0
 70
   128
 71
     7
 72
     4
 73
    -1
  0
VERTEX
  5
A39
  8
0
 10
0.0
 20
0.0
 30
0.0
 70
   128
 71
    -7
 72
     1
 73
     8
  0
VERTEX
  5
A3A
  8
0
 10
0.0
 20
0.0
 30
0.0
 70
   128
 71
     6
 72
     5
 73
    -7
  0
VERTEX
  5
A3B
  8
0
 10
0.0
 20
0.0
 30
0.0
 70
   128
 71
    -6
 72
     7
 73
     8
  0
VERTEX
  5
A3C
  8
0
 10
0.0
 20
0.0
 30
0.0
 70
   128
 71
    10
 72
     9
 73
    -5
  0
VERTEX
  5
A3D
  8
0
 10
0.0
 20
0.0
 30
0.0
 70
   128
 71
   -10
 72
     5
 73
     6
  0
VERTEX
  5
A3E
  8
0
 10
0.0
 20
0.0
 30
0.0
 70
   128
 71
     2
 72
     3
 73
    -9
  0
VERTEX
  5
A3F
  8
0
 10
0.0
 20
0.0
 30
0.0
 70
   128
 71
    -2
 72
     9
 73
    10
  0
SEQEND
  5
F69
  8
0
  0
POLYLINE
  5
A40
  8
0
 66
     1
 10
0.0
 20
0.0
 30
0.0
 70
    64
 71
    10
 72
     8
  0
VERTEX
  5
A41
  8
0
 10
0.0000000000000028
 20
0.0
 30
-23.0
 70
   192
  0
VERTEX
  5
A42
  8
0
 10
-0.0000000000000026
 20
0.0
 30
23.0
 70
   192
  0
VERTEX
  5
A43
  8
0
 10
-0.0000000000000026
 20
5.500000000000026
 30
23.0
 70
   192
  0
VERTEX
  5
A44
  8
0
 10
0.0000000000000028
 20
5.500000000000028
 30
-23.0
 70
   192
  0
VERTEX
  5
A45
  8
0
 10
-23.0
 20
5.500000000000026
 30
-0.0000000000000026
 70
   192
  0
VERTEX
  5
A46
  8
0
 10
-23.0
 20
0.0
 30
-0.0000000000000026
 70
   192
  0
VERTEX
  5
A47
  8
0
 10
-16.26345596729059
 20
5.500000000000026
 30
-16.26345596729059
 70
   192
  0
VERTEX
  5
A48
  8
0
 10
-16.26345596729059
 20
0.0
 30
-16.2634559672906
 70
   192
  0
VERTEX
  5
A49
  8
0
 10
-16.26345596729059
 20
5.500000000000026
 30
16.26345596729059
 70
   192
  0
VERTEX
  5
A4A
  8
0
 10
-16.2634559672906
 20
0.0
 30
16.26345596729059
 70
   192
  0
VERTEX
  5
A4B
  8
0
 10
0.0
 20
0.0
 30
0.0
 70
   128
 71
     8
 72
     1
 73
    -4
  0
VERTEX
  5
A4C
  8
0
 10
0.0
 20
0.0
 30
0.0
 70
   128
 71
     7
 72
    -8
 73
     4
  0
VERTEX
  5
A4D
  8
0
 10
0.0
 20
0.0
 30
0.0
 70
   128
 71
     6
 72
     8
 73
    -7
  0
VERTEX
  5
A4E
  8
0
 10
0.0
 20
0.0
 30
0.0
 70
   128
 71
     5
 72
    -6
 73
     7
  0
VERTEX
  5
A4F
  8
0
 10
0.0
 20
0.0
 30
0.0
 70
   128
 71
    10
 72
     6
 73
    -5
  0
VERTEX
  5
A50
  8
0
 10
0.0
 20
0.0
 30
0.0
 70
   128
 71
     9
 72
   -10
 73
     5
  0
VERTEX
  5
A51
  8
0
 10
0.0
 20
0.0
 30
0.0
 70
   128
 71
     2
 72
    10
 73
    -9
  0
VERTEX
  5
A52
  8
0
 10
0.0
 20
0.0
 30
0.0
 70
   128
 71
     3
 72
    -2
 73
     9
  0
SEQEND
  5
F6A
  8
0
  0
POLYLINE
  5
A53
  8
0
 66
     1
 10
0.0
 20
0.0
 30
0.0
 70
    64
 71
    10
 72
     8
  0
VERTEX
  5
A54
  8
0
 10
0.0000000000000028
 20
5.500000000000026
 30
-23.0
 70
   192
  0
VERTEX
  5
A55
  8
0
 10
-0.0000000000000026
 20
5.500000000000026
 30
23.0
 70
   192
  0
VERTEX
  5
A56
  8
0
 10
-0.0000000000000045
 20
20.0
 30
40.2804270926161
 70
   192
  0
VERTEX
  5
A57
  8
0
 10
0.0000000000000049
 20
20.0
 30
-40.2804270926161
 70
   192
  0
VERTEX
  5
A58
  8
0
 10
-40.2804270926161
 20
20.0
 30
-0.0000000000000045
 70
   192
  0
VERTEX
  5
A59
  8
0
 10
-23.0
 20
5.500000000000026
 30
-0.0000000000000026
 70
   192
  0
VERTEX
  5
A5A
  8
0
 10
-28.48256314627917
 20
20.0
 30
-28.48256314627918
 70
   192
  0
VERTEX
  5
A5B
  8
0
 10
-16.26345596729059
 20
5.500000000000026
 30
-16.26345596729059
 70
   192
  0
VERTEX
  5
A5C
  8
0
 10
-28.48256314627918
 20
20.0
 30
28.48256314627917
 70
   192
  0
VERTEX
  5
A5D
  8
0
 10
-16.26345596729059
 20
5.500000000000026
 30
16.26345596729059
 70
   192
  0
VERTEX
  5
A5E
  8
0
 10
0.0
 20
0.0
 30
0.0
 70
   128
 71
     8
 72
     1
 73
    -4
  0
VERTEX
  5
A5F
  8
0
 10
0.0
 20
0.0
 30
0.0
 70
   128
 71
     7
 72
    -8
 73
     4
  0
VERTEX
  5
A60
  8
0
 10
0.0
 20
0.0
 30
0.0
 70
   128
 71
     6
 72
     8
 73
    -7
  0
VERTEX
  5
A61
  8
0
 10
0.0
 20
0.0
 30
0.0
 70
   128
 71
     5
 72
    -6
 73
     7
  0
VERTEX
  5
A62
  8
0
 10
0.0
 20
0.0
 30
0.0
 70
   128
 71
    10
 72
     6
 73
    -5
  0
VERTEX
  5
A63
  8
0
 10
0.0
 20
0.0
 30
0.0
 70
   128
 71
     9
 72
   -10
 73
     5
  0
VERTEX
  5
A64
  8
0
 10
0.0
 20
0.0
 30
0.0
 70
   128
 71
     2
 72
    10
 73
    -9
  0
VERTEX
  5
A65
  8
0
 10
0.0
 20
0.0
 30
0.0
 70
   128
 71
     3
 72
    -2
 73
     9
  0
SEQEND
  5
F6B
  8
0
  0
POLYLINE
  5
A66
  8
0
 66
     1
 10
0.0
 20
0.0
 30
0.0
 70
    64
 71
    12
 72
    10
  0
VERTEX
  5
A67
  8
0
 10
0.0000000000000049
 20
20.0
 30
-40.2804270926161
 70
   192
  0
VERTEX
  5
A68
  8
0
 10
0.0000000000000186
 20
24.68682286300302
 30
-152.1046329507128
 70
   192
  0
VERTEX
  5
A69
  8
0
 10
-76.05231647535638
 20
24.68682286300303
 30
-131.7264761686249
 70
   192
  0
VERTEX
  5
A6A
  8
0
 10
-28.48256314627917
 20
20.0
 30
-28.48256314627918
 70
   192
  0
VERTEX
  5
A6B
  8
0
 10
-152.1046329507128
 20
24.68682286300303
 30
-0.0000000000000591
 70
   192
  0
VERTEX
  5
A6C
  8
0
 10
-40.2804270926161
 20
20.0
 30
-0.0000000000000045
 70
   192
  0
VERTEX
  5
A6D
  8
0
 10
-131.7264761686249
 20
24.68682286300303
 30
-76.05231647535646
 70
   192
  0
VERTEX
  5
A6E
  8
0
 10
-131.7264761686249
 20
24.68682286300303
 30
76.05231647535635
 70
   192
  0
VERTEX
  5
A6F
  8
0
 10
-28.48256314627918
 20
20.0
 30
28.48256314627917
 70
   192
  0
VERTEX
  5
A70
  8
0
 10
-0.0000000000001098
 20
24.68682286300303
 30
152.1046329507128
 70
   192
  0
VERTEX
  5
A71
  8
0
 10
-0.0000000000000045
 20
20.0
 30
40.2804270926161
 70
   192
  0
VERTEX
  5
A72
  8
0
 10
-76.05231647535649
 20
24.68682286300303
 30
131.7264761686249
 70
   192
  0
VERTEX
  5
A73
  8
0
 10
0.0
 20
0.0
 30
0.0
 70
   128
 71
     1
 72
     2
 73
     3
  0
VERTEX
  5
A74
  8
0
 10
0.0
 20
0.0
 30
0.0
 70
   128
 71
     4
 72
     1
 73
     3
  0
VERTEX
  5
A75
  8
0
 10
0.0
 20
0.0
 30
0.0
 70
   128
 71
     5
 72
     6
 73
     4
  0
VERTEX
  5
A76
  8
0
 10
0.0
 20
0.0
 30
0.0
 70
   128
 71
     7
 72
     5
 73
     4
  0
VERTEX
  5
A77
  8
0
 10
0.0
 20
0.0
 30
0.0
 70
   128
 71
     6
 72
     5
 73
     8
  0
VERTEX
  5
A78
  8
0
 10
0.0
 20
0.0
 30
0.0
 70
   128
 71
     9
 72
     6
 73
     8
  0
VERTEX
  5
A79
  8
0
 10
0.0
 20
0.0
 30
0.0
 70
   128
 71
    10
 72
    11
 73
     9
  0
VERTEX
  5
A7A
  8
0
 10
0.0
 20
0.0
 30
0.0
 70
   128
 71
    12
 72
    10
 73
     9
  0
VERTEX
  5
A7B
  8
0
 10
0.0
 20
0.0
 30
0.0
 70
   128
 71
     7
 72
     4
 73
     3
  0
VERTEX
  5
A7C
  8
0
 10
0.0
 20
0.0
 30
0.0
 70
   128
 71
    12
 72
     9
 73
     8
  0
SEQEND
  5
F6C
  8
0
  0
POLYLINE
  5
A7D
  8
0
 66
     1
 10
0.0
 20
0.0
 30
0.0
 70
    64
 71
    27
 72
    34
  0
VERTEX
  5
A7E
  8
0
 10
-163.0005054996304
 20
32.09165020079121
 30
0.00000000000001
 70
   192
  0
VERTEX
  5
A7F
  8
0
 10
-164.0662639958658
 20
36.56523611679354
 30
-0.0000000000000638
 70
   192
  0
VERTEX
  5
A80
  8
0
 10
-142.085552524424
 20
36.56523611679354
 30
82.03313199793284
 70
   192
  0
VERTEX
  5
A81
  8
0
 10
-115.2587627756238
 20
32.09165020079121
 30
115.2587627756238
 70
   192
  0
VERTEX
  5
A82
  8
0
 10
-82.03313199793298
 20
36.56523611679354
 30
142.0855525244239
 70
   192
  0
VERTEX
  5
A83
  8
0
 10
-0.0000000000001184
 20
36.56523611679354
 30
164.0662639958658
 70
   192
  0
VERTEX
  5
A84
  8
0
 10
-115.2587627756238
 20
32.09165020079121
 30
-115.2587627756238
 70
   192
  0
VERTEX
  5
A85
  8
0
 10
-142.085552524424
 20
36.56523611679354
 30
-82.03313199793295
 70
   192
  0
VERTEX
  5
A86
  8
0
 10
-113.4122307768742
 20
28.30622403253221
 30
113.4122307768742
 70
   192
  0
VERTEX
  5
A87
  8
0
 10
-160.3891149036428
 20
28.30622403253221
 30
0.0000000000000098
 70
   192
  0
VERTEX
  5
A88
  8
0
 10
-113.4122307768742
 20
28.30622403253221
 30
-113.4122307768742
 70
   192
  0
VERTEX
  5
A89
  8
0
 10
0.0000000000000199
 20
30.72541967068782
 30
-162.2882803614125
 70
   192
  0
VERTEX
  5
A8A
  8
0
 10
-110.7227043723888
 20
25.72132411971075
 30
110.7227043723888
 70
   192
  0
VERTEX
  5
A8B
  8
0
 10
-156.585550186059
 20
25.72132411971075
 30
0.0000000000000096
 70
   192
  0
VERTEX
  5
A8C
  8
0
 10
0.0
 20
26.42399389054668
 30
157.9567196511688
 70
   192
  0
VERTEX
  5
A8D
  8
0
 10
-110.7227043723888
 20
25.72132411971075
 30
-110.7227043723888
 70
   192
  0
VERTEX
  5
A8E
  8
0
 10
-152.1046329507128
 20
24.68682286300303
 30
-0.0000000000000591
 70
   192
  0
VERTEX
  5
A8F
  8
0
 10
-131.7264761686249
 20
24.68682286300303
 30
76.05231647535635
 70
   192
  0
VERTEX
  5
A90
  8
0
 10
-76.05231647535638
 20
24.68682286300303
 30
-131.7264761686249
 70
   192
  0
VERTEX
  5
A91
  8
0
 10
0.0000000000000186
 20
24.68682286300303
 30
-152.1046329507128
 70
   192
  0
VERTEX
  5
A92
  8
0
 10
-131.7264761686249
 20
24.68682286300303
 30
-76.05231647535646
 70
   192
  0
VERTEX
  5
A93
  8
0
 10
0.0
 20
30.72541967068782
 30
162.2882803614125
 70
   192
  0
VERTEX
  5
A94
  8
0
 10
0.0000000000000193
 20
26.42399389054668
 30
-157.9567196511688
 70
   192
  0
VERTEX
  5
A95
  8
0
 10
-0.0000000000001098
 20
24.68682286300303
 30
152.1046329507128
 70
   192
  0
VERTEX
  5
A96
  8
0
 10
-76.05231647535649
 20
24.68682286300303
 30
131.7264761686249
 70
   192
  0
VERTEX
  5
A97
  8
0
 10
-82.03313199793287
 20
36.56523611679354
 30
-142.085552524424
 70
   192
  0
VERTEX
  5
A98
  8
0
 10
0.0000000000000201
 20
36.56523611679354
 30
-164.0662639958658
 70
   192
  0
VERTEX
  5
A99
  8
0
 10
0.0
 20
0.0
 30
0.0
 70
   128
 71
     1
 72
     2
 73
     3
  0
VERTEX
  5
A9A
  8
0
 10
0.0
 20
0.0
 30
0.0
 70
   128
 71
     4
 72
     1
 73
     3
  0
VERTEX
  5
A9B
  8
0
 10
0.0
 20
0.0
 30
0.0
 70
   128
 71
     5
 72
     6
 73
     4
  0
VERTEX
  5
A9C
  8
0
 10
0.0
 20
0.0
 30
0.0
 70
   128
 71
     2
 72
     1
 73
     7
  0
VERTEX
  5
A9D
  8
0
 10
0.0
 20
0.0
 30
0.0
 70
   128
 71
     8
 72
     2
 73
     7
  0
VERTEX
  5
A9E
  8
0
 10
0.0
 20
0.0
 30
0.0
 70
   128
 71
     4
 72
     9
 73
   -10
  0
VERTEX
  5
A9F
  8
0
 10
0.0
 20
0.0
 30
0.0
 70
   128
 71
     1
 72
    -4
 73
    10
  0
VERTEX
  5
AA0
  8
0
 10
0.0
 20
0.0
 30
0.0
 70
   128
 71
     7
 72
    11
 73
    12
  0
VERTEX
  5
AA1
  8
0
 10
0.0
 20
0.0
 30
0.0
 70
   128
 71
     1
 72
    10
 73
   -11
  0
VERTEX
  5
AA2
  8
0
 10
0.0
 20
0.0
 30
0.0
 70
   128
 71
     7
 72
    -1
 73
    11
  0
VERTEX
  5
AA3
  8
0
 10
0.0
 20
0.0
 30
0.0
 70
   128
 71
     9
 72
    13
 73
   -14
  0
VERTEX
  5
AA4
  8
0
 10
0.0
 20
0.0
 30
0.0
 70
   128
 71
    10
 72
    -9
 73
    14
  0
VERTEX
  5
AA5
  8
0
 10
0.0
 20
0.0
 30
0.0
 70
   128
 71
    13
 72
     9
 73
    15
  0
VERTEX
  5
AA6
  8
0
 10
0.0
 20
0.0
 30
0.0
 70
   128
 71
    10
 72
    14
 73
   -16
  0
VERTEX
  5
AA7
  8
0
 10
0.0
 20
0.0
 30
0.0
 70
   128
 71
    11
 72
   -10
 73
    16
  0
VERTEX
  5
AA8
  8
0
 10
0.0
 20
0.0
 30
0.0
 70
   128
 71
    17
 72
    14
 73
    13
  0
VERTEX
  5
AA9
  8
0
 10
0.0
 20
0.0
 30
0.0
 70
   128
 71
    18
 72
    17
 73
    13
  0
VERTEX
  5
AAA
  8
0
 10
0.0
 20
0.0
 30
0.0
 70
   128
 71
    19
 72
    20
 73
    16
  0
VERTEX
  5
AAB
  8
0
 10
0.0
 20
0.0
 30
0.0
 70
   128
 71
    14
 72
    17
 73
    21
  0
VERTEX
  5
AAC
  8
0
 10
0.0
 20
0.0
 30
0.0
 70
   128
 71
    16
 72
    14
 73
    21
  0
VERTEX
  5
AAD
  8
0
 10
0.0
 20
0.0
 30
0.0
 70
   128
 71
    15
 72
     9
 73
     4
  0
VERTEX
  5
AAE
  8
0
 10
0.0
 20
0.0
 30
0.0
 70
   128
 71
    22
 72
    15
 73
     4
  0
VERTEX
  5
AAF
  8
0
 10
0.0
 20
0.0
 30
0.0
 70
   128
 71
    11
 72
    16
 73
    23
  0
VERTEX
  5
AB0
  8
0
 10
0.0
 20
0.0
 30
0.0
 70
   128
 71
    12
 72
    11
 73
    23
  0
VERTEX
  5
AB1
  8
0
 10
0.0
 20
0.0
 30
0.0
 70
   128
 71
    24
 72
    25
 73
    13
  0
VERTEX
  5
AB2
  8
0
 10
0.0
 20
0.0
 30
0.0
 70
   128
 71
    15
 72
    24
 73
    13
  0
VERTEX
  5
AB3
  8
0
 10
0.0
 20
0.0
 30
0.0
 70
   128
 71
    23
 72
    16
 73
    20
  0
VERTEX
  5
AB4
  8
0
 10
0.0
 20
0.0
 30
0.0
 70
   128
 71
    22
 72
     4
 73
     6
  0
VERTEX
  5
AB5
  8
0
 10
0.0
 20
0.0
 30
0.0
 70
   128
 71
    26
 72
     7
 73
    12
  0
VERTEX
  5
AB6
  8
0
 10
0.0
 20
0.0
 30
0.0
 70
   128
 71
    27
 72
    26
 73
    12
  0
VERTEX
  5
AB7
  8
0
 10
0.0
 20
0.0
 30
0.0
 70
   128
 71
     5
 72
     4
 73
     3
  0
VERTEX
  5
AB8
  8
0
 10
0.0
 20
0.0
 30
0.0
 70
   128
 71
     8
 72
     7
 73
    26
  0
VERTEX
  5
AB9
  8
0
 10
0.0
 20
0.0
 30
0.0
 70
   128
 71
    13
 72
    25
 73
    18
  0
VERTEX
  5
ABA
  8
0
 10
0.0
 20
0.0
 30
0.0
 70
   128
 71
    16
 72
    21
 73
    19
  0
SEQEND
  5
F6D
  8
0
  0
POLYLINE
  5
ABB
  8
0
 66
     1
 10
0.0
 20
0.0
 30
0.0
 70
    64
 71
    14
 72
    12
  0
VERTEX
  5
ABC
  8
0
 10
0.0000000000000201
 20
36.56523611679354
 30
-164.0662639958658
 70
   192
  0
VERTEX
  5
ABD
  8
0
 10
0.0000000000000203
 20
72.56355551009486
 30
-165.826875539636
 70
   192
  0
VERTEX
  5
ABE
  8
0
 10
-82.91343776981799
 20
72.56355551009484
 30
-143.6102868475252
 70
   192
  0
VERTEX
  5
ABF
  8
0
 10
-82.03313199793287
 20
36.56523611679354
 30
-142.085552524424
 70
   192
  0
VERTEX
  5
AC0
  8
0
 10
-165.826875539636
 20
72.56355551009484
 30
-0.0000000000000644
 70
   192
  0
VERTEX
  5
AC1
  8
0
 10
-164.0662639958658
 20
36.56523611679354
 30
-0.0000000000000638
 70
   192
  0
VERTEX
  5
AC2
  8
0
 10
-142.085552524424
 20
36.56523611679354
 30
-82.03313199793295
 70
   192
  0
VERTEX
  5
AC3
  8
0
 10
-143.6102868475251
 20
72.56355551009484
 30
-82.91343776981807
 70
   192
  0
VERTEX
  5
AC4
  8
0
 10
-143.6102868475252
 20
72.56355551009484
 30
82.91343776981795
 70
   192
  0
VERTEX
  5
AC5
  8
0
 10
-142.085552524424
 20
36.56523611679354
 30
82.03313199793284
 70
   192
  0
VERTEX
  5
AC6
  8
0
 10
-0.0000000000001197
 20
72.56355551009484
 30
165.826875539636
 70
   192
  0
VERTEX
  5
AC7
  8
0
 10
-0.0000000000001184
 20
36.56523611679354
 30
164.0662639958658
 70
   192
  0
VERTEX
  5
AC8
  8
0
 10
-82.03313199793298
 20
36.56523611679354
 30
142.0855525244239
 70
   192
  0
VERTEX
  5
AC9
  8
0
 10
-82.9134377698181
 20
72.56355551009484
 30
143.6102868475251
 70
   192
  0
VERTEX
  5
ACA
  8
0
 10
0.0
 20
0.0
 30
0.0
 70
   128
 71
     1
 72
     2
 73
    -3
  0
VERTEX
  5
ACB
  8
0
 10
0.0
 20
0.0
 30
0.0
 70
   128
 71
     4
 72
    -1
 73
     3
  0
VERTEX
  5
ACC
  8
0
 10
0.0
 20
0.0
 30
0.0
 70
   128
 71
     5
 72
     6
 73
    -7
  0
VERTEX
  5
ACD
  8
0
 10
0.0
 20
0.0
 30
0.0
 70
   128
 71
     8
 72
    -5
 73
     7
  0
VERTEX
  5
ACE
  8
0
 10
0.0
 20
0.0
 30
0.0
 70
   128
 71
     6
 72
     5
 73
    -9
  0
VERTEX
  5
ACF
  8
0
 10
0.0
 20
0.0
 30
0.0
 70
   128
 71
    10
 72
    -6
 73
     9
  0
VERTEX
  5
AD0
  8
0
 10
0.0
 20
0.0
 30
0.0
 70
   128
 71
    11
 72
    12
 73
   -13
  0
VERTEX
  5
AD1
  8
0
 10
0.0
 20
0.0
 30
0.0
 70
   128
 71
    14
 72
   -11
 73
    13
  0
VERTEX
  5
AD2
  8
0
 10
0.0
 20
0.0
 30
0.0
 70
   128
 71
     7
 72
     4
 73
    -3
  0
VERTEX
  5
AD3
  8
0
 10
0.0
 20
0.0
 30
0.0
 70
   128
 71
     8
 72
    -7
 73
     3
  0
VERTEX
  5
AD4
  8
0
 10
0.0
 20
0.0
 30
0.0
 70
   128
 71
    13
 72
    10
 73
    -9
  0
VERTEX
  5
AD5
  8
0
 10
0.0
 20
0.0
 30
0.0
 70
   128
 71
    14
 72
   -13
 73
     9
  0
SEQEND
  5
F6E
  8
0
  0
POLYLINE
  5
AD6
  8
0
 66
     1
 10
0.0
 20
0.0
 30
0.0
 70
    64
 71
    31
 72
    42
  0
VERTEX
  5
AD7
  8
0
 10
143.6102868475252
 20
72.56355551009484
 30
-82.91343776981797
 70
   192
  0
VERTEX
  5
AD8
  8
0
 10
165.826875539636
 20
72.56355551009484
 30
0.000000000000046
 70
   192
  0
VERTEX
  5
AD9
  8
0
 10
166.8077047329064
 20
83.49127964218539
 30
0.0000000000000102
 70
   192
  0
VERTEX
  5
ADA
  8
0
 10
117.9508591708015
 20
83.49127964218539
 30
-117.9508591708015
 70
   192
  0
VERTEX
  5
ADB
  8
0
 10
0.0000000000000203
 20
72.56355551009483
 30
-165.826875539636
 70
   192
  0
VERTEX
  5
ADC
  8
0
 10
82.91343776981809
 20
72.56355551009484
 30
-143.6102868475251
 70
   192
  0
VERTEX
  5
ADD
  8
0
 10
117.9508591708015
 20
83.49127964218539
 30
117.9508591708015
 70
   192
  0
VERTEX
  5
ADE
  8
0
 10
143.6102868475251
 20
72.56355551009484
 30
82.91343776981806
 70
   192
  0
VERTEX
  5
ADF
  8
0
 10
168.6726737650819
 20
94.3032670229804
 30
0.0000000000000103
 70
   192
  0
VERTEX
  5
AE0
  8
0
 10
119.2695914201557
 20
94.3032670229804
 30
-119.2695914201557
 70
   192
  0
VERTEX
  5
AE1
  8
0
 10
0.0
 20
87.11168196894991
 30
167.3316120817814
 70
   192
  0
VERTEX
  5
AE2
  8
0
 10
119.2695914201557
 20
94.3032670229804
 30
119.2695914201557
 70
   192
  0
VERTEX
  5
AE3
  8
0
 10
158.3616958449811
 20
104.9281038495868
 30
-65.5955621793942
 70
   192
  0
VERTEX
  5
AE4
  8
0
 10
121.2047946422275
 20
104.9281038495868
 30
-121.2047946422275
 70
   192
  0
VERTEX
  5
AE5
  8
0
 10
171.409464407684
 20
104.9281038495868
 30
0.0000000000000105
 70
   192
  0
VERTEX
  5
AE6
  8
0
 10
0.0000000000000209
 20
101.4116485980113
 30
-170.4013302987904
 70
   192
  0
VERTEX
  5
AE7
  8
0
 10
65.59556217939421
 20
104.9281038495868
 30
-158.3616958449811
 70
   192
  0
VERTEX
  5
AE8
  8
0
 10
65.5955621793942
 20
104.9281038495868
 30
158.3616958449811
 70
   192
  0
VERTEX
  5
AE9
  8
0
 10
121.2047946422275
 20
104.9281038495868
 30
121.2047946422275
 70
   192
  0
VERTEX
  5
AEA
  8
0
 10
0.0
 20
101.4116485980113
 30
170.4013302987904
 70
   192
  0
VERTEX
  5
AEB
  8
0
 10
158.3616958449811
 20
104.9281038495868
 30
65.59556217939421
 70
   192
  0
VERTEX
  5
AEC
  8
0
 10
151.5544456622768
 20
115.2956124593617
 30
-87.49999999999996
 70
   192
  0
VERTEX
  5
AED
  8
0
 10
175.0
 20
115.2956124593617
 30
0.0000000000000486
 70
   192
  0
VERTEX
  5
AEE
  8
0
 10
87.49999999999999
 20
115.2956124593617
 30
151.5544456622768
 70
   192
  0
VERTEX
  5
AEF
  8
0
 10
0.0000000000000205
 20
87.11168196894991
 30
-167.3316120817814
 70
   192
  0
VERTEX
  5
AF0
  8
0
 10
0.0000000000000971
 20
115.2956124593617
 30
-175.0
 70
   192
  0
VERTEX
  5
AF1
  8
0
 10
0.0
 20
115.2956124593617
 30
175.0
 70
   192
  0
VERTEX
  5
AF2
  8
0
 10
82.913437769818
 20
72.56355551009484
 30
143.6102868475251
 70
   192
  0
VERTEX
  5
AF3
  8
0
 10
0.0
 20
72.56355551009484
 30
165.826875539636
 70
   192
  0
VERTEX
  5
AF4
  8
0
 10
87.50000000000007
 20
115.2956124593617
 30
-151.5544456622767
 70
   192
  0
VERTEX
  5
AF5
  8
0
 10
151.5544456622767
 20
115.2956124593617
 30
87.50000000000004
 70
   192
  0
VERTEX
  5
AF6
  8
0
 10
0.0
 20
0.0
 30
0.0
 70
   128
 71
     1
 72
     2
 73
     3
  0
VERTEX
  5
AF7
  8
0
 10
0.0
 20
0.0
 30
0.0
 70
   128
 71
     1
 72
     3
 73
     4
  0
VERTEX
  5
AF8
  8
0
 10
0.0
 20
0.0
 30
0.0
 70
   128
 71
     4
 72
     5
 73
     6
  0
VERTEX
  5
AF9
  8
0
 10
0.0
 20
0.0
 30
0.0
 70
   128
 71
     7
 72
     3
 73
     2
  0
VERTEX
  5
AFA
  8
0
 10
0.0
 20
0.0
 30
0.0
 70
   128
 71
     7
 72
     2
 73
     8
  0
VERTEX
  5
AFB
  8
0
 10
0.0
 20
0.0
 30
0.0
 70
   128
 71
     9
 72
    10
 73
    -4
  0
VERTEX
  5
AFC
  8
0
 10
0.0
 20
0.0
 30
0.0
 70
   128
 71
    -9
 72
     4
 73
     3
  0
VERTEX
  5
AFD
  8
0
 10
0.0
 20
0.0
 30
0.0
 70
   128
 71
    11
 72
    12
 73
     7
  0
VERTEX
  5
AFE
  8
0
 10
0.0
 20
0.0
 30
0.0
 70
   128
 71
    12
 72
     9
 73
    -3
  0
VERTEX
  5
AFF
  8
0
 10
0.0
 20
0.0
 30
0.0
 70
   128
 71
   -12
 72
     3
 73
     7
  0
VERTEX
  5
B00
  8
0
 10
0.0
 20
0.0
 30
0.0
 70
   128
 71
    13
 72
    14
 73
    10
  0
VERTEX
  5
B01
  8
0
 10
0.0
 20
0.0
 30
0.0
 70
   128
 71
    13
 72
    10
 73
     9
  0
VERTEX
  5
B02
  8
0
 10
0.0
 20
0.0
 30
0.0
 70
   128
 71
     9
 72
    15
 73
    13
  0
VERTEX
  5
B03
  8
0
 10
0.0
 20
0.0
 30
0.0
 70
   128
 71
    16
 72
    10
 73
    14
  0
VERTEX
  5
B04
  8
0
 10
0.0
 20
0.0
 30
0.0
 70
   128
 71
    16
 72
    14
 73
    17
  0
VERTEX
  5
B05
  8
0
 10
0.0
 20
0.0
 30
0.0
 70
   128
 71
    18
 72
    19
 73
    20
  0
VERTEX
  5
B06
  8
0
 10
0.0
 20
0.0
 30
0.0
 70
   128
 71
    21
 72
    15
 73
     9
  0
VERTEX
  5
B07
  8
0
 10
0.0
 20
0.0
 30
0.0
 70
   128
 71
    21
 72
     9
 73
    12
  0
VERTEX
  5
B08
  8
0
 10
0.0
 20
0.0
 30
0.0
 70
   128
 71
    12
 72
    19
 73
    21
  0
VERTEX
  5
B09
  8
0
 10
0.0
 20
0.0
 30
0.0
 70
   128
 71
    22
 72
    14
 73
    13
  0
VERTEX
  5
B0A
  8
0
 10
0.0
 20
0.0
 30
0.0
 70
   128
 71
    21
 72
    23
 73
    15
  0
VERTEX
  5
B0B
  8
0
 10
0.0
 20
0.0
 30
0.0
 70
   128
 71
    24
 72
    19
 73
    18
  0
VERTEX
  5
B0C
  8
0
 10
0.0
 20
0.0
 30
0.0
 70
   128
 71
     4
 72
    10
 73
    16
  0
VERTEX
  5
B0D
  8
0
 10
0.0
 20
0.0
 30
0.0
 70
   128
 71
     4
 72
    16
 73
    25
  0
VERTEX
  5
B0E
  8
0
 10
0.0
 20
0.0
 30
0.0
 70
   128
 71
    20
 72
    19
 73
    12
  0
VERTEX
  5
B0F
  8
0
 10
0.0
 20
0.0
 30
0.0
 70
   128
 71
    20
 72
    12
 73
    11
  0
VERTEX
  5
B10
  8
0
 10
0.0
 20
0.0
 30
0.0
 70
   128
 71
    17
 72
    26
 73
    16
  0
VERTEX
  5
B11
  8
0
 10
0.0
 20
0.0
 30
0.0
 70
   128
 71
    27
 72
    18
 73
    20
  0
VERTEX
  5
B12
  8
0
 10
0.0
 20
0.0
 30
0.0
 70
   128
 71
     4
 72
    25
 73
     5
  0
VERTEX
  5
B13
  8
0
 10
0.0
 20
0.0
 30
0.0
 70
   128
 71
    11
 72
     7
 73
    28
  0
VERTEX
  5
B14
  8
0
 10
0.0
 20
0.0
 30
0.0
 70
   128
 71
    11
 72
    28
 73
    29
  0
VERTEX
  5
B15
  8
0
 10
0.0
 20
0.0
 30
0.0
 70
   128
 71
     1
 72
     4
 73
     6
  0
VERTEX
  5
B16
  8
0
 10
0.0
 20
0.0
 30
0.0
 70
   128
 71
    28
 72
     7
 73
     8
  0
VERTEX
  5
B17
  8
0
 10
0.0
 20
0.0
 30
0.0
 70
   128
 71
    22
 72
    30
 73
    17
  0
VERTEX
  5
B18
  8
0
 10
0.0
 20
0.0
 30
0.0
 70
   128
 71
    22
 72
    17
 73
    14
  0
VERTEX
  5
B19
  8
0
 10
0.0
 20
0.0
 30
0.0
 70
   128
 71
    30
 72
    26
 73
    17
  0
VERTEX
  5
B1A
  8
0
 10
0.0
 20
0.0
 30
0.0
 70
   128
 71
    15
 72
    23
 73
    22
  0
VERTEX
  5
B1B
  8
0
 10
0.0
 20
0.0
 30
0.0
 70
   128
 71
    15
 72
    22
 73
    13
  0
VERTEX
  5
B1C
  8
0
 10
0.0
 20
0.0
 30
0.0
 70
   128
 71
    24
 72
    31
 73
    21
  0
VERTEX
  5
B1D
  8
0
 10
0.0
 20
0.0
 30
0.0
 70
   128
 71
    24
 72
    21
 73
    19
  0
VERTEX
  5
B1E
  8
0
 10
0.0
 20
0.0
 30
0.0
 70
   128
 71
    31
 72
    23
 73
    21
  0
VERTEX
  5
B1F
  8
0
 10
0.0
 20
0.0
 30
0.0
 70
   128
 71
    27
 72
    24
 73
    18
  0
SEQEND
  5
F6F
  8
0
  0
POLYLINE
  5
B20
  8
0
 66
     1
 10
0.0
 20
0.0
 30
0.0
 70
    64
 71
    41
 72
    60
  0
VERTEX
  5
B21
  8
0
 10
87.50000000000007
 20
115.2956124593617
 30
-151.5544456622767
 70
   192
  0
VERTEX
  5
B22
  8
0
 10
124.4417027031059
 20
116.5333645405106
 30
-124.4417027031059
 70
   192
  0
VERTEX
  5
B23
  8
0
 10
67.3473641984734
 20
116.5333645405106
 30
-162.5909200380346
 70
   192
  0
VERTEX
  5
B24
  8
0
 10
162.5909200380346
 20
116.5333645405106
 30
-67.34736419847336
 70
   192
  0
VERTEX
  5
B25
  8
0
 10
175.0
 20
115.2956124593617
 30
0.0000000000000486
 70
   192
  0
VERTEX
  5
B26
  8
0
 10
175.987143687533
 20
116.5333645405106
 30
0.0000000000000108
 70
   192
  0
VERTEX
  5
B27
  8
0
 10
151.5544456622767
 20
115.2956124593617
 30
87.50000000000004
 70
   192
  0
VERTEX
  5
B28
  8
0
 10
124.4417027031059
 20
116.5333645405106
 30
124.4417027031059
 70
   192
  0
VERTEX
  5
B29
  8
0
 10
162.5909200380346
 20
116.5333645405106
 30
67.34736419847339
 70
   192
  0
VERTEX
  5
B2A
  8
0
 10
125.5114536606122
 20
117.0000000000006
 30
-125.5114536606122
 70
   192
  0
VERTEX
  5
B2B
  8
0
 10
67.92630924480346
 20
117.0000000000006
 30
-163.9886170207534
 70
   192
  0
VERTEX
  5
B2C
  8
0
 10
0.0000000000000217
 20
117.0000000000006
 30
-177.5
 70
   192
  0
VERTEX
  5
B2D
  8
0
 10
0.0000000000000216
 20
116.5333645405106
 30
-175.987143687533
 70
   192
  0
VERTEX
  5
B2E
  8
0
 10
177.5
 20
117.0000000000006
 30
0.0000000000000109
 70
   192
  0
VERTEX
  5
B2F
  8
0
 10
163.9886170207534
 20
117.0000000000006
 30
-67.92630924480342
 70
   192
  0
VERTEX
  5
B30
  8
0
 10
125.5114536606122
 20
117.0000000000006
 30
125.5114536606122
 70
   192
  0
VERTEX
  5
B31
  8
0
 10
163.9886170207534
 20
117.0000000000006
 30
67.92630924480345
 70
   192
  0
VERTEX
  5
B32
  8
0
 10
67.34736419847337
 20
116.5333645405106
 30
162.5909200380346
 70
   192
  0
VERTEX
  5
B33
  8
0
 10
0.0
 20
116.5333645405106
 30
175.987143687533
 70
   192
  0
VERTEX
  5
B34
  8
0
 10
0.0
 20
117.0000000000006
 30
177.5
 70
   192
  0
VERTEX
  5
B35
  8
0
 10
67.92630924480343
 20
117.0000000000006
 30
163.9886170207534
 70
   192
  0
VERTEX
  5
B36
  8
0
 10
126.5812046181185
 20
116.5333645405106
 30
-126.5812046181185
 70
   192
  0
VERTEX
  5
B37
  8
0
 10
68.50525429113354
 20
116.5333645405106
 30
-165.3863140034722
 70
   192
  0
VERTEX
  5
B38
  8
0
 10
0.0000000000000219
 20
116.5333645405106
 30
-179.012856312467
 70
   192
  0
VERTEX
  5
B39
  8
0
 10
179.012856312467
 20
116.5333645405106
 30
0.000000000000011
 70
   192
  0
VERTEX
  5
B3A
  8
0
 10
165.3863140034722
 20
116.5333645405106
 30
-68.5052542911335
 70
   192
  0
VERTEX
  5
B3B
  8
0
 10
126.5812046181185
 20
116.5333645405106
 30
126.5812046181185
 70
   192
  0
VERTEX
  5
B3C
  8
0
 10
165.3863140034722
 20
116.5333645405106
 30
68.50525429113353
 70
   192
  0
VERTEX
  5
B3D
  8
0
 10
0.0
 20
116.5333645405106
 30
179.012856312467
 70
   192
  0
VERTEX
  5
B3E
  8
0
 10
68.50525429113351
 20
116.5333645405106
 30
165.3863140034722
 70
   192
  0
VERTEX
  5
B3F
  8
0
 10
155.884572681199
 20
115.2956124593617
 30
-89.99999999999996
 70
   192
  0
VERTEX
  5
B40
  8
0
 10
180.0
 20
115.2956124593617
 30
0.00000000000005
 70
   192
  0
VERTEX
  5
B41
  8
0
 10
0.0
 20
115.2956124593617
 30
180.0
 70
   192
  0
VERTEX
  5
B42
  8
0
 10
90.0
 20
115.2956124593617
 30
155.884572681199
 70
   192
  0
VERTEX
  5
B43
  8
0
 10
151.5544456622768
 20
115.2956124593617
 30
-87.49999999999996
 70
   192
  0
VERTEX
  5
B44
  8
0
 10
0.0000000000000214
 20
115.2956124593617
 30
-175.0
 70
   192
  0
VERTEX
  5
B45
  8
0
 10
87.49999999999999
 20
115.2956124593617
 30
151.5544456622768
 70
   192
  0
VERTEX
  5
B46
  8
0
 10
0.0
 20
115.2956124593617
 30
175.0
 70
   192
  0
VERTEX
  5
B47
  8
0
 10
90.0000000000001
 20
115.2956124593617
 30
-155.884572681199
 70
   192
  0
VERTEX
  5
B48
  8
0
 10
0.0000000000000999
 20
115.2956124593617
 30
-180.0
 70
   192
  0
VERTEX
  5
B49
  8
0
 10
155.884572681199
 20
115.2956124593617
 30
90.00000000000006
 70
   192
  0
VERTEX
  5
B4A
  8
0
 10
0.0
 20
0.0
 30
0.0
 70
   128
 71
     1
 72
     2
 73
     3
  0
VERTEX
  5
B4B
  8
0
 10
0.0
 20
0.0
 30
0.0
 70
   128
 71
     4
 72
     5
 73
     6
  0
VERTEX
  5
B4C
  8
0
 10
0.0
 20
0.0
 30
0.0
 70
   128
 71
     7
 72
     8
 73
     9
  0
VERTEX
  5
B4D
  8
0
 10
0.0
 20
0.0
 30
0.0
 70
   128
 71
    10
 72
    11
 73
    -3
  0
VERTEX
  5
B4E
  8
0
 10
0.0
 20
0.0
 30
0.0
 70
   128
 71
   -10
 72
     3
 73
     2
  0
VERTEX
  5
B4F
  8
0
 10
0.0
 20
0.0
 30
0.0
 70
   128
 71
    11
 72
    12
 73
   -13
  0
VERTEX
  5
B50
  8
0
 10
0.0
 20
0.0
 30
0.0
 70
   128
 71
   -11
 72
    13
 73
     3
  0
VERTEX
  5
B51
  8
0
 10
0.0
 20
0.0
 30
0.0
 70
   128
 71
    14
 72
    15
 73
    -4
  0
VERTEX
  5
B52
  8
0
 10
0.0
 20
0.0
 30
0.0
 70
   128
 71
   -14
 72
     4
 73
     6
  0
VERTEX
  5
B53
  8
0
 10
0.0
 20
0.0
 30
0.0
 70
   128
 71
    15
 72
    10
 73
    -2
  0
VERTEX
  5
B54
  8
0
 10
0.0
 20
0.0
 30
0.0
 70
   128
 71
   -15
 72
     2
 73
     4
  0
VERTEX
  5
B55
  8
0
 10
0.0
 20
0.0
 30
0.0
 70
   128
 71
    16
 72
    17
 73
    -9
  0
VERTEX
  5
B56
  8
0
 10
0.0
 20
0.0
 30
0.0
 70
   128
 71
   -16
 72
     9
 73
     8
  0
VERTEX
  5
B57
  8
0
 10
0.0
 20
0.0
 30
0.0
 70
   128
 71
    17
 72
    14
 73
    -6
  0
VERTEX
  5
B58
  8
0
 10
0.0
 20
0.0
 30
0.0
 70
   128
 71
   -17
 72
     6
 73
     9
  0
VERTEX
  5
B59
  8
0
 10
0.0
 20
0.0
 30
0.0
 70
   128
 71
    18
 72
    19
 73
   -20
  0
VERTEX
  5
B5A
  8
0
 10
0.0
 20
0.0
 30
0.0
 70
   128
 71
   -18
 72
    20
 73
    21
  0
VERTEX
  5
B5B
  8
0
 10
0.0
 20
0.0
 30
0.0
 70
   128
 71
    21
 72
    16
 73
    -8
  0
VERTEX
  5
B5C
  8
0
 10
0.0
 20
0.0
 30
0.0
 70
   128
 71
   -21
 72
     8
 73
    18
  0
VERTEX
  5
B5D
  8
0
 10
0.0
 20
0.0
 30
0.0
 70
   128
 71
    22
 72
    23
 73
   -11
  0
VERTEX
  5
B5E
  8
0
 10
0.0
 20
0.0
 30
0.0
 70
   128
 71
   -22
 72
    11
 73
    10
  0
VERTEX
  5
B5F
  8
0
 10
0.0
 20
0.0
 30
0.0
 70
   128
 71
    23
 72
    24
 73
   -12
  0
VERTEX
  5
B60
  8
0
 10
0.0
 20
0.0
 30
0.0
 70
   128
 71
   -23
 72
    12
 73
    11
  0
VERTEX
  5
B61
  8
0
 10
0.0
 20
0.0
 30
0.0
 70
   128
 71
    25
 72
    26
 73
   -15
  0
VERTEX
  5
B62
  8
0
 10
0.0
 20
0.0
 30
0.0
 70
   128
 71
   -25
 72
    15
 73
    14
  0
VERTEX
  5
B63
  8
0
 10
0.0
 20
0.0
 30
0.0
 70
   128
 71
    26
 72
    22
 73
   -10
  0
VERTEX
  5
B64
  8
0
 10
0.0
 20
0.0
 30
0.0
 70
   128
 71
   -26
 72
    10
 73
    15
  0
VERTEX
  5
B65
  8
0
 10
0.0
 20
0.0
 30
0.0
 70
   128
 71
    27
 72
    28
 73
   -17
  0
VERTEX
  5
B66
  8
0
 10
0.0
 20
0.0
 30
0.0
 70
   128
 71
   -27
 72
    17
 73
    16
  0
VERTEX
  5
B67
  8
0
 10
0.0
 20
0.0
 30
0.0
 70
   128
 71
    28
 72
    25
 73
   -14
  0
VERTEX
  5
B68
  8
0
 10
0.0
 20
0.0
 30
0.0
 70
   128
 71
   -28
 72
    14
 73
    17
  0
VERTEX
  5
B69
  8
0
 10
0.0
 20
0.0
 30
0.0
 70
   128
 71
    21
 72
    20
 73
   -29
  0
VERTEX
  5
B6A
  8
0
 10
0.0
 20
0.0
 30
0.0
 70
   128
 71
   -21
 72
    29
 73
    30
  0
VERTEX
  5
B6B
  8
0
 10
0.0
 20
0.0
 30
0.0
 70
   128
 71
    30
 72
    27
 73
   -16
  0
VERTEX
  5
B6C
  8
0
 10
0.0
 20
0.0
 30
0.0
 70
   128
 71
   -30
 72
    16
 73
    21
  0
VERTEX
  5
B6D
  8
0
 10
0.0
 20
0.0
 30
0.0
 70
   128
 71
    31
 72
    22
 73
    26
  0
VERTEX
  5
B6E
  8
0
 10
0.0
 20
0.0
 30
0.0
 70
   128
 71
    28
 72
    32
 73
    25
  0
VERTEX
  5
B6F
  8
0
 10
0.0
 20
0.0
 30
0.0
 70
   128
 71
    30
 72
    29
 73
    33
  0
VERTEX
  5
B70
  8
0
 10
0.0
 20
0.0
 30
0.0
 70
   128
 71
    34
 72
    27
 73
    30
  0
VERTEX
  5
B71
  8
0
 10
0.0
 20
0.0
 30
0.0
 70
   128
 71
    35
 72
     4
 73
     2
  0
VERTEX
  5
B72
  8
0
 10
0.0
 20
0.0
 30
0.0
 70
   128
 71
    35
 72
     2
 73
     1
  0
VERTEX
  5
B73
  8
0
 10
0.0
 20
0.0
 30
0.0
 70
   128
 71
     1
 72
     3
 73
    13
  0
VERTEX
  5
B74
  8
0
 10
0.0
 20
0.0
 30
0.0
 70
   128
 71
     1
 72
    13
 73
    36
  0
VERTEX
  5
B75
  8
0
 10
0.0
 20
0.0
 30
0.0
 70
   128
 71
     5
 72
     4
 73
    35
  0
VERTEX
  5
B76
  8
0
 10
0.0
 20
0.0
 30
0.0
 70
   128
 71
    37
 72
    18
 73
     8
  0
VERTEX
  5
B77
  8
0
 10
0.0
 20
0.0
 30
0.0
 70
   128
 71
    37
 72
     8
 73
     7
  0
VERTEX
  5
B78
  8
0
 10
0.0
 20
0.0
 30
0.0
 70
   128
 71
     7
 72
     9
 73
     6
  0
VERTEX
  5
B79
  8
0
 10
0.0
 20
0.0
 30
0.0
 70
   128
 71
     7
 72
     6
 73
     5
  0
VERTEX
  5
B7A
  8
0
 10
0.0
 20
0.0
 30
0.0
 70
   128
 71
    38
 72
    19
 73
    18
  0
VERTEX
  5
B7B
  8
0
 10
0.0
 20
0.0
 30
0.0
 70
   128
 71
    38
 72
    18
 73
    37
  0
VERTEX
  5
B7C
  8
0
 10
0.0
 20
0.0
 30
0.0
 70
   128
 71
    31
 72
    39
 73
    23
  0
VERTEX
  5
B7D
  8
0
 10
0.0
 20
0.0
 30
0.0
 70
   128
 71
    31
 72
    23
 73
    22
  0
VERTEX
  5
B7E
  8
0
 10
0.0
 20
0.0
 30
0.0
 70
   128
 71
    39
 72
    40
 73
    24
  0
VERTEX
  5
B7F
  8
0
 10
0.0
 20
0.0
 30
0.0
 70
   128
 71
    39
 72
    24
 73
    23
  0
VERTEX
  5
B80
  8
0
 10
0.0
 20
0.0
 30
0.0
 70
   128
 71
    25
 72
    32
 73
    31
  0
VERTEX
  5
B81
  8
0
 10
0.0
 20
0.0
 30
0.0
 70
   128
 71
    25
 72
    31
 73
    26
  0
VERTEX
  5
B82
  8
0
 10
0.0
 20
0.0
 30
0.0
 70
   128
 71
    34
 72
    41
 73
    28
  0
VERTEX
  5
B83
  8
0
 10
0.0
 20
0.0
 30
0.0
 70
   128
 71
    34
 72
    28
 73
    27
  0
VERTEX
  5
B84
  8
0
 10
0.0
 20
0.0
 30
0.0
 70
   128
 71
    41
 72
    32
 73
    28
  0
VERTEX
  5
B85
  8
0
 10
0.0
 20
0.0
 30
0.0
 70
   128
 71
    33
 72
    34
 73
    30
  0
SEQEND
  5
F70
  8
0
  0
POLYLINE
  5
B86
  8
0
 66
     1
 10
0.0
 20
0.0
 30
0.0
 70
    64
 71
    41
 72
    60
  0
VERTEX
  5
B87
  8
0
 10
-87.5000000000001
 20
115.2956124593617
 30
151.5544456622767
 70
   192
  0
VERTEX
  5
B88
  8
0
 10
-124.4417027031059
 20
116.5333645405106
 30
124.4417027031059
 70
   192
  0
VERTEX
  5
B89
  8
0
 10
-67.34736419847349
 20
116.5333645405106
 30
162.5909200380346
 70
   192
  0
VERTEX
  5
B8A
  8
0
 10
-162.5909200380346
 20
116.5333645405106
 30
67.34736419847341
 70
   192
  0
VERTEX
  5
B8B
  8
0
 10
-175.0
 20
115.2956124593617
 30
-0.000000000000068
 70
   192
  0
VERTEX
  5
B8C
  8
0
 10
-175.987143687533
 20
116.5333645405106
 30
-0.0000000000000323
 70
   192
  0
VERTEX
  5
B8D
  8
0
 10
-151.5544456622767
 20
115.2956124593617
 30
-87.50000000000006
 70
   192
  0
VERTEX
  5
B8E
  8
0
 10
-124.4417027031059
 20
116.5333645405106
 30
-124.4417027031059
 70
   192
  0
VERTEX
  5
B8F
  8
0
 10
-162.5909200380346
 20
116.5333645405106
 30
-67.34736419847347
 70
   192
  0
VERTEX
  5
B90
  8
0
 10
-67.34736419847336
 20
116.5333645405106
 30
-162.5909200380347
 70
   192
  0
VERTEX
  5
B91
  8
0
 10
0.0000000000000214
 20
115.2956124593617
 30
-175.0
 70
   192
  0
VERTEX
  5
B92
  8
0
 10
0.0000000000000216
 20
116.5333645405106
 30
-175.987143687533
 70
   192
  0
VERTEX
  5
B93
  8
0
 10
-125.5114536606122
 20
117.0000000000006
 30
125.5114536606122
 70
   192
  0
VERTEX
  5
B94
  8
0
 10
-67.92630924480355
 20
117.0000000000006
 30
163.9886170207534
 70
   192
  0
VERTEX
  5
B95
  8
0
 10
0.0
 20
117.0000000000006
 30
177.5
 70
   192
  0
VERTEX
  5
B96
  8
0
 10
0.0
 20
116.5333645405106
 30
175.987143687533
 70
   192
  0
VERTEX
  5
B97
  8
0
 10
-177.5
 20
117.0000000000006
 30
-0.0000000000000326
 70
   192
  0
VERTEX
  5
B98
  8
0
 10
-163.9886170207534
 20
117.0000000000006
 30
67.92630924480348
 70
   192
  0
VERTEX
  5
B99
  8
0
 10
-125.5114536606122
 20
117.0000000000006
 30
-125.5114536606122
 70
   192
  0
VERTEX
  5
B9A
  8
0
 10
-163.9886170207534
 20
117.0000000000006
 30
-67.92630924480353
 70
   192
  0
VERTEX
  5
B9B
  8
0
 10
0.0000000000000217
 20
117.0000000000006
 30
-177.5
 70
   192
  0
VERTEX
  5
B9C
  8
0
 10
-67.92630924480342
 20
117.0000000000006
 30
-163.9886170207534
 70
   192
  0
VERTEX
  5
B9D
  8
0
 10
-126.5812046181185
 20
116.5333645405106
 30
126.5812046181185
 70
   192
  0
VERTEX
  5
B9E
  8
0
 10
-68.50525429113362
 20
116.5333645405106
 30
165.3863140034721
 70
   192
  0
VERTEX
  5
B9F
  8
0
 10
0.0
 20
116.5333645405106
 30
179.012856312467
 70
   192
  0
VERTEX
  5
BA0
  8
0
 10
-179.012856312467
 20
116.5333645405106
 30
-0.0000000000000329
 70
   192
  0
VERTEX
  5
BA1
  8
0
 10
-165.3863140034721
 20
116.5333645405106
 30
68.50525429113355
 70
   192
  0
VERTEX
  5
BA2
  8
0
 10
-126.5812046181185
 20
116.5333645405106
 30
-126.5812046181185
 70
   192
  0
VERTEX
  5
BA3
  8
0
 10
-165.3863140034721
 20
116.5333645405106
 30
-68.50525429113361
 70
   192
  0
VERTEX
  5
BA4
  8
0
 10
0.0000000000000219
 20
116.5333645405106
 30
-179.012856312467
 70
   192
  0
VERTEX
  5
BA5
  8
0
 10
-68.5052542911335
 20
116.5333645405106
 30
-165.3863140034722
 70
   192
  0
VERTEX
  5
BA6
  8
0
 10
-155.884572681199
 20
115.2956124593617
 30
89.99999999999994
 70
   192
  0
VERTEX
  5
BA7
  8
0
 10
-180.0
 20
115.2956124593617
 30
-0.0000000000000699
 70
   192
  0
VERTEX
  5
BA8
  8
0
 10
-89.99999999999999
 20
115.2956124593617
 30
-155.884572681199
 70
   192
  0
VERTEX
  5
BA9
  8
0
 10
-151.5544456622768
 20
115.2956124593617
 30
87.49999999999993
 70
   192
  0
VERTEX
  5
BAA
  8
0
 10
0.0
 20
115.2956124593617
 30
175.0
 70
   192
  0
VERTEX
  5
BAB
  8
0
 10
-87.49999999999997
 20
115.2956124593617
 30
-151.5544456622768
 70
   192
  0
VERTEX
  5
BAC
  8
0
 10
-90.00000000000011
 20
115.2956124593617
 30
155.8845726811989
 70
   192
  0
VERTEX
  5
BAD
  8
0
 10
-0.0000000000001299
 20
115.2956124593617
 30
180.0
 70
   192
  0
VERTEX
  5
BAE
  8
0
 10
-155.884572681199
 20
115.2956124593617
 30
-90.00000000000007
 70
   192
  0
VERTEX
  5
BAF
  8
0
 10
0.000000000000022
 20
115.2956124593617
 30
-180.0
 70
   192
  0
VERTEX
  5
BB0
  8
0
 10
0.0
 20
0.0
 30
0.0
 70
   128
 71
     1
 72
     2
 73
     3
  0
VERTEX
  5
BB1
  8
0
 10
0.0
 20
0.0
 30
0.0
 70
   128
 71
     4
 72
     5
 73
     6
  0
VERTEX
  5
BB2
  8
0
 10
0.0
 20
0.0
 30
0.0
 70
   128
 71
     7
 72
     8
 73
     9
  0
VERTEX
  5
BB3
  8
0
 10
0.0
 20
0.0
 30
0.0
 70
   128
 71
    10
 72
    11
 73
    12
  0
VERTEX
  5
BB4
  8
0
 10
0.0
 20
0.0
 30
0.0
 70
   128
 71
    13
 72
    14
 73
    -3
  0
VERTEX
  5
BB5
  8
0
 10
0.0
 20
0.0
 30
0.0
 70
   128
 71
   -13
 72
     3
 73
     2
  0
VERTEX
  5
BB6
  8
0
 10
0.0
 20
0.0
 30
0.0
 70
   128
 71
    14
 72
    15
 73
   -16
  0
VERTEX
  5
BB7
  8
0
 10
0.0
 20
0.0
 30
0.0
 70
   128
 71
   -14
 72
    16
 73
     3
  0
VERTEX
  5
BB8
  8
0
 10
0.0
 20
0.0
 30
0.0
 70
   128
 71
    17
 72
    18
 73
    -4
  0
VERTEX
  5
BB9
  8
0
 10
0.0
 20
0.0
 30
0.0
 70
   128
 71
   -17
 72
     4
 73
     6
  0
VERTEX
  5
BBA
  8
0
 10
0.0
 20
0.0
 30
0.0
 70
   128
 71
    18
 72
    13
 73
    -2
  0
VERTEX
  5
BBB
  8
0
 10
0.0
 20
0.0
 30
0.0
 70
   128
 71
   -18
 72
     2
 73
     4
  0
VERTEX
  5
BBC
  8
0
 10
0.0
 20
0.0
 30
0.0
 70
   128
 71
    19
 72
    20
 73
    -9
  0
VERTEX
  5
BBD
  8
0
 10
0.0
 20
0.0
 30
0.0
 70
   128
 71
   -19
 72
     9
 73
     8
  0
VERTEX
  5
BBE
  8
0
 10
0.0
 20
0.0
 30
0.0
 70
   128
 71
    20
 72
    17
 73
    -6
  0
VERTEX
  5
BBF
  8
0
 10
0.0
 20
0.0
 30
0.0
 70
   128
 71
   -20
 72
     6
 73
     9
  0
VERTEX
  5
BC0
  8
0
 10
0.0
 20
0.0
 30
0.0
 70
   128
 71
    10
 72
    12
 73
   -21
  0
VERTEX
  5
BC1
  8
0
 10
0.0
 20
0.0
 30
0.0
 70
   128
 71
   -10
 72
    21
 73
    22
  0
VERTEX
  5
BC2
  8
0
 10
0.0
 20
0.0
 30
0.0
 70
   128
 71
    22
 72
    19
 73
    -8
  0
VERTEX
  5
BC3
  8
0
 10
0.0
 20
0.0
 30
0.0
 70
   128
 71
   -22
 72
     8
 73
    10
  0
VERTEX
  5
BC4
  8
0
 10
0.0
 20
0.0
 30
0.0
 70
   128
 71
    23
 72
    24
 73
   -14
  0
VERTEX
  5
BC5
  8
0
 10
0.0
 20
0.0
 30
0.0
 70
   128
 71
   -23
 72
    14
 73
    13
  0
VERTEX
  5
BC6
  8
0
 10
0.0
 20
0.0
 30
0.0
 70
   128
 71
    24
 72
    25
 73
   -15
  0
VERTEX
  5
BC7
  8
0
 10
0.0
 20
0.0
 30
0.0
 70
   128
 71
   -24
 72
    15
 73
    14
  0
VERTEX
  5
BC8
  8
0
 10
0.0
 20
0.0
 30
0.0
 70
   128
 71
    26
 72
    27
 73
   -18
  0
VERTEX
  5
BC9
  8
0
 10
0.0
 20
0.0
 30
0.0
 70
   128
 71
   -26
 72
    18
 73
    17
  0
VERTEX
  5
BCA
  8
0
 10
0.0
 20
0.0
 30
0.0
 70
   128
 71
    27
 72
    23
 73
   -13
  0
VERTEX
  5
BCB
  8
0
 10
0.0
 20
0.0
 30
0.0
 70
   128
 71
   -27
 72
    13
 73
    18
  0
VERTEX
  5
BCC
  8
0
 10
0.0
 20
0.0
 30
0.0
 70
   128
 71
    28
 72
    29
 73
   -20
  0
VERTEX
  5
BCD
  8
0
 10
0.0
 20
0.0
 30
0.0
 70
   128
 71
   -28
 72
    20
 73
    19
  0
VERTEX
  5
BCE
  8
0
 10
0.0
 20
0.0
 30
0.0
 70
   128
 71
    29
 72
    26
 73
   -17
  0
VERTEX
  5
BCF
  8
0
 10
0.0
 20
0.0
 30
0.0
 70
   128
 71
   -29
 72
    17
 73
    20
  0
VERTEX
  5
BD0
  8
0
 10
0.0
 20
0.0
 30
0.0
 70
   128
 71
    22
 72
    21
 73
   -30
  0
VERTEX
  5
BD1
  8
0
 10
0.0
 20
0.0
 30
0.0
 70
   128
 71
   -22
 72
    30
 73
    31
  0
VERTEX
  5
BD2
  8
0
 10
0.0
 20
0.0
 30
0.0
 70
   128
 71
    31
 72
    28
 73
   -19
  0
VERTEX
  5
BD3
  8
0
 10
0.0
 20
0.0
 30
0.0
 70
   128
 71
   -31
 72
    19
 73
    22
  0
VERTEX
  5
BD4
  8
0
 10
0.0
 20
0.0
 30
0.0
 70
   128
 71
    32
 72
    23
 73
    27
  0
VERTEX
  5
BD5
  8
0
 10
0.0
 20
0.0
 30
0.0
 70
   128
 71
    29
 72
    33
 73
    26
  0
VERTEX
  5
BD6
  8
0
 10
0.0
 20
0.0
 30
0.0
 70
   128
 71
    34
 72
    28
 73
    31
  0
VERTEX
  5
BD7
  8
0
 10
0.0
 20
0.0
 30
0.0
 70
   128
 71
    35
 72
     4
 73
     2
  0
VERTEX
  5
BD8
  8
0
 10
0.0
 20
0.0
 30
0.0
 70
   128
 71
    35
 72
     2
 73
     1
  0
VERTEX
  5
BD9
  8
0
 10
0.0
 20
0.0
 30
0.0
 70
   128
 71
     1
 72
     3
 73
    16
  0
VERTEX
  5
BDA
  8
0
 10
0.0
 20
0.0
 30
0.0
 70
   128
 71
     1
 72
    16
 73
    36
  0
VERTEX
  5
BDB
  8
0
 10
0.0
 20
0.0
 30
0.0
 70
   128
 71
     5
 72
     4
 73
    35
  0
VERTEX
  5
BDC
  8
0
 10
0.0
 20
0.0
 30
0.0
 70
   128
 71
    37
 72
    10
 73
     8
  0
VERTEX
  5
BDD
  8
0
 10
0.0
 20
0.0
 30
0.0
 70
   128
 71
    37
 72
     8
 73
     7
  0
VERTEX
  5
BDE
  8
0
 10
0.0
 20
0.0
 30
0.0
 70
   128
 71
     7
 72
     9
 73
     6
  0
VERTEX
  5
BDF
  8
0
 10
0.0
 20
0.0
 30
0.0
 70
   128
 71
     7
 72
     6
 73
     5
  0
VERTEX
  5
BE0
  8
0
 10
0.0
 20
0.0
 30
0.0
 70
   128
 71
    11
 72
    10
 73
    37
  0
VERTEX
  5
BE1
  8
0
 10
0.0
 20
0.0
 30
0.0
 70
   128
 71
    32
 72
    38
 73
    24
  0
VERTEX
  5
BE2
  8
0
 10
0.0
 20
0.0
 30
0.0
 70
   128
 71
    32
 72
    24
 73
    23
  0
VERTEX
  5
BE3
  8
0
 10
0.0
 20
0.0
 30
0.0
 70
   128
 71
    38
 72
    39
 73
    25
  0
VERTEX
  5
BE4
  8
0
 10
0.0
 20
0.0
 30
0.0
 70
   128
 71
    38
 72
    25
 73
    24
  0
VERTEX
  5
BE5
  8
0
 10
0.0
 20
0.0
 30
0.0
 70
   128
 71
    26
 72
    33
 73
    32
  0
VERTEX
  5
BE6
  8
0
 10
0.0
 20
0.0
 30
0.0
 70
   128
 71
    26
 72
    32
 73
    27
  0
VERTEX
  5
BE7
  8
0
 10
0.0
 20
0.0
 30
0.0
 70
   128
 71
    34
 72
    40
 73
    29
  0
VERTEX
  5
BE8
  8
0
 10
0.0
 20
0.0
 30
0.0
 70
   128
 71
    34
 72
    29
 73
    28
  0
VERTEX
  5
BE9
  8
0
 10
0.0
 20
0.0
 30
0.0
 70
   128
 71
    40
 72
    33
 73
    29
  0
VERTEX
  5
BEA
  8
0
 10
0.0
 20
0.0
 30
0.0
 70
   128
 71
    30
 72
    41
 73
    34
  0
VERTEX
  5
BEB
  8
0
 10
0.0
 20
0.0
 30
0.0
 70
   128
 71
    30
 72
    34
 73
    31
  0
SEQEND
  5
F71
  8
0
  0
POLYLINE
  5
BEC
  8
0
 66
     1
 10
0.0
 20
0.0
 30
0.0
 70
    64
 71
    31
 72
    42
  0
VERTEX
  5
BED
  8
0
 10
-143.6102868475252
 20
72.56355551009484
 30
82.91343776981795
 70
   192
  0
VERTEX
  5
BEE
  8
0
 10
-165.826875539636
 20
72.56355551009484
 30
-0.0000000000000644
 70
   192
  0
VERTEX
  5
BEF
  8
0
 10
-166.8077047329064
 20
83.49127964218539
 30
-0.0000000000000306
 70
   192
  0
VERTEX
  5
BF0
  8
0
 10
-117.9508591708015
 20
83.49127964218539
 30
117.9508591708014
 70
   192
  0
VERTEX
  5
BF1
  8
0
 10
0.0
 20
72.56355551009483
 30
165.826875539636
 70
   192
  0
VERTEX
  5
BF2
  8
0
 10
-82.9134377698181
 20
72.56355551009484
 30
143.6102868475251
 70
   192
  0
VERTEX
  5
BF3
  8
0
 10
-117.9508591708015
 20
83.49127964218539
 30
-117.9508591708015
 70
   192
  0
VERTEX
  5
BF4
  8
0
 10
-143.6102868475251
 20
72.56355551009484
 30
-82.91343776981807
 70
   192
  0
VERTEX
  5
BF5
  8
0
 10
-168.6726737650819
 20
94.3032670229804
 30
-0.000000000000031
 70
   192
  0
VERTEX
  5
BF6
  8
0
 10
-119.2695914201557
 20
94.3032670229804
 30
119.2695914201557
 70
   192
  0
VERTEX
  5
BF7
  8
0
 10
0.0000000000000205
 20
87.11168196894991
 30
-167.3316120817814
 70
   192
  0
VERTEX
  5
BF8
  8
0
 10
-119.2695914201557
 20
94.3032670229804
 30
-119.2695914201557
 70
   192
  0
VERTEX
  5
BF9
  8
0
 10
-158.3616958449811
 20
104.9281038495868
 30
65.59556217939424
 70
   192
  0
VERTEX
  5
BFA
  8
0
 10
-121.2047946422275
 20
104.9281038495868
 30
121.2047946422275
 70
   192
  0
VERTEX
  5
BFB
  8
0
 10
-171.409464407684
 20
104.9281038495868
 30
-0.0000000000000315
 70
   192
  0
VERTEX
  5
BFC
  8
0
 10
0.0
 20
101.4116485980113
 30
170.4013302987904
 70
   192
  0
VERTEX
  5
BFD
  8
0
 10
-65.5955621793943
 20
104.9281038495868
 30
158.3616958449811
 70
   192
  0
VERTEX
  5
BFE
  8
0
 10
-65.5955621793942
 20
104.9281038495868
 30
-158.3616958449811
 70
   192
  0
VERTEX
  5
BFF
  8
0
 10
-121.2047946422275
 20
104.9281038495868
 30
-121.2047946422275
 70
   192
  0
VERTEX
  5
C00
  8
0
 10
0.0000000000000209
 20
101.4116485980113
 30
-170.4013302987904
 70
   192
  0
VERTEX
  5
C01
  8
0
 10
-158.3616958449811
 20
104.9281038495868
 30
-65.5955621793943
 70
   192
  0
VERTEX
  5
C02
  8
0
 10
-151.5544456622768
 20
115.2956124593617
 30
87.49999999999993
 70
   192
  0
VERTEX
  5
C03
  8
0
 10
-175.0
 20
115.2956124593617
 30
-0.000000000000068
 70
   192
  0
VERTEX
  5
C04
  8
0
 10
-87.49999999999997
 20
115.2956124593617
 30
-151.5544456622768
 70
   192
  0
VERTEX
  5
C05
  8
0
 10
0.0
 20
87.11168196894991
 30
167.3316120817814
 70
   192
  0
VERTEX
  5
C06
  8
0
 10
-0.0000000000001263
 20
115.2956124593617
 30
175.0
 70
   192
  0
VERTEX
  5
C07
  8
0
 10
0.0000000000000214
 20
115.2956124593617
 30
-175.0
 70
   192
  0
VERTEX
  5
C08
  8
0
 10
-82.91343776981799
 20
72.56355551009484
 30
-143.6102868475252
 70
   192
  0
VERTEX
  5
C09
  8
0
 10
0.0000000000000203
 20
72.56355551009484
 30
-165.826875539636
 70
   192
  0
VERTEX
  5
C0A
  8
0
 10
-87.5000000000001
 20
115.2956124593617
 30
151.5544456622767
 70
   192
  0
VERTEX
  5
C0B
  8
0
 10
-151.5544456622767
 20
115.2956124593617
 30
-87.50000000000006
 70
   192
  0
VERTEX
  5
C0C
  8
0
 10
0.0
 20
0.0
 30
0.0
 70
   128
 71
     1
 72
     2
 73
     3
  0
VERTEX
  5
C0D
  8
0
 10
0.0
 20
0.0
 30
0.0
 70
   128
 71
     1
 72
     3
 73
     4
  0
VERTEX
  5
C0E
  8
0
 10
0.0
 20
0.0
 30
0.0
 70
   128
 71
     4
 72
     5
 73
     6
  0
VERTEX
  5
C0F
  8
0
 10
0.0
 20
0.0
 30
0.0
 70
   128
 71
     7
 72
     3
 73
     2
  0
VERTEX
  5
C10
  8
0
 10
0.0
 20
0.0
 30
0.0
 70
   128
 71
     7
 72
     2
 73
     8
  0
VERTEX
  5
C11
  8
0
 10
0.0
 20
0.0
 30
0.0
 70
   128
 71
     9
 72
    10
 73
    -4
  0
VERTEX
  5
C12
  8
0
 10
0.0
 20
0.0
 30
0.0
 70
   128
 71
    -9
 72
     4
 73
     3
  0
VERTEX
  5
C13
  8
0
 10
0.0
 20
0.0
 30
0.0
 70
   128
 71
    11
 72
    12
 73
     7
  0
VERTEX
  5
C14
  8
0
 10
0.0
 20
0.0
 30
0.0
 70
   128
 71
    12
 72
     9
 73
    -3
  0
VERTEX
  5
C15
  8
0
 10
0.0
 20
0.0
 30
0.0
 70
   128
 71
   -12
 72
     3
 73
     7
  0
VERTEX
  5
C16
  8
0
 10
0.0
 20
0.0
 30
0.0
 70
   128
 71
    13
 72
    14
 73
    10
  0
VERTEX
  5
C17
  8
0
 10
0.0
 20
0.0
 30
0.0
 70
   128
 71
    10
 72
     9
 73
    15
  0
VERTEX
  5
C18
  8
0
 10
0.0
 20
0.0
 30
0.0
 70
   128
 71
    10
 72
    15
 73
    13
  0
VERTEX
  5
C19
  8
0
 10
0.0
 20
0.0
 30
0.0
 70
   128
 71
    16
 72
    10
 73
    14
  0
VERTEX
  5
C1A
  8
0
 10
0.0
 20
0.0
 30
0.0
 70
   128
 71
    16
 72
    14
 73
    17
  0
VERTEX
  5
C1B
  8
0
 10
0.0
 20
0.0
 30
0.0
 70
   128
 71
    18
 72
    19
 73
    20
  0
VERTEX
  5
C1C
  8
0
 10
0.0
 20
0.0
 30
0.0
 70
   128
 71
    21
 72
    15
 73
     9
  0
VERTEX
  5
C1D
  8
0
 10
0.0
 20
0.0
 30
0.0
 70
   128
 71
    21
 72
     9
 73
    12
  0
VERTEX
  5
C1E
  8
0
 10
0.0
 20
0.0
 30
0.0
 70
   128
 71
    12
 72
    19
 73
    21
  0
VERTEX
  5
C1F
  8
0
 10
0.0
 20
0.0
 30
0.0
 70
   128
 71
    22
 72
    14
 73
    13
  0
VERTEX
  5
C20
  8
0
 10
0.0
 20
0.0
 30
0.0
 70
   128
 71
    21
 72
    23
 73
    15
  0
VERTEX
  5
C21
  8
0
 10
0.0
 20
0.0
 30
0.0
 70
   128
 71
    24
 72
    19
 73
    18
  0
VERTEX
  5
C22
  8
0
 10
0.0
 20
0.0
 30
0.0
 70
   128
 71
     4
 72
    10
 73
    16
  0
VERTEX
  5
C23
  8
0
 10
0.0
 20
0.0
 30
0.0
 70
   128
 71
     4
 72
    16
 73
    25
  0
VERTEX
  5
C24
  8
0
 10
0.0
 20
0.0
 30
0.0
 70
   128
 71
    20
 72
    19
 73
    12
  0
VERTEX
  5
C25
  8
0
 10
0.0
 20
0.0
 30
0.0
 70
   128
 71
    20
 72
    12
 73
    11
  0
VERTEX
  5
C26
  8
0
 10
0.0
 20
0.0
 30
0.0
 70
   128
 71
    17
 72
    26
 73
    16
  0
VERTEX
  5
C27
  8
0
 10
0.0
 20
0.0
 30
0.0
 70
   128
 71
    27
 72
    18
 73
    20
  0
VERTEX
  5
C28
  8
0
 10
0.0
 20
0.0
 30
0.0
 70
   128
 71
     4
 72
    25
 73
     5
  0
VERTEX
  5
C29
  8
0
 10
0.0
 20
0.0
 30
0.0
 70
   128
 71
    11
 72
     7
 73
    28
  0
VERTEX
  5
C2A
  8
0
 10
0.0
 20
0.0
 30
0.0
 70
   128
 71
    11
 72
    28
 73
    29
  0
VERTEX
  5
C2B
  8
0
 10
0.0
 20
0.0
 30
0.0
 70
   128
 71
     1
 72
     4
 73
     6
  0
VERTEX
  5
C2C
  8
0
 10
0.0
 20
0.0
 30
0.0
 70
   128
 71
    28
 72
     7
 73
     8
  0
VERTEX
  5
C2D
  8
0
 10
0.0
 20
0.0
 30
0.0
 70
   128
 71
    22
 72
    30
 73
    17
  0
VERTEX
  5
C2E
  8
0
 10
0.0
 20
0.0
 30
0.0
 70
   128
 71
    22
 72
    17
 73
    14
  0
VERTEX
  5
C2F
  8
0
 10
0.0
 20
0.0
 30
0.0
 70
   128
 71
    30
 72
    26
 73
    17
  0
VERTEX
  5
C30
  8
0
 10
0.0
 20
0.0
 30
0.0
 70
   128
 71
    15
 72
    23
 73
    22
  0
VERTEX
  5
C31
  8
0
 10
0.0
 20
0.0
 30
0.0
 70
   128
 71
    15
 72
    22
 73
    13
  0
VERTEX
  5
C32
  8
0
 10
0.0
 20
0.0
 30
0.0
 70
   128
 71
    24
 72
    31
 73
    21
  0
VERTEX
  5
C33
  8
0
 10
0.0
 20
0.0
 30
0.0
 70
   128
 71
    24
 72
    21
 73
    19
  0
VERTEX
  5
C34
  8
0
 10
0.0
 20
0.0
 30
0.0
 70
   128
 71
    31
 72
    23
 73
    21
  0
VERTEX
  5
C35
  8
0
 10
0.0
 20
0.0
 30
0.0
 70
   128
 71
    27
 72
    24
 73
    18
  0
SEQEND
  5
F72
  8
0
  0
POLYLINE
  5
C36
  8
0
 66
     1
 10
0.0
 20
0.0
 30
0.0
 70
    64
 71
    14
 72
    12
  0
VERTEX
  5
C37
  8
0
 10
0.0
 20
36.56523611679354
 30
164.0662639958658
 70
   192
  0
VERTEX
  5
C38
  8
0
 10
0.0
 20
72.56355551009486
 30
165.826875539636
 70
   192
  0
VERTEX
  5
C39
  8
0
 10
82.913437769818
 20
72.56355551009484
 30
143.6102868475251
 70
   192
  0
VERTEX
  5
C3A
  8
0
 10
82.03313199793288
 20
36.56523611679354
 30
142.085552524424
 70
   192
  0
VERTEX
  5
C3B
  8
0
 10
165.826875539636
 20
72.56355551009484
 30
0.000000000000046
 70
   192
  0
VERTEX
  5
C3C
  8
0
 10
164.0662639958658
 20
36.56523611679354
 30
0.0000000000000455
 70
   192
  0
VERTEX
  5
C3D
  8
0
 10
142.085552524424
 20
36.56523611679354
 30
82.03313199793294
 70
   192
  0
VERTEX
  5
C3E
  8
0
 10
143.6102868475251
 20
72.56355551009484
 30
82.91343776981806
 70
   192
  0
VERTEX
  5
C3F
  8
0
 10
143.6102868475252
 20
72.56355551009484
 30
-82.91343776981797
 70
   192
  0
VERTEX
  5
C40
  8
0
 10
142.085552524424
 20
36.56523611679354
 30
-82.03313199793286
 70
   192
  0
VERTEX
  5
C41
  8
0
 10
0.0000000000000203
 20
72.56355551009486
 30
-165.826875539636
 70
   192
  0
VERTEX
  5
C42
  8
0
 10
0.0000000000000201
 20
36.56523611679354
 30
-164.0662639958658
 70
   192
  0
VERTEX
  5
C43
  8
0
 10
82.03313199793297
 20
36.56523611679354
 30
-142.0855525244239
 70
   192
  0
VERTEX
  5
C44
  8
0
 10
82.91343776981809
 20
72.56355551009484
 30
-143.6102868475251
 70
   192
  0
VERTEX
  5
C45
  8
0
 10
0.0
 20
0.0
 30
0.0
 70
   128
 71
     1
 72
     2
 73
    -3
  0
VERTEX
  5
C46
  8
0
 10
0.0
 20
0.0
 30
0.0
 70
   128
 71
     4
 72
    -1
 73
     3
  0
VERTEX
  5
C47
  8
0
 10
0.0
 20
0.0
 30
0.0
 70
   128
 71
     5
 72
     6
 73
    -7
  0
VERTEX
  5
C48
  8
0
 10
0.0
 20
0.0
 30
0.0
 70
   128
 71
     8
 72
    -5
 73
     7
  0
VERTEX
  5
C49
  8
0
 10
0.0
 20
0.0
 30
0.0
 70
   128
 71
     6
 72
     5
 73
    -9
  0
VERTEX
  5
C4A
  8
0
 10
0.0
 20
0.0
 30
0.0
 70
   128
 71
    10
 72
    -6
 73
     9
  0
VERTEX
  5
C4B
  8
0
 10
0.0
 20
0.0
 30
0.0
 70
   128
 71
    11
 72
    12
 73
   -13
  0
VERTEX
  5
C4C
  8
0
 10
0.0
 20
0.0
 30
0.0
 70
   128
 71
    14
 72
   -11
 73
    13
  0
VERTEX
  5
C4D
  8
0
 10
0.0
 20
0.0
 30
0.0
 70
   128
 71
     7
 72
     4
 73
    -3
  0
VERTEX
  5
C4E
  8
0
 10
0.0
 20
0.0
 30
0.0
 70
   128
 71
     8
 72
    -7
 73
     3
  0
VERTEX
  5
C4F
  8
0
 10
0.0
 20
0.0
 30
0.0
 70
   128
 71
    13
 72
    10
 73
    -9
  0
VERTEX
  5
C50
  8
0
 10
0.0
 20
0.0
 30
0.0
 70
   128
 71
    14
 72
   -13
 73
     9
  0
SEQEND
  5
F73
  8
0
  0
POLYLINE
  5
C51
  8
0
 66
     1
 10
0.0
 20
0.0
 30
0.0
 70
    64
 71
    27
 72
    34
  0
VERTEX
  5
C52
  8
0
 10
163.0005054996304
 20
32.09165020079121
 30
0.00000000000001
 70
   192
  0
VERTEX
  5
C53
  8
0
 10
164.0662639958658
 20
36.56523611679354
 30
0.0000000000000455
 70
   192
  0
VERTEX
  5
C54
  8
0
 10
142.085552524424
 20
36.56523611679354
 30
-82.03313199793286
 70
   192
  0
VERTEX
  5
C55
  8
0
 10
115.2587627756238
 20
32.09165020079121
 30
-115.2587627756238
 70
   192
  0
VERTEX
  5
C56
  8
0
 10
82.03313199793297
 20
36.56523611679354
 30
-142.0855525244239
 70
   192
  0
VERTEX
  5
C57
  8
0
 10
0.0000000000000201
 20
36.56523611679354
 30
-164.0662639958658
 70
   192
  0
VERTEX
  5
C58
  8
0
 10
115.2587627756238
 20
32.09165020079121
 30
115.2587627756238
 70
   192
  0
VERTEX
  5
C59
  8
0
 10
142.085552524424
 20
36.56523611679354
 30
82.03313199793294
 70
   192
  0
VERTEX
  5
C5A
  8
0
 10
113.4122307768742
 20
28.30622403253221
 30
-113.4122307768742
 70
   192
  0
VERTEX
  5
C5B
  8
0
 10
160.3891149036428
 20
28.30622403253221
 30
0.0000000000000098
 70
   192
  0
VERTEX
  5
C5C
  8
0
 10
113.4122307768742
 20
28.30622403253221
 30
113.4122307768742
 70
   192
  0
VERTEX
  5
C5D
  8
0
 10
0.0
 20
30.72541967068782
 30
162.2882803614125
 70
   192
  0
VERTEX
  5
C5E
  8
0
 10
110.7227043723888
 20
25.72132411971075
 30
-110.7227043723888
 70
   192
  0
VERTEX
  5
C5F
  8
0
 10
156.585550186059
 20
25.72132411971075
 30
0.0000000000000096
 70
   192
  0
VERTEX
  5
C60
  8
0
 10
0.0000000000000193
 20
26.42399389054668
 30
-157.9567196511688
 70
   192
  0
VERTEX
  5
C61
  8
0
 10
110.7227043723888
 20
25.72132411971075
 30
110.7227043723888
 70
   192
  0
VERTEX
  5
C62
  8
0
 10
152.1046329507128
 20
24.68682286300303
 30
0.0000000000000422
 70
   192
  0
VERTEX
  5
C63
  8
0
 10
131.7264761686249
 20
24.68682286300303
 30
-76.05231647535636
 70
   192
  0
VERTEX
  5
C64
  8
0
 10
76.05231647535639
 20
24.68682286300303
 30
131.7264761686249
 70
   192
  0
VERTEX
  5
C65
  8
0
 10
0.0
 20
24.68682286300303
 30
152.1046329507128
 70
   192
  0
VERTEX
  5
C66
  8
0
 10
131.7264761686249
 20
24.68682286300303
 30
76.05231647535643
 70
   192
  0
VERTEX
  5
C67
  8
0
 10
0.0000000000000199
 20
30.72541967068782
 30
-162.2882803614125
 70
   192
  0
VERTEX
  5
C68
  8
0
 10
0.0
 20
26.42399389054668
 30
157.9567196511688
 70
   192
  0
VERTEX
  5
C69
  8
0
 10
0.0000000000000186
 20
24.68682286300305
 30
-152.1046329507128
 70
   192
  0
VERTEX
  5
C6A
  8
0
 10
76.05231647535648
 20
24.68682286300303
 30
-131.7264761686249
 70
   192
  0
VERTEX
  5
C6B
  8
0
 10
82.03313199793288
 20
36.56523611679354
 30
142.085552524424
 70
   192
  0
VERTEX
  5
C6C
  8
0
 10
0.0
 20
36.56523611679354
 30
164.0662639958658
 70
   192
  0
VERTEX
  5
C6D
  8
0
 10
0.0
 20
0.0
 30
0.0
 70
   128
 71
     1
 72
     2
 73
     3
  0
VERTEX
  5
C6E
  8
0
 10
0.0
 20
0.0
 30
0.0
 70
   128
 71
     4
 72
     1
 73
     3
  0
VERTEX
  5
C6F
  8
0
 10
0.0
 20
0.0
 30
0.0
 70
   128
 71
     5
 72
     6
 73
     4
  0
VERTEX
  5
C70
  8
0
 10
0.0
 20
0.0
 30
0.0
 70
   128
 71
     2
 72
     1
 73
     7
  0
VERTEX
  5
C71
  8
0
 10
0.0
 20
0.0
 30
0.0
 70
   128
 71
     8
 72
     2
 73
     7
  0
VERTEX
  5
C72
  8
0
 10
0.0
 20
0.0
 30
0.0
 70
   128
 71
     4
 72
     9
 73
   -10
  0
VERTEX
  5
C73
  8
0
 10
0.0
 20
0.0
 30
0.0
 70
   128
 71
     1
 72
    -4
 73
    10
  0
VERTEX
  5
C74
  8
0
 10
0.0
 20
0.0
 30
0.0
 70
   128
 71
     7
 72
    11
 73
    12
  0
VERTEX
  5
C75
  8
0
 10
0.0
 20
0.0
 30
0.0
 70
   128
 71
     1
 72
    10
 73
   -11
  0
VERTEX
  5
C76
  8
0
 10
0.0
 20
0.0
 30
0.0
 70
   128
 71
     7
 72
    -1
 73
    11
  0
VERTEX
  5
C77
  8
0
 10
0.0
 20
0.0
 30
0.0
 70
   128
 71
     9
 72
    13
 73
   -14
  0
VERTEX
  5
C78
  8
0
 10
0.0
 20
0.0
 30
0.0
 70
   128
 71
    10
 72
    -9
 73
    14
  0
VERTEX
  5
C79
  8
0
 10
0.0
 20
0.0
 30
0.0
 70
   128
 71
    13
 72
     9
 73
    15
  0
VERTEX
  5
C7A
  8
0
 10
0.0
 20
0.0
 30
0.0
 70
   128
 71
    10
 72
    14
 73
   -16
  0
VERTEX
  5
C7B
  8
0
 10
0.0
 20
0.0
 30
0.0
 70
   128
 71
    11
 72
   -10
 73
    16
  0
VERTEX
  5
C7C
  8
0
 10
0.0
 20
0.0
 30
0.0
 70
   128
 71
    17
 72
    14
 73
    13
  0
VERTEX
  5
C7D
  8
0
 10
0.0
 20
0.0
 30
0.0
 70
   128
 71
    18
 72
    17
 73
    13
  0
VERTEX
  5
C7E
  8
0
 10
0.0
 20
0.0
 30
0.0
 70
   128
 71
    19
 72
    20
 73
    16
  0
VERTEX
  5
C7F
  8
0
 10
0.0
 20
0.0
 30
0.0
 70
   128
 71
    14
 72
    17
 73
    21
  0
VERTEX
  5
C80
  8
0
 10
0.0
 20
0.0
 30
0.0
 70
   128
 71
    16
 72
    14
 73
    21
  0
VERTEX
  5
C81
  8
0
 10
0.0
 20
0.0
 30
0.0
 70
   128
 71
    15
 72
     9
 73
     4
  0
VERTEX
  5
C82
  8
0
 10
0.0
 20
0.0
 30
0.0
 70
   128
 71
    22
 72
    15
 73
     4
  0
VERTEX
  5
C83
  8
0
 10
0.0
 20
0.0
 30
0.0
 70
   128
 71
    11
 72
    16
 73
    23
  0
VERTEX
  5
C84
  8
0
 10
0.0
 20
0.0
 30
0.0
 70
   128
 71
    12
 72
    11
 73
    23
  0
VERTEX
  5
C85
  8
0
 10
0.0
 20
0.0
 30
0.0
 70
   128
 71
    24
 72
    25
 73
    13
  0
VERTEX
  5
C86
  8
0
 10
0.0
 20
0.0
 30
0.0
 70
   128
 71
    15
 72
    24
 73
    13
  0
VERTEX
  5
C87
  8
0
 10
0.0
 20
0.0
 30
0.0
 70
   128
 71
    23
 72
    16
 73
    20
  0
VERTEX
  5
C88
  8
0
 10
0.0
 20
0.0
 30
0.0
 70
   128
 71
     6
 72
    22
 73
     4
  0
VERTEX
  5
C89
  8
0
 10
0.0
 20
0.0
 30
0.0
 70
   128
 71
    26
 72
     7
 73
    12
  0
VERTEX
  5
C8A
  8
0
 10
0.0
 20
0.0
 30
0.0
 70
   128
 71
    27
 72
    26
 73
    12
  0
VERTEX
  5
C8B
  8
0
 10
0.0
 20
0.0
 30
0.0
 70
   128
 71
     5
 72
     4
 73
     3
  0
VERTEX
  5
C8C
  8
0
 10
0.0
 20
0.0
 30
0.0
 70
   128
 71
     8
 72
     7
 73
    26
  0
VERTEX
  5
C8D
  8
0
 10
0.0
 20
0.0
 30
0.0
 70
   128
 71
    13
 72
    25
 73
    18
  0
VERTEX
  5
C8E
  8
0
 10
0.0
 20
0.0
 30
0.0
 70
   128
 71
    16
 72
    21
 73
    19
  0
SEQEND
  5
F74
  8
0
  0
POLYLINE
  5
C8F
  8
0
 66
     1
 10
0.0
 20
0.0
 30
0.0
 70
    64
 71
    12
 72
    10
  0
VERTEX
  5
C90
  8
0
 10
0.0
 20
20.0
 30
40.2804270926161
 70
   192
  0
VERTEX
  5
C91
  8
0
 10
0.0
 20
24.68682286300302
 30
152.1046329507128
 70
   192
  0
VERTEX
  5
C92
  8
0
 10
76.05231647535639
 20
24.68682286300303
 30
131.7264761686249
 70
   192
  0
VERTEX
  5
C93
  8
0
 10
28.48256314627918
 20
20.0
 30
28.48256314627918
 70
   192
  0
VERTEX
  5
C94
  8
0
 10
152.1046329507128
 20
24.68682286300303
 30
0.0000000000000422
 70
   192
  0
VERTEX
  5
C95
  8
0
 10
40.28042709261611
 20
20.0
 30
0.0
 70
   192
  0
VERTEX
  5
C96
  8
0
 10
131.7264761686249
 20
24.68682286300303
 30
76.05231647535643
 70
   192
  0
VERTEX
  5
C97
  8
0
 10
131.7264761686249
 20
24.68682286300303
 30
-76.05231647535636
 70
   192
  0
VERTEX
  5
C98
  8
0
 10
28.48256314627918
 20
20.0
 30
-28.48256314627918
 70
   192
  0
VERTEX
  5
C99
  8
0
 10
0.0000000000000186
 20
24.68682286300302
 30
-152.1046329507128
 70
   192
  0
VERTEX
  5
C9A
  8
0
 10
0.0000000000000049
 20
20.0
 30
-40.2804270926161
 70
   192
  0
VERTEX
  5
C9B
  8
0
 10
76.05231647535648
 20
24.68682286300303
 30
-131.7264761686249
 70
   192
  0
VERTEX
  5
C9C
  8
0
 10
0.0
 20
0.0
 30
0.0
 70
   128
 71
     1
 72
     2
 73
     3
  0
VERTEX
  5
C9D
  8
0
 10
0.0
 20
0.0
 30
0.0
 70
   128
 71
     4
 72
     1
 73
     3
  0
VERTEX
  5
C9E
  8
0
 10
0.0
 20
0.0
 30
0.0
 70
   128
 71
     5
 72
     6
 73
     4
  0
VERTEX
  5
C9F
  8
0
 10
0.0
 20
0.0
 30
0.0
 70
   128
 71
     7
 72
     5
 73
     4
  0
VERTEX
  5
CA0
  8
0
 10
0.0
 20
0.0
 30
0.0
 70
   128
 71
     6
 72
     5
 73
     8
  0
VERTEX
  5
CA1
  8
0
 10
0.0
 20
0.0
 30
0.0
 70
   128
 71
     9
 72
     6
 73
     8
  0
VERTEX
  5
CA2
  8
0
 10
0.0
 20
0.0
 30
0.0
 70
   128
 71
    10
 72
    11
 73
     9
  0
VERTEX
  5
CA3
  8
0
 10
0.0
 20
0.0
 30
0.0
 70
   128
 71
    12
 72
    10
 73
     9
  0
VERTEX
  5
CA4
  8
0
 10
0.0
 20
0.0
 30
0.0
 70
   128
 71
     7
 72
     4
 73
     3
  0
VERTEX
  5
CA5
  8
0
 10
0.0
 20
0.0
 30
0.0
 70
   128
 71
    12
 72
     9
 73
     8
  0
SEQEND
  5
F75
  8
0
  0
POLYLINE
  5
CA6
  8
0
 66
     1
 10
0.0
 20
0.0
 30
0.0
 70
    64
 71
    10
 72
     8
  0
VERTEX
  5
CA7
  8
0
 10
0.0
 20
5.500000000000026
 30
23.0
 70
   192
  0
VERTEX
  5
CA8
  8
0
 10
0.0000000000000028
 20
5.500000000000026
 30
-23.0
 70
   192
  0
VERTEX
  5
CA9
  8
0
 10
0.0000000000000049
 20
20.0
 30
-40.2804270926161
 70
   192
  0
VERTEX
  5
CAA
  8
0
 10
0.0
 20
20.0
 30
40.2804270926161
 70
   192
  0
VERTEX
  5
CAB
  8
0
 10
40.28042709261611
 20
20.0
 30
0.0
 70
   192
  0
VERTEX
  5
CAC
  8
0
 10
23.0
 20
5.500000000000026
 30
0.0
 70
   192
  0
VERTEX
  5
CAD
  8
0
 10
28.48256314627918
 20
20.0
 30
28.48256314627918
 70
   192
  0
VERTEX
  5
CAE
  8
0
 10
16.26345596729059
 20
5.500000000000026
 30
16.26345596729059
 70
   192
  0
VERTEX
  5
CAF
  8
0
 10
28.48256314627918
 20
20.0
 30
-28.48256314627918
 70
   192
  0
VERTEX
  5
CB0
  8
0
 10
16.26345596729059
 20
5.500000000000026
 30
-16.26345596729059
 70
   192
  0
VERTEX
  5
CB1
  8
0
 10
0.0
 20
0.0
 30
0.0
 70
   128
 71
     8
 72
     1
 73
    -4
  0
VERTEX
  5
CB2
  8
0
 10
0.0
 20
0.0
 30
0.0
 70
   128
 71
     7
 72
    -8
 73
     4
  0
VERTEX
  5
CB3
  8
0
 10
0.0
 20
0.0
 30
0.0
 70
   128
 71
     6
 72
     8
 73
    -7
  0
VERTEX
  5
CB4
  8
0
 10
0.0
 20
0.0
 30
0.0
 70
   128
 71
     5
 72
    -6
 73
     7
  0
VERTEX
  5
CB5
  8
0
 10
0.0
 20
0.0
 30
0.0
 70
   128
 71
    10
 72
     6
 73
    -5
  0
VERTEX
  5
CB6
  8
0
 10
0.0
 20
0.0
 30
0.0
 70
   128
 71
     9
 72
   -10
 73
     5
  0
VERTEX
  5
CB7
  8
0
 10
0.0
 20
0.0
 30
0.0
 70
   128
 71
     3
 72
     2
 73
   -10
  0
VERTEX
  5
CB8
  8
0
 10
0.0
 20
0.0
 30
0.0
 70
   128
 71
     9
 72
    -3
 73
    10
  0
SEQEND
  5
F76
  8
0
  0
POLYLINE
  5
CB9
  8
0
 66
     1
 10
0.0
 20
0.0
 30
0.0
 70
    64
 71
    10
 72
     8
  0
VERTEX
  5
CBA
  8
0
 10
0.0
 20
0.0
 30
23.0
 70
   192
  0
VERTEX
  5
CBB
  8
0
 10
0.0000000000000028
 20
-0.0000000000000071
 30
-23.0
 70
   192
  0
VERTEX
  5
CBC
  8
0
 10
0.0000000000000028
 20
5.500000000000028
 30
-23.0
 70
   192
  0
VERTEX
  5
CBD
  8
0
 10
0.0
 20
5.500000000000028
 30
23.0
 70
   192
  0
VERTEX
  5
CBE
  8
0
 10
23.0
 20
5.500000000000026
 30
0.0
 70
   192
  0
VERTEX
  5
CBF
  8
0
 10
23.0
 20
0.0
 30
0.0
 70
   192
  0
VERTEX
  5
CC0
  8
0
 10
16.26345596729059
 20
5.500000000000026
 30
16.26345596729059
 70
   192
  0
VERTEX
  5
CC1
  8
0
 10
16.26345596729059
 20
0.0
 30
16.26345596729059
 70
   192
  0
VERTEX
  5
CC2
  8
0
 10
16.26345596729059
 20
5.500000000000026
 30
-16.26345596729059
 70
   192
  0
VERTEX
  5
CC3
  8
0
 10
16.2634559672906
 20
0.0
 30
-16.2634559672906
 70
   192
  0
VERTEX
  5
CC4
  8
0
 10
0.0
 20
0.0
 30
0.0
 70
   128
 71
     8
 72
     1
 73
    -4
  0
VERTEX
  5
CC5
  8
0
 10
0.0
 20
0.0
 30
0.0
 70
   128
 71
     7
 72
    -8
 73
     4
  0
VERTEX
  5
CC6
  8
0
 10
0.0
 20
0.0
 30
0.0
 70
   128
 71
     6
 72
     8
 73
    -7
  0
VERTEX
  5
CC7
  8
0
 10
0.0
 20
0.0
 30
0.0
 70
   128
 71
     5
 72
    -6
 73
     7
  0
VERTEX
  5
CC8
  8
0
 10
0.0
 20
0.0
 30
0.0
 70
   128
 71
    10
 72
     6
 73
    -5
  0
VERTEX
  5
CC9
  8
0
 10
0.0
 20
0.0
 30
0.0
 70
   128
 71
     9
 72
   -10
 73
     5
  0
VERTEX
  5
CCA
  8
0
 10
0.0
 20
0.0
 30
0.0
 70
   128
 71
     3
 72
     2
 73
   -10
  0
VERTEX
  5
CCB
  8
0
 10
0.0
 20
0.0
 30
0.0
 70
   128
 71
     9
 72
    -3
 73
    10
  0
SEQEND
  5
F77
  8
0
  0
POLYLINE
  5
CCC
  8
0
 66
     1
 10
0.0
 20
0.0
 30
0.0
 70
    64
 71
    16
 72
    16
  0
VERTEX
  5
CCD
  8
0
 10
0.0
 20
0.0
 30
-36.50000000000001
 70
   192
  0
VERTEX
  5
CCE
  8
0
 10
25.80939751330899
 20
0.0
 30
-25.80939751330899
 70
   192
  0
VERTEX
  5
CCF
  8
0
 10
36.50000000000001
 20
0.0
 30
0.0
 70
   192
  0
VERTEX
  5
CD0
  8
0
 10
25.80939751330899
 20
0.0
 30
25.80939751330899
 70
   192
  0
VERTEX
  5
CD1
  8
0
 10
0.0
 20
0.0
 30
36.5
 70
   192
  0
VERTEX
  5
CD2
  8
0
 10
-25.80939751330899
 20
0.0
 30
25.80939751330898
 70
   192
  0
VERTEX
  5
CD3
  8
0
 10
-36.5
 20
0.0
 30
-0.0000000000000041
 70
   192
  0
VERTEX
  5
CD4
  8
0
 10
-25.80939751330898
 20
0.0
 30
-25.80939751330899
 70
   192
  0
VERTEX
  5
CD5
  8
0
 10
0.0
 20
0.0
 30
23.0
 70
   192
  0
VERTEX
  5
CD6
  8
0
 10
16.26345596729059
 20
0.0
 30
16.26345596729059
 70
   192
  0
VERTEX
  5
CD7
  8
0
 10
23.0
 20
0.0
 30
0.0
 70
   192
  0
VERTEX
  5
CD8
  8
0
 10
16.2634559672906
 20
0.0
 30
-16.2634559672906
 70
   192
  0
VERTEX
  5
CD9
  8
0
 10
0.0
 20
0.0
 30
-23.0
 70
   192
  0
VERTEX
  5
CDA
  8
0
 10
-16.26345596729059
 20
0.0
 30
-16.2634559672906
 70
   192
  0
VERTEX
  5
CDB
  8
0
 10
-23.0
 20
0.0
 30
-0.0000000000000026
 70
   192
  0
VERTEX
  5
CDC
  8
0
 10
-16.2634559672906
 20
0.0
 30
16.26345596729059
 70
   192
  0
VERTEX
  5
CDD
  8
0
 10
0.0
 20
0.0
 30
0.0
 70
   128
 71
    -5
 72
     9
 73
   -10
  0
VERTEX
  5
CDE
  8
0
 10
0.0
 20
0.0
 30
0.0
 70
   128
 71
     4
 72
    -5
 73
   -10
  0
VERTEX
  5
CDF
  8
0
 10
0.0
 20
0.0
 30
0.0
 70
   128
 71
   -11
 72
     3
 73
    -4
  0
VERTEX
  5
CE0
  8
0
 10
0.0
 20
0.0
 30
0.0
 70
   128
 71
    10
 72
   -11
 73
    -4
  0
VERTEX
  5
CE1
  8
0
 10
0.0
 20
0.0
 30
0.0
 70
   128
 71
   -12
 72
     2
 73
    -3
  0
VERTEX
  5
CE2
  8
0
 10
0.0
 20
0.0
 30
0.0
 70
   128
 71
    11
 72
   -12
 73
    -3
  0
VERTEX
  5
CE3
  8
0
 10
0.0
 20
0.0
 30
0.0
 70
   128
 71
   -13
 72
     1
 73
    -2
  0
VERTEX
  5
CE4
  8
0
 10
0.0
 20
0.0
 30
0.0
 70
   128
 71
    12
 72
   -13
 73
    -2
  0
VERTEX
  5
CE5
  8
0
 10
0.0
 20
0.0
 30
0.0
 70
   128
 71
   -14
 72
     8
 73
    -1
  0
VERTEX
  5
CE6
  8
0
 10
0.0
 20
0.0
 30
0.0
 70
   128
 71
    13
 72
   -14
 73
    -1
  0
VERTEX
  5
CE7
  8
0
 10
0.0
 20
0.0
 30
0.0
 70
   128
 71
   -15
 72
     7
 73
    -8
  0
VERTEX
  5
CE8
  8
0
 10
0.0
 20
0.0
 30
0.0
 70
   128
 71
    14
 72
   -15
 73
    -8
  0
VERTEX
  5
CE9
  8
0
 10
0.0
 20
0.0
 30
0.0
 70
   128
 71
   -16
 72
     6
 73
    -7
  0
VERTEX
  5
CEA
  8
0
 10
0.0
 20
0.0
 30
0.0
 70
   128
 71
    15
 72
   -16
 73
    -7
  0
VERTEX
  5
CEB
  8
0
 10
0.0
 20
0.0
 30
0.0
 70
   128
 71
    -9
 72
     5
 73
    -6
  0
VERTEX
  5
CEC
  8
0
 10
0.0
 20
0.0
 30
0.0
 70
   128
 71
    16
 72
    -9
 73
    -6
  0
SEQEND
  5
F78
  8
0
  0
POLYLINE
  5
CED
  8
0
 66
     1
 10
0.0
 20
0.0
 30
0.0
 70
    64
 71
    10
 72
     8
  0
VERTEX
  5
CEE
  8
0
 10
0.0000000000000045
 20
0.0000000000000089
 30
-36.5
 70
   192
  0
VERTEX
  5
CEF
  8
0
 10
-0.0000000000000041
 20
0.0
 30
36.5
 70
   192
  0
VERTEX
  5
CF0
  8
0
 10
0.0
 20
8.958868952864387
 30
46.44983197776584
 70
   192
  0
VERTEX
  5
CF1
  8
0
 10
0.0000000000000057
 20
8.958868952864387
 30
-46.44983197776584
 70
   192
  0
VERTEX
  5
CF2
  8
0
 10
-46.44983197776584
 20
8.958868952864387
 30
-0.0000000000000052
 70
   192
  0
VERTEX
  5
CF3
  8
0
 10
-36.5
 20
0.0
 30
-0.0000000000000041
 70
   192
  0
VERTEX
  5
CF4
  8
0
 10
-32.84499117645397
 20
8.958868952864387
 30
-32.84499117645397
 70
   192
  0
VERTEX
  5
CF5
  8
0
 10
-25.80939751330898
 20
0.0
 30
-25.80939751330899
 70
   192
  0
VERTEX
  5
CF6
  8
0
 10
-32.84499117645397
 20
8.958868952864387
 30
32.84499117645397
 70
   192
  0
VERTEX
  5
CF7
  8
0
 10
-25.80939751330899
 20
0.0
 30
25.80939751330898
 70
   192
  0
VERTEX
  5
CF8
  8
0
 10
0.0
 20
0.0
 30
0.0
 70
   128
 71
     8
 72
     7
 73
    -4
  0
VERTEX
  5
CF9
  8
0
 10
0.0
 20
0.0
 30
0.0
 70
   128
 71
    -8
 72
     4
 73
     1
  0
VERTEX
  5
CFA
  8
0
 10
0.0
 20
0.0
 30
0.0
 70
   128
 71
     6
 72
     5
 73
    -7
  0
VERTEX
  5
CFB
  8
0
 10
0.0
 20
0.0
 30
0.0
 70
   128
 71
    -6
 72
     7
 73
     8
  0
VERTEX
  5
CFC
  8
0
 10
0.0
 20
0.0
 30
0.0
 70
   128
 71
    10
 72
     9
 73
    -5
  0
VERTEX
  5
CFD
  8
0
 10
0.0
 20
0.0
 30
0.0
 70
   128
 71
   -10
 72
     5
 73
     6
  0
VERTEX
  5
CFE
  8
0
 10
0.0
 20
0.0
 30
0.0
 70
   128
 71
     2
 72
     3
 73
    -9
  0
VERTEX
  5
CFF
  8
0
 10
0.0
 20
0.0
 30
0.0
 70
   128
 71
    -2
 72
     9
 73
    10
  0
SEQEND
  5
F79
  8
0
  0
POLYLINE
  5
D00
  8
0
 66
     1
 10
0.0
 20
0.0
 30
0.0
 70
    64
 71
    23
 72
    30
  0
VERTEX
  5
D01
  8
0
 10
46.44983197776585
 20
8.958868952864387
 30
0.0
 70
   192
  0
VERTEX
  5
D02
  8
0
 10
32.84499117645397
 20
8.958868952864387
 30
-32.84499117645397
 70
   192
  0
VERTEX
  5
D03
  8
0
 10
33.46709824236355
 20
9.615840986124576
 30
-33.46709824236354
 70
   192
  0
VERTEX
  5
D04
  8
0
 10
47.32962422762329
 20
9.615840986124576
 30
0.0000000000000029
 70
   192
  0
VERTEX
  5
D05
  8
0
 10
0.0000000000000057
 20
8.958868952864389
 30
-46.44983197776584
 70
   192
  0
VERTEX
  5
D06
  8
0
 10
32.84499117645397
 20
8.958868952864387
 30
32.84499117645397
 70
   192
  0
VERTEX
  5
D07
  8
0
 10
33.46709824236355
 20
9.615840986124576
 30
33.46709824236355
 70
   192
  0
VERTEX
  5
D08
  8
0
 10
34.16344546828846
 20
10.10148255898324
 30
-34.16344546828845
 70
   192
  0
VERTEX
  5
D09
  8
0
 10
48.31440791864719
 20
10.10148255898324
 30
0.000000000000003
 70
   192
  0
VERTEX
  5
D0A
  8
0
 10
34.16344546828846
 20
10.10148255898324
 30
34.16344546828846
 70
   192
  0
VERTEX
  5
D0B
  8
0
 10
0.0
 20
9.797685557153585
 30
47.64778623920364
 70
   192
  0
VERTEX
  5
D0C
  8
0
 10
34.91071205689732
 20
10.39952944538375
 30
-34.91071205689731
 70
   192
  0
VERTEX
  5
D0D
  8
0
 10
49.37120246296611
 20
10.39952944538375
 30
0.000000000000003
 70
   192
  0
VERTEX
  5
D0E
  8
0
 10
0.000000000000006
 20
10.321774357656
 30
-49.01308424232098
 70
   192
  0
VERTEX
  5
D0F
  8
0
 10
34.91071205689732
 20
10.39952944538375
 30
34.91071205689732
 70
   192
  0
VERTEX
  5
D10
  8
0
 10
35.68387191198887
 20
10.50000000000003
 30
-35.68387191198887
 70
   192
  0
VERTEX
  5
D11
  8
0
 10
50.464615615919
 20
10.50000000000003
 30
0.0
 70
   192
  0
VERTEX
  5
D12
  8
0
 10
35.68387191198886
 20
10.50000000000003
 30
35.68387191198886
 70
   192
  0
VERTEX
  5
D13
  8
0
 10
0.0000000000000058
 20
9.797685557153585
 30
-47.64778623920364
 70
   192
  0
VERTEX
  5
D14
  8
0
 10
0.0
 20
10.321774357656
 30
49.01308424232098
 70
   192
  0
VERTEX
  5
D15
  8
0
 10
0.0000000000000062
 20
10.50000000000002
 30
-50.46461561591899
 70
   192
  0
VERTEX
  5
D16
  8
0
 10
0.0
 20
10.50000000000003
 30
50.46461561591899
 70
   192
  0
VERTEX
  5
D17
  8
0
 10
0.0
 20
8.958868952864389
 30
46.44983197776584
 70
   192
  0
VERTEX
  5
D18
  8
0
 10
0.0
 20
0.0
 30
0.0
 70
   128
 71
     1
 72
     2
 73
    -3
  0
VERTEX
  5
D19
  8
0
 10
0.0
 20
0.0
 30
0.0
 70
   128
 71
     4
 72
    -1
 73
     3
  0
VERTEX
  5
D1A
  8
0
 10
0.0
 20
0.0
 30
0.0
 70
   128
 71
     2
 72
     5
 73
     3
  0
VERTEX
  5
D1B
  8
0
 10
0.0
 20
0.0
 30
0.0
 70
   128
 71
     6
 72
     1
 73
    -4
  0
VERTEX
  5
D1C
  8
0
 10
0.0
 20
0.0
 30
0.0
 70
   128
 71
     7
 72
    -6
 73
     4
  0
VERTEX
  5
D1D
  8
0
 10
0.0
 20
0.0
 30
0.0
 70
   128
 71
     3
 72
     8
 73
    -9
  0
VERTEX
  5
D1E
  8
0
 10
0.0
 20
0.0
 30
0.0
 70
   128
 71
     4
 72
    -3
 73
     9
  0
VERTEX
  5
D1F
  8
0
 10
0.0
 20
0.0
 30
0.0
 70
   128
 71
     7
 72
    10
 73
    11
  0
VERTEX
  5
D20
  8
0
 10
0.0
 20
0.0
 30
0.0
 70
   128
 71
     4
 72
     9
 73
   -10
  0
VERTEX
  5
D21
  8
0
 10
0.0
 20
0.0
 30
0.0
 70
   128
 71
     7
 72
    -4
 73
    10
  0
VERTEX
  5
D22
  8
0
 10
0.0
 20
0.0
 30
0.0
 70
   128
 71
     8
 72
    12
 73
   -13
  0
VERTEX
  5
D23
  8
0
 10
0.0
 20
0.0
 30
0.0
 70
   128
 71
     9
 72
    -8
 73
    13
  0
VERTEX
  5
D24
  8
0
 10
0.0
 20
0.0
 30
0.0
 70
   128
 71
    12
 72
     8
 73
    14
  0
VERTEX
  5
D25
  8
0
 10
0.0
 20
0.0
 30
0.0
 70
   128
 71
     9
 72
    13
 73
   -15
  0
VERTEX
  5
D26
  8
0
 10
0.0
 20
0.0
 30
0.0
 70
   128
 71
    10
 72
    -9
 73
    15
  0
VERTEX
  5
D27
  8
0
 10
0.0
 20
0.0
 30
0.0
 70
   128
 71
    16
 72
    17
 73
   -13
  0
VERTEX
  5
D28
  8
0
 10
0.0
 20
0.0
 30
0.0
 70
   128
 71
    12
 72
   -16
 73
    13
  0
VERTEX
  5
D29
  8
0
 10
0.0
 20
0.0
 30
0.0
 70
   128
 71
    17
 72
    18
 73
   -15
  0
VERTEX
  5
D2A
  8
0
 10
0.0
 20
0.0
 30
0.0
 70
   128
 71
    13
 72
   -17
 73
    15
  0
VERTEX
  5
D2B
  8
0
 10
0.0
 20
0.0
 30
0.0
 70
   128
 71
    14
 72
     8
 73
     3
  0
VERTEX
  5
D2C
  8
0
 10
0.0
 20
0.0
 30
0.0
 70
   128
 71
    19
 72
    14
 73
     3
  0
VERTEX
  5
D2D
  8
0
 10
0.0
 20
0.0
 30
0.0
 70
   128
 71
    10
 72
    15
 73
    20
  0
VERTEX
  5
D2E
  8
0
 10
0.0
 20
0.0
 30
0.0
 70
   128
 71
    11
 72
    10
 73
    20
  0
VERTEX
  5
D2F
  8
0
 10
0.0
 20
0.0
 30
0.0
 70
   128
 71
    21
 72
    16
 73
    12
  0
VERTEX
  5
D30
  8
0
 10
0.0
 20
0.0
 30
0.0
 70
   128
 71
    14
 72
    21
 73
    12
  0
VERTEX
  5
D31
  8
0
 10
0.0
 20
0.0
 30
0.0
 70
   128
 71
    15
 72
    18
 73
    22
  0
VERTEX
  5
D32
  8
0
 10
0.0
 20
0.0
 30
0.0
 70
   128
 71
    20
 72
    15
 73
    22
  0
VERTEX
  5
D33
  8
0
 10
0.0
 20
0.0
 30
0.0
 70
   128
 71
     5
 72
    19
 73
     3
  0
VERTEX
  5
D34
  8
0
 10
0.0
 20
0.0
 30
0.0
 70
   128
 71
     6
 72
     7
 73
    11
  0
VERTEX
  5
D35
  8
0
 10
0.0
 20
0.0
 30
0.0
 70
   128
 71
    23
 72
     6
 73
    11
  0
SEQEND
  5
F7A
  8
0
  0
POLYLINE
  5
D36
  8
0
 66
     1
 10
0.0
 20
0.0
 30
0.0
 70
    64
 71
    20
 72
    20
  0
VERTEX
  5
D37
  8
0
 10
0.0000000000000822
 20
10.5
 30
-148.0651775385701
 70
   192
  0
VERTEX
  5
D38
  8
0
 10
74.03258876928513
 20
10.5
 30
-128.2282051642547
 70
   192
  0
VERTEX
  5
D39
  8
0
 10
128.2282051642548
 20
10.5
 30
-74.03258876928501
 70
   192
  0
VERTEX
  5
D3A
  8
0
 10
148.0651775385701
 20
10.5
 30
0.0000000000000411
 70
   192
  0
VERTEX
  5
D3B
  8
0
 10
128.2282051642548
 20
10.5
 30
74.03258876928508
 70
   192
  0
VERTEX
  5
D3C
  8
0
 10
74.03258876928504
 20
10.5
 30
128.2282051642548
 70
   192
  0
VERTEX
  5
D3D
  8
0
 10
0.0
 20
10.5
 30
148.0651775385701
 70
   192
  0
VERTEX
  5
D3E
  8
0
 10
-74.03258876928514
 20
10.5
 30
128.2282051642547
 70
   192
  0
VERTEX
  5
D3F
  8
0
 10
-128.2282051642548
 20
10.5
 30
74.032588769285
 70
   192
  0
VERTEX
  5
D40
  8
0
 10
-148.0651775385701
 20
10.5
 30
-0.0000000000000575
 70
   192
  0
VERTEX
  5
D41
  8
0
 10
-128.2282051642548
 20
10.5
 30
-74.0325887692851
 70
   192
  0
VERTEX
  5
D42
  8
0
 10
-74.03258876928503
 20
10.5
 30
-128.2282051642548
 70
   192
  0
VERTEX
  5
D43
  8
0
 10
0.0
 20
10.50000000000003
 30
50.46461561591899
 70
   192
  0
VERTEX
  5
D44
  8
0
 10
35.68387191198886
 20
10.50000000000003
 30
35.68387191198886
 70
   192
  0
VERTEX
  5
D45
  8
0
 10
50.464615615919
 20
10.50000000000003
 30
0.0
 70
   192
  0
VERTEX
  5
D46
  8
0
 10
35.68387191198887
 20
10.50000000000003
 30
-35.68387191198887
 70
   192
  0
VERTEX
  5
D47
  8
0
 10
0.0
 20
10.50000000000003
 30
-50.464615615919
 70
   192
  0
VERTEX
  5
D48
  8
0
 10
-35.68387191198885
 20
10.50000000000003
 30
-35.68387191198887
 70
   192
  0
VERTEX
  5
D49
  8
0
 10
-50.46461561591899
 20
10.50000000000003
 30
-0.0000000000000056
 70
   192
  0
VERTEX
  5
D4A
  8
0
 10
-35.68387191198887
 20
10.50000000000003
 30
35.68387191198885
 70
   192
  0
VERTEX
  5
D4B
  8
0
 10
0.0
 20
0.0
 30
0.0
 70
   128
 71
    -7
 72
    13
 73
   -14
  0
VERTEX
  5
D4C
  8
0
 10
0.0
 20
0.0
 30
0.0
 70
   128
 71
     6
 72
    -7
 73
   -14
  0
VERTEX
  5
D4D
  8
0
 10
0.0
 20
0.0
 30
0.0
 70
   128
 71
     4
 72
     5
 73
    -6
  0
VERTEX
  5
D4E
  8
0
 10
0.0
 20
0.0
 30
0.0
 70
   128
 71
   -15
 72
    -4
 73
    -6
  0
VERTEX
  5
D4F
  8
0
 10
0.0
 20
0.0
 30
0.0
 70
   128
 71
    14
 72
   -15
 73
    -6
  0
VERTEX
  5
D50
  8
0
 10
0.0
 20
0.0
 30
0.0
 70
   128
 71
     2
 72
     3
 73
    -4
  0
VERTEX
  5
D51
  8
0
 10
0.0
 20
0.0
 30
0.0
 70
   128
 71
   -16
 72
    -2
 73
    -4
  0
VERTEX
  5
D52
  8
0
 10
0.0
 20
0.0
 30
0.0
 70
   128
 71
    15
 72
   -16
 73
    -4
  0
VERTEX
  5
D53
  8
0
 10
0.0
 20
0.0
 30
0.0
 70
   128
 71
   -17
 72
     1
 73
    -2
  0
VERTEX
  5
D54
  8
0
 10
0.0
 20
0.0
 30
0.0
 70
   128
 71
    16
 72
   -17
 73
    -2
  0
VERTEX
  5
D55
  8
0
 10
0.0
 20
0.0
 30
0.0
 70
   128
 71
   -18
 72
    12
 73
    -1
  0
VERTEX
  5
D56
  8
0
 10
0.0
 20
0.0
 30
0.0
 70
   128
 71
    17
 72
   -18
 73
    -1
  0
VERTEX
  5
D57
  8
0
 10
0.0
 20
0.0
 30
0.0
 70
   128
 71
    10
 72
    11
 73
   -12
  0
VERTEX
  5
D58
  8
0
 10
0.0
 20
0.0
 30
0.0
 70
   128
 71
   -19
 72
   -10
 73
   -12
  0
VERTEX
  5
D59
  8
0
 10
0.0
 20
0.0
 30
0.0
 70
   128
 71
    18
 72
   -19
 73
   -12
  0
VERTEX
  5
D5A
  8
0
 10
0.0
 20
0.0
 30
0.0
 70
   128
 71
     8
 72
     9
 73
   -10
  0
VERTEX
  5
D5B
  8
0
 10
0.0
 20
0.0
 30
0.0
 70
   128
 71
   -20
 72
    -8
 73
   -10
  0
VERTEX
  5
D5C
  8
0
 10
0.0
 20
0.0
 30
0.0
 70
   128
 71
    19
 72
   -20
 73
   -10
  0
VERTEX
  5
D5D
  8
0
 10
0.0
 20
0.0
 30
0.0
 70
   128
 71
   -13
 72
     7
 73
    -8
  0
VERTEX
  5
D5E
  8
0
 10
0.0
 20
0.0
 30
0.0
 70
   128
 71
    20
 72
   -13
 73
    -8
  0
SEQEND
  5
F7B
  8
0
  0
POLYLINE
  5
D5F
  8
0
 66
     1
 10
0.0
 20
0.0
 30
0.0
 70
    64
 71
    27
 72
    34
  0
VERTEX
  5
D60
  8
0
 10
149.8733003889806
 20
10.16161900607756
 30
0.0000000000000092
 70
   192
  0
VERTEX
  5
D61
  8
0
 10
148.0651775385701
 20
10.5
 30
0.0000000000000411
 70
   192
  0
VERTEX
  5
D62
  8
0
 10
128.2282051642548
 20
10.5
 30
-74.03258876928501
 70
   192
  0
VERTEX
  5
D63
  8
0
 10
105.9764270238566
 20
10.16161900607756
 30
-105.9764270238566
 70
   192
  0
VERTEX
  5
D64
  8
0
 10
74.03258876928513
 20
10.5
 30
-128.2282051642547
 70
   192
  0
VERTEX
  5
D65
  8
0
 10
0.0000000000000181
 20
10.5
 30
-148.0651775385701
 70
   192
  0
VERTEX
  5
D66
  8
0
 10
105.9764270238566
 20
10.16161900607756
 30
105.9764270238566
 70
   192
  0
VERTEX
  5
D67
  8
0
 10
128.2282051642548
 20
10.5
 30
74.03258876928508
 70
   192
  0
VERTEX
  5
D68
  8
0
 10
107.0819100492667
 20
9.192276703129407
 30
-107.0819100492667
 70
   192
  0
VERTEX
  5
D69
  8
0
 10
151.4366894764887
 20
9.192276703129407
 30
0.0000000000000093
 70
   192
  0
VERTEX
  5
D6A
  8
0
 10
107.0819100492667
 20
9.192276703129407
 30
107.0819100492667
 70
   192
  0
VERTEX
  5
D6B
  8
0
 10
0.0
 20
9.903765089142551
 30
150.4330569779946
 70
   192
  0
VERTEX
  5
D6C
  8
0
 10
107.8647103933822
 20
7.723175895924612
 30
-107.8647103933821
 70
   192
  0
VERTEX
  5
D6D
  8
0
 10
152.5437363397672
 20
7.723175895924612
 30
0.0000000000000093
 70
   192
  0
VERTEX
  5
D6E
  8
0
 10
0.0000000000000186
 20
8.257258784140268
 30
-152.2362114628245
 70
   192
  0
VERTEX
  5
D6F
  8
0
 10
107.8647103933822
 20
7.723175895924612
 30
107.8647103933822
 70
   192
  0
VERTEX
  5
D70
  8
0
 10
153.0445995316499
 20
5.953162900988865
 30
0.0000000000000425
 70
   192
  0
VERTEX
  5
D71
  8
0
 10
132.5405111064249
 20
5.953162900988865
 30
-76.52229976582493
 70
   192
  0
VERTEX
  5
D72
  8
0
 10
76.52229976582495
 20
5.953162900988865
 30
132.5405111064248
 70
   192
  0
VERTEX
  5
D73
  8
0
 10
0.0
 20
5.953162900988865
 30
153.0445995316499
 70
   192
  0
VERTEX
  5
D74
  8
0
 10
132.5405111064248
 20
5.953162900988865
 30
76.522299765825
 70
   192
  0
VERTEX
  5
D75
  8
0
 10
0.0000000000000184
 20
9.903765089142551
 30
-150.4330569779946
 70
   192
  0
VERTEX
  5
D76
  8
0
 10
0.0
 20
8.257258784140268
 30
152.2362114628245
 70
   192
  0
VERTEX
  5
D77
  8
0
 10
0.0000000000000187
 20
5.953162900988864
 30
-153.04459953165
 70
   192
  0
VERTEX
  5
D78
  8
0
 10
76.52229976582504
 20
5.953162900988865
 30
-132.5405111064248
 70
   192
  0
VERTEX
  5
D79
  8
0
 10
74.03258876928504
 20
10.5
 30
128.2282051642548
 70
   192
  0
VERTEX
  5
D7A
  8
0
 10
0.0
 20
10.5
 30
148.0651775385701
 70
   192
  0
VERTEX
  5
D7B
  8
0
 10
0.0
 20
0.0
 30
0.0
 70
   128
 71
     1
 72
     2
 73
     3
  0
VERTEX
  5
D7C
  8
0
 10
0.0
 20
0.0
 30
0.0
 70
   128
 71
     4
 72
     1
 73
     3
  0
VERTEX
  5
D7D
  8
0
 10
0.0
 20
0.0
 30
0.0
 70
   128
 71
     5
 72
     6
 73
     4
  0
VERTEX
  5
D7E
  8
0
 10
0.0
 20
0.0
 30
0.0
 70
   128
 71
     2
 72
     1
 73
     7
  0
VERTEX
  5
D7F
  8
0
 10
0.0
 20
0.0
 30
0.0
 70
   128
 71
     8
 72
     2
 73
     7
  0
VERTEX
  5
D80
  8
0
 10
0.0
 20
0.0
 30
0.0
 70
   128
 71
     4
 72
     9
 73
   -10
  0
VERTEX
  5
D81
  8
0
 10
0.0
 20
0.0
 30
0.0
 70
   128
 71
     1
 72
    -4
 73
    10
  0
VERTEX
  5
D82
  8
0
 10
0.0
 20
0.0
 30
0.0
 70
   128
 71
     7
 72
    11
 73
    12
  0
VERTEX
  5
D83
  8
0
 10
0.0
 20
0.0
 30
0.0
 70
   128
 71
     1
 72
    10
 73
   -11
  0
VERTEX
  5
D84
  8
0
 10
0.0
 20
0.0
 30
0.0
 70
   128
 71
     7
 72
    -1
 73
    11
  0
VERTEX
  5
D85
  8
0
 10
0.0
 20
0.0
 30
0.0
 70
   128
 71
     9
 72
    13
 73
   -14
  0
VERTEX
  5
D86
  8
0
 10
0.0
 20
0.0
 30
0.0
 70
   128
 71
    10
 72
    -9
 73
    14
  0
VERTEX
  5
D87
  8
0
 10
0.0
 20
0.0
 30
0.0
 70
   128
 71
    13
 72
     9
 73
    15
  0
VERTEX
  5
D88
  8
0
 10
0.0
 20
0.0
 30
0.0
 70
   128
 71
    10
 72
    14
 73
   -16
  0
VERTEX
  5
D89
  8
0
 10
0.0
 20
0.0
 30
0.0
 70
   128
 71
    11
 72
   -10
 73
    16
  0
VERTEX
  5
D8A
  8
0
 10
0.0
 20
0.0
 30
0.0
 70
   128
 71
    17
 72
    14
 73
    13
  0
VERTEX
  5
D8B
  8
0
 10
0.0
 20
0.0
 30
0.0
 70
   128
 71
    18
 72
    17
 73
    13
  0
VERTEX
  5
D8C
  8
0
 10
0.0
 20
0.0
 30
0.0
 70
   128
 71
    19
 72
    20
 73
    16
  0
VERTEX
  5
D8D
  8
0
 10
0.0
 20
0.0
 30
0.0
 70
   128
 71
    14
 72
    17
 73
    21
  0
VERTEX
  5
D8E
  8
0
 10
0.0
 20
0.0
 30
0.0
 70
   128
 71
    16
 72
    14
 73
    21
  0
VERTEX
  5
D8F
  8
0
 10
0.0
 20
0.0
 30
0.0
 70
   128
 71
    15
 72
     9
 73
     4
  0
VERTEX
  5
D90
  8
0
 10
0.0
 20
0.0
 30
0.0
 70
   128
 71
    22
 72
    15
 73
     4
  0
VERTEX
  5
D91
  8
0
 10
0.0
 20
0.0
 30
0.0
 70
   128
 71
    11
 72
    16
 73
    23
  0
VERTEX
  5
D92
  8
0
 10
0.0
 20
0.0
 30
0.0
 70
   128
 71
    12
 72
    11
 73
    23
  0
VERTEX
  5
D93
  8
0
 10
0.0
 20
0.0
 30
0.0
 70
   128
 71
    24
 72
    25
 73
    13
  0
VERTEX
  5
D94
  8
0
 10
0.0
 20
0.0
 30
0.0
 70
   128
 71
    15
 72
    24
 73
    13
  0
VERTEX
  5
D95
  8
0
 10
0.0
 20
0.0
 30
0.0
 70
   128
 71
    23
 72
    16
 73
    20
  0
VERTEX
  5
D96
  8
0
 10
0.0
 20
0.0
 30
0.0
 70
   128
 71
     6
 72
    22
 73
     4
  0
VERTEX
  5
D97
  8
0
 10
0.0
 20
0.0
 30
0.0
 70
   128
 71
    26
 72
     7
 73
    12
  0
VERTEX
  5
D98
  8
0
 10
0.0
 20
0.0
 30
0.0
 70
   128
 71
    27
 72
    26
 73
    12
  0
VERTEX
  5
D99
  8
0
 10
0.0
 20
0.0
 30
0.0
 70
   128
 71
     5
 72
     4
 73
     3
  0
VERTEX
  5
D9A
  8
0
 10
0.0
 20
0.0
 30
0.0
 70
   128
 71
     8
 72
     7
 73
    26
  0
VERTEX
  5
D9B
  8
0
 10
0.0
 20
0.0
 30
0.0
 70
   128
 71
    13
 72
    25
 73
    18
  0
VERTEX
  5
D9C
  8
0
 10
0.0
 20
0.0
 30
0.0
 70
   128
 71
    16
 72
    21
 73
    19
  0
SEQEND
  5
F7C
  8
0
  0
POLYLINE
  5
D9D
  8
0
 66
     1
 10
0.0
 20
0.0
 30
0.0
 70
    64
 71
    14
 72
    12
  0
VERTEX
  5
D9E
  8
0
 10
0.000000000000085
 20
5.953162900988865
 30
-153.0445995316499
 70
   192
  0
VERTEX
  5
D9F
  8
0
 10
0.0
 20
-1.408607015345745
 30
-153.7145730780445
 70
   192
  0
VERTEX
  5
DA0
  8
0
 10
76.8572865390223
 20
-1.408607015345745
 30
-133.1207252174661
 70
   192
  0
VERTEX
  5
DA1
  8
0
 10
76.52229976582504
 20
5.953162900988865
 30
-132.5405111064248
 70
   192
  0
VERTEX
  5
DA2
  8
0
 10
153.7145730780445
 20
-1.408607015345745
 30
0.0000000000000171
 70
   192
  0
VERTEX
  5
DA3
  8
0
 10
153.0445995316499
 20
5.953162900988865
 30
0.0000000000000425
 70
   192
  0
VERTEX
  5
DA4
  8
0
 10
132.5405111064249
 20
5.953162900988865
 30
-76.52229976582493
 70
   192
  0
VERTEX
  5
DA5
  8
0
 10
133.1207252174661
 20
-1.408607015345745
 30
-76.85728653902224
 70
   192
  0
VERTEX
  5
DA6
  8
0
 10
133.1207252174661
 20
-1.408607015345745
 30
76.85728653902227
 70
   192
  0
VERTEX
  5
DA7
  8
0
 10
132.5405111064248
 20
5.953162900988865
 30
76.522299765825
 70
   192
  0
VERTEX
  5
DA8
  8
0
 10
0.0000000000000188
 20
-1.408607015345745
 30
153.7145730780445
 70
   192
  0
VERTEX
  5
DA9
  8
0
 10
0.0000000000000187
 20
5.953162900988865
 30
153.04459953165
 70
   192
  0
VERTEX
  5
DAA
  8
0
 10
76.52229976582495
 20
5.953162900988865
 30
132.5405111064248
 70
   192
  0
VERTEX
  5
DAB
  8
0
 10
76.85728653902227
 20
-1.408607015345745
 30
133.1207252174661
 70
   192
  0
VERTEX
  5
DAC
  8
0
 10
0.0
 20
0.0
 30
0.0
 70
   128
 71
     1
 72
     2
 73
    -3
  0
VERTEX
  5
DAD
  8
0
 10
0.0
 20
0.0
 30
0.0
 70
   128
 71
     4
 72
    -1
 73
     3
  0
VERTEX
  5
DAE
  8
0
 10
0.0
 20
0.0
 30
0.0
 70
   128
 71
     5
 72
     6
 73
    -7
  0
VERTEX
  5
DAF
  8
0
 10
0.0
 20
0.0
 30
0.0
 70
   128
 71
     8
 72
    -5
 73
     7
  0
VERTEX
  5
DB0
  8
0
 10
0.0
 20
0.0
 30
0.0
 70
   128
 71
     6
 72
     5
 73
    -9
  0
VERTEX
  5
DB1
  8
0
 10
0.0
 20
0.0
 30
0.0
 70
   128
 71
    10
 72
    -6
 73
     9
  0
VERTEX
  5
DB2
  8
0
 10
0.0
 20
0.0
 30
0.0
 70
   128
 71
    11
 72
    12
 73
   -13
  0
VERTEX
  5
DB3
  8
0
 10
0.0
 20
0.0
 30
0.0
 70
   128
 71
    14
 72
   -11
 73
    13
  0
VERTEX
  5
DB4
  8
0
 10
0.0
 20
0.0
 30
0.0
 70
   128
 71
     7
 72
     4
 73
    -3
  0
VERTEX
  5
DB5
  8
0
 10
0.0
 20
0.0
 30
0.0
 70
   128
 71
     8
 72
    -7
 73
     3
  0
VERTEX
  5
DB6
  8
0
 10
0.0
 20
0.0
 30
0.0
 70
   128
 71
    13
 72
    10
 73
    -9
  0
VERTEX
  5
DB7
  8
0
 10
0.0
 20
0.0
 30
0.0
 70
   128
 71
    14
 72
   -13
 73
     9
  0
SEQEND
  5
F7D
  8
0
  0
POLYLINE
  5
DB8
  8
0
 66
     1
 10
0.0
 20
0.0
 30
0.0
 70
    64
 71
    27
 72
    34
  0
VERTEX
  5
DB9
  8
0
 10
-134.6300322972257
 20
-2.999999999999649
 30
77.7286853878112
 70
   192
  0
VERTEX
  5
DBA
  8
0
 10
-155.4573707756225
 20
-2.999999999999649
 30
-0.0000000000000604
 70
   192
  0
VERTEX
  5
DBB
  8
0
 10
-154.8245277779789
 20
-2.881566652126801
 30
-0.0000000000000284
 70
   192
  0
VERTEX
  5
DBC
  8
0
 10
-109.4774734858139
 20
-2.881566652126801
 30
109.4774734858138
 70
   192
  0
VERTEX
  5
DBD
  8
0
 10
0.0
 20
-2.999999999999647
 30
155.4573707756225
 70
   192
  0
VERTEX
  5
DBE
  8
0
 10
-77.72868538781134
 20
-2.999999999999649
 30
134.6300322972256
 70
   192
  0
VERTEX
  5
DBF
  8
0
 10
-109.4774734858138
 20
-2.881566652126801
 30
-109.4774734858139
 70
   192
  0
VERTEX
  5
DC0
  8
0
 10
-134.6300322972257
 20
-2.999999999999649
 30
-77.72868538781131
 70
   192
  0
VERTEX
  5
DC1
  8
0
 10
-154.277341597351
 20
-2.542296846094947
 30
-0.0000000000000283
 70
   192
  0
VERTEX
  5
DC2
  8
0
 10
-109.0905544269203
 20
-2.542296846094947
 30
109.0905544269203
 70
   192
  0
VERTEX
  5
DC3
  8
0
 10
0.0000000000000189
 20
-2.791317781199538
 30
-154.6286129718239
 70
   192
  0
VERTEX
  5
DC4
  8
0
 10
-109.0905544269203
 20
-2.542296846094947
 30
-109.0905544269203
 70
   192
  0
VERTEX
  5
DC5
  8
0
 10
-153.8898751952035
 20
-2.028111563573263
 30
-0.0000000000000283
 70
   192
  0
VERTEX
  5
DC6
  8
0
 10
-108.8165743064799
 20
-2.028111563573263
 30
108.8165743064799
 70
   192
  0
VERTEX
  5
DC7
  8
0
 10
0.0
 20
-2.215040574448736
 30
153.9975089021335
 70
   192
  0
VERTEX
  5
DC8
  8
0
 10
-108.8165743064799
 20
-2.028111563573263
 30
-108.8165743064799
 70
   192
  0
VERTEX
  5
DC9
  8
0
 10
-153.7145730780445
 20
-1.408607015345745
 30
-0.0000000000000597
 70
   192
  0
VERTEX
  5
DCA
  8
0
 10
-133.1207252174662
 20
-1.408607015345745
 30
76.85728653902221
 70
   192
  0
VERTEX
  5
DCB
  8
0
 10
0.0000000000000188
 20
-1.408607015345742
 30
-153.7145730780446
 70
   192
  0
VERTEX
  5
DCC
  8
0
 10
-76.85728653902224
 20
-1.408607015345745
 30
-133.1207252174661
 70
   192
  0
VERTEX
  5
DCD
  8
0
 10
-133.1207252174661
 20
-1.408607015345745
 30
-76.85728653902233
 70
   192
  0
VERTEX
  5
DCE
  8
0
 10
0.0
 20
-2.791317781199538
 30
154.6286129718239
 70
   192
  0
VERTEX
  5
DCF
  8
0
 10
0.0000000000000189
 20
-2.215040574448736
 30
-153.9975089021335
 70
   192
  0
VERTEX
  5
DD0
  8
0
 10
-76.85728653902235
 20
-1.408607015345745
 30
133.1207252174661
 70
   192
  0
VERTEX
  5
DD1
  8
0
 10
-0.0000000000001109
 20
-1.408607015345745
 30
153.7145730780445
 70
   192
  0
VERTEX
  5
DD2
  8
0
 10
-77.72868538781123
 20
-2.999999999999649
 30
-134.6300322972257
 70
   192
  0
VERTEX
  5
DD3
  8
0
 10
0.000000000000019
 20
-2.999999999999649
 30
-155.4573707756225
 70
   192
  0
VERTEX
  5
DD4
  8
0
 10
0.0
 20
0.0
 30
0.0
 70
   128
 71
     1
 72
     2
 73
     3
  0
VERTEX
  5
DD5
  8
0
 10
0.0
 20
0.0
 30
0.0
 70
   128
 71
     1
 72
     3
 73
     4
  0
VERTEX
  5
DD6
  8
0
 10
0.0
 20
0.0
 30
0.0
 70
   128
 71
     4
 72
     5
 73
     6
  0
VERTEX
  5
DD7
  8
0
 10
0.0
 20
0.0
 30
0.0
 70
   128
 71
     7
 72
     3
 73
     2
  0
VERTEX
  5
DD8
  8
0
 10
0.0
 20
0.0
 30
0.0
 70
   128
 71
     7
 72
     2
 73
     8
  0
VERTEX
  5
DD9
  8
0
 10
0.0
 20
0.0
 30
0.0
 70
   128
 71
     9
 72
    10
 73
    -4
  0
VERTEX
  5
DDA
  8
0
 10
0.0
 20
0.0
 30
0.0
 70
   128
 71
    -9
 72
     4
 73
     3
  0
VERTEX
  5
DDB
  8
0
 10
0.0
 20
0.0
 30
0.0
 70
   128
 71
    11
 72
    12
 73
     7
  0
VERTEX
  5
DDC
  8
0
 10
0.0
 20
0.0
 30
0.0
 70
   128
 71
    12
 72
     9
 73
    -3
  0
VERTEX
  5
DDD
  8
0
 10
0.0
 20
0.0
 30
0.0
 70
   128
 71
   -12
 72
     3
 73
     7
  0
VERTEX
  5
DDE
  8
0
 10
0.0
 20
0.0
 30
0.0
 70
   128
 71
    13
 72
    14
 73
   -10
  0
VERTEX
  5
DDF
  8
0
 10
0.0
 20
0.0
 30
0.0
 70
   128
 71
   -13
 72
    10
 73
     9
  0
VERTEX
  5
DE0
  8
0
 10
0.0
 20
0.0
 30
0.0
 70
   128
 71
    15
 72
    10
 73
    14
  0
VERTEX
  5
DE1
  8
0
 10
0.0
 20
0.0
 30
0.0
 70
   128
 71
    16
 72
    13
 73
    -9
  0
VERTEX
  5
DE2
  8
0
 10
0.0
 20
0.0
 30
0.0
 70
   128
 71
   -16
 72
     9
 73
    12
  0
VERTEX
  5
DE3
  8
0
 10
0.0
 20
0.0
 30
0.0
 70
   128
 71
    14
 72
    13
 73
    17
  0
VERTEX
  5
DE4
  8
0
 10
0.0
 20
0.0
 30
0.0
 70
   128
 71
    14
 72
    17
 73
    18
  0
VERTEX
  5
DE5
  8
0
 10
0.0
 20
0.0
 30
0.0
 70
   128
 71
    16
 72
    19
 73
    20
  0
VERTEX
  5
DE6
  8
0
 10
0.0
 20
0.0
 30
0.0
 70
   128
 71
    21
 72
    17
 73
    13
  0
VERTEX
  5
DE7
  8
0
 10
0.0
 20
0.0
 30
0.0
 70
   128
 71
    21
 72
    13
 73
    16
  0
VERTEX
  5
DE8
  8
0
 10
0.0
 20
0.0
 30
0.0
 70
   128
 71
     4
 72
    10
 73
    15
  0
VERTEX
  5
DE9
  8
0
 10
0.0
 20
0.0
 30
0.0
 70
   128
 71
     4
 72
    15
 73
    22
  0
VERTEX
  5
DEA
  8
0
 10
0.0
 20
0.0
 30
0.0
 70
   128
 71
    23
 72
    16
 73
    12
  0
VERTEX
  5
DEB
  8
0
 10
0.0
 20
0.0
 30
0.0
 70
   128
 71
    23
 72
    12
 73
    11
  0
VERTEX
  5
DEC
  8
0
 10
0.0
 20
0.0
 30
0.0
 70
   128
 71
    14
 72
    24
 73
    25
  0
VERTEX
  5
DED
  8
0
 10
0.0
 20
0.0
 30
0.0
 70
   128
 71
    14
 72
    25
 73
    15
  0
VERTEX
  5
DEE
  8
0
 10
0.0
 20
0.0
 30
0.0
 70
   128
 71
    19
 72
    16
 73
    23
  0
VERTEX
  5
DEF
  8
0
 10
0.0
 20
0.0
 30
0.0
 70
   128
 71
     4
 72
    22
 73
     5
  0
VERTEX
  5
DF0
  8
0
 10
0.0
 20
0.0
 30
0.0
 70
   128
 71
    11
 72
     7
 73
    26
  0
VERTEX
  5
DF1
  8
0
 10
0.0
 20
0.0
 30
0.0
 70
   128
 71
    11
 72
    26
 73
    27
  0
VERTEX
  5
DF2
  8
0
 10
0.0
 20
0.0
 30
0.0
 70
   128
 71
     1
 72
     4
 73
     6
  0
VERTEX
  5
DF3
  8
0
 10
0.0
 20
0.0
 30
0.0
 70
   128
 71
    26
 72
     7
 73
     8
  0
VERTEX
  5
DF4
  8
0
 10
0.0
 20
0.0
 30
0.0
 70
   128
 71
    18
 72
    24
 73
    14
  0
VERTEX
  5
DF5
  8
0
 10
0.0
 20
0.0
 30
0.0
 70
   128
 71
    20
 72
    21
 73
    16
  0
SEQEND
  5
F7E
  8
0
  0
POLYLINE
  5
DF6
  8
0
 66
     1
 10
0.0
 20
0.0
 30
0.0
 70
    64
 71
    24
 72
    24
  0
VERTEX
  5
DF7
  8
0
 10
0.0000000000000875
 20
-2.999999999999649
 30
-157.6298822769866
 70
   192
  0
VERTEX
  5
DF8
  8
0
 10
78.8149411384934
 20
-2.999999999999649
 30
-136.5114824474209
 70
   192
  0
VERTEX
  5
DF9
  8
0
 10
136.5114824474209
 20
-2.999999999999649
 30
-78.81494113849328
 70
   192
  0
VERTEX
  5
DFA
  8
0
 10
157.6298822769866
 20
-2.999999999999649
 30
0.0000000000000438
 70
   192
  0
VERTEX
  5
DFB
  8
0
 10
136.5114824474209
 20
-2.999999999999649
 30
78.81494113849335
 70
   192
  0
VERTEX
  5
DFC
  8
0
 10
78.81494113849331
 20
-2.999999999999649
 30
136.5114824474209
 70
   192
  0
VERTEX
  5
DFD
  8
0
 10
0.0
 20
-2.999999999999649
 30
157.6298822769866
 70
   192
  0
VERTEX
  5
DFE
  8
0
 10
-78.81494113849341
 20
-2.999999999999649
 30
136.5114824474209
 70
   192
  0
VERTEX
  5
DFF
  8
0
 10
-136.5114824474209
 20
-2.999999999999649
 30
78.81494113849327
 70
   192
  0
VERTEX
  5
E00
  8
0
 10
-157.6298822769866
 20
-2.999999999999649
 30
-0.0000000000000613
 70
   192
  0
VERTEX
  5
E01
  8
0
 10
-136.5114824474209
 20
-2.999999999999649
 30
-78.81494113849338
 70
   192
  0
VERTEX
  5
E02
  8
0
 10
-78.8149411384933
 20
-2.999999999999649
 30
-136.5114824474209
 70
   192
  0
VERTEX
  5
E03
  8
0
 10
0.0
 20
-2.999999999999649
 30
155.4573707756225
 70
   192
  0
VERTEX
  5
E04
  8
0
 10
77.72868538781124
 20
-2.999999999999649
 30
134.6300322972257
 70
   192
  0
VERTEX
  5
E05
  8
0
 10
134.6300322972257
 20
-2.999999999999649
 30
77.72868538781128
 70
   192
  0
VERTEX
  5
E06
  8
0
 10
155.4573707756225
 20
-2.999999999999649
 30
0.0000000000000431
 70
   192
  0
VERTEX
  5
E07
  8
0
 10
134.6300322972257
 20
-2.999999999999649
 30
-77.72868538781121
 70
   192
  0
VERTEX
  5
E08
  8
0
 10
77.72868538781132
 20
-2.999999999999649
 30
-134.6300322972257
 70
   192
  0
VERTEX
  5
E09
  8
0
 10
0.0000000000000863
 20
-2.999999999999649
 30
-155.4573707756225
 70
   192
  0
VERTEX
  5
E0A
  8
0
 10
-77.72868538781123
 20
-2.999999999999649
 30
-134.6300322972257
 70
   192
  0
VERTEX
  5
E0B
  8
0
 10
-134.6300322972257
 20
-2.999999999999649
 30
-77.72868538781131
 70
   192
  0
VERTEX
  5
E0C
  8
0
 10
-155.4573707756225
 20
-2.999999999999649
 30
-0.0000000000000604
 70
   192
  0
VERTEX
  5
E0D
  8
0
 10
-134.6300322972257
 20
-2.999999999999649
 30
77.7286853878112
 70
   192
  0
VERTEX
  5
E0E
  8
0
 10
-77.72868538781134
 20
-2.999999999999649
 30
134.6300322972256
 70
   192
  0
VERTEX
  5
E0F
  8
0
 10
0.0
 20
0.0
 30
0.0
 70
   128
 71
    -7
 72
    13
 73
   -14
  0
VERTEX
  5
E10
  8
0
 10
0.0
 20
0.0
 30
0.0
 70
   128
 71
     6
 72
    -7
 73
   -14
  0
VERTEX
  5
E11
  8
0
 10
0.0
 20
0.0
 30
0.0
 70
   128
 71
   -15
 72
     5
 73
    -6
  0
VERTEX
  5
E12
  8
0
 10
0.0
 20
0.0
 30
0.0
 70
   128
 71
    14
 72
   -15
 73
    -6
  0
VERTEX
  5
E13
  8
0
 10
0.0
 20
0.0
 30
0.0
 70
   128
 71
   -16
 72
     4
 73
    -5
  0
VERTEX
  5
E14
  8
0
 10
0.0
 20
0.0
 30
0.0
 70
   128
 71
    15
 72
   -16
 73
    -5
  0
VERTEX
  5
E15
  8
0
 10
0.0
 20
0.0
 30
0.0
 70
   128
 71
   -17
 72
     3
 73
    -4
  0
VERTEX
  5
E16
  8
0
 10
0.0
 20
0.0
 30
0.0
 70
   128
 71
    16
 72
   -17
 73
    -4
  0
VERTEX
  5
E17
  8
0
 10
0.0
 20
0.0
 30
0.0
 70
   128
 71
   -18
 72
     2
 73
    -3
  0
VERTEX
  5
E18
  8
0
 10
0.0
 20
0.0
 30
0.0
 70
   128
 71
    17
 72
   -18
 73
    -3
  0
VERTEX
  5
E19
  8
0
 10
0.0
 20
0.0
 30
0.0
 70
   128
 71
   -19
 72
     1
 73
    -2
  0
VERTEX
  5
E1A
  8
0
 10
0.0
 20
0.0
 30
0.0
 70
   128
 71
    18
 72
   -19
 73
    -2
  0
VERTEX
  5
E1B
  8
0
 10
0.0
 20
0.0
 30
0.0
 70
   128
 71
   -20
 72
    12
 73
    -1
  0
VERTEX
  5
E1C
  8
0
 10
0.0
 20
0.0
 30
0.0
 70
   128
 71
    19
 72
   -20
 73
    -1
  0
VERTEX
  5
E1D
  8
0
 10
0.0
 20
0.0
 30
0.0
 70
   128
 71
   -21
 72
    11
 73
   -12
  0
VERTEX
  5
E1E
  8
0
 10
0.0
 20
0.0
 30
0.0
 70
   128
 71
    20
 72
   -21
 73
   -12
  0
VERTEX
  5
E1F
  8
0
 10
0.0
 20
0.0
 30
0.0
 70
   128
 71
   -22
 72
    10
 73
   -11
  0
VERTEX
  5
E20
  8
0
 10
0.0
 20
0.0
 30
0.0
 70
   128
 71
    21
 72
   -22
 73
   -11
  0
VERTEX
  5
E21
  8
0
 10
0.0
 20
0.0
 30
0.0
 70
   128
 71
   -23
 72
     9
 73
   -10
  0
VERTEX
  5
E22
  8
0
 10
0.0
 20
0.0
 30
0.0
 70
   128
 71
    22
 72
   -23
 73
   -10
  0
VERTEX
  5
E23
  8
0
 10
0.0
 20
0.0
 30
0.0
 70
   128
 71
   -24
 72
     8
 73
    -9
  0
VERTEX
  5
E24
  8
0
 10
0.0
 20
0.0
 30
0.0
 70
   128
 71
    23
 72
   -24
 73
    -9
  0
VERTEX
  5
E25
  8
0
 10
0.0
 20
0.0
 30
0.0
 70
   128
 71
   -13
 72
     7
 73
    -8
  0
VERTEX
  5
E26
  8
0
 10
0.0
 20
0.0
 30
0.0
 70
   128
 71
    24
 72
   -13
 73
    -8
  0
SEQEND
  5
F7F
  8
0
  0
POLYLINE
  5
E27
  8
0
 66
     1
 10
0.0
 20
0.0
 30
0.0
 70
    64
 71
    27
 72
    34
  0
VERTEX
  5
E28
  8
0
 10
-139.6159157458495
 20
-1.566960560028252
 30
80.60728653902221
 70
   192
  0
VERTEX
  5
E29
  8
0
 10
-161.2145730780445
 20
-1.566960560028252
 30
-0.0000000000000626
 70
   192
  0
VERTEX
  5
E2A
  8
0
 10
-160.437972192928
 20
-2.176600395739328
 30
-0.0000000000000295
 70
   192
  0
VERTEX
  5
E2B
  8
0
 10
-113.4467780974381
 20
-2.176600395739328
 30
113.4467780974381
 70
   192
  0
VERTEX
  5
E2C
  8
0
 10
0.0
 20
-1.566960560028256
 30
161.2145730780445
 70
   192
  0
VERTEX
  5
E2D
  8
0
 10
-80.60728653902235
 20
-1.566960560028252
 30
139.6159157458494
 70
   192
  0
VERTEX
  5
E2E
  8
0
 10
-113.4467780974381
 20
-2.176600395739328
 30
-113.4467780974381
 70
   192
  0
VERTEX
  5
E2F
  8
0
 10
-139.6159157458494
 20
-1.566960560028252
 30
-80.60728653902233
 70
   192
  0
VERTEX
  5
E30
  8
0
 10
-159.5601419859185
 20
-2.628467402403265
 30
-0.0000000000000293
 70
   192
  0
VERTEX
  5
E31
  8
0
 10
-112.8260584053314
 20
-2.628467402403265
 30
112.8260584053313
 70
   192
  0
VERTEX
  5
E32
  8
0
 10
0.0000000000000196
 20
-2.345681054359657
 30
-160.1551117224099
 70
   192
  0
VERTEX
  5
E33
  8
0
 10
-112.8260584053313
 20
-2.628467402403265
 30
-112.8260584053314
 70
   192
  0
VERTEX
  5
E34
  8
0
 10
-158.6127275108615
 20
-2.906272147687177
 30
-0.0000000000000291
 70
   192
  0
VERTEX
  5
E35
  8
0
 10
-112.1561352054243
 20
-2.906272147687177
 30
112.1561352054242
 70
   192
  0
VERTEX
  5
E36
  8
0
 10
0.0
 20
-2.833763079578989
 30
158.9341940720203
 70
   192
  0
VERTEX
  5
E37
  8
0
 10
-112.1561352054242
 20
-2.906272147687177
 30
-112.1561352054243
 70
   192
  0
VERTEX
  5
E38
  8
0
 10
-157.6298822769866
 20
-2.999999999999649
 30
-0.0000000000000613
 70
   192
  0
VERTEX
  5
E39
  8
0
 10
-136.5114824474209
 20
-2.999999999999649
 30
78.81494113849327
 70
   192
  0
VERTEX
  5
E3A
  8
0
 10
0.0000000000000193
 20
-2.999999999999656
 30
-157.6298822769866
 70
   192
  0
VERTEX
  5
E3B
  8
0
 10
-78.8149411384933
 20
-2.999999999999649
 30
-136.5114824474209
 70
   192
  0
VERTEX
  5
E3C
  8
0
 10
-136.5114824474209
 20
-2.999999999999649
 30
-78.81494113849338
 70
   192
  0
VERTEX
  5
E3D
  8
0
 10
0.0
 20
-2.345681054359657
 30
160.1551117224099
 70
   192
  0
VERTEX
  5
E3E
  8
0
 10
0.0000000000000195
 20
-2.833763079578989
 30
-158.9341940720203
 70
   192
  0
VERTEX
  5
E3F
  8
0
 10
-78.81494113849341
 20
-2.999999999999649
 30
136.5114824474209
 70
   192
  0
VERTEX
  5
E40
  8
0
 10
-0.0000000000001138
 20
-2.999999999999649
 30
157.6298822769866
 70
   192
  0
VERTEX
  5
E41
  8
0
 10
-80.60728653902224
 20
-1.566960560028252
 30
-139.6159157458494
 70
   192
  0
VERTEX
  5
E42
  8
0
 10
0.0000000000000197
 20
-1.566960560028252
 30
-161.2145730780445
 70
   192
  0
VERTEX
  5
E43
  8
0
 10
0.0
 20
0.0
 30
0.0
 70
   128
 71
     1
 72
     2
 73
     3
  0
VERTEX
  5
E44
  8
0
 10
0.0
 20
0.0
 30
0.0
 70
   128
 71
     1
 72
     3
 73
     4
  0
VERTEX
  5
E45
  8
0
 10
0.0
 20
0.0
 30
0.0
 70
   128
 71
     4
 72
     5
 73
     6
  0
VERTEX
  5
E46
  8
0
 10
0.0
 20
0.0
 30
0.0
 70
   128
 71
     7
 72
     3
 73
     2
  0
VERTEX
  5
E47
  8
0
 10
0.0
 20
0.0
 30
0.0
 70
   128
 71
     7
 72
     2
 73
     8
  0
VERTEX
  5
E48
  8
0
 10
0.0
 20
0.0
 30
0.0
 70
   128
 71
     9
 72
    10
 73
    -4
  0
VERTEX
  5
E49
  8
0
 10
0.0
 20
0.0
 30
0.0
 70
   128
 71
    -9
 72
     4
 73
     3
  0
VERTEX
  5
E4A
  8
0
 10
0.0
 20
0.0
 30
0.0
 70
   128
 71
    11
 72
    12
 73
     7
  0
VERTEX
  5
E4B
  8
0
 10
0.0
 20
0.0
 30
0.0
 70
   128
 71
    12
 72
     9
 73
    -3
  0
VERTEX
  5
E4C
  8
0
 10
0.0
 20
0.0
 30
0.0
 70
   128
 71
   -12
 72
     3
 73
     7
  0
VERTEX
  5
E4D
  8
0
 10
0.0
 20
0.0
 30
0.0
 70
   128
 71
    13
 72
    14
 73
   -10
  0
VERTEX
  5
E4E
  8
0
 10
0.0
 20
0.0
 30
0.0
 70
   128
 71
   -13
 72
    10
 73
     9
  0
VERTEX
  5
E4F
  8
0
 10
0.0
 20
0.0
 30
0.0
 70
   128
 71
    15
 72
    10
 73
    14
  0
VERTEX
  5
E50
  8
0
 10
0.0
 20
0.0
 30
0.0
 70
   128
 71
    16
 72
    13
 73
    -9
  0
VERTEX
  5
E51
  8
0
 10
0.0
 20
0.0
 30
0.0
 70
   128
 71
   -16
 72
     9
 73
    12
  0
VERTEX
  5
E52
  8
0
 10
0.0
 20
0.0
 30
0.0
 70
   128
 71
    14
 72
    13
 73
    17
  0
VERTEX
  5
E53
  8
0
 10
0.0
 20
0.0
 30
0.0
 70
   128
 71
    14
 72
    17
 73
    18
  0
VERTEX
  5
E54
  8
0
 10
0.0
 20
0.0
 30
0.0
 70
   128
 71
    16
 72
    19
 73
    20
  0
VERTEX
  5
E55
  8
0
 10
0.0
 20
0.0
 30
0.0
 70
   128
 71
    21
 72
    17
 73
    13
  0
VERTEX
  5
E56
  8
0
 10
0.0
 20
0.0
 30
0.0
 70
   128
 71
    21
 72
    13
 73
    16
  0
VERTEX
  5
E57
  8
0
 10
0.0
 20
0.0
 30
0.0
 70
   128
 71
     4
 72
    10
 73
    15
  0
VERTEX
  5
E58
  8
0
 10
0.0
 20
0.0
 30
0.0
 70
   128
 71
     4
 72
    15
 73
    22
  0
VERTEX
  5
E59
  8
0
 10
0.0
 20
0.0
 30
0.0
 70
   128
 71
    23
 72
    16
 73
    12
  0
VERTEX
  5
E5A
  8
0
 10
0.0
 20
0.0
 30
0.0
 70
   128
 71
    23
 72
    12
 73
    11
  0
VERTEX
  5
E5B
  8
0
 10
0.0
 20
0.0
 30
0.0
 70
   128
 71
    14
 72
    24
 73
    25
  0
VERTEX
  5
E5C
  8
0
 10
0.0
 20
0.0
 30
0.0
 70
   128
 71
    14
 72
    25
 73
    15
  0
VERTEX
  5
E5D
  8
0
 10
0.0
 20
0.0
 30
0.0
 70
   128
 71
    19
 72
    16
 73
    23
  0
VERTEX
  5
E5E
  8
0
 10
0.0
 20
0.0
 30
0.0
 70
   128
 71
     4
 72
    22
 73
     5
  0
VERTEX
  5
E5F
  8
0
 10
0.0
 20
0.0
 30
0.0
 70
   128
 71
    11
 72
     7
 73
    26
  0
VERTEX
  5
E60
  8
0
 10
0.0
 20
0.0
 30
0.0
 70
   128
 71
    11
 72
    26
 73
    27
  0
VERTEX
  5
E61
  8
0
 10
0.0
 20
0.0
 30
0.0
 70
   128
 71
     1
 72
     4
 73
     6
  0
VERTEX
  5
E62
  8
0
 10
0.0
 20
0.0
 30
0.0
 70
   128
 71
    26
 72
     7
 73
     8
  0
VERTEX
  5
E63
  8
0
 10
0.0
 20
0.0
 30
0.0
 70
   128
 71
    18
 72
    24
 73
    14
  0
VERTEX
  5
E64
  8
0
 10
0.0
 20
0.0
 30
0.0
 70
   128
 71
    20
 72
    21
 73
    16
  0
SEQEND
  5
F80
  8
0
  0
POLYLINE
  5
E65
  8
0
 66
     1
 10
0.0
 20
0.0
 30
0.0
 70
    64
 71
    27
 72
    34
  0
VERTEX
  5
E66
  8
0
 10
-141.1177206597508
 20
1.006335166467094
 30
81.47435401033346
 70
   192
  0
VERTEX
  5
E67
  8
0
 10
-162.948708020667
 20
1.006335166467094
 30
-0.0000000000000633
 70
   192
  0
VERTEX
  5
E68
  8
0
 10
-162.6228486740648
 20
0.2959933345661026
 30
-0.0000000000000299
 70
   192
  0
VERTEX
  5
E69
  8
0
 10
-114.991719073305
 20
0.2959933345661026
 30
114.9917190733049
 70
   192
  0
VERTEX
  5
E6A
  8
0
 10
0.0
 20
1.006335166467092
 30
162.948708020667
 70
   192
  0
VERTEX
  5
E6B
  8
0
 10
-81.4743540103336
 20
1.006335166467094
 30
141.1177206597507
 70
   192
  0
VERTEX
  5
E6C
  8
0
 10
-114.991719073305
 20
0.2959933345661026
 30
-114.991719073305
 70
   192
  0
VERTEX
  5
E6D
  8
0
 10
-141.1177206597507
 20
1.006335166467094
 30
-81.47435401033357
 70
   192
  0
VERTEX
  5
E6E
  8
0
 10
-162.2219191452413
 20
-0.3748459493416325
 30
-0.0000000000000298
 70
   192
  0
VERTEX
  5
E6F
  8
0
 10
-114.708219084696
 20
-0.3748459493416325
 30
114.7082190846959
 70
   192
  0
VERTEX
  5
E70
  8
0
 10
0.0000000000000199
 20
0.0675902649613889
 30
-162.4973310686113
 70
   192
  0
VERTEX
  5
E71
  8
0
 10
-114.7082190846959
 20
-0.3748459493416325
 30
-114.708219084696
 70
   192
  0
VERTEX
  5
E72
  8
0
 10
-161.7506431159273
 20
-0.9982789739004847
 30
-0.0000000000000297
 70
   192
  0
VERTEX
  5
E73
  8
0
 10
-114.3749766085574
 20
-0.9982789739004847
 30
114.3749766085574
 70
   192
  0
VERTEX
  5
E74
  8
0
 10
0.0
 20
-0.7962012065349855
 30
161.9152250329784
 70
   192
  0
VERTEX
  5
E75
  8
0
 10
-114.3749766085574
 20
-0.9982789739004847
 30
-114.3749766085574
 70
   192
  0
VERTEX
  5
E76
  8
0
 10
-161.2145730780445
 20
-1.566960560028252
 30
-0.0000000000000626
 70
   192
  0
VERTEX
  5
E77
  8
0
 10
-139.6159157458495
 20
-1.566960560028252
 30
80.60728653902221
 70
   192
  0
VERTEX
  5
E78
  8
0
 10
0.0000000000000197
 20
-1.566960560028262
 30
-161.2145730780445
 70
   192
  0
VERTEX
  5
E79
  8
0
 10
-80.60728653902224
 20
-1.566960560028252
 30
-139.6159157458494
 70
   192
  0
VERTEX
  5
E7A
  8
0
 10
-139.6159157458494
 20
-1.566960560028252
 30
-80.60728653902233
 70
   192
  0
VERTEX
  5
E7B
  8
0
 10
0.0
 20
0.0675902649613889
 30
162.4973310686113
 70
   192
  0
VERTEX
  5
E7C
  8
0
 10
0.0000000000000198
 20
-0.7962012065349855
 30
-161.9152250329784
 70
   192
  0
VERTEX
  5
E7D
  8
0
 10
-80.60728653902235
 20
-1.566960560028252
 30
139.6159157458494
 70
   192
  0
VERTEX
  5
E7E
  8
0
 10
-0.0000000000001163
 20
-1.566960560028252
 30
161.2145730780445
 70
   192
  0
VERTEX
  5
E7F
  8
0
 10
-81.47435401033349
 20
1.006335166467094
 30
-141.1177206597508
 70
   192
  0
VERTEX
  5
E80
  8
0
 10
0.00000000000002
 20
1.006335166467094
 30
-162.948708020667
 70
   192
  0
VERTEX
  5
E81
  8
0
 10
0.0
 20
0.0
 30
0.0
 70
   128
 71
     1
 72
     2
 73
     3
  0
VERTEX
  5
E82
  8
0
 10
0.0
 20
0.0
 30
0.0
 70
   128
 71
     1
 72
     3
 73
     4
  0
VERTEX
  5
E83
  8
0
 10
0.0
 20
0.0
 30
0.0
 70
   128
 71
     4
 72
     5
 73
     6
  0
VERTEX
  5
E84
  8
0
 10
0.0
 20
0.0
 30
0.0
 70
   128
 71
     7
 72
     3
 73
     2
  0
VERTEX
  5
E85
  8
0
 10
0.0
 20
0.0
 30
0.0
 70
   128
 71
     7
 72
     2
 73
     8
  0
VERTEX
  5
E86
  8
0
 10
0.0
 20
0.0
 30
0.0
 70
   128
 71
     9
 72
    10
 73
    -4
  0
VERTEX
  5
E87
  8
0
 10
0.0
 20
0.0
 30
0.0
 70
   128
 71
    -9
 72
     4
 73
     3
  0
VERTEX
  5
E88
  8
0
 10
0.0
 20
0.0
 30
0.0
 70
   128
 71
    11
 72
    12
 73
     7
  0
VERTEX
  5
E89
  8
0
 10
0.0
 20
0.0
 30
0.0
 70
   128
 71
    12
 72
     9
 73
    -3
  0
VERTEX
  5
E8A
  8
0
 10
0.0
 20
0.0
 30
0.0
 70
   128
 71
   -12
 72
     3
 73
     7
  0
VERTEX
  5
E8B
  8
0
 10
0.0
 20
0.0
 30
0.0
 70
   128
 71
    13
 72
    14
 73
   -10
  0
VERTEX
  5
E8C
  8
0
 10
0.0
 20
0.0
 30
0.0
 70
   128
 71
   -13
 72
    10
 73
     9
  0
VERTEX
  5
E8D
  8
0
 10
0.0
 20
0.0
 30
0.0
 70
   128
 71
    15
 72
    10
 73
    14
  0
VERTEX
  5
E8E
  8
0
 10
0.0
 20
0.0
 30
0.0
 70
   128
 71
    16
 72
    13
 73
    -9
  0
VERTEX
  5
E8F
  8
0
 10
0.0
 20
0.0
 30
0.0
 70
   128
 71
   -16
 72
     9
 73
    12
  0
VERTEX
  5
E90
  8
0
 10
0.0
 20
0.0
 30
0.0
 70
   128
 71
    14
 72
    13
 73
    17
  0
VERTEX
  5
E91
  8
0
 10
0.0
 20
0.0
 30
0.0
 70
   128
 71
    14
 72
    17
 73
    18
  0
VERTEX
  5
E92
  8
0
 10
0.0
 20
0.0
 30
0.0
 70
   128
 71
    16
 72
    19
 73
    20
  0
VERTEX
  5
E93
  8
0
 10
0.0
 20
0.0
 30
0.0
 70
   128
 71
    21
 72
    17
 73
    13
  0
VERTEX
  5
E94
  8
0
 10
0.0
 20
0.0
 30
0.0
 70
   128
 71
    21
 72
    13
 73
    16
  0
VERTEX
  5
E95
  8
0
 10
0.0
 20
0.0
 30
0.0
 70
   128
 71
     4
 72
    10
 73
    15
  0
VERTEX
  5
E96
  8
0
 10
0.0
 20
0.0
 30
0.0
 70
   128
 71
     4
 72
    15
 73
    22
  0
VERTEX
  5
E97
  8
0
 10
0.0
 20
0.0
 30
0.0
 70
   128
 71
    23
 72
    16
 73
    12
  0
VERTEX
  5
E98
  8
0
 10
0.0
 20
0.0
 30
0.0
 70
   128
 71
    23
 72
    12
 73
    11
  0
VERTEX
  5
E99
  8
0
 10
0.0
 20
0.0
 30
0.0
 70
   128
 71
    14
 72
    24
 73
    25
  0
VERTEX
  5
E9A
  8
0
 10
0.0
 20
0.0
 30
0.0
 70
   128
 71
    14
 72
    25
 73
    15
  0
VERTEX
  5
E9B
  8
0
 10
0.0
 20
0.0
 30
0.0
 70
   128
 71
    19
 72
    16
 73
    23
  0
VERTEX
  5
E9C
  8
0
 10
0.0
 20
0.0
 30
0.0
 70
   128
 71
     4
 72
    22
 73
     5
  0
VERTEX
  5
E9D
  8
0
 10
0.0
 20
0.0
 30
0.0
 70
   128
 71
    11
 72
     7
 73
    26
  0
VERTEX
  5
E9E
  8
0
 10
0.0
 20
0.0
 30
0.0
 70
   128
 71
    11
 72
    26
 73
    27
  0
VERTEX
  5
E9F
  8
0
 10
0.0
 20
0.0
 30
0.0
 70
   128
 71
     1
 72
     4
 73
     6
  0
VERTEX
  5
EA0
  8
0
 10
0.0
 20
0.0
 30
0.0
 70
   128
 71
    26
 72
     7
 73
     8
  0
VERTEX
  5
EA1
  8
0
 10
0.0
 20
0.0
 30
0.0
 70
   128
 71
    18
 72
    24
 73
    14
  0
VERTEX
  5
EA2
  8
0
 10
0.0
 20
0.0
 30
0.0
 70
   128
 71
    20
 72
    21
 73
    16
  0
SEQEND
  5
F81
  8
0
  0
POLYLINE
  5
EA3
  8
0
 66
     1
 10
0.0
 20
0.0
 30
0.0
 70
    64
 71
    27
 72
    34
  0
VERTEX
  5
EA4
  8
0
 10
163.8738996889458
 20
3.000952838913065
 30
0.00000000000001
 70
   192
  0
VERTEX
  5
EA5
  8
0
 10
162.948708020667
 20
1.006335166467094
 30
0.0000000000000452
 70
   192
  0
VERTEX
  5
EA6
  8
0
 10
141.1177206597508
 20
1.006335166467094
 30
-81.47435401033347
 70
   192
  0
VERTEX
  5
EA7
  8
0
 10
115.8763457295376
 20
3.000952838913065
 30
-115.8763457295376
 70
   192
  0
VERTEX
  5
EA8
  8
0
 10
81.47435401033358
 20
1.006335166467094
 30
-141.1177206597507
 70
   192
  0
VERTEX
  5
EA9
  8
0
 10
0.00000000000002
 20
1.006335166467091
 30
-162.948708020667
 70
   192
  0
VERTEX
  5
EAA
  8
0
 10
115.8763457295376
 20
3.000952838913065
 30
115.8763457295376
 70
   192
  0
VERTEX
  5
EAB
  8
0
 10
141.1177206597507
 20
1.006335166467094
 30
81.47435401033356
 70
   192
  0
VERTEX
  5
EAC
  8
0
 10
116.6907520491538
 20
4.873908784851121
 30
-116.6907520491538
 70
   192
  0
VERTEX
  5
EAD
  8
0
 10
165.0256441514293
 20
4.873908784851121
 30
0.0000000000000101
 70
   192
  0
VERTEX
  5
EAE
  8
0
 10
116.6907520491538
 20
4.873908784851121
 30
116.6907520491538
 70
   192
  0
VERTEX
  5
EAF
  8
0
 10
0.0
 20
3.640092304679534
 30
164.2333580821001
 70
   192
  0
VERTEX
  5
EB0
  8
0
 10
117.6542156436592
 20
6.599584040051786
 30
-117.6542156436591
 70
   192
  0
VERTEX
  5
EB1
  8
0
 10
166.3881874336315
 20
6.599584040051786
 30
0.0000000000000102
 70
   192
  0
VERTEX
  5
EB2
  8
0
 10
0.0000000000000203
 20
6.042225661095916
 30
-165.9116780103071
 70
   192
  0
VERTEX
  5
EB3
  8
0
 10
117.6542156436592
 20
6.599584040051786
 30
117.6542156436592
 70
   192
  0
VERTEX
  5
EB4
  8
0
 10
167.9428921790873
 20
8.154374198479436
 30
0.0000000000000466
 70
   192
  0
VERTEX
  5
EB5
  8
0
 10
145.4428110121206
 20
8.154374198479436
 30
-83.97144608954362
 70
   192
  0
VERTEX
  5
EB6
  8
0
 10
83.97144608954365
 20
8.154374198479436
 30
145.4428110121206
 70
   192
  0
VERTEX
  5
EB7
  8
0
 10
0.0
 20
8.154374198479436
 30
167.9428921790873
 70
   192
  0
VERTEX
  5
EB8
  8
0
 10
145.4428110121205
 20
8.154374198479436
 30
83.9714460895437
 70
   192
  0
VERTEX
  5
EB9
  8
0
 10
0.0000000000000201
 20
3.640092304679534
 30
-164.2333580821001
 70
   192
  0
VERTEX
  5
EBA
  8
0
 10
0.0
 20
6.042225661095916
 30
165.9116780103071
 70
   192
  0
VERTEX
  5
EBB
  8
0
 10
0.0000000000000206
 20
8.154374198479433
 30
-167.9428921790873
 70
   192
  0
VERTEX
  5
EBC
  8
0
 10
83.97144608954373
 20
8.154374198479436
 30
-145.4428110121205
 70
   192
  0
VERTEX
  5
EBD
  8
0
 10
81.4743540103335
 20
1.006335166467094
 30
141.1177206597508
 70
   192
  0
VERTEX
  5
EBE
  8
0
 10
0.0
 20
1.006335166467091
 30
162.948708020667
 70
   192
  0
VERTEX
  5
EBF
  8
0
 10
0.0
 20
0.0
 30
0.0
 70
   128
 71
     1
 72
     2
 73
     3
  0
VERTEX
  5
EC0
  8
0
 10
0.0
 20
0.0
 30
0.0
 70
   128
 71
     4
 72
     1
 73
     3
  0
VERTEX
  5
EC1
  8
0
 10
0.0
 20
0.0
 30
0.0
 70
   128
 71
     5
 72
     6
 73
     4
  0
VERTEX
  5
EC2
  8
0
 10
0.0
 20
0.0
 30
0.0
 70
   128
 71
     2
 72
     1
 73
     7
  0
VERTEX
  5
EC3
  8
0
 10
0.0
 20
0.0
 30
0.0
 70
   128
 71
     8
 72
     2
 73
     7
  0
VERTEX
  5
EC4
  8
0
 10
0.0
 20
0.0
 30
0.0
 70
   128
 71
     4
 72
     9
 73
   -10
  0
VERTEX
  5
EC5
  8
0
 10
0.0
 20
0.0
 30
0.0
 70
   128
 71
     1
 72
    -4
 73
    10
  0
VERTEX
  5
EC6
  8
0
 10
0.0
 20
0.0
 30
0.0
 70
   128
 71
     7
 72
    11
 73
    12
  0
VERTEX
  5
EC7
  8
0
 10
0.0
 20
0.0
 30
0.0
 70
   128
 71
     1
 72
    10
 73
   -11
  0
VERTEX
  5
EC8
  8
0
 10
0.0
 20
0.0
 30
0.0
 70
   128
 71
     7
 72
    -1
 73
    11
  0
VERTEX
  5
EC9
  8
0
 10
0.0
 20
0.0
 30
0.0
 70
   128
 71
     9
 72
    13
 73
   -14
  0
VERTEX
  5
ECA
  8
0
 10
0.0
 20
0.0
 30
0.0
 70
   128
 71
    10
 72
    -9
 73
    14
  0
VERTEX
  5
ECB
  8
0
 10
0.0
 20
0.0
 30
0.0
 70
   128
 71
    13
 72
     9
 73
    15
  0
VERTEX
  5
ECC
  8
0
 10
0.0
 20
0.0
 30
0.0
 70
   128
 71
    10
 72
    14
 73
   -16
  0
VERTEX
  5
ECD
  8
0
 10
0.0
 20
0.0
 30
0.0
 70
   128
 71
    11
 72
   -10
 73
    16
  0
VERTEX
  5
ECE
  8
0
 10
0.0
 20
0.0
 30
0.0
 70
   128
 71
    17
 72
    14
 73
    13
  0
VERTEX
  5
ECF
  8
0
 10
0.0
 20
0.0
 30
0.0
 70
   128
 71
    18
 72
    17
 73
    13
  0
VERTEX
  5
ED0
  8
0
 10
0.0
 20
0.0
 30
0.0
 70
   128
 71
    19
 72
    20
 73
    16
  0
VERTEX
  5
ED1
  8
0
 10
0.0
 20
0.0
 30
0.0
 70
   128
 71
    14
 72
    17
 73
    21
  0
VERTEX
  5
ED2
  8
0
 10
0.0
 20
0.0
 30
0.0
 70
   128
 71
    16
 72
    14
 73
    21
  0
VERTEX
  5
ED3
  8
0
 10
0.0
 20
0.0
 30
0.0
 70
   128
 71
    15
 72
     9
 73
     4
  0
VERTEX
  5
ED4
  8
0
 10
0.0
 20
0.0
 30
0.0
 70
   128
 71
    22
 72
    15
 73
     4
  0
VERTEX
  5
ED5
  8
0
 10
0.0
 20
0.0
 30
0.0
 70
   128
 71
    11
 72
    16
 73
    23
  0
VERTEX
  5
ED6
  8
0
 10
0.0
 20
0.0
 30
0.0
 70
   128
 71
    12
 72
    11
 73
    23
  0
VERTEX
  5
ED7
  8
0
 10
0.0
 20
0.0
 30
0.0
 70
   128
 71
    24
 72
    25
 73
    13
  0
VERTEX
  5
ED8
  8
0
 10
0.0
 20
0.0
 30
0.0
 70
   128
 71
    15
 72
    24
 73
    13
  0
VERTEX
  5
ED9
  8
0
 10
0.0
 20
0.0
 30
0.0
 70
   128
 71
    23
 72
    16
 73
    20
  0
VERTEX
  5
EDA
  8
0
 10
0.0
 20
0.0
 30
0.0
 70
   128
 71
     6
 72
    22
 73
     4
  0
VERTEX
  5
EDB
  8
0
 10
0.0
 20
0.0
 30
0.0
 70
   128
 71
    26
 72
     7
 73
    12
  0
VERTEX
  5
EDC
  8
0
 10
0.0
 20
0.0
 30
0.0
 70
   128
 71
    27
 72
    26
 73
    12
  0
VERTEX
  5
EDD
  8
0
 10
0.0
 20
0.0
 30
0.0
 70
   128
 71
     5
 72
     4
 73
     3
  0
VERTEX
  5
EDE
  8
0
 10
0.0
 20
0.0
 30
0.0
 70
   128
 71
     8
 72
     7
 73
    26
  0
VERTEX
  5
EDF
  8
0
 10
0.0
 20
0.0
 30
0.0
 70
   128
 71
    13
 72
    25
 73
    18
  0
VERTEX
  5
EE0
  8
0
 10
0.0
 20
0.0
 30
0.0
 70
   128
 71
    16
 72
    21
 73
    19
  0
SEQEND
  5
F82
  8
0
  0
POLYLINE
  5
EE1
  8
0
 66
     1
 10
0.0
 20
0.0
 30
0.0
 70
    64
 71
    39
 72
    58
  0
VERTEX
  5
EE2
  8
0
 10
-89.03258876928516
 20
30.03550686080364
 30
154.2089672777879
 70
   192
  0
VERTEX
  5
EE3
  8
0
 10
-125.3640032455875
 20
23.89494011012225
 30
125.3640032455875
 70
   192
  0
VERTEX
  5
EE4
  8
0
 10
-67.84650965522725
 20
23.89494011012225
 30
163.7959637693264
 70
   192
  0
VERTEX
  5
EE5
  8
0
 10
-163.7959637693264
 20
23.89494011012225
 30
67.84650965522717
 70
   192
  0
VERTEX
  5
EE6
  8
0
 10
-178.0651775385701
 20
30.03550686080364
 30
-0.0000000000000692
 70
   192
  0
VERTEX
  5
EE7
  8
0
 10
-177.2914736232945
 20
23.89494011012225
 30
-0.0000000000000326
 70
   192
  0
VERTEX
  5
EE8
  8
0
 10
-154.2089672777879
 20
30.03550686080364
 30
-89.03258876928511
 70
   192
  0
VERTEX
  5
EE9
  8
0
 10
-125.3640032455875
 20
23.89494011012225
 30
-125.3640032455875
 70
   192
  0
VERTEX
  5
EEA
  8
0
 10
-163.7959637693264
 20
23.89494011012225
 30
-67.84650965522724
 70
   192
  0
VERTEX
  5
EEB
  8
0
 10
-123.9432378604313
 20
18.04105001816028
 30
123.9432378604313
 70
   192
  0
VERTEX
  5
EEC
  8
0
 10
-67.077596969558
 20
18.04105001816028
 30
161.939644335303
 70
   192
  0
VERTEX
  5
EED
  8
0
 10
-175.2822079466564
 20
18.04105001816028
 30
-0.0000000000000322
 70
   192
  0
VERTEX
  5
EEE
  8
0
 10
-161.939644335303
 20
18.04105001816028
 30
67.07759696955793
 70
   192
  0
VERTEX
  5
EEF
  8
0
 10
-123.9432378604313
 20
18.04105001816028
 30
-123.9432378604313
 70
   192
  0
VERTEX
  5
EF0
  8
0
 10
-161.939644335303
 20
18.04105001816028
 30
-67.07759696955799
 70
   192
  0
VERTEX
  5
EF1
  8
0
 10
0.0000000000000216
 20
21.89929924640595
 30
-176.7558785314674
 70
   192
  0
VERTEX
  5
EF2
  8
0
 10
-67.07759696955787
 20
18.04105001816028
 30
-161.9396443353031
 70
   192
  0
VERTEX
  5
EF3
  8
0
 10
-67.84650965522712
 20
23.89494011012225
 30
-163.7959637693265
 70
   192
  0
VERTEX
  5
EF4
  8
0
 10
-121.7084697390464
 20
12.71969674522588
 30
121.7084697390463
 70
   192
  0
VERTEX
  5
EF5
  8
0
 10
-65.86814917753341
 20
12.71969674522588
 30
159.0197790728151
 70
   192
  0
VERTEX
  5
EF6
  8
0
 10
0.0
 20
14.4199463371682
 30
173.2959047897086
 70
   192
  0
VERTEX
  5
EF7
  8
0
 10
-172.1217685606347
 20
12.71969674522588
 30
-0.0000000000000316
 70
   192
  0
VERTEX
  5
EF8
  8
0
 10
-159.0197790728151
 20
12.71969674522588
 30
65.86814917753334
 70
   192
  0
VERTEX
  5
EF9
  8
0
 10
-121.7084697390463
 20
12.71969674522588
 30
-121.7084697390464
 70
   192
  0
VERTEX
  5
EFA
  8
0
 10
-159.0197790728151
 20
12.71969674522588
 30
-65.8681491775334
 70
   192
  0
VERTEX
  5
EFB
  8
0
 10
-65.86814917753328
 20
12.71969674522588
 30
-159.0197790728151
 70
   192
  0
VERTEX
  5
EFC
  8
0
 10
-145.4428110121206
 20
8.154374198479436
 30
83.97144608954359
 70
   192
  0
VERTEX
  5
EFD
  8
0
 10
-167.9428921790873
 20
8.154374198479436
 30
-0.0000000000000653
 70
   192
  0
VERTEX
  5
EFE
  8
0
 10
-83.97144608954363
 20
8.154374198479436
 30
-145.4428110121206
 70
   192
  0
VERTEX
  5
EFF
  8
0
 10
0.0000000000000206
 20
8.154374198479438
 30
-167.9428921790873
 70
   192
  0
VERTEX
  5
F00
  8
0
 10
-145.4428110121205
 20
8.154374198479436
 30
-83.97144608954372
 70
   192
  0
VERTEX
  5
F01
  8
0
 10
0.0
 20
21.89929924640595
 30
176.7558785314674
 70
   192
  0
VERTEX
  5
F02
  8
0
 10
0.0000000000000212
 20
14.4199463371682
 30
-173.2959047897086
 70
   192
  0
VERTEX
  5
F03
  8
0
 10
-83.97144608954376
 20
8.154374198479436
 30
145.4428110121205
 70
   192
  0
VERTEX
  5
F04
  8
0
 10
-0.0000000000001212
 20
8.154374198479436
 30
167.9428921790873
 70
   192
  0
VERTEX
  5
F05
  8
0
 10
0.0000000000000218
 20
30.03550686080364
 30
-178.0651775385701
 70
   192
  0
VERTEX
  5
F06
  8
0
 10
-154.208967277788
 20
30.03550686080364
 30
89.03258876928498
 70
   192
  0
VERTEX
  5
F07
  8
0
 10
0.0
 20
30.03550686080363
 30
178.0651775385701
 70
   192
  0
VERTEX
  5
F08
  8
0
 10
-89.03258876928503
 20
30.03550686080364
 30
-154.208967277788
 70
   192
  0
VERTEX
  5
F09
  8
0
 10
0.0
 20
0.0
 30
0.0
 70
   128
 71
     1
 72
     2
 73
     3
  0
VERTEX
  5
F0A
  8
0
 10
0.0
 20
0.0
 30
0.0
 70
   128
 71
     4
 72
     5
 73
     6
  0
VERTEX
  5
F0B
  8
0
 10
0.0
 20
0.0
 30
0.0
 70
   128
 71
     7
 72
     8
 73
     9
  0
VERTEX
  5
F0C
  8
0
 10
0.0
 20
0.0
 30
0.0
 70
   128
 71
    10
 72
    11
 73
    -3
  0
VERTEX
  5
F0D
  8
0
 10
0.0
 20
0.0
 30
0.0
 70
   128
 71
   -10
 72
     3
 73
     2
  0
VERTEX
  5
F0E
  8
0
 10
0.0
 20
0.0
 30
0.0
 70
   128
 71
    12
 72
    13
 73
    -4
  0
VERTEX
  5
F0F
  8
0
 10
0.0
 20
0.0
 30
0.0
 70
   128
 71
   -12
 72
     4
 73
     6
  0
VERTEX
  5
F10
  8
0
 10
0.0
 20
0.0
 30
0.0
 70
   128
 71
    13
 72
    10
 73
    -2
  0
VERTEX
  5
F11
  8
0
 10
0.0
 20
0.0
 30
0.0
 70
   128
 71
   -13
 72
     2
 73
     4
  0
VERTEX
  5
F12
  8
0
 10
0.0
 20
0.0
 30
0.0
 70
   128
 71
    14
 72
    15
 73
    -9
  0
VERTEX
  5
F13
  8
0
 10
0.0
 20
0.0
 30
0.0
 70
   128
 71
   -14
 72
     9
 73
     8
  0
VERTEX
  5
F14
  8
0
 10
0.0
 20
0.0
 30
0.0
 70
   128
 71
    15
 72
    12
 73
    -6
  0
VERTEX
  5
F15
  8
0
 10
0.0
 20
0.0
 30
0.0
 70
   128
 71
   -15
 72
     6
 73
     9
  0
VERTEX
  5
F16
  8
0
 10
0.0
 20
0.0
 30
0.0
 70
   128
 71
    16
 72
    17
 73
    18
  0
VERTEX
  5
F17
  8
0
 10
0.0
 20
0.0
 30
0.0
 70
   128
 71
    17
 72
    14
 73
    -8
  0
VERTEX
  5
F18
  8
0
 10
0.0
 20
0.0
 30
0.0
 70
   128
 71
   -17
 72
     8
 73
    18
  0
VERTEX
  5
F19
  8
0
 10
0.0
 20
0.0
 30
0.0
 70
   128
 71
    19
 72
    20
 73
   -11
  0
VERTEX
  5
F1A
  8
0
 10
0.0
 20
0.0
 30
0.0
 70
   128
 71
   -19
 72
    11
 73
    10
  0
VERTEX
  5
F1B
  8
0
 10
0.0
 20
0.0
 30
0.0
 70
   128
 71
    21
 72
    11
 73
    20
  0
VERTEX
  5
F1C
  8
0
 10
0.0
 20
0.0
 30
0.0
 70
   128
 71
    22
 72
    23
 73
   -13
  0
VERTEX
  5
F1D
  8
0
 10
0.0
 20
0.0
 30
0.0
 70
   128
 71
   -22
 72
    13
 73
    12
  0
VERTEX
  5
F1E
  8
0
 10
0.0
 20
0.0
 30
0.0
 70
   128
 71
    23
 72
    19
 73
   -10
  0
VERTEX
  5
F1F
  8
0
 10
0.0
 20
0.0
 30
0.0
 70
   128
 71
   -23
 72
    10
 73
    13
  0
VERTEX
  5
F20
  8
0
 10
0.0
 20
0.0
 30
0.0
 70
   128
 71
    24
 72
    25
 73
   -15
  0
VERTEX
  5
F21
  8
0
 10
0.0
 20
0.0
 30
0.0
 70
   128
 71
   -24
 72
    15
 73
    14
  0
VERTEX
  5
F22
  8
0
 10
0.0
 20
0.0
 30
0.0
 70
   128
 71
    25
 72
    22
 73
   -12
  0
VERTEX
  5
F23
  8
0
 10
0.0
 20
0.0
 30
0.0
 70
   128
 71
   -25
 72
    12
 73
    15
  0
VERTEX
  5
F24
  8
0
 10
0.0
 20
0.0
 30
0.0
 70
   128
 71
    26
 72
    24
 73
   -14
  0
VERTEX
  5
F25
  8
0
 10
0.0
 20
0.0
 30
0.0
 70
   128
 71
   -26
 72
    14
 73
    17
  0
VERTEX
  5
F26
  8
0
 10
0.0
 20
0.0
 30
0.0
 70
   128
 71
    27
 72
    19
 73
    23
  0
VERTEX
  5
F27
  8
0
 10
0.0
 20
0.0
 30
0.0
 70
   128
 71
    23
 72
    22
 73
    28
  0
VERTEX
  5
F28
  8
0
 10
0.0
 20
0.0
 30
0.0
 70
   128
 71
    23
 72
    28
 73
    27
  0
VERTEX
  5
F29
  8
0
 10
0.0
 20
0.0
 30
0.0
 70
   128
 71
    29
 72
    24
 73
    26
  0
VERTEX
  5
F2A
  8
0
 10
0.0
 20
0.0
 30
0.0
 70
   128
 71
    26
 72
    30
 73
    29
  0
VERTEX
  5
F2B
  8
0
 10
0.0
 20
0.0
 30
0.0
 70
   128
 71
    31
 72
    28
 73
    22
  0
VERTEX
  5
F2C
  8
0
 10
0.0
 20
0.0
 30
0.0
 70
   128
 71
    31
 72
    22
 73
    25
  0
VERTEX
  5
F2D
  8
0
 10
0.0
 20
0.0
 30
0.0
 70
   128
 71
     3
 72
    11
 73
    21
  0
VERTEX
  5
F2E
  8
0
 10
0.0
 20
0.0
 30
0.0
 70
   128
 71
     3
 72
    21
 73
    32
  0
VERTEX
  5
F2F
  8
0
 10
0.0
 20
0.0
 30
0.0
 70
   128
 71
    33
 72
    26
 73
    17
  0
VERTEX
  5
F30
  8
0
 10
0.0
 20
0.0
 30
0.0
 70
   128
 71
    33
 72
    17
 73
    16
  0
VERTEX
  5
F31
  8
0
 10
0.0
 20
0.0
 30
0.0
 70
   128
 71
    20
 72
    34
 73
    35
  0
VERTEX
  5
F32
  8
0
 10
0.0
 20
0.0
 30
0.0
 70
   128
 71
    20
 72
    35
 73
    21
  0
VERTEX
  5
F33
  8
0
 10
0.0
 20
0.0
 30
0.0
 70
   128
 71
    30
 72
    26
 73
    33
  0
VERTEX
  5
F34
  8
0
 10
0.0
 20
0.0
 30
0.0
 70
   128
 71
    16
 72
    18
 73
    36
  0
VERTEX
  5
F35
  8
0
 10
0.0
 20
0.0
 30
0.0
 70
   128
 71
    37
 72
     4
 73
     2
  0
VERTEX
  5
F36
  8
0
 10
0.0
 20
0.0
 30
0.0
 70
   128
 71
    37
 72
     2
 73
     1
  0
VERTEX
  5
F37
  8
0
 10
0.0
 20
0.0
 30
0.0
 70
   128
 71
     1
 72
     3
 73
    32
  0
VERTEX
  5
F38
  8
0
 10
0.0
 20
0.0
 30
0.0
 70
   128
 71
     1
 72
    32
 73
    38
  0
VERTEX
  5
F39
  8
0
 10
0.0
 20
0.0
 30
0.0
 70
   128
 71
     5
 72
     4
 73
    37
  0
VERTEX
  5
F3A
  8
0
 10
0.0
 20
0.0
 30
0.0
 70
   128
 71
    39
 72
    18
 73
     8
  0
VERTEX
  5
F3B
  8
0
 10
0.0
 20
0.0
 30
0.0
 70
   128
 71
    39
 72
     8
 73
     7
  0
VERTEX
  5
F3C
  8
0
 10
0.0
 20
0.0
 30
0.0
 70
   128
 71
     7
 72
     9
 73
     6
  0
VERTEX
  5
F3D
  8
0
 10
0.0
 20
0.0
 30
0.0
 70
   128
 71
     7
 72
     6
 73
     5
  0
VERTEX
  5
F3E
  8
0
 10
0.0
 20
0.0
 30
0.0
 70
   128
 71
    36
 72
    18
 73
    39
  0
VERTEX
  5
F3F
  8
0
 10
0.0
 20
0.0
 30
0.0
 70
   128
 71
    27
 72
    34
 73
    20
  0
VERTEX
  5
F40
  8
0
 10
0.0
 20
0.0
 30
0.0
 70
   128
 71
    27
 72
    20
 73
    19
  0
VERTEX
  5
F41
  8
0
 10
0.0
 20
0.0
 30
0.0
 70
   128
 71
    29
 72
    31
 73
    25
  0
VERTEX
  5
F42
  8
0
 10
0.0
 20
0.0
 30
0.0
 70
   128
 71
    29
 72
    25
 73
    24
  0
SEQEND
  5
F83
  8
0
  0
POLYLINE
  5
F43
  8
0
 66
     1
 10
0.0
 20
0.0
 30
0.0
 70
    64
 71
    14
 72
    12
  0
VERTEX
  5
F44
  8
0
 10
-89.99999999999999
 20
115.2956124593617
 30
-155.884572681199
 70
   192
  0
VERTEX
  5
F45
  8
0
 10
-89.03258876928503
 20
30.03550686080364
 30
-154.208967277788
 70
   192
  0
VERTEX
  5
F46
  8
0
 10
-154.2089672777879
 20
30.03550686080364
 30
-89.03258876928511
 70
   192
  0
VERTEX
  5
F47
  8
0
 10
-155.884572681199
 20
115.2956124593617
 30
-90.00000000000007
 70
   192
  0
VERTEX
  5
F48
  8
0
 10
-155.884572681199
 20
115.2956124593617
 30
89.99999999999994
 70
   192
  0
VERTEX
  5
F49
  8
0
 10
-154.208967277788
 20
30.03550686080364
 30
89.03258876928498
 70
   192
  0
VERTEX
  5
F4A
  8
0
 10
-89.03258876928516
 20
30.03550686080364
 30
154.2089672777879
 70
   192
  0
VERTEX
  5
F4B
  8
0
 10
-90.00000000000011
 20
115.2956124593617
 30
155.8845726811989
 70
   192
  0
VERTEX
  5
F4C
  8
0
 10
-0.0000000000001285
 20
30.03550686080364
 30
178.0651775385701
 70
   192
  0
VERTEX
  5
F4D
  8
0
 10
0.0
 20
115.2956124593617
 30
180.0
 70
   192
  0
VERTEX
  5
F4E
  8
0
 10
-180.0
 20
115.2956124593617
 30
-0.0000000000000699
 70
   192
  0
VERTEX
  5
F4F
  8
0
 10
-178.0651775385701
 20
30.03550686080364
 30
-0.0000000000000692
 70
   192
  0
VERTEX
  5
F50
  8
0
 10
0.000000000000022
 20
115.2956124593617
 30
-180.0
 70
   192
  0
VERTEX
  5
F51
  8
0
 10
0.0000000000000218
 20
30.03550686080364
 30
-178.0651775385701
 70
   192
  0
VERTEX
  5
F52
  8
0
 10
0.0
 20
0.0
 30
0.0
 70
   128
 71
     1
 72
     2
 73
    -3
  0
VERTEX
  5
F53
  8
0
 10
0.0
 20
0.0
 30
0.0
 70
   128
 71
    -1
 72
     3
 73
     4
  0
VERTEX
  5
F54
  8
0
 10
0.0
 20
0.0
 30
0.0
 70
   128
 71
     5
 72
     6
 73
    -7
  0
VERTEX
  5
F55
  8
0
 10
0.0
 20
0.0
 30
0.0
 70
   128
 71
    -5
 72
     7
 73
     8
  0
VERTEX
  5
F56
  8
0
 10
0.0
 20
0.0
 30
0.0
 70
   128
 71
     8
 72
     7
 73
    -9
  0
VERTEX
  5
F57
  8
0
 10
0.0
 20
0.0
 30
0.0
 70
   128
 71
    -8
 72
     9
 73
    10
  0
VERTEX
  5
F58
  8
0
 10
0.0
 20
0.0
 30
0.0
 70
   128
 71
    11
 72
    12
 73
    -6
  0
VERTEX
  5
F59
  8
0
 10
0.0
 20
0.0
 30
0.0
 70
   128
 71
   -11
 72
     6
 73
     5
  0
VERTEX
  5
F5A
  8
0
 10
0.0
 20
0.0
 30
0.0
 70
   128
 71
     4
 72
     3
 73
   -12
  0
VERTEX
  5
F5B
  8
0
 10
0.0
 20
0.0
 30
0.0
 70
   128
 71
    -4
 72
    12
 73
    11
  0
VERTEX
  5
F5C
  8
0
 10
0.0
 20
0.0
 30
0.0
 70
   128
 71
    13
 72
    14
 73
    -2
  0
VERTEX
  5
F5D
  8
0
 10
0.0
 20
0.0
 30
0.0
 70
   128
 71
   -13
 72
     2
 73
     1
  0
SEQEND
  5
F84
  8
0
  0
ENDBLK
  5
F5F
  8
0
  0
ENDSEC
  0
SECTION
  2
ENTITIES
  0
INSERT
  5
BD
  8
0
  2
*X1
 10
0.0
 20
0.0
 30
0.0
  0
ENDSEC
  0
EOF
