  0
SECTION
  2
HEADER
  9
$ACADVER
  1
AC1009
  9
$DWGCODEPAGE
  3
ansi_1250
  9
$INSBASE
 10
0.0
 20
0.0
 30
0.0
  9
$EXTMIN
 10
-527.9999999999998
 20
-9.500000000000114
 30
-88.99999999999997
  9
$EXTMAX
 10
527.9999999999998
 20
738.0000000000001
 30
137.0000000000003
  9
$LIMMIN
 10
0.0
 20
0.0
  9
$LIMMAX
 10
420.0
 20
297.0
  9
$ORTHOMODE
 70
     0
  9
$REGENMODE
 70
     1
  9
$FILLMODE
 70
     1
  9
$QTEXTMODE
 70
     0
  9
$MIRRTEXT
 70
     0
  9
$DRAGMODE
 70
     2
  9
$LTSCALE
 40
1.0
  9
$OSMODE
 70
   511
  9
$ATTMODE
 70
     1
  9
$TEXTSIZE
 40
2.5
  9
$TRACEWID
 40
1.0
  9
$TEXTSTYLE
  7
STANDARD
  9
$CLAYER
  8
0
  9
$CELTYPE
  6
BYLAYER
  9
$CECOLOR
 62
   256
  9
$DIMSCALE
 40
1.0
  9
$DIMASZ
 40
2.5
  9
$DIMEXO
 40
0.625
  9
$DIMDLI
 40
3.75
  9
$DIMRND
 40
0.0
  9
$DIMDLE
 40
0.0
  9
$DIMEXE
 40
1.25
  9
$DIMTP
 40
0.0
  9
$DIMTM
 40
0.0
  9
$DIMTXT
 40
2.5
  9
$DIMCEN
 40
-2.5
  9
$DIMTSZ
 40
0.0
  9
$DIMTOL
 70
     0
  9
$DIMLIM
 70
     0
  9
$DIMTIH
 70
     0
  9
$DIMTOH
 70
     0
  9
$DIMSE1
 70
     0
  9
$DIMSE2
 70
     0
  9
$DIMTAD
 70
     1
  9
$DIMZIN
 70
     8
  9
$DIMBLK
  1

  9
$DIMASO
 70
     1
  9
$DIMSHO
 70
     1
  9
$DIMPOST
  1

  9
$DIMAPOST
  1

  9
$DIMALT
 70
     0
  9
$DIMALTD
 70
     3
  9
$DIMALTF
 40
0.03937007874016
  9
$DIMLFAC
 40
1.0
  9
$DIMTOFL
 70
     1
  9
$DIMTVP
 40
0.0
  9
$DIMTIX
 70
     0
  9
$DIMSOXD
 70
     0
  9
$DIMSAH
 70
     0
  9
$DIMBLK1
  1

  9
$DIMBLK2
  1

  9
$DIMSTYLE
  2
ISO-25
  9
$DIMCLRD
 70
     0
  9
$DIMCLRE
 70
     0
  9
$DIMCLRT
 70
     0
  9
$DIMTFAC
 40
1.0
  9
$DIMGAP
 40
0.625
  9
$LUNITS
 70
     2
  9
$LUPREC
 70
     3
  9
$SKETCHINC
 40
1.0
  9
$FILLETRAD
 40
10.0
  9
$AUNITS
 70
     0
  9
$AUPREC
 70
     0
  9
$MENU
  1
.
  9
$ELEVATION
 40
0.0
  9
$PELEVATION
 40
0.0
  9
$THICKNESS
 40
0.0
  9
$LIMCHECK
 70
     0
  9
$CHAMFERA
 40
10.0
  9
$CHAMFERB
 40
10.0
  9
$SKPOLY
 70
     0
  9
$TDCREATE
 40
2455022.720692848
  9
$TDUPDATE
 40
2460543.688837882
  9
$TDINDWG
 40
0.0486025347
  9
$TDUSRTIMER
 40
0.0486025347
  9
$USRTIMER
 70
     1
  9
$ANGBASE
 50
0.0
  9
$ANGDIR
 70
     0
  9
$PDMODE
 70
     0
  9
$PDSIZE
 40
0.0
  9
$PLINEWID
 40
0.0
  9
$COORDS
 70
     1
  9
$SPLFRAME
 70
     0
  9
$SPLINETYPE
 70
     6
  9
$SPLINESEGS
 70
     8
  9
$ATTDIA
 70
     0
  9
$ATTREQ
 70
     1
  9
$HANDLING
 70
     1
  9
$HANDSEED
  5
4615
  9
$SURFTAB1
 70
     6
  9
$SURFTAB2
 70
     6
  9
$SURFTYPE
 70
     6
  9
$SURFU
 70
     6
  9
$SURFV
 70
     6
  9
$UCSNAME
  2

  9
$UCSORG
 10
0.0
 20
0.0
 30
0.0
  9
$UCSXDIR
 10
1.0
 20
0.0
 30
0.0
  9
$UCSYDIR
 10
0.0
 20
1.0
 30
0.0
  9
$PUCSNAME
  2

  9
$PUCSORG
 10
0.0
 20
0.0
 30
0.0
  9
$PUCSXDIR
 10
1.0
 20
0.0
 30
0.0
  9
$PUCSYDIR
 10
0.0
 20
1.0
 30
0.0
  9
$USERI1
 70
     0
  9
$USERI2
 70
     0
  9
$USERI3
 70
     0
  9
$USERI4
 70
     0
  9
$USERI5
 70
     0
  9
$USERR1
 40
0.0
  9
$USERR2
 40
0.0
  9
$USERR3
 40
0.0
  9
$USERR4
 40
0.0
  9
$USERR5
 40
0.0
  9
$WORLDVIEW
 70
     1
  9
$SHADEDGE
 70
     3
  9
$SHADEDIF
 70
    70
  9
$TILEMODE
 70
     1
  9
$MAXACTVP
 70
    64
  9
$PLIMCHECK
 70
     0
  9
$PEXTMIN
 10
1.000000000000000E+20
 20
1.000000000000000E+20
 30
1.000000000000000E+20
  9
$PEXTMAX
 10
-1.000000000000000E+20
 20
-1.000000000000000E+20
 30
-1.000000000000000E+20
  9
$PLIMMIN
 10
0.0
 20
0.0
  9
$PLIMMAX
 10
0.0
 20
0.0
  9
$UNITMODE
 70
     0
  9
$VISRETAIN
 70
     1
  9
$PLINEGEN
 70
     0
  9
$PSLTSCALE
 70
     1
  0
ENDSEC
  0
SECTION
  2
TABLES
  0
TABLE
  2
VPORT
 70
     1
  0
VPORT
  2
*ACTIVE
 70
     0
 10
0.0
 20
0.0
 11
1.0
 21
1.0
 12
162.6791668763921
 22
-183.8901008730298
 13
0.0
 23
0.0
 14
10.0
 24
10.0
 15
10.0
 25
10.0
 16
0.5773502691896226
 26
0.5773502691896226
 36
0.5773502691896226
 17
-134.1869158878504
 27
-0.0000000000000426
 37
0.0
 40
730.1806448749517
 41
1.739930955120828
 42
50.0
 43
0.0
 44
0.0
 50
0.0
 51
0.0
 71
    16
 72
  1000
 73
     1
 74
     3
 75
     0
 76
     0
 77
     0
 78
     0
  0
ENDTAB
  0
TABLE
  2
LTYPE
 70
     1
  0
LTYPE
  2
CONTINUOUS
 70
     0
  3
Solid line
 72
    65
 73
     0
 40
0.0
  0
ENDTAB
  0
TABLE
  2
LAYER
 70
     1
  0
LAYER
  2
0
 70
     0
 62
     7
  6
CONTINUOUS
  0
ENDTAB
  0
TABLE
  2
STYLE
 70
     2
  0
STYLE
  2
STANDARD
 70
     0
 40
0.0
 41
1.0
 50
0.0
 71
     0
 42
2.5
  3
arial.ttf
  4

  0
STYLE
  2
ANNOTATIVE
 70
     0
 40
0.0
 41
1.0
 50
0.0
 71
     0
 42
2.5
  3
arial.ttf
  4

  0
ENDTAB
  0
TABLE
  2
VIEW
 70
     0
  0
ENDTAB
  0
TABLE
  2
UCS
 70
     0
  0
ENDTAB
  0
TABLE
  2
APPID
 70
     2
  0
APPID
  2
ACAD
 70
     0
  0
APPID
  2
ACADANNOTATIVE
 70
     0
  0
ENDTAB
  0
TABLE
  2
DIMSTYLE
 70
     2
  0
DIMSTYLE
  2
ISO-25
 70
     0
  3

  4

  5

  6

  7

 40
1.0
 41
2.5
 42
0.625
 43
3.75
 44
1.25
 45
0.0
 46
0.0
 47
0.0
 48
0.0
140
2.5
141
-2.5
142
0.0
143
0.03937007874016
144
1.0
145
0.0
146
1.0
147
0.625
 71
     0
 72
     0
 73
     0
 74
     0
 75
     0
 76
     0
 77
     1
 78
     8
170
     0
171
     3
172
     1
173
     0
174
     0
175
     0
176
     0
177
     0
178
     0
  0
DIMSTYLE
  2
ANNOTATIVE
 70
     0
  3

  4

  5

  6

  7

 40
0.0
 41
2.5
 42
0.625
 43
3.75
 44
1.25
 45
0.0
 46
0.0
 47
0.0
 48
0.0
140
2.5
141
-2.5
142
0.0
143
0.03937007874016
144
1.0
145
0.0
146
1.0
147
0.625
 71
     0
 72
     0
 73
     0
 74
     0
 75
     0
 76
     0
 77
     1
 78
     8
170
     0
171
     3
172
     1
173
     0
174
     0
175
     0
176
     0
177
     0
178
     0
  0
ENDTAB
  0
ENDSEC
  0
SECTION
  2
BLOCKS
  0
BLOCK
  8
0
  2
$MODEL_SPACE
 70
     0
 10
0.0
 20
0.0
 30
0.0
  3
$MODEL_SPACE
  1

  0
ENDBLK
  5
21
  8
0
  0
BLOCK
 67
     1
  8
0
  2
$PAPER_SPACE
 70
     0
 10
0.0
 20
0.0
 30
0.0
  3
$PAPER_SPACE
  1

  0
ENDBLK
  5
1D
 67
     1
  8
0
  0
BLOCK
  8
0
  2
*X1
 70
     1
 10
0.0
 20
0.0
 30
0.0
  3
*X1
  1

  0
POLYLINE
  5
3B42
  8
0
 66
     1
 10
0.0
 20
0.0
 30
0.0
 70
    64
 71
     4
 72
     2
  0
VERTEX
  5
3B43
  8
0
 10
-485.0
 20
0.0
 30
-61.99999999999976
 70
   192
  0
VERTEX
  5
3B44
  8
0
 10
-484.9999999999999
 20
0.0
 30
62.00000000000023
 70
   192
  0
VERTEX
  5
3B45
  8
0
 10
-484.9999999999999
 20
18.0
 30
62.00000000000022
 70
   192
  0
VERTEX
  5
3B46
  8
0
 10
-485.0
 20
18.0
 30
-61.99999999999976
 70
   192
  0
VERTEX
  5
3B47
  8
0
 10
0.0
 20
0.0
 30
0.0
 70
   128
 71
     3
 72
     4
 73
    -1
  0
VERTEX
  5
3B48
  8
0
 10
0.0
 20
0.0
 30
0.0
 70
   128
 71
     2
 72
    -3
 73
     1
  0
SEQEND
  5
44EF
  8
0
  0
POLYLINE
  5
3B49
  8
0
 66
     1
 10
0.0
 20
0.0
 30
0.0
 70
    64
 71
     4
 72
     2
  0
VERTEX
  5
3B4A
  8
0
 10
-484.9999999999999
 20
0.0
 30
62.00000000000022
 70
   192
  0
VERTEX
  5
3B4B
  8
0
 10
484.9999999999999
 20
0.0
 30
62.00000000000011
 70
   192
  0
VERTEX
  5
3B4C
  8
0
 10
484.9999999999999
 20
18.0
 30
62.00000000000011
 70
   192
  0
VERTEX
  5
3B4D
  8
0
 10
-484.9999999999999
 20
18.0
 30
62.00000000000022
 70
   192
  0
VERTEX
  5
3B4E
  8
0
 10
0.0
 20
0.0
 30
0.0
 70
   128
 71
     3
 72
     4
 73
    -1
  0
VERTEX
  5
3B4F
  8
0
 10
0.0
 20
0.0
 30
0.0
 70
   128
 71
     2
 72
    -3
 73
     1
  0
SEQEND
  5
44F0
  8
0
  0
POLYLINE
  5
3B50
  8
0
 66
     1
 10
0.0
 20
0.0
 30
0.0
 70
    64
 71
     4
 72
     2
  0
VERTEX
  5
3B51
  8
0
 10
484.9999999999999
 20
0.0
 30
62.00000000000011
 70
   192
  0
VERTEX
  5
3B52
  8
0
 10
484.9999999999999
 20
18.0
 30
62.00000000000011
 70
   192
  0
VERTEX
  5
3B53
  8
0
 10
485.0
 20
18.0
 30
-62.00000000000015
 70
   192
  0
VERTEX
  5
3B54
  8
0
 10
485.0
 20
0.0
 30
-62.00000000000015
 70
   192
  0
VERTEX
  5
3B55
  8
0
 10
0.0
 20
0.0
 30
0.0
 70
   128
 71
     1
 72
     4
 73
    -3
  0
VERTEX
  5
3B56
  8
0
 10
0.0
 20
0.0
 30
0.0
 70
   128
 71
    -1
 72
     3
 73
     2
  0
SEQEND
  5
44F1
  8
0
  0
POLYLINE
  5
3B57
  8
0
 66
     1
 10
0.0
 20
0.0
 30
0.0
 70
    64
 71
     4
 72
     2
  0
VERTEX
  5
3B58
  8
0
 10
485.0
 20
0.0
 30
-62.00000000000015
 70
   192
  0
VERTEX
  5
3B59
  8
0
 10
485.0
 20
18.0
 30
-62.00000000000015
 70
   192
  0
VERTEX
  5
3B5A
  8
0
 10
-485.0
 20
18.0
 30
-61.99999999999977
 70
   192
  0
VERTEX
  5
3B5B
  8
0
 10
-485.0
 20
0.0
 30
-61.99999999999977
 70
   192
  0
VERTEX
  5
3B5C
  8
0
 10
0.0
 20
0.0
 30
0.0
 70
   128
 71
     1
 72
     4
 73
    -3
  0
VERTEX
  5
3B5D
  8
0
 10
0.0
 20
0.0
 30
0.0
 70
   128
 71
    -1
 72
     3
 73
     2
  0
SEQEND
  5
44F2
  8
0
  0
POLYLINE
  5
3B5E
  8
0
 66
     1
 10
0.0
 20
0.0
 30
0.0
 70
    64
 71
     4
 72
     2
  0
VERTEX
  5
3B5F
  8
0
 10
-485.0
 20
18.0
 30
-61.99999999999976
 70
   192
  0
VERTEX
  5
3B60
  8
0
 10
-484.9999999999999
 20
18.0
 30
62.00000000000023
 70
   192
  0
VERTEX
  5
3B61
  8
0
 10
484.9999999999999
 20
18.0
 30
62.00000000000011
 70
   192
  0
VERTEX
  5
3B62
  8
0
 10
485.0
 20
18.0
 30
-62.00000000000015
 70
   192
  0
VERTEX
  5
3B63
  8
0
 10
0.0
 20
0.0
 30
0.0
 70
   128
 71
     3
 72
     4
 73
    -1
  0
VERTEX
  5
3B64
  8
0
 10
0.0
 20
0.0
 30
0.0
 70
   128
 71
     2
 72
    -3
 73
     1
  0
SEQEND
  5
44F3
  8
0
  0
POLYLINE
  5
3B65
  8
0
 66
     1
 10
0.0
 20
0.0
 30
0.0
 70
    64
 71
     4
 72
     2
  0
VERTEX
  5
3B66
  8
0
 10
-484.9999999999999
 20
0.0
 30
62.00000000000022
 70
   192
  0
VERTEX
  5
3B67
  8
0
 10
484.9999999999999
 20
0.0
 30
62.00000000000011
 70
   192
  0
VERTEX
  5
3B68
  8
0
 10
485.0
 20
0.0
 30
-62.00000000000015
 70
   192
  0
VERTEX
  5
3B69
  8
0
 10
-485.0
 20
0.0
 30
-61.99999999999976
 70
   192
  0
VERTEX
  5
3B6A
  8
0
 10
0.0
 20
0.0
 30
0.0
 70
   128
 71
     1
 72
     4
 73
    -3
  0
VERTEX
  5
3B6B
  8
0
 10
0.0
 20
0.0
 30
0.0
 70
   128
 71
    -1
 72
     3
 73
     2
  0
SEQEND
  5
44F4
  8
0
  0
ENDBLK
  5
44EE
  8
0
  0
BLOCK
  8
0
  2
*X2
 70
     1
 10
0.0
 20
0.0
 30
0.0
  3
*X2
  1

  0
POLYLINE
  5
3B6D
  8
0
 66
     1
 10
0.0
 20
0.0
 30
0.0
 70
    64
 71
     4
 72
     2
  0
VERTEX
  5
3B6E
  8
0
 10
-502.9999999999999
 20
-0.5
 30
-88.99999999999977
 70
   192
  0
VERTEX
  5
3B6F
  8
0
 10
-502.9999999999999
 20
-0.5
 30
62.00000000000023
 70
   192
  0
VERTEX
  5
3B70
  8
0
 10
-502.9999999999999
 20
700.5
 30
62.00000000000023
 70
   192
  0
VERTEX
  5
3B71
  8
0
 10
-502.9999999999999
 20
700.5
 30
-88.99999999999977
 70
   192
  0
VERTEX
  5
3B72
  8
0
 10
0.0
 20
0.0
 30
0.0
 70
   128
 71
     3
 72
     4
 73
    -1
  0
VERTEX
  5
3B73
  8
0
 10
0.0
 20
0.0
 30
0.0
 70
   128
 71
     2
 72
    -3
 73
     1
  0
SEQEND
  5
44F7
  8
0
  0
POLYLINE
  5
3B74
  8
0
 66
     1
 10
0.0
 20
0.0
 30
0.0
 70
    64
 71
     4
 72
     2
  0
VERTEX
  5
3B75
  8
0
 10
-502.9999999999999
 20
-0.5
 30
62.00000000000023
 70
   192
  0
VERTEX
  5
3B76
  8
0
 10
-484.9999999999999
 20
-0.5
 30
62.00000000000023
 70
   192
  0
VERTEX
  5
3B77
  8
0
 10
-484.9999999999999
 20
700.5
 30
62.00000000000022
 70
   192
  0
VERTEX
  5
3B78
  8
0
 10
-502.9999999999999
 20
700.5
 30
62.00000000000023
 70
   192
  0
VERTEX
  5
3B79
  8
0
 10
0.0
 20
0.0
 30
0.0
 70
   128
 71
     3
 72
     4
 73
    -1
  0
VERTEX
  5
3B7A
  8
0
 10
0.0
 20
0.0
 30
0.0
 70
   128
 71
     2
 72
    -3
 73
     1
  0
SEQEND
  5
44F8
  8
0
  0
POLYLINE
  5
3B7B
  8
0
 66
     1
 10
0.0
 20
0.0
 30
0.0
 70
    64
 71
     4
 72
     2
  0
VERTEX
  5
3B7C
  8
0
 10
-484.9999999999999
 20
-0.5
 30
62.00000000000022
 70
   192
  0
VERTEX
  5
3B7D
  8
0
 10
-484.9999999999999
 20
700.5
 30
62.00000000000023
 70
   192
  0
VERTEX
  5
3B7E
  8
0
 10
-484.9999999999999
 20
700.5
 30
-88.99999999999977
 70
   192
  0
VERTEX
  5
3B7F
  8
0
 10
-485.0
 20
-0.5
 30
-88.99999999999977
 70
   192
  0
VERTEX
  5
3B80
  8
0
 10
0.0
 20
0.0
 30
0.0
 70
   128
 71
     1
 72
     4
 73
    -3
  0
VERTEX
  5
3B81
  8
0
 10
0.0
 20
0.0
 30
0.0
 70
   128
 71
    -1
 72
     3
 73
     2
  0
SEQEND
  5
44F9
  8
0
  0
POLYLINE
  5
3B82
  8
0
 66
     1
 10
0.0
 20
0.0
 30
0.0
 70
    64
 71
     4
 72
     2
  0
VERTEX
  5
3B83
  8
0
 10
-484.9999999999999
 20
-0.5
 30
-88.99999999999977
 70
   192
  0
VERTEX
  5
3B84
  8
0
 10
-484.9999999999999
 20
700.5
 30
-88.99999999999977
 70
   192
  0
VERTEX
  5
3B85
  8
0
 10
-502.9999999999999
 20
700.5
 30
-88.99999999999977
 70
   192
  0
VERTEX
  5
3B86
  8
0
 10
-502.9999999999999
 20
-0.5
 30
-88.99999999999977
 70
   192
  0
VERTEX
  5
3B87
  8
0
 10
0.0
 20
0.0
 30
0.0
 70
   128
 71
     1
 72
     4
 73
    -3
  0
VERTEX
  5
3B88
  8
0
 10
0.0
 20
0.0
 30
0.0
 70
   128
 71
    -1
 72
     3
 73
     2
  0
SEQEND
  5
44FA
  8
0
  0
POLYLINE
  5
3B89
  8
0
 66
     1
 10
0.0
 20
0.0
 30
0.0
 70
    64
 71
     4
 72
     2
  0
VERTEX
  5
3B8A
  8
0
 10
-502.9999999999999
 20
700.5
 30
-88.99999999999977
 70
   192
  0
VERTEX
  5
3B8B
  8
0
 10
-502.9999999999999
 20
700.5
 30
62.00000000000023
 70
   192
  0
VERTEX
  5
3B8C
  8
0
 10
-484.9999999999999
 20
700.5
 30
62.00000000000023
 70
   192
  0
VERTEX
  5
3B8D
  8
0
 10
-485.0
 20
700.5
 30
-88.99999999999977
 70
   192
  0
VERTEX
  5
3B8E
  8
0
 10
0.0
 20
0.0
 30
0.0
 70
   128
 71
     3
 72
     4
 73
    -1
  0
VERTEX
  5
3B8F
  8
0
 10
0.0
 20
0.0
 30
0.0
 70
   128
 71
     2
 72
    -3
 73
     1
  0
SEQEND
  5
44FB
  8
0
  0
POLYLINE
  5
3B90
  8
0
 66
     1
 10
0.0
 20
0.0
 30
0.0
 70
    64
 71
     4
 72
     2
  0
VERTEX
  5
3B91
  8
0
 10
-502.9999999999999
 20
-0.5
 30
62.00000000000023
 70
   192
  0
VERTEX
  5
3B92
  8
0
 10
-484.9999999999999
 20
-0.5
 30
62.00000000000023
 70
   192
  0
VERTEX
  5
3B93
  8
0
 10
-484.9999999999999
 20
-0.5
 30
-88.99999999999977
 70
   192
  0
VERTEX
  5
3B94
  8
0
 10
-502.9999999999999
 20
-0.5
 30
-88.99999999999977
 70
   192
  0
VERTEX
  5
3B95
  8
0
 10
0.0
 20
0.0
 30
0.0
 70
   128
 71
     1
 72
     4
 73
    -3
  0
VERTEX
  5
3B96
  8
0
 10
0.0
 20
0.0
 30
0.0
 70
   128
 71
    -1
 72
     3
 73
     2
  0
SEQEND
  5
44FC
  8
0
  0
ENDBLK
  5
44F6
  8
0
  0
BLOCK
  8
0
  2
*X3
 70
     1
 10
0.0
 20
0.0
 30
0.0
  3
*X3
  1

  0
POLYLINE
  5
3B98
  8
0
 66
     1
 10
0.0
 20
0.0
 30
0.0
 70
    64
 71
     4
 72
     2
  0
VERTEX
  5
3B99
  8
0
 10
485.0
 20
-0.5
 30
-88.99999999999989
 70
   192
  0
VERTEX
  5
3B9A
  8
0
 10
484.9999999999999
 20
-0.5
 30
62.00000000000011
 70
   192
  0
VERTEX
  5
3B9B
  8
0
 10
484.9999999999999
 20
700.5
 30
62.00000000000011
 70
   192
  0
VERTEX
  5
3B9C
  8
0
 10
485.0
 20
700.5
 30
-88.99999999999989
 70
   192
  0
VERTEX
  5
3B9D
  8
0
 10
0.0
 20
0.0
 30
0.0
 70
   128
 71
     3
 72
     4
 73
    -1
  0
VERTEX
  5
3B9E
  8
0
 10
0.0
 20
0.0
 30
0.0
 70
   128
 71
     2
 72
    -3
 73
     1
  0
SEQEND
  5
44FF
  8
0
  0
POLYLINE
  5
3B9F
  8
0
 66
     1
 10
0.0
 20
0.0
 30
0.0
 70
    64
 71
     4
 72
     2
  0
VERTEX
  5
3BA0
  8
0
 10
484.9999999999999
 20
-0.5
 30
62.00000000000011
 70
   192
  0
VERTEX
  5
3BA1
  8
0
 10
484.9999999999999
 20
700.5
 30
62.00000000000011
 70
   192
  0
VERTEX
  5
3BA2
  8
0
 10
502.9999999999999
 20
700.5
 30
62.00000000000011
 70
   192
  0
VERTEX
  5
3BA3
  8
0
 10
502.9999999999999
 20
-0.5
 30
62.00000000000011
 70
   192
  0
VERTEX
  5
3BA4
  8
0
 10
0.0
 20
0.0
 30
0.0
 70
   128
 71
     1
 72
     4
 73
    -3
  0
VERTEX
  5
3BA5
  8
0
 10
0.0
 20
0.0
 30
0.0
 70
   128
 71
    -1
 72
     3
 73
     2
  0
SEQEND
  5
4500
  8
0
  0
POLYLINE
  5
3BA6
  8
0
 66
     1
 10
0.0
 20
0.0
 30
0.0
 70
    64
 71
     4
 72
     2
  0
VERTEX
  5
3BA7
  8
0
 10
502.9999999999999
 20
-0.5
 30
62.00000000000012
 70
   192
  0
VERTEX
  5
3BA8
  8
0
 10
502.9999999999999
 20
-0.5
 30
-88.9999999999999
 70
   192
  0
VERTEX
  5
3BA9
  8
0
 10
502.9999999999999
 20
700.5
 30
-88.9999999999999
 70
   192
  0
VERTEX
  5
3BAA
  8
0
 10
502.9999999999999
 20
700.5
 30
62.00000000000012
 70
   192
  0
VERTEX
  5
3BAB
  8
0
 10
0.0
 20
0.0
 30
0.0
 70
   128
 71
     3
 72
     4
 73
    -1
  0
VERTEX
  5
3BAC
  8
0
 10
0.0
 20
0.0
 30
0.0
 70
   128
 71
     2
 72
    -3
 73
     1
  0
SEQEND
  5
4501
  8
0
  0
POLYLINE
  5
3BAD
  8
0
 66
     1
 10
0.0
 20
0.0
 30
0.0
 70
    64
 71
     4
 72
     2
  0
VERTEX
  5
3BAE
  8
0
 10
502.9999999999999
 20
-0.5
 30
-88.9999999999999
 70
   192
  0
VERTEX
  5
3BAF
  8
0
 10
484.9999999999999
 20
-0.5
 30
-88.9999999999999
 70
   192
  0
VERTEX
  5
3BB0
  8
0
 10
484.9999999999999
 20
700.5
 30
-88.9999999999999
 70
   192
  0
VERTEX
  5
3BB1
  8
0
 10
502.9999999999999
 20
700.5
 30
-88.9999999999999
 70
   192
  0
VERTEX
  5
3BB2
  8
0
 10
0.0
 20
0.0
 30
0.0
 70
   128
 71
     3
 72
     4
 73
    -1
  0
VERTEX
  5
3BB3
  8
0
 10
0.0
 20
0.0
 30
0.0
 70
   128
 71
     2
 72
    -3
 73
     1
  0
SEQEND
  5
4502
  8
0
  0
POLYLINE
  5
3BB4
  8
0
 66
     1
 10
0.0
 20
0.0
 30
0.0
 70
    64
 71
     4
 72
     2
  0
VERTEX
  5
3BB5
  8
0
 10
485.0
 20
700.5
 30
-88.99999999999989
 70
   192
  0
VERTEX
  5
3BB6
  8
0
 10
484.9999999999999
 20
700.5
 30
62.00000000000011
 70
   192
  0
VERTEX
  5
3BB7
  8
0
 10
502.9999999999999
 20
700.5
 30
62.00000000000011
 70
   192
  0
VERTEX
  5
3BB8
  8
0
 10
502.9999999999999
 20
700.5
 30
-88.9999999999999
 70
   192
  0
VERTEX
  5
3BB9
  8
0
 10
0.0
 20
0.0
 30
0.0
 70
   128
 71
     3
 72
     4
 73
    -1
  0
VERTEX
  5
3BBA
  8
0
 10
0.0
 20
0.0
 30
0.0
 70
   128
 71
     2
 72
    -3
 73
     1
  0
SEQEND
  5
4503
  8
0
  0
POLYLINE
  5
3BBB
  8
0
 66
     1
 10
0.0
 20
0.0
 30
0.0
 70
    64
 71
     4
 72
     2
  0
VERTEX
  5
3BBC
  8
0
 10
484.9999999999999
 20
-0.5
 30
62.00000000000011
 70
   192
  0
VERTEX
  5
3BBD
  8
0
 10
502.9999999999999
 20
-0.5
 30
62.00000000000012
 70
   192
  0
VERTEX
  5
3BBE
  8
0
 10
502.9999999999999
 20
-0.5
 30
-88.9999999999999
 70
   192
  0
VERTEX
  5
3BBF
  8
0
 10
485.0
 20
-0.5
 30
-88.99999999999989
 70
   192
  0
VERTEX
  5
3BC0
  8
0
 10
0.0
 20
0.0
 30
0.0
 70
   128
 71
     1
 72
     4
 73
    -3
  0
VERTEX
  5
3BC1
  8
0
 10
0.0
 20
0.0
 30
0.0
 70
   128
 71
    -1
 72
     3
 73
     2
  0
SEQEND
  5
4504
  8
0
  0
ENDBLK
  5
44FE
  8
0
  0
BLOCK
  8
0
  2
*X4
 70
     1
 10
0.0
 20
0.0
 30
0.0
  3
*X4
  1

  0
POLYLINE
  5
3BC3
  8
0
 66
     1
 10
0.0
 20
0.0
 30
0.0
 70
    64
 71
     4
 72
     2
  0
VERTEX
  5
3BC4
  8
0
 10
-502.9999999999999
 20
-0.5
 30
-88.99999999999977
 70
   192
  0
VERTEX
  5
3BC5
  8
0
 10
-502.9999999999999
 20
700.5
 30
-88.99999999999977
 70
   192
  0
VERTEX
  5
3BC6
  8
0
 10
-527.9999999999999
 20
700.5
 30
-88.99999999999977
 70
   192
  0
VERTEX
  5
3BC7
  8
0
 10
-527.9999999999999
 20
-0.5
 30
-88.99999999999977
 70
   192
  0
VERTEX
  5
3BC8
  8
0
 10
0.0
 20
0.0
 30
0.0
 70
   128
 71
     1
 72
     4
 73
    -3
  0
VERTEX
  5
3BC9
  8
0
 10
0.0
 20
0.0
 30
0.0
 70
   128
 71
    -1
 72
     3
 73
     2
  0
SEQEND
  5
4507
  8
0
  0
POLYLINE
  5
3BCA
  8
0
 66
     1
 10
0.0
 20
0.0
 30
0.0
 70
    64
 71
     4
 72
     2
  0
VERTEX
  5
3BCB
  8
0
 10
-527.9999999999999
 20
-0.5
 30
-88.99999999999977
 70
   192
  0
VERTEX
  5
3BCC
  8
0
 10
-527.9999999999999
 20
700.5
 30
-88.99999999999977
 70
   192
  0
VERTEX
  5
3BCD
  8
0
 10
-527.9999999999998
 20
700.5
 30
57.00000000000018
 70
   192
  0
VERTEX
  5
3BCE
  8
0
 10
-527.9999999999998
 20
-0.5
 30
57.00000000000018
 70
   192
  0
VERTEX
  5
3BCF
  8
0
 10
0.0
 20
0.0
 30
0.0
 70
   128
 71
     1
 72
     4
 73
    -3
  0
VERTEX
  5
3BD0
  8
0
 10
0.0
 20
0.0
 30
0.0
 70
   128
 71
    -1
 72
     3
 73
     2
  0
SEQEND
  5
4508
  8
0
  0
POLYLINE
  5
3BD1
  8
0
 66
     1
 10
0.0
 20
0.0
 30
0.0
 70
    64
 71
     8
 72
     6
  0
VERTEX
  5
3BD2
  8
0
 10
-515.4999999999999
 20
-0.5
 30
78.65063509461112
 70
   192
  0
VERTEX
  5
3BD3
  8
0
 10
-515.4999999999999
 20
700.5
 30
78.65063509461112
 70
   192
  0
VERTEX
  5
3BD4
  8
0
 10
-524.6506350946108
 20
700.5
 30
69.50000000000017
 70
   192
  0
VERTEX
  5
3BD5
  8
0
 10
-524.6506350946108
 20
-0.5
 30
69.50000000000017
 70
   192
  0
VERTEX
  5
3BD6
  8
0
 10
-502.9999999999999
 20
-0.5
 30
82.00000000000016
 70
   192
  0
VERTEX
  5
3BD7
  8
0
 10
-502.9999999999999
 20
700.5
 30
82.00000000000016
 70
   192
  0
VERTEX
  5
3BD8
  8
0
 10
-527.9999999999999
 20
700.5
 30
57.00000000000018
 70
   192
  0
VERTEX
  5
3BD9
  8
0
 10
-527.9999999999998
 20
-0.5
 30
57.00000000000018
 70
   192
  0
VERTEX
  5
3BDA
  8
0
 10
0.0
 20
0.0
 30
0.0
 70
   128
 71
     1
 72
     2
 73
    -3
  0
VERTEX
  5
3BDB
  8
0
 10
0.0
 20
0.0
 30
0.0
 70
   128
 71
    -1
 72
     3
 73
     4
  0
VERTEX
  5
3BDC
  8
0
 10
0.0
 20
0.0
 30
0.0
 70
   128
 71
     5
 72
     6
 73
    -2
  0
VERTEX
  5
3BDD
  8
0
 10
0.0
 20
0.0
 30
0.0
 70
   128
 71
    -5
 72
     2
 73
     1
  0
VERTEX
  5
3BDE
  8
0
 10
0.0
 20
0.0
 30
0.0
 70
   128
 71
     4
 72
     3
 73
    -7
  0
VERTEX
  5
3BDF
  8
0
 10
0.0
 20
0.0
 30
0.0
 70
   128
 71
    -4
 72
     7
 73
     8
  0
SEQEND
  5
4509
  8
0
  0
POLYLINE
  5
3BE0
  8
0
 66
     1
 10
0.0
 20
0.0
 30
0.0
 70
    64
 71
     4
 72
     2
  0
VERTEX
  5
3BE1
  8
0
 10
-502.9999999999999
 20
-0.5
 30
82.00000000000016
 70
   192
  0
VERTEX
  5
3BE2
  8
0
 10
-502.9999999999999
 20
-0.5
 30
-88.99999999999977
 70
   192
  0
VERTEX
  5
3BE3
  8
0
 10
-502.9999999999999
 20
700.5
 30
-88.99999999999977
 70
   192
  0
VERTEX
  5
3BE4
  8
0
 10
-502.9999999999999
 20
700.5
 30
82.00000000000016
 70
   192
  0
VERTEX
  5
3BE5
  8
0
 10
0.0
 20
0.0
 30
0.0
 70
   128
 71
     3
 72
     4
 73
    -1
  0
VERTEX
  5
3BE6
  8
0
 10
0.0
 20
0.0
 30
0.0
 70
   128
 71
     2
 72
    -3
 73
     1
  0
SEQEND
  5
450A
  8
0
  0
POLYLINE
  5
3BE7
  8
0
 66
     1
 10
0.0
 20
0.0
 30
0.0
 70
    64
 71
     6
 72
     4
  0
VERTEX
  5
3BE8
  8
0
 10
-502.9999999999999
 20
700.5
 30
-88.99999999999977
 70
   192
  0
VERTEX
  5
3BE9
  8
0
 10
-527.9999999999999
 20
700.5
 30
-88.99999999999977
 70
   192
  0
VERTEX
  5
3BEA
  8
0
 10
-527.9999999999998
 20
700.5
 30
57.00000000000018
 70
   192
  0
VERTEX
  5
3BEB
  8
0
 10
-524.6506350946108
 20
700.5
 30
69.50000000000017
 70
   192
  0
VERTEX
  5
3BEC
  8
0
 10
-515.4999999999999
 20
700.5
 30
78.65063509461112
 70
   192
  0
VERTEX
  5
3BED
  8
0
 10
-502.9999999999999
 20
700.5
 30
82.00000000000016
 70
   192
  0
VERTEX
  5
3BEE
  8
0
 10
0.0
 20
0.0
 30
0.0
 70
   128
 71
     5
 72
     6
 73
    -1
  0
VERTEX
  5
3BEF
  8
0
 10
0.0
 20
0.0
 30
0.0
 70
   128
 71
     4
 72
    -5
 73
    -1
  0
VERTEX
  5
3BF0
  8
0
 10
0.0
 20
0.0
 30
0.0
 70
   128
 71
     3
 72
    -4
 73
    -1
  0
VERTEX
  5
3BF1
  8
0
 10
0.0
 20
0.0
 30
0.0
 70
   128
 71
     2
 72
    -3
 73
     1
  0
SEQEND
  5
450B
  8
0
  0
POLYLINE
  5
3BF2
  8
0
 66
     1
 10
0.0
 20
0.0
 30
0.0
 70
    64
 71
     6
 72
     4
  0
VERTEX
  5
3BF3
  8
0
 10
-527.9999999999999
 20
-0.5
 30
-88.99999999999977
 70
   192
  0
VERTEX
  5
3BF4
  8
0
 10
-527.9999999999999
 20
-0.5
 30
57.00000000000018
 70
   192
  0
VERTEX
  5
3BF5
  8
0
 10
-524.6506350946108
 20
-0.5
 30
69.50000000000017
 70
   192
  0
VERTEX
  5
3BF6
  8
0
 10
-515.4999999999999
 20
-0.5
 30
78.65063509461112
 70
   192
  0
VERTEX
  5
3BF7
  8
0
 10
-502.9999999999999
 20
-0.5
 30
82.00000000000016
 70
   192
  0
VERTEX
  5
3BF8
  8
0
 10
-502.9999999999999
 20
-0.5
 30
-88.99999999999977
 70
   192
  0
VERTEX
  5
3BF9
  8
0
 10
0.0
 20
0.0
 30
0.0
 70
   128
 71
     1
 72
     6
 73
    -5
  0
VERTEX
  5
3BFA
  8
0
 10
0.0
 20
0.0
 30
0.0
 70
   128
 71
    -1
 72
     5
 73
    -4
  0
VERTEX
  5
3BFB
  8
0
 10
0.0
 20
0.0
 30
0.0
 70
   128
 71
    -1
 72
     4
 73
    -3
  0
VERTEX
  5
3BFC
  8
0
 10
0.0
 20
0.0
 30
0.0
 70
   128
 71
    -1
 72
     3
 73
     2
  0
SEQEND
  5
450C
  8
0
  0
ENDBLK
  5
4506
  8
0
  0
BLOCK
  8
0
  2
*X5
 70
     1
 10
0.0
 20
0.0
 30
0.0
  3
*X5
  1

  0
POLYLINE
  5
3BFE
  8
0
 66
     1
 10
0.0
 20
0.0
 30
0.0
 70
    64
 71
     4
 72
     2
  0
VERTEX
  5
3BFF
  8
0
 10
527.9999999999999
 20
-0.5
 30
-88.9999999999999
 70
   192
  0
VERTEX
  5
3C00
  8
0
 10
502.9999999999999
 20
-0.5
 30
-88.9999999999999
 70
   192
  0
VERTEX
  5
3C01
  8
0
 10
502.9999999999999
 20
700.5
 30
-88.9999999999999
 70
   192
  0
VERTEX
  5
3C02
  8
0
 10
527.9999999999999
 20
700.5
 30
-88.9999999999999
 70
   192
  0
VERTEX
  5
3C03
  8
0
 10
0.0
 20
0.0
 30
0.0
 70
   128
 71
     3
 72
     4
 73
    -1
  0
VERTEX
  5
3C04
  8
0
 10
0.0
 20
0.0
 30
0.0
 70
   128
 71
     2
 72
    -3
 73
     1
  0
SEQEND
  5
450F
  8
0
  0
POLYLINE
  5
3C05
  8
0
 66
     1
 10
0.0
 20
0.0
 30
0.0
 70
    64
 71
     4
 72
     2
  0
VERTEX
  5
3C06
  8
0
 10
502.9999999999999
 20
-0.5
 30
-88.9999999999999
 70
   192
  0
VERTEX
  5
3C07
  8
0
 10
502.9999999999999
 20
700.5
 30
-88.9999999999999
 70
   192
  0
VERTEX
  5
3C08
  8
0
 10
502.9999999999999
 20
700.5
 30
82.00000000000003
 70
   192
  0
VERTEX
  5
3C09
  8
0
 10
502.9999999999999
 20
-0.5
 30
82.00000000000003
 70
   192
  0
VERTEX
  5
3C0A
  8
0
 10
0.0
 20
0.0
 30
0.0
 70
   128
 71
     1
 72
     4
 73
    -3
  0
VERTEX
  5
3C0B
  8
0
 10
0.0
 20
0.0
 30
0.0
 70
   128
 71
    -1
 72
     3
 73
     2
  0
SEQEND
  5
4510
  8
0
  0
POLYLINE
  5
3C0C
  8
0
 66
     1
 10
0.0
 20
0.0
 30
0.0
 70
    64
 71
     8
 72
     6
  0
VERTEX
  5
3C0D
  8
0
 10
524.6506350946108
 20
-0.5
 30
69.50000000000004
 70
   192
  0
VERTEX
  5
3C0E
  8
0
 10
524.6506350946108
 20
700.5
 30
69.50000000000004
 70
   192
  0
VERTEX
  5
3C0F
  8
0
 10
515.4999999999999
 20
700.5
 30
78.650635094611
 70
   192
  0
VERTEX
  5
3C10
  8
0
 10
515.4999999999999
 20
-0.5
 30
78.650635094611
 70
   192
  0
VERTEX
  5
3C11
  8
0
 10
527.9999999999999
 20
-0.5
 30
57.00000000000006
 70
   192
  0
VERTEX
  5
3C12
  8
0
 10
527.9999999999998
 20
700.5
 30
57.00000000000006
 70
   192
  0
VERTEX
  5
3C13
  8
0
 10
502.9999999999999
 20
700.5
 30
82.00000000000004
 70
   192
  0
VERTEX
  5
3C14
  8
0
 10
502.9999999999999
 20
-0.5
 30
82.00000000000003
 70
   192
  0
VERTEX
  5
3C15
  8
0
 10
0.0
 20
0.0
 30
0.0
 70
   128
 71
     1
 72
     2
 73
    -3
  0
VERTEX
  5
3C16
  8
0
 10
0.0
 20
0.0
 30
0.0
 70
   128
 71
    -1
 72
     3
 73
     4
  0
VERTEX
  5
3C17
  8
0
 10
0.0
 20
0.0
 30
0.0
 70
   128
 71
     5
 72
     6
 73
    -2
  0
VERTEX
  5
3C18
  8
0
 10
0.0
 20
0.0
 30
0.0
 70
   128
 71
    -5
 72
     2
 73
     1
  0
VERTEX
  5
3C19
  8
0
 10
0.0
 20
0.0
 30
0.0
 70
   128
 71
     4
 72
     3
 73
    -7
  0
VERTEX
  5
3C1A
  8
0
 10
0.0
 20
0.0
 30
0.0
 70
   128
 71
    -4
 72
     7
 73
     8
  0
SEQEND
  5
4511
  8
0
  0
POLYLINE
  5
3C1B
  8
0
 66
     1
 10
0.0
 20
0.0
 30
0.0
 70
    64
 71
     4
 72
     2
  0
VERTEX
  5
3C1C
  8
0
 10
527.9999999999998
 20
-0.5
 30
57.00000000000006
 70
   192
  0
VERTEX
  5
3C1D
  8
0
 10
527.9999999999999
 20
-0.5
 30
-88.9999999999999
 70
   192
  0
VERTEX
  5
3C1E
  8
0
 10
527.9999999999999
 20
700.5
 30
-88.9999999999999
 70
   192
  0
VERTEX
  5
3C1F
  8
0
 10
527.9999999999998
 20
700.5
 30
57.00000000000006
 70
   192
  0
VERTEX
  5
3C20
  8
0
 10
0.0
 20
0.0
 30
0.0
 70
   128
 71
     3
 72
     4
 73
    -1
  0
VERTEX
  5
3C21
  8
0
 10
0.0
 20
0.0
 30
0.0
 70
   128
 71
     2
 72
    -3
 73
     1
  0
SEQEND
  5
4512
  8
0
  0
POLYLINE
  5
3C22
  8
0
 66
     1
 10
0.0
 20
0.0
 30
0.0
 70
    64
 71
     6
 72
     4
  0
VERTEX
  5
3C23
  8
0
 10
527.9999999999999
 20
700.5
 30
-88.9999999999999
 70
   192
  0
VERTEX
  5
3C24
  8
0
 10
502.9999999999999
 20
700.5
 30
-88.9999999999999
 70
   192
  0
VERTEX
  5
3C25
  8
0
 10
502.9999999999999
 20
700.5
 30
82.00000000000003
 70
   192
  0
VERTEX
  5
3C26
  8
0
 10
515.4999999999999
 20
700.5
 30
78.650635094611
 70
   192
  0
VERTEX
  5
3C27
  8
0
 10
524.6506350946108
 20
700.5
 30
69.50000000000004
 70
   192
  0
VERTEX
  5
3C28
  8
0
 10
527.9999999999999
 20
700.5
 30
57.00000000000006
 70
   192
  0
VERTEX
  5
3C29
  8
0
 10
0.0
 20
0.0
 30
0.0
 70
   128
 71
     5
 72
     6
 73
    -1
  0
VERTEX
  5
3C2A
  8
0
 10
0.0
 20
0.0
 30
0.0
 70
   128
 71
     4
 72
    -5
 73
    -1
  0
VERTEX
  5
3C2B
  8
0
 10
0.0
 20
0.0
 30
0.0
 70
   128
 71
     3
 72
    -4
 73
    -1
  0
VERTEX
  5
3C2C
  8
0
 10
0.0
 20
0.0
 30
0.0
 70
   128
 71
     2
 72
    -3
 73
     1
  0
SEQEND
  5
4513
  8
0
  0
POLYLINE
  5
3C2D
  8
0
 66
     1
 10
0.0
 20
0.0
 30
0.0
 70
    64
 71
     6
 72
     4
  0
VERTEX
  5
3C2E
  8
0
 10
502.9999999999999
 20
-0.5
 30
-88.9999999999999
 70
   192
  0
VERTEX
  5
3C2F
  8
0
 10
502.9999999999999
 20
-0.5
 30
82.00000000000004
 70
   192
  0
VERTEX
  5
3C30
  8
0
 10
515.4999999999999
 20
-0.5
 30
78.650635094611
 70
   192
  0
VERTEX
  5
3C31
  8
0
 10
524.6506350946108
 20
-0.5
 30
69.50000000000004
 70
   192
  0
VERTEX
  5
3C32
  8
0
 10
527.9999999999998
 20
-0.5
 30
57.00000000000006
 70
   192
  0
VERTEX
  5
3C33
  8
0
 10
527.9999999999999
 20
-0.5
 30
-88.9999999999999
 70
   192
  0
VERTEX
  5
3C34
  8
0
 10
0.0
 20
0.0
 30
0.0
 70
   128
 71
     1
 72
     6
 73
    -5
  0
VERTEX
  5
3C35
  8
0
 10
0.0
 20
0.0
 30
0.0
 70
   128
 71
    -1
 72
     5
 73
    -4
  0
VERTEX
  5
3C36
  8
0
 10
0.0
 20
0.0
 30
0.0
 70
   128
 71
    -1
 72
     4
 73
    -3
  0
VERTEX
  5
3C37
  8
0
 10
0.0
 20
0.0
 30
0.0
 70
   128
 71
    -1
 72
     3
 73
     2
  0
SEQEND
  5
4514
  8
0
  0
ENDBLK
  5
450E
  8
0
  0
BLOCK
  8
0
  2
*X6
 70
     1
 10
0.0
 20
0.0
 30
0.0
  3
*X6
  1

  0
POLYLINE
  5
3C39
  8
0
 66
     1
 10
0.0
 20
0.0
 30
0.0
 70
    64
 71
     4
 72
     2
  0
VERTEX
  5
3C3A
  8
0
 10
485.0
 20
682.0
 30
-61.99999999999951
 70
   192
  0
VERTEX
  5
3C3B
  8
0
 10
484.9999999999999
 20
682.0
 30
62.00000000000049
 70
   192
  0
VERTEX
  5
3C3C
  8
0
 10
484.9999999999999
 20
700.0000000000001
 30
62.00000000000049
 70
   192
  0
VERTEX
  5
3C3D
  8
0
 10
485.0
 20
700.0000000000001
 30
-61.99999999999951
 70
   192
  0
VERTEX
  5
3C3E
  8
0
 10
0.0
 20
0.0
 30
0.0
 70
   128
 71
     1
 72
     4
 73
    -3
  0
VERTEX
  5
3C3F
  8
0
 10
0.0
 20
0.0
 30
0.0
 70
   128
 71
    -1
 72
     3
 73
     2
  0
SEQEND
  5
4517
  8
0
  0
POLYLINE
  5
3C40
  8
0
 66
     1
 10
0.0
 20
0.0
 30
0.0
 70
    64
 71
     4
 72
     2
  0
VERTEX
  5
3C41
  8
0
 10
-484.9999999999999
 20
700.0000000000001
 30
62.00000000000049
 70
   192
  0
VERTEX
  5
3C42
  8
0
 10
-485.0
 20
700.0000000000001
 30
-61.99999999999951
 70
   192
  0
VERTEX
  5
3C43
  8
0
 10
485.0
 20
700.0000000000001
 30
-61.99999999999951
 70
   192
  0
VERTEX
  5
3C44
  8
0
 10
484.9999999999999
 20
700.0000000000001
 30
62.00000000000049
 70
   192
  0
VERTEX
  5
3C45
  8
0
 10
0.0
 20
0.0
 30
0.0
 70
   128
 71
     1
 72
     4
 73
    -3
  0
VERTEX
  5
3C46
  8
0
 10
0.0
 20
0.0
 30
0.0
 70
   128
 71
    -1
 72
     3
 73
     2
  0
SEQEND
  5
4518
  8
0
  0
POLYLINE
  5
3C47
  8
0
 66
     1
 10
0.0
 20
0.0
 30
0.0
 70
    64
 71
     4
 72
     2
  0
VERTEX
  5
3C48
  8
0
 10
-484.9999999999999
 20
682.0
 30
62.00000000000049
 70
   192
  0
VERTEX
  5
3C49
  8
0
 10
-485.0
 20
700.0000000000001
 30
62.00000000000049
 70
   192
  0
VERTEX
  5
3C4A
  8
0
 10
484.9999999999999
 20
700.0000000000001
 30
62.00000000000049
 70
   192
  0
VERTEX
  5
3C4B
  8
0
 10
484.9999999999999
 20
682.0
 30
62.00000000000049
 70
   192
  0
VERTEX
  5
3C4C
  8
0
 10
0.0
 20
0.0
 30
0.0
 70
   128
 71
     1
 72
     4
 73
    -3
  0
VERTEX
  5
3C4D
  8
0
 10
0.0
 20
0.0
 30
0.0
 70
   128
 71
    -1
 72
     3
 73
     2
  0
SEQEND
  5
4519
  8
0
  0
POLYLINE
  5
3C4E
  8
0
 66
     1
 10
0.0
 20
0.0
 30
0.0
 70
    64
 71
     4
 72
     2
  0
VERTEX
  5
3C4F
  8
0
 10
-484.9999999999999
 20
700.0000000000001
 30
-61.99999999999951
 70
   192
  0
VERTEX
  5
3C50
  8
0
 10
-485.0
 20
682.0
 30
-61.99999999999951
 70
   192
  0
VERTEX
  5
3C51
  8
0
 10
485.0
 20
682.0
 30
-61.99999999999951
 70
   192
  0
VERTEX
  5
3C52
  8
0
 10
484.9999999999999
 20
700.0000000000001
 30
-61.99999999999951
 70
   192
  0
VERTEX
  5
3C53
  8
0
 10
0.0
 20
0.0
 30
0.0
 70
   128
 71
     1
 72
     4
 73
    -3
  0
VERTEX
  5
3C54
  8
0
 10
0.0
 20
0.0
 30
0.0
 70
   128
 71
    -1
 72
     3
 73
     2
  0
SEQEND
  5
451A
  8
0
  0
POLYLINE
  5
3C55
  8
0
 66
     1
 10
0.0
 20
0.0
 30
0.0
 70
    64
 71
     4
 72
     2
  0
VERTEX
  5
3C56
  8
0
 10
-484.9999999999999
 20
682.0
 30
62.00000000000049
 70
   192
  0
VERTEX
  5
3C57
  8
0
 10
-484.9999999999999
 20
682.0
 30
-61.99999999999951
 70
   192
  0
VERTEX
  5
3C58
  8
0
 10
-484.9999999999999
 20
700.0000000000001
 30
-61.99999999999951
 70
   192
  0
VERTEX
  5
3C59
  8
0
 10
-484.9999999999999
 20
700.0000000000001
 30
62.00000000000049
 70
   192
  0
VERTEX
  5
3C5A
  8
0
 10
0.0
 20
0.0
 30
0.0
 70
   128
 71
     1
 72
     4
 73
    -3
  0
VERTEX
  5
3C5B
  8
0
 10
0.0
 20
0.0
 30
0.0
 70
   128
 71
    -1
 72
     3
 73
     2
  0
SEQEND
  5
451B
  8
0
  0
POLYLINE
  5
3C5C
  8
0
 66
     1
 10
0.0
 20
0.0
 30
0.0
 70
    64
 71
     4
 72
     2
  0
VERTEX
  5
3C5D
  8
0
 10
-484.9999999999999
 20
682.0
 30
-61.99999999999951
 70
   192
  0
VERTEX
  5
3C5E
  8
0
 10
-485.0
 20
682.0
 30
62.00000000000049
 70
   192
  0
VERTEX
  5
3C5F
  8
0
 10
484.9999999999999
 20
682.0
 30
62.00000000000049
 70
   192
  0
VERTEX
  5
3C60
  8
0
 10
485.0
 20
682.0
 30
-61.99999999999951
 70
   192
  0
VERTEX
  5
3C61
  8
0
 10
0.0
 20
0.0
 30
0.0
 70
   128
 71
     1
 72
     4
 73
    -3
  0
VERTEX
  5
3C62
  8
0
 10
0.0
 20
0.0
 30
0.0
 70
   128
 71
    -1
 72
     3
 73
     2
  0
SEQEND
  5
451C
  8
0
  0
ENDBLK
  5
4516
  8
0
  0
BLOCK
  8
0
  2
*X7
 70
     1
 10
0.0
 20
0.0
 30
0.0
  3
*X7
  1

  0
POLYLINE
  5
3C64
  8
0
 66
     1
 10
0.0
 20
0.0
 30
0.0
 70
    64
 71
     4
 72
     2
  0
VERTEX
  5
3C65
  8
0
 10
9.000000000000002
 20
18.0
 30
-44.00000000000021
 70
   192
  0
VERTEX
  5
3C66
  8
0
 10
9.000000000000002
 20
138.0
 30
-44.00000000000021
 70
   192
  0
VERTEX
  5
3C67
  8
0
 10
484.9999999999999
 20
138.0
 30
-43.99999999999976
 70
   192
  0
VERTEX
  5
3C68
  8
0
 10
484.9999999999999
 20
18.0
 30
-43.99999999999976
 70
   192
  0
VERTEX
  5
3C69
  8
0
 10
0.0
 20
0.0
 30
0.0
 70
   128
 71
     1
 72
     4
 73
    -3
  0
VERTEX
  5
3C6A
  8
0
 10
0.0
 20
0.0
 30
0.0
 70
   128
 71
    -1
 72
     3
 73
     2
  0
SEQEND
  5
451F
  8
0
  0
POLYLINE
  5
3C6B
  8
0
 66
     1
 10
0.0
 20
0.0
 30
0.0
 70
    64
 71
     4
 72
     2
  0
VERTEX
  5
3C6C
  8
0
 10
484.9999999999999
 20
18.0
 30
-43.99999999999976
 70
   192
  0
VERTEX
  5
3C6D
  8
0
 10
484.9999999999999
 20
138.0
 30
-43.99999999999976
 70
   192
  0
VERTEX
  5
3C6E
  8
0
 10
484.9999999999998
 20
138.0
 30
-61.99999999999977
 70
   192
  0
VERTEX
  5
3C6F
  8
0
 10
484.9999999999998
 20
18.0
 30
-61.99999999999977
 70
   192
  0
VERTEX
  5
3C70
  8
0
 10
0.0
 20
0.0
 30
0.0
 70
   128
 71
     1
 72
     4
 73
    -3
  0
VERTEX
  5
3C71
  8
0
 10
0.0
 20
0.0
 30
0.0
 70
   128
 71
    -1
 72
     3
 73
     2
  0
SEQEND
  5
4520
  8
0
  0
POLYLINE
  5
3C72
  8
0
 66
     1
 10
0.0
 20
0.0
 30
0.0
 70
    64
 71
     4
 72
     2
  0
VERTEX
  5
3C73
  8
0
 10
484.9999999999998
 20
18.0
 30
-61.99999999999977
 70
   192
  0
VERTEX
  5
3C74
  8
0
 10
484.9999999999998
 20
138.0
 30
-61.99999999999977
 70
   192
  0
VERTEX
  5
3C75
  8
0
 10
9.000000000000004
 20
138.0
 30
-61.99999999999994
 70
   192
  0
VERTEX
  5
3C76
  8
0
 10
9.000000000000004
 20
18.0
 30
-61.99999999999994
 70
   192
  0
VERTEX
  5
3C77
  8
0
 10
0.0
 20
0.0
 30
0.0
 70
   128
 71
     1
 72
     4
 73
    -3
  0
VERTEX
  5
3C78
  8
0
 10
0.0
 20
0.0
 30
0.0
 70
   128
 71
    -1
 72
     3
 73
     2
  0
SEQEND
  5
4521
  8
0
  0
POLYLINE
  5
3C79
  8
0
 66
     1
 10
0.0
 20
0.0
 30
0.0
 70
    64
 71
     4
 72
     2
  0
VERTEX
  5
3C7A
  8
0
 10
9.000000000000004
 20
18.0
 30
-61.99999999999994
 70
   192
  0
VERTEX
  5
3C7B
  8
0
 10
9.000000000000004
 20
138.0
 30
-61.99999999999994
 70
   192
  0
VERTEX
  5
3C7C
  8
0
 10
9.000000000000002
 20
138.0
 30
-44.00000000000021
 70
   192
  0
VERTEX
  5
3C7D
  8
0
 10
9.000000000000002
 20
18.0
 30
-44.00000000000021
 70
   192
  0
VERTEX
  5
3C7E
  8
0
 10
0.0
 20
0.0
 30
0.0
 70
   128
 71
     1
 72
     4
 73
    -3
  0
VERTEX
  5
3C7F
  8
0
 10
0.0
 20
0.0
 30
0.0
 70
   128
 71
    -1
 72
     3
 73
     2
  0
SEQEND
  5
4522
  8
0
  0
POLYLINE
  5
3C80
  8
0
 66
     1
 10
0.0
 20
0.0
 30
0.0
 70
    64
 71
     4
 72
     2
  0
VERTEX
  5
3C81
  8
0
 10
9.000000000000002
 20
138.0
 30
-44.00000000000021
 70
   192
  0
VERTEX
  5
3C82
  8
0
 10
9.000000000000004
 20
138.0
 30
-61.99999999999994
 70
   192
  0
VERTEX
  5
3C83
  8
0
 10
484.9999999999998
 20
138.0
 30
-61.99999999999977
 70
   192
  0
VERTEX
  5
3C84
  8
0
 10
484.9999999999999
 20
138.0
 30
-43.99999999999976
 70
   192
  0
VERTEX
  5
3C85
  8
0
 10
0.0
 20
0.0
 30
0.0
 70
   128
 71
     1
 72
     4
 73
    -3
  0
VERTEX
  5
3C86
  8
0
 10
0.0
 20
0.0
 30
0.0
 70
   128
 71
    -1
 72
     3
 73
     2
  0
SEQEND
  5
4523
  8
0
  0
POLYLINE
  5
3C87
  8
0
 66
     1
 10
0.0
 20
0.0
 30
0.0
 70
    64
 71
     4
 72
     2
  0
VERTEX
  5
3C88
  8
0
 10
484.9999999999999
 20
18.0
 30
-43.99999999999976
 70
   192
  0
VERTEX
  5
3C89
  8
0
 10
9.000000000000002
 20
18.0
 30
-44.00000000000021
 70
   192
  0
VERTEX
  5
3C8A
  8
0
 10
9.000000000000004
 20
18.0
 30
-61.99999999999994
 70
   192
  0
VERTEX
  5
3C8B
  8
0
 10
484.9999999999998
 20
18.0
 30
-61.99999999999977
 70
   192
  0
VERTEX
  5
3C8C
  8
0
 10
0.0
 20
0.0
 30
0.0
 70
   128
 71
     3
 72
     4
 73
    -1
  0
VERTEX
  5
3C8D
  8
0
 10
0.0
 20
0.0
 30
0.0
 70
   128
 71
     2
 72
    -3
 73
     1
  0
SEQEND
  5
4524
  8
0
  0
ENDBLK
  5
451E
  8
0
  0
BLOCK
  8
0
  2
*X8
 70
     1
 10
0.0
 20
0.0
 30
0.0
  3
*X8
  1

  0
POLYLINE
  5
3C8F
  8
0
 66
     1
 10
0.0
 20
0.0
 30
0.0
 70
    64
 71
     4
 72
     2
  0
VERTEX
  5
3C90
  8
0
 10
-485.0
 20
700.5
 30
-64.99999999999967
 70
   192
  0
VERTEX
  5
3C91
  8
0
 10
-484.9999999999999
 20
700.5
 30
-61.99999999999976
 70
   192
  0
VERTEX
  5
3C92
  8
0
 10
485.0
 20
700.5
 30
-62.00000000000015
 70
   192
  0
VERTEX
  5
3C93
  8
0
 10
485.0
 20
700.5
 30
-64.99999999999979
 70
   192
  0
VERTEX
  5
3C94
  8
0
 10
0.0
 20
0.0
 30
0.0
 70
   128
 71
     3
 72
     4
 73
    -1
  0
VERTEX
  5
3C95
  8
0
 10
0.0
 20
0.0
 30
0.0
 70
   128
 71
     2
 72
    -3
 73
     1
  0
SEQEND
  5
4527
  8
0
  0
POLYLINE
  5
3C96
  8
0
 66
     1
 10
0.0
 20
0.0
 30
0.0
 70
    64
 71
     4
 72
     2
  0
VERTEX
  5
3C97
  8
0
 10
-484.9999999999999
 20
-0.5
 30
-61.99999999999976
 70
   192
  0
VERTEX
  5
3C98
  8
0
 10
-485.0
 20
-0.5
 30
-64.99999999999967
 70
   192
  0
VERTEX
  5
3C99
  8
0
 10
485.0000000000001
 20
-0.5
 30
-64.99999999999979
 70
   192
  0
VERTEX
  5
3C9A
  8
0
 10
484.9999999999999
 20
-0.5
 30
-62.00000000000015
 70
   192
  0
VERTEX
  5
3C9B
  8
0
 10
0.0
 20
0.0
 30
0.0
 70
   128
 71
     3
 72
     4
 73
    -1
  0
VERTEX
  5
3C9C
  8
0
 10
0.0
 20
0.0
 30
0.0
 70
   128
 71
     2
 72
    -3
 73
     1
  0
SEQEND
  5
4528
  8
0
  0
POLYLINE
  5
3C9D
  8
0
 66
     1
 10
0.0
 20
0.0
 30
0.0
 70
    64
 71
     4
 72
     2
  0
VERTEX
  5
3C9E
  8
0
 10
-485.0000000000001
 20
-0.5
 30
-64.99999999999967
 70
   192
  0
VERTEX
  5
3C9F
  8
0
 10
-485.0000000000001
 20
700.5
 30
-64.99999999999967
 70
   192
  0
VERTEX
  5
3CA0
  8
0
 10
485.0000000000001
 20
700.5
 30
-64.99999999999979
 70
   192
  0
VERTEX
  5
3CA1
  8
0
 10
485.0000000000001
 20
-0.5
 30
-64.99999999999979
 70
   192
  0
VERTEX
  5
3CA2
  8
0
 10
0.0
 20
0.0
 30
0.0
 70
   128
 71
     3
 72
     4
 73
    -1
  0
VERTEX
  5
3CA3
  8
0
 10
0.0
 20
0.0
 30
0.0
 70
   128
 71
     2
 72
    -3
 73
     1
  0
SEQEND
  5
4529
  8
0
  0
POLYLINE
  5
3CA4
  8
0
 66
     1
 10
0.0
 20
0.0
 30
0.0
 70
    64
 71
     4
 72
     2
  0
VERTEX
  5
3CA5
  8
0
 10
485.0000000000001
 20
700.5000000000002
 30
-64.99999999999979
 70
   192
  0
VERTEX
  5
3CA6
  8
0
 10
485.0
 20
-0.5
 30
-64.99999999999979
 70
   192
  0
VERTEX
  5
3CA7
  8
0
 10
485.0
 20
-0.5
 30
-62.00000000000015
 70
   192
  0
VERTEX
  5
3CA8
  8
0
 10
484.9999999999999
 20
700.5
 30
-62.00000000000015
 70
   192
  0
VERTEX
  5
3CA9
  8
0
 10
0.0
 20
0.0
 30
0.0
 70
   128
 71
     1
 72
     4
 73
    -3
  0
VERTEX
  5
3CAA
  8
0
 10
0.0
 20
0.0
 30
0.0
 70
   128
 71
    -1
 72
     3
 73
     2
  0
SEQEND
  5
452A
  8
0
  0
POLYLINE
  5
3CAB
  8
0
 66
     1
 10
0.0
 20
0.0
 30
0.0
 70
    64
 71
     4
 72
     2
  0
VERTEX
  5
3CAC
  8
0
 10
485.0
 20
700.5
 30
-62.00000000000015
 70
   192
  0
VERTEX
  5
3CAD
  8
0
 10
485.0
 20
-0.5
 30
-62.00000000000015
 70
   192
  0
VERTEX
  5
3CAE
  8
0
 10
-485.0
 20
-0.5
 30
-61.99999999999977
 70
   192
  0
VERTEX
  5
3CAF
  8
0
 10
-485.0
 20
700.5
 30
-61.99999999999977
 70
   192
  0
VERTEX
  5
3CB0
  8
0
 10
0.0
 20
0.0
 30
0.0
 70
   128
 71
     1
 72
     4
 73
    -3
  0
VERTEX
  5
3CB1
  8
0
 10
0.0
 20
0.0
 30
0.0
 70
   128
 71
    -1
 72
     3
 73
     2
  0
SEQEND
  5
452B
  8
0
  0
POLYLINE
  5
3CB2
  8
0
 66
     1
 10
0.0
 20
0.0
 30
0.0
 70
    64
 71
     4
 72
     2
  0
VERTEX
  5
3CB3
  8
0
 10
-485.0
 20
-0.5
 30
-61.99999999999977
 70
   192
  0
VERTEX
  5
3CB4
  8
0
 10
-485.0
 20
700.5
 30
-61.99999999999977
 70
   192
  0
VERTEX
  5
3CB5
  8
0
 10
-485.0
 20
700.5
 30
-64.99999999999967
 70
   192
  0
VERTEX
  5
3CB6
  8
0
 10
-485.0000000000001
 20
-0.5
 30
-64.99999999999967
 70
   192
  0
VERTEX
  5
3CB7
  8
0
 10
0.0
 20
0.0
 30
0.0
 70
   128
 71
     3
 72
     4
 73
    -1
  0
VERTEX
  5
3CB8
  8
0
 10
0.0
 20
0.0
 30
0.0
 70
   128
 71
     2
 72
    -3
 73
     1
  0
SEQEND
  5
452C
  8
0
  0
ENDBLK
  5
4526
  8
0
  0
BLOCK
  8
0
  2
*X9
 70
     1
 10
0.0
 20
0.0
 30
0.0
  3
*X9
  1

  0
POLYLINE
  5
3CBA
  8
0
 66
     1
 10
0.0
 20
0.0
 30
0.0
 70
    64
 71
    10
 72
     8
  0
VERTEX
  5
3CBB
  8
0
 10
372.9999999999999
 20
103.0
 30
-39.00000000000021
 70
   192
  0
VERTEX
  5
3CBC
  8
0
 10
376.9999999999999
 20
103.0
 30
-39.00000000000021
 70
   192
  0
VERTEX
  5
3CBD
  8
0
 10
376.9999999999999
 20
103.0
 30
-42.00000000000022
 70
   192
  0
VERTEX
  5
3CBE
  8
0
 10
372.9999999999999
 20
103.0
 30
-42.00000000000022
 70
   192
  0
VERTEX
  5
3CBF
  8
0
 10
374.9999999999999
 20
105.0
 30
-42.00000000000022
 70
   192
  0
VERTEX
  5
3CC0
  8
0
 10
374.9999999999999
 20
105.0
 30
-39.00000000000021
 70
   192
  0
VERTEX
  5
3CC1
  8
0
 10
373.5857864376268
 20
104.4142135623731
 30
-42.00000000000022
 70
   192
  0
VERTEX
  5
3CC2
  8
0
 10
373.5857864376268
 20
104.4142135623731
 30
-39.00000000000021
 70
   192
  0
VERTEX
  5
3CC3
  8
0
 10
376.414213562373
 20
104.4142135623731
 30
-42.00000000000022
 70
   192
  0
VERTEX
  5
3CC4
  8
0
 10
376.414213562373
 20
104.4142135623731
 30
-39.00000000000021
 70
   192
  0
VERTEX
  5
3CC5
  8
0
 10
0.0
 20
0.0
 30
0.0
 70
   128
 71
     7
 72
     4
 73
    -1
  0
VERTEX
  5
3CC6
  8
0
 10
0.0
 20
0.0
 30
0.0
 70
   128
 71
    -7
 72
     1
 73
     8
  0
VERTEX
  5
3CC7
  8
0
 10
0.0
 20
0.0
 30
0.0
 70
   128
 71
     6
 72
     5
 73
    -7
  0
VERTEX
  5
3CC8
  8
0
 10
0.0
 20
0.0
 30
0.0
 70
   128
 71
    -6
 72
     7
 73
     8
  0
VERTEX
  5
3CC9
  8
0
 10
0.0
 20
0.0
 30
0.0
 70
   128
 71
    10
 72
     9
 73
    -5
  0
VERTEX
  5
3CCA
  8
0
 10
0.0
 20
0.0
 30
0.0
 70
   128
 71
   -10
 72
     5
 73
     6
  0
VERTEX
  5
3CCB
  8
0
 10
0.0
 20
0.0
 30
0.0
 70
   128
 71
     2
 72
     3
 73
    -9
  0
VERTEX
  5
3CCC
  8
0
 10
0.0
 20
0.0
 30
0.0
 70
   128
 71
    -2
 72
     9
 73
    10
  0
SEQEND
  5
452F
  8
0
  0
POLYLINE
  5
3CCD
  8
0
 66
     1
 10
0.0
 20
0.0
 30
0.0
 70
    64
 71
    10
 72
     8
  0
VERTEX
  5
3CCE
  8
0
 10
361.9999999999999
 20
87.99999999999997
 30
-43.00000000000022
 70
   192
  0
VERTEX
  5
3CCF
  8
0
 10
367.9999999999999
 20
87.99999999999997
 30
-43.00000000000022
 70
   192
  0
VERTEX
  5
3CD0
  8
0
 10
367.9999999999999
 20
87.99999999999997
 30
-42.00000000000022
 70
   192
  0
VERTEX
  5
3CD1
  8
0
 10
361.9999999999999
 20
87.99999999999997
 30
-42.00000000000022
 70
   192
  0
VERTEX
  5
3CD2
  8
0
 10
364.9999999999999
 20
84.99999999999997
 30
-42.00000000000022
 70
   192
  0
VERTEX
  5
3CD3
  8
0
 10
364.9999999999999
 20
84.99999999999997
 30
-43.00000000000022
 70
   192
  0
VERTEX
  5
3CD4
  8
0
 10
362.8786796564402
 20
85.87867965644033
 30
-42.00000000000022
 70
   192
  0
VERTEX
  5
3CD5
  8
0
 10
362.8786796564402
 20
85.87867965644033
 30
-43.00000000000022
 70
   192
  0
VERTEX
  5
3CD6
  8
0
 10
367.1213203435595
 20
85.87867965644033
 30
-42.00000000000022
 70
   192
  0
VERTEX
  5
3CD7
  8
0
 10
367.1213203435595
 20
85.87867965644033
 30
-43.00000000000022
 70
   192
  0
VERTEX
  5
3CD8
  8
0
 10
0.0
 20
0.0
 30
0.0
 70
   128
 71
     8
 72
     1
 73
    -4
  0
VERTEX
  5
3CD9
  8
0
 10
0.0
 20
0.0
 30
0.0
 70
   128
 71
     7
 72
    -8
 73
     4
  0
VERTEX
  5
3CDA
  8
0
 10
0.0
 20
0.0
 30
0.0
 70
   128
 71
     6
 72
     8
 73
    -7
  0
VERTEX
  5
3CDB
  8
0
 10
0.0
 20
0.0
 30
0.0
 70
   128
 71
     5
 72
    -6
 73
     7
  0
VERTEX
  5
3CDC
  8
0
 10
0.0
 20
0.0
 30
0.0
 70
   128
 71
    10
 72
     6
 73
    -5
  0
VERTEX
  5
3CDD
  8
0
 10
0.0
 20
0.0
 30
0.0
 70
   128
 71
     9
 72
   -10
 73
     5
  0
VERTEX
  5
3CDE
  8
0
 10
0.0
 20
0.0
 30
0.0
 70
   128
 71
     2
 72
    10
 73
    -9
  0
VERTEX
  5
3CDF
  8
0
 10
0.0
 20
0.0
 30
0.0
 70
   128
 71
     3
 72
    -2
 73
     9
  0
SEQEND
  5
4530
  8
0
  0
POLYLINE
  5
3CE0
  8
0
 66
     1
 10
0.0
 20
0.0
 30
0.0
 70
    64
 71
    10
 72
     8
  0
VERTEX
  5
3CE1
  8
0
 10
381.9999999999999
 20
87.99999999999997
 30
-43.00000000000022
 70
   192
  0
VERTEX
  5
3CE2
  8
0
 10
387.9999999999999
 20
87.99999999999997
 30
-43.00000000000022
 70
   192
  0
VERTEX
  5
3CE3
  8
0
 10
387.9999999999999
 20
87.99999999999997
 30
-42.00000000000022
 70
   192
  0
VERTEX
  5
3CE4
  8
0
 10
381.9999999999999
 20
87.99999999999997
 30
-42.00000000000022
 70
   192
  0
VERTEX
  5
3CE5
  8
0
 10
384.9999999999999
 20
84.99999999999997
 30
-42.00000000000022
 70
   192
  0
VERTEX
  5
3CE6
  8
0
 10
384.9999999999999
 20
84.99999999999997
 30
-43.00000000000022
 70
   192
  0
VERTEX
  5
3CE7
  8
0
 10
382.8786796564402
 20
85.87867965644033
 30
-42.00000000000022
 70
   192
  0
VERTEX
  5
3CE8
  8
0
 10
382.8786796564402
 20
85.87867965644033
 30
-43.00000000000022
 70
   192
  0
VERTEX
  5
3CE9
  8
0
 10
387.1213203435595
 20
85.87867965644033
 30
-42.00000000000022
 70
   192
  0
VERTEX
  5
3CEA
  8
0
 10
387.1213203435595
 20
85.87867965644033
 30
-43.00000000000022
 70
   192
  0
VERTEX
  5
3CEB
  8
0
 10
0.0
 20
0.0
 30
0.0
 70
   128
 71
     8
 72
     1
 73
    -4
  0
VERTEX
  5
3CEC
  8
0
 10
0.0
 20
0.0
 30
0.0
 70
   128
 71
     7
 72
    -8
 73
     4
  0
VERTEX
  5
3CED
  8
0
 10
0.0
 20
0.0
 30
0.0
 70
   128
 71
     6
 72
     8
 73
    -7
  0
VERTEX
  5
3CEE
  8
0
 10
0.0
 20
0.0
 30
0.0
 70
   128
 71
     5
 72
    -6
 73
     7
  0
VERTEX
  5
3CEF
  8
0
 10
0.0
 20
0.0
 30
0.0
 70
   128
 71
    10
 72
     6
 73
    -5
  0
VERTEX
  5
3CF0
  8
0
 10
0.0
 20
0.0
 30
0.0
 70
   128
 71
     9
 72
   -10
 73
     5
  0
VERTEX
  5
3CF1
  8
0
 10
0.0
 20
0.0
 30
0.0
 70
   128
 71
     2
 72
    10
 73
    -9
  0
VERTEX
  5
3CF2
  8
0
 10
0.0
 20
0.0
 30
0.0
 70
   128
 71
     3
 72
    -2
 73
     9
  0
SEQEND
  5
4531
  8
0
  0
POLYLINE
  5
3CF3
  8
0
 66
     1
 10
0.0
 20
0.0
 30
0.0
 70
    64
 71
    10
 72
     8
  0
VERTEX
  5
3CF4
  8
0
 10
372.4999999999999
 20
87.99999999999997
 30
-43.00000000000022
 70
   192
  0
VERTEX
  5
3CF5
  8
0
 10
377.4999999999999
 20
87.99999999999997
 30
-43.00000000000022
 70
   192
  0
VERTEX
  5
3CF6
  8
0
 10
377.4999999999999
 20
87.99999999999997
 30
-42.00000000000022
 70
   192
  0
VERTEX
  5
3CF7
  8
0
 10
372.4999999999999
 20
87.99999999999997
 30
-42.00000000000022
 70
   192
  0
VERTEX
  5
3CF8
  8
0
 10
374.9999999999999
 20
85.49999999999997
 30
-42.00000000000022
 70
   192
  0
VERTEX
  5
3CF9
  8
0
 10
374.9999999999999
 20
85.49999999999997
 30
-43.00000000000022
 70
   192
  0
VERTEX
  5
3CFA
  8
0
 10
373.2322330470335
 20
86.2322330470336
 30
-42.00000000000022
 70
   192
  0
VERTEX
  5
3CFB
  8
0
 10
373.2322330470335
 20
86.2322330470336
 30
-43.00000000000022
 70
   192
  0
VERTEX
  5
3CFC
  8
0
 10
376.7677669529663
 20
86.2322330470336
 30
-42.00000000000022
 70
   192
  0
VERTEX
  5
3CFD
  8
0
 10
376.7677669529663
 20
86.2322330470336
 30
-43.00000000000022
 70
   192
  0
VERTEX
  5
3CFE
  8
0
 10
0.0
 20
0.0
 30
0.0
 70
   128
 71
     8
 72
     1
 73
    -4
  0
VERTEX
  5
3CFF
  8
0
 10
0.0
 20
0.0
 30
0.0
 70
   128
 71
     7
 72
    -8
 73
     4
  0
VERTEX
  5
3D00
  8
0
 10
0.0
 20
0.0
 30
0.0
 70
   128
 71
     6
 72
     8
 73
    -7
  0
VERTEX
  5
3D01
  8
0
 10
0.0
 20
0.0
 30
0.0
 70
   128
 71
     5
 72
    -6
 73
     7
  0
VERTEX
  5
3D02
  8
0
 10
0.0
 20
0.0
 30
0.0
 70
   128
 71
    10
 72
     6
 73
    -5
  0
VERTEX
  5
3D03
  8
0
 10
0.0
 20
0.0
 30
0.0
 70
   128
 71
     9
 72
   -10
 73
     5
  0
VERTEX
  5
3D04
  8
0
 10
0.0
 20
0.0
 30
0.0
 70
   128
 71
     2
 72
    10
 73
    -9
  0
VERTEX
  5
3D05
  8
0
 10
0.0
 20
0.0
 30
0.0
 70
   128
 71
     3
 72
    -2
 73
     9
  0
SEQEND
  5
4532
  8
0
  0
POLYLINE
  5
3D06
  8
0
 66
     1
 10
0.0
 20
0.0
 30
0.0
 70
    64
 71
    12
 72
    10
  0
VERTEX
  5
3D07
  8
0
 10
393.2028823734362
 20
101.2251681765806
 30
-44.00000000000021
 70
   192
  0
VERTEX
  5
3D08
  8
0
 10
397.4999999999998
 20
87.99999999999996
 30
-44.00000000000021
 70
   192
  0
VERTEX
  5
3D09
  8
0
 10
397.4999999999998
 20
87.99999999999996
 30
-74.0000000000002
 70
   192
  0
VERTEX
  5
3D0A
  8
0
 10
393.2028823734362
 20
101.2251681765806
 30
-74.0000000000002
 70
   192
  0
VERTEX
  5
3D0B
  8
0
 10
356.7971176265636
 20
101.2251681765806
 30
-74.0000000000002
 70
   192
  0
VERTEX
  5
3D0C
  8
0
 10
352.4999999999999
 20
87.99999999999996
 30
-74.0000000000002
 70
   192
  0
VERTEX
  5
3D0D
  8
0
 10
352.4999999999999
 20
87.99999999999996
 30
-44.00000000000021
 70
   192
  0
VERTEX
  5
3D0E
  8
0
 10
356.7971176265636
 20
101.2251681765806
 30
-44.00000000000021
 70
   192
  0
VERTEX
  5
3D0F
  8
0
 10
381.9528823734362
 20
109.3987716166409
 30
-44.00000000000021
 70
   192
  0
VERTEX
  5
3D10
  8
0
 10
381.9528823734362
 20
109.3987716166409
 30
-74.0000000000002
 70
   192
  0
VERTEX
  5
3D11
  8
0
 10
368.0471176265636
 20
109.3987716166409
 30
-74.0000000000002
 70
   192
  0
VERTEX
  5
3D12
  8
0
 10
368.0471176265636
 20
109.3987716166409
 30
-44.00000000000021
 70
   192
  0
VERTEX
  5
3D13
  8
0
 10
0.0
 20
0.0
 30
0.0
 70
   128
 71
     1
 72
     2
 73
    -3
  0
VERTEX
  5
3D14
  8
0
 10
0.0
 20
0.0
 30
0.0
 70
   128
 71
    -1
 72
     3
 73
     4
  0
VERTEX
  5
3D15
  8
0
 10
0.0
 20
0.0
 30
0.0
 70
   128
 71
     5
 72
     6
 73
    -7
  0
VERTEX
  5
3D16
  8
0
 10
0.0
 20
0.0
 30
0.0
 70
   128
 71
    -5
 72
     7
 73
     8
  0
VERTEX
  5
3D17
  8
0
 10
0.0
 20
0.0
 30
0.0
 70
   128
 71
     9
 72
    10
 73
   -11
  0
VERTEX
  5
3D18
  8
0
 10
0.0
 20
0.0
 30
0.0
 70
   128
 71
    -9
 72
    11
 73
    12
  0
VERTEX
  5
3D19
  8
0
 10
0.0
 20
0.0
 30
0.0
 70
   128
 71
     1
 72
     4
 73
   -10
  0
VERTEX
  5
3D1A
  8
0
 10
0.0
 20
0.0
 30
0.0
 70
   128
 71
    -1
 72
    10
 73
     9
  0
VERTEX
  5
3D1B
  8
0
 10
0.0
 20
0.0
 30
0.0
 70
   128
 71
    12
 72
    11
 73
    -5
  0
VERTEX
  5
3D1C
  8
0
 10
0.0
 20
0.0
 30
0.0
 70
   128
 71
   -12
 72
     5
 73
     8
  0
SEQEND
  5
4533
  8
0
  0
POLYLINE
  5
3D1D
  8
0
 66
     1
 10
0.0
 20
0.0
 30
0.0
 70
    64
 71
    12
 72
    10
  0
VERTEX
  5
3D1E
  8
0
 10
352.4999999999999
 20
87.99999999999996
 30
-42.00000000000022
 70
   192
  0
VERTEX
  5
3D1F
  8
0
 10
352.4999999999999
 20
87.99999999999996
 30
-39.00000000000021
 70
   192
  0
VERTEX
  5
3D20
  8
0
 10
356.7971176265636
 20
74.77483182341933
 30
-39.00000000000021
 70
   192
  0
VERTEX
  5
3D21
  8
0
 10
356.7971176265636
 20
74.77483182341933
 30
-42.00000000000022
 70
   192
  0
VERTEX
  5
3D22
  8
0
 10
397.4999999999998
 20
87.99999999999996
 30
-39.00000000000021
 70
   192
  0
VERTEX
  5
3D23
  8
0
 10
397.4999999999998
 20
87.99999999999996
 30
-42.00000000000022
 70
   192
  0
VERTEX
  5
3D24
  8
0
 10
393.2028823734362
 20
74.77483182341933
 30
-42.00000000000022
 70
   192
  0
VERTEX
  5
3D25
  8
0
 10
393.2028823734362
 20
74.77483182341933
 30
-39.00000000000021
 70
   192
  0
VERTEX
  5
3D26
  8
0
 10
381.9528823734362
 20
66.60122838335903
 30
-42.00000000000022
 70
   192
  0
VERTEX
  5
3D27
  8
0
 10
368.0471176265636
 20
66.60122838335903
 30
-42.00000000000022
 70
   192
  0
VERTEX
  5
3D28
  8
0
 10
368.0471176265636
 20
66.60122838335903
 30
-39.00000000000021
 70
   192
  0
VERTEX
  5
3D29
  8
0
 10
381.9528823734362
 20
66.60122838335903
 30
-39.00000000000021
 70
   192
  0
VERTEX
  5
3D2A
  8
0
 10
0.0
 20
0.0
 30
0.0
 70
   128
 71
     1
 72
     2
 73
    -3
  0
VERTEX
  5
3D2B
  8
0
 10
0.0
 20
0.0
 30
0.0
 70
   128
 71
     4
 72
    -1
 73
     3
  0
VERTEX
  5
3D2C
  8
0
 10
0.0
 20
0.0
 30
0.0
 70
   128
 71
     5
 72
     6
 73
    -7
  0
VERTEX
  5
3D2D
  8
0
 10
0.0
 20
0.0
 30
0.0
 70
   128
 71
     8
 72
    -5
 73
     7
  0
VERTEX
  5
3D2E
  8
0
 10
0.0
 20
0.0
 30
0.0
 70
   128
 71
     9
 72
    10
 73
   -11
  0
VERTEX
  5
3D2F
  8
0
 10
0.0
 20
0.0
 30
0.0
 70
   128
 71
    12
 72
    -9
 73
    11
  0
VERTEX
  5
3D30
  8
0
 10
0.0
 20
0.0
 30
0.0
 70
   128
 71
    10
 72
     4
 73
    -3
  0
VERTEX
  5
3D31
  8
0
 10
0.0
 20
0.0
 30
0.0
 70
   128
 71
    11
 72
   -10
 73
     3
  0
VERTEX
  5
3D32
  8
0
 10
0.0
 20
0.0
 30
0.0
 70
   128
 71
     7
 72
     9
 73
   -12
  0
VERTEX
  5
3D33
  8
0
 10
0.0
 20
0.0
 30
0.0
 70
   128
 71
     8
 72
    -7
 73
    12
  0
SEQEND
  5
4534
  8
0
  0
POLYLINE
  5
3D34
  8
0
 66
     1
 10
0.0
 20
0.0
 30
0.0
 70
    64
 71
     4
 72
     2
  0
VERTEX
  5
3D35
  8
0
 10
344.9999999999999
 20
117.9999999999999
 30
-44.00000000000021
 70
   192
  0
VERTEX
  5
3D36
  8
0
 10
344.9999999999999
 20
117.9999999999999
 30
-39.00000000000021
 70
   192
  0
VERTEX
  5
3D37
  8
0
 10
345.0
 20
58.00000000000001
 30
-39.00000000000021
 70
   192
  0
VERTEX
  5
3D38
  8
0
 10
345.0
 20
58.00000000000001
 30
-44.00000000000021
 70
   192
  0
VERTEX
  5
3D39
  8
0
 10
0.0
 20
0.0
 30
0.0
 70
   128
 71
     1
 72
     4
 73
    -3
  0
VERTEX
  5
3D3A
  8
0
 10
0.0
 20
0.0
 30
0.0
 70
   128
 71
    -1
 72
     3
 73
     2
  0
SEQEND
  5
4535
  8
0
  0
POLYLINE
  5
3D3B
  8
0
 66
     1
 10
0.0
 20
0.0
 30
0.0
 70
    64
 71
     4
 72
     2
  0
VERTEX
  5
3D3C
  8
0
 10
345.0
 20
58.00000000000001
 30
-44.00000000000021
 70
   192
  0
VERTEX
  5
3D3D
  8
0
 10
345.0
 20
58.00000000000001
 30
-39.00000000000021
 70
   192
  0
VERTEX
  5
3D3E
  8
0
 10
404.9999999999999
 20
58.00000000000004
 30
-39.00000000000021
 70
   192
  0
VERTEX
  5
3D3F
  8
0
 10
404.9999999999999
 20
58.00000000000004
 30
-44.00000000000021
 70
   192
  0
VERTEX
  5
3D40
  8
0
 10
0.0
 20
0.0
 30
0.0
 70
   128
 71
     1
 72
     4
 73
    -3
  0
VERTEX
  5
3D41
  8
0
 10
0.0
 20
0.0
 30
0.0
 70
   128
 71
    -1
 72
     3
 73
     2
  0
SEQEND
  5
4536
  8
0
  0
POLYLINE
  5
3D42
  8
0
 66
     1
 10
0.0
 20
0.0
 30
0.0
 70
    64
 71
     4
 72
     2
  0
VERTEX
  5
3D43
  8
0
 10
404.9999999999999
 20
58.00000000000004
 30
-44.00000000000021
 70
   192
  0
VERTEX
  5
3D44
  8
0
 10
404.9999999999999
 20
58.00000000000004
 30
-39.00000000000021
 70
   192
  0
VERTEX
  5
3D45
  8
0
 10
404.9999999999999
 20
118.0
 30
-39.00000000000021
 70
   192
  0
VERTEX
  5
3D46
  8
0
 10
404.9999999999999
 20
118.0
 30
-44.00000000000021
 70
   192
  0
VERTEX
  5
3D47
  8
0
 10
0.0
 20
0.0
 30
0.0
 70
   128
 71
     1
 72
     4
 73
    -3
  0
VERTEX
  5
3D48
  8
0
 10
0.0
 20
0.0
 30
0.0
 70
   128
 71
    -1
 72
     3
 73
     2
  0
SEQEND
  5
4537
  8
0
  0
POLYLINE
  5
3D49
  8
0
 66
     1
 10
0.0
 20
0.0
 30
0.0
 70
    64
 71
     4
 72
     2
  0
VERTEX
  5
3D4A
  8
0
 10
404.9999999999999
 20
118.0
 30
-44.00000000000021
 70
   192
  0
VERTEX
  5
3D4B
  8
0
 10
404.9999999999999
 20
118.0
 30
-39.00000000000021
 70
   192
  0
VERTEX
  5
3D4C
  8
0
 10
344.9999999999999
 20
117.9999999999999
 30
-39.00000000000021
 70
   192
  0
VERTEX
  5
3D4D
  8
0
 10
344.9999999999999
 20
117.9999999999999
 30
-44.00000000000021
 70
   192
  0
VERTEX
  5
3D4E
  8
0
 10
0.0
 20
0.0
 30
0.0
 70
   128
 71
     1
 72
     4
 73
    -3
  0
VERTEX
  5
3D4F
  8
0
 10
0.0
 20
0.0
 30
0.0
 70
   128
 71
    -1
 72
     3
 73
     2
  0
SEQEND
  5
4538
  8
0
  0
POLYLINE
  5
3D50
  8
0
 66
     1
 10
0.0
 20
0.0
 30
0.0
 70
    64
 71
    14
 72
    14
  0
VERTEX
  5
3D51
  8
0
 10
344.9999999999999
 20
117.9999999999999
 30
-39.00000000000021
 70
   192
  0
VERTEX
  5
3D52
  8
0
 10
345.0
 20
58.00000000000001
 30
-39.00000000000021
 70
   192
  0
VERTEX
  5
3D53
  8
0
 10
404.9999999999999
 20
58.00000000000004
 30
-39.00000000000021
 70
   192
  0
VERTEX
  5
3D54
  8
0
 10
404.9999999999999
 20
118.0
 30
-39.00000000000021
 70
   192
  0
VERTEX
  5
3D55
  8
0
 10
352.4999999999999
 20
87.99999999999996
 30
-39.00000000000021
 70
   192
  0
VERTEX
  5
3D56
  8
0
 10
356.7971176265636
 20
101.2251681765806
 30
-39.00000000000021
 70
   192
  0
VERTEX
  5
3D57
  8
0
 10
368.0471176265636
 20
109.3987716166409
 30
-39.00000000000021
 70
   192
  0
VERTEX
  5
3D58
  8
0
 10
381.9528823734362
 20
109.3987716166409
 30
-39.00000000000021
 70
   192
  0
VERTEX
  5
3D59
  8
0
 10
393.2028823734362
 20
101.2251681765806
 30
-39.00000000000021
 70
   192
  0
VERTEX
  5
3D5A
  8
0
 10
397.4999999999998
 20
87.99999999999996
 30
-39.00000000000021
 70
   192
  0
VERTEX
  5
3D5B
  8
0
 10
393.2028823734362
 20
74.77483182341933
 30
-39.00000000000021
 70
   192
  0
VERTEX
  5
3D5C
  8
0
 10
381.9528823734362
 20
66.60122838335903
 30
-39.00000000000021
 70
   192
  0
VERTEX
  5
3D5D
  8
0
 10
368.0471176265636
 20
66.60122838335903
 30
-39.00000000000021
 70
   192
  0
VERTEX
  5
3D5E
  8
0
 10
356.7971176265636
 20
74.77483182341933
 30
-39.00000000000021
 70
   192
  0
VERTEX
  5
3D5F
  8
0
 10
0.0
 20
0.0
 30
0.0
 70
   128
 71
     1
 72
    -2
 73
    -5
  0
VERTEX
  5
3D60
  8
0
 10
0.0
 20
0.0
 30
0.0
 70
   128
 71
     5
 72
    -6
 73
    -1
  0
VERTEX
  5
3D61
  8
0
 10
0.0
 20
0.0
 30
0.0
 70
   128
 71
     6
 72
    -7
 73
    -1
  0
VERTEX
  5
3D62
  8
0
 10
0.0
 20
0.0
 30
0.0
 70
   128
 71
    -8
 72
     4
 73
    -1
  0
VERTEX
  5
3D63
  8
0
 10
0.0
 20
0.0
 30
0.0
 70
   128
 71
     7
 72
    -8
 73
    -1
  0
VERTEX
  5
3D64
  8
0
 10
0.0
 20
0.0
 30
0.0
 70
   128
 71
     8
 72
    -9
 73
    -4
  0
VERTEX
  5
3D65
  8
0
 10
0.0
 20
0.0
 30
0.0
 70
   128
 71
     9
 72
   -10
 73
    -4
  0
VERTEX
  5
3D66
  8
0
 10
0.0
 20
0.0
 30
0.0
 70
   128
 71
   -10
 72
     3
 73
    -4
  0
VERTEX
  5
3D67
  8
0
 10
0.0
 20
0.0
 30
0.0
 70
   128
 71
    10
 72
   -11
 73
    -3
  0
VERTEX
  5
3D68
  8
0
 10
0.0
 20
0.0
 30
0.0
 70
   128
 71
    11
 72
   -12
 73
    -3
  0
VERTEX
  5
3D69
  8
0
 10
0.0
 20
0.0
 30
0.0
 70
   128
 71
   -13
 72
     2
 73
    -3
  0
VERTEX
  5
3D6A
  8
0
 10
0.0
 20
0.0
 30
0.0
 70
   128
 71
    12
 72
   -13
 73
    -3
  0
VERTEX
  5
3D6B
  8
0
 10
0.0
 20
0.0
 30
0.0
 70
   128
 71
    13
 72
   -14
 73
    -2
  0
VERTEX
  5
3D6C
  8
0
 10
0.0
 20
0.0
 30
0.0
 70
   128
 71
    14
 72
    -5
 73
    -2
  0
SEQEND
  5
4539
  8
0
  0
POLYLINE
  5
3D6D
  8
0
 66
     1
 10
0.0
 20
0.0
 30
0.0
 70
    64
 71
    14
 72
    14
  0
VERTEX
  5
3D6E
  8
0
 10
345.0
 20
58.00000000000001
 30
-44.00000000000021
 70
   192
  0
VERTEX
  5
3D6F
  8
0
 10
404.9999999999999
 20
58.00000000000004
 30
-44.00000000000021
 70
   192
  0
VERTEX
  5
3D70
  8
0
 10
404.9999999999999
 20
118.0
 30
-44.00000000000021
 70
   192
  0
VERTEX
  5
3D71
  8
0
 10
344.9999999999999
 20
117.9999999999999
 30
-44.00000000000021
 70
   192
  0
VERTEX
  5
3D72
  8
0
 10
397.4999999999998
 20
87.99999999999996
 30
-44.00000000000021
 70
   192
  0
VERTEX
  5
3D73
  8
0
 10
393.2028823734362
 20
74.77483182341933
 30
-44.00000000000021
 70
   192
  0
VERTEX
  5
3D74
  8
0
 10
381.9528823734362
 20
66.60122838335903
 30
-44.00000000000021
 70
   192
  0
VERTEX
  5
3D75
  8
0
 10
368.0471176265636
 20
66.60122838335903
 30
-44.00000000000021
 70
   192
  0
VERTEX
  5
3D76
  8
0
 10
356.7971176265636
 20
74.77483182341933
 30
-44.00000000000021
 70
   192
  0
VERTEX
  5
3D77
  8
0
 10
352.4999999999999
 20
87.99999999999996
 30
-44.00000000000021
 70
   192
  0
VERTEX
  5
3D78
  8
0
 10
356.7971176265636
 20
101.2251681765806
 30
-44.00000000000021
 70
   192
  0
VERTEX
  5
3D79
  8
0
 10
368.0471176265636
 20
109.3987716166409
 30
-44.00000000000021
 70
   192
  0
VERTEX
  5
3D7A
  8
0
 10
381.9528823734362
 20
109.3987716166409
 30
-44.00000000000021
 70
   192
  0
VERTEX
  5
3D7B
  8
0
 10
393.2028823734362
 20
101.2251681765806
 30
-44.00000000000021
 70
   192
  0
VERTEX
  5
3D7C
  8
0
 10
0.0
 20
0.0
 30
0.0
 70
   128
 71
     6
 72
    -5
 73
    -2
  0
VERTEX
  5
3D7D
  8
0
 10
0.0
 20
0.0
 30
0.0
 70
   128
 71
    -2
 72
     7
 73
    -6
  0
VERTEX
  5
3D7E
  8
0
 10
0.0
 20
0.0
 30
0.0
 70
   128
 71
     2
 72
    -1
 73
    -8
  0
VERTEX
  5
3D7F
  8
0
 10
0.0
 20
0.0
 30
0.0
 70
   128
 71
    -2
 72
     8
 73
    -7
  0
VERTEX
  5
3D80
  8
0
 10
0.0
 20
0.0
 30
0.0
 70
   128
 71
    -1
 72
     9
 73
    -8
  0
VERTEX
  5
3D81
  8
0
 10
0.0
 20
0.0
 30
0.0
 70
   128
 71
    -1
 72
    10
 73
    -9
  0
VERTEX
  5
3D82
  8
0
 10
0.0
 20
0.0
 30
0.0
 70
   128
 71
   -10
 72
     1
 73
    -4
  0
VERTEX
  5
3D83
  8
0
 10
0.0
 20
0.0
 30
0.0
 70
   128
 71
    -4
 72
    11
 73
   -10
  0
VERTEX
  5
3D84
  8
0
 10
0.0
 20
0.0
 30
0.0
 70
   128
 71
    -4
 72
    12
 73
   -11
  0
VERTEX
  5
3D85
  8
0
 10
0.0
 20
0.0
 30
0.0
 70
   128
 71
     4
 72
    -3
 73
   -13
  0
VERTEX
  5
3D86
  8
0
 10
0.0
 20
0.0
 30
0.0
 70
   128
 71
    -4
 72
    13
 73
   -12
  0
VERTEX
  5
3D87
  8
0
 10
0.0
 20
0.0
 30
0.0
 70
   128
 71
    -3
 72
    14
 73
   -13
  0
VERTEX
  5
3D88
  8
0
 10
0.0
 20
0.0
 30
0.0
 70
   128
 71
    -3
 72
     5
 73
   -14
  0
VERTEX
  5
3D89
  8
0
 10
0.0
 20
0.0
 30
0.0
 70
   128
 71
     3
 72
    -2
 73
    -5
  0
SEQEND
  5
453A
  8
0
  0
POLYLINE
  5
3D8A
  8
0
 66
     1
 10
0.0
 20
0.0
 30
0.0
 70
    64
 71
    12
 72
    10
  0
VERTEX
  5
3D8B
  8
0
 10
397.4999999999998
 20
87.99999999999996
 30
-42.00000000000022
 70
   192
  0
VERTEX
  5
3D8C
  8
0
 10
397.4999999999998
 20
87.99999999999996
 30
-39.00000000000021
 70
   192
  0
VERTEX
  5
3D8D
  8
0
 10
393.2028823734362
 20
101.2251681765806
 30
-39.00000000000021
 70
   192
  0
VERTEX
  5
3D8E
  8
0
 10
393.2028823734362
 20
101.2251681765806
 30
-42.00000000000022
 70
   192
  0
VERTEX
  5
3D8F
  8
0
 10
352.4999999999999
 20
87.99999999999996
 30
-39.00000000000021
 70
   192
  0
VERTEX
  5
3D90
  8
0
 10
352.4999999999999
 20
87.99999999999996
 30
-42.00000000000022
 70
   192
  0
VERTEX
  5
3D91
  8
0
 10
356.7971176265636
 20
101.2251681765806
 30
-42.00000000000022
 70
   192
  0
VERTEX
  5
3D92
  8
0
 10
356.7971176265636
 20
101.2251681765806
 30
-39.00000000000021
 70
   192
  0
VERTEX
  5
3D93
  8
0
 10
368.0471176265636
 20
109.3987716166409
 30
-42.00000000000022
 70
   192
  0
VERTEX
  5
3D94
  8
0
 10
381.9528823734362
 20
109.3987716166409
 30
-42.00000000000022
 70
   192
  0
VERTEX
  5
3D95
  8
0
 10
381.9528823734362
 20
109.3987716166409
 30
-39.00000000000021
 70
   192
  0
VERTEX
  5
3D96
  8
0
 10
368.0471176265636
 20
109.3987716166409
 30
-39.00000000000021
 70
   192
  0
VERTEX
  5
3D97
  8
0
 10
0.0
 20
0.0
 30
0.0
 70
   128
 71
     1
 72
     2
 73
    -3
  0
VERTEX
  5
3D98
  8
0
 10
0.0
 20
0.0
 30
0.0
 70
   128
 71
     4
 72
    -1
 73
     3
  0
VERTEX
  5
3D99
  8
0
 10
0.0
 20
0.0
 30
0.0
 70
   128
 71
     5
 72
     6
 73
    -7
  0
VERTEX
  5
3D9A
  8
0
 10
0.0
 20
0.0
 30
0.0
 70
   128
 71
     8
 72
    -5
 73
     7
  0
VERTEX
  5
3D9B
  8
0
 10
0.0
 20
0.0
 30
0.0
 70
   128
 71
     9
 72
    10
 73
   -11
  0
VERTEX
  5
3D9C
  8
0
 10
0.0
 20
0.0
 30
0.0
 70
   128
 71
    12
 72
    -9
 73
    11
  0
VERTEX
  5
3D9D
  8
0
 10
0.0
 20
0.0
 30
0.0
 70
   128
 71
    10
 72
     4
 73
    -3
  0
VERTEX
  5
3D9E
  8
0
 10
0.0
 20
0.0
 30
0.0
 70
   128
 71
    11
 72
   -10
 73
     3
  0
VERTEX
  5
3D9F
  8
0
 10
0.0
 20
0.0
 30
0.0
 70
   128
 71
     7
 72
     9
 73
   -12
  0
VERTEX
  5
3DA0
  8
0
 10
0.0
 20
0.0
 30
0.0
 70
   128
 71
     8
 72
    -7
 73
    12
  0
SEQEND
  5
453B
  8
0
  0
POLYLINE
  5
3DA1
  8
0
 66
     1
 10
0.0
 20
0.0
 30
0.0
 70
    64
 71
    42
 72
    48
  0
VERTEX
  5
3DA2
  8
0
 10
397.4999999999998
 20
87.99999999999996
 30
-42.00000000000022
 70
   192
  0
VERTEX
  5
3DA3
  8
0
 10
393.2028823734362
 20
101.2251681765806
 30
-42.00000000000022
 70
   192
  0
VERTEX
  5
3DA4
  8
0
 10
381.9528823734362
 20
109.3987716166409
 30
-42.00000000000022
 70
   192
  0
VERTEX
  5
3DA5
  8
0
 10
368.0471176265636
 20
109.3987716166409
 30
-42.00000000000022
 70
   192
  0
VERTEX
  5
3DA6
  8
0
 10
356.7971176265636
 20
101.2251681765806
 30
-42.00000000000022
 70
   192
  0
VERTEX
  5
3DA7
  8
0
 10
352.4999999999999
 20
87.99999999999996
 30
-42.00000000000022
 70
   192
  0
VERTEX
  5
3DA8
  8
0
 10
356.7971176265636
 20
74.77483182341933
 30
-42.00000000000022
 70
   192
  0
VERTEX
  5
3DA9
  8
0
 10
368.0471176265636
 20
66.60122838335903
 30
-42.00000000000022
 70
   192
  0
VERTEX
  5
3DAA
  8
0
 10
381.9528823734362
 20
66.60122838335903
 30
-42.00000000000022
 70
   192
  0
VERTEX
  5
3DAB
  8
0
 10
393.2028823734362
 20
74.77483182341933
 30
-42.00000000000022
 70
   192
  0
VERTEX
  5
3DAC
  8
0
 10
361.9999999999999
 20
87.99999999999997
 30
-42.00000000000022
 70
   192
  0
VERTEX
  5
3DAD
  8
0
 10
362.8786796564402
 20
90.12132034355962
 30
-42.00000000000022
 70
   192
  0
VERTEX
  5
3DAE
  8
0
 10
364.9999999999999
 20
90.99999999999997
 30
-42.00000000000022
 70
   192
  0
VERTEX
  5
3DAF
  8
0
 10
367.1213203435595
 20
90.12132034355962
 30
-42.00000000000022
 70
   192
  0
VERTEX
  5
3DB0
  8
0
 10
367.9999999999999
 20
87.99999999999997
 30
-42.00000000000022
 70
   192
  0
VERTEX
  5
3DB1
  8
0
 10
367.1213203435595
 20
85.87867965644033
 30
-42.00000000000022
 70
   192
  0
VERTEX
  5
3DB2
  8
0
 10
364.9999999999999
 20
84.99999999999997
 30
-42.00000000000022
 70
   192
  0
VERTEX
  5
3DB3
  8
0
 10
362.8786796564402
 20
85.87867965644033
 30
-42.00000000000022
 70
   192
  0
VERTEX
  5
3DB4
  8
0
 10
381.9999999999999
 20
87.99999999999997
 30
-42.00000000000022
 70
   192
  0
VERTEX
  5
3DB5
  8
0
 10
382.8786796564402
 20
90.12132034355962
 30
-42.00000000000022
 70
   192
  0
VERTEX
  5
3DB6
  8
0
 10
384.9999999999999
 20
90.99999999999997
 30
-42.00000000000022
 70
   192
  0
VERTEX
  5
3DB7
  8
0
 10
387.1213203435595
 20
90.12132034355962
 30
-42.00000000000022
 70
   192
  0
VERTEX
  5
3DB8
  8
0
 10
387.9999999999999
 20
87.99999999999997
 30
-42.00000000000022
 70
   192
  0
VERTEX
  5
3DB9
  8
0
 10
387.1213203435595
 20
85.87867965644033
 30
-42.00000000000022
 70
   192
  0
VERTEX
  5
3DBA
  8
0
 10
384.9999999999999
 20
84.99999999999997
 30
-42.00000000000022
 70
   192
  0
VERTEX
  5
3DBB
  8
0
 10
382.8786796564402
 20
85.87867965644033
 30
-42.00000000000022
 70
   192
  0
VERTEX
  5
3DBC
  8
0
 10
372.4999999999999
 20
87.99999999999997
 30
-42.00000000000022
 70
   192
  0
VERTEX
  5
3DBD
  8
0
 10
373.2322330470335
 20
89.76776695296634
 30
-42.00000000000022
 70
   192
  0
VERTEX
  5
3DBE
  8
0
 10
374.9999999999999
 20
90.49999999999997
 30
-42.00000000000022
 70
   192
  0
VERTEX
  5
3DBF
  8
0
 10
376.7677669529663
 20
89.76776695296634
 30
-42.00000000000022
 70
   192
  0
VERTEX
  5
3DC0
  8
0
 10
377.4999999999999
 20
87.99999999999997
 30
-42.00000000000022
 70
   192
  0
VERTEX
  5
3DC1
  8
0
 10
376.7677669529663
 20
86.2322330470336
 30
-42.00000000000022
 70
   192
  0
VERTEX
  5
3DC2
  8
0
 10
374.9999999999999
 20
85.49999999999997
 30
-42.00000000000022
 70
   192
  0
VERTEX
  5
3DC3
  8
0
 10
373.2322330470335
 20
86.2322330470336
 30
-42.00000000000022
 70
   192
  0
VERTEX
  5
3DC4
  8
0
 10
376.9999999999999
 20
103.0
 30
-42.00000000000022
 70
   192
  0
VERTEX
  5
3DC5
  8
0
 10
376.414213562373
 20
101.5857864376269
 30
-42.00000000000022
 70
   192
  0
VERTEX
  5
3DC6
  8
0
 10
374.9999999999999
 20
101.0
 30
-42.00000000000022
 70
   192
  0
VERTEX
  5
3DC7
  8
0
 10
373.5857864376268
 20
101.5857864376269
 30
-42.00000000000022
 70
   192
  0
VERTEX
  5
3DC8
  8
0
 10
372.9999999999999
 20
103.0
 30
-42.00000000000022
 70
   192
  0
VERTEX
  5
3DC9
  8
0
 10
373.5857864376268
 20
104.4142135623731
 30
-42.00000000000022
 70
   192
  0
VERTEX
  5
3DCA
  8
0
 10
374.9999999999999
 20
105.0
 30
-42.00000000000022
 70
   192
  0
VERTEX
  5
3DCB
  8
0
 10
376.414213562373
 20
104.4142135623731
 30
-42.00000000000022
 70
   192
  0
VERTEX
  5
3DCC
  8
0
 10
0.0
 20
0.0
 30
0.0
 70
   128
 71
   -19
 72
    31
 73
   -32
  0
VERTEX
  5
3DCD
  8
0
 10
0.0
 20
0.0
 30
0.0
 70
   128
 71
    26
 72
   -19
 73
   -32
  0
VERTEX
  5
3DCE
  8
0
 10
0.0
 20
0.0
 30
0.0
 70
   128
 71
    32
 72
   -33
 73
   -26
  0
VERTEX
  5
3DCF
  8
0
 10
0.0
 20
0.0
 30
0.0
 70
   128
 71
    -8
 72
   -26
 73
   -33
  0
VERTEX
  5
3DD0
  8
0
 10
0.0
 20
0.0
 30
0.0
 70
   128
 71
     7
 72
    -8
 73
   -33
  0
VERTEX
  5
3DD1
  8
0
 10
0.0
 20
0.0
 30
0.0
 70
   128
 71
    33
 72
   -34
 73
    -7
  0
VERTEX
  5
3DD2
  8
0
 10
0.0
 20
0.0
 30
0.0
 70
   128
 71
   -27
 72
    15
 73
   -16
  0
VERTEX
  5
3DD3
  8
0
 10
0.0
 20
0.0
 30
0.0
 70
   128
 71
    34
 72
   -27
 73
   -16
  0
VERTEX
  5
3DD4
  8
0
 10
0.0
 20
0.0
 30
0.0
 70
   128
 71
    16
 72
   -17
 73
   -34
  0
VERTEX
  5
3DD5
  8
0
 10
0.0
 20
0.0
 30
0.0
 70
   128
 71
    -7
 72
   -34
 73
   -17
  0
VERTEX
  5
3DD6
  8
0
 10
0.0
 20
0.0
 30
0.0
 70
   128
 71
   -17
 72
     6
 73
    -7
  0
VERTEX
  5
3DD7
  8
0
 10
0.0
 20
0.0
 30
0.0
 70
   128
 71
    17
 72
   -18
 73
    -6
  0
VERTEX
  5
3DD8
  8
0
 10
0.0
 20
0.0
 30
0.0
 70
   128
 71
    18
 72
   -11
 73
    -6
  0
VERTEX
  5
3DD9
  8
0
 10
0.0
 20
0.0
 30
0.0
 70
   128
 71
    -6
 72
    11
 73
   -12
  0
VERTEX
  5
3DDA
  8
0
 10
0.0
 20
0.0
 30
0.0
 70
   128
 71
    12
 72
   -13
 73
    -6
  0
VERTEX
  5
3DDB
  8
0
 10
0.0
 20
0.0
 30
0.0
 70
   128
 71
     5
 72
    -6
 73
   -13
  0
VERTEX
  5
3DDC
  8
0
 10
0.0
 20
0.0
 30
0.0
 70
   128
 71
   -13
 72
   -28
 73
    -5
  0
VERTEX
  5
3DDD
  8
0
 10
0.0
 20
0.0
 30
0.0
 70
   128
 71
    13
 72
   -14
 73
   -28
  0
VERTEX
  5
3DDE
  8
0
 10
0.0
 20
0.0
 30
0.0
 70
   128
 71
   -15
 72
    27
 73
   -28
  0
VERTEX
  5
3DDF
  8
0
 10
0.0
 20
0.0
 30
0.0
 70
   128
 71
    14
 72
   -15
 73
   -28
  0
VERTEX
  5
3DE0
  8
0
 10
0.0
 20
0.0
 30
0.0
 70
   128
 71
    28
 72
   -29
 73
    -5
  0
VERTEX
  5
3DE1
  8
0
 10
0.0
 20
0.0
 30
0.0
 70
   128
 71
   -20
 72
    37
 73
   -38
  0
VERTEX
  5
3DE2
  8
0
 10
0.0
 20
0.0
 30
0.0
 70
   128
 71
   -29
 72
   -20
 73
   -38
  0
VERTEX
  5
3DE3
  8
0
 10
0.0
 20
0.0
 30
0.0
 70
   128
 71
     4
 72
    -5
 73
   -29
  0
VERTEX
  5
3DE4
  8
0
 10
0.0
 20
0.0
 30
0.0
 70
   128
 71
   -39
 72
    -4
 73
   -29
  0
VERTEX
  5
3DE5
  8
0
 10
0.0
 20
0.0
 30
0.0
 70
   128
 71
    38
 72
   -39
 73
   -29
  0
VERTEX
  5
3DE6
  8
0
 10
0.0
 20
0.0
 30
0.0
 70
   128
 71
    39
 72
   -40
 73
    -4
  0
VERTEX
  5
3DE7
  8
0
 10
0.0
 20
0.0
 30
0.0
 70
   128
 71
   -41
 72
     3
 73
    -4
  0
VERTEX
  5
3DE8
  8
0
 10
0.0
 20
0.0
 30
0.0
 70
   128
 71
    40
 72
   -41
 73
    -4
  0
VERTEX
  5
3DE9
  8
0
 10
0.0
 20
0.0
 30
0.0
 70
   128
 71
    41
 72
   -42
 73
    -3
  0
VERTEX
  5
3DEA
  8
0
 10
0.0
 20
0.0
 30
0.0
 70
   128
 71
    42
 72
   -35
 73
    -3
  0
VERTEX
  5
3DEB
  8
0
 10
0.0
 20
0.0
 30
0.0
 70
   128
 71
    29
 72
   -30
 73
   -20
  0
VERTEX
  5
3DEC
  8
0
 10
0.0
 20
0.0
 30
0.0
 70
   128
 71
   -31
 72
    19
 73
   -20
  0
VERTEX
  5
3DED
  8
0
 10
0.0
 20
0.0
 30
0.0
 70
   128
 71
    30
 72
   -31
 73
   -20
  0
VERTEX
  5
3DEE
  8
0
 10
0.0
 20
0.0
 30
0.0
 70
   128
 71
    -3
 72
    35
 73
   -36
  0
VERTEX
  5
3DEF
  8
0
 10
0.0
 20
0.0
 30
0.0
 70
   128
 71
     2
 72
    -3
 73
   -36
  0
VERTEX
  5
3DF0
  8
0
 10
0.0
 20
0.0
 30
0.0
 70
   128
 71
   -21
 72
    -2
 73
   -36
  0
VERTEX
  5
3DF1
  8
0
 10
0.0
 20
0.0
 30
0.0
 70
   128
 71
   -37
 72
    20
 73
   -21
  0
VERTEX
  5
3DF2
  8
0
 10
0.0
 20
0.0
 30
0.0
 70
   128
 71
    36
 72
   -37
 73
   -21
  0
VERTEX
  5
3DF3
  8
0
 10
0.0
 20
0.0
 30
0.0
 70
   128
 71
   -22
 72
     1
 73
    -2
  0
VERTEX
  5
3DF4
  8
0
 10
0.0
 20
0.0
 30
0.0
 70
   128
 71
    21
 72
   -22
 73
    -2
  0
VERTEX
  5
3DF5
  8
0
 10
0.0
 20
0.0
 30
0.0
 70
   128
 71
    22
 72
   -23
 73
    -1
  0
VERTEX
  5
3DF6
  8
0
 10
0.0
 20
0.0
 30
0.0
 70
   128
 71
    23
 72
   -24
 73
    -1
  0
VERTEX
  5
3DF7
  8
0
 10
0.0
 20
0.0
 30
0.0
 70
   128
 71
   -25
 72
    10
 73
    -1
  0
VERTEX
  5
3DF8
  8
0
 10
0.0
 20
0.0
 30
0.0
 70
   128
 71
    24
 72
   -25
 73
    -1
  0
VERTEX
  5
3DF9
  8
0
 10
0.0
 20
0.0
 30
0.0
 70
   128
 71
     8
 72
     9
 73
   -10
  0
VERTEX
  5
3DFA
  8
0
 10
0.0
 20
0.0
 30
0.0
 70
   128
 71
   -26
 72
    -8
 73
   -10
  0
VERTEX
  5
3DFB
  8
0
 10
0.0
 20
0.0
 30
0.0
 70
   128
 71
    25
 72
   -26
 73
   -10
  0
SEQEND
  5
453C
  8
0
  0
POLYLINE
  5
3DFC
  8
0
 66
     1
 10
0.0
 20
0.0
 30
0.0
 70
    64
 71
    12
 72
    10
  0
VERTEX
  5
3DFD
  8
0
 10
356.7971176265636
 20
74.77483182341933
 30
-44.00000000000021
 70
   192
  0
VERTEX
  5
3DFE
  8
0
 10
352.4999999999999
 20
87.99999999999996
 30
-44.00000000000021
 70
   192
  0
VERTEX
  5
3DFF
  8
0
 10
352.4999999999999
 20
87.99999999999996
 30
-74.0000000000002
 70
   192
  0
VERTEX
  5
3E00
  8
0
 10
356.7971176265636
 20
74.77483182341933
 30
-74.0000000000002
 70
   192
  0
VERTEX
  5
3E01
  8
0
 10
393.2028823734362
 20
74.77483182341933
 30
-74.0000000000002
 70
   192
  0
VERTEX
  5
3E02
  8
0
 10
397.4999999999998
 20
87.99999999999996
 30
-74.0000000000002
 70
   192
  0
VERTEX
  5
3E03
  8
0
 10
397.4999999999998
 20
87.99999999999996
 30
-44.00000000000021
 70
   192
  0
VERTEX
  5
3E04
  8
0
 10
393.2028823734362
 20
74.77483182341933
 30
-44.00000000000021
 70
   192
  0
VERTEX
  5
3E05
  8
0
 10
368.0471176265636
 20
66.60122838335903
 30
-44.00000000000021
 70
   192
  0
VERTEX
  5
3E06
  8
0
 10
368.0471176265636
 20
66.60122838335903
 30
-74.0000000000002
 70
   192
  0
VERTEX
  5
3E07
  8
0
 10
381.9528823734362
 20
66.60122838335903
 30
-74.0000000000002
 70
   192
  0
VERTEX
  5
3E08
  8
0
 10
381.9528823734362
 20
66.60122838335903
 30
-44.00000000000021
 70
   192
  0
VERTEX
  5
3E09
  8
0
 10
0.0
 20
0.0
 30
0.0
 70
   128
 71
     1
 72
     2
 73
    -3
  0
VERTEX
  5
3E0A
  8
0
 10
0.0
 20
0.0
 30
0.0
 70
   128
 71
    -1
 72
     3
 73
     4
  0
VERTEX
  5
3E0B
  8
0
 10
0.0
 20
0.0
 30
0.0
 70
   128
 71
     5
 72
     6
 73
    -7
  0
VERTEX
  5
3E0C
  8
0
 10
0.0
 20
0.0
 30
0.0
 70
   128
 71
    -5
 72
     7
 73
     8
  0
VERTEX
  5
3E0D
  8
0
 10
0.0
 20
0.0
 30
0.0
 70
   128
 71
     9
 72
    10
 73
   -11
  0
VERTEX
  5
3E0E
  8
0
 10
0.0
 20
0.0
 30
0.0
 70
   128
 71
    -9
 72
    11
 73
    12
  0
VERTEX
  5
3E0F
  8
0
 10
0.0
 20
0.0
 30
0.0
 70
   128
 71
     1
 72
     4
 73
   -10
  0
VERTEX
  5
3E10
  8
0
 10
0.0
 20
0.0
 30
0.0
 70
   128
 71
    -1
 72
    10
 73
     9
  0
VERTEX
  5
3E11
  8
0
 10
0.0
 20
0.0
 30
0.0
 70
   128
 71
    12
 72
    11
 73
    -5
  0
VERTEX
  5
3E12
  8
0
 10
0.0
 20
0.0
 30
0.0
 70
   128
 71
   -12
 72
     5
 73
     8
  0
SEQEND
  5
453D
  8
0
  0
POLYLINE
  5
3E13
  8
0
 66
     1
 10
0.0
 20
0.0
 30
0.0
 70
    64
 71
    10
 72
     8
  0
VERTEX
  5
3E14
  8
0
 10
352.4999999999999
 20
87.99999999999996
 30
-74.0000000000002
 70
   192
  0
VERTEX
  5
3E15
  8
0
 10
356.7971176265636
 20
74.77483182341933
 30
-74.0000000000002
 70
   192
  0
VERTEX
  5
3E16
  8
0
 10
368.0471176265636
 20
66.60122838335903
 30
-74.0000000000002
 70
   192
  0
VERTEX
  5
3E17
  8
0
 10
381.9528823734362
 20
66.60122838335903
 30
-74.0000000000002
 70
   192
  0
VERTEX
  5
3E18
  8
0
 10
393.2028823734362
 20
74.77483182341933
 30
-74.0000000000002
 70
   192
  0
VERTEX
  5
3E19
  8
0
 10
397.4999999999998
 20
87.99999999999996
 30
-74.0000000000002
 70
   192
  0
VERTEX
  5
3E1A
  8
0
 10
393.2028823734362
 20
101.2251681765806
 30
-74.0000000000002
 70
   192
  0
VERTEX
  5
3E1B
  8
0
 10
381.9528823734362
 20
109.3987716166409
 30
-74.0000000000002
 70
   192
  0
VERTEX
  5
3E1C
  8
0
 10
368.0471176265636
 20
109.3987716166409
 30
-74.0000000000002
 70
   192
  0
VERTEX
  5
3E1D
  8
0
 10
356.7971176265636
 20
101.2251681765806
 30
-74.0000000000002
 70
   192
  0
VERTEX
  5
3E1E
  8
0
 10
0.0
 20
0.0
 30
0.0
 70
   128
 71
     1
 72
    10
 73
    -9
  0
VERTEX
  5
3E1F
  8
0
 10
0.0
 20
0.0
 30
0.0
 70
   128
 71
    -1
 72
     9
 73
    -8
  0
VERTEX
  5
3E20
  8
0
 10
0.0
 20
0.0
 30
0.0
 70
   128
 71
    -1
 72
     8
 73
    -7
  0
VERTEX
  5
3E21
  8
0
 10
0.0
 20
0.0
 30
0.0
 70
   128
 71
    -1
 72
     7
 73
    -6
  0
VERTEX
  5
3E22
  8
0
 10
0.0
 20
0.0
 30
0.0
 70
   128
 71
    -1
 72
     6
 73
    -5
  0
VERTEX
  5
3E23
  8
0
 10
0.0
 20
0.0
 30
0.0
 70
   128
 71
    -1
 72
     5
 73
    -4
  0
VERTEX
  5
3E24
  8
0
 10
0.0
 20
0.0
 30
0.0
 70
   128
 71
    -1
 72
     4
 73
    -3
  0
VERTEX
  5
3E25
  8
0
 10
0.0
 20
0.0
 30
0.0
 70
   128
 71
    -1
 72
     3
 73
     2
  0
SEQEND
  5
453E
  8
0
  0
POLYLINE
  5
3E26
  8
0
 66
     1
 10
0.0
 20
0.0
 30
0.0
 70
    64
 71
    10
 72
     8
  0
VERTEX
  5
3E27
  8
0
 10
377.4999999999999
 20
87.99999999999997
 30
-43.00000000000022
 70
   192
  0
VERTEX
  5
3E28
  8
0
 10
372.4999999999999
 20
87.99999999999997
 30
-43.00000000000022
 70
   192
  0
VERTEX
  5
3E29
  8
0
 10
372.4999999999999
 20
87.99999999999997
 30
-42.00000000000022
 70
   192
  0
VERTEX
  5
3E2A
  8
0
 10
377.4999999999999
 20
87.99999999999997
 30
-42.00000000000022
 70
   192
  0
VERTEX
  5
3E2B
  8
0
 10
374.9999999999999
 20
90.49999999999997
 30
-42.00000000000022
 70
   192
  0
VERTEX
  5
3E2C
  8
0
 10
374.9999999999999
 20
90.49999999999997
 30
-43.00000000000022
 70
   192
  0
VERTEX
  5
3E2D
  8
0
 10
376.7677669529663
 20
89.76776695296634
 30
-42.00000000000022
 70
   192
  0
VERTEX
  5
3E2E
  8
0
 10
376.7677669529663
 20
89.76776695296634
 30
-43.00000000000022
 70
   192
  0
VERTEX
  5
3E2F
  8
0
 10
373.2322330470335
 20
89.76776695296634
 30
-42.00000000000022
 70
   192
  0
VERTEX
  5
3E30
  8
0
 10
373.2322330470335
 20
89.76776695296634
 30
-43.00000000000022
 70
   192
  0
VERTEX
  5
3E31
  8
0
 10
0.0
 20
0.0
 30
0.0
 70
   128
 71
     8
 72
     1
 73
    -4
  0
VERTEX
  5
3E32
  8
0
 10
0.0
 20
0.0
 30
0.0
 70
   128
 71
     7
 72
    -8
 73
     4
  0
VERTEX
  5
3E33
  8
0
 10
0.0
 20
0.0
 30
0.0
 70
   128
 71
     6
 72
     8
 73
    -7
  0
VERTEX
  5
3E34
  8
0
 10
0.0
 20
0.0
 30
0.0
 70
   128
 71
     5
 72
    -6
 73
     7
  0
VERTEX
  5
3E35
  8
0
 10
0.0
 20
0.0
 30
0.0
 70
   128
 71
    10
 72
     6
 73
    -5
  0
VERTEX
  5
3E36
  8
0
 10
0.0
 20
0.0
 30
0.0
 70
   128
 71
     9
 72
   -10
 73
     5
  0
VERTEX
  5
3E37
  8
0
 10
0.0
 20
0.0
 30
0.0
 70
   128
 71
     3
 72
     2
 73
   -10
  0
VERTEX
  5
3E38
  8
0
 10
0.0
 20
0.0
 30
0.0
 70
   128
 71
     9
 72
    -3
 73
    10
  0
SEQEND
  5
453F
  8
0
  0
POLYLINE
  5
3E39
  8
0
 66
     1
 10
0.0
 20
0.0
 30
0.0
 70
    64
 71
     8
 72
     6
  0
VERTEX
  5
3E3A
  8
0
 10
377.4999999999999
 20
87.99999999999997
 30
-43.00000000000022
 70
   192
  0
VERTEX
  5
3E3B
  8
0
 10
376.7677669529663
 20
89.76776695296634
 30
-43.00000000000022
 70
   192
  0
VERTEX
  5
3E3C
  8
0
 10
374.9999999999999
 20
90.49999999999997
 30
-43.00000000000022
 70
   192
  0
VERTEX
  5
3E3D
  8
0
 10
373.2322330470335
 20
89.76776695296634
 30
-43.00000000000022
 70
   192
  0
VERTEX
  5
3E3E
  8
0
 10
372.4999999999999
 20
87.99999999999997
 30
-43.00000000000022
 70
   192
  0
VERTEX
  5
3E3F
  8
0
 10
373.2322330470335
 20
86.2322330470336
 30
-43.00000000000022
 70
   192
  0
VERTEX
  5
3E40
  8
0
 10
374.9999999999999
 20
85.49999999999997
 30
-43.00000000000022
 70
   192
  0
VERTEX
  5
3E41
  8
0
 10
376.7677669529663
 20
86.2322330470336
 30
-43.00000000000022
 70
   192
  0
VERTEX
  5
3E42
  8
0
 10
0.0
 20
0.0
 30
0.0
 70
   128
 71
     7
 72
     8
 73
    -1
  0
VERTEX
  5
3E43
  8
0
 10
0.0
 20
0.0
 30
0.0
 70
   128
 71
     6
 72
    -7
 73
    -1
  0
VERTEX
  5
3E44
  8
0
 10
0.0
 20
0.0
 30
0.0
 70
   128
 71
     5
 72
    -6
 73
    -1
  0
VERTEX
  5
3E45
  8
0
 10
0.0
 20
0.0
 30
0.0
 70
   128
 71
     4
 72
    -5
 73
    -1
  0
VERTEX
  5
3E46
  8
0
 10
0.0
 20
0.0
 30
0.0
 70
   128
 71
     3
 72
    -4
 73
    -1
  0
VERTEX
  5
3E47
  8
0
 10
0.0
 20
0.0
 30
0.0
 70
   128
 71
     2
 72
    -3
 73
     1
  0
SEQEND
  5
4540
  8
0
  0
POLYLINE
  5
3E48
  8
0
 66
     1
 10
0.0
 20
0.0
 30
0.0
 70
    64
 71
    10
 72
     8
  0
VERTEX
  5
3E49
  8
0
 10
387.9999999999999
 20
87.99999999999997
 30
-43.00000000000022
 70
   192
  0
VERTEX
  5
3E4A
  8
0
 10
381.9999999999999
 20
87.99999999999997
 30
-43.00000000000022
 70
   192
  0
VERTEX
  5
3E4B
  8
0
 10
381.9999999999999
 20
87.99999999999997
 30
-42.00000000000022
 70
   192
  0
VERTEX
  5
3E4C
  8
0
 10
387.9999999999999
 20
87.99999999999997
 30
-42.00000000000022
 70
   192
  0
VERTEX
  5
3E4D
  8
0
 10
384.9999999999999
 20
90.99999999999997
 30
-42.00000000000022
 70
   192
  0
VERTEX
  5
3E4E
  8
0
 10
384.9999999999999
 20
90.99999999999997
 30
-43.00000000000022
 70
   192
  0
VERTEX
  5
3E4F
  8
0
 10
387.1213203435595
 20
90.12132034355962
 30
-42.00000000000022
 70
   192
  0
VERTEX
  5
3E50
  8
0
 10
387.1213203435595
 20
90.12132034355962
 30
-43.00000000000022
 70
   192
  0
VERTEX
  5
3E51
  8
0
 10
382.8786796564402
 20
90.12132034355962
 30
-42.00000000000022
 70
   192
  0
VERTEX
  5
3E52
  8
0
 10
382.8786796564402
 20
90.12132034355962
 30
-43.00000000000022
 70
   192
  0
VERTEX
  5
3E53
  8
0
 10
0.0
 20
0.0
 30
0.0
 70
   128
 71
     8
 72
     1
 73
    -4
  0
VERTEX
  5
3E54
  8
0
 10
0.0
 20
0.0
 30
0.0
 70
   128
 71
     7
 72
    -8
 73
     4
  0
VERTEX
  5
3E55
  8
0
 10
0.0
 20
0.0
 30
0.0
 70
   128
 71
     6
 72
     8
 73
    -7
  0
VERTEX
  5
3E56
  8
0
 10
0.0
 20
0.0
 30
0.0
 70
   128
 71
     5
 72
    -6
 73
     7
  0
VERTEX
  5
3E57
  8
0
 10
0.0
 20
0.0
 30
0.0
 70
   128
 71
    10
 72
     6
 73
    -5
  0
VERTEX
  5
3E58
  8
0
 10
0.0
 20
0.0
 30
0.0
 70
   128
 71
     9
 72
   -10
 73
     5
  0
VERTEX
  5
3E59
  8
0
 10
0.0
 20
0.0
 30
0.0
 70
   128
 71
     3
 72
     2
 73
   -10
  0
VERTEX
  5
3E5A
  8
0
 10
0.0
 20
0.0
 30
0.0
 70
   128
 71
     9
 72
    -3
 73
    10
  0
SEQEND
  5
4541
  8
0
  0
POLYLINE
  5
3E5B
  8
0
 66
     1
 10
0.0
 20
0.0
 30
0.0
 70
    64
 71
     8
 72
     6
  0
VERTEX
  5
3E5C
  8
0
 10
387.9999999999999
 20
87.99999999999997
 30
-43.00000000000022
 70
   192
  0
VERTEX
  5
3E5D
  8
0
 10
387.1213203435595
 20
90.12132034355962
 30
-43.00000000000022
 70
   192
  0
VERTEX
  5
3E5E
  8
0
 10
384.9999999999999
 20
90.99999999999997
 30
-43.00000000000022
 70
   192
  0
VERTEX
  5
3E5F
  8
0
 10
382.8786796564402
 20
90.12132034355962
 30
-43.00000000000022
 70
   192
  0
VERTEX
  5
3E60
  8
0
 10
381.9999999999999
 20
87.99999999999997
 30
-43.00000000000022
 70
   192
  0
VERTEX
  5
3E61
  8
0
 10
382.8786796564402
 20
85.87867965644033
 30
-43.00000000000022
 70
   192
  0
VERTEX
  5
3E62
  8
0
 10
384.9999999999999
 20
84.99999999999997
 30
-43.00000000000022
 70
   192
  0
VERTEX
  5
3E63
  8
0
 10
387.1213203435595
 20
85.87867965644033
 30
-43.00000000000022
 70
   192
  0
VERTEX
  5
3E64
  8
0
 10
0.0
 20
0.0
 30
0.0
 70
   128
 71
     7
 72
     8
 73
    -1
  0
VERTEX
  5
3E65
  8
0
 10
0.0
 20
0.0
 30
0.0
 70
   128
 71
     6
 72
    -7
 73
    -1
  0
VERTEX
  5
3E66
  8
0
 10
0.0
 20
0.0
 30
0.0
 70
   128
 71
     5
 72
    -6
 73
    -1
  0
VERTEX
  5
3E67
  8
0
 10
0.0
 20
0.0
 30
0.0
 70
   128
 71
     4
 72
    -5
 73
    -1
  0
VERTEX
  5
3E68
  8
0
 10
0.0
 20
0.0
 30
0.0
 70
   128
 71
     3
 72
    -4
 73
    -1
  0
VERTEX
  5
3E69
  8
0
 10
0.0
 20
0.0
 30
0.0
 70
   128
 71
     2
 72
    -3
 73
     1
  0
SEQEND
  5
4542
  8
0
  0
POLYLINE
  5
3E6A
  8
0
 66
     1
 10
0.0
 20
0.0
 30
0.0
 70
    64
 71
    10
 72
     8
  0
VERTEX
  5
3E6B
  8
0
 10
367.9999999999999
 20
87.99999999999997
 30
-43.00000000000022
 70
   192
  0
VERTEX
  5
3E6C
  8
0
 10
361.9999999999999
 20
87.99999999999997
 30
-43.00000000000022
 70
   192
  0
VERTEX
  5
3E6D
  8
0
 10
361.9999999999999
 20
87.99999999999997
 30
-42.00000000000022
 70
   192
  0
VERTEX
  5
3E6E
  8
0
 10
367.9999999999999
 20
87.99999999999997
 30
-42.00000000000022
 70
   192
  0
VERTEX
  5
3E6F
  8
0
 10
364.9999999999999
 20
90.99999999999997
 30
-42.00000000000022
 70
   192
  0
VERTEX
  5
3E70
  8
0
 10
364.9999999999999
 20
90.99999999999997
 30
-43.00000000000022
 70
   192
  0
VERTEX
  5
3E71
  8
0
 10
367.1213203435595
 20
90.12132034355962
 30
-42.00000000000022
 70
   192
  0
VERTEX
  5
3E72
  8
0
 10
367.1213203435595
 20
90.12132034355962
 30
-43.00000000000022
 70
   192
  0
VERTEX
  5
3E73
  8
0
 10
362.8786796564402
 20
90.12132034355962
 30
-42.00000000000022
 70
   192
  0
VERTEX
  5
3E74
  8
0
 10
362.8786796564402
 20
90.12132034355962
 30
-43.00000000000022
 70
   192
  0
VERTEX
  5
3E75
  8
0
 10
0.0
 20
0.0
 30
0.0
 70
   128
 71
     8
 72
     1
 73
    -4
  0
VERTEX
  5
3E76
  8
0
 10
0.0
 20
0.0
 30
0.0
 70
   128
 71
     7
 72
    -8
 73
     4
  0
VERTEX
  5
3E77
  8
0
 10
0.0
 20
0.0
 30
0.0
 70
   128
 71
     6
 72
     8
 73
    -7
  0
VERTEX
  5
3E78
  8
0
 10
0.0
 20
0.0
 30
0.0
 70
   128
 71
     5
 72
    -6
 73
     7
  0
VERTEX
  5
3E79
  8
0
 10
0.0
 20
0.0
 30
0.0
 70
   128
 71
    10
 72
     6
 73
    -5
  0
VERTEX
  5
3E7A
  8
0
 10
0.0
 20
0.0
 30
0.0
 70
   128
 71
     9
 72
   -10
 73
     5
  0
VERTEX
  5
3E7B
  8
0
 10
0.0
 20
0.0
 30
0.0
 70
   128
 71
     3
 72
     2
 73
   -10
  0
VERTEX
  5
3E7C
  8
0
 10
0.0
 20
0.0
 30
0.0
 70
   128
 71
     9
 72
    -3
 73
    10
  0
SEQEND
  5
4543
  8
0
  0
POLYLINE
  5
3E7D
  8
0
 66
     1
 10
0.0
 20
0.0
 30
0.0
 70
    64
 71
     8
 72
     6
  0
VERTEX
  5
3E7E
  8
0
 10
367.9999999999999
 20
87.99999999999997
 30
-43.00000000000022
 70
   192
  0
VERTEX
  5
3E7F
  8
0
 10
367.1213203435595
 20
90.12132034355962
 30
-43.00000000000022
 70
   192
  0
VERTEX
  5
3E80
  8
0
 10
364.9999999999999
 20
90.99999999999997
 30
-43.00000000000022
 70
   192
  0
VERTEX
  5
3E81
  8
0
 10
362.8786796564402
 20
90.12132034355962
 30
-43.00000000000022
 70
   192
  0
VERTEX
  5
3E82
  8
0
 10
361.9999999999999
 20
87.99999999999997
 30
-43.00000000000022
 70
   192
  0
VERTEX
  5
3E83
  8
0
 10
362.8786796564402
 20
85.87867965644033
 30
-43.00000000000022
 70
   192
  0
VERTEX
  5
3E84
  8
0
 10
364.9999999999999
 20
84.99999999999997
 30
-43.00000000000022
 70
   192
  0
VERTEX
  5
3E85
  8
0
 10
367.1213203435595
 20
85.87867965644033
 30
-43.00000000000022
 70
   192
  0
VERTEX
  5
3E86
  8
0
 10
0.0
 20
0.0
 30
0.0
 70
   128
 71
     7
 72
     8
 73
    -1
  0
VERTEX
  5
3E87
  8
0
 10
0.0
 20
0.0
 30
0.0
 70
   128
 71
     6
 72
    -7
 73
    -1
  0
VERTEX
  5
3E88
  8
0
 10
0.0
 20
0.0
 30
0.0
 70
   128
 71
     5
 72
    -6
 73
    -1
  0
VERTEX
  5
3E89
  8
0
 10
0.0
 20
0.0
 30
0.0
 70
   128
 71
     4
 72
    -5
 73
    -1
  0
VERTEX
  5
3E8A
  8
0
 10
0.0
 20
0.0
 30
0.0
 70
   128
 71
     3
 72
    -4
 73
    -1
  0
VERTEX
  5
3E8B
  8
0
 10
0.0
 20
0.0
 30
0.0
 70
   128
 71
     2
 72
    -3
 73
     1
  0
SEQEND
  5
4544
  8
0
  0
POLYLINE
  5
3E8C
  8
0
 66
     1
 10
0.0
 20
0.0
 30
0.0
 70
    64
 71
    10
 72
     8
  0
VERTEX
  5
3E8D
  8
0
 10
376.9999999999999
 20
103.0
 30
-39.00000000000021
 70
   192
  0
VERTEX
  5
3E8E
  8
0
 10
372.9999999999999
 20
103.0
 30
-39.00000000000021
 70
   192
  0
VERTEX
  5
3E8F
  8
0
 10
372.9999999999999
 20
103.0
 30
-42.00000000000022
 70
   192
  0
VERTEX
  5
3E90
  8
0
 10
376.9999999999999
 20
103.0
 30
-42.00000000000022
 70
   192
  0
VERTEX
  5
3E91
  8
0
 10
374.9999999999999
 20
101.0
 30
-42.00000000000022
 70
   192
  0
VERTEX
  5
3E92
  8
0
 10
374.9999999999999
 20
101.0
 30
-39.00000000000021
 70
   192
  0
VERTEX
  5
3E93
  8
0
 10
376.414213562373
 20
101.5857864376269
 30
-42.00000000000022
 70
   192
  0
VERTEX
  5
3E94
  8
0
 10
376.414213562373
 20
101.5857864376269
 30
-39.00000000000021
 70
   192
  0
VERTEX
  5
3E95
  8
0
 10
373.5857864376268
 20
101.5857864376269
 30
-42.00000000000022
 70
   192
  0
VERTEX
  5
3E96
  8
0
 10
373.5857864376268
 20
101.5857864376269
 30
-39.00000000000021
 70
   192
  0
VERTEX
  5
3E97
  8
0
 10
0.0
 20
0.0
 30
0.0
 70
   128
 71
     8
 72
     7
 73
    -4
  0
VERTEX
  5
3E98
  8
0
 10
0.0
 20
0.0
 30
0.0
 70
   128
 71
    -8
 72
     4
 73
     1
  0
VERTEX
  5
3E99
  8
0
 10
0.0
 20
0.0
 30
0.0
 70
   128
 71
     6
 72
     5
 73
    -7
  0
VERTEX
  5
3E9A
  8
0
 10
0.0
 20
0.0
 30
0.0
 70
   128
 71
    -6
 72
     7
 73
     8
  0
VERTEX
  5
3E9B
  8
0
 10
0.0
 20
0.0
 30
0.0
 70
   128
 71
    10
 72
     9
 73
    -5
  0
VERTEX
  5
3E9C
  8
0
 10
0.0
 20
0.0
 30
0.0
 70
   128
 71
   -10
 72
     5
 73
     6
  0
VERTEX
  5
3E9D
  8
0
 10
0.0
 20
0.0
 30
0.0
 70
   128
 71
     2
 72
     3
 73
    -9
  0
VERTEX
  5
3E9E
  8
0
 10
0.0
 20
0.0
 30
0.0
 70
   128
 71
    -2
 72
     9
 73
    10
  0
SEQEND
  5
4545
  8
0
  0
POLYLINE
  5
3E9F
  8
0
 66
     1
 10
0.0
 20
0.0
 30
0.0
 70
    64
 71
     8
 72
     6
  0
VERTEX
  5
3EA0
  8
0
 10
372.9999999999999
 20
103.0
 30
-39.00000000000021
 70
   192
  0
VERTEX
  5
3EA1
  8
0
 10
373.5857864376268
 20
101.5857864376269
 30
-39.00000000000021
 70
   192
  0
VERTEX
  5
3EA2
  8
0
 10
374.9999999999999
 20
101.0
 30
-39.00000000000021
 70
   192
  0
VERTEX
  5
3EA3
  8
0
 10
376.414213562373
 20
101.5857864376269
 30
-39.00000000000021
 70
   192
  0
VERTEX
  5
3EA4
  8
0
 10
376.9999999999999
 20
103.0
 30
-39.00000000000021
 70
   192
  0
VERTEX
  5
3EA5
  8
0
 10
376.414213562373
 20
104.4142135623731
 30
-39.00000000000021
 70
   192
  0
VERTEX
  5
3EA6
  8
0
 10
374.9999999999999
 20
105.0
 30
-39.00000000000021
 70
   192
  0
VERTEX
  5
3EA7
  8
0
 10
373.5857864376268
 20
104.4142135623731
 30
-39.00000000000021
 70
   192
  0
VERTEX
  5
3EA8
  8
0
 10
0.0
 20
0.0
 30
0.0
 70
   128
 71
     7
 72
     8
 73
    -1
  0
VERTEX
  5
3EA9
  8
0
 10
0.0
 20
0.0
 30
0.0
 70
   128
 71
     6
 72
    -7
 73
    -1
  0
VERTEX
  5
3EAA
  8
0
 10
0.0
 20
0.0
 30
0.0
 70
   128
 71
     5
 72
    -6
 73
    -1
  0
VERTEX
  5
3EAB
  8
0
 10
0.0
 20
0.0
 30
0.0
 70
   128
 71
     4
 72
    -5
 73
    -1
  0
VERTEX
  5
3EAC
  8
0
 10
0.0
 20
0.0
 30
0.0
 70
   128
 71
     3
 72
    -4
 73
    -1
  0
VERTEX
  5
3EAD
  8
0
 10
0.0
 20
0.0
 30
0.0
 70
   128
 71
     2
 72
    -3
 73
     1
  0
SEQEND
  5
4546
  8
0
  0
ENDBLK
  5
452E
  8
0
  0
BLOCK
  8
0
  2
*X10
 70
     1
 10
0.0
 20
0.0
 30
0.0
  3
*X10
  1

  0
POLYLINE
  5
3EAF
  8
0
 66
     1
 10
0.0
 20
0.0
 30
0.0
 70
    64
 71
     4
 72
     2
  0
VERTEX
  5
3EB0
  8
0
 10
-484.9999999999999
 20
682.0
 30
-61.99999999999996
 70
   192
  0
VERTEX
  5
3EB1
  8
0
 10
-484.9999999999999
 20
682.0
 30
-1.99999999999996
 70
   192
  0
VERTEX
  5
3EB2
  8
0
 10
-484.9999999999999
 20
647.0000000000006
 30
-1.999999999999936
 70
   192
  0
VERTEX
  5
3EB3
  8
0
 10
-485.0
 20
622.0000000000001
 30
-61.99999999999996
 70
   192
  0
VERTEX
  5
3EB4
  8
0
 10
0.0
 20
0.0
 30
0.0
 70
   128
 71
     1
 72
     4
 73
    -3
  0
VERTEX
  5
3EB5
  8
0
 10
0.0
 20
0.0
 30
0.0
 70
   128
 71
    -1
 72
     3
 73
     2
  0
SEQEND
  5
4549
  8
0
  0
POLYLINE
  5
3EB6
  8
0
 66
     1
 10
0.0
 20
0.0
 30
0.0
 70
    64
 71
     4
 72
     2
  0
VERTEX
  5
3EB7
  8
0
 10
-464.9999999999999
 20
682.0
 30
-1.99999999999996
 70
   192
  0
VERTEX
  5
3EB8
  8
0
 10
-464.9999999999999
 20
682.0
 30
-61.99999999999996
 70
   192
  0
VERTEX
  5
3EB9
  8
0
 10
-464.9999999999999
 20
622.0000000000001
 30
-61.99999999999997
 70
   192
  0
VERTEX
  5
3EBA
  8
0
 10
-464.9999999999999
 20
647.0000000000006
 30
-1.99999999999996
 70
   192
  0
VERTEX
  5
3EBB
  8
0
 10
0.0
 20
0.0
 30
0.0
 70
   128
 71
     1
 72
     4
 73
    -3
  0
VERTEX
  5
3EBC
  8
0
 10
0.0
 20
0.0
 30
0.0
 70
   128
 71
    -1
 72
     3
 73
     2
  0
SEQEND
  5
454A
  8
0
  0
POLYLINE
  5
3EBD
  8
0
 66
     1
 10
0.0
 20
0.0
 30
0.0
 70
    64
 71
     4
 72
     2
  0
VERTEX
  5
3EBE
  8
0
 10
-464.9999999999999
 20
682.0
 30
-61.99999999999996
 70
   192
  0
VERTEX
  5
3EBF
  8
0
 10
-464.9999999999999
 20
682.0
 30
-1.99999999999996
 70
   192
  0
VERTEX
  5
3EC0
  8
0
 10
-484.9999999999999
 20
682.0
 30
-1.99999999999996
 70
   192
  0
VERTEX
  5
3EC1
  8
0
 10
-484.9999999999999
 20
682.0
 30
-61.99999999999996
 70
   192
  0
VERTEX
  5
3EC2
  8
0
 10
0.0
 20
0.0
 30
0.0
 70
   128
 71
     1
 72
     4
 73
    -3
  0
VERTEX
  5
3EC3
  8
0
 10
0.0
 20
0.0
 30
0.0
 70
   128
 71
    -1
 72
     3
 73
     2
  0
SEQEND
  5
454B
  8
0
  0
POLYLINE
  5
3EC4
  8
0
 66
     1
 10
0.0
 20
0.0
 30
0.0
 70
    64
 71
     4
 72
     2
  0
VERTEX
  5
3EC5
  8
0
 10
-484.9999999999999
 20
647.0000000000006
 30
-1.999999999999946
 70
   192
  0
VERTEX
  5
3EC6
  8
0
 10
-464.9999999999999
 20
647.0000000000006
 30
-1.999999999999946
 70
   192
  0
VERTEX
  5
3EC7
  8
0
 10
-464.9999999999999
 20
682.0
 30
-1.99999999999996
 70
   192
  0
VERTEX
  5
3EC8
  8
0
 10
-484.9999999999999
 20
682.0
 30
-1.99999999999996
 70
   192
  0
VERTEX
  5
3EC9
  8
0
 10
0.0
 20
0.0
 30
0.0
 70
   128
 71
     3
 72
     4
 73
    -1
  0
VERTEX
  5
3ECA
  8
0
 10
0.0
 20
0.0
 30
0.0
 70
   128
 71
     2
 72
    -3
 73
     1
  0
SEQEND
  5
454C
  8
0
  0
POLYLINE
  5
3ECB
  8
0
 66
     1
 10
0.0
 20
0.0
 30
0.0
 70
    64
 71
     4
 72
     2
  0
VERTEX
  5
3ECC
  8
0
 10
-485.0
 20
622.0000000000001
 30
-61.99999999999996
 70
   192
  0
VERTEX
  5
3ECD
  8
0
 10
-464.9999999999999
 20
622.0000000000001
 30
-61.99999999999996
 70
   192
  0
VERTEX
  5
3ECE
  8
0
 10
-464.9999999999999
 20
682.0
 30
-61.99999999999996
 70
   192
  0
VERTEX
  5
3ECF
  8
0
 10
-484.9999999999999
 20
682.0
 30
-61.99999999999996
 70
   192
  0
VERTEX
  5
3ED0
  8
0
 10
0.0
 20
0.0
 30
0.0
 70
   128
 71
     1
 72
     4
 73
    -3
  0
VERTEX
  5
3ED1
  8
0
 10
0.0
 20
0.0
 30
0.0
 70
   128
 71
    -1
 72
     3
 73
     2
  0
SEQEND
  5
454D
  8
0
  0
POLYLINE
  5
3ED2
  8
0
 66
     1
 10
0.0
 20
0.0
 30
0.0
 70
    64
 71
     4
 72
     2
  0
VERTEX
  5
3ED3
  8
0
 10
-464.9999999999999
 20
647.0000000000006
 30
-1.99999999999995
 70
   192
  0
VERTEX
  5
3ED4
  8
0
 10
-464.9999999999999
 20
622.0000000000001
 30
-61.99999999999996
 70
   192
  0
VERTEX
  5
3ED5
  8
0
 10
-485.0
 20
622.0000000000001
 30
-61.99999999999996
 70
   192
  0
VERTEX
  5
3ED6
  8
0
 10
-484.9999999999999
 20
647.0000000000006
 30
-1.999999999999946
 70
   192
  0
VERTEX
  5
3ED7
  8
0
 10
0.0
 20
0.0
 30
0.0
 70
   128
 71
     1
 72
     4
 73
    -3
  0
VERTEX
  5
3ED8
  8
0
 10
0.0
 20
0.0
 30
0.0
 70
   128
 71
    -1
 72
     3
 73
     2
  0
SEQEND
  5
454E
  8
0
  0
ENDBLK
  5
4548
  8
0
  0
BLOCK
  8
0
  2
*X11
 70
     1
 10
0.0
 20
0.0
 30
0.0
  3
*X11
  1

  0
POLYLINE
  5
3EDA
  8
0
 66
     1
 10
0.0
 20
0.0
 30
0.0
 70
    64
 71
     4
 72
     2
  0
VERTEX
  5
3EDB
  8
0
 10
484.9999999999999
 20
682.0
 30
-61.99999999999996
 70
   192
  0
VERTEX
  5
3EDC
  8
0
 10
484.9999999999999
 20
682.0
 30
-1.99999999999996
 70
   192
  0
VERTEX
  5
3EDD
  8
0
 10
464.9999999999999
 20
682.0000000000001
 30
-1.99999999999996
 70
   192
  0
VERTEX
  5
3EDE
  8
0
 10
464.9999999999999
 20
682.0000000000001
 30
-61.99999999999996
 70
   192
  0
VERTEX
  5
3EDF
  8
0
 10
0.0
 20
0.0
 30
0.0
 70
   128
 71
     1
 72
     4
 73
    -3
  0
VERTEX
  5
3EE0
  8
0
 10
0.0
 20
0.0
 30
0.0
 70
   128
 71
    -1
 72
     3
 73
     2
  0
SEQEND
  5
4551
  8
0
  0
POLYLINE
  5
3EE1
  8
0
 66
     1
 10
0.0
 20
0.0
 30
0.0
 70
    64
 71
     4
 72
     2
  0
VERTEX
  5
3EE2
  8
0
 10
464.9999999999999
 20
682.0000000000001
 30
-61.99999999999996
 70
   192
  0
VERTEX
  5
3EE3
  8
0
 10
464.9999999999999
 20
682.0000000000001
 30
-1.99999999999996
 70
   192
  0
VERTEX
  5
3EE4
  8
0
 10
464.9999999999999
 20
647.0000000000006
 30
-1.999999999999945
 70
   192
  0
VERTEX
  5
3EE5
  8
0
 10
464.9999999999999
 20
622.0000000000002
 30
-61.99999999999996
 70
   192
  0
VERTEX
  5
3EE6
  8
0
 10
0.0
 20
0.0
 30
0.0
 70
   128
 71
     1
 72
     4
 73
    -3
  0
VERTEX
  5
3EE7
  8
0
 10
0.0
 20
0.0
 30
0.0
 70
   128
 71
    -1
 72
     3
 73
     2
  0
SEQEND
  5
4552
  8
0
  0
POLYLINE
  5
3EE8
  8
0
 66
     1
 10
0.0
 20
0.0
 30
0.0
 70
    64
 71
     4
 72
     2
  0
VERTEX
  5
3EE9
  8
0
 10
484.9999999999999
 20
682.0
 30
-1.99999999999996
 70
   192
  0
VERTEX
  5
3EEA
  8
0
 10
484.9999999999999
 20
682.0
 30
-61.99999999999996
 70
   192
  0
VERTEX
  5
3EEB
  8
0
 10
485.0
 20
622.0000000000001
 30
-61.99999999999996
 70
   192
  0
VERTEX
  5
3EEC
  8
0
 10
485.0
 20
647.0000000000006
 30
-1.99999999999996
 70
   192
  0
VERTEX
  5
3EED
  8
0
 10
0.0
 20
0.0
 30
0.0
 70
   128
 71
     1
 72
     4
 73
    -3
  0
VERTEX
  5
3EEE
  8
0
 10
0.0
 20
0.0
 30
0.0
 70
   128
 71
    -1
 72
     3
 73
     2
  0
SEQEND
  5
4553
  8
0
  0
POLYLINE
  5
3EEF
  8
0
 66
     1
 10
0.0
 20
0.0
 30
0.0
 70
    64
 71
     4
 72
     2
  0
VERTEX
  5
3EF0
  8
0
 10
464.9999999999998
 20
647.0000000000006
 30
-1.999999999999946
 70
   192
  0
VERTEX
  5
3EF1
  8
0
 10
484.9999999999999
 20
647.0000000000006
 30
-1.999999999999946
 70
   192
  0
VERTEX
  5
3EF2
  8
0
 10
484.9999999999999
 20
682.0
 30
-1.99999999999996
 70
   192
  0
VERTEX
  5
3EF3
  8
0
 10
464.9999999999999
 20
682.0000000000001
 30
-1.99999999999996
 70
   192
  0
VERTEX
  5
3EF4
  8
0
 10
0.0
 20
0.0
 30
0.0
 70
   128
 71
     3
 72
     4
 73
    -1
  0
VERTEX
  5
3EF5
  8
0
 10
0.0
 20
0.0
 30
0.0
 70
   128
 71
     2
 72
    -3
 73
     1
  0
SEQEND
  5
4554
  8
0
  0
POLYLINE
  5
3EF6
  8
0
 66
     1
 10
0.0
 20
0.0
 30
0.0
 70
    64
 71
     4
 72
     2
  0
VERTEX
  5
3EF7
  8
0
 10
464.9999999999999
 20
682.0000000000001
 30
-61.99999999999996
 70
   192
  0
VERTEX
  5
3EF8
  8
0
 10
464.9999999999999
 20
622.0000000000002
 30
-61.99999999999996
 70
   192
  0
VERTEX
  5
3EF9
  8
0
 10
485.0
 20
622.0000000000001
 30
-61.99999999999996
 70
   192
  0
VERTEX
  5
3EFA
  8
0
 10
484.9999999999999
 20
682.0
 30
-61.99999999999996
 70
   192
  0
VERTEX
  5
3EFB
  8
0
 10
0.0
 20
0.0
 30
0.0
 70
   128
 71
     1
 72
     4
 73
    -3
  0
VERTEX
  5
3EFC
  8
0
 10
0.0
 20
0.0
 30
0.0
 70
   128
 71
    -1
 72
     3
 73
     2
  0
SEQEND
  5
4555
  8
0
  0
POLYLINE
  5
3EFD
  8
0
 66
     1
 10
0.0
 20
0.0
 30
0.0
 70
    64
 71
     4
 72
     2
  0
VERTEX
  5
3EFE
  8
0
 10
464.9999999999999
 20
622.0000000000001
 30
-61.99999999999993
 70
   192
  0
VERTEX
  5
3EFF
  8
0
 10
464.9999999999998
 20
647.0000000000006
 30
-1.999999999999946
 70
   192
  0
VERTEX
  5
3F00
  8
0
 10
484.9999999999999
 20
647.0000000000006
 30
-1.999999999999943
 70
   192
  0
VERTEX
  5
3F01
  8
0
 10
485.0
 20
622.0000000000002
 30
-61.99999999999996
 70
   192
  0
VERTEX
  5
3F02
  8
0
 10
0.0
 20
0.0
 30
0.0
 70
   128
 71
     1
 72
     4
 73
    -3
  0
VERTEX
  5
3F03
  8
0
 10
0.0
 20
0.0
 30
0.0
 70
   128
 71
    -1
 72
     3
 73
     2
  0
SEQEND
  5
4556
  8
0
  0
ENDBLK
  5
4550
  8
0
  0
BLOCK
  8
0
  2
*X12
 70
     1
 10
0.0
 20
0.0
 30
0.0
  3
*X12
  1

  0
POLYLINE
  5
3F05
  8
0
 66
     1
 10
0.0
 20
0.0
 30
0.0
 70
    64
 71
     4
 72
     2
  0
VERTEX
  5
3F06
  8
0
 10
-9.0
 20
682.0
 30
61.00000000000023
 70
   192
  0
VERTEX
  5
3F07
  8
0
 10
-9.0
 20
18.0
 30
61.00000000000023
 70
   192
  0
VERTEX
  5
3F08
  8
0
 10
-9.0
 20
18.0
 30
-61.99999999999977
 70
   192
  0
VERTEX
  5
3F09
  8
0
 10
-9.0
 20
682.0
 30
-61.99999999999977
 70
   192
  0
VERTEX
  5
3F0A
  8
0
 10
0.0
 20
0.0
 30
0.0
 70
   128
 71
     1
 72
     4
 73
    -3
  0
VERTEX
  5
3F0B
  8
0
 10
0.0
 20
0.0
 30
0.0
 70
   128
 71
    -1
 72
     3
 73
     2
  0
SEQEND
  5
4559
  8
0
  0
POLYLINE
  5
3F0C
  8
0
 66
     1
 10
0.0
 20
0.0
 30
0.0
 70
    64
 71
     4
 72
     2
  0
VERTEX
  5
3F0D
  8
0
 10
9.000000000000002
 20
682.0
 30
61.00000000000023
 70
   192
  0
VERTEX
  5
3F0E
  8
0
 10
9.000000000000002
 20
18.0
 30
61.00000000000023
 70
   192
  0
VERTEX
  5
3F0F
  8
0
 10
-9.0
 20
18.0
 30
61.00000000000023
 70
   192
  0
VERTEX
  5
3F10
  8
0
 10
-8.999999999999998
 20
682.0
 30
61.00000000000023
 70
   192
  0
VERTEX
  5
3F11
  8
0
 10
0.0
 20
0.0
 30
0.0
 70
   128
 71
     1
 72
     4
 73
    -3
  0
VERTEX
  5
3F12
  8
0
 10
0.0
 20
0.0
 30
0.0
 70
   128
 71
    -1
 72
     3
 73
     2
  0
SEQEND
  5
455A
  8
0
  0
POLYLINE
  5
3F13
  8
0
 66
     1
 10
0.0
 20
0.0
 30
0.0
 70
    64
 71
     4
 72
     2
  0
VERTEX
  5
3F14
  8
0
 10
9.000000000000002
 20
682.0
 30
-61.99999999999977
 70
   192
  0
VERTEX
  5
3F15
  8
0
 10
9.000000000000002
 20
18.0
 30
-61.99999999999977
 70
   192
  0
VERTEX
  5
3F16
  8
0
 10
9.000000000000002
 20
18.0
 30
61.00000000000023
 70
   192
  0
VERTEX
  5
3F17
  8
0
 10
9.000000000000002
 20
682.0
 30
61.00000000000023
 70
   192
  0
VERTEX
  5
3F18
  8
0
 10
0.0
 20
0.0
 30
0.0
 70
   128
 71
     1
 72
     4
 73
    -3
  0
VERTEX
  5
3F19
  8
0
 10
0.0
 20
0.0
 30
0.0
 70
   128
 71
    -1
 72
     3
 73
     2
  0
SEQEND
  5
455B
  8
0
  0
POLYLINE
  5
3F1A
  8
0
 66
     1
 10
0.0
 20
0.0
 30
0.0
 70
    64
 71
     4
 72
     2
  0
VERTEX
  5
3F1B
  8
0
 10
-9.0
 20
682.0
 30
-61.99999999999977
 70
   192
  0
VERTEX
  5
3F1C
  8
0
 10
-8.999999999999998
 20
18.0
 30
-61.99999999999977
 70
   192
  0
VERTEX
  5
3F1D
  8
0
 10
9.000000000000002
 20
18.0
 30
-61.99999999999977
 70
   192
  0
VERTEX
  5
3F1E
  8
0
 10
9.000000000000002
 20
682.0
 30
-61.99999999999977
 70
   192
  0
VERTEX
  5
3F1F
  8
0
 10
0.0
 20
0.0
 30
0.0
 70
   128
 71
     1
 72
     4
 73
    -3
  0
VERTEX
  5
3F20
  8
0
 10
0.0
 20
0.0
 30
0.0
 70
   128
 71
    -1
 72
     3
 73
     2
  0
SEQEND
  5
455C
  8
0
  0
POLYLINE
  5
3F21
  8
0
 66
     1
 10
0.0
 20
0.0
 30
0.0
 70
    64
 71
     4
 72
     2
  0
VERTEX
  5
3F22
  8
0
 10
-8.999999999999998
 20
18.0
 30
61.00000000000023
 70
   192
  0
VERTEX
  5
3F23
  8
0
 10
9.000000000000002
 20
18.0
 30
61.00000000000023
 70
   192
  0
VERTEX
  5
3F24
  8
0
 10
9.000000000000002
 20
18.0
 30
-61.99999999999977
 70
   192
  0
VERTEX
  5
3F25
  8
0
 10
-9.0
 20
18.0
 30
-61.99999999999977
 70
   192
  0
VERTEX
  5
3F26
  8
0
 10
0.0
 20
0.0
 30
0.0
 70
   128
 71
     1
 72
     4
 73
    -3
  0
VERTEX
  5
3F27
  8
0
 10
0.0
 20
0.0
 30
0.0
 70
   128
 71
    -1
 72
     3
 73
     2
  0
SEQEND
  5
455D
  8
0
  0
POLYLINE
  5
3F28
  8
0
 66
     1
 10
0.0
 20
0.0
 30
0.0
 70
    64
 71
     4
 72
     2
  0
VERTEX
  5
3F29
  8
0
 10
9.000000000000002
 20
682.0
 30
-61.99999999999977
 70
   192
  0
VERTEX
  5
3F2A
  8
0
 10
-8.999999999999998
 20
682.0
 30
-61.99999999999977
 70
   192
  0
VERTEX
  5
3F2B
  8
0
 10
-9.0
 20
682.0
 30
61.00000000000023
 70
   192
  0
VERTEX
  5
3F2C
  8
0
 10
9.000000000000002
 20
682.0
 30
61.00000000000023
 70
   192
  0
VERTEX
  5
3F2D
  8
0
 10
0.0
 20
0.0
 30
0.0
 70
   128
 71
     3
 72
     4
 73
    -1
  0
VERTEX
  5
3F2E
  8
0
 10
0.0
 20
0.0
 30
0.0
 70
   128
 71
     2
 72
    -3
 73
     1
  0
SEQEND
  5
455E
  8
0
  0
ENDBLK
  5
4558
  8
0
  0
BLOCK
  8
0
  2
*X13
 70
     1
 10
0.0
 20
0.0
 30
0.0
  3
*X13
  1

  0
POLYLINE
  5
3F30
  8
0
 66
     1
 10
0.0
 20
0.0
 30
0.0
 70
    64
 71
     4
 72
     2
  0
VERTEX
  5
3F31
  8
0
 10
29.00000000000006
 20
682.0
 30
-61.99999999999996
 70
   192
  0
VERTEX
  5
3F32
  8
0
 10
29.00000000000006
 20
682.0
 30
-1.99999999999996
 70
   192
  0
VERTEX
  5
3F33
  8
0
 10
8.999999999999993
 20
682.0
 30
-1.99999999999996
 70
   192
  0
VERTEX
  5
3F34
  8
0
 10
8.99999999999999
 20
682.0
 30
-61.99999999999996
 70
   192
  0
VERTEX
  5
3F35
  8
0
 10
0.0
 20
0.0
 30
0.0
 70
   128
 71
     1
 72
     4
 73
    -3
  0
VERTEX
  5
3F36
  8
0
 10
0.0
 20
0.0
 30
0.0
 70
   128
 71
    -1
 72
     3
 73
     2
  0
SEQEND
  5
4561
  8
0
  0
POLYLINE
  5
3F37
  8
0
 66
     1
 10
0.0
 20
0.0
 30
0.0
 70
    64
 71
     4
 72
     2
  0
VERTEX
  5
3F38
  8
0
 10
8.999999999999993
 20
682.0
 30
-61.99999999999996
 70
   192
  0
VERTEX
  5
3F39
  8
0
 10
8.999999999999993
 20
682.0
 30
-1.99999999999996
 70
   192
  0
VERTEX
  5
3F3A
  8
0
 10
9.000000000000018
 20
647.0000000000006
 30
-1.99999999999995
 70
   192
  0
VERTEX
  5
3F3B
  8
0
 10
9.000000000000039
 20
622.0000000000001
 30
-61.99999999999996
 70
   192
  0
VERTEX
  5
3F3C
  8
0
 10
0.0
 20
0.0
 30
0.0
 70
   128
 71
     1
 72
     4
 73
    -3
  0
VERTEX
  5
3F3D
  8
0
 10
0.0
 20
0.0
 30
0.0
 70
   128
 71
    -1
 72
     3
 73
     2
  0
SEQEND
  5
4562
  8
0
  0
POLYLINE
  5
3F3E
  8
0
 66
     1
 10
0.0
 20
0.0
 30
0.0
 70
    64
 71
     4
 72
     2
  0
VERTEX
  5
3F3F
  8
0
 10
29.00000000000006
 20
682.0
 30
-1.99999999999996
 70
   192
  0
VERTEX
  5
3F40
  8
0
 10
29.00000000000006
 20
682.0
 30
-61.99999999999996
 70
   192
  0
VERTEX
  5
3F41
  8
0
 10
29.0
 20
622.0000000000001
 30
-61.99999999999997
 70
   192
  0
VERTEX
  5
3F42
  8
0
 10
29.00000000000002
 20
647.0000000000006
 30
-1.99999999999996
 70
   192
  0
VERTEX
  5
3F43
  8
0
 10
0.0
 20
0.0
 30
0.0
 70
   128
 71
     1
 72
     4
 73
    -3
  0
VERTEX
  5
3F44
  8
0
 10
0.0
 20
0.0
 30
0.0
 70
   128
 71
    -1
 72
     3
 73
     2
  0
SEQEND
  5
4563
  8
0
  0
POLYLINE
  5
3F45
  8
0
 66
     1
 10
0.0
 20
0.0
 30
0.0
 70
    64
 71
     4
 72
     2
  0
VERTEX
  5
3F46
  8
0
 10
9.0
 20
647.0000000000006
 30
-1.999999999999946
 70
   192
  0
VERTEX
  5
3F47
  8
0
 10
29.0
 20
647.0000000000006
 30
-1.999999999999946
 70
   192
  0
VERTEX
  5
3F48
  8
0
 10
29.00000000000006
 20
682.0
 30
-1.99999999999996
 70
   192
  0
VERTEX
  5
3F49
  8
0
 10
8.99999999999999
 20
682.0
 30
-1.99999999999996
 70
   192
  0
VERTEX
  5
3F4A
  8
0
 10
0.0
 20
0.0
 30
0.0
 70
   128
 71
     3
 72
     4
 73
    -1
  0
VERTEX
  5
3F4B
  8
0
 10
0.0
 20
0.0
 30
0.0
 70
   128
 71
     2
 72
    -3
 73
     1
  0
SEQEND
  5
4564
  8
0
  0
POLYLINE
  5
3F4C
  8
0
 66
     1
 10
0.0
 20
0.0
 30
0.0
 70
    64
 71
     4
 72
     2
  0
VERTEX
  5
3F4D
  8
0
 10
8.999999999999993
 20
682.0
 30
-61.99999999999996
 70
   192
  0
VERTEX
  5
3F4E
  8
0
 10
9.000000000000043
 20
622.0000000000001
 30
-61.99999999999996
 70
   192
  0
VERTEX
  5
3F4F
  8
0
 10
29.0
 20
622.0000000000001
 30
-61.99999999999996
 70
   192
  0
VERTEX
  5
3F50
  8
0
 10
29.00000000000006
 20
682.0
 30
-61.99999999999996
 70
   192
  0
VERTEX
  5
3F51
  8
0
 10
0.0
 20
0.0
 30
0.0
 70
   128
 71
     1
 72
     4
 73
    -3
  0
VERTEX
  5
3F52
  8
0
 10
0.0
 20
0.0
 30
0.0
 70
   128
 71
    -1
 72
     3
 73
     2
  0
SEQEND
  5
4565
  8
0
  0
POLYLINE
  5
3F53
  8
0
 66
     1
 10
0.0
 20
0.0
 30
0.0
 70
    64
 71
     4
 72
     2
  0
VERTEX
  5
3F54
  8
0
 10
9.000000000000037
 20
622.0000000000001
 30
-61.99999999999997
 70
   192
  0
VERTEX
  5
3F55
  8
0
 10
9.0
 20
647.0000000000006
 30
-1.999999999999946
 70
   192
  0
VERTEX
  5
3F56
  8
0
 10
29.00000000000002
 20
647.0000000000006
 30
-1.99999999999995
 70
   192
  0
VERTEX
  5
3F57
  8
0
 10
29.00000000000002
 20
622.0000000000001
 30
-61.99999999999996
 70
   192
  0
VERTEX
  5
3F58
  8
0
 10
0.0
 20
0.0
 30
0.0
 70
   128
 71
     1
 72
     4
 73
    -3
  0
VERTEX
  5
3F59
  8
0
 10
0.0
 20
0.0
 30
0.0
 70
   128
 71
    -1
 72
     3
 73
     2
  0
SEQEND
  5
4566
  8
0
  0
ENDBLK
  5
4560
  8
0
  0
BLOCK
  8
0
  2
*X14
 70
     1
 10
0.0
 20
0.0
 30
0.0
  3
*X14
  1

  0
POLYLINE
  5
3F5B
  8
0
 66
     1
 10
0.0
 20
0.0
 30
0.0
 70
    64
 71
     4
 72
     2
  0
VERTEX
  5
3F5C
  8
0
 10
1.999999999999886
 20
700.5
 30
77.9999999999999
 70
   192
  0
VERTEX
  5
3F5D
  8
0
 10
1.999999999999886
 20
700.5
 30
80.9999999999999
 70
   192
  0
VERTEX
  5
3F5E
  8
0
 10
1.999999999999886
 20
0.4999999999999449
 30
80.9999999999999
 70
   192
  0
VERTEX
  5
3F5F
  8
0
 10
1.999999999999886
 20
0.5
 30
77.9999999999999
 70
   192
  0
VERTEX
  5
3F60
  8
0
 10
0.0
 20
0.0
 30
0.0
 70
   128
 71
     1
 72
     4
 73
    -3
  0
VERTEX
  5
3F61
  8
0
 10
0.0
 20
0.0
 30
0.0
 70
   128
 71
    -1
 72
     3
 73
     2
  0
SEQEND
  5
4569
  8
0
  0
POLYLINE
  5
3F62
  8
0
 66
     1
 10
0.0
 20
0.0
 30
0.0
 70
    64
 71
     4
 72
     2
  0
VERTEX
  5
3F63
  8
0
 10
1.999999999999886
 20
0.4999999999999449
 30
77.9999999999999
 70
   192
  0
VERTEX
  5
3F64
  8
0
 10
1.999999999999886
 20
0.4999999999999449
 30
80.9999999999999
 70
   192
  0
VERTEX
  5
3F65
  8
0
 10
501.9999999999999
 20
0.4999999999999449
 30
80.9999999999999
 70
   192
  0
VERTEX
  5
3F66
  8
0
 10
501.9999999999999
 20
0.4999999999999449
 30
77.9999999999999
 70
   192
  0
VERTEX
  5
3F67
  8
0
 10
0.0
 20
0.0
 30
0.0
 70
   128
 71
     1
 72
     4
 73
    -3
  0
VERTEX
  5
3F68
  8
0
 10
0.0
 20
0.0
 30
0.0
 70
   128
 71
    -1
 72
     3
 73
     2
  0
SEQEND
  5
456A
  8
0
  0
POLYLINE
  5
3F69
  8
0
 66
     1
 10
0.0
 20
0.0
 30
0.0
 70
    64
 71
     4
 72
     2
  0
VERTEX
  5
3F6A
  8
0
 10
501.9999999999999
 20
0.4999999999999449
 30
77.9999999999999
 70
   192
  0
VERTEX
  5
3F6B
  8
0
 10
501.9999999999999
 20
0.4999999999999449
 30
80.9999999999999
 70
   192
  0
VERTEX
  5
3F6C
  8
0
 10
501.9999999999999
 20
700.5
 30
80.9999999999999
 70
   192
  0
VERTEX
  5
3F6D
  8
0
 10
501.9999999999999
 20
700.5
 30
77.9999999999999
 70
   192
  0
VERTEX
  5
3F6E
  8
0
 10
0.0
 20
0.0
 30
0.0
 70
   128
 71
     1
 72
     4
 73
    -3
  0
VERTEX
  5
3F6F
  8
0
 10
0.0
 20
0.0
 30
0.0
 70
   128
 71
    -1
 72
     3
 73
     2
  0
SEQEND
  5
456B
  8
0
  0
POLYLINE
  5
3F70
  8
0
 66
     1
 10
0.0
 20
0.0
 30
0.0
 70
    64
 71
     4
 72
     2
  0
VERTEX
  5
3F71
  8
0
 10
501.9999999999999
 20
700.5
 30
77.9999999999999
 70
   192
  0
VERTEX
  5
3F72
  8
0
 10
501.9999999999999
 20
700.5
 30
80.9999999999999
 70
   192
  0
VERTEX
  5
3F73
  8
0
 10
1.999999999999886
 20
700.5
 30
80.9999999999999
 70
   192
  0
VERTEX
  5
3F74
  8
0
 10
1.999999999999886
 20
700.5
 30
77.9999999999999
 70
   192
  0
VERTEX
  5
3F75
  8
0
 10
0.0
 20
0.0
 30
0.0
 70
   128
 71
     1
 72
     4
 73
    -3
  0
VERTEX
  5
3F76
  8
0
 10
0.0
 20
0.0
 30
0.0
 70
   128
 71
    -1
 72
     3
 73
     2
  0
SEQEND
  5
456C
  8
0
  0
POLYLINE
  5
3F77
  8
0
 66
     1
 10
0.0
 20
0.0
 30
0.0
 70
    64
 71
     4
 72
     2
  0
VERTEX
  5
3F78
  8
0
 10
1.999999999999886
 20
700.5
 30
80.9999999999999
 70
   192
  0
VERTEX
  5
3F79
  8
0
 10
1.999999999999886
 20
0.5
 30
80.9999999999999
 70
   192
  0
VERTEX
  5
3F7A
  8
0
 10
501.9999999999999
 20
0.4999999999999449
 30
80.9999999999999
 70
   192
  0
VERTEX
  5
3F7B
  8
0
 10
501.9999999999999
 20
700.5
 30
80.9999999999999
 70
   192
  0
VERTEX
  5
3F7C
  8
0
 10
0.0
 20
0.0
 30
0.0
 70
   128
 71
     3
 72
     4
 73
    -1
  0
VERTEX
  5
3F7D
  8
0
 10
0.0
 20
0.0
 30
0.0
 70
   128
 71
     2
 72
    -3
 73
     1
  0
SEQEND
  5
456D
  8
0
  0
POLYLINE
  5
3F7E
  8
0
 66
     1
 10
0.0
 20
0.0
 30
0.0
 70
    64
 71
     4
 72
     2
  0
VERTEX
  5
3F7F
  8
0
 10
1.999999999999886
 20
0.4999999999999449
 30
77.9999999999999
 70
   192
  0
VERTEX
  5
3F80
  8
0
 10
501.9999999999999
 20
0.4999999999999449
 30
77.9999999999999
 70
   192
  0
VERTEX
  5
3F81
  8
0
 10
501.9999999999999
 20
700.5
 30
77.9999999999999
 70
   192
  0
VERTEX
  5
3F82
  8
0
 10
1.999999999999886
 20
700.5
 30
77.9999999999999
 70
   192
  0
VERTEX
  5
3F83
  8
0
 10
0.0
 20
0.0
 30
0.0
 70
   128
 71
     1
 72
     4
 73
    -3
  0
VERTEX
  5
3F84
  8
0
 10
0.0
 20
0.0
 30
0.0
 70
   128
 71
    -1
 72
     3
 73
     2
  0
SEQEND
  5
456E
  8
0
  0
ENDBLK
  5
4568
  8
0
  0
BLOCK
  8
0
  2
*X15
 70
     1
 10
0.0
 20
0.0
 30
0.0
  3
*X15
  1

  0
POLYLINE
  5
3F86
  8
0
 66
     1
 10
0.0
 20
0.0
 30
0.0
 70
    64
 71
     8
 72
     8
  0
VERTEX
  5
3F87
  8
0
 10
1.999999999999886
 20
0.4999999999999449
 30
77.99999999999993
 70
   192
  0
VERTEX
  5
3F88
  8
0
 10
501.9999999999999
 20
0.4999999999999449
 30
77.99999999999987
 70
   192
  0
VERTEX
  5
3F89
  8
0
 10
501.9999999999999
 20
0.4999999999999449
 30
61.99999999999987
 70
   192
  0
VERTEX
  5
3F8A
  8
0
 10
1.999999999999886
 20
0.4999999999999449
 30
61.99999999999993
 70
   192
  0
VERTEX
  5
3F8B
  8
0
 10
6.999999999999886
 20
0.4999999999999449
 30
63.7499999999999
 70
   192
  0
VERTEX
  5
3F8C
  8
0
 10
56.99999999999989
 20
0.4999999999999449
 30
63.7499999999999
 70
   192
  0
VERTEX
  5
3F8D
  8
0
 10
56.99999999999989
 20
0.4999999999999449
 30
76.2499999999999
 70
   192
  0
VERTEX
  5
3F8E
  8
0
 10
6.999999999999886
 20
0.4999999999999449
 30
76.2499999999999
 70
   192
  0
VERTEX
  5
3F8F
  8
0
 10
0.0
 20
0.0
 30
0.0
 70
   128
 71
     6
 72
    -5
 73
    -4
  0
VERTEX
  5
3F90
  8
0
 10
0.0
 20
0.0
 30
0.0
 70
   128
 71
    -6
 72
     4
 73
    -3
  0
VERTEX
  5
3F91
  8
0
 10
0.0
 20
0.0
 30
0.0
 70
   128
 71
     3
 72
    -2
 73
    -7
  0
VERTEX
  5
3F92
  8
0
 10
0.0
 20
0.0
 30
0.0
 70
   128
 71
    -3
 72
     7
 73
    -6
  0
VERTEX
  5
3F93
  8
0
 10
0.0
 20
0.0
 30
0.0
 70
   128
 71
     2
 72
    -1
 73
    -7
  0
VERTEX
  5
3F94
  8
0
 10
0.0
 20
0.0
 30
0.0
 70
   128
 71
    -1
 72
     8
 73
    -7
  0
VERTEX
  5
3F95
  8
0
 10
0.0
 20
0.0
 30
0.0
 70
   128
 71
     1
 72
    -4
 73
    -5
  0
VERTEX
  5
3F96
  8
0
 10
0.0
 20
0.0
 30
0.0
 70
   128
 71
    -1
 72
     5
 73
    -8
  0
SEQEND
  5
4571
  8
0
  0
POLYLINE
  5
3F97
  8
0
 66
     1
 10
0.0
 20
0.0
 30
0.0
 70
    64
 71
     4
 72
     2
  0
VERTEX
  5
3F98
  8
0
 10
1.999999999999886
 20
0.5
 30
61.99999999999993
 70
   192
  0
VERTEX
  5
3F99
  8
0
 10
1.999999999999886
 20
700.5
 30
61.99999999999993
 70
   192
  0
VERTEX
  5
3F9A
  8
0
 10
1.999999999999886
 20
700.5
 30
77.99999999999993
 70
   192
  0
VERTEX
  5
3F9B
  8
0
 10
1.999999999999886
 20
0.4999999999999449
 30
77.99999999999993
 70
   192
  0
VERTEX
  5
3F9C
  8
0
 10
0.0
 20
0.0
 30
0.0
 70
   128
 71
     1
 72
     4
 73
    -3
  0
VERTEX
  5
3F9D
  8
0
 10
0.0
 20
0.0
 30
0.0
 70
   128
 71
    -1
 72
     3
 73
     2
  0
SEQEND
  5
4572
  8
0
  0
POLYLINE
  5
3F9E
  8
0
 66
     1
 10
0.0
 20
0.0
 30
0.0
 70
    64
 71
     4
 72
     2
  0
VERTEX
  5
3F9F
  8
0
 10
1.999999999999886
 20
0.5
 30
77.99999999999993
 70
   192
  0
VERTEX
  5
3FA0
  8
0
 10
1.999999999999886
 20
700.5
 30
77.99999999999993
 70
   192
  0
VERTEX
  5
3FA1
  8
0
 10
501.9999999999999
 20
700.5
 30
77.99999999999987
 70
   192
  0
VERTEX
  5
3FA2
  8
0
 10
501.9999999999999
 20
0.4999999999999449
 30
77.99999999999987
 70
   192
  0
VERTEX
  5
3FA3
  8
0
 10
0.0
 20
0.0
 30
0.0
 70
   128
 71
     1
 72
     4
 73
    -3
  0
VERTEX
  5
3FA4
  8
0
 10
0.0
 20
0.0
 30
0.0
 70
   128
 71
    -1
 72
     3
 73
     2
  0
SEQEND
  5
4573
  8
0
  0
POLYLINE
  5
3FA5
  8
0
 66
     1
 10
0.0
 20
0.0
 30
0.0
 70
    64
 71
     4
 72
     2
  0
VERTEX
  5
3FA6
  8
0
 10
501.9999999999999
 20
0.5
 30
77.99999999999987
 70
   192
  0
VERTEX
  5
3FA7
  8
0
 10
501.9999999999999
 20
700.5
 30
77.99999999999987
 70
   192
  0
VERTEX
  5
3FA8
  8
0
 10
501.9999999999999
 20
700.5
 30
61.99999999999987
 70
   192
  0
VERTEX
  5
3FA9
  8
0
 10
501.9999999999999
 20
0.4999999999999449
 30
61.99999999999987
 70
   192
  0
VERTEX
  5
3FAA
  8
0
 10
0.0
 20
0.0
 30
0.0
 70
   128
 71
     1
 72
     4
 73
    -3
  0
VERTEX
  5
3FAB
  8
0
 10
0.0
 20
0.0
 30
0.0
 70
   128
 71
    -1
 72
     3
 73
     2
  0
SEQEND
  5
4574
  8
0
  0
POLYLINE
  5
3FAC
  8
0
 66
     1
 10
0.0
 20
0.0
 30
0.0
 70
    64
 71
     4
 72
     2
  0
VERTEX
  5
3FAD
  8
0
 10
501.9999999999999
 20
0.5
 30
61.99999999999987
 70
   192
  0
VERTEX
  5
3FAE
  8
0
 10
501.9999999999999
 20
700.5
 30
61.99999999999987
 70
   192
  0
VERTEX
  5
3FAF
  8
0
 10
1.999999999999886
 20
700.5
 30
61.99999999999993
 70
   192
  0
VERTEX
  5
3FB0
  8
0
 10
1.999999999999886
 20
0.4999999999999449
 30
61.99999999999994
 70
   192
  0
VERTEX
  5
3FB1
  8
0
 10
0.0
 20
0.0
 30
0.0
 70
   128
 71
     1
 72
     4
 73
    -3
  0
VERTEX
  5
3FB2
  8
0
 10
0.0
 20
0.0
 30
0.0
 70
   128
 71
    -1
 72
     3
 73
     2
  0
SEQEND
  5
4575
  8
0
  0
POLYLINE
  5
3FB3
  8
0
 66
     1
 10
0.0
 20
0.0
 30
0.0
 70
    64
 71
     4
 72
     2
  0
VERTEX
  5
3FB4
  8
0
 10
1.999999999999886
 20
700.5
 30
61.99999999999993
 70
   192
  0
VERTEX
  5
3FB5
  8
0
 10
1.999999999999886
 20
700.5
 30
77.99999999999993
 70
   192
  0
VERTEX
  5
3FB6
  8
0
 10
501.9999999999999
 20
700.5
 30
77.99999999999987
 70
   192
  0
VERTEX
  5
3FB7
  8
0
 10
501.9999999999999
 20
700.5
 30
61.99999999999987
 70
   192
  0
VERTEX
  5
3FB8
  8
0
 10
0.0
 20
0.0
 30
0.0
 70
   128
 71
     3
 72
     4
 73
    -1
  0
VERTEX
  5
3FB9
  8
0
 10
0.0
 20
0.0
 30
0.0
 70
   128
 71
     2
 72
    -3
 73
     1
  0
SEQEND
  5
4576
  8
0
  0
POLYLINE
  5
3FBA
  8
0
 66
     1
 10
0.0
 20
0.0
 30
0.0
 70
    64
 71
     4
 72
     2
  0
VERTEX
  5
3FBB
  8
0
 10
6.999999999999886
 20
0.4999999999999449
 30
76.2499999999999
 70
   192
  0
VERTEX
  5
3FBC
  8
0
 10
6.999999999999886
 20
0.4999999999999449
 30
63.7499999999999
 70
   192
  0
VERTEX
  5
3FBD
  8
0
 10
8.316524975873849
 20
-9.500000000000055
 30
65.06652497587386
 70
   192
  0
VERTEX
  5
3FBE
  8
0
 10
8.316524975873847
 20
-9.500000000000055
 30
74.93347502412594
 70
   192
  0
VERTEX
  5
3FBF
  8
0
 10
0.0
 20
0.0
 30
0.0
 70
   128
 71
     3
 72
     4
 73
    -1
  0
VERTEX
  5
3FC0
  8
0
 10
0.0
 20
0.0
 30
0.0
 70
   128
 71
     2
 72
    -3
 73
     1
  0
SEQEND
  5
4577
  8
0
  0
POLYLINE
  5
3FC1
  8
0
 66
     1
 10
0.0
 20
0.0
 30
0.0
 70
    64
 71
     4
 72
     2
  0
VERTEX
  5
3FC2
  8
0
 10
6.999999999999886
 20
0.4999999999999449
 30
63.7499999999999
 70
   192
  0
VERTEX
  5
3FC3
  8
0
 10
56.99999999999989
 20
0.4999999999999449
 30
63.7499999999999
 70
   192
  0
VERTEX
  5
3FC4
  8
0
 10
55.68347502412592
 20
-9.500000000000055
 30
65.06652497587386
 70
   192
  0
VERTEX
  5
3FC5
  8
0
 10
8.316524975873847
 20
-9.500000000000055
 30
65.06652497587386
 70
   192
  0
VERTEX
  5
3FC6
  8
0
 10
0.0
 20
0.0
 30
0.0
 70
   128
 71
     3
 72
     4
 73
    -1
  0
VERTEX
  5
3FC7
  8
0
 10
0.0
 20
0.0
 30
0.0
 70
   128
 71
     2
 72
    -3
 73
     1
  0
SEQEND
  5
4578
  8
0
  0
POLYLINE
  5
3FC8
  8
0
 66
     1
 10
0.0
 20
0.0
 30
0.0
 70
    64
 71
     4
 72
     2
  0
VERTEX
  5
3FC9
  8
0
 10
56.99999999999989
 20
0.4999999999999449
 30
63.7499999999999
 70
   192
  0
VERTEX
  5
3FCA
  8
0
 10
56.99999999999989
 20
0.4999999999999449
 30
76.2499999999999
 70
   192
  0
VERTEX
  5
3FCB
  8
0
 10
55.68347502412592
 20
-9.500000000000055
 30
74.93347502412594
 70
   192
  0
VERTEX
  5
3FCC
  8
0
 10
55.68347502412593
 20
-9.500000000000055
 30
65.06652497587386
 70
   192
  0
VERTEX
  5
3FCD
  8
0
 10
0.0
 20
0.0
 30
0.0
 70
   128
 71
     3
 72
     4
 73
    -1
  0
VERTEX
  5
3FCE
  8
0
 10
0.0
 20
0.0
 30
0.0
 70
   128
 71
     2
 72
    -3
 73
     1
  0
SEQEND
  5
4579
  8
0
  0
POLYLINE
  5
3FCF
  8
0
 66
     1
 10
0.0
 20
0.0
 30
0.0
 70
    64
 71
     4
 72
     2
  0
VERTEX
  5
3FD0
  8
0
 10
56.99999999999989
 20
0.4999999999999449
 30
76.2499999999999
 70
   192
  0
VERTEX
  5
3FD1
  8
0
 10
6.999999999999886
 20
0.4999999999999449
 30
76.2499999999999
 70
   192
  0
VERTEX
  5
3FD2
  8
0
 10
8.316524975873849
 20
-9.500000000000055
 30
74.93347502412594
 70
   192
  0
VERTEX
  5
3FD3
  8
0
 10
55.68347502412593
 20
-9.500000000000055
 30
74.93347502412594
 70
   192
  0
VERTEX
  5
3FD4
  8
0
 10
0.0
 20
0.0
 30
0.0
 70
   128
 71
     3
 72
     4
 73
    -1
  0
VERTEX
  5
3FD5
  8
0
 10
0.0
 20
0.0
 30
0.0
 70
   128
 71
     2
 72
    -3
 73
     1
  0
SEQEND
  5
457A
  8
0
  0
POLYLINE
  5
3FD6
  8
0
 66
     1
 10
0.0
 20
0.0
 30
0.0
 70
    64
 71
     4
 72
     2
  0
VERTEX
  5
3FD7
  8
0
 10
8.316524975873847
 20
-9.500000000000055
 30
74.93347502412594
 70
   192
  0
VERTEX
  5
3FD8
  8
0
 10
8.316524975873847
 20
-9.500000000000055
 30
65.06652497587386
 70
   192
  0
VERTEX
  5
3FD9
  8
0
 10
55.68347502412593
 20
-9.500000000000055
 30
65.06652497587386
 70
   192
  0
VERTEX
  5
3FDA
  8
0
 10
55.68347502412593
 20
-9.500000000000055
 30
74.93347502412594
 70
   192
  0
VERTEX
  5
3FDB
  8
0
 10
0.0
 20
0.0
 30
0.0
 70
   128
 71
     3
 72
     4
 73
    -1
  0
VERTEX
  5
3FDC
  8
0
 10
0.0
 20
0.0
 30
0.0
 70
   128
 71
     2
 72
    -3
 73
     1
  0
SEQEND
  5
457B
  8
0
  0
ENDBLK
  5
4570
  8
0
  0
BLOCK
  8
0
  2
*X16
 70
     1
 10
0.0
 20
0.0
 30
0.0
  3
*X16
  1

  0
POLYLINE
  5
3FDE
  8
0
 66
     1
 10
0.0
 20
0.0
 30
0.0
 70
    64
 71
     4
 72
     2
  0
VERTEX
  5
3FDF
  8
0
 10
-2.000000000000114
 20
0.4999999999999449
 30
77.9999999999999
 70
   192
  0
VERTEX
  5
3FE0
  8
0
 10
-2.000000000000114
 20
0.5
 30
80.9999999999999
 70
   192
  0
VERTEX
  5
3FE1
  8
0
 10
-2.000000000000114
 20
700.5
 30
80.9999999999999
 70
   192
  0
VERTEX
  5
3FE2
  8
0
 10
-2.000000000000114
 20
700.5
 30
77.9999999999999
 70
   192
  0
VERTEX
  5
3FE3
  8
0
 10
0.0
 20
0.0
 30
0.0
 70
   128
 71
     1
 72
     4
 73
    -3
  0
VERTEX
  5
3FE4
  8
0
 10
0.0
 20
0.0
 30
0.0
 70
   128
 71
    -1
 72
     3
 73
     2
  0
SEQEND
  5
457E
  8
0
  0
POLYLINE
  5
3FE5
  8
0
 66
     1
 10
0.0
 20
0.0
 30
0.0
 70
    64
 71
     4
 72
     2
  0
VERTEX
  5
3FE6
  8
0
 10
-502.0000000000001
 20
0.4999999999999449
 30
77.9999999999999
 70
   192
  0
VERTEX
  5
3FE7
  8
0
 10
-502.0000000000001
 20
0.4999999999999449
 30
80.9999999999999
 70
   192
  0
VERTEX
  5
3FE8
  8
0
 10
-2.000000000000114
 20
0.4999999999999449
 30
80.9999999999999
 70
   192
  0
VERTEX
  5
3FE9
  8
0
 10
-2.000000000000114
 20
0.4999999999999449
 30
77.9999999999999
 70
   192
  0
VERTEX
  5
3FEA
  8
0
 10
0.0
 20
0.0
 30
0.0
 70
   128
 71
     1
 72
     4
 73
    -3
  0
VERTEX
  5
3FEB
  8
0
 10
0.0
 20
0.0
 30
0.0
 70
   128
 71
    -1
 72
     3
 73
     2
  0
SEQEND
  5
457F
  8
0
  0
POLYLINE
  5
3FEC
  8
0
 66
     1
 10
0.0
 20
0.0
 30
0.0
 70
    64
 71
     4
 72
     2
  0
VERTEX
  5
3FED
  8
0
 10
-502.0000000000001
 20
700.5
 30
77.9999999999999
 70
   192
  0
VERTEX
  5
3FEE
  8
0
 10
-502.0000000000001
 20
700.5
 30
80.9999999999999
 70
   192
  0
VERTEX
  5
3FEF
  8
0
 10
-502.0000000000001
 20
0.4999999999999449
 30
80.9999999999999
 70
   192
  0
VERTEX
  5
3FF0
  8
0
 10
-502.0000000000001
 20
0.4999999999999449
 30
77.9999999999999
 70
   192
  0
VERTEX
  5
3FF1
  8
0
 10
0.0
 20
0.0
 30
0.0
 70
   128
 71
     1
 72
     4
 73
    -3
  0
VERTEX
  5
3FF2
  8
0
 10
0.0
 20
0.0
 30
0.0
 70
   128
 71
    -1
 72
     3
 73
     2
  0
SEQEND
  5
4580
  8
0
  0
POLYLINE
  5
3FF3
  8
0
 66
     1
 10
0.0
 20
0.0
 30
0.0
 70
    64
 71
     4
 72
     2
  0
VERTEX
  5
3FF4
  8
0
 10
-2.000000000000114
 20
700.5
 30
77.9999999999999
 70
   192
  0
VERTEX
  5
3FF5
  8
0
 10
-2.000000000000114
 20
700.5
 30
80.9999999999999
 70
   192
  0
VERTEX
  5
3FF6
  8
0
 10
-502.0000000000001
 20
700.5
 30
80.9999999999999
 70
   192
  0
VERTEX
  5
3FF7
  8
0
 10
-502.0000000000001
 20
700.5
 30
77.9999999999999
 70
   192
  0
VERTEX
  5
3FF8
  8
0
 10
0.0
 20
0.0
 30
0.0
 70
   128
 71
     1
 72
     4
 73
    -3
  0
VERTEX
  5
3FF9
  8
0
 10
0.0
 20
0.0
 30
0.0
 70
   128
 71
    -1
 72
     3
 73
     2
  0
SEQEND
  5
4581
  8
0
  0
POLYLINE
  5
3FFA
  8
0
 66
     1
 10
0.0
 20
0.0
 30
0.0
 70
    64
 71
     4
 72
     2
  0
VERTEX
  5
3FFB
  8
0
 10
-2.000000000000114
 20
0.5
 30
80.9999999999999
 70
   192
  0
VERTEX
  5
3FFC
  8
0
 10
-2.000000000000114
 20
700.5
 30
80.9999999999999
 70
   192
  0
VERTEX
  5
3FFD
  8
0
 10
-502.0000000000001
 20
700.5
 30
80.9999999999999
 70
   192
  0
VERTEX
  5
3FFE
  8
0
 10
-502.0000000000001
 20
0.4999999999999449
 30
80.9999999999999
 70
   192
  0
VERTEX
  5
3FFF
  8
0
 10
0.0
 20
0.0
 30
0.0
 70
   128
 71
     3
 72
     4
 73
    -1
  0
VERTEX
  5
4000
  8
0
 10
0.0
 20
0.0
 30
0.0
 70
   128
 71
     2
 72
    -3
 73
     1
  0
SEQEND
  5
4582
  8
0
  0
POLYLINE
  5
4001
  8
0
 66
     1
 10
0.0
 20
0.0
 30
0.0
 70
    64
 71
     4
 72
     2
  0
VERTEX
  5
4002
  8
0
 10
-2.000000000000114
 20
700.5
 30
77.9999999999999
 70
   192
  0
VERTEX
  5
4003
  8
0
 10
-502.0000000000001
 20
700.5
 30
77.9999999999999
 70
   192
  0
VERTEX
  5
4004
  8
0
 10
-502.0000000000001
 20
0.4999999999999449
 30
77.9999999999999
 70
   192
  0
VERTEX
  5
4005
  8
0
 10
-2.000000000000114
 20
0.5
 30
77.9999999999999
 70
   192
  0
VERTEX
  5
4006
  8
0
 10
0.0
 20
0.0
 30
0.0
 70
   128
 71
     1
 72
     4
 73
    -3
  0
VERTEX
  5
4007
  8
0
 10
0.0
 20
0.0
 30
0.0
 70
   128
 71
    -1
 72
     3
 73
     2
  0
SEQEND
  5
4583
  8
0
  0
ENDBLK
  5
457D
  8
0
  0
BLOCK
  8
0
  2
*X17
 70
     1
 10
0.0
 20
0.0
 30
0.0
  3
*X17
  1

  0
POLYLINE
  5
4009
  8
0
 66
     1
 10
0.0
 20
0.0
 30
0.0
 70
    64
 71
     8
 72
     8
  0
VERTEX
  5
400A
  8
0
 10
-2.000000000000114
 20
0.4999999999999449
 30
61.99999999999994
 70
   192
  0
VERTEX
  5
400B
  8
0
 10
-502.0000000000001
 20
0.4999999999999449
 30
61.99999999999987
 70
   192
  0
VERTEX
  5
400C
  8
0
 10
-502.0000000000001
 20
0.4999999999999449
 30
77.99999999999987
 70
   192
  0
VERTEX
  5
400D
  8
0
 10
-2.000000000000114
 20
0.4999999999999449
 30
77.99999999999993
 70
   192
  0
VERTEX
  5
400E
  8
0
 10
-7.000000000000114
 20
0.4999999999999449
 30
76.2499999999999
 70
   192
  0
VERTEX
  5
400F
  8
0
 10
-57.00000000000011
 20
0.4999999999999449
 30
76.2499999999999
 70
   192
  0
VERTEX
  5
4010
  8
0
 10
-57.00000000000011
 20
0.4999999999999449
 30
63.7499999999999
 70
   192
  0
VERTEX
  5
4011
  8
0
 10
-7.000000000000114
 20
0.4999999999999449
 30
63.7499999999999
 70
   192
  0
VERTEX
  5
4012
  8
0
 10
0.0
 20
0.0
 30
0.0
 70
   128
 71
     6
 72
    -5
 73
    -4
  0
VERTEX
  5
4013
  8
0
 10
0.0
 20
0.0
 30
0.0
 70
   128
 71
    -6
 72
     4
 73
    -3
  0
VERTEX
  5
4014
  8
0
 10
0.0
 20
0.0
 30
0.0
 70
   128
 71
     3
 72
    -2
 73
    -7
  0
VERTEX
  5
4015
  8
0
 10
0.0
 20
0.0
 30
0.0
 70
   128
 71
    -3
 72
     7
 73
    -6
  0
VERTEX
  5
4016
  8
0
 10
0.0
 20
0.0
 30
0.0
 70
   128
 71
     2
 72
    -1
 73
    -7
  0
VERTEX
  5
4017
  8
0
 10
0.0
 20
0.0
 30
0.0
 70
   128
 71
    -1
 72
     8
 73
    -7
  0
VERTEX
  5
4018
  8
0
 10
0.0
 20
0.0
 30
0.0
 70
   128
 71
     1
 72
    -4
 73
    -5
  0
VERTEX
  5
4019
  8
0
 10
0.0
 20
0.0
 30
0.0
 70
   128
 71
    -1
 72
     5
 73
    -8
  0
SEQEND
  5
4586
  8
0
  0
POLYLINE
  5
401A
  8
0
 66
     1
 10
0.0
 20
0.0
 30
0.0
 70
    64
 71
     4
 72
     2
  0
VERTEX
  5
401B
  8
0
 10
-2.000000000000114
 20
0.5
 30
77.99999999999993
 70
   192
  0
VERTEX
  5
401C
  8
0
 10
-2.000000000000114
 20
700.5
 30
77.99999999999993
 70
   192
  0
VERTEX
  5
401D
  8
0
 10
-2.000000000000114
 20
700.5
 30
61.99999999999993
 70
   192
  0
VERTEX
  5
401E
  8
0
 10
-2.000000000000114
 20
0.4999999999999449
 30
61.99999999999993
 70
   192
  0
VERTEX
  5
401F
  8
0
 10
0.0
 20
0.0
 30
0.0
 70
   128
 71
     1
 72
     4
 73
    -3
  0
VERTEX
  5
4020
  8
0
 10
0.0
 20
0.0
 30
0.0
 70
   128
 71
    -1
 72
     3
 73
     2
  0
SEQEND
  5
4587
  8
0
  0
POLYLINE
  5
4021
  8
0
 66
     1
 10
0.0
 20
0.0
 30
0.0
 70
    64
 71
     4
 72
     2
  0
VERTEX
  5
4022
  8
0
 10
-502.0000000000001
 20
0.5
 30
77.99999999999987
 70
   192
  0
VERTEX
  5
4023
  8
0
 10
-502.0000000000001
 20
700.5
 30
77.99999999999987
 70
   192
  0
VERTEX
  5
4024
  8
0
 10
-2.000000000000114
 20
700.5
 30
77.99999999999993
 70
   192
  0
VERTEX
  5
4025
  8
0
 10
-2.000000000000114
 20
0.4999999999999449
 30
77.99999999999993
 70
   192
  0
VERTEX
  5
4026
  8
0
 10
0.0
 20
0.0
 30
0.0
 70
   128
 71
     1
 72
     4
 73
    -3
  0
VERTEX
  5
4027
  8
0
 10
0.0
 20
0.0
 30
0.0
 70
   128
 71
    -1
 72
     3
 73
     2
  0
SEQEND
  5
4588
  8
0
  0
POLYLINE
  5
4028
  8
0
 66
     1
 10
0.0
 20
0.0
 30
0.0
 70
    64
 71
     4
 72
     2
  0
VERTEX
  5
4029
  8
0
 10
-502.0000000000001
 20
0.5
 30
61.99999999999987
 70
   192
  0
VERTEX
  5
402A
  8
0
 10
-502.0000000000001
 20
700.5
 30
61.99999999999987
 70
   192
  0
VERTEX
  5
402B
  8
0
 10
-502.0000000000001
 20
700.5
 30
77.99999999999987
 70
   192
  0
VERTEX
  5
402C
  8
0
 10
-502.0000000000001
 20
0.4999999999999449
 30
77.99999999999987
 70
   192
  0
VERTEX
  5
402D
  8
0
 10
0.0
 20
0.0
 30
0.0
 70
   128
 71
     1
 72
     4
 73
    -3
  0
VERTEX
  5
402E
  8
0
 10
0.0
 20
0.0
 30
0.0
 70
   128
 71
    -1
 72
     3
 73
     2
  0
SEQEND
  5
4589
  8
0
  0
POLYLINE
  5
402F
  8
0
 66
     1
 10
0.0
 20
0.0
 30
0.0
 70
    64
 71
     4
 72
     2
  0
VERTEX
  5
4030
  8
0
 10
-2.000000000000114
 20
0.5
 30
61.99999999999993
 70
   192
  0
VERTEX
  5
4031
  8
0
 10
-2.000000000000114
 20
700.5
 30
61.99999999999994
 70
   192
  0
VERTEX
  5
4032
  8
0
 10
-502.0000000000001
 20
700.5
 30
61.99999999999987
 70
   192
  0
VERTEX
  5
4033
  8
0
 10
-502.0000000000001
 20
0.4999999999999449
 30
61.99999999999987
 70
   192
  0
VERTEX
  5
4034
  8
0
 10
0.0
 20
0.0
 30
0.0
 70
   128
 71
     1
 72
     4
 73
    -3
  0
VERTEX
  5
4035
  8
0
 10
0.0
 20
0.0
 30
0.0
 70
   128
 71
    -1
 72
     3
 73
     2
  0
SEQEND
  5
458A
  8
0
  0
POLYLINE
  5
4036
  8
0
 66
     1
 10
0.0
 20
0.0
 30
0.0
 70
    64
 71
     4
 72
     2
  0
VERTEX
  5
4037
  8
0
 10
-2.000000000000114
 20
700.5
 30
77.99999999999993
 70
   192
  0
VERTEX
  5
4038
  8
0
 10
-2.000000000000114
 20
700.5
 30
61.99999999999993
 70
   192
  0
VERTEX
  5
4039
  8
0
 10
-502.0000000000001
 20
700.5
 30
61.99999999999987
 70
   192
  0
VERTEX
  5
403A
  8
0
 10
-502.0000000000001
 20
700.5
 30
77.99999999999987
 70
   192
  0
VERTEX
  5
403B
  8
0
 10
0.0
 20
0.0
 30
0.0
 70
   128
 71
     3
 72
     4
 73
    -1
  0
VERTEX
  5
403C
  8
0
 10
0.0
 20
0.0
 30
0.0
 70
   128
 71
     2
 72
    -3
 73
     1
  0
SEQEND
  5
458B
  8
0
  0
POLYLINE
  5
403D
  8
0
 66
     1
 10
0.0
 20
0.0
 30
0.0
 70
    64
 71
     4
 72
     2
  0
VERTEX
  5
403E
  8
0
 10
-7.000000000000114
 20
0.4999999999999449
 30
63.7499999999999
 70
   192
  0
VERTEX
  5
403F
  8
0
 10
-7.000000000000114
 20
0.4999999999999449
 30
76.2499999999999
 70
   192
  0
VERTEX
  5
4040
  8
0
 10
-8.316524975874074
 20
-9.500000000000046
 30
74.93347502412594
 70
   192
  0
VERTEX
  5
4041
  8
0
 10
-8.316524975874017
 20
-9.500000000000055
 30
65.06652497587386
 70
   192
  0
VERTEX
  5
4042
  8
0
 10
0.0
 20
0.0
 30
0.0
 70
   128
 71
     3
 72
     4
 73
    -1
  0
VERTEX
  5
4043
  8
0
 10
0.0
 20
0.0
 30
0.0
 70
   128
 71
     2
 72
    -3
 73
     1
  0
SEQEND
  5
458C
  8
0
  0
POLYLINE
  5
4044
  8
0
 66
     1
 10
0.0
 20
0.0
 30
0.0
 70
    64
 71
     4
 72
     2
  0
VERTEX
  5
4045
  8
0
 10
-57.00000000000011
 20
0.4999999999999449
 30
63.7499999999999
 70
   192
  0
VERTEX
  5
4046
  8
0
 10
-7.000000000000114
 20
0.4999999999999449
 30
63.7499999999999
 70
   192
  0
VERTEX
  5
4047
  8
0
 10
-8.316524975874074
 20
-9.500000000000046
 30
65.06652497587386
 70
   192
  0
VERTEX
  5
4048
  8
0
 10
-55.68347502412615
 20
-9.500000000000055
 30
65.06652497587386
 70
   192
  0
VERTEX
  5
4049
  8
0
 10
0.0
 20
0.0
 30
0.0
 70
   128
 71
     3
 72
     4
 73
    -1
  0
VERTEX
  5
404A
  8
0
 10
0.0
 20
0.0
 30
0.0
 70
   128
 71
     2
 72
    -3
 73
     1
  0
SEQEND
  5
458D
  8
0
  0
POLYLINE
  5
404B
  8
0
 66
     1
 10
0.0
 20
0.0
 30
0.0
 70
    64
 71
     4
 72
     2
  0
VERTEX
  5
404C
  8
0
 10
-57.00000000000011
 20
0.4999999999999449
 30
76.2499999999999
 70
   192
  0
VERTEX
  5
404D
  8
0
 10
-57.00000000000011
 20
0.4999999999999449
 30
63.7499999999999
 70
   192
  0
VERTEX
  5
404E
  8
0
 10
-55.68347502412617
 20
-9.500000000000059
 30
65.06652497587386
 70
   192
  0
VERTEX
  5
404F
  8
0
 10
-55.68347502412615
 20
-9.500000000000055
 30
74.93347502412594
 70
   192
  0
VERTEX
  5
4050
  8
0
 10
0.0
 20
0.0
 30
0.0
 70
   128
 71
     3
 72
     4
 73
    -1
  0
VERTEX
  5
4051
  8
0
 10
0.0
 20
0.0
 30
0.0
 70
   128
 71
     2
 72
    -3
 73
     1
  0
SEQEND
  5
458E
  8
0
  0
POLYLINE
  5
4052
  8
0
 66
     1
 10
0.0
 20
0.0
 30
0.0
 70
    64
 71
     4
 72
     2
  0
VERTEX
  5
4053
  8
0
 10
-7.000000000000114
 20
0.4999999999999449
 30
76.2499999999999
 70
   192
  0
VERTEX
  5
4054
  8
0
 10
-57.00000000000011
 20
0.4999999999999449
 30
76.2499999999999
 70
   192
  0
VERTEX
  5
4055
  8
0
 10
-55.68347502412617
 20
-9.500000000000059
 30
74.93347502412594
 70
   192
  0
VERTEX
  5
4056
  8
0
 10
-8.316524975874017
 20
-9.500000000000055
 30
74.93347502412594
 70
   192
  0
VERTEX
  5
4057
  8
0
 10
0.0
 20
0.0
 30
0.0
 70
   128
 71
     3
 72
     4
 73
    -1
  0
VERTEX
  5
4058
  8
0
 10
0.0
 20
0.0
 30
0.0
 70
   128
 71
     2
 72
    -3
 73
     1
  0
SEQEND
  5
458F
  8
0
  0
POLYLINE
  5
4059
  8
0
 66
     1
 10
0.0
 20
0.0
 30
0.0
 70
    64
 71
     4
 72
     2
  0
VERTEX
  5
405A
  8
0
 10
-8.316524975874017
 20
-9.500000000000055
 30
65.06652497587386
 70
   192
  0
VERTEX
  5
405B
  8
0
 10
-8.316524975874017
 20
-9.500000000000055
 30
74.93347502412594
 70
   192
  0
VERTEX
  5
405C
  8
0
 10
-55.68347502412615
 20
-9.500000000000055
 30
74.93347502412594
 70
   192
  0
VERTEX
  5
405D
  8
0
 10
-55.68347502412615
 20
-9.500000000000055
 30
65.06652497587386
 70
   192
  0
VERTEX
  5
405E
  8
0
 10
0.0
 20
0.0
 30
0.0
 70
   128
 71
     3
 72
     4
 73
    -1
  0
VERTEX
  5
405F
  8
0
 10
0.0
 20
0.0
 30
0.0
 70
   128
 71
     2
 72
    -3
 73
     1
  0
SEQEND
  5
4590
  8
0
  0
ENDBLK
  5
4585
  8
0
  0
BLOCK
  8
0
  2
*X18
 70
     1
 10
0.0
 20
0.0
 30
0.0
  3
*X18
  1

  0
POLYLINE
  5
4061
  8
0
 66
     1
 10
0.0
 20
0.0
 30
0.0
 70
    64
 71
     4
 72
     2
  0
VERTEX
  5
4062
  8
0
 10
9.999999999999972
 20
527.9999999999999
 30
-62.00000000000008
 70
   192
  0
VERTEX
  5
4063
  8
0
 10
9.999999999999972
 20
532.9999999999999
 30
-62.00000000000008
 70
   192
  0
VERTEX
  5
4064
  8
0
 10
9.999999999999972
 20
532.9999999999999
 30
57.99999999999992
 70
   192
  0
VERTEX
  5
4065
  8
0
 10
9.999999999999972
 20
527.9999999999999
 30
57.99999999999992
 70
   192
  0
VERTEX
  5
4066
  8
0
 10
0.0
 20
0.0
 30
0.0
 70
   128
 71
     1
 72
     4
 73
    -3
  0
VERTEX
  5
4067
  8
0
 10
0.0
 20
0.0
 30
0.0
 70
   128
 71
    -1
 72
     3
 73
     2
  0
SEQEND
  5
4593
  8
0
  0
POLYLINE
  5
4068
  8
0
 66
     1
 10
0.0
 20
0.0
 30
0.0
 70
    64
 71
     4
 72
     2
  0
VERTEX
  5
4069
  8
0
 10
9.999999999999972
 20
527.9999999999999
 30
57.99999999999992
 70
   192
  0
VERTEX
  5
406A
  8
0
 10
9.999999999999943
 20
532.9999999999999
 30
57.99999999999992
 70
   192
  0
VERTEX
  5
406B
  8
0
 10
483.9999999999999
 20
532.9999999999999
 30
57.99999999999986
 70
   192
  0
VERTEX
  5
406C
  8
0
 10
483.9999999999999
 20
527.9999999999999
 30
57.99999999999986
 70
   192
  0
VERTEX
  5
406D
  8
0
 10
0.0
 20
0.0
 30
0.0
 70
   128
 71
     1
 72
     4
 73
    -3
  0
VERTEX
  5
406E
  8
0
 10
0.0
 20
0.0
 30
0.0
 70
   128
 71
    -1
 72
     3
 73
     2
  0
SEQEND
  5
4594
  8
0
  0
POLYLINE
  5
406F
  8
0
 66
     1
 10
0.0
 20
0.0
 30
0.0
 70
    64
 71
     4
 72
     2
  0
VERTEX
  5
4070
  8
0
 10
483.9999999999999
 20
527.9999999999999
 30
57.99999999999986
 70
   192
  0
VERTEX
  5
4071
  8
0
 10
483.9999999999999
 20
532.9999999999999
 30
57.99999999999986
 70
   192
  0
VERTEX
  5
4072
  8
0
 10
484.0
 20
532.9999999999999
 30
-62.00000000000014
 70
   192
  0
VERTEX
  5
4073
  8
0
 10
483.9999999999999
 20
527.9999999999999
 30
-62.00000000000014
 70
   192
  0
VERTEX
  5
4074
  8
0
 10
0.0
 20
0.0
 30
0.0
 70
   128
 71
     1
 72
     4
 73
    -3
  0
VERTEX
  5
4075
  8
0
 10
0.0
 20
0.0
 30
0.0
 70
   128
 71
    -1
 72
     3
 73
     2
  0
SEQEND
  5
4595
  8
0
  0
POLYLINE
  5
4076
  8
0
 66
     1
 10
0.0
 20
0.0
 30
0.0
 70
    64
 71
     4
 72
     2
  0
VERTEX
  5
4077
  8
0
 10
484.0
 20
527.9999999999999
 30
-62.00000000000014
 70
   192
  0
VERTEX
  5
4078
  8
0
 10
484.0
 20
532.9999999999999
 30
-62.00000000000014
 70
   192
  0
VERTEX
  5
4079
  8
0
 10
9.999999999999972
 20
532.9999999999999
 30
-62.00000000000008
 70
   192
  0
VERTEX
  5
407A
  8
0
 10
10.0
 20
527.9999999999999
 30
-62.00000000000008
 70
   192
  0
VERTEX
  5
407B
  8
0
 10
0.0
 20
0.0
 30
0.0
 70
   128
 71
     1
 72
     4
 73
    -3
  0
VERTEX
  5
407C
  8
0
 10
0.0
 20
0.0
 30
0.0
 70
   128
 71
    -1
 72
     3
 73
     2
  0
SEQEND
  5
4596
  8
0
  0
POLYLINE
  5
407D
  8
0
 66
     1
 10
0.0
 20
0.0
 30
0.0
 70
    64
 71
     4
 72
     2
  0
VERTEX
  5
407E
  8
0
 10
9.999999999999972
 20
532.9999999999999
 30
-62.00000000000008
 70
   192
  0
VERTEX
  5
407F
  8
0
 10
9.999999999999972
 20
532.9999999999999
 30
57.99999999999992
 70
   192
  0
VERTEX
  5
4080
  8
0
 10
483.9999999999999
 20
532.9999999999999
 30
57.99999999999986
 70
   192
  0
VERTEX
  5
4081
  8
0
 10
483.9999999999999
 20
532.9999999999999
 30
-62.00000000000014
 70
   192
  0
VERTEX
  5
4082
  8
0
 10
0.0
 20
0.0
 30
0.0
 70
   128
 71
     3
 72
     4
 73
    -1
  0
VERTEX
  5
4083
  8
0
 10
0.0
 20
0.0
 30
0.0
 70
   128
 71
     2
 72
    -3
 73
     1
  0
SEQEND
  5
4597
  8
0
  0
POLYLINE
  5
4084
  8
0
 66
     1
 10
0.0
 20
0.0
 30
0.0
 70
    64
 71
     4
 72
     2
  0
VERTEX
  5
4085
  8
0
 10
9.999999999999943
 20
527.9999999999999
 30
57.99999999999992
 70
   192
  0
VERTEX
  5
4086
  8
0
 10
483.9999999999999
 20
527.9999999999999
 30
57.99999999999986
 70
   192
  0
VERTEX
  5
4087
  8
0
 10
484.0
 20
527.9999999999999
 30
-62.00000000000014
 70
   192
  0
VERTEX
  5
4088
  8
0
 10
9.999999999999972
 20
527.9999999999999
 30
-62.00000000000008
 70
   192
  0
VERTEX
  5
4089
  8
0
 10
0.0
 20
0.0
 30
0.0
 70
   128
 71
     1
 72
     4
 73
    -3
  0
VERTEX
  5
408A
  8
0
 10
0.0
 20
0.0
 30
0.0
 70
   128
 71
    -1
 72
     3
 73
     2
  0
SEQEND
  5
4598
  8
0
  0
ENDBLK
  5
4592
  8
0
  0
BLOCK
  8
0
  2
*X19
 70
     1
 10
0.0
 20
0.0
 30
0.0
  3
*X19
  1

  0
POLYLINE
  5
408C
  8
0
 66
     1
 10
0.0
 20
0.0
 30
0.0
 70
    64
 71
     4
 72
     2
  0
VERTEX
  5
408D
  8
0
 10
9.999999999999972
 20
345.4999999999999
 30
-62.00000000000008
 70
   192
  0
VERTEX
  5
408E
  8
0
 10
9.999999999999972
 20
350.4999999999999
 30
-62.00000000000008
 70
   192
  0
VERTEX
  5
408F
  8
0
 10
9.999999999999972
 20
350.4999999999999
 30
57.99999999999992
 70
   192
  0
VERTEX
  5
4090
  8
0
 10
9.999999999999972
 20
345.4999999999999
 30
57.99999999999992
 70
   192
  0
VERTEX
  5
4091
  8
0
 10
0.0
 20
0.0
 30
0.0
 70
   128
 71
     1
 72
     4
 73
    -3
  0
VERTEX
  5
4092
  8
0
 10
0.0
 20
0.0
 30
0.0
 70
   128
 71
    -1
 72
     3
 73
     2
  0
SEQEND
  5
459B
  8
0
  0
POLYLINE
  5
4093
  8
0
 66
     1
 10
0.0
 20
0.0
 30
0.0
 70
    64
 71
     4
 72
     2
  0
VERTEX
  5
4094
  8
0
 10
9.999999999999972
 20
345.4999999999999
 30
57.99999999999992
 70
   192
  0
VERTEX
  5
4095
  8
0
 10
9.999999999999943
 20
350.4999999999999
 30
57.99999999999992
 70
   192
  0
VERTEX
  5
4096
  8
0
 10
483.9999999999999
 20
350.4999999999999
 30
57.99999999999986
 70
   192
  0
VERTEX
  5
4097
  8
0
 10
483.9999999999999
 20
345.4999999999999
 30
57.99999999999986
 70
   192
  0
VERTEX
  5
4098
  8
0
 10
0.0
 20
0.0
 30
0.0
 70
   128
 71
     1
 72
     4
 73
    -3
  0
VERTEX
  5
4099
  8
0
 10
0.0
 20
0.0
 30
0.0
 70
   128
 71
    -1
 72
     3
 73
     2
  0
SEQEND
  5
459C
  8
0
  0
POLYLINE
  5
409A
  8
0
 66
     1
 10
0.0
 20
0.0
 30
0.0
 70
    64
 71
     4
 72
     2
  0
VERTEX
  5
409B
  8
0
 10
483.9999999999999
 20
345.4999999999999
 30
57.99999999999986
 70
   192
  0
VERTEX
  5
409C
  8
0
 10
483.9999999999999
 20
350.4999999999999
 30
57.99999999999986
 70
   192
  0
VERTEX
  5
409D
  8
0
 10
484.0
 20
350.4999999999999
 30
-62.00000000000014
 70
   192
  0
VERTEX
  5
409E
  8
0
 10
483.9999999999999
 20
345.4999999999999
 30
-62.00000000000014
 70
   192
  0
VERTEX
  5
409F
  8
0
 10
0.0
 20
0.0
 30
0.0
 70
   128
 71
     1
 72
     4
 73
    -3
  0
VERTEX
  5
40A0
  8
0
 10
0.0
 20
0.0
 30
0.0
 70
   128
 71
    -1
 72
     3
 73
     2
  0
SEQEND
  5
459D
  8
0
  0
POLYLINE
  5
40A1
  8
0
 66
     1
 10
0.0
 20
0.0
 30
0.0
 70
    64
 71
     4
 72
     2
  0
VERTEX
  5
40A2
  8
0
 10
484.0
 20
345.4999999999999
 30
-62.00000000000014
 70
   192
  0
VERTEX
  5
40A3
  8
0
 10
484.0
 20
350.4999999999999
 30
-62.00000000000014
 70
   192
  0
VERTEX
  5
40A4
  8
0
 10
9.999999999999972
 20
350.4999999999999
 30
-62.00000000000008
 70
   192
  0
VERTEX
  5
40A5
  8
0
 10
10.0
 20
345.4999999999999
 30
-62.00000000000008
 70
   192
  0
VERTEX
  5
40A6
  8
0
 10
0.0
 20
0.0
 30
0.0
 70
   128
 71
     1
 72
     4
 73
    -3
  0
VERTEX
  5
40A7
  8
0
 10
0.0
 20
0.0
 30
0.0
 70
   128
 71
    -1
 72
     3
 73
     2
  0
SEQEND
  5
459E
  8
0
  0
POLYLINE
  5
40A8
  8
0
 66
     1
 10
0.0
 20
0.0
 30
0.0
 70
    64
 71
     4
 72
     2
  0
VERTEX
  5
40A9
  8
0
 10
9.999999999999972
 20
350.4999999999999
 30
-62.00000000000008
 70
   192
  0
VERTEX
  5
40AA
  8
0
 10
9.999999999999972
 20
350.4999999999999
 30
57.99999999999992
 70
   192
  0
VERTEX
  5
40AB
  8
0
 10
483.9999999999999
 20
350.4999999999999
 30
57.99999999999986
 70
   192
  0
VERTEX
  5
40AC
  8
0
 10
483.9999999999999
 20
350.4999999999999
 30
-62.00000000000014
 70
   192
  0
VERTEX
  5
40AD
  8
0
 10
0.0
 20
0.0
 30
0.0
 70
   128
 71
     3
 72
     4
 73
    -1
  0
VERTEX
  5
40AE
  8
0
 10
0.0
 20
0.0
 30
0.0
 70
   128
 71
     2
 72
    -3
 73
     1
  0
SEQEND
  5
459F
  8
0
  0
POLYLINE
  5
40AF
  8
0
 66
     1
 10
0.0
 20
0.0
 30
0.0
 70
    64
 71
     4
 72
     2
  0
VERTEX
  5
40B0
  8
0
 10
9.999999999999943
 20
345.4999999999999
 30
57.99999999999992
 70
   192
  0
VERTEX
  5
40B1
  8
0
 10
483.9999999999999
 20
345.4999999999999
 30
57.99999999999986
 70
   192
  0
VERTEX
  5
40B2
  8
0
 10
484.0
 20
345.4999999999999
 30
-62.00000000000014
 70
   192
  0
VERTEX
  5
40B3
  8
0
 10
9.999999999999972
 20
345.4999999999999
 30
-62.00000000000008
 70
   192
  0
VERTEX
  5
40B4
  8
0
 10
0.0
 20
0.0
 30
0.0
 70
   128
 71
     1
 72
     4
 73
    -3
  0
VERTEX
  5
40B5
  8
0
 10
0.0
 20
0.0
 30
0.0
 70
   128
 71
    -1
 72
     3
 73
     2
  0
SEQEND
  5
45A0
  8
0
  0
ENDBLK
  5
459A
  8
0
  0
BLOCK
  8
0
  2
*X20
 70
     1
 10
0.0
 20
0.0
 30
0.0
  3
*X20
  1

  0
POLYLINE
  5
40B7
  8
0
 66
     1
 10
0.0
 20
0.0
 30
0.0
 70
    64
 71
     4
 72
     2
  0
VERTEX
  5
40B8
  8
0
 10
9.999999999999972
 20
162.9999999999999
 30
-62.00000000000008
 70
   192
  0
VERTEX
  5
40B9
  8
0
 10
9.999999999999972
 20
167.9999999999999
 30
-62.00000000000008
 70
   192
  0
VERTEX
  5
40BA
  8
0
 10
9.999999999999972
 20
167.9999999999999
 30
57.99999999999992
 70
   192
  0
VERTEX
  5
40BB
  8
0
 10
9.999999999999972
 20
162.9999999999999
 30
57.99999999999992
 70
   192
  0
VERTEX
  5
40BC
  8
0
 10
0.0
 20
0.0
 30
0.0
 70
   128
 71
     1
 72
     4
 73
    -3
  0
VERTEX
  5
40BD
  8
0
 10
0.0
 20
0.0
 30
0.0
 70
   128
 71
    -1
 72
     3
 73
     2
  0
SEQEND
  5
45A3
  8
0
  0
POLYLINE
  5
40BE
  8
0
 66
     1
 10
0.0
 20
0.0
 30
0.0
 70
    64
 71
     4
 72
     2
  0
VERTEX
  5
40BF
  8
0
 10
9.999999999999972
 20
162.9999999999999
 30
57.99999999999992
 70
   192
  0
VERTEX
  5
40C0
  8
0
 10
9.999999999999943
 20
167.9999999999999
 30
57.99999999999992
 70
   192
  0
VERTEX
  5
40C1
  8
0
 10
483.9999999999999
 20
167.9999999999999
 30
57.99999999999986
 70
   192
  0
VERTEX
  5
40C2
  8
0
 10
483.9999999999999
 20
162.9999999999999
 30
57.99999999999986
 70
   192
  0
VERTEX
  5
40C3
  8
0
 10
0.0
 20
0.0
 30
0.0
 70
   128
 71
     1
 72
     4
 73
    -3
  0
VERTEX
  5
40C4
  8
0
 10
0.0
 20
0.0
 30
0.0
 70
   128
 71
    -1
 72
     3
 73
     2
  0
SEQEND
  5
45A4
  8
0
  0
POLYLINE
  5
40C5
  8
0
 66
     1
 10
0.0
 20
0.0
 30
0.0
 70
    64
 71
     4
 72
     2
  0
VERTEX
  5
40C6
  8
0
 10
483.9999999999999
 20
162.9999999999999
 30
57.99999999999986
 70
   192
  0
VERTEX
  5
40C7
  8
0
 10
483.9999999999999
 20
167.9999999999999
 30
57.99999999999986
 70
   192
  0
VERTEX
  5
40C8
  8
0
 10
484.0
 20
167.9999999999999
 30
-62.00000000000014
 70
   192
  0
VERTEX
  5
40C9
  8
0
 10
483.9999999999999
 20
162.9999999999999
 30
-62.00000000000014
 70
   192
  0
VERTEX
  5
40CA
  8
0
 10
0.0
 20
0.0
 30
0.0
 70
   128
 71
     1
 72
     4
 73
    -3
  0
VERTEX
  5
40CB
  8
0
 10
0.0
 20
0.0
 30
0.0
 70
   128
 71
    -1
 72
     3
 73
     2
  0
SEQEND
  5
45A5
  8
0
  0
POLYLINE
  5
40CC
  8
0
 66
     1
 10
0.0
 20
0.0
 30
0.0
 70
    64
 71
     4
 72
     2
  0
VERTEX
  5
40CD
  8
0
 10
484.0
 20
162.9999999999999
 30
-62.00000000000014
 70
   192
  0
VERTEX
  5
40CE
  8
0
 10
484.0
 20
167.9999999999999
 30
-62.00000000000014
 70
   192
  0
VERTEX
  5
40CF
  8
0
 10
9.999999999999972
 20
167.9999999999999
 30
-62.00000000000008
 70
   192
  0
VERTEX
  5
40D0
  8
0
 10
10.0
 20
162.9999999999999
 30
-62.00000000000008
 70
   192
  0
VERTEX
  5
40D1
  8
0
 10
0.0
 20
0.0
 30
0.0
 70
   128
 71
     1
 72
     4
 73
    -3
  0
VERTEX
  5
40D2
  8
0
 10
0.0
 20
0.0
 30
0.0
 70
   128
 71
    -1
 72
     3
 73
     2
  0
SEQEND
  5
45A6
  8
0
  0
POLYLINE
  5
40D3
  8
0
 66
     1
 10
0.0
 20
0.0
 30
0.0
 70
    64
 71
     4
 72
     2
  0
VERTEX
  5
40D4
  8
0
 10
9.999999999999972
 20
167.9999999999999
 30
-62.00000000000008
 70
   192
  0
VERTEX
  5
40D5
  8
0
 10
9.999999999999972
 20
167.9999999999999
 30
57.99999999999992
 70
   192
  0
VERTEX
  5
40D6
  8
0
 10
483.9999999999999
 20
167.9999999999999
 30
57.99999999999986
 70
   192
  0
VERTEX
  5
40D7
  8
0
 10
483.9999999999999
 20
167.9999999999999
 30
-62.00000000000014
 70
   192
  0
VERTEX
  5
40D8
  8
0
 10
0.0
 20
0.0
 30
0.0
 70
   128
 71
     3
 72
     4
 73
    -1
  0
VERTEX
  5
40D9
  8
0
 10
0.0
 20
0.0
 30
0.0
 70
   128
 71
     2
 72
    -3
 73
     1
  0
SEQEND
  5
45A7
  8
0
  0
POLYLINE
  5
40DA
  8
0
 66
     1
 10
0.0
 20
0.0
 30
0.0
 70
    64
 71
     4
 72
     2
  0
VERTEX
  5
40DB
  8
0
 10
9.999999999999943
 20
162.9999999999999
 30
57.99999999999992
 70
   192
  0
VERTEX
  5
40DC
  8
0
 10
483.9999999999999
 20
162.9999999999999
 30
57.99999999999986
 70
   192
  0
VERTEX
  5
40DD
  8
0
 10
484.0
 20
162.9999999999999
 30
-62.00000000000014
 70
   192
  0
VERTEX
  5
40DE
  8
0
 10
9.999999999999972
 20
162.9999999999999
 30
-62.00000000000008
 70
   192
  0
VERTEX
  5
40DF
  8
0
 10
0.0
 20
0.0
 30
0.0
 70
   128
 71
     1
 72
     4
 73
    -3
  0
VERTEX
  5
40E0
  8
0
 10
0.0
 20
0.0
 30
0.0
 70
   128
 71
    -1
 72
     3
 73
     2
  0
SEQEND
  5
45A8
  8
0
  0
ENDBLK
  5
45A2
  8
0
  0
BLOCK
  8
0
  2
*X21
 70
     1
 10
0.0
 20
0.0
 30
0.0
  3
*X21
  1

  0
POLYLINE
  5
40E2
  8
0
 66
     1
 10
0.0
 20
0.0
 30
0.0
 70
    64
 71
     4
 72
     2
  0
VERTEX
  5
40E3
  8
0
 10
-484.0000000000001
 20
527.9999999999999
 30
-62.00000000000008
 70
   192
  0
VERTEX
  5
40E4
  8
0
 10
-484.0000000000001
 20
532.9999999999999
 30
-62.00000000000008
 70
   192
  0
VERTEX
  5
40E5
  8
0
 10
-484.0000000000001
 20
532.9999999999999
 30
57.99999999999992
 70
   192
  0
VERTEX
  5
40E6
  8
0
 10
-484.0000000000001
 20
527.9999999999999
 30
57.99999999999992
 70
   192
  0
VERTEX
  5
40E7
  8
0
 10
0.0
 20
0.0
 30
0.0
 70
   128
 71
     1
 72
     4
 73
    -3
  0
VERTEX
  5
40E8
  8
0
 10
0.0
 20
0.0
 30
0.0
 70
   128
 71
    -1
 72
     3
 73
     2
  0
SEQEND
  5
45AB
  8
0
  0
POLYLINE
  5
40E9
  8
0
 66
     1
 10
0.0
 20
0.0
 30
0.0
 70
    64
 71
     4
 72
     2
  0
VERTEX
  5
40EA
  8
0
 10
-484.0000000000001
 20
527.9999999999999
 30
57.99999999999992
 70
   192
  0
VERTEX
  5
40EB
  8
0
 10
-484.0000000000001
 20
532.9999999999999
 30
57.99999999999992
 70
   192
  0
VERTEX
  5
40EC
  8
0
 10
-10.00000000000017
 20
532.9999999999999
 30
57.99999999999986
 70
   192
  0
VERTEX
  5
40ED
  8
0
 10
-10.00000000000017
 20
527.9999999999999
 30
57.99999999999986
 70
   192
  0
VERTEX
  5
40EE
  8
0
 10
0.0
 20
0.0
 30
0.0
 70
   128
 71
     1
 72
     4
 73
    -3
  0
VERTEX
  5
40EF
  8
0
 10
0.0
 20
0.0
 30
0.0
 70
   128
 71
    -1
 72
     3
 73
     2
  0
SEQEND
  5
45AC
  8
0
  0
POLYLINE
  5
40F0
  8
0
 66
     1
 10
0.0
 20
0.0
 30
0.0
 70
    64
 71
     4
 72
     2
  0
VERTEX
  5
40F1
  8
0
 10
-10.00000000000017
 20
527.9999999999999
 30
57.99999999999986
 70
   192
  0
VERTEX
  5
40F2
  8
0
 10
-10.00000000000017
 20
532.9999999999999
 30
57.99999999999986
 70
   192
  0
VERTEX
  5
40F3
  8
0
 10
-10.00000000000014
 20
532.9999999999999
 30
-62.00000000000014
 70
   192
  0
VERTEX
  5
40F4
  8
0
 10
-10.00000000000014
 20
527.9999999999999
 30
-62.00000000000014
 70
   192
  0
VERTEX
  5
40F5
  8
0
 10
0.0
 20
0.0
 30
0.0
 70
   128
 71
     1
 72
     4
 73
    -3
  0
VERTEX
  5
40F6
  8
0
 10
0.0
 20
0.0
 30
0.0
 70
   128
 71
    -1
 72
     3
 73
     2
  0
SEQEND
  5
45AD
  8
0
  0
POLYLINE
  5
40F7
  8
0
 66
     1
 10
0.0
 20
0.0
 30
0.0
 70
    64
 71
     4
 72
     2
  0
VERTEX
  5
40F8
  8
0
 10
-10.00000000000014
 20
527.9999999999999
 30
-62.00000000000014
 70
   192
  0
VERTEX
  5
40F9
  8
0
 10
-10.00000000000014
 20
532.9999999999999
 30
-62.00000000000014
 70
   192
  0
VERTEX
  5
40FA
  8
0
 10
-484.0000000000001
 20
532.9999999999999
 30
-62.00000000000008
 70
   192
  0
VERTEX
  5
40FB
  8
0
 10
-484.0000000000001
 20
527.9999999999999
 30
-62.00000000000008
 70
   192
  0
VERTEX
  5
40FC
  8
0
 10
0.0
 20
0.0
 30
0.0
 70
   128
 71
     1
 72
     4
 73
    -3
  0
VERTEX
  5
40FD
  8
0
 10
0.0
 20
0.0
 30
0.0
 70
   128
 71
    -1
 72
     3
 73
     2
  0
SEQEND
  5
45AE
  8
0
  0
POLYLINE
  5
40FE
  8
0
 66
     1
 10
0.0
 20
0.0
 30
0.0
 70
    64
 71
     4
 72
     2
  0
VERTEX
  5
40FF
  8
0
 10
-484.0000000000001
 20
532.9999999999999
 30
-62.00000000000008
 70
   192
  0
VERTEX
  5
4100
  8
0
 10
-484.0000000000001
 20
532.9999999999999
 30
57.99999999999992
 70
   192
  0
VERTEX
  5
4101
  8
0
 10
-10.00000000000017
 20
532.9999999999999
 30
57.99999999999986
 70
   192
  0
VERTEX
  5
4102
  8
0
 10
-10.00000000000014
 20
532.9999999999999
 30
-62.00000000000014
 70
   192
  0
VERTEX
  5
4103
  8
0
 10
0.0
 20
0.0
 30
0.0
 70
   128
 71
     3
 72
     4
 73
    -1
  0
VERTEX
  5
4104
  8
0
 10
0.0
 20
0.0
 30
0.0
 70
   128
 71
     2
 72
    -3
 73
     1
  0
SEQEND
  5
45AF
  8
0
  0
POLYLINE
  5
4105
  8
0
 66
     1
 10
0.0
 20
0.0
 30
0.0
 70
    64
 71
     4
 72
     2
  0
VERTEX
  5
4106
  8
0
 10
-484.0000000000001
 20
527.9999999999999
 30
57.99999999999992
 70
   192
  0
VERTEX
  5
4107
  8
0
 10
-10.00000000000017
 20
527.9999999999999
 30
57.99999999999986
 70
   192
  0
VERTEX
  5
4108
  8
0
 10
-10.00000000000014
 20
527.9999999999999
 30
-62.00000000000014
 70
   192
  0
VERTEX
  5
4109
  8
0
 10
-484.0000000000001
 20
527.9999999999999
 30
-62.00000000000008
 70
   192
  0
VERTEX
  5
410A
  8
0
 10
0.0
 20
0.0
 30
0.0
 70
   128
 71
     1
 72
     4
 73
    -3
  0
VERTEX
  5
410B
  8
0
 10
0.0
 20
0.0
 30
0.0
 70
   128
 71
    -1
 72
     3
 73
     2
  0
SEQEND
  5
45B0
  8
0
  0
ENDBLK
  5
45AA
  8
0
  0
BLOCK
  8
0
  2
*X22
 70
     1
 10
0.0
 20
0.0
 30
0.0
  3
*X22
  1

  0
POLYLINE
  5
410D
  8
0
 66
     1
 10
0.0
 20
0.0
 30
0.0
 70
    64
 71
     4
 72
     2
  0
VERTEX
  5
410E
  8
0
 10
-484.0000000000001
 20
345.4999999999999
 30
-62.00000000000008
 70
   192
  0
VERTEX
  5
410F
  8
0
 10
-484.0000000000001
 20
350.4999999999999
 30
-62.00000000000008
 70
   192
  0
VERTEX
  5
4110
  8
0
 10
-484.0000000000001
 20
350.4999999999999
 30
57.99999999999992
 70
   192
  0
VERTEX
  5
4111
  8
0
 10
-484.0000000000001
 20
345.4999999999999
 30
57.99999999999992
 70
   192
  0
VERTEX
  5
4112
  8
0
 10
0.0
 20
0.0
 30
0.0
 70
   128
 71
     1
 72
     4
 73
    -3
  0
VERTEX
  5
4113
  8
0
 10
0.0
 20
0.0
 30
0.0
 70
   128
 71
    -1
 72
     3
 73
     2
  0
SEQEND
  5
45B3
  8
0
  0
POLYLINE
  5
4114
  8
0
 66
     1
 10
0.0
 20
0.0
 30
0.0
 70
    64
 71
     4
 72
     2
  0
VERTEX
  5
4115
  8
0
 10
-484.0000000000001
 20
345.4999999999999
 30
57.99999999999992
 70
   192
  0
VERTEX
  5
4116
  8
0
 10
-484.0000000000001
 20
350.4999999999999
 30
57.99999999999992
 70
   192
  0
VERTEX
  5
4117
  8
0
 10
-10.00000000000017
 20
350.4999999999999
 30
57.99999999999986
 70
   192
  0
VERTEX
  5
4118
  8
0
 10
-10.00000000000017
 20
345.4999999999999
 30
57.99999999999986
 70
   192
  0
VERTEX
  5
4119
  8
0
 10
0.0
 20
0.0
 30
0.0
 70
   128
 71
     1
 72
     4
 73
    -3
  0
VERTEX
  5
411A
  8
0
 10
0.0
 20
0.0
 30
0.0
 70
   128
 71
    -1
 72
     3
 73
     2
  0
SEQEND
  5
45B4
  8
0
  0
POLYLINE
  5
411B
  8
0
 66
     1
 10
0.0
 20
0.0
 30
0.0
 70
    64
 71
     4
 72
     2
  0
VERTEX
  5
411C
  8
0
 10
-10.00000000000017
 20
345.4999999999999
 30
57.99999999999986
 70
   192
  0
VERTEX
  5
411D
  8
0
 10
-10.00000000000017
 20
350.4999999999999
 30
57.99999999999986
 70
   192
  0
VERTEX
  5
411E
  8
0
 10
-10.00000000000014
 20
350.4999999999999
 30
-62.00000000000014
 70
   192
  0
VERTEX
  5
411F
  8
0
 10
-10.00000000000014
 20
345.4999999999999
 30
-62.00000000000014
 70
   192
  0
VERTEX
  5
4120
  8
0
 10
0.0
 20
0.0
 30
0.0
 70
   128
 71
     1
 72
     4
 73
    -3
  0
VERTEX
  5
4121
  8
0
 10
0.0
 20
0.0
 30
0.0
 70
   128
 71
    -1
 72
     3
 73
     2
  0
SEQEND
  5
45B5
  8
0
  0
POLYLINE
  5
4122
  8
0
 66
     1
 10
0.0
 20
0.0
 30
0.0
 70
    64
 71
     4
 72
     2
  0
VERTEX
  5
4123
  8
0
 10
-10.00000000000014
 20
345.4999999999999
 30
-62.00000000000014
 70
   192
  0
VERTEX
  5
4124
  8
0
 10
-10.00000000000014
 20
350.4999999999999
 30
-62.00000000000014
 70
   192
  0
VERTEX
  5
4125
  8
0
 10
-484.0000000000001
 20
350.4999999999999
 30
-62.00000000000008
 70
   192
  0
VERTEX
  5
4126
  8
0
 10
-484.0000000000001
 20
345.4999999999999
 30
-62.00000000000008
 70
   192
  0
VERTEX
  5
4127
  8
0
 10
0.0
 20
0.0
 30
0.0
 70
   128
 71
     1
 72
     4
 73
    -3
  0
VERTEX
  5
4128
  8
0
 10
0.0
 20
0.0
 30
0.0
 70
   128
 71
    -1
 72
     3
 73
     2
  0
SEQEND
  5
45B6
  8
0
  0
POLYLINE
  5
4129
  8
0
 66
     1
 10
0.0
 20
0.0
 30
0.0
 70
    64
 71
     4
 72
     2
  0
VERTEX
  5
412A
  8
0
 10
-484.0000000000001
 20
350.4999999999999
 30
-62.00000000000008
 70
   192
  0
VERTEX
  5
412B
  8
0
 10
-484.0000000000001
 20
350.4999999999999
 30
57.99999999999992
 70
   192
  0
VERTEX
  5
412C
  8
0
 10
-10.00000000000017
 20
350.4999999999999
 30
57.99999999999986
 70
   192
  0
VERTEX
  5
412D
  8
0
 10
-10.00000000000014
 20
350.4999999999999
 30
-62.00000000000014
 70
   192
  0
VERTEX
  5
412E
  8
0
 10
0.0
 20
0.0
 30
0.0
 70
   128
 71
     3
 72
     4
 73
    -1
  0
VERTEX
  5
412F
  8
0
 10
0.0
 20
0.0
 30
0.0
 70
   128
 71
     2
 72
    -3
 73
     1
  0
SEQEND
  5
45B7
  8
0
  0
POLYLINE
  5
4130
  8
0
 66
     1
 10
0.0
 20
0.0
 30
0.0
 70
    64
 71
     4
 72
     2
  0
VERTEX
  5
4131
  8
0
 10
-484.0000000000001
 20
345.4999999999999
 30
57.99999999999992
 70
   192
  0
VERTEX
  5
4132
  8
0
 10
-10.00000000000017
 20
345.4999999999999
 30
57.99999999999986
 70
   192
  0
VERTEX
  5
4133
  8
0
 10
-10.00000000000014
 20
345.4999999999999
 30
-62.00000000000014
 70
   192
  0
VERTEX
  5
4134
  8
0
 10
-484.0000000000001
 20
345.4999999999999
 30
-62.00000000000008
 70
   192
  0
VERTEX
  5
4135
  8
0
 10
0.0
 20
0.0
 30
0.0
 70
   128
 71
     1
 72
     4
 73
    -3
  0
VERTEX
  5
4136
  8
0
 10
0.0
 20
0.0
 30
0.0
 70
   128
 71
    -1
 72
     3
 73
     2
  0
SEQEND
  5
45B8
  8
0
  0
ENDBLK
  5
45B2
  8
0
  0
BLOCK
  8
0
  2
*X23
 70
     1
 10
0.0
 20
0.0
 30
0.0
  3
*X23
  1

  0
POLYLINE
  5
4138
  8
0
 66
     1
 10
0.0
 20
0.0
 30
0.0
 70
    64
 71
     4
 72
     2
  0
VERTEX
  5
4139
  8
0
 10
-484.0000000000001
 20
162.9999999999999
 30
-62.00000000000008
 70
   192
  0
VERTEX
  5
413A
  8
0
 10
-484.0000000000001
 20
167.9999999999999
 30
-62.00000000000008
 70
   192
  0
VERTEX
  5
413B
  8
0
 10
-484.0000000000001
 20
167.9999999999999
 30
57.99999999999992
 70
   192
  0
VERTEX
  5
413C
  8
0
 10
-484.0000000000001
 20
162.9999999999999
 30
57.99999999999992
 70
   192
  0
VERTEX
  5
413D
  8
0
 10
0.0
 20
0.0
 30
0.0
 70
   128
 71
     1
 72
     4
 73
    -3
  0
VERTEX
  5
413E
  8
0
 10
0.0
 20
0.0
 30
0.0
 70
   128
 71
    -1
 72
     3
 73
     2
  0
SEQEND
  5
45BB
  8
0
  0
POLYLINE
  5
413F
  8
0
 66
     1
 10
0.0
 20
0.0
 30
0.0
 70
    64
 71
     4
 72
     2
  0
VERTEX
  5
4140
  8
0
 10
-484.0000000000001
 20
162.9999999999999
 30
57.99999999999992
 70
   192
  0
VERTEX
  5
4141
  8
0
 10
-484.0000000000001
 20
167.9999999999999
 30
57.99999999999992
 70
   192
  0
VERTEX
  5
4142
  8
0
 10
-10.00000000000017
 20
167.9999999999999
 30
57.99999999999986
 70
   192
  0
VERTEX
  5
4143
  8
0
 10
-10.00000000000017
 20
162.9999999999999
 30
57.99999999999986
 70
   192
  0
VERTEX
  5
4144
  8
0
 10
0.0
 20
0.0
 30
0.0
 70
   128
 71
     1
 72
     4
 73
    -3
  0
VERTEX
  5
4145
  8
0
 10
0.0
 20
0.0
 30
0.0
 70
   128
 71
    -1
 72
     3
 73
     2
  0
SEQEND
  5
45BC
  8
0
  0
POLYLINE
  5
4146
  8
0
 66
     1
 10
0.0
 20
0.0
 30
0.0
 70
    64
 71
     4
 72
     2
  0
VERTEX
  5
4147
  8
0
 10
-10.00000000000017
 20
162.9999999999999
 30
57.99999999999986
 70
   192
  0
VERTEX
  5
4148
  8
0
 10
-10.00000000000017
 20
167.9999999999999
 30
57.99999999999986
 70
   192
  0
VERTEX
  5
4149
  8
0
 10
-10.00000000000014
 20
167.9999999999999
 30
-62.00000000000014
 70
   192
  0
VERTEX
  5
414A
  8
0
 10
-10.00000000000014
 20
162.9999999999999
 30
-62.00000000000014
 70
   192
  0
VERTEX
  5
414B
  8
0
 10
0.0
 20
0.0
 30
0.0
 70
   128
 71
     1
 72
     4
 73
    -3
  0
VERTEX
  5
414C
  8
0
 10
0.0
 20
0.0
 30
0.0
 70
   128
 71
    -1
 72
     3
 73
     2
  0
SEQEND
  5
45BD
  8
0
  0
POLYLINE
  5
414D
  8
0
 66
     1
 10
0.0
 20
0.0
 30
0.0
 70
    64
 71
     4
 72
     2
  0
VERTEX
  5
414E
  8
0
 10
-10.00000000000014
 20
162.9999999999999
 30
-62.00000000000014
 70
   192
  0
VERTEX
  5
414F
  8
0
 10
-10.00000000000014
 20
167.9999999999999
 30
-62.00000000000014
 70
   192
  0
VERTEX
  5
4150
  8
0
 10
-484.0000000000001
 20
167.9999999999999
 30
-62.00000000000008
 70
   192
  0
VERTEX
  5
4151
  8
0
 10
-484.0000000000001
 20
162.9999999999999
 30
-62.00000000000008
 70
   192
  0
VERTEX
  5
4152
  8
0
 10
0.0
 20
0.0
 30
0.0
 70
   128
 71
     1
 72
     4
 73
    -3
  0
VERTEX
  5
4153
  8
0
 10
0.0
 20
0.0
 30
0.0
 70
   128
 71
    -1
 72
     3
 73
     2
  0
SEQEND
  5
45BE
  8
0
  0
POLYLINE
  5
4154
  8
0
 66
     1
 10
0.0
 20
0.0
 30
0.0
 70
    64
 71
     4
 72
     2
  0
VERTEX
  5
4155
  8
0
 10
-484.0000000000001
 20
167.9999999999999
 30
-62.00000000000008
 70
   192
  0
VERTEX
  5
4156
  8
0
 10
-484.0000000000001
 20
167.9999999999999
 30
57.99999999999992
 70
   192
  0
VERTEX
  5
4157
  8
0
 10
-10.00000000000017
 20
167.9999999999999
 30
57.99999999999986
 70
   192
  0
VERTEX
  5
4158
  8
0
 10
-10.00000000000014
 20
167.9999999999999
 30
-62.00000000000014
 70
   192
  0
VERTEX
  5
4159
  8
0
 10
0.0
 20
0.0
 30
0.0
 70
   128
 71
     3
 72
     4
 73
    -1
  0
VERTEX
  5
415A
  8
0
 10
0.0
 20
0.0
 30
0.0
 70
   128
 71
     2
 72
    -3
 73
     1
  0
SEQEND
  5
45BF
  8
0
  0
POLYLINE
  5
415B
  8
0
 66
     1
 10
0.0
 20
0.0
 30
0.0
 70
    64
 71
     4
 72
     2
  0
VERTEX
  5
415C
  8
0
 10
-484.0000000000001
 20
162.9999999999999
 30
57.99999999999992
 70
   192
  0
VERTEX
  5
415D
  8
0
 10
-10.00000000000017
 20
162.9999999999999
 30
57.99999999999986
 70
   192
  0
VERTEX
  5
415E
  8
0
 10
-10.00000000000014
 20
162.9999999999999
 30
-62.00000000000014
 70
   192
  0
VERTEX
  5
415F
  8
0
 10
-484.0000000000001
 20
162.9999999999999
 30
-62.00000000000008
 70
   192
  0
VERTEX
  5
4160
  8
0
 10
0.0
 20
0.0
 30
0.0
 70
   128
 71
     1
 72
     4
 73
    -3
  0
VERTEX
  5
4161
  8
0
 10
0.0
 20
0.0
 30
0.0
 70
   128
 71
    -1
 72
     3
 73
     2
  0
SEQEND
  5
45C0
  8
0
  0
ENDBLK
  5
45BA
  8
0
  0
BLOCK
  8
0
  2
*X24
 70
     1
 10
0.0
 20
0.0
 30
0.0
  3
*X24
  1

  0
POLYLINE
  5
4163
  8
0
 66
     1
 10
0.0
 20
0.0
 30
0.0
 70
    64
 71
     4
 72
     2
  0
VERTEX
  5
4164
  8
0
 10
-220.5000000000003
 20
702.0000000000001
 30
31.99999999999979
 70
   192
  0
VERTEX
  5
4165
  8
0
 10
-220.5000000000003
 20
723.0000000000001
 30
31.99999999999979
 70
   192
  0
VERTEX
  5
4166
  8
0
 10
-220.5000000000002
 20
723.0000000000001
 30
46.99999999999979
 70
   192
  0
VERTEX
  5
4167
  8
0
 10
-220.5000000000003
 20
702.0000000000001
 30
46.99999999999979
 70
   192
  0
VERTEX
  5
4168
  8
0
 10
0.0
 20
0.0
 30
0.0
 70
   128
 71
     1
 72
     4
 73
    -3
  0
VERTEX
  5
4169
  8
0
 10
0.0
 20
0.0
 30
0.0
 70
   128
 71
    -1
 72
     3
 73
     2
  0
SEQEND
  5
45C3
  8
0
  0
POLYLINE
  5
416A
  8
0
 66
     1
 10
0.0
 20
0.0
 30
0.0
 70
    64
 71
     4
 72
     2
  0
VERTEX
  5
416B
  8
0
 10
-220.5000000000002
 20
702.0000000000001
 30
46.99999999999979
 70
   192
  0
VERTEX
  5
416C
  8
0
 10
-220.5000000000002
 20
723.0000000000001
 30
46.99999999999979
 70
   192
  0
VERTEX
  5
416D
  8
0
 10
-179.5000000000003
 20
723.0000000000001
 30
46.99999999999979
 70
   192
  0
VERTEX
  5
416E
  8
0
 10
-179.5000000000003
 20
702.0000000000001
 30
46.99999999999979
 70
   192
  0
VERTEX
  5
416F
  8
0
 10
0.0
 20
0.0
 30
0.0
 70
   128
 71
     1
 72
     4
 73
    -3
  0
VERTEX
  5
4170
  8
0
 10
0.0
 20
0.0
 30
0.0
 70
   128
 71
    -1
 72
     3
 73
     2
  0
SEQEND
  5
45C4
  8
0
  0
POLYLINE
  5
4171
  8
0
 66
     1
 10
0.0
 20
0.0
 30
0.0
 70
    64
 71
     4
 72
     2
  0
VERTEX
  5
4172
  8
0
 10
-179.5000000000003
 20
702.0000000000001
 30
46.99999999999979
 70
   192
  0
VERTEX
  5
4173
  8
0
 10
-179.5000000000003
 20
723.0000000000001
 30
46.99999999999979
 70
   192
  0
VERTEX
  5
4174
  8
0
 10
-179.5000000000003
 20
723.0000000000001
 30
31.99999999999979
 70
   192
  0
VERTEX
  5
4175
  8
0
 10
-179.5000000000003
 20
702.0000000000001
 30
31.99999999999979
 70
   192
  0
VERTEX
  5
4176
  8
0
 10
0.0
 20
0.0
 30
0.0
 70
   128
 71
     1
 72
     4
 73
    -3
  0
VERTEX
  5
4177
  8
0
 10
0.0
 20
0.0
 30
0.0
 70
   128
 71
    -1
 72
     3
 73
     2
  0
SEQEND
  5
45C5
  8
0
  0
POLYLINE
  5
4178
  8
0
 66
     1
 10
0.0
 20
0.0
 30
0.0
 70
    64
 71
     4
 72
     2
  0
VERTEX
  5
4179
  8
0
 10
-179.5000000000003
 20
702.0000000000001
 30
31.99999999999979
 70
   192
  0
VERTEX
  5
417A
  8
0
 10
-179.5000000000003
 20
723.0000000000001
 30
31.99999999999979
 70
   192
  0
VERTEX
  5
417B
  8
0
 10
-220.5000000000003
 20
723.0000000000001
 30
31.99999999999979
 70
   192
  0
VERTEX
  5
417C
  8
0
 10
-220.5000000000003
 20
702.0000000000001
 30
31.99999999999979
 70
   192
  0
VERTEX
  5
417D
  8
0
 10
0.0
 20
0.0
 30
0.0
 70
   128
 71
     1
 72
     4
 73
    -3
  0
VERTEX
  5
417E
  8
0
 10
0.0
 20
0.0
 30
0.0
 70
   128
 71
    -1
 72
     3
 73
     2
  0
SEQEND
  5
45C6
  8
0
  0
POLYLINE
  5
417F
  8
0
 66
     1
 10
0.0
 20
0.0
 30
0.0
 70
    64
 71
     4
 72
     2
  0
VERTEX
  5
4180
  8
0
 10
-220.5000000000003
 20
723.0000000000001
 30
31.99999999999979
 70
   192
  0
VERTEX
  5
4181
  8
0
 10
-220.5000000000003
 20
723.0000000000001
 30
46.99999999999979
 70
   192
  0
VERTEX
  5
4182
  8
0
 10
-179.5000000000003
 20
723.0000000000001
 30
46.99999999999979
 70
   192
  0
VERTEX
  5
4183
  8
0
 10
-179.5000000000003
 20
723.0000000000001
 30
31.99999999999979
 70
   192
  0
VERTEX
  5
4184
  8
0
 10
0.0
 20
0.0
 30
0.0
 70
   128
 71
     3
 72
     4
 73
    -1
  0
VERTEX
  5
4185
  8
0
 10
0.0
 20
0.0
 30
0.0
 70
   128
 71
     2
 72
    -3
 73
     1
  0
SEQEND
  5
45C7
  8
0
  0
POLYLINE
  5
4186
  8
0
 66
     1
 10
0.0
 20
0.0
 30
0.0
 70
    64
 71
     4
 72
     2
  0
VERTEX
  5
4187
  8
0
 10
-220.5000000000002
 20
702.0000000000001
 30
46.99999999999979
 70
   192
  0
VERTEX
  5
4188
  8
0
 10
-179.5000000000003
 20
702.0000000000001
 30
46.99999999999979
 70
   192
  0
VERTEX
  5
4189
  8
0
 10
-179.5000000000003
 20
702.0000000000001
 30
31.99999999999979
 70
   192
  0
VERTEX
  5
418A
  8
0
 10
-220.5000000000003
 20
702.0000000000001
 30
31.99999999999979
 70
   192
  0
VERTEX
  5
418B
  8
0
 10
0.0
 20
0.0
 30
0.0
 70
   128
 71
     1
 72
     4
 73
    -3
  0
VERTEX
  5
418C
  8
0
 10
0.0
 20
0.0
 30
0.0
 70
   128
 71
    -1
 72
     3
 73
     2
  0
SEQEND
  5
45C8
  8
0
  0
ENDBLK
  5
45C2
  8
0
  0
BLOCK
  8
0
  2
*X25
 70
     1
 10
0.0
 20
0.0
 30
0.0
  3
*X25
  1

  0
POLYLINE
  5
418E
  8
0
 66
     1
 10
0.0
 20
0.0
 30
0.0
 70
    64
 71
     4
 72
     2
  0
VERTEX
  5
418F
  8
0
 10
179.4999999999998
 20
702.0000000000001
 30
32.00000000000026
 70
   192
  0
VERTEX
  5
4190
  8
0
 10
179.4999999999998
 20
723.0000000000001
 30
32.00000000000026
 70
   192
  0
VERTEX
  5
4191
  8
0
 10
179.4999999999998
 20
723.0000000000001
 30
47.00000000000026
 70
   192
  0
VERTEX
  5
4192
  8
0
 10
179.4999999999998
 20
702.0000000000001
 30
47.00000000000026
 70
   192
  0
VERTEX
  5
4193
  8
0
 10
0.0
 20
0.0
 30
0.0
 70
   128
 71
     1
 72
     4
 73
    -3
  0
VERTEX
  5
4194
  8
0
 10
0.0
 20
0.0
 30
0.0
 70
   128
 71
    -1
 72
     3
 73
     2
  0
SEQEND
  5
45CB
  8
0
  0
POLYLINE
  5
4195
  8
0
 66
     1
 10
0.0
 20
0.0
 30
0.0
 70
    64
 71
     4
 72
     2
  0
VERTEX
  5
4196
  8
0
 10
179.4999999999998
 20
702.0000000000001
 30
47.00000000000026
 70
   192
  0
VERTEX
  5
4197
  8
0
 10
179.4999999999998
 20
723.0000000000001
 30
47.00000000000026
 70
   192
  0
VERTEX
  5
4198
  8
0
 10
220.4999999999997
 20
723.0000000000001
 30
47.00000000000026
 70
   192
  0
VERTEX
  5
4199
  8
0
 10
220.4999999999997
 20
702.0000000000001
 30
47.00000000000026
 70
   192
  0
VERTEX
  5
419A
  8
0
 10
0.0
 20
0.0
 30
0.0
 70
   128
 71
     1
 72
     4
 73
    -3
  0
VERTEX
  5
419B
  8
0
 10
0.0
 20
0.0
 30
0.0
 70
   128
 71
    -1
 72
     3
 73
     2
  0
SEQEND
  5
45CC
  8
0
  0
POLYLINE
  5
419C
  8
0
 66
     1
 10
0.0
 20
0.0
 30
0.0
 70
    64
 71
     4
 72
     2
  0
VERTEX
  5
419D
  8
0
 10
220.4999999999997
 20
702.0000000000001
 30
47.00000000000026
 70
   192
  0
VERTEX
  5
419E
  8
0
 10
220.4999999999997
 20
723.0000000000001
 30
47.00000000000026
 70
   192
  0
VERTEX
  5
419F
  8
0
 10
220.4999999999997
 20
723.0000000000001
 30
32.00000000000026
 70
   192
  0
VERTEX
  5
41A0
  8
0
 10
220.4999999999997
 20
702.0000000000001
 30
32.00000000000026
 70
   192
  0
VERTEX
  5
41A1
  8
0
 10
0.0
 20
0.0
 30
0.0
 70
   128
 71
     1
 72
     4
 73
    -3
  0
VERTEX
  5
41A2
  8
0
 10
0.0
 20
0.0
 30
0.0
 70
   128
 71
    -1
 72
     3
 73
     2
  0
SEQEND
  5
45CD
  8
0
  0
POLYLINE
  5
41A3
  8
0
 66
     1
 10
0.0
 20
0.0
 30
0.0
 70
    64
 71
     4
 72
     2
  0
VERTEX
  5
41A4
  8
0
 10
220.4999999999997
 20
702.0000000000001
 30
32.00000000000026
 70
   192
  0
VERTEX
  5
41A5
  8
0
 10
220.4999999999997
 20
723.0000000000001
 30
32.00000000000026
 70
   192
  0
VERTEX
  5
41A6
  8
0
 10
179.4999999999998
 20
723.0000000000001
 30
32.00000000000026
 70
   192
  0
VERTEX
  5
41A7
  8
0
 10
179.4999999999998
 20
702.0000000000001
 30
32.00000000000026
 70
   192
  0
VERTEX
  5
41A8
  8
0
 10
0.0
 20
0.0
 30
0.0
 70
   128
 71
     1
 72
     4
 73
    -3
  0
VERTEX
  5
41A9
  8
0
 10
0.0
 20
0.0
 30
0.0
 70
   128
 71
    -1
 72
     3
 73
     2
  0
SEQEND
  5
45CE
  8
0
  0
POLYLINE
  5
41AA
  8
0
 66
     1
 10
0.0
 20
0.0
 30
0.0
 70
    64
 71
     4
 72
     2
  0
VERTEX
  5
41AB
  8
0
 10
179.4999999999998
 20
723.0000000000001
 30
32.00000000000026
 70
   192
  0
VERTEX
  5
41AC
  8
0
 10
179.4999999999998
 20
723.0000000000001
 30
47.00000000000026
 70
   192
  0
VERTEX
  5
41AD
  8
0
 10
220.4999999999997
 20
723.0000000000001
 30
47.00000000000026
 70
   192
  0
VERTEX
  5
41AE
  8
0
 10
220.4999999999997
 20
723.0000000000001
 30
32.00000000000026
 70
   192
  0
VERTEX
  5
41AF
  8
0
 10
0.0
 20
0.0
 30
0.0
 70
   128
 71
     3
 72
     4
 73
    -1
  0
VERTEX
  5
41B0
  8
0
 10
0.0
 20
0.0
 30
0.0
 70
   128
 71
     2
 72
    -3
 73
     1
  0
SEQEND
  5
45CF
  8
0
  0
POLYLINE
  5
41B1
  8
0
 66
     1
 10
0.0
 20
0.0
 30
0.0
 70
    64
 71
     4
 72
     2
  0
VERTEX
  5
41B2
  8
0
 10
179.4999999999998
 20
702.0000000000001
 30
47.00000000000026
 70
   192
  0
VERTEX
  5
41B3
  8
0
 10
220.4999999999997
 20
702.0000000000001
 30
47.00000000000026
 70
   192
  0
VERTEX
  5
41B4
  8
0
 10
220.4999999999997
 20
702.0000000000001
 30
32.00000000000026
 70
   192
  0
VERTEX
  5
41B5
  8
0
 10
179.4999999999998
 20
702.0000000000001
 30
32.00000000000026
 70
   192
  0
VERTEX
  5
41B6
  8
0
 10
0.0
 20
0.0
 30
0.0
 70
   128
 71
     1
 72
     4
 73
    -3
  0
VERTEX
  5
41B7
  8
0
 10
0.0
 20
0.0
 30
0.0
 70
   128
 71
    -1
 72
     3
 73
     2
  0
SEQEND
  5
45D0
  8
0
  0
ENDBLK
  5
45CA
  8
0
  0
BLOCK
  8
0
  2
*X26
 70
     1
 10
0.0
 20
0.0
 30
0.0
  3
*X26
  1

  0
POLYLINE
  5
41B9
  8
0
 66
     1
 10
0.0
 20
0.0
 30
0.0
 70
    64
 71
    10
 72
     8
  0
VERTEX
  5
41BA
  8
0
 10
-231.2500000000002
 20
700.0000000000001
 30
40.9999999999998
 70
   192
  0
VERTEX
  5
41BB
  8
0
 10
-231.2500000000002
 20
700.0000000000001
 30
45.9999999999998
 70
   192
  0
VERTEX
  5
41BC
  8
0
 10
-231.2500000000002
 20
703.0000000000001
 30
45.9999999999998
 70
   192
  0
VERTEX
  5
41BD
  8
0
 10
-231.2500000000002
 20
703.0000000000001
 30
40.9999999999998
 70
   192
  0
VERTEX
  5
41BE
  8
0
 10
-233.7500000000002
 20
703.0000000000001
 30
43.4999999999998
 70
   192
  0
VERTEX
  5
41BF
  8
0
 10
-233.7500000000002
 20
700.0000000000001
 30
43.4999999999998
 70
   192
  0
VERTEX
  5
41C0
  8
0
 10
-233.0177669529666
 20
703.0000000000001
 30
41.73223304703343
 70
   192
  0
VERTEX
  5
41C1
  8
0
 10
-233.0177669529666
 20
700.0000000000001
 30
41.73223304703343
 70
   192
  0
VERTEX
  5
41C2
  8
0
 10
-233.0177669529666
 20
703.0000000000001
 30
45.26776695296617
 70
   192
  0
VERTEX
  5
41C3
  8
0
 10
-233.0177669529666
 20
700.0000000000001
 30
45.26776695296617
 70
   192
  0
VERTEX
  5
41C4
  8
0
 10
0.0
 20
0.0
 30
0.0
 70
   128
 71
     8
 72
     1
 73
    -4
  0
VERTEX
  5
41C5
  8
0
 10
0.0
 20
0.0
 30
0.0
 70
   128
 71
     7
 72
    -8
 73
     4
  0
VERTEX
  5
41C6
  8
0
 10
0.0
 20
0.0
 30
0.0
 70
   128
 71
     6
 72
     8
 73
    -7
  0
VERTEX
  5
41C7
  8
0
 10
0.0
 20
0.0
 30
0.0
 70
   128
 71
     5
 72
    -6
 73
     7
  0
VERTEX
  5
41C8
  8
0
 10
0.0
 20
0.0
 30
0.0
 70
   128
 71
    10
 72
     6
 73
    -5
  0
VERTEX
  5
41C9
  8
0
 10
0.0
 20
0.0
 30
0.0
 70
   128
 71
     9
 72
   -10
 73
     5
  0
VERTEX
  5
41CA
  8
0
 10
0.0
 20
0.0
 30
0.0
 70
   128
 71
     2
 72
    10
 73
    -9
  0
VERTEX
  5
41CB
  8
0
 10
0.0
 20
0.0
 30
0.0
 70
   128
 71
     3
 72
    -2
 73
     9
  0
SEQEND
  5
45D3
  8
0
  0
POLYLINE
  5
41CC
  8
0
 66
     1
 10
0.0
 20
0.0
 30
0.0
 70
    64
 71
    10
 72
     8
  0
VERTEX
  5
41CD
  8
0
 10
-168.7500000000003
 20
700.0000000000001
 30
40.99999999999982
 70
   192
  0
VERTEX
  5
41CE
  8
0
 10
-168.7500000000003
 20
700.0000000000001
 30
45.99999999999982
 70
   192
  0
VERTEX
  5
41CF
  8
0
 10
-168.7500000000003
 20
703.0000000000001
 30
45.99999999999982
 70
   192
  0
VERTEX
  5
41D0
  8
0
 10
-168.7500000000003
 20
703.0000000000001
 30
40.99999999999983
 70
   192
  0
VERTEX
  5
41D1
  8
0
 10
-171.2500000000003
 20
703.0000000000001
 30
43.49999999999982
 70
   192
  0
VERTEX
  5
41D2
  8
0
 10
-171.2500000000003
 20
700.0000000000001
 30
43.49999999999982
 70
   192
  0
VERTEX
  5
41D3
  8
0
 10
-170.5177669529666
 20
703.0000000000001
 30
41.73223304703345
 70
   192
  0
VERTEX
  5
41D4
  8
0
 10
-170.5177669529666
 20
700.0000000000001
 30
41.73223304703345
 70
   192
  0
VERTEX
  5
41D5
  8
0
 10
-170.5177669529666
 20
703.0000000000001
 30
45.26776695296619
 70
   192
  0
VERTEX
  5
41D6
  8
0
 10
-170.5177669529666
 20
700.0000000000001
 30
45.26776695296619
 70
   192
  0
VERTEX
  5
41D7
  8
0
 10
0.0
 20
0.0
 30
0.0
 70
   128
 71
     8
 72
     1
 73
    -4
  0
VERTEX
  5
41D8
  8
0
 10
0.0
 20
0.0
 30
0.0
 70
   128
 71
     7
 72
    -8
 73
     4
  0
VERTEX
  5
41D9
  8
0
 10
0.0
 20
0.0
 30
0.0
 70
   128
 71
     6
 72
     8
 73
    -7
  0
VERTEX
  5
41DA
  8
0
 10
0.0
 20
0.0
 30
0.0
 70
   128
 71
     5
 72
    -6
 73
     7
  0
VERTEX
  5
41DB
  8
0
 10
0.0
 20
0.0
 30
0.0
 70
   128
 71
    10
 72
     6
 73
    -5
  0
VERTEX
  5
41DC
  8
0
 10
0.0
 20
0.0
 30
0.0
 70
   128
 71
     9
 72
   -10
 73
     5
  0
VERTEX
  5
41DD
  8
0
 10
0.0
 20
0.0
 30
0.0
 70
   128
 71
     2
 72
    10
 73
    -9
  0
VERTEX
  5
41DE
  8
0
 10
0.0
 20
0.0
 30
0.0
 70
   128
 71
     3
 72
    -2
 73
     9
  0
SEQEND
  5
45D4
  8
0
  0
POLYLINE
  5
41DF
  8
0
 66
     1
 10
0.0
 20
0.0
 30
0.0
 70
    64
 71
    12
 72
    12
  0
VERTEX
  5
41E0
  8
0
 10
-222.5000000000003
 20
703.0000000000001
 30
52.9999999999998
 70
   192
  0
VERTEX
  5
41E1
  8
0
 10
-222.5000000000003
 20
703.0000000000001
 30
33.99999999999981
 70
   192
  0
VERTEX
  5
41E2
  8
0
 10
-240.0000000000002
 20
703.0000000000001
 30
33.99999999999981
 70
   192
  0
VERTEX
  5
41E3
  8
0
 10
-240.0000000000002
 20
703.0000000000001
 30
52.99999999999981
 70
   192
  0
VERTEX
  5
41E4
  8
0
 10
-231.2500000000002
 20
703.0000000000001
 30
40.9999999999998
 70
   192
  0
VERTEX
  5
41E5
  8
0
 10
-229.4822330470339
 20
703.0000000000001
 30
41.73223304703343
 70
   192
  0
VERTEX
  5
41E6
  8
0
 10
-228.7500000000002
 20
703.0000000000001
 30
43.4999999999998
 70
   192
  0
VERTEX
  5
41E7
  8
0
 10
-229.4822330470339
 20
703.0000000000001
 30
45.26776695296617
 70
   192
  0
VERTEX
  5
41E8
  8
0
 10
-231.2500000000002
 20
703.0000000000001
 30
45.9999999999998
 70
   192
  0
VERTEX
  5
41E9
  8
0
 10
-233.0177669529666
 20
703.0000000000001
 30
45.26776695296617
 70
   192
  0
VERTEX
  5
41EA
  8
0
 10
-233.7500000000002
 20
703.0000000000001
 30
43.4999999999998
 70
   192
  0
VERTEX
  5
41EB
  8
0
 10
-233.0177669529666
 20
703.0000000000001
 30
41.73223304703343
 70
   192
  0
VERTEX
  5
41EC
  8
0
 10
0.0
 20
0.0
 30
0.0
 70
   128
 71
    -2
 72
     5
 73
    -6
  0
VERTEX
  5
41ED
  8
0
 10
0.0
 20
0.0
 30
0.0
 70
   128
 71
     6
 72
    -7
 73
    -2
  0
VERTEX
  5
41EE
  8
0
 10
0.0
 20
0.0
 30
0.0
 70
   128
 71
    -8
 72
     1
 73
    -2
  0
VERTEX
  5
41EF
  8
0
 10
0.0
 20
0.0
 30
0.0
 70
   128
 71
     7
 72
    -8
 73
    -2
  0
VERTEX
  5
41F0
  8
0
 10
0.0
 20
0.0
 30
0.0
 70
   128
 71
     8
 72
    -9
 73
    -1
  0
VERTEX
  5
41F1
  8
0
 10
0.0
 20
0.0
 30
0.0
 70
   128
 71
   -10
 72
     4
 73
    -1
  0
VERTEX
  5
41F2
  8
0
 10
0.0
 20
0.0
 30
0.0
 70
   128
 71
     9
 72
   -10
 73
    -1
  0
VERTEX
  5
41F3
  8
0
 10
0.0
 20
0.0
 30
0.0
 70
   128
 71
   -11
 72
     3
 73
    -4
  0
VERTEX
  5
41F4
  8
0
 10
0.0
 20
0.0
 30
0.0
 70
   128
 71
    10
 72
   -11
 73
    -4
  0
VERTEX
  5
41F5
  8
0
 10
0.0
 20
0.0
 30
0.0
 70
   128
 71
    11
 72
   -12
 73
    -3
  0
VERTEX
  5
41F6
  8
0
 10
0.0
 20
0.0
 30
0.0
 70
   128
 71
    -5
 72
     2
 73
    -3
  0
VERTEX
  5
41F7
  8
0
 10
0.0
 20
0.0
 30
0.0
 70
   128
 71
    12
 72
    -5
 73
    -3
  0
SEQEND
  5
45D5
  8
0
  0
POLYLINE
  5
41F8
  8
0
 66
     1
 10
0.0
 20
0.0
 30
0.0
 70
    64
 71
     4
 72
     2
  0
VERTEX
  5
41F9
  8
0
 10
-240.0000000000002
 20
700.0000000000001
 30
33.99999999999981
 70
   192
  0
VERTEX
  5
41FA
  8
0
 10
-240.0000000000002
 20
703.0000000000001
 30
33.99999999999981
 70
   192
  0
VERTEX
  5
41FB
  8
0
 10
-240.0000000000002
 20
703.0000000000001
 30
52.99999999999981
 70
   192
  0
VERTEX
  5
41FC
  8
0
 10
-240.0000000000002
 20
700.0000000000001
 30
52.99999999999981
 70
   192
  0
VERTEX
  5
41FD
  8
0
 10
0.0
 20
0.0
 30
0.0
 70
   128
 71
     1
 72
     4
 73
    -3
  0
VERTEX
  5
41FE
  8
0
 10
0.0
 20
0.0
 30
0.0
 70
   128
 71
    -1
 72
     3
 73
     2
  0
SEQEND
  5
45D6
  8
0
  0
POLYLINE
  5
41FF
  8
0
 66
     1
 10
0.0
 20
0.0
 30
0.0
 70
    64
 71
     8
 72
     6
  0
VERTEX
  5
4200
  8
0
 10
-240.0000000000002
 20
700.0000000000001
 30
52.99999999999981
 70
   192
  0
VERTEX
  5
4201
  8
0
 10
-240.0000000000002
 20
703.0000000000001
 30
52.99999999999981
 70
   192
  0
VERTEX
  5
4202
  8
0
 10
-222.5000000000003
 20
703.0000000000001
 30
52.99999999999981
 70
   192
  0
VERTEX
  5
4203
  8
0
 10
-222.5000000000003
 20
724.0000000000001
 30
52.99999999999981
 70
   192
  0
VERTEX
  5
4204
  8
0
 10
-177.5000000000003
 20
724.0000000000001
 30
52.99999999999981
 70
   192
  0
VERTEX
  5
4205
  8
0
 10
-177.5000000000003
 20
703.0000000000001
 30
52.99999999999979
 70
   192
  0
VERTEX
  5
4206
  8
0
 10
-160.0000000000002
 20
703.0000000000001
 30
52.99999999999979
 70
   192
  0
VERTEX
  5
4207
  8
0
 10
-160.0000000000002
 20
700.0000000000001
 30
52.99999999999979
 70
   192
  0
VERTEX
  5
4208
  8
0
 10
0.0
 20
0.0
 30
0.0
 70
   128
 71
     3
 72
     2
 73
    -1
  0
VERTEX
  5
4209
  8
0
 10
0.0
 20
0.0
 30
0.0
 70
   128
 71
    -3
 72
    -1
 73
    -6
  0
VERTEX
  5
420A
  8
0
 10
0.0
 20
0.0
 30
0.0
 70
   128
 71
     6
 72
     5
 73
    -4
  0
VERTEX
  5
420B
  8
0
 10
0.0
 20
0.0
 30
0.0
 70
   128
 71
    -6
 72
     4
 73
    -3
  0
VERTEX
  5
420C
  8
0
 10
0.0
 20
0.0
 30
0.0
 70
   128
 71
     1
 72
    -8
 73
    -6
  0
VERTEX
  5
420D
  8
0
 10
0.0
 20
0.0
 30
0.0
 70
   128
 71
     8
 72
     7
 73
    -6
  0
SEQEND
  5
45D7
  8
0
  0
POLYLINE
  5
420E
  8
0
 66
     1
 10
0.0
 20
0.0
 30
0.0
 70
    64
 71
     4
 72
     2
  0
VERTEX
  5
420F
  8
0
 10
-160.0000000000002
 20
700.0000000000001
 30
52.99999999999979
 70
   192
  0
VERTEX
  5
4210
  8
0
 10
-160.0000000000002
 20
703.0000000000001
 30
52.99999999999979
 70
   192
  0
VERTEX
  5
4211
  8
0
 10
-160.0000000000002
 20
703.0000000000001
 30
33.9999999999998
 70
   192
  0
VERTEX
  5
4212
  8
0
 10
-160.0000000000002
 20
700.0000000000001
 30
33.9999999999998
 70
   192
  0
VERTEX
  5
4213
  8
0
 10
0.0
 20
0.0
 30
0.0
 70
   128
 71
     1
 72
     4
 73
    -3
  0
VERTEX
  5
4214
  8
0
 10
0.0
 20
0.0
 30
0.0
 70
   128
 71
    -1
 72
     3
 73
     2
  0
SEQEND
  5
45D8
  8
0
  0
POLYLINE
  5
4215
  8
0
 66
     1
 10
0.0
 20
0.0
 30
0.0
 70
    64
 71
     4
 72
     2
  0
VERTEX
  5
4216
  8
0
 10
-160.0000000000002
 20
700.0000000000001
 30
33.9999999999998
 70
   192
  0
VERTEX
  5
4217
  8
0
 10
-160.0000000000002
 20
703.0000000000001
 30
33.9999999999998
 70
   192
  0
VERTEX
  5
4218
  8
0
 10
-177.5000000000003
 20
703.0000000000001
 30
33.99999999999981
 70
   192
  0
VERTEX
  5
4219
  8
0
 10
-177.5000000000003
 20
700.0000000000001
 30
33.99999999999981
 70
   192
  0
VERTEX
  5
421A
  8
0
 10
0.0
 20
0.0
 30
0.0
 70
   128
 71
     1
 72
     4
 73
    -3
  0
VERTEX
  5
421B
  8
0
 10
0.0
 20
0.0
 30
0.0
 70
   128
 71
    -1
 72
     3
 73
     2
  0
SEQEND
  5
45D9
  8
0
  0
POLYLINE
  5
421C
  8
0
 66
     1
 10
0.0
 20
0.0
 30
0.0
 70
    64
 71
     6
 72
     4
  0
VERTEX
  5
421D
  8
0
 10
-177.5000000000003
 20
700.0000000000001
 30
33.99999999999981
 70
   192
  0
VERTEX
  5
421E
  8
0
 10
-177.5000000000003
 20
703.0000000000001
 30
33.99999999999981
 70
   192
  0
VERTEX
  5
421F
  8
0
 10
-177.5000000000003
 20
703.0000000000001
 30
52.99999999999981
 70
   192
  0
VERTEX
  5
4220
  8
0
 10
-177.5000000000003
 20
724.0000000000001
 30
52.99999999999981
 70
   192
  0
VERTEX
  5
4221
  8
0
 10
-177.5000000000003
 20
724.0000000000001
 30
31.99999999999979
 70
   192
  0
VERTEX
  5
4222
  8
0
 10
-177.5000000000003
 20
700.0000000000001
 30
31.99999999999979
 70
   192
  0
VERTEX
  5
4223
  8
0
 10
0.0
 20
0.0
 30
0.0
 70
   128
 71
     2
 72
     1
 73
    -6
  0
VERTEX
  5
4224
  8
0
 10
0.0
 20
0.0
 30
0.0
 70
   128
 71
    -2
 72
     6
 73
    -5
  0
VERTEX
  5
4225
  8
0
 10
0.0
 20
0.0
 30
0.0
 70
   128
 71
     5
 72
     4
 73
    -3
  0
VERTEX
  5
4226
  8
0
 10
0.0
 20
0.0
 30
0.0
 70
   128
 71
    -5
 72
     3
 73
    -2
  0
SEQEND
  5
45DA
  8
0
  0
POLYLINE
  5
4227
  8
0
 66
     1
 10
0.0
 20
0.0
 30
0.0
 70
    64
 71
     8
 72
     6
  0
VERTEX
  5
4228
  8
0
 10
-222.5000000000003
 20
724.0000000000001
 30
31.99999999999979
 70
   192
  0
VERTEX
  5
4229
  8
0
 10
-222.5000000000003
 20
700.0000000000001
 30
31.99999999999979
 70
   192
  0
VERTEX
  5
422A
  8
0
 10
-177.5000000000003
 20
700.0000000000001
 30
31.99999999999979
 70
   192
  0
VERTEX
  5
422B
  8
0
 10
-177.5000000000003
 20
724.0000000000001
 30
31.99999999999979
 70
   192
  0
VERTEX
  5
422C
  8
0
 10
-179.5000000000003
 20
724.0000000000001
 30
31.99999999999979
 70
   192
  0
VERTEX
  5
422D
  8
0
 10
-179.5000000000003
 20
702.0000000000001
 30
31.99999999999979
 70
   192
  0
VERTEX
  5
422E
  8
0
 10
-220.5000000000003
 20
702.0000000000001
 30
31.99999999999979
 70
   192
  0
VERTEX
  5
422F
  8
0
 10
-220.5000000000003
 20
724.0000000000001
 30
31.99999999999979
 70
   192
  0
VERTEX
  5
4230
  8
0
 10
0.0
 20
0.0
 30
0.0
 70
   128
 71
     6
 72
     5
 73
    -4
  0
VERTEX
  5
4231
  8
0
 10
0.0
 20
0.0
 30
0.0
 70
   128
 71
    -6
 72
     4
 73
    -3
  0
VERTEX
  5
4232
  8
0
 10
0.0
 20
0.0
 30
0.0
 70
   128
 71
     3
 72
    -2
 73
    -7
  0
VERTEX
  5
4233
  8
0
 10
0.0
 20
0.0
 30
0.0
 70
   128
 71
    -3
 72
     7
 73
    -6
  0
VERTEX
  5
4234
  8
0
 10
0.0
 20
0.0
 30
0.0
 70
   128
 71
     2
 72
     1
 73
    -8
  0
VERTEX
  5
4235
  8
0
 10
0.0
 20
0.0
 30
0.0
 70
   128
 71
    -2
 72
     8
 73
    -7
  0
SEQEND
  5
45DB
  8
0
  0
POLYLINE
  5
4236
  8
0
 66
     1
 10
0.0
 20
0.0
 30
0.0
 70
    64
 71
     6
 72
     4
  0
VERTEX
  5
4237
  8
0
 10
-222.5000000000003
 20
700.0000000000001
 30
31.99999999999979
 70
   192
  0
VERTEX
  5
4238
  8
0
 10
-222.5000000000003
 20
724.0000000000001
 30
31.99999999999979
 70
   192
  0
VERTEX
  5
4239
  8
0
 10
-222.5000000000003
 20
724.0000000000001
 30
52.99999999999981
 70
   192
  0
VERTEX
  5
423A
  8
0
 10
-222.5000000000003
 20
703.0000000000001
 30
52.9999999999998
 70
   192
  0
VERTEX
  5
423B
  8
0
 10
-222.5000000000003
 20
703.0000000000001
 30
33.99999999999981
 70
   192
  0
VERTEX
  5
423C
  8
0
 10
-222.5000000000003
 20
700.0000000000001
 30
33.99999999999981
 70
   192
  0
VERTEX
  5
423D
  8
0
 10
0.0
 20
0.0
 30
0.0
 70
   128
 71
     5
 72
     4
 73
    -3
  0
VERTEX
  5
423E
  8
0
 10
0.0
 20
0.0
 30
0.0
 70
   128
 71
    -5
 72
     3
 73
    -2
  0
VERTEX
  5
423F
  8
0
 10
0.0
 20
0.0
 30
0.0
 70
   128
 71
     2
 72
    -1
 73
    -5
  0
VERTEX
  5
4240
  8
0
 10
0.0
 20
0.0
 30
0.0
 70
   128
 71
     1
 72
     6
 73
    -5
  0
SEQEND
  5
45DC
  8
0
  0
POLYLINE
  5
4241
  8
0
 66
     1
 10
0.0
 20
0.0
 30
0.0
 70
    64
 71
     4
 72
     2
  0
VERTEX
  5
4242
  8
0
 10
-222.5000000000003
 20
700.0000000000001
 30
33.99999999999981
 70
   192
  0
VERTEX
  5
4243
  8
0
 10
-222.5000000000003
 20
703.0000000000001
 30
33.99999999999981
 70
   192
  0
VERTEX
  5
4244
  8
0
 10
-240.0000000000002
 20
703.0000000000001
 30
33.99999999999981
 70
   192
  0
VERTEX
  5
4245
  8
0
 10
-240.0000000000002
 20
700.0000000000001
 30
33.99999999999981
 70
   192
  0
VERTEX
  5
4246
  8
0
 10
0.0
 20
0.0
 30
0.0
 70
   128
 71
     1
 72
     4
 73
    -3
  0
VERTEX
  5
4247
  8
0
 10
0.0
 20
0.0
 30
0.0
 70
   128
 71
    -1
 72
     3
 73
     2
  0
SEQEND
  5
45DD
  8
0
  0
POLYLINE
  5
4248
  8
0
 66
     1
 10
0.0
 20
0.0
 30
0.0
 70
    64
 71
    12
 72
    12
  0
VERTEX
  5
4249
  8
0
 10
-177.5000000000003
 20
703.0000000000001
 30
33.99999999999981
 70
   192
  0
VERTEX
  5
424A
  8
0
 10
-177.5000000000003
 20
703.0000000000001
 30
52.9999999999998
 70
   192
  0
VERTEX
  5
424B
  8
0
 10
-160.0000000000002
 20
703.0000000000001
 30
52.99999999999979
 70
   192
  0
VERTEX
  5
424C
  8
0
 10
-160.0000000000002
 20
703.0000000000001
 30
33.9999999999998
 70
   192
  0
VERTEX
  5
424D
  8
0
 10
-168.7500000000003
 20
703.0000000000001
 30
40.99999999999982
 70
   192
  0
VERTEX
  5
424E
  8
0
 10
-166.9822330470339
 20
703.0000000000001
 30
41.73223304703345
 70
   192
  0
VERTEX
  5
424F
  8
0
 10
-166.2500000000003
 20
703.0000000000001
 30
43.49999999999982
 70
   192
  0
VERTEX
  5
4250
  8
0
 10
-166.9822330470339
 20
703.0000000000001
 30
45.26776695296619
 70
   192
  0
VERTEX
  5
4251
  8
0
 10
-168.7500000000003
 20
703.0000000000001
 30
45.99999999999982
 70
   192
  0
VERTEX
  5
4252
  8
0
 10
-170.5177669529666
 20
703.0000000000001
 30
45.26776695296619
 70
   192
  0
VERTEX
  5
4253
  8
0
 10
-171.2500000000003
 20
703.0000000000001
 30
43.49999999999982
 70
   192
  0
VERTEX
  5
4254
  8
0
 10
-170.5177669529666
 20
703.0000000000001
 30
41.73223304703345
 70
   192
  0
VERTEX
  5
4255
  8
0
 10
0.0
 20
0.0
 30
0.0
 70
   128
 71
    -1
 72
     5
 73
    -6
  0
VERTEX
  5
4256
  8
0
 10
0.0
 20
0.0
 30
0.0
 70
   128
 71
     4
 72
    -1
 73
    -6
  0
VERTEX
  5
4257
  8
0
 10
0.0
 20
0.0
 30
0.0
 70
   128
 71
    -7
 72
     3
 73
    -4
  0
VERTEX
  5
4258
  8
0
 10
0.0
 20
0.0
 30
0.0
 70
   128
 71
     6
 72
    -7
 73
    -4
  0
VERTEX
  5
4259
  8
0
 10
0.0
 20
0.0
 30
0.0
 70
   128
 71
     7
 72
    -8
 73
    -3
  0
VERTEX
  5
425A
  8
0
 10
0.0
 20
0.0
 30
0.0
 70
   128
 71
    -9
 72
     2
 73
    -3
  0
VERTEX
  5
425B
  8
0
 10
0.0
 20
0.0
 30
0.0
 70
   128
 71
     8
 72
    -9
 73
    -3
  0
VERTEX
  5
425C
  8
0
 10
0.0
 20
0.0
 30
0.0
 70
   128
 71
     9
 72
   -10
 73
    -2
  0
VERTEX
  5
425D
  8
0
 10
0.0
 20
0.0
 30
0.0
 70
   128
 71
    10
 72
   -11
 73
    -2
  0
VERTEX
  5
425E
  8
0
 10
0.0
 20
0.0
 30
0.0
 70
   128
 71
   -12
 72
     1
 73
    -2
  0
VERTEX
  5
425F
  8
0
 10
0.0
 20
0.0
 30
0.0
 70
   128
 71
    11
 72
   -12
 73
    -2
  0
VERTEX
  5
4260
  8
0
 10
0.0
 20
0.0
 30
0.0
 70
   128
 71
    12
 72
    -5
 73
    -1
  0
SEQEND
  5
45DE
  8
0
  0
POLYLINE
  5
4261
  8
0
 66
     1
 10
0.0
 20
0.0
 30
0.0
 70
    64
 71
    24
 72
    26
  0
VERTEX
  5
4262
  8
0
 10
-240.0000000000002
 20
700.0000000000001
 30
52.99999999999981
 70
   192
  0
VERTEX
  5
4263
  8
0
 10
-160.0000000000002
 20
700.0000000000001
 30
52.99999999999979
 70
   192
  0
VERTEX
  5
4264
  8
0
 10
-160.0000000000002
 20
700.0000000000001
 30
33.9999999999998
 70
   192
  0
VERTEX
  5
4265
  8
0
 10
-177.5000000000003
 20
700.0000000000001
 30
33.99999999999981
 70
   192
  0
VERTEX
  5
4266
  8
0
 10
-177.5000000000003
 20
700.0000000000001
 30
31.99999999999979
 70
   192
  0
VERTEX
  5
4267
  8
0
 10
-222.5000000000003
 20
700.0000000000001
 30
31.99999999999979
 70
   192
  0
VERTEX
  5
4268
  8
0
 10
-222.5000000000003
 20
700.0000000000001
 30
33.99999999999981
 70
   192
  0
VERTEX
  5
4269
  8
0
 10
-240.0000000000002
 20
700.0000000000001
 30
33.99999999999981
 70
   192
  0
VERTEX
  5
426A
  8
0
 10
-168.7500000000003
 20
700.0000000000001
 30
40.99999999999982
 70
   192
  0
VERTEX
  5
426B
  8
0
 10
-166.9822330470339
 20
700.0000000000001
 30
41.73223304703345
 70
   192
  0
VERTEX
  5
426C
  8
0
 10
-166.2500000000003
 20
700.0000000000001
 30
43.49999999999982
 70
   192
  0
VERTEX
  5
426D
  8
0
 10
-166.9822330470339
 20
700.0000000000001
 30
45.26776695296619
 70
   192
  0
VERTEX
  5
426E
  8
0
 10
-168.7500000000003
 20
700.0000000000001
 30
45.99999999999982
 70
   192
  0
VERTEX
  5
426F
  8
0
 10
-170.5177669529666
 20
700.0000000000001
 30
45.26776695296619
 70
   192
  0
VERTEX
  5
4270
  8
0
 10
-171.2500000000003
 20
700.0000000000001
 30
43.49999999999982
 70
   192
  0
VERTEX
  5
4271
  8
0
 10
-170.5177669529666
 20
700.0000000000001
 30
41.73223304703345
 70
   192
  0
VERTEX
  5
4272
  8
0
 10
-231.2500000000002
 20
700.0000000000001
 30
40.9999999999998
 70
   192
  0
VERTEX
  5
4273
  8
0
 10
-229.4822330470339
 20
700.0000000000001
 30
41.73223304703343
 70
   192
  0
VERTEX
  5
4274
  8
0
 10
-228.7500000000002
 20
700.0000000000001
 30
43.4999999999998
 70
   192
  0
VERTEX
  5
4275
  8
0
 10
-229.4822330470339
 20
700.0000000000001
 30
45.26776695296617
 70
   192
  0
VERTEX
  5
4276
  8
0
 10
-231.2500000000002
 20
700.0000000000001
 30
45.9999999999998
 70
   192
  0
VERTEX
  5
4277
  8
0
 10
-233.0177669529666
 20
700.0000000000001
 30
45.26776695296617
 70
   192
  0
VERTEX
  5
4278
  8
0
 10
-233.7500000000002
 20
700.0000000000001
 30
43.4999999999998
 70
   192
  0
VERTEX
  5
4279
  8
0
 10
-233.0177669529666
 20
700.0000000000001
 30
41.73223304703343
 70
   192
  0
VERTEX
  5
427A
  8
0
 10
0.0
 20
0.0
 30
0.0
 70
   128
 71
     7
 72
     6
 73
    -5
  0
VERTEX
  5
427B
  8
0
 10
0.0
 20
0.0
 30
0.0
 70
   128
 71
    10
 72
    -9
 73
    -4
  0
VERTEX
  5
427C
  8
0
 10
0.0
 20
0.0
 30
0.0
 70
   128
 71
   -10
 72
     4
 73
    -3
  0
VERTEX
  5
427D
  8
0
 10
0.0
 20
0.0
 30
0.0
 70
   128
 71
     3
 72
    -2
 73
   -11
  0
VERTEX
  5
427E
  8
0
 10
0.0
 20
0.0
 30
0.0
 70
   128
 71
    -3
 72
    11
 73
   -10
  0
VERTEX
  5
427F
  8
0
 10
0.0
 20
0.0
 30
0.0
 70
   128
 71
    -2
 72
    12
 73
   -11
  0
VERTEX
  5
4280
  8
0
 10
0.0
 20
0.0
 30
0.0
 70
   128
 71
    -2
 72
    13
 73
   -12
  0
VERTEX
  5
4281
  8
0
 10
0.0
 20
0.0
 30
0.0
 70
   128
 71
    -2
 72
    14
 73
   -13
  0
VERTEX
  5
4282
  8
0
 10
0.0
 20
0.0
 30
0.0
 70
   128
 71
    20
 72
   -19
 73
   -15
  0
VERTEX
  5
4283
  8
0
 10
0.0
 20
0.0
 30
0.0
 70
   128
 71
   -14
 72
     2
 73
    -1
  0
VERTEX
  5
4284
  8
0
 10
0.0
 20
0.0
 30
0.0
 70
   128
 71
   -14
 72
    -1
 73
   -20
  0
VERTEX
  5
4285
  8
0
 10
0.0
 20
0.0
 30
0.0
 70
   128
 71
   -20
 72
    15
 73
   -14
  0
VERTEX
  5
4286
  8
0
 10
0.0
 20
0.0
 30
0.0
 70
   128
 71
    -1
 72
    21
 73
   -20
  0
VERTEX
  5
4287
  8
0
 10
0.0
 20
0.0
 30
0.0
 70
   128
 71
    -1
 72
    22
 73
   -21
  0
VERTEX
  5
4288
  8
0
 10
0.0
 20
0.0
 30
0.0
 70
   128
 71
     1
 72
    -8
 73
   -23
  0
VERTEX
  5
4289
  8
0
 10
0.0
 20
0.0
 30
0.0
 70
   128
 71
    -1
 72
    23
 73
   -22
  0
VERTEX
  5
428A
  8
0
 10
0.0
 20
0.0
 30
0.0
 70
   128
 71
    -8
 72
    24
 73
   -23
  0
VERTEX
  5
428B
  8
0
 10
0.0
 20
0.0
 30
0.0
 70
   128
 71
     8
 72
    -7
 73
   -17
  0
VERTEX
  5
428C
  8
0
 10
0.0
 20
0.0
 30
0.0
 70
   128
 71
    -8
 72
    17
 73
   -24
  0
VERTEX
  5
428D
  8
0
 10
0.0
 20
0.0
 30
0.0
 70
   128
 71
    18
 72
   -17
 73
    -7
  0
VERTEX
  5
428E
  8
0
 10
0.0
 20
0.0
 30
0.0
 70
   128
 71
    -7
 72
    -4
 73
   -16
  0
VERTEX
  5
428F
  8
0
 10
0.0
 20
0.0
 30
0.0
 70
   128
 71
    -7
 72
    16
 73
   -15
  0
VERTEX
  5
4290
  8
0
 10
0.0
 20
0.0
 30
0.0
 70
   128
 71
    -7
 72
   -15
 73
   -19
  0
VERTEX
  5
4291
  8
0
 10
0.0
 20
0.0
 30
0.0
 70
   128
 71
    -7
 72
    19
 73
   -18
  0
VERTEX
  5
4292
  8
0
 10
0.0
 20
0.0
 30
0.0
 70
   128
 71
    -4
 72
     9
 73
   -16
  0
VERTEX
  5
4293
  8
0
 10
0.0
 20
0.0
 30
0.0
 70
   128
 71
    -7
 72
     5
 73
    -4
  0
SEQEND
  5
45DF
  8
0
  0
POLYLINE
  5
4294
  8
0
 66
     1
 10
0.0
 20
0.0
 30
0.0
 70
    64
 71
     8
 72
     6
  0
VERTEX
  5
4295
  8
0
 10
-220.5000000000003
 20
724.0000000000001
 30
50.99999999999981
 70
   192
  0
VERTEX
  5
4296
  8
0
 10
-220.5000000000003
 20
724.0000000000001
 30
31.99999999999979
 70
   192
  0
VERTEX
  5
4297
  8
0
 10
-222.5000000000003
 20
724.0000000000001
 30
31.99999999999979
 70
   192
  0
VERTEX
  5
4298
  8
0
 10
-222.5000000000003
 20
724.0000000000001
 30
52.99999999999981
 70
   192
  0
VERTEX
  5
4299
  8
0
 10
-177.5000000000003
 20
724.0000000000001
 30
52.99999999999981
 70
   192
  0
VERTEX
  5
429A
  8
0
 10
-177.5000000000003
 20
724.0000000000001
 30
31.99999999999979
 70
   192
  0
VERTEX
  5
429B
  8
0
 10
-179.5000000000003
 20
724.0000000000001
 30
31.99999999999979
 70
   192
  0
VERTEX
  5
429C
  8
0
 10
-179.5000000000003
 20
724.0000000000001
 30
50.9999999999998
 70
   192
  0
VERTEX
  5
429D
  8
0
 10
0.0
 20
0.0
 30
0.0
 70
   128
 71
     6
 72
     7
 73
    -8
  0
VERTEX
  5
429E
  8
0
 10
0.0
 20
0.0
 30
0.0
 70
   128
 71
     5
 72
    -6
 73
    -8
  0
VERTEX
  5
429F
  8
0
 10
0.0
 20
0.0
 30
0.0
 70
   128
 71
    -1
 72
     4
 73
    -5
  0
VERTEX
  5
42A0
  8
0
 10
0.0
 20
0.0
 30
0.0
 70
   128
 71
     8
 72
    -1
 73
    -5
  0
VERTEX
  5
42A1
  8
0
 10
0.0
 20
0.0
 30
0.0
 70
   128
 71
     2
 72
     3
 73
    -4
  0
VERTEX
  5
42A2
  8
0
 10
0.0
 20
0.0
 30
0.0
 70
   128
 71
     1
 72
    -2
 73
    -4
  0
SEQEND
  5
45E0
  8
0
  0
POLYLINE
  5
42A3
  8
0
 66
     1
 10
0.0
 20
0.0
 30
0.0
 70
    64
 71
     4
 72
     2
  0
VERTEX
  5
42A4
  8
0
 10
-220.5000000000003
 20
702.0000000000001
 30
50.99999999999981
 70
   192
  0
VERTEX
  5
42A5
  8
0
 10
-220.5000000000003
 20
724.0000000000001
 30
50.99999999999981
 70
   192
  0
VERTEX
  5
42A6
  8
0
 10
-179.5000000000003
 20
724.0000000000001
 30
50.99999999999979
 70
   192
  0
VERTEX
  5
42A7
  8
0
 10
-179.5000000000003
 20
702.0000000000001
 30
50.9999999999998
 70
   192
  0
VERTEX
  5
42A8
  8
0
 10
0.0
 20
0.0
 30
0.0
 70
   128
 71
     3
 72
     4
 73
    -1
  0
VERTEX
  5
42A9
  8
0
 10
0.0
 20
0.0
 30
0.0
 70
   128
 71
     2
 72
    -3
 73
     1
  0
SEQEND
  5
45E1
  8
0
  0
POLYLINE
  5
42AA
  8
0
 66
     1
 10
0.0
 20
0.0
 30
0.0
 70
    64
 71
     4
 72
     2
  0
VERTEX
  5
42AB
  8
0
 10
-179.5000000000003
 20
702.0000000000001
 30
50.9999999999998
 70
   192
  0
VERTEX
  5
42AC
  8
0
 10
-179.5000000000003
 20
724.0000000000001
 30
50.9999999999998
 70
   192
  0
VERTEX
  5
42AD
  8
0
 10
-179.5000000000003
 20
724.0000000000001
 30
31.99999999999979
 70
   192
  0
VERTEX
  5
42AE
  8
0
 10
-179.5000000000003
 20
702.0000000000001
 30
31.99999999999979
 70
   192
  0
VERTEX
  5
42AF
  8
0
 10
0.0
 20
0.0
 30
0.0
 70
   128
 71
     3
 72
     4
 73
    -1
  0
VERTEX
  5
42B0
  8
0
 10
0.0
 20
0.0
 30
0.0
 70
   128
 71
     2
 72
    -3
 73
     1
  0
SEQEND
  5
45E2
  8
0
  0
POLYLINE
  5
42B1
  8
0
 66
     1
 10
0.0
 20
0.0
 30
0.0
 70
    64
 71
     4
 72
     2
  0
VERTEX
  5
42B2
  8
0
 10
-220.5000000000003
 20
702.0000000000001
 30
50.99999999999981
 70
   192
  0
VERTEX
  5
42B3
  8
0
 10
-220.5000000000003
 20
702.0000000000001
 30
31.99999999999979
 70
   192
  0
VERTEX
  5
42B4
  8
0
 10
-220.5000000000003
 20
724.0000000000001
 30
31.99999999999979
 70
   192
  0
VERTEX
  5
42B5
  8
0
 10
-220.5000000000003
 20
724.0000000000001
 30
50.99999999999981
 70
   192
  0
VERTEX
  5
42B6
  8
0
 10
0.0
 20
0.0
 30
0.0
 70
   128
 71
     3
 72
     4
 73
    -1
  0
VERTEX
  5
42B7
  8
0
 10
0.0
 20
0.0
 30
0.0
 70
   128
 71
     2
 72
    -3
 73
     1
  0
SEQEND
  5
45E3
  8
0
  0
POLYLINE
  5
42B8
  8
0
 66
     1
 10
0.0
 20
0.0
 30
0.0
 70
    64
 71
     4
 72
     2
  0
VERTEX
  5
42B9
  8
0
 10
-220.5000000000003
 20
702.0000000000001
 30
50.9999999999998
 70
   192
  0
VERTEX
  5
42BA
  8
0
 10
-179.5000000000003
 20
702.0000000000001
 30
50.99999999999979
 70
   192
  0
VERTEX
  5
42BB
  8
0
 10
-179.5000000000003
 20
702.0000000000001
 30
31.99999999999979
 70
   192
  0
VERTEX
  5
42BC
  8
0
 10
-220.5000000000003
 20
702.0000000000001
 30
31.99999999999979
 70
   192
  0
VERTEX
  5
42BD
  8
0
 10
0.0
 20
0.0
 30
0.0
 70
   128
 71
     3
 72
     4
 73
    -1
  0
VERTEX
  5
42BE
  8
0
 10
0.0
 20
0.0
 30
0.0
 70
   128
 71
     2
 72
    -3
 73
     1
  0
SEQEND
  5
45E4
  8
0
  0
POLYLINE
  5
42BF
  8
0
 66
     1
 10
0.0
 20
0.0
 30
0.0
 70
    64
 71
    10
 72
     8
  0
VERTEX
  5
42C0
  8
0
 10
-168.7500000000003
 20
700.0000000000001
 30
45.99999999999982
 70
   192
  0
VERTEX
  5
42C1
  8
0
 10
-168.7500000000003
 20
700.0000000000001
 30
40.99999999999983
 70
   192
  0
VERTEX
  5
42C2
  8
0
 10
-168.7500000000003
 20
703.0000000000001
 30
40.99999999999983
 70
   192
  0
VERTEX
  5
42C3
  8
0
 10
-168.7500000000003
 20
703.0000000000001
 30
45.99999999999982
 70
   192
  0
VERTEX
  5
42C4
  8
0
 10
-166.2500000000003
 20
703.0000000000001
 30
43.49999999999982
 70
   192
  0
VERTEX
  5
42C5
  8
0
 10
-166.2500000000003
 20
700.0000000000001
 30
43.49999999999982
 70
   192
  0
VERTEX
  5
42C6
  8
0
 10
-166.9822330470339
 20
703.0000000000001
 30
45.26776695296619
 70
   192
  0
VERTEX
  5
42C7
  8
0
 10
-166.9822330470339
 20
700.0000000000001
 30
45.26776695296619
 70
   192
  0
VERTEX
  5
42C8
  8
0
 10
-166.9822330470339
 20
703.0000000000001
 30
41.73223304703345
 70
   192
  0
VERTEX
  5
42C9
  8
0
 10
-166.9822330470339
 20
700.0000000000001
 30
41.73223304703345
 70
   192
  0
VERTEX
  5
42CA
  8
0
 10
0.0
 20
0.0
 30
0.0
 70
   128
 71
     8
 72
     1
 73
    -4
  0
VERTEX
  5
42CB
  8
0
 10
0.0
 20
0.0
 30
0.0
 70
   128
 71
     7
 72
    -8
 73
     4
  0
VERTEX
  5
42CC
  8
0
 10
0.0
 20
0.0
 30
0.0
 70
   128
 71
     6
 72
     8
 73
    -7
  0
VERTEX
  5
42CD
  8
0
 10
0.0
 20
0.0
 30
0.0
 70
   128
 71
     5
 72
    -6
 73
     7
  0
VERTEX
  5
42CE
  8
0
 10
0.0
 20
0.0
 30
0.0
 70
   128
 71
    10
 72
     6
 73
    -5
  0
VERTEX
  5
42CF
  8
0
 10
0.0
 20
0.0
 30
0.0
 70
   128
 71
     9
 72
   -10
 73
     5
  0
VERTEX
  5
42D0
  8
0
 10
0.0
 20
0.0
 30
0.0
 70
   128
 71
     3
 72
     2
 73
   -10
  0
VERTEX
  5
42D1
  8
0
 10
0.0
 20
0.0
 30
0.0
 70
   128
 71
     9
 72
    -3
 73
    10
  0
SEQEND
  5
45E5
  8
0
  0
POLYLINE
  5
42D2
  8
0
 66
     1
 10
0.0
 20
0.0
 30
0.0
 70
    64
 71
    10
 72
     8
  0
VERTEX
  5
42D3
  8
0
 10
-231.2500000000002
 20
700.0000000000001
 30
45.9999999999998
 70
   192
  0
VERTEX
  5
42D4
  8
0
 10
-231.2500000000002
 20
700.0000000000001
 30
40.9999999999998
 70
   192
  0
VERTEX
  5
42D5
  8
0
 10
-231.2500000000002
 20
703.0000000000001
 30
40.9999999999998
 70
   192
  0
VERTEX
  5
42D6
  8
0
 10
-231.2500000000002
 20
703.0000000000001
 30
45.9999999999998
 70
   192
  0
VERTEX
  5
42D7
  8
0
 10
-228.7500000000002
 20
703.0000000000001
 30
43.4999999999998
 70
   192
  0
VERTEX
  5
42D8
  8
0
 10
-228.7500000000002
 20
700.0000000000001
 30
43.4999999999998
 70
   192
  0
VERTEX
  5
42D9
  8
0
 10
-229.4822330470339
 20
703.0000000000001
 30
45.26776695296617
 70
   192
  0
VERTEX
  5
42DA
  8
0
 10
-229.4822330470339
 20
700.0000000000001
 30
45.26776695296617
 70
   192
  0
VERTEX
  5
42DB
  8
0
 10
-229.4822330470339
 20
703.0000000000001
 30
41.73223304703343
 70
   192
  0
VERTEX
  5
42DC
  8
0
 10
-229.4822330470339
 20
700.0000000000001
 30
41.73223304703343
 70
   192
  0
VERTEX
  5
42DD
  8
0
 10
0.0
 20
0.0
 30
0.0
 70
   128
 71
     8
 72
     1
 73
    -4
  0
VERTEX
  5
42DE
  8
0
 10
0.0
 20
0.0
 30
0.0
 70
   128
 71
     7
 72
    -8
 73
     4
  0
VERTEX
  5
42DF
  8
0
 10
0.0
 20
0.0
 30
0.0
 70
   128
 71
     6
 72
     8
 73
    -7
  0
VERTEX
  5
42E0
  8
0
 10
0.0
 20
0.0
 30
0.0
 70
   128
 71
     5
 72
    -6
 73
     7
  0
VERTEX
  5
42E1
  8
0
 10
0.0
 20
0.0
 30
0.0
 70
   128
 71
    10
 72
     6
 73
    -5
  0
VERTEX
  5
42E2
  8
0
 10
0.0
 20
0.0
 30
0.0
 70
   128
 71
     9
 72
   -10
 73
     5
  0
VERTEX
  5
42E3
  8
0
 10
0.0
 20
0.0
 30
0.0
 70
   128
 71
     3
 72
     2
 73
   -10
  0
VERTEX
  5
42E4
  8
0
 10
0.0
 20
0.0
 30
0.0
 70
   128
 71
     9
 72
    -3
 73
    10
  0
SEQEND
  5
45E6
  8
0
  0
ENDBLK
  5
45D2
  8
0
  0
BLOCK
  8
0
  2
*X27
 70
     1
 10
0.0
 20
0.0
 30
0.0
  3
*X27
  1

  0
POLYLINE
  5
42E6
  8
0
 66
     1
 10
0.0
 20
0.0
 30
0.0
 70
    64
 71
    10
 72
     8
  0
VERTEX
  5
42E7
  8
0
 10
168.7499999999998
 20
700.0000000000001
 30
41.00000000000026
 70
   192
  0
VERTEX
  5
42E8
  8
0
 10
168.7499999999998
 20
700.0000000000001
 30
46.00000000000026
 70
   192
  0
VERTEX
  5
42E9
  8
0
 10
168.7499999999998
 20
703.0000000000001
 30
46.00000000000026
 70
   192
  0
VERTEX
  5
42EA
  8
0
 10
168.7499999999998
 20
703.0000000000001
 30
41.00000000000026
 70
   192
  0
VERTEX
  5
42EB
  8
0
 10
166.2499999999998
 20
703.0000000000001
 30
43.50000000000026
 70
   192
  0
VERTEX
  5
42EC
  8
0
 10
166.2499999999998
 20
700.0000000000001
 30
43.50000000000026
 70
   192
  0
VERTEX
  5
42ED
  8
0
 10
166.9822330470334
 20
703.0000000000001
 30
41.73223304703389
 70
   192
  0
VERTEX
  5
42EE
  8
0
 10
166.9822330470334
 20
700.0000000000001
 30
41.73223304703389
 70
   192
  0
VERTEX
  5
42EF
  8
0
 10
166.9822330470334
 20
703.0000000000001
 30
45.26776695296663
 70
   192
  0
VERTEX
  5
42F0
  8
0
 10
166.9822330470334
 20
700.0000000000001
 30
45.26776695296663
 70
   192
  0
VERTEX
  5
42F1
  8
0
 10
0.0
 20
0.0
 30
0.0
 70
   128
 71
     8
 72
     1
 73
    -4
  0
VERTEX
  5
42F2
  8
0
 10
0.0
 20
0.0
 30
0.0
 70
   128
 71
     7
 72
    -8
 73
     4
  0
VERTEX
  5
42F3
  8
0
 10
0.0
 20
0.0
 30
0.0
 70
   128
 71
     6
 72
     8
 73
    -7
  0
VERTEX
  5
42F4
  8
0
 10
0.0
 20
0.0
 30
0.0
 70
   128
 71
     5
 72
    -6
 73
     7
  0
VERTEX
  5
42F5
  8
0
 10
0.0
 20
0.0
 30
0.0
 70
   128
 71
    10
 72
     6
 73
    -5
  0
VERTEX
  5
42F6
  8
0
 10
0.0
 20
0.0
 30
0.0
 70
   128
 71
     9
 72
   -10
 73
     5
  0
VERTEX
  5
42F7
  8
0
 10
0.0
 20
0.0
 30
0.0
 70
   128
 71
     2
 72
    10
 73
    -9
  0
VERTEX
  5
42F8
  8
0
 10
0.0
 20
0.0
 30
0.0
 70
   128
 71
     3
 72
    -2
 73
     9
  0
SEQEND
  5
45E9
  8
0
  0
POLYLINE
  5
42F9
  8
0
 66
     1
 10
0.0
 20
0.0
 30
0.0
 70
    64
 71
    10
 72
     8
  0
VERTEX
  5
42FA
  8
0
 10
231.2499999999998
 20
700.0000000000001
 30
41.00000000000028
 70
   192
  0
VERTEX
  5
42FB
  8
0
 10
231.2499999999998
 20
700.0000000000001
 30
46.00000000000028
 70
   192
  0
VERTEX
  5
42FC
  8
0
 10
231.2499999999998
 20
703.0000000000001
 30
46.00000000000028
 70
   192
  0
VERTEX
  5
42FD
  8
0
 10
231.2499999999998
 20
703.0000000000001
 30
41.00000000000028
 70
   192
  0
VERTEX
  5
42FE
  8
0
 10
228.7499999999998
 20
703.0000000000001
 30
43.50000000000028
 70
   192
  0
VERTEX
  5
42FF
  8
0
 10
228.7499999999998
 20
700.0000000000001
 30
43.50000000000028
 70
   192
  0
VERTEX
  5
4300
  8
0
 10
229.4822330470334
 20
703.0000000000001
 30
41.73223304703392
 70
   192
  0
VERTEX
  5
4301
  8
0
 10
229.4822330470334
 20
700.0000000000001
 30
41.73223304703392
 70
   192
  0
VERTEX
  5
4302
  8
0
 10
229.4822330470334
 20
703.0000000000001
 30
45.26776695296665
 70
   192
  0
VERTEX
  5
4303
  8
0
 10
229.4822330470334
 20
700.0000000000001
 30
45.26776695296665
 70
   192
  0
VERTEX
  5
4304
  8
0
 10
0.0
 20
0.0
 30
0.0
 70
   128
 71
     8
 72
     1
 73
    -4
  0
VERTEX
  5
4305
  8
0
 10
0.0
 20
0.0
 30
0.0
 70
   128
 71
     7
 72
    -8
 73
     4
  0
VERTEX
  5
4306
  8
0
 10
0.0
 20
0.0
 30
0.0
 70
   128
 71
     6
 72
     8
 73
    -7
  0
VERTEX
  5
4307
  8
0
 10
0.0
 20
0.0
 30
0.0
 70
   128
 71
     5
 72
    -6
 73
     7
  0
VERTEX
  5
4308
  8
0
 10
0.0
 20
0.0
 30
0.0
 70
   128
 71
    10
 72
     6
 73
    -5
  0
VERTEX
  5
4309
  8
0
 10
0.0
 20
0.0
 30
0.0
 70
   128
 71
     9
 72
   -10
 73
     5
  0
VERTEX
  5
430A
  8
0
 10
0.0
 20
0.0
 30
0.0
 70
   128
 71
     2
 72
    10
 73
    -9
  0
VERTEX
  5
430B
  8
0
 10
0.0
 20
0.0
 30
0.0
 70
   128
 71
     3
 72
    -2
 73
     9
  0
SEQEND
  5
45EA
  8
0
  0
POLYLINE
  5
430C
  8
0
 66
     1
 10
0.0
 20
0.0
 30
0.0
 70
    64
 71
    12
 72
    12
  0
VERTEX
  5
430D
  8
0
 10
177.4999999999998
 20
703.0000000000001
 30
53.00000000000027
 70
   192
  0
VERTEX
  5
430E
  8
0
 10
177.4999999999998
 20
703.0000000000001
 30
34.00000000000027
 70
   192
  0
VERTEX
  5
430F
  8
0
 10
159.9999999999998
 20
703.0000000000001
 30
34.00000000000027
 70
   192
  0
VERTEX
  5
4310
  8
0
 10
159.9999999999998
 20
703.0000000000001
 30
53.00000000000027
 70
   192
  0
VERTEX
  5
4311
  8
0
 10
168.7499999999998
 20
703.0000000000001
 30
41.00000000000026
 70
   192
  0
VERTEX
  5
4312
  8
0
 10
170.5177669529661
 20
703.0000000000001
 30
41.73223304703389
 70
   192
  0
VERTEX
  5
4313
  8
0
 10
171.2499999999998
 20
703.0000000000001
 30
43.50000000000026
 70
   192
  0
VERTEX
  5
4314
  8
0
 10
170.5177669529661
 20
703.0000000000001
 30
45.26776695296663
 70
   192
  0
VERTEX
  5
4315
  8
0
 10
168.7499999999998
 20
703.0000000000001
 30
46.00000000000026
 70
   192
  0
VERTEX
  5
4316
  8
0
 10
166.9822330470334
 20
703.0000000000001
 30
45.26776695296663
 70
   192
  0
VERTEX
  5
4317
  8
0
 10
166.2499999999998
 20
703.0000000000001
 30
43.50000000000026
 70
   192
  0
VERTEX
  5
4318
  8
0
 10
166.9822330470334
 20
703.0000000000001
 30
41.73223304703389
 70
   192
  0
VERTEX
  5
4319
  8
0
 10
0.0
 20
0.0
 30
0.0
 70
   128
 71
    -2
 72
     5
 73
    -6
  0
VERTEX
  5
431A
  8
0
 10
0.0
 20
0.0
 30
0.0
 70
   128
 71
     6
 72
    -7
 73
    -2
  0
VERTEX
  5
431B
  8
0
 10
0.0
 20
0.0
 30
0.0
 70
   128
 71
    -8
 72
     1
 73
    -2
  0
VERTEX
  5
431C
  8
0
 10
0.0
 20
0.0
 30
0.0
 70
   128
 71
     7
 72
    -8
 73
    -2
  0
VERTEX
  5
431D
  8
0
 10
0.0
 20
0.0
 30
0.0
 70
   128
 71
     8
 72
    -9
 73
    -1
  0
VERTEX
  5
431E
  8
0
 10
0.0
 20
0.0
 30
0.0
 70
   128
 71
   -10
 72
     4
 73
    -1
  0
VERTEX
  5
431F
  8
0
 10
0.0
 20
0.0
 30
0.0
 70
   128
 71
     9
 72
   -10
 73
    -1
  0
VERTEX
  5
4320
  8
0
 10
0.0
 20
0.0
 30
0.0
 70
   128
 71
   -11
 72
     3
 73
    -4
  0
VERTEX
  5
4321
  8
0
 10
0.0
 20
0.0
 30
0.0
 70
   128
 71
    10
 72
   -11
 73
    -4
  0
VERTEX
  5
4322
  8
0
 10
0.0
 20
0.0
 30
0.0
 70
   128
 71
    11
 72
   -12
 73
    -3
  0
VERTEX
  5
4323
  8
0
 10
0.0
 20
0.0
 30
0.0
 70
   128
 71
    -5
 72
     2
 73
    -3
  0
VERTEX
  5
4324
  8
0
 10
0.0
 20
0.0
 30
0.0
 70
   128
 71
    12
 72
    -5
 73
    -3
  0
SEQEND
  5
45EB
  8
0
  0
POLYLINE
  5
4325
  8
0
 66
     1
 10
0.0
 20
0.0
 30
0.0
 70
    64
 71
     4
 72
     2
  0
VERTEX
  5
4326
  8
0
 10
159.9999999999998
 20
700.0000000000001
 30
34.00000000000027
 70
   192
  0
VERTEX
  5
4327
  8
0
 10
159.9999999999998
 20
703.0000000000001
 30
34.00000000000027
 70
   192
  0
VERTEX
  5
4328
  8
0
 10
159.9999999999998
 20
703.0000000000001
 30
53.00000000000027
 70
   192
  0
VERTEX
  5
4329
  8
0
 10
159.9999999999998
 20
700.0000000000001
 30
53.00000000000027
 70
   192
  0
VERTEX
  5
432A
  8
0
 10
0.0
 20
0.0
 30
0.0
 70
   128
 71
     1
 72
     4
 73
    -3
  0
VERTEX
  5
432B
  8
0
 10
0.0
 20
0.0
 30
0.0
 70
   128
 71
    -1
 72
     3
 73
     2
  0
SEQEND
  5
45EC
  8
0
  0
POLYLINE
  5
432C
  8
0
 66
     1
 10
0.0
 20
0.0
 30
0.0
 70
    64
 71
     8
 72
     6
  0
VERTEX
  5
432D
  8
0
 10
159.9999999999998
 20
700.0000000000001
 30
53.00000000000027
 70
   192
  0
VERTEX
  5
432E
  8
0
 10
159.9999999999998
 20
703.0000000000001
 30
53.00000000000027
 70
   192
  0
VERTEX
  5
432F
  8
0
 10
177.4999999999998
 20
703.0000000000001
 30
53.00000000000027
 70
   192
  0
VERTEX
  5
4330
  8
0
 10
177.4999999999998
 20
724.0000000000001
 30
53.00000000000027
 70
   192
  0
VERTEX
  5
4331
  8
0
 10
222.4999999999998
 20
724.0000000000001
 30
53.00000000000027
 70
   192
  0
VERTEX
  5
4332
  8
0
 10
222.4999999999998
 20
703.0000000000001
 30
53.00000000000026
 70
   192
  0
VERTEX
  5
4333
  8
0
 10
239.9999999999998
 20
703.0000000000001
 30
53.00000000000026
 70
   192
  0
VERTEX
  5
4334
  8
0
 10
239.9999999999998
 20
700.0000000000001
 30
53.00000000000026
 70
   192
  0
VERTEX
  5
4335
  8
0
 10
0.0
 20
0.0
 30
0.0
 70
   128
 71
     3
 72
     2
 73
    -1
  0
VERTEX
  5
4336
  8
0
 10
0.0
 20
0.0
 30
0.0
 70
   128
 71
    -3
 72
    -1
 73
    -6
  0
VERTEX
  5
4337
  8
0
 10
0.0
 20
0.0
 30
0.0
 70
   128
 71
     6
 72
     5
 73
    -4
  0
VERTEX
  5
4338
  8
0
 10
0.0
 20
0.0
 30
0.0
 70
   128
 71
    -6
 72
     4
 73
    -3
  0
VERTEX
  5
4339
  8
0
 10
0.0
 20
0.0
 30
0.0
 70
   128
 71
     1
 72
    -8
 73
    -6
  0
VERTEX
  5
433A
  8
0
 10
0.0
 20
0.0
 30
0.0
 70
   128
 71
     8
 72
     7
 73
    -6
  0
SEQEND
  5
45ED
  8
0
  0
POLYLINE
  5
433B
  8
0
 66
     1
 10
0.0
 20
0.0
 30
0.0
 70
    64
 71
     4
 72
     2
  0
VERTEX
  5
433C
  8
0
 10
239.9999999999998
 20
700.0000000000001
 30
53.00000000000026
 70
   192
  0
VERTEX
  5
433D
  8
0
 10
239.9999999999998
 20
703.0000000000001
 30
53.00000000000026
 70
   192
  0
VERTEX
  5
433E
  8
0
 10
239.9999999999998
 20
703.0000000000001
 30
34.00000000000026
 70
   192
  0
VERTEX
  5
433F
  8
0
 10
239.9999999999998
 20
700.0000000000001
 30
34.00000000000026
 70
   192
  0
VERTEX
  5
4340
  8
0
 10
0.0
 20
0.0
 30
0.0
 70
   128
 71
     1
 72
     4
 73
    -3
  0
VERTEX
  5
4341
  8
0
 10
0.0
 20
0.0
 30
0.0
 70
   128
 71
    -1
 72
     3
 73
     2
  0
SEQEND
  5
45EE
  8
0
  0
POLYLINE
  5
4342
  8
0
 66
     1
 10
0.0
 20
0.0
 30
0.0
 70
    64
 71
     4
 72
     2
  0
VERTEX
  5
4343
  8
0
 10
239.9999999999998
 20
700.0000000000001
 30
34.00000000000026
 70
   192
  0
VERTEX
  5
4344
  8
0
 10
239.9999999999998
 20
703.0000000000001
 30
34.00000000000026
 70
   192
  0
VERTEX
  5
4345
  8
0
 10
222.4999999999998
 20
703.0000000000001
 30
34.00000000000027
 70
   192
  0
VERTEX
  5
4346
  8
0
 10
222.4999999999998
 20
700.0000000000001
 30
34.00000000000026
 70
   192
  0
VERTEX
  5
4347
  8
0
 10
0.0
 20
0.0
 30
0.0
 70
   128
 71
     1
 72
     4
 73
    -3
  0
VERTEX
  5
4348
  8
0
 10
0.0
 20
0.0
 30
0.0
 70
   128
 71
    -1
 72
     3
 73
     2
  0
SEQEND
  5
45EF
  8
0
  0
POLYLINE
  5
4349
  8
0
 66
     1
 10
0.0
 20
0.0
 30
0.0
 70
    64
 71
     6
 72
     4
  0
VERTEX
  5
434A
  8
0
 10
222.4999999999998
 20
700.0000000000001
 30
34.00000000000027
 70
   192
  0
VERTEX
  5
434B
  8
0
 10
222.4999999999998
 20
703.0000000000001
 30
34.00000000000027
 70
   192
  0
VERTEX
  5
434C
  8
0
 10
222.4999999999998
 20
703.0000000000001
 30
53.00000000000027
 70
   192
  0
VERTEX
  5
434D
  8
0
 10
222.4999999999998
 20
724.0000000000001
 30
53.00000000000027
 70
   192
  0
VERTEX
  5
434E
  8
0
 10
222.4999999999998
 20
724.0000000000001
 30
32.00000000000026
 70
   192
  0
VERTEX
  5
434F
  8
0
 10
222.4999999999998
 20
700.0000000000001
 30
32.00000000000026
 70
   192
  0
VERTEX
  5
4350
  8
0
 10
0.0
 20
0.0
 30
0.0
 70
   128
 71
     2
 72
     1
 73
    -6
  0
VERTEX
  5
4351
  8
0
 10
0.0
 20
0.0
 30
0.0
 70
   128
 71
    -2
 72
     6
 73
    -5
  0
VERTEX
  5
4352
  8
0
 10
0.0
 20
0.0
 30
0.0
 70
   128
 71
     5
 72
     4
 73
    -3
  0
VERTEX
  5
4353
  8
0
 10
0.0
 20
0.0
 30
0.0
 70
   128
 71
    -5
 72
     3
 73
    -2
  0
SEQEND
  5
45F0
  8
0
  0
POLYLINE
  5
4354
  8
0
 66
     1
 10
0.0
 20
0.0
 30
0.0
 70
    64
 71
     8
 72
     6
  0
VERTEX
  5
4355
  8
0
 10
177.4999999999998
 20
724.0000000000001
 30
32.00000000000026
 70
   192
  0
VERTEX
  5
4356
  8
0
 10
177.4999999999998
 20
700.0000000000001
 30
32.00000000000026
 70
   192
  0
VERTEX
  5
4357
  8
0
 10
222.4999999999998
 20
700.0000000000001
 30
32.00000000000026
 70
   192
  0
VERTEX
  5
4358
  8
0
 10
222.4999999999998
 20
724.0000000000001
 30
32.00000000000026
 70
   192
  0
VERTEX
  5
4359
  8
0
 10
220.4999999999998
 20
724.0000000000001
 30
32.00000000000026
 70
   192
  0
VERTEX
  5
435A
  8
0
 10
220.4999999999998
 20
702.0000000000001
 30
32.00000000000026
 70
   192
  0
VERTEX
  5
435B
  8
0
 10
179.4999999999998
 20
702.0000000000001
 30
32.00000000000026
 70
   192
  0
VERTEX
  5
435C
  8
0
 10
179.4999999999998
 20
724.0000000000001
 30
32.00000000000026
 70
   192
  0
VERTEX
  5
435D
  8
0
 10
0.0
 20
0.0
 30
0.0
 70
   128
 71
     6
 72
     5
 73
    -4
  0
VERTEX
  5
435E
  8
0
 10
0.0
 20
0.0
 30
0.0
 70
   128
 71
    -6
 72
     4
 73
    -3
  0
VERTEX
  5
435F
  8
0
 10
0.0
 20
0.0
 30
0.0
 70
   128
 71
     3
 72
    -2
 73
    -7
  0
VERTEX
  5
4360
  8
0
 10
0.0
 20
0.0
 30
0.0
 70
   128
 71
    -3
 72
     7
 73
    -6
  0
VERTEX
  5
4361
  8
0
 10
0.0
 20
0.0
 30
0.0
 70
   128
 71
     2
 72
     1
 73
    -8
  0
VERTEX
  5
4362
  8
0
 10
0.0
 20
0.0
 30
0.0
 70
   128
 71
    -2
 72
     8
 73
    -7
  0
SEQEND
  5
45F1
  8
0
  0
POLYLINE
  5
4363
  8
0
 66
     1
 10
0.0
 20
0.0
 30
0.0
 70
    64
 71
     6
 72
     4
  0
VERTEX
  5
4364
  8
0
 10
177.4999999999998
 20
700.0000000000001
 30
32.00000000000026
 70
   192
  0
VERTEX
  5
4365
  8
0
 10
177.4999999999998
 20
724.0000000000001
 30
32.00000000000026
 70
   192
  0
VERTEX
  5
4366
  8
0
 10
177.4999999999998
 20
724.0000000000001
 30
53.00000000000027
 70
   192
  0
VERTEX
  5
4367
  8
0
 10
177.4999999999998
 20
703.0000000000001
 30
53.00000000000027
 70
   192
  0
VERTEX
  5
4368
  8
0
 10
177.4999999999998
 20
703.0000000000001
 30
34.00000000000027
 70
   192
  0
VERTEX
  5
4369
  8
0
 10
177.4999999999998
 20
700.0000000000001
 30
34.00000000000027
 70
   192
  0
VERTEX
  5
436A
  8
0
 10
0.0
 20
0.0
 30
0.0
 70
   128
 71
     5
 72
     4
 73
    -3
  0
VERTEX
  5
436B
  8
0
 10
0.0
 20
0.0
 30
0.0
 70
   128
 71
    -5
 72
     3
 73
    -2
  0
VERTEX
  5
436C
  8
0
 10
0.0
 20
0.0
 30
0.0
 70
   128
 71
     2
 72
    -1
 73
    -5
  0
VERTEX
  5
436D
  8
0
 10
0.0
 20
0.0
 30
0.0
 70
   128
 71
     1
 72
     6
 73
    -5
  0
SEQEND
  5
45F2
  8
0
  0
POLYLINE
  5
436E
  8
0
 66
     1
 10
0.0
 20
0.0
 30
0.0
 70
    64
 71
     4
 72
     2
  0
VERTEX
  5
436F
  8
0
 10
177.4999999999998
 20
700.0000000000001
 30
34.00000000000027
 70
   192
  0
VERTEX
  5
4370
  8
0
 10
177.4999999999998
 20
703.0000000000001
 30
34.00000000000027
 70
   192
  0
VERTEX
  5
4371
  8
0
 10
159.9999999999998
 20
703.0000000000001
 30
34.00000000000027
 70
   192
  0
VERTEX
  5
4372
  8
0
 10
159.9999999999998
 20
700.0000000000001
 30
34.00000000000027
 70
   192
  0
VERTEX
  5
4373
  8
0
 10
0.0
 20
0.0
 30
0.0
 70
   128
 71
     1
 72
     4
 73
    -3
  0
VERTEX
  5
4374
  8
0
 10
0.0
 20
0.0
 30
0.0
 70
   128
 71
    -1
 72
     3
 73
     2
  0
SEQEND
  5
45F3
  8
0
  0
POLYLINE
  5
4375
  8
0
 66
     1
 10
0.0
 20
0.0
 30
0.0
 70
    64
 71
    12
 72
    12
  0
VERTEX
  5
4376
  8
0
 10
222.4999999999998
 20
703.0000000000001
 30
34.00000000000027
 70
   192
  0
VERTEX
  5
4377
  8
0
 10
222.4999999999998
 20
703.0000000000001
 30
53.00000000000026
 70
   192
  0
VERTEX
  5
4378
  8
0
 10
239.9999999999998
 20
703.0000000000001
 30
53.00000000000026
 70
   192
  0
VERTEX
  5
4379
  8
0
 10
239.9999999999998
 20
703.0000000000001
 30
34.00000000000026
 70
   192
  0
VERTEX
  5
437A
  8
0
 10
231.2499999999998
 20
703.0000000000001
 30
41.00000000000028
 70
   192
  0
VERTEX
  5
437B
  8
0
 10
233.0177669529662
 20
703.0000000000001
 30
41.73223304703392
 70
   192
  0
VERTEX
  5
437C
  8
0
 10
233.7499999999998
 20
703.0000000000001
 30
43.50000000000028
 70
   192
  0
VERTEX
  5
437D
  8
0
 10
233.0177669529661
 20
703.0000000000001
 30
45.26776695296665
 70
   192
  0
VERTEX
  5
437E
  8
0
 10
231.2499999999998
 20
703.0000000000001
 30
46.00000000000028
 70
   192
  0
VERTEX
  5
437F
  8
0
 10
229.4822330470334
 20
703.0000000000001
 30
45.26776695296665
 70
   192
  0
VERTEX
  5
4380
  8
0
 10
228.7499999999998
 20
703.0000000000001
 30
43.50000000000028
 70
   192
  0
VERTEX
  5
4381
  8
0
 10
229.4822330470334
 20
703.0000000000001
 30
41.73223304703392
 70
   192
  0
VERTEX
  5
4382
  8
0
 10
0.0
 20
0.0
 30
0.0
 70
   128
 71
    -1
 72
     5
 73
    -6
  0
VERTEX
  5
4383
  8
0
 10
0.0
 20
0.0
 30
0.0
 70
   128
 71
     4
 72
    -1
 73
    -6
  0
VERTEX
  5
4384
  8
0
 10
0.0
 20
0.0
 30
0.0
 70
   128
 71
    -7
 72
     3
 73
    -4
  0
VERTEX
  5
4385
  8
0
 10
0.0
 20
0.0
 30
0.0
 70
   128
 71
     6
 72
    -7
 73
    -4
  0
VERTEX
  5
4386
  8
0
 10
0.0
 20
0.0
 30
0.0
 70
   128
 71
     7
 72
    -8
 73
    -3
  0
VERTEX
  5
4387
  8
0
 10
0.0
 20
0.0
 30
0.0
 70
   128
 71
     8
 72
    -9
 73
    -3
  0
VERTEX
  5
4388
  8
0
 10
0.0
 20
0.0
 30
0.0
 70
   128
 71
   -10
 72
     2
 73
    -3
  0
VERTEX
  5
4389
  8
0
 10
0.0
 20
0.0
 30
0.0
 70
   128
 71
     9
 72
   -10
 73
    -3
  0
VERTEX
  5
438A
  8
0
 10
0.0
 20
0.0
 30
0.0
 70
   128
 71
    10
 72
   -11
 73
    -2
  0
VERTEX
  5
438B
  8
0
 10
0.0
 20
0.0
 30
0.0
 70
   128
 71
   -12
 72
     1
 73
    -2
  0
VERTEX
  5
438C
  8
0
 10
0.0
 20
0.0
 30
0.0
 70
   128
 71
    11
 72
   -12
 73
    -2
  0
VERTEX
  5
438D
  8
0
 10
0.0
 20
0.0
 30
0.0
 70
   128
 71
    12
 72
    -5
 73
    -1
  0
SEQEND
  5
45F4
  8
0
  0
POLYLINE
  5
438E
  8
0
 66
     1
 10
0.0
 20
0.0
 30
0.0
 70
    64
 71
    24
 72
    26
  0
VERTEX
  5
438F
  8
0
 10
159.9999999999998
 20
700.0000000000001
 30
53.00000000000027
 70
   192
  0
VERTEX
  5
4390
  8
0
 10
239.9999999999998
 20
700.0000000000001
 30
53.00000000000026
 70
   192
  0
VERTEX
  5
4391
  8
0
 10
239.9999999999998
 20
700.0000000000001
 30
34.00000000000026
 70
   192
  0
VERTEX
  5
4392
  8
0
 10
222.4999999999998
 20
700.0000000000001
 30
34.00000000000027
 70
   192
  0
VERTEX
  5
4393
  8
0
 10
222.4999999999998
 20
700.0000000000001
 30
32.00000000000026
 70
   192
  0
VERTEX
  5
4394
  8
0
 10
177.4999999999998
 20
700.0000000000001
 30
32.00000000000026
 70
   192
  0
VERTEX
  5
4395
  8
0
 10
177.4999999999998
 20
700.0000000000001
 30
34.00000000000027
 70
   192
  0
VERTEX
  5
4396
  8
0
 10
159.9999999999998
 20
700.0000000000001
 30
34.00000000000027
 70
   192
  0
VERTEX
  5
4397
  8
0
 10
231.2499999999998
 20
700.0000000000001
 30
41.00000000000028
 70
   192
  0
VERTEX
  5
4398
  8
0
 10
233.0177669529661
 20
700.0000000000001
 30
41.73223304703392
 70
   192
  0
VERTEX
  5
4399
  8
0
 10
233.7499999999998
 20
700.0000000000001
 30
43.50000000000028
 70
   192
  0
VERTEX
  5
439A
  8
0
 10
233.0177669529662
 20
700.0000000000001
 30
45.26776695296665
 70
   192
  0
VERTEX
  5
439B
  8
0
 10
231.2499999999998
 20
700.0000000000001
 30
46.00000000000028
 70
   192
  0
VERTEX
  5
439C
  8
0
 10
229.4822330470334
 20
700.0000000000001
 30
45.26776695296665
 70
   192
  0
VERTEX
  5
439D
  8
0
 10
228.7499999999998
 20
700.0000000000001
 30
43.50000000000028
 70
   192
  0
VERTEX
  5
439E
  8
0
 10
229.4822330470334
 20
700.0000000000001
 30
41.73223304703392
 70
   192
  0
VERTEX
  5
439F
  8
0
 10
168.7499999999998
 20
700.0000000000001
 30
41.00000000000026
 70
   192
  0
VERTEX
  5
43A0
  8
0
 10
170.5177669529661
 20
700.0000000000001
 30
41.73223304703389
 70
   192
  0
VERTEX
  5
43A1
  8
0
 10
171.2499999999998
 20
700.0000000000001
 30
43.50000000000026
 70
   192
  0
VERTEX
  5
43A2
  8
0
 10
170.5177669529661
 20
700.0000000000001
 30
45.26776695296663
 70
   192
  0
VERTEX
  5
43A3
  8
0
 10
168.7499999999998
 20
700.0000000000001
 30
46.00000000000026
 70
   192
  0
VERTEX
  5
43A4
  8
0
 10
166.9822330470334
 20
700.0000000000001
 30
45.26776695296663
 70
   192
  0
VERTEX
  5
43A5
  8
0
 10
166.2499999999998
 20
700.0000000000001
 30
43.50000000000026
 70
   192
  0
VERTEX
  5
43A6
  8
0
 10
166.9822330470334
 20
700.0000000000001
 30
41.73223304703389
 70
   192
  0
VERTEX
  5
43A7
  8
0
 10
0.0
 20
0.0
 30
0.0
 70
   128
 71
     7
 72
     6
 73
    -5
  0
VERTEX
  5
43A8
  8
0
 10
0.0
 20
0.0
 30
0.0
 70
   128
 71
    10
 72
    -9
 73
    -4
  0
VERTEX
  5
43A9
  8
0
 10
0.0
 20
0.0
 30
0.0
 70
   128
 71
   -10
 72
     4
 73
    -3
  0
VERTEX
  5
43AA
  8
0
 10
0.0
 20
0.0
 30
0.0
 70
   128
 71
     3
 72
    -2
 73
   -11
  0
VERTEX
  5
43AB
  8
0
 10
0.0
 20
0.0
 30
0.0
 70
   128
 71
    -3
 72
    11
 73
   -10
  0
VERTEX
  5
43AC
  8
0
 10
0.0
 20
0.0
 30
0.0
 70
   128
 71
    -2
 72
    12
 73
   -11
  0
VERTEX
  5
43AD
  8
0
 10
0.0
 20
0.0
 30
0.0
 70
   128
 71
    -2
 72
    13
 73
   -12
  0
VERTEX
  5
43AE
  8
0
 10
0.0
 20
0.0
 30
0.0
 70
   128
 71
    -2
 72
    14
 73
   -13
  0
VERTEX
  5
43AF
  8
0
 10
0.0
 20
0.0
 30
0.0
 70
   128
 71
    20
 72
   -19
 73
   -15
  0
VERTEX
  5
43B0
  8
0
 10
0.0
 20
0.0
 30
0.0
 70
   128
 71
   -14
 72
     2
 73
    -1
  0
VERTEX
  5
43B1
  8
0
 10
0.0
 20
0.0
 30
0.0
 70
   128
 71
   -14
 72
    -1
 73
   -20
  0
VERTEX
  5
43B2
  8
0
 10
0.0
 20
0.0
 30
0.0
 70
   128
 71
   -20
 72
    15
 73
   -14
  0
VERTEX
  5
43B3
  8
0
 10
0.0
 20
0.0
 30
0.0
 70
   128
 71
    -1
 72
    21
 73
   -20
  0
VERTEX
  5
43B4
  8
0
 10
0.0
 20
0.0
 30
0.0
 70
   128
 71
    -1
 72
    22
 73
   -21
  0
VERTEX
  5
43B5
  8
0
 10
0.0
 20
0.0
 30
0.0
 70
   128
 71
     1
 72
    -8
 73
   -23
  0
VERTEX
  5
43B6
  8
0
 10
0.0
 20
0.0
 30
0.0
 70
   128
 71
    -1
 72
    23
 73
   -22
  0
VERTEX
  5
43B7
  8
0
 10
0.0
 20
0.0
 30
0.0
 70
   128
 71
    -8
 72
    24
 73
   -23
  0
VERTEX
  5
43B8
  8
0
 10
0.0
 20
0.0
 30
0.0
 70
   128
 71
     8
 72
    -7
 73
   -17
  0
VERTEX
  5
43B9
  8
0
 10
0.0
 20
0.0
 30
0.0
 70
   128
 71
    -8
 72
    17
 73
   -24
  0
VERTEX
  5
43BA
  8
0
 10
0.0
 20
0.0
 30
0.0
 70
   128
 71
    18
 72
   -17
 73
    -7
  0
VERTEX
  5
43BB
  8
0
 10
0.0
 20
0.0
 30
0.0
 70
   128
 71
    -7
 72
    -4
 73
   -16
  0
VERTEX
  5
43BC
  8
0
 10
0.0
 20
0.0
 30
0.0
 70
   128
 71
    -7
 72
    16
 73
   -15
  0
VERTEX
  5
43BD
  8
0
 10
0.0
 20
0.0
 30
0.0
 70
   128
 71
    -7
 72
   -15
 73
   -19
  0
VERTEX
  5
43BE
  8
0
 10
0.0
 20
0.0
 30
0.0
 70
   128
 71
    -7
 72
    19
 73
   -18
  0
VERTEX
  5
43BF
  8
0
 10
0.0
 20
0.0
 30
0.0
 70
   128
 71
    -4
 72
     9
 73
   -16
  0
VERTEX
  5
43C0
  8
0
 10
0.0
 20
0.0
 30
0.0
 70
   128
 71
    -7
 72
     5
 73
    -4
  0
SEQEND
  5
45F5
  8
0
  0
POLYLINE
  5
43C1
  8
0
 66
     1
 10
0.0
 20
0.0
 30
0.0
 70
    64
 71
     8
 72
     6
  0
VERTEX
  5
43C2
  8
0
 10
179.4999999999997
 20
724.0000000000001
 30
51.00000000000027
 70
   192
  0
VERTEX
  5
43C3
  8
0
 10
179.4999999999998
 20
724.0000000000001
 30
32.00000000000026
 70
   192
  0
VERTEX
  5
43C4
  8
0
 10
177.4999999999998
 20
724.0000000000001
 30
32.00000000000026
 70
   192
  0
VERTEX
  5
43C5
  8
0
 10
177.4999999999998
 20
724.0000000000001
 30
53.00000000000027
 70
   192
  0
VERTEX
  5
43C6
  8
0
 10
222.4999999999998
 20
724.0000000000001
 30
53.00000000000027
 70
   192
  0
VERTEX
  5
43C7
  8
0
 10
222.4999999999998
 20
724.0000000000001
 30
32.00000000000026
 70
   192
  0
VERTEX
  5
43C8
  8
0
 10
220.4999999999998
 20
724.0000000000001
 30
32.00000000000026
 70
   192
  0
VERTEX
  5
43C9
  8
0
 10
220.4999999999997
 20
724.0000000000001
 30
51.00000000000026
 70
   192
  0
VERTEX
  5
43CA
  8
0
 10
0.0
 20
0.0
 30
0.0
 70
   128
 71
     6
 72
     7
 73
    -8
  0
VERTEX
  5
43CB
  8
0
 10
0.0
 20
0.0
 30
0.0
 70
   128
 71
     5
 72
    -6
 73
    -8
  0
VERTEX
  5
43CC
  8
0
 10
0.0
 20
0.0
 30
0.0
 70
   128
 71
    -1
 72
     4
 73
    -5
  0
VERTEX
  5
43CD
  8
0
 10
0.0
 20
0.0
 30
0.0
 70
   128
 71
     8
 72
    -1
 73
    -5
  0
VERTEX
  5
43CE
  8
0
 10
0.0
 20
0.0
 30
0.0
 70
   128
 71
     2
 72
     3
 73
    -4
  0
VERTEX
  5
43CF
  8
0
 10
0.0
 20
0.0
 30
0.0
 70
   128
 71
     1
 72
    -2
 73
    -4
  0
SEQEND
  5
45F6
  8
0
  0
POLYLINE
  5
43D0
  8
0
 66
     1
 10
0.0
 20
0.0
 30
0.0
 70
    64
 71
     4
 72
     2
  0
VERTEX
  5
43D1
  8
0
 10
179.4999999999997
 20
702.0000000000001
 30
51.00000000000027
 70
   192
  0
VERTEX
  5
43D2
  8
0
 10
179.4999999999997
 20
724.0000000000001
 30
51.00000000000027
 70
   192
  0
VERTEX
  5
43D3
  8
0
 10
220.4999999999997
 20
724.0000000000001
 30
51.00000000000026
 70
   192
  0
VERTEX
  5
43D4
  8
0
 10
220.4999999999997
 20
702.0000000000001
 30
51.00000000000026
 70
   192
  0
VERTEX
  5
43D5
  8
0
 10
0.0
 20
0.0
 30
0.0
 70
   128
 71
     3
 72
     4
 73
    -1
  0
VERTEX
  5
43D6
  8
0
 10
0.0
 20
0.0
 30
0.0
 70
   128
 71
     2
 72
    -3
 73
     1
  0
SEQEND
  5
45F7
  8
0
  0
POLYLINE
  5
43D7
  8
0
 66
     1
 10
0.0
 20
0.0
 30
0.0
 70
    64
 71
     4
 72
     2
  0
VERTEX
  5
43D8
  8
0
 10
220.4999999999997
 20
702.0000000000001
 30
51.00000000000026
 70
   192
  0
VERTEX
  5
43D9
  8
0
 10
220.4999999999997
 20
724.0000000000001
 30
51.00000000000026
 70
   192
  0
VERTEX
  5
43DA
  8
0
 10
220.4999999999998
 20
724.0000000000001
 30
32.00000000000026
 70
   192
  0
VERTEX
  5
43DB
  8
0
 10
220.4999999999998
 20
702.0000000000001
 30
32.00000000000026
 70
   192
  0
VERTEX
  5
43DC
  8
0
 10
0.0
 20
0.0
 30
0.0
 70
   128
 71
     3
 72
     4
 73
    -1
  0
VERTEX
  5
43DD
  8
0
 10
0.0
 20
0.0
 30
0.0
 70
   128
 71
     2
 72
    -3
 73
     1
  0
SEQEND
  5
45F8
  8
0
  0
POLYLINE
  5
43DE
  8
0
 66
     1
 10
0.0
 20
0.0
 30
0.0
 70
    64
 71
     4
 72
     2
  0
VERTEX
  5
43DF
  8
0
 10
179.4999999999997
 20
702.0000000000001
 30
51.00000000000027
 70
   192
  0
VERTEX
  5
43E0
  8
0
 10
179.4999999999998
 20
702.0000000000001
 30
32.00000000000026
 70
   192
  0
VERTEX
  5
43E1
  8
0
 10
179.4999999999998
 20
724.0000000000001
 30
32.00000000000026
 70
   192
  0
VERTEX
  5
43E2
  8
0
 10
179.4999999999997
 20
724.0000000000001
 30
51.00000000000027
 70
   192
  0
VERTEX
  5
43E3
  8
0
 10
0.0
 20
0.0
 30
0.0
 70
   128
 71
     3
 72
     4
 73
    -1
  0
VERTEX
  5
43E4
  8
0
 10
0.0
 20
0.0
 30
0.0
 70
   128
 71
     2
 72
    -3
 73
     1
  0
SEQEND
  5
45F9
  8
0
  0
POLYLINE
  5
43E5
  8
0
 66
     1
 10
0.0
 20
0.0
 30
0.0
 70
    64
 71
     4
 72
     2
  0
VERTEX
  5
43E6
  8
0
 10
179.4999999999997
 20
702.0000000000001
 30
51.00000000000026
 70
   192
  0
VERTEX
  5
43E7
  8
0
 10
220.4999999999997
 20
702.0000000000001
 30
51.00000000000026
 70
   192
  0
VERTEX
  5
43E8
  8
0
 10
220.4999999999998
 20
702.0000000000001
 30
32.00000000000026
 70
   192
  0
VERTEX
  5
43E9
  8
0
 10
179.4999999999998
 20
702.0000000000001
 30
32.00000000000026
 70
   192
  0
VERTEX
  5
43EA
  8
0
 10
0.0
 20
0.0
 30
0.0
 70
   128
 71
     3
 72
     4
 73
    -1
  0
VERTEX
  5
43EB
  8
0
 10
0.0
 20
0.0
 30
0.0
 70
   128
 71
     2
 72
    -3
 73
     1
  0
SEQEND
  5
45FA
  8
0
  0
POLYLINE
  5
43EC
  8
0
 66
     1
 10
0.0
 20
0.0
 30
0.0
 70
    64
 71
    10
 72
     8
  0
VERTEX
  5
43ED
  8
0
 10
231.2499999999998
 20
700.0000000000001
 30
46.00000000000028
 70
   192
  0
VERTEX
  5
43EE
  8
0
 10
231.2499999999998
 20
700.0000000000001
 30
41.00000000000028
 70
   192
  0
VERTEX
  5
43EF
  8
0
 10
231.2499999999998
 20
703.0000000000001
 30
41.00000000000028
 70
   192
  0
VERTEX
  5
43F0
  8
0
 10
231.2499999999998
 20
703.0000000000001
 30
46.00000000000028
 70
   192
  0
VERTEX
  5
43F1
  8
0
 10
233.7499999999998
 20
703.0000000000001
 30
43.50000000000028
 70
   192
  0
VERTEX
  5
43F2
  8
0
 10
233.7499999999998
 20
700.0000000000001
 30
43.50000000000028
 70
   192
  0
VERTEX
  5
43F3
  8
0
 10
233.0177669529661
 20
703.0000000000001
 30
45.26776695296665
 70
   192
  0
VERTEX
  5
43F4
  8
0
 10
233.0177669529662
 20
700.0000000000001
 30
45.26776695296665
 70
   192
  0
VERTEX
  5
43F5
  8
0
 10
233.0177669529662
 20
703.0000000000001
 30
41.73223304703392
 70
   192
  0
VERTEX
  5
43F6
  8
0
 10
233.0177669529661
 20
700.0000000000001
 30
41.73223304703392
 70
   192
  0
VERTEX
  5
43F7
  8
0
 10
0.0
 20
0.0
 30
0.0
 70
   128
 71
     8
 72
     1
 73
    -4
  0
VERTEX
  5
43F8
  8
0
 10
0.0
 20
0.0
 30
0.0
 70
   128
 71
     7
 72
    -8
 73
     4
  0
VERTEX
  5
43F9
  8
0
 10
0.0
 20
0.0
 30
0.0
 70
   128
 71
     6
 72
     8
 73
    -7
  0
VERTEX
  5
43FA
  8
0
 10
0.0
 20
0.0
 30
0.0
 70
   128
 71
     5
 72
    -6
 73
     7
  0
VERTEX
  5
43FB
  8
0
 10
0.0
 20
0.0
 30
0.0
 70
   128
 71
    10
 72
     6
 73
    -5
  0
VERTEX
  5
43FC
  8
0
 10
0.0
 20
0.0
 30
0.0
 70
   128
 71
     9
 72
   -10
 73
     5
  0
VERTEX
  5
43FD
  8
0
 10
0.0
 20
0.0
 30
0.0
 70
   128
 71
     3
 72
     2
 73
   -10
  0
VERTEX
  5
43FE
  8
0
 10
0.0
 20
0.0
 30
0.0
 70
   128
 71
     9
 72
    -3
 73
    10
  0
SEQEND
  5
45FB
  8
0
  0
POLYLINE
  5
43FF
  8
0
 66
     1
 10
0.0
 20
0.0
 30
0.0
 70
    64
 71
    10
 72
     8
  0
VERTEX
  5
4400
  8
0
 10
168.7499999999998
 20
700.0000000000001
 30
46.00000000000026
 70
   192
  0
VERTEX
  5
4401
  8
0
 10
168.7499999999998
 20
700.0000000000001
 30
41.00000000000026
 70
   192
  0
VERTEX
  5
4402
  8
0
 10
168.7499999999998
 20
703.0000000000001
 30
41.00000000000026
 70
   192
  0
VERTEX
  5
4403
  8
0
 10
168.7499999999998
 20
703.0000000000001
 30
46.00000000000026
 70
   192
  0
VERTEX
  5
4404
  8
0
 10
171.2499999999998
 20
703.0000000000001
 30
43.50000000000026
 70
   192
  0
VERTEX
  5
4405
  8
0
 10
171.2499999999998
 20
700.0000000000001
 30
43.50000000000026
 70
   192
  0
VERTEX
  5
4406
  8
0
 10
170.5177669529661
 20
703.0000000000001
 30
45.26776695296663
 70
   192
  0
VERTEX
  5
4407
  8
0
 10
170.5177669529661
 20
700.0000000000001
 30
45.26776695296663
 70
   192
  0
VERTEX
  5
4408
  8
0
 10
170.5177669529661
 20
703.0000000000001
 30
41.73223304703389
 70
   192
  0
VERTEX
  5
4409
  8
0
 10
170.5177669529661
 20
700.0000000000001
 30
41.73223304703389
 70
   192
  0
VERTEX
  5
440A
  8
0
 10
0.0
 20
0.0
 30
0.0
 70
   128
 71
     8
 72
     1
 73
    -4
  0
VERTEX
  5
440B
  8
0
 10
0.0
 20
0.0
 30
0.0
 70
   128
 71
     7
 72
    -8
 73
     4
  0
VERTEX
  5
440C
  8
0
 10
0.0
 20
0.0
 30
0.0
 70
   128
 71
     6
 72
     8
 73
    -7
  0
VERTEX
  5
440D
  8
0
 10
0.0
 20
0.0
 30
0.0
 70
   128
 71
     5
 72
    -6
 73
     7
  0
VERTEX
  5
440E
  8
0
 10
0.0
 20
0.0
 30
0.0
 70
   128
 71
    10
 72
     6
 73
    -5
  0
VERTEX
  5
440F
  8
0
 10
0.0
 20
0.0
 30
0.0
 70
   128
 71
     9
 72
   -10
 73
     5
  0
VERTEX
  5
4410
  8
0
 10
0.0
 20
0.0
 30
0.0
 70
   128
 71
     3
 72
     2
 73
   -10
  0
VERTEX
  5
4411
  8
0
 10
0.0
 20
0.0
 30
0.0
 70
   128
 71
     9
 72
    -3
 73
    10
  0
SEQEND
  5
45FC
  8
0
  0
ENDBLK
  5
45E8
  8
0
  0
BLOCK
  8
0
  2
*X28
 70
     1
 10
0.0
 20
0.0
 30
0.0
  3
*X28
  1

  0
POLYLINE
  5
4413
  8
0
 66
     1
 10
0.0
 20
0.0
 30
0.0
 70
    64
 71
     4
 72
     2
  0
VERTEX
  5
4414
  8
0
 10
219.9999999999999
 20
726.0000000000001
 30
32.00000000000021
 70
   192
  0
VERTEX
  5
4415
  8
0
 10
219.9999999999999
 20
731.0000000000001
 30
32.00000000000021
 70
   192
  0
VERTEX
  5
4416
  8
0
 10
179.9999999999999
 20
731.0000000000001
 30
32.00000000000021
 70
   192
  0
VERTEX
  5
4417
  8
0
 10
179.9999999999998
 20
726.0000000000001
 30
32.00000000000021
 70
   192
  0
VERTEX
  5
4418
  8
0
 10
0.0
 20
0.0
 30
0.0
 70
   128
 71
     1
 72
     4
 73
    -3
  0
VERTEX
  5
4419
  8
0
 10
0.0
 20
0.0
 30
0.0
 70
   128
 71
    -1
 72
     3
 73
     2
  0
SEQEND
  5
45FF
  8
0
  0
POLYLINE
  5
441A
  8
0
 66
     1
 10
0.0
 20
0.0
 30
0.0
 70
    64
 71
     4
 72
     2
  0
VERTEX
  5
441B
  8
0
 10
-180.0000000000002
 20
726.0000000000001
 30
32.00000000000021
 70
   192
  0
VERTEX
  5
441C
  8
0
 10
-180.0000000000002
 20
731.0000000000001
 30
32.00000000000021
 70
   192
  0
VERTEX
  5
441D
  8
0
 10
-220.0000000000001
 20
731.0000000000001
 30
32.00000000000021
 70
   192
  0
VERTEX
  5
441E
  8
0
 10
-220.0000000000001
 20
726.0000000000001
 30
32.00000000000021
 70
   192
  0
VERTEX
  5
441F
  8
0
 10
0.0
 20
0.0
 30
0.0
 70
   128
 71
     1
 72
     4
 73
    -3
  0
VERTEX
  5
4420
  8
0
 10
0.0
 20
0.0
 30
0.0
 70
   128
 71
    -1
 72
     3
 73
     2
  0
SEQEND
  5
4600
  8
0
  0
POLYLINE
  5
4421
  8
0
 66
     1
 10
0.0
 20
0.0
 30
0.0
 70
    64
 71
    12
 72
    10
  0
VERTEX
  5
4422
  8
0
 10
219.9999999999999
 20
731.0000000000001
 30
112.0000000000002
 70
   192
  0
VERTEX
  5
4423
  8
0
 10
219.9999999999999
 20
724.0000000000001
 30
112.0000000000002
 70
   192
  0
VERTEX
  5
4424
  8
0
 10
399.9999999999999
 20
724.0000000000001
 30
112.0000000000002
 70
   192
  0
VERTEX
  5
4425
  8
0
 10
399.9999999999999
 20
738.0000000000001
 30
112.0000000000002
 70
   192
  0
VERTEX
  5
4426
  8
0
 10
-400.0000000000001
 20
738.0000000000001
 30
112.0000000000002
 70
   192
  0
VERTEX
  5
4427
  8
0
 10
-400.0000000000001
 20
724.0
 30
112.0000000000002
 70
   192
  0
VERTEX
  5
4428
  8
0
 10
-220.0000000000001
 20
724.0000000000001
 30
112.0000000000002
 70
   192
  0
VERTEX
  5
4429
  8
0
 10
-220.0000000000001
 20
731.0000000000001
 30
112.0000000000002
 70
   192
  0
VERTEX
  5
442A
  8
0
 10
-180.0000000000002
 20
731.0000000000001
 30
112.0000000000002
 70
   192
  0
VERTEX
  5
442B
  8
0
 10
-180.0000000000002
 20
724.0
 30
112.0000000000002
 70
   192
  0
VERTEX
  5
442C
  8
0
 10
179.9999999999999
 20
724.0000000000001
 30
112.0000000000002
 70
   192
  0
VERTEX
  5
442D
  8
0
 10
179.9999999999999
 20
731.0000000000001
 30
112.0000000000002
 70
   192
  0
VERTEX
  5
442E
  8
0
 10
0.0
 20
0.0
 30
0.0
 70
   128
 71
     8
 72
     7
 73
    -6
  0
VERTEX
  5
442F
  8
0
 10
0.0
 20
0.0
 30
0.0
 70
   128
 71
    -8
 72
     6
 73
    -5
  0
VERTEX
  5
4430
  8
0
 10
0.0
 20
0.0
 30
0.0
 70
   128
 71
    -5
 72
     9
 73
    -8
  0
VERTEX
  5
4431
  8
0
 10
0.0
 20
0.0
 30
0.0
 70
   128
 71
    -9
 72
    -5
 73
   -12
  0
VERTEX
  5
4432
  8
0
 10
0.0
 20
0.0
 30
0.0
 70
   128
 71
    12
 72
    11
 73
   -10
  0
VERTEX
  5
4433
  8
0
 10
0.0
 20
0.0
 30
0.0
 70
   128
 71
   -12
 72
    10
 73
    -9
  0
VERTEX
  5
4434
  8
0
 10
0.0
 20
0.0
 30
0.0
 70
   128
 71
    -5
 72
     1
 73
   -12
  0
VERTEX
  5
4435
  8
0
 10
0.0
 20
0.0
 30
0.0
 70
   128
 71
     5
 72
    -4
 73
    -1
  0
VERTEX
  5
4436
  8
0
 10
0.0
 20
0.0
 30
0.0
 70
   128
 71
     4
 72
     3
 73
    -2
  0
VERTEX
  5
4437
  8
0
 10
0.0
 20
0.0
 30
0.0
 70
   128
 71
    -4
 72
     2
 73
    -1
  0
SEQEND
  5
4601
  8
0
  0
POLYLINE
  5
4438
  8
0
 66
     1
 10
0.0
 20
0.0
 30
0.0
 70
    64
 71
     4
 72
     2
  0
VERTEX
  5
4439
  8
0
 10
-400.0000000000001
 20
724.0000000000001
 30
137.0000000000002
 70
   192
  0
VERTEX
  5
443A
  8
0
 10
-400.0000000000001
 20
738.0000000000001
 30
137.0000000000002
 70
   192
  0
VERTEX
  5
443B
  8
0
 10
-400.0000000000001
 20
738.0000000000001
 30
112.0000000000002
 70
   192
  0
VERTEX
  5
443C
  8
0
 10
-400.0000000000001
 20
724.0000000000001
 30
112.0000000000002
 70
   192
  0
VERTEX
  5
443D
  8
0
 10
0.0
 20
0.0
 30
0.0
 70
   128
 71
     3
 72
     4
 73
    -1
  0
VERTEX
  5
443E
  8
0
 10
0.0
 20
0.0
 30
0.0
 70
   128
 71
     2
 72
    -3
 73
     1
  0
SEQEND
  5
4602
  8
0
  0
POLYLINE
  5
443F
  8
0
 66
     1
 10
0.0
 20
0.0
 30
0.0
 70
    64
 71
     4
 72
     2
  0
VERTEX
  5
4440
  8
0
 10
-400.0000000000001
 20
738.0
 30
137.0000000000002
 70
   192
  0
VERTEX
  5
4441
  8
0
 10
399.9999999999999
 20
738.0000000000001
 30
137.0000000000002
 70
   192
  0
VERTEX
  5
4442
  8
0
 10
399.9999999999999
 20
738.0000000000001
 30
112.0000000000002
 70
   192
  0
VERTEX
  5
4443
  8
0
 10
-400.0000000000001
 20
738.0
 30
112.0000000000002
 70
   192
  0
VERTEX
  5
4444
  8
0
 10
0.0
 20
0.0
 30
0.0
 70
   128
 71
     3
 72
     4
 73
    -1
  0
VERTEX
  5
4445
  8
0
 10
0.0
 20
0.0
 30
0.0
 70
   128
 71
     2
 72
    -3
 73
     1
  0
SEQEND
  5
4603
  8
0
  0
POLYLINE
  5
4446
  8
0
 66
     1
 10
0.0
 20
0.0
 30
0.0
 70
    64
 71
     4
 72
     2
  0
VERTEX
  5
4447
  8
0
 10
399.9999999999999
 20
738.0000000000001
 30
137.0000000000002
 70
   192
  0
VERTEX
  5
4448
  8
0
 10
399.9999999999999
 20
724.0000000000001
 30
137.0000000000002
 70
   192
  0
VERTEX
  5
4449
  8
0
 10
399.9999999999999
 20
724.0000000000001
 30
112.0000000000002
 70
   192
  0
VERTEX
  5
444A
  8
0
 10
399.9999999999999
 20
738.0000000000001
 30
112.0000000000002
 70
   192
  0
VERTEX
  5
444B
  8
0
 10
0.0
 20
0.0
 30
0.0
 70
   128
 71
     3
 72
     4
 73
    -1
  0
VERTEX
  5
444C
  8
0
 10
0.0
 20
0.0
 30
0.0
 70
   128
 71
     2
 72
    -3
 73
     1
  0
SEQEND
  5
4604
  8
0
  0
POLYLINE
  5
444D
  8
0
 66
     1
 10
0.0
 20
0.0
 30
0.0
 70
    64
 71
    12
 72
    10
  0
VERTEX
  5
444E
  8
0
 10
399.9999999999999
 20
724.0000000000001
 30
137.0000000000002
 70
   192
  0
VERTEX
  5
444F
  8
0
 10
-400.0000000000001
 20
724.0
 30
137.0000000000002
 70
   192
  0
VERTEX
  5
4450
  8
0
 10
-400.0000000000001
 20
724.0000000000001
 30
112.0000000000002
 70
   192
  0
VERTEX
  5
4451
  8
0
 10
-220.0000000000002
 20
724.0
 30
112.0000000000002
 70
   192
  0
VERTEX
  5
4452
  8
0
 10
-220.0000000000001
 20
724.0000000000001
 30
32.00000000000021
 70
   192
  0
VERTEX
  5
4453
  8
0
 10
-180.0000000000002
 20
724.0000000000001
 30
32.00000000000021
 70
   192
  0
VERTEX
  5
4454
  8
0
 10
-180.0000000000002
 20
724.0000000000001
 30
112.0000000000002
 70
   192
  0
VERTEX
  5
4455
  8
0
 10
179.9999999999999
 20
724.0000000000001
 30
112.0000000000002
 70
   192
  0
VERTEX
  5
4456
  8
0
 10
179.9999999999999
 20
724.0000000000001
 30
32.00000000000021
 70
   192
  0
VERTEX
  5
4457
  8
0
 10
219.9999999999998
 20
724.0000000000001
 30
32.00000000000021
 70
   192
  0
VERTEX
  5
4458
  8
0
 10
219.9999999999999
 20
724.0000000000001
 30
112.0000000000002
 70
   192
  0
VERTEX
  5
4459
  8
0
 10
399.9999999999999
 20
724.0000000000001
 30
112.0000000000002
 70
   192
  0
VERTEX
  5
445A
  8
0
 10
0.0
 20
0.0
 30
0.0
 70
   128
 71
     2
 72
     3
 73
    -4
  0
VERTEX
  5
445B
  8
0
 10
0.0
 20
0.0
 30
0.0
 70
   128
 71
    -4
 72
    -7
 73
    -2
  0
VERTEX
  5
445C
  8
0
 10
0.0
 20
0.0
 30
0.0
 70
   128
 71
     5
 72
     6
 73
    -7
  0
VERTEX
  5
445D
  8
0
 10
0.0
 20
0.0
 30
0.0
 70
   128
 71
     4
 72
    -5
 73
    -7
  0
VERTEX
  5
445E
  8
0
 10
0.0
 20
0.0
 30
0.0
 70
   128
 71
     7
 72
    -8
 73
    -2
  0
VERTEX
  5
445F
  8
0
 10
0.0
 20
0.0
 30
0.0
 70
   128
 71
    -8
 72
   -11
 73
    -2
  0
VERTEX
  5
4460
  8
0
 10
0.0
 20
0.0
 30
0.0
 70
   128
 71
     9
 72
    10
 73
   -11
  0
VERTEX
  5
4461
  8
0
 10
0.0
 20
0.0
 30
0.0
 70
   128
 71
     8
 72
    -9
 73
   -11
  0
VERTEX
  5
4462
  8
0
 10
0.0
 20
0.0
 30
0.0
 70
   128
 71
   -11
 72
     1
 73
    -2
  0
VERTEX
  5
4463
  8
0
 10
0.0
 20
0.0
 30
0.0
 70
   128
 71
    11
 72
    12
 73
    -1
  0
SEQEND
  5
4605
  8
0
  0
POLYLINE
  5
4464
  8
0
 66
     1
 10
0.0
 20
0.0
 30
0.0
 70
    64
 71
     4
 72
     2
  0
VERTEX
  5
4465
  8
0
 10
-400.0000000000001
 20
738.0000000000001
 30
137.0000000000002
 70
   192
  0
VERTEX
  5
4466
  8
0
 10
-400.0000000000001
 20
724.0000000000001
 30
137.0000000000002
 70
   192
  0
VERTEX
  5
4467
  8
0
 10
399.9999999999999
 20
724.0000000000001
 30
137.0000000000002
 70
   192
  0
VERTEX
  5
4468
  8
0
 10
399.9999999999999
 20
738.0000000000001
 30
137.0000000000002
 70
   192
  0
VERTEX
  5
4469
  8
0
 10
0.0
 20
0.0
 30
0.0
 70
   128
 71
     3
 72
     4
 73
    -1
  0
VERTEX
  5
446A
  8
0
 10
0.0
 20
0.0
 30
0.0
 70
   128
 71
     2
 72
    -3
 73
     1
  0
SEQEND
  5
4606
  8
0
  0
POLYLINE
  5
446B
  8
0
 66
     1
 10
0.0
 20
0.0
 30
0.0
 70
    64
 71
     8
 72
     6
  0
VERTEX
  5
446C
  8
0
 10
-180.0000000000002
 20
731.0000000000001
 30
112.0000000000002
 70
   192
  0
VERTEX
  5
446D
  8
0
 10
-180.0000000000002
 20
731.0000000000001
 30
32.00000000000021
 70
   192
  0
VERTEX
  5
446E
  8
0
 10
-180.0000000000002
 20
726.0000000000001
 30
32.00000000000021
 70
   192
  0
VERTEX
  5
446F
  8
0
 10
-180.0000000000002
 20
726.0000000000001
 30
30.00000000000021
 70
   192
  0
VERTEX
  5
4470
  8
0
 10
-180.0000000000002
 20
709.0000000000001
 30
30.00000000000021
 70
   192
  0
VERTEX
  5
4471
  8
0
 10
-180.0000000000002
 20
709.0000000000001
 30
32.00000000000021
 70
   192
  0
VERTEX
  5
4472
  8
0
 10
-180.0000000000002
 20
724.0000000000001
 30
32.00000000000021
 70
   192
  0
VERTEX
  5
4473
  8
0
 10
-180.0000000000002
 20
724.0000000000001
 30
112.0000000000002
 70
   192
  0
VERTEX
  5
4474
  8
0
 10
0.0
 20
0.0
 30
0.0
 70
   128
 71
     7
 72
     6
 73
    -5
  0
VERTEX
  5
4475
  8
0
 10
0.0
 20
0.0
 30
0.0
 70
   128
 71
    -7
 72
     5
 73
    -4
  0
VERTEX
  5
4476
  8
0
 10
0.0
 20
0.0
 30
0.0
 70
   128
 71
     3
 72
     2
 73
    -1
  0
VERTEX
  5
4477
  8
0
 10
0.0
 20
0.0
 30
0.0
 70
   128
 71
    -3
 72
     1
 73
    -8
  0
VERTEX
  5
4478
  8
0
 10
0.0
 20
0.0
 30
0.0
 70
   128
 71
     8
 72
    -7
 73
    -3
  0
VERTEX
  5
4479
  8
0
 10
0.0
 20
0.0
 30
0.0
 70
   128
 71
    -7
 72
     4
 73
    -3
  0
SEQEND
  5
4607
  8
0
  0
POLYLINE
  5
447A
  8
0
 66
     1
 10
0.0
 20
0.0
 30
0.0
 70
    64
 71
     8
 72
     6
  0
VERTEX
  5
447B
  8
0
 10
-220.0000000000001
 20
724.0000000000001
 30
112.0000000000002
 70
   192
  0
VERTEX
  5
447C
  8
0
 10
-220.0000000000001
 20
724.0000000000001
 30
32.00000000000021
 70
   192
  0
VERTEX
  5
447D
  8
0
 10
-220.0000000000001
 20
709.0000000000001
 30
32.00000000000021
 70
   192
  0
VERTEX
  5
447E
  8
0
 10
-220.0000000000001
 20
709.0000000000001
 30
30.00000000000021
 70
   192
  0
VERTEX
  5
447F
  8
0
 10
-220.0000000000001
 20
726.0000000000001
 30
30.00000000000021
 70
   192
  0
VERTEX
  5
4480
  8
0
 10
-220.0000000000001
 20
726.0000000000001
 30
32.00000000000021
 70
   192
  0
VERTEX
  5
4481
  8
0
 10
-220.0000000000001
 20
731.0000000000001
 30
32.00000000000021
 70
   192
  0
VERTEX
  5
4482
  8
0
 10
-220.0000000000001
 20
731.0000000000001
 30
112.0000000000002
 70
   192
  0
VERTEX
  5
4483
  8
0
 10
0.0
 20
0.0
 30
0.0
 70
   128
 71
    -2
 72
     6
 73
    -5
  0
VERTEX
  5
4484
  8
0
 10
0.0
 20
0.0
 30
0.0
 70
   128
 71
     5
 72
     4
 73
    -3
  0
VERTEX
  5
4485
  8
0
 10
0.0
 20
0.0
 30
0.0
 70
   128
 71
    -5
 72
     3
 73
    -2
  0
VERTEX
  5
4486
  8
0
 10
0.0
 20
0.0
 30
0.0
 70
   128
 71
    -6
 72
     2
 73
    -1
  0
VERTEX
  5
4487
  8
0
 10
0.0
 20
0.0
 30
0.0
 70
   128
 71
     1
 72
     8
 73
    -7
  0
VERTEX
  5
4488
  8
0
 10
0.0
 20
0.0
 30
0.0
 70
   128
 71
    -1
 72
     7
 73
    -6
  0
SEQEND
  5
4608
  8
0
  0
POLYLINE
  5
4489
  8
0
 66
     1
 10
0.0
 20
0.0
 30
0.0
 70
    64
 71
     4
 72
     2
  0
VERTEX
  5
448A
  8
0
 10
-220.0000000000001
 20
731.0000000000001
 30
112.0000000000002
 70
   192
  0
VERTEX
  5
448B
  8
0
 10
-220.0000000000001
 20
731.0000000000001
 30
32.00000000000021
 70
   192
  0
VERTEX
  5
448C
  8
0
 10
-180.0000000000002
 20
731.0000000000001
 30
32.00000000000021
 70
   192
  0
VERTEX
  5
448D
  8
0
 10
-180.0000000000002
 20
731.0000000000001
 30
112.0000000000002
 70
   192
  0
VERTEX
  5
448E
  8
0
 10
0.0
 20
0.0
 30
0.0
 70
   128
 71
     1
 72
     4
 73
    -3
  0
VERTEX
  5
448F
  8
0
 10
0.0
 20
0.0
 30
0.0
 70
   128
 71
    -1
 72
     3
 73
     2
  0
SEQEND
  5
4609
  8
0
  0
POLYLINE
  5
4490
  8
0
 66
     1
 10
0.0
 20
0.0
 30
0.0
 70
    64
 71
     4
 72
     2
  0
VERTEX
  5
4491
  8
0
 10
-180.0000000000002
 20
709.0000000000001
 30
32.00000000000021
 70
   192
  0
VERTEX
  5
4492
  8
0
 10
-180.0000000000002
 20
724.0000000000001
 30
32.00000000000021
 70
   192
  0
VERTEX
  5
4493
  8
0
 10
-220.0000000000001
 20
724.0000000000001
 30
32.00000000000021
 70
   192
  0
VERTEX
  5
4494
  8
0
 10
-220.0000000000001
 20
709.0000000000001
 30
32.00000000000021
 70
   192
  0
VERTEX
  5
4495
  8
0
 10
0.0
 20
0.0
 30
0.0
 70
   128
 71
     3
 72
     4
 73
    -1
  0
VERTEX
  5
4496
  8
0
 10
0.0
 20
0.0
 30
0.0
 70
   128
 71
     2
 72
    -3
 73
     1
  0
SEQEND
  5
460A
  8
0
  0
POLYLINE
  5
4497
  8
0
 66
     1
 10
0.0
 20
0.0
 30
0.0
 70
    64
 71
     4
 72
     2
  0
VERTEX
  5
4498
  8
0
 10
-220.0000000000001
 20
726.0000000000001
 30
30.00000000000021
 70
   192
  0
VERTEX
  5
4499
  8
0
 10
-220.0000000000001
 20
726.0000000000001
 30
32.00000000000021
 70
   192
  0
VERTEX
  5
449A
  8
0
 10
-180.0000000000002
 20
726.0000000000001
 30
32.00000000000021
 70
   192
  0
VERTEX
  5
449B
  8
0
 10
-180.0000000000002
 20
726.0000000000001
 30
30.00000000000021
 70
   192
  0
VERTEX
  5
449C
  8
0
 10
0.0
 20
0.0
 30
0.0
 70
   128
 71
     3
 72
     4
 73
    -1
  0
VERTEX
  5
449D
  8
0
 10
0.0
 20
0.0
 30
0.0
 70
   128
 71
     2
 72
    -3
 73
     1
  0
SEQEND
  5
460B
  8
0
  0
POLYLINE
  5
449E
  8
0
 66
     1
 10
0.0
 20
0.0
 30
0.0
 70
    64
 71
     4
 72
     2
  0
VERTEX
  5
449F
  8
0
 10
-220.0000000000001
 20
709.0000000000001
 30
30.00000000000021
 70
   192
  0
VERTEX
  5
44A0
  8
0
 10
-220.0000000000001
 20
726.0000000000001
 30
30.00000000000021
 70
   192
  0
VERTEX
  5
44A1
  8
0
 10
-180.0000000000002
 20
726.0000000000001
 30
30.00000000000021
 70
   192
  0
VERTEX
  5
44A2
  8
0
 10
-180.0000000000002
 20
709.0000000000001
 30
30.00000000000021
 70
   192
  0
VERTEX
  5
44A3
  8
0
 10
0.0
 20
0.0
 30
0.0
 70
   128
 71
     3
 72
     4
 73
    -1
  0
VERTEX
  5
44A4
  8
0
 10
0.0
 20
0.0
 30
0.0
 70
   128
 71
     2
 72
    -3
 73
     1
  0
SEQEND
  5
460C
  8
0
  0
POLYLINE
  5
44A5
  8
0
 66
     1
 10
0.0
 20
0.0
 30
0.0
 70
    64
 71
     4
 72
     2
  0
VERTEX
  5
44A6
  8
0
 10
-220.0000000000001
 20
709.0000000000001
 30
32.00000000000021
 70
   192
  0
VERTEX
  5
44A7
  8
0
 10
-220.0000000000001
 20
709.0000000000001
 30
30.00000000000021
 70
   192
  0
VERTEX
  5
44A8
  8
0
 10
-180.0000000000002
 20
709.0000000000001
 30
30.00000000000021
 70
   192
  0
VERTEX
  5
44A9
  8
0
 10
-180.0000000000002
 20
709.0000000000001
 30
32.00000000000021
 70
   192
  0
VERTEX
  5
44AA
  8
0
 10
0.0
 20
0.0
 30
0.0
 70
   128
 71
     3
 72
     4
 73
    -1
  0
VERTEX
  5
44AB
  8
0
 10
0.0
 20
0.0
 30
0.0
 70
   128
 71
     2
 72
    -3
 73
     1
  0
SEQEND
  5
460D
  8
0
  0
POLYLINE
  5
44AC
  8
0
 66
     1
 10
0.0
 20
0.0
 30
0.0
 70
    64
 71
     8
 72
     6
  0
VERTEX
  5
44AD
  8
0
 10
179.9999999999999
 20
724.0000000000001
 30
112.0000000000002
 70
   192
  0
VERTEX
  5
44AE
  8
0
 10
179.9999999999999
 20
731.0000000000001
 30
112.0000000000002
 70
   192
  0
VERTEX
  5
44AF
  8
0
 10
179.9999999999999
 20
731.0000000000001
 30
32.00000000000021
 70
   192
  0
VERTEX
  5
44B0
  8
0
 10
179.9999999999999
 20
726.0000000000001
 30
32.00000000000021
 70
   192
  0
VERTEX
  5
44B1
  8
0
 10
179.9999999999999
 20
726.0000000000001
 30
30.00000000000021
 70
   192
  0
VERTEX
  5
44B2
  8
0
 10
179.9999999999999
 20
709.0000000000001
 30
30.00000000000021
 70
   192
  0
VERTEX
  5
44B3
  8
0
 10
179.9999999999999
 20
709.0000000000001
 30
32.00000000000021
 70
   192
  0
VERTEX
  5
44B4
  8
0
 10
179.9999999999999
 20
724.0000000000001
 30
32.00000000000021
 70
   192
  0
VERTEX
  5
44B5
  8
0
 10
0.0
 20
0.0
 30
0.0
 70
   128
 71
     6
 72
     7
 73
    -8
  0
VERTEX
  5
44B6
  8
0
 10
0.0
 20
0.0
 30
0.0
 70
   128
 71
     5
 72
    -6
 73
    -8
  0
VERTEX
  5
44B7
  8
0
 10
0.0
 20
0.0
 30
0.0
 70
   128
 71
     2
 72
     3
 73
    -4
  0
VERTEX
  5
44B8
  8
0
 10
0.0
 20
0.0
 30
0.0
 70
   128
 71
     1
 72
    -2
 73
    -4
  0
VERTEX
  5
44B9
  8
0
 10
0.0
 20
0.0
 30
0.0
 70
   128
 71
    -4
 72
     8
 73
    -1
  0
VERTEX
  5
44BA
  8
0
 10
0.0
 20
0.0
 30
0.0
 70
   128
 71
     4
 72
    -5
 73
    -8
  0
SEQEND
  5
460E
  8
0
  0
POLYLINE
  5
44BB
  8
0
 66
     1
 10
0.0
 20
0.0
 30
0.0
 70
    64
 71
     4
 72
     2
  0
VERTEX
  5
44BC
  8
0
 10
179.9999999999999
 20
731.0000000000001
 30
112.0000000000002
 70
   192
  0
VERTEX
  5
44BD
  8
0
 10
219.9999999999999
 20
731.0000000000001
 30
112.0000000000002
 70
   192
  0
VERTEX
  5
44BE
  8
0
 10
219.9999999999999
 20
731.0000000000001
 30
32.00000000000021
 70
   192
  0
VERTEX
  5
44BF
  8
0
 10
179.9999999999999
 20
731.0000000000001
 30
32.00000000000021
 70
   192
  0
VERTEX
  5
44C0
  8
0
 10
0.0
 20
0.0
 30
0.0
 70
   128
 71
     3
 72
     4
 73
    -1
  0
VERTEX
  5
44C1
  8
0
 10
0.0
 20
0.0
 30
0.0
 70
   128
 71
     2
 72
    -3
 73
     1
  0
SEQEND
  5
460F
  8
0
  0
POLYLINE
  5
44C2
  8
0
 66
     1
 10
0.0
 20
0.0
 30
0.0
 70
    64
 71
     8
 72
     6
  0
VERTEX
  5
44C3
  8
0
 10
219.9999999999999
 20
731.0000000000001
 30
112.0000000000002
 70
   192
  0
VERTEX
  5
44C4
  8
0
 10
219.9999999999999
 20
724.0000000000001
 30
112.0000000000002
 70
   192
  0
VERTEX
  5
44C5
  8
0
 10
219.9999999999999
 20
724.0000000000001
 30
32.00000000000021
 70
   192
  0
VERTEX
  5
44C6
  8
0
 10
219.9999999999998
 20
709.0000000000001
 30
32.00000000000021
 70
   192
  0
VERTEX
  5
44C7
  8
0
 10
219.9999999999998
 20
709.0000000000001
 30
30.00000000000021
 70
   192
  0
VERTEX
  5
44C8
  8
0
 10
219.9999999999998
 20
726.0000000000001
 30
30.00000000000021
 70
   192
  0
VERTEX
  5
44C9
  8
0
 10
219.9999999999998
 20
726.0000000000001
 30
32.00000000000021
 70
   192
  0
VERTEX
  5
44CA
  8
0
 10
219.9999999999999
 20
731.0000000000001
 30
32.00000000000021
 70
   192
  0
VERTEX
  5
44CB
  8
0
 10
0.0
 20
0.0
 30
0.0
 70
   128
 71
     6
 72
    -7
 73
    -3
  0
VERTEX
  5
44CC
  8
0
 10
0.0
 20
0.0
 30
0.0
 70
   128
 71
     4
 72
     5
 73
    -6
  0
VERTEX
  5
44CD
  8
0
 10
0.0
 20
0.0
 30
0.0
 70
   128
 71
     3
 72
    -4
 73
    -6
  0
VERTEX
  5
44CE
  8
0
 10
0.0
 20
0.0
 30
0.0
 70
   128
 71
     2
 72
    -3
 73
    -7
  0
VERTEX
  5
44CF
  8
0
 10
0.0
 20
0.0
 30
0.0
 70
   128
 71
     8
 72
     1
 73
    -2
  0
VERTEX
  5
44D0
  8
0
 10
0.0
 20
0.0
 30
0.0
 70
   128
 71
     7
 72
    -8
 73
    -2
  0
SEQEND
  5
4610
  8
0
  0
POLYLINE
  5
44D1
  8
0
 66
     1
 10
0.0
 20
0.0
 30
0.0
 70
    64
 71
     4
 72
     2
  0
VERTEX
  5
44D2
  8
0
 10
179.9999999999999
 20
726.0000000000001
 30
32.00000000000021
 70
   192
  0
VERTEX
  5
44D3
  8
0
 10
179.9999999999998
 20
726.0000000000001
 30
30.00000000000021
 70
   192
  0
VERTEX
  5
44D4
  8
0
 10
219.9999999999998
 20
726.0000000000001
 30
30.00000000000021
 70
   192
  0
VERTEX
  5
44D5
  8
0
 10
219.9999999999999
 20
726.0000000000001
 30
32.00000000000021
 70
   192
  0
VERTEX
  5
44D6
  8
0
 10
0.0
 20
0.0
 30
0.0
 70
   128
 71
     1
 72
     4
 73
    -3
  0
VERTEX
  5
44D7
  8
0
 10
0.0
 20
0.0
 30
0.0
 70
   128
 71
    -1
 72
     3
 73
     2
  0
SEQEND
  5
4611
  8
0
  0
POLYLINE
  5
44D8
  8
0
 66
     1
 10
0.0
 20
0.0
 30
0.0
 70
    64
 71
     4
 72
     2
  0
VERTEX
  5
44D9
  8
0
 10
179.9999999999999
 20
726.0000000000001
 30
30.00000000000021
 70
   192
  0
VERTEX
  5
44DA
  8
0
 10
179.9999999999998
 20
709.0000000000001
 30
30.00000000000021
 70
   192
  0
VERTEX
  5
44DB
  8
0
 10
219.9999999999998
 20
709.0000000000001
 30
30.00000000000021
 70
   192
  0
VERTEX
  5
44DC
  8
0
 10
219.9999999999998
 20
726.0000000000001
 30
30.00000000000021
 70
   192
  0
VERTEX
  5
44DD
  8
0
 10
0.0
 20
0.0
 30
0.0
 70
   128
 71
     1
 72
     4
 73
    -3
  0
VERTEX
  5
44DE
  8
0
 10
0.0
 20
0.0
 30
0.0
 70
   128
 71
    -1
 72
     3
 73
     2
  0
SEQEND
  5
4612
  8
0
  0
POLYLINE
  5
44DF
  8
0
 66
     1
 10
0.0
 20
0.0
 30
0.0
 70
    64
 71
     4
 72
     2
  0
VERTEX
  5
44E0
  8
0
 10
179.9999999999999
 20
709.0000000000001
 30
30.00000000000021
 70
   192
  0
VERTEX
  5
44E1
  8
0
 10
179.9999999999998
 20
709.0000000000001
 30
32.00000000000021
 70
   192
  0
VERTEX
  5
44E2
  8
0
 10
219.9999999999998
 20
709.0000000000001
 30
32.00000000000021
 70
   192
  0
VERTEX
  5
44E3
  8
0
 10
219.9999999999998
 20
709.0000000000001
 30
30.00000000000021
 70
   192
  0
VERTEX
  5
44E4
  8
0
 10
0.0
 20
0.0
 30
0.0
 70
   128
 71
     1
 72
     4
 73
    -3
  0
VERTEX
  5
44E5
  8
0
 10
0.0
 20
0.0
 30
0.0
 70
   128
 71
    -1
 72
     3
 73
     2
  0
SEQEND
  5
4613
  8
0
  0
POLYLINE
  5
44E6
  8
0
 66
     1
 10
0.0
 20
0.0
 30
0.0
 70
    64
 71
     4
 72
     2
  0
VERTEX
  5
44E7
  8
0
 10
219.9999999999998
 20
724.0000000000001
 30
32.00000000000021
 70
   192
  0
VERTEX
  5
44E8
  8
0
 10
219.9999999999998
 20
709.0000000000001
 30
32.00000000000021
 70
   192
  0
VERTEX
  5
44E9
  8
0
 10
179.9999999999999
 20
709.0000000000001
 30
32.00000000000021
 70
   192
  0
VERTEX
  5
44EA
  8
0
 10
179.9999999999999
 20
724.0000000000001
 30
32.00000000000021
 70
   192
  0
VERTEX
  5
44EB
  8
0
 10
0.0
 20
0.0
 30
0.0
 70
   128
 71
     1
 72
     4
 73
    -3
  0
VERTEX
  5
44EC
  8
0
 10
0.0
 20
0.0
 30
0.0
 70
   128
 71
    -1
 72
     3
 73
     2
  0
SEQEND
  5
4614
  8
0
  0
ENDBLK
  5
45FE
  8
0
  0
ENDSEC
  0
SECTION
  2
ENTITIES
  0
INSERT
  5
304A
  8
0
  2
*X1
 10
0.0
 20
0.0
 30
0.0
  0
INSERT
  5
304B
  8
0
  2
*X2
 10
0.0
 20
0.0
 30
0.0
  0
INSERT
  5
304C
  8
0
  2
*X3
 10
0.0
 20
0.0
 30
0.0
  0
INSERT
  5
304D
  8
0
  2
*X4
 10
0.0
 20
0.0
 30
0.0
  0
INSERT
  5
304E
  8
0
  2
*X5
 10
0.0
 20
0.0
 30
0.0
  0
INSERT
  5
304F
  8
0
  2
*X6
 10
0.0
 20
0.0
 30
0.0
  0
INSERT
  5
3050
  8
0
  2
*X7
 10
0.0
 20
0.0
 30
0.0
  0
INSERT
  5
3051
  8
0
  2
*X8
 10
0.0
 20
0.0
 30
0.0
  0
INSERT
  5
3052
  8
0
  2
*X9
 10
0.0
 20
0.0
 30
0.0
  0
INSERT
  5
3053
  8
0
  2
*X10
 10
0.0
 20
0.0
 30
0.0
  0
INSERT
  5
3054
  8
0
  2
*X11
 10
0.0
 20
0.0
 30
0.0
  0
INSERT
  5
3055
  8
0
  2
*X12
 10
0.0
 20
0.0
 30
0.0
  0
INSERT
  5
3056
  8
0
  2
*X13
 10
0.0
 20
0.0
 30
0.0
  0
INSERT
  5
3057
  8
0
  2
*X14
 10
0.0
 20
0.0
 30
0.0
  0
INSERT
  5
3058
  8
0
  2
*X15
 10
0.0
 20
0.0
 30
0.0
  0
INSERT
  5
3059
  8
0
  2
*X16
 10
0.0
 20
0.0
 30
0.0
  0
INSERT
  5
305A
  8
0
  2
*X17
 10
0.0
 20
0.0
 30
0.0
  0
INSERT
  5
305B
  8
0
  2
*X18
 10
0.0
 20
0.0
 30
0.0
  0
INSERT
  5
305C
  8
0
  2
*X19
 10
0.0
 20
0.0
 30
0.0
  0
INSERT
  5
305D
  8
0
  2
*X20
 10
0.0
 20
0.0
 30
0.0
  0
INSERT
  5
305E
  8
0
  2
*X21
 10
0.0
 20
0.0
 30
0.0
  0
INSERT
  5
305F
  8
0
  2
*X22
 10
0.0
 20
0.0
 30
0.0
  0
INSERT
  5
3060
  8
0
  2
*X23
 10
0.0
 20
0.0
 30
0.0
  0
INSERT
  5
3061
  8
0
  2
*X24
 10
0.0
 20
0.0
 30
0.0
  0
INSERT
  5
3062
  8
0
  2
*X25
 10
0.0
 20
0.0
 30
0.0
  0
INSERT
  5
3063
  8
0
  2
*X26
 10
0.0
 20
0.0
 30
0.0
  0
INSERT
  5
3064
  8
0
  2
*X27
 10
0.0
 20
0.0
 30
0.0
  0
INSERT
  5
3065
  8
0
  2
*X28
 10
0.0
 20
0.0
 30
0.0
  0
ENDSEC
  0
EOF
