  0
SECTION
  2
HEADER
  9
$ACADVER
  1
AC1009
  9
$DWGCODEPAGE
  3
ansi_1250
  9
$INSBASE
 10
0.0
 20
0.0
 30
0.0
  9
$EXTMIN
 10
-230.0000000000047
 20
-450.0000000000023
 30
-165.0000000000008
  9
$EXTMAX
 10
230.0000000000052
 20
450.0000000000025
 30
0.0000000000039506
  9
$LIMMIN
 10
0.0
 20
0.0
  9
$LIMMAX
 10
420.0
 20
297.0
  9
$ORTHOMODE
 70
     0
  9
$REGENMODE
 70
     1
  9
$FILLMODE
 70
     1
  9
$QTEXTMODE
 70
     0
  9
$MIRRTEXT
 70
     0
  9
$DRAGMODE
 70
     2
  9
$LTSCALE
 40
1.0
  9
$OSMODE
 70
   511
  9
$ATTMODE
 70
     1
  9
$TEXTSIZE
 40
2.5
  9
$TRACEWID
 40
1.0
  9
$TEXTSTYLE
  7
STANDARD
  9
$CLAYER
  8
0
  9
$CELTYPE
  6
BYLAYER
  9
$CECOLOR
 62
   256
  9
$DIMSCALE
 40
1.0
  9
$DIMASZ
 40
2.5
  9
$DIMEXO
 40
0.625
  9
$DIMDLI
 40
3.75
  9
$DIMRND
 40
0.0
  9
$DIMDLE
 40
0.0
  9
$DIMEXE
 40
1.25
  9
$DIMTP
 40
0.0
  9
$DIMTM
 40
0.0
  9
$DIMTXT
 40
2.5
  9
$DIMCEN
 40
-2.5
  9
$DIMTSZ
 40
0.0
  9
$DIMTOL
 70
     0
  9
$DIMLIM
 70
     0
  9
$DIMTIH
 70
     0
  9
$DIMTOH
 70
     0
  9
$DIMSE1
 70
     0
  9
$DIMSE2
 70
     0
  9
$DIMTAD
 70
     1
  9
$DIMZIN
 70
     8
  9
$DIMBLK
  1

  9
$DIMASO
 70
     1
  9
$DIMSHO
 70
     1
  9
$DIMPOST
  1

  9
$DIMAPOST
  1

  9
$DIMALT
 70
     0
  9
$DIMALTD
 70
     3
  9
$DIMALTF
 40
0.03937007874016
  9
$DIMLFAC
 40
1.0
  9
$DIMTOFL
 70
     1
  9
$DIMTVP
 40
0.0
  9
$DIMTIX
 70
     0
  9
$DIMSOXD
 70
     0
  9
$DIMSAH
 70
     0
  9
$DIMBLK1
  1

  9
$DIMBLK2
  1

  9
$DIMSTYLE
  2
ISO-25
  9
$DIMCLRD
 70
     0
  9
$DIMCLRE
 70
     0
  9
$DIMCLRT
 70
     0
  9
$DIMTFAC
 40
1.0
  9
$DIMGAP
 40
0.625
  9
$LUNITS
 70
     2
  9
$LUPREC
 70
     3
  9
$SKETCHINC
 40
1.0
  9
$FILLETRAD
 40
10.0
  9
$AUNITS
 70
     0
  9
$AUPREC
 70
     0
  9
$MENU
  1
.
  9
$ELEVATION
 40
0.0
  9
$PELEVATION
 40
0.0
  9
$THICKNESS
 40
0.0
  9
$LIMCHECK
 70
     0
  9
$CHAMFERA
 40
10.0
  9
$CHAMFERB
 40
10.0
  9
$SKPOLY
 70
     0
  9
$TDCREATE
 40
2455022.720692848
  9
$TDUPDATE
 40
2460488.375821204
  9
$TDINDWG
 40
0.0001684375
  9
$TDUSRTIMER
 40
0.0001684375
  9
$USRTIMER
 70
     1
  9
$ANGBASE
 50
0.0
  9
$ANGDIR
 70
     0
  9
$PDMODE
 70
     0
  9
$PDSIZE
 40
0.0
  9
$PLINEWID
 40
0.0
  9
$COORDS
 70
     1
  9
$SPLFRAME
 70
     0
  9
$SPLINETYPE
 70
     6
  9
$SPLINESEGS
 70
     8
  9
$ATTDIA
 70
     0
  9
$ATTREQ
 70
     1
  9
$HANDLING
 70
     1
  9
$HANDSEED
  5
136A
  9
$SURFTAB1
 70
     6
  9
$SURFTAB2
 70
     6
  9
$SURFTYPE
 70
     6
  9
$SURFU
 70
     6
  9
$SURFV
 70
     6
  9
$UCSNAME
  2

  9
$UCSORG
 10
0.0
 20
0.0
 30
0.0
  9
$UCSXDIR
 10
1.0
 20
0.0
 30
0.0
  9
$UCSYDIR
 10
0.0
 20
1.0
 30
0.0
  9
$PUCSNAME
  2

  9
$PUCSORG
 10
0.0
 20
0.0
 30
0.0
  9
$PUCSXDIR
 10
1.0
 20
0.0
 30
0.0
  9
$PUCSYDIR
 10
0.0
 20
1.0
 30
0.0
  9
$USERI1
 70
     0
  9
$USERI2
 70
     0
  9
$USERI3
 70
     0
  9
$USERI4
 70
     0
  9
$USERI5
 70
     0
  9
$USERR1
 40
0.0
  9
$USERR2
 40
0.0
  9
$USERR3
 40
0.0
  9
$USERR4
 40
0.0
  9
$USERR5
 40
0.0
  9
$WORLDVIEW
 70
     1
  9
$SHADEDGE
 70
     3
  9
$SHADEDIF
 70
    70
  9
$TILEMODE
 70
     1
  9
$MAXACTVP
 70
    64
  9
$PLIMCHECK
 70
     0
  9
$PEXTMIN
 10
1.000000000000000E+20
 20
1.000000000000000E+20
 30
1.000000000000000E+20
  9
$PEXTMAX
 10
-1.000000000000000E+20
 20
-1.000000000000000E+20
 30
-1.000000000000000E+20
  9
$PLIMMIN
 10
0.0
 20
0.0
  9
$PLIMMAX
 10
0.0
 20
0.0
  9
$UNITMODE
 70
     0
  9
$VISRETAIN
 70
     1
  9
$PLINEGEN
 70
     0
  9
$PSLTSCALE
 70
     1
  0
ENDSEC
  0
SECTION
  2
TABLES
  0
TABLE
  2
VPORT
 70
     1
  0
VPORT
  2
*ACTIVE
 70
     0
 10
0.0
 20
0.0
 11
1.0
 21
1.0
 12
-94.88447817080794
 22
-122.1425469403694
 13
0.0
 23
0.0
 14
10.0
 24
10.0
 15
10.0
 25
10.0
 16
0.5773502691896262
 26
0.5773502691896262
 36
0.5773502691896226
 17
-134.1869158878504
 27
-0.0000000000000142
 37
0.0000000000000284
 40
703.7384031016171
 41
1.88293897882939
 42
50.0
 43
0.0
 44
0.0
 50
0.0
 51
0.0
 71
    16
 72
  1000
 73
     1
 74
     3
 75
     0
 76
     0
 77
     0
 78
     0
  0
ENDTAB
  0
TABLE
  2
LTYPE
 70
     1
  0
LTYPE
  2
CONTINUOUS
 70
     0
  3
Solid line
 72
    65
 73
     0
 40
0.0
  0
ENDTAB
  0
TABLE
  2
LAYER
 70
     1
  0
LAYER
  2
0
 70
     0
 62
     7
  6
CONTINUOUS
  0
ENDTAB
  0
TABLE
  2
STYLE
 70
     2
  0
STYLE
  2
STANDARD
 70
     0
 40
0.0
 41
1.0
 50
0.0
 71
     0
 42
2.5
  3
arial.ttf
  4

  0
STYLE
  2
ANNOTATIVE
 70
     0
 40
0.0
 41
1.0
 50
0.0
 71
     0
 42
2.5
  3
arial.ttf
  4

  0
ENDTAB
  0
TABLE
  2
VIEW
 70
     0
  0
ENDTAB
  0
TABLE
  2
UCS
 70
     0
  0
ENDTAB
  0
TABLE
  2
APPID
 70
     2
  0
APPID
  2
ACAD
 70
     0
  0
APPID
  2
ACADANNOTATIVE
 70
     0
  0
ENDTAB
  0
TABLE
  2
DIMSTYLE
 70
     2
  0
DIMSTYLE
  2
ISO-25
 70
     0
  3

  4

  5

  6

  7

 40
1.0
 41
2.5
 42
0.625
 43
3.75
 44
1.25
 45
0.0
 46
0.0
 47
0.0
 48
0.0
140
2.5
141
-2.5
142
0.0
143
0.03937007874016
144
1.0
145
0.0
146
1.0
147
0.625
 71
     0
 72
     0
 73
     0
 74
     0
 75
     0
 76
     0
 77
     1
 78
     8
170
     0
171
     3
172
     1
173
     0
174
     0
175
     0
176
     0
177
     0
178
     0
  0
DIMSTYLE
  2
ANNOTATIVE
 70
     0
  3

  4

  5

  6

  7

 40
0.0
 41
2.5
 42
0.625
 43
3.75
 44
1.25
 45
0.0
 46
0.0
 47
0.0
 48
0.0
140
2.5
141
-2.5
142
0.0
143
0.03937007874016
144
1.0
145
0.0
146
1.0
147
0.625
 71
     0
 72
     0
 73
     0
 74
     0
 75
     0
 76
     0
 77
     1
 78
     8
170
     0
171
     3
172
     1
173
     0
174
     0
175
     0
176
     0
177
     0
178
     0
  0
ENDTAB
  0
ENDSEC
  0
SECTION
  2
BLOCKS
  0
BLOCK
  8
0
  2
$MODEL_SPACE
 70
     0
 10
0.0
 20
0.0
 30
0.0
  3
$MODEL_SPACE
  1

  0
ENDBLK
  5
21
  8
0
  0
BLOCK
 67
     1
  8
0
  2
$PAPER_SPACE
 70
     0
 10
0.0
 20
0.0
 30
0.0
  3
$PAPER_SPACE
  1

  0
ENDBLK
  5
1D
 67
     1
  8
0
  0
BLOCK
  8
0
  2
*X1
 70
     1
 10
0.0
 20
0.0
 30
0.0
  3
*X1
  1

  0
POLYLINE
  5
A1C
  8
0
 66
     1
 10
0.0
 20
0.0
 30
0.0
 70
    64
 71
    10
 72
     8
  0
VERTEX
  5
A1D
  8
0
 10
-35.00000000000473
 20
35.00000000000605
 30
-135.4527630831823
 70
   192
  0
VERTEX
  5
A1E
  8
0
 10
-35.00000000000473
 20
-35.00000000000306
 30
-135.452763083183
 70
   192
  0
VERTEX
  5
A1F
  8
0
 10
-35.00000000000472
 20
-35.00000000000242
 30
-164.9999999999989
 70
   192
  0
VERTEX
  5
A20
  8
0
 10
-35.00000000000473
 20
35.00000000000603
 30
-164.9999999999982
 70
   192
  0
VERTEX
  5
A21
  8
0
 10
-0.0000000000006608
 20
0.0000000000019727
 30
-164.9999999999986
 70
   192
  0
VERTEX
  5
A22
  8
0
 10
0.0
 20
0.0000000000016632
 30
-135.4527630831827
 70
   192
  0
VERTEX
  5
A23
  8
0
 10
-10.25126265847269
 20
24.74873734153401
 30
-164.9999999999983
 70
   192
  0
VERTEX
  5
A24
  8
0
 10
-10.25126265847222
 20
24.74873734153416
 30
-135.4527630831824
 70
   192
  0
VERTEX
  5
A25
  8
0
 10
-10.25126265847269
 20
-24.74873734153007
 30
-164.9999999999988
 70
   192
  0
VERTEX
  5
A26
  8
0
 10
-10.25126265847222
 20
-24.74873734153084
 30
-135.4527630831829
 70
   192
  0
VERTEX
  5
A27
  8
0
 10
0.0
 20
0.0
 30
0.0
 70
   128
 71
     7
 72
     4
 73
    -1
  0
VERTEX
  5
A28
  8
0
 10
0.0
 20
0.0
 30
0.0
 70
   128
 71
    -7
 72
     1
 73
     8
  0
VERTEX
  5
A29
  8
0
 10
0.0
 20
0.0
 30
0.0
 70
   128
 71
     6
 72
     5
 73
    -7
  0
VERTEX
  5
A2A
  8
0
 10
0.0
 20
0.0
 30
0.0
 70
   128
 71
    -6
 72
     7
 73
     8
  0
VERTEX
  5
A2B
  8
0
 10
0.0
 20
0.0
 30
0.0
 70
   128
 71
    10
 72
     9
 73
    -5
  0
VERTEX
  5
A2C
  8
0
 10
0.0
 20
0.0
 30
0.0
 70
   128
 71
   -10
 72
     5
 73
     6
  0
VERTEX
  5
A2D
  8
0
 10
0.0
 20
0.0
 30
0.0
 70
   128
 71
     2
 72
     3
 73
    -9
  0
VERTEX
  5
A2E
  8
0
 10
0.0
 20
0.0
 30
0.0
 70
   128
 71
    -2
 72
     9
 73
    10
  0
SEQEND
  5
12F9
  8
0
  0
POLYLINE
  5
A2F
  8
0
 66
     1
 10
0.0
 20
0.0
 30
0.0
 70
    64
 71
     9
 72
     7
  0
VERTEX
  5
A30
  8
0
 10
-48.86279181137677
 20
32.13756374081532
 30
-164.9999999999982
 70
   192
  0
VERTEX
  5
A31
  8
0
 10
-48.86279181137703
 20
32.13756374081561
 30
-135.4527630831823
 70
   192
  0
VERTEX
  5
A32
  8
0
 10
-42.077615031627
 20
34.27692176180059
 30
-135.4527630831823
 70
   192
  0
VERTEX
  5
A33
  8
0
 10
-42.07761503162686
 20
34.27692176180025
 30
-164.9999999999982
 70
   192
  0
VERTEX
  5
A34
  8
0
 10
-55.07517527229393
 20
28.67032155012024
 30
-140.0000000000003
 70
   192
  0
VERTEX
  5
A35
  8
0
 10
-55.07517527229398
 20
28.67032155012028
 30
-135.4527630831824
 70
   192
  0
VERTEX
  5
A36
  8
0
 10
-55.07517527229361
 20
28.67032155012005
 30
-164.9999999999983
 70
   192
  0
VERTEX
  5
A37
  8
0
 10
-35.00000000000473
 20
35.00000000000638
 30
-135.4527630831823
 70
   192
  0
VERTEX
  5
A38
  8
0
 10
-35.00000000000473
 20
35.00000000000636
 30
-164.9999999999982
 70
   192
  0
VERTEX
  5
A39
  8
0
 10
0.0
 20
0.0
 30
0.0
 70
   128
 71
     1
 72
     2
 73
    -3
  0
VERTEX
  5
A3A
  8
0
 10
0.0
 20
0.0
 30
0.0
 70
   128
 71
    -1
 72
     3
 73
     4
  0
VERTEX
  5
A3B
  8
0
 10
0.0
 20
0.0
 30
0.0
 70
   128
 71
     5
 72
     6
 73
    -2
  0
VERTEX
  5
A3C
  8
0
 10
0.0
 20
0.0
 30
0.0
 70
   128
 71
     2
 72
     1
 73
    -7
  0
VERTEX
  5
A3D
  8
0
 10
0.0
 20
0.0
 30
0.0
 70
   128
 71
    -2
 72
     7
 73
    -5
  0
VERTEX
  5
A3E
  8
0
 10
0.0
 20
0.0
 30
0.0
 70
   128
 71
     4
 72
     3
 73
    -8
  0
VERTEX
  5
A3F
  8
0
 10
0.0
 20
0.0
 30
0.0
 70
   128
 71
    -4
 72
     8
 73
     9
  0
SEQEND
  5
12FA
  8
0
  0
POLYLINE
  5
A40
  8
0
 66
     1
 10
0.0
 20
0.0
 30
0.0
 70
    64
 71
    12
 72
    10
  0
VERTEX
  5
A41
  8
0
 10
-59.00000000000472
 20
-0.0000000000000027
 30
-124.7652316125781
 70
   192
  0
VERTEX
  5
A42
  8
0
 10
-64.77350269190002
 20
0.0000000000000036
 30
-114.7652316125777
 70
   192
  0
VERTEX
  5
A43
  8
0
 10
-59.23048413059524
 20
-17.30159245102889
 30
-114.7652316125777
 70
   192
  0
VERTEX
  5
A44
  8
0
 10
-51.97056274848186
 20
-16.97056274847714
 30
-124.7652316125781
 70
   192
  0
VERTEX
  5
A45
  8
0
 10
-35.00000000000473
 20
-23.99999999999999
 30
-124.7652316125781
 70
   192
  0
VERTEX
  5
A46
  8
0
 10
-44.66534783761852
 20
-28.16101052381169
 30
-114.7652316125777
 70
   192
  0
VERTEX
  5
A47
  8
0
 10
-14.6590781510608
 20
-22.80583389335964
 30
-113.4045267483996
 70
   192
  0
VERTEX
  5
A48
  8
0
 10
-18.02943725152759
 20
-16.97056274847714
 30
-124.7652316125781
 70
   192
  0
VERTEX
  5
A49
  8
0
 10
-26.50136037689227
 20
-28.53479607603253
 30
-114.7652316125777
 70
   192
  0
VERTEX
  5
A4A
  8
0
 10
-3.093292638582199
 20
0.0
 30
-111.0704127420127
 70
   192
  0
VERTEX
  5
A4B
  8
0
 10
-11.00000000000473
 20
0.0000000000000029
 30
-124.7652316125781
 70
   192
  0
VERTEX
  5
A4C
  8
0
 10
-6.224278197312372
 20
-12.77489328611847
 30
-111.8028873441435
 70
   192
  0
VERTEX
  5
A4D
  8
0
 10
0.0
 20
0.0
 30
0.0
 70
   128
 71
     1
 72
     2
 73
     3
  0
VERTEX
  5
A4E
  8
0
 10
0.0
 20
0.0
 30
0.0
 70
   128
 71
     4
 72
     1
 73
     3
  0
VERTEX
  5
A4F
  8
0
 10
0.0
 20
0.0
 30
0.0
 70
   128
 71
     5
 72
     4
 73
     6
  0
VERTEX
  5
A50
  8
0
 10
0.0
 20
0.0
 30
0.0
 70
   128
 71
     7
 72
     8
 73
     5
  0
VERTEX
  5
A51
  8
0
 10
0.0
 20
0.0
 30
0.0
 70
   128
 71
     9
 72
     7
 73
     5
  0
VERTEX
  5
A52
  8
0
 10
0.0
 20
0.0
 30
0.0
 70
   128
 71
    10
 72
    11
 73
     8
  0
VERTEX
  5
A53
  8
0
 10
0.0
 20
0.0
 30
0.0
 70
   128
 71
    12
 72
    10
 73
     8
  0
VERTEX
  5
A54
  8
0
 10
0.0
 20
0.0
 30
0.0
 70
   128
 71
     6
 72
     4
 73
     3
  0
VERTEX
  5
A55
  8
0
 10
0.0
 20
0.0
 30
0.0
 70
   128
 71
     9
 72
     5
 73
     6
  0
VERTEX
  5
A56
  8
0
 10
0.0
 20
0.0
 30
0.0
 70
   128
 71
    12
 72
     8
 73
     7
  0
SEQEND
  5
12FB
  8
0
  0
POLYLINE
  5
A57
  8
0
 66
     1
 10
0.0
 20
0.0
 30
0.0
 70
    64
 71
     8
 72
     6
  0
VERTEX
  5
A58
  8
0
 10
-204.9999999999991
 20
107.5000000000019
 30
-50.00000000000129
 70
   192
  0
VERTEX
  5
A59
  8
0
 10
-229.9999999999984
 20
107.5000000000022
 30
-50.00000000000156
 70
   192
  0
VERTEX
  5
A5A
  8
0
 10
-229.9999999999982
 20
114.5000000000022
 30
-60.00000000000157
 70
   192
  0
VERTEX
  5
A5B
  8
0
 10
-229.999999999998
 20
135.5000000000023
 30
-60.00000000000149
 70
   192
  0
VERTEX
  5
A5C
  8
0
 10
-229.999999999998
 20
142.5000000000022
 30
-50.00000000000156
 70
   192
  0
VERTEX
  5
A5D
  8
0
 10
-204.9999999999988
 20
142.5000000000019
 30
-50.00000000000142
 70
   192
  0
VERTEX
  5
A5E
  8
0
 10
-204.9999999999988
 20
135.5000000000018
 30
-60.00000000000136
 70
   192
  0
VERTEX
  5
A5F
  8
0
 10
-204.9999999999989
 20
114.5000000000019
 30
-60.00000000000129
 70
   192
  0
VERTEX
  5
A60
  8
0
 10
0.0
 20
0.0
 30
0.0
 70
   128
 71
     7
 72
     6
 73
    -5
  0
VERTEX
  5
A61
  8
0
 10
0.0
 20
0.0
 30
0.0
 70
   128
 71
    -7
 72
     5
 73
     4
  0
VERTEX
  5
A62
  8
0
 10
0.0
 20
0.0
 30
0.0
 70
   128
 71
     4
 72
     3
 73
    -8
  0
VERTEX
  5
A63
  8
0
 10
0.0
 20
0.0
 30
0.0
 70
   128
 71
    -4
 72
     8
 73
     7
  0
VERTEX
  5
A64
  8
0
 10
0.0
 20
0.0
 30
0.0
 70
   128
 71
     3
 72
     2
 73
    -1
  0
VERTEX
  5
A65
  8
0
 10
0.0
 20
0.0
 30
0.0
 70
   128
 71
    -3
 72
     1
 73
     8
  0
SEQEND
  5
12FC
  8
0
  0
POLYLINE
  5
A66
  8
0
 66
     1
 10
0.0
 20
0.0
 30
0.0
 70
    64
 71
     8
 72
     6
  0
VERTEX
  5
A67
  8
0
 10
-205.0000000000014
 20
-107.4999999999976
 30
-50.00000000000126
 70
   192
  0
VERTEX
  5
A68
  8
0
 10
-230.0000000000006
 20
-107.4999999999974
 30
-50.00000000000153
 70
   192
  0
VERTEX
  5
A69
  8
0
 10
-230.0000000000007
 20
-114.4999999999975
 30
-40.00000000000157
 70
   192
  0
VERTEX
  5
A6A
  8
0
 10
-230.000000000001
 20
-135.499999999998
 30
-40.00000000000153
 70
   192
  0
VERTEX
  5
A6B
  8
0
 10
-230.000000000001
 20
-142.4999999999982
 30
-50.00000000000158
 70
   192
  0
VERTEX
  5
A6C
  8
0
 10
-205.0000000000018
 20
-142.4999999999985
 30
-50.00000000000145
 70
   192
  0
VERTEX
  5
A6D
  8
0
 10
-205.0000000000018
 20
-135.4999999999985
 30
-40.00000000000139
 70
   192
  0
VERTEX
  5
A6E
  8
0
 10
-205.0000000000015
 20
-114.4999999999979
 30
-40.00000000000127
 70
   192
  0
VERTEX
  5
A6F
  8
0
 10
0.0
 20
0.0
 30
0.0
 70
   128
 71
     7
 72
     6
 73
    -5
  0
VERTEX
  5
A70
  8
0
 10
0.0
 20
0.0
 30
0.0
 70
   128
 71
    -7
 72
     5
 73
     4
  0
VERTEX
  5
A71
  8
0
 10
0.0
 20
0.0
 30
0.0
 70
   128
 71
     4
 72
     3
 73
    -8
  0
VERTEX
  5
A72
  8
0
 10
0.0
 20
0.0
 30
0.0
 70
   128
 71
    -4
 72
     8
 73
     7
  0
VERTEX
  5
A73
  8
0
 10
0.0
 20
0.0
 30
0.0
 70
   128
 71
     3
 72
     2
 73
    -1
  0
VERTEX
  5
A74
  8
0
 10
0.0
 20
0.0
 30
0.0
 70
   128
 71
    -3
 72
     1
 73
     8
  0
SEQEND
  5
12FD
  8
0
  0
POLYLINE
  5
A75
  8
0
 66
     1
 10
0.0
 20
0.0
 30
0.0
 70
    64
 71
    10
 72
     8
  0
VERTEX
  5
A76
  8
0
 10
-59.00000000000655
 20
0.0000000000000029
 30
-165.0
 70
   192
  0
VERTEX
  5
A77
  8
0
 10
-11.00000000000294
 20
-0.0000000000000027
 30
-165.0
 70
   192
  0
VERTEX
  5
A78
  8
0
 10
-11.00000000000473
 20
0.0000000000000029
 30
-124.7652316125781
 70
   192
  0
VERTEX
  5
A79
  8
0
 10
-59.00000000000656
 20
0.0000000000000029
 30
-124.7652316125781
 70
   192
  0
VERTEX
  5
A7A
  8
0
 10
-35.00000000000473
 20
-23.99999999999999
 30
-124.7652316125781
 70
   192
  0
VERTEX
  5
A7B
  8
0
 10
-35.00000000000475
 20
-24.00000000000181
 30
-165.0
 70
   192
  0
VERTEX
  5
A7C
  8
0
 10
-51.97056274848186
 20
-16.97056274847714
 30
-124.7652316125781
 70
   192
  0
VERTEX
  5
A7D
  8
0
 10
-51.97056274848317
 20
-16.97056274847842
 30
-165.0
 70
   192
  0
VERTEX
  5
A7E
  8
0
 10
-18.02943725152759
 20
-16.97056274847714
 30
-124.7652316125781
 70
   192
  0
VERTEX
  5
A7F
  8
0
 10
-18.02943725152633
 20
-16.97056274847842
 30
-165.0
 70
   192
  0
VERTEX
  5
A80
  8
0
 10
0.0
 20
0.0
 30
0.0
 70
   128
 71
     8
 72
     1
 73
    -4
  0
VERTEX
  5
A81
  8
0
 10
0.0
 20
0.0
 30
0.0
 70
   128
 71
     7
 72
    -8
 73
     4
  0
VERTEX
  5
A82
  8
0
 10
0.0
 20
0.0
 30
0.0
 70
   128
 71
     6
 72
     8
 73
    -7
  0
VERTEX
  5
A83
  8
0
 10
0.0
 20
0.0
 30
0.0
 70
   128
 71
     5
 72
    -6
 73
     7
  0
VERTEX
  5
A84
  8
0
 10
0.0
 20
0.0
 30
0.0
 70
   128
 71
    10
 72
     6
 73
    -5
  0
VERTEX
  5
A85
  8
0
 10
0.0
 20
0.0
 30
0.0
 70
   128
 71
     9
 72
   -10
 73
     5
  0
VERTEX
  5
A86
  8
0
 10
0.0
 20
0.0
 30
0.0
 70
   128
 71
     2
 72
    10
 73
    -9
  0
VERTEX
  5
A87
  8
0
 10
0.0
 20
0.0
 30
0.0
 70
   128
 71
     3
 72
    -2
 73
     9
  0
SEQEND
  5
12FE
  8
0
  0
POLYLINE
  5
A88
  8
0
 66
     1
 10
0.0
 20
0.0
 30
0.0
 70
    64
 71
    10
 72
     8
  0
VERTEX
  5
A89
  8
0
 10
-191.0000000000066
 20
-0.000000000000002
 30
-20.00000000000201
 70
   192
  0
VERTEX
  5
A8A
  8
0
 10
-155.000000000003
 20
0.0000000000000022
 30
-20.00000000000164
 70
   192
  0
VERTEX
  5
A8B
  8
0
 10
-155.000000000003
 20
-0.000000000000002
 30
-5.000000000000004
 70
   192
  0
VERTEX
  5
A8C
  8
0
 10
-191.0000000000066
 20
0.0000000000000022
 30
-5.0
 70
   192
  0
VERTEX
  5
A8D
  8
0
 10
-173.0000000000048
 20
-18.00000000000179
 30
-5.000000000000004
 70
   192
  0
VERTEX
  5
A8E
  8
0
 10
-173.0000000000048
 20
-18.00000000000179
 30
-20.00000000000189
 70
   192
  0
VERTEX
  5
A8F
  8
0
 10
-185.7279220613639
 20
-12.72792206135912
 30
-5.000000000000004
 70
   192
  0
VERTEX
  5
A90
  8
0
 10
-185.7279220613639
 20
-12.72792206135913
 30
-20.000000000002
 70
   192
  0
VERTEX
  5
A91
  8
0
 10
-160.2720779386457
 20
-12.72792206135913
 30
-5.000000000000004
 70
   192
  0
VERTEX
  5
A92
  8
0
 10
-160.2720779386457
 20
-12.72792206135912
 30
-20.00000000000173
 70
   192
  0
VERTEX
  5
A93
  8
0
 10
0.0
 20
0.0
 30
0.0
 70
   128
 71
     8
 72
     1
 73
    -4
  0
VERTEX
  5
A94
  8
0
 10
0.0
 20
0.0
 30
0.0
 70
   128
 71
     7
 72
    -8
 73
     4
  0
VERTEX
  5
A95
  8
0
 10
0.0
 20
0.0
 30
0.0
 70
   128
 71
     6
 72
     8
 73
    -7
  0
VERTEX
  5
A96
  8
0
 10
0.0
 20
0.0
 30
0.0
 70
   128
 71
     5
 72
    -6
 73
     7
  0
VERTEX
  5
A97
  8
0
 10
0.0
 20
0.0
 30
0.0
 70
   128
 71
    10
 72
     6
 73
    -5
  0
VERTEX
  5
A98
  8
0
 10
0.0
 20
0.0
 30
0.0
 70
   128
 71
     9
 72
   -10
 73
     5
  0
VERTEX
  5
A99
  8
0
 10
0.0
 20
0.0
 30
0.0
 70
   128
 71
     2
 72
    10
 73
    -9
  0
VERTEX
  5
A9A
  8
0
 10
0.0
 20
0.0
 30
0.0
 70
   128
 71
     3
 72
    -2
 73
     9
  0
SEQEND
  5
12FF
  8
0
  0
POLYLINE
  5
A9B
  8
0
 66
     1
 10
0.0
 20
0.0
 30
0.0
 70
    64
 71
     8
 72
     6
  0
VERTEX
  5
A9C
  8
0
 10
220.4999999999955
 20
-433.0000000000024
 30
-5.0
 70
   192
  0
VERTEX
  5
A9D
  8
0
 10
220.5000000000046
 20
432.9999999999976
 30
-5.0
 70
   192
  0
VERTEX
  5
A9E
  8
0
 10
220.3866148617138
 20
434.2992000942008
 30
-5.0
 70
   192
  0
VERTEX
  5
A9F
  8
0
 10
220.0498877640639
 20
435.5591175264444
 30
-5.0
 70
   192
  0
VERTEX
  5
AA0
  8
0
 10
219.4999999999973
 20
436.7416573867843
 30
-5.0
 70
   192
  0
VERTEX
  5
AA1
  8
0
 10
219.4999999999973
 20
-436.741657386773
 30
-4.999999999999998
 70
   192
  0
VERTEX
  5
AA2
  8
0
 10
220.049887764059
 20
-435.5591175264376
 30
-5.0
 70
   192
  0
VERTEX
  5
AA3
  8
0
 10
220.3866148617057
 20
-434.2992000941995
 30
-5.0
 70
   192
  0
VERTEX
  5
AA4
  8
0
 10
0.0
 20
0.0
 30
0.0
 70
   128
 71
     7
 72
     8
 73
    -1
  0
VERTEX
  5
AA5
  8
0
 10
0.0
 20
0.0
 30
0.0
 70
   128
 71
     6
 72
    -7
 73
    -1
  0
VERTEX
  5
AA6
  8
0
 10
0.0
 20
0.0
 30
0.0
 70
   128
 71
    -6
 72
     1
 73
    -2
  0
VERTEX
  5
AA7
  8
0
 10
0.0
 20
0.0
 30
0.0
 70
   128
 71
     5
 72
    -6
 73
    -2
  0
VERTEX
  5
AA8
  8
0
 10
0.0
 20
0.0
 30
0.0
 70
   128
 71
     3
 72
     4
 73
    -5
  0
VERTEX
  5
AA9
  8
0
 10
0.0
 20
0.0
 30
0.0
 70
   128
 71
     2
 72
    -3
 73
    -5
  0
SEQEND
  5
1300
  8
0
  0
POLYLINE
  5
AAA
  8
0
 66
     1
 10
0.0
 20
0.0
 30
0.0
 70
    64
 71
    21
 72
    21
  0
VERTEX
  5
AAB
  8
0
 10
-70.00000000000045
 20
30.12537886977269
 30
-165.0000000000006
 70
   192
  0
VERTEX
  5
AAC
  8
0
 10
-55.07517527229361
 20
28.67032155012005
 30
-165.0000000000005
 70
   192
  0
VERTEX
  5
AAD
  8
0
 10
-48.86279181137677
 20
32.13756374081532
 30
-164.9999999999982
 70
   192
  0
VERTEX
  5
AAE
  8
0
 10
-42.07761503162686
 20
34.27692176180025
 30
-164.9999999999982
 70
   192
  0
VERTEX
  5
AAF
  8
0
 10
-35.00000000000473
 20
35.00000000000603
 30
-164.9999999999982
 70
   192
  0
VERTEX
  5
AB0
  8
0
 10
-10.25126265847269
 20
24.74873734153401
 30
-164.9999999999983
 70
   192
  0
VERTEX
  5
AB1
  8
0
 10
-0.0000000000006608
 20
0.0000000000019727
 30
-164.9999999999986
 70
   192
  0
VERTEX
  5
AB2
  8
0
 10
-10.25126265847269
 20
-24.74873734153007
 30
-164.9999999999988
 70
   192
  0
VERTEX
  5
AB3
  8
0
 10
-35.00000000000473
 20
-35.00000000000209
 30
-164.9999999999989
 70
   192
  0
VERTEX
  5
AB4
  8
0
 10
-42.07761503162632
 20
-34.27692176179642
 30
-164.9999999999989
 70
   192
  0
VERTEX
  5
AB5
  8
0
 10
-48.8627918113758
 20
-32.13756374081179
 30
-164.9999999999989
 70
   192
  0
VERTEX
  5
AB6
  8
0
 10
-55.07517527229229
 20
-28.67032155011702
 30
-164.9999999999988
 70
   192
  0
VERTEX
  5
AB7
  8
0
 10
-70.00000000000088
 20
-30.12537886977157
 30
-165.0000000000009
 70
   192
  0
VERTEX
  5
AB8
  8
0
 10
-11.00000000000294
 20
0.0
 30
-165.0
 70
   192
  0
VERTEX
  5
AB9
  8
0
 10
-18.02943725152632
 20
16.97056274847842
 30
-165.0
 70
   192
  0
VERTEX
  5
ABA
  8
0
 10
-35.00000000000475
 20
24.00000000000182
 30
-165.0
 70
   192
  0
VERTEX
  5
ABB
  8
0
 10
-51.97056274848317
 20
16.97056274847842
 30
-165.0
 70
   192
  0
VERTEX
  5
ABC
  8
0
 10
-59.00000000000657
 20
0.0
 30
-165.0
 70
   192
  0
VERTEX
  5
ABD
  8
0
 10
-51.97056274848317
 20
-16.97056274847842
 30
-165.0
 70
   192
  0
VERTEX
  5
ABE
  8
0
 10
-35.00000000000475
 20
-24.00000000000181
 30
-165.0
 70
   192
  0
VERTEX
  5
ABF
  8
0
 10
-18.02943725152633
 20
-16.97056274847842
 30
-165.0
 70
   192
  0
VERTEX
  5
AC0
  8
0
 10
0.0
 20
0.0
 30
0.0
 70
   128
 71
   -12
 72
    19
 73
   -20
  0
VERTEX
  5
AC1
  8
0
 10
0.0
 20
0.0
 30
0.0
 70
   128
 71
    11
 72
   -12
 73
   -20
  0
VERTEX
  5
AC2
  8
0
 10
0.0
 20
0.0
 30
0.0
 70
   128
 71
    10
 72
   -11
 73
   -20
  0
VERTEX
  5
AC3
  8
0
 10
0.0
 20
0.0
 30
0.0
 70
   128
 71
     9
 72
   -10
 73
   -20
  0
VERTEX
  5
AC4
  8
0
 10
0.0
 20
0.0
 30
0.0
 70
   128
 71
   -21
 72
     8
 73
    -9
  0
VERTEX
  5
AC5
  8
0
 10
0.0
 20
0.0
 30
0.0
 70
   128
 71
    20
 72
   -21
 73
    -9
  0
VERTEX
  5
AC6
  8
0
 10
0.0
 20
0.0
 30
0.0
 70
   128
 71
   -14
 72
     7
 73
    -8
  0
VERTEX
  5
AC7
  8
0
 10
0.0
 20
0.0
 30
0.0
 70
   128
 71
    21
 72
   -14
 73
    -8
  0
VERTEX
  5
AC8
  8
0
 10
0.0
 20
0.0
 30
0.0
 70
   128
 71
    -2
 72
    17
 73
   -18
  0
VERTEX
  5
AC9
  8
0
 10
0.0
 20
0.0
 30
0.0
 70
   128
 71
     1
 72
    -2
 73
   -18
  0
VERTEX
  5
ACA
  8
0
 10
0.0
 20
0.0
 30
0.0
 70
   128
 71
   -18
 72
    13
 73
    -1
  0
VERTEX
  5
ACB
  8
0
 10
0.0
 20
0.0
 30
0.0
 70
   128
 71
   -19
 72
    12
 73
   -13
  0
VERTEX
  5
ACC
  8
0
 10
0.0
 20
0.0
 30
0.0
 70
   128
 71
    18
 72
   -19
 73
   -13
  0
VERTEX
  5
ACD
  8
0
 10
0.0
 20
0.0
 30
0.0
 70
   128
 71
    -7
 72
    14
 73
   -15
  0
VERTEX
  5
ACE
  8
0
 10
0.0
 20
0.0
 30
0.0
 70
   128
 71
     6
 72
    -7
 73
   -15
  0
VERTEX
  5
ACF
  8
0
 10
0.0
 20
0.0
 30
0.0
 70
   128
 71
   -16
 72
     5
 73
    -6
  0
VERTEX
  5
AD0
  8
0
 10
0.0
 20
0.0
 30
0.0
 70
   128
 71
    15
 72
   -16
 73
    -6
  0
VERTEX
  5
AD1
  8
0
 10
0.0
 20
0.0
 30
0.0
 70
   128
 71
     3
 72
     4
 73
    -5
  0
VERTEX
  5
AD2
  8
0
 10
0.0
 20
0.0
 30
0.0
 70
   128
 71
     2
 72
    -3
 73
    -5
  0
VERTEX
  5
AD3
  8
0
 10
0.0
 20
0.0
 30
0.0
 70
   128
 71
   -17
 72
    -2
 73
    -5
  0
VERTEX
  5
AD4
  8
0
 10
0.0
 20
0.0
 30
0.0
 70
   128
 71
    16
 72
   -17
 73
    -5
  0
SEQEND
  5
1301
  8
0
  0
POLYLINE
  5
AD5
  8
0
 66
     1
 10
0.0
 20
0.0
 30
0.0
 70
    64
 71
     7
 72
     5
  0
VERTEX
  5
AD6
  8
0
 10
-119.9999999999976
 20
39.40817451771257
 30
-140.0000000000009
 70
   192
  0
VERTEX
  5
AD7
  8
0
 10
-119.9999999999976
 20
73.92441877663447
 30
-139.0063679813925
 70
   192
  0
VERTEX
  5
AD8
  8
0
 10
-119.9999999999977
 20
108.3263415506972
 30
-136.0287629408624
 70
   192
  0
VERTEX
  5
AD9
  8
0
 10
-119.9999999999977
 20
142.5000000000005
 30
-131.0770470241005
 70
   192
  0
VERTEX
  5
ADA
  8
0
 10
-119.9999999999989
 20
142.5000000000001
 30
-20.00000000000077
 70
   192
  0
VERTEX
  5
ADB
  8
0
 10
-119.9999999999988
 20
35.00000000000006
 30
-20.00000000000115
 70
   192
  0
VERTEX
  5
ADC
  8
0
 10
-119.9999999999976
 20
35.00000000000048
 30
-140.0000000000008
 70
   192
  0
VERTEX
  5
ADD
  8
0
 10
0.0
 20
0.0
 30
0.0
 70
   128
 71
     1
 72
     7
 73
    -6
  0
VERTEX
  5
ADE
  8
0
 10
0.0
 20
0.0
 30
0.0
 70
   128
 71
     2
 72
    -1
 73
    -6
  0
VERTEX
  5
ADF
  8
0
 10
0.0
 20
0.0
 30
0.0
 70
   128
 71
     6
 72
    -5
 73
    -3
  0
VERTEX
  5
AE0
  8
0
 10
0.0
 20
0.0
 30
0.0
 70
   128
 71
    -6
 72
     3
 73
    -2
  0
VERTEX
  5
AE1
  8
0
 10
0.0
 20
0.0
 30
0.0
 70
   128
 71
     5
 72
     4
 73
    -3
  0
SEQEND
  5
1302
  8
0
  0
POLYLINE
  5
AE2
  8
0
 66
     1
 10
0.0
 20
0.0
 30
0.0
 70
    64
 71
     4
 72
     2
  0
VERTEX
  5
AE3
  8
0
 10
-119.9999999999988
 20
35.00000000000052
 30
-154.9999999999982
 70
   192
  0
VERTEX
  5
AE4
  8
0
 10
-119.9999999999974
 20
-34.99999999999945
 30
-154.9999999999989
 70
   192
  0
VERTEX
  5
AE5
  8
0
 10
-80.00000000000087
 20
-31.10030309581723
 30
-154.9999999999989
 70
   192
  0
VERTEX
  5
AE6
  8
0
 10
-80.00000000000045
 20
31.10030309581829
 30
-154.9999999999982
 70
   192
  0
VERTEX
  5
AE7
  8
0
 10
0.0
 20
0.0
 30
0.0
 70
   128
 71
     1
 72
     4
 73
    -3
  0
VERTEX
  5
AE8
  8
0
 10
0.0
 20
0.0
 30
0.0
 70
   128
 71
    -1
 72
     3
 73
     2
  0
SEQEND
  5
1303
  8
0
  0
POLYLINE
  5
AE9
  8
0
 66
     1
 10
0.0
 20
0.0
 30
0.0
 70
    64
 71
     6
 72
     4
  0
VERTEX
  5
AEA
  8
0
 10
-55.07517527229398
 20
28.67032155012028
 30
-135.4527630831824
 70
   192
  0
VERTEX
  5
AEB
  8
0
 10
-55.07517527229393
 20
28.67032155012024
 30
-140.0000000000003
 70
   192
  0
VERTEX
  5
AEC
  8
0
 10
-62.59390086438951
 20
39.40817451771234
 30
-140.0000000000002
 70
   192
  0
VERTEX
  5
AED
  8
0
 10
-79.83883434035201
 20
64.03649188780881
 30
-139.4943252304548
 70
   192
  0
VERTEX
  5
AEE
  8
0
 10
-97.06195090601592
 20
88.63365148094894
 30
-137.9773009218181
 70
   192
  0
VERTEX
  5
AEF
  8
0
 10
-114.2196994914676
 20
113.1374559234442
 30
-135.4527630831815
 70
   192
  0
VERTEX
  5
AF0
  8
0
 10
0.0
 20
0.0
 30
0.0
 70
   128
 71
     1
 72
     2
 73
    -3
  0
VERTEX
  5
AF1
  8
0
 10
0.0
 20
0.0
 30
0.0
 70
   128
 71
     3
 72
    -4
 73
    -1
  0
VERTEX
  5
AF2
  8
0
 10
0.0
 20
0.0
 30
0.0
 70
   128
 71
     4
 72
    -5
 73
    -1
  0
VERTEX
  5
AF3
  8
0
 10
0.0
 20
0.0
 30
0.0
 70
   128
 71
     5
 72
     6
 73
    -1
  0
SEQEND
  5
1304
  8
0
  0
POLYLINE
  5
AF4
  8
0
 66
     1
 10
0.0
 20
0.0
 30
0.0
 70
    64
 71
    18
 72
    16
  0
VERTEX
  5
AF5
  8
0
 10
-204.9999999999966
 20
203.7075509875214
 30
-117.066473546709
 70
   192
  0
VERTEX
  5
AF6
  8
0
 10
-204.9999999999965
 20
225.2299977786031
 30
-110.5000000000009
 70
   192
  0
VERTEX
  5
AF7
  8
0
 10
63.29744861059407
 20
225.2299977786003
 30
-110.4999999999979
 70
   192
  0
VERTEX
  5
AF8
  8
0
 10
51.23169367829478
 20
188.1496125024822
 30
-121.271057790375
 70
   192
  0
VERTEX
  5
AF9
  8
0
 10
-204.9999999999968
 20
181.9540197290793
 30
-122.8213122501438
 70
   192
  0
VERTEX
  5
AFA
  8
0
 10
-79.83883434035201
 20
64.03649188780881
 30
-139.4943252304548
 70
   192
  0
VERTEX
  5
AFB
  8
0
 10
-62.59390086438951
 20
39.40817451771234
 30
-140.0000000000002
 70
   192
  0
VERTEX
  5
AFC
  8
0
 10
-119.9999999999976
 20
39.40817451771294
 30
-140.0000000000008
 70
   192
  0
VERTEX
  5
AFD
  8
0
 10
-176.720564730925
 20
154.1777633269561
 30
-128.9209976597533
 70
   192
  0
VERTEX
  5
AFE
  8
0
 10
-204.999999999997
 20
160.0000000000003
 30
-127.7564220209353
 70
   192
  0
VERTEX
  5
AFF
  8
0
 10
-148.3858439843648
 20
148.3441443497231
 30
-130.0279268617383
 70
   192
  0
VERTEX
  5
B00
  8
0
 10
38.32989037695528
 20
150.8498873538678
 30
-129.5598472624205
 70
   192
  0
VERTEX
  5
B01
  8
0
 10
-119.9999999999977
 20
142.5000000000006
 30
-131.0770470241004
 70
   192
  0
VERTEX
  5
B02
  8
0
 10
-114.2196994914676
 20
113.1374559233888
 30
-135.4527630831883
 70
   192
  0
VERTEX
  5
B03
  8
0
 10
-119.9999999999977
 20
108.3263415506972
 30
-136.0287629408624
 70
   192
  0
VERTEX
  5
B04
  8
0
 10
25.21776785630838
 20
113.1374559234303
 30
-135.4527630831815
 70
   192
  0
VERTEX
  5
B05
  8
0
 10
-119.9999999999976
 20
73.92441877663447
 30
-139.0063679813925
 70
   192
  0
VERTEX
  5
B06
  8
0
 10
-97.06195090601592
 20
88.63365148094894
 30
-137.9773009218181
 70
   192
  0
VERTEX
  5
B07
  8
0
 10
0.0
 20
0.0
 30
0.0
 70
   128
 71
     1
 72
     2
 73
     3
  0
VERTEX
  5
B08
  8
0
 10
0.0
 20
0.0
 30
0.0
 70
   128
 71
     1
 72
     3
 73
     4
  0
VERTEX
  5
B09
  8
0
 10
0.0
 20
0.0
 30
0.0
 70
   128
 71
     5
 72
     1
 73
     4
  0
VERTEX
  5
B0A
  8
0
 10
0.0
 20
0.0
 30
0.0
 70
   128
 71
     6
 72
     7
 73
     8
  0
VERTEX
  5
B0B
  8
0
 10
0.0
 20
0.0
 30
0.0
 70
   128
 71
     9
 72
    10
 73
     5
  0
VERTEX
  5
B0C
  8
0
 10
0.0
 20
0.0
 30
0.0
 70
   128
 71
     5
 72
    11
 73
     9
  0
VERTEX
  5
B0D
  8
0
 10
0.0
 20
0.0
 30
0.0
 70
   128
 71
     5
 72
    12
 73
    13
  0
VERTEX
  5
B0E
  8
0
 10
0.0
 20
0.0
 30
0.0
 70
   128
 71
     5
 72
    13
 73
    11
  0
VERTEX
  5
B0F
  8
0
 10
0.0
 20
0.0
 30
0.0
 70
   128
 71
     5
 72
     4
 73
    12
  0
VERTEX
  5
B10
  8
0
 10
0.0
 20
0.0
 30
0.0
 70
   128
 71
    14
 72
    15
 73
    13
  0
VERTEX
  5
B11
  8
0
 10
0.0
 20
0.0
 30
0.0
 70
   128
 71
    13
 72
    16
 73
    14
  0
VERTEX
  5
B12
  8
0
 10
0.0
 20
0.0
 30
0.0
 70
   128
 71
    13
 72
    12
 73
    16
  0
VERTEX
  5
B13
  8
0
 10
0.0
 20
0.0
 30
0.0
 70
   128
 71
    17
 72
    15
 73
    14
  0
VERTEX
  5
B14
  8
0
 10
0.0
 20
0.0
 30
0.0
 70
   128
 71
    17
 72
    14
 73
    18
  0
VERTEX
  5
B15
  8
0
 10
0.0
 20
0.0
 30
0.0
 70
   128
 71
    18
 72
     6
 73
     8
  0
VERTEX
  5
B16
  8
0
 10
0.0
 20
0.0
 30
0.0
 70
   128
 71
    18
 72
     8
 73
    17
  0
SEQEND
  5
1305
  8
0
  0
POLYLINE
  5
B17
  8
0
 66
     1
 10
0.0
 20
0.0
 30
0.0
 70
    64
 71
    18
 72
    16
  0
VERTEX
  5
B18
  8
0
 10
-119.9999999999976
 20
-73.92441877663346
 30
-139.0063679813923
 70
   192
  0
VERTEX
  5
B19
  8
0
 10
-119.9999999999976
 20
-39.40817451771156
 30
-140.0000000000007
 70
   192
  0
VERTEX
  5
B1A
  8
0
 10
-79.83883434034885
 20
-64.03649188780003
 30
-139.4943252304551
 70
   192
  0
VERTEX
  5
B1B
  8
0
 10
-62.59390086438952
 20
-39.40817451771107
 30
-140.0000000000002
 70
   192
  0
VERTEX
  5
B1C
  8
0
 10
-119.9999999999976
 20
-108.3263415506961
 30
-136.0287629408621
 70
   192
  0
VERTEX
  5
B1D
  8
0
 10
-97.06195090600913
 20
-88.63365148093331
 30
-137.9773009218192
 70
   192
  0
VERTEX
  5
B1E
  8
0
 10
-114.2196994914564
 20
-113.1374559234215
 30
-135.4527630831839
 70
   192
  0
VERTEX
  5
B1F
  8
0
 10
38.32989037695452
 20
-150.8498873538552
 30
-129.559847262423
 70
   192
  0
VERTEX
  5
B20
  8
0
 10
-148.3858439843667
 20
-148.3441443497225
 30
-130.0279268617377
 70
   192
  0
VERTEX
  5
B21
  8
0
 10
-119.9999999999977
 20
-142.4999999999995
 30
-131.0770470241
 70
   192
  0
VERTEX
  5
B22
  8
0
 10
51.23169367829518
 20
-188.1496125024765
 30
-121.2710577903767
 70
   192
  0
VERTEX
  5
B23
  8
0
 10
63.29744861059535
 20
-225.2299977786013
 30
-110.4999999999979
 70
   192
  0
VERTEX
  5
B24
  8
0
 10
-205.0000000000013
 20
-225.2299977785987
 30
-110.5000000000007
 70
   192
  0
VERTEX
  5
B25
  8
0
 10
-205.0000000000009
 20
-203.7075509875182
 30
-117.0664735467083
 70
   192
  0
VERTEX
  5
B26
  8
0
 10
-176.7205647309263
 20
-154.1777633269554
 30
-128.9209976597525
 70
   192
  0
VERTEX
  5
B27
  8
0
 10
-205.0000000000006
 20
-181.9540197290779
 30
-122.8213122501427
 70
   192
  0
VERTEX
  5
B28
  8
0
 10
-205.0000000000003
 20
-160.0000000000001
 30
-127.7564220209343
 70
   192
  0
VERTEX
  5
B29
  8
0
 10
25.21776785630698
 20
-113.1374559233681
 30
-135.4527630831892
 70
   192
  0
VERTEX
  5
B2A
  8
0
 10
0.0
 20
0.0
 30
0.0
 70
   128
 71
     1
 72
     2
 73
     3
  0
VERTEX
  5
B2B
  8
0
 10
0.0
 20
0.0
 30
0.0
 70
   128
 71
     2
 72
     4
 73
     3
  0
VERTEX
  5
B2C
  8
0
 10
0.0
 20
0.0
 30
0.0
 70
   128
 71
     5
 72
     6
 73
     7
  0
VERTEX
  5
B2D
  8
0
 10
0.0
 20
0.0
 30
0.0
 70
   128
 71
     8
 72
     9
 73
    10
  0
VERTEX
  5
B2E
  8
0
 10
0.0
 20
0.0
 30
0.0
 70
   128
 71
    11
 72
    12
 73
    13
  0
VERTEX
  5
B2F
  8
0
 10
0.0
 20
0.0
 30
0.0
 70
   128
 71
    11
 72
    13
 73
    14
  0
VERTEX
  5
B30
  8
0
 10
0.0
 20
0.0
 30
0.0
 70
   128
 71
    15
 72
     9
 73
     8
  0
VERTEX
  5
B31
  8
0
 10
0.0
 20
0.0
 30
0.0
 70
   128
 71
    16
 72
    17
 73
    15
  0
VERTEX
  5
B32
  8
0
 10
0.0
 20
0.0
 30
0.0
 70
   128
 71
     1
 72
     6
 73
     5
  0
VERTEX
  5
B33
  8
0
 10
0.0
 20
0.0
 30
0.0
 70
   128
 71
     1
 72
     3
 73
     6
  0
VERTEX
  5
B34
  8
0
 10
0.0
 20
0.0
 30
0.0
 70
   128
 71
    10
 72
     5
 73
     7
  0
VERTEX
  5
B35
  8
0
 10
0.0
 20
0.0
 30
0.0
 70
   128
 71
     7
 72
    18
 73
     8
  0
VERTEX
  5
B36
  8
0
 10
0.0
 20
0.0
 30
0.0
 70
   128
 71
     7
 72
     8
 73
    10
  0
VERTEX
  5
B37
  8
0
 10
0.0
 20
0.0
 30
0.0
 70
   128
 71
    15
 72
     8
 73
    11
  0
VERTEX
  5
B38
  8
0
 10
0.0
 20
0.0
 30
0.0
 70
   128
 71
    15
 72
    11
 73
    14
  0
VERTEX
  5
B39
  8
0
 10
0.0
 20
0.0
 30
0.0
 70
   128
 71
    15
 72
    14
 73
    16
  0
SEQEND
  5
1306
  8
0
  0
POLYLINE
  5
B3A
  8
0
 66
     1
 10
0.0
 20
0.0
 30
0.0
 70
    64
 71
    16
 72
    14
  0
VERTEX
  5
B3B
  8
0
 10
74.03765663818429
 20
373.6670512340158
 30
-97.08279516491918
 70
   192
  0
VERTEX
  5
B3C
  8
0
 10
78.49999999999847
 20
374.8301890291981
 30
-89.73903214881044
 70
   192
  0
VERTEX
  5
B3D
  8
0
 10
68.95135130636729
 20
-372.5669160419621
 30
-104.0287754001048
 70
   192
  0
VERTEX
  5
B3E
  8
0
 10
68.95135130637247
 20
372.5669160419624
 30
-104.028775400097
 70
   192
  0
VERTEX
  5
B3F
  8
0
 10
74.0376566381791
 20
-373.667051234016
 30
-97.08279516492696
 70
   192
  0
VERTEX
  5
B40
  8
0
 10
78.49999999999322
 20
-374.8301890291984
 30
-89.7390321488183
 70
   192
  0
VERTEX
  5
B41
  8
0
 10
38.32989037695452
 20
-150.8498873538552
 30
-129.559847262423
 70
   192
  0
VERTEX
  5
B42
  8
0
 10
25.21776785630695
 20
-113.1374559234106
 30
-135.4527630831838
 70
   192
  0
VERTEX
  5
B43
  8
0
 10
25.21776785630853
 20
113.1374559234302
 30
-135.4527630831815
 70
   192
  0
VERTEX
  5
B44
  8
0
 10
38.32989037695528
 20
150.8498873538678
 30
-129.5598472624205
 70
   192
  0
VERTEX
  5
B45
  8
0
 10
63.29744861059407
 20
225.2299977786002
 30
-110.4999999999979
 70
   192
  0
VERTEX
  5
B46
  8
0
 10
63.29744861060173
 20
371.5419747554955
 30
-110.4999999999893
 70
   192
  0
VERTEX
  5
B47
  8
0
 10
63.29744861059765
 20
-225.2299977786013
 30
-110.4999999999955
 70
   192
  0
VERTEX
  5
B48
  8
0
 10
63.29744861059662
 20
-371.541974755494
 30
-110.499999999997
 70
   192
  0
VERTEX
  5
B49
  8
0
 10
51.23169367829518
 20
-188.1496125024765
 30
-121.2710577903767
 70
   192
  0
VERTEX
  5
B4A
  8
0
 10
51.23169367829478
 20
188.1496125024822
 30
-121.271057790375
 70
   192
  0
VERTEX
  5
B4B
  8
0
 10
0.0
 20
0.0
 30
0.0
 70
   128
 71
     1
 72
     2
 73
     3
  0
VERTEX
  5
B4C
  8
0
 10
0.0
 20
0.0
 30
0.0
 70
   128
 71
     3
 72
     4
 73
     1
  0
VERTEX
  5
B4D
  8
0
 10
0.0
 20
0.0
 30
0.0
 70
   128
 71
     2
 72
     5
 73
     3
  0
VERTEX
  5
B4E
  8
0
 10
0.0
 20
0.0
 30
0.0
 70
   128
 71
     2
 72
     6
 73
     5
  0
VERTEX
  5
B4F
  8
0
 10
0.0
 20
0.0
 30
0.0
 70
   128
 71
     7
 72
     8
 73
    -9
  0
VERTEX
  5
B50
  8
0
 10
0.0
 20
0.0
 30
0.0
 70
   128
 71
    -7
 72
     9
 73
    10
  0
VERTEX
  5
B51
  8
0
 10
0.0
 20
0.0
 30
0.0
 70
   128
 71
    11
 72
    12
 73
    -4
  0
VERTEX
  5
B52
  8
0
 10
0.0
 20
0.0
 30
0.0
 70
   128
 71
    -4
 72
    13
 73
   -11
  0
VERTEX
  5
B53
  8
0
 10
0.0
 20
0.0
 30
0.0
 70
   128
 71
     4
 72
    -3
 73
   -13
  0
VERTEX
  5
B54
  8
0
 10
0.0
 20
0.0
 30
0.0
 70
   128
 71
     3
 72
    14
 73
   -13
  0
VERTEX
  5
B55
  8
0
 10
0.0
 20
0.0
 30
0.0
 70
   128
 71
    11
 72
    13
 73
   -15
  0
VERTEX
  5
B56
  8
0
 10
0.0
 20
0.0
 30
0.0
 70
   128
 71
   -11
 72
    15
 73
    16
  0
VERTEX
  5
B57
  8
0
 10
0.0
 20
0.0
 30
0.0
 70
   128
 71
    16
 72
    15
 73
    -7
  0
VERTEX
  5
B58
  8
0
 10
0.0
 20
0.0
 30
0.0
 70
   128
 71
   -16
 72
     7
 73
    10
  0
SEQEND
  5
1307
  8
0
  0
POLYLINE
  5
B59
  8
0
 66
     1
 10
0.0
 20
0.0
 30
0.0
 70
    64
 71
     4
 72
     2
  0
VERTEX
  5
B5A
  8
0
 10
163.4999999999958
 20
-373.5000000000022
 30
-34.99999999999959
 70
   192
  0
VERTEX
  5
B5B
  8
0
 10
163.4999999999963
 20
-373.500000000002
 30
-84.01883030975443
 70
   192
  0
VERTEX
  5
B5C
  8
0
 10
163.4999999999984
 20
373.4999999999979
 30
-84.01883030974683
 70
   192
  0
VERTEX
  5
B5D
  8
0
 10
163.4999999999959
 20
373.4999999999978
 30
-34.99999999999698
 70
   192
  0
VERTEX
  5
B5E
  8
0
 10
0.0
 20
0.0
 30
0.0
 70
   128
 71
     3
 72
     4
 73
    -1
  0
VERTEX
  5
B5F
  8
0
 10
0.0
 20
0.0
 30
0.0
 70
   128
 71
     2
 72
    -3
 73
     1
  0
SEQEND
  5
1308
  8
0
  0
POLYLINE
  5
B60
  8
0
 66
     1
 10
0.0
 20
0.0
 30
0.0
 70
    64
 71
    10
 72
     8
  0
VERTEX
  5
B61
  8
0
 10
163.4718525214959
 20
-374.2497714914989
 30
-84.02072453632249
 70
   192
  0
VERTEX
  5
B62
  8
0
 10
163.4999999999963
 20
-373.5000000000021
 30
-84.01883030975443
 70
   192
  0
VERTEX
  5
B63
  8
0
 10
163.4999999999958
 20
-373.5000000000022
 30
-34.99999999999959
 70
   192
  0
VERTEX
  5
B64
  8
0
 10
163.3874100859948
 20
-374.996369537013
 30
-84.02640721602658
 70
   192
  0
VERTEX
  5
B65
  8
0
 10
163.2473859977532
 20
-375.7334874547977
 30
-84.03583034599212
 70
   192
  0
VERTEX
  5
B66
  8
0
 10
162.1602540378401
 20
-378.5000000000022
 30
-34.99999999999962
 70
   192
  0
VERTEX
  5
B67
  8
0
 10
158.4999999999957
 20
-382.1602540378466
 30
-34.99999999999968
 70
   192
  0
VERTEX
  5
B68
  8
0
 10
157.7657550474225
 20
-382.5445195491754
 30
-41.03266614363412
 70
   192
  0
VERTEX
  5
B69
  8
0
 10
161.363291282634
 20
-379.6780781966901
 30
-59.13066457459827
 70
   192
  0
VERTEX
  5
B6A
  8
0
 10
153.4999999999957
 20
-383.5000000000022
 30
-34.99999999999974
 70
   192
  0
VERTEX
  5
B6B
  8
0
 10
0.0
 20
0.0
 30
0.0
 70
   128
 71
     1
 72
     2
 73
     3
  0
VERTEX
  5
B6C
  8
0
 10
0.0
 20
0.0
 30
0.0
 70
   128
 71
     3
 72
     4
 73
     1
  0
VERTEX
  5
B6D
  8
0
 10
0.0
 20
0.0
 30
0.0
 70
   128
 71
     3
 72
     5
 73
     4
  0
VERTEX
  5
B6E
  8
0
 10
0.0
 20
0.0
 30
0.0
 70
   128
 71
     6
 72
     7
 73
     8
  0
VERTEX
  5
B6F
  8
0
 10
0.0
 20
0.0
 30
0.0
 70
   128
 71
     3
 72
     6
 73
     9
  0
VERTEX
  5
B70
  8
0
 10
0.0
 20
0.0
 30
0.0
 70
   128
 71
     5
 72
     3
 73
     9
  0
VERTEX
  5
B71
  8
0
 10
0.0
 20
0.0
 30
0.0
 70
   128
 71
     9
 72
     6
 73
     8
  0
VERTEX
  5
B72
  8
0
 10
0.0
 20
0.0
 30
0.0
 70
   128
 71
     8
 72
     7
 73
    10
  0
SEQEND
  5
1309
  8
0
  0
POLYLINE
  5
B73
  8
0
 66
     1
 10
0.0
 20
0.0
 30
0.0
 70
    64
 71
    10
 72
     8
  0
VERTEX
  5
B74
  8
0
 10
163.4999999999958
 20
373.4999999999978
 30
-34.99999999999698
 70
   192
  0
VERTEX
  5
B75
  8
0
 10
163.4718525214959
 20
374.2497714914953
 30
-84.02072453631497
 70
   192
  0
VERTEX
  5
B76
  8
0
 10
163.3874100859947
 20
374.9963695370101
 30
-84.02640721601908
 70
   192
  0
VERTEX
  5
B77
  8
0
 10
163.4999999999964
 20
373.499999999998
 30
-84.01883030974696
 70
   192
  0
VERTEX
  5
B78
  8
0
 10
158.4999999999959
 20
382.1602540378421
 30
-34.999999999997
 70
   192
  0
VERTEX
  5
B79
  8
0
 10
162.1602540378402
 20
378.4999999999977
 30
-34.99999999999698
 70
   192
  0
VERTEX
  5
B7A
  8
0
 10
161.3632912826332
 20
379.6780781966865
 30
-59.13066457459704
 70
   192
  0
VERTEX
  5
B7B
  8
0
 10
153.499999999996
 20
383.4999999999937
 30
-34.99999999999707
 70
   192
  0
VERTEX
  5
B7C
  8
0
 10
157.7657550474221
 20
382.5445195491686
 30
-41.03266614363608
 70
   192
  0
VERTEX
  5
B7D
  8
0
 10
163.2473859977528
 20
375.7334874547955
 30
-84.03583034598464
 70
   192
  0
VERTEX
  5
B7E
  8
0
 10
0.0
 20
0.0
 30
0.0
 70
   128
 71
     1
 72
     2
 73
     3
  0
VERTEX
  5
B7F
  8
0
 10
0.0
 20
0.0
 30
0.0
 70
   128
 71
     1
 72
     4
 73
     2
  0
VERTEX
  5
B80
  8
0
 10
0.0
 20
0.0
 30
0.0
 70
   128
 71
     5
 72
     6
 73
     7
  0
VERTEX
  5
B81
  8
0
 10
0.0
 20
0.0
 30
0.0
 70
   128
 71
     6
 72
     1
 73
     3
  0
VERTEX
  5
B82
  8
0
 10
0.0
 20
0.0
 30
0.0
 70
   128
 71
     8
 72
     5
 73
     9
  0
VERTEX
  5
B83
  8
0
 10
0.0
 20
0.0
 30
0.0
 70
   128
 71
     9
 72
     5
 73
     7
  0
VERTEX
  5
B84
  8
0
 10
0.0
 20
0.0
 30
0.0
 70
   128
 71
     7
 72
     6
 73
     3
  0
VERTEX
  5
B85
  8
0
 10
0.0
 20
0.0
 30
0.0
 70
   128
 71
     7
 72
     3
 73
    10
  0
SEQEND
  5
130A
  8
0
  0
POLYLINE
  5
B86
  8
0
 66
     1
 10
0.0
 20
0.0
 30
0.0
 70
    64
 71
     7
 72
     5
  0
VERTEX
  5
B87
  8
0
 10
-152.4999999999976
 20
-34.99999999999952
 30
-142.9967103839265
 70
   192
  0
VERTEX
  5
B88
  8
0
 10
-152.4999999999989
 20
-34.99999999999994
 30
-20.00000000000174
 70
   192
  0
VERTEX
  5
B89
  8
0
 10
-119.9999999999989
 20
-34.99999999999994
 30
-20.00000000000141
 70
   192
  0
VERTEX
  5
B8A
  8
0
 10
-119.9999999999976
 20
-34.99999999999951
 30
-140.0000000000011
 70
   192
  0
VERTEX
  5
B8B
  8
0
 10
-119.9999999999975
 20
-34.99999999999947
 30
-154.9999999999987
 70
   192
  0
VERTEX
  5
B8C
  8
0
 10
-131.6840349800117
 20
-34.99999999999947
 30
-153.6156695581345
 70
   192
  0
VERTEX
  5
B8D
  8
0
 10
-142.7210873477603
 20
-34.99999999999949
 30
-149.5393330634317
 70
   192
  0
VERTEX
  5
B8E
  8
0
 10
0.0
 20
0.0
 30
0.0
 70
   128
 71
     4
 72
     3
 73
    -2
  0
VERTEX
  5
B8F
  8
0
 10
0.0
 20
0.0
 30
0.0
 70
   128
 71
    -4
 72
     2
 73
    -1
  0
VERTEX
  5
B90
  8
0
 10
0.0
 20
0.0
 30
0.0
 70
   128
 71
     1
 72
     7
 73
    -6
  0
VERTEX
  5
B91
  8
0
 10
0.0
 20
0.0
 30
0.0
 70
   128
 71
    -1
 72
     6
 73
    -5
  0
VERTEX
  5
B92
  8
0
 10
0.0
 20
0.0
 30
0.0
 70
   128
 71
    -1
 72
     5
 73
    -4
  0
SEQEND
  5
130B
  8
0
  0
POLYLINE
  5
B93
  8
0
 66
     1
 10
0.0
 20
0.0
 30
0.0
 70
    64
 71
     4
 72
     2
  0
VERTEX
  5
B94
  8
0
 10
-152.4999999999976
 20
35.00000000000049
 30
-142.9967103839258
 70
   192
  0
VERTEX
  5
B95
  8
0
 10
-152.4999999999989
 20
35.00000000000006
 30
-20.00000000000149
 70
   192
  0
VERTEX
  5
B96
  8
0
 10
-152.4999999999989
 20
-34.99999999999994
 30
-20.00000000000174
 70
   192
  0
VERTEX
  5
B97
  8
0
 10
-152.4999999999979
 20
-34.99999999999995
 30
-142.9967103839265
 70
   192
  0
VERTEX
  5
B98
  8
0
 10
0.0
 20
0.0
 30
0.0
 70
   128
 71
     1
 72
     4
 73
    -3
  0
VERTEX
  5
B99
  8
0
 10
0.0
 20
0.0
 30
0.0
 70
   128
 71
    -1
 72
     3
 73
     2
  0
SEQEND
  5
130C
  8
0
  0
POLYLINE
  5
B9A
  8
0
 66
     1
 10
0.0
 20
0.0
 30
0.0
 70
    64
 71
     7
 72
     5
  0
VERTEX
  5
B9B
  8
0
 10
-119.9999999999974
 20
35.00000000000053
 30
-154.9999999999982
 70
   192
  0
VERTEX
  5
B9C
  8
0
 10
-119.9999999999976
 20
35.00000000000048
 30
-140.0000000000008
 70
   192
  0
VERTEX
  5
B9D
  8
0
 10
-119.9999999999988
 20
35.00000000000006
 30
-20.00000000000115
 70
   192
  0
VERTEX
  5
B9E
  8
0
 10
-152.4999999999989
 20
35.00000000000006
 30
-20.00000000000149
 70
   192
  0
VERTEX
  5
B9F
  8
0
 10
-152.4999999999975
 20
35.00000000000049
 30
-142.9967103839259
 70
   192
  0
VERTEX
  5
BA0
  8
0
 10
-142.7210873477599
 20
35.00000000000051
 30
-149.539333063431
 70
   192
  0
VERTEX
  5
BA1
  8
0
 10
-131.6840349800115
 20
35.00000000000053
 30
-153.6156695581337
 70
   192
  0
VERTEX
  5
BA2
  8
0
 10
0.0
 20
0.0
 30
0.0
 70
   128
 71
     2
 72
     1
 73
    -7
  0
VERTEX
  5
BA3
  8
0
 10
0.0
 20
0.0
 30
0.0
 70
   128
 71
    -2
 72
     7
 73
    -6
  0
VERTEX
  5
BA4
  8
0
 10
0.0
 20
0.0
 30
0.0
 70
   128
 71
    -2
 72
     6
 73
    -5
  0
VERTEX
  5
BA5
  8
0
 10
0.0
 20
0.0
 30
0.0
 70
   128
 71
     5
 72
     4
 73
    -3
  0
VERTEX
  5
BA6
  8
0
 10
0.0
 20
0.0
 30
0.0
 70
   128
 71
    -5
 72
     3
 73
    -2
  0
SEQEND
  5
130D
  8
0
  0
POLYLINE
  5
BA7
  8
0
 66
     1
 10
0.0
 20
0.0
 30
0.0
 70
    64
 71
     7
 72
     5
  0
VERTEX
  5
BA8
  8
0
 10
-204.9999999999961
 20
261.5419747554951
 30
-110.5000000000007
 70
   192
  0
VERTEX
  5
BA9
  8
0
 10
-204.9999999999965
 20
225.2299977786031
 30
-110.5000000000007
 70
   192
  0
VERTEX
  5
BAA
  8
0
 10
-204.9999999999966
 20
203.7075509875214
 30
-117.066473546709
 70
   192
  0
VERTEX
  5
BAB
  8
0
 10
-204.9999999999968
 20
181.9540197290793
 30
-122.8213122501438
 70
   192
  0
VERTEX
  5
BAC
  8
0
 10
-204.999999999997
 20
160.0000000000002
 30
-127.7564220209354
 70
   192
  0
VERTEX
  5
BAD
  8
0
 10
-204.9999999999976
 20
160.0
 30
-74.50000000000071
 70
   192
  0
VERTEX
  5
BAE
  8
0
 10
-204.9999999999965
 20
258.3923828685687
 30
-74.50000000000071
 70
   192
  0
VERTEX
  5
BAF
  8
0
 10
0.0
 20
0.0
 30
0.0
 70
   128
 71
     7
 72
     1
 73
    -2
  0
VERTEX
  5
BB0
  8
0
 10
0.0
 20
0.0
 30
0.0
 70
   128
 71
     6
 72
    -7
 73
    -2
  0
VERTEX
  5
BB1
  8
0
 10
0.0
 20
0.0
 30
0.0
 70
   128
 71
     2
 72
    -3
 73
    -6
  0
VERTEX
  5
BB2
  8
0
 10
0.0
 20
0.0
 30
0.0
 70
   128
 71
     3
 72
    -4
 73
    -6
  0
VERTEX
  5
BB3
  8
0
 10
0.0
 20
0.0
 30
0.0
 70
   128
 71
     4
 72
     5
 73
    -6
  0
SEQEND
  5
130E
  8
0
  0
POLYLINE
  5
BB4
  8
0
 66
     1
 10
0.0
 20
0.0
 30
0.0
 70
    64
 71
     7
 72
     5
  0
VERTEX
  5
BB5
  8
0
 10
-204.999999999997
 20
160.0000000000002
 30
-127.7564220209353
 70
   192
  0
VERTEX
  5
BB6
  8
0
 10
-204.9999999999983
 20
160.0000000000003
 30
-74.5000000000007
 70
   192
  0
VERTEX
  5
BB7
  8
0
 10
-204.9999999999989
 20
160.0000000000001
 30
-20.0000000000016
 70
   192
  0
VERTEX
  5
BB8
  8
0
 10
-119.9999999999989
 20
142.5000000000001
 30
-20.00000000000077
 70
   192
  0
VERTEX
  5
BB9
  8
0
 10
-119.9999999999977
 20
142.5000000000005
 30
-131.0770470241005
 70
   192
  0
VERTEX
  5
BBA
  8
0
 10
-148.3858439843648
 20
148.3441443497231
 30
-130.0279268617383
 70
   192
  0
VERTEX
  5
BBB
  8
0
 10
-176.720564730925
 20
154.1777633269561
 30
-128.9209976597533
 70
   192
  0
VERTEX
  5
BBC
  8
0
 10
0.0
 20
0.0
 30
0.0
 70
   128
 71
     6
 72
     5
 73
    -4
  0
VERTEX
  5
BBD
  8
0
 10
0.0
 20
0.0
 30
0.0
 70
   128
 71
     4
 72
    -3
 73
    -7
  0
VERTEX
  5
BBE
  8
0
 10
0.0
 20
0.0
 30
0.0
 70
   128
 71
    -4
 72
     7
 73
    -6
  0
VERTEX
  5
BBF
  8
0
 10
0.0
 20
0.0
 30
0.0
 70
   128
 71
     2
 72
     1
 73
    -7
  0
VERTEX
  5
BC0
  8
0
 10
0.0
 20
0.0
 30
0.0
 70
   128
 71
    -7
 72
     3
 73
    -2
  0
SEQEND
  5
130F
  8
0
  0
POLYLINE
  5
BC1
  8
0
 66
     1
 10
0.0
 20
0.0
 30
0.0
 70
    64
 71
     7
 72
     5
  0
VERTEX
  5
BC2
  8
0
 10
-205.0000000000003
 20
-160.0000000000001
 30
-127.7564220209343
 70
   192
  0
VERTEX
  5
BC3
  8
0
 10
-205.0000000000006
 20
-181.9540197290779
 30
-122.8213122501427
 70
   192
  0
VERTEX
  5
BC4
  8
0
 10
-205.0000000000009
 20
-203.7075509875182
 30
-117.0664735467083
 70
   192
  0
VERTEX
  5
BC5
  8
0
 10
-205.0000000000012
 20
-225.2299977785986
 30
-110.5000000000005
 70
   192
  0
VERTEX
  5
BC6
  8
0
 10
-205.0000000000016
 20
-261.5419747554907
 30
-110.5000000000007
 70
   192
  0
VERTEX
  5
BC7
  8
0
 10
-205.0000000000022
 20
-258.392382868557
 30
-74.49999999999407
 70
   192
  0
VERTEX
  5
BC8
  8
0
 10
-205.0000000000009
 20
-159.9999999999998
 30
-74.50000000000065
 70
   192
  0
VERTEX
  5
BC9
  8
0
 10
0.0
 20
0.0
 30
0.0
 70
   128
 71
     1
 72
     2
 73
    -3
  0
VERTEX
  5
BCA
  8
0
 10
0.0
 20
0.0
 30
0.0
 70
   128
 71
     3
 72
    -4
 73
    -1
  0
VERTEX
  5
BCB
  8
0
 10
0.0
 20
0.0
 30
0.0
 70
   128
 71
     7
 72
    -1
 73
    -4
  0
VERTEX
  5
BCC
  8
0
 10
0.0
 20
0.0
 30
0.0
 70
   128
 71
     6
 72
    -7
 73
    -4
  0
VERTEX
  5
BCD
  8
0
 10
0.0
 20
0.0
 30
0.0
 70
   128
 71
     4
 72
     5
 73
    -6
  0
SEQEND
  5
1310
  8
0
  0
POLYLINE
  5
BCE
  8
0
 66
     1
 10
0.0
 20
0.0
 30
0.0
 70
    64
 71
    24
 72
    26
  0
VERTEX
  5
BCF
  8
0
 10
-230.0000000000017
 20
-261.5419747554905
 30
-110.5000000000009
 70
   192
  0
VERTEX
  5
BD0
  8
0
 10
-230.0000000000029
 20
-371.5419747554907
 30
-110.5000000000009
 70
   192
  0
VERTEX
  5
BD1
  8
0
 10
-230.0000000000035
 20
-383.4999999999928
 30
-35.00000000000227
 70
   192
  0
VERTEX
  5
BD2
  8
0
 10
-230.0000000000043
 20
-440.0000000000023
 30
-35.00000000000396
 70
   192
  0
VERTEX
  5
BD3
  8
0
 10
-230.0000000000046
 20
-439.9999999999976
 30
-0.0000000000039506
 70
   192
  0
VERTEX
  5
BD4
  8
0
 10
-229.9999999999954
 20
440.0000000000024
 30
-0.0000000000008729
 70
   192
  0
VERTEX
  5
BD5
  8
0
 10
-229.9999999999951
 20
440.0000000000025
 30
-35.00000000000088
 70
   192
  0
VERTEX
  5
BD6
  8
0
 10
-229.9999999999957
 20
383.4999999999978
 30
-35.00000000000107
 70
   192
  0
VERTEX
  5
BD7
  8
0
 10
-229.9999999999949
 20
371.5419747554953
 30
-110.5000000000009
 70
   192
  0
VERTEX
  5
BD8
  8
0
 10
-229.9999999999963
 20
261.5419747554951
 30
-110.500000000001
 70
   192
  0
VERTEX
  5
BD9
  8
0
 10
-229.9999999999966
 20
258.3923828685621
 30
-74.50000000000071
 70
   192
  0
VERTEX
  5
BDA
  8
0
 10
-230.0000000000018
 20
-258.3923828685577
 30
-74.5000000000009
 70
   192
  0
VERTEX
  5
BDB
  8
0
 10
-230.000000000001
 20
-142.4999999999982
 30
-50.00000000000146
 70
   192
  0
VERTEX
  5
BDC
  8
0
 10
-230.0000000000008
 20
-135.4999999999982
 30
-60.0000000000015
 70
   192
  0
VERTEX
  5
BDD
  8
0
 10
-230.0000000000007
 20
-114.4999999999976
 30
-60.00000000000156
 70
   192
  0
VERTEX
  5
BDE
  8
0
 10
-230.0000000000006
 20
-107.4999999999974
 30
-50.00000000000153
 70
   192
  0
VERTEX
  5
BDF
  8
0
 10
-230.0000000000007
 20
-114.4999999999975
 30
-40.00000000000157
 70
   192
  0
VERTEX
  5
BE0
  8
0
 10
-230.000000000001
 20
-135.499999999998
 30
-40.00000000000153
 70
   192
  0
VERTEX
  5
BE1
  8
0
 10
-229.999999999998
 20
142.5000000000022
 30
-50.00000000000143
 70
   192
  0
VERTEX
  5
BE2
  8
0
 10
-229.9999999999982
 20
135.5000000000021
 30
-40.00000000000149
 70
   192
  0
VERTEX
  5
BE3
  8
0
 10
-229.9999999999984
 20
114.5000000000022
 30
-40.00000000000156
 70
   192
  0
VERTEX
  5
BE4
  8
0
 10
-229.9999999999984
 20
107.5000000000022
 30
-50.00000000000156
 70
   192
  0
VERTEX
  5
BE5
  8
0
 10
-229.9999999999982
 20
114.5000000000022
 30
-60.00000000000157
 70
   192
  0
VERTEX
  5
BE6
  8
0
 10
-229.999999999998
 20
135.5000000000023
 30
-60.00000000000149
 70
   192
  0
VERTEX
  5
BE7
  8
0
 10
0.0
 20
0.0
 30
0.0
 70
   128
 71
     9
 72
    10
 73
   -11
  0
VERTEX
  5
BE8
  8
0
 10
0.0
 20
0.0
 30
0.0
 70
   128
 71
     6
 72
     7
 73
    -8
  0
VERTEX
  5
BE9
  8
0
 10
0.0
 20
0.0
 30
0.0
 70
   128
 71
   -12
 72
    13
 73
   -14
  0
VERTEX
  5
BEA
  8
0
 10
0.0
 20
0.0
 30
0.0
 70
   128
 71
    14
 72
   -15
 73
   -12
  0
VERTEX
  5
BEB
  8
0
 10
0.0
 20
0.0
 30
0.0
 70
   128
 71
   -16
 72
    22
 73
   -23
  0
VERTEX
  5
BEC
  8
0
 10
0.0
 20
0.0
 30
0.0
 70
   128
 71
    11
 72
   -12
 73
   -15
  0
VERTEX
  5
BED
  8
0
 10
0.0
 20
0.0
 30
0.0
 70
   128
 71
   -23
 72
   -11
 73
   -15
  0
VERTEX
  5
BEE
  8
0
 10
0.0
 20
0.0
 30
0.0
 70
   128
 71
    15
 72
   -16
 73
   -23
  0
VERTEX
  5
BEF
  8
0
 10
0.0
 20
0.0
 30
0.0
 70
   128
 71
    23
 72
   -24
 73
   -11
  0
VERTEX
  5
BF0
  8
0
 10
0.0
 20
0.0
 30
0.0
 70
   128
 71
    24
 72
   -19
 73
   -11
  0
VERTEX
  5
BF1
  8
0
 10
0.0
 20
0.0
 30
0.0
 70
   128
 71
   -11
 72
    -6
 73
    -8
  0
VERTEX
  5
BF2
  8
0
 10
0.0
 20
0.0
 30
0.0
 70
   128
 71
     8
 72
    -9
 73
   -11
  0
VERTEX
  5
BF3
  8
0
 10
0.0
 20
0.0
 30
0.0
 70
   128
 71
   -11
 72
   -20
 73
    -6
  0
VERTEX
  5
BF4
  8
0
 10
0.0
 20
0.0
 30
0.0
 70
   128
 71
   -11
 72
    19
 73
   -20
  0
VERTEX
  5
BF5
  8
0
 10
0.0
 20
0.0
 30
0.0
 70
   128
 71
    20
 72
   -21
 73
    -6
  0
VERTEX
  5
BF6
  8
0
 10
0.0
 20
0.0
 30
0.0
 70
   128
 71
   -21
 72
   -17
 73
    -6
  0
VERTEX
  5
BF7
  8
0
 10
0.0
 20
0.0
 30
0.0
 70
   128
 71
   -22
 72
    16
 73
   -17
  0
VERTEX
  5
BF8
  8
0
 10
0.0
 20
0.0
 30
0.0
 70
   128
 71
    21
 72
   -22
 73
   -17
  0
VERTEX
  5
BF9
  8
0
 10
0.0
 20
0.0
 30
0.0
 70
   128
 71
    17
 72
   -18
 73
    -6
  0
VERTEX
  5
BFA
  8
0
 10
0.0
 20
0.0
 30
0.0
 70
   128
 71
   -18
 72
    -3
 73
    -6
  0
VERTEX
  5
BFB
  8
0
 10
0.0
 20
0.0
 30
0.0
 70
   128
 71
   -13
 72
   -12
 73
    -3
  0
VERTEX
  5
BFC
  8
0
 10
0.0
 20
0.0
 30
0.0
 70
   128
 71
    18
 72
   -13
 73
    -3
  0
VERTEX
  5
BFD
  8
0
 10
0.0
 20
0.0
 30
0.0
 70
   128
 71
   -12
 72
     2
 73
    -3
  0
VERTEX
  5
BFE
  8
0
 10
0.0
 20
0.0
 30
0.0
 70
   128
 71
    12
 72
     1
 73
    -2
  0
VERTEX
  5
BFF
  8
0
 10
0.0
 20
0.0
 30
0.0
 70
   128
 71
    -3
 72
     5
 73
    -6
  0
VERTEX
  5
C00
  8
0
 10
0.0
 20
0.0
 30
0.0
 70
   128
 71
     3
 72
     4
 73
    -5
  0
SEQEND
  5
1311
  8
0
  0
POLYLINE
  5
C01
  8
0
 66
     1
 10
0.0
 20
0.0
 30
0.0
 70
    64
 71
     9
 72
     7
  0
VERTEX
  5
C02
  8
0
 10
-228.660254037849
 20
-444.9999999999976
 30
-0.0000000000039488
 70
   192
  0
VERTEX
  5
C03
  8
0
 10
-228.660254037847
 20
-445.0000000000001
 30
-50.00000000000395
 70
   192
  0
VERTEX
  5
C04
  8
0
 10
-225.0000000000031
 20
-448.6602540378424
 30
-50.00000000000393
 70
   192
  0
VERTEX
  5
C05
  8
0
 10
-225.0000000000047
 20
-448.660254037842
 30
-0.0000000000039232
 70
   192
  0
VERTEX
  5
C06
  8
0
 10
-230.0000000000043
 20
-439.9999999999975
 30
-35.00000000000398
 70
   192
  0
VERTEX
  5
C07
  8
0
 10
-230.0000000000041
 20
-439.9999999999974
 30
-50.00000000000166
 70
   192
  0
VERTEX
  5
C08
  8
0
 10
-230.0000000000046
 20
-439.9999999999976
 30
-0.0000000000039454
 70
   192
  0
VERTEX
  5
C09
  8
0
 10
-220.0000000000047
 20
-449.9999999999975
 30
-50.00000000000388
 70
   192
  0
VERTEX
  5
C0A
  8
0
 10
-220.0000000000047
 20
-449.9999999999977
 30
-0.0000000000038654
 70
   192
  0
VERTEX
  5
C0B
  8
0
 10
0.0
 20
0.0
 30
0.0
 70
   128
 71
     1
 72
     2
 73
    -3
  0
VERTEX
  5
C0C
  8
0
 10
0.0
 20
0.0
 30
0.0
 70
   128
 71
    -1
 72
     3
 73
     4
  0
VERTEX
  5
C0D
  8
0
 10
0.0
 20
0.0
 30
0.0
 70
   128
 71
     5
 72
     6
 73
    -2
  0
VERTEX
  5
C0E
  8
0
 10
0.0
 20
0.0
 30
0.0
 70
   128
 71
     2
 72
     1
 73
    -7
  0
VERTEX
  5
C0F
  8
0
 10
0.0
 20
0.0
 30
0.0
 70
   128
 71
    -2
 72
     7
 73
    -5
  0
VERTEX
  5
C10
  8
0
 10
0.0
 20
0.0
 30
0.0
 70
   128
 71
     4
 72
     3
 73
    -8
  0
VERTEX
  5
C11
  8
0
 10
0.0
 20
0.0
 30
0.0
 70
   128
 71
    -4
 72
     8
 73
     9
  0
SEQEND
  5
1312
  8
0
  0
POLYLINE
  5
C12
  8
0
 66
     1
 10
0.0
 20
0.0
 30
0.0
 70
    64
 71
     9
 72
     7
  0
VERTEX
  5
C13
  8
0
 10
-224.9999999999953
 20
448.6602540378468
 30
-0.0000000000007903
 70
   192
  0
VERTEX
  5
C14
  8
0
 10
-224.9999999999964
 20
448.660254037846
 30
-50.0000000000008
 70
   192
  0
VERTEX
  5
C15
  8
0
 10
-228.6602540378409
 20
444.9999999999997
 30
-50.00000000000086
 70
   192
  0
VERTEX
  5
C16
  8
0
 10
-228.6602540378398
 20
445.0000000000024
 30
-0.0000000000008414
 70
   192
  0
VERTEX
  5
C17
  8
0
 10
-219.9999999999953
 20
450.0000000000023
 30
-0.0000000000007332
 70
   192
  0
VERTEX
  5
C18
  8
0
 10
-219.9999999999947
 20
450.0000000000025
 30
-50.00000000000074
 70
   192
  0
VERTEX
  5
C19
  8
0
 10
-229.9999999999951
 20
440.0000000000025
 30
-35.00000000000088
 70
   192
  0
VERTEX
  5
C1A
  8
0
 10
-229.9999999999954
 20
440.0000000000024
 30
-0.0000000000008811
 70
   192
  0
VERTEX
  5
C1B
  8
0
 10
-229.9999999999949
 20
439.9999999999979
 30
-50.00000000000089
 70
   192
  0
VERTEX
  5
C1C
  8
0
 10
0.0
 20
0.0
 30
0.0
 70
   128
 71
     1
 72
     2
 73
    -3
  0
VERTEX
  5
C1D
  8
0
 10
0.0
 20
0.0
 30
0.0
 70
   128
 71
    -1
 72
     3
 73
     4
  0
VERTEX
  5
C1E
  8
0
 10
0.0
 20
0.0
 30
0.0
 70
   128
 71
     5
 72
     6
 73
    -2
  0
VERTEX
  5
C1F
  8
0
 10
0.0
 20
0.0
 30
0.0
 70
   128
 71
    -5
 72
     2
 73
     1
  0
VERTEX
  5
C20
  8
0
 10
0.0
 20
0.0
 30
0.0
 70
   128
 71
    -4
 72
     7
 73
     8
  0
VERTEX
  5
C21
  8
0
 10
0.0
 20
0.0
 30
0.0
 70
   128
 71
     4
 72
     3
 73
    -9
  0
VERTEX
  5
C22
  8
0
 10
0.0
 20
0.0
 30
0.0
 70
   128
 71
    -4
 72
     9
 73
    -7
  0
SEQEND
  5
1313
  8
0
  0
POLYLINE
  5
C23
  8
0
 66
     1
 10
0.0
 20
0.0
 30
0.0
 70
    64
 71
     4
 72
     2
  0
VERTEX
  5
C24
  8
0
 10
220.0000000000056
 20
449.9999999999978
 30
-49.99999999999613
 70
   192
  0
VERTEX
  5
C25
  8
0
 10
-219.9999999999953
 20
450.0000000000025
 30
-50.00000000000074
 70
   192
  0
VERTEX
  5
C26
  8
0
 10
-219.9999999999953
 20
450.0000000000023
 30
-0.000000000000739
 70
   192
  0
VERTEX
  5
C27
  8
0
 10
220.0000000000047
 20
449.9999999999977
 30
0.0000000000038755
 70
   192
  0
VERTEX
  5
C28
  8
0
 10
0.0
 20
0.0
 30
0.0
 70
   128
 71
     3
 72
     4
 73
    -1
  0
VERTEX
  5
C29
  8
0
 10
0.0
 20
0.0
 30
0.0
 70
   128
 71
     2
 72
    -3
 73
     1
  0
SEQEND
  5
1314
  8
0
  0
POLYLINE
  5
C2A
  8
0
 66
     1
 10
0.0
 20
0.0
 30
0.0
 70
    64
 71
     8
 72
     6
  0
VERTEX
  5
C2B
  8
0
 10
228.660254037849
 20
444.9999999999976
 30
0.0000000000039488
 70
   192
  0
VERTEX
  5
C2C
  8
0
 10
228.6602540378495
 20
444.9999999999979
 30
-49.99999999999606
 70
   192
  0
VERTEX
  5
C2D
  8
0
 10
225.0000000000053
 20
448.6602540378422
 30
-49.99999999999608
 70
   192
  0
VERTEX
  5
C2E
  8
0
 10
225.0000000000047
 20
448.660254037842
 30
0.0000000000039232
 70
   192
  0
VERTEX
  5
C2F
  8
0
 10
230.0000000000046
 20
439.9999999999976
 30
0.0000000000039454
 70
   192
  0
VERTEX
  5
C30
  8
0
 10
230.0000000000051
 20
439.9999999999978
 30
-49.99999999999605
 70
   192
  0
VERTEX
  5
C31
  8
0
 10
220.0000000000056
 20
449.9999999999978
 30
-49.99999999999613
 70
   192
  0
VERTEX
  5
C32
  8
0
 10
220.0000000000047
 20
449.9999999999977
 30
0.0000000000038654
 70
   192
  0
VERTEX
  5
C33
  8
0
 10
0.0
 20
0.0
 30
0.0
 70
   128
 71
     1
 72
     2
 73
    -3
  0
VERTEX
  5
C34
  8
0
 10
0.0
 20
0.0
 30
0.0
 70
   128
 71
    -1
 72
     3
 73
     4
  0
VERTEX
  5
C35
  8
0
 10
0.0
 20
0.0
 30
0.0
 70
   128
 71
     5
 72
     6
 73
    -2
  0
VERTEX
  5
C36
  8
0
 10
0.0
 20
0.0
 30
0.0
 70
   128
 71
    -5
 72
     2
 73
     1
  0
VERTEX
  5
C37
  8
0
 10
0.0
 20
0.0
 30
0.0
 70
   128
 71
     4
 72
     3
 73
    -7
  0
VERTEX
  5
C38
  8
0
 10
0.0
 20
0.0
 30
0.0
 70
   128
 71
    -4
 72
     7
 73
     8
  0
SEQEND
  5
1315
  8
0
  0
POLYLINE
  5
C39
  8
0
 66
     1
 10
0.0
 20
0.0
 30
0.0
 70
    64
 71
     4
 72
     2
  0
VERTEX
  5
C3A
  8
0
 10
229.9999999999959
 20
-440.0000000000022
 30
-49.99999999999913
 70
   192
  0
VERTEX
  5
C3B
  8
0
 10
230.0000000000051
 20
439.9999999999981
 30
-49.99999999999606
 70
   192
  0
VERTEX
  5
C3C
  8
0
 10
230.0000000000046
 20
439.9999999999976
 30
0.0000000000039506
 70
   192
  0
VERTEX
  5
C3D
  8
0
 10
229.9999999999954
 20
-440.0000000000024
 30
0.0000000000008729
 70
   192
  0
VERTEX
  5
C3E
  8
0
 10
0.0
 20
0.0
 30
0.0
 70
   128
 71
     3
 72
     4
 73
    -1
  0
VERTEX
  5
C3F
  8
0
 10
0.0
 20
0.0
 30
0.0
 70
   128
 71
     2
 72
    -3
 73
     1
  0
SEQEND
  5
1316
  8
0
  0
POLYLINE
  5
C40
  8
0
 66
     1
 10
0.0
 20
0.0
 30
0.0
 70
    64
 71
     8
 72
     6
  0
VERTEX
  5
C41
  8
0
 10
224.9999999999953
 20
-448.6602540378468
 30
0.0000000000007903
 70
   192
  0
VERTEX
  5
C42
  8
0
 10
224.9999999999966
 20
-448.6602540378462
 30
-49.99999999999922
 70
   192
  0
VERTEX
  5
C43
  8
0
 10
228.6602540378405
 20
-445.0000000000018
 30
-49.99999999999917
 70
   192
  0
VERTEX
  5
C44
  8
0
 10
228.6602540378398
 20
-445.0000000000024
 30
0.0000000000008414
 70
   192
  0
VERTEX
  5
C45
  8
0
 10
219.9999999999953
 20
-450.0000000000023
 30
0.0000000000007332
 70
   192
  0
VERTEX
  5
C46
  8
0
 10
219.9999999999958
 20
-450.0000000000022
 30
-49.99999999999926
 70
   192
  0
VERTEX
  5
C47
  8
0
 10
229.9999999999959
 20
-440.0000000000022
 30
-49.99999999999913
 70
   192
  0
VERTEX
  5
C48
  8
0
 10
229.9999999999954
 20
-440.0000000000024
 30
0.0000000000008811
 70
   192
  0
VERTEX
  5
C49
  8
0
 10
0.0
 20
0.0
 30
0.0
 70
   128
 71
     1
 72
     2
 73
    -3
  0
VERTEX
  5
C4A
  8
0
 10
0.0
 20
0.0
 30
0.0
 70
   128
 71
    -1
 72
     3
 73
     4
  0
VERTEX
  5
C4B
  8
0
 10
0.0
 20
0.0
 30
0.0
 70
   128
 71
     5
 72
     6
 73
    -2
  0
VERTEX
  5
C4C
  8
0
 10
0.0
 20
0.0
 30
0.0
 70
   128
 71
    -5
 72
     2
 73
     1
  0
VERTEX
  5
C4D
  8
0
 10
0.0
 20
0.0
 30
0.0
 70
   128
 71
     4
 72
     3
 73
    -7
  0
VERTEX
  5
C4E
  8
0
 10
0.0
 20
0.0
 30
0.0
 70
   128
 71
    -4
 72
     7
 73
     8
  0
SEQEND
  5
1317
  8
0
  0
POLYLINE
  5
C4F
  8
0
 66
     1
 10
0.0
 20
0.0
 30
0.0
 70
    64
 71
     4
 72
     2
  0
VERTEX
  5
C50
  8
0
 10
-220.0000000000047
 20
-449.9999999999975
 30
-50.00000000000388
 70
   192
  0
VERTEX
  5
C51
  8
0
 10
219.999999999997
 20
-450.0000000000022
 30
-49.99999999999927
 70
   192
  0
VERTEX
  5
C52
  8
0
 10
219.9999999999953
 20
-450.0000000000023
 30
0.000000000000739
 70
   192
  0
VERTEX
  5
C53
  8
0
 10
-220.0000000000047
 20
-449.9999999999977
 30
-0.0000000000038755
 70
   192
  0
VERTEX
  5
C54
  8
0
 10
0.0
 20
0.0
 30
0.0
 70
   128
 71
     3
 72
     4
 73
    -1
  0
VERTEX
  5
C55
  8
0
 10
0.0
 20
0.0
 30
0.0
 70
   128
 71
     2
 72
    -3
 73
     1
  0
SEQEND
  5
1318
  8
0
  0
POLYLINE
  5
C56
  8
0
 66
     1
 10
0.0
 20
0.0
 30
0.0
 70
    64
 71
    32
 72
    32
  0
VERTEX
  5
C57
  8
0
 10
-230.0000000000046
 20
-439.9999999999976
 30
-0.0000000000039454
 70
   192
  0
VERTEX
  5
C58
  8
0
 10
-229.9999999999954
 20
440.0000000000024
 30
-0.0000000000008729
 70
   192
  0
VERTEX
  5
C59
  8
0
 10
-228.6602540378398
 20
445.0000000000024
 30
-0.0000000000008414
 70
   192
  0
VERTEX
  5
C5A
  8
0
 10
-224.9999999999953
 20
448.6602540378468
 30
-0.0000000000007903
 70
   192
  0
VERTEX
  5
C5B
  8
0
 10
-219.9999999999953
 20
450.0000000000023
 30
-0.0000000000007332
 70
   192
  0
VERTEX
  5
C5C
  8
0
 10
220.0000000000047
 20
449.9999999999977
 30
0.0000000000038755
 70
   192
  0
VERTEX
  5
C5D
  8
0
 10
225.0000000000047
 20
448.660254037842
 30
0.0000000000039232
 70
   192
  0
VERTEX
  5
C5E
  8
0
 10
228.660254037849
 20
444.9999999999976
 30
0.0000000000039488
 70
   192
  0
VERTEX
  5
C5F
  8
0
 10
230.0000000000046
 20
439.9999999999976
 30
0.0000000000039454
 70
   192
  0
VERTEX
  5
C60
  8
0
 10
229.9999999999954
 20
-440.0000000000024
 30
0.0000000000008729
 70
   192
  0
VERTEX
  5
C61
  8
0
 10
228.6602540378398
 20
-445.0000000000024
 30
0.0000000000008414
 70
   192
  0
VERTEX
  5
C62
  8
0
 10
224.9999999999953
 20
-448.6602540378468
 30
0.0000000000007903
 70
   192
  0
VERTEX
  5
C63
  8
0
 10
219.9999999999953
 20
-450.0000000000023
 30
0.0000000000007332
 70
   192
  0
VERTEX
  5
C64
  8
0
 10
-220.0000000000047
 20
-449.9999999999977
 30
-0.0000000000038755
 70
   192
  0
VERTEX
  5
C65
  8
0
 10
-225.0000000000047
 20
-448.660254037842
 30
-0.0000000000039232
 70
   192
  0
VERTEX
  5
C66
  8
0
 10
-228.660254037849
 20
-444.9999999999976
 30
-0.0000000000039488
 70
   192
  0
VERTEX
  5
C67
  8
0
 10
223.0000000000046
 20
432.9999999999976
 30
0.0000000000038474
 70
   192
  0
VERTEX
  5
C68
  8
0
 10
221.660254037849
 20
437.9999999999976
 30
0.0000000000038508
 70
   192
  0
VERTEX
  5
C69
  8
0
 10
218.0000000000047
 20
441.660254037842
 30
0.0000000000038253
 70
   192
  0
VERTEX
  5
C6A
  8
0
 10
213.0000000000047
 20
442.9999999999977
 30
0.0
 70
   192
  0
VERTEX
  5
C6B
  8
0
 10
-212.9999999999954
 20
443.0000000000022
 30
0.0
 70
   192
  0
VERTEX
  5
C6C
  8
0
 10
-217.9999999999954
 20
441.6602540378466
 30
0.0
 70
   192
  0
VERTEX
  5
C6D
  8
0
 10
-221.6602540378398
 20
438.0000000000023
 30
0.0
 70
   192
  0
VERTEX
  5
C6E
  8
0
 10
-222.9999999999955
 20
433.0000000000023
 30
0.0
 70
   192
  0
VERTEX
  5
C6F
  8
0
 10
-223.0000000000046
 20
-432.9999999999977
 30
0.0
 70
   192
  0
VERTEX
  5
C70
  8
0
 10
-221.660254037849
 20
-437.9999999999977
 30
0.0
 70
   192
  0
VERTEX
  5
C71
  8
0
 10
-218.0000000000046
 20
-441.660254037842
 30
0.0
 70
   192
  0
VERTEX
  5
C72
  8
0
 10
-213.0000000000047
 20
-442.9999999999977
 30
0.0
 70
   192
  0
VERTEX
  5
C73
  8
0
 10
212.9999999999954
 20
-443.0000000000023
 30
0.0000000000006841
 70
   192
  0
VERTEX
  5
C74
  8
0
 10
217.9999999999954
 20
-441.6602540378467
 30
0.0000000000007412
 70
   192
  0
VERTEX
  5
C75
  8
0
 10
221.6602540378398
 20
-438.0000000000024
 30
0.0000000000007923
 70
   192
  0
VERTEX
  5
C76
  8
0
 10
222.9999999999955
 20
-433.0000000000024
 30
0.0
 70
   192
  0
VERTEX
  5
C77
  8
0
 10
0.0
 20
0.0
 30
0.0
 70
   128
 71
    18
 72
   -17
 73
    -7
  0
VERTEX
  5
C78
  8
0
 10
0.0
 20
0.0
 30
0.0
 70
   128
 71
    -7
 72
    19
 73
   -18
  0
VERTEX
  5
C79
  8
0
 10
0.0
 20
0.0
 30
0.0
 70
   128
 71
    -7
 72
    20
 73
   -19
  0
VERTEX
  5
C7A
  8
0
 10
0.0
 20
0.0
 30
0.0
 70
   128
 71
     7
 72
     6
 73
    -5
  0
VERTEX
  5
C7B
  8
0
 10
0.0
 20
0.0
 30
0.0
 70
   128
 71
    -7
 72
    -5
 73
   -21
  0
VERTEX
  5
C7C
  8
0
 10
0.0
 20
0.0
 30
0.0
 70
   128
 71
    -7
 72
    21
 73
   -20
  0
VERTEX
  5
C7D
  8
0
 10
0.0
 20
0.0
 30
0.0
 70
   128
 71
    -5
 72
    22
 73
   -21
  0
VERTEX
  5
C7E
  8
0
 10
0.0
 20
0.0
 30
0.0
 70
   128
 71
     5
 72
    -4
 73
   -23
  0
VERTEX
  5
C7F
  8
0
 10
0.0
 20
0.0
 30
0.0
 70
   128
 71
    -5
 72
    23
 73
   -22
  0
VERTEX
  5
C80
  8
0
 10
0.0
 20
0.0
 30
0.0
 70
   128
 71
    -4
 72
    24
 73
   -23
  0
VERTEX
  5
C81
  8
0
 10
0.0
 20
0.0
 30
0.0
 70
   128
 71
     4
 72
     3
 73
    -2
  0
VERTEX
  5
C82
  8
0
 10
0.0
 20
0.0
 30
0.0
 70
   128
 71
    -4
 72
     2
 73
    -1
  0
VERTEX
  5
C83
  8
0
 10
0.0
 20
0.0
 30
0.0
 70
   128
 71
    -4
 72
    -1
 73
   -25
  0
VERTEX
  5
C84
  8
0
 10
0.0
 20
0.0
 30
0.0
 70
   128
 71
    -4
 72
    25
 73
   -24
  0
VERTEX
  5
C85
  8
0
 10
0.0
 20
0.0
 30
0.0
 70
   128
 71
    -1
 72
    26
 73
   -25
  0
VERTEX
  5
C86
  8
0
 10
0.0
 20
0.0
 30
0.0
 70
   128
 71
     1
 72
   -16
 73
   -27
  0
VERTEX
  5
C87
  8
0
 10
0.0
 20
0.0
 30
0.0
 70
   128
 71
    -1
 72
    27
 73
   -26
  0
VERTEX
  5
C88
  8
0
 10
0.0
 20
0.0
 30
0.0
 70
   128
 71
   -16
 72
    28
 73
   -27
  0
VERTEX
  5
C89
  8
0
 10
0.0
 20
0.0
 30
0.0
 70
   128
 71
    16
 72
    15
 73
   -14
  0
VERTEX
  5
C8A
  8
0
 10
0.0
 20
0.0
 30
0.0
 70
   128
 71
   -16
 72
    14
 73
   -13
  0
VERTEX
  5
C8B
  8
0
 10
0.0
 20
0.0
 30
0.0
 70
   128
 71
   -16
 72
   -13
 73
   -29
  0
VERTEX
  5
C8C
  8
0
 10
0.0
 20
0.0
 30
0.0
 70
   128
 71
   -16
 72
    29
 73
   -28
  0
VERTEX
  5
C8D
  8
0
 10
0.0
 20
0.0
 30
0.0
 70
   128
 71
   -13
 72
    30
 73
   -29
  0
VERTEX
  5
C8E
  8
0
 10
0.0
 20
0.0
 30
0.0
 70
   128
 71
    13
 72
   -12
 73
   -31
  0
VERTEX
  5
C8F
  8
0
 10
0.0
 20
0.0
 30
0.0
 70
   128
 71
   -13
 72
    31
 73
   -30
  0
VERTEX
  5
C90
  8
0
 10
0.0
 20
0.0
 30
0.0
 70
   128
 71
   -12
 72
    32
 73
   -31
  0
VERTEX
  5
C91
  8
0
 10
0.0
 20
0.0
 30
0.0
 70
   128
 71
    12
 72
    11
 73
   -10
  0
VERTEX
  5
C92
  8
0
 10
0.0
 20
0.0
 30
0.0
 70
   128
 71
   -12
 72
    10
 73
    -9
  0
VERTEX
  5
C93
  8
0
 10
0.0
 20
0.0
 30
0.0
 70
   128
 71
   -12
 72
     9
 73
    -8
  0
VERTEX
  5
C94
  8
0
 10
0.0
 20
0.0
 30
0.0
 70
   128
 71
   -12
 72
     8
 73
    -7
  0
VERTEX
  5
C95
  8
0
 10
0.0
 20
0.0
 30
0.0
 70
   128
 71
   -12
 72
    -7
 73
   -17
  0
VERTEX
  5
C96
  8
0
 10
0.0
 20
0.0
 30
0.0
 70
   128
 71
   -12
 72
    17
 73
   -32
  0
SEQEND
  5
1319
  8
0
  0
POLYLINE
  5
C97
  8
0
 66
     1
 10
0.0
 20
0.0
 30
0.0
 70
    64
 71
     4
 72
     2
  0
VERTEX
  5
C98
  8
0
 10
212.9999999999954
 20
-443.0000000000023
 30
0.0
 70
   192
  0
VERTEX
  5
C99
  8
0
 10
-213.0000000000047
 20
-442.9999999999977
 30
0.0
 70
   192
  0
VERTEX
  5
C9A
  8
0
 10
-213.0000000000047
 20
-442.9999999999977
 30
-2.5
 70
   192
  0
VERTEX
  5
C9B
  8
0
 10
212.9999999999954
 20
-443.0000000000023
 30
-2.5
 70
   192
  0
VERTEX
  5
C9C
  8
0
 10
0.0
 20
0.0
 30
0.0
 70
   128
 71
     1
 72
     4
 73
    -3
  0
VERTEX
  5
C9D
  8
0
 10
0.0
 20
0.0
 30
0.0
 70
   128
 71
    -1
 72
     3
 73
     2
  0
SEQEND
  5
131A
  8
0
  0
POLYLINE
  5
C9E
  8
0
 66
     1
 10
0.0
 20
0.0
 30
0.0
 70
    64
 71
     8
 72
     6
  0
VERTEX
  5
C9F
  8
0
 10
-218.0000000000046
 20
-441.660254037842
 30
-2.5
 70
   192
  0
VERTEX
  5
CA0
  8
0
 10
-221.660254037849
 20
-437.9999999999977
 30
-2.5
 70
   192
  0
VERTEX
  5
CA1
  8
0
 10
-221.660254037849
 20
-437.9999999999977
 30
0.0
 70
   192
  0
VERTEX
  5
CA2
  8
0
 10
-218.0000000000046
 20
-441.660254037842
 30
0.0
 70
   192
  0
VERTEX
  5
CA3
  8
0
 10
-223.0000000000046
 20
-432.9999999999977
 30
-2.5
 70
   192
  0
VERTEX
  5
CA4
  8
0
 10
-223.0000000000046
 20
-432.9999999999977
 30
0.0
 70
   192
  0
VERTEX
  5
CA5
  8
0
 10
-213.0000000000047
 20
-442.9999999999977
 30
-2.5
 70
   192
  0
VERTEX
  5
CA6
  8
0
 10
-213.0000000000047
 20
-442.9999999999977
 30
0.0
 70
   192
  0
VERTEX
  5
CA7
  8
0
 10
0.0
 20
0.0
 30
0.0
 70
   128
 71
     1
 72
     2
 73
    -3
  0
VERTEX
  5
CA8
  8
0
 10
0.0
 20
0.0
 30
0.0
 70
   128
 71
     4
 72
    -1
 73
     3
  0
VERTEX
  5
CA9
  8
0
 10
0.0
 20
0.0
 30
0.0
 70
   128
 71
     2
 72
     5
 73
    -6
  0
VERTEX
  5
CAA
  8
0
 10
0.0
 20
0.0
 30
0.0
 70
   128
 71
     3
 72
    -2
 73
     6
  0
VERTEX
  5
CAB
  8
0
 10
0.0
 20
0.0
 30
0.0
 70
   128
 71
     7
 72
     1
 73
    -4
  0
VERTEX
  5
CAC
  8
0
 10
0.0
 20
0.0
 30
0.0
 70
   128
 71
     8
 72
    -7
 73
     4
  0
SEQEND
  5
131B
  8
0
  0
POLYLINE
  5
CAD
  8
0
 66
     1
 10
0.0
 20
0.0
 30
0.0
 70
    64
 71
     4
 72
     2
  0
VERTEX
  5
CAE
  8
0
 10
-223.0000000000045
 20
-432.9999999999977
 30
0.0
 70
   192
  0
VERTEX
  5
CAF
  8
0
 10
-222.9999999999955
 20
433.0000000000023
 30
0.0
 70
   192
  0
VERTEX
  5
CB0
  8
0
 10
-222.9999999999955
 20
433.0000000000023
 30
-2.5
 70
   192
  0
VERTEX
  5
CB1
  8
0
 10
-223.0000000000046
 20
-432.9999999999977
 30
-2.5
 70
   192
  0
VERTEX
  5
CB2
  8
0
 10
0.0
 20
0.0
 30
0.0
 70
   128
 71
     1
 72
     4
 73
    -3
  0
VERTEX
  5
CB3
  8
0
 10
0.0
 20
0.0
 30
0.0
 70
   128
 71
    -1
 72
     3
 73
     2
  0
SEQEND
  5
131C
  8
0
  0
POLYLINE
  5
CB4
  8
0
 66
     1
 10
0.0
 20
0.0
 30
0.0
 70
    64
 71
     8
 72
     6
  0
VERTEX
  5
CB5
  8
0
 10
-221.6602540378398
 20
438.0000000000023
 30
-2.5
 70
   192
  0
VERTEX
  5
CB6
  8
0
 10
-217.9999999999954
 20
441.6602540378466
 30
-2.5
 70
   192
  0
VERTEX
  5
CB7
  8
0
 10
-217.9999999999954
 20
441.6602540378466
 30
0.0
 70
   192
  0
VERTEX
  5
CB8
  8
0
 10
-221.6602540378398
 20
438.0000000000023
 30
0.0
 70
   192
  0
VERTEX
  5
CB9
  8
0
 10
-212.9999999999954
 20
443.0000000000022
 30
-2.5
 70
   192
  0
VERTEX
  5
CBA
  8
0
 10
-212.9999999999954
 20
443.0000000000022
 30
0.0
 70
   192
  0
VERTEX
  5
CBB
  8
0
 10
-222.9999999999955
 20
433.0000000000023
 30
-2.5
 70
   192
  0
VERTEX
  5
CBC
  8
0
 10
-222.9999999999955
 20
433.0000000000023
 30
0.0
 70
   192
  0
VERTEX
  5
CBD
  8
0
 10
0.0
 20
0.0
 30
0.0
 70
   128
 71
     1
 72
     2
 73
    -3
  0
VERTEX
  5
CBE
  8
0
 10
0.0
 20
0.0
 30
0.0
 70
   128
 71
     4
 72
    -1
 73
     3
  0
VERTEX
  5
CBF
  8
0
 10
0.0
 20
0.0
 30
0.0
 70
   128
 71
     2
 72
     5
 73
    -6
  0
VERTEX
  5
CC0
  8
0
 10
0.0
 20
0.0
 30
0.0
 70
   128
 71
     3
 72
    -2
 73
     6
  0
VERTEX
  5
CC1
  8
0
 10
0.0
 20
0.0
 30
0.0
 70
   128
 71
     7
 72
     1
 73
    -4
  0
VERTEX
  5
CC2
  8
0
 10
0.0
 20
0.0
 30
0.0
 70
   128
 71
     8
 72
    -7
 73
     4
  0
SEQEND
  5
131D
  8
0
  0
POLYLINE
  5
CC3
  8
0
 66
     1
 10
0.0
 20
0.0
 30
0.0
 70
    64
 71
     4
 72
     2
  0
VERTEX
  5
CC4
  8
0
 10
-212.9999999999954
 20
443.0000000000022
 30
0.0
 70
   192
  0
VERTEX
  5
CC5
  8
0
 10
213.0000000000047
 20
442.9999999999977
 30
0.0
 70
   192
  0
VERTEX
  5
CC6
  8
0
 10
213.0000000000047
 20
442.9999999999977
 30
-2.5
 70
   192
  0
VERTEX
  5
CC7
  8
0
 10
-212.9999999999954
 20
443.0000000000022
 30
-2.5
 70
   192
  0
VERTEX
  5
CC8
  8
0
 10
0.0
 20
0.0
 30
0.0
 70
   128
 71
     1
 72
     4
 73
    -3
  0
VERTEX
  5
CC9
  8
0
 10
0.0
 20
0.0
 30
0.0
 70
   128
 71
    -1
 72
     3
 73
     2
  0
SEQEND
  5
131E
  8
0
  0
POLYLINE
  5
CCA
  8
0
 66
     1
 10
0.0
 20
0.0
 30
0.0
 70
    64
 71
     4
 72
     2
  0
VERTEX
  5
CCB
  8
0
 10
223.0000000000046
 20
432.9999999999976
 30
0.0
 70
   192
  0
VERTEX
  5
CCC
  8
0
 10
222.9999999999955
 20
-433.0000000000024
 30
0.0
 70
   192
  0
VERTEX
  5
CCD
  8
0
 10
222.9999999999955
 20
-433.0000000000024
 30
-2.5
 70
   192
  0
VERTEX
  5
CCE
  8
0
 10
223.0000000000046
 20
432.9999999999976
 30
-2.5
 70
   192
  0
VERTEX
  5
CCF
  8
0
 10
0.0
 20
0.0
 30
0.0
 70
   128
 71
     1
 72
     4
 73
    -3
  0
VERTEX
  5
CD0
  8
0
 10
0.0
 20
0.0
 30
0.0
 70
   128
 71
    -1
 72
     3
 73
     2
  0
SEQEND
  5
131F
  8
0
  0
POLYLINE
  5
CD1
  8
0
 66
     1
 10
0.0
 20
0.0
 30
0.0
 70
    64
 71
    38
 72
    38
  0
VERTEX
  5
CD2
  8
0
 10
-106.9412620521158
 20
439.4983843100665
 30
-4.999999999996144
 70
   192
  0
VERTEX
  5
CD3
  8
0
 10
216.7444627596934
 20
439.498384310063
 30
-4.999999999993884
 70
   192
  0
VERTEX
  5
CD4
  8
0
 10
215.561146140682
 20
440.04915104435
 30
-5.0
 70
   192
  0
VERTEX
  5
CD5
  8
0
 10
214.3002628902229
 20
440.386427852236
 30
-5.0
 70
   192
  0
VERTEX
  5
CD6
  8
0
 10
213.0000000000047
 20
440.4999999999977
 30
-5.0
 70
   192
  0
VERTEX
  5
CD7
  8
0
 10
-212.9999999999954
 20
440.5000000000022
 30
-5.0
 70
   192
  0
VERTEX
  5
CD8
  8
0
 10
-216.7499999999954
 20
439.4951905283855
 30
-5.0
 70
   192
  0
VERTEX
  5
CD9
  8
0
 10
-219.4951905283787
 20
436.7500000000023
 30
-5.0
 70
   192
  0
VERTEX
  5
CDA
  8
0
 10
-220.4999999999955
 20
433.0000000000023
 30
-5.0
 70
   192
  0
VERTEX
  5
CDB
  8
0
 10
-220.5000000000046
 20
-432.9999999999977
 30
-5.0
 70
   192
  0
VERTEX
  5
CDC
  8
0
 10
-219.4951905283879
 20
-436.7499999999977
 30
-5.0
 70
   192
  0
VERTEX
  5
CDD
  8
0
 10
-216.7500000000046
 20
-439.495190528381
 30
-5.0
 70
   192
  0
VERTEX
  5
CDE
  8
0
 10
-213.0000000000046
 20
-440.4999999999977
 30
-5.0
 70
   192
  0
VERTEX
  5
CDF
  8
0
 10
212.9999999999954
 20
-440.5000000000023
 30
-5.0
 70
   192
  0
VERTEX
  5
CE0
  8
0
 10
214.3002628902137
 20
-440.3864278522406
 30
-5.0
 70
   192
  0
VERTEX
  5
CE1
  8
0
 10
215.5611461406729
 20
-440.0491510443546
 30
-5.0
 70
   192
  0
VERTEX
  5
CE2
  8
0
 10
216.7444627596844
 20
-439.4983843100676
 30
-5.0
 70
   192
  0
VERTEX
  5
CE3
  8
0
 10
-106.9412620521155
 20
-439.4983843100642
 30
-4.999999999999248
 70
   192
  0
VERTEX
  5
CE4
  8
0
 10
-110.7694974860248
 20
-418.8106037751987
 30
-4.99999999999989
 70
   192
  0
VERTEX
  5
CE5
  8
0
 10
-113.9599771434265
 20
-398.0190272267193
 30
-5.000000000000001
 70
   192
  0
VERTEX
  5
CE6
  8
0
 10
-115.8903634398152
 20
-377.0779241254602
 30
-5.0
 70
   192
  0
VERTEX
  5
CE7
  8
0
 10
-116.0007447100303
 20
-374.5263989723894
 30
-5.0
 70
   192
  0
VERTEX
  5
CE8
  8
0
 10
-116.076460401435
 20
-371.97371138532
 30
-5.0
 70
   192
  0
VERTEX
  5
CE9
  8
0
 10
-116.1045737922898
 20
-369.4194275597205
 30
-5.0
 70
   192
  0
VERTEX
  5
CEA
  8
0
 10
-116.1045737922898
 20
369.4194275597147
 30
-5.0
 70
   192
  0
VERTEX
  5
CEB
  8
0
 10
-116.0764604014349
 20
371.9737113853172
 30
-5.000000000000001
 70
   192
  0
VERTEX
  5
CEC
  8
0
 10
-116.0007447100299
 20
374.5263989723894
 30
-5.0
 70
   192
  0
VERTEX
  5
CED
  8
0
 10
-115.8903634398146
 20
377.0779241254631
 30
-5.0
 70
   192
  0
VERTEX
  5
CEE
  8
0
 10
-113.9599752956602
 20
398.0190415907142
 30
-5.0
 70
   192
  0
VERTEX
  5
CEF
  8
0
 10
-110.7687551518147
 20
418.8107339095945
 30
-5.0
 70
   192
  0
VERTEX
  5
CF0
  8
0
 10
-191.0000000000066
 20
0.0
 30
-5.000000000000004
 70
   192
  0
VERTEX
  5
CF1
  8
0
 10
-185.7279220613639
 20
12.72792206135913
 30
-5.000000000000004
 70
   192
  0
VERTEX
  5
CF2
  8
0
 10
-173.0000000000048
 20
18.00000000000179
 30
-5.000000000000004
 70
   192
  0
VERTEX
  5
CF3
  8
0
 10
-160.2720779386457
 20
12.72792206135912
 30
-5.000000000000004
 70
   192
  0
VERTEX
  5
CF4
  8
0
 10
-155.000000000003
 20
0.0
 30
-5.000000000000004
 70
   192
  0
VERTEX
  5
CF5
  8
0
 10
-160.2720779386457
 20
-12.72792206135913
 30
-5.000000000000004
 70
   192
  0
VERTEX
  5
CF6
  8
0
 10
-173.0000000000048
 20
-18.00000000000179
 30
-5.000000000000004
 70
   192
  0
VERTEX
  5
CF7
  8
0
 10
-185.7279220613639
 20
-12.72792206135912
 30
-5.000000000000004
 70
   192
  0
VERTEX
  5
CF8
  8
0
 10
0.0
 20
0.0
 30
0.0
 70
   128
 71
     3
 72
     4
 73
    -5
  0
VERTEX
  5
CF9
  8
0
 10
0.0
 20
0.0
 30
0.0
 70
   128
 71
     2
 72
    -3
 73
    -5
  0
VERTEX
  5
CFA
  8
0
 10
0.0
 20
0.0
 30
0.0
 70
   128
 71
    17
 72
   -18
 73
   -14
  0
VERTEX
  5
CFB
  8
0
 10
0.0
 20
0.0
 30
0.0
 70
   128
 71
    15
 72
    16
 73
   -17
  0
VERTEX
  5
CFC
  8
0
 10
0.0
 20
0.0
 30
0.0
 70
   128
 71
    14
 72
   -15
 73
   -17
  0
VERTEX
  5
CFD
  8
0
 10
0.0
 20
0.0
 30
0.0
 70
   128
 71
   -18
 72
    13
 73
   -14
  0
VERTEX
  5
CFE
  8
0
 10
0.0
 20
0.0
 30
0.0
 70
   128
 71
    11
 72
    12
 73
   -13
  0
VERTEX
  5
CFF
  8
0
 10
0.0
 20
0.0
 30
0.0
 70
   128
 71
   -19
 72
   -11
 73
   -13
  0
VERTEX
  5
D00
  8
0
 10
0.0
 20
0.0
 30
0.0
 70
   128
 71
    18
 72
   -19
 73
   -13
  0
VERTEX
  5
D01
  8
0
 10
0.0
 20
0.0
 30
0.0
 70
   128
 71
   -20
 72
    10
 73
   -11
  0
VERTEX
  5
D02
  8
0
 10
0.0
 20
0.0
 30
0.0
 70
   128
 71
    19
 72
   -20
 73
   -11
  0
VERTEX
  5
D03
  8
0
 10
0.0
 20
0.0
 30
0.0
 70
   128
 71
    20
 72
   -21
 73
   -10
  0
VERTEX
  5
D04
  8
0
 10
0.0
 20
0.0
 30
0.0
 70
   128
 71
    21
 72
   -22
 73
   -10
  0
VERTEX
  5
D05
  8
0
 10
0.0
 20
0.0
 30
0.0
 70
   128
 71
    22
 72
   -23
 73
   -10
  0
VERTEX
  5
D06
  8
0
 10
0.0
 20
0.0
 30
0.0
 70
   128
 71
    23
 72
   -24
 73
   -10
  0
VERTEX
  5
D07
  8
0
 10
0.0
 20
0.0
 30
0.0
 70
   128
 71
     9
 72
   -10
 73
   -31
  0
VERTEX
  5
D08
  8
0
 10
0.0
 20
0.0
 30
0.0
 70
   128
 71
    31
 72
   -32
 73
    -9
  0
VERTEX
  5
D09
  8
0
 10
0.0
 20
0.0
 30
0.0
 70
   128
 71
   -33
 72
   -25
 73
    -9
  0
VERTEX
  5
D0A
  8
0
 10
0.0
 20
0.0
 30
0.0
 70
   128
 71
    32
 72
   -33
 73
    -9
  0
VERTEX
  5
D0B
  8
0
 10
0.0
 20
0.0
 30
0.0
 70
   128
 71
    33
 72
   -34
 73
   -25
  0
VERTEX
  5
D0C
  8
0
 10
0.0
 20
0.0
 30
0.0
 70
   128
 71
    34
 72
   -35
 73
   -25
  0
VERTEX
  5
D0D
  8
0
 10
0.0
 20
0.0
 30
0.0
 70
   128
 71
    24
 72
   -25
 73
   -35
  0
VERTEX
  5
D0E
  8
0
 10
0.0
 20
0.0
 30
0.0
 70
   128
 71
    35
 72
   -36
 73
   -24
  0
VERTEX
  5
D0F
  8
0
 10
0.0
 20
0.0
 30
0.0
 70
   128
 71
    36
 72
   -37
 73
   -24
  0
VERTEX
  5
D10
  8
0
 10
0.0
 20
0.0
 30
0.0
 70
   128
 71
   -38
 72
   -10
 73
   -24
  0
VERTEX
  5
D11
  8
0
 10
0.0
 20
0.0
 30
0.0
 70
   128
 71
    37
 72
   -38
 73
   -24
  0
VERTEX
  5
D12
  8
0
 10
0.0
 20
0.0
 30
0.0
 70
   128
 71
    38
 72
   -31
 73
   -10
  0
VERTEX
  5
D13
  8
0
 10
0.0
 20
0.0
 30
0.0
 70
   128
 71
    25
 72
   -26
 73
    -9
  0
VERTEX
  5
D14
  8
0
 10
0.0
 20
0.0
 30
0.0
 70
   128
 71
    26
 72
   -27
 73
    -9
  0
VERTEX
  5
D15
  8
0
 10
0.0
 20
0.0
 30
0.0
 70
   128
 71
    27
 72
   -28
 73
    -9
  0
VERTEX
  5
D16
  8
0
 10
0.0
 20
0.0
 30
0.0
 70
   128
 71
    28
 72
   -29
 73
    -9
  0
VERTEX
  5
D17
  8
0
 10
0.0
 20
0.0
 30
0.0
 70
   128
 71
     7
 72
     8
 73
    -9
  0
VERTEX
  5
D18
  8
0
 10
0.0
 20
0.0
 30
0.0
 70
   128
 71
   -30
 72
    -7
 73
    -9
  0
VERTEX
  5
D19
  8
0
 10
0.0
 20
0.0
 30
0.0
 70
   128
 71
    29
 72
   -30
 73
    -9
  0
VERTEX
  5
D1A
  8
0
 10
0.0
 20
0.0
 30
0.0
 70
   128
 71
    -1
 72
     6
 73
    -7
  0
VERTEX
  5
D1B
  8
0
 10
0.0
 20
0.0
 30
0.0
 70
   128
 71
    30
 72
    -1
 73
    -7
  0
VERTEX
  5
D1C
  8
0
 10
0.0
 20
0.0
 30
0.0
 70
   128
 71
     5
 72
    -6
 73
    -1
  0
VERTEX
  5
D1D
  8
0
 10
0.0
 20
0.0
 30
0.0
 70
   128
 71
     1
 72
    -2
 73
    -5
  0
SEQEND
  5
1320
  8
0
  0
POLYLINE
  5
D1E
  8
0
 66
     1
 10
0.0
 20
0.0
 30
0.0
 70
    64
 71
    11
 72
     9
  0
VERTEX
  5
D1F
  8
0
 10
-97.3360968932896
 20
179.2696487841391
 30
-114.7652316125784
 70
   192
  0
VERTEX
  5
D20
  8
0
 10
-26.50136037689223
 20
179.2696487841384
 30
-114.7652316125779
 70
   192
  0
VERTEX
  5
D21
  8
0
 10
-13.99904329242302
 20
193.1200643296141
 30
-113.2984766717632
 70
   192
  0
VERTEX
  5
D22
  8
0
 10
-98.15196626621838
 20
227.1997766253614
 30
-104.8912473251453
 70
   192
  0
VERTEX
  5
D23
  8
0
 10
10.62350126183401
 20
221.0480450889259
 30
-106.9401861158295
 70
   192
  0
VERTEX
  5
D24
  8
0
 10
19.62180872748402
 20
230.8839108864797
 30
-103.544685919755
 70
   192
  0
VERTEX
  5
D25
  8
0
 10
28.95587237881821
 20
240.3837080611009
 30
-99.64143568970377
 70
   192
  0
VERTEX
  5
D26
  8
0
 10
38.5770512803854
 20
249.6640707519175
 30
-95.19312020999463
 70
   192
  0
VERTEX
  5
D27
  8
0
 10
-98.95330488067125
 20
249.6640707519189
 30
-95.1931202099956
 70
   192
  0
VERTEX
  5
D28
  8
0
 10
-1.338469762771607
 20
207.4254668761442
 30
-110.6267500767854
 70
   192
  0
VERTEX
  5
D29
  8
0
 10
-97.60786401052458
 20
203.5158942306529
 30
-111.4761949916959
 70
   192
  0
VERTEX
  5
D2A
  8
0
 10
0.0
 20
0.0
 30
0.0
 70
   128
 71
     1
 72
     2
 73
     3
  0
VERTEX
  5
D2B
  8
0
 10
0.0
 20
0.0
 30
0.0
 70
   128
 71
     4
 72
     5
 73
     6
  0
VERTEX
  5
D2C
  8
0
 10
0.0
 20
0.0
 30
0.0
 70
   128
 71
     7
 72
     8
 73
     9
  0
VERTEX
  5
D2D
  8
0
 10
0.0
 20
0.0
 30
0.0
 70
   128
 71
    10
 72
    11
 73
     3
  0
VERTEX
  5
D2E
  8
0
 10
0.0
 20
0.0
 30
0.0
 70
   128
 71
    11
 72
     1
 73
     3
  0
VERTEX
  5
D2F
  8
0
 10
0.0
 20
0.0
 30
0.0
 70
   128
 71
     4
 72
    11
 73
    10
  0
VERTEX
  5
D30
  8
0
 10
0.0
 20
0.0
 30
0.0
 70
   128
 71
     5
 72
     4
 73
    10
  0
VERTEX
  5
D31
  8
0
 10
0.0
 20
0.0
 30
0.0
 70
   128
 71
     9
 72
     4
 73
     6
  0
VERTEX
  5
D32
  8
0
 10
0.0
 20
0.0
 30
0.0
 70
   128
 71
     7
 72
     9
 73
     6
  0
SEQEND
  5
1321
  8
0
  0
POLYLINE
  5
D33
  8
0
 66
     1
 10
0.0
 20
0.0
 30
0.0
 70
    64
 71
    11
 72
     9
  0
VERTEX
  5
D34
  8
0
 10
-98.95330488067125
 20
249.6640707519189
 30
-95.1931202099956
 70
   192
  0
VERTEX
  5
D35
  8
0
 10
38.5770512803854
 20
249.6640707519175
 30
-95.19312020999463
 70
   192
  0
VERTEX
  5
D36
  8
0
 10
47.04183251859872
 20
257.7824184861426
 30
-90.90455003988927
 70
   192
  0
VERTEX
  5
D37
  8
0
 10
87.10695405349304
 20
298.3665035351327
 30
-65.99030523322438
 70
   192
  0
VERTEX
  5
D38
  8
0
 10
-100.5632578110761
 20
282.647664789393
 30
-76.36332409886668
 70
   192
  0
VERTEX
  5
D39
  8
0
 10
63.54754768101549
 20
274.3553646788505
 30
-81.45706382562268
 70
   192
  0
VERTEX
  5
D3A
  8
0
 10
55.38031806094132
 20
266.0371543096716
 30
-86.31791329396789
 70
   192
  0
VERTEX
  5
D3B
  8
0
 10
-102.4140805003542
 20
313.9411711559745
 30
-54.71634720980118
 70
   192
  0
VERTEX
  5
D3C
  8
0
 10
110.0654041072714
 20
321.2481157328887
 30
-49.05807056430378
 70
   192
  0
VERTEX
  5
D3D
  8
0
 10
-104.4850780515258
 20
343.1946828107883
 30
-30.49423431523258
 70
   192
  0
VERTEX
  5
D3E
  8
0
 10
132.5161757364806
 20
343.1946828107859
 30
-30.49423431523093
 70
   192
  0
VERTEX
  5
D3F
  8
0
 10
0.0
 20
0.0
 30
0.0
 70
   128
 71
     1
 72
     2
 73
     3
  0
VERTEX
  5
D40
  8
0
 10
0.0
 20
0.0
 30
0.0
 70
   128
 71
     4
 72
     5
 73
     6
  0
VERTEX
  5
D41
  8
0
 10
0.0
 20
0.0
 30
0.0
 70
   128
 71
     1
 72
     3
 73
     7
  0
VERTEX
  5
D42
  8
0
 10
0.0
 20
0.0
 30
0.0
 70
   128
 71
     5
 72
     1
 73
     7
  0
VERTEX
  5
D43
  8
0
 10
0.0
 20
0.0
 30
0.0
 70
   128
 71
     7
 72
     6
 73
     5
  0
VERTEX
  5
D44
  8
0
 10
0.0
 20
0.0
 30
0.0
 70
   128
 71
     8
 72
     5
 73
     4
  0
VERTEX
  5
D45
  8
0
 10
0.0
 20
0.0
 30
0.0
 70
   128
 71
     9
 72
     8
 73
     4
  0
VERTEX
  5
D46
  8
0
 10
0.0
 20
0.0
 30
0.0
 70
   128
 71
    10
 72
     8
 73
     9
  0
VERTEX
  5
D47
  8
0
 10
0.0
 20
0.0
 30
0.0
 70
   128
 71
    11
 72
    10
 73
     9
  0
SEQEND
  5
1322
  8
0
  0
POLYLINE
  5
D48
  8
0
 66
     1
 10
0.0
 20
0.0
 30
0.0
 70
    64
 71
    11
 72
     9
  0
VERTEX
  5
D49
  8
0
 10
217.3302481452625
 20
439.1274449506907
 30
-5.000249826946375
 70
   192
  0
VERTEX
  5
D4A
  8
0
 10
216.7444627596934
 20
439.498384310063
 30
-4.999999999999974
 70
   192
  0
VERTEX
  5
D4B
  8
0
 10
-106.9412620521158
 20
439.4983843100665
 30
-4.999999999996144
 70
   192
  0
VERTEX
  5
D4C
  8
0
 10
200.6874641840267
 20
418.1620549397707
 30
-5.844340411081057
 70
   192
  0
VERTEX
  5
D4D
  8
0
 10
218.3845015714479
 20
438.2335246882541
 30
-5.002962807095848
 70
   192
  0
VERTEX
  5
D4E
  8
0
 10
217.8769282872244
 20
438.7058284364975
 30
-5.001158055473676
 70
   192
  0
VERTEX
  5
D4F
  8
0
 10
-106.8715323932099
 20
419.1409354219998
 30
-5.768548875188467
 70
   192
  0
VERTEX
  5
D50
  8
0
 10
-106.6623434164924
 20
398.8706241892049
 30
-8.074195500765269
 70
   192
  0
VERTEX
  5
D51
  8
0
 10
183.3265599924497
 20
398.44718051921
 30
-8.138989723087724
 70
   192
  0
VERTEX
  5
D52
  8
0
 10
-106.3154821148665
 20
378.8606093645504
 30
-11.89724393374595
 70
   192
  0
VERTEX
  5
D53
  8
0
 10
166.1214417739557
 20
378.8606093645475
 30
-11.89724393374405
 70
   192
  0
VERTEX
  5
D54
  8
0
 10
0.0
 20
0.0
 30
0.0
 70
   128
 71
     1
 72
     2
 73
     3
  0
VERTEX
  5
D55
  8
0
 10
0.0
 20
0.0
 30
0.0
 70
   128
 71
     4
 72
     5
 73
     6
  0
VERTEX
  5
D56
  8
0
 10
0.0
 20
0.0
 30
0.0
 70
   128
 71
     6
 72
     1
 73
     3
  0
VERTEX
  5
D57
  8
0
 10
0.0
 20
0.0
 30
0.0
 70
   128
 71
     6
 72
     3
 73
     7
  0
VERTEX
  5
D58
  8
0
 10
0.0
 20
0.0
 30
0.0
 70
   128
 71
     6
 72
     7
 73
     4
  0
VERTEX
  5
D59
  8
0
 10
0.0
 20
0.0
 30
0.0
 70
   128
 71
     4
 72
     7
 73
     8
  0
VERTEX
  5
D5A
  8
0
 10
0.0
 20
0.0
 30
0.0
 70
   128
 71
     4
 72
     8
 73
     9
  0
VERTEX
  5
D5B
  8
0
 10
0.0
 20
0.0
 30
0.0
 70
   128
 71
     9
 72
     8
 73
    10
  0
VERTEX
  5
D5C
  8
0
 10
0.0
 20
0.0
 30
0.0
 70
   128
 71
     9
 72
    10
 73
    11
  0
SEQEND
  5
1323
  8
0
  0
POLYLINE
  5
D5D
  8
0
 66
     1
 10
0.0
 20
0.0
 30
0.0
 70
    64
 71
    14
 72
    12
  0
VERTEX
  5
D5E
  8
0
 10
162.3929758399155
 20
374.9123011489817
 30
-12.91378578354842
 70
   192
  0
VERTEX
  5
D5F
  8
0
 10
164.3566823786009
 20
376.923504189517
 30
-12.36914257223135
 70
   192
  0
VERTEX
  5
D60
  8
0
 10
166.1214417739557
 20
378.8606093645476
 30
-11.89724393374403
 70
   192
  0
VERTEX
  5
D61
  8
0
 10
160.2303221578996
 20
372.8302085422575
 30
-13.53758343429424
 70
   192
  0
VERTEX
  5
D62
  8
0
 10
-106.3154821148666
 20
378.8606093645504
 30
-11.89724393374595
 70
   192
  0
VERTEX
  5
D63
  8
0
 10
-105.9087156209749
 20
366.0040668773969
 30
-16.03001042280554
 70
   192
  0
VERTEX
  5
D64
  8
0
 10
151.9661226793048
 20
364.5684298441508
 30
-16.64595530203161
 70
   192
  0
VERTEX
  5
D65
  8
0
 10
-105.2897460547743
 20
353.9432746571079
 30
-22.31876999213077
 70
   192
  0
VERTEX
  5
D66
  8
0
 10
144.2566843055535
 20
356.2167367367331
 30
-20.9277327604213
 70
   192
  0
VERTEX
  5
D67
  8
0
 10
137.1187752884073
 20
348.0840926289544
 30
-26.41786805637703
 70
   192
  0
VERTEX
  5
D68
  8
0
 10
135.6435190913471
 20
346.416219996188
 30
-27.73505068000781
 70
   192
  0
VERTEX
  5
D69
  8
0
 10
134.1093192407048
 20
344.786082662813
 30
-29.09421631750537
 70
   192
  0
VERTEX
  5
D6A
  8
0
 10
-104.4850780515258
 20
343.1946828107884
 30
-30.49423431523258
 70
   192
  0
VERTEX
  5
D6B
  8
0
 10
132.5161757364806
 20
343.1946828107859
 30
-30.49423431523093
 70
   192
  0
VERTEX
  5
D6C
  8
0
 10
0.0
 20
0.0
 30
0.0
 70
   128
 71
     1
 72
     2
 73
     3
  0
VERTEX
  5
D6D
  8
0
 10
0.0
 20
0.0
 30
0.0
 70
   128
 71
     4
 72
     1
 73
     3
  0
VERTEX
  5
D6E
  8
0
 10
0.0
 20
0.0
 30
0.0
 70
   128
 71
     4
 72
     3
 73
     5
  0
VERTEX
  5
D6F
  8
0
 10
0.0
 20
0.0
 30
0.0
 70
   128
 71
     4
 72
     5
 73
     6
  0
VERTEX
  5
D70
  8
0
 10
0.0
 20
0.0
 30
0.0
 70
   128
 71
     4
 72
     6
 73
     7
  0
VERTEX
  5
D71
  8
0
 10
0.0
 20
0.0
 30
0.0
 70
   128
 71
     7
 72
     6
 73
     8
  0
VERTEX
  5
D72
  8
0
 10
0.0
 20
0.0
 30
0.0
 70
   128
 71
     7
 72
     8
 73
     9
  0
VERTEX
  5
D73
  8
0
 10
0.0
 20
0.0
 30
0.0
 70
   128
 71
    10
 72
     9
 73
     8
  0
VERTEX
  5
D74
  8
0
 10
0.0
 20
0.0
 30
0.0
 70
   128
 71
     8
 72
    11
 73
    10
  0
VERTEX
  5
D75
  8
0
 10
0.0
 20
0.0
 30
0.0
 70
   128
 71
     8
 72
    12
 73
    11
  0
VERTEX
  5
D76
  8
0
 10
0.0
 20
0.0
 30
0.0
 70
   128
 71
     8
 72
    13
 73
    14
  0
VERTEX
  5
D77
  8
0
 10
0.0
 20
0.0
 30
0.0
 70
   128
 71
     8
 72
    14
 73
    12
  0
SEQEND
  5
1324
  8
0
  0
POLYLINE
  5
D78
  8
0
 66
     1
 10
0.0
 20
0.0
 30
0.0
 70
    64
 71
    14
 72
    12
  0
VERTEX
  5
D79
  8
0
 10
134.1093192407025
 20
-344.7860826628161
 30
-29.0942163175074
 70
   192
  0
VERTEX
  5
D7A
  8
0
 10
132.5161757364778
 20
-343.1946828107884
 30
-30.4942343152334
 70
   192
  0
VERTEX
  5
D7B
  8
0
 10
-104.4850780515257
 20
-343.1946828107859
 30
-30.49423431523512
 70
   192
  0
VERTEX
  5
D7C
  8
0
 10
-106.3154821148664
 20
-378.8606093645481
 30
-11.8972439337486
 70
   192
  0
VERTEX
  5
D7D
  8
0
 10
162.3929758399115
 20
-374.9123011489903
 30
-12.91378578354953
 70
   192
  0
VERTEX
  5
D7E
  8
0
 10
160.2303221578996
 20
-372.8302085422691
 30
-13.53758343429424
 70
   192
  0
VERTEX
  5
D7F
  8
0
 10
166.1214417739454
 20
-378.860609364551
 30
-11.8972439337467
 70
   192
  0
VERTEX
  5
D80
  8
0
 10
164.3566823785935
 20
-376.9235041895229
 30
-12.36914257223335
 70
   192
  0
VERTEX
  5
D81
  8
0
 10
135.6435190913457
 20
-346.4162199961922
 30
-27.73505068000899
 70
   192
  0
VERTEX
  5
D82
  8
0
 10
-105.2897460547742
 20
-353.9432746571056
 30
-22.31876999213332
 70
   192
  0
VERTEX
  5
D83
  8
0
 10
137.1187752884073
 20
-348.0840926289603
 30
-26.41786805637703
 70
   192
  0
VERTEX
  5
D84
  8
0
 10
144.2417344002761
 20
-356.2000930532153
 30
-20.93754120118006
 70
   192
  0
VERTEX
  5
D85
  8
0
 10
-105.9087156209748
 20
-366.0040668773945
 30
-16.03001042280812
 70
   192
  0
VERTEX
  5
D86
  8
0
 10
151.9562105782652
 20
-364.5580184032799
 30
-16.65054259531038
 70
   192
  0
VERTEX
  5
D87
  8
0
 10
0.0
 20
0.0
 30
0.0
 70
   128
 71
     1
 72
     2
 73
     3
  0
VERTEX
  5
D88
  8
0
 10
0.0
 20
0.0
 30
0.0
 70
   128
 71
     4
 72
     5
 73
     6
  0
VERTEX
  5
D89
  8
0
 10
0.0
 20
0.0
 30
0.0
 70
   128
 71
     4
 72
     7
 73
     5
  0
VERTEX
  5
D8A
  8
0
 10
0.0
 20
0.0
 30
0.0
 70
   128
 71
     7
 72
     8
 73
     5
  0
VERTEX
  5
D8B
  8
0
 10
0.0
 20
0.0
 30
0.0
 70
   128
 71
     9
 72
     1
 73
     3
  0
VERTEX
  5
D8C
  8
0
 10
0.0
 20
0.0
 30
0.0
 70
   128
 71
     9
 72
     3
 73
    10
  0
VERTEX
  5
D8D
  8
0
 10
0.0
 20
0.0
 30
0.0
 70
   128
 71
    10
 72
    11
 73
     9
  0
VERTEX
  5
D8E
  8
0
 10
0.0
 20
0.0
 30
0.0
 70
   128
 71
    10
 72
    12
 73
    11
  0
VERTEX
  5
D8F
  8
0
 10
0.0
 20
0.0
 30
0.0
 70
   128
 71
    12
 72
    10
 73
    13
  0
VERTEX
  5
D90
  8
0
 10
0.0
 20
0.0
 30
0.0
 70
   128
 71
    12
 72
    13
 73
    14
  0
VERTEX
  5
D91
  8
0
 10
0.0
 20
0.0
 30
0.0
 70
   128
 71
    14
 72
    13
 73
     4
  0
VERTEX
  5
D92
  8
0
 10
0.0
 20
0.0
 30
0.0
 70
   128
 71
    14
 72
     4
 73
     6
  0
SEQEND
  5
1325
  8
0
  0
POLYLINE
  5
D93
  8
0
 66
     1
 10
0.0
 20
0.0
 30
0.0
 70
    64
 71
    11
 72
     9
  0
VERTEX
  5
D94
  8
0
 10
217.3302481167926
 20
-439.1274449705941
 30
-5.000249826935796
 70
   192
  0
VERTEX
  5
D95
  8
0
 10
217.876928234491
 20
-438.7058284813331
 30
-5.001158055455488
 70
   192
  0
VERTEX
  5
D96
  8
0
 10
218.3845014985828
 20
-438.2335247632907
 30
-5.002962807118566
 70
   192
  0
VERTEX
  5
D97
  8
0
 10
-106.9412620521155
 20
-439.4983843100642
 30
-4.999999999999247
 70
   192
  0
VERTEX
  5
D98
  8
0
 10
216.7444627596844
 20
-439.4983843100676
 30
-4.999999999996987
 70
   192
  0
VERTEX
  5
D99
  8
0
 10
166.1214417739454
 20
-378.8606093645509
 30
-11.89724393374672
 70
   192
  0
VERTEX
  5
D9A
  8
0
 10
-106.3154821148664
 20
-378.8606093645481
 30
-11.8972439337486
 70
   192
  0
VERTEX
  5
D9B
  8
0
 10
-106.6623434164921
 20
-398.8706241892025
 30
-8.074195500768097
 70
   192
  0
VERTEX
  5
D9C
  8
0
 10
183.3265416799812
 20
-398.4471597527013
 30
-8.138992846956114
 70
   192
  0
VERTEX
  5
D9D
  8
0
 10
-106.8715323932097
 20
-419.1409354219975
 30
-5.76854887519144
 70
   192
  0
VERTEX
  5
D9E
  8
0
 10
200.6874253081533
 20
-418.1620108185743
 30
-5.844343927377588
 70
   192
  0
VERTEX
  5
D9F
  8
0
 10
0.0
 20
0.0
 30
0.0
 70
   128
 71
     1
 72
     2
 73
     3
  0
VERTEX
  5
DA0
  8
0
 10
0.0
 20
0.0
 30
0.0
 70
   128
 71
     3
 72
     4
 73
     5
  0
VERTEX
  5
DA1
  8
0
 10
0.0
 20
0.0
 30
0.0
 70
   128
 71
     3
 72
     5
 73
     1
  0
VERTEX
  5
DA2
  8
0
 10
0.0
 20
0.0
 30
0.0
 70
   128
 71
     6
 72
     7
 73
     8
  0
VERTEX
  5
DA3
  8
0
 10
0.0
 20
0.0
 30
0.0
 70
   128
 71
     6
 72
     8
 73
     9
  0
VERTEX
  5
DA4
  8
0
 10
0.0
 20
0.0
 30
0.0
 70
   128
 71
     9
 72
     8
 73
    10
  0
VERTEX
  5
DA5
  8
0
 10
0.0
 20
0.0
 30
0.0
 70
   128
 71
     9
 72
    10
 73
    11
  0
VERTEX
  5
DA6
  8
0
 10
0.0
 20
0.0
 30
0.0
 70
   128
 71
    11
 72
    10
 73
     4
  0
VERTEX
  5
DA7
  8
0
 10
0.0
 20
0.0
 30
0.0
 70
   128
 71
    11
 72
     4
 73
     3
  0
SEQEND
  5
1326
  8
0
  0
POLYLINE
  5
DA8
  8
0
 66
     1
 10
0.0
 20
0.0
 30
0.0
 70
    64
 71
    11
 72
     9
  0
VERTEX
  5
DA9
  8
0
 10
110.0654041072846
 20
-321.2481147345804
 30
-49.05807314625841
 70
   192
  0
VERTEX
  5
DAA
  8
0
 10
-102.4140805003541
 20
-313.9411711559721
 30
-54.71634720980335
 70
   192
  0
VERTEX
  5
DAB
  8
0
 10
132.5161757364778
 20
-343.1946828107884
 30
-30.49423431523347
 70
   192
  0
VERTEX
  5
DAC
  8
0
 10
-104.4850780515257
 20
-343.1946828107859
 30
-30.49423431523512
 70
   192
  0
VERTEX
  5
DAD
  8
0
 10
87.10695405352072
 20
-298.366504751796
 30
-65.99030041366663
 70
   192
  0
VERTEX
  5
DAE
  8
0
 10
-100.5632578110761
 20
-282.6476647893904
 30
-76.3633240988686
 70
   192
  0
VERTEX
  5
DAF
  8
0
 10
63.54754768101547
 20
-274.3553646788546
 30
-81.45706382562261
 70
   192
  0
VERTEX
  5
DB0
  8
0
 10
55.38031806094648
 20
-266.0371421506043
 30
-86.31791205695124
 70
   192
  0
VERTEX
  5
DB1
  8
0
 10
47.04183251860015
 20
-257.782435019218
 30
-90.90455525179466
 70
   192
  0
VERTEX
  5
DB2
  8
0
 10
38.57705128038179
 20
-249.6640707519176
 30
-95.19312020999644
 70
   192
  0
VERTEX
  5
DB3
  8
0
 10
-98.9533048806712
 20
-249.6640707519161
 30
-95.1931202099974
 70
   192
  0
VERTEX
  5
DB4
  8
0
 10
0.0
 20
0.0
 30
0.0
 70
   128
 71
     1
 72
     2
 73
     3
  0
VERTEX
  5
DB5
  8
0
 10
0.0
 20
0.0
 30
0.0
 70
   128
 71
     2
 72
     4
 73
     3
  0
VERTEX
  5
DB6
  8
0
 10
0.0
 20
0.0
 30
0.0
 70
   128
 71
     2
 72
     1
 73
     5
  0
VERTEX
  5
DB7
  8
0
 10
0.0
 20
0.0
 30
0.0
 70
   128
 71
     6
 72
     7
 73
     8
  0
VERTEX
  5
DB8
  8
0
 10
0.0
 20
0.0
 30
0.0
 70
   128
 71
     8
 72
     9
 73
     6
  0
VERTEX
  5
DB9
  8
0
 10
0.0
 20
0.0
 30
0.0
 70
   128
 71
     2
 72
     5
 73
     7
  0
VERTEX
  5
DBA
  8
0
 10
0.0
 20
0.0
 30
0.0
 70
   128
 71
     6
 72
     2
 73
     7
  0
VERTEX
  5
DBB
  8
0
 10
0.0
 20
0.0
 30
0.0
 70
   128
 71
    10
 72
    11
 73
     6
  0
VERTEX
  5
DBC
  8
0
 10
0.0
 20
0.0
 30
0.0
 70
   128
 71
     9
 72
    10
 73
     6
  0
SEQEND
  5
1327
  8
0
  0
POLYLINE
  5
DBD
  8
0
 66
     1
 10
0.0
 20
0.0
 30
0.0
 70
    64
 71
    11
 72
     9
  0
VERTEX
  5
DBE
  8
0
 10
-98.9533048806712
 20
-249.6640707519161
 30
-95.1931202099974
 70
   192
  0
VERTEX
  5
DBF
  8
0
 10
38.57705128038179
 20
-249.6640707519176
 30
-95.19312020999644
 70
   192
  0
VERTEX
  5
DC0
  8
0
 10
28.95587237882729
 20
-240.3837104450304
 30
-99.64143720043828
 70
   192
  0
VERTEX
  5
DC1
  8
0
 10
19.62180872749093
 20
-230.8839091727806
 30
-103.5446847576748
 70
   192
  0
VERTEX
  5
DC2
  8
0
 10
10.623501261834
 20
-221.0480450889303
 30
-106.9401861158295
 70
   192
  0
VERTEX
  5
DC3
  8
0
 10
-98.15196626621848
 20
-227.1997766253644
 30
-104.8912473251449
 70
   192
  0
VERTEX
  5
DC4
  8
0
 10
-1.338469762789602
 20
-207.4257850760422
 30
-110.6266195826665
 70
   192
  0
VERTEX
  5
DC5
  8
0
 10
-13.99904329244943
 20
-193.1200618211798
 30
-113.2984753997004
 70
   192
  0
VERTEX
  5
DC6
  8
0
 10
-97.60786401052468
 20
-203.5158942306622
 30
-111.4761949916948
 70
   192
  0
VERTEX
  5
DC7
  8
0
 10
-26.50136037689224
 20
-179.2696487841555
 30
-114.7652316125779
 70
   192
  0
VERTEX
  5
DC8
  8
0
 10
-97.3360968932896
 20
-179.2696487841548
 30
-114.7652316125784
 70
   192
  0
VERTEX
  5
DC9
  8
0
 10
0.0
 20
0.0
 30
0.0
 70
   128
 71
     1
 72
     2
 73
     3
  0
VERTEX
  5
DCA
  8
0
 10
0.0
 20
0.0
 30
0.0
 70
   128
 71
     1
 72
     3
 73
     4
  0
VERTEX
  5
DCB
  8
0
 10
0.0
 20
0.0
 30
0.0
 70
   128
 71
     5
 72
     6
 73
     1
  0
VERTEX
  5
DCC
  8
0
 10
0.0
 20
0.0
 30
0.0
 70
   128
 71
     4
 72
     5
 73
     1
  0
VERTEX
  5
DCD
  8
0
 10
0.0
 20
0.0
 30
0.0
 70
   128
 71
     6
 72
     5
 73
     7
  0
VERTEX
  5
DCE
  8
0
 10
0.0
 20
0.0
 30
0.0
 70
   128
 71
     6
 72
     7
 73
     8
  0
VERTEX
  5
DCF
  8
0
 10
0.0
 20
0.0
 30
0.0
 70
   128
 71
     9
 72
     6
 73
     8
  0
VERTEX
  5
DD0
  8
0
 10
0.0
 20
0.0
 30
0.0
 70
   128
 71
    10
 72
    11
 73
     9
  0
VERTEX
  5
DD1
  8
0
 10
0.0
 20
0.0
 30
0.0
 70
   128
 71
     8
 72
    10
 73
     9
  0
SEQEND
  5
1328
  8
0
  0
POLYLINE
  5
DD2
  8
0
 66
     1
 10
0.0
 20
0.0
 30
0.0
 70
    64
 71
     8
 72
     6
  0
VERTEX
  5
DD3
  8
0
 10
137.1187752884073
 20
348.0840926289544
 30
-26.41786805637703
 70
   192
  0
VERTEX
  5
DD4
  8
0
 10
137.1187752884073
 20
-348.0840926289603
 30
-26.41786805637704
 70
   192
  0
VERTEX
  5
DD5
  8
0
 10
144.2417344002761
 20
-356.2000930532153
 30
-20.93754120118006
 70
   192
  0
VERTEX
  5
DD6
  8
0
 10
144.2566843055535
 20
356.2167367367331
 30
-20.9277327604213
 70
   192
  0
VERTEX
  5
DD7
  8
0
 10
151.9562105782652
 20
-364.5580184032799
 30
-16.65054259531038
 70
   192
  0
VERTEX
  5
DD8
  8
0
 10
151.9661226793048
 20
364.5684298441508
 30
-16.64595530203161
 70
   192
  0
VERTEX
  5
DD9
  8
0
 10
160.2303221578996
 20
372.8302085422576
 30
-13.53758343429429
 70
   192
  0
VERTEX
  5
DDA
  8
0
 10
160.2303221578996
 20
-372.8302085422691
 30
-13.53758343429424
 70
   192
  0
VERTEX
  5
DDB
  8
0
 10
0.0
 20
0.0
 30
0.0
 70
   128
 71
     1
 72
     2
 73
     3
  0
VERTEX
  5
DDC
  8
0
 10
0.0
 20
0.0
 30
0.0
 70
   128
 71
     1
 72
     3
 73
     4
  0
VERTEX
  5
DDD
  8
0
 10
0.0
 20
0.0
 30
0.0
 70
   128
 71
     4
 72
     3
 73
     5
  0
VERTEX
  5
DDE
  8
0
 10
0.0
 20
0.0
 30
0.0
 70
   128
 71
     4
 72
     5
 73
     6
  0
VERTEX
  5
DDF
  8
0
 10
0.0
 20
0.0
 30
0.0
 70
   128
 71
     7
 72
     6
 73
     5
  0
VERTEX
  5
DE0
  8
0
 10
0.0
 20
0.0
 30
0.0
 70
   128
 71
     5
 72
     8
 73
     7
  0
SEQEND
  5
1329
  8
0
  0
POLYLINE
  5
DE1
  8
0
 66
     1
 10
0.0
 20
0.0
 30
0.0
 70
    64
 71
    20
 72
    18
  0
VERTEX
  5
DE2
  8
0
 10
162.3929758399115
 20
-374.9123011489903
 30
-12.91378578354953
 70
   192
  0
VERTEX
  5
DE3
  8
0
 10
164.3566823785935
 20
-376.9235041895229
 30
-12.36914257223335
 70
   192
  0
VERTEX
  5
DE4
  8
0
 10
162.3929758399155
 20
374.9123011489817
 30
-12.91378578354842
 70
   192
  0
VERTEX
  5
DE5
  8
0
 10
160.2303221578996
 20
372.8302085422575
 30
-13.53758343429424
 70
   192
  0
VERTEX
  5
DE6
  8
0
 10
160.2303221578996
 20
-372.8302085422691
 30
-13.53758343429429
 70
   192
  0
VERTEX
  5
DE7
  8
0
 10
164.3566823786009
 20
376.923504189517
 30
-12.36914257223135
 70
   192
  0
VERTEX
  5
DE8
  8
0
 10
166.1214417739557
 20
378.8606093645476
 30
-11.89724393374403
 70
   192
  0
VERTEX
  5
DE9
  8
0
 10
219.1698292996043
 20
437.270135568766
 30
-5.000255368622319
 70
   192
  0
VERTEX
  5
DEA
  8
0
 10
218.7980679928045
 20
437.7674930127172
 30
-5.001169138821476
 70
   192
  0
VERTEX
  5
DEB
  8
0
 10
218.3845015714479
 20
438.2335246882541
 30
-5.002962807095848
 70
   192
  0
VERTEX
  5
DEC
  8
0
 10
219.1698292797092
 20
-437.2701355978816
 30
-5.000255368639143
 70
   192
  0
VERTEX
  5
DED
  8
0
 10
219.4999999999973
 20
-436.7416573867731
 30
-5.0
 70
   192
  0
VERTEX
  5
DEE
  8
0
 10
219.4999999999973
 20
436.7416573867843
 30
-4.999999999999998
 70
   192
  0
VERTEX
  5
DEF
  8
0
 10
183.3265599924497
 20
398.44718051921
 30
-8.138989723087724
 70
   192
  0
VERTEX
  5
DF0
  8
0
 10
166.1214417739454
 20
-378.8606093645509
 30
-11.89724393374672
 70
   192
  0
VERTEX
  5
DF1
  8
0
 10
183.3265416799812
 20
-398.4471597527013
 30
-8.138992846956114
 70
   192
  0
VERTEX
  5
DF2
  8
0
 10
200.6874253081533
 20
-418.1620108185743
 30
-5.844343927377588
 70
   192
  0
VERTEX
  5
DF3
  8
0
 10
200.6874641840267
 20
418.1620549397707
 30
-5.844340411081057
 70
   192
  0
VERTEX
  5
DF4
  8
0
 10
218.7980679486019
 20
-437.7674930669279
 30
-5.001169138860175
 70
   192
  0
VERTEX
  5
DF5
  8
0
 10
218.3845014985828
 20
-438.2335247632907
 30
-5.002962807118566
 70
   192
  0
VERTEX
  5
DF6
  8
0
 10
0.0
 20
0.0
 30
0.0
 70
   128
 71
     1
 72
    -2
 73
     3
  0
VERTEX
  5
DF7
  8
0
 10
0.0
 20
0.0
 30
0.0
 70
   128
 71
     3
 72
     4
 73
    -5
  0
VERTEX
  5
DF8
  8
0
 10
0.0
 20
0.0
 30
0.0
 70
   128
 71
    -3
 72
     5
 73
     1
  0
VERTEX
  5
DF9
  8
0
 10
0.0
 20
0.0
 30
0.0
 70
   128
 71
     2
 72
     6
 73
    -3
  0
VERTEX
  5
DFA
  8
0
 10
0.0
 20
0.0
 30
0.0
 70
   128
 71
     2
 72
     7
 73
     6
  0
VERTEX
  5
DFB
  8
0
 10
0.0
 20
0.0
 30
0.0
 70
   128
 71
     8
 72
     9
 73
    10
  0
VERTEX
  5
DFC
  8
0
 10
0.0
 20
0.0
 30
0.0
 70
   128
 71
    10
 72
    11
 73
    12
  0
VERTEX
  5
DFD
  8
0
 10
0.0
 20
0.0
 30
0.0
 70
   128
 71
    10
 72
    12
 73
    13
  0
VERTEX
  5
DFE
  8
0
 10
0.0
 20
0.0
 30
0.0
 70
   128
 71
    10
 72
    13
 73
     8
  0
VERTEX
  5
DFF
  8
0
 10
0.0
 20
0.0
 30
0.0
 70
   128
 71
    14
 72
     7
 73
     2
  0
VERTEX
  5
E00
  8
0
 10
0.0
 20
0.0
 30
0.0
 70
   128
 71
    14
 72
     2
 73
    15
  0
VERTEX
  5
E01
  8
0
 10
0.0
 20
0.0
 30
0.0
 70
   128
 71
    15
 72
    16
 73
    14
  0
VERTEX
  5
E02
  8
0
 10
0.0
 20
0.0
 30
0.0
 70
   128
 71
    14
 72
    16
 73
    17
  0
VERTEX
  5
E03
  8
0
 10
0.0
 20
0.0
 30
0.0
 70
   128
 71
    14
 72
    17
 73
    18
  0
VERTEX
  5
E04
  8
0
 10
0.0
 20
0.0
 30
0.0
 70
   128
 71
    19
 72
    11
 73
    10
  0
VERTEX
  5
E05
  8
0
 10
0.0
 20
0.0
 30
0.0
 70
   128
 71
    19
 72
    10
 73
    18
  0
VERTEX
  5
E06
  8
0
 10
0.0
 20
0.0
 30
0.0
 70
   128
 71
    19
 72
    18
 73
    17
  0
VERTEX
  5
E07
  8
0
 10
0.0
 20
0.0
 30
0.0
 70
   128
 71
    17
 72
    20
 73
    19
  0
SEQEND
  5
132A
  8
0
  0
POLYLINE
  5
E08
  8
0
 66
     1
 10
0.0
 20
0.0
 30
0.0
 70
    64
 71
    14
 72
    12
  0
VERTEX
  5
E09
  8
0
 10
132.5161757364778
 20
-343.1946828107884
 30
-30.4942343152334
 70
   192
  0
VERTEX
  5
E0A
  8
0
 10
137.1187752884073
 20
348.0840926289544
 30
-26.41786805637704
 70
   192
  0
VERTEX
  5
E0B
  8
0
 10
135.6435190913471
 20
346.416219996188
 30
-27.73505068000781
 70
   192
  0
VERTEX
  5
E0C
  8
0
 10
134.1093192407048
 20
344.786082662813
 30
-29.09421631750537
 70
   192
  0
VERTEX
  5
E0D
  8
0
 10
132.5161757364806
 20
343.1946828107859
 30
-30.49423431523092
 70
   192
  0
VERTEX
  5
E0E
  8
0
 10
134.1093192407025
 20
-344.7860826628161
 30
-29.0942163175074
 70
   192
  0
VERTEX
  5
E0F
  8
0
 10
135.6435190913457
 20
-346.4162199961922
 30
-27.73505068000899
 70
   192
  0
VERTEX
  5
E10
  8
0
 10
137.1187752884073
 20
-348.0840926289603
 30
-26.41786805637703
 70
   192
  0
VERTEX
  5
E11
  8
0
 10
110.0654041072846
 20
-321.2481147345804
 30
-49.05807314625841
 70
   192
  0
VERTEX
  5
E12
  8
0
 10
110.0654041072714
 20
321.2481157328887
 30
-49.05807056430378
 70
   192
  0
VERTEX
  5
E13
  8
0
 10
87.10695405352072
 20
-298.366504751796
 30
-65.99030041366663
 70
   192
  0
VERTEX
  5
E14
  8
0
 10
87.10695405349304
 20
298.3665035351327
 30
-65.99030523322438
 70
   192
  0
VERTEX
  5
E15
  8
0
 10
63.54754768101544
 20
-274.3553646788546
 30
-81.45706382562268
 70
   192
  0
VERTEX
  5
E16
  8
0
 10
63.54754768101549
 20
274.3553646788505
 30
-81.45706382562268
 70
   192
  0
VERTEX
  5
E17
  8
0
 10
0.0
 20
0.0
 30
0.0
 70
   128
 71
     1
 72
     2
 73
     3
  0
VERTEX
  5
E18
  8
0
 10
0.0
 20
0.0
 30
0.0
 70
   128
 71
     3
 72
     4
 73
     1
  0
VERTEX
  5
E19
  8
0
 10
0.0
 20
0.0
 30
0.0
 70
   128
 71
     4
 72
     5
 73
     1
  0
VERTEX
  5
E1A
  8
0
 10
0.0
 20
0.0
 30
0.0
 70
   128
 71
     1
 72
     6
 73
     2
  0
VERTEX
  5
E1B
  8
0
 10
0.0
 20
0.0
 30
0.0
 70
   128
 71
     6
 72
     7
 73
     2
  0
VERTEX
  5
E1C
  8
0
 10
0.0
 20
0.0
 30
0.0
 70
   128
 71
     7
 72
     8
 73
     2
  0
VERTEX
  5
E1D
  8
0
 10
0.0
 20
0.0
 30
0.0
 70
   128
 71
     9
 72
     1
 73
     5
  0
VERTEX
  5
E1E
  8
0
 10
0.0
 20
0.0
 30
0.0
 70
   128
 71
    10
 72
     9
 73
     5
  0
VERTEX
  5
E1F
  8
0
 10
0.0
 20
0.0
 30
0.0
 70
   128
 71
    11
 72
     9
 73
    10
  0
VERTEX
  5
E20
  8
0
 10
0.0
 20
0.0
 30
0.0
 70
   128
 71
    12
 72
    11
 73
    10
  0
VERTEX
  5
E21
  8
0
 10
0.0
 20
0.0
 30
0.0
 70
   128
 71
    13
 72
    11
 73
    12
  0
VERTEX
  5
E22
  8
0
 10
0.0
 20
0.0
 30
0.0
 70
   128
 71
    14
 72
    13
 73
    12
  0
SEQEND
  5
132B
  8
0
  0
POLYLINE
  5
E23
  8
0
 66
     1
 10
0.0
 20
0.0
 30
0.0
 70
    64
 71
    13
 72
    11
  0
VERTEX
  5
E24
  8
0
 10
-97.33609689328961
 20
179.2696487841391
 30
-114.7652316125784
 70
   192
  0
VERTEX
  5
E25
  8
0
 10
-26.50136037689228
 20
179.2696487841396
 30
-114.7652316125778
 70
   192
  0
VERTEX
  5
E26
  8
0
 10
-26.50136037689228
 20
28.53479607603253
 30
-114.7652316125777
 70
   192
  0
VERTEX
  5
E27
  8
0
 10
-44.66534783761853
 20
28.16101052381169
 30
-114.7652316125777
 70
   192
  0
VERTEX
  5
E28
  8
0
 10
-59.23048413059524
 20
17.30159245102888
 30
-114.7652316125777
 70
   192
  0
VERTEX
  5
E29
  8
0
 10
-64.77350269190006
 20
-0.0000000000000033
 30
-114.7652316125777
 70
   192
  0
VERTEX
  5
E2A
  8
0
 10
-59.23048413059524
 20
-17.30159245102889
 30
-114.7652316125777
 70
   192
  0
VERTEX
  5
E2B
  8
0
 10
-44.66534783761852
 20
-28.16101052381169
 30
-114.7652316125777
 70
   192
  0
VERTEX
  5
E2C
  8
0
 10
-26.50136037689228
 20
-28.53479607603251
 30
-114.7652316125778
 70
   192
  0
VERTEX
  5
E2D
  8
0
 10
-26.50136037689224
 20
-179.2696487841555
 30
-114.7652316125779
 70
   192
  0
VERTEX
  5
E2E
  8
0
 10
-97.3360968932896
 20
-179.2696487841548
 30
-114.7652316125784
 70
   192
  0
VERTEX
  5
E2F
  8
0
 10
-97.33804863671803
 20
-179.2696487841548
 30
-114.7652316125777
 70
   192
  0
VERTEX
  5
E30
  8
0
 10
-97.33804863671803
 20
179.2696487841391
 30
-114.7652316125784
 70
   192
  0
VERTEX
  5
E31
  8
0
 10
0.0
 20
0.0
 30
0.0
 70
   128
 71
     1
 72
    13
 73
   -12
  0
VERTEX
  5
E32
  8
0
 10
0.0
 20
0.0
 30
0.0
 70
   128
 71
    -1
 72
    12
 73
   -11
  0
VERTEX
  5
E33
  8
0
 10
0.0
 20
0.0
 30
0.0
 70
   128
 71
     4
 72
     3
 73
    -2
  0
VERTEX
  5
E34
  8
0
 10
0.0
 20
0.0
 30
0.0
 70
   128
 71
     2
 72
    -1
 73
    -5
  0
VERTEX
  5
E35
  8
0
 10
0.0
 20
0.0
 30
0.0
 70
   128
 71
    -2
 72
     5
 73
    -4
  0
VERTEX
  5
E36
  8
0
 10
0.0
 20
0.0
 30
0.0
 70
   128
 71
    -1
 72
     6
 73
    -5
  0
VERTEX
  5
E37
  8
0
 10
0.0
 20
0.0
 30
0.0
 70
   128
 71
    -6
 72
    -1
 73
   -11
  0
VERTEX
  5
E38
  8
0
 10
0.0
 20
0.0
 30
0.0
 70
   128
 71
   -11
 72
     7
 73
    -6
  0
VERTEX
  5
E39
  8
0
 10
0.0
 20
0.0
 30
0.0
 70
   128
 71
    11
 72
   -10
 73
    -8
  0
VERTEX
  5
E3A
  8
0
 10
0.0
 20
0.0
 30
0.0
 70
   128
 71
   -11
 72
     8
 73
    -7
  0
VERTEX
  5
E3B
  8
0
 10
0.0
 20
0.0
 30
0.0
 70
   128
 71
    10
 72
     9
 73
    -8
  0
SEQEND
  5
132C
  8
0
  0
POLYLINE
  5
E3C
  8
0
 66
     1
 10
0.0
 20
0.0
 30
0.0
 70
    64
 71
    15
 72
    13
  0
VERTEX
  5
E3D
  8
0
 10
10.62350126183402
 20
221.0480450889259
 30
-106.9401861158295
 70
   192
  0
VERTEX
  5
E3E
  8
0
 10
-1.338469762771607
 20
207.4254668761442
 30
-110.6267500767854
 70
   192
  0
VERTEX
  5
E3F
  8
0
 10
-3.093292638582199
 20
0.0
 30
-111.0704127420127
 70
   192
  0
VERTEX
  5
E40
  8
0
 10
10.623501261834
 20
-221.0480450889303
 30
-106.9401861158295
 70
   192
  0
VERTEX
  5
E41
  8
0
 10
-1.338469762789602
 20
-207.4257850760422
 30
-110.6266195826665
 70
   192
  0
VERTEX
  5
E42
  8
0
 10
-14.6590781510608
 20
-22.80583389335964
 30
-113.4045267483996
 70
   192
  0
VERTEX
  5
E43
  8
0
 10
-13.99904329244943
 20
-193.1200618211798
 30
-113.2984753997004
 70
   192
  0
VERTEX
  5
E44
  8
0
 10
-6.224278197312372
 20
-12.77489328611847
 30
-111.8028873441435
 70
   192
  0
VERTEX
  5
E45
  8
0
 10
-13.99904329242302
 20
193.1200643296141
 30
-113.2984766717632
 70
   192
  0
VERTEX
  5
E46
  8
0
 10
-6.234192916550469
 20
12.793756231415
 30
-111.8050670809221
 70
   192
  0
VERTEX
  5
E47
  8
0
 10
-26.50136037689228
 20
179.2696487841396
 30
-114.7652316125778
 70
   192
  0
VERTEX
  5
E48
  8
0
 10
-14.66333261183431
 20
22.80926854670277
 30
-113.4052075207332
 70
   192
  0
VERTEX
  5
E49
  8
0
 10
-26.50136037689228
 20
28.53479607603251
 30
-114.7652316125778
 70
   192
  0
VERTEX
  5
E4A
  8
0
 10
-26.50136037689228
 20
-28.53479607603251
 30
-114.7652316125778
 70
   192
  0
VERTEX
  5
E4B
  8
0
 10
-26.50136037689228
 20
-179.2696487841574
 30
-114.7652316125778
 70
   192
  0
VERTEX
  5
E4C
  8
0
 10
0.0
 20
0.0
 30
0.0
 70
   128
 71
     1
 72
     2
 73
     3
  0
VERTEX
  5
E4D
  8
0
 10
0.0
 20
0.0
 30
0.0
 70
   128
 71
     4
 72
     1
 73
     3
  0
VERTEX
  5
E4E
  8
0
 10
0.0
 20
0.0
 30
0.0
 70
   128
 71
     3
 72
     5
 73
     4
  0
VERTEX
  5
E4F
  8
0
 10
0.0
 20
0.0
 30
0.0
 70
   128
 71
     6
 72
     7
 73
     8
  0
VERTEX
  5
E50
  8
0
 10
0.0
 20
0.0
 30
0.0
 70
   128
 71
     5
 72
     3
 73
     8
  0
VERTEX
  5
E51
  8
0
 10
0.0
 20
0.0
 30
0.0
 70
   128
 71
     7
 72
     5
 73
     8
  0
VERTEX
  5
E52
  8
0
 10
0.0
 20
0.0
 30
0.0
 70
   128
 71
     3
 72
     2
 73
     9
  0
VERTEX
  5
E53
  8
0
 10
0.0
 20
0.0
 30
0.0
 70
   128
 71
    10
 72
     3
 73
     9
  0
VERTEX
  5
E54
  8
0
 10
0.0
 20
0.0
 30
0.0
 70
   128
 71
    10
 72
     9
 73
    11
  0
VERTEX
  5
E55
  8
0
 10
0.0
 20
0.0
 30
0.0
 70
   128
 71
    12
 72
    10
 73
    11
  0
VERTEX
  5
E56
  8
0
 10
0.0
 20
0.0
 30
0.0
 70
   128
 71
    11
 72
    13
 73
    12
  0
VERTEX
  5
E57
  8
0
 10
0.0
 20
0.0
 30
0.0
 70
   128
 71
    14
 72
    15
 73
     6
  0
VERTEX
  5
E58
  8
0
 10
0.0
 20
0.0
 30
0.0
 70
   128
 71
    15
 72
     7
 73
     6
  0
SEQEND
  5
132D
  8
0
  0
POLYLINE
  5
E59
  8
0
 66
     1
 10
0.0
 20
0.0
 30
0.0
 70
    64
 71
    14
 72
    12
  0
VERTEX
  5
E5A
  8
0
 10
55.38031806094648
 20
-266.0371421506043
 30
-86.31791205695124
 70
   192
  0
VERTEX
  5
E5B
  8
0
 10
63.54754768101544
 20
274.3553646788505
 30
-81.45706382562268
 70
   192
  0
VERTEX
  5
E5C
  8
0
 10
55.38031806094132
 20
266.0371543096716
 30
-86.31791329396789
 70
   192
  0
VERTEX
  5
E5D
  8
0
 10
63.54754768101547
 20
-274.3553646788546
 30
-81.45706382562261
 70
   192
  0
VERTEX
  5
E5E
  8
0
 10
47.04183251859872
 20
257.7824184861426
 30
-90.90455003988927
 70
   192
  0
VERTEX
  5
E5F
  8
0
 10
38.5770512803854
 20
249.6640707519174
 30
-95.19312020999466
 70
   192
  0
VERTEX
  5
E60
  8
0
 10
38.5770512803818
 20
-249.6640707519176
 30
-95.19312020999642
 70
   192
  0
VERTEX
  5
E61
  8
0
 10
10.62350126183401
 20
221.0480450889259
 30
-106.9401861158295
 70
   192
  0
VERTEX
  5
E62
  8
0
 10
10.62350126183402
 20
-221.0480450889303
 30
-106.9401861158295
 70
   192
  0
VERTEX
  5
E63
  8
0
 10
19.62180872749093
 20
-230.8839091727806
 30
-103.5446847576748
 70
   192
  0
VERTEX
  5
E64
  8
0
 10
19.62180872748402
 20
230.8839108864797
 30
-103.544685919755
 70
   192
  0
VERTEX
  5
E65
  8
0
 10
47.04183251860015
 20
-257.782435019218
 30
-90.90455525179466
 70
   192
  0
VERTEX
  5
E66
  8
0
 10
28.95587237882729
 20
-240.3837104450304
 30
-99.64143720043828
 70
   192
  0
VERTEX
  5
E67
  8
0
 10
28.95587237881821
 20
240.3837080611009
 30
-99.64143568970377
 70
   192
  0
VERTEX
  5
E68
  8
0
 10
0.0
 20
0.0
 30
0.0
 70
   128
 71
     1
 72
     2
 73
     3
  0
VERTEX
  5
E69
  8
0
 10
0.0
 20
0.0
 30
0.0
 70
   128
 71
     1
 72
     4
 73
     2
  0
VERTEX
  5
E6A
  8
0
 10
0.0
 20
0.0
 30
0.0
 70
   128
 71
     5
 72
     6
 73
     7
  0
VERTEX
  5
E6B
  8
0
 10
0.0
 20
0.0
 30
0.0
 70
   128
 71
     8
 72
     9
 73
    10
  0
VERTEX
  5
E6C
  8
0
 10
0.0
 20
0.0
 30
0.0
 70
   128
 71
    11
 72
     8
 73
    10
  0
VERTEX
  5
E6D
  8
0
 10
0.0
 20
0.0
 30
0.0
 70
   128
 71
     5
 72
     7
 73
    12
  0
VERTEX
  5
E6E
  8
0
 10
0.0
 20
0.0
 30
0.0
 70
   128
 71
     3
 72
     5
 73
    12
  0
VERTEX
  5
E6F
  8
0
 10
0.0
 20
0.0
 30
0.0
 70
   128
 71
    12
 72
     1
 73
     3
  0
VERTEX
  5
E70
  8
0
 10
0.0
 20
0.0
 30
0.0
 70
   128
 71
    13
 72
     7
 73
     6
  0
VERTEX
  5
E71
  8
0
 10
0.0
 20
0.0
 30
0.0
 70
   128
 71
    14
 72
    13
 73
     6
  0
VERTEX
  5
E72
  8
0
 10
0.0
 20
0.0
 30
0.0
 70
   128
 71
    10
 72
    13
 73
    14
  0
VERTEX
  5
E73
  8
0
 10
0.0
 20
0.0
 30
0.0
 70
   128
 71
    11
 72
    10
 73
    14
  0
SEQEND
  5
132E
  8
0
  0
POLYLINE
  5
E74
  8
0
 66
     1
 10
0.0
 20
0.0
 30
0.0
 70
    64
 71
    20
 72
    18
  0
VERTEX
  5
E75
  8
0
 10
-108.9152518615888
 20
245.0856821448087
 30
-87.1743256893048
 70
   192
  0
VERTEX
  5
E76
  8
0
 10
-108.1171004933604
 20
223.972442642932
 30
-96.29723757367628
 70
   192
  0
VERTEX
  5
E77
  8
0
 10
-107.5737027118534
 20
201.716859645155
 30
-102.5083026375065
 70
   192
  0
VERTEX
  5
E78
  8
0
 10
-107.2999956176355
 20
178.9307020852966
 30
-105.6367890400543
 70
   192
  0
VERTEX
  5
E79
  8
0
 10
-107.2999956176355
 20
-178.9307020853117
 30
-105.6367890400543
 70
   192
  0
VERTEX
  5
E7A
  8
0
 10
-107.5737027118535
 20
-201.716859645164
 30
-102.5083026375055
 70
   192
  0
VERTEX
  5
E7B
  8
0
 10
-108.1171004933605
 20
-223.9724426429348
 30
-96.29723757367593
 70
   192
  0
VERTEX
  5
E7C
  8
0
 10
-108.9152518615887
 20
-245.085682144806
 30
-87.17432568930656
 70
   192
  0
VERTEX
  5
E7D
  8
0
 10
-110.5252047919935
 20
-277.319649045065
 30
-68.77247948979425
 70
   192
  0
VERTEX
  5
E7E
  8
0
 10
-112.3760274812716
 20
-307.9019393578604
 30
-47.61747934820791
 70
   192
  0
VERTEX
  5
E7F
  8
0
 10
-114.4470250324431
 20
-336.4905984750651
 30
-23.94586901942523
 70
   192
  0
VERTEX
  5
E80
  8
0
 10
-115.1332323278593
 20
-346.5137989959393
 30
-16.10248374228098
 70
   192
  0
VERTEX
  5
E81
  8
0
 10
-115.6913361047948
 20
-357.601076985824
 30
-9.723328381539806
 70
   192
  0
VERTEX
  5
E82
  8
0
 10
-116.1045737922898
 20
-369.4194275597205
 30
-5.0
 70
   192
  0
VERTEX
  5
E83
  8
0
 10
-116.1045737922898
 20
369.4194275597147
 30
-5.0
 70
   192
  0
VERTEX
  5
E84
  8
0
 10
-115.6913361047948
 20
357.6010769858212
 30
-9.723328381539751
 70
   192
  0
VERTEX
  5
E85
  8
0
 10
-115.1332323278594
 20
346.5137989959395
 30
-16.10248374228008
 70
   192
  0
VERTEX
  5
E86
  8
0
 10
-114.4470250324433
 20
336.4905984750675
 30
-23.94586901942275
 70
   192
  0
VERTEX
  5
E87
  8
0
 10
-112.3760274812718
 20
307.9019393578631
 30
-47.61747934820563
 70
   192
  0
VERTEX
  5
E88
  8
0
 10
-110.5252047919937
 20
277.3196490450675
 30
-68.77247948979235
 70
   192
  0
VERTEX
  5
E89
  8
0
 10
0.0
 20
0.0
 30
0.0
 70
   128
 71
    16
 72
    15
 73
   -14
  0
VERTEX
  5
E8A
  8
0
 10
0.0
 20
0.0
 30
0.0
 70
   128
 71
   -14
 72
    17
 73
   -16
  0
VERTEX
  5
E8B
  8
0
 10
0.0
 20
0.0
 30
0.0
 70
   128
 71
   -14
 72
    18
 73
   -17
  0
VERTEX
  5
E8C
  8
0
 10
0.0
 20
0.0
 30
0.0
 70
   128
 71
   -14
 72
    19
 73
   -18
  0
VERTEX
  5
E8D
  8
0
 10
0.0
 20
0.0
 30
0.0
 70
   128
 71
   -14
 72
    20
 73
   -19
  0
VERTEX
  5
E8E
  8
0
 10
0.0
 20
0.0
 30
0.0
 70
   128
 71
     9
 72
     8
 73
    -7
  0
VERTEX
  5
E8F
  8
0
 10
0.0
 20
0.0
 30
0.0
 70
   128
 71
    -9
 72
     7
 73
    -6
  0
VERTEX
  5
E90
  8
0
 10
0.0
 20
0.0
 30
0.0
 70
   128
 71
    -9
 72
     6
 73
    -5
  0
VERTEX
  5
E91
  8
0
 10
0.0
 20
0.0
 30
0.0
 70
   128
 71
    -9
 72
     5
 73
    -4
  0
VERTEX
  5
E92
  8
0
 10
0.0
 20
0.0
 30
0.0
 70
   128
 71
    -9
 72
     4
 73
    -3
  0
VERTEX
  5
E93
  8
0
 10
0.0
 20
0.0
 30
0.0
 70
   128
 71
    -9
 72
     3
 73
    -2
  0
VERTEX
  5
E94
  8
0
 10
0.0
 20
0.0
 30
0.0
 70
   128
 71
    -9
 72
     2
 73
    -1
  0
VERTEX
  5
E95
  8
0
 10
0.0
 20
0.0
 30
0.0
 70
   128
 71
    -9
 72
     1
 73
   -20
  0
VERTEX
  5
E96
  8
0
 10
0.0
 20
0.0
 30
0.0
 70
   128
 71
   -20
 72
    10
 73
    -9
  0
VERTEX
  5
E97
  8
0
 10
0.0
 20
0.0
 30
0.0
 70
   128
 71
   -20
 72
    11
 73
   -10
  0
VERTEX
  5
E98
  8
0
 10
0.0
 20
0.0
 30
0.0
 70
   128
 71
   -20
 72
    12
 73
   -11
  0
VERTEX
  5
E99
  8
0
 10
0.0
 20
0.0
 30
0.0
 70
   128
 71
   -20
 72
    13
 73
   -12
  0
VERTEX
  5
E9A
  8
0
 10
0.0
 20
0.0
 30
0.0
 70
   128
 71
   -20
 72
    14
 73
   -13
  0
SEQEND
  5
132F
  8
0
  0
POLYLINE
  5
E9B
  8
0
 66
     1
 10
0.0
 20
0.0
 30
0.0
 70
    64
 71
    24
 72
    22
  0
VERTEX
  5
E9C
  8
0
 10
-220.0000000000047
 20
-449.9999999999975
 30
-50.00000000000388
 70
   192
  0
VERTEX
  5
E9D
  8
0
 10
219.999999999997
 20
-450.0000000000022
 30
-49.99999999999928
 70
   192
  0
VERTEX
  5
E9E
  8
0
 10
224.9999999999966
 20
-448.6602540378462
 30
-49.99999999999922
 70
   192
  0
VERTEX
  5
E9F
  8
0
 10
228.6602540378405
 20
-445.0000000000018
 30
-49.99999999999917
 70
   192
  0
VERTEX
  5
EA0
  8
0
 10
229.9999999999959
 20
-440.0000000000022
 30
-49.99999999999913
 70
   192
  0
VERTEX
  5
EA1
  8
0
 10
230.0000000000051
 20
439.9999999999981
 30
-49.99999999999606
 70
   192
  0
VERTEX
  5
EA2
  8
0
 10
228.6602540378495
 20
444.9999999999979
 30
-49.99999999999606
 70
   192
  0
VERTEX
  5
EA3
  8
0
 10
225.0000000000053
 20
448.6602540378422
 30
-49.99999999999608
 70
   192
  0
VERTEX
  5
EA4
  8
0
 10
220.0000000000056
 20
449.9999999999978
 30
-49.99999999999613
 70
   192
  0
VERTEX
  5
EA5
  8
0
 10
-219.9999999999953
 20
450.0000000000025
 30
-50.00000000000075
 70
   192
  0
VERTEX
  5
EA6
  8
0
 10
-224.9999999999964
 20
448.660254037846
 30
-50.0000000000008
 70
   192
  0
VERTEX
  5
EA7
  8
0
 10
-228.6602540378409
 20
444.9999999999997
 30
-50.00000000000086
 70
   192
  0
VERTEX
  5
EA8
  8
0
 10
-229.9999999999949
 20
440.0000000000026
 30
-50.00000000000089
 70
   192
  0
VERTEX
  5
EA9
  8
0
 10
209.999999999996
 20
439.9999999999978
 30
-49.99999999999628
 70
   192
  0
VERTEX
  5
EAA
  8
0
 10
214.999999999996
 20
438.6602540378423
 30
-49.99999999999623
 70
   192
  0
VERTEX
  5
EAB
  8
0
 10
218.6602540378404
 20
434.9999999999979
 30
-49.99999999999621
 70
   192
  0
VERTEX
  5
EAC
  8
0
 10
219.999999999996
 20
429.9999999999979
 30
-49.9999999999962
 70
   192
  0
VERTEX
  5
EAD
  8
0
 10
219.9999999999959
 20
-430.0000000000026
 30
-49.9999999999992
 70
   192
  0
VERTEX
  5
EAE
  8
0
 10
218.6602540378401
 20
-435.0000000000024
 30
-49.99999999999924
 70
   192
  0
VERTEX
  5
EAF
  8
0
 10
214.9999999999958
 20
-438.6602540378466
 30
-49.99999999999929
 70
   192
  0
VERTEX
  5
EB0
  8
0
 10
209.9999999999959
 20
-439.9999999997946
 30
-49.99999999999905
 70
   192
  0
VERTEX
  5
EB1
  8
0
 10
-230.0000000000041
 20
-440.0000000000022
 30
-50.00000000000395
 70
   192
  0
VERTEX
  5
EB2
  8
0
 10
-228.660254037847
 20
-445.0000000000001
 30
-50.00000000000395
 70
   192
  0
VERTEX
  5
EB3
  8
0
 10
-225.0000000000031
 20
-448.6602540378424
 30
-50.00000000000393
 70
   192
  0
VERTEX
  5
EB4
  8
0
 10
0.0
 20
0.0
 30
0.0
 70
   128
 71
    14
 72
    13
 73
   -12
  0
VERTEX
  5
EB5
  8
0
 10
0.0
 20
0.0
 30
0.0
 70
   128
 71
   -14
 72
    12
 73
   -11
  0
VERTEX
  5
EB6
  8
0
 10
0.0
 20
0.0
 30
0.0
 70
   128
 71
   -14
 72
    11
 73
   -10
  0
VERTEX
  5
EB7
  8
0
 10
0.0
 20
0.0
 30
0.0
 70
   128
 71
   -14
 72
    10
 73
    -9
  0
VERTEX
  5
EB8
  8
0
 10
0.0
 20
0.0
 30
0.0
 70
   128
 71
    -9
 72
    15
 73
   -14
  0
VERTEX
  5
EB9
  8
0
 10
0.0
 20
0.0
 30
0.0
 70
   128
 71
     9
 72
    -8
 73
   -16
  0
VERTEX
  5
EBA
  8
0
 10
0.0
 20
0.0
 30
0.0
 70
   128
 71
    -9
 72
    16
 73
   -15
  0
VERTEX
  5
EBB
  8
0
 10
0.0
 20
0.0
 30
0.0
 70
   128
 71
    -8
 72
    17
 73
   -16
  0
VERTEX
  5
EBC
  8
0
 10
0.0
 20
0.0
 30
0.0
 70
   128
 71
     8
 72
     7
 73
    -6
  0
VERTEX
  5
EBD
  8
0
 10
0.0
 20
0.0
 30
0.0
 70
   128
 71
    -8
 72
     6
 73
    -5
  0
VERTEX
  5
EBE
  8
0
 10
0.0
 20
0.0
 30
0.0
 70
   128
 71
    -8
 72
    -5
 73
   -18
  0
VERTEX
  5
EBF
  8
0
 10
0.0
 20
0.0
 30
0.0
 70
   128
 71
    -8
 72
    18
 73
   -17
  0
VERTEX
  5
EC0
  8
0
 10
0.0
 20
0.0
 30
0.0
 70
   128
 71
    -5
 72
    19
 73
   -18
  0
VERTEX
  5
EC1
  8
0
 10
0.0
 20
0.0
 30
0.0
 70
   128
 71
     5
 72
    -4
 73
   -20
  0
VERTEX
  5
EC2
  8
0
 10
0.0
 20
0.0
 30
0.0
 70
   128
 71
    -5
 72
    20
 73
   -19
  0
VERTEX
  5
EC3
  8
0
 10
0.0
 20
0.0
 30
0.0
 70
   128
 71
    -4
 72
    21
 73
   -20
  0
VERTEX
  5
EC4
  8
0
 10
0.0
 20
0.0
 30
0.0
 70
   128
 71
     4
 72
     3
 73
    -2
  0
VERTEX
  5
EC5
  8
0
 10
0.0
 20
0.0
 30
0.0
 70
   128
 71
    -4
 72
     2
 73
    -1
  0
VERTEX
  5
EC6
  8
0
 10
0.0
 20
0.0
 30
0.0
 70
   128
 71
    -4
 72
     1
 73
   -24
  0
VERTEX
  5
EC7
  8
0
 10
0.0
 20
0.0
 30
0.0
 70
   128
 71
    -4
 72
    24
 73
   -23
  0
VERTEX
  5
EC8
  8
0
 10
0.0
 20
0.0
 30
0.0
 70
   128
 71
    -4
 72
    23
 73
   -22
  0
VERTEX
  5
EC9
  8
0
 10
0.0
 20
0.0
 30
0.0
 70
   128
 71
    -4
 72
    22
 73
   -21
  0
SEQEND
  5
1330
  8
0
  0
POLYLINE
  5
ECA
  8
0
 66
     1
 10
0.0
 20
0.0
 30
0.0
 70
    64
 71
     4
 72
     2
  0
VERTEX
  5
ECB
  8
0
 10
-230.0000000000041
 20
-440.0000000000022
 30
-50.00000000000394
 70
   192
  0
VERTEX
  5
ECC
  8
0
 10
209.9999999999959
 20
-440.0000000000022
 30
-49.9999999999992
 70
   192
  0
VERTEX
  5
ECD
  8
0
 10
209.9999999999958
 20
-440.0000000000022
 30
-34.99999999999936
 70
   192
  0
VERTEX
  5
ECE
  8
0
 10
-230.0000000000043
 20
-439.9999999999975
 30
-35.00000000000398
 70
   192
  0
VERTEX
  5
ECF
  8
0
 10
0.0
 20
0.0
 30
0.0
 70
   128
 71
     1
 72
     4
 73
    -3
  0
VERTEX
  5
ED0
  8
0
 10
0.0
 20
0.0
 30
0.0
 70
   128
 71
    -1
 72
     3
 73
     2
  0
SEQEND
  5
1331
  8
0
  0
POLYLINE
  5
ED1
  8
0
 66
     1
 10
0.0
 20
0.0
 30
0.0
 70
    64
 71
     8
 72
     6
  0
VERTEX
  5
ED2
  8
0
 10
214.9999999999956
 20
-438.6602540378467
 30
-34.99999999999929
 70
   192
  0
VERTEX
  5
ED3
  8
0
 10
218.66025403784
 20
-435.0000000000025
 30
-34.99999999999924
 70
   192
  0
VERTEX
  5
ED4
  8
0
 10
218.6602540378401
 20
-435.0000000000024
 30
-49.99999999999924
 70
   192
  0
VERTEX
  5
ED5
  8
0
 10
214.9999999999958
 20
-438.6602540378466
 30
-49.99999999999929
 70
   192
  0
VERTEX
  5
ED6
  8
0
 10
219.9999999999957
 20
-430.0000000000027
 30
-34.9999999999992
 70
   192
  0
VERTEX
  5
ED7
  8
0
 10
219.9999999999959
 20
-430.0000000000026
 30
-49.9999999999977
 70
   192
  0
VERTEX
  5
ED8
  8
0
 10
209.9999999999957
 20
-440.0000000000023
 30
-34.99999999999934
 70
   192
  0
VERTEX
  5
ED9
  8
0
 10
209.9999999999959
 20
-440.0000000000022
 30
-49.9999999999992
 70
   192
  0
VERTEX
  5
EDA
  8
0
 10
0.0
 20
0.0
 30
0.0
 70
   128
 71
     1
 72
     2
 73
    -3
  0
VERTEX
  5
EDB
  8
0
 10
0.0
 20
0.0
 30
0.0
 70
   128
 71
     4
 72
    -1
 73
     3
  0
VERTEX
  5
EDC
  8
0
 10
0.0
 20
0.0
 30
0.0
 70
   128
 71
     2
 72
     5
 73
    -6
  0
VERTEX
  5
EDD
  8
0
 10
0.0
 20
0.0
 30
0.0
 70
   128
 71
     3
 72
    -2
 73
     6
  0
VERTEX
  5
EDE
  8
0
 10
0.0
 20
0.0
 30
0.0
 70
   128
 71
     7
 72
     1
 73
    -4
  0
VERTEX
  5
EDF
  8
0
 10
0.0
 20
0.0
 30
0.0
 70
   128
 71
     8
 72
    -7
 73
     4
  0
SEQEND
  5
1332
  8
0
  0
POLYLINE
  5
EE0
  8
0
 66
     1
 10
0.0
 20
0.0
 30
0.0
 70
    64
 71
     4
 72
     2
  0
VERTEX
  5
EE1
  8
0
 10
219.9999999999959
 20
-430.0000000000026
 30
-49.9999999999992
 70
   192
  0
VERTEX
  5
EE2
  8
0
 10
219.9999999999961
 20
429.9999999999979
 30
-49.9999999999962
 70
   192
  0
VERTEX
  5
EE3
  8
0
 10
219.9999999999959
 20
429.9999999999978
 30
-34.99999999999619
 70
   192
  0
VERTEX
  5
EE4
  8
0
 10
219.9999999999957
 20
-430.0000000000027
 30
-34.9999999999992
 70
   192
  0
VERTEX
  5
EE5
  8
0
 10
0.0
 20
0.0
 30
0.0
 70
   128
 71
     1
 72
     4
 73
    -3
  0
VERTEX
  5
EE6
  8
0
 10
0.0
 20
0.0
 30
0.0
 70
   128
 71
    -1
 72
     3
 73
     2
  0
SEQEND
  5
1333
  8
0
  0
POLYLINE
  5
EE7
  8
0
 66
     1
 10
0.0
 20
0.0
 30
0.0
 70
    64
 71
     8
 72
     6
  0
VERTEX
  5
EE8
  8
0
 10
218.6602540378402
 20
434.9999999999978
 30
-34.99999999999621
 70
   192
  0
VERTEX
  5
EE9
  8
0
 10
214.9999999999959
 20
438.6602540378422
 30
-34.99999999999623
 70
   192
  0
VERTEX
  5
EEA
  8
0
 10
214.999999999996
 20
438.6602540378423
 30
-49.99999999999623
 70
   192
  0
VERTEX
  5
EEB
  8
0
 10
218.6602540378404
 20
434.9999999999979
 30
-49.99999999999621
 70
   192
  0
VERTEX
  5
EEC
  8
0
 10
209.9999999999959
 20
439.9999999999978
 30
-34.99999999999628
 70
   192
  0
VERTEX
  5
EED
  8
0
 10
209.999999999996
 20
439.9999999999978
 30
-49.99999999999857
 70
   192
  0
VERTEX
  5
EEE
  8
0
 10
219.9999999999959
 20
429.9999999999978
 30
-34.9999999999962
 70
   192
  0
VERTEX
  5
EEF
  8
0
 10
219.9999999999961
 20
429.9999999999979
 30
-49.9999999999962
 70
   192
  0
VERTEX
  5
EF0
  8
0
 10
0.0
 20
0.0
 30
0.0
 70
   128
 71
     1
 72
     2
 73
    -3
  0
VERTEX
  5
EF1
  8
0
 10
0.0
 20
0.0
 30
0.0
 70
   128
 71
     4
 72
    -1
 73
     3
  0
VERTEX
  5
EF2
  8
0
 10
0.0
 20
0.0
 30
0.0
 70
   128
 71
     2
 72
     5
 73
    -6
  0
VERTEX
  5
EF3
  8
0
 10
0.0
 20
0.0
 30
0.0
 70
   128
 71
     3
 72
    -2
 73
     6
  0
VERTEX
  5
EF4
  8
0
 10
0.0
 20
0.0
 30
0.0
 70
   128
 71
     7
 72
     1
 73
    -4
  0
VERTEX
  5
EF5
  8
0
 10
0.0
 20
0.0
 30
0.0
 70
   128
 71
     8
 72
    -7
 73
     4
  0
SEQEND
  5
1334
  8
0
  0
POLYLINE
  5
EF6
  8
0
 66
     1
 10
0.0
 20
0.0
 30
0.0
 70
    64
 71
     4
 72
     2
  0
VERTEX
  5
EF7
  8
0
 10
209.999999999996
 20
439.9999999999978
 30
-49.99999999999626
 70
   192
  0
VERTEX
  5
EF8
  8
0
 10
-229.9999999999949
 20
440.0000000000026
 30
-50.00000000000085
 70
   192
  0
VERTEX
  5
EF9
  8
0
 10
-229.9999999999951
 20
439.9999999999978
 30
-35.00000000000086
 70
   192
  0
VERTEX
  5
EFA
  8
0
 10
209.9999999999959
 20
439.9999999999978
 30
-34.99999999999628
 70
   192
  0
VERTEX
  5
EFB
  8
0
 10
0.0
 20
0.0
 30
0.0
 70
   128
 71
     1
 72
     4
 73
    -3
  0
VERTEX
  5
EFC
  8
0
 10
0.0
 20
0.0
 30
0.0
 70
   128
 71
    -1
 72
     3
 73
     2
  0
SEQEND
  5
1335
  8
0
  0
POLYLINE
  5
EFD
  8
0
 66
     1
 10
0.0
 20
0.0
 30
0.0
 70
    64
 71
    20
 72
    18
  0
VERTEX
  5
EFE
  8
0
 10
-230.0000000000037
 20
-383.5000000000022
 30
-35.00000000000374
 70
   192
  0
VERTEX
  5
EFF
  8
0
 10
153.4999999999957
 20
-383.5000000000022
 30
-34.99999999999973
 70
   192
  0
VERTEX
  5
F00
  8
0
 10
158.4999999999957
 20
-382.1602540378466
 30
-34.99999999999968
 70
   192
  0
VERTEX
  5
F01
  8
0
 10
162.1602540378401
 20
-378.5000000000022
 30
-34.99999999999962
 70
   192
  0
VERTEX
  5
F02
  8
0
 10
163.4999999999957
 20
-373.5000000000022
 30
-34.99999999999959
 70
   192
  0
VERTEX
  5
F03
  8
0
 10
163.4999999999959
 20
373.4999999999978
 30
-34.99999999999697
 70
   192
  0
VERTEX
  5
F04
  8
0
 10
162.1602540378402
 20
378.4999999999977
 30
-34.99999999999698
 70
   192
  0
VERTEX
  5
F05
  8
0
 10
158.4999999999959
 20
382.1602540378421
 30
-34.999999999997
 70
   192
  0
VERTEX
  5
F06
  8
0
 10
153.499999999996
 20
383.4999999999978
 30
-34.99999999999705
 70
   192
  0
VERTEX
  5
F07
  8
0
 10
-229.9999999999956
 20
383.4999999999978
 30
-35.00000000000108
 70
   192
  0
VERTEX
  5
F08
  8
0
 10
-229.9999999999951
 20
439.9999999999978
 30
-35.00000000000087
 70
   192
  0
VERTEX
  5
F09
  8
0
 10
209.9999999999959
 20
440.0000000002005
 30
-34.99999999999626
 70
   192
  0
VERTEX
  5
F0A
  8
0
 10
214.9999999999959
 20
438.6602540378422
 30
-34.99999999999623
 70
   192
  0
VERTEX
  5
F0B
  8
0
 10
218.6602540378402
 20
434.9999999999978
 30
-34.99999999999621
 70
   192
  0
VERTEX
  5
F0C
  8
0
 10
219.9999999999959
 20
429.9999999999978
 30
-34.99999999999621
 70
   192
  0
VERTEX
  5
F0D
  8
0
 10
219.9999999999958
 20
-430.0000000000027
 30
-34.9999999999992
 70
   192
  0
VERTEX
  5
F0E
  8
0
 10
218.66025403784
 20
-435.0000000000025
 30
-34.99999999999924
 70
   192
  0
VERTEX
  5
F0F
  8
0
 10
214.9999999999956
 20
-438.6602540378467
 30
-34.99999999999929
 70
   192
  0
VERTEX
  5
F10
  8
0
 10
209.9999999999957
 20
-440.0000000000023
 30
-34.99999999999935
 70
   192
  0
VERTEX
  5
F11
  8
0
 10
-230.0000000000042
 20
-439.9999999999974
 30
-35.00000000000396
 70
   192
  0
VERTEX
  5
F12
  8
0
 10
0.0
 20
0.0
 30
0.0
 70
   128
 71
    20
 72
     1
 73
    -2
  0
VERTEX
  5
F13
  8
0
 10
0.0
 20
0.0
 30
0.0
 70
   128
 71
    19
 72
   -20
 73
    -2
  0
VERTEX
  5
F14
  8
0
 10
0.0
 20
0.0
 30
0.0
 70
   128
 71
     2
 72
    -3
 73
   -19
  0
VERTEX
  5
F15
  8
0
 10
0.0
 20
0.0
 30
0.0
 70
   128
 71
     3
 72
    -4
 73
   -19
  0
VERTEX
  5
F16
  8
0
 10
0.0
 20
0.0
 30
0.0
 70
   128
 71
     4
 72
    -5
 73
   -19
  0
VERTEX
  5
F17
  8
0
 10
0.0
 20
0.0
 30
0.0
 70
   128
 71
    17
 72
    18
 73
   -19
  0
VERTEX
  5
F18
  8
0
 10
0.0
 20
0.0
 30
0.0
 70
   128
 71
    16
 72
   -17
 73
   -19
  0
VERTEX
  5
F19
  8
0
 10
0.0
 20
0.0
 30
0.0
 70
   128
 71
    15
 72
   -16
 73
   -19
  0
VERTEX
  5
F1A
  8
0
 10
0.0
 20
0.0
 30
0.0
 70
   128
 71
    -6
 72
   -15
 73
   -19
  0
VERTEX
  5
F1B
  8
0
 10
0.0
 20
0.0
 30
0.0
 70
   128
 71
     5
 72
    -6
 73
   -19
  0
VERTEX
  5
F1C
  8
0
 10
0.0
 20
0.0
 30
0.0
 70
   128
 71
     6
 72
    -7
 73
   -15
  0
VERTEX
  5
F1D
  8
0
 10
0.0
 20
0.0
 30
0.0
 70
   128
 71
     7
 72
    -8
 73
   -15
  0
VERTEX
  5
F1E
  8
0
 10
0.0
 20
0.0
 30
0.0
 70
   128
 71
     8
 72
    -9
 73
   -15
  0
VERTEX
  5
F1F
  8
0
 10
0.0
 20
0.0
 30
0.0
 70
   128
 71
    13
 72
    14
 73
   -15
  0
VERTEX
  5
F20
  8
0
 10
0.0
 20
0.0
 30
0.0
 70
   128
 71
    12
 72
   -13
 73
   -15
  0
VERTEX
  5
F21
  8
0
 10
0.0
 20
0.0
 30
0.0
 70
   128
 71
    11
 72
   -12
 73
   -15
  0
VERTEX
  5
F22
  8
0
 10
0.0
 20
0.0
 30
0.0
 70
   128
 71
    10
 72
   -11
 73
   -15
  0
VERTEX
  5
F23
  8
0
 10
0.0
 20
0.0
 30
0.0
 70
   128
 71
     9
 72
   -10
 73
   -15
  0
SEQEND
  5
1336
  8
0
  0
POLYLINE
  5
F24
  8
0
 66
     1
 10
0.0
 20
0.0
 30
0.0
 70
    64
 71
    10
 72
     8
  0
VERTEX
  5
F25
  8
0
 10
63.29744861059662
 20
-371.541974755494
 30
-110.499999999997
 70
   192
  0
VERTEX
  5
F26
  8
0
 10
68.95135130636729
 20
-372.5669160419621
 30
-104.0287754001048
 70
   192
  0
VERTEX
  5
F27
  8
0
 10
74.0376566381791
 20
-373.667051234016
 30
-97.08279516492696
 70
   192
  0
VERTEX
  5
F28
  8
0
 10
78.49999999999322
 20
-374.8301890291984
 30
-89.73903214881828
 70
   192
  0
VERTEX
  5
F29
  8
0
 10
163.2473859977531
 20
-375.7334874547977
 30
-84.03583034599215
 70
   192
  0
VERTEX
  5
F2A
  8
0
 10
161.363291282634
 20
-379.6780781966901
 30
-59.13066457459827
 70
   192
  0
VERTEX
  5
F2B
  8
0
 10
157.7657550474225
 20
-382.5445195491754
 30
-41.03266614363412
 70
   192
  0
VERTEX
  5
F2C
  8
0
 10
153.4999999999957
 20
-383.5000000000063
 30
-34.99999999999974
 70
   192
  0
VERTEX
  5
F2D
  8
0
 10
-230.0000000000037
 20
-383.5000000000022
 30
-35.00000000000374
 70
   192
  0
VERTEX
  5
F2E
  8
0
 10
-230.0000000000026
 20
-371.5419747554905
 30
-110.5000000000009
 70
   192
  0
VERTEX
  5
F2F
  8
0
 10
0.0
 20
0.0
 30
0.0
 70
   128
 71
    10
 72
     1
 73
    -2
  0
VERTEX
  5
F30
  8
0
 10
0.0
 20
0.0
 30
0.0
 70
   128
 71
     2
 72
    -3
 73
   -10
  0
VERTEX
  5
F31
  8
0
 10
0.0
 20
0.0
 30
0.0
 70
   128
 71
     3
 72
    -4
 73
   -10
  0
VERTEX
  5
F32
  8
0
 10
0.0
 20
0.0
 30
0.0
 70
   128
 71
     9
 72
   -10
 73
    -4
  0
VERTEX
  5
F33
  8
0
 10
0.0
 20
0.0
 30
0.0
 70
   128
 71
     8
 72
    -9
 73
    -4
  0
VERTEX
  5
F34
  8
0
 10
0.0
 20
0.0
 30
0.0
 70
   128
 71
     6
 72
     7
 73
    -8
  0
VERTEX
  5
F35
  8
0
 10
0.0
 20
0.0
 30
0.0
 70
   128
 71
     5
 72
    -6
 73
    -8
  0
VERTEX
  5
F36
  8
0
 10
0.0
 20
0.0
 30
0.0
 70
   128
 71
     4
 72
    -5
 73
    -8
  0
SEQEND
  5
1337
  8
0
  0
POLYLINE
  5
F37
  8
0
 66
     1
 10
0.0
 20
0.0
 30
0.0
 70
    64
 71
     6
 72
     4
  0
VERTEX
  5
F38
  8
0
 10
63.29744861059765
 20
-225.2299977786013
 30
-110.4999999999955
 70
   192
  0
VERTEX
  5
F39
  8
0
 10
63.29744861059662
 20
-371.541974755494
 30
-110.499999999997
 70
   192
  0
VERTEX
  5
F3A
  8
0
 10
-230.0000000000027
 20
-371.5419747554905
 30
-110.5000000000009
 70
   192
  0
VERTEX
  5
F3B
  8
0
 10
-230.0000000000017
 20
-261.5419747554905
 30
-110.5000000000009
 70
   192
  0
VERTEX
  5
F3C
  8
0
 10
-205.0000000000016
 20
-261.5419747554907
 30
-110.5000000000007
 70
   192
  0
VERTEX
  5
F3D
  8
0
 10
-205.0000000000012
 20
-225.2299977785987
 30
-110.5000000000007
 70
   192
  0
VERTEX
  5
F3E
  8
0
 10
0.0
 20
0.0
 30
0.0
 70
   128
 71
     3
 72
     4
 73
    -5
  0
VERTEX
  5
F3F
  8
0
 10
0.0
 20
0.0
 30
0.0
 70
   128
 71
     2
 72
    -3
 73
    -5
  0
VERTEX
  5
F40
  8
0
 10
0.0
 20
0.0
 30
0.0
 70
   128
 71
     1
 72
    -2
 73
    -5
  0
VERTEX
  5
F41
  8
0
 10
0.0
 20
0.0
 30
0.0
 70
   128
 71
     5
 72
     6
 73
    -1
  0
SEQEND
  5
1338
  8
0
  0
POLYLINE
  5
F42
  8
0
 66
     1
 10
0.0
 20
0.0
 30
0.0
 70
    64
 71
     4
 72
     2
  0
VERTEX
  5
F43
  8
0
 10
-205.0000000000016
 20
-261.5419747554907
 30
-110.5000000000007
 70
   192
  0
VERTEX
  5
F44
  8
0
 10
-230.0000000000016
 20
-261.5419747554905
 30
-110.5000000000009
 70
   192
  0
VERTEX
  5
F45
  8
0
 10
-230.0000000000021
 20
-258.3923828685574
 30
-74.50000000000091
 70
   192
  0
VERTEX
  5
F46
  8
0
 10
-205.000000000002
 20
-258.3923828685576
 30
-74.50000000000064
 70
   192
  0
VERTEX
  5
F47
  8
0
 10
0.0
 20
0.0
 30
0.0
 70
   128
 71
     3
 72
     4
 73
    -1
  0
VERTEX
  5
F48
  8
0
 10
0.0
 20
0.0
 30
0.0
 70
   128
 71
     2
 72
    -3
 73
     1
  0
SEQEND
  5
1339
  8
0
  0
POLYLINE
  5
F49
  8
0
 66
     1
 10
0.0
 20
0.0
 30
0.0
 70
    64
 71
     6
 72
     4
  0
VERTEX
  5
F4A
  8
0
 10
-205.000000000002
 20
-258.3923828685576
 30
-74.50000000000064
 70
   192
  0
VERTEX
  5
F4B
  8
0
 10
-230.000000000002
 20
-258.3923828685574
 30
-74.5000000000009
 70
   192
  0
VERTEX
  5
F4C
  8
0
 10
-229.9999999999964
 20
258.3923828685622
 30
-74.50000000000097
 70
   192
  0
VERTEX
  5
F4D
  8
0
 10
-204.999999999998
 20
258.3923828685619
 30
-74.5000000000007
 70
   192
  0
VERTEX
  5
F4E
  8
0
 10
-204.9999999999976
 20
160.0000000000001
 30
-74.5000000000007
 70
   192
  0
VERTEX
  5
F4F
  8
0
 10
-205.0000000000009
 20
-159.9999999999998
 30
-74.50000000000065
 70
   192
  0
VERTEX
  5
F50
  8
0
 10
0.0
 20
0.0
 30
0.0
 70
   128
 71
     3
 72
     4
 73
    -5
  0
VERTEX
  5
F51
  8
0
 10
0.0
 20
0.0
 30
0.0
 70
   128
 71
    -6
 72
     2
 73
    -3
  0
VERTEX
  5
F52
  8
0
 10
0.0
 20
0.0
 30
0.0
 70
   128
 71
     5
 72
    -6
 73
    -3
  0
VERTEX
  5
F53
  8
0
 10
0.0
 20
0.0
 30
0.0
 70
   128
 71
     6
 72
     1
 73
    -2
  0
SEQEND
  5
133A
  8
0
  0
POLYLINE
  5
F54
  8
0
 66
     1
 10
0.0
 20
0.0
 30
0.0
 70
    64
 71
     4
 72
     2
  0
VERTEX
  5
F55
  8
0
 10
-204.999999999998
 20
258.3923828685619
 30
-74.5000000000007
 70
   192
  0
VERTEX
  5
F56
  8
0
 10
-229.9999999999966
 20
258.3923828685622
 30
-74.50000000000095
 70
   192
  0
VERTEX
  5
F57
  8
0
 10
-229.9999999999962
 20
261.5419747554953
 30
-110.500000000001
 70
   192
  0
VERTEX
  5
F58
  8
0
 10
-204.9999999999961
 20
261.5419747554951
 30
-110.5000000000007
 70
   192
  0
VERTEX
  5
F59
  8
0
 10
0.0
 20
0.0
 30
0.0
 70
   128
 71
     3
 72
     4
 73
    -1
  0
VERTEX
  5
F5A
  8
0
 10
0.0
 20
0.0
 30
0.0
 70
   128
 71
     2
 72
    -3
 73
     1
  0
SEQEND
  5
133B
  8
0
  0
POLYLINE
  5
F5B
  8
0
 66
     1
 10
0.0
 20
0.0
 30
0.0
 70
    64
 71
     6
 72
     4
  0
VERTEX
  5
F5C
  8
0
 10
63.29744861060173
 20
371.5419747554955
 30
-110.4999999999893
 70
   192
  0
VERTEX
  5
F5D
  8
0
 10
63.29744861060072
 20
225.2299977786003
 30
-110.4999999999908
 70
   192
  0
VERTEX
  5
F5E
  8
0
 10
-204.9999999999965
 20
225.2299977786031
 30
-110.5000000000007
 70
   192
  0
VERTEX
  5
F5F
  8
0
 10
-204.9999999999961
 20
261.5419747554951
 30
-110.5000000000007
 70
   192
  0
VERTEX
  5
F60
  8
0
 10
-229.9999999999961
 20
261.5419747554953
 30
-110.500000000001
 70
   192
  0
VERTEX
  5
F61
  8
0
 10
-229.9999999999951
 20
371.5419747554955
 30
-110.500000000001
 70
   192
  0
VERTEX
  5
F62
  8
0
 10
0.0
 20
0.0
 30
0.0
 70
   128
 71
     2
 72
     3
 73
    -4
  0
VERTEX
  5
F63
  8
0
 10
0.0
 20
0.0
 30
0.0
 70
   128
 71
     6
 72
     1
 73
    -2
  0
VERTEX
  5
F64
  8
0
 10
0.0
 20
0.0
 30
0.0
 70
   128
 71
    -4
 72
    -6
 73
    -2
  0
VERTEX
  5
F65
  8
0
 10
0.0
 20
0.0
 30
0.0
 70
   128
 71
     4
 72
     5
 73
    -6
  0
SEQEND
  5
133C
  8
0
  0
POLYLINE
  5
F66
  8
0
 66
     1
 10
0.0
 20
0.0
 30
0.0
 70
    64
 71
    10
 72
     8
  0
VERTEX
  5
F67
  8
0
 10
153.499999999996
 20
383.4999999999937
 30
-34.99999999999707
 70
   192
  0
VERTEX
  5
F68
  8
0
 10
157.7657550474221
 20
382.5445195491686
 30
-41.03266614363608
 70
   192
  0
VERTEX
  5
F69
  8
0
 10
161.3632912826332
 20
379.6780781966865
 30
-59.13066457459704
 70
   192
  0
VERTEX
  5
F6A
  8
0
 10
163.2473859977528
 20
375.7334874547955
 30
-84.03583034598464
 70
   192
  0
VERTEX
  5
F6B
  8
0
 10
78.49999999999864
 20
374.8301890291981
 30
-89.73903214881042
 70
   192
  0
VERTEX
  5
F6C
  8
0
 10
74.03765663818429
 20
373.6670512340158
 30
-97.08279516491918
 70
   192
  0
VERTEX
  5
F6D
  8
0
 10
68.95135130637247
 20
372.5669160419624
 30
-104.028775400097
 70
   192
  0
VERTEX
  5
F6E
  8
0
 10
63.29744861060173
 20
371.5419747554954
 30
-110.4999999999893
 70
   192
  0
VERTEX
  5
F6F
  8
0
 10
-229.999999999995
 20
371.5419747554953
 30
-110.500000000001
 70
   192
  0
VERTEX
  5
F70
  8
0
 10
-229.9999999999955
 20
383.4999999999978
 30
-35.00000000000109
 70
   192
  0
VERTEX
  5
F71
  8
0
 10
0.0
 20
0.0
 30
0.0
 70
   128
 71
     3
 72
     4
 73
    -5
  0
VERTEX
  5
F72
  8
0
 10
0.0
 20
0.0
 30
0.0
 70
   128
 71
     2
 72
    -3
 73
    -5
  0
VERTEX
  5
F73
  8
0
 10
0.0
 20
0.0
 30
0.0
 70
   128
 71
     1
 72
    -2
 73
    -5
  0
VERTEX
  5
F74
  8
0
 10
0.0
 20
0.0
 30
0.0
 70
   128
 71
    10
 72
    -1
 73
    -5
  0
VERTEX
  5
F75
  8
0
 10
0.0
 20
0.0
 30
0.0
 70
   128
 71
     5
 72
    -6
 73
   -10
  0
VERTEX
  5
F76
  8
0
 10
0.0
 20
0.0
 30
0.0
 70
   128
 71
     6
 72
    -7
 73
   -10
  0
VERTEX
  5
F77
  8
0
 10
0.0
 20
0.0
 30
0.0
 70
   128
 71
     8
 72
     9
 73
   -10
  0
VERTEX
  5
F78
  8
0
 10
0.0
 20
0.0
 30
0.0
 70
   128
 71
     7
 72
    -8
 73
   -10
  0
SEQEND
  5
133D
  8
0
  0
POLYLINE
  5
F79
  8
0
 66
     1
 10
0.0
 20
0.0
 30
0.0
 70
    64
 71
    16
 72
    18
  0
VERTEX
  5
F7A
  8
0
 10
-204.9999999999983
 20
-159.9999999999997
 30
-74.50000000000071
 70
   192
  0
VERTEX
  5
F7B
  8
0
 10
-204.9999999999989
 20
-159.9999999999999
 30
-20.00000000000271
 70
   192
  0
VERTEX
  5
F7C
  8
0
 10
-204.9999999999989
 20
160.0000000000001
 30
-20.0000000000016
 70
   192
  0
VERTEX
  5
F7D
  8
0
 10
-204.9999999999976
 20
160.0000000000001
 30
-74.5000000000007
 70
   192
  0
VERTEX
  5
F7E
  8
0
 10
-205.0000000000018
 20
-142.4999999999985
 30
-50.00000000000145
 70
   192
  0
VERTEX
  5
F7F
  8
0
 10
-205.0000000000016
 20
-135.4999999999982
 30
-60.00000000000134
 70
   192
  0
VERTEX
  5
F80
  8
0
 10
-205.0000000000013
 20
-114.4999999999978
 30
-60.00000000000123
 70
   192
  0
VERTEX
  5
F81
  8
0
 10
-205.0000000000014
 20
-107.4999999999976
 30
-50.00000000000126
 70
   192
  0
VERTEX
  5
F82
  8
0
 10
-205.0000000000015
 20
-114.4999999999979
 30
-40.00000000000127
 70
   192
  0
VERTEX
  5
F83
  8
0
 10
-205.0000000000018
 20
-135.4999999999985
 30
-40.00000000000139
 70
   192
  0
VERTEX
  5
F84
  8
0
 10
-204.9999999999988
 20
142.5000000000019
 30
-50.00000000000142
 70
   192
  0
VERTEX
  5
F85
  8
0
 10
-204.9999999999989
 20
135.500000000002
 30
-40.00000000000135
 70
   192
  0
VERTEX
  5
F86
  8
0
 10
-204.9999999999991
 20
114.5000000000019
 30
-40.00000000000127
 70
   192
  0
VERTEX
  5
F87
  8
0
 10
-204.9999999999991
 20
107.5000000000019
 30
-50.00000000000129
 70
   192
  0
VERTEX
  5
F88
  8
0
 10
-204.9999999999989
 20
114.5000000000019
 30
-60.00000000000129
 70
   192
  0
VERTEX
  5
F89
  8
0
 10
-204.9999999999988
 20
135.5000000000018
 30
-60.00000000000136
 70
   192
  0
VERTEX
  5
F8A
  8
0
 10
0.0
 20
0.0
 30
0.0
 70
   128
 71
     6
 72
    -5
 73
    -1
  0
VERTEX
  5
F8B
  8
0
 10
0.0
 20
0.0
 30
0.0
 70
   128
 71
    -1
 72
     7
 73
    -6
  0
VERTEX
  5
F8C
  8
0
 10
0.0
 20
0.0
 30
0.0
 70
   128
 71
    -7
 72
     1
 73
    -4
  0
VERTEX
  5
F8D
  8
0
 10
0.0
 20
0.0
 30
0.0
 70
   128
 71
    -4
 72
     8
 73
    -7
  0
VERTEX
  5
F8E
  8
0
 10
0.0
 20
0.0
 30
0.0
 70
   128
 71
    -4
 72
     9
 73
    -8
  0
VERTEX
  5
F8F
  8
0
 10
0.0
 20
0.0
 30
0.0
 70
   128
 71
   -11
 72
     4
 73
    -3
  0
VERTEX
  5
F90
  8
0
 10
0.0
 20
0.0
 30
0.0
 70
   128
 71
    -3
 72
    12
 73
   -11
  0
VERTEX
  5
F91
  8
0
 10
0.0
 20
0.0
 30
0.0
 70
   128
 71
    -3
 72
    13
 73
   -12
  0
VERTEX
  5
F92
  8
0
 10
0.0
 20
0.0
 30
0.0
 70
   128
 71
   -13
 72
     3
 73
    -2
  0
VERTEX
  5
F93
  8
0
 10
0.0
 20
0.0
 30
0.0
 70
   128
 71
   -13
 72
    -2
 73
    -9
  0
VERTEX
  5
F94
  8
0
 10
0.0
 20
0.0
 30
0.0
 70
   128
 71
    -9
 72
    14
 73
   -13
  0
VERTEX
  5
F95
  8
0
 10
0.0
 20
0.0
 30
0.0
 70
   128
 71
    -9
 72
    15
 73
   -14
  0
VERTEX
  5
F96
  8
0
 10
0.0
 20
0.0
 30
0.0
 70
   128
 71
    -9
 72
    -4
 73
   -15
  0
VERTEX
  5
F97
  8
0
 10
0.0
 20
0.0
 30
0.0
 70
   128
 71
    -4
 72
    16
 73
   -15
  0
VERTEX
  5
F98
  8
0
 10
0.0
 20
0.0
 30
0.0
 70
   128
 71
    -4
 72
    11
 73
   -16
  0
VERTEX
  5
F99
  8
0
 10
0.0
 20
0.0
 30
0.0
 70
   128
 71
    -2
 72
    10
 73
    -9
  0
VERTEX
  5
F9A
  8
0
 10
0.0
 20
0.0
 30
0.0
 70
   128
 71
    -2
 72
     5
 73
   -10
  0
VERTEX
  5
F9B
  8
0
 10
0.0
 20
0.0
 30
0.0
 70
   128
 71
     2
 72
    -1
 73
    -5
  0
SEQEND
  5
133E
  8
0
  0
POLYLINE
  5
F9C
  8
0
 66
     1
 10
0.0
 20
0.0
 30
0.0
 70
    64
 71
     7
 72
     5
  0
VERTEX
  5
F9D
  8
0
 10
-119.9999999999989
 20
-142.4999999999999
 30
-20.00000000000177
 70
   192
  0
VERTEX
  5
F9E
  8
0
 10
-204.9999999999989
 20
-159.9999999999999
 30
-20.00000000000271
 70
   192
  0
VERTEX
  5
F9F
  8
0
 10
-205.0000000000009
 20
-160.0000000000003
 30
-74.50000000000071
 70
   192
  0
VERTEX
  5
FA0
  8
0
 10
-205.0000000000003
 20
-160.0
 30
-127.7564220209343
 70
   192
  0
VERTEX
  5
FA1
  8
0
 10
-176.7205647309263
 20
-154.1777633269554
 30
-128.9209976597525
 70
   192
  0
VERTEX
  5
FA2
  8
0
 10
-148.3858439843667
 20
-148.3441443497225
 30
-130.0279268617377
 70
   192
  0
VERTEX
  5
FA3
  8
0
 10
-119.9999999999977
 20
-142.4999999999995
 30
-131.0770470241
 70
   192
  0
VERTEX
  5
FA4
  8
0
 10
0.0
 20
0.0
 30
0.0
 70
   128
 71
     3
 72
    -2
 73
    -5
  0
VERTEX
  5
FA5
  8
0
 10
0.0
 20
0.0
 30
0.0
 70
   128
 71
     5
 72
     4
 73
    -3
  0
VERTEX
  5
FA6
  8
0
 10
0.0
 20
0.0
 30
0.0
 70
   128
 71
     2
 72
    -1
 73
    -6
  0
VERTEX
  5
FA7
  8
0
 10
0.0
 20
0.0
 30
0.0
 70
   128
 71
    -2
 72
     6
 73
    -5
  0
VERTEX
  5
FA8
  8
0
 10
0.0
 20
0.0
 30
0.0
 70
   128
 71
     1
 72
     7
 73
    -6
  0
SEQEND
  5
133F
  8
0
  0
POLYLINE
  5
FA9
  8
0
 66
     1
 10
0.0
 20
0.0
 30
0.0
 70
    64
 71
     7
 72
     5
  0
VERTEX
  5
FAA
  8
0
 10
-119.9999999999989
 20
-34.99999999999994
 30
-20.00000000000141
 70
   192
  0
VERTEX
  5
FAB
  8
0
 10
-119.9999999999989
 20
-142.4999999999999
 30
-20.00000000000177
 70
   192
  0
VERTEX
  5
FAC
  8
0
 10
-119.9999999999977
 20
-142.4999999999995
 30
-131.0770470241
 70
   192
  0
VERTEX
  5
FAD
  8
0
 10
-119.9999999999976
 20
-108.3263415506961
 30
-136.0287629408621
 70
   192
  0
VERTEX
  5
FAE
  8
0
 10
-119.9999999999976
 20
-73.92441877663346
 30
-139.0063679813923
 70
   192
  0
VERTEX
  5
FAF
  8
0
 10
-119.9999999999976
 20
-39.40817451771139
 30
-140.0000000000011
 70
   192
  0
VERTEX
  5
FB0
  8
0
 10
-119.9999999999976
 20
-34.99999999999952
 30
-140.0000000000011
 70
   192
  0
VERTEX
  5
FB1
  8
0
 10
0.0
 20
0.0
 30
0.0
 70
   128
 71
     4
 72
     3
 73
    -2
  0
VERTEX
  5
FB2
  8
0
 10
0.0
 20
0.0
 30
0.0
 70
   128
 71
     2
 72
    -1
 73
    -5
  0
VERTEX
  5
FB3
  8
0
 10
0.0
 20
0.0
 30
0.0
 70
   128
 71
    -2
 72
     5
 73
    -4
  0
VERTEX
  5
FB4
  8
0
 10
0.0
 20
0.0
 30
0.0
 70
   128
 71
    -1
 72
     6
 73
    -5
  0
VERTEX
  5
FB5
  8
0
 10
0.0
 20
0.0
 30
0.0
 70
   128
 71
     1
 72
     7
 73
    -6
  0
SEQEND
  5
1340
  8
0
  0
POLYLINE
  5
FB6
  8
0
 66
     1
 10
0.0
 20
0.0
 30
0.0
 70
    64
 71
    16
 72
    16
  0
VERTEX
  5
FB7
  8
0
 10
-204.9999999999989
 20
-159.9999999999999
 30
-20.00000000000271
 70
   192
  0
VERTEX
  5
FB8
  8
0
 10
-204.9999999999989
 20
160.0000000000001
 30
-20.0000000000016
 70
   192
  0
VERTEX
  5
FB9
  8
0
 10
-119.9999999999989
 20
142.5000000000001
 30
-20.00000000000077
 70
   192
  0
VERTEX
  5
FBA
  8
0
 10
-119.9999999999988
 20
35.00000000000006
 30
-20.00000000000115
 70
   192
  0
VERTEX
  5
FBB
  8
0
 10
-152.4999999999989
 20
35.00000000000006
 30
-20.00000000000149
 70
   192
  0
VERTEX
  5
FBC
  8
0
 10
-152.4999999999989
 20
-34.99999999999994
 30
-20.00000000000174
 70
   192
  0
VERTEX
  5
FBD
  8
0
 10
-119.9999999999989
 20
-34.99999999999994
 30
-20.00000000000141
 70
   192
  0
VERTEX
  5
FBE
  8
0
 10
-119.9999999999989
 20
-142.4999999999999
 30
-20.00000000000177
 70
   192
  0
VERTEX
  5
FBF
  8
0
 10
-191.0000000000066
 20
-0.000000000000002
 30
-20.00000000000201
 70
   192
  0
VERTEX
  5
FC0
  8
0
 10
-185.7279220613639
 20
-12.72792206135913
 30
-20.000000000002
 70
   192
  0
VERTEX
  5
FC1
  8
0
 10
-173.0000000000048
 20
-18.00000000000179
 30
-20.00000000000189
 70
   192
  0
VERTEX
  5
FC2
  8
0
 10
-160.2720779386457
 20
-12.72792206135912
 30
-20.00000000000173
 70
   192
  0
VERTEX
  5
FC3
  8
0
 10
-155.000000000003
 20
0.0000000000000022
 30
-20.00000000000164
 70
   192
  0
VERTEX
  5
FC4
  8
0
 10
-160.2720779386457
 20
12.72792206135912
 30
-20.00000000000165
 70
   192
  0
VERTEX
  5
FC5
  8
0
 10
-173.0000000000048
 20
18.00000000000179
 30
-20.00000000000176
 70
   192
  0
VERTEX
  5
FC6
  8
0
 10
-185.7279220613639
 20
12.72792206135913
 30
-20.00000000000191
 70
   192
  0
VERTEX
  5
FC7
  8
0
 10
0.0
 20
0.0
 30
0.0
 70
   128
 71
     3
 72
     4
 73
    -5
  0
VERTEX
  5
FC8
  8
0
 10
0.0
 20
0.0
 30
0.0
 70
   128
 71
     2
 72
    -3
 73
    -5
  0
VERTEX
  5
FC9
  8
0
 10
0.0
 20
0.0
 30
0.0
 70
   128
 71
    -1
 72
     9
 73
   -10
  0
VERTEX
  5
FCA
  8
0
 10
0.0
 20
0.0
 30
0.0
 70
   128
 71
   -11
 72
    -6
 73
    -1
  0
VERTEX
  5
FCB
  8
0
 10
0.0
 20
0.0
 30
0.0
 70
   128
 71
    10
 72
   -11
 73
    -1
  0
VERTEX
  5
FCC
  8
0
 10
0.0
 20
0.0
 30
0.0
 70
   128
 71
    11
 72
   -12
 73
    -6
  0
VERTEX
  5
FCD
  8
0
 10
0.0
 20
0.0
 30
0.0
 70
   128
 71
    12
 72
   -13
 73
    -6
  0
VERTEX
  5
FCE
  8
0
 10
0.0
 20
0.0
 30
0.0
 70
   128
 71
     5
 72
    -6
 73
   -13
  0
VERTEX
  5
FCF
  8
0
 10
0.0
 20
0.0
 30
0.0
 70
   128
 71
    13
 72
   -14
 73
    -5
  0
VERTEX
  5
FD0
  8
0
 10
0.0
 20
0.0
 30
0.0
 70
   128
 71
    14
 72
   -15
 73
    -5
  0
VERTEX
  5
FD1
  8
0
 10
0.0
 20
0.0
 30
0.0
 70
   128
 71
   -16
 72
    -2
 73
    -5
  0
VERTEX
  5
FD2
  8
0
 10
0.0
 20
0.0
 30
0.0
 70
   128
 71
    15
 72
   -16
 73
    -5
  0
VERTEX
  5
FD3
  8
0
 10
0.0
 20
0.0
 30
0.0
 70
   128
 71
    16
 72
    -9
 73
    -2
  0
VERTEX
  5
FD4
  8
0
 10
0.0
 20
0.0
 30
0.0
 70
   128
 71
    -9
 72
     1
 73
    -2
  0
VERTEX
  5
FD5
  8
0
 10
0.0
 20
0.0
 30
0.0
 70
   128
 71
     7
 72
     8
 73
    -1
  0
VERTEX
  5
FD6
  8
0
 10
0.0
 20
0.0
 30
0.0
 70
   128
 71
     6
 72
    -7
 73
    -1
  0
SEQEND
  5
1341
  8
0
  0
POLYLINE
  5
FD7
  8
0
 66
     1
 10
0.0
 20
0.0
 30
0.0
 70
    64
 71
    10
 72
     8
  0
VERTEX
  5
FD8
  8
0
 10
-155.000000000003
 20
-0.000000000000002
 30
-20.00000000000164
 70
   192
  0
VERTEX
  5
FD9
  8
0
 10
-191.0000000000066
 20
0.0000000000000022
 30
-20.00000000000202
 70
   192
  0
VERTEX
  5
FDA
  8
0
 10
-191.0000000000066
 20
0.0000000000000022
 30
-5.0
 70
   192
  0
VERTEX
  5
FDB
  8
0
 10
-155.000000000003
 20
0.0
 30
-5.0
 70
   192
  0
VERTEX
  5
FDC
  8
0
 10
-173.0000000000048
 20
18.00000000000179
 30
-5.000000000000004
 70
   192
  0
VERTEX
  5
FDD
  8
0
 10
-173.0000000000048
 20
18.00000000000179
 30
-20.00000000000176
 70
   192
  0
VERTEX
  5
FDE
  8
0
 10
-160.2720779386457
 20
12.72792206135912
 30
-5.000000000000004
 70
   192
  0
VERTEX
  5
FDF
  8
0
 10
-160.2720779386457
 20
12.72792206135912
 30
-20.00000000000165
 70
   192
  0
VERTEX
  5
FE0
  8
0
 10
-185.7279220613639
 20
12.72792206135913
 30
-5.000000000000004
 70
   192
  0
VERTEX
  5
FE1
  8
0
 10
-185.7279220613639
 20
12.72792206135913
 30
-20.00000000000191
 70
   192
  0
VERTEX
  5
FE2
  8
0
 10
0.0
 20
0.0
 30
0.0
 70
   128
 71
     8
 72
     1
 73
    -4
  0
VERTEX
  5
FE3
  8
0
 10
0.0
 20
0.0
 30
0.0
 70
   128
 71
     7
 72
    -8
 73
     4
  0
VERTEX
  5
FE4
  8
0
 10
0.0
 20
0.0
 30
0.0
 70
   128
 71
     6
 72
     8
 73
    -7
  0
VERTEX
  5
FE5
  8
0
 10
0.0
 20
0.0
 30
0.0
 70
   128
 71
     5
 72
    -6
 73
     7
  0
VERTEX
  5
FE6
  8
0
 10
0.0
 20
0.0
 30
0.0
 70
   128
 71
    10
 72
     6
 73
    -5
  0
VERTEX
  5
FE7
  8
0
 10
0.0
 20
0.0
 30
0.0
 70
   128
 71
     9
 72
   -10
 73
     5
  0
VERTEX
  5
FE8
  8
0
 10
0.0
 20
0.0
 30
0.0
 70
   128
 71
     3
 72
     2
 73
   -10
  0
VERTEX
  5
FE9
  8
0
 10
0.0
 20
0.0
 30
0.0
 70
   128
 71
     9
 72
    -3
 73
    10
  0
SEQEND
  5
1342
  8
0
  0
POLYLINE
  5
FEA
  8
0
 66
     1
 10
0.0
 20
0.0
 30
0.0
 70
    64
 71
    10
 72
     8
  0
VERTEX
  5
FEB
  8
0
 10
-11.00000000000294
 20
0.0
 30
-165.0
 70
   192
  0
VERTEX
  5
FEC
  8
0
 10
-59.00000000000656
 20
0.0000000000000029
 30
-165.0
 70
   192
  0
VERTEX
  5
FED
  8
0
 10
-59.00000000000656
 20
0.0000000000000029
 30
-124.7652316125781
 70
   192
  0
VERTEX
  5
FEE
  8
0
 10
-11.00000000000294
 20
0.0
 30
-124.7652316125781
 70
   192
  0
VERTEX
  5
FEF
  8
0
 10
-35.00000000000473
 20
23.99999999999999
 30
-124.7652316125781
 70
   192
  0
VERTEX
  5
FF0
  8
0
 10
-35.00000000000475
 20
24.00000000000182
 30
-165.0
 70
   192
  0
VERTEX
  5
FF1
  8
0
 10
-18.02943725152759
 20
16.97056274847714
 30
-124.7652316125781
 70
   192
  0
VERTEX
  5
FF2
  8
0
 10
-18.02943725152632
 20
16.97056274847842
 30
-165.0
 70
   192
  0
VERTEX
  5
FF3
  8
0
 10
-51.97056274848186
 20
16.97056274847714
 30
-124.7652316125781
 70
   192
  0
VERTEX
  5
FF4
  8
0
 10
-51.97056274848317
 20
16.97056274847842
 30
-165.0
 70
   192
  0
VERTEX
  5
FF5
  8
0
 10
0.0
 20
0.0
 30
0.0
 70
   128
 71
     8
 72
     1
 73
    -4
  0
VERTEX
  5
FF6
  8
0
 10
0.0
 20
0.0
 30
0.0
 70
   128
 71
     7
 72
    -8
 73
     4
  0
VERTEX
  5
FF7
  8
0
 10
0.0
 20
0.0
 30
0.0
 70
   128
 71
     6
 72
     8
 73
    -7
  0
VERTEX
  5
FF8
  8
0
 10
0.0
 20
0.0
 30
0.0
 70
   128
 71
     5
 72
    -6
 73
     7
  0
VERTEX
  5
FF9
  8
0
 10
0.0
 20
0.0
 30
0.0
 70
   128
 71
    10
 72
     6
 73
    -5
  0
VERTEX
  5
FFA
  8
0
 10
0.0
 20
0.0
 30
0.0
 70
   128
 71
     9
 72
   -10
 73
     5
  0
VERTEX
  5
FFB
  8
0
 10
0.0
 20
0.0
 30
0.0
 70
   128
 71
     3
 72
     2
 73
   -10
  0
VERTEX
  5
FFC
  8
0
 10
0.0
 20
0.0
 30
0.0
 70
   128
 71
     9
 72
    -3
 73
    10
  0
SEQEND
  5
1343
  8
0
  0
POLYLINE
  5
FFD
  8
0
 66
     1
 10
0.0
 20
0.0
 30
0.0
 70
    64
 71
     8
 72
     6
  0
VERTEX
  5
FFE
  8
0
 10
-131.6840349800115
 20
35.00000000000053
 30
-153.6156695581337
 70
   192
  0
VERTEX
  5
FFF
  8
0
 10
-131.6840349800117
 20
-34.99999999999947
 30
-153.6156695581345
 70
   192
  0
VERTEX
  5
1000
  8
0
 10
-142.7210873477603
 20
-34.99999999999949
 30
-149.5393330634317
 70
   192
  0
VERTEX
  5
1001
  8
0
 10
-142.7210873477599
 20
35.00000000000051
 30
-149.539333063431
 70
   192
  0
VERTEX
  5
1002
  8
0
 10
-119.9999999999974
 20
35.00000000000053
 30
-154.999999999998
 70
   192
  0
VERTEX
  5
1003
  8
0
 10
-119.9999999999992
 20
-34.99999999999945
 30
-154.9999999999989
 70
   192
  0
VERTEX
  5
1004
  8
0
 10
-152.499999999998
 20
-34.99999999999951
 30
-142.9967103839266
 70
   192
  0
VERTEX
  5
1005
  8
0
 10
-152.4999999999974
 20
35.00000000000049
 30
-142.9967103839258
 70
   192
  0
VERTEX
  5
1006
  8
0
 10
0.0
 20
0.0
 30
0.0
 70
   128
 71
     1
 72
     2
 73
    -3
  0
VERTEX
  5
1007
  8
0
 10
0.0
 20
0.0
 30
0.0
 70
   128
 71
    -1
 72
     3
 73
     4
  0
VERTEX
  5
1008
  8
0
 10
0.0
 20
0.0
 30
0.0
 70
   128
 71
     5
 72
     6
 73
    -2
  0
VERTEX
  5
1009
  8
0
 10
0.0
 20
0.0
 30
0.0
 70
   128
 71
    -5
 72
     2
 73
     1
  0
VERTEX
  5
100A
  8
0
 10
0.0
 20
0.0
 30
0.0
 70
   128
 71
     4
 72
     3
 73
    -7
  0
VERTEX
  5
100B
  8
0
 10
0.0
 20
0.0
 30
0.0
 70
   128
 71
    -4
 72
     7
 73
     8
  0
SEQEND
  5
1344
  8
0
  0
POLYLINE
  5
100C
  8
0
 66
     1
 10
0.0
 20
0.0
 30
0.0
 70
    64
 71
    10
 72
     8
  0
VERTEX
  5
100D
  8
0
 10
163.4999999999963
 20
-373.5000000000021
 30
-84.01883030975443
 70
   192
  0
VERTEX
  5
100E
  8
0
 10
163.4718525214959
 20
-374.2497714914989
 30
-84.02072453632249
 70
   192
  0
VERTEX
  5
100F
  8
0
 10
163.3874100859948
 20
-374.996369537013
 30
-84.02640721602658
 70
   192
  0
VERTEX
  5
1010
  8
0
 10
163.2473859977532
 20
-375.7334874547977
 30
-84.03583034599212
 70
   192
  0
VERTEX
  5
1011
  8
0
 10
78.49999999999318
 20
-374.8301890291984
 30
-89.7390321488183
 70
   192
  0
VERTEX
  5
1012
  8
0
 10
78.49999999999845
 20
374.8301890291982
 30
-89.73903214881044
 70
   192
  0
VERTEX
  5
1013
  8
0
 10
163.2473859977531
 20
375.7334874547955
 30
-84.03583034598464
 70
   192
  0
VERTEX
  5
1014
  8
0
 10
163.3874100859947
 20
374.9963695370101
 30
-84.02640721601908
 70
   192
  0
VERTEX
  5
1015
  8
0
 10
163.4718525214959
 20
374.2497714914953
 30
-84.02072453631497
 70
   192
  0
VERTEX
  5
1016
  8
0
 10
163.4999999999964
 20
373.4999999999979
 30
-84.01883030974696
 70
   192
  0
VERTEX
  5
1017
  8
0
 10
0.0
 20
0.0
 30
0.0
 70
   128
 71
     6
 72
     7
 73
    -8
  0
VERTEX
  5
1018
  8
0
 10
0.0
 20
0.0
 30
0.0
 70
   128
 71
     8
 72
    -9
 73
    -6
  0
VERTEX
  5
1019
  8
0
 10
0.0
 20
0.0
 30
0.0
 70
   128
 71
     9
 72
   -10
 73
    -6
  0
VERTEX
  5
101A
  8
0
 10
0.0
 20
0.0
 30
0.0
 70
   128
 71
    -1
 72
     5
 73
    -6
  0
VERTEX
  5
101B
  8
0
 10
0.0
 20
0.0
 30
0.0
 70
   128
 71
    10
 72
    -1
 73
    -6
  0
VERTEX
  5
101C
  8
0
 10
0.0
 20
0.0
 30
0.0
 70
   128
 71
     1
 72
     2
 73
    -3
  0
VERTEX
  5
101D
  8
0
 10
0.0
 20
0.0
 30
0.0
 70
   128
 71
     4
 72
    -5
 73
    -1
  0
VERTEX
  5
101E
  8
0
 10
0.0
 20
0.0
 30
0.0
 70
   128
 71
     3
 72
    -4
 73
    -1
  0
SEQEND
  5
1345
  8
0
  0
POLYLINE
  5
101F
  8
0
 66
     1
 10
0.0
 20
0.0
 30
0.0
 70
    64
 71
     8
 72
     6
  0
VERTEX
  5
1020
  8
0
 10
-230.000000000001
 20
-142.4999999999982
 30
-50.00000000000146
 70
   192
  0
VERTEX
  5
1021
  8
0
 10
-230.0000000000008
 20
-135.4999999999982
 30
-60.0000000000015
 70
   192
  0
VERTEX
  5
1022
  8
0
 10
-230.0000000000007
 20
-114.4999999999976
 30
-60.00000000000156
 70
   192
  0
VERTEX
  5
1023
  8
0
 10
-230.0000000000006
 20
-107.4999999999974
 30
-50.00000000000153
 70
   192
  0
VERTEX
  5
1024
  8
0
 10
-205.0000000000014
 20
-107.4999999999976
 30
-50.00000000000126
 70
   192
  0
VERTEX
  5
1025
  8
0
 10
-205.0000000000013
 20
-114.4999999999978
 30
-60.00000000000123
 70
   192
  0
VERTEX
  5
1026
  8
0
 10
-205.0000000000016
 20
-135.4999999999982
 30
-60.00000000000134
 70
   192
  0
VERTEX
  5
1027
  8
0
 10
-205.0000000000018
 20
-142.4999999999985
 30
-50.00000000000131
 70
   192
  0
VERTEX
  5
1028
  8
0
 10
0.0
 20
0.0
 30
0.0
 70
   128
 71
     6
 72
     5
 73
    -4
  0
VERTEX
  5
1029
  8
0
 10
0.0
 20
0.0
 30
0.0
 70
   128
 71
    -6
 72
     4
 73
     3
  0
VERTEX
  5
102A
  8
0
 10
0.0
 20
0.0
 30
0.0
 70
   128
 71
     3
 72
     2
 73
    -7
  0
VERTEX
  5
102B
  8
0
 10
0.0
 20
0.0
 30
0.0
 70
   128
 71
    -3
 72
     7
 73
     6
  0
VERTEX
  5
102C
  8
0
 10
0.0
 20
0.0
 30
0.0
 70
   128
 71
     2
 72
     1
 73
    -8
  0
VERTEX
  5
102D
  8
0
 10
0.0
 20
0.0
 30
0.0
 70
   128
 71
    -2
 72
     8
 73
     7
  0
SEQEND
  5
1346
  8
0
  0
POLYLINE
  5
102E
  8
0
 66
     1
 10
0.0
 20
0.0
 30
0.0
 70
    64
 71
     8
 72
     6
  0
VERTEX
  5
102F
  8
0
 10
-229.999999999998
 20
142.5000000000022
 30
-50.00000000000143
 70
   192
  0
VERTEX
  5
1030
  8
0
 10
-229.9999999999982
 20
135.5000000000021
 30
-40.00000000000149
 70
   192
  0
VERTEX
  5
1031
  8
0
 10
-229.9999999999984
 20
114.5000000000022
 30
-40.00000000000156
 70
   192
  0
VERTEX
  5
1032
  8
0
 10
-229.9999999999984
 20
107.5000000000022
 30
-50.00000000000156
 70
   192
  0
VERTEX
  5
1033
  8
0
 10
-204.9999999999991
 20
107.5000000000019
 30
-50.00000000000129
 70
   192
  0
VERTEX
  5
1034
  8
0
 10
-204.9999999999991
 20
114.5000000000019
 30
-40.00000000000127
 70
   192
  0
VERTEX
  5
1035
  8
0
 10
-204.9999999999989
 20
135.500000000002
 30
-40.00000000000135
 70
   192
  0
VERTEX
  5
1036
  8
0
 10
-204.9999999999988
 20
142.5000000000019
 30
-50.00000000000129
 70
   192
  0
VERTEX
  5
1037
  8
0
 10
0.0
 20
0.0
 30
0.0
 70
   128
 71
     6
 72
     5
 73
    -4
  0
VERTEX
  5
1038
  8
0
 10
0.0
 20
0.0
 30
0.0
 70
   128
 71
    -6
 72
     4
 73
     3
  0
VERTEX
  5
1039
  8
0
 10
0.0
 20
0.0
 30
0.0
 70
   128
 71
     3
 72
     2
 73
    -7
  0
VERTEX
  5
103A
  8
0
 10
0.0
 20
0.0
 30
0.0
 70
   128
 71
    -3
 72
     7
 73
     6
  0
VERTEX
  5
103B
  8
0
 10
0.0
 20
0.0
 30
0.0
 70
   128
 71
     2
 72
     1
 73
    -8
  0
VERTEX
  5
103C
  8
0
 10
0.0
 20
0.0
 30
0.0
 70
   128
 71
    -2
 72
     8
 73
     7
  0
SEQEND
  5
1347
  8
0
  0
POLYLINE
  5
103D
  8
0
 66
     1
 10
0.0
 20
0.0
 30
0.0
 70
    64
 71
    12
 72
    10
  0
VERTEX
  5
103E
  8
0
 10
-11.00000000000473
 20
-0.0000000000000027
 30
-124.7652316125781
 70
   192
  0
VERTEX
  5
103F
  8
0
 10
-3.093292638582196
 20
0.0
 30
-111.0704127420127
 70
   192
  0
VERTEX
  5
1040
  8
0
 10
-6.234192916550469
 20
12.793756231415
 30
-111.8050670809221
 70
   192
  0
VERTEX
  5
1041
  8
0
 10
-18.02943725152759
 20
16.97056274847714
 30
-124.7652316125781
 70
   192
  0
VERTEX
  5
1042
  8
0
 10
-26.50136037689228
 20
28.53479607603251
 30
-114.7652316125778
 70
   192
  0
VERTEX
  5
1043
  8
0
 10
-35.00000000000473
 20
23.99999999999999
 30
-124.7652316125781
 70
   192
  0
VERTEX
  5
1044
  8
0
 10
-14.66333261183431
 20
22.80926854670277
 30
-113.4052075207332
 70
   192
  0
VERTEX
  5
1045
  8
0
 10
-64.77350269190002
 20
0.0000000000000036
 30
-114.7652316125777
 70
   192
  0
VERTEX
  5
1046
  8
0
 10
-59.00000000000472
 20
0.0000000000000029
 30
-124.7652316125781
 70
   192
  0
VERTEX
  5
1047
  8
0
 10
-51.97056274848186
 20
16.97056274847714
 30
-124.7652316125781
 70
   192
  0
VERTEX
  5
1048
  8
0
 10
-59.23048413059524
 20
17.30159245102888
 30
-114.7652316125777
 70
   192
  0
VERTEX
  5
1049
  8
0
 10
-44.66534783761853
 20
28.16101052381169
 30
-114.7652316125777
 70
   192
  0
VERTEX
  5
104A
  8
0
 10
0.0
 20
0.0
 30
0.0
 70
   128
 71
     1
 72
     2
 73
     3
  0
VERTEX
  5
104B
  8
0
 10
0.0
 20
0.0
 30
0.0
 70
   128
 71
     4
 72
     1
 73
     3
  0
VERTEX
  5
104C
  8
0
 10
0.0
 20
0.0
 30
0.0
 70
   128
 71
     5
 72
     6
 73
     4
  0
VERTEX
  5
104D
  8
0
 10
0.0
 20
0.0
 30
0.0
 70
   128
 71
     7
 72
     5
 73
     4
  0
VERTEX
  5
104E
  8
0
 10
0.0
 20
0.0
 30
0.0
 70
   128
 71
     8
 72
     9
 73
    10
  0
VERTEX
  5
104F
  8
0
 10
0.0
 20
0.0
 30
0.0
 70
   128
 71
    11
 72
     8
 73
    10
  0
VERTEX
  5
1050
  8
0
 10
0.0
 20
0.0
 30
0.0
 70
   128
 71
     7
 72
     4
 73
     3
  0
VERTEX
  5
1051
  8
0
 10
0.0
 20
0.0
 30
0.0
 70
   128
 71
    12
 72
     6
 73
     5
  0
VERTEX
  5
1052
  8
0
 10
0.0
 20
0.0
 30
0.0
 70
   128
 71
    10
 72
     6
 73
    12
  0
VERTEX
  5
1053
  8
0
 10
0.0
 20
0.0
 30
0.0
 70
   128
 71
    11
 72
    10
 73
    12
  0
SEQEND
  5
1348
  8
0
  0
POLYLINE
  5
1054
  8
0
 66
     1
 10
0.0
 20
0.0
 30
0.0
 70
    64
 71
    15
 72
    13
  0
VERTEX
  5
1055
  8
0
 10
25.21776785630853
 20
113.1374559234302
 30
-135.4527630831815
 70
   192
  0
VERTEX
  5
1056
  8
0
 10
25.21776785630695
 20
-113.1374559234106
 30
-135.4527630831838
 70
   192
  0
VERTEX
  5
1057
  8
0
 10
-114.2196994914565
 20
-113.1374559233667
 30
-135.4527630831906
 70
   192
  0
VERTEX
  5
1058
  8
0
 10
-55.07517527229439
 20
-28.67032155011667
 30
-135.452763083183
 70
   192
  0
VERTEX
  5
1059
  8
0
 10
-48.86279181137733
 20
-32.13756374081215
 30
-135.452763083183
 70
   192
  0
VERTEX
  5
105A
  8
0
 10
-42.07761503162713
 20
-34.27692176179723
 30
-135.452763083183
 70
   192
  0
VERTEX
  5
105B
  8
0
 10
-35.00000000000472
 20
-35.00000000000306
 30
-135.452763083183
 70
   192
  0
VERTEX
  5
105C
  8
0
 10
-10.25126265847222
 20
-24.74873734153084
 30
-135.4527630831829
 70
   192
  0
VERTEX
  5
105D
  8
0
 10
0.0
 20
0.0000000000016632
 30
-135.4527630831827
 70
   192
  0
VERTEX
  5
105E
  8
0
 10
-10.25126265847222
 20
24.74873734153416
 30
-135.4527630831824
 70
   192
  0
VERTEX
  5
105F
  8
0
 10
-35.00000000000473
 20
35.00000000000638
 30
-135.4527630831823
 70
   192
  0
VERTEX
  5
1060
  8
0
 10
-42.077615031627
 20
34.27692176180059
 30
-135.4527630831823
 70
   192
  0
VERTEX
  5
1061
  8
0
 10
-48.86279181137703
 20
32.13756374081561
 30
-135.4527630831823
 70
   192
  0
VERTEX
  5
1062
  8
0
 10
-55.07517527229398
 20
28.67032155012028
 30
-135.4527630831824
 70
   192
  0
VERTEX
  5
1063
  8
0
 10
-114.2196994914676
 20
113.1374559234442
 30
-135.4527630831815
 70
   192
  0
VERTEX
  5
1064
  8
0
 10
0.0
 20
0.0
 30
0.0
 70
   128
 71
     3
 72
     4
 73
    -5
  0
VERTEX
  5
1065
  8
0
 10
0.0
 20
0.0
 30
0.0
 70
   128
 71
     5
 72
    -6
 73
    -3
  0
VERTEX
  5
1066
  8
0
 10
0.0
 20
0.0
 30
0.0
 70
   128
 71
     6
 72
    -7
 73
    -3
  0
VERTEX
  5
1067
  8
0
 10
0.0
 20
0.0
 30
0.0
 70
   128
 71
    -8
 72
     2
 73
    -3
  0
VERTEX
  5
1068
  8
0
 10
0.0
 20
0.0
 30
0.0
 70
   128
 71
     7
 72
    -8
 73
    -3
  0
VERTEX
  5
1069
  8
0
 10
0.0
 20
0.0
 30
0.0
 70
   128
 71
     8
 72
    -9
 73
    -2
  0
VERTEX
  5
106A
  8
0
 10
0.0
 20
0.0
 30
0.0
 70
   128
 71
     1
 72
    -2
 73
    -9
  0
VERTEX
  5
106B
  8
0
 10
0.0
 20
0.0
 30
0.0
 70
   128
 71
     9
 72
   -10
 73
    -1
  0
VERTEX
  5
106C
  8
0
 10
0.0
 20
0.0
 30
0.0
 70
   128
 71
    10
 72
   -11
 73
    -1
  0
VERTEX
  5
106D
  8
0
 10
0.0
 20
0.0
 30
0.0
 70
   128
 71
    11
 72
   -12
 73
    -1
  0
VERTEX
  5
106E
  8
0
 10
0.0
 20
0.0
 30
0.0
 70
   128
 71
   -13
 72
    15
 73
    -1
  0
VERTEX
  5
106F
  8
0
 10
0.0
 20
0.0
 30
0.0
 70
   128
 71
    12
 72
   -13
 73
    -1
  0
VERTEX
  5
1070
  8
0
 10
0.0
 20
0.0
 30
0.0
 70
   128
 71
    13
 72
    14
 73
   -15
  0
SEQEND
  5
1349
  8
0
  0
POLYLINE
  5
1071
  8
0
 66
     1
 10
0.0
 20
0.0
 30
0.0
 70
    64
 71
     9
 72
     7
  0
VERTEX
  5
1072
  8
0
 10
-42.07761503162632
 20
-34.27692176179642
 30
-164.9999999999989
 70
   192
  0
VERTEX
  5
1073
  8
0
 10
-42.07761503162713
 20
-34.27692176179723
 30
-135.452763083183
 70
   192
  0
VERTEX
  5
1074
  8
0
 10
-48.86279181137733
 20
-32.13756374081215
 30
-135.452763083183
 70
   192
  0
VERTEX
  5
1075
  8
0
 10
-48.8627918113758
 20
-32.13756374081179
 30
-164.9999999999989
 70
   192
  0
VERTEX
  5
1076
  8
0
 10
-35.00000000000472
 20
-35.00000000000208
 30
-164.9999999999989
 70
   192
  0
VERTEX
  5
1077
  8
0
 10
-35.00000000000472
 20
-35.00000000000273
 30
-135.452763083183
 70
   192
  0
VERTEX
  5
1078
  8
0
 10
-55.07517527229432
 20
-28.67032155011654
 30
-140.0000000000003
 70
   192
  0
VERTEX
  5
1079
  8
0
 10
-55.075175272294
 20
-28.67032155011582
 30
-165.0000000000007
 70
   192
  0
VERTEX
  5
107A
  8
0
 10
-55.07517527229437
 20
-28.67032155011668
 30
-135.452763083183
 70
   192
  0
VERTEX
  5
107B
  8
0
 10
0.0
 20
0.0
 30
0.0
 70
   128
 71
     1
 72
     2
 73
    -3
  0
VERTEX
  5
107C
  8
0
 10
0.0
 20
0.0
 30
0.0
 70
   128
 71
    -1
 72
     3
 73
     4
  0
VERTEX
  5
107D
  8
0
 10
0.0
 20
0.0
 30
0.0
 70
   128
 71
     5
 72
     6
 73
    -2
  0
VERTEX
  5
107E
  8
0
 10
0.0
 20
0.0
 30
0.0
 70
   128
 71
    -5
 72
     2
 73
     1
  0
VERTEX
  5
107F
  8
0
 10
0.0
 20
0.0
 30
0.0
 70
   128
 71
    -4
 72
     7
 73
     8
  0
VERTEX
  5
1080
  8
0
 10
0.0
 20
0.0
 30
0.0
 70
   128
 71
     4
 72
     3
 73
    -9
  0
VERTEX
  5
1081
  8
0
 10
0.0
 20
0.0
 30
0.0
 70
   128
 71
    -4
 72
     9
 73
    -7
  0
SEQEND
  5
134A
  8
0
  0
POLYLINE
  5
1082
  8
0
 66
     1
 10
0.0
 20
0.0
 30
0.0
 70
    64
 71
     6
 72
     4
  0
VERTEX
  5
1083
  8
0
 10
-114.2196994914564
 20
-113.1374559234215
 30
-135.4527630831839
 70
   192
  0
VERTEX
  5
1084
  8
0
 10
-55.07517527229438
 20
-28.67032155011667
 30
-135.452763083183
 70
   192
  0
VERTEX
  5
1085
  8
0
 10
-55.07517527229287
 20
-28.67032155011756
 30
-140.0000000000003
 70
   192
  0
VERTEX
  5
1086
  8
0
 10
-62.59390086438951
 20
-39.40817451771137
 30
-140.0000000000005
 70
   192
  0
VERTEX
  5
1087
  8
0
 10
-79.83883434034885
 20
-64.03649188780003
 30
-139.4943252304551
 70
   192
  0
VERTEX
  5
1088
  8
0
 10
-97.06195090600913
 20
-88.63365148093331
 30
-137.9773009218192
 70
   192
  0
VERTEX
  5
1089
  8
0
 10
0.0
 20
0.0
 30
0.0
 70
   128
 71
     4
 72
     3
 73
    -2
  0
VERTEX
  5
108A
  8
0
 10
0.0
 20
0.0
 30
0.0
 70
   128
 71
    -2
 72
     5
 73
    -4
  0
VERTEX
  5
108B
  8
0
 10
0.0
 20
0.0
 30
0.0
 70
   128
 71
    -2
 72
     6
 73
    -5
  0
VERTEX
  5
108C
  8
0
 10
0.0
 20
0.0
 30
0.0
 70
   128
 71
     2
 72
     1
 73
    -6
  0
SEQEND
  5
134B
  8
0
  0
POLYLINE
  5
108D
  8
0
 66
     1
 10
0.0
 20
0.0
 30
0.0
 70
    64
 71
     8
 72
     6
  0
VERTEX
  5
108E
  8
0
 10
-70.00000000000088
 20
-30.12537886977157
 30
-165.0000000000009
 70
   192
  0
VERTEX
  5
108F
  8
0
 10
-55.07517527229361
 20
-28.67032155011889
 30
-165.0000000000007
 70
   192
  0
VERTEX
  5
1090
  8
0
 10
-55.07517527229432
 20
-28.67032155011654
 30
-140.0000000000003
 70
   192
  0
VERTEX
  5
1091
  8
0
 10
-119.9999999999976
 20
-34.99999999999951
 30
-140.0000000000011
 70
   192
  0
VERTEX
  5
1092
  8
0
 10
-119.9999999999974
 20
-34.99999999999946
 30
-154.9999999999989
 70
   192
  0
VERTEX
  5
1093
  8
0
 10
-80.00000000000087
 20
-31.10030309581723
 30
-154.9999999999989
 70
   192
  0
VERTEX
  5
1094
  8
0
 10
-75.1095832358924
 20
-30.62352451793832
 30
-156.2773958089717
 70
   192
  0
VERTEX
  5
1095
  8
0
 10
-71.27739580897398
 20
-30.24991528181329
 30
-160.1095832358906
 70
   192
  0
VERTEX
  5
1096
  8
0
 10
0.0
 20
0.0
 30
0.0
 70
   128
 71
     4
 72
     5
 73
    -6
  0
VERTEX
  5
1097
  8
0
 10
0.0
 20
0.0
 30
0.0
 70
   128
 71
     3
 72
    -4
 73
    -6
  0
VERTEX
  5
1098
  8
0
 10
0.0
 20
0.0
 30
0.0
 70
   128
 71
     6
 72
    -7
 73
    -3
  0
VERTEX
  5
1099
  8
0
 10
0.0
 20
0.0
 30
0.0
 70
   128
 71
    -8
 72
     2
 73
    -3
  0
VERTEX
  5
109A
  8
0
 10
0.0
 20
0.0
 30
0.0
 70
   128
 71
     7
 72
    -8
 73
    -3
  0
VERTEX
  5
109B
  8
0
 10
0.0
 20
0.0
 30
0.0
 70
   128
 71
     8
 72
     1
 73
    -2
  0
SEQEND
  5
134C
  8
0
  0
POLYLINE
  5
109C
  8
0
 66
     1
 10
0.0
 20
0.0
 30
0.0
 70
    64
 71
     4
 72
     2
  0
VERTEX
  5
109D
  8
0
 10
-55.07517527229408
 20
-28.670321550119
 30
-140.0000000000003
 70
   192
  0
VERTEX
  5
109E
  8
0
 10
-119.9999999999976
 20
-34.99999999999951
 30
-140.0000000000011
 70
   192
  0
VERTEX
  5
109F
  8
0
 10
-119.9999999999976
 20
-39.40817451771047
 30
-140.0000000000008
 70
   192
  0
VERTEX
  5
10A0
  8
0
 10
-62.59390086438951
 20
-39.40817451771137
 30
-140.0000000000005
 70
   192
  0
VERTEX
  5
10A1
  8
0
 10
0.0
 20
0.0
 30
0.0
 70
   128
 71
     1
 72
     4
 73
    -3
  0
VERTEX
  5
10A2
  8
0
 10
0.0
 20
0.0
 30
0.0
 70
   128
 71
    -1
 72
     3
 73
     2
  0
SEQEND
  5
134D
  8
0
  0
POLYLINE
  5
10A3
  8
0
 66
     1
 10
0.0
 20
0.0
 30
0.0
 70
    64
 71
     8
 72
     6
  0
VERTEX
  5
10A4
  8
0
 10
-55.07517527229361
 20
28.67032155012005
 30
-165.0000000000005
 70
   192
  0
VERTEX
  5
10A5
  8
0
 10
-55.07517527229395
 20
28.67032155011997
 30
-140.0000000000001
 70
   192
  0
VERTEX
  5
10A6
  8
0
 10
-119.9999999999976
 20
35.00000000000048
 30
-140.0000000000008
 70
   192
  0
VERTEX
  5
10A7
  8
0
 10
-119.9999999999974
 20
35.00000000000055
 30
-154.9999999999981
 70
   192
  0
VERTEX
  5
10A8
  8
0
 10
-80.00000000000045
 20
31.10030309581829
 30
-154.9999999999982
 70
   192
  0
VERTEX
  5
10A9
  8
0
 10
-75.10958323589114
 20
30.62352451793929
 30
-156.2773958089714
 70
   192
  0
VERTEX
  5
10AA
  8
0
 10
-71.27739580897249
 20
30.24991528181426
 30
-160.109583235891
 70
   192
  0
VERTEX
  5
10AB
  8
0
 10
-70.00000000000045
 20
30.12537886977269
 30
-165.0000000000006
 70
   192
  0
VERTEX
  5
10AC
  8
0
 10
0.0
 20
0.0
 30
0.0
 70
   128
 71
     5
 72
     4
 73
    -3
  0
VERTEX
  5
10AD
  8
0
 10
0.0
 20
0.0
 30
0.0
 70
   128
 71
    -5
 72
     3
 73
    -2
  0
VERTEX
  5
10AE
  8
0
 10
0.0
 20
0.0
 30
0.0
 70
   128
 71
    -2
 72
     6
 73
    -5
  0
VERTEX
  5
10AF
  8
0
 10
0.0
 20
0.0
 30
0.0
 70
   128
 71
     2
 72
    -1
 73
    -7
  0
VERTEX
  5
10B0
  8
0
 10
0.0
 20
0.0
 30
0.0
 70
   128
 71
    -2
 72
     7
 73
    -6
  0
VERTEX
  5
10B1
  8
0
 10
0.0
 20
0.0
 30
0.0
 70
   128
 71
     1
 72
     8
 73
    -7
  0
SEQEND
  5
134E
  8
0
  0
POLYLINE
  5
10B2
  8
0
 66
     1
 10
0.0
 20
0.0
 30
0.0
 70
    64
 71
     4
 72
     2
  0
VERTEX
  5
10B3
  8
0
 10
-62.59390086438951
 20
39.40817451771234
 30
-140.0000000000002
 70
   192
  0
VERTEX
  5
10B4
  8
0
 10
-55.07517527229403
 20
28.67032155012017
 30
-140.0000000000001
 70
   192
  0
VERTEX
  5
10B5
  8
0
 10
-119.9999999999976
 20
35.00000000000048
 30
-140.0000000000008
 70
   192
  0
VERTEX
  5
10B6
  8
0
 10
-119.9999999999976
 20
39.40817451771235
 30
-140.0000000000008
 70
   192
  0
VERTEX
  5
10B7
  8
0
 10
0.0
 20
0.0
 30
0.0
 70
   128
 71
     3
 72
     4
 73
    -1
  0
VERTEX
  5
10B8
  8
0
 10
0.0
 20
0.0
 30
0.0
 70
   128
 71
     2
 72
    -3
 73
     1
  0
SEQEND
  5
134F
  8
0
  0
POLYLINE
  5
10B9
  8
0
 66
     1
 10
0.0
 20
0.0
 30
0.0
 70
    64
 71
     9
 72
     7
  0
VERTEX
  5
10BA
  8
0
 10
-115.8903634398152
 20
-377.0779241254603
 30
-4.999999999999986
 70
   192
  0
VERTEX
  5
10BB
  8
0
 10
-113.843556467036
 20
-377.9485609718325
 30
-8.598555549283343
 70
   192
  0
VERTEX
  5
10BC
  8
0
 10
-110.4494478184593
 20
-378.5804881135206
 30
-11.04349397644491
 70
   192
  0
VERTEX
  5
10BD
  8
0
 10
-106.3154821148664
 20
-378.8606093645481
 30
-11.8972439337486
 70
   192
  0
VERTEX
  5
10BE
  8
0
 10
-106.6623434164921
 20
-398.8706241892025
 30
-8.074195500768097
 70
   192
  0
VERTEX
  5
10BF
  8
0
 10
-106.8715323932097
 20
-419.1409354219975
 30
-5.76854887519144
 70
   192
  0
VERTEX
  5
10C0
  8
0
 10
-106.9412620521155
 20
-439.4983843100642
 30
-4.999999999999247
 70
   192
  0
VERTEX
  5
10C1
  8
0
 10
-110.7694974860248
 20
-418.8106037751987
 30
-4.99999999999989
 70
   192
  0
VERTEX
  5
10C2
  8
0
 10
-113.9599771434265
 20
-398.0190272267193
 30
-5.000000000000001
 70
   192
  0
VERTEX
  5
10C3
  8
0
 10
0.0
 20
0.0
 30
0.0
 70
   128
 71
     5
 72
     4
 73
     3
  0
VERTEX
  5
10C4
  8
0
 10
0.0
 20
0.0
 30
0.0
 70
   128
 71
     5
 72
     3
 73
     8
  0
VERTEX
  5
10C5
  8
0
 10
0.0
 20
0.0
 30
0.0
 70
   128
 71
     8
 72
     6
 73
     5
  0
VERTEX
  5
10C6
  8
0
 10
0.0
 20
0.0
 30
0.0
 70
   128
 71
     8
 72
     7
 73
     6
  0
VERTEX
  5
10C7
  8
0
 10
0.0
 20
0.0
 30
0.0
 70
   128
 71
     3
 72
     2
 73
     9
  0
VERTEX
  5
10C8
  8
0
 10
0.0
 20
0.0
 30
0.0
 70
   128
 71
     3
 72
     9
 73
     8
  0
VERTEX
  5
10C9
  8
0
 10
0.0
 20
0.0
 30
0.0
 70
   128
 71
     2
 72
     1
 73
     9
  0
SEQEND
  5
1350
  8
0
  0
POLYLINE
  5
10CA
  8
0
 66
     1
 10
0.0
 20
0.0
 30
0.0
 70
    64
 71
    15
 72
    13
  0
VERTEX
  5
10CB
  8
0
 10
-115.8903634398152
 20
-377.0779241254602
 30
-5.0
 70
   192
  0
VERTEX
  5
10CC
  8
0
 10
-116.0007447100303
 20
-374.5263989723894
 30
-5.0
 70
   192
  0
VERTEX
  5
10CD
  8
0
 10
-116.076460401435
 20
-371.97371138532
 30
-5.0
 70
   192
  0
VERTEX
  5
10CE
  8
0
 10
-116.1045737922898
 20
-369.4194275597205
 30
-5.0
 70
   192
  0
VERTEX
  5
10CF
  8
0
 10
-115.6913361047948
 20
-357.601076985824
 30
-9.723328381539806
 70
   192
  0
VERTEX
  5
10D0
  8
0
 10
-115.1332323278593
 20
-346.5137989959393
 30
-16.10248374228098
 70
   192
  0
VERTEX
  5
10D1
  8
0
 10
-114.4470250324431
 20
-336.4905984750651
 30
-23.94586901942523
 70
   192
  0
VERTEX
  5
10D2
  8
0
 10
-112.9071527931612
 20
-339.723396207432
 30
-27.3891320827579
 70
   192
  0
VERTEX
  5
10D3
  8
0
 10
-109.2888600442841
 20
-342.1583960911159
 30
-29.76757303533618
 70
   192
  0
VERTEX
  5
10D4
  8
0
 10
-104.4850780515257
 20
-343.1946828107859
 30
-30.49423431523512
 70
   192
  0
VERTEX
  5
10D5
  8
0
 10
-105.2897460547742
 20
-353.9432746571056
 30
-22.31876999213332
 70
   192
  0
VERTEX
  5
10D6
  8
0
 10
-105.9087156209748
 20
-366.0040668773945
 30
-16.03001042280812
 70
   192
  0
VERTEX
  5
10D7
  8
0
 10
-106.3154821148664
 20
-378.8606093645481
 30
-11.8972439337486
 70
   192
  0
VERTEX
  5
10D8
  8
0
 10
-110.4494478184593
 20
-378.5804881135206
 30
-11.04349397644491
 70
   192
  0
VERTEX
  5
10D9
  8
0
 10
-113.843556467036
 20
-377.9485609718325
 30
-8.598555549283343
 70
   192
  0
VERTEX
  5
10DA
  8
0
 10
0.0
 20
0.0
 30
0.0
 70
   128
 71
    11
 72
    10
 73
     9
  0
VERTEX
  5
10DB
  8
0
 10
0.0
 20
0.0
 30
0.0
 70
   128
 71
     9
 72
    14
 73
    12
  0
VERTEX
  5
10DC
  8
0
 10
0.0
 20
0.0
 30
0.0
 70
   128
 71
     9
 72
    12
 73
    11
  0
VERTEX
  5
10DD
  8
0
 10
0.0
 20
0.0
 30
0.0
 70
   128
 71
    14
 72
    13
 73
    12
  0
VERTEX
  5
10DE
  8
0
 10
0.0
 20
0.0
 30
0.0
 70
   128
 71
     9
 72
     8
 73
    15
  0
VERTEX
  5
10DF
  8
0
 10
0.0
 20
0.0
 30
0.0
 70
   128
 71
     9
 72
    15
 73
    14
  0
VERTEX
  5
10E0
  8
0
 10
0.0
 20
0.0
 30
0.0
 70
   128
 71
     2
 72
     1
 73
    15
  0
VERTEX
  5
10E1
  8
0
 10
0.0
 20
0.0
 30
0.0
 70
   128
 71
    15
 72
     8
 73
     5
  0
VERTEX
  5
10E2
  8
0
 10
0.0
 20
0.0
 30
0.0
 70
   128
 71
    15
 72
     5
 73
     3
  0
VERTEX
  5
10E3
  8
0
 10
0.0
 20
0.0
 30
0.0
 70
   128
 71
    15
 72
     3
 73
     2
  0
VERTEX
  5
10E4
  8
0
 10
0.0
 20
0.0
 30
0.0
 70
   128
 71
     5
 72
     4
 73
     3
  0
VERTEX
  5
10E5
  8
0
 10
0.0
 20
0.0
 30
0.0
 70
   128
 71
     8
 72
     6
 73
     5
  0
VERTEX
  5
10E6
  8
0
 10
0.0
 20
0.0
 30
0.0
 70
   128
 71
     8
 72
     7
 73
     6
  0
SEQEND
  5
1351
  8
0
  0
POLYLINE
  5
10E7
  8
0
 66
     1
 10
0.0
 20
0.0
 30
0.0
 70
    64
 71
    12
 72
    10
  0
VERTEX
  5
10E8
  8
0
 10
-114.4470250324431
 20
-336.4905984750651
 30
-23.94586901942523
 70
   192
  0
VERTEX
  5
10E9
  8
0
 10
-112.3760274812716
 20
-307.9019393578604
 30
-47.61747934820791
 70
   192
  0
VERTEX
  5
10EA
  8
0
 10
-110.5252047919935
 20
-277.319649045065
 30
-68.77247948979425
 70
   192
  0
VERTEX
  5
10EB
  8
0
 10
-108.9152518615887
 20
-245.085682144806
 30
-87.17432568930656
 70
   192
  0
VERTEX
  5
10EC
  8
0
 10
-107.336835364579
 20
-247.2782030318736
 30
-91.29368689322052
 70
   192
  0
VERTEX
  5
10ED
  8
0
 10
-103.7239302482082
 20
-248.9386498958298
 30
-94.20186777457087
 70
   192
  0
VERTEX
  5
10EE
  8
0
 10
-98.9533048806712
 20
-249.6640707519161
 30
-95.1931202099974
 70
   192
  0
VERTEX
  5
10EF
  8
0
 10
-100.5632578110761
 20
-282.6476647893904
 30
-76.3633240988686
 70
   192
  0
VERTEX
  5
10F0
  8
0
 10
-102.4140805003541
 20
-313.9411711559721
 30
-54.71634720980335
 70
   192
  0
VERTEX
  5
10F1
  8
0
 10
-104.4850780515257
 20
-343.1946828107859
 30
-30.49423431523513
 70
   192
  0
VERTEX
  5
10F2
  8
0
 10
-109.2888600442841
 20
-342.1583960911159
 30
-29.76757303533618
 70
   192
  0
VERTEX
  5
10F3
  8
0
 10
-112.9071527931612
 20
-339.723396207432
 30
-27.3891320827579
 70
   192
  0
VERTEX
  5
10F4
  8
0
 10
0.0
 20
0.0
 30
0.0
 70
   128
 71
     8
 72
     7
 73
     6
  0
VERTEX
  5
10F5
  8
0
 10
0.0
 20
0.0
 30
0.0
 70
   128
 71
     6
 72
    11
 73
     9
  0
VERTEX
  5
10F6
  8
0
 10
0.0
 20
0.0
 30
0.0
 70
   128
 71
     6
 72
     9
 73
     8
  0
VERTEX
  5
10F7
  8
0
 10
0.0
 20
0.0
 30
0.0
 70
   128
 71
    11
 72
    10
 73
     9
  0
VERTEX
  5
10F8
  8
0
 10
0.0
 20
0.0
 30
0.0
 70
   128
 71
     6
 72
     5
 73
    12
  0
VERTEX
  5
10F9
  8
0
 10
0.0
 20
0.0
 30
0.0
 70
   128
 71
     6
 72
    12
 73
    11
  0
VERTEX
  5
10FA
  8
0
 10
0.0
 20
0.0
 30
0.0
 70
   128
 71
     2
 72
     1
 73
    12
  0
VERTEX
  5
10FB
  8
0
 10
0.0
 20
0.0
 30
0.0
 70
   128
 71
    12
 72
     5
 73
     3
  0
VERTEX
  5
10FC
  8
0
 10
0.0
 20
0.0
 30
0.0
 70
   128
 71
    12
 72
     3
 73
     2
  0
VERTEX
  5
10FD
  8
0
 10
0.0
 20
0.0
 30
0.0
 70
   128
 71
     5
 72
     4
 73
     3
  0
SEQEND
  5
1352
  8
0
  0
POLYLINE
  5
10FE
  8
0
 66
     1
 10
0.0
 20
0.0
 30
0.0
 70
    64
 71
    13
 72
    11
  0
VERTEX
  5
10FF
  8
0
 10
-98.9533048806712
 20
-249.6640707519161
 30
-95.1931202099974
 70
   192
  0
VERTEX
  5
1100
  8
0
 10
-103.7239302482082
 20
-248.9386498958298
 30
-94.20186777457087
 70
   192
  0
VERTEX
  5
1101
  8
0
 10
-107.336835364579
 20
-247.2782030318736
 30
-91.29368689322052
 70
   192
  0
VERTEX
  5
1102
  8
0
 10
-108.9152518615887
 20
-245.085682144806
 30
-87.17432568930656
 70
   192
  0
VERTEX
  5
1103
  8
0
 10
-108.1171004933605
 20
-223.9724426429348
 30
-96.29723757367593
 70
   192
  0
VERTEX
  5
1104
  8
0
 10
-107.5737027118535
 20
-201.716859645164
 30
-102.5083026375055
 70
   192
  0
VERTEX
  5
1105
  8
0
 10
-107.2999956176355
 20
-178.9307020853117
 30
-105.6367890400543
 70
   192
  0
VERTEX
  5
1106
  8
0
 10
-105.6885619920627
 20
-179.0936154128498
 30
-110.2666039112375
 70
   192
  0
VERTEX
  5
1107
  8
0
 10
-102.0823952010312
 20
-179.2156545849401
 30
-113.5682215527673
 70
   192
  0
VERTEX
  5
1108
  8
0
 10
-97.33804863671804
 20
-179.2696487841548
 30
-114.7652316125784
 70
   192
  0
VERTEX
  5
1109
  8
0
 10
-97.3360968932896
 20
-179.2696487841548
 30
-114.7652316125784
 70
   192
  0
VERTEX
  5
110A
  8
0
 10
-97.60786401052468
 20
-203.5158942306622
 30
-111.4761949916948
 70
   192
  0
VERTEX
  5
110B
  8
0
 10
-98.15196626621848
 20
-227.1997766253644
 30
-104.8912473251449
 70
   192
  0
VERTEX
  5
110C
  8
0
 10
0.0
 20
0.0
 30
0.0
 70
   128
 71
     8
 72
     7
 73
     6
  0
VERTEX
  5
110D
  8
0
 10
0.0
 20
0.0
 30
0.0
 70
   128
 71
     6
 72
    12
 73
     9
  0
VERTEX
  5
110E
  8
0
 10
0.0
 20
0.0
 30
0.0
 70
   128
 71
     6
 72
     9
 73
     8
  0
VERTEX
  5
110F
  8
0
 10
0.0
 20
0.0
 30
0.0
 70
   128
 71
    12
 72
    10
 73
     9
  0
VERTEX
  5
1110
  8
0
 10
0.0
 20
0.0
 30
0.0
 70
   128
 71
    12
 72
    11
 73
    10
  0
VERTEX
  5
1111
  8
0
 10
0.0
 20
0.0
 30
0.0
 70
   128
 71
     6
 72
     5
 73
    13
  0
VERTEX
  5
1112
  8
0
 10
0.0
 20
0.0
 30
0.0
 70
   128
 71
     6
 72
    13
 73
    12
  0
VERTEX
  5
1113
  8
0
 10
0.0
 20
0.0
 30
0.0
 70
   128
 71
     2
 72
     1
 73
    13
  0
VERTEX
  5
1114
  8
0
 10
0.0
 20
0.0
 30
0.0
 70
   128
 71
    13
 72
     5
 73
     3
  0
VERTEX
  5
1115
  8
0
 10
0.0
 20
0.0
 30
0.0
 70
   128
 71
    13
 72
     3
 73
     2
  0
VERTEX
  5
1116
  8
0
 10
0.0
 20
0.0
 30
0.0
 70
   128
 71
     5
 72
     4
 73
     3
  0
SEQEND
  5
1353
  8
0
  0
POLYLINE
  5
1117
  8
0
 66
     1
 10
0.0
 20
0.0
 30
0.0
 70
    64
 71
     8
 72
     6
  0
VERTEX
  5
1118
  8
0
 10
-105.6885619920626
 20
179.0936154128342
 30
-110.2666039112375
 70
   192
  0
VERTEX
  5
1119
  8
0
 10
-107.2999956176355
 20
178.9307020852966
 30
-105.6367890400543
 70
   192
  0
VERTEX
  5
111A
  8
0
 10
-107.2999956176355
 20
-178.9307020853117
 30
-105.6367890400543
 70
   192
  0
VERTEX
  5
111B
  8
0
 10
-105.6885619920627
 20
-179.0936154128498
 30
-110.2666039112375
 70
   192
  0
VERTEX
  5
111C
  8
0
 10
-102.0823952010312
 20
179.2156545849243
 30
-113.5682215527674
 70
   192
  0
VERTEX
  5
111D
  8
0
 10
-102.0823952010312
 20
-179.2156545849401
 30
-113.5682215527673
 70
   192
  0
VERTEX
  5
111E
  8
0
 10
-97.33804863671803
 20
-179.2696487841548
 30
-114.7652316125784
 70
   192
  0
VERTEX
  5
111F
  8
0
 10
-97.33804863671803
 20
179.2696487841391
 30
-114.7652316125777
 70
   192
  0
VERTEX
  5
1120
  8
0
 10
0.0
 20
0.0
 30
0.0
 70
   128
 71
     1
 72
     2
 73
    -3
  0
VERTEX
  5
1121
  8
0
 10
0.0
 20
0.0
 30
0.0
 70
   128
 71
     4
 72
    -1
 73
     3
  0
VERTEX
  5
1122
  8
0
 10
0.0
 20
0.0
 30
0.0
 70
   128
 71
     5
 72
     1
 73
    -4
  0
VERTEX
  5
1123
  8
0
 10
0.0
 20
0.0
 30
0.0
 70
   128
 71
     6
 72
    -5
 73
     4
  0
VERTEX
  5
1124
  8
0
 10
0.0
 20
0.0
 30
0.0
 70
   128
 71
     7
 72
    -8
 73
     6
  0
VERTEX
  5
1125
  8
0
 10
0.0
 20
0.0
 30
0.0
 70
   128
 71
     8
 72
     5
 73
    -6
  0
SEQEND
  5
1354
  8
0
  0
POLYLINE
  5
1126
  8
0
 66
     1
 10
0.0
 20
0.0
 30
0.0
 70
    64
 71
    13
 72
    11
  0
VERTEX
  5
1127
  8
0
 10
-97.33804863671803
 20
179.2696487841391
 30
-114.7652316125784
 70
   192
  0
VERTEX
  5
1128
  8
0
 10
-102.0823952010312
 20
179.2156545849243
 30
-113.5682215527674
 70
   192
  0
VERTEX
  5
1129
  8
0
 10
-105.6885619920626
 20
179.0936154128342
 30
-110.2666039112375
 70
   192
  0
VERTEX
  5
112A
  8
0
 10
-107.2999956176355
 20
178.9307020852966
 30
-105.6367890400543
 70
   192
  0
VERTEX
  5
112B
  8
0
 10
-107.5737027118534
 20
201.716859645155
 30
-102.5083026375065
 70
   192
  0
VERTEX
  5
112C
  8
0
 10
-108.1171004933604
 20
223.972442642932
 30
-96.29723757367628
 70
   192
  0
VERTEX
  5
112D
  8
0
 10
-108.9152518615888
 20
245.0856821448087
 30
-87.1743256893048
 70
   192
  0
VERTEX
  5
112E
  8
0
 10
-107.3368353645791
 20
247.2782030318764
 30
-91.29368689321876
 70
   192
  0
VERTEX
  5
112F
  8
0
 10
-103.7239302482083
 20
248.9386498958326
 30
-94.2018677745691
 70
   192
  0
VERTEX
  5
1130
  8
0
 10
-98.95330488067125
 20
249.6640707519189
 30
-95.1931202099956
 70
   192
  0
VERTEX
  5
1131
  8
0
 10
-98.15196626621838
 20
227.1997766253614
 30
-104.8912473251453
 70
   192
  0
VERTEX
  5
1132
  8
0
 10
-97.60786401052458
 20
203.5158942306529
 30
-111.4761949916959
 70
   192
  0
VERTEX
  5
1133
  8
0
 10
-97.33609689328961
 20
179.2696487841391
 30
-114.7652316125784
 70
   192
  0
VERTEX
  5
1134
  8
0
 10
0.0
 20
0.0
 30
0.0
 70
   128
 71
     1
 72
    13
 73
    12
  0
VERTEX
  5
1135
  8
0
 10
0.0
 20
0.0
 30
0.0
 70
   128
 71
     8
 72
     7
 73
     6
  0
VERTEX
  5
1136
  8
0
 10
0.0
 20
0.0
 30
0.0
 70
   128
 71
     6
 72
    11
 73
     9
  0
VERTEX
  5
1137
  8
0
 10
0.0
 20
0.0
 30
0.0
 70
   128
 71
     6
 72
     9
 73
     8
  0
VERTEX
  5
1138
  8
0
 10
0.0
 20
0.0
 30
0.0
 70
   128
 71
    11
 72
    10
 73
     9
  0
VERTEX
  5
1139
  8
0
 10
0.0
 20
0.0
 30
0.0
 70
   128
 71
     6
 72
     5
 73
    12
  0
VERTEX
  5
113A
  8
0
 10
0.0
 20
0.0
 30
0.0
 70
   128
 71
     6
 72
    12
 73
    11
  0
VERTEX
  5
113B
  8
0
 10
0.0
 20
0.0
 30
0.0
 70
   128
 71
     2
 72
     1
 73
    12
  0
VERTEX
  5
113C
  8
0
 10
0.0
 20
0.0
 30
0.0
 70
   128
 71
    12
 72
     5
 73
     3
  0
VERTEX
  5
113D
  8
0
 10
0.0
 20
0.0
 30
0.0
 70
   128
 71
    12
 72
     3
 73
     2
  0
VERTEX
  5
113E
  8
0
 10
0.0
 20
0.0
 30
0.0
 70
   128
 71
     5
 72
     4
 73
     3
  0
SEQEND
  5
1355
  8
0
  0
POLYLINE
  5
113F
  8
0
 66
     1
 10
0.0
 20
0.0
 30
0.0
 70
    64
 71
    12
 72
    10
  0
VERTEX
  5
1140
  8
0
 10
-108.9152518615888
 20
245.0856821448087
 30
-87.1743256893048
 70
   192
  0
VERTEX
  5
1141
  8
0
 10
-110.5252047919937
 20
277.3196490450675
 30
-68.77247948979235
 70
   192
  0
VERTEX
  5
1142
  8
0
 10
-112.3760274812718
 20
307.9019393578631
 30
-47.61747934820563
 70
   192
  0
VERTEX
  5
1143
  8
0
 10
-114.4470250324433
 20
336.4905984750675
 30
-23.94586901942275
 70
   192
  0
VERTEX
  5
1144
  8
0
 10
-112.9071527931614
 20
339.7233962074345
 30
-27.38913208275543
 70
   192
  0
VERTEX
  5
1145
  8
0
 10
-109.2888600442843
 20
342.1583960911184
 30
-29.76757303533369
 70
   192
  0
VERTEX
  5
1146
  8
0
 10
-104.4850780515258
 20
343.1946828107884
 30
-30.49423431523258
 70
   192
  0
VERTEX
  5
1147
  8
0
 10
-102.4140805003542
 20
313.9411711559745
 30
-54.71634720980118
 70
   192
  0
VERTEX
  5
1148
  8
0
 10
-100.5632578110761
 20
282.647664789393
 30
-76.36332409886668
 70
   192
  0
VERTEX
  5
1149
  8
0
 10
-98.95330488067125
 20
249.6640707519189
 30
-95.1931202099956
 70
   192
  0
VERTEX
  5
114A
  8
0
 10
-103.7239302482083
 20
248.9386498958326
 30
-94.2018677745691
 70
   192
  0
VERTEX
  5
114B
  8
0
 10
-107.3368353645791
 20
247.2782030318764
 30
-91.29368689321876
 70
   192
  0
VERTEX
  5
114C
  8
0
 10
0.0
 20
0.0
 30
0.0
 70
   128
 71
     8
 72
     7
 73
     6
  0
VERTEX
  5
114D
  8
0
 10
0.0
 20
0.0
 30
0.0
 70
   128
 71
     6
 72
    11
 73
     9
  0
VERTEX
  5
114E
  8
0
 10
0.0
 20
0.0
 30
0.0
 70
   128
 71
     6
 72
     9
 73
     8
  0
VERTEX
  5
114F
  8
0
 10
0.0
 20
0.0
 30
0.0
 70
   128
 71
    11
 72
    10
 73
     9
  0
VERTEX
  5
1150
  8
0
 10
0.0
 20
0.0
 30
0.0
 70
   128
 71
     6
 72
     5
 73
    12
  0
VERTEX
  5
1151
  8
0
 10
0.0
 20
0.0
 30
0.0
 70
   128
 71
     6
 72
    12
 73
    11
  0
VERTEX
  5
1152
  8
0
 10
0.0
 20
0.0
 30
0.0
 70
   128
 71
     2
 72
     1
 73
    12
  0
VERTEX
  5
1153
  8
0
 10
0.0
 20
0.0
 30
0.0
 70
   128
 71
    12
 72
     5
 73
     3
  0
VERTEX
  5
1154
  8
0
 10
0.0
 20
0.0
 30
0.0
 70
   128
 71
    12
 72
     3
 73
     2
  0
VERTEX
  5
1155
  8
0
 10
0.0
 20
0.0
 30
0.0
 70
   128
 71
     5
 72
     4
 73
     3
  0
SEQEND
  5
1356
  8
0
  0
POLYLINE
  5
1156
  8
0
 66
     1
 10
0.0
 20
0.0
 30
0.0
 70
    64
 71
    15
 72
    13
  0
VERTEX
  5
1157
  8
0
 10
-114.4470250324433
 20
336.4905984750675
 30
-23.94586901942275
 70
   192
  0
VERTEX
  5
1158
  8
0
 10
-115.1332323278594
 20
346.5137989959395
 30
-16.10248374228008
 70
   192
  0
VERTEX
  5
1159
  8
0
 10
-115.6913361047948
 20
357.6010769858212
 30
-9.723328381539751
 70
   192
  0
VERTEX
  5
115A
  8
0
 10
-116.1045737922898
 20
369.4194275597147
 30
-5.0
 70
   192
  0
VERTEX
  5
115B
  8
0
 10
-116.0764604014349
 20
371.9737113853172
 30
-5.000000000000001
 70
   192
  0
VERTEX
  5
115C
  8
0
 10
-116.0007447100299
 20
374.5263989723894
 30
-5.0
 70
   192
  0
VERTEX
  5
115D
  8
0
 10
-115.8903634398146
 20
377.0779241254632
 30
-4.999999999999989
 70
   192
  0
VERTEX
  5
115E
  8
0
 10
-113.843556467035
 20
377.9485609718351
 30
-8.598555549282075
 70
   192
  0
VERTEX
  5
115F
  8
0
 10
-110.4494478184587
 20
378.580488113523
 30
-11.04349397644263
 70
   192
  0
VERTEX
  5
1160
  8
0
 10
-106.3154821148665
 20
378.8606093645504
 30
-11.89724393374595
 70
   192
  0
VERTEX
  5
1161
  8
0
 10
-105.9087156209749
 20
366.0040668773969
 30
-16.03001042280554
 70
   192
  0
VERTEX
  5
1162
  8
0
 10
-105.2897460547743
 20
353.9432746571079
 30
-22.31876999213077
 70
   192
  0
VERTEX
  5
1163
  8
0
 10
-104.4850780515258
 20
343.1946828107884
 30
-30.49423431523259
 70
   192
  0
VERTEX
  5
1164
  8
0
 10
-109.2888600442843
 20
342.1583960911184
 30
-29.76757303533369
 70
   192
  0
VERTEX
  5
1165
  8
0
 10
-112.9071527931614
 20
339.7233962074345
 30
-27.38913208275543
 70
   192
  0
VERTEX
  5
1166
  8
0
 10
0.0
 20
0.0
 30
0.0
 70
   128
 71
    11
 72
    10
 73
     9
  0
VERTEX
  5
1167
  8
0
 10
0.0
 20
0.0
 30
0.0
 70
   128
 71
     9
 72
    14
 73
    12
  0
VERTEX
  5
1168
  8
0
 10
0.0
 20
0.0
 30
0.0
 70
   128
 71
     9
 72
    12
 73
    11
  0
VERTEX
  5
1169
  8
0
 10
0.0
 20
0.0
 30
0.0
 70
   128
 71
    14
 72
    13
 73
    12
  0
VERTEX
  5
116A
  8
0
 10
0.0
 20
0.0
 30
0.0
 70
   128
 71
     9
 72
     8
 73
    15
  0
VERTEX
  5
116B
  8
0
 10
0.0
 20
0.0
 30
0.0
 70
   128
 71
     9
 72
    15
 73
    14
  0
VERTEX
  5
116C
  8
0
 10
0.0
 20
0.0
 30
0.0
 70
   128
 71
     2
 72
     1
 73
     5
  0
VERTEX
  5
116D
  8
0
 10
0.0
 20
0.0
 30
0.0
 70
   128
 71
     5
 72
     3
 73
     2
  0
VERTEX
  5
116E
  8
0
 10
0.0
 20
0.0
 30
0.0
 70
   128
 71
     5
 72
     4
 73
     3
  0
VERTEX
  5
116F
  8
0
 10
0.0
 20
0.0
 30
0.0
 70
   128
 71
     1
 72
    15
 73
     8
  0
VERTEX
  5
1170
  8
0
 10
0.0
 20
0.0
 30
0.0
 70
   128
 71
     1
 72
     8
 73
     6
  0
VERTEX
  5
1171
  8
0
 10
0.0
 20
0.0
 30
0.0
 70
   128
 71
     1
 72
     6
 73
     5
  0
VERTEX
  5
1172
  8
0
 10
0.0
 20
0.0
 30
0.0
 70
   128
 71
     8
 72
     7
 73
     6
  0
SEQEND
  5
1357
  8
0
  0
POLYLINE
  5
1173
  8
0
 66
     1
 10
0.0
 20
0.0
 30
0.0
 70
    64
 71
     9
 72
     7
  0
VERTEX
  5
1174
  8
0
 10
-106.3154821148665
 20
378.8606093645504
 30
-11.89724393374593
 70
   192
  0
VERTEX
  5
1175
  8
0
 10
-110.4494478184587
 20
378.580488113523
 30
-11.04349397644263
 70
   192
  0
VERTEX
  5
1176
  8
0
 10
-113.843556467035
 20
377.9485609718351
 30
-8.598555549282075
 70
   192
  0
VERTEX
  5
1177
  8
0
 10
-115.8903634398146
 20
377.0779241254631
 30
-5.0
 70
   192
  0
VERTEX
  5
1178
  8
0
 10
-113.9599752956602
 20
398.0190415907142
 30
-5.0
 70
   192
  0
VERTEX
  5
1179
  8
0
 10
-110.7687551518147
 20
418.8107339095945
 30
-5.0
 70
   192
  0
VERTEX
  5
117A
  8
0
 10
-106.9412620521158
 20
439.4983843100665
 30
-4.999999999996144
 70
   192
  0
VERTEX
  5
117B
  8
0
 10
-106.8715323932099
 20
419.1409354219998
 30
-5.768548875188467
 70
   192
  0
VERTEX
  5
117C
  8
0
 10
-106.6623434164924
 20
398.8706241892049
 30
-8.074195500765269
 70
   192
  0
VERTEX
  5
117D
  8
0
 10
0.0
 20
0.0
 30
0.0
 70
   128
 71
     8
 72
     7
 73
     6
  0
VERTEX
  5
117E
  8
0
 10
0.0
 20
0.0
 30
0.0
 70
   128
 71
     6
 72
     9
 73
     8
  0
VERTEX
  5
117F
  8
0
 10
0.0
 20
0.0
 30
0.0
 70
   128
 71
     5
 72
     4
 73
     3
  0
VERTEX
  5
1180
  8
0
 10
0.0
 20
0.0
 30
0.0
 70
   128
 71
     2
 72
     1
 73
     9
  0
VERTEX
  5
1181
  8
0
 10
0.0
 20
0.0
 30
0.0
 70
   128
 71
     2
 72
     9
 73
     6
  0
VERTEX
  5
1182
  8
0
 10
0.0
 20
0.0
 30
0.0
 70
   128
 71
     6
 72
     5
 73
     3
  0
VERTEX
  5
1183
  8
0
 10
0.0
 20
0.0
 30
0.0
 70
   128
 71
     6
 72
     3
 73
     2
  0
SEQEND
  5
1358
  8
0
  0
POLYLINE
  5
1184
  8
0
 66
     1
 10
0.0
 20
0.0
 30
0.0
 70
    64
 71
    17
 72
    15
  0
VERTEX
  5
1185
  8
0
 10
213.0000000000047
 20
442.9999999999977
 30
0.0
 70
   192
  0
VERTEX
  5
1186
  8
0
 10
213.0000000000047
 20
442.9999999999977
 30
-2.5
 70
   192
  0
VERTEX
  5
1187
  8
0
 10
214.733683853629
 20
442.8485704696487
 30
-2.5
 70
   192
  0
VERTEX
  5
1188
  8
0
 10
216.4148615209077
 20
442.3988680591341
 30
-2.5
 70
   192
  0
VERTEX
  5
1189
  8
0
 10
217.992617012923
 20
441.6645124134182
 30
-2.5
 70
   192
  0
VERTEX
  5
118A
  8
0
 10
218.774269933285
 20
441.1648777266025
 30
-2.500251724451533
 70
   192
  0
VERTEX
  5
118B
  8
0
 10
218.0000000000047
 20
441.660254037842
 30
0.0000000000038253
 70
   192
  0
VERTEX
  5
118C
  8
0
 10
219.5029833104806
 20
440.5972777781374
 30
-2.501161537329652
 70
   192
  0
VERTEX
  5
118D
  8
0
 10
221.2252803419943
 20
438.6876565636663
 30
-2.500255065143804
 70
   192
  0
VERTEX
  5
118E
  8
0
 10
221.6666666666616
 20
437.9888765157131
 30
-2.5
 70
   192
  0
VERTEX
  5
118F
  8
0
 10
221.660254037849
 20
437.9999999999976
 30
0.0000000000038508
 70
   192
  0
VERTEX
  5
1190
  8
0
 10
222.8488198156168
 20
434.7322667922685
 30
-2.5
 70
   192
  0
VERTEX
  5
1191
  8
0
 10
223.0000000000046
 20
432.9999999999976
 30
-2.5
 70
   192
  0
VERTEX
  5
1192
  8
0
 10
223.0000000000046
 20
432.9999999999976
 30
0.0
 70
   192
  0
VERTEX
  5
1193
  8
0
 10
220.1787570733756
 20
439.9617129272538
 30
-2.502961397919631
 70
   192
  0
VERTEX
  5
1194
  8
0
 10
220.7293103623617
 20
439.3452687282879
 30
-2.501168218714174
 70
   192
  0
VERTEX
  5
1195
  8
0
 10
222.3998503520837
 20
436.4121567019266
 30
-2.5
 70
   192
  0
VERTEX
  5
1196
  8
0
 10
0.0
 20
0.0
 30
0.0
 70
   128
 71
     1
 72
     2
 73
     3
  0
VERTEX
  5
1197
  8
0
 10
0.0
 20
0.0
 30
0.0
 70
   128
 71
     1
 72
     3
 73
     4
  0
VERTEX
  5
1198
  8
0
 10
0.0
 20
0.0
 30
0.0
 70
   128
 71
     5
 72
     6
 73
     7
  0
VERTEX
  5
1199
  8
0
 10
0.0
 20
0.0
 30
0.0
 70
   128
 71
     7
 72
     6
 73
     8
  0
VERTEX
  5
119A
  8
0
 10
0.0
 20
0.0
 30
0.0
 70
   128
 71
     9
 72
    10
 73
    11
  0
VERTEX
  5
119B
  8
0
 10
0.0
 20
0.0
 30
0.0
 70
   128
 71
    12
 72
    13
 73
    14
  0
VERTEX
  5
119C
  8
0
 10
0.0
 20
0.0
 30
0.0
 70
   128
 71
    15
 72
    11
 73
     7
  0
VERTEX
  5
119D
  8
0
 10
0.0
 20
0.0
 30
0.0
 70
   128
 71
    15
 72
    16
 73
    11
  0
VERTEX
  5
119E
  8
0
 10
0.0
 20
0.0
 30
0.0
 70
   128
 71
    16
 72
     9
 73
    11
  0
VERTEX
  5
119F
  8
0
 10
0.0
 20
0.0
 30
0.0
 70
   128
 71
    12
 72
    14
 73
    11
  0
VERTEX
  5
11A0
  8
0
 10
0.0
 20
0.0
 30
0.0
 70
   128
 71
    17
 72
    12
 73
    11
  0
VERTEX
  5
11A1
  8
0
 10
0.0
 20
0.0
 30
0.0
 70
   128
 71
     7
 72
     1
 73
     4
  0
VERTEX
  5
11A2
  8
0
 10
0.0
 20
0.0
 30
0.0
 70
   128
 71
     5
 72
     7
 73
     4
  0
VERTEX
  5
11A3
  8
0
 10
0.0
 20
0.0
 30
0.0
 70
   128
 71
    15
 72
     7
 73
     8
  0
VERTEX
  5
11A4
  8
0
 10
0.0
 20
0.0
 30
0.0
 70
   128
 71
    17
 72
    11
 73
    10
  0
SEQEND
  5
1359
  8
0
  0
POLYLINE
  5
11A5
  8
0
 66
     1
 10
0.0
 20
0.0
 30
0.0
 70
    64
 71
    17
 72
    15
  0
VERTEX
  5
11A6
  8
0
 10
214.7336838536198
 20
-442.8485704696533
 30
-2.5
 70
   192
  0
VERTEX
  5
11A7
  8
0
 10
212.9999999999954
 20
-443.0000000000023
 30
-2.5
 70
   192
  0
VERTEX
  5
11A8
  8
0
 10
212.9999999999954
 20
-443.0000000000023
 30
0.0
 70
   192
  0
VERTEX
  5
11A9
  8
0
 10
217.9999999999954
 20
-441.6602540378467
 30
0.0000000000007412
 70
   192
  0
VERTEX
  5
11AA
  8
0
 10
218.7677733980249
 20
-441.1694528926068
 30
-2.500248337577796
 70
   192
  0
VERTEX
  5
11AB
  8
0
 10
217.992617012914
 20
-441.6645124134227
 30
-2.5
 70
   192
  0
VERTEX
  5
11AC
  8
0
 10
221.6666666666646
 20
-437.9888765156967
 30
-2.5
 70
   192
  0
VERTEX
  5
11AD
  8
0
 10
221.2207698688444
 20
-438.6941899195717
 30
-2.500256741902983
 70
   192
  0
VERTEX
  5
11AE
  8
0
 10
221.6602540378398
 20
-438.0000000000024
 30
0.0000000000007923
 70
   192
  0
VERTEX
  5
11AF
  8
0
 10
220.7192856396818
 20
-439.3574747609904
 30
-2.501165289873136
 70
   192
  0
VERTEX
  5
11B0
  8
0
 10
222.9999999999955
 20
-433.0000000000024
 30
0.0
 70
   192
  0
VERTEX
  5
11B1
  8
0
 10
222.9999999999955
 20
-433.0000000000024
 30
-2.5
 70
   192
  0
VERTEX
  5
11B2
  8
0
 10
222.8488198156091
 20
-434.7322667922653
 30
-2.5
 70
   192
  0
VERTEX
  5
11B3
  8
0
 10
222.3998503520801
 20
-436.412156701916
 30
-2.5
 70
   192
  0
VERTEX
  5
11B4
  8
0
 10
220.1622143506661
 20
-439.978730944454
 30
-2.502933127302266
 70
   192
  0
VERTEX
  5
11B5
  8
0
 10
219.4909725294742
 20
-440.6075256256057
 30
-2.501148481224749
 70
   192
  0
VERTEX
  5
11B6
  8
0
 10
216.4148615208986
 20
-442.3988680591387
 30
-2.5
 70
   192
  0
VERTEX
  5
11B7
  8
0
 10
0.0
 20
0.0
 30
0.0
 70
   128
 71
     1
 72
     2
 73
     3
  0
VERTEX
  5
11B8
  8
0
 10
0.0
 20
0.0
 30
0.0
 70
   128
 71
     4
 72
     5
 73
     6
  0
VERTEX
  5
11B9
  8
0
 10
0.0
 20
0.0
 30
0.0
 70
   128
 71
     7
 72
     8
 73
     9
  0
VERTEX
  5
11BA
  8
0
 10
0.0
 20
0.0
 30
0.0
 70
   128
 71
     9
 72
     8
 73
    10
  0
VERTEX
  5
11BB
  8
0
 10
0.0
 20
0.0
 30
0.0
 70
   128
 71
    11
 72
    12
 73
    13
  0
VERTEX
  5
11BC
  8
0
 10
0.0
 20
0.0
 30
0.0
 70
   128
 71
    11
 72
    13
 73
    14
  0
VERTEX
  5
11BD
  8
0
 10
0.0
 20
0.0
 30
0.0
 70
   128
 71
     9
 72
    10
 73
    15
  0
VERTEX
  5
11BE
  8
0
 10
0.0
 20
0.0
 30
0.0
 70
   128
 71
    16
 72
     5
 73
     4
  0
VERTEX
  5
11BF
  8
0
 10
0.0
 20
0.0
 30
0.0
 70
   128
 71
     1
 72
     3
 73
     4
  0
VERTEX
  5
11C0
  8
0
 10
0.0
 20
0.0
 30
0.0
 70
   128
 71
    17
 72
     1
 73
     4
  0
VERTEX
  5
11C1
  8
0
 10
0.0
 20
0.0
 30
0.0
 70
   128
 71
     4
 72
     6
 73
    17
  0
VERTEX
  5
11C2
  8
0
 10
0.0
 20
0.0
 30
0.0
 70
   128
 71
    15
 72
    16
 73
     4
  0
VERTEX
  5
11C3
  8
0
 10
0.0
 20
0.0
 30
0.0
 70
   128
 71
     9
 72
    15
 73
     4
  0
VERTEX
  5
11C4
  8
0
 10
0.0
 20
0.0
 30
0.0
 70
   128
 71
    14
 72
     7
 73
     9
  0
VERTEX
  5
11C5
  8
0
 10
0.0
 20
0.0
 30
0.0
 70
   128
 71
    11
 72
    14
 73
     9
  0
SEQEND
  5
135A
  8
0
  0
POLYLINE
  5
11C6
  8
0
 66
     1
 10
0.0
 20
0.0
 30
0.0
 70
    64
 71
    12
 72
    10
  0
VERTEX
  5
11C7
  8
0
 10
221.3763883748615
 20
437.8217808365225
 30
-3.750000000000004
 70
   192
  0
VERTEX
  5
11C8
  8
0
 10
220.5833333333294
 20
437.3652669512487
 30
-4.665063509461102
 70
   192
  0
VERTEX
  5
11C9
  8
0
 10
221.7500000000046
 20
432.9999999999976
 30
-4.665063509461096
 70
   192
  0
VERTEX
  5
11CA
  8
0
 10
222.6650635094657
 20
432.9999999999976
 30
-3.75
 70
   192
  0
VERTEX
  5
11CB
  8
0
 10
219.4999999999973
 20
436.7416573867843
 30
-5.000000000000005
 70
   192
  0
VERTEX
  5
11CC
  8
0
 10
220.0498877640639
 20
435.5591175264444
 30
-5.0
 70
   192
  0
VERTEX
  5
11CD
  8
0
 10
220.3866148617138
 20
434.2992000942008
 30
-5.0
 70
   192
  0
VERTEX
  5
11CE
  8
0
 10
220.5000000000046
 20
432.9999999999976
 30
-5.0
 70
   192
  0
VERTEX
  5
11CF
  8
0
 10
221.6666666666616
 20
437.9888765157131
 30
-2.5
 70
   192
  0
VERTEX
  5
11D0
  8
0
 10
222.3998503520837
 20
436.4121567019266
 30
-2.5
 70
   192
  0
VERTEX
  5
11D1
  8
0
 10
223.0000000000046
 20
432.9999999999976
 30
-2.5
 70
   192
  0
VERTEX
  5
11D2
  8
0
 10
222.8488198156168
 20
434.7322667922685
 30
-2.5
 70
   192
  0
VERTEX
  5
11D3
  8
0
 10
0.0
 20
0.0
 30
0.0
 70
   128
 71
     1
 72
     2
 73
    -3
  0
VERTEX
  5
11D4
  8
0
 10
0.0
 20
0.0
 30
0.0
 70
   128
 71
     4
 72
    -1
 73
     3
  0
VERTEX
  5
11D5
  8
0
 10
0.0
 20
0.0
 30
0.0
 70
   128
 71
     2
 72
     5
 73
     6
  0
VERTEX
  5
11D6
  8
0
 10
0.0
 20
0.0
 30
0.0
 70
   128
 71
     6
 72
     7
 73
     2
  0
VERTEX
  5
11D7
  8
0
 10
0.0
 20
0.0
 30
0.0
 70
   128
 71
     2
 72
     7
 73
     8
  0
VERTEX
  5
11D8
  8
0
 10
0.0
 20
0.0
 30
0.0
 70
   128
 71
     3
 72
     2
 73
     8
  0
VERTEX
  5
11D9
  8
0
 10
0.0
 20
0.0
 30
0.0
 70
   128
 71
     9
 72
     1
 73
    10
  0
VERTEX
  5
11DA
  8
0
 10
0.0
 20
0.0
 30
0.0
 70
   128
 71
     4
 72
    11
 73
    12
  0
VERTEX
  5
11DB
  8
0
 10
0.0
 20
0.0
 30
0.0
 70
   128
 71
    10
 72
     1
 73
    -4
  0
VERTEX
  5
11DC
  8
0
 10
0.0
 20
0.0
 30
0.0
 70
   128
 71
    12
 72
   -10
 73
     4
  0
SEQEND
  5
135B
  8
0
  0
POLYLINE
  5
11DD
  8
0
 66
     1
 10
0.0
 20
0.0
 30
0.0
 70
    64
 71
    12
 72
    10
  0
VERTEX
  5
11DE
  8
0
 10
219.4999999999973
 20
436.7416573867843
 30
-5.0
 70
   192
  0
VERTEX
  5
11DF
  8
0
 10
219.1698292996043
 20
437.270135568766
 30
-5.000255368622319
 70
   192
  0
VERTEX
  5
11E0
  8
0
 10
218.7980679928045
 20
437.7674930127172
 30
-5.001169138821476
 70
   192
  0
VERTEX
  5
11E1
  8
0
 10
218.3845015714479
 20
438.2335246882541
 30
-5.002962807095848
 70
   192
  0
VERTEX
  5
11E2
  8
0
 10
219.2796791669006
 20
439.0999514471919
 30
-4.66521854942016
 70
   192
  0
VERTEX
  5
11E3
  8
0
 10
219.9362943587939
 20
439.7324277086899
 30
-3.750564426633049
 70
   192
  0
VERTEX
  5
11E4
  8
0
 10
220.1787570733756
 20
439.9617129272538
 30
-2.502961397919631
 70
   192
  0
VERTEX
  5
11E5
  8
0
 10
220.7293103623617
 20
439.3452687282879
 30
-2.501168218714174
 70
   192
  0
VERTEX
  5
11E6
  8
0
 10
221.2252803419943
 20
438.6876565636663
 30
-2.500255065143804
 70
   192
  0
VERTEX
  5
11E7
  8
0
 10
221.6666666666616
 20
437.9888765157131
 30
-2.5
 70
   192
  0
VERTEX
  5
11E8
  8
0
 10
221.3763883748615
 20
437.8217808365225
 30
-3.750000000000004
 70
   192
  0
VERTEX
  5
11E9
  8
0
 10
220.5833333333294
 20
437.3652669512487
 30
-4.665063509461102
 70
   192
  0
VERTEX
  5
11EA
  8
0
 10
0.0
 20
0.0
 30
0.0
 70
   128
 71
     8
 72
     7
 73
     6
  0
VERTEX
  5
11EB
  8
0
 10
0.0
 20
0.0
 30
0.0
 70
   128
 71
     8
 72
     6
 73
    11
  0
VERTEX
  5
11EC
  8
0
 10
0.0
 20
0.0
 30
0.0
 70
   128
 71
    11
 72
     9
 73
     8
  0
VERTEX
  5
11ED
  8
0
 10
0.0
 20
0.0
 30
0.0
 70
   128
 71
    11
 72
    10
 73
     9
  0
VERTEX
  5
11EE
  8
0
 10
0.0
 20
0.0
 30
0.0
 70
   128
 71
     6
 72
     5
 73
    12
  0
VERTEX
  5
11EF
  8
0
 10
0.0
 20
0.0
 30
0.0
 70
   128
 71
     6
 72
    12
 73
    11
  0
VERTEX
  5
11F0
  8
0
 10
0.0
 20
0.0
 30
0.0
 70
   128
 71
     2
 72
     1
 73
    12
  0
VERTEX
  5
11F1
  8
0
 10
0.0
 20
0.0
 30
0.0
 70
   128
 71
     2
 72
    12
 73
     5
  0
VERTEX
  5
11F2
  8
0
 10
0.0
 20
0.0
 30
0.0
 70
   128
 71
     5
 72
     3
 73
     2
  0
VERTEX
  5
11F3
  8
0
 10
0.0
 20
0.0
 30
0.0
 70
   128
 71
     5
 72
     4
 73
     3
  0
SEQEND
  5
135C
  8
0
  0
POLYLINE
  5
11F4
  8
0
 66
     1
 10
0.0
 20
0.0
 30
0.0
 70
    64
 71
     8
 72
     6
  0
VERTEX
  5
11F5
  8
0
 10
221.7499999999955
 20
-433.0000000000024
 30
-4.665063509461087
 70
   192
  0
VERTEX
  5
11F6
  8
0
 10
222.6650635094566
 20
-433.0000000000024
 30
-3.749999999999992
 70
   192
  0
VERTEX
  5
11F7
  8
0
 10
222.6650635094657
 20
432.9999999999976
 30
-3.75
 70
   192
  0
VERTEX
  5
11F8
  8
0
 10
221.7500000000046
 20
432.9999999999976
 30
-4.665063509461096
 70
   192
  0
VERTEX
  5
11F9
  8
0
 10
222.9999999999955
 20
-433.0000000000024
 30
-2.5
 70
   192
  0
VERTEX
  5
11FA
  8
0
 10
223.0000000000046
 20
432.9999999999976
 30
-2.5
 70
   192
  0
VERTEX
  5
11FB
  8
0
 10
220.4999999999955
 20
-433.0000000000024
 30
-5.0
 70
   192
  0
VERTEX
  5
11FC
  8
0
 10
220.5000000000046
 20
432.9999999999976
 30
-5.0
 70
   192
  0
VERTEX
  5
11FD
  8
0
 10
0.0
 20
0.0
 30
0.0
 70
   128
 71
     1
 72
     2
 73
    -3
  0
VERTEX
  5
11FE
  8
0
 10
0.0
 20
0.0
 30
0.0
 70
   128
 71
     4
 72
    -1
 73
     3
  0
VERTEX
  5
11FF
  8
0
 10
0.0
 20
0.0
 30
0.0
 70
   128
 71
     2
 72
     5
 73
    -6
  0
VERTEX
  5
1200
  8
0
 10
0.0
 20
0.0
 30
0.0
 70
   128
 71
     3
 72
    -2
 73
     6
  0
VERTEX
  5
1201
  8
0
 10
0.0
 20
0.0
 30
0.0
 70
   128
 71
     7
 72
     1
 73
    -4
  0
VERTEX
  5
1202
  8
0
 10
0.0
 20
0.0
 30
0.0
 70
   128
 71
     8
 72
    -7
 73
     4
  0
SEQEND
  5
135D
  8
0
  0
POLYLINE
  5
1203
  8
0
 66
     1
 10
0.0
 20
0.0
 30
0.0
 70
    64
 71
    12
 72
    10
  0
VERTEX
  5
1204
  8
0
 10
218.3845015714479
 20
438.2335246882541
 30
-5.002962807095848
 70
   192
  0
VERTEX
  5
1205
  8
0
 10
217.8769282872244
 20
438.7058284364975
 30
-5.001158055473676
 70
   192
  0
VERTEX
  5
1206
  8
0
 10
217.3302481452625
 20
439.1274449506907
 30
-5.000249826946375
 70
   192
  0
VERTEX
  5
1207
  8
0
 10
216.7444627596934
 20
439.498384310063
 30
-4.999999999999964
 70
   192
  0
VERTEX
  5
1208
  8
0
 10
217.3685398863082
 20
440.5814483617406
 30
-4.665063509461062
 70
   192
  0
VERTEX
  5
1209
  8
0
 10
217.8253960508318
 20
441.3743062754199
 30
-3.749999999999982
 70
   192
  0
VERTEX
  5
120A
  8
0
 10
217.9926170129231
 20
441.6645124134182
 30
-2.5
 70
   192
  0
VERTEX
  5
120B
  8
0
 10
218.774269933285
 20
441.1648777266025
 30
-2.500251724451533
 70
   192
  0
VERTEX
  5
120C
  8
0
 10
219.5029833104806
 20
440.5972777781374
 30
-2.501161537329652
 70
   192
  0
VERTEX
  5
120D
  8
0
 10
220.1787570733756
 20
439.9617129272538
 30
-2.502961397919631
 70
   192
  0
VERTEX
  5
120E
  8
0
 10
219.9362943587939
 20
439.7324277086899
 30
-3.750564426633049
 70
   192
  0
VERTEX
  5
120F
  8
0
 10
219.2796791669006
 20
439.0999514471919
 30
-4.66521854942016
 70
   192
  0
VERTEX
  5
1210
  8
0
 10
0.0
 20
0.0
 30
0.0
 70
   128
 71
     8
 72
     7
 73
     6
  0
VERTEX
  5
1211
  8
0
 10
0.0
 20
0.0
 30
0.0
 70
   128
 71
     8
 72
     6
 73
    11
  0
VERTEX
  5
1212
  8
0
 10
0.0
 20
0.0
 30
0.0
 70
   128
 71
    11
 72
     9
 73
     8
  0
VERTEX
  5
1213
  8
0
 10
0.0
 20
0.0
 30
0.0
 70
   128
 71
    11
 72
    10
 73
     9
  0
VERTEX
  5
1214
  8
0
 10
0.0
 20
0.0
 30
0.0
 70
   128
 71
     6
 72
     5
 73
    12
  0
VERTEX
  5
1215
  8
0
 10
0.0
 20
0.0
 30
0.0
 70
   128
 71
     6
 72
    12
 73
    11
  0
VERTEX
  5
1216
  8
0
 10
0.0
 20
0.0
 30
0.0
 70
   128
 71
     3
 72
     2
 73
     1
  0
VERTEX
  5
1217
  8
0
 10
0.0
 20
0.0
 30
0.0
 70
   128
 71
     3
 72
     1
 73
    12
  0
VERTEX
  5
1218
  8
0
 10
0.0
 20
0.0
 30
0.0
 70
   128
 71
     3
 72
    12
 73
     5
  0
VERTEX
  5
1219
  8
0
 10
0.0
 20
0.0
 30
0.0
 70
   128
 71
     5
 72
     4
 73
     3
  0
SEQEND
  5
135E
  8
0
  0
POLYLINE
  5
121A
  8
0
 66
     1
 10
0.0
 20
0.0
 30
0.0
 70
    64
 71
    12
 72
    10
  0
VERTEX
  5
121B
  8
0
 10
222.6650635094566
 20
-433.0000000000024
 30
-3.749999999999992
 70
   192
  0
VERTEX
  5
121C
  8
0
 10
221.7499999999955
 20
-433.0000000000024
 30
-4.665063509461087
 70
   192
  0
VERTEX
  5
121D
  8
0
 10
221.3763883748641
 20
-437.8217808365068
 30
-3.749999999999999
 70
   192
  0
VERTEX
  5
121E
  8
0
 10
220.5833333333309
 20
-437.3652669512348
 30
-4.665063509461096
 70
   192
  0
VERTEX
  5
121F
  8
0
 10
220.4999999999955
 20
-433.0000000000024
 30
-5.0
 70
   192
  0
VERTEX
  5
1220
  8
0
 10
220.3866148617057
 20
-434.2992000941995
 30
-5.0
 70
   192
  0
VERTEX
  5
1221
  8
0
 10
220.049887764059
 20
-435.5591175264376
 30
-5.0
 70
   192
  0
VERTEX
  5
1222
  8
0
 10
219.4999999999973
 20
-436.7416573867731
 30
-5.0
 70
   192
  0
VERTEX
  5
1223
  8
0
 10
222.9999999999955
 20
-433.0000000000024
 30
-2.5
 70
   192
  0
VERTEX
  5
1224
  8
0
 10
222.8488198156091
 20
-434.7322667922653
 30
-2.5
 70
   192
  0
VERTEX
  5
1225
  8
0
 10
221.6666666666646
 20
-437.9888765156967
 30
-2.5
 70
   192
  0
VERTEX
  5
1226
  8
0
 10
222.3998503520801
 20
-436.412156701916
 30
-2.5
 70
   192
  0
VERTEX
  5
1227
  8
0
 10
0.0
 20
0.0
 30
0.0
 70
   128
 71
     1
 72
    -2
 73
     3
  0
VERTEX
  5
1228
  8
0
 10
0.0
 20
0.0
 30
0.0
 70
   128
 71
     2
 72
     4
 73
    -3
  0
VERTEX
  5
1229
  8
0
 10
0.0
 20
0.0
 30
0.0
 70
   128
 71
     2
 72
     5
 73
     6
  0
VERTEX
  5
122A
  8
0
 10
0.0
 20
0.0
 30
0.0
 70
   128
 71
     6
 72
    -7
 73
     2
  0
VERTEX
  5
122B
  8
0
 10
0.0
 20
0.0
 30
0.0
 70
   128
 71
     7
 72
     8
 73
     4
  0
VERTEX
  5
122C
  8
0
 10
0.0
 20
0.0
 30
0.0
 70
   128
 71
    -2
 72
     7
 73
     4
  0
VERTEX
  5
122D
  8
0
 10
0.0
 20
0.0
 30
0.0
 70
   128
 71
     9
 72
     1
 73
    10
  0
VERTEX
  5
122E
  8
0
 10
0.0
 20
0.0
 30
0.0
 70
   128
 71
     3
 72
    11
 73
    12
  0
VERTEX
  5
122F
  8
0
 10
0.0
 20
0.0
 30
0.0
 70
   128
 71
    10
 72
     1
 73
    -3
  0
VERTEX
  5
1230
  8
0
 10
0.0
 20
0.0
 30
0.0
 70
   128
 71
    12
 72
   -10
 73
     3
  0
SEQEND
  5
135F
  8
0
  0
POLYLINE
  5
1231
  8
0
 66
     1
 10
0.0
 20
0.0
 30
0.0
 70
    64
 71
    12
 72
    10
  0
VERTEX
  5
1232
  8
0
 10
213.0000000000047
 20
442.6650635094588
 30
-3.750000000000002
 70
   192
  0
VERTEX
  5
1233
  8
0
 10
213.0000000000047
 20
441.7499999999977
 30
-4.665063509461099
 70
   192
  0
VERTEX
  5
1234
  8
0
 10
217.3685398863082
 20
440.5814483617406
 30
-4.665063509461062
 70
   192
  0
VERTEX
  5
1235
  8
0
 10
217.8253960508318
 20
441.3743062754199
 30
-3.749999999999982
 70
   192
  0
VERTEX
  5
1236
  8
0
 10
213.0000000000047
 20
440.4999999999977
 30
-5.000000000000002
 70
   192
  0
VERTEX
  5
1237
  8
0
 10
214.3002628902229
 20
440.386427852236
 30
-5.0
 70
   192
  0
VERTEX
  5
1238
  8
0
 10
215.561146140682
 20
440.04915104435
 30
-5.0
 70
   192
  0
VERTEX
  5
1239
  8
0
 10
216.7444627596934
 20
439.498384310063
 30
-4.999999999999964
 70
   192
  0
VERTEX
  5
123A
  8
0
 10
213.0000000000047
 20
442.9999999999977
 30
-2.5
 70
   192
  0
VERTEX
  5
123B
  8
0
 10
214.733683853629
 20
442.8485704696487
 30
-2.5
 70
   192
  0
VERTEX
  5
123C
  8
0
 10
217.992617012923
 20
441.6645124134182
 30
-2.500000000000001
 70
   192
  0
VERTEX
  5
123D
  8
0
 10
216.4148615209077
 20
442.3988680591341
 30
-2.5
 70
   192
  0
VERTEX
  5
123E
  8
0
 10
0.0
 20
0.0
 30
0.0
 70
   128
 71
     1
 72
     2
 73
    -3
  0
VERTEX
  5
123F
  8
0
 10
0.0
 20
0.0
 30
0.0
 70
   128
 71
     4
 72
    -1
 73
     3
  0
VERTEX
  5
1240
  8
0
 10
0.0
 20
0.0
 30
0.0
 70
   128
 71
     2
 72
     5
 73
     6
  0
VERTEX
  5
1241
  8
0
 10
0.0
 20
0.0
 30
0.0
 70
   128
 71
     6
 72
     7
 73
     2
  0
VERTEX
  5
1242
  8
0
 10
0.0
 20
0.0
 30
0.0
 70
   128
 71
     2
 72
     7
 73
     8
  0
VERTEX
  5
1243
  8
0
 10
0.0
 20
0.0
 30
0.0
 70
   128
 71
     3
 72
     2
 73
     8
  0
VERTEX
  5
1244
  8
0
 10
0.0
 20
0.0
 30
0.0
 70
   128
 71
     9
 72
     1
 73
    10
  0
VERTEX
  5
1245
  8
0
 10
0.0
 20
0.0
 30
0.0
 70
   128
 71
     4
 72
    11
 73
    12
  0
VERTEX
  5
1246
  8
0
 10
0.0
 20
0.0
 30
0.0
 70
   128
 71
    10
 72
     1
 73
    -4
  0
VERTEX
  5
1247
  8
0
 10
0.0
 20
0.0
 30
0.0
 70
   128
 71
    12
 72
   -10
 73
     4
  0
SEQEND
  5
1360
  8
0
  0
POLYLINE
  5
1248
  8
0
 66
     1
 10
0.0
 20
0.0
 30
0.0
 70
    64
 71
    12
 72
    10
  0
VERTEX
  5
1249
  8
0
 10
221.6666666666646
 20
-437.9888765156967
 30
-2.5
 70
   192
  0
VERTEX
  5
124A
  8
0
 10
221.2207698688444
 20
-438.6941899195717
 30
-2.500256741902983
 70
   192
  0
VERTEX
  5
124B
  8
0
 10
220.7192856396818
 20
-439.3574747609904
 30
-2.501165289873136
 70
   192
  0
VERTEX
  5
124C
  8
0
 10
220.1622143506661
 20
-439.978730944454
 30
-2.502933127302266
 70
   192
  0
VERTEX
  5
124D
  8
0
 10
219.9073147211166
 20
-439.7327802855252
 30
-3.785491941868365
 70
   192
  0
VERTEX
  5
124E
  8
0
 10
219.2463410238392
 20
-439.083672920245
 30
-4.685263342663445
 70
   192
  0
VERTEX
  5
124F
  8
0
 10
218.3845014985828
 20
-438.2335247632907
 30
-5.002962807118566
 70
   192
  0
VERTEX
  5
1250
  8
0
 10
218.7980679486019
 20
-437.7674930669279
 30
-5.001169138860175
 70
   192
  0
VERTEX
  5
1251
  8
0
 10
219.1698292797092
 20
-437.2701355978816
 30
-5.000255368639143
 70
   192
  0
VERTEX
  5
1252
  8
0
 10
219.4999999999973
 20
-436.7416573867731
 30
-5.0
 70
   192
  0
VERTEX
  5
1253
  8
0
 10
220.5833333333309
 20
-437.3652669512348
 30
-4.665063509461096
 70
   192
  0
VERTEX
  5
1254
  8
0
 10
221.3763883748641
 20
-437.8217808365068
 30
-3.749999999999999
 70
   192
  0
VERTEX
  5
1255
  8
0
 10
0.0
 20
0.0
 30
0.0
 70
   128
 71
     8
 72
     7
 73
     6
  0
VERTEX
  5
1256
  8
0
 10
0.0
 20
0.0
 30
0.0
 70
   128
 71
     6
 72
     9
 73
     8
  0
VERTEX
  5
1257
  8
0
 10
0.0
 20
0.0
 30
0.0
 70
   128
 71
     6
 72
    11
 73
    10
  0
VERTEX
  5
1258
  8
0
 10
0.0
 20
0.0
 30
0.0
 70
   128
 71
     6
 72
    10
 73
     9
  0
VERTEX
  5
1259
  8
0
 10
0.0
 20
0.0
 30
0.0
 70
   128
 71
     6
 72
     5
 73
    12
  0
VERTEX
  5
125A
  8
0
 10
0.0
 20
0.0
 30
0.0
 70
   128
 71
     6
 72
    12
 73
    11
  0
VERTEX
  5
125B
  8
0
 10
0.0
 20
0.0
 30
0.0
 70
   128
 71
     2
 72
     1
 73
    12
  0
VERTEX
  5
125C
  8
0
 10
0.0
 20
0.0
 30
0.0
 70
   128
 71
     2
 72
    12
 73
     5
  0
VERTEX
  5
125D
  8
0
 10
0.0
 20
0.0
 30
0.0
 70
   128
 71
     5
 72
     3
 73
     2
  0
VERTEX
  5
125E
  8
0
 10
0.0
 20
0.0
 30
0.0
 70
   128
 71
     5
 72
     4
 73
     3
  0
SEQEND
  5
1361
  8
0
  0
POLYLINE
  5
125F
  8
0
 66
     1
 10
0.0
 20
0.0
 30
0.0
 70
    64
 71
     8
 72
     6
  0
VERTEX
  5
1260
  8
0
 10
213.0000000000047
 20
441.7499999999977
 30
-4.665063509461099
 70
   192
  0
VERTEX
  5
1261
  8
0
 10
213.0000000000047
 20
442.6650635094588
 30
-3.750000000000002
 70
   192
  0
VERTEX
  5
1262
  8
0
 10
-212.9999999999954
 20
442.6650635094633
 30
-3.749999999999985
 70
   192
  0
VERTEX
  5
1263
  8
0
 10
-212.9999999999954
 20
441.7500000000022
 30
-4.66506350946108
 70
   192
  0
VERTEX
  5
1264
  8
0
 10
213.0000000000047
 20
442.9999999999977
 30
-2.5
 70
   192
  0
VERTEX
  5
1265
  8
0
 10
-212.9999999999954
 20
443.0000000000022
 30
-2.5
 70
   192
  0
VERTEX
  5
1266
  8
0
 10
213.0000000000047
 20
440.4999999999977
 30
-5.000000000000002
 70
   192
  0
VERTEX
  5
1267
  8
0
 10
-212.9999999999954
 20
440.5000000000022
 30
-5.000000000000002
 70
   192
  0
VERTEX
  5
1268
  8
0
 10
0.0
 20
0.0
 30
0.0
 70
   128
 71
     1
 72
     2
 73
    -3
  0
VERTEX
  5
1269
  8
0
 10
0.0
 20
0.0
 30
0.0
 70
   128
 71
     4
 72
    -1
 73
     3
  0
VERTEX
  5
126A
  8
0
 10
0.0
 20
0.0
 30
0.0
 70
   128
 71
     2
 72
     5
 73
    -6
  0
VERTEX
  5
126B
  8
0
 10
0.0
 20
0.0
 30
0.0
 70
   128
 71
     3
 72
    -2
 73
     6
  0
VERTEX
  5
126C
  8
0
 10
0.0
 20
0.0
 30
0.0
 70
   128
 71
     7
 72
     1
 73
    -4
  0
VERTEX
  5
126D
  8
0
 10
0.0
 20
0.0
 30
0.0
 70
   128
 71
     8
 72
    -7
 73
     4
  0
SEQEND
  5
1362
  8
0
  0
POLYLINE
  5
126E
  8
0
 66
     1
 10
0.0
 20
0.0
 30
0.0
 70
    64
 71
    12
 72
    10
  0
VERTEX
  5
126F
  8
0
 10
220.1622143506661
 20
-439.978730944454
 30
-2.502933127302266
 70
   192
  0
VERTEX
  5
1270
  8
0
 10
219.4909725294742
 20
-440.6075256256057
 30
-2.501148481224749
 70
   192
  0
VERTEX
  5
1271
  8
0
 10
218.7677733980249
 20
-441.1694528926068
 30
-2.500248337577796
 70
   192
  0
VERTEX
  5
1272
  8
0
 10
217.9926170129141
 20
-441.6645124134227
 30
-2.5
 70
   192
  0
VERTEX
  5
1273
  8
0
 10
217.8253960508224
 20
-441.3743062754236
 30
-3.749999999998729
 70
   192
  0
VERTEX
  5
1274
  8
0
 10
217.3685398862988
 20
-440.5814483617444
 30
-4.665063509458591
 70
   192
  0
VERTEX
  5
1275
  8
0
 10
216.7444627596844
 20
-439.4983843100676
 30
-4.999999999999974
 70
   192
  0
VERTEX
  5
1276
  8
0
 10
217.3302481167926
 20
-439.1274449705941
 30
-5.000249826935796
 70
   192
  0
VERTEX
  5
1277
  8
0
 10
217.876928234491
 20
-438.7058284813331
 30
-5.001158055455488
 70
   192
  0
VERTEX
  5
1278
  8
0
 10
218.3845014985828
 20
-438.2335247632907
 30
-5.002962807118566
 70
   192
  0
VERTEX
  5
1279
  8
0
 10
219.2463410238392
 20
-439.083672920245
 30
-4.685263342663445
 70
   192
  0
VERTEX
  5
127A
  8
0
 10
219.9073147211166
 20
-439.7327802855252
 30
-3.785491941868365
 70
   192
  0
VERTEX
  5
127B
  8
0
 10
0.0
 20
0.0
 30
0.0
 70
   128
 71
     8
 72
     7
 73
     6
  0
VERTEX
  5
127C
  8
0
 10
0.0
 20
0.0
 30
0.0
 70
   128
 71
     6
 72
    11
 73
    10
  0
VERTEX
  5
127D
  8
0
 10
0.0
 20
0.0
 30
0.0
 70
   128
 71
     6
 72
    10
 73
     9
  0
VERTEX
  5
127E
  8
0
 10
0.0
 20
0.0
 30
0.0
 70
   128
 71
     6
 72
     9
 73
     8
  0
VERTEX
  5
127F
  8
0
 10
0.0
 20
0.0
 30
0.0
 70
   128
 71
     6
 72
     5
 73
    12
  0
VERTEX
  5
1280
  8
0
 10
0.0
 20
0.0
 30
0.0
 70
   128
 71
     6
 72
    12
 73
    11
  0
VERTEX
  5
1281
  8
0
 10
0.0
 20
0.0
 30
0.0
 70
   128
 71
     2
 72
     1
 73
    12
  0
VERTEX
  5
1282
  8
0
 10
0.0
 20
0.0
 30
0.0
 70
   128
 71
     2
 72
    12
 73
     5
  0
VERTEX
  5
1283
  8
0
 10
0.0
 20
0.0
 30
0.0
 70
   128
 71
     5
 72
     3
 73
     2
  0
VERTEX
  5
1284
  8
0
 10
0.0
 20
0.0
 30
0.0
 70
   128
 71
     5
 72
     4
 73
     3
  0
SEQEND
  5
1363
  8
0
  0
POLYLINE
  5
1285
  8
0
 66
     1
 10
0.0
 20
0.0
 30
0.0
 70
    64
 71
    12
 72
    10
  0
VERTEX
  5
1286
  8
0
 10
-222.6650635094566
 20
433.0000000000023
 30
-3.749999999999984
 70
   192
  0
VERTEX
  5
1287
  8
0
 10
-221.7499999999955
 20
433.0000000000023
 30
-4.665063509461078
 70
   192
  0
VERTEX
  5
1288
  8
0
 10
-212.9999999999954
 20
442.6650635094633
 30
-3.749999999999985
 70
   192
  0
VERTEX
  5
1289
  8
0
 10
-212.9999999999954
 20
441.7500000000022
 30
-4.66506350946108
 70
   192
  0
VERTEX
  5
128A
  8
0
 10
-220.4999999999955
 20
433.0000000000023
 30
-5.0
 70
   192
  0
VERTEX
  5
128B
  8
0
 10
-219.4951905283787
 20
436.7500000000023
 30
-5.0
 70
   192
  0
VERTEX
  5
128C
  8
0
 10
-216.7499999999954
 20
439.4951905283855
 30
-5.0
 70
   192
  0
VERTEX
  5
128D
  8
0
 10
-212.9999999999954
 20
440.5000000000022
 30
-5.000000000000002
 70
   192
  0
VERTEX
  5
128E
  8
0
 10
-222.9999999999955
 20
433.0000000000023
 30
-2.5
 70
   192
  0
VERTEX
  5
128F
  8
0
 10
-221.6602540378398
 20
438.0000000000023
 30
-2.5
 70
   192
  0
VERTEX
  5
1290
  8
0
 10
-212.9999999999954
 20
443.0000000000022
 30
-2.5
 70
   192
  0
VERTEX
  5
1291
  8
0
 10
-217.9999999999954
 20
441.6602540378466
 30
-2.5
 70
   192
  0
VERTEX
  5
1292
  8
0
 10
0.0
 20
0.0
 30
0.0
 70
   128
 71
     1
 72
    -2
 73
     3
  0
VERTEX
  5
1293
  8
0
 10
0.0
 20
0.0
 30
0.0
 70
   128
 71
     2
 72
     4
 73
    -3
  0
VERTEX
  5
1294
  8
0
 10
0.0
 20
0.0
 30
0.0
 70
   128
 71
     2
 72
     5
 73
     6
  0
VERTEX
  5
1295
  8
0
 10
0.0
 20
0.0
 30
0.0
 70
   128
 71
     6
 72
     7
 73
     2
  0
VERTEX
  5
1296
  8
0
 10
0.0
 20
0.0
 30
0.0
 70
   128
 71
     2
 72
     7
 73
     8
  0
VERTEX
  5
1297
  8
0
 10
0.0
 20
0.0
 30
0.0
 70
   128
 71
     4
 72
     2
 73
     8
  0
VERTEX
  5
1298
  8
0
 10
0.0
 20
0.0
 30
0.0
 70
   128
 71
     9
 72
     1
 73
    10
  0
VERTEX
  5
1299
  8
0
 10
0.0
 20
0.0
 30
0.0
 70
   128
 71
     3
 72
    11
 73
    12
  0
VERTEX
  5
129A
  8
0
 10
0.0
 20
0.0
 30
0.0
 70
   128
 71
    10
 72
     1
 73
    -3
  0
VERTEX
  5
129B
  8
0
 10
0.0
 20
0.0
 30
0.0
 70
   128
 71
    12
 72
   -10
 73
     3
  0
SEQEND
  5
1364
  8
0
  0
POLYLINE
  5
129C
  8
0
 66
     1
 10
0.0
 20
0.0
 30
0.0
 70
    64
 71
    12
 72
    10
  0
VERTEX
  5
129D
  8
0
 10
217.8253960508224
 20
-441.3743062754236
 30
-3.749999999998729
 70
   192
  0
VERTEX
  5
129E
  8
0
 10
217.3685398862988
 20
-440.5814483617444
 30
-4.665063509458591
 70
   192
  0
VERTEX
  5
129F
  8
0
 10
212.9999999999954
 20
-442.6650635094634
 30
-3.75
 70
   192
  0
VERTEX
  5
12A0
  8
0
 10
212.9999999999954
 20
-441.7500000000023
 30
-4.665063509461098
 70
   192
  0
VERTEX
  5
12A1
  8
0
 10
216.7444627596844
 20
-439.4983843100676
 30
-4.999999999996994
 70
   192
  0
VERTEX
  5
12A2
  8
0
 10
215.5611461406729
 20
-440.0491510443546
 30
-5.0
 70
   192
  0
VERTEX
  5
12A3
  8
0
 10
214.3002628902137
 20
-440.3864278522406
 30
-5.0
 70
   192
  0
VERTEX
  5
12A4
  8
0
 10
212.9999999999954
 20
-440.5000000000023
 30
-5.0
 70
   192
  0
VERTEX
  5
12A5
  8
0
 10
212.9999999999954
 20
-443.0000000000023
 30
-2.5
 70
   192
  0
VERTEX
  5
12A6
  8
0
 10
214.7336838536198
 20
-442.8485704696533
 30
-2.5
 70
   192
  0
VERTEX
  5
12A7
  8
0
 10
216.4148615208986
 20
-442.3988680591387
 30
-2.5
 70
   192
  0
VERTEX
  5
12A8
  8
0
 10
217.9926170129141
 20
-441.6645124134227
 30
-2.5
 70
   192
  0
VERTEX
  5
12A9
  8
0
 10
0.0
 20
0.0
 30
0.0
 70
   128
 71
     1
 72
    -2
 73
     3
  0
VERTEX
  5
12AA
  8
0
 10
0.0
 20
0.0
 30
0.0
 70
   128
 71
     2
 72
     4
 73
    -3
  0
VERTEX
  5
12AB
  8
0
 10
0.0
 20
0.0
 30
0.0
 70
   128
 71
     2
 72
     5
 73
     6
  0
VERTEX
  5
12AC
  8
0
 10
0.0
 20
0.0
 30
0.0
 70
   128
 71
     6
 72
     7
 73
     2
  0
VERTEX
  5
12AD
  8
0
 10
0.0
 20
0.0
 30
0.0
 70
   128
 71
     2
 72
     7
 73
     8
  0
VERTEX
  5
12AE
  8
0
 10
0.0
 20
0.0
 30
0.0
 70
   128
 71
     4
 72
     2
 73
     8
  0
VERTEX
  5
12AF
  8
0
 10
0.0
 20
0.0
 30
0.0
 70
   128
 71
     3
 72
     9
 73
    10
  0
VERTEX
  5
12B0
  8
0
 10
0.0
 20
0.0
 30
0.0
 70
   128
 71
    11
 72
     1
 73
    -3
  0
VERTEX
  5
12B1
  8
0
 10
0.0
 20
0.0
 30
0.0
 70
   128
 71
    10
 72
   -11
 73
     3
  0
VERTEX
  5
12B2
  8
0
 10
0.0
 20
0.0
 30
0.0
 70
   128
 71
    11
 72
    12
 73
     1
  0
SEQEND
  5
1365
  8
0
  0
POLYLINE
  5
12B3
  8
0
 66
     1
 10
0.0
 20
0.0
 30
0.0
 70
    64
 71
     8
 72
     6
  0
VERTEX
  5
12B4
  8
0
 10
-221.7499999999955
 20
433.0000000000023
 30
-4.665063509461078
 70
   192
  0
VERTEX
  5
12B5
  8
0
 10
-222.6650635094566
 20
433.0000000000023
 30
-3.749999999999984
 70
   192
  0
VERTEX
  5
12B6
  8
0
 10
-222.6650635094657
 20
-432.9999999999977
 30
-3.750000000000001
 70
   192
  0
VERTEX
  5
12B7
  8
0
 10
-221.7500000000046
 20
-432.9999999999977
 30
-4.665063509461097
 70
   192
  0
VERTEX
  5
12B8
  8
0
 10
-222.9999999999955
 20
433.0000000000023
 30
-2.5
 70
   192
  0
VERTEX
  5
12B9
  8
0
 10
-223.0000000000045
 20
-432.9999999999977
 30
-2.5
 70
   192
  0
VERTEX
  5
12BA
  8
0
 10
-220.4999999999955
 20
433.0000000000023
 30
-5.0
 70
   192
  0
VERTEX
  5
12BB
  8
0
 10
-220.5000000000046
 20
-432.9999999999977
 30
-5.0
 70
   192
  0
VERTEX
  5
12BC
  8
0
 10
0.0
 20
0.0
 30
0.0
 70
   128
 71
     1
 72
     2
 73
    -3
  0
VERTEX
  5
12BD
  8
0
 10
0.0
 20
0.0
 30
0.0
 70
   128
 71
     4
 72
    -1
 73
     3
  0
VERTEX
  5
12BE
  8
0
 10
0.0
 20
0.0
 30
0.0
 70
   128
 71
     2
 72
     5
 73
    -6
  0
VERTEX
  5
12BF
  8
0
 10
0.0
 20
0.0
 30
0.0
 70
   128
 71
     3
 72
    -2
 73
     6
  0
VERTEX
  5
12C0
  8
0
 10
0.0
 20
0.0
 30
0.0
 70
   128
 71
     7
 72
     1
 73
    -4
  0
VERTEX
  5
12C1
  8
0
 10
0.0
 20
0.0
 30
0.0
 70
   128
 71
     8
 72
    -7
 73
     4
  0
SEQEND
  5
1366
  8
0
  0
POLYLINE
  5
12C2
  8
0
 66
     1
 10
0.0
 20
0.0
 30
0.0
 70
    64
 71
     8
 72
     6
  0
VERTEX
  5
12C3
  8
0
 10
-213.0000000000046
 20
-441.7499999999977
 30
-4.665063509461098
 70
   192
  0
VERTEX
  5
12C4
  8
0
 10
-213.0000000000047
 20
-442.6650635094588
 30
-3.75
 70
   192
  0
VERTEX
  5
12C5
  8
0
 10
212.9999999999954
 20
-442.6650635094634
 30
-3.75
 70
   192
  0
VERTEX
  5
12C6
  8
0
 10
212.9999999999954
 20
-441.7500000000023
 30
-4.665063509461098
 70
   192
  0
VERTEX
  5
12C7
  8
0
 10
-213.0000000000047
 20
-442.9999999999977
 30
-2.5
 70
   192
  0
VERTEX
  5
12C8
  8
0
 10
212.9999999999954
 20
-443.0000000000023
 30
-2.5
 70
   192
  0
VERTEX
  5
12C9
  8
0
 10
-213.0000000000046
 20
-440.4999999999977
 30
-5.0
 70
   192
  0
VERTEX
  5
12CA
  8
0
 10
212.9999999999954
 20
-440.5000000000023
 30
-5.000000000000002
 70
   192
  0
VERTEX
  5
12CB
  8
0
 10
0.0
 20
0.0
 30
0.0
 70
   128
 71
     1
 72
     2
 73
    -3
  0
VERTEX
  5
12CC
  8
0
 10
0.0
 20
0.0
 30
0.0
 70
   128
 71
     4
 72
    -1
 73
     3
  0
VERTEX
  5
12CD
  8
0
 10
0.0
 20
0.0
 30
0.0
 70
   128
 71
     2
 72
     5
 73
    -6
  0
VERTEX
  5
12CE
  8
0
 10
0.0
 20
0.0
 30
0.0
 70
   128
 71
     3
 72
    -2
 73
     6
  0
VERTEX
  5
12CF
  8
0
 10
0.0
 20
0.0
 30
0.0
 70
   128
 71
     7
 72
     1
 73
    -4
  0
VERTEX
  5
12D0
  8
0
 10
0.0
 20
0.0
 30
0.0
 70
   128
 71
     8
 72
    -7
 73
     4
  0
SEQEND
  5
1367
  8
0
  0
POLYLINE
  5
12D1
  8
0
 66
     1
 10
0.0
 20
0.0
 30
0.0
 70
    64
 71
    12
 72
    10
  0
VERTEX
  5
12D2
  8
0
 10
-213.0000000000047
 20
-442.6650635094588
 30
-3.75
 70
   192
  0
VERTEX
  5
12D3
  8
0
 10
-213.0000000000046
 20
-441.7499999999977
 30
-4.665063509461098
 70
   192
  0
VERTEX
  5
12D4
  8
0
 10
-221.7500000000046
 20
-432.9999999999977
 30
-4.665063509461097
 70
   192
  0
VERTEX
  5
12D5
  8
0
 10
-222.6650635094657
 20
-432.9999999999977
 30
-3.750000000000001
 70
   192
  0
VERTEX
  5
12D6
  8
0
 10
-213.0000000000046
 20
-440.4999999999977
 30
-5.000000000000002
 70
   192
  0
VERTEX
  5
12D7
  8
0
 10
-216.7500000000046
 20
-439.495190528381
 30
-5.0
 70
   192
  0
VERTEX
  5
12D8
  8
0
 10
-219.4951905283879
 20
-436.7499999999977
 30
-5.0
 70
   192
  0
VERTEX
  5
12D9
  8
0
 10
-220.5000000000046
 20
-432.9999999999977
 30
-5.0
 70
   192
  0
VERTEX
  5
12DA
  8
0
 10
-213.0000000000047
 20
-442.9999999999977
 30
-2.5
 70
   192
  0
VERTEX
  5
12DB
  8
0
 10
-218.0000000000046
 20
-441.660254037842
 30
-2.5
 70
   192
  0
VERTEX
  5
12DC
  8
0
 10
-223.0000000000046
 20
-432.9999999999977
 30
-2.5
 70
   192
  0
VERTEX
  5
12DD
  8
0
 10
-221.660254037849
 20
-437.9999999999977
 30
-2.5
 70
   192
  0
VERTEX
  5
12DE
  8
0
 10
0.0
 20
0.0
 30
0.0
 70
   128
 71
     1
 72
     2
 73
    -3
  0
VERTEX
  5
12DF
  8
0
 10
0.0
 20
0.0
 30
0.0
 70
   128
 71
     4
 72
    -1
 73
     3
  0
VERTEX
  5
12E0
  8
0
 10
0.0
 20
0.0
 30
0.0
 70
   128
 71
     2
 72
     5
 73
     6
  0
VERTEX
  5
12E1
  8
0
 10
0.0
 20
0.0
 30
0.0
 70
   128
 71
     6
 72
     7
 73
     2
  0
VERTEX
  5
12E2
  8
0
 10
0.0
 20
0.0
 30
0.0
 70
   128
 71
     2
 72
     7
 73
     8
  0
VERTEX
  5
12E3
  8
0
 10
0.0
 20
0.0
 30
0.0
 70
   128
 71
     3
 72
     2
 73
     8
  0
VERTEX
  5
12E4
  8
0
 10
0.0
 20
0.0
 30
0.0
 70
   128
 71
     9
 72
     1
 73
    10
  0
VERTEX
  5
12E5
  8
0
 10
0.0
 20
0.0
 30
0.0
 70
   128
 71
     4
 72
    11
 73
    12
  0
VERTEX
  5
12E6
  8
0
 10
0.0
 20
0.0
 30
0.0
 70
   128
 71
    10
 72
     1
 73
    -4
  0
VERTEX
  5
12E7
  8
0
 10
0.0
 20
0.0
 30
0.0
 70
   128
 71
    12
 72
   -10
 73
     4
  0
SEQEND
  5
1368
  8
0
  0
POLYLINE
  5
12E8
  8
0
 66
     1
 10
0.0
 20
0.0
 30
0.0
 70
    64
 71
     8
 72
     6
  0
VERTEX
  5
12E9
  8
0
 10
-75.10958323589114
 20
30.62352451793929
 30
-156.2773958089714
 70
   192
  0
VERTEX
  5
12EA
  8
0
 10
-75.1095832358924
 20
-30.62352451793832
 30
-156.2773958089717
 70
   192
  0
VERTEX
  5
12EB
  8
0
 10
-80.00000000000044
 20
31.10030309581829
 30
-154.9999999999982
 70
   192
  0
VERTEX
  5
12EC
  8
0
 10
-80.00000000000088
 20
-31.10030309581723
 30
-154.9999999999989
 70
   192
  0
VERTEX
  5
12ED
  8
0
 10
-71.27739580897398
 20
-30.24991528181329
 30
-160.1095832358906
 70
   192
  0
VERTEX
  5
12EE
  8
0
 10
-71.27739580897249
 20
30.24991528181426
 30
-160.109583235891
 70
   192
  0
VERTEX
  5
12EF
  8
0
 10
-70.00000000000088
 20
-30.12537886977158
 30
-165.0000000000008
 70
   192
  0
VERTEX
  5
12F0
  8
0
 10
-70.00000000000045
 20
30.12537886977269
 30
-165.0000000000006
 70
   192
  0
VERTEX
  5
12F1
  8
0
 10
0.0
 20
0.0
 30
0.0
 70
   128
 71
     1
 72
    -2
 73
     3
  0
VERTEX
  5
12F2
  8
0
 10
0.0
 20
0.0
 30
0.0
 70
   128
 71
     2
 72
     4
 73
    -3
  0
VERTEX
  5
12F3
  8
0
 10
0.0
 20
0.0
 30
0.0
 70
   128
 71
     5
 72
     2
 73
    -1
  0
VERTEX
  5
12F4
  8
0
 10
0.0
 20
0.0
 30
0.0
 70
   128
 71
     6
 72
    -5
 73
     1
  0
VERTEX
  5
12F5
  8
0
 10
0.0
 20
0.0
 30
0.0
 70
   128
 71
     7
 72
     5
 73
    -6
  0
VERTEX
  5
12F6
  8
0
 10
0.0
 20
0.0
 30
0.0
 70
   128
 71
     8
 72
    -7
 73
     6
  0
SEQEND
  5
1369
  8
0
  0
ENDBLK
  5
12F8
  8
0
  0
ENDSEC
  0
SECTION
  2
ENTITIES
  0
INSERT
  5
BE
  8
0
  2
*X1
 10
0.0
 20
0.0
 30
0.0
  0
ENDSEC
  0
EOF
