  0
SECTION
  2
HEADER
  9
$ACADVER
  1
AC1015
  9
$ACADMAINTVER
 70
    20
  9
$DWGCODEPAGE
  3
ANSI_1250
  9
$INSBASE
 10
0.0
 20
0.0
 30
0.0
  9
$EXTMIN
 10
-0.0001286472397624
 20
-435.0001525878906
 30
0.0
  9
$EXTMAX
 10
949.9999389648436
 20
0.0
 30
500.0
  9
$LIMMIN
 10
0.0
 20
0.0
  9
$LIMMAX
 10
12.0
 20
9.0
  9
$ORTHOMODE
 70
     0
  9
$REGENMODE
 70
     1
  9
$FILLMODE
 70
     1
  9
$QTEXTMODE
 70
     0
  9
$MIRRTEXT
 70
     0
  9
$LTSCALE
 40
1.0
  9
$ATTMODE
 70
     1
  9
$TEXTSIZE
 40
0.2
  9
$TRACEWID
 40
0.05
  9
$TEXTSTYLE
  7
Standard
  9
$CLAYER
  8
0
  9
$CELTYPE
  6
ByLayer
  9
$CECOLOR
 62
   256
  9
$CELTSCALE
 40
1.0
  9
$DISPSILH
 70
     0
  9
$DIMSCALE
 40
1.0
  9
$DIMASZ
 40
0.18
  9
$DIMEXO
 40
0.0625
  9
$DIMDLI
 40
0.38
  9
$DIMRND
 40
0.0
  9
$DIMDLE
 40
0.0
  9
$DIMEXE
 40
0.18
  9
$DIMTP
 40
0.0
  9
$DIMTM
 40
0.0
  9
$DIMTXT
 40
0.18
  9
$DIMCEN
 40
0.09
  9
$DIMTSZ
 40
0.0
  9
$DIMTOL
 70
     0
  9
$DIMLIM
 70
     0
  9
$DIMTIH
 70
     1
  9
$DIMTOH
 70
     1
  9
$DIMSE1
 70
     0
  9
$DIMSE2
 70
     0
  9
$DIMTAD
 70
     0
  9
$DIMZIN
 70
     0
  9
$DIMBLK
  1

  9
$DIMASO
 70
     1
  9
$DIMSHO
 70
     1
  9
$DIMPOST
  1

  9
$DIMAPOST
  1

  9
$DIMALT
 70
     0
  9
$DIMALTD
 70
     2
  9
$DIMALTF
 40
25.4
  9
$DIMLFAC
 40
1.0
  9
$DIMTOFL
 70
     0
  9
$DIMTVP
 40
0.0
  9
$DIMTIX
 70
     0
  9
$DIMSOXD
 70
     0
  9
$DIMSAH
 70
     0
  9
$DIMBLK1
  1

  9
$DIMBLK2
  1

  9
$DIMSTYLE
  2
Standard
  9
$DIMCLRD
 70
     0
  9
$DIMCLRE
 70
     0
  9
$DIMCLRT
 70
     0
  9
$DIMTFAC
 40
1.0
  9
$DIMGAP
 40
0.09
  9
$DIMJUST
 70
     0
  9
$DIMSD1
 70
     0
  9
$DIMSD2
 70
     0
  9
$DIMTOLJ
 70
     1
  9
$DIMTZIN
 70
     0
  9
$DIMALTZ
 70
     0
  9
$DIMALTTZ
 70
     0
  9
$DIMUPT
 70
     0
  9
$DIMDEC
 70
     4
  9
$DIMTDEC
 70
     4
  9
$DIMALTU
 70
     2
  9
$DIMALTTD
 70
     2
  9
$DIMTXSTY
  7
Standard
  9
$DIMAUNIT
 70
     0
  9
$DIMADEC
 70
     0
  9
$DIMALTRND
 40
0.0
  9
$DIMAZIN
 70
     0
  9
$DIMDSEP
 70
    46
  9
$DIMATFIT
 70
     3
  9
$DIMFRAC
 70
     0
  9
$DIMLDRBLK
  1

  9
$DIMLUNIT
 70
     2
  9
$DIMLWD
 70
    -2
  9
$DIMLWE
 70
    -2
  9
$DIMTMOVE
 70
     0
  9
$LUNITS
 70
     2
  9
$LUPREC
 70
     4
  9
$SKETCHINC
 40
0.1
  9
$FILLETRAD
 40
0.0
  9
$AUNITS
 70
     0
  9
$AUPREC
 70
     0
  9
$MENU
  1
.
  9
$ELEVATION
 40
0.0
  9
$PELEVATION
 40
0.0
  9
$THICKNESS
 40
0.0
  9
$LIMCHECK
 70
     0
  9
$CHAMFERA
 40
0.0
  9
$CHAMFERB
 40
0.0
  9
$CHAMFERC
 40
0.0
  9
$CHAMFERD
 40
0.0
  9
$SKPOLY
 70
     0
  9
$TDCREATE
 40
2459298.719516204
  9
$TDUCREATE
 40
2459298.636182870
  9
$TDUPDATE
 40
2459454.460658704
  9
$TDUUPDATE
 40
2459454.377325370
  9
$TDINDWG
 40
0.0013003009
  9
$TDUSRTIMER
 40
0.0013001273
  9
$USRTIMER
 70
     1
  9
$ANGBASE
 50
0.0
  9
$ANGDIR
 70
     0
  9
$PDMODE
 70
     0
  9
$PDSIZE
 40
0.0
  9
$PLINEWID
 40
0.0
  9
$SPLFRAME
 70
     0
  9
$SPLINETYPE
 70
     6
  9
$SPLINESEGS
 70
     8
  9
$HANDSEED
  5
5FA
  9
$SURFTAB1
 70
     6
  9
$SURFTAB2
 70
     6
  9
$SURFTYPE
 70
     6
  9
$SURFU
 70
     6
  9
$SURFV
 70
     6
  9
$UCSBASE
  2

  9
$UCSNAME
  2

  9
$UCSORG
 10
0.0
 20
0.0
 30
0.0
  9
$UCSXDIR
 10
1.0
 20
0.0
 30
0.0
  9
$UCSYDIR
 10
0.0
 20
1.0
 30
0.0
  9
$UCSORTHOREF
  2

  9
$UCSORTHOVIEW
 70
     0
  9
$UCSORGTOP
 10
0.0
 20
0.0
 30
0.0
  9
$UCSORGBOTTOM
 10
0.0
 20
0.0
 30
0.0
  9
$UCSORGLEFT
 10
0.0
 20
0.0
 30
0.0
  9
$UCSORGRIGHT
 10
0.0
 20
0.0
 30
0.0
  9
$UCSORGFRONT
 10
0.0
 20
0.0
 30
0.0
  9
$UCSORGBACK
 10
0.0
 20
0.0
 30
0.0
  9
$PUCSBASE
  2

  9
$PUCSNAME
  2

  9
$PUCSORG
 10
0.0
 20
0.0
 30
0.0
  9
$PUCSXDIR
 10
1.0
 20
0.0
 30
0.0
  9
$PUCSYDIR
 10
0.0
 20
1.0
 30
0.0
  9
$PUCSORTHOREF
  2

  9
$PUCSORTHOVIEW
 70
     0
  9
$PUCSORGTOP
 10
0.0
 20
0.0
 30
0.0
  9
$PUCSORGBOTTOM
 10
0.0
 20
0.0
 30
0.0
  9
$PUCSORGLEFT
 10
0.0
 20
0.0
 30
0.0
  9
$PUCSORGRIGHT
 10
0.0
 20
0.0
 30
0.0
  9
$PUCSORGFRONT
 10
0.0
 20
0.0
 30
0.0
  9
$PUCSORGBACK
 10
0.0
 20
0.0
 30
0.0
  9
$USERI1
 70
     0
  9
$USERI2
 70
     0
  9
$USERI3
 70
     0
  9
$USERI4
 70
     0
  9
$USERI5
 70
     0
  9
$USERR1
 40
0.0
  9
$USERR2
 40
0.0
  9
$USERR3
 40
0.0
  9
$USERR4
 40
0.0
  9
$USERR5
 40
0.0
  9
$WORLDVIEW
 70
     1
  9
$SHADEDGE
 70
     3
  9
$SHADEDIF
 70
    70
  9
$TILEMODE
 70
     1
  9
$MAXACTVP
 70
    64
  9
$PINSBASE
 10
0.0
 20
0.0
 30
0.0
  9
$PLIMCHECK
 70
     0
  9
$PEXTMIN
 10
0.0
 20
0.0
 30
0.0
  9
$PEXTMAX
 10
0.0
 20
0.0
 30
0.0
  9
$PLIMMIN
 10
0.0
 20
0.0
  9
$PLIMMAX
 10
12.0
 20
9.0
  9
$UNITMODE
 70
     0
  9
$VISRETAIN
 70
     1
  9
$PLINEGEN
 70
     0
  9
$PSLTSCALE
 70
     1
  9
$TREEDEPTH
 70
  3020
  9
$CMLSTYLE
  2
Standard
  9
$CMLJUST
 70
     0
  9
$CMLSCALE
 40
1.0
  9
$PROXYGRAPHICS
 70
     1
  9
$MEASUREMENT
 70
     0
  9
$CELWEIGHT
370
    -1
  9
$ENDCAPS
280
     0
  9
$JOINSTYLE
280
     0
  9
$LWDISPLAY
290
     0
  9
$INSUNITS
 70
     1
  9
$HYPERLINKBASE
  1

  9
$STYLESHEET
  1

  9
$XEDIT
290
     1
  9
$CEPSNTYPE
380
     0
  9
$PSTYLEMODE
290
     0
  9
$FINGERPRINTGUID
  2
{8750807E-3CE6-47ED-BB0A-A39944F696BC}
  9
$VERSIONGUID
  2
{81DE1E10-9A8E-405C-BA21-CE3F998B0096}
  9
$EXTNAMES
290
     1
  9
$PSVPSCALE
 40
0.0
  9
$OLESTARTUP
290
     0
  0
ENDSEC
  0
SECTION
  2
CLASSES
  0
CLASS
  1
ACDBDICTIONARYWDFLT
  2
AcDbDictionaryWithDefault
  3
ObjectDBX Classes
 90
        0
280
     0
281
     0
  0
CLASS
  1
ACDBPLACEHOLDER
  2
AcDbPlaceHolder
  3
ObjectDBX Classes
 90
        0
280
     0
281
     0
  0
CLASS
  1
LAYOUT
  2
AcDbLayout
  3
ObjectDBX Classes
 90
        0
280
     0
281
     0
  0
CLASS
  1
DICTIONARYVAR
  2
AcDbDictionaryVar
  3
ObjectDBX Classes
 90
        0
280
     0
281
     0
  0
CLASS
  1
MATERIAL
  2
AcDbMaterial
  3
ObjectDBX Classes
 90
     1153
280
     0
281
     0
  0
CLASS
  1
VISUALSTYLE
  2
AcDbVisualStyle
  3
ObjectDBX Classes
 90
     4095
280
     0
281
     0
  0
CLASS
  1
TABLESTYLE
  2
AcDbTableStyle
  3
ObjectDBX Classes
 90
     4095
280
     0
281
     0
  0
CLASS
  1
SCALE
  2
AcDbScale
  3
ObjectDBX Classes
 90
     1153
280
     0
281
     0
  0
CLASS
  1
MLEADERSTYLE
  2
AcDbMLeaderStyle
  3
ACDB_MLEADERSTYLE_CLASS
 90
     4095
280
     0
281
     0
  0
CLASS
  1
CELLSTYLEMAP
  2
AcDbCellStyleMap
  3
ObjectDBX Classes
 90
     1152
280
     0
281
     0
  0
CLASS
  1
EXACXREFPANELOBJECT
  2
ExAcXREFPanelObject
  3
EXAC_ESW
 90
    33793
280
     0
281
     0
  0
CLASS
  1
NPOCOLLECTION
  2
AcDbImpNonPersistentObjectsCollection
  3
ObjectDBX Classes
 90
     1153
280
     0
281
     0
  0
CLASS
  1
LAYER_INDEX
  2
AcDbLayerIndex
  3
ObjectDBX Classes
 90
    32768
280
     0
281
     0
  0
CLASS
  1
SPATIAL_INDEX
  2
AcDbSpatialIndex
  3
ObjectDBX Classes
 90
    32768
280
     0
281
     0
  0
CLASS
  1
IDBUFFER
  2
AcDbIdBuffer
  3
ObjectDBX Classes
 90
    32768
280
     0
281
     0
  0
CLASS
  1
ACDBSECTIONVIEWSTYLE
  2
AcDbSectionViewStyle
  3
ObjectDBX Classes
 90
     1025
280
     0
281
     0
  0
CLASS
  1
ACDBDETAILVIEWSTYLE
  2
AcDbDetailViewStyle
  3
ObjectDBX Classes
 90
     1025
280
     0
281
     0
  0
CLASS
  1
SOLID_BACKGROUND
  2
AcDbSolidBackground
  3
SCENEOE
 90
     4095
280
     0
281
     0
  0
ENDSEC
  0
SECTION
  2
TABLES
  0
TABLE
  2
VPORT
  5
8
330
0
100
AcDbSymbolTable
 70
     1
  0
VPORT
  5
90
330
8
100
AcDbSymbolTableRecord
100
AcDbViewportTableRecord
  2
*Active
 70
     0
 10
0.0
 20
0.0
 11
1.0
 21
1.0
 12
0.0
 22
0.0
 13
0.0
 23
0.0
 14
0.5
 24
0.5
 15
0.5
 25
0.5
 16
1214.540420412025
 26
-2126.298450569485
 36
2432.115592850423
 17
474.9999051588019
 27
-217.5000762939453
 37
250.0
 40
1158.328649915235
 41
2.255594817432273
 42
50.0
 43
0.0
 44
0.0
 50
0.0
 51
0.0
 71
     0
 72
  1000
 73
     1
 74
     3
 75
     0
 76
     1
 77
     0
 78
     0
281
     4
 65
     1
110
0.0
120
0.0
130
0.0
111
1.0
121
0.0
131
0.0
112
0.0
122
1.0
132
0.0
 79
     0
146
0.0
1001
ACAD_NAV_VCDISPLAY
1070
     3
  0
ENDTAB
  0
TABLE
  2
LTYPE
  5
5
330
0
100
AcDbSymbolTable
 70
     2
  0
LTYPE
  5
14
330
5
100
AcDbSymbolTableRecord
100
AcDbLinetypeTableRecord
  2
ByBlock
 70
     0
  3

 72
    65
 73
     0
 40
0.0
  0
LTYPE
  5
15
330
5
100
AcDbSymbolTableRecord
100
AcDbLinetypeTableRecord
  2
ByLayer
 70
     0
  3

 72
    65
 73
     0
 40
0.0
  0
LTYPE
  5
16
330
5
100
AcDbSymbolTableRecord
100
AcDbLinetypeTableRecord
  2
Continuous
 70
     0
  3
Solid line
 72
    65
 73
     0
 40
0.0
  0
LTYPE
  5
1A6
330
5
100
AcDbSymbolTableRecord
100
AcDbLinetypeTableRecord
  2
PHANTOM2
 70
     0
  3
Phantom (.5x) ___ _ _ ___ _ _ ___ _ _ ___ _ _
 72
    65
 73
     6
 40
1.25
 49
0.625
 74
     0
 49
-0.125
 74
     0
 49
0.125
 74
     0
 49
-0.125
 74
     0
 49
0.125
 74
     0
 49
-0.125
 74
     0
  0
ENDTAB
  0
TABLE
  2
LAYER
  5
2
102
{ACAD_XDICTIONARY
360
18B
102
}
330
0
100
AcDbSymbolTable
 70
     8
  0
LAYER
  5
10
102
{ACAD_XDICTIONARY
360
E1
102
}
330
2
100
AcDbSymbolTableRecord
100
AcDbLayerTableRecord
  2
0
 70
     0
 62
     7
  6
Continuous
370
    -3
390
F
  0
LAYER
  5
1BD
330
2
100
AcDbSymbolTableRecord
100
AcDbLayerTableRecord
  2
ASHADE
 70
     0
 62
     7
  6
Continuous
370
    -3
390
F
  0
LAYER
  5
1D4
330
2
100
AcDbSymbolTableRecord
100
AcDbLayerTableRecord
  2
-DC_BREP
 70
     0
 62
     7
  6
Continuous
370
    -3
390
F
  0
LAYER
  5
1FB
330
2
100
AcDbSymbolTableRecord
100
AcDbLayerTableRecord
  2
-DC_BREP0
 70
     0
 62
     7
  6
Continuous
370
    -3
390
F
  0
LAYER
  5
249
330
2
100
AcDbSymbolTableRecord
100
AcDbLayerTableRecord
  2
-DC_BREP2
 70
     0
 62
     7
  6
Continuous
370
    -3
390
F
  0
LAYER
  5
314
330
2
100
AcDbSymbolTableRecord
100
AcDbLayerTableRecord
  2
-DC_BREP3
 70
     0
 62
     7
  6
Continuous
370
    -3
390
F
  0
LAYER
  5
4BB
330
2
100
AcDbSymbolTableRecord
100
AcDbLayerTableRecord
  2
-DC_BREP4
 70
     0
 62
     7
  6
Continuous
370
    -3
390
F
  0
LAYER
  5
545
330
2
100
AcDbSymbolTableRecord
100
AcDbLayerTableRecord
  2
-DC_BREP6
 70
     0
 62
     7
  6
Continuous
370
    -3
390
F
  0
ENDTAB
  0
TABLE
  2
STYLE
  5
3
330
0
100
AcDbSymbolTable
 70
     3
  0
STYLE
  5
11
330
3
100
AcDbSymbolTableRecord
100
AcDbTextStyleTableRecord
  2
Standard
 70
     0
 40
0.0
 41
1.0
 50
0.0
 71
     0
 42
0.2
  3
ARIAL.TTF
  4

1001
ACAD
1000
Arial
1071
       34
  0
STYLE
  5
D7
330
3
100
AcDbSymbolTableRecord
100
AcDbTextStyleTableRecord
  2
Annotative
 70
     0
 40
0.0
 41
1.0
 50
0.0
 71
     0
 42
0.2
  3
ARIAL.TTF
  4

1001
AcadAnnotative
1000
AnnotativeData
1002
{
1070
     1
1070
     1
1002
}
1001
ACAD
1000
Arial
1071
       34
  0
STYLE
  5
1BA
330
3
100
AcDbSymbolTableRecord
100
AcDbTextStyleTableRecord
  2
ASHADE
 70
     0
 40
0.2
 41
1.0
 50
0.0
 71
     0
 42
0.2
  3
simplex
  4

  0
ENDTAB
  0
TABLE
  2
VIEW
  5
6
330
0
100
AcDbSymbolTable
 70
     0
  0
ENDTAB
  0
TABLE
  2
UCS
  5
7
330
0
100
AcDbSymbolTable
 70
     0
  0
ENDTAB
  0
TABLE
  2
APPID
  5
9
330
0
100
AcDbSymbolTable
 70
    12
  0
APPID
  5
12
330
9
100
AcDbSymbolTableRecord
100
AcDbRegAppTableRecord
  2
ACAD
 70
     0
  0
APPID
  5
D8
330
9
100
AcDbSymbolTableRecord
100
AcDbRegAppTableRecord
  2
AcadAnnoPO
 70
     0
  0
APPID
  5
D9
330
9
100
AcDbSymbolTableRecord
100
AcDbRegAppTableRecord
  2
AcadAnnotative
 70
     0
  0
APPID
  5
DA
330
9
100
AcDbSymbolTableRecord
100
AcDbRegAppTableRecord
  2
ACAD_DSTYLE_DIMJAG
 70
     0
  0
APPID
  5
DB
330
9
100
AcDbSymbolTableRecord
100
AcDbRegAppTableRecord
  2
ACAD_DSTYLE_DIMTALN
 70
     0
  0
APPID
  5
102
330
9
100
AcDbSymbolTableRecord
100
AcDbRegAppTableRecord
  2
ACAD_MLEADERVER
 70
     0
  0
APPID
  5
1A3
330
9
100
AcDbSymbolTableRecord
100
AcDbRegAppTableRecord
  2
ACAD_NAV_VCDISPLAY
 70
     0
  0
APPID
  5
1BB
330
9
100
AcDbSymbolTableRecord
100
AcDbRegAppTableRecord
  2
AVE_RENDER
 70
     0
  0
APPID
  5
1BC
330
9
100
AcDbSymbolTableRecord
100
AcDbRegAppTableRecord
  2
AVE_ENTITY_MATERIAL
 70
     0
  0
APPID
  5
1C9
330
9
100
AcDbSymbolTableRecord
100
AcDbRegAppTableRecord
  2
AVE_FINISH
 70
     0
  0
APPID
  5
1CA
330
9
100
AcDbSymbolTableRecord
100
AcDbRegAppTableRecord
  2
AVE_MATERIAL
 70
     0
  0
APPID
  5
1CB
330
9
100
AcDbSymbolTableRecord
100
AcDbRegAppTableRecord
  2
AVE_GLOBAL
 70
     0
  0
ENDTAB
  0
TABLE
  2
DIMSTYLE
  5
A
330
0
100
AcDbSymbolTable
 70
     2
100
AcDbDimStyleTable
 71
     2
340
DC
340
27
  0
DIMSTYLE
105
27
330
A
100
AcDbSymbolTableRecord
100
AcDbDimStyleTableRecord
  2
Standard
 70
     0
340
11
  0
DIMSTYLE
105
DC
330
A
100
AcDbSymbolTableRecord
100
AcDbDimStyleTableRecord
  2
Annotative
 70
     0
 40
0.0
340
11
1001
AcadAnnotative
1000
AnnotativeData
1002
{
1070
     1
1070
     1
1002
}
1001
ACAD_DSTYLE_DIMJAG
1070
   388
1040
1.5
1001
ACAD_DSTYLE_DIMTALN
1070
   392
1070
     0
  0
ENDTAB
  0
TABLE
  2
BLOCK_RECORD
  5
1
330
0
100
AcDbSymbolTable
 70
     3
  0
BLOCK_RECORD
  5
1F
102
{ACAD_XDICTIONARY
360
15A
102
}
330
1
100
AcDbSymbolTableRecord
100
AcDbBlockTableRecord
  2
*Model_Space
340
22
  0
BLOCK_RECORD
  5
73
330
1
100
AcDbSymbolTableRecord
100
AcDbBlockTableRecord
  2
*Paper_Space
340
74
  0
BLOCK_RECORD
  5
78
330
1
100
AcDbSymbolTableRecord
100
AcDbBlockTableRecord
  2
*Paper_Space0
340
79
  0
BLOCK_RECORD
  5
1BE
330
1
100
AcDbSymbolTableRecord
100
AcDbBlockTableRecord
  2
AVE_RENDER
340
0
102
{BLKREFS
331
1C1
331
1C2
331
1C3
331
1C4
331
1C5
331
1C6
331
1C7
331
1C8
102
}
  0
BLOCK_RECORD
  5
1CC
330
1
100
AcDbSymbolTableRecord
100
AcDbBlockTableRecord
  2
AVE_GLOBAL
340
0
102
{BLKREFS
331
1CF
102
}
  0
ENDTAB
  0
ENDSEC
  0
SECTION
  2
BLOCKS
  0
BLOCK
  5
20
330
1F
100
AcDbEntity
  8
0
100
AcDbBlockBegin
  2
*Model_Space
 70
     0
 10
0.0
 20
0.0
 30
0.0
  3
*Model_Space
  1

  0
ENDBLK
  5
21
330
1F
100
AcDbEntity
  8
0
100
AcDbBlockEnd
  0
BLOCK
  5
75
330
73
100
AcDbEntity
 67
     1
  8
0
100
AcDbBlockBegin
  2
*Paper_Space
 70
     0
 10
0.0
 20
0.0
 30
0.0
  3
*Paper_Space
  1

  0
ENDBLK
  5
76
330
73
100
AcDbEntity
 67
     1
  8
0
100
AcDbBlockEnd
  0
BLOCK
  5
7A
330
78
100
AcDbEntity
 67
     1
  8
0
100
AcDbBlockBegin
  2
*Paper_Space0
 70
     0
 10
0.0
 20
0.0
 30
0.0
  3
*Paper_Space0
  1

  0
ENDBLK
  5
7B
330
78
100
AcDbEntity
 67
     1
  8
0
100
AcDbBlockEnd
  0
BLOCK
  5
1BF
330
1BE
100
AcDbEntity
  8
ASHADE
100
AcDbBlockBegin
  2
AVE_RENDER
 70
     0
 10
0.0
 20
0.0
 30
0.0
  3
AVE_RENDER
  1
AVE_RENDER
  0
ENDBLK
  5
1C0
330
1BE
100
AcDbEntity
  8
0
100
AcDbBlockEnd
  0
BLOCK
  5
1CD
330
1CC
100
AcDbEntity
  8
ASHADE
100
AcDbBlockBegin
  2
AVE_GLOBAL
 70
     0
 10
0.0
 20
0.0
 30
0.0
  3
AVE_GLOBAL
  1
AVE_GLOBAL
  0
ENDBLK
  5
1CE
330
1CC
100
AcDbEntity
  8
0
100
AcDbBlockEnd
  0
ENDSEC
  0
SECTION
  2
ENTITIES
  0
INSERT
  5
1C1
330
1F
100
AcDbEntity
  8
ASHADE
 62
     1
100
AcDbBlockReference
  2
AVE_RENDER
 10
0.0
 20
0.0
 30
0.0
1001
AVE_RENDER
1002
{
1070
     7
1000
Pref
1070
    50
1070
    20
1070
     1
1070
     0
1000

1070
    10
1070
     1
1070
    10
1040
1.0
1070
     1
1040
0.6999999880790711
1040
1.0
1040
0.2000000029802322
1040
2.0
1010
-1.0
1020
-1.0
1030
-1.0
1040
0.3000000119209289
1070
    49
1070
     0
1070
     0
1010
1.0
1020
1.0
1030
1.0
1040
45.0
1070
     1
1070
     0
1000
WCS
1040
0.0
1070
     0
1040
10.0
1002
}
  0
INSERT
  5
1C2
330
1F
100
AcDbEntity
  8
ASHADE
 62
     3
100
AcDbBlockReference
  2
AVE_RENDER
 10
0.0
 20
0.0
 30
0.0
1001
AVE_RENDER
1002
{
1070
     0
1000
Full Opt
1070
     0
1070
     1
1070
     1
1070
     1
1070
     0
1070
     0
1070
     0
1070
     1
1070
     1
1040
0.0001
1040
0.0001
1002
}
  0
INSERT
  5
1C3
330
1F
100
AcDbEntity
  8
ASHADE
 62
     4
100
AcDbBlockReference
  2
AVE_RENDER
 10
0.0
 20
0.0
 30
0.0
1001
AVE_RENDER
1002
{
1070
     0
1000
Quick Opt
1070
     0
1070
     1
1070
     1
1070
     1
1070
     0
1070
     0
1070
     1
1002
}
  0
INSERT
  5
1C4
330
1F
100
AcDbEntity
  8
ASHADE
 62
     5
100
AcDbBlockReference
  2
AVE_RENDER
 10
0.0
 20
0.0
 30
0.0
1001
AVE_RENDER
1002
{
1070
     1
1000
Scanl Opt
1070
     2
1070
     0
1070
     2
1040
2.0
1040
4.0
1070
     0
1070
     1
1070
     0
1040
0.03
1002
}
  0
INSERT
  5
1C5
330
1F
100
AcDbEntity
  8
ASHADE
 62
     6
100
AcDbBlockReference
  2
AVE_RENDER
 10
0.0
 20
0.0
 30
0.0
1001
AVE_RENDER
1002
{
1070
     2
1000
Raytr Opt
1070
     2
1070
     0
1070
     2
1040
2.0
1040
4.0
1070
     0
1070
     1
1070
     1
1040
0.03
1070
     3
1040
0.03
1002
}
  0
INSERT
  5
1C6
330
1F
100
AcDbEntity
  8
ASHADE
 62
     7
100
AcDbBlockReference
  2
AVE_RENDER
 10
0.0
 20
0.0
 30
0.0
1001
AVE_RENDER
1002
{
1070
     0
1000
RFile Opt
1070
     1
1070
   640
1070
   480
1070
 10000
1070
     1
1070
     8
1070
     8
1070
     0
1070
     0
1070
     0
1070
     0
1070
     0
1070
     0
1070
     0
1002
}
  0
INSERT
  5
1C7
330
1F
100
AcDbEntity
  8
ASHADE
 62
     8
100
AcDbBlockReference
  2
AVE_RENDER
 10
0.0
 20
0.0
 30
0.0
1001
AVE_RENDER
1002
{
1070
     0
1000
Fog Opt
1070
     0
1070
     0
1040
0.0
1040
1.0
1040
0.0
1040
1.0
1010
0.5
1020
0.5
1030
0.5
1002
}
  0
INSERT
  5
1C8
330
1F
100
AcDbEntity
  8
ASHADE
 62
     9
100
AcDbBlockReference
  2
AVE_RENDER
 10
0.0
 20
0.0
 30
0.0
1001
AVE_RENDER
1002
{
1070
     0
1000
BG Opt
1070
     0
1070
     1
1010
0.0
1020
0.0
1030
0.0
1010
0.0
1020
0.0
1030
1.0
1010
0.0
1020
1.0
1030
0.0
1010
1.0
1020
0.0
1030
0.0
1040
0.5
1040
0.5
1040
0.0
1000

1070
     1
1000

1070
     1
1070
     1
1040
1.0
1040
1.0
1040
0.0
1040
0.0
1070
     0
1002
}
  0
INSERT
  5
1CF
330
1F
100
AcDbEntity
  8
ASHADE
 62
     1
100
AcDbBlockReference
  2
AVE_GLOBAL
 10
0.0
 20
0.0
 30
0.0
1001
AVE_MATERIAL
1002
{
1000
*GLOBAL*
1000
2
1000
Global finish.
1002
{
1002
}
1002
{
1070
    63
1002
{
1002
{
1010
-1.0
1020
-1.0
1030
-1.0
1002
}
1040
0.6999999880790711
1000

1040
0.0
1002
{
1002
}
1040
0.0
1002
{
1002
}
1040
0.0
1002
}
1002
{
1002
{
1010
-1.0
1020
-1.0
1030
-1.0
1002
}
1040
1.0
1000

1040
0.0
1002
{
1002
}
1040
0.0
1002
{
1002
}
1040
0.0
1002
}
1002
{
1002
{
1010
-1.0
1020
-1.0
1030
-1.0
1002
}
1040
0.2000000029802322
1000

1040
0.0
1002
{
1002
}
1040
0.0
1002
{
1002
}
1040
0.0
1002
}
1002
{
1070
     0
1002
{
1070
     1
1002
{
1040
1.0
1040
1.0
1000

1040
0.0
1002
{
1002
}
1040
0.0
1002
{
1002
}
1040
0.0
1002
}
1002
}
1040
1.0
1040
0.0
1040
0.0
1002
}
1002
{
1040
1.0
1040
1.0
1000

1040
0.0
1002
{
1002
}
1040
0.0
1002
{
1002
}
1040
0.0
1002
}
1002
{
1040
0.5
1040
1.0
1000

1040
0.0
1002
{
1002
}
1040
0.0
1002
{
1002
}
1040
0.0
1002
}
1002
{
1070
     0
1040
0.0
1002
{
1002
}
1040
1.0
1002
{
1002
}
1040
0.0
1002
}
1002
{
1040
0.0
1002
{
1002
{
1010
0.0
1020
0.0
1030
0.0
1002
}
1040
1.0
1000

1040
0.0
1002
{
1002
}
1040
0.0
1002
{
1002
}
1040
0.0
1002
}
1002
}
1002
{
1002
{
1070
     1
1002
{
1040
0.0
1040
1.0
1000

1040
0.0
1002
{
1002
}
1040
0.0
1002
{
1002
}
1040
0.0
1002
}
1002
}
1040
0.0
1002
{
1002
}
1010
1.0
1020
0.0
1030
0.0
1010
0.0
1020
1.0
1030
0.0
1010
0.0
1020
0.0
1030
1.0
1070
     0
1002
}
1002
{
1002
{
1040
1.0
1040
1.0
1002
{
1070
     1
1002
{
1040
1.0
1040
1.0
1000

1040
0.0
1002
{
1002
}
1040
0.0
1002
{
1002
}
1040
0.0
1002
}
1002
}
1002
}
1070
     0
1040
0.0
1002
{
1002
}
1002
}
1002
{
1002
}
1002
}
1002
{
1071
        3
1070
     3
1070
     0
1002
{
1070
     2
1070
     0
1070
     0
1040
0.0
1002
}
1070
     0
1070
     2
1002
{
1002
}
1002
}
1002
{
1040
8030.0
1040
190.3000030517578
1040
0.3050000071525574
1040
228.0
1040
545.0
1040
14.0
1040
17.39999961853027
1040
0.4560000002384186
1002
}
1000

1002
}
  0
POLYLINE
  5
1D5
330
1F
100
AcDbEntity
  8
-DC_BREP
100
AcDbPolyFaceMesh
 66
     1
 10
0.0
 20
0.0
 30
0.0
 70
    64
 71
    24
 72
    12
1001
AVE_ENTITY_MATERIAL
1002
{
1000

1002
{
1071
        0
1070
     0
1070
     0
1002
{
1070
     0
1070
     0
1070
     0
1040
0.0
1002
}
1070
     0
1070
     0
1002
{
1002
}
1002
}
1002
{
1002
}
1002
{
1002
}
1011
0.0
1021
0.0
1031
0.0
1011
1.0
1021
0.0
1031
0.0
1011
0.0
1021
1.0
1031
0.0
1011
0.0
1021
0.0
1031
1.0
1002
}
  0
VERTEX
  5
1D6
330
1D5
100
AcDbEntity
  8
-DC_BREP
100
AcDbVertex
100
AcDbPolyFaceMeshVertex
 10
49.99993896484375
 20
-417.0
 30
308.0
 70
   192
  0
VERTEX
  5
1D7
330
1D5
100
AcDbEntity
  8
-DC_BREP
100
AcDbVertex
100
AcDbPolyFaceMeshVertex
 10
49.99993896484375
 20
-67.0
 30
292.0
 70
   192
  0
VERTEX
  5
1D8
330
1D5
100
AcDbEntity
  8
-DC_BREP
100
AcDbVertex
100
AcDbPolyFaceMeshVertex
 10
49.99993896484375
 20
-417.0
 30
292.0
 70
   192
  0
VERTEX
  5
1D9
330
1D5
100
AcDbEntity
  8
-DC_BREP
100
AcDbVertex
100
AcDbPolyFaceMeshVertex
 10
49.99993896484375
 20
-67.0
 30
308.0
 70
   192
  0
VERTEX
  5
1DA
330
1D5
100
AcDbEntity
  8
-DC_BREP
100
AcDbVertex
100
AcDbPolyFaceMeshVertex
 10
49.99993896484375
 20
-67.0
 30
308.0
 70
   192
  0
VERTEX
  5
1DB
330
1D5
100
AcDbEntity
  8
-DC_BREP
100
AcDbVertex
100
AcDbPolyFaceMeshVertex
 10
899.9999389648436
 20
-67.0
 30
292.0
 70
   192
  0
VERTEX
  5
1DC
330
1D5
100
AcDbEntity
  8
-DC_BREP
100
AcDbVertex
100
AcDbPolyFaceMeshVertex
 10
49.99993896484375
 20
-67.0
 30
292.0
 70
   192
  0
VERTEX
  5
1DD
330
1D5
100
AcDbEntity
  8
-DC_BREP
100
AcDbVertex
100
AcDbPolyFaceMeshVertex
 10
899.9999389648436
 20
-67.0
 30
308.0
 70
   192
  0
VERTEX
  5
1DE
330
1D5
100
AcDbEntity
  8
-DC_BREP
100
AcDbVertex
100
AcDbPolyFaceMeshVertex
 10
899.9999389648436
 20
-417.0
 30
308.0
 70
   192
  0
VERTEX
  5
1DF
330
1D5
100
AcDbEntity
  8
-DC_BREP
100
AcDbVertex
100
AcDbPolyFaceMeshVertex
 10
899.9999389648436
 20
-67.0
 30
292.0
 70
   192
  0
VERTEX
  5
1E0
330
1D5
100
AcDbEntity
  8
-DC_BREP
100
AcDbVertex
100
AcDbPolyFaceMeshVertex
 10
899.9999389648436
 20
-67.0
 30
308.0
 70
   192
  0
VERTEX
  5
1E1
330
1D5
100
AcDbEntity
  8
-DC_BREP
100
AcDbVertex
100
AcDbPolyFaceMeshVertex
 10
899.9999389648436
 20
-417.0
 30
292.0
 70
   192
  0
VERTEX
  5
1E2
330
1D5
100
AcDbEntity
  8
-DC_BREP
100
AcDbVertex
100
AcDbPolyFaceMeshVertex
 10
899.9999389648436
 20
-417.0
 30
308.0
 70
   192
  0
VERTEX
  5
1E3
330
1D5
100
AcDbEntity
  8
-DC_BREP
100
AcDbVertex
100
AcDbPolyFaceMeshVertex
 10
49.99993896484375
 20
-417.0
 30
292.0
 70
   192
  0
VERTEX
  5
1E4
330
1D5
100
AcDbEntity
  8
-DC_BREP
100
AcDbVertex
100
AcDbPolyFaceMeshVertex
 10
899.9999389648436
 20
-417.0
 30
292.0
 70
   192
  0
VERTEX
  5
1E5
330
1D5
100
AcDbEntity
  8
-DC_BREP
100
AcDbVertex
100
AcDbPolyFaceMeshVertex
 10
49.99993896484375
 20
-417.0
 30
308.0
 70
   192
  0
VERTEX
  5
1E6
330
1D5
100
AcDbEntity
  8
-DC_BREP
100
AcDbVertex
100
AcDbPolyFaceMeshVertex
 10
899.9999389648436
 20
-67.0
 30
292.0
 70
   192
  0
VERTEX
  5
1E7
330
1D5
100
AcDbEntity
  8
-DC_BREP
100
AcDbVertex
100
AcDbPolyFaceMeshVertex
 10
49.99993896484375
 20
-417.0
 30
292.0
 70
   192
  0
VERTEX
  5
1E8
330
1D5
100
AcDbEntity
  8
-DC_BREP
100
AcDbVertex
100
AcDbPolyFaceMeshVertex
 10
49.99993896484375
 20
-67.0
 30
292.0
 70
   192
  0
VERTEX
  5
1E9
330
1D5
100
AcDbEntity
  8
-DC_BREP
100
AcDbVertex
100
AcDbPolyFaceMeshVertex
 10
899.9999389648436
 20
-417.0
 30
292.0
 70
   192
  0
VERTEX
  5
1EA
330
1D5
100
AcDbEntity
  8
-DC_BREP
100
AcDbVertex
100
AcDbPolyFaceMeshVertex
 10
49.99993896484375
 20
-417.0
 30
308.0
 70
   192
  0
VERTEX
  5
1EB
330
1D5
100
AcDbEntity
  8
-DC_BREP
100
AcDbVertex
100
AcDbPolyFaceMeshVertex
 10
899.9999389648436
 20
-67.0
 30
308.0
 70
   192
  0
VERTEX
  5
1EC
330
1D5
100
AcDbEntity
  8
-DC_BREP
100
AcDbVertex
100
AcDbPolyFaceMeshVertex
 10
49.99993896484375
 20
-67.0
 30
308.0
 70
   192
  0
VERTEX
  5
1ED
330
1D5
100
AcDbEntity
  8
-DC_BREP
100
AcDbVertex
100
AcDbPolyFaceMeshVertex
 10
899.9999389648436
 20
-417.0
 30
308.0
 70
   192
  0
VERTEX
  5
1EE
330
1D5
100
AcDbEntity
  8
-DC_BREP
100
AcDbFaceRecord
 10
0.0
 20
0.0
 30
0.0
 70
   128
 71
     1
 72
     2
 73
     3
  0
VERTEX
  5
1EF
330
1D5
100
AcDbEntity
  8
-DC_BREP
100
AcDbFaceRecord
 10
0.0
 20
0.0
 30
0.0
 70
   128
 71
     2
 72
     1
 73
     4
  0
VERTEX
  5
1F0
330
1D5
100
AcDbEntity
  8
-DC_BREP
100
AcDbFaceRecord
 10
0.0
 20
0.0
 30
0.0
 70
   128
 71
     5
 72
     6
 73
     7
  0
VERTEX
  5
1F1
330
1D5
100
AcDbEntity
  8
-DC_BREP
100
AcDbFaceRecord
 10
0.0
 20
0.0
 30
0.0
 70
   128
 71
     6
 72
     5
 73
     8
  0
VERTEX
  5
1F2
330
1D5
100
AcDbEntity
  8
-DC_BREP
100
AcDbFaceRecord
 10
0.0
 20
0.0
 30
0.0
 70
   128
 71
     9
 72
    10
 73
    11
  0
VERTEX
  5
1F3
330
1D5
100
AcDbEntity
  8
-DC_BREP
100
AcDbFaceRecord
 10
0.0
 20
0.0
 30
0.0
 70
   128
 71
    10
 72
     9
 73
    12
  0
VERTEX
  5
1F4
330
1D5
100
AcDbEntity
  8
-DC_BREP
100
AcDbFaceRecord
 10
0.0
 20
0.0
 30
0.0
 70
   128
 71
    13
 72
    14
 73
    15
  0
VERTEX
  5
1F5
330
1D5
100
AcDbEntity
  8
-DC_BREP
100
AcDbFaceRecord
 10
0.0
 20
0.0
 30
0.0
 70
   128
 71
    14
 72
    13
 73
    16
  0
VERTEX
  5
1F6
330
1D5
100
AcDbEntity
  8
-DC_BREP
100
AcDbFaceRecord
 10
0.0
 20
0.0
 30
0.0
 70
   128
 71
    17
 72
    18
 73
    19
  0
VERTEX
  5
1F7
330
1D5
100
AcDbEntity
  8
-DC_BREP
100
AcDbFaceRecord
 10
0.0
 20
0.0
 30
0.0
 70
   128
 71
    18
 72
    17
 73
    20
  0
VERTEX
  5
1F8
330
1D5
100
AcDbEntity
  8
-DC_BREP
100
AcDbFaceRecord
 10
0.0
 20
0.0
 30
0.0
 70
   128
 71
    21
 72
    22
 73
    23
  0
VERTEX
  5
1F9
330
1D5
100
AcDbEntity
  8
-DC_BREP
100
AcDbFaceRecord
 10
0.0
 20
0.0
 30
0.0
 70
   128
 71
    22
 72
    21
 73
    24
  0
SEQEND
  5
1FA
330
1D5
100
AcDbEntity
  8
-DC_BREP
  0
POLYLINE
  5
1FC
330
1F
100
AcDbEntity
  8
-DC_BREP0
100
AcDbPolyFaceMesh
 66
     1
 10
0.0
 20
0.0
 30
0.0
 70
    64
 71
    24
 72
    12
1001
AVE_ENTITY_MATERIAL
1002
{
1000

1002
{
1071
        0
1070
     0
1070
     0
1002
{
1070
     0
1070
     0
1070
     0
1040
0.0
1002
}
1070
     0
1070
     0
1002
{
1002
}
1002
}
1002
{
1002
}
1002
{
1002
}
1011
0.0
1021
0.0
1031
0.0
1011
1.0
1021
0.0
1031
0.0
1011
0.0
1021
1.0
1031
0.0
1011
0.0
1021
0.0
1031
1.0
1002
}
  0
VERTEX
  5
1FD
330
1FC
100
AcDbEntity
  8
-DC_BREP0
100
AcDbVertex
100
AcDbPolyFaceMeshVertex
 10
899.9999389648436
 20
-67.0
 30
377.0
 70
   192
  0
VERTEX
  5
1FE
330
1FC
100
AcDbEntity
  8
-DC_BREP0
100
AcDbVertex
100
AcDbPolyFaceMeshVertex
 10
899.9999389648436
 20
-83.0
 30
308.0
 70
   192
  0
VERTEX
  5
1FF
330
1FC
100
AcDbEntity
  8
-DC_BREP0
100
AcDbVertex
100
AcDbPolyFaceMeshVertex
 10
899.9999389648436
 20
-67.0
 30
308.0
 70
   192
  0
VERTEX
  5
200
330
1FC
100
AcDbEntity
  8
-DC_BREP0
100
AcDbVertex
100
AcDbPolyFaceMeshVertex
 10
899.9999389648436
 20
-83.0
 30
377.0
 70
   192
  0
VERTEX
  5
201
330
1FC
100
AcDbEntity
  8
-DC_BREP0
100
AcDbVertex
100
AcDbPolyFaceMeshVertex
 10
49.99993896484375
 20
-83.0
 30
377.0
 70
   192
  0
VERTEX
  5
202
330
1FC
100
AcDbEntity
  8
-DC_BREP0
100
AcDbVertex
100
AcDbPolyFaceMeshVertex
 10
899.9999389648436
 20
-83.0
 30
308.0
 70
   192
  0
VERTEX
  5
203
330
1FC
100
AcDbEntity
  8
-DC_BREP0
100
AcDbVertex
100
AcDbPolyFaceMeshVertex
 10
899.9999389648436
 20
-83.0
 30
377.0
 70
   192
  0
VERTEX
  5
204
330
1FC
100
AcDbEntity
  8
-DC_BREP0
100
AcDbVertex
100
AcDbPolyFaceMeshVertex
 10
49.99993896484375
 20
-83.0
 30
308.0
 70
   192
  0
VERTEX
  5
205
330
1FC
100
AcDbEntity
  8
-DC_BREP0
100
AcDbVertex
100
AcDbPolyFaceMeshVertex
 10
49.99993896484375
 20
-83.0
 30
377.0
 70
   192
  0
VERTEX
  5
206
330
1FC
100
AcDbEntity
  8
-DC_BREP0
100
AcDbVertex
100
AcDbPolyFaceMeshVertex
 10
49.99993896484375
 20
-67.0
 30
308.0
 70
   192
  0
VERTEX
  5
207
330
1FC
100
AcDbEntity
  8
-DC_BREP0
100
AcDbVertex
100
AcDbPolyFaceMeshVertex
 10
49.99993896484375
 20
-83.0
 30
308.0
 70
   192
  0
VERTEX
  5
208
330
1FC
100
AcDbEntity
  8
-DC_BREP0
100
AcDbVertex
100
AcDbPolyFaceMeshVertex
 10
49.99993896484375
 20
-67.0
 30
377.0
 70
   192
  0
VERTEX
  5
209
330
1FC
100
AcDbEntity
  8
-DC_BREP0
100
AcDbVertex
100
AcDbPolyFaceMeshVertex
 10
899.9999389648436
 20
-67.0
 30
377.0
 70
   192
  0
VERTEX
  5
20A
330
1FC
100
AcDbEntity
  8
-DC_BREP0
100
AcDbVertex
100
AcDbPolyFaceMeshVertex
 10
49.99993896484375
 20
-67.0
 30
308.0
 70
   192
  0
VERTEX
  5
20B
330
1FC
100
AcDbEntity
  8
-DC_BREP0
100
AcDbVertex
100
AcDbPolyFaceMeshVertex
 10
49.99993896484375
 20
-67.0
 30
377.0
 70
   192
  0
VERTEX
  5
20C
330
1FC
100
AcDbEntity
  8
-DC_BREP0
100
AcDbVertex
100
AcDbPolyFaceMeshVertex
 10
899.9999389648436
 20
-67.0
 30
308.0
 70
   192
  0
VERTEX
  5
20D
330
1FC
100
AcDbEntity
  8
-DC_BREP0
100
AcDbVertex
100
AcDbPolyFaceMeshVertex
 10
899.9999389648436
 20
-83.0
 30
377.0
 70
   192
  0
VERTEX
  5
20E
330
1FC
100
AcDbEntity
  8
-DC_BREP0
100
AcDbVertex
100
AcDbPolyFaceMeshVertex
 10
49.99993896484375
 20
-67.0
 30
377.0
 70
   192
  0
VERTEX
  5
20F
330
1FC
100
AcDbEntity
  8
-DC_BREP0
100
AcDbVertex
100
AcDbPolyFaceMeshVertex
 10
49.99993896484375
 20
-83.0
 30
377.0
 70
   192
  0
VERTEX
  5
210
330
1FC
100
AcDbEntity
  8
-DC_BREP0
100
AcDbVertex
100
AcDbPolyFaceMeshVertex
 10
899.9999389648436
 20
-67.0
 30
377.0
 70
   192
  0
VERTEX
  5
211
330
1FC
100
AcDbEntity
  8
-DC_BREP0
100
AcDbVertex
100
AcDbPolyFaceMeshVertex
 10
49.99993896484375
 20
-67.0
 30
308.0
 70
   192
  0
VERTEX
  5
212
330
1FC
100
AcDbEntity
  8
-DC_BREP0
100
AcDbVertex
100
AcDbPolyFaceMeshVertex
 10
899.9999389648436
 20
-83.0
 30
308.0
 70
   192
  0
VERTEX
  5
213
330
1FC
100
AcDbEntity
  8
-DC_BREP0
100
AcDbVertex
100
AcDbPolyFaceMeshVertex
 10
49.99993896484375
 20
-83.0
 30
308.0
 70
   192
  0
VERTEX
  5
214
330
1FC
100
AcDbEntity
  8
-DC_BREP0
100
AcDbVertex
100
AcDbPolyFaceMeshVertex
 10
899.9999389648436
 20
-67.0
 30
308.0
 70
   192
  0
VERTEX
  5
215
330
1FC
100
AcDbEntity
  8
-DC_BREP0
100
AcDbFaceRecord
 10
0.0
 20
0.0
 30
0.0
 70
   128
 71
     1
 72
     2
 73
     3
  0
VERTEX
  5
216
330
1FC
100
AcDbEntity
  8
-DC_BREP0
100
AcDbFaceRecord
 10
0.0
 20
0.0
 30
0.0
 70
   128
 71
     2
 72
     1
 73
     4
  0
VERTEX
  5
217
330
1FC
100
AcDbEntity
  8
-DC_BREP0
100
AcDbFaceRecord
 10
0.0
 20
0.0
 30
0.0
 70
   128
 71
     5
 72
     6
 73
     7
  0
VERTEX
  5
218
330
1FC
100
AcDbEntity
  8
-DC_BREP0
100
AcDbFaceRecord
 10
0.0
 20
0.0
 30
0.0
 70
   128
 71
     6
 72
     5
 73
     8
  0
VERTEX
  5
219
330
1FC
100
AcDbEntity
  8
-DC_BREP0
100
AcDbFaceRecord
 10
0.0
 20
0.0
 30
0.0
 70
   128
 71
     9
 72
    10
 73
    11
  0
VERTEX
  5
21A
330
1FC
100
AcDbEntity
  8
-DC_BREP0
100
AcDbFaceRecord
 10
0.0
 20
0.0
 30
0.0
 70
   128
 71
    10
 72
     9
 73
    12
  0
VERTEX
  5
21B
330
1FC
100
AcDbEntity
  8
-DC_BREP0
100
AcDbFaceRecord
 10
0.0
 20
0.0
 30
0.0
 70
   128
 71
    13
 72
    14
 73
    15
  0
VERTEX
  5
21C
330
1FC
100
AcDbEntity
  8
-DC_BREP0
100
AcDbFaceRecord
 10
0.0
 20
0.0
 30
0.0
 70
   128
 71
    14
 72
    13
 73
    16
  0
VERTEX
  5
21D
330
1FC
100
AcDbEntity
  8
-DC_BREP0
100
AcDbFaceRecord
 10
0.0
 20
0.0
 30
0.0
 70
   128
 71
    17
 72
    18
 73
    19
  0
VERTEX
  5
21E
330
1FC
100
AcDbEntity
  8
-DC_BREP0
100
AcDbFaceRecord
 10
0.0
 20
0.0
 30
0.0
 70
   128
 71
    18
 72
    17
 73
    20
  0
VERTEX
  5
21F
330
1FC
100
AcDbEntity
  8
-DC_BREP0
100
AcDbFaceRecord
 10
0.0
 20
0.0
 30
0.0
 70
   128
 71
    21
 72
    22
 73
    23
  0
VERTEX
  5
220
330
1FC
100
AcDbEntity
  8
-DC_BREP0
100
AcDbFaceRecord
 10
0.0
 20
0.0
 30
0.0
 70
   128
 71
    22
 72
    21
 73
    24
  0
SEQEND
  5
221
330
1FC
100
AcDbEntity
  8
-DC_BREP0
  0
POLYLINE
  5
223
330
1F
100
AcDbEntity
  8
-DC_BREP4
100
AcDbPolyFaceMesh
 66
     1
 10
0.0
 20
0.0
 30
0.0
 70
    64
 71
    24
 72
    12
1001
AVE_ENTITY_MATERIAL
1002
{
1000

1002
{
1071
        0
1070
     0
1070
     0
1002
{
1070
     0
1070
     0
1070
     0
1040
0.0
1002
}
1070
     0
1070
     0
1002
{
1002
}
1002
}
1002
{
1002
}
1002
{
1002
}
1011
0.0
1021
0.0
1031
0.0
1011
1.0
1021
0.0
1031
0.0
1011
0.0
1021
1.0
1031
0.0
1011
0.0
1021
0.0
1031
1.0
1002
}
  0
VERTEX
  5
224
330
223
100
AcDbEntity
  8
-DC_BREP4
100
AcDbVertex
100
AcDbPolyFaceMeshVertex
 10
-0.00006103515625
 20
-417.0
 30
262.0
 70
   192
  0
VERTEX
  5
225
330
223
100
AcDbEntity
  8
-DC_BREP4
100
AcDbVertex
100
AcDbPolyFaceMeshVertex
 10
-0.00006103515625
 20
-435.0
 30
496.0
 70
   192
  0
VERTEX
  5
226
330
223
100
AcDbEntity
  8
-DC_BREP4
100
AcDbVertex
100
AcDbPolyFaceMeshVertex
 10
-0.00006103515625
 20
-417.0
 30
496.0
 70
   192
  0
VERTEX
  5
227
330
223
100
AcDbEntity
  8
-DC_BREP4
100
AcDbVertex
100
AcDbPolyFaceMeshVertex
 10
-0.00006103515625
 20
-435.0
 30
262.0
 70
   192
  0
VERTEX
  5
228
330
223
100
AcDbEntity
  8
-DC_BREP4
100
AcDbVertex
100
AcDbPolyFaceMeshVertex
 10
949.9999389648436
 20
-417.0
 30
496.0
 70
   192
  0
VERTEX
  5
229
330
223
100
AcDbEntity
  8
-DC_BREP4
100
AcDbVertex
100
AcDbPolyFaceMeshVertex
 10
-0.00006103515625
 20
-435.0
 30
496.0
 70
   192
  0
VERTEX
  5
22A
330
223
100
AcDbEntity
  8
-DC_BREP4
100
AcDbVertex
100
AcDbPolyFaceMeshVertex
 10
949.9999389648436
 20
-435.0
 30
496.0
 70
   192
  0
VERTEX
  5
22B
330
223
100
AcDbEntity
  8
-DC_BREP4
100
AcDbVertex
100
AcDbPolyFaceMeshVertex
 10
-0.00006103515625
 20
-417.0
 30
496.0
 70
   192
  0
VERTEX
  5
22C
330
223
100
AcDbEntity
  8
-DC_BREP4
100
AcDbVertex
100
AcDbPolyFaceMeshVertex
 10
949.9999389648436
 20
-417.0
 30
496.0
 70
   192
  0
VERTEX
  5
22D
330
223
100
AcDbEntity
  8
-DC_BREP4
100
AcDbVertex
100
AcDbPolyFaceMeshVertex
 10
949.9999389648436
 20
-435.0
 30
262.0
 70
   192
  0
VERTEX
  5
22E
330
223
100
AcDbEntity
  8
-DC_BREP4
100
AcDbVertex
100
AcDbPolyFaceMeshVertex
 10
949.9999389648436
 20
-417.0
 30
262.0
 70
   192
  0
VERTEX
  5
22F
330
223
100
AcDbEntity
  8
-DC_BREP4
100
AcDbVertex
100
AcDbPolyFaceMeshVertex
 10
949.9999389648436
 20
-435.0
 30
496.0
 70
   192
  0
VERTEX
  5
230
330
223
100
AcDbEntity
  8
-DC_BREP4
100
AcDbVertex
100
AcDbPolyFaceMeshVertex
 10
-0.00006103515625
 20
-417.0
 30
262.0
 70
   192
  0
VERTEX
  5
231
330
223
100
AcDbEntity
  8
-DC_BREP4
100
AcDbVertex
100
AcDbPolyFaceMeshVertex
 10
949.9999389648436
 20
-435.0
 30
262.0
 70
   192
  0
VERTEX
  5
232
330
223
100
AcDbEntity
  8
-DC_BREP4
100
AcDbVertex
100
AcDbPolyFaceMeshVertex
 10
-0.00006103515625
 20
-435.0
 30
262.0
 70
   192
  0
VERTEX
  5
233
330
223
100
AcDbEntity
  8
-DC_BREP4
100
AcDbVertex
100
AcDbPolyFaceMeshVertex
 10
949.9999389648436
 20
-417.0
 30
262.0
 70
   192
  0
VERTEX
  5
234
330
223
100
AcDbEntity
  8
-DC_BREP4
100
AcDbVertex
100
AcDbPolyFaceMeshVertex
 10
-0.00006103515625
 20
-435.0
 30
262.0
 70
   192
  0
VERTEX
  5
235
330
223
100
AcDbEntity
  8
-DC_BREP4
100
AcDbVertex
100
AcDbPolyFaceMeshVertex
 10
949.9999389648436
 20
-435.0
 30
496.0
 70
   192
  0
VERTEX
  5
236
330
223
100
AcDbEntity
  8
-DC_BREP4
100
AcDbVertex
100
AcDbPolyFaceMeshVertex
 10
-0.00006103515625
 20
-435.0
 30
496.0
 70
   192
  0
VERTEX
  5
237
330
223
100
AcDbEntity
  8
-DC_BREP4
100
AcDbVertex
100
AcDbPolyFaceMeshVertex
 10
949.9999389648436
 20
-435.0
 30
262.0
 70
   192
  0
VERTEX
  5
238
330
223
100
AcDbEntity
  8
-DC_BREP4
100
AcDbVertex
100
AcDbPolyFaceMeshVertex
 10
-0.00006103515625
 20
-417.0
 30
262.0
 70
   192
  0
VERTEX
  5
239
330
223
100
AcDbEntity
  8
-DC_BREP4
100
AcDbVertex
100
AcDbPolyFaceMeshVertex
 10
949.9999389648436
 20
-417.0
 30
496.0
 70
   192
  0
VERTEX
  5
23A
330
223
100
AcDbEntity
  8
-DC_BREP4
100
AcDbVertex
100
AcDbPolyFaceMeshVertex
 10
949.9999389648436
 20
-417.0
 30
262.0
 70
   192
  0
VERTEX
  5
23B
330
223
100
AcDbEntity
  8
-DC_BREP4
100
AcDbVertex
100
AcDbPolyFaceMeshVertex
 10
-0.00006103515625
 20
-417.0
 30
496.0
 70
   192
  0
VERTEX
  5
23C
330
223
100
AcDbEntity
  8
-DC_BREP4
100
AcDbFaceRecord
 10
0.0
 20
0.0
 30
0.0
 70
   128
 71
     1
 72
     2
 73
     3
  0
VERTEX
  5
23D
330
223
100
AcDbEntity
  8
-DC_BREP4
100
AcDbFaceRecord
 10
0.0
 20
0.0
 30
0.0
 70
   128
 71
     2
 72
     1
 73
     4
  0
VERTEX
  5
23E
330
223
100
AcDbEntity
  8
-DC_BREP4
100
AcDbFaceRecord
 10
0.0
 20
0.0
 30
0.0
 70
   128
 71
     5
 72
     6
 73
     7
  0
VERTEX
  5
23F
330
223
100
AcDbEntity
  8
-DC_BREP4
100
AcDbFaceRecord
 10
0.0
 20
0.0
 30
0.0
 70
   128
 71
     6
 72
     5
 73
     8
  0
VERTEX
  5
240
330
223
100
AcDbEntity
  8
-DC_BREP4
100
AcDbFaceRecord
 10
0.0
 20
0.0
 30
0.0
 70
   128
 71
     9
 72
    10
 73
    11
  0
VERTEX
  5
241
330
223
100
AcDbEntity
  8
-DC_BREP4
100
AcDbFaceRecord
 10
0.0
 20
0.0
 30
0.0
 70
   128
 71
    10
 72
     9
 73
    12
  0
VERTEX
  5
242
330
223
100
AcDbEntity
  8
-DC_BREP4
100
AcDbFaceRecord
 10
0.0
 20
0.0
 30
0.0
 70
   128
 71
    13
 72
    14
 73
    15
  0
VERTEX
  5
243
330
223
100
AcDbEntity
  8
-DC_BREP4
100
AcDbFaceRecord
 10
0.0
 20
0.0
 30
0.0
 70
   128
 71
    14
 72
    13
 73
    16
  0
VERTEX
  5
244
330
223
100
AcDbEntity
  8
-DC_BREP4
100
AcDbFaceRecord
 10
0.0
 20
0.0
 30
0.0
 70
   128
 71
    17
 72
    18
 73
    19
  0
VERTEX
  5
245
330
223
100
AcDbEntity
  8
-DC_BREP4
100
AcDbFaceRecord
 10
0.0
 20
0.0
 30
0.0
 70
   128
 71
    18
 72
    17
 73
    20
  0
VERTEX
  5
246
330
223
100
AcDbEntity
  8
-DC_BREP4
100
AcDbFaceRecord
 10
0.0
 20
0.0
 30
0.0
 70
   128
 71
    21
 72
    22
 73
    23
  0
VERTEX
  5
247
330
223
100
AcDbEntity
  8
-DC_BREP4
100
AcDbFaceRecord
 10
0.0
 20
0.0
 30
0.0
 70
   128
 71
    22
 72
    21
 73
    24
  0
SEQEND
  5
248
330
223
100
AcDbEntity
  8
-DC_BREP4
  0
POLYLINE
  5
24A
330
1F
100
AcDbEntity
  8
-DC_BREP2
100
AcDbPolyFaceMesh
 66
     1
 10
0.0
 20
0.0
 30
0.0
 70
    64
 71
   120
 72
    80
1001
AVE_ENTITY_MATERIAL
1002
{
1000

1002
{
1071
        0
1070
     0
1070
     0
1002
{
1070
     0
1070
     0
1070
     0
1040
0.0
1002
}
1070
     0
1070
     0
1002
{
1002
}
1002
}
1002
{
1002
}
1002
{
1002
}
1011
0.0
1021
0.0
1031
0.0
1011
1.0
1021
0.0
1031
0.0
1011
0.0
1021
1.0
1031
0.0
1011
0.0
1021
0.0
1031
1.0
1002
}
  0
VERTEX
  5
24B
330
24A
100
AcDbEntity
  8
-DC_BREP2
100
AcDbVertex
100
AcDbPolyFaceMeshVertex
 10
17.99987411499023
 20
-396.0
 30
490.0
 70
   192
  0
VERTEX
  5
24C
330
24A
100
AcDbEntity
  8
-DC_BREP2
100
AcDbVertex
100
AcDbPolyFaceMeshVertex
 10
931.9998779296875
 20
-396.0001525878906
 30
410.0
 70
   192
  0
VERTEX
  5
24D
330
24A
100
AcDbEntity
  8
-DC_BREP2
100
AcDbVertex
100
AcDbPolyFaceMeshVertex
 10
17.99987411499023
 20
-396.0
 30
410.0
 70
   192
  0
VERTEX
  5
24E
330
24A
100
AcDbEntity
  8
-DC_BREP2
100
AcDbVertex
100
AcDbPolyFaceMeshVertex
 10
931.9998779296875
 20
-396.0001525878906
 30
490.0
 70
   192
  0
VERTEX
  5
24F
330
24A
100
AcDbEntity
  8
-DC_BREP2
100
AcDbVertex
100
AcDbPolyFaceMeshVertex
 10
17.9998722076416
 20
-414.0
 30
490.0
 70
   192
  0
VERTEX
  5
250
330
24A
100
AcDbEntity
  8
-DC_BREP2
100
AcDbVertex
100
AcDbPolyFaceMeshVertex
 10
931.9998779296875
 20
-396.0001525878906
 30
490.0
 70
   192
  0
VERTEX
  5
251
330
24A
100
AcDbEntity
  8
-DC_BREP2
100
AcDbVertex
100
AcDbPolyFaceMeshVertex
 10
17.99987411499023
 20
-396.0
 30
490.0
 70
   192
  0
VERTEX
  5
252
330
24A
100
AcDbEntity
  8
-DC_BREP2
100
AcDbVertex
100
AcDbPolyFaceMeshVertex
 10
931.9998779296875
 20
-414.0001525878906
 30
490.0
 70
   192
  0
VERTEX
  5
253
330
24A
100
AcDbEntity
  8
-DC_BREP2
100
AcDbVertex
100
AcDbPolyFaceMeshVertex
 10
17.9998722076416
 20
-414.0
 30
410.0
 70
   192
  0
VERTEX
  5
254
330
24A
100
AcDbEntity
  8
-DC_BREP2
100
AcDbVertex
100
AcDbPolyFaceMeshVertex
 10
931.9998779296875
 20
-414.0001525878906
 30
490.0
 70
   192
  0
VERTEX
  5
255
330
24A
100
AcDbEntity
  8
-DC_BREP2
100
AcDbVertex
100
AcDbPolyFaceMeshVertex
 10
17.9998722076416
 20
-414.0
 30
490.0
 70
   192
  0
VERTEX
  5
256
330
24A
100
AcDbEntity
  8
-DC_BREP2
100
AcDbVertex
100
AcDbPolyFaceMeshVertex
 10
931.9998779296875
 20
-414.0001525878906
 30
410.0
 70
   192
  0
VERTEX
  5
257
330
24A
100
AcDbEntity
  8
-DC_BREP2
100
AcDbVertex
100
AcDbPolyFaceMeshVertex
 10
17.99987411499023
 20
-396.0
 30
410.0
 70
   192
  0
VERTEX
  5
258
330
24A
100
AcDbEntity
  8
-DC_BREP2
100
AcDbVertex
100
AcDbPolyFaceMeshVertex
 10
931.9998779296875
 20
-414.0001525878906
 30
410.0
 70
   192
  0
VERTEX
  5
259
330
24A
100
AcDbEntity
  8
-DC_BREP2
100
AcDbVertex
100
AcDbPolyFaceMeshVertex
 10
17.9998722076416
 20
-414.0
 30
410.0
 70
   192
  0
VERTEX
  5
25A
330
24A
100
AcDbEntity
  8
-DC_BREP2
100
AcDbVertex
100
AcDbPolyFaceMeshVertex
 10
931.9998779296875
 20
-396.0001525878906
 30
410.0
 70
   192
  0
VERTEX
  5
25B
330
24A
100
AcDbEntity
  8
-DC_BREP2
100
AcDbVertex
100
AcDbPolyFaceMeshVertex
 10
17.99993515014648
 20
-19.00000381469726
 30
98.50000000000001
 70
   192
  0
VERTEX
  5
25C
330
24A
100
AcDbEntity
  8
-DC_BREP2
100
AcDbVertex
100
AcDbPolyFaceMeshVertex
 10
931.9999389648437
 20
-1.000151872634887
 30
98.50000000000001
 70
   192
  0
VERTEX
  5
25D
330
24A
100
AcDbEntity
  8
-DC_BREP2
100
AcDbVertex
100
AcDbPolyFaceMeshVertex
 10
17.99993896484375
 20
-1.000002980232237
 30
98.50000000000001
 70
   192
  0
VERTEX
  5
25E
330
24A
100
AcDbEntity
  8
-DC_BREP2
100
AcDbVertex
100
AcDbPolyFaceMeshVertex
 10
931.9999389648437
 20
-19.00015258789062
 30
98.50000000000001
 70
   192
  0
VERTEX
  5
25F
330
24A
100
AcDbEntity
  8
-DC_BREP2
100
AcDbVertex
100
AcDbPolyFaceMeshVertex
 10
17.99993896484375
 20
-1.000002980232237
 30
18.5
 70
   192
  0
VERTEX
  5
260
330
24A
100
AcDbEntity
  8
-DC_BREP2
100
AcDbVertex
100
AcDbPolyFaceMeshVertex
 10
931.9999389648437
 20
-1.000151872634887
 30
98.50000000000001
 70
   192
  0
VERTEX
  5
261
330
24A
100
AcDbEntity
  8
-DC_BREP2
100
AcDbVertex
100
AcDbPolyFaceMeshVertex
 10
931.9999389648437
 20
-1.000151872634887
 30
18.5
 70
   192
  0
VERTEX
  5
262
330
24A
100
AcDbEntity
  8
-DC_BREP2
100
AcDbVertex
100
AcDbPolyFaceMeshVertex
 10
17.99993896484375
 20
-1.000002980232237
 30
98.50000000000001
 70
   192
  0
VERTEX
  5
263
330
24A
100
AcDbEntity
  8
-DC_BREP2
100
AcDbVertex
100
AcDbPolyFaceMeshVertex
 10
17.99993515014648
 20
-19.00000381469726
 30
18.5
 70
   192
  0
VERTEX
  5
264
330
24A
100
AcDbEntity
  8
-DC_BREP2
100
AcDbVertex
100
AcDbPolyFaceMeshVertex
 10
931.9999389648437
 20
-19.00015258789062
 30
98.50000000000001
 70
   192
  0
VERTEX
  5
265
330
24A
100
AcDbEntity
  8
-DC_BREP2
100
AcDbVertex
100
AcDbPolyFaceMeshVertex
 10
17.99993515014648
 20
-19.00000381469726
 30
98.50000000000001
 70
   192
  0
VERTEX
  5
266
330
24A
100
AcDbEntity
  8
-DC_BREP2
100
AcDbVertex
100
AcDbPolyFaceMeshVertex
 10
931.9999389648437
 20
-19.00015258789062
 30
18.5
 70
   192
  0
VERTEX
  5
267
330
24A
100
AcDbEntity
  8
-DC_BREP2
100
AcDbVertex
100
AcDbPolyFaceMeshVertex
 10
17.99993515014648
 20
-19.00000381469726
 30
18.5
 70
   192
  0
VERTEX
  5
268
330
24A
100
AcDbEntity
  8
-DC_BREP2
100
AcDbVertex
100
AcDbPolyFaceMeshVertex
 10
931.9998779296875
 20
-415.0001525878906
 30
18.5
 70
   192
  0
VERTEX
  5
269
330
24A
100
AcDbEntity
  8
-DC_BREP2
100
AcDbVertex
100
AcDbPolyFaceMeshVertex
 10
931.9999389648437
 20
-19.00015258789062
 30
18.5
 70
   192
  0
VERTEX
  5
26A
330
24A
100
AcDbEntity
  8
-DC_BREP2
100
AcDbVertex
100
AcDbPolyFaceMeshVertex
 10
17.9998722076416
 20
-415.0
 30
18.5
 70
   192
  0
VERTEX
  5
26B
330
24A
100
AcDbEntity
  8
-DC_BREP2
100
AcDbVertex
100
AcDbPolyFaceMeshVertex
 10
931.9998779296875
 20
-396.0001525878906
 30
490.0
 70
   192
  0
VERTEX
  5
26C
330
24A
100
AcDbEntity
  8
-DC_BREP2
100
AcDbVertex
100
AcDbPolyFaceMeshVertex
 10
931.9999389648437
 20
-19.00015258789062
 30
98.50000000000001
 70
   192
  0
VERTEX
  5
26D
330
24A
100
AcDbEntity
  8
-DC_BREP2
100
AcDbVertex
100
AcDbPolyFaceMeshVertex
 10
931.9998779296875
 20
-396.0001525878906
 30
410.0
 70
   192
  0
VERTEX
  5
26E
330
24A
100
AcDbEntity
  8
-DC_BREP2
100
AcDbVertex
100
AcDbPolyFaceMeshVertex
 10
931.9998779296875
 20
-414.0001525878906
 30
490.0
 70
   192
  0
VERTEX
  5
26F
330
24A
100
AcDbEntity
  8
-DC_BREP2
100
AcDbVertex
100
AcDbPolyFaceMeshVertex
 10
931.9998779296875
 20
-415.0001525878906
 30
18.5
 70
   192
  0
VERTEX
  5
270
330
24A
100
AcDbEntity
  8
-DC_BREP2
100
AcDbVertex
100
AcDbPolyFaceMeshVertex
 10
931.9998779296875
 20
-415.0001525878906
 30
500.0
 70
   192
  0
VERTEX
  5
271
330
24A
100
AcDbEntity
  8
-DC_BREP2
100
AcDbVertex
100
AcDbPolyFaceMeshVertex
 10
931.9998779296875
 20
-414.0001525878906
 30
410.0
 70
   192
  0
VERTEX
  5
272
330
24A
100
AcDbEntity
  8
-DC_BREP2
100
AcDbVertex
100
AcDbPolyFaceMeshVertex
 10
931.9999389648437
 20
-0.0001518420758657
 30
500.0
 70
   192
  0
VERTEX
  5
273
330
24A
100
AcDbEntity
  8
-DC_BREP2
100
AcDbVertex
100
AcDbPolyFaceMeshVertex
 10
931.9999389648437
 20
-19.00015258789062
 30
18.5
 70
   192
  0
VERTEX
  5
274
330
24A
100
AcDbEntity
  8
-DC_BREP2
100
AcDbVertex
100
AcDbPolyFaceMeshVertex
 10
931.9999389648437
 20
-1.000151872634887
 30
98.50000000000001
 70
   192
  0
VERTEX
  5
275
330
24A
100
AcDbEntity
  8
-DC_BREP2
100
AcDbVertex
100
AcDbPolyFaceMeshVertex
 10
931.9999389648437
 20
-0.0001518420758657
 30
18.5
 70
   192
  0
VERTEX
  5
276
330
24A
100
AcDbEntity
  8
-DC_BREP2
100
AcDbVertex
100
AcDbPolyFaceMeshVertex
 10
931.9999389648437
 20
-1.000151872634887
 30
18.5
 70
   192
  0
VERTEX
  5
277
330
24A
100
AcDbEntity
  8
-DC_BREP2
100
AcDbVertex
100
AcDbPolyFaceMeshVertex
 10
-0.00006103515625
 20
0.0
 30
500.0
 70
   192
  0
VERTEX
  5
278
330
24A
100
AcDbEntity
  8
-DC_BREP2
100
AcDbVertex
100
AcDbPolyFaceMeshVertex
 10
-0.0001286472397624
 20
-415.0
 30
0.0
 70
   192
  0
VERTEX
  5
279
330
24A
100
AcDbEntity
  8
-DC_BREP2
100
AcDbVertex
100
AcDbPolyFaceMeshVertex
 10
-0.0001286472397624
 20
-415.0
 30
500.0
 70
   192
  0
VERTEX
  5
27A
330
24A
100
AcDbEntity
  8
-DC_BREP2
100
AcDbVertex
100
AcDbPolyFaceMeshVertex
 10
-0.00006103515625
 20
0.0
 30
0.0
 70
   192
  0
VERTEX
  5
27B
330
24A
100
AcDbEntity
  8
-DC_BREP2
100
AcDbVertex
100
AcDbPolyFaceMeshVertex
 10
931.9999389648437
 20
-1.000151872634887
 30
18.5
 70
   192
  0
VERTEX
  5
27C
330
24A
100
AcDbEntity
  8
-DC_BREP2
100
AcDbVertex
100
AcDbPolyFaceMeshVertex
 10
17.99993896484375
 20
-0.0000029325724427
 30
18.5
 70
   192
  0
VERTEX
  5
27D
330
24A
100
AcDbEntity
  8
-DC_BREP2
100
AcDbVertex
100
AcDbPolyFaceMeshVertex
 10
17.99993896484375
 20
-1.000002980232237
 30
18.5
 70
   192
  0
VERTEX
  5
27E
330
24A
100
AcDbEntity
  8
-DC_BREP2
100
AcDbVertex
100
AcDbPolyFaceMeshVertex
 10
931.9999389648437
 20
-0.0001518420758657
 30
18.5
 70
   192
  0
VERTEX
  5
27F
330
24A
100
AcDbEntity
  8
-DC_BREP2
100
AcDbVertex
100
AcDbPolyFaceMeshVertex
 10
931.9998779296875
 20
-415.0001525878906
 30
18.5
 70
   192
  0
VERTEX
  5
280
330
24A
100
AcDbEntity
  8
-DC_BREP2
100
AcDbVertex
100
AcDbPolyFaceMeshVertex
 10
949.9998779296875
 20
-415.0001525878906
 30
500.0
 70
   192
  0
VERTEX
  5
281
330
24A
100
AcDbEntity
  8
-DC_BREP2
100
AcDbVertex
100
AcDbPolyFaceMeshVertex
 10
931.9998779296875
 20
-415.0001525878906
 30
500.0
 70
   192
  0
VERTEX
  5
282
330
24A
100
AcDbEntity
  8
-DC_BREP2
100
AcDbVertex
100
AcDbPolyFaceMeshVertex
 10
-0.0001286472397624
 20
-415.0
 30
0.0
 70
   192
  0
VERTEX
  5
283
330
24A
100
AcDbEntity
  8
-DC_BREP2
100
AcDbVertex
100
AcDbPolyFaceMeshVertex
 10
17.9998722076416
 20
-415.0
 30
500.0
 70
   192
  0
VERTEX
  5
284
330
24A
100
AcDbEntity
  8
-DC_BREP2
100
AcDbVertex
100
AcDbPolyFaceMeshVertex
 10
-0.0001286472397624
 20
-415.0
 30
500.0
 70
   192
  0
VERTEX
  5
285
330
24A
100
AcDbEntity
  8
-DC_BREP2
100
AcDbVertex
100
AcDbPolyFaceMeshVertex
 10
17.9998722076416
 20
-415.0
 30
18.5
 70
   192
  0
VERTEX
  5
286
330
24A
100
AcDbEntity
  8
-DC_BREP2
100
AcDbVertex
100
AcDbPolyFaceMeshVertex
 10
949.9998779296875
 20
-415.0001525878906
 30
0.0
 70
   192
  0
VERTEX
  5
287
330
24A
100
AcDbEntity
  8
-DC_BREP2
100
AcDbVertex
100
AcDbPolyFaceMeshVertex
 10
931.9998779296875
 20
-415.0001525878906
 30
0.5
 70
   192
  0
VERTEX
  5
288
330
24A
100
AcDbEntity
  8
-DC_BREP2
100
AcDbVertex
100
AcDbPolyFaceMeshVertex
 10
931.9998779296875
 20
-415.0001525878906
 30
0.0
 70
   192
  0
VERTEX
  5
289
330
24A
100
AcDbEntity
  8
-DC_BREP2
100
AcDbVertex
100
AcDbPolyFaceMeshVertex
 10
17.9998722076416
 20
-415.0
 30
0.5
 70
   192
  0
VERTEX
  5
28A
330
24A
100
AcDbEntity
  8
-DC_BREP2
100
AcDbVertex
100
AcDbPolyFaceMeshVertex
 10
17.9998722076416
 20
-415.0
 30
0.0
 70
   192
  0
VERTEX
  5
28B
330
24A
100
AcDbEntity
  8
-DC_BREP2
100
AcDbVertex
100
AcDbPolyFaceMeshVertex
 10
17.9998722076416
 20
-415.0
 30
0.5
 70
   192
  0
VERTEX
  5
28C
330
24A
100
AcDbEntity
  8
-DC_BREP2
100
AcDbVertex
100
AcDbPolyFaceMeshVertex
 10
931.9999389648437
 20
-0.0001518420758657
 30
0.5
 70
   192
  0
VERTEX
  5
28D
330
24A
100
AcDbEntity
  8
-DC_BREP2
100
AcDbVertex
100
AcDbPolyFaceMeshVertex
 10
931.9998779296875
 20
-415.0001525878906
 30
0.5
 70
   192
  0
VERTEX
  5
28E
330
24A
100
AcDbEntity
  8
-DC_BREP2
100
AcDbVertex
100
AcDbPolyFaceMeshVertex
 10
17.99993896484375
 20
-0.0000029325724427
 30
0.5
 70
   192
  0
VERTEX
  5
28F
330
24A
100
AcDbEntity
  8
-DC_BREP2
100
AcDbVertex
100
AcDbPolyFaceMeshVertex
 10
931.9999389648437
 20
-0.0001518420758657
 30
0.5
 70
   192
  0
VERTEX
  5
290
330
24A
100
AcDbEntity
  8
-DC_BREP2
100
AcDbVertex
100
AcDbPolyFaceMeshVertex
 10
931.9998779296875
 20
-415.0001525878906
 30
0.0
 70
   192
  0
VERTEX
  5
291
330
24A
100
AcDbEntity
  8
-DC_BREP2
100
AcDbVertex
100
AcDbPolyFaceMeshVertex
 10
931.9998779296875
 20
-415.0001525878906
 30
0.5
 70
   192
  0
VERTEX
  5
292
330
24A
100
AcDbEntity
  8
-DC_BREP2
100
AcDbVertex
100
AcDbPolyFaceMeshVertex
 10
931.9999389648437
 20
-0.0001518420758657
 30
0.0
 70
   192
  0
VERTEX
  5
293
330
24A
100
AcDbEntity
  8
-DC_BREP2
100
AcDbVertex
100
AcDbPolyFaceMeshVertex
 10
949.9999389648436
 20
-0.0001547746505821
 30
0.0
 70
   192
  0
VERTEX
  5
294
330
24A
100
AcDbEntity
  8
-DC_BREP2
100
AcDbVertex
100
AcDbPolyFaceMeshVertex
 10
949.9998779296875
 20
-415.0001525878906
 30
500.0
 70
   192
  0
VERTEX
  5
295
330
24A
100
AcDbEntity
  8
-DC_BREP2
100
AcDbVertex
100
AcDbPolyFaceMeshVertex
 10
949.9998779296875
 20
-415.0001525878906
 30
0.0
 70
   192
  0
VERTEX
  5
296
330
24A
100
AcDbEntity
  8
-DC_BREP2
100
AcDbVertex
100
AcDbPolyFaceMeshVertex
 10
949.9999389648436
 20
-0.0001547746505821
 30
500.0
 70
   192
  0
VERTEX
  5
297
330
24A
100
AcDbEntity
  8
-DC_BREP2
100
AcDbVertex
100
AcDbPolyFaceMeshVertex
 10
949.9999389648436
 20
-0.0001547746505821
 30
0.0
 70
   192
  0
VERTEX
  5
298
330
24A
100
AcDbEntity
  8
-DC_BREP2
100
AcDbVertex
100
AcDbPolyFaceMeshVertex
 10
931.9998779296875
 20
-415.0001525878906
 30
0.0
 70
   192
  0
VERTEX
  5
299
330
24A
100
AcDbEntity
  8
-DC_BREP2
100
AcDbVertex
100
AcDbPolyFaceMeshVertex
 10
931.9999389648437
 20
-0.0001518420758657
 30
0.0
 70
   192
  0
VERTEX
  5
29A
330
24A
100
AcDbEntity
  8
-DC_BREP2
100
AcDbVertex
100
AcDbPolyFaceMeshVertex
 10
949.9998779296875
 20
-415.0001525878906
 30
0.0
 70
   192
  0
VERTEX
  5
29B
330
24A
100
AcDbEntity
  8
-DC_BREP2
100
AcDbVertex
100
AcDbPolyFaceMeshVertex
 10
931.9999389648437
 20
-0.0001518420758657
 30
500.0
 70
   192
  0
VERTEX
  5
29C
330
24A
100
AcDbEntity
  8
-DC_BREP2
100
AcDbVertex
100
AcDbPolyFaceMeshVertex
 10
949.9998779296875
 20
-415.0001525878906
 30
500.0
 70
   192
  0
VERTEX
  5
29D
330
24A
100
AcDbEntity
  8
-DC_BREP2
100
AcDbVertex
100
AcDbPolyFaceMeshVertex
 10
949.9999389648436
 20
-0.0001547746505821
 30
500.0
 70
   192
  0
VERTEX
  5
29E
330
24A
100
AcDbEntity
  8
-DC_BREP2
100
AcDbVertex
100
AcDbPolyFaceMeshVertex
 10
931.9998779296875
 20
-415.0001525878906
 30
500.0
 70
   192
  0
VERTEX
  5
29F
330
24A
100
AcDbEntity
  8
-DC_BREP2
100
AcDbVertex
100
AcDbPolyFaceMeshVertex
 10
17.9998722076416
 20
-415.0
 30
0.5
 70
   192
  0
VERTEX
  5
2A0
330
24A
100
AcDbEntity
  8
-DC_BREP2
100
AcDbVertex
100
AcDbPolyFaceMeshVertex
 10
17.99993896484375
 20
-0.0000029325724427
 30
0.0
 70
   192
  0
VERTEX
  5
2A1
330
24A
100
AcDbEntity
  8
-DC_BREP2
100
AcDbVertex
100
AcDbPolyFaceMeshVertex
 10
17.99993896484375
 20
-0.0000029325724427
 30
0.5
 70
   192
  0
VERTEX
  5
2A2
330
24A
100
AcDbEntity
  8
-DC_BREP2
100
AcDbVertex
100
AcDbPolyFaceMeshVertex
 10
17.9998722076416
 20
-415.0
 30
0.0
 70
   192
  0
VERTEX
  5
2A3
330
24A
100
AcDbEntity
  8
-DC_BREP2
100
AcDbVertex
100
AcDbPolyFaceMeshVertex
 10
-0.00006103515625
 20
0.0
 30
500.0
 70
   192
  0
VERTEX
  5
2A4
330
24A
100
AcDbEntity
  8
-DC_BREP2
100
AcDbVertex
100
AcDbPolyFaceMeshVertex
 10
17.9998722076416
 20
-415.0
 30
500.0
 70
   192
  0
VERTEX
  5
2A5
330
24A
100
AcDbEntity
  8
-DC_BREP2
100
AcDbVertex
100
AcDbPolyFaceMeshVertex
 10
17.99993896484375
 20
-0.0000029325724427
 30
500.0
 70
   192
  0
VERTEX
  5
2A6
330
24A
100
AcDbEntity
  8
-DC_BREP2
100
AcDbVertex
100
AcDbPolyFaceMeshVertex
 10
-0.0001286472397624
 20
-415.0
 30
500.0
 70
   192
  0
VERTEX
  5
2A7
330
24A
100
AcDbEntity
  8
-DC_BREP2
100
AcDbVertex
100
AcDbPolyFaceMeshVertex
 10
17.99993515014648
 20
-19.00000381469726
 30
98.50000000000001
 70
   192
  0
VERTEX
  5
2A8
330
24A
100
AcDbEntity
  8
-DC_BREP2
100
AcDbVertex
100
AcDbPolyFaceMeshVertex
 10
17.99987411499023
 20
-396.0
 30
490.0
 70
   192
  0
VERTEX
  5
2A9
330
24A
100
AcDbEntity
  8
-DC_BREP2
100
AcDbVertex
100
AcDbPolyFaceMeshVertex
 10
17.99987411499023
 20
-396.0
 30
410.0
 70
   192
  0
VERTEX
  5
2AA
330
24A
100
AcDbEntity
  8
-DC_BREP2
100
AcDbVertex
100
AcDbPolyFaceMeshVertex
 10
17.9998722076416
 20
-415.0
 30
18.5
 70
   192
  0
VERTEX
  5
2AB
330
24A
100
AcDbEntity
  8
-DC_BREP2
100
AcDbVertex
100
AcDbPolyFaceMeshVertex
 10
17.9998722076416
 20
-414.0
 30
490.0
 70
   192
  0
VERTEX
  5
2AC
330
24A
100
AcDbEntity
  8
-DC_BREP2
100
AcDbVertex
100
AcDbPolyFaceMeshVertex
 10
17.9998722076416
 20
-415.0
 30
500.0
 70
   192
  0
VERTEX
  5
2AD
330
24A
100
AcDbEntity
  8
-DC_BREP2
100
AcDbVertex
100
AcDbPolyFaceMeshVertex
 10
17.9998722076416
 20
-414.0
 30
410.0
 70
   192
  0
VERTEX
  5
2AE
330
24A
100
AcDbEntity
  8
-DC_BREP2
100
AcDbVertex
100
AcDbPolyFaceMeshVertex
 10
17.99993896484375
 20
-0.0000029325724427
 30
500.0
 70
   192
  0
VERTEX
  5
2AF
330
24A
100
AcDbEntity
  8
-DC_BREP2
100
AcDbVertex
100
AcDbPolyFaceMeshVertex
 10
17.99993515014648
 20
-19.00000381469726
 30
18.5
 70
   192
  0
VERTEX
  5
2B0
330
24A
100
AcDbEntity
  8
-DC_BREP2
100
AcDbVertex
100
AcDbPolyFaceMeshVertex
 10
17.99993896484375
 20
-1.000002980232237
 30
18.5
 70
   192
  0
VERTEX
  5
2B1
330
24A
100
AcDbEntity
  8
-DC_BREP2
100
AcDbVertex
100
AcDbPolyFaceMeshVertex
 10
17.99993896484375
 20
-0.0000029325724427
 30
18.5
 70
   192
  0
VERTEX
  5
2B2
330
24A
100
AcDbEntity
  8
-DC_BREP2
100
AcDbVertex
100
AcDbPolyFaceMeshVertex
 10
17.99993896484375
 20
-1.000002980232237
 30
98.50000000000001
 70
   192
  0
VERTEX
  5
2B3
330
24A
100
AcDbEntity
  8
-DC_BREP2
100
AcDbVertex
100
AcDbPolyFaceMeshVertex
 10
17.99993896484375
 20
-0.0000029325724427
 30
0.0
 70
   192
  0
VERTEX
  5
2B4
330
24A
100
AcDbEntity
  8
-DC_BREP2
100
AcDbVertex
100
AcDbPolyFaceMeshVertex
 10
-0.0001286472397624
 20
-415.0
 30
0.0
 70
   192
  0
VERTEX
  5
2B5
330
24A
100
AcDbEntity
  8
-DC_BREP2
100
AcDbVertex
100
AcDbPolyFaceMeshVertex
 10
-0.00006103515625
 20
0.0
 30
0.0
 70
   192
  0
VERTEX
  5
2B6
330
24A
100
AcDbEntity
  8
-DC_BREP2
100
AcDbVertex
100
AcDbPolyFaceMeshVertex
 10
17.9998722076416
 20
-415.0
 30
0.0
 70
   192
  0
VERTEX
  5
2B7
330
24A
100
AcDbEntity
  8
-DC_BREP2
100
AcDbVertex
100
AcDbPolyFaceMeshVertex
 10
949.9999389648436
 20
-0.0001547746505821
 30
500.0
 70
   192
  0
VERTEX
  5
2B8
330
24A
100
AcDbEntity
  8
-DC_BREP2
100
AcDbVertex
100
AcDbPolyFaceMeshVertex
 10
931.9999389648437
 20
-0.0001518420758657
 30
18.5
 70
   192
  0
VERTEX
  5
2B9
330
24A
100
AcDbEntity
  8
-DC_BREP2
100
AcDbVertex
100
AcDbPolyFaceMeshVertex
 10
931.9999389648437
 20
-0.0001518420758657
 30
500.0
 70
   192
  0
VERTEX
  5
2BA
330
24A
100
AcDbEntity
  8
-DC_BREP2
100
AcDbVertex
100
AcDbPolyFaceMeshVertex
 10
17.99993896484375
 20
-0.0000029325724427
 30
500.0
 70
   192
  0
VERTEX
  5
2BB
330
24A
100
AcDbEntity
  8
-DC_BREP2
100
AcDbVertex
100
AcDbPolyFaceMeshVertex
 10
-0.00006103515625
 20
0.0
 30
0.0
 70
   192
  0
VERTEX
  5
2BC
330
24A
100
AcDbEntity
  8
-DC_BREP2
100
AcDbVertex
100
AcDbPolyFaceMeshVertex
 10
-0.00006103515625
 20
0.0
 30
500.0
 70
   192
  0
VERTEX
  5
2BD
330
24A
100
AcDbEntity
  8
-DC_BREP2
100
AcDbVertex
100
AcDbPolyFaceMeshVertex
 10
17.99993896484375
 20
-0.0000029325724427
 30
18.5
 70
   192
  0
VERTEX
  5
2BE
330
24A
100
AcDbEntity
  8
-DC_BREP2
100
AcDbVertex
100
AcDbPolyFaceMeshVertex
 10
17.99993896484375
 20
-0.0000029325724427
 30
0.5
 70
   192
  0
VERTEX
  5
2BF
330
24A
100
AcDbEntity
  8
-DC_BREP2
100
AcDbVertex
100
AcDbPolyFaceMeshVertex
 10
17.99993896484375
 20
-0.0000029325724427
 30
0.0
 70
   192
  0
VERTEX
  5
2C0
330
24A
100
AcDbEntity
  8
-DC_BREP2
100
AcDbVertex
100
AcDbPolyFaceMeshVertex
 10
931.9999389648437
 20
-0.0001518420758657
 30
0.5
 70
   192
  0
VERTEX
  5
2C1
330
24A
100
AcDbEntity
  8
-DC_BREP2
100
AcDbVertex
100
AcDbPolyFaceMeshVertex
 10
949.9999389648436
 20
-0.0001547746505821
 30
0.0
 70
   192
  0
VERTEX
  5
2C2
330
24A
100
AcDbEntity
  8
-DC_BREP2
100
AcDbVertex
100
AcDbPolyFaceMeshVertex
 10
931.9999389648437
 20
-0.0001518420758657
 30
0.0
 70
   192
  0
VERTEX
  5
2C3
330
24A
100
AcDbEntity
  8
-DC_BREP2
100
AcDbFaceRecord
 10
0.0
 20
0.0
 30
0.0
 70
   128
 71
     1
 72
     2
 73
     3
  0
VERTEX
  5
2C4
330
24A
100
AcDbEntity
  8
-DC_BREP2
100
AcDbFaceRecord
 10
0.0
 20
0.0
 30
0.0
 70
   128
 71
     2
 72
     1
 73
     4
  0
VERTEX
  5
2C5
330
24A
100
AcDbEntity
  8
-DC_BREP2
100
AcDbFaceRecord
 10
0.0
 20
0.0
 30
0.0
 70
   128
 71
     5
 72
     6
 73
     7
  0
VERTEX
  5
2C6
330
24A
100
AcDbEntity
  8
-DC_BREP2
100
AcDbFaceRecord
 10
0.0
 20
0.0
 30
0.0
 70
   128
 71
     6
 72
     5
 73
     8
  0
VERTEX
  5
2C7
330
24A
100
AcDbEntity
  8
-DC_BREP2
100
AcDbFaceRecord
 10
0.0
 20
0.0
 30
0.0
 70
   128
 71
     9
 72
    10
 73
    11
  0
VERTEX
  5
2C8
330
24A
100
AcDbEntity
  8
-DC_BREP2
100
AcDbFaceRecord
 10
0.0
 20
0.0
 30
0.0
 70
   128
 71
    10
 72
     9
 73
    12
  0
VERTEX
  5
2C9
330
24A
100
AcDbEntity
  8
-DC_BREP2
100
AcDbFaceRecord
 10
0.0
 20
0.0
 30
0.0
 70
   128
 71
    13
 72
    14
 73
    15
  0
VERTEX
  5
2CA
330
24A
100
AcDbEntity
  8
-DC_BREP2
100
AcDbFaceRecord
 10
0.0
 20
0.0
 30
0.0
 70
   128
 71
    14
 72
    13
 73
    16
  0
VERTEX
  5
2CB
330
24A
100
AcDbEntity
  8
-DC_BREP2
100
AcDbFaceRecord
 10
0.0
 20
0.0
 30
0.0
 70
   128
 71
    17
 72
    18
 73
    19
  0
VERTEX
  5
2CC
330
24A
100
AcDbEntity
  8
-DC_BREP2
100
AcDbFaceRecord
 10
0.0
 20
0.0
 30
0.0
 70
   128
 71
    18
 72
    17
 73
    20
  0
VERTEX
  5
2CD
330
24A
100
AcDbEntity
  8
-DC_BREP2
100
AcDbFaceRecord
 10
0.0
 20
0.0
 30
0.0
 70
   128
 71
    21
 72
    22
 73
    23
  0
VERTEX
  5
2CE
330
24A
100
AcDbEntity
  8
-DC_BREP2
100
AcDbFaceRecord
 10
0.0
 20
0.0
 30
0.0
 70
   128
 71
    22
 72
    21
 73
    24
  0
VERTEX
  5
2CF
330
24A
100
AcDbEntity
  8
-DC_BREP2
100
AcDbFaceRecord
 10
0.0
 20
0.0
 30
0.0
 70
   128
 71
    25
 72
    26
 73
    27
  0
VERTEX
  5
2D0
330
24A
100
AcDbEntity
  8
-DC_BREP2
100
AcDbFaceRecord
 10
0.0
 20
0.0
 30
0.0
 70
   128
 71
    26
 72
    25
 73
    28
  0
VERTEX
  5
2D1
330
24A
100
AcDbEntity
  8
-DC_BREP2
100
AcDbFaceRecord
 10
0.0
 20
0.0
 30
0.0
 70
   128
 71
    29
 72
    30
 73
    31
  0
VERTEX
  5
2D2
330
24A
100
AcDbEntity
  8
-DC_BREP2
100
AcDbFaceRecord
 10
0.0
 20
0.0
 30
0.0
 70
   128
 71
    30
 72
    29
 73
    32
  0
VERTEX
  5
2D3
330
24A
100
AcDbEntity
  8
-DC_BREP2
100
AcDbFaceRecord
 10
0.0
 20
0.0
 30
0.0
 70
   128
 71
    33
 72
    34
 73
    35
  0
VERTEX
  5
2D4
330
24A
100
AcDbEntity
  8
-DC_BREP2
100
AcDbFaceRecord
 10
0.0
 20
0.0
 30
0.0
 70
   128
 71
    36
 72
    37
 73
    38
  0
VERTEX
  5
2D5
330
24A
100
AcDbEntity
  8
-DC_BREP2
100
AcDbFaceRecord
 10
0.0
 20
0.0
 30
0.0
 70
   128
 71
    39
 72
    37
 73
    36
  0
VERTEX
  5
2D6
330
24A
100
AcDbEntity
  8
-DC_BREP2
100
AcDbFaceRecord
 10
0.0
 20
0.0
 30
0.0
 70
   128
 71
    40
 72
    36
 73
    38
  0
VERTEX
  5
2D7
330
24A
100
AcDbEntity
  8
-DC_BREP2
100
AcDbFaceRecord
 10
0.0
 20
0.0
 30
0.0
 70
   128
 71
    40
 72
    33
 73
    36
  0
VERTEX
  5
2D8
330
24A
100
AcDbEntity
  8
-DC_BREP2
100
AcDbFaceRecord
 10
0.0
 20
0.0
 30
0.0
 70
   128
 71
    39
 72
    41
 73
    37
  0
VERTEX
  5
2D9
330
24A
100
AcDbEntity
  8
-DC_BREP2
100
AcDbFaceRecord
 10
0.0
 20
0.0
 30
0.0
 70
   128
 71
    35
 72
    41
 73
    39
  0
VERTEX
  5
2DA
330
24A
100
AcDbEntity
  8
-DC_BREP2
100
AcDbFaceRecord
 10
0.0
 20
0.0
 30
0.0
 70
   128
 71
    35
 72
    34
 73
    41
  0
VERTEX
  5
2DB
330
24A
100
AcDbEntity
  8
-DC_BREP2
100
AcDbFaceRecord
 10
0.0
 20
0.0
 30
0.0
 70
   128
 71
    42
 72
    43
 73
    44
  0
VERTEX
  5
2DC
330
24A
100
AcDbEntity
  8
-DC_BREP2
100
AcDbFaceRecord
 10
0.0
 20
0.0
 30
0.0
 70
   128
 71
    42
 72
    40
 73
    43
  0
VERTEX
  5
2DD
330
24A
100
AcDbEntity
  8
-DC_BREP2
100
AcDbFaceRecord
 10
0.0
 20
0.0
 30
0.0
 70
   128
 71
    42
 72
    33
 73
    40
  0
VERTEX
  5
2DE
330
24A
100
AcDbEntity
  8
-DC_BREP2
100
AcDbFaceRecord
 10
0.0
 20
0.0
 30
0.0
 70
   128
 71
    34
 72
    33
 73
    42
  0
VERTEX
  5
2DF
330
24A
100
AcDbEntity
  8
-DC_BREP2
100
AcDbFaceRecord
 10
0.0
 20
0.0
 30
0.0
 70
   128
 71
    45
 72
    46
 73
    47
  0
VERTEX
  5
2E0
330
24A
100
AcDbEntity
  8
-DC_BREP2
100
AcDbFaceRecord
 10
0.0
 20
0.0
 30
0.0
 70
   128
 71
    46
 72
    45
 73
    48
  0
VERTEX
  5
2E1
330
24A
100
AcDbEntity
  8
-DC_BREP2
100
AcDbFaceRecord
 10
0.0
 20
0.0
 30
0.0
 70
   128
 71
    49
 72
    50
 73
    51
  0
VERTEX
  5
2E2
330
24A
100
AcDbEntity
  8
-DC_BREP2
100
AcDbFaceRecord
 10
0.0
 20
0.0
 30
0.0
 70
   128
 71
    50
 72
    49
 73
    52
  0
VERTEX
  5
2E3
330
24A
100
AcDbEntity
  8
-DC_BREP2
100
AcDbFaceRecord
 10
0.0
 20
0.0
 30
0.0
 70
   128
 71
    53
 72
    54
 73
    55
  0
VERTEX
  5
2E4
330
24A
100
AcDbEntity
  8
-DC_BREP2
100
AcDbFaceRecord
 10
0.0
 20
0.0
 30
0.0
 70
   128
 71
    56
 72
    57
 73
    58
  0
VERTEX
  5
2E5
330
24A
100
AcDbEntity
  8
-DC_BREP2
100
AcDbFaceRecord
 10
0.0
 20
0.0
 30
0.0
 70
   128
 71
    56
 72
    59
 73
    57
  0
VERTEX
  5
2E6
330
24A
100
AcDbEntity
  8
-DC_BREP2
100
AcDbFaceRecord
 10
0.0
 20
0.0
 30
0.0
 70
   128
 71
    60
 72
    61
 73
    62
  0
VERTEX
  5
2E7
330
24A
100
AcDbEntity
  8
-DC_BREP2
100
AcDbFaceRecord
 10
0.0
 20
0.0
 30
0.0
 70
   128
 71
    54
 72
    61
 73
    60
  0
VERTEX
  5
2E8
330
24A
100
AcDbEntity
  8
-DC_BREP2
100
AcDbFaceRecord
 10
0.0
 20
0.0
 30
0.0
 70
   128
 71
    63
 72
    56
 73
    64
  0
VERTEX
  5
2E9
330
24A
100
AcDbEntity
  8
-DC_BREP2
100
AcDbFaceRecord
 10
0.0
 20
0.0
 30
0.0
 70
   128
 71
    63
 72
    59
 73
    56
  0
VERTEX
  5
2EA
330
24A
100
AcDbEntity
  8
-DC_BREP2
100
AcDbFaceRecord
 10
0.0
 20
0.0
 30
0.0
 70
   128
 71
    63
 72
    53
 73
    59
  0
VERTEX
  5
2EB
330
24A
100
AcDbEntity
  8
-DC_BREP2
100
AcDbFaceRecord
 10
0.0
 20
0.0
 30
0.0
 70
   128
 71
    61
 72
    53
 73
    63
  0
VERTEX
  5
2EC
330
24A
100
AcDbEntity
  8
-DC_BREP2
100
AcDbFaceRecord
 10
0.0
 20
0.0
 30
0.0
 70
   128
 71
    54
 72
    53
 73
    61
  0
VERTEX
  5
2ED
330
24A
100
AcDbEntity
  8
-DC_BREP2
100
AcDbFaceRecord
 10
0.0
 20
0.0
 30
0.0
 70
   128
 71
    65
 72
    66
 73
    67
  0
VERTEX
  5
2EE
330
24A
100
AcDbEntity
  8
-DC_BREP2
100
AcDbFaceRecord
 10
0.0
 20
0.0
 30
0.0
 70
   128
 71
    66
 72
    65
 73
    68
  0
VERTEX
  5
2EF
330
24A
100
AcDbEntity
  8
-DC_BREP2
100
AcDbFaceRecord
 10
0.0
 20
0.0
 30
0.0
 70
   128
 71
    69
 72
    70
 73
    71
  0
VERTEX
  5
2F0
330
24A
100
AcDbEntity
  8
-DC_BREP2
100
AcDbFaceRecord
 10
0.0
 20
0.0
 30
0.0
 70
   128
 71
    70
 72
    69
 73
    72
  0
VERTEX
  5
2F1
330
24A
100
AcDbEntity
  8
-DC_BREP2
100
AcDbFaceRecord
 10
0.0
 20
0.0
 30
0.0
 70
   128
 71
    73
 72
    74
 73
    75
  0
VERTEX
  5
2F2
330
24A
100
AcDbEntity
  8
-DC_BREP2
100
AcDbFaceRecord
 10
0.0
 20
0.0
 30
0.0
 70
   128
 71
    74
 72
    73
 73
    76
  0
VERTEX
  5
2F3
330
24A
100
AcDbEntity
  8
-DC_BREP2
100
AcDbFaceRecord
 10
0.0
 20
0.0
 30
0.0
 70
   128
 71
    77
 72
    78
 73
    79
  0
VERTEX
  5
2F4
330
24A
100
AcDbEntity
  8
-DC_BREP2
100
AcDbFaceRecord
 10
0.0
 20
0.0
 30
0.0
 70
   128
 71
    78
 72
    77
 73
    80
  0
VERTEX
  5
2F5
330
24A
100
AcDbEntity
  8
-DC_BREP2
100
AcDbFaceRecord
 10
0.0
 20
0.0
 30
0.0
 70
   128
 71
    81
 72
    82
 73
    83
  0
VERTEX
  5
2F6
330
24A
100
AcDbEntity
  8
-DC_BREP2
100
AcDbFaceRecord
 10
0.0
 20
0.0
 30
0.0
 70
   128
 71
    82
 72
    81
 73
    84
  0
VERTEX
  5
2F7
330
24A
100
AcDbEntity
  8
-DC_BREP2
100
AcDbFaceRecord
 10
0.0
 20
0.0
 30
0.0
 70
   128
 71
    85
 72
    86
 73
    87
  0
VERTEX
  5
2F8
330
24A
100
AcDbEntity
  8
-DC_BREP2
100
AcDbFaceRecord
 10
0.0
 20
0.0
 30
0.0
 70
   128
 71
    86
 72
    85
 73
    88
  0
VERTEX
  5
2F9
330
24A
100
AcDbEntity
  8
-DC_BREP2
100
AcDbFaceRecord
 10
0.0
 20
0.0
 30
0.0
 70
   128
 71
    89
 72
    90
 73
    91
  0
VERTEX
  5
2FA
330
24A
100
AcDbEntity
  8
-DC_BREP2
100
AcDbFaceRecord
 10
0.0
 20
0.0
 30
0.0
 70
   128
 71
    90
 72
    89
 73
    92
  0
VERTEX
  5
2FB
330
24A
100
AcDbEntity
  8
-DC_BREP2
100
AcDbFaceRecord
 10
0.0
 20
0.0
 30
0.0
 70
   128
 71
    93
 72
    94
 73
    95
  0
VERTEX
  5
2FC
330
24A
100
AcDbEntity
  8
-DC_BREP2
100
AcDbFaceRecord
 10
0.0
 20
0.0
 30
0.0
 70
   128
 71
    96
 72
    97
 73
    98
  0
VERTEX
  5
2FD
330
24A
100
AcDbEntity
  8
-DC_BREP2
100
AcDbFaceRecord
 10
0.0
 20
0.0
 30
0.0
 70
   128
 71
    96
 72
    99
 73
    97
  0
VERTEX
  5
2FE
330
24A
100
AcDbEntity
  8
-DC_BREP2
100
AcDbFaceRecord
 10
0.0
 20
0.0
 30
0.0
 70
   128
 71
    97
 72
   100
 73
    98
  0
VERTEX
  5
2FF
330
24A
100
AcDbEntity
  8
-DC_BREP2
100
AcDbFaceRecord
 10
0.0
 20
0.0
 30
0.0
 70
   128
 71
    94
 72
   100
 73
    97
  0
VERTEX
  5
300
330
24A
100
AcDbEntity
  8
-DC_BREP2
100
AcDbFaceRecord
 10
0.0
 20
0.0
 30
0.0
 70
   128
 71
   101
 72
    99
 73
    96
  0
VERTEX
  5
301
330
24A
100
AcDbEntity
  8
-DC_BREP2
100
AcDbFaceRecord
 10
0.0
 20
0.0
 30
0.0
 70
   128
 71
   101
 72
    95
 73
    99
  0
VERTEX
  5
302
330
24A
100
AcDbEntity
  8
-DC_BREP2
100
AcDbFaceRecord
 10
0.0
 20
0.0
 30
0.0
 70
   128
 71
    93
 72
    95
 73
   101
  0
VERTEX
  5
303
330
24A
100
AcDbEntity
  8
-DC_BREP2
100
AcDbFaceRecord
 10
0.0
 20
0.0
 30
0.0
 70
   128
 71
   100
 72
   102
 73
   103
  0
VERTEX
  5
304
330
24A
100
AcDbEntity
  8
-DC_BREP2
100
AcDbFaceRecord
 10
0.0
 20
0.0
 30
0.0
 70
   128
 71
   100
 72
   104
 73
   102
  0
VERTEX
  5
305
330
24A
100
AcDbEntity
  8
-DC_BREP2
100
AcDbFaceRecord
 10
0.0
 20
0.0
 30
0.0
 70
   128
 71
    94
 72
   104
 73
   100
  0
VERTEX
  5
306
330
24A
100
AcDbEntity
  8
-DC_BREP2
100
AcDbFaceRecord
 10
0.0
 20
0.0
 30
0.0
 70
   128
 71
    94
 72
    93
 73
   104
  0
VERTEX
  5
307
330
24A
100
AcDbEntity
  8
-DC_BREP2
100
AcDbFaceRecord
 10
0.0
 20
0.0
 30
0.0
 70
   128
 71
   105
 72
   106
 73
   107
  0
VERTEX
  5
308
330
24A
100
AcDbEntity
  8
-DC_BREP2
100
AcDbFaceRecord
 10
0.0
 20
0.0
 30
0.0
 70
   128
 71
   106
 72
   105
 73
   108
  0
VERTEX
  5
309
330
24A
100
AcDbEntity
  8
-DC_BREP2
100
AcDbFaceRecord
 10
0.0
 20
0.0
 30
0.0
 70
   128
 71
   109
 72
   110
 73
   111
  0
VERTEX
  5
30A
330
24A
100
AcDbEntity
  8
-DC_BREP2
100
AcDbFaceRecord
 10
0.0
 20
0.0
 30
0.0
 70
   128
 71
   112
 72
   113
 73
   114
  0
VERTEX
  5
30B
330
24A
100
AcDbEntity
  8
-DC_BREP2
100
AcDbFaceRecord
 10
0.0
 20
0.0
 30
0.0
 70
   128
 71
   115
 72
   113
 73
   112
  0
VERTEX
  5
30C
330
24A
100
AcDbEntity
  8
-DC_BREP2
100
AcDbFaceRecord
 10
0.0
 20
0.0
 30
0.0
 70
   128
 71
   113
 72
   116
 73
   117
  0
VERTEX
  5
30D
330
24A
100
AcDbEntity
  8
-DC_BREP2
100
AcDbFaceRecord
 10
0.0
 20
0.0
 30
0.0
 70
   128
 71
   115
 72
   116
 73
   113
  0
VERTEX
  5
30E
330
24A
100
AcDbEntity
  8
-DC_BREP2
100
AcDbFaceRecord
 10
0.0
 20
0.0
 30
0.0
 70
   128
 71
   115
 72
   118
 73
   116
  0
VERTEX
  5
30F
330
24A
100
AcDbEntity
  8
-DC_BREP2
100
AcDbFaceRecord
 10
0.0
 20
0.0
 30
0.0
 70
   128
 71
   110
 72
   118
 73
   115
  0
VERTEX
  5
310
330
24A
100
AcDbEntity
  8
-DC_BREP2
100
AcDbFaceRecord
 10
0.0
 20
0.0
 30
0.0
 70
   128
 71
   118
 72
   119
 73
   120
  0
VERTEX
  5
311
330
24A
100
AcDbEntity
  8
-DC_BREP2
100
AcDbFaceRecord
 10
0.0
 20
0.0
 30
0.0
 70
   128
 71
   118
 72
   109
 73
   119
  0
VERTEX
  5
312
330
24A
100
AcDbEntity
  8
-DC_BREP2
100
AcDbFaceRecord
 10
0.0
 20
0.0
 30
0.0
 70
   128
 71
   110
 72
   109
 73
   118
  0
SEQEND
  5
313
330
24A
100
AcDbEntity
  8
-DC_BREP2
  0
POLYLINE
  5
315
330
1F
100
AcDbEntity
  8
-DC_BREP3
100
AcDbPolyFaceMesh
 66
     1
 10
0.0
 20
0.0
 30
0.0
 70
    64
 71
   232
 72
   188
1001
AVE_ENTITY_MATERIAL
1002
{
1000

1002
{
1071
        0
1070
     0
1070
     0
1002
{
1070
     0
1070
     0
1070
     0
1040
0.0
1002
}
1070
     0
1070
     0
1002
{
1002
}
1002
}
1002
{
1002
}
1002
{
1002
}
1011
0.0
1021
0.0
1031
0.0
1011
1.0
1021
0.0
1031
0.0
1011
0.0
1021
1.0
1031
0.0
1011
0.0
1021
0.0
1031
1.0
1002
}
  0
VERTEX
  5
316
330
315
100
AcDbEntity
  8
-DC_BREP3
100
AcDbVertex
100
AcDbPolyFaceMeshVertex
 10
931.9998779296875
 20
-412.0001525878906
 30
211.5
 70
   192
  0
VERTEX
  5
317
330
315
100
AcDbEntity
  8
-DC_BREP3
100
AcDbVertex
100
AcDbPolyFaceMeshVertex
 10
17.9998722076416
 20
-413.0
 30
211.5
 70
   192
  0
VERTEX
  5
318
330
315
100
AcDbEntity
  8
-DC_BREP3
100
AcDbVertex
100
AcDbPolyFaceMeshVertex
 10
931.9998779296875
 20
-413.0001525878906
 30
211.5
 70
   192
  0
VERTEX
  5
319
330
315
100
AcDbEntity
  8
-DC_BREP3
100
AcDbVertex
100
AcDbPolyFaceMeshVertex
 10
17.9998722076416
 20
-412.0
 30
211.5
 70
   192
  0
VERTEX
  5
31A
330
315
100
AcDbEntity
  8
-DC_BREP3
100
AcDbVertex
100
AcDbPolyFaceMeshVertex
 10
931.9998779296875
 20
-412.0001525878906
 30
209.5
 70
   192
  0
VERTEX
  5
31B
330
315
100
AcDbEntity
  8
-DC_BREP3
100
AcDbVertex
100
AcDbPolyFaceMeshVertex
 10
17.9998722076416
 20
-412.0
 30
211.5
 70
   192
  0
VERTEX
  5
31C
330
315
100
AcDbEntity
  8
-DC_BREP3
100
AcDbVertex
100
AcDbPolyFaceMeshVertex
 10
931.9998779296875
 20
-412.0001525878906
 30
211.5
 70
   192
  0
VERTEX
  5
31D
330
315
100
AcDbEntity
  8
-DC_BREP3
100
AcDbVertex
100
AcDbPolyFaceMeshVertex
 10
17.9998722076416
 20
-412.0
 30
209.5
 70
   192
  0
VERTEX
  5
31E
330
315
100
AcDbEntity
  8
-DC_BREP3
100
AcDbVertex
100
AcDbPolyFaceMeshVertex
 10
931.9998779296875
 20
-415.0001525878906
 30
209.5
 70
   192
  0
VERTEX
  5
31F
330
315
100
AcDbEntity
  8
-DC_BREP3
100
AcDbVertex
100
AcDbPolyFaceMeshVertex
 10
17.9998722076416
 20
-412.0
 30
209.5
 70
   192
  0
VERTEX
  5
320
330
315
100
AcDbEntity
  8
-DC_BREP3
100
AcDbVertex
100
AcDbPolyFaceMeshVertex
 10
931.9998779296875
 20
-412.0001525878906
 30
209.5
 70
   192
  0
VERTEX
  5
321
330
315
100
AcDbEntity
  8
-DC_BREP3
100
AcDbVertex
100
AcDbPolyFaceMeshVertex
 10
17.9998722076416
 20
-415.0
 30
209.5
 70
   192
  0
VERTEX
  5
322
330
315
100
AcDbEntity
  8
-DC_BREP3
100
AcDbVertex
100
AcDbPolyFaceMeshVertex
 10
931.9998779296875
 20
-415.0001525878906
 30
215.5
 70
   192
  0
VERTEX
  5
323
330
315
100
AcDbEntity
  8
-DC_BREP3
100
AcDbVertex
100
AcDbPolyFaceMeshVertex
 10
17.9998722076416
 20
-415.0
 30
209.5
 70
   192
  0
VERTEX
  5
324
330
315
100
AcDbEntity
  8
-DC_BREP3
100
AcDbVertex
100
AcDbPolyFaceMeshVertex
 10
931.9998779296875
 20
-415.0001525878906
 30
209.5
 70
   192
  0
VERTEX
  5
325
330
315
100
AcDbEntity
  8
-DC_BREP3
100
AcDbVertex
100
AcDbPolyFaceMeshVertex
 10
17.9998722076416
 20
-415.0
 30
215.5
 70
   192
  0
VERTEX
  5
326
330
315
100
AcDbEntity
  8
-DC_BREP3
100
AcDbVertex
100
AcDbPolyFaceMeshVertex
 10
931.9998779296875
 20
-397.0001525878906
 30
215.5
 70
   192
  0
VERTEX
  5
327
330
315
100
AcDbEntity
  8
-DC_BREP3
100
AcDbVertex
100
AcDbPolyFaceMeshVertex
 10
17.9998722076416
 20
-415.0
 30
215.5
 70
   192
  0
VERTEX
  5
328
330
315
100
AcDbEntity
  8
-DC_BREP3
100
AcDbVertex
100
AcDbPolyFaceMeshVertex
 10
931.9998779296875
 20
-415.0001525878906
 30
215.5
 70
   192
  0
VERTEX
  5
329
330
315
100
AcDbEntity
  8
-DC_BREP3
100
AcDbVertex
100
AcDbPolyFaceMeshVertex
 10
17.99987411499023
 20
-397.0
 30
215.5
 70
   192
  0
VERTEX
  5
32A
330
315
100
AcDbEntity
  8
-DC_BREP3
100
AcDbVertex
100
AcDbPolyFaceMeshVertex
 10
17.99987411499023
 20
-395.0333862304688
 30
217.1360778808594
 70
   192
  0
VERTEX
  5
32B
330
315
100
AcDbEntity
  8
-DC_BREP3
100
AcDbVertex
100
AcDbPolyFaceMeshVertex
 10
931.9998779296875
 20
-395.0001525878906
 30
217.5
 70
   192
  0
VERTEX
  5
32C
330
315
100
AcDbEntity
  8
-DC_BREP3
100
AcDbVertex
100
AcDbPolyFaceMeshVertex
 10
17.99987411499023
 20
-395.0
 30
217.5
 70
   192
  0
VERTEX
  5
32D
330
315
100
AcDbEntity
  8
-DC_BREP3
100
AcDbVertex
100
AcDbPolyFaceMeshVertex
 10
931.9998779296875
 20
-396.63623046875
 30
215.5333862304686
 70
   192
  0
VERTEX
  5
32E
330
315
100
AcDbEntity
  8
-DC_BREP3
100
AcDbVertex
100
AcDbPolyFaceMeshVertex
 10
17.99987411499023
 20
-397.0
 30
215.5
 70
   192
  0
VERTEX
  5
32F
330
315
100
AcDbEntity
  8
-DC_BREP3
100
AcDbVertex
100
AcDbPolyFaceMeshVertex
 10
931.9998779296875
 20
-397.0001525878906
 30
215.5
 70
   192
  0
VERTEX
  5
330
330
315
100
AcDbEntity
  8
-DC_BREP3
100
AcDbVertex
100
AcDbPolyFaceMeshVertex
 10
17.99987411499023
 20
-396.6360778808594
 30
215.5333862304686
 70
   192
  0
VERTEX
  5
331
330
315
100
AcDbEntity
  8
-DC_BREP3
100
AcDbVertex
100
AcDbPolyFaceMeshVertex
 10
17.99987411499023
 20
-396.2638244628906
 30
215.6404113769531
 70
   192
  0
VERTEX
  5
332
330
315
100
AcDbEntity
  8
-DC_BREP3
100
AcDbVertex
100
AcDbPolyFaceMeshVertex
 10
931.9998779296875
 20
-396.2639770507812
 30
215.6404113769531
 70
   192
  0
VERTEX
  5
333
330
315
100
AcDbEntity
  8
-DC_BREP3
100
AcDbVertex
100
AcDbPolyFaceMeshVertex
 10
931.9998779296875
 20
-395.9057312011719
 30
215.8260192871094
 70
   192
  0
VERTEX
  5
334
330
315
100
AcDbEntity
  8
-DC_BREP3
100
AcDbVertex
100
AcDbPolyFaceMeshVertex
 10
17.99987411499023
 20
-395.9055786132812
 30
215.8260192871094
 70
   192
  0
VERTEX
  5
335
330
315
100
AcDbEntity
  8
-DC_BREP3
100
AcDbVertex
100
AcDbPolyFaceMeshVertex
 10
17.99987411499023
 20
-395.5857849121094
 30
216.0857849121094
 70
   192
  0
VERTEX
  5
336
330
315
100
AcDbEntity
  8
-DC_BREP3
100
AcDbVertex
100
AcDbPolyFaceMeshVertex
 10
931.9998779296875
 20
-395.5859375
 30
216.0857849121094
 70
   192
  0
VERTEX
  5
337
330
315
100
AcDbEntity
  8
-DC_BREP3
100
AcDbVertex
100
AcDbPolyFaceMeshVertex
 10
931.9998779296875
 20
-395.326171875
 30
216.4055786132812
 70
   192
  0
VERTEX
  5
338
330
315
100
AcDbEntity
  8
-DC_BREP3
100
AcDbVertex
100
AcDbPolyFaceMeshVertex
 10
17.99987411499023
 20
-395.3260192871094
 30
216.4055786132812
 70
   192
  0
VERTEX
  5
339
330
315
100
AcDbEntity
  8
-DC_BREP3
100
AcDbVertex
100
AcDbPolyFaceMeshVertex
 10
17.99987411499023
 20
-395.1404113769531
 30
216.7638244628906
 70
   192
  0
VERTEX
  5
33A
330
315
100
AcDbEntity
  8
-DC_BREP3
100
AcDbVertex
100
AcDbPolyFaceMeshVertex
 10
931.9998779296875
 20
-395.1405639648438
 30
216.7638244628906
 70
   192
  0
VERTEX
  5
33B
330
315
100
AcDbEntity
  8
-DC_BREP3
100
AcDbVertex
100
AcDbPolyFaceMeshVertex
 10
931.9998779296875
 20
-395.0335388183594
 30
217.1360778808594
 70
   192
  0
VERTEX
  5
33C
330
315
100
AcDbEntity
  8
-DC_BREP3
100
AcDbVertex
100
AcDbPolyFaceMeshVertex
 10
931.9998779296875
 20
-395.0001525878906
 30
283.5
 70
   192
  0
VERTEX
  5
33D
330
315
100
AcDbEntity
  8
-DC_BREP3
100
AcDbVertex
100
AcDbPolyFaceMeshVertex
 10
17.99987411499023
 20
-395.0
 30
217.5
 70
   192
  0
VERTEX
  5
33E
330
315
100
AcDbEntity
  8
-DC_BREP3
100
AcDbVertex
100
AcDbPolyFaceMeshVertex
 10
931.9998779296875
 20
-395.0001525878906
 30
217.5
 70
   192
  0
VERTEX
  5
33F
330
315
100
AcDbEntity
  8
-DC_BREP3
100
AcDbVertex
100
AcDbPolyFaceMeshVertex
 10
17.99987411499023
 20
-395.0
 30
283.5
 70
   192
  0
VERTEX
  5
340
330
315
100
AcDbEntity
  8
-DC_BREP3
100
AcDbVertex
100
AcDbPolyFaceMeshVertex
 10
17.99987411499023
 20
-396.6360778808594
 30
285.4666137695312
 70
   192
  0
VERTEX
  5
341
330
315
100
AcDbEntity
  8
-DC_BREP3
100
AcDbVertex
100
AcDbPolyFaceMeshVertex
 10
931.9998779296875
 20
-396.2639770507812
 30
285.3595581054687
 70
   192
  0
VERTEX
  5
342
330
315
100
AcDbEntity
  8
-DC_BREP3
100
AcDbVertex
100
AcDbPolyFaceMeshVertex
 10
931.9998779296875
 20
-396.63623046875
 30
285.4666137695312
 70
   192
  0
VERTEX
  5
343
330
315
100
AcDbEntity
  8
-DC_BREP3
100
AcDbVertex
100
AcDbPolyFaceMeshVertex
 10
17.99987411499023
 20
-397.0
 30
285.5
 70
   192
  0
VERTEX
  5
344
330
315
100
AcDbEntity
  8
-DC_BREP3
100
AcDbVertex
100
AcDbPolyFaceMeshVertex
 10
931.9998779296875
 20
-397.0001525878906
 30
285.5
 70
   192
  0
VERTEX
  5
345
330
315
100
AcDbEntity
  8
-DC_BREP3
100
AcDbVertex
100
AcDbPolyFaceMeshVertex
 10
931.9998779296875
 20
-395.0001525878906
 30
283.5
 70
   192
  0
VERTEX
  5
346
330
315
100
AcDbEntity
  8
-DC_BREP3
100
AcDbVertex
100
AcDbPolyFaceMeshVertex
 10
17.99987411499023
 20
-395.0333862304688
 30
283.8639221191406
 70
   192
  0
VERTEX
  5
347
330
315
100
AcDbEntity
  8
-DC_BREP3
100
AcDbVertex
100
AcDbPolyFaceMeshVertex
 10
17.99987411499023
 20
-395.0
 30
283.5
 70
   192
  0
VERTEX
  5
348
330
315
100
AcDbEntity
  8
-DC_BREP3
100
AcDbVertex
100
AcDbPolyFaceMeshVertex
 10
931.9998779296875
 20
-395.0335388183594
 30
283.8639221191406
 70
   192
  0
VERTEX
  5
349
330
315
100
AcDbEntity
  8
-DC_BREP3
100
AcDbVertex
100
AcDbPolyFaceMeshVertex
 10
17.99987411499023
 20
-395.1404113769531
 30
284.2362060546875
 70
   192
  0
VERTEX
  5
34A
330
315
100
AcDbEntity
  8
-DC_BREP3
100
AcDbVertex
100
AcDbPolyFaceMeshVertex
 10
931.9998779296875
 20
-395.1405639648438
 30
284.2362060546875
 70
   192
  0
VERTEX
  5
34B
330
315
100
AcDbEntity
  8
-DC_BREP3
100
AcDbVertex
100
AcDbPolyFaceMeshVertex
 10
931.9998779296875
 20
-395.326171875
 30
284.5944213867188
 70
   192
  0
VERTEX
  5
34C
330
315
100
AcDbEntity
  8
-DC_BREP3
100
AcDbVertex
100
AcDbPolyFaceMeshVertex
 10
17.99987411499023
 20
-395.3260192871094
 30
284.5944213867188
 70
   192
  0
VERTEX
  5
34D
330
315
100
AcDbEntity
  8
-DC_BREP3
100
AcDbVertex
100
AcDbPolyFaceMeshVertex
 10
17.99987411499023
 20
-395.5857849121094
 30
284.9142150878906
 70
   192
  0
VERTEX
  5
34E
330
315
100
AcDbEntity
  8
-DC_BREP3
100
AcDbVertex
100
AcDbPolyFaceMeshVertex
 10
931.9998779296875
 20
-395.5859375
 30
284.9142150878906
 70
   192
  0
VERTEX
  5
34F
330
315
100
AcDbEntity
  8
-DC_BREP3
100
AcDbVertex
100
AcDbPolyFaceMeshVertex
 10
17.99987411499023
 20
-395.9055786132812
 30
285.1740112304688
 70
   192
  0
VERTEX
  5
350
330
315
100
AcDbEntity
  8
-DC_BREP3
100
AcDbVertex
100
AcDbPolyFaceMeshVertex
 10
931.9998779296875
 20
-395.9057312011719
 30
285.1740112304688
 70
   192
  0
VERTEX
  5
351
330
315
100
AcDbEntity
  8
-DC_BREP3
100
AcDbVertex
100
AcDbPolyFaceMeshVertex
 10
17.99987411499023
 20
-396.2638244628906
 30
285.3595581054687
 70
   192
  0
VERTEX
  5
352
330
315
100
AcDbEntity
  8
-DC_BREP3
100
AcDbVertex
100
AcDbPolyFaceMeshVertex
 10
931.9998779296875
 20
-415.0001525878906
 30
285.5
 70
   192
  0
VERTEX
  5
353
330
315
100
AcDbEntity
  8
-DC_BREP3
100
AcDbVertex
100
AcDbPolyFaceMeshVertex
 10
17.99987411499023
 20
-397.0
 30
285.5
 70
   192
  0
VERTEX
  5
354
330
315
100
AcDbEntity
  8
-DC_BREP3
100
AcDbVertex
100
AcDbPolyFaceMeshVertex
 10
931.9998779296875
 20
-397.0001525878906
 30
285.5
 70
   192
  0
VERTEX
  5
355
330
315
100
AcDbEntity
  8
-DC_BREP3
100
AcDbVertex
100
AcDbPolyFaceMeshVertex
 10
17.9998722076416
 20
-415.0
 30
285.5
 70
   192
  0
VERTEX
  5
356
330
315
100
AcDbEntity
  8
-DC_BREP3
100
AcDbVertex
100
AcDbPolyFaceMeshVertex
 10
931.9998779296875
 20
-415.0001525878906
 30
291.5
 70
   192
  0
VERTEX
  5
357
330
315
100
AcDbEntity
  8
-DC_BREP3
100
AcDbVertex
100
AcDbPolyFaceMeshVertex
 10
17.9998722076416
 20
-415.0
 30
285.5
 70
   192
  0
VERTEX
  5
358
330
315
100
AcDbEntity
  8
-DC_BREP3
100
AcDbVertex
100
AcDbPolyFaceMeshVertex
 10
931.9998779296875
 20
-415.0001525878906
 30
285.5
 70
   192
  0
VERTEX
  5
359
330
315
100
AcDbEntity
  8
-DC_BREP3
100
AcDbVertex
100
AcDbPolyFaceMeshVertex
 10
17.9998722076416
 20
-415.0
 30
291.5
 70
   192
  0
VERTEX
  5
35A
330
315
100
AcDbEntity
  8
-DC_BREP3
100
AcDbVertex
100
AcDbPolyFaceMeshVertex
 10
931.9998779296875
 20
-412.0001525878906
 30
291.5
 70
   192
  0
VERTEX
  5
35B
330
315
100
AcDbEntity
  8
-DC_BREP3
100
AcDbVertex
100
AcDbPolyFaceMeshVertex
 10
17.9998722076416
 20
-415.0
 30
291.5
 70
   192
  0
VERTEX
  5
35C
330
315
100
AcDbEntity
  8
-DC_BREP3
100
AcDbVertex
100
AcDbPolyFaceMeshVertex
 10
931.9998779296875
 20
-415.0001525878906
 30
291.5
 70
   192
  0
VERTEX
  5
35D
330
315
100
AcDbEntity
  8
-DC_BREP3
100
AcDbVertex
100
AcDbPolyFaceMeshVertex
 10
17.9998722076416
 20
-412.0
 30
291.5
 70
   192
  0
VERTEX
  5
35E
330
315
100
AcDbEntity
  8
-DC_BREP3
100
AcDbVertex
100
AcDbPolyFaceMeshVertex
 10
931.9998779296875
 20
-412.0001525878906
 30
289.5
 70
   192
  0
VERTEX
  5
35F
330
315
100
AcDbEntity
  8
-DC_BREP3
100
AcDbVertex
100
AcDbPolyFaceMeshVertex
 10
17.9998722076416
 20
-412.0
 30
291.5
 70
   192
  0
VERTEX
  5
360
330
315
100
AcDbEntity
  8
-DC_BREP3
100
AcDbVertex
100
AcDbPolyFaceMeshVertex
 10
931.9998779296875
 20
-412.0001525878906
 30
291.5
 70
   192
  0
VERTEX
  5
361
330
315
100
AcDbEntity
  8
-DC_BREP3
100
AcDbVertex
100
AcDbPolyFaceMeshVertex
 10
17.9998722076416
 20
-412.0
 30
289.5
 70
   192
  0
VERTEX
  5
362
330
315
100
AcDbEntity
  8
-DC_BREP3
100
AcDbVertex
100
AcDbPolyFaceMeshVertex
 10
931.9998779296875
 20
-413.0001525878906
 30
289.5
 70
   192
  0
VERTEX
  5
363
330
315
100
AcDbEntity
  8
-DC_BREP3
100
AcDbVertex
100
AcDbPolyFaceMeshVertex
 10
17.9998722076416
 20
-412.0
 30
289.5
 70
   192
  0
VERTEX
  5
364
330
315
100
AcDbEntity
  8
-DC_BREP3
100
AcDbVertex
100
AcDbPolyFaceMeshVertex
 10
931.9998779296875
 20
-412.0001525878906
 30
289.5
 70
   192
  0
VERTEX
  5
365
330
315
100
AcDbEntity
  8
-DC_BREP3
100
AcDbVertex
100
AcDbPolyFaceMeshVertex
 10
17.9998722076416
 20
-413.0
 30
289.5
 70
   192
  0
VERTEX
  5
366
330
315
100
AcDbEntity
  8
-DC_BREP3
100
AcDbVertex
100
AcDbPolyFaceMeshVertex
 10
931.9998779296875
 20
-413.0001525878906
 30
287.5
 70
   192
  0
VERTEX
  5
367
330
315
100
AcDbEntity
  8
-DC_BREP3
100
AcDbVertex
100
AcDbPolyFaceMeshVertex
 10
17.9998722076416
 20
-413.0
 30
289.5
 70
   192
  0
VERTEX
  5
368
330
315
100
AcDbEntity
  8
-DC_BREP3
100
AcDbVertex
100
AcDbPolyFaceMeshVertex
 10
931.9998779296875
 20
-413.0001525878906
 30
289.5
 70
   192
  0
VERTEX
  5
369
330
315
100
AcDbEntity
  8
-DC_BREP3
100
AcDbVertex
100
AcDbPolyFaceMeshVertex
 10
17.9998722076416
 20
-413.0
 30
287.5
 70
   192
  0
VERTEX
  5
36A
330
315
100
AcDbEntity
  8
-DC_BREP3
100
AcDbVertex
100
AcDbPolyFaceMeshVertex
 10
931.9998779296875
 20
-393.0001525878907
 30
287.5
 70
   192
  0
VERTEX
  5
36B
330
315
100
AcDbEntity
  8
-DC_BREP3
100
AcDbVertex
100
AcDbPolyFaceMeshVertex
 10
17.9998722076416
 20
-413.0
 30
287.5
 70
   192
  0
VERTEX
  5
36C
330
315
100
AcDbEntity
  8
-DC_BREP3
100
AcDbVertex
100
AcDbPolyFaceMeshVertex
 10
931.9998779296875
 20
-413.0001525878906
 30
287.5
 70
   192
  0
VERTEX
  5
36D
330
315
100
AcDbEntity
  8
-DC_BREP3
100
AcDbVertex
100
AcDbPolyFaceMeshVertex
 10
17.99987411499023
 20
-393.0
 30
287.5
 70
   192
  0
VERTEX
  5
36E
330
315
100
AcDbEntity
  8
-DC_BREP3
100
AcDbVertex
100
AcDbPolyFaceMeshVertex
 10
17.99987602233886
 20
-391.0333862304688
 30
285.8639221191406
 70
   192
  0
VERTEX
  5
36F
330
315
100
AcDbEntity
  8
-DC_BREP3
100
AcDbVertex
100
AcDbPolyFaceMeshVertex
 10
931.9998779296875
 20
-391.0001525878906
 30
285.5
 70
   192
  0
VERTEX
  5
370
330
315
100
AcDbEntity
  8
-DC_BREP3
100
AcDbVertex
100
AcDbPolyFaceMeshVertex
 10
17.99987602233886
 20
-391.0
 30
285.5
 70
   192
  0
VERTEX
  5
371
330
315
100
AcDbEntity
  8
-DC_BREP3
100
AcDbVertex
100
AcDbPolyFaceMeshVertex
 10
931.9998779296875
 20
-393.0001525878907
 30
287.5
 70
   192
  0
VERTEX
  5
372
330
315
100
AcDbEntity
  8
-DC_BREP3
100
AcDbVertex
100
AcDbPolyFaceMeshVertex
 10
17.99987411499023
 20
-392.6360778808594
 30
287.4666137695312
 70
   192
  0
VERTEX
  5
373
330
315
100
AcDbEntity
  8
-DC_BREP3
100
AcDbVertex
100
AcDbPolyFaceMeshVertex
 10
17.99987411499023
 20
-393.0
 30
287.5
 70
   192
  0
VERTEX
  5
374
330
315
100
AcDbEntity
  8
-DC_BREP3
100
AcDbVertex
100
AcDbPolyFaceMeshVertex
 10
931.9998779296875
 20
-392.63623046875
 30
287.4666137695312
 70
   192
  0
VERTEX
  5
375
330
315
100
AcDbEntity
  8
-DC_BREP3
100
AcDbVertex
100
AcDbPolyFaceMeshVertex
 10
931.9998779296875
 20
-392.2639770507812
 30
287.3595581054687
 70
   192
  0
VERTEX
  5
376
330
315
100
AcDbEntity
  8
-DC_BREP3
100
AcDbVertex
100
AcDbPolyFaceMeshVertex
 10
17.99987411499023
 20
-392.2638244628906
 30
287.3595581054687
 70
   192
  0
VERTEX
  5
377
330
315
100
AcDbEntity
  8
-DC_BREP3
100
AcDbVertex
100
AcDbPolyFaceMeshVertex
 10
931.9998779296875
 20
-391.9057312011719
 30
287.1740112304688
 70
   192
  0
VERTEX
  5
378
330
315
100
AcDbEntity
  8
-DC_BREP3
100
AcDbVertex
100
AcDbPolyFaceMeshVertex
 10
17.99987602233886
 20
-391.9055786132813
 30
287.1740112304688
 70
   192
  0
VERTEX
  5
379
330
315
100
AcDbEntity
  8
-DC_BREP3
100
AcDbVertex
100
AcDbPolyFaceMeshVertex
 10
931.9998779296875
 20
-391.5859375
 30
286.9142150878906
 70
   192
  0
VERTEX
  5
37A
330
315
100
AcDbEntity
  8
-DC_BREP3
100
AcDbVertex
100
AcDbPolyFaceMeshVertex
 10
17.99987602233886
 20
-391.5857849121094
 30
286.9142150878906
 70
   192
  0
VERTEX
  5
37B
330
315
100
AcDbEntity
  8
-DC_BREP3
100
AcDbVertex
100
AcDbPolyFaceMeshVertex
 10
931.9998779296875
 20
-391.326171875
 30
286.5944213867187
 70
   192
  0
VERTEX
  5
37C
330
315
100
AcDbEntity
  8
-DC_BREP3
100
AcDbVertex
100
AcDbPolyFaceMeshVertex
 10
17.99987602233886
 20
-391.3260192871094
 30
286.5944213867187
 70
   192
  0
VERTEX
  5
37D
330
315
100
AcDbEntity
  8
-DC_BREP3
100
AcDbVertex
100
AcDbPolyFaceMeshVertex
 10
931.9998779296875
 20
-391.1405639648437
 30
286.2362060546875
 70
   192
  0
VERTEX
  5
37E
330
315
100
AcDbEntity
  8
-DC_BREP3
100
AcDbVertex
100
AcDbPolyFaceMeshVertex
 10
17.99987602233886
 20
-391.1404113769531
 30
286.2362060546875
 70
   192
  0
VERTEX
  5
37F
330
315
100
AcDbEntity
  8
-DC_BREP3
100
AcDbVertex
100
AcDbPolyFaceMeshVertex
 10
931.9998779296875
 20
-391.0335388183594
 30
285.8639221191406
 70
   192
  0
VERTEX
  5
380
330
315
100
AcDbEntity
  8
-DC_BREP3
100
AcDbVertex
100
AcDbPolyFaceMeshVertex
 10
931.9998779296875
 20
-391.0001525878906
 30
215.5
 70
   192
  0
VERTEX
  5
381
330
315
100
AcDbEntity
  8
-DC_BREP3
100
AcDbVertex
100
AcDbPolyFaceMeshVertex
 10
17.99987602233886
 20
-391.0
 30
285.5
 70
   192
  0
VERTEX
  5
382
330
315
100
AcDbEntity
  8
-DC_BREP3
100
AcDbVertex
100
AcDbPolyFaceMeshVertex
 10
931.9998779296875
 20
-391.0001525878906
 30
285.5
 70
   192
  0
VERTEX
  5
383
330
315
100
AcDbEntity
  8
-DC_BREP3
100
AcDbVertex
100
AcDbPolyFaceMeshVertex
 10
17.99987602233886
 20
-391.0
 30
215.5
 70
   192
  0
VERTEX
  5
384
330
315
100
AcDbEntity
  8
-DC_BREP3
100
AcDbVertex
100
AcDbPolyFaceMeshVertex
 10
17.99987411499023
 20
-392.6360778808594
 30
213.5333862304687
 70
   192
  0
VERTEX
  5
385
330
315
100
AcDbEntity
  8
-DC_BREP3
100
AcDbVertex
100
AcDbPolyFaceMeshVertex
 10
931.9998779296875
 20
-393.0001525878907
 30
213.5
 70
   192
  0
VERTEX
  5
386
330
315
100
AcDbEntity
  8
-DC_BREP3
100
AcDbVertex
100
AcDbPolyFaceMeshVertex
 10
17.99987411499023
 20
-393.0
 30
213.5
 70
   192
  0
VERTEX
  5
387
330
315
100
AcDbEntity
  8
-DC_BREP3
100
AcDbVertex
100
AcDbPolyFaceMeshVertex
 10
931.9998779296875
 20
-391.0001525878906
 30
215.5
 70
   192
  0
VERTEX
  5
388
330
315
100
AcDbEntity
  8
-DC_BREP3
100
AcDbVertex
100
AcDbPolyFaceMeshVertex
 10
17.99987602233886
 20
-391.0333862304688
 30
215.1360778808594
 70
   192
  0
VERTEX
  5
389
330
315
100
AcDbEntity
  8
-DC_BREP3
100
AcDbVertex
100
AcDbPolyFaceMeshVertex
 10
17.99987602233886
 20
-391.0
 30
215.5
 70
   192
  0
VERTEX
  5
38A
330
315
100
AcDbEntity
  8
-DC_BREP3
100
AcDbVertex
100
AcDbPolyFaceMeshVertex
 10
931.9998779296875
 20
-391.0335388183594
 30
215.1360778808594
 70
   192
  0
VERTEX
  5
38B
330
315
100
AcDbEntity
  8
-DC_BREP3
100
AcDbVertex
100
AcDbPolyFaceMeshVertex
 10
931.9998779296875
 20
-391.1405639648437
 30
214.7638244628906
 70
   192
  0
VERTEX
  5
38C
330
315
100
AcDbEntity
  8
-DC_BREP3
100
AcDbVertex
100
AcDbPolyFaceMeshVertex
 10
17.99987602233886
 20
-391.1404113769531
 30
214.7638244628906
 70
   192
  0
VERTEX
  5
38D
330
315
100
AcDbEntity
  8
-DC_BREP3
100
AcDbVertex
100
AcDbPolyFaceMeshVertex
 10
931.9998779296875
 20
-391.326171875
 30
214.4055786132812
 70
   192
  0
VERTEX
  5
38E
330
315
100
AcDbEntity
  8
-DC_BREP3
100
AcDbVertex
100
AcDbPolyFaceMeshVertex
 10
17.99987602233886
 20
-391.3260192871094
 30
214.4055786132812
 70
   192
  0
VERTEX
  5
38F
330
315
100
AcDbEntity
  8
-DC_BREP3
100
AcDbVertex
100
AcDbPolyFaceMeshVertex
 10
931.9998779296875
 20
-391.5859375
 30
214.0857849121094
 70
   192
  0
VERTEX
  5
390
330
315
100
AcDbEntity
  8
-DC_BREP3
100
AcDbVertex
100
AcDbPolyFaceMeshVertex
 10
17.99987602233886
 20
-391.5857849121094
 30
214.0857849121094
 70
   192
  0
VERTEX
  5
391
330
315
100
AcDbEntity
  8
-DC_BREP3
100
AcDbVertex
100
AcDbPolyFaceMeshVertex
 10
931.9998779296875
 20
-391.9057312011719
 30
213.8260192871094
 70
   192
  0
VERTEX
  5
392
330
315
100
AcDbEntity
  8
-DC_BREP3
100
AcDbVertex
100
AcDbPolyFaceMeshVertex
 10
17.99987602233886
 20
-391.9055786132813
 30
213.8260192871094
 70
   192
  0
VERTEX
  5
393
330
315
100
AcDbEntity
  8
-DC_BREP3
100
AcDbVertex
100
AcDbPolyFaceMeshVertex
 10
931.9998779296875
 20
-392.2639770507812
 30
213.6404113769531
 70
   192
  0
VERTEX
  5
394
330
315
100
AcDbEntity
  8
-DC_BREP3
100
AcDbVertex
100
AcDbPolyFaceMeshVertex
 10
17.99987411499023
 20
-392.2638244628906
 30
213.6404113769531
 70
   192
  0
VERTEX
  5
395
330
315
100
AcDbEntity
  8
-DC_BREP3
100
AcDbVertex
100
AcDbPolyFaceMeshVertex
 10
931.9998779296875
 20
-392.63623046875
 30
213.5333862304687
 70
   192
  0
VERTEX
  5
396
330
315
100
AcDbEntity
  8
-DC_BREP3
100
AcDbVertex
100
AcDbPolyFaceMeshVertex
 10
931.9998779296875
 20
-413.0001525878906
 30
213.5
 70
   192
  0
VERTEX
  5
397
330
315
100
AcDbEntity
  8
-DC_BREP3
100
AcDbVertex
100
AcDbPolyFaceMeshVertex
 10
17.99987411499023
 20
-393.0
 30
213.5
 70
   192
  0
VERTEX
  5
398
330
315
100
AcDbEntity
  8
-DC_BREP3
100
AcDbVertex
100
AcDbPolyFaceMeshVertex
 10
931.9998779296875
 20
-393.0001525878907
 30
213.5
 70
   192
  0
VERTEX
  5
399
330
315
100
AcDbEntity
  8
-DC_BREP3
100
AcDbVertex
100
AcDbPolyFaceMeshVertex
 10
17.9998722076416
 20
-413.0
 30
213.5
 70
   192
  0
VERTEX
  5
39A
330
315
100
AcDbEntity
  8
-DC_BREP3
100
AcDbVertex
100
AcDbPolyFaceMeshVertex
 10
931.9998779296875
 20
-413.0001525878906
 30
211.5
 70
   192
  0
VERTEX
  5
39B
330
315
100
AcDbEntity
  8
-DC_BREP3
100
AcDbVertex
100
AcDbPolyFaceMeshVertex
 10
17.9998722076416
 20
-413.0
 30
213.5
 70
   192
  0
VERTEX
  5
39C
330
315
100
AcDbEntity
  8
-DC_BREP3
100
AcDbVertex
100
AcDbPolyFaceMeshVertex
 10
931.9998779296875
 20
-413.0001525878906
 30
213.5
 70
   192
  0
VERTEX
  5
39D
330
315
100
AcDbEntity
  8
-DC_BREP3
100
AcDbVertex
100
AcDbPolyFaceMeshVertex
 10
17.9998722076416
 20
-413.0
 30
211.5
 70
   192
  0
VERTEX
  5
39E
330
315
100
AcDbEntity
  8
-DC_BREP3
100
AcDbVertex
100
AcDbPolyFaceMeshVertex
 10
17.99987602233886
 20
-391.0
 30
285.5
 70
   192
  0
VERTEX
  5
39F
330
315
100
AcDbEntity
  8
-DC_BREP3
100
AcDbVertex
100
AcDbPolyFaceMeshVertex
 10
17.99987602233886
 20
-391.1404113769531
 30
286.2362060546875
 70
   192
  0
VERTEX
  5
3A0
330
315
100
AcDbEntity
  8
-DC_BREP3
100
AcDbVertex
100
AcDbPolyFaceMeshVertex
 10
17.99987602233886
 20
-391.0333862304688
 30
285.8639221191406
 70
   192
  0
VERTEX
  5
3A1
330
315
100
AcDbEntity
  8
-DC_BREP3
100
AcDbVertex
100
AcDbPolyFaceMeshVertex
 10
17.9998722076416
 20
-413.0
 30
289.5
 70
   192
  0
VERTEX
  5
3A2
330
315
100
AcDbEntity
  8
-DC_BREP3
100
AcDbVertex
100
AcDbPolyFaceMeshVertex
 10
17.9998722076416
 20
-412.0
 30
291.5
 70
   192
  0
VERTEX
  5
3A3
330
315
100
AcDbEntity
  8
-DC_BREP3
100
AcDbVertex
100
AcDbPolyFaceMeshVertex
 10
17.9998722076416
 20
-412.0
 30
289.5
 70
   192
  0
VERTEX
  5
3A4
330
315
100
AcDbEntity
  8
-DC_BREP3
100
AcDbVertex
100
AcDbPolyFaceMeshVertex
 10
17.9998722076416
 20
-415.0
 30
291.5
 70
   192
  0
VERTEX
  5
3A5
330
315
100
AcDbEntity
  8
-DC_BREP3
100
AcDbVertex
100
AcDbPolyFaceMeshVertex
 10
17.9998722076416
 20
-415.0
 30
285.5
 70
   192
  0
VERTEX
  5
3A6
330
315
100
AcDbEntity
  8
-DC_BREP3
100
AcDbVertex
100
AcDbPolyFaceMeshVertex
 10
17.9998722076416
 20
-413.0
 30
287.5
 70
   192
  0
VERTEX
  5
3A7
330
315
100
AcDbEntity
  8
-DC_BREP3
100
AcDbVertex
100
AcDbPolyFaceMeshVertex
 10
17.99987411499023
 20
-397.0
 30
285.5
 70
   192
  0
VERTEX
  5
3A8
330
315
100
AcDbEntity
  8
-DC_BREP3
100
AcDbVertex
100
AcDbPolyFaceMeshVertex
 10
17.99987411499023
 20
-393.0
 30
287.5
 70
   192
  0
VERTEX
  5
3A9
330
315
100
AcDbEntity
  8
-DC_BREP3
100
AcDbVertex
100
AcDbPolyFaceMeshVertex
 10
17.99987411499023
 20
-396.6360778808594
 30
285.4666137695312
 70
   192
  0
VERTEX
  5
3AA
330
315
100
AcDbEntity
  8
-DC_BREP3
100
AcDbVertex
100
AcDbPolyFaceMeshVertex
 10
17.99987411499023
 20
-396.2638244628906
 30
285.3595581054687
 70
   192
  0
VERTEX
  5
3AB
330
315
100
AcDbEntity
  8
-DC_BREP3
100
AcDbVertex
100
AcDbPolyFaceMeshVertex
 10
17.99987411499023
 20
-395.9055786132812
 30
285.1740112304688
 70
   192
  0
VERTEX
  5
3AC
330
315
100
AcDbEntity
  8
-DC_BREP3
100
AcDbVertex
100
AcDbPolyFaceMeshVertex
 10
17.99987411499023
 20
-395.5857849121094
 30
284.9142150878906
 70
   192
  0
VERTEX
  5
3AD
330
315
100
AcDbEntity
  8
-DC_BREP3
100
AcDbVertex
100
AcDbPolyFaceMeshVertex
 10
17.9998722076416
 20
-415.0
 30
209.5
 70
   192
  0
VERTEX
  5
3AE
330
315
100
AcDbEntity
  8
-DC_BREP3
100
AcDbVertex
100
AcDbPolyFaceMeshVertex
 10
17.9998722076416
 20
-412.0
 30
211.5
 70
   192
  0
VERTEX
  5
3AF
330
315
100
AcDbEntity
  8
-DC_BREP3
100
AcDbVertex
100
AcDbPolyFaceMeshVertex
 10
17.9998722076416
 20
-412.0
 30
209.5
 70
   192
  0
VERTEX
  5
3B0
330
315
100
AcDbEntity
  8
-DC_BREP3
100
AcDbVertex
100
AcDbPolyFaceMeshVertex
 10
17.9998722076416
 20
-413.0
 30
211.5
 70
   192
  0
VERTEX
  5
3B1
330
315
100
AcDbEntity
  8
-DC_BREP3
100
AcDbVertex
100
AcDbPolyFaceMeshVertex
 10
17.9998722076416
 20
-415.0
 30
215.5
 70
   192
  0
VERTEX
  5
3B2
330
315
100
AcDbEntity
  8
-DC_BREP3
100
AcDbVertex
100
AcDbPolyFaceMeshVertex
 10
17.9998722076416
 20
-413.0
 30
213.5
 70
   192
  0
VERTEX
  5
3B3
330
315
100
AcDbEntity
  8
-DC_BREP3
100
AcDbVertex
100
AcDbPolyFaceMeshVertex
 10
17.99987411499023
 20
-397.0
 30
215.5
 70
   192
  0
VERTEX
  5
3B4
330
315
100
AcDbEntity
  8
-DC_BREP3
100
AcDbVertex
100
AcDbPolyFaceMeshVertex
 10
17.99987411499023
 20
-393.0
 30
213.5
 70
   192
  0
VERTEX
  5
3B5
330
315
100
AcDbEntity
  8
-DC_BREP3
100
AcDbVertex
100
AcDbPolyFaceMeshVertex
 10
17.99987411499023
 20
-396.6360778808594
 30
215.5333862304686
 70
   192
  0
VERTEX
  5
3B6
330
315
100
AcDbEntity
  8
-DC_BREP3
100
AcDbVertex
100
AcDbPolyFaceMeshVertex
 10
17.99987411499023
 20
-396.2638244628906
 30
215.6404113769531
 70
   192
  0
VERTEX
  5
3B7
330
315
100
AcDbEntity
  8
-DC_BREP3
100
AcDbVertex
100
AcDbPolyFaceMeshVertex
 10
17.99987411499023
 20
-395.9055786132812
 30
215.8260192871094
 70
   192
  0
VERTEX
  5
3B8
330
315
100
AcDbEntity
  8
-DC_BREP3
100
AcDbVertex
100
AcDbPolyFaceMeshVertex
 10
17.99987411499023
 20
-395.5857849121094
 30
216.0857849121094
 70
   192
  0
VERTEX
  5
3B9
330
315
100
AcDbEntity
  8
-DC_BREP3
100
AcDbVertex
100
AcDbPolyFaceMeshVertex
 10
17.99987411499023
 20
-395.3260192871094
 30
216.4055786132812
 70
   192
  0
VERTEX
  5
3BA
330
315
100
AcDbEntity
  8
-DC_BREP3
100
AcDbVertex
100
AcDbPolyFaceMeshVertex
 10
17.99987411499023
 20
-395.3260192871094
 30
284.5944213867188
 70
   192
  0
VERTEX
  5
3BB
330
315
100
AcDbEntity
  8
-DC_BREP3
100
AcDbVertex
100
AcDbPolyFaceMeshVertex
 10
17.99987411499023
 20
-395.1404113769531
 30
284.2362060546875
 70
   192
  0
VERTEX
  5
3BC
330
315
100
AcDbEntity
  8
-DC_BREP3
100
AcDbVertex
100
AcDbPolyFaceMeshVertex
 10
17.99987411499023
 20
-395.1404113769531
 30
216.7638244628906
 70
   192
  0
VERTEX
  5
3BD
330
315
100
AcDbEntity
  8
-DC_BREP3
100
AcDbVertex
100
AcDbPolyFaceMeshVertex
 10
17.99987411499023
 20
-392.6360778808594
 30
213.5333862304687
 70
   192
  0
VERTEX
  5
3BE
330
315
100
AcDbEntity
  8
-DC_BREP3
100
AcDbVertex
100
AcDbPolyFaceMeshVertex
 10
17.99987411499023
 20
-392.2638244628906
 30
213.6404113769531
 70
   192
  0
VERTEX
  5
3BF
330
315
100
AcDbEntity
  8
-DC_BREP3
100
AcDbVertex
100
AcDbPolyFaceMeshVertex
 10
17.99987602233886
 20
-391.9055786132813
 30
213.8260192871094
 70
   192
  0
VERTEX
  5
3C0
330
315
100
AcDbEntity
  8
-DC_BREP3
100
AcDbVertex
100
AcDbPolyFaceMeshVertex
 10
17.99987602233886
 20
-391.5857849121094
 30
214.0857849121094
 70
   192
  0
VERTEX
  5
3C1
330
315
100
AcDbEntity
  8
-DC_BREP3
100
AcDbVertex
100
AcDbPolyFaceMeshVertex
 10
17.99987602233886
 20
-391.3260192871094
 30
214.4055786132812
 70
   192
  0
VERTEX
  5
3C2
330
315
100
AcDbEntity
  8
-DC_BREP3
100
AcDbVertex
100
AcDbPolyFaceMeshVertex
 10
17.99987602233886
 20
-391.1404113769531
 30
214.7638244628906
 70
   192
  0
VERTEX
  5
3C3
330
315
100
AcDbEntity
  8
-DC_BREP3
100
AcDbVertex
100
AcDbPolyFaceMeshVertex
 10
17.99987602233886
 20
-391.0333862304688
 30
215.1360778808594
 70
   192
  0
VERTEX
  5
3C4
330
315
100
AcDbEntity
  8
-DC_BREP3
100
AcDbVertex
100
AcDbPolyFaceMeshVertex
 10
17.99987602233886
 20
-391.0
 30
215.5
 70
   192
  0
VERTEX
  5
3C5
330
315
100
AcDbEntity
  8
-DC_BREP3
100
AcDbVertex
100
AcDbPolyFaceMeshVertex
 10
17.99987411499023
 20
-395.0333862304688
 30
217.1360778808594
 70
   192
  0
VERTEX
  5
3C6
330
315
100
AcDbEntity
  8
-DC_BREP3
100
AcDbVertex
100
AcDbPolyFaceMeshVertex
 10
17.99987411499023
 20
-395.0
 30
217.5
 70
   192
  0
VERTEX
  5
3C7
330
315
100
AcDbEntity
  8
-DC_BREP3
100
AcDbVertex
100
AcDbPolyFaceMeshVertex
 10
17.99987411499023
 20
-395.0
 30
283.5
 70
   192
  0
VERTEX
  5
3C8
330
315
100
AcDbEntity
  8
-DC_BREP3
100
AcDbVertex
100
AcDbPolyFaceMeshVertex
 10
17.99987411499023
 20
-395.0333862304688
 30
283.8639221191406
 70
   192
  0
VERTEX
  5
3C9
330
315
100
AcDbEntity
  8
-DC_BREP3
100
AcDbVertex
100
AcDbPolyFaceMeshVertex
 10
17.99987411499023
 20
-392.6360778808594
 30
287.4666137695312
 70
   192
  0
VERTEX
  5
3CA
330
315
100
AcDbEntity
  8
-DC_BREP3
100
AcDbVertex
100
AcDbPolyFaceMeshVertex
 10
17.99987411499023
 20
-392.2638244628906
 30
287.3595581054687
 70
   192
  0
VERTEX
  5
3CB
330
315
100
AcDbEntity
  8
-DC_BREP3
100
AcDbVertex
100
AcDbPolyFaceMeshVertex
 10
17.99987602233886
 20
-391.9055786132813
 30
287.1740112304688
 70
   192
  0
VERTEX
  5
3CC
330
315
100
AcDbEntity
  8
-DC_BREP3
100
AcDbVertex
100
AcDbPolyFaceMeshVertex
 10
17.99987602233886
 20
-391.5857849121094
 30
286.9142150878906
 70
   192
  0
VERTEX
  5
3CD
330
315
100
AcDbEntity
  8
-DC_BREP3
100
AcDbVertex
100
AcDbPolyFaceMeshVertex
 10
17.99987602233886
 20
-391.3260192871094
 30
286.5944213867187
 70
   192
  0
VERTEX
  5
3CE
330
315
100
AcDbEntity
  8
-DC_BREP3
100
AcDbVertex
100
AcDbPolyFaceMeshVertex
 10
931.9998779296875
 20
-393.0001525878907
 30
287.5
 70
   192
  0
VERTEX
  5
3CF
330
315
100
AcDbEntity
  8
-DC_BREP3
100
AcDbVertex
100
AcDbPolyFaceMeshVertex
 10
931.9998779296875
 20
-392.2639770507812
 30
287.3595581054687
 70
   192
  0
VERTEX
  5
3D0
330
315
100
AcDbEntity
  8
-DC_BREP3
100
AcDbVertex
100
AcDbPolyFaceMeshVertex
 10
931.9998779296875
 20
-392.63623046875
 30
287.4666137695312
 70
   192
  0
VERTEX
  5
3D1
330
315
100
AcDbEntity
  8
-DC_BREP3
100
AcDbVertex
100
AcDbPolyFaceMeshVertex
 10
931.9998779296875
 20
-415.0001525878906
 30
291.5
 70
   192
  0
VERTEX
  5
3D2
330
315
100
AcDbEntity
  8
-DC_BREP3
100
AcDbVertex
100
AcDbPolyFaceMeshVertex
 10
931.9998779296875
 20
-412.0001525878906
 30
289.5
 70
   192
  0
VERTEX
  5
3D3
330
315
100
AcDbEntity
  8
-DC_BREP3
100
AcDbVertex
100
AcDbPolyFaceMeshVertex
 10
931.9998779296875
 20
-412.0001525878906
 30
291.5
 70
   192
  0
VERTEX
  5
3D4
330
315
100
AcDbEntity
  8
-DC_BREP3
100
AcDbVertex
100
AcDbPolyFaceMeshVertex
 10
931.9998779296875
 20
-413.0001525878906
 30
289.5
 70
   192
  0
VERTEX
  5
3D5
330
315
100
AcDbEntity
  8
-DC_BREP3
100
AcDbVertex
100
AcDbPolyFaceMeshVertex
 10
931.9998779296875
 20
-415.0001525878906
 30
285.5
 70
   192
  0
VERTEX
  5
3D6
330
315
100
AcDbEntity
  8
-DC_BREP3
100
AcDbVertex
100
AcDbPolyFaceMeshVertex
 10
931.9998779296875
 20
-413.0001525878906
 30
287.5
 70
   192
  0
VERTEX
  5
3D7
330
315
100
AcDbEntity
  8
-DC_BREP3
100
AcDbVertex
100
AcDbPolyFaceMeshVertex
 10
931.9998779296875
 20
-397.0001525878906
 30
285.5
 70
   192
  0
VERTEX
  5
3D8
330
315
100
AcDbEntity
  8
-DC_BREP3
100
AcDbVertex
100
AcDbPolyFaceMeshVertex
 10
931.9998779296875
 20
-396.63623046875
 30
285.4666137695312
 70
   192
  0
VERTEX
  5
3D9
330
315
100
AcDbEntity
  8
-DC_BREP3
100
AcDbVertex
100
AcDbPolyFaceMeshVertex
 10
931.9998779296875
 20
-396.2639770507812
 30
285.3595581054687
 70
   192
  0
VERTEX
  5
3DA
330
315
100
AcDbEntity
  8
-DC_BREP3
100
AcDbVertex
100
AcDbPolyFaceMeshVertex
 10
931.9998779296875
 20
-395.9057312011719
 30
285.1740112304688
 70
   192
  0
VERTEX
  5
3DB
330
315
100
AcDbEntity
  8
-DC_BREP3
100
AcDbVertex
100
AcDbPolyFaceMeshVertex
 10
931.9998779296875
 20
-395.5859375
 30
284.9142150878906
 70
   192
  0
VERTEX
  5
3DC
330
315
100
AcDbEntity
  8
-DC_BREP3
100
AcDbVertex
100
AcDbPolyFaceMeshVertex
 10
931.9998779296875
 20
-413.0001525878906
 30
211.5
 70
   192
  0
VERTEX
  5
3DD
330
315
100
AcDbEntity
  8
-DC_BREP3
100
AcDbVertex
100
AcDbPolyFaceMeshVertex
 10
931.9998779296875
 20
-412.0001525878906
 30
209.5
 70
   192
  0
VERTEX
  5
3DE
330
315
100
AcDbEntity
  8
-DC_BREP3
100
AcDbVertex
100
AcDbPolyFaceMeshVertex
 10
931.9998779296875
 20
-412.0001525878906
 30
211.5
 70
   192
  0
VERTEX
  5
3DF
330
315
100
AcDbEntity
  8
-DC_BREP3
100
AcDbVertex
100
AcDbPolyFaceMeshVertex
 10
931.9998779296875
 20
-415.0001525878906
 30
209.5
 70
   192
  0
VERTEX
  5
3E0
330
315
100
AcDbEntity
  8
-DC_BREP3
100
AcDbVertex
100
AcDbPolyFaceMeshVertex
 10
931.9998779296875
 20
-415.0001525878906
 30
215.5
 70
   192
  0
VERTEX
  5
3E1
330
315
100
AcDbEntity
  8
-DC_BREP3
100
AcDbVertex
100
AcDbPolyFaceMeshVertex
 10
931.9998779296875
 20
-413.0001525878906
 30
213.5
 70
   192
  0
VERTEX
  5
3E2
330
315
100
AcDbEntity
  8
-DC_BREP3
100
AcDbVertex
100
AcDbPolyFaceMeshVertex
 10
931.9998779296875
 20
-397.0001525878906
 30
215.5
 70
   192
  0
VERTEX
  5
3E3
330
315
100
AcDbEntity
  8
-DC_BREP3
100
AcDbVertex
100
AcDbPolyFaceMeshVertex
 10
931.9998779296875
 20
-393.0001525878907
 30
213.5
 70
   192
  0
VERTEX
  5
3E4
330
315
100
AcDbEntity
  8
-DC_BREP3
100
AcDbVertex
100
AcDbPolyFaceMeshVertex
 10
931.9998779296875
 20
-396.63623046875
 30
215.5333862304686
 70
   192
  0
VERTEX
  5
3E5
330
315
100
AcDbEntity
  8
-DC_BREP3
100
AcDbVertex
100
AcDbPolyFaceMeshVertex
 10
931.9998779296875
 20
-396.2639770507812
 30
215.6404113769531
 70
   192
  0
VERTEX
  5
3E6
330
315
100
AcDbEntity
  8
-DC_BREP3
100
AcDbVertex
100
AcDbPolyFaceMeshVertex
 10
931.9998779296875
 20
-395.9057312011719
 30
215.8260192871094
 70
   192
  0
VERTEX
  5
3E7
330
315
100
AcDbEntity
  8
-DC_BREP3
100
AcDbVertex
100
AcDbPolyFaceMeshVertex
 10
931.9998779296875
 20
-395.5859375
 30
216.0857849121094
 70
   192
  0
VERTEX
  5
3E8
330
315
100
AcDbEntity
  8
-DC_BREP3
100
AcDbVertex
100
AcDbPolyFaceMeshVertex
 10
931.9998779296875
 20
-395.326171875
 30
216.4055786132812
 70
   192
  0
VERTEX
  5
3E9
330
315
100
AcDbEntity
  8
-DC_BREP3
100
AcDbVertex
100
AcDbPolyFaceMeshVertex
 10
931.9998779296875
 20
-395.326171875
 30
284.5944213867188
 70
   192
  0
VERTEX
  5
3EA
330
315
100
AcDbEntity
  8
-DC_BREP3
100
AcDbVertex
100
AcDbPolyFaceMeshVertex
 10
931.9998779296875
 20
-395.1405639648438
 30
284.2362060546875
 70
   192
  0
VERTEX
  5
3EB
330
315
100
AcDbEntity
  8
-DC_BREP3
100
AcDbVertex
100
AcDbPolyFaceMeshVertex
 10
931.9998779296875
 20
-395.1405639648438
 30
216.7638244628906
 70
   192
  0
VERTEX
  5
3EC
330
315
100
AcDbEntity
  8
-DC_BREP3
100
AcDbVertex
100
AcDbPolyFaceMeshVertex
 10
931.9998779296875
 20
-392.63623046875
 30
213.5333862304687
 70
   192
  0
VERTEX
  5
3ED
330
315
100
AcDbEntity
  8
-DC_BREP3
100
AcDbVertex
100
AcDbPolyFaceMeshVertex
 10
931.9998779296875
 20
-392.2639770507812
 30
213.6404113769531
 70
   192
  0
VERTEX
  5
3EE
330
315
100
AcDbEntity
  8
-DC_BREP3
100
AcDbVertex
100
AcDbPolyFaceMeshVertex
 10
931.9998779296875
 20
-391.9057312011719
 30
213.8260192871094
 70
   192
  0
VERTEX
  5
3EF
330
315
100
AcDbEntity
  8
-DC_BREP3
100
AcDbVertex
100
AcDbPolyFaceMeshVertex
 10
931.9998779296875
 20
-391.5859375
 30
214.0857849121094
 70
   192
  0
VERTEX
  5
3F0
330
315
100
AcDbEntity
  8
-DC_BREP3
100
AcDbVertex
100
AcDbPolyFaceMeshVertex
 10
931.9998779296875
 20
-391.326171875
 30
214.4055786132812
 70
   192
  0
VERTEX
  5
3F1
330
315
100
AcDbEntity
  8
-DC_BREP3
100
AcDbVertex
100
AcDbPolyFaceMeshVertex
 10
931.9998779296875
 20
-391.1405639648437
 30
214.7638244628906
 70
   192
  0
VERTEX
  5
3F2
330
315
100
AcDbEntity
  8
-DC_BREP3
100
AcDbVertex
100
AcDbPolyFaceMeshVertex
 10
931.9998779296875
 20
-391.0335388183594
 30
215.1360778808594
 70
   192
  0
VERTEX
  5
3F3
330
315
100
AcDbEntity
  8
-DC_BREP3
100
AcDbVertex
100
AcDbPolyFaceMeshVertex
 10
931.9998779296875
 20
-391.0001525878906
 30
215.5
 70
   192
  0
VERTEX
  5
3F4
330
315
100
AcDbEntity
  8
-DC_BREP3
100
AcDbVertex
100
AcDbPolyFaceMeshVertex
 10
931.9998779296875
 20
-395.0335388183594
 30
217.1360778808594
 70
   192
  0
VERTEX
  5
3F5
330
315
100
AcDbEntity
  8
-DC_BREP3
100
AcDbVertex
100
AcDbPolyFaceMeshVertex
 10
931.9998779296875
 20
-395.0001525878906
 30
217.5
 70
   192
  0
VERTEX
  5
3F6
330
315
100
AcDbEntity
  8
-DC_BREP3
100
AcDbVertex
100
AcDbPolyFaceMeshVertex
 10
931.9998779296875
 20
-391.0001525878906
 30
285.5
 70
   192
  0
VERTEX
  5
3F7
330
315
100
AcDbEntity
  8
-DC_BREP3
100
AcDbVertex
100
AcDbPolyFaceMeshVertex
 10
931.9998779296875
 20
-395.0001525878906
 30
283.5
 70
   192
  0
VERTEX
  5
3F8
330
315
100
AcDbEntity
  8
-DC_BREP3
100
AcDbVertex
100
AcDbPolyFaceMeshVertex
 10
931.9998779296875
 20
-395.0335388183594
 30
283.8639221191406
 70
   192
  0
VERTEX
  5
3F9
330
315
100
AcDbEntity
  8
-DC_BREP3
100
AcDbVertex
100
AcDbPolyFaceMeshVertex
 10
931.9998779296875
 20
-391.0335388183594
 30
285.8639221191406
 70
   192
  0
VERTEX
  5
3FA
330
315
100
AcDbEntity
  8
-DC_BREP3
100
AcDbVertex
100
AcDbPolyFaceMeshVertex
 10
931.9998779296875
 20
-391.1405639648437
 30
286.2362060546875
 70
   192
  0
VERTEX
  5
3FB
330
315
100
AcDbEntity
  8
-DC_BREP3
100
AcDbVertex
100
AcDbPolyFaceMeshVertex
 10
931.9998779296875
 20
-391.326171875
 30
286.5944213867187
 70
   192
  0
VERTEX
  5
3FC
330
315
100
AcDbEntity
  8
-DC_BREP3
100
AcDbVertex
100
AcDbPolyFaceMeshVertex
 10
931.9998779296875
 20
-391.5859375
 30
286.9142150878906
 70
   192
  0
VERTEX
  5
3FD
330
315
100
AcDbEntity
  8
-DC_BREP3
100
AcDbVertex
100
AcDbPolyFaceMeshVertex
 10
931.9998779296875
 20
-391.9057312011719
 30
287.1740112304688
 70
   192
  0
VERTEX
  5
3FE
330
315
100
AcDbEntity
  8
-DC_BREP3
100
AcDbFaceRecord
 10
0.0
 20
0.0
 30
0.0
 70
   128
 71
     1
 72
     2
 73
     3
  0
VERTEX
  5
3FF
330
315
100
AcDbEntity
  8
-DC_BREP3
100
AcDbFaceRecord
 10
0.0
 20
0.0
 30
0.0
 70
   128
 71
     2
 72
     1
 73
     4
  0
VERTEX
  5
400
330
315
100
AcDbEntity
  8
-DC_BREP3
100
AcDbFaceRecord
 10
0.0
 20
0.0
 30
0.0
 70
   128
 71
     5
 72
     6
 73
     7
  0
VERTEX
  5
401
330
315
100
AcDbEntity
  8
-DC_BREP3
100
AcDbFaceRecord
 10
0.0
 20
0.0
 30
0.0
 70
   128
 71
     6
 72
     5
 73
     8
  0
VERTEX
  5
402
330
315
100
AcDbEntity
  8
-DC_BREP3
100
AcDbFaceRecord
 10
0.0
 20
0.0
 30
0.0
 70
   128
 71
     9
 72
    10
 73
    11
  0
VERTEX
  5
403
330
315
100
AcDbEntity
  8
-DC_BREP3
100
AcDbFaceRecord
 10
0.0
 20
0.0
 30
0.0
 70
   128
 71
    10
 72
     9
 73
    12
  0
VERTEX
  5
404
330
315
100
AcDbEntity
  8
-DC_BREP3
100
AcDbFaceRecord
 10
0.0
 20
0.0
 30
0.0
 70
   128
 71
    13
 72
    14
 73
    15
  0
VERTEX
  5
405
330
315
100
AcDbEntity
  8
-DC_BREP3
100
AcDbFaceRecord
 10
0.0
 20
0.0
 30
0.0
 70
   128
 71
    14
 72
    13
 73
    16
  0
VERTEX
  5
406
330
315
100
AcDbEntity
  8
-DC_BREP3
100
AcDbFaceRecord
 10
0.0
 20
0.0
 30
0.0
 70
   128
 71
    17
 72
    18
 73
    19
  0
VERTEX
  5
407
330
315
100
AcDbEntity
  8
-DC_BREP3
100
AcDbFaceRecord
 10
0.0
 20
0.0
 30
0.0
 70
   128
 71
    18
 72
    17
 73
    20
  0
VERTEX
  5
408
330
315
100
AcDbEntity
  8
-DC_BREP3
100
AcDbFaceRecord
 10
0.0
 20
0.0
 30
0.0
 70
   128
 71
    21
 72
    22
 73
    23
  0
VERTEX
  5
409
330
315
100
AcDbEntity
  8
-DC_BREP3
100
AcDbFaceRecord
 10
0.0
 20
0.0
 30
0.0
 70
   128
 71
    24
 72
    25
 73
    26
  0
VERTEX
  5
40A
330
315
100
AcDbEntity
  8
-DC_BREP3
100
AcDbFaceRecord
 10
0.0
 20
0.0
 30
0.0
 70
   128
 71
    24
 72
    27
 73
    25
  0
VERTEX
  5
40B
330
315
100
AcDbEntity
  8
-DC_BREP3
100
AcDbFaceRecord
 10
0.0
 20
0.0
 30
0.0
 70
   128
 71
    24
 72
    28
 73
    27
  0
VERTEX
  5
40C
330
315
100
AcDbEntity
  8
-DC_BREP3
100
AcDbFaceRecord
 10
0.0
 20
0.0
 30
0.0
 70
   128
 71
    29
 72
    28
 73
    24
  0
VERTEX
  5
40D
330
315
100
AcDbEntity
  8
-DC_BREP3
100
AcDbFaceRecord
 10
0.0
 20
0.0
 30
0.0
 70
   128
 71
    30
 72
    28
 73
    29
  0
VERTEX
  5
40E
330
315
100
AcDbEntity
  8
-DC_BREP3
100
AcDbFaceRecord
 10
0.0
 20
0.0
 30
0.0
 70
   128
 71
    30
 72
    31
 73
    28
  0
VERTEX
  5
40F
330
315
100
AcDbEntity
  8
-DC_BREP3
100
AcDbFaceRecord
 10
0.0
 20
0.0
 30
0.0
 70
   128
 71
    30
 72
    32
 73
    31
  0
VERTEX
  5
410
330
315
100
AcDbEntity
  8
-DC_BREP3
100
AcDbFaceRecord
 10
0.0
 20
0.0
 30
0.0
 70
   128
 71
    33
 72
    32
 73
    30
  0
VERTEX
  5
411
330
315
100
AcDbEntity
  8
-DC_BREP3
100
AcDbFaceRecord
 10
0.0
 20
0.0
 30
0.0
 70
   128
 71
    34
 72
    32
 73
    33
  0
VERTEX
  5
412
330
315
100
AcDbEntity
  8
-DC_BREP3
100
AcDbFaceRecord
 10
0.0
 20
0.0
 30
0.0
 70
   128
 71
    34
 72
    35
 73
    32
  0
VERTEX
  5
413
330
315
100
AcDbEntity
  8
-DC_BREP3
100
AcDbFaceRecord
 10
0.0
 20
0.0
 30
0.0
 70
   128
 71
    34
 72
    36
 73
    35
  0
VERTEX
  5
414
330
315
100
AcDbEntity
  8
-DC_BREP3
100
AcDbFaceRecord
 10
0.0
 20
0.0
 30
0.0
 70
   128
 71
    37
 72
    36
 73
    34
  0
VERTEX
  5
415
330
315
100
AcDbEntity
  8
-DC_BREP3
100
AcDbFaceRecord
 10
0.0
 20
0.0
 30
0.0
 70
   128
 71
    37
 72
    21
 73
    36
  0
VERTEX
  5
416
330
315
100
AcDbEntity
  8
-DC_BREP3
100
AcDbFaceRecord
 10
0.0
 20
0.0
 30
0.0
 70
   128
 71
    38
 72
    21
 73
    37
  0
VERTEX
  5
417
330
315
100
AcDbEntity
  8
-DC_BREP3
100
AcDbFaceRecord
 10
0.0
 20
0.0
 30
0.0
 70
   128
 71
    22
 72
    21
 73
    38
  0
VERTEX
  5
418
330
315
100
AcDbEntity
  8
-DC_BREP3
100
AcDbFaceRecord
 10
0.0
 20
0.0
 30
0.0
 70
   128
 71
    39
 72
    40
 73
    41
  0
VERTEX
  5
419
330
315
100
AcDbEntity
  8
-DC_BREP3
100
AcDbFaceRecord
 10
0.0
 20
0.0
 30
0.0
 70
   128
 71
    40
 72
    39
 73
    42
  0
VERTEX
  5
41A
330
315
100
AcDbEntity
  8
-DC_BREP3
100
AcDbFaceRecord
 10
0.0
 20
0.0
 30
0.0
 70
   128
 71
    43
 72
    44
 73
    45
  0
VERTEX
  5
41B
330
315
100
AcDbEntity
  8
-DC_BREP3
100
AcDbFaceRecord
 10
0.0
 20
0.0
 30
0.0
 70
   128
 71
    46
 72
    45
 73
    47
  0
VERTEX
  5
41C
330
315
100
AcDbEntity
  8
-DC_BREP3
100
AcDbFaceRecord
 10
0.0
 20
0.0
 30
0.0
 70
   128
 71
    43
 72
    45
 73
    46
  0
VERTEX
  5
41D
330
315
100
AcDbEntity
  8
-DC_BREP3
100
AcDbFaceRecord
 10
0.0
 20
0.0
 30
0.0
 70
   128
 71
    48
 72
    49
 73
    50
  0
VERTEX
  5
41E
330
315
100
AcDbEntity
  8
-DC_BREP3
100
AcDbFaceRecord
 10
0.0
 20
0.0
 30
0.0
 70
   128
 71
    51
 72
    49
 73
    48
  0
VERTEX
  5
41F
330
315
100
AcDbEntity
  8
-DC_BREP3
100
AcDbFaceRecord
 10
0.0
 20
0.0
 30
0.0
 70
   128
 71
    51
 72
    52
 73
    49
  0
VERTEX
  5
420
330
315
100
AcDbEntity
  8
-DC_BREP3
100
AcDbFaceRecord
 10
0.0
 20
0.0
 30
0.0
 70
   128
 71
    53
 72
    52
 73
    51
  0
VERTEX
  5
421
330
315
100
AcDbEntity
  8
-DC_BREP3
100
AcDbFaceRecord
 10
0.0
 20
0.0
 30
0.0
 70
   128
 71
    54
 72
    52
 73
    53
  0
VERTEX
  5
422
330
315
100
AcDbEntity
  8
-DC_BREP3
100
AcDbFaceRecord
 10
0.0
 20
0.0
 30
0.0
 70
   128
 71
    54
 72
    55
 73
    52
  0
VERTEX
  5
423
330
315
100
AcDbEntity
  8
-DC_BREP3
100
AcDbFaceRecord
 10
0.0
 20
0.0
 30
0.0
 70
   128
 71
    54
 72
    56
 73
    55
  0
VERTEX
  5
424
330
315
100
AcDbEntity
  8
-DC_BREP3
100
AcDbFaceRecord
 10
0.0
 20
0.0
 30
0.0
 70
   128
 71
    57
 72
    56
 73
    54
  0
VERTEX
  5
425
330
315
100
AcDbEntity
  8
-DC_BREP3
100
AcDbFaceRecord
 10
0.0
 20
0.0
 30
0.0
 70
   128
 71
    57
 72
    58
 73
    56
  0
VERTEX
  5
426
330
315
100
AcDbEntity
  8
-DC_BREP3
100
AcDbFaceRecord
 10
0.0
 20
0.0
 30
0.0
 70
   128
 71
    59
 72
    58
 73
    57
  0
VERTEX
  5
427
330
315
100
AcDbEntity
  8
-DC_BREP3
100
AcDbFaceRecord
 10
0.0
 20
0.0
 30
0.0
 70
   128
 71
    59
 72
    60
 73
    58
  0
VERTEX
  5
428
330
315
100
AcDbEntity
  8
-DC_BREP3
100
AcDbFaceRecord
 10
0.0
 20
0.0
 30
0.0
 70
   128
 71
    44
 72
    60
 73
    59
  0
VERTEX
  5
429
330
315
100
AcDbEntity
  8
-DC_BREP3
100
AcDbFaceRecord
 10
0.0
 20
0.0
 30
0.0
 70
   128
 71
    44
 72
    43
 73
    60
  0
VERTEX
  5
42A
330
315
100
AcDbEntity
  8
-DC_BREP3
100
AcDbFaceRecord
 10
0.0
 20
0.0
 30
0.0
 70
   128
 71
    61
 72
    62
 73
    63
  0
VERTEX
  5
42B
330
315
100
AcDbEntity
  8
-DC_BREP3
100
AcDbFaceRecord
 10
0.0
 20
0.0
 30
0.0
 70
   128
 71
    62
 72
    61
 73
    64
  0
VERTEX
  5
42C
330
315
100
AcDbEntity
  8
-DC_BREP3
100
AcDbFaceRecord
 10
0.0
 20
0.0
 30
0.0
 70
   128
 71
    65
 72
    66
 73
    67
  0
VERTEX
  5
42D
330
315
100
AcDbEntity
  8
-DC_BREP3
100
AcDbFaceRecord
 10
0.0
 20
0.0
 30
0.0
 70
   128
 71
    66
 72
    65
 73
    68
  0
VERTEX
  5
42E
330
315
100
AcDbEntity
  8
-DC_BREP3
100
AcDbFaceRecord
 10
0.0
 20
0.0
 30
0.0
 70
   128
 71
    69
 72
    70
 73
    71
  0
VERTEX
  5
42F
330
315
100
AcDbEntity
  8
-DC_BREP3
100
AcDbFaceRecord
 10
0.0
 20
0.0
 30
0.0
 70
   128
 71
    70
 72
    69
 73
    72
  0
VERTEX
  5
430
330
315
100
AcDbEntity
  8
-DC_BREP3
100
AcDbFaceRecord
 10
0.0
 20
0.0
 30
0.0
 70
   128
 71
    73
 72
    74
 73
    75
  0
VERTEX
  5
431
330
315
100
AcDbEntity
  8
-DC_BREP3
100
AcDbFaceRecord
 10
0.0
 20
0.0
 30
0.0
 70
   128
 71
    74
 72
    73
 73
    76
  0
VERTEX
  5
432
330
315
100
AcDbEntity
  8
-DC_BREP3
100
AcDbFaceRecord
 10
0.0
 20
0.0
 30
0.0
 70
   128
 71
    77
 72
    78
 73
    79
  0
VERTEX
  5
433
330
315
100
AcDbEntity
  8
-DC_BREP3
100
AcDbFaceRecord
 10
0.0
 20
0.0
 30
0.0
 70
   128
 71
    78
 72
    77
 73
    80
  0
VERTEX
  5
434
330
315
100
AcDbEntity
  8
-DC_BREP3
100
AcDbFaceRecord
 10
0.0
 20
0.0
 30
0.0
 70
   128
 71
    81
 72
    82
 73
    83
  0
VERTEX
  5
435
330
315
100
AcDbEntity
  8
-DC_BREP3
100
AcDbFaceRecord
 10
0.0
 20
0.0
 30
0.0
 70
   128
 71
    82
 72
    81
 73
    84
  0
VERTEX
  5
436
330
315
100
AcDbEntity
  8
-DC_BREP3
100
AcDbFaceRecord
 10
0.0
 20
0.0
 30
0.0
 70
   128
 71
    85
 72
    86
 73
    87
  0
VERTEX
  5
437
330
315
100
AcDbEntity
  8
-DC_BREP3
100
AcDbFaceRecord
 10
0.0
 20
0.0
 30
0.0
 70
   128
 71
    86
 72
    85
 73
    88
  0
VERTEX
  5
438
330
315
100
AcDbEntity
  8
-DC_BREP3
100
AcDbFaceRecord
 10
0.0
 20
0.0
 30
0.0
 70
   128
 71
    89
 72
    90
 73
    91
  0
VERTEX
  5
439
330
315
100
AcDbEntity
  8
-DC_BREP3
100
AcDbFaceRecord
 10
0.0
 20
0.0
 30
0.0
 70
   128
 71
    92
 72
    93
 73
    94
  0
VERTEX
  5
43A
330
315
100
AcDbEntity
  8
-DC_BREP3
100
AcDbFaceRecord
 10
0.0
 20
0.0
 30
0.0
 70
   128
 71
    95
 72
    93
 73
    92
  0
VERTEX
  5
43B
330
315
100
AcDbEntity
  8
-DC_BREP3
100
AcDbFaceRecord
 10
0.0
 20
0.0
 30
0.0
 70
   128
 71
    96
 72
    93
 73
    95
  0
VERTEX
  5
43C
330
315
100
AcDbEntity
  8
-DC_BREP3
100
AcDbFaceRecord
 10
0.0
 20
0.0
 30
0.0
 70
   128
 71
    96
 72
    97
 73
    93
  0
VERTEX
  5
43D
330
315
100
AcDbEntity
  8
-DC_BREP3
100
AcDbFaceRecord
 10
0.0
 20
0.0
 30
0.0
 70
   128
 71
    98
 72
    97
 73
    96
  0
VERTEX
  5
43E
330
315
100
AcDbEntity
  8
-DC_BREP3
100
AcDbFaceRecord
 10
0.0
 20
0.0
 30
0.0
 70
   128
 71
    98
 72
    99
 73
    97
  0
VERTEX
  5
43F
330
315
100
AcDbEntity
  8
-DC_BREP3
100
AcDbFaceRecord
 10
0.0
 20
0.0
 30
0.0
 70
   128
 71
   100
 72
    99
 73
    98
  0
VERTEX
  5
440
330
315
100
AcDbEntity
  8
-DC_BREP3
100
AcDbFaceRecord
 10
0.0
 20
0.0
 30
0.0
 70
   128
 71
   100
 72
   101
 73
    99
  0
VERTEX
  5
441
330
315
100
AcDbEntity
  8
-DC_BREP3
100
AcDbFaceRecord
 10
0.0
 20
0.0
 30
0.0
 70
   128
 71
   102
 72
   101
 73
   100
  0
VERTEX
  5
442
330
315
100
AcDbEntity
  8
-DC_BREP3
100
AcDbFaceRecord
 10
0.0
 20
0.0
 30
0.0
 70
   128
 71
   102
 72
   103
 73
   101
  0
VERTEX
  5
443
330
315
100
AcDbEntity
  8
-DC_BREP3
100
AcDbFaceRecord
 10
0.0
 20
0.0
 30
0.0
 70
   128
 71
   104
 72
   103
 73
   102
  0
VERTEX
  5
444
330
315
100
AcDbEntity
  8
-DC_BREP3
100
AcDbFaceRecord
 10
0.0
 20
0.0
 30
0.0
 70
   128
 71
   104
 72
   105
 73
   103
  0
VERTEX
  5
445
330
315
100
AcDbEntity
  8
-DC_BREP3
100
AcDbFaceRecord
 10
0.0
 20
0.0
 30
0.0
 70
   128
 71
   106
 72
   105
 73
   104
  0
VERTEX
  5
446
330
315
100
AcDbEntity
  8
-DC_BREP3
100
AcDbFaceRecord
 10
0.0
 20
0.0
 30
0.0
 70
   128
 71
   106
 72
    89
 73
   105
  0
VERTEX
  5
447
330
315
100
AcDbEntity
  8
-DC_BREP3
100
AcDbFaceRecord
 10
0.0
 20
0.0
 30
0.0
 70
   128
 71
    90
 72
    89
 73
   106
  0
VERTEX
  5
448
330
315
100
AcDbEntity
  8
-DC_BREP3
100
AcDbFaceRecord
 10
0.0
 20
0.0
 30
0.0
 70
   128
 71
   107
 72
   108
 73
   109
  0
VERTEX
  5
449
330
315
100
AcDbEntity
  8
-DC_BREP3
100
AcDbFaceRecord
 10
0.0
 20
0.0
 30
0.0
 70
   128
 71
   108
 72
   107
 73
   110
  0
VERTEX
  5
44A
330
315
100
AcDbEntity
  8
-DC_BREP3
100
AcDbFaceRecord
 10
0.0
 20
0.0
 30
0.0
 70
   128
 71
   111
 72
   112
 73
   113
  0
VERTEX
  5
44B
330
315
100
AcDbEntity
  8
-DC_BREP3
100
AcDbFaceRecord
 10
0.0
 20
0.0
 30
0.0
 70
   128
 71
   114
 72
   115
 73
   116
  0
VERTEX
  5
44C
330
315
100
AcDbEntity
  8
-DC_BREP3
100
AcDbFaceRecord
 10
0.0
 20
0.0
 30
0.0
 70
   128
 71
   117
 72
   115
 73
   114
  0
VERTEX
  5
44D
330
315
100
AcDbEntity
  8
-DC_BREP3
100
AcDbFaceRecord
 10
0.0
 20
0.0
 30
0.0
 70
   128
 71
   118
 72
   115
 73
   117
  0
VERTEX
  5
44E
330
315
100
AcDbEntity
  8
-DC_BREP3
100
AcDbFaceRecord
 10
0.0
 20
0.0
 30
0.0
 70
   128
 71
   118
 72
   119
 73
   115
  0
VERTEX
  5
44F
330
315
100
AcDbEntity
  8
-DC_BREP3
100
AcDbFaceRecord
 10
0.0
 20
0.0
 30
0.0
 70
   128
 71
   120
 72
   119
 73
   118
  0
VERTEX
  5
450
330
315
100
AcDbEntity
  8
-DC_BREP3
100
AcDbFaceRecord
 10
0.0
 20
0.0
 30
0.0
 70
   128
 71
   120
 72
   121
 73
   119
  0
VERTEX
  5
451
330
315
100
AcDbEntity
  8
-DC_BREP3
100
AcDbFaceRecord
 10
0.0
 20
0.0
 30
0.0
 70
   128
 71
   122
 72
   121
 73
   120
  0
VERTEX
  5
452
330
315
100
AcDbEntity
  8
-DC_BREP3
100
AcDbFaceRecord
 10
0.0
 20
0.0
 30
0.0
 70
   128
 71
   122
 72
   123
 73
   121
  0
VERTEX
  5
453
330
315
100
AcDbEntity
  8
-DC_BREP3
100
AcDbFaceRecord
 10
0.0
 20
0.0
 30
0.0
 70
   128
 71
   124
 72
   123
 73
   122
  0
VERTEX
  5
454
330
315
100
AcDbEntity
  8
-DC_BREP3
100
AcDbFaceRecord
 10
0.0
 20
0.0
 30
0.0
 70
   128
 71
   124
 72
   125
 73
   123
  0
VERTEX
  5
455
330
315
100
AcDbEntity
  8
-DC_BREP3
100
AcDbFaceRecord
 10
0.0
 20
0.0
 30
0.0
 70
   128
 71
   126
 72
   125
 73
   124
  0
VERTEX
  5
456
330
315
100
AcDbEntity
  8
-DC_BREP3
100
AcDbFaceRecord
 10
0.0
 20
0.0
 30
0.0
 70
   128
 71
   126
 72
   127
 73
   125
  0
VERTEX
  5
457
330
315
100
AcDbEntity
  8
-DC_BREP3
100
AcDbFaceRecord
 10
0.0
 20
0.0
 30
0.0
 70
   128
 71
   128
 72
   127
 73
   126
  0
VERTEX
  5
458
330
315
100
AcDbEntity
  8
-DC_BREP3
100
AcDbFaceRecord
 10
0.0
 20
0.0
 30
0.0
 70
   128
 71
   128
 72
   111
 73
   127
  0
VERTEX
  5
459
330
315
100
AcDbEntity
  8
-DC_BREP3
100
AcDbFaceRecord
 10
0.0
 20
0.0
 30
0.0
 70
   128
 71
   112
 72
   111
 73
   128
  0
VERTEX
  5
45A
330
315
100
AcDbEntity
  8
-DC_BREP3
100
AcDbFaceRecord
 10
0.0
 20
0.0
 30
0.0
 70
   128
 71
   129
 72
   130
 73
   131
  0
VERTEX
  5
45B
330
315
100
AcDbEntity
  8
-DC_BREP3
100
AcDbFaceRecord
 10
0.0
 20
0.0
 30
0.0
 70
   128
 71
   130
 72
   129
 73
   132
  0
VERTEX
  5
45C
330
315
100
AcDbEntity
  8
-DC_BREP3
100
AcDbFaceRecord
 10
0.0
 20
0.0
 30
0.0
 70
   128
 71
   133
 72
   134
 73
   135
  0
VERTEX
  5
45D
330
315
100
AcDbEntity
  8
-DC_BREP3
100
AcDbFaceRecord
 10
0.0
 20
0.0
 30
0.0
 70
   128
 71
   134
 72
   133
 73
   136
  0
VERTEX
  5
45E
330
315
100
AcDbEntity
  8
-DC_BREP3
100
AcDbFaceRecord
 10
0.0
 20
0.0
 30
0.0
 70
   128
 71
   137
 72
   138
 73
   139
  0
VERTEX
  5
45F
330
315
100
AcDbEntity
  8
-DC_BREP3
100
AcDbFaceRecord
 10
0.0
 20
0.0
 30
0.0
 70
   128
 71
   140
 72
   141
 73
   142
  0
VERTEX
  5
460
330
315
100
AcDbEntity
  8
-DC_BREP3
100
AcDbFaceRecord
 10
0.0
 20
0.0
 30
0.0
 70
   128
 71
   140
 72
   143
 73
   141
  0
VERTEX
  5
461
330
315
100
AcDbEntity
  8
-DC_BREP3
100
AcDbFaceRecord
 10
0.0
 20
0.0
 30
0.0
 70
   128
 71
   140
 72
   144
 73
   143
  0
VERTEX
  5
462
330
315
100
AcDbEntity
  8
-DC_BREP3
100
AcDbFaceRecord
 10
0.0
 20
0.0
 30
0.0
 70
   128
 71
   145
 72
   144
 73
   140
  0
VERTEX
  5
463
330
315
100
AcDbEntity
  8
-DC_BREP3
100
AcDbFaceRecord
 10
0.0
 20
0.0
 30
0.0
 70
   128
 71
   145
 72
   146
 73
   144
  0
VERTEX
  5
464
330
315
100
AcDbEntity
  8
-DC_BREP3
100
AcDbFaceRecord
 10
0.0
 20
0.0
 30
0.0
 70
   128
 71
   147
 72
   146
 73
   145
  0
VERTEX
  5
465
330
315
100
AcDbEntity
  8
-DC_BREP3
100
AcDbFaceRecord
 10
0.0
 20
0.0
 30
0.0
 70
   128
 71
   147
 72
   148
 73
   146
  0
VERTEX
  5
466
330
315
100
AcDbEntity
  8
-DC_BREP3
100
AcDbFaceRecord
 10
0.0
 20
0.0
 30
0.0
 70
   128
 71
   147
 72
   149
 73
   148
  0
VERTEX
  5
467
330
315
100
AcDbEntity
  8
-DC_BREP3
100
AcDbFaceRecord
 10
0.0
 20
0.0
 30
0.0
 70
   128
 71
   147
 72
   150
 73
   149
  0
VERTEX
  5
468
330
315
100
AcDbEntity
  8
-DC_BREP3
100
AcDbFaceRecord
 10
0.0
 20
0.0
 30
0.0
 70
   128
 71
   147
 72
   151
 73
   150
  0
VERTEX
  5
469
330
315
100
AcDbEntity
  8
-DC_BREP3
100
AcDbFaceRecord
 10
0.0
 20
0.0
 30
0.0
 70
   128
 71
   152
 72
   153
 73
   154
  0
VERTEX
  5
46A
330
315
100
AcDbEntity
  8
-DC_BREP3
100
AcDbFaceRecord
 10
0.0
 20
0.0
 30
0.0
 70
   128
 71
   152
 72
   155
 73
   153
  0
VERTEX
  5
46B
330
315
100
AcDbEntity
  8
-DC_BREP3
100
AcDbFaceRecord
 10
0.0
 20
0.0
 30
0.0
 70
   128
 71
   156
 72
   155
 73
   152
  0
VERTEX
  5
46C
330
315
100
AcDbEntity
  8
-DC_BREP3
100
AcDbFaceRecord
 10
0.0
 20
0.0
 30
0.0
 70
   128
 71
   156
 72
   157
 73
   155
  0
VERTEX
  5
46D
330
315
100
AcDbEntity
  8
-DC_BREP3
100
AcDbFaceRecord
 10
0.0
 20
0.0
 30
0.0
 70
   128
 71
   158
 72
   157
 73
   156
  0
VERTEX
  5
46E
330
315
100
AcDbEntity
  8
-DC_BREP3
100
AcDbFaceRecord
 10
0.0
 20
0.0
 30
0.0
 70
   128
 71
   158
 72
   159
 73
   157
  0
VERTEX
  5
46F
330
315
100
AcDbEntity
  8
-DC_BREP3
100
AcDbFaceRecord
 10
0.0
 20
0.0
 30
0.0
 70
   128
 71
   160
 72
   159
 73
   158
  0
VERTEX
  5
470
330
315
100
AcDbEntity
  8
-DC_BREP3
100
AcDbFaceRecord
 10
0.0
 20
0.0
 30
0.0
 70
   128
 71
   161
 72
   159
 73
   160
  0
VERTEX
  5
471
330
315
100
AcDbEntity
  8
-DC_BREP3
100
AcDbFaceRecord
 10
0.0
 20
0.0
 30
0.0
 70
   128
 71
   162
 72
   159
 73
   161
  0
VERTEX
  5
472
330
315
100
AcDbEntity
  8
-DC_BREP3
100
AcDbFaceRecord
 10
0.0
 20
0.0
 30
0.0
 70
   128
 71
   163
 72
   159
 73
   162
  0
VERTEX
  5
473
330
315
100
AcDbEntity
  8
-DC_BREP3
100
AcDbFaceRecord
 10
0.0
 20
0.0
 30
0.0
 70
   128
 71
   164
 72
   159
 73
   163
  0
VERTEX
  5
474
330
315
100
AcDbEntity
  8
-DC_BREP3
100
AcDbFaceRecord
 10
0.0
 20
0.0
 30
0.0
 70
   128
 71
   147
 72
   165
 73
   151
  0
VERTEX
  5
475
330
315
100
AcDbEntity
  8
-DC_BREP3
100
AcDbFaceRecord
 10
0.0
 20
0.0
 30
0.0
 70
   128
 71
   147
 72
   166
 73
   165
  0
VERTEX
  5
476
330
315
100
AcDbEntity
  8
-DC_BREP3
100
AcDbFaceRecord
 10
0.0
 20
0.0
 30
0.0
 70
   128
 71
   167
 72
   159
 73
   164
  0
VERTEX
  5
477
330
315
100
AcDbEntity
  8
-DC_BREP3
100
AcDbFaceRecord
 10
0.0
 20
0.0
 30
0.0
 70
   128
 71
   167
 72
   168
 73
   159
  0
VERTEX
  5
478
330
315
100
AcDbEntity
  8
-DC_BREP3
100
AcDbFaceRecord
 10
0.0
 20
0.0
 30
0.0
 70
   128
 71
   167
 72
   169
 73
   168
  0
VERTEX
  5
479
330
315
100
AcDbEntity
  8
-DC_BREP3
100
AcDbFaceRecord
 10
0.0
 20
0.0
 30
0.0
 70
   128
 71
   167
 72
   170
 73
   169
  0
VERTEX
  5
47A
330
315
100
AcDbEntity
  8
-DC_BREP3
100
AcDbFaceRecord
 10
0.0
 20
0.0
 30
0.0
 70
   128
 71
   167
 72
   171
 73
   170
  0
VERTEX
  5
47B
330
315
100
AcDbEntity
  8
-DC_BREP3
100
AcDbFaceRecord
 10
0.0
 20
0.0
 30
0.0
 70
   128
 71
   167
 72
   172
 73
   171
  0
VERTEX
  5
47C
330
315
100
AcDbEntity
  8
-DC_BREP3
100
AcDbFaceRecord
 10
0.0
 20
0.0
 30
0.0
 70
   128
 71
   167
 72
   173
 73
   172
  0
VERTEX
  5
47D
330
315
100
AcDbEntity
  8
-DC_BREP3
100
AcDbFaceRecord
 10
0.0
 20
0.0
 30
0.0
 70
   128
 71
   167
 72
   174
 73
   173
  0
VERTEX
  5
47E
330
315
100
AcDbEntity
  8
-DC_BREP3
100
AcDbFaceRecord
 10
0.0
 20
0.0
 30
0.0
 70
   128
 71
   167
 72
   175
 73
   174
  0
VERTEX
  5
47F
330
315
100
AcDbEntity
  8
-DC_BREP3
100
AcDbFaceRecord
 10
0.0
 20
0.0
 30
0.0
 70
   128
 71
   176
 72
   175
 73
   167
  0
VERTEX
  5
480
330
315
100
AcDbEntity
  8
-DC_BREP3
100
AcDbFaceRecord
 10
0.0
 20
0.0
 30
0.0
 70
   128
 71
   177
 72
   175
 73
   176
  0
VERTEX
  5
481
330
315
100
AcDbEntity
  8
-DC_BREP3
100
AcDbFaceRecord
 10
0.0
 20
0.0
 30
0.0
 70
   128
 71
   177
 72
   137
 73
   175
  0
VERTEX
  5
482
330
315
100
AcDbEntity
  8
-DC_BREP3
100
AcDbFaceRecord
 10
0.0
 20
0.0
 30
0.0
 70
   128
 71
   178
 72
   137
 73
   177
  0
VERTEX
  5
483
330
315
100
AcDbEntity
  8
-DC_BREP3
100
AcDbFaceRecord
 10
0.0
 20
0.0
 30
0.0
 70
   128
 71
   179
 72
   137
 73
   178
  0
VERTEX
  5
484
330
315
100
AcDbEntity
  8
-DC_BREP3
100
AcDbFaceRecord
 10
0.0
 20
0.0
 30
0.0
 70
   128
 71
   166
 72
   137
 73
   179
  0
VERTEX
  5
485
330
315
100
AcDbEntity
  8
-DC_BREP3
100
AcDbFaceRecord
 10
0.0
 20
0.0
 30
0.0
 70
   128
 71
   147
 72
   137
 73
   166
  0
VERTEX
  5
486
330
315
100
AcDbEntity
  8
-DC_BREP3
100
AcDbFaceRecord
 10
0.0
 20
0.0
 30
0.0
 70
   128
 71
   180
 72
   137
 73
   147
  0
VERTEX
  5
487
330
315
100
AcDbEntity
  8
-DC_BREP3
100
AcDbFaceRecord
 10
0.0
 20
0.0
 30
0.0
 70
   128
 71
   181
 72
   137
 73
   180
  0
VERTEX
  5
488
330
315
100
AcDbEntity
  8
-DC_BREP3
100
AcDbFaceRecord
 10
0.0
 20
0.0
 30
0.0
 70
   128
 71
   182
 72
   137
 73
   181
  0
VERTEX
  5
489
330
315
100
AcDbEntity
  8
-DC_BREP3
100
AcDbFaceRecord
 10
0.0
 20
0.0
 30
0.0
 70
   128
 71
   183
 72
   137
 73
   182
  0
VERTEX
  5
48A
330
315
100
AcDbEntity
  8
-DC_BREP3
100
AcDbFaceRecord
 10
0.0
 20
0.0
 30
0.0
 70
   128
 71
   184
 72
   137
 73
   183
  0
VERTEX
  5
48B
330
315
100
AcDbEntity
  8
-DC_BREP3
100
AcDbFaceRecord
 10
0.0
 20
0.0
 30
0.0
 70
   128
 71
   138
 72
   137
 73
   184
  0
VERTEX
  5
48C
330
315
100
AcDbEntity
  8
-DC_BREP3
100
AcDbFaceRecord
 10
0.0
 20
0.0
 30
0.0
 70
   128
 71
   185
 72
   186
 73
   187
  0
VERTEX
  5
48D
330
315
100
AcDbEntity
  8
-DC_BREP3
100
AcDbFaceRecord
 10
0.0
 20
0.0
 30
0.0
 70
   128
 71
   188
 72
   189
 73
   190
  0
VERTEX
  5
48E
330
315
100
AcDbEntity
  8
-DC_BREP3
100
AcDbFaceRecord
 10
0.0
 20
0.0
 30
0.0
 70
   128
 71
   188
 72
   191
 73
   189
  0
VERTEX
  5
48F
330
315
100
AcDbEntity
  8
-DC_BREP3
100
AcDbFaceRecord
 10
0.0
 20
0.0
 30
0.0
 70
   128
 71
   192
 72
   191
 73
   188
  0
VERTEX
  5
490
330
315
100
AcDbEntity
  8
-DC_BREP3
100
AcDbFaceRecord
 10
0.0
 20
0.0
 30
0.0
 70
   128
 71
   192
 72
   193
 73
   191
  0
VERTEX
  5
491
330
315
100
AcDbEntity
  8
-DC_BREP3
100
AcDbFaceRecord
 10
0.0
 20
0.0
 30
0.0
 70
   128
 71
   194
 72
   193
 73
   192
  0
VERTEX
  5
492
330
315
100
AcDbEntity
  8
-DC_BREP3
100
AcDbFaceRecord
 10
0.0
 20
0.0
 30
0.0
 70
   128
 71
   194
 72
   185
 73
   193
  0
VERTEX
  5
493
330
315
100
AcDbEntity
  8
-DC_BREP3
100
AcDbFaceRecord
 10
0.0
 20
0.0
 30
0.0
 70
   128
 71
   195
 72
   185
 73
   194
  0
VERTEX
  5
494
330
315
100
AcDbEntity
  8
-DC_BREP3
100
AcDbFaceRecord
 10
0.0
 20
0.0
 30
0.0
 70
   128
 71
   196
 72
   185
 73
   195
  0
VERTEX
  5
495
330
315
100
AcDbEntity
  8
-DC_BREP3
100
AcDbFaceRecord
 10
0.0
 20
0.0
 30
0.0
 70
   128
 71
   197
 72
   185
 73
   196
  0
VERTEX
  5
496
330
315
100
AcDbEntity
  8
-DC_BREP3
100
AcDbFaceRecord
 10
0.0
 20
0.0
 30
0.0
 70
   128
 71
   198
 72
   185
 73
   197
  0
VERTEX
  5
497
330
315
100
AcDbEntity
  8
-DC_BREP3
100
AcDbFaceRecord
 10
0.0
 20
0.0
 30
0.0
 70
   128
 71
   199
 72
   200
 73
   201
  0
VERTEX
  5
498
330
315
100
AcDbEntity
  8
-DC_BREP3
100
AcDbFaceRecord
 10
0.0
 20
0.0
 30
0.0
 70
   128
 71
   199
 72
   202
 73
   200
  0
VERTEX
  5
499
330
315
100
AcDbEntity
  8
-DC_BREP3
100
AcDbFaceRecord
 10
0.0
 20
0.0
 30
0.0
 70
   128
 71
   199
 72
   203
 73
   202
  0
VERTEX
  5
49A
330
315
100
AcDbEntity
  8
-DC_BREP3
100
AcDbFaceRecord
 10
0.0
 20
0.0
 30
0.0
 70
   128
 71
   204
 72
   203
 73
   199
  0
VERTEX
  5
49B
330
315
100
AcDbEntity
  8
-DC_BREP3
100
AcDbFaceRecord
 10
0.0
 20
0.0
 30
0.0
 70
   128
 71
   204
 72
   205
 73
   203
  0
VERTEX
  5
49C
330
315
100
AcDbEntity
  8
-DC_BREP3
100
AcDbFaceRecord
 10
0.0
 20
0.0
 30
0.0
 70
   128
 71
   206
 72
   205
 73
   204
  0
VERTEX
  5
49D
330
315
100
AcDbEntity
  8
-DC_BREP3
100
AcDbFaceRecord
 10
0.0
 20
0.0
 30
0.0
 70
   128
 71
   206
 72
   207
 73
   205
  0
VERTEX
  5
49E
330
315
100
AcDbEntity
  8
-DC_BREP3
100
AcDbFaceRecord
 10
0.0
 20
0.0
 30
0.0
 70
   128
 71
   206
 72
   208
 73
   207
  0
VERTEX
  5
49F
330
315
100
AcDbEntity
  8
-DC_BREP3
100
AcDbFaceRecord
 10
0.0
 20
0.0
 30
0.0
 70
   128
 71
   206
 72
   209
 73
   208
  0
VERTEX
  5
4A0
330
315
100
AcDbEntity
  8
-DC_BREP3
100
AcDbFaceRecord
 10
0.0
 20
0.0
 30
0.0
 70
   128
 71
   206
 72
   210
 73
   209
  0
VERTEX
  5
4A1
330
315
100
AcDbEntity
  8
-DC_BREP3
100
AcDbFaceRecord
 10
0.0
 20
0.0
 30
0.0
 70
   128
 71
   206
 72
   211
 73
   210
  0
VERTEX
  5
4A2
330
315
100
AcDbEntity
  8
-DC_BREP3
100
AcDbFaceRecord
 10
0.0
 20
0.0
 30
0.0
 70
   128
 71
   212
 72
   185
 73
   198
  0
VERTEX
  5
4A3
330
315
100
AcDbEntity
  8
-DC_BREP3
100
AcDbFaceRecord
 10
0.0
 20
0.0
 30
0.0
 70
   128
 71
   213
 72
   185
 73
   212
  0
VERTEX
  5
4A4
330
315
100
AcDbEntity
  8
-DC_BREP3
100
AcDbFaceRecord
 10
0.0
 20
0.0
 30
0.0
 70
   128
 71
   206
 72
   214
 73
   211
  0
VERTEX
  5
4A5
330
315
100
AcDbEntity
  8
-DC_BREP3
100
AcDbFaceRecord
 10
0.0
 20
0.0
 30
0.0
 70
   128
 71
   215
 72
   214
 73
   206
  0
VERTEX
  5
4A6
330
315
100
AcDbEntity
  8
-DC_BREP3
100
AcDbFaceRecord
 10
0.0
 20
0.0
 30
0.0
 70
   128
 71
   216
 72
   214
 73
   215
  0
VERTEX
  5
4A7
330
315
100
AcDbEntity
  8
-DC_BREP3
100
AcDbFaceRecord
 10
0.0
 20
0.0
 30
0.0
 70
   128
 71
   217
 72
   214
 73
   216
  0
VERTEX
  5
4A8
330
315
100
AcDbEntity
  8
-DC_BREP3
100
AcDbFaceRecord
 10
0.0
 20
0.0
 30
0.0
 70
   128
 71
   218
 72
   214
 73
   217
  0
VERTEX
  5
4A9
330
315
100
AcDbEntity
  8
-DC_BREP3
100
AcDbFaceRecord
 10
0.0
 20
0.0
 30
0.0
 70
   128
 71
   219
 72
   214
 73
   218
  0
VERTEX
  5
4AA
330
315
100
AcDbEntity
  8
-DC_BREP3
100
AcDbFaceRecord
 10
0.0
 20
0.0
 30
0.0
 70
   128
 71
   220
 72
   214
 73
   219
  0
VERTEX
  5
4AB
330
315
100
AcDbEntity
  8
-DC_BREP3
100
AcDbFaceRecord
 10
0.0
 20
0.0
 30
0.0
 70
   128
 71
   221
 72
   214
 73
   220
  0
VERTEX
  5
4AC
330
315
100
AcDbEntity
  8
-DC_BREP3
100
AcDbFaceRecord
 10
0.0
 20
0.0
 30
0.0
 70
   128
 71
   222
 72
   214
 73
   221
  0
VERTEX
  5
4AD
330
315
100
AcDbEntity
  8
-DC_BREP3
100
AcDbFaceRecord
 10
0.0
 20
0.0
 30
0.0
 70
   128
 71
   222
 72
   223
 73
   214
  0
VERTEX
  5
4AE
330
315
100
AcDbEntity
  8
-DC_BREP3
100
AcDbFaceRecord
 10
0.0
 20
0.0
 30
0.0
 70
   128
 71
   222
 72
   224
 73
   223
  0
VERTEX
  5
4AF
330
315
100
AcDbEntity
  8
-DC_BREP3
100
AcDbFaceRecord
 10
0.0
 20
0.0
 30
0.0
 70
   128
 71
   225
 72
   224
 73
   222
  0
VERTEX
  5
4B0
330
315
100
AcDbEntity
  8
-DC_BREP3
100
AcDbFaceRecord
 10
0.0
 20
0.0
 30
0.0
 70
   128
 71
   225
 72
   226
 73
   224
  0
VERTEX
  5
4B1
330
315
100
AcDbEntity
  8
-DC_BREP3
100
AcDbFaceRecord
 10
0.0
 20
0.0
 30
0.0
 70
   128
 71
   225
 72
   227
 73
   226
  0
VERTEX
  5
4B2
330
315
100
AcDbEntity
  8
-DC_BREP3
100
AcDbFaceRecord
 10
0.0
 20
0.0
 30
0.0
 70
   128
 71
   225
 72
   213
 73
   227
  0
VERTEX
  5
4B3
330
315
100
AcDbEntity
  8
-DC_BREP3
100
AcDbFaceRecord
 10
0.0
 20
0.0
 30
0.0
 70
   128
 71
   225
 72
   185
 73
   213
  0
VERTEX
  5
4B4
330
315
100
AcDbEntity
  8
-DC_BREP3
100
AcDbFaceRecord
 10
0.0
 20
0.0
 30
0.0
 70
   128
 71
   228
 72
   185
 73
   225
  0
VERTEX
  5
4B5
330
315
100
AcDbEntity
  8
-DC_BREP3
100
AcDbFaceRecord
 10
0.0
 20
0.0
 30
0.0
 70
   128
 71
   229
 72
   185
 73
   228
  0
VERTEX
  5
4B6
330
315
100
AcDbEntity
  8
-DC_BREP3
100
AcDbFaceRecord
 10
0.0
 20
0.0
 30
0.0
 70
   128
 71
   230
 72
   185
 73
   229
  0
VERTEX
  5
4B7
330
315
100
AcDbEntity
  8
-DC_BREP3
100
AcDbFaceRecord
 10
0.0
 20
0.0
 30
0.0
 70
   128
 71
   231
 72
   185
 73
   230
  0
VERTEX
  5
4B8
330
315
100
AcDbEntity
  8
-DC_BREP3
100
AcDbFaceRecord
 10
0.0
 20
0.0
 30
0.0
 70
   128
 71
   232
 72
   185
 73
   231
  0
VERTEX
  5
4B9
330
315
100
AcDbEntity
  8
-DC_BREP3
100
AcDbFaceRecord
 10
0.0
 20
0.0
 30
0.0
 70
   128
 71
   186
 72
   185
 73
   232
  0
SEQEND
  5
4BA
330
315
100
AcDbEntity
  8
-DC_BREP3
  0
POLYLINE
  5
4BC
330
1F
100
AcDbEntity
  8
-DC_BREP4
100
AcDbPolyFaceMesh
 66
     1
 10
0.0
 20
0.0
 30
0.0
 70
    64
 71
    60
 72
    36
1001
AVE_ENTITY_MATERIAL
1002
{
1000

1002
{
1071
        0
1070
     0
1070
     0
1002
{
1070
     0
1070
     0
1070
     0
1040
0.0
1002
}
1070
     0
1070
     0
1002
{
1002
}
1002
}
1002
{
1002
}
1002
{
1002
}
1011
0.0
1021
0.0
1031
0.0
1011
1.0
1021
0.0
1031
0.0
1011
0.0
1021
1.0
1031
0.0
1011
0.0
1021
0.0
1031
1.0
1002
}
  0
VERTEX
  5
4BD
330
4BC
100
AcDbEntity
  8
-DC_BREP4
100
AcDbVertex
100
AcDbPolyFaceMeshVertex
 10
900.0
 20
-83.00015258789063
 30
45.0
 70
   192
  0
VERTEX
  5
4BE
330
4BC
100
AcDbEntity
  8
-DC_BREP4
100
AcDbVertex
100
AcDbPolyFaceMeshVertex
 10
49.99999237060547
 20
-83.0
 30
162.0
 70
   192
  0
VERTEX
  5
4BF
330
4BC
100
AcDbEntity
  8
-DC_BREP4
100
AcDbVertex
100
AcDbPolyFaceMeshVertex
 10
49.99999237060547
 20
-83.0
 30
45.0
 70
   192
  0
VERTEX
  5
4C0
330
4BC
100
AcDbEntity
  8
-DC_BREP4
100
AcDbVertex
100
AcDbPolyFaceMeshVertex
 10
900.0
 20
-83.00015258789063
 30
162.0
 70
   192
  0
VERTEX
  5
4C1
330
4BC
100
AcDbEntity
  8
-DC_BREP4
100
AcDbVertex
100
AcDbPolyFaceMeshVertex
 10
900.0
 20
-67.00015258789061
 30
162.0
 70
   192
  0
VERTEX
  5
4C2
330
4BC
100
AcDbEntity
  8
-DC_BREP4
100
AcDbVertex
100
AcDbPolyFaceMeshVertex
 10
49.99999237060547
 20
-83.0
 30
162.0
 70
   192
  0
VERTEX
  5
4C3
330
4BC
100
AcDbEntity
  8
-DC_BREP4
100
AcDbVertex
100
AcDbPolyFaceMeshVertex
 10
900.0
 20
-83.00015258789063
 30
162.0
 70
   192
  0
VERTEX
  5
4C4
330
4BC
100
AcDbEntity
  8
-DC_BREP4
100
AcDbVertex
100
AcDbPolyFaceMeshVertex
 10
49.99999618530273
 20
-67.0
 30
162.0
 70
   192
  0
VERTEX
  5
4C5
330
4BC
100
AcDbEntity
  8
-DC_BREP4
100
AcDbVertex
100
AcDbPolyFaceMeshVertex
 10
49.99999237060547
 20
-83.0
 30
45.0
 70
   192
  0
VERTEX
  5
4C6
330
4BC
100
AcDbEntity
  8
-DC_BREP4
100
AcDbVertex
100
AcDbPolyFaceMeshVertex
 10
899.9999389648436
 20
-417.0001525878906
 30
45.0
 70
   192
  0
VERTEX
  5
4C7
330
4BC
100
AcDbEntity
  8
-DC_BREP4
100
AcDbVertex
100
AcDbPolyFaceMeshVertex
 10
900.0
 20
-83.00015258789063
 30
45.0
 70
   192
  0
VERTEX
  5
4C8
330
4BC
100
AcDbEntity
  8
-DC_BREP4
100
AcDbVertex
100
AcDbPolyFaceMeshVertex
 10
49.99993896484375
 20
-417.0
 30
45.0
 70
   192
  0
VERTEX
  5
4C9
330
4BC
100
AcDbEntity
  8
-DC_BREP4
100
AcDbVertex
100
AcDbPolyFaceMeshVertex
 10
49.99999237060547
 20
-83.0
 30
45.0
 70
   192
  0
VERTEX
  5
4CA
330
4BC
100
AcDbEntity
  8
-DC_BREP4
100
AcDbVertex
100
AcDbPolyFaceMeshVertex
 10
49.99993896484375
 20
-417.0
 30
29.0
 70
   192
  0
VERTEX
  5
4CB
330
4BC
100
AcDbEntity
  8
-DC_BREP4
100
AcDbVertex
100
AcDbPolyFaceMeshVertex
 10
49.99993896484375
 20
-417.0
 30
45.0
 70
   192
  0
VERTEX
  5
4CC
330
4BC
100
AcDbEntity
  8
-DC_BREP4
100
AcDbVertex
100
AcDbPolyFaceMeshVertex
 10
49.99999618530273
 20
-67.0
 30
29.0
 70
   192
  0
VERTEX
  5
4CD
330
4BC
100
AcDbEntity
  8
-DC_BREP4
100
AcDbVertex
100
AcDbPolyFaceMeshVertex
 10
49.99999237060547
 20
-83.0
 30
162.0
 70
   192
  0
VERTEX
  5
4CE
330
4BC
100
AcDbEntity
  8
-DC_BREP4
100
AcDbVertex
100
AcDbPolyFaceMeshVertex
 10
49.99999618530273
 20
-67.0
 30
162.0
 70
   192
  0
VERTEX
  5
4CF
330
4BC
100
AcDbEntity
  8
-DC_BREP4
100
AcDbVertex
100
AcDbPolyFaceMeshVertex
 10
49.99993896484375
 20
-417.0
 30
29.0
 70
   192
  0
VERTEX
  5
4D0
330
4BC
100
AcDbEntity
  8
-DC_BREP4
100
AcDbVertex
100
AcDbPolyFaceMeshVertex
 10
900.0
 20
-67.00015258789061
 30
29.0
 70
   192
  0
VERTEX
  5
4D1
330
4BC
100
AcDbEntity
  8
-DC_BREP4
100
AcDbVertex
100
AcDbPolyFaceMeshVertex
 10
899.9999389648436
 20
-417.0001525878906
 30
29.0
 70
   192
  0
VERTEX
  5
4D2
330
4BC
100
AcDbEntity
  8
-DC_BREP4
100
AcDbVertex
100
AcDbPolyFaceMeshVertex
 10
49.99999618530273
 20
-67.0
 30
29.0
 70
   192
  0
VERTEX
  5
4D3
330
4BC
100
AcDbEntity
  8
-DC_BREP4
100
AcDbVertex
100
AcDbPolyFaceMeshVertex
 10
900.0
 20
-83.00015258789063
 30
45.0
 70
   192
  0
VERTEX
  5
4D4
330
4BC
100
AcDbEntity
  8
-DC_BREP4
100
AcDbVertex
100
AcDbPolyFaceMeshVertex
 10
900.0
 20
-67.00015258789061
 30
162.0
 70
   192
  0
VERTEX
  5
4D5
330
4BC
100
AcDbEntity
  8
-DC_BREP4
100
AcDbVertex
100
AcDbPolyFaceMeshVertex
 10
900.0
 20
-83.00015258789063
 30
162.0
 70
   192
  0
VERTEX
  5
4D6
330
4BC
100
AcDbEntity
  8
-DC_BREP4
100
AcDbVertex
100
AcDbPolyFaceMeshVertex
 10
900.0
 20
-67.00015258789061
 30
29.0
 70
   192
  0
VERTEX
  5
4D7
330
4BC
100
AcDbEntity
  8
-DC_BREP4
100
AcDbVertex
100
AcDbPolyFaceMeshVertex
 10
899.9999389648436
 20
-417.0001525878906
 30
45.0
 70
   192
  0
VERTEX
  5
4D8
330
4BC
100
AcDbEntity
  8
-DC_BREP4
100
AcDbVertex
100
AcDbPolyFaceMeshVertex
 10
899.9999389648436
 20
-417.0001525878906
 30
29.0
 70
   192
  0
VERTEX
  5
4D9
330
4BC
100
AcDbEntity
  8
-DC_BREP4
100
AcDbVertex
100
AcDbPolyFaceMeshVertex
 10
900.0
 20
-67.00015258789061
 30
162.0
 70
   192
  0
VERTEX
  5
4DA
330
4BC
100
AcDbEntity
  8
-DC_BREP4
100
AcDbVertex
100
AcDbPolyFaceMeshVertex
 10
49.99999618530273
 20
-67.0
 30
29.0
 70
   192
  0
VERTEX
  5
4DB
330
4BC
100
AcDbEntity
  8
-DC_BREP4
100
AcDbVertex
100
AcDbPolyFaceMeshVertex
 10
49.99999618530273
 20
-67.0
 30
162.0
 70
   192
  0
VERTEX
  5
4DC
330
4BC
100
AcDbEntity
  8
-DC_BREP4
100
AcDbVertex
100
AcDbPolyFaceMeshVertex
 10
900.0
 20
-67.00015258789061
 30
29.0
 70
   192
  0
VERTEX
  5
4DD
330
4BC
100
AcDbEntity
  8
-DC_BREP4
100
AcDbVertex
100
AcDbPolyFaceMeshVertex
 10
949.9999389648436
 20
-417.0001525878906
 30
234.0
 70
   192
  0
VERTEX
  5
4DE
330
4BC
100
AcDbEntity
  8
-DC_BREP4
100
AcDbVertex
100
AcDbPolyFaceMeshVertex
 10
949.9999389648436
 20
-435.0001525878906
 30
0.0
 70
   192
  0
VERTEX
  5
4DF
330
4BC
100
AcDbEntity
  8
-DC_BREP4
100
AcDbVertex
100
AcDbPolyFaceMeshVertex
 10
949.9999389648436
 20
-417.0001525878906
 30
0.0
 70
   192
  0
VERTEX
  5
4E0
330
4BC
100
AcDbEntity
  8
-DC_BREP4
100
AcDbVertex
100
AcDbPolyFaceMeshVertex
 10
949.9999389648436
 20
-435.0001525878906
 30
234.0
 70
   192
  0
VERTEX
  5
4E1
330
4BC
100
AcDbEntity
  8
-DC_BREP4
100
AcDbVertex
100
AcDbPolyFaceMeshVertex
 10
949.9999389648436
 20
-417.0001525878906
 30
0.0
 70
   192
  0
VERTEX
  5
4E2
330
4BC
100
AcDbEntity
  8
-DC_BREP4
100
AcDbVertex
100
AcDbPolyFaceMeshVertex
 10
-0.0000639677309664
 20
-435.0
 30
0.0
 70
   192
  0
VERTEX
  5
4E3
330
4BC
100
AcDbEntity
  8
-DC_BREP4
100
AcDbVertex
100
AcDbPolyFaceMeshVertex
 10
-0.00006103515625
 20
-417.0
 30
0.0
 70
   192
  0
VERTEX
  5
4E4
330
4BC
100
AcDbEntity
  8
-DC_BREP4
100
AcDbVertex
100
AcDbPolyFaceMeshVertex
 10
949.9999389648436
 20
-435.0001525878906
 30
0.0
 70
   192
  0
VERTEX
  5
4E5
330
4BC
100
AcDbEntity
  8
-DC_BREP4
100
AcDbVertex
100
AcDbPolyFaceMeshVertex
 10
-0.00006103515625
 20
-417.0
 30
0.0
 70
   192
  0
VERTEX
  5
4E6
330
4BC
100
AcDbEntity
  8
-DC_BREP4
100
AcDbVertex
100
AcDbPolyFaceMeshVertex
 10
-0.0000639677309664
 20
-435.0
 30
234.0
 70
   192
  0
VERTEX
  5
4E7
330
4BC
100
AcDbEntity
  8
-DC_BREP4
100
AcDbVertex
100
AcDbPolyFaceMeshVertex
 10
-0.00006103515625
 20
-417.0
 30
234.0
 70
   192
  0
VERTEX
  5
4E8
330
4BC
100
AcDbEntity
  8
-DC_BREP4
100
AcDbVertex
100
AcDbPolyFaceMeshVertex
 10
-0.0000639677309664
 20
-435.0
 30
0.0
 70
   192
  0
VERTEX
  5
4E9
330
4BC
100
AcDbEntity
  8
-DC_BREP4
100
AcDbVertex
100
AcDbPolyFaceMeshVertex
 10
-0.00006103515625
 20
-417.0
 30
234.0
 70
   192
  0
VERTEX
  5
4EA
330
4BC
100
AcDbEntity
  8
-DC_BREP4
100
AcDbVertex
100
AcDbPolyFaceMeshVertex
 10
949.9999389648436
 20
-435.0001525878906
 30
234.0
 70
   192
  0
VERTEX
  5
4EB
330
4BC
100
AcDbEntity
  8
-DC_BREP4
100
AcDbVertex
100
AcDbPolyFaceMeshVertex
 10
949.9999389648436
 20
-417.0001525878906
 30
234.0
 70
   192
  0
VERTEX
  5
4EC
330
4BC
100
AcDbEntity
  8
-DC_BREP4
100
AcDbVertex
100
AcDbPolyFaceMeshVertex
 10
-0.0000639677309664
 20
-435.0
 30
234.0
 70
   192
  0
VERTEX
  5
4ED
330
4BC
100
AcDbEntity
  8
-DC_BREP4
100
AcDbVertex
100
AcDbPolyFaceMeshVertex
 10
-0.0000639677309664
 20
-435.0
 30
234.0
 70
   192
  0
VERTEX
  5
4EE
330
4BC
100
AcDbEntity
  8
-DC_BREP4
100
AcDbVertex
100
AcDbPolyFaceMeshVertex
 10
949.9999389648436
 20
-435.0001525878906
 30
0.0
 70
   192
  0
VERTEX
  5
4EF
330
4BC
100
AcDbEntity
  8
-DC_BREP4
100
AcDbVertex
100
AcDbPolyFaceMeshVertex
 10
949.9999389648436
 20
-435.0001525878906
 30
234.0
 70
   192
  0
VERTEX
  5
4F0
330
4BC
100
AcDbEntity
  8
-DC_BREP4
100
AcDbVertex
100
AcDbPolyFaceMeshVertex
 10
-0.0000639677309664
 20
-435.0
 30
0.0
 70
   192
  0
VERTEX
  5
4F1
330
4BC
100
AcDbEntity
  8
-DC_BREP4
100
AcDbVertex
100
AcDbPolyFaceMeshVertex
 10
49.99993896484375
 20
-417.0
 30
45.0
 70
   192
  0
VERTEX
  5
4F2
330
4BC
100
AcDbEntity
  8
-DC_BREP4
100
AcDbVertex
100
AcDbPolyFaceMeshVertex
 10
949.9999389648436
 20
-417.0001525878906
 30
234.0
 70
   192
  0
VERTEX
  5
4F3
330
4BC
100
AcDbEntity
  8
-DC_BREP4
100
AcDbVertex
100
AcDbPolyFaceMeshVertex
 10
899.9999389648436
 20
-417.0001525878906
 30
45.0
 70
   192
  0
VERTEX
  5
4F4
330
4BC
100
AcDbEntity
  8
-DC_BREP4
100
AcDbVertex
100
AcDbPolyFaceMeshVertex
 10
49.99993896484375
 20
-417.0
 30
29.0
 70
   192
  0
VERTEX
  5
4F5
330
4BC
100
AcDbEntity
  8
-DC_BREP4
100
AcDbVertex
100
AcDbPolyFaceMeshVertex
 10
949.9999389648436
 20
-417.0001525878906
 30
0.0
 70
   192
  0
VERTEX
  5
4F6
330
4BC
100
AcDbEntity
  8
-DC_BREP4
100
AcDbVertex
100
AcDbPolyFaceMeshVertex
 10
-0.00006103515625
 20
-417.0
 30
0.0
 70
   192
  0
VERTEX
  5
4F7
330
4BC
100
AcDbEntity
  8
-DC_BREP4
100
AcDbVertex
100
AcDbPolyFaceMeshVertex
 10
899.9999389648436
 20
-417.0001525878906
 30
29.0
 70
   192
  0
VERTEX
  5
4F8
330
4BC
100
AcDbEntity
  8
-DC_BREP4
100
AcDbVertex
100
AcDbPolyFaceMeshVertex
 10
-0.00006103515625
 20
-417.0
 30
234.0
 70
   192
  0
VERTEX
  5
4F9
330
4BC
100
AcDbEntity
  8
-DC_BREP4
100
AcDbFaceRecord
 10
0.0
 20
0.0
 30
0.0
 70
   128
 71
     1
 72
     2
 73
     3
  0
VERTEX
  5
4FA
330
4BC
100
AcDbEntity
  8
-DC_BREP4
100
AcDbFaceRecord
 10
0.0
 20
0.0
 30
0.0
 70
   128
 71
     2
 72
     1
 73
     4
  0
VERTEX
  5
4FB
330
4BC
100
AcDbEntity
  8
-DC_BREP4
100
AcDbFaceRecord
 10
0.0
 20
0.0
 30
0.0
 70
   128
 71
     5
 72
     6
 73
     7
  0
VERTEX
  5
4FC
330
4BC
100
AcDbEntity
  8
-DC_BREP4
100
AcDbFaceRecord
 10
0.0
 20
0.0
 30
0.0
 70
   128
 71
     6
 72
     5
 73
     8
  0
VERTEX
  5
4FD
330
4BC
100
AcDbEntity
  8
-DC_BREP4
100
AcDbFaceRecord
 10
0.0
 20
0.0
 30
0.0
 70
   128
 71
     9
 72
    10
 73
    11
  0
VERTEX
  5
4FE
330
4BC
100
AcDbEntity
  8
-DC_BREP4
100
AcDbFaceRecord
 10
0.0
 20
0.0
 30
0.0
 70
   128
 71
    10
 72
     9
 73
    12
  0
VERTEX
  5
4FF
330
4BC
100
AcDbEntity
  8
-DC_BREP4
100
AcDbFaceRecord
 10
0.0
 20
0.0
 30
0.0
 70
   128
 71
    13
 72
    14
 73
    15
  0
VERTEX
  5
500
330
4BC
100
AcDbEntity
  8
-DC_BREP4
100
AcDbFaceRecord
 10
0.0
 20
0.0
 30
0.0
 70
   128
 71
    16
 72
    17
 73
    18
  0
VERTEX
  5
501
330
4BC
100
AcDbEntity
  8
-DC_BREP4
100
AcDbFaceRecord
 10
0.0
 20
0.0
 30
0.0
 70
   128
 71
    16
 72
    13
 73
    17
  0
VERTEX
  5
502
330
4BC
100
AcDbEntity
  8
-DC_BREP4
100
AcDbFaceRecord
 10
0.0
 20
0.0
 30
0.0
 70
   128
 71
    14
 72
    13
 73
    16
  0
VERTEX
  5
503
330
4BC
100
AcDbEntity
  8
-DC_BREP4
100
AcDbFaceRecord
 10
0.0
 20
0.0
 30
0.0
 70
   128
 71
    19
 72
    20
 73
    21
  0
VERTEX
  5
504
330
4BC
100
AcDbEntity
  8
-DC_BREP4
100
AcDbFaceRecord
 10
0.0
 20
0.0
 30
0.0
 70
   128
 71
    20
 72
    19
 73
    22
  0
VERTEX
  5
505
330
4BC
100
AcDbEntity
  8
-DC_BREP4
100
AcDbFaceRecord
 10
0.0
 20
0.0
 30
0.0
 70
   128
 71
    23
 72
    24
 73
    25
  0
VERTEX
  5
506
330
4BC
100
AcDbEntity
  8
-DC_BREP4
100
AcDbFaceRecord
 10
0.0
 20
0.0
 30
0.0
 70
   128
 71
    26
 72
    27
 73
    28
  0
VERTEX
  5
507
330
4BC
100
AcDbEntity
  8
-DC_BREP4
100
AcDbFaceRecord
 10
0.0
 20
0.0
 30
0.0
 70
   128
 71
    26
 72
    23
 73
    27
  0
VERTEX
  5
508
330
4BC
100
AcDbEntity
  8
-DC_BREP4
100
AcDbFaceRecord
 10
0.0
 20
0.0
 30
0.0
 70
   128
 71
    24
 72
    23
 73
    26
  0
VERTEX
  5
509
330
4BC
100
AcDbEntity
  8
-DC_BREP4
100
AcDbFaceRecord
 10
0.0
 20
0.0
 30
0.0
 70
   128
 71
    29
 72
    30
 73
    31
  0
VERTEX
  5
50A
330
4BC
100
AcDbEntity
  8
-DC_BREP4
100
AcDbFaceRecord
 10
0.0
 20
0.0
 30
0.0
 70
   128
 71
    30
 72
    29
 73
    32
  0
VERTEX
  5
50B
330
4BC
100
AcDbEntity
  8
-DC_BREP4
100
AcDbFaceRecord
 10
0.0
 20
0.0
 30
0.0
 70
   128
 71
    33
 72
    34
 73
    35
  0
VERTEX
  5
50C
330
4BC
100
AcDbEntity
  8
-DC_BREP4
100
AcDbFaceRecord
 10
0.0
 20
0.0
 30
0.0
 70
   128
 71
    34
 72
    33
 73
    36
  0
VERTEX
  5
50D
330
4BC
100
AcDbEntity
  8
-DC_BREP4
100
AcDbFaceRecord
 10
0.0
 20
0.0
 30
0.0
 70
   128
 71
    37
 72
    38
 73
    39
  0
VERTEX
  5
50E
330
4BC
100
AcDbEntity
  8
-DC_BREP4
100
AcDbFaceRecord
 10
0.0
 20
0.0
 30
0.0
 70
   128
 71
    38
 72
    37
 73
    40
  0
VERTEX
  5
50F
330
4BC
100
AcDbEntity
  8
-DC_BREP4
100
AcDbFaceRecord
 10
0.0
 20
0.0
 30
0.0
 70
   128
 71
    41
 72
    42
 73
    43
  0
VERTEX
  5
510
330
4BC
100
AcDbEntity
  8
-DC_BREP4
100
AcDbFaceRecord
 10
0.0
 20
0.0
 30
0.0
 70
   128
 71
    42
 72
    41
 73
    44
  0
VERTEX
  5
511
330
4BC
100
AcDbEntity
  8
-DC_BREP4
100
AcDbFaceRecord
 10
0.0
 20
0.0
 30
0.0
 70
   128
 71
    45
 72
    46
 73
    47
  0
VERTEX
  5
512
330
4BC
100
AcDbEntity
  8
-DC_BREP4
100
AcDbFaceRecord
 10
0.0
 20
0.0
 30
0.0
 70
   128
 71
    46
 72
    45
 73
    48
  0
VERTEX
  5
513
330
4BC
100
AcDbEntity
  8
-DC_BREP4
100
AcDbFaceRecord
 10
0.0
 20
0.0
 30
0.0
 70
   128
 71
    49
 72
    50
 73
    51
  0
VERTEX
  5
514
330
4BC
100
AcDbEntity
  8
-DC_BREP4
100
AcDbFaceRecord
 10
0.0
 20
0.0
 30
0.0
 70
   128
 71
    50
 72
    49
 73
    52
  0
VERTEX
  5
515
330
4BC
100
AcDbEntity
  8
-DC_BREP4
100
AcDbFaceRecord
 10
0.0
 20
0.0
 30
0.0
 70
   128
 71
    53
 72
    54
 73
    55
  0
VERTEX
  5
516
330
4BC
100
AcDbEntity
  8
-DC_BREP4
100
AcDbFaceRecord
 10
0.0
 20
0.0
 30
0.0
 70
   128
 71
    56
 72
    57
 73
    58
  0
VERTEX
  5
517
330
4BC
100
AcDbEntity
  8
-DC_BREP4
100
AcDbFaceRecord
 10
0.0
 20
0.0
 30
0.0
 70
   128
 71
    59
 72
    57
 73
    56
  0
VERTEX
  5
518
330
4BC
100
AcDbEntity
  8
-DC_BREP4
100
AcDbFaceRecord
 10
0.0
 20
0.0
 30
0.0
 70
   128
 71
    59
 72
    54
 73
    57
  0
VERTEX
  5
519
330
4BC
100
AcDbEntity
  8
-DC_BREP4
100
AcDbFaceRecord
 10
0.0
 20
0.0
 30
0.0
 70
   128
 71
    55
 72
    54
 73
    59
  0
VERTEX
  5
51A
330
4BC
100
AcDbEntity
  8
-DC_BREP4
100
AcDbFaceRecord
 10
0.0
 20
0.0
 30
0.0
 70
   128
 71
    60
 72
    56
 73
    58
  0
VERTEX
  5
51B
330
4BC
100
AcDbEntity
  8
-DC_BREP4
100
AcDbFaceRecord
 10
0.0
 20
0.0
 30
0.0
 70
   128
 71
    60
 72
    53
 73
    56
  0
VERTEX
  5
51C
330
4BC
100
AcDbEntity
  8
-DC_BREP4
100
AcDbFaceRecord
 10
0.0
 20
0.0
 30
0.0
 70
   128
 71
    54
 72
    53
 73
    60
  0
SEQEND
  5
51D
330
4BC
100
AcDbEntity
  8
-DC_BREP4
  0
ENDSEC
  0
SECTION
  2
OBJECTS
  0
DICTIONARY
  5
C
330
0
100
AcDbDictionary
281
     1
  3
ACAD_BACKGROUND
350
56C
  3
ACAD_CIP_PREVIOUS_PRODUCT_INFO
350
1A2
  3
ACAD_COLOR
350
6C
  3
ACAD_DETAILVIEWSTYLE
350
1A8
  3
ACAD_GROUP
350
D
  3
ACAD_LAYOUT
350
1A
  3
ACAD_MATERIAL
350
6B
  3
ACAD_MLEADERSTYLE
350
D2
  3
ACAD_MLINESTYLE
350
17
  3
ACAD_PLOTSETTINGS
350
19
  3
ACAD_PLOTSTYLENAME
350
E
  3
ACAD_SCALELIST
350
B1
  3
ACAD_SECTIONVIEWSTYLE
350
1A5
  3
ACAD_TABLESTYLE
350
A6
  3
ACAD_VISUALSTYLE
350
95
  3
ACDB_RECOMPOSE_DATA
350
5C1
  3
AcDbVariableDictionary
350
59
  3
DWGPROPS
350
5C2
  0
DICTIONARY
  5
18B
330
2
100
AcDbDictionary
280
     1
281
     1
  3
ACAD_LAYERSTATES
360
18C
  0
DICTIONARY
  5
E1
330
10
100
AcDbDictionary
280
     1
281
     1
  0
DICTIONARY
  5
15A
330
1F
100
AcDbDictionary
280
     1
281
     1
  0
DICTIONARY
  5
56C
102
{ACAD_REACTORS
330
C
102
}
330
C
100
AcDbDictionary
281
     1
  0
XRECORD
  5
1A2
102
{ACAD_REACTORS
330
C
102
}
330
C
100
AcDbXrecord
280
     1
300
ACD
300
2013
300
ACD_F_S
  0
DICTIONARY
  5
6C
102
{ACAD_REACTORS
330
C
102
}
330
C
100
AcDbDictionary
281
     1
  0
DICTIONARY
  5
1A8
102
{ACAD_REACTORS
330
C
102
}
330
C
100
AcDbDictionary
281
     1
  3
Imperial24
350
1A9
  0
DICTIONARY
  5
D
102
{ACAD_REACTORS
330
C
102
}
330
C
100
AcDbDictionary
281
     1
  0
DICTIONARY
  5
1A
102
{ACAD_REACTORS
330
C
102
}
330
C
100
AcDbDictionary
281
     1
  3
Layout1
350
74
  3
Layout2
350
79
  3
Model
350
22
  0
DICTIONARY
  5
6B
102
{ACAD_REACTORS
330
C
102
}
330
C
100
AcDbDictionary
281
     1
  3
ByBlock
350
93
  3
ByLayer
350
92
  3
Global
350
94
  0
DICTIONARY
  5
D2
102
{ACAD_REACTORS
330
C
102
}
330
C
100
AcDbDictionary
281
     1
  3
Annotative
350
E0
  3
Standard
350
D3
  0
DICTIONARY
  5
17
102
{ACAD_REACTORS
330
C
102
}
330
C
100
AcDbDictionary
281
     1
  3
Standard
350
18
  0
DICTIONARY
  5
19
102
{ACAD_REACTORS
330
C
102
}
330
C
100
AcDbDictionary
281
     1
  0
ACDBDICTIONARYWDFLT
  5
E
102
{ACAD_REACTORS
330
C
102
}
330
C
100
AcDbDictionary
281
     1
  3
Normal
350
F
100
AcDbDictionaryWithDefault
340
F
  0
DICTIONARY
  5
B1
102
{ACAD_REACTORS
330
C
102
}
330
C
100
AcDbDictionary
281
     1
  3
A0
350
B2
  3
A1
350
124
  3
A2
350
125
  3
A3
350
126
  3
A4
350
127
  3
A5
350
128
  3
A6
350
129
  3
A7
350
12A
  3
A8
350
12B
  3
A9
350
12C
  3
B0
350
12D
  3
B1
350
12E
  3
B2
350
12F
  3
B3
350
130
  3
B4
350
131
  3
B5
350
132
  3
B6
350
133
  3
B7
350
134
  3
B8
350
135
  3
B9
350
136
  3
C0
350
137
  3
C1
350
138
  3
C2
350
139
  3
C3
350
13A
  3
C4
350
13B
  3
C5
350
13C
  3
C6
350
13D
  3
C7
350
13E
  3
C8
350
13F
  3
C9
350
140
  3
D0
350
141
  3
D1
350
142
  3
D2
350
143
  0
DICTIONARY
  5
1A5
102
{ACAD_REACTORS
330
C
102
}
330
C
100
AcDbDictionary
281
     1
  3
Imperial24
350
1A7
  0
DICTIONARY
  5
A6
102
{ACAD_REACTORS
330
C
102
}
330
C
100
AcDbDictionary
281
     1
  3
Standard
350
A7
  0
DICTIONARY
  5
95
102
{ACAD_REACTORS
330
C
102
}
330
C
100
AcDbDictionary
281
     1
  3
2dWireframe
350
9B
  3
Basic
350
9A
  3
Brighten
350
A1
  3
ColorChange
350
A5
  3
Conceptual
350
9E
  3
Dim
350
A0
  3
EdgeColorOff
350
172
  3
Facepattern
350
A4
  3
Flat
350
96
  3
FlatWithEdges
350
97
  3
Gouraud
350
98
  3
GouraudWithEdges
350
99
  3
Hidden
350
9D
  3
JitterOff
350
170
  3
Linepattern
350
A3
  3
OverhangOff
350
171
  3
Realistic
350
9F
  3
Shaded
350
17F
  3
Shaded with edges
350
17E
  3
Shades of Gray
350
17B
  3
Sketchy
350
17C
  3
Thicken
350
A2
  3
Wireframe
350
9C
  3
X-Ray
350
17D
  0
XRECORD
  5
5C1
102
{ACAD_REACTORS
330
C
102
}
330
C
100
AcDbXrecord
280
     1
 90
        1
330
A7
  0
DICTIONARY
  5
59
102
{ACAD_REACTORS
330
C
102
}
330
C
100
AcDbDictionary
281
     1
  3
CAMERAHEIGHT
350
573
  3
CANNOSCALE
350
EB
  3
CMLEADERSTYLE
350
EA
  3
CTABLESTYLE
350
AB
  3
CVIEWDETAILSTYLE
350
1B4
  3
CVIEWSECTIONSTYLE
350
1B5
  3
DIMASSOC
350
5A
  3
HIDETEXT
350
5E
  3
INDEXCTL
350
572
  3
LAYEREVAL
350
14A
  3
LAYERNOTIFY
350
14B
  3
LIGHTINGUNITS
350
570
  3
MSLTSCALE
350
56F
  3
SORTENTS
350
571
  3
XCLIPFRAME
350
5BF
  0
XRECORD
  5
5C2
102
{ACAD_REACTORS
330
C
102
}
330
C
100
AcDbXrecord
280
     1
  1
DWGPROPS COOKIE
  2

  3

  4

  6

  7

  8
moucha
  9

300
=
301
=
302
=
303
=
304
=
305
=
306
=
307
=
308
=
309
=
 40
0.0012994097222222
 41
2459298.719516204
 42
2459454.460658704
  1

 90
        0
  0
DICTIONARY
  5
18C
102
{ACAD_REACTORS
330
18B
102
}
330
18B
100
AcDbDictionary
281
     1
  0
ACDBDETAILVIEWSTYLE
  5
1A9
102
{ACAD_REACTORS
330
1A8
102
}
330
1A8
100
AcDbModelDocViewStyle
 70
     0
  3
Imperial24
290
     0
100
AcDbDetailViewStyle
 70
     0
 71
     0
 90
        3
 71
     1
340
11
 40
0.24
340
0
 40
0.24
300

 40
0.36
280
     3
 71
     2
340
16
 90
       25
 71
     3
340
11
 40
0.24
 90
        1
 40
0.75
 90
        1
300
%<\AcVar ViewType \f "%tc1">% %<\AcVar ViewDetailId>%\PSCALE %<\AcVar ViewScale \f "%sn">%
 71
     4
340
16
 90
       25
340
16
 90
       25
280
     0
  0
LAYOUT
  5
74
102
{ACAD_XDICTIONARY
360
5C5
102
}
102
{ACAD_REACTORS
330
1A
102
}
330
1A
100
AcDbPlotSettings
  1

  2
\\ADSCCNDC1\hq601xrx1
  4

  6

 40
0.0
 41
0.0
 42
0.0
 43
0.0
 44
0.0
 45
0.0
 46
0.0
 47
0.0
 48
0.0
 49
0.0
140
0.0
141
0.0
142
1.0
143
1.0
 70
   688
 72
     0
 73
     0
 74
     5
  7

 75
    16
147
1.0
148
0.0
149
0.0
100
AcDbLayout
  1
Layout1
 70
     1
 71
     1
 10
0.0
 20
0.0
 11
12.0
 21
9.0
 12
0.0
 22
0.0
 32
0.0
 14
0.0
 24
0.0
 34
0.0
 15
0.0
 25
0.0
 35
0.0
146
0.0
 13
0.0
 23
0.0
 33
0.0
 16
1.0
 26
0.0
 36
0.0
 17
0.0
 27
1.0
 37
0.0
 76
     0
330
73
  0
LAYOUT
  5
79
102
{ACAD_XDICTIONARY
360
5C7
102
}
102
{ACAD_REACTORS
330
1A
102
}
330
1A
100
AcDbPlotSettings
  1

  2
\\ADSCCNDC1\hq601xrx1
  4

  6

 40
0.0
 41
0.0
 42
0.0
 43
0.0
 44
0.0
 45
0.0
 46
0.0
 47
0.0
 48
0.0
 49
0.0
140
0.0
141
0.0
142
1.0
143
1.0
 70
   688
 72
     0
 73
     0
 74
     5
  7

 75
    16
147
1.0
148
0.0
149
0.0
100
AcDbLayout
  1
Layout2
 70
     1
 71
     2
 10
0.0
 20
0.0
 11
12.0
 21
9.0
 12
0.0
 22
0.0
 32
0.0
 14
0.0
 24
0.0
 34
0.0
 15
0.0
 25
0.0
 35
0.0
146
0.0
 13
0.0
 23
0.0
 33
0.0
 16
1.0
 26
0.0
 36
0.0
 17
0.0
 27
1.0
 37
0.0
 76
     0
330
78
  0
LAYOUT
  5
22
102
{ACAD_XDICTIONARY
360
5C3
102
}
102
{ACAD_REACTORS
330
1A
102
}
330
1A
100
AcDbPlotSettings
  1

  2
none_device
  4
Letter_(8.50_x_11.00_Inches)
  6

 40
6.349999904632567
 41
6.349999904632567
 42
6.350006103515625
 43
6.350006103515625
 44
215.8999938964844
 45
279.3999938964844
 46
0.0
 47
0.0
 48
0.0
 49
0.0
140
0.0
141
0.0
142
1.0
143
3.560208697428376
 70
 11952
 72
     0
 73
     1
 74
     0
  7

 75
     0
147
0.28088241027059
148
0.1311165230791651
149
0.096403374003771
100
AcDbLayout
  1
Model
 70
     1
 71
     0
 10
0.0
 20
0.0
 11
12.0
 21
9.0
 12
0.0
 22
0.0
 32
0.0
 14
0.0
 24
0.0
 34
0.0
 15
0.0
 25
0.0
 35
0.0
146
0.0
 13
0.0
 23
0.0
 33
0.0
 16
1.0
 26
0.0
 36
0.0
 17
0.0
 27
1.0
 37
0.0
 76
     0
330
1F
331
90
  0
MATERIAL
  5
93
102
{ACAD_XDICTIONARY
360
185
102
}
102
{ACAD_REACTORS
330
6B
102
}
330
6B
100
AcDbMaterial
  1
ByBlock
  0
MATERIAL
  5
92
102
{ACAD_XDICTIONARY
360
183
102
}
102
{ACAD_REACTORS
330
6B
102
}
330
6B
100
AcDbMaterial
  1
ByLayer
  0
MATERIAL
  5
94
102
{ACAD_XDICTIONARY
360
10B
102
}
102
{ACAD_REACTORS
330
6B
102
}
330
6B
100
AcDbMaterial
  1
Global
 43
0.0208000000566244
 43
0.0
 43
0.0
 43
0.0
 43
0.0
 43
0.0208000000566244
 43
0.0
 43
0.0
 43
0.0
 43
0.0
 43
1.0
 43
0.0
 43
0.0
 43
0.0
 43
0.0
 43
1.0
 49
0.0208000000566244
 49
0.0
 49
0.0
 49
0.0
 49
0.0
 49
0.0208000000566244
 49
0.0
 49
0.0
 49
0.0
 49
0.0
 49
1.0
 49
0.0
 49
0.0
 49
0.0
 49
0.0
 49
1.0
142
0.0208000000566244
142
0.0
142
0.0
142
0.0
142
0.0
142
0.0208000000566244
142
0.0
142
0.0
142
0.0
142
0.0
142
1.0
142
0.0
142
0.0
142
0.0
142
0.0
142
1.0
144
0.0208000000566244
144
0.0
144
0.0
144
0.0
144
0.0
144
0.0208000000566244
144
0.0
144
0.0
144
0.0
144
0.0
144
1.0
144
0.0
144
0.0
144
0.0
144
0.0
144
1.0
1001
ACAD
1070
    -1
1070
     3
1070
     0
1000

1071
        0
1070
     0
  0
MLEADERSTYLE
  5
E0
102
{ACAD_REACTORS
330
D2
102
}
330
D2
100
AcDbMLeaderStyle
170
     2
171
     1
172
     0
 90
        2
 40
0.0
 41
0.0
173
     1
 91
-1056964608
340
14
 92
       -2
290
     1
 42
0.09
291
     1
 43
0.36
  3
Standard
 44
0.18
300

342
11
174
     1
178
     1
175
     1
176
     0
 93
-1056964608
 45
0.18
292
     0
297
     0
 46
0.18
 94
-1056964608
 47
1.0
 49
1.0
140
1.0
293
     1
141
0.0
294
     1
177
     0
142
1.0
295
     0
296
     1
143
0.125
1001
ACAD_MLEADERVER
1070
     2
  0
MLEADERSTYLE
  5
D3
102
{ACAD_REACTORS
330
D2
102
}
330
D2
100
AcDbMLeaderStyle
170
     2
171
     1
172
     0
 90
        2
 40
0.0
 41
0.0
173
     1
 91
-1056964608
340
14
 92
       -2
290
     1
 42
0.09
291
     1
 43
0.36
  3
Standard
 44
0.18
300

342
11
174
     1
178
     1
175
     1
176
     0
 93
-1056964608
 45
0.18
292
     0
297
     0
 46
0.18
 94
-1056964608
 47
1.0
 49
1.0
140
1.0
293
     1
141
0.0
294
     1
177
     0
142
1.0
295
     0
296
     0
143
0.125
1001
ACAD_MLEADERVER
1070
     2
  0
MLINESTYLE
  5
18
102
{ACAD_REACTORS
330
17
102
}
330
17
100
AcDbMlineStyle
  2
STANDARD
 70
     0
  3

 62
   256
 51
90.0
 52
90.0
 71
     2
 49
0.5
 62
   256
  6
BYLAYER
 49
-0.5
 62
   256
  6
BYLAYER
  0
ACDBPLACEHOLDER
  5
F
102
{ACAD_REACTORS
330
E
102
}
330
E
  0
SCALE
  5
B2
102
{ACAD_REACTORS
330
B1
102
}
330
B1
100
AcDbScale
 70
     0
300
1:1
140
1.0
141
1.0
290
     1
  0
SCALE
  5
124
102
{ACAD_REACTORS
330
B1
102
}
330
B1
100
AcDbScale
 70
     0
300
1:2
140
1.0
141
2.0
290
     0
  0
SCALE
  5
125
102
{ACAD_REACTORS
330
B1
102
}
330
B1
100
AcDbScale
 70
     0
300
1:4
140
1.0
141
4.0
290
     0
  0
SCALE
  5
126
102
{ACAD_REACTORS
330
B1
102
}
330
B1
100
AcDbScale
 70
     0
300
1:5
140
1.0
141
5.0
290
     0
  0
SCALE
  5
127
102
{ACAD_REACTORS
330
B1
102
}
330
B1
100
AcDbScale
 70
     0
300
1:8
140
1.0
141
8.0
290
     0
  0
SCALE
  5
128
102
{ACAD_REACTORS
330
B1
102
}
330
B1
100
AcDbScale
 70
     0
300
1:10
140
1.0
141
10.0
290
     0
  0
SCALE
  5
129
102
{ACAD_REACTORS
330
B1
102
}
330
B1
100
AcDbScale
 70
     0
300
1:16
140
1.0
141
16.0
290
     0
  0
SCALE
  5
12A
102
{ACAD_REACTORS
330
B1
102
}
330
B1
100
AcDbScale
 70
     0
300
1:20
140
1.0
141
20.0
290
     0
  0
SCALE
  5
12B
102
{ACAD_REACTORS
330
B1
102
}
330
B1
100
AcDbScale
 70
     0
300
1:30
140
1.0
141
30.0
290
     0
  0
SCALE
  5
12C
102
{ACAD_REACTORS
330
B1
102
}
330
B1
100
AcDbScale
 70
     0
300
1:40
140
1.0
141
40.0
290
     0
  0
SCALE
  5
12D
102
{ACAD_REACTORS
330
B1
102
}
330
B1
100
AcDbScale
 70
     0
300
1:50
140
1.0
141
50.0
290
     0
  0
SCALE
  5
12E
102
{ACAD_REACTORS
330
B1
102
}
330
B1
100
AcDbScale
 70
     0
300
1:100
140
1.0
141
100.0
290
     0
  0
SCALE
  5
12F
102
{ACAD_REACTORS
330
B1
102
}
330
B1
100
AcDbScale
 70
     0
300
2:1
140
2.0
141
1.0
290
     0
  0
SCALE
  5
130
102
{ACAD_REACTORS
330
B1
102
}
330
B1
100
AcDbScale
 70
     0
300
4:1
140
4.0
141
1.0
290
     0
  0
SCALE
  5
131
102
{ACAD_REACTORS
330
B1
102
}
330
B1
100
AcDbScale
 70
     0
300
8:1
140
8.0
141
1.0
290
     0
  0
SCALE
  5
132
102
{ACAD_REACTORS
330
B1
102
}
330
B1
100
AcDbScale
 70
     0
300
10:1
140
10.0
141
1.0
290
     0
  0
SCALE
  5
133
102
{ACAD_REACTORS
330
B1
102
}
330
B1
100
AcDbScale
 70
     0
300
100:1
140
100.0
141
1.0
290
     0
  0
SCALE
  5
134
102
{ACAD_REACTORS
330
B1
102
}
330
B1
100
AcDbScale
 70
     0
300
1/128" = 1'-0"
140
0.0078125
141
12.0
290
     0
  0
SCALE
  5
135
102
{ACAD_REACTORS
330
B1
102
}
330
B1
100
AcDbScale
 70
     0
300
1/64" = 1'-0"
140
0.015625
141
12.0
290
     0
  0
SCALE
  5
136
102
{ACAD_REACTORS
330
B1
102
}
330
B1
100
AcDbScale
 70
     0
300
1/32" = 1'-0"
140
0.03125
141
12.0
290
     0
  0
SCALE
  5
137
102
{ACAD_REACTORS
330
B1
102
}
330
B1
100
AcDbScale
 70
     0
300
1/16" = 1'-0"
140
0.0625
141
12.0
290
     0
  0
SCALE
  5
138
102
{ACAD_REACTORS
330
B1
102
}
330
B1
100
AcDbScale
 70
     0
300
3/32" = 1'-0"
140
0.09375
141
12.0
290
     0
  0
SCALE
  5
139
102
{ACAD_REACTORS
330
B1
102
}
330
B1
100
AcDbScale
 70
     0
300
1/8" = 1'-0"
140
0.125
141
12.0
290
     0
  0
SCALE
  5
13A
102
{ACAD_REACTORS
330
B1
102
}
330
B1
100
AcDbScale
 70
     0
300
3/16" = 1'-0"
140
0.1875
141
12.0
290
     0
  0
SCALE
  5
13B
102
{ACAD_REACTORS
330
B1
102
}
330
B1
100
AcDbScale
 70
     0
300
1/4" = 1'-0"
140
0.25
141
12.0
290
     0
  0
SCALE
  5
13C
102
{ACAD_REACTORS
330
B1
102
}
330
B1
100
AcDbScale
 70
     0
300
3/8" = 1'-0"
140
0.375
141
12.0
290
     0
  0
SCALE
  5
13D
102
{ACAD_REACTORS
330
B1
102
}
330
B1
100
AcDbScale
 70
     0
300
1/2" = 1'-0"
140
0.5
141
12.0
290
     0
  0
SCALE
  5
13E
102
{ACAD_REACTORS
330
B1
102
}
330
B1
100
AcDbScale
 70
     0
300
3/4" = 1'-0"
140
0.75
141
12.0
290
     0
  0
SCALE
  5
13F
102
{ACAD_REACTORS
330
B1
102
}
330
B1
100
AcDbScale
 70
     0
300
1" = 1'-0"
140
1.0
141
12.0
290
     0
  0
SCALE
  5
140
102
{ACAD_REACTORS
330
B1
102
}
330
B1
100
AcDbScale
 70
     0
300
1-1/2" = 1'-0"
140
1.5
141
12.0
290
     0
  0
SCALE
  5
141
102
{ACAD_REACTORS
330
B1
102
}
330
B1
100
AcDbScale
 70
     0
300
3" = 1'-0"
140
3.0
141
12.0
290
     0
  0
SCALE
  5
142
102
{ACAD_REACTORS
330
B1
102
}
330
B1
100
AcDbScale
 70
     0
300
6" = 1'-0"
140
6.0
141
12.0
290
     0
  0
SCALE
  5
143
102
{ACAD_REACTORS
330
B1
102
}
330
B1
100
AcDbScale
 70
     0
300
1'-0" = 1'-0"
140
12.0
141
12.0
290
     0
  0
ACDBSECTIONVIEWSTYLE
  5
1A7
102
{ACAD_REACTORS
330
1A5
102
}
330
1A5
100
AcDbModelDocViewStyle
 70
     0
  3
Imperial24
290
     0
100
AcDbSectionViewStyle
 70
     0
 71
     0
 90
       78
 71
     1
340
11
 40
0.24
340
0
340
0
 40
0.24
300
I, O, Q, S, X, Z
 40
0.48
 90
        3
 40
0.18
 90
        1
 71
     2
340
1A6
 90
       25
340
16
 90
       50
 40
0.24
 40
0.0
 40
0.24
 71
     3
340
11
 40
0.24
 90
        1
 40
0.75
 90
        1
300
%<\AcVar ViewType \f "%tc1">% %<\AcVar ViewSectionStartId>%-%<\AcVar ViewSectionEndId>%\PSCALE %<\AcVar ViewScale \f "%sn">%
 71
     4
300
ANSI31
 40
1.0
 90
        0
290
     0
290
     0
 90
        6
 40
0.0
 40
1.570796326794896
 40
0.2617993877991494
 40
1.308996938995747
 40
-0.2617993877991494
 40
1.832595714594045
  0
TABLESTYLE
  5
A7
102
{ACAD_XDICTIONARY
360
FF
102
}
102
{ACAD_REACTORS
330
A6
102
}
330
A6
100
AcDbTableStyle
  3
Standard
 70
     0
 71
     0
 40
0.06
 41
0.06
280
     0
281
     0
  7
Standard
140
0.18
170
     2
 62
     0
 63
     7
283
     0
274
    -2
284
     1
 64
     0
275
    -2
285
     1
 65
     0
276
    -2
286
     1
 66
     0
277
    -2
287
     1
 67
     0
278
    -2
288
     1
 68
     0
279
    -2
289
     1
 69
     0
  7
Standard
140
0.25
170
     5
 62
     0
 63
     7
283
     0
274
    -2
284
     1
 64
     0
275
    -2
285
     1
 65
     0
276
    -2
286
     1
 66
     0
277
    -2
287
     1
 67
     0
278
    -2
288
     1
 68
     0
279
    -2
289
     1
 69
     0
  7
Standard
140
0.18
170
     5
 62
     0
 63
     7
283
     0
274
    -2
284
     1
 64
     0
275
    -2
285
     1
 65
     0
276
    -2
286
     1
 66
     0
277
    -2
287
     1
 67
     0
278
    -2
288
     1
 68
     0
279
    -2
289
     1
 69
     0
  0
VISUALSTYLE
  5
9B
102
{ACAD_XDICTIONARY
360
5D3
102
}
102
{ACAD_REACTORS
330
95
102
}
330
95
100
AcDbVisualStyle
  2

 70
     4
 71
     0
 72
     2
 73
     1
 90
        0
 40
-0.6
 41
-30.0
 62
     5
 63
     7
 74
     1
 91
        4
 64
     7
 65
   257
 75
     1
175
     1
 42
1.0
 92
        0
 66
   257
 43
1.0
 76
     1
 77
     6
 78
     2
 67
     7
 79
     5
170
     0
171
     0
290
     0
174
     0
 93
        1
 44
0.0
173
     0
291
     0
 45
0.0
1001
ACAD
1000
AcDbSavedByObjectVersion
1070
     0
  0
VISUALSTYLE
  5
9A
102
{ACAD_XDICTIONARY
360
5D1
102
}
102
{ACAD_REACTORS
330
95
102
}
330
95
100
AcDbVisualStyle
  2

 70
     7
 71
     1
 72
     0
 73
     1
 90
        0
 40
-0.6
 41
-30.0
 62
     5
 63
     7
 74
     0
 91
        4
 64
     7
 65
   257
 75
     1
175
     1
 42
1.0
 92
        8
 66
     7
 43
1.0
 76
     1
 77
     6
 78
     2
 67
     7
 79
     5
170
     0
171
     0
290
     0
174
     0
 93
        1
 44
0.0
173
     0
291
     1
 45
0.0
1001
ACAD
1000
AcDbSavedByObjectVersion
1070
     0
  0
VISUALSTYLE
  5
A1
102
{ACAD_XDICTIONARY
360
5DF
102
}
102
{ACAD_REACTORS
330
95
102
}
330
95
100
AcDbVisualStyle
  2

 70
    12
 71
     2
 72
     2
 73
     1
 90
        0
 40
-0.6
 41
-30.0
 62
     5
 63
     7
 74
     1
 91
        4
 64
     7
 65
   257
 75
     1
175
     1
 42
1.0
 92
        8
 66
     7
 43
1.0
 76
     1
 77
     6
 78
     2
 67
     7
 79
     5
170
     0
171
     0
290
     0
174
     0
 93
        1
 44
50.0
173
     0
291
     1
 45
0.0
1001
ACAD
1000
AcDbSavedByObjectVersion
1070
     0
  0
VISUALSTYLE
  5
A5
102
{ACAD_XDICTIONARY
360
5E7
102
}
102
{ACAD_REACTORS
330
95
102
}
330
95
100
AcDbVisualStyle
  2

 70
    16
 71
     2
 72
     2
 73
     3
 90
        0
 40
-0.6
 41
-30.0
 62
     5
 63
     8
 74
     1
 91
        4
 64
     7
 65
   257
 75
     1
175
     1
 42
1.0
 92
        8
 66
     8
 43
1.0
 76
     1
 77
     6
 78
     2
 67
     7
 79
     5
170
     0
171
     0
290
     0
174
     0
 93
        1
 44
0.0
173
     0
291
     1
 45
0.0
1001
ACAD
1000
AcDbSavedByObjectVersion
1070
     0
  0
VISUALSTYLE
  5
9E
102
{ACAD_XDICTIONARY
360
5D9
102
}
102
{ACAD_REACTORS
330
95
102
}
330
95
100
AcDbVisualStyle
  2

 70
     9
 71
     3
 72
     2
 73
     1
 90
        0
 40
-0.6
 41
-30.0
 62
     5
 63
     7
 74
     2
 91
        2
 64
     7
 65
   257
 75
     1
175
     1
 42
40.0
 92
        8
 66
     7
 43
1.0
 76
     1
 77
     6
 78
     2
 67
     7
 79
     3
170
     0
171
     0
290
     0
174
     0
 93
        1
 44
0.0
173
     0
291
     0
 45
0.0
1001
ACAD
1000
AcDbSavedByObjectVersion
1070
     0
  0
VISUALSTYLE
  5
A0
102
{ACAD_XDICTIONARY
360
5DD
102
}
102
{ACAD_REACTORS
330
95
102
}
330
95
100
AcDbVisualStyle
  2

 70
    11
 71
     2
 72
     2
 73
     1
 90
        0
 40
-0.6
 41
-30.0
 62
     5
 63
     7
 74
     1
 91
        4
 64
     7
 65
   257
 75
     1
175
     1
 42
1.0
 92
        8
 66
     7
 43
1.0
 76
     1
 77
     6
 78
     2
 67
     7
 79
     5
170
     0
171
     0
290
     0
174
     0
 93
        1
 44
-50.0
173
     0
291
     1
 45
0.0
1001
ACAD
1000
AcDbSavedByObjectVersion
1070
     0
  0
VISUALSTYLE
  5
172
102
{ACAD_XDICTIONARY
360
5EE
102
}
102
{ACAD_REACTORS
330
95
102
}
330
95
100
AcDbVisualStyle
  2

 70
    22
 71
     2
 72
     2
 73
     0
 90
        0
 40
-0.6
 41
-30.0
 62
     5
 63
     7
 74
     1
 91
        4
 64
     7
 65
   257
 75
     1
175
     1
 42
1.0
 92
        8
 66
     7
 43
1.0
 76
     1
 77
     6
 78
     2
 67
     7
 79
     5
170
     0
171
     0
290
     0
174
     0
 93
        1
 44
0.0
173
     0
291
     1
 45
0.0
1001
ACAD
1000
AcDbSavedByObjectVersion
1070
     0
  0
VISUALSTYLE
  5
A4
102
{ACAD_XDICTIONARY
360
5E5
102
}
102
{ACAD_REACTORS
330
95
102
}
330
95
100
AcDbVisualStyle
  2

 70
    15
 71
     2
 72
     2
 73
     1
 90
        0
 40
-0.6
 41
-30.0
 62
     5
 63
     7
 74
     1
 91
        4
 64
     7
 65
   257
 75
     1
175
     1
 42
1.0
 92
        8
 66
     7
 43
1.0
 76
     1
 77
     6
 78
     2
 67
     7
 79
     5
170
     0
171
     0
290
     0
174
     0
 93
        1
 44
0.0
173
     0
291
     1
 45
0.0
1001
ACAD
1000
AcDbSavedByObjectVersion
1070
     0
  0
VISUALSTYLE
  5
96
102
{ACAD_XDICTIONARY
360
5C9
102
}
102
{ACAD_REACTORS
330
95
102
}
330
95
100
AcDbVisualStyle
  2

 70
     0
 71
     2
 72
     1
 73
     1
 90
        2
 40
-0.6
 41
30.0
 62
     5
 63
     7
 74
     0
 91
        0
 64
     7
 65
   257
 75
     1
175
     1
 42
1.0
 92
        8
 66
     7
 43
1.0
 76
     1
 77
     6
 78
     2
 67
     7
 79
     5
170
     0
171
     0
290
     0
174
     0
 93
       13
 44
0.0
173
     0
291
     1
 45
0.0
1001
ACAD
1000
AcDbSavedByObjectVersion
1070
     0
  0
VISUALSTYLE
  5
97
102
{ACAD_XDICTIONARY
360
5CB
102
}
102
{ACAD_REACTORS
330
95
102
}
330
95
100
AcDbVisualStyle
  2

 70
     1
 71
     2
 72
     1
 73
     1
 90
        2
 40
-0.6
 41
30.0
 62
     5
 63
     7
 74
     1
 91
        0
 64
     7
 65
   257
 75
     1
175
     1
 42
1.0
 92
        0
 66
   257
 43
1.0
 76
     1
 77
     6
 78
     2
 67
     7
 79
     5
170
     0
171
     0
290
     0
174
     0
 93
       13
 44
0.0
173
     0
291
     1
 45
0.0
1001
ACAD
1000
AcDbSavedByObjectVersion
1070
     0
  0
VISUALSTYLE
  5
98
102
{ACAD_XDICTIONARY
360
5CD
102
}
102
{ACAD_REACTORS
330
95
102
}
330
95
100
AcDbVisualStyle
  2

 70
     2
 71
     2
 72
     2
 73
     1
 90
        2
 40
-0.6
 41
30.0
 62
     5
 63
     7
 74
     0
 91
        0
 64
     7
 65
   257
 75
     1
175
     1
 42
1.0
 92
        0
 66
     7
 43
1.0
 76
     1
 77
     6
 78
     2
 67
     7
 79
     5
170
     0
171
     0
290
     0
174
     0
 93
       13
 44
0.0
173
     0
291
     1
 45
0.0
1001
ACAD
1000
AcDbSavedByObjectVersion
1070
     0
  0
VISUALSTYLE
  5
99
102
{ACAD_XDICTIONARY
360
5CF
102
}
102
{ACAD_REACTORS
330
95
102
}
330
95
100
AcDbVisualStyle
  2

 70
     3
 71
     2
 72
     2
 73
     1
 90
        2
 40
-0.6
 41
30.0
 62
     5
 63
     7
 74
     1
 91
        0
 64
     7
 65
   257
 75
     1
175
     1
 42
1.0
 92
        0
 66
   257
 43
1.0
 76
     1
 77
     6
 78
     2
 67
     7
 79
     5
170
     0
171
     0
290
     0
174
     0
 93
       13
 44
0.0
173
     0
291
     1
 45
0.0
1001
ACAD
1000
AcDbSavedByObjectVersion
1070
     0
  0
VISUALSTYLE
  5
9D
102
{ACAD_XDICTIONARY
360
5D7
102
}
102
{ACAD_REACTORS
330
95
102
}
330
95
100
AcDbVisualStyle
  2

 70
     6
 71
     1
 72
     2
 73
     2
 90
        0
 40
-0.6
 41
-30.0
 62
     5
 63
     7
 74
     2
 91
        2
 64
     7
 65
   257
 75
     2
175
     1
 42
40.0
 92
        0
 66
   257
 43
1.0
 76
     1
 77
     6
 78
     2
 67
     7
 79
     3
170
     0
171
     0
290
     0
174
     0
 93
        1
 44
0.0
173
     0
291
     0
 45
0.0
1001
ACAD
1000
AcDbSavedByObjectVersion
1070
     0
  0
VISUALSTYLE
  5
170
102
{ACAD_XDICTIONARY
360
5EA
102
}
102
{ACAD_REACTORS
330
95
102
}
330
95
100
AcDbVisualStyle
  2

 70
    20
 71
     2
 72
     2
 73
     0
 90
        0
 40
-0.6
 41
-30.0
 62
     5
 63
     7
 74
     1
 91
        4
 64
     7
 65
   257
 75
     1
175
     1
 42
1.0
 92
       10
 66
     7
 43
1.0
 76
     1
 77
     6
 78
     2
 67
     7
 79
     5
170
     0
171
     0
290
     0
174
     0
 93
        1
 44
0.0
173
     0
291
     1
 45
0.0
1001
ACAD
1000
AcDbSavedByObjectVersion
1070
     0
  0
VISUALSTYLE
  5
A3
102
{ACAD_XDICTIONARY
360
5E3
102
}
102
{ACAD_REACTORS
330
95
102
}
330
95
100
AcDbVisualStyle
  2

 70
    14
 71
     2
 72
     2
 73
     1
 90
        0
 40
-0.6
 41
-30.0
 62
     5
 63
     7
 74
     1
 91
        4
 64
     7
 65
   257
 75
     7
175
     7
 42
1.0
 92
        8
 66
     7
 43
1.0
 76
     1
 77
     6
 78
     2
 67
     7
 79
     5
170
     0
171
     0
290
     0
174
     0
 93
        1
 44
0.0
173
     0
291
     1
 45
0.0
1001
ACAD
1000
AcDbSavedByObjectVersion
1070
     0
  0
VISUALSTYLE
  5
171
102
{ACAD_XDICTIONARY
360
5EC
102
}
102
{ACAD_REACTORS
330
95
102
}
330
95
100
AcDbVisualStyle
  2

 70
    21
 71
     2
 72
     2
 73
     0
 90
        0
 40
-0.6
 41
-30.0
 62
     5
 63
     7
 74
     1
 91
        4
 64
     7
 65
   257
 75
     1
175
     1
 42
1.0
 92
        9
 66
     7
 43
1.0
 76
     1
 77
     6
 78
     2
 67
     7
 79
     5
170
     0
171
     0
290
     0
174
     0
 93
        1
 44
0.0
173
     0
291
     1
 45
0.0
1001
ACAD
1000
AcDbSavedByObjectVersion
1070
     0
  0
VISUALSTYLE
  5
9F
102
{ACAD_XDICTIONARY
360
5DB
102
}
102
{ACAD_REACTORS
330
95
102
}
330
95
100
AcDbVisualStyle
  2

 70
     8
 71
     2
 72
     3
 73
     0
 90
        2
 40
-0.6
 41
30.0
 62
     5
 63
     7
 74
     0
 91
        0
 64
     7
 65
   257
 75
     1
175
     1
 42
1.0
 92
        8
 66
   257
 43
1.0
 76
     1
 77
     6
 78
     2
 67
     7
 79
     3
170
     0
171
     0
290
     0
174
     0
 93
       13
 44
0.0
173
     0
291
     0
 45
0.0
1001
ACAD
1000
AcDbSavedByObjectVersion
1070
     0
  0
VISUALSTYLE
  5
17F
102
{ACAD_XDICTIONARY
360
5F8
102
}
102
{ACAD_REACTORS
330
95
102
}
330
95
100
AcDbVisualStyle
  2

 70
    27
 71
     2
 72
     2
 73
     1
 90
        2
 40
-0.6
 41
30.0
 62
     5
 63
     7
 74
     0
 91
        4
 64
     7
 65
   257
 75
     1
175
     1
 42
1.0
 92
        8
 66
   257
 43
1.0
 76
     1
 77
     6
 78
     2
 67
     8
 79
     3
170
     0
171
     0
290
     0
174
     0
 93
        5
 44
0.0
173
     0
291
     0
 45
0.0
1001
ACAD
1000
AcDbSavedByObjectVersion
1070
     0
  0
VISUALSTYLE
  5
17E
102
{ACAD_XDICTIONARY
360
5F6
102
}
102
{ACAD_REACTORS
330
95
102
}
330
95
100
AcDbVisualStyle
  2

 70
    26
 71
     2
 72
     2
 73
     1
 90
        2
 40
-0.6
 41
30.0
 62
     5
 63
     7
 74
     1
 91
       10
 64
     7
 65
   257
 75
     2
175
     1
 42
1.0
 92
        8
 66
   257
 43
1.0
 76
     1
 77
     6
 78
     2
 67
     7
 79
     3
170
     0
171
     0
290
     0
174
     0
 93
        5
 44
0.0
173
     0
291
     0
 45
0.0
1001
ACAD
1000
AcDbSavedByObjectVersion
1070
     0
  0
VISUALSTYLE
  5
17B
102
{ACAD_XDICTIONARY
360
5F0
102
}
102
{ACAD_REACTORS
330
95
102
}
330
95
100
AcDbVisualStyle
  2

 70
    23
 71
     2
 72
     2
 73
     3
 90
        0
 40
-0.6
 41
-30.0
 62
     5
 63
     7
 74
     2
 91
        2
 64
     7
 65
     7
 75
     1
175
     1
 42
40.0
 92
        8
 66
     7
 43
1.0
 76
     1
 77
     6
 78
     2
 67
     7
 79
     3
170
     0
171
     0
290
     0
174
     0
 93
        1
 44
0.0
173
     0
291
     0
 45
0.0
1001
ACAD
1000
AcDbSavedByObjectVersion
1070
     0
  0
VISUALSTYLE
  5
17C
102
{ACAD_XDICTIONARY
360
5F2
102
}
102
{ACAD_REACTORS
330
95
102
}
330
95
100
AcDbVisualStyle
  2

 70
    24
 71
     1
 72
     2
 73
     2
 90
        0
 40
-0.6
 41
-30.0
 62
     5
 63
     7
 74
     2
 91
        2
 64
     7
 65
     7
 75
     1
175
     1
 42
40.0
 92
       11
 66
     7
 43
1.0
 76
     1
 77
     6
 78
     2
 67
     7
 79
     6
170
     0
171
     0
290
     0
174
     0
 93
        1
 44
0.0
173
     0
291
     0
 45
0.0
1001
ACAD
1000
AcDbSavedByObjectVersion
1070
     0
  0
VISUALSTYLE
  5
A2
102
{ACAD_XDICTIONARY
360
5E1
102
}
102
{ACAD_REACTORS
330
95
102
}
330
95
100
AcDbVisualStyle
  2

 70
    13
 71
     2
 72
     2
 73
     1
 90
        0
 40
-0.6
 41
-30.0
 62
     5
 63
     7
 74
     1
 91
        4
 64
     7
 65
   257
 75
     1
175
     1
 42
1.0
 92
       12
 66
     7
 43
1.0
 76
     1
 77
     6
 78
     2
 67
     7
 79
     5
170
     0
171
     0
290
     0
174
     0
 93
        1
 44
0.0
173
     0
291
     1
 45
0.0
1001
ACAD
1000
AcDbSavedByObjectVersion
1070
     0
  0
VISUALSTYLE
  5
9C
102
{ACAD_XDICTIONARY
360
5D5
102
}
102
{ACAD_REACTORS
330
95
102
}
330
95
100
AcDbVisualStyle
  2

 70
     5
 71
     0
 72
     2
 73
     0
 90
        0
 40
-0.6
 41
-30.0
 62
     5
 63
     7
 74
     1
 91
        4
 64
     7
 65
   257
 75
     1
175
     1
 42
1.0
 92
        0
 66
   257
 43
1.0
 76
     1
 77
     6
 78
     2
 67
     7
 79
     3
170
     0
171
     0
290
     0
174
     0
 93
        1
 44
0.0
173
     0
291
     0
 45
0.0
1001
ACAD
1000
AcDbSavedByObjectVersion
1070
     0
  0
VISUALSTYLE
  5
17D
102
{ACAD_XDICTIONARY
360
5F4
102
}
102
{ACAD_REACTORS
330
95
102
}
330
95
100
AcDbVisualStyle
  2

 70
    25
 71
     2
 72
     2
 73
     1
 90
        1
 40
0.5
 41
-30.0
 62
     5
 63
     7
 74
     1
 91
        0
 64
     7
 65
   257
 75
     1
175
     1
 42
1.0
 92
        8
 66
     7
 43
1.0
 76
     1
 77
     6
 78
     2
 67
     7
 79
     3
170
     0
171
     0
290
     0
174
     0
 93
       13
 44
0.0
173
     0
291
     0
 45
0.0
1001
ACAD
1000
AcDbSavedByObjectVersion
1070
     0
  0
DICTIONARYVAR
  5
573
102
{ACAD_REACTORS
330
59
102
}
330
59
100
DictionaryVariables
280
     0
  1
60.000000
  0
DICTIONARYVAR
  5
EB
102
{ACAD_REACTORS
330
59
102
}
330
59
100
DictionaryVariables
280
     0
  1
1:1
  0
DICTIONARYVAR
  5
EA
102
{ACAD_REACTORS
330
59
102
}
330
59
100
DictionaryVariables
280
     0
  1
STANDARD
  0
DICTIONARYVAR
  5
AB
102
{ACAD_REACTORS
330
59
102
}
330
59
100
DictionaryVariables
280
     0
  1
STANDARD
  0
DICTIONARYVAR
  5
1B4
102
{ACAD_REACTORS
330
59
102
}
330
59
100
DictionaryVariables
280
     0
  1
Imperial24
  0
DICTIONARYVAR
  5
1B5
102
{ACAD_REACTORS
330
59
102
}
330
59
100
DictionaryVariables
280
     0
  1
Imperial24
  0
DICTIONARYVAR
  5
5A
102
{ACAD_REACTORS
330
59
102
}
330
59
100
DictionaryVariables
280
     0
  1
2
  0
DICTIONARYVAR
  5
5E
102
{ACAD_REACTORS
330
59
102
}
330
59
100
DictionaryVariables
280
     0
  1
1
  0
DICTIONARYVAR
  5
572
102
{ACAD_REACTORS
330
59
102
}
330
59
100
DictionaryVariables
280
     0
  1
0
  0
DICTIONARYVAR
  5
14A
102
{ACAD_REACTORS
330
59
102
}
330
59
100
DictionaryVariables
280
     0
  1
0
  0
DICTIONARYVAR
  5
14B
102
{ACAD_REACTORS
330
59
102
}
330
59
100
DictionaryVariables
280
     0
  1
0
  0
DICTIONARYVAR
  5
570
102
{ACAD_REACTORS
330
59
102
}
330
59
100
DictionaryVariables
280
     0
  1
2
  0
DICTIONARYVAR
  5
56F
102
{ACAD_REACTORS
330
59
102
}
330
59
100
DictionaryVariables
280
     0
  1
1
  0
DICTIONARYVAR
  5
571
102
{ACAD_REACTORS
330
59
102
}
330
59
100
DictionaryVariables
280
     0
  1
127
  0
DICTIONARYVAR
  5
5BF
102
{ACAD_REACTORS
330
59
102
}
330
59
100
DictionaryVariables
280
     0
  1
2
  0
DICTIONARY
  5
5C5
330
74
100
AcDbDictionary
280
     1
281
     1
  3
ACAD_XREC_ROUNDTRIP
360
5C6
  0
DICTIONARY
  5
5C7
330
79
100
AcDbDictionary
280
     1
281
     1
  3
ACAD_XREC_ROUNDTRIP
360
5C8
  0
DICTIONARY
  5
5C3
330
22
100
AcDbDictionary
280
     1
281
     1
  3
ACAD_XREC_ROUNDTRIP
360
5C4
  0
DICTIONARY
  5
185
330
93
100
AcDbDictionary
280
     1
281
     1
  3
ACAD_XREC_ROUNDTRIP
360
586
  3
FBXASSET
360
186
  0
DICTIONARY
  5
183
330
92
100
AcDbDictionary
280
     1
281
     1
  3
ACAD_XREC_ROUNDTRIP
360
585
  3
FBXASSET
360
184
  0
DICTIONARY
  5
10B
330
94
100
AcDbDictionary
280
     1
281
     1
  3
ACAD_XREC_ROUNDTRIP
360
587
  3
BUMPTILE
360
10D
  3
DIFFUSETILE
360
10C
  3
FBXASSET
360
187
  3
OPACITYTILE
360
10E
  3
REFLECTIONTILE
360
10F
  0
DICTIONARY
  5
FF
330
A7
100
AcDbDictionary
280
     1
281
     1
  3
ACAD_ROUNDTRIP_2008_TABLESTYLE_CELLSTYLEMAP
360
5C0
  3
ACAD_XREC_ROUNDTRIP
360
5E9
  0
DICTIONARY
  5
5D3
330
9B
100
AcDbDictionary
280
     1
281
     1
  3
ACAD_XREC_ROUNDTRIP
360
5D4
  0
DICTIONARY
  5
5D1
330
9A
100
AcDbDictionary
280
     1
281
     1
  3
ACAD_XREC_ROUNDTRIP
360
5D2
  0
DICTIONARY
  5
5DF
330
A1
100
AcDbDictionary
280
     1
281
     1
  3
ACAD_XREC_ROUNDTRIP
360
5E0
  0
DICTIONARY
  5
5E7
330
A5
100
AcDbDictionary
280
     1
281
     1
  3
ACAD_XREC_ROUNDTRIP
360
5E8
  0
DICTIONARY
  5
5D9
330
9E
100
AcDbDictionary
280
     1
281
     1
  3
ACAD_XREC_ROUNDTRIP
360
5DA
  0
DICTIONARY
  5
5DD
330
A0
100
AcDbDictionary
280
     1
281
     1
  3
ACAD_XREC_ROUNDTRIP
360
5DE
  0
DICTIONARY
  5
5EE
330
172
100
AcDbDictionary
280
     1
281
     1
  3
ACAD_XREC_ROUNDTRIP
360
5EF
  0
DICTIONARY
  5
5E5
330
A4
100
AcDbDictionary
280
     1
281
     1
  3
ACAD_XREC_ROUNDTRIP
360
5E6
  0
DICTIONARY
  5
5C9
330
96
100
AcDbDictionary
280
     1
281
     1
  3
ACAD_XREC_ROUNDTRIP
360
5CA
  0
DICTIONARY
  5
5CB
330
97
100
AcDbDictionary
280
     1
281
     1
  3
ACAD_XREC_ROUNDTRIP
360
5CC
  0
DICTIONARY
  5
5CD
330
98
100
AcDbDictionary
280
     1
281
     1
  3
ACAD_XREC_ROUNDTRIP
360
5CE
  0
DICTIONARY
  5
5CF
330
99
100
AcDbDictionary
280
     1
281
     1
  3
ACAD_XREC_ROUNDTRIP
360
5D0
  0
DICTIONARY
  5
5D7
330
9D
100
AcDbDictionary
280
     1
281
     1
  3
ACAD_XREC_ROUNDTRIP
360
5D8
  0
DICTIONARY
  5
5EA
330
170
100
AcDbDictionary
280
     1
281
     1
  3
ACAD_XREC_ROUNDTRIP
360
5EB
  0
DICTIONARY
  5
5E3
330
A3
100
AcDbDictionary
280
     1
281
     1
  3
ACAD_XREC_ROUNDTRIP
360
5E4
  0
DICTIONARY
  5
5EC
330
171
100
AcDbDictionary
280
     1
281
     1
  3
ACAD_XREC_ROUNDTRIP
360
5ED
  0
DICTIONARY
  5
5DB
330
9F
100
AcDbDictionary
280
     1
281
     1
  3
ACAD_XREC_ROUNDTRIP
360
5DC
  0
DICTIONARY
  5
5F8
330
17F
100
AcDbDictionary
280
     1
281
     1
  3
ACAD_XREC_ROUNDTRIP
360
5F9
  0
DICTIONARY
  5
5F6
330
17E
100
AcDbDictionary
280
     1
281
     1
  3
ACAD_XREC_ROUNDTRIP
360
5F7
  0
DICTIONARY
  5
5F0
330
17B
100
AcDbDictionary
280
     1
281
     1
  3
ACAD_XREC_ROUNDTRIP
360
5F1
  0
DICTIONARY
  5
5F2
330
17C
100
AcDbDictionary
280
     1
281
     1
  3
ACAD_XREC_ROUNDTRIP
360
5F3
  0
DICTIONARY
  5
5E1
330
A2
100
AcDbDictionary
280
     1
281
     1
  3
ACAD_XREC_ROUNDTRIP
360
5E2
  0
DICTIONARY
  5
5D5
330
9C
100
AcDbDictionary
280
     1
281
     1
  3
ACAD_XREC_ROUNDTRIP
360
5D6
  0
DICTIONARY
  5
5F4
330
17D
100
AcDbDictionary
280
     1
281
     1
  3
ACAD_XREC_ROUNDTRIP
360
5F5
  0
XRECORD
  5
5C6
102
{ACAD_REACTORS
330
5C5
102
}
330
5C5
100
AcDbXrecord
280
     1
102
SHADEPLOT
 70
     0
102
SHADEPLOTRESLEVEL
 70
     2
102
SHADEPLOTCUSTOMDPI
 70
   300
  0
XRECORD
  5
5C8
102
{ACAD_REACTORS
330
5C7
102
}
330
5C7
100
AcDbXrecord
280
     1
102
SHADEPLOT
 70
     0
102
SHADEPLOTRESLEVEL
 70
     2
102
SHADEPLOTCUSTOMDPI
 70
   300
  0
XRECORD
  5
5C4
102
{ACAD_REACTORS
330
5C3
102
}
330
5C3
100
AcDbXrecord
280
     1
102
SHADEPLOT
 70
     0
102
SHADEPLOTRESLEVEL
 70
     2
102
SHADEPLOTCUSTOMDPI
 70
   300
  0
XRECORD
  5
586
102
{ACAD_REACTORS
330
185
102
}
330
185
100
AcDbXrecord
280
     1
102
MATERIAL
148
0.0
149
0.0
149
0.0
 93
        0
 94
      127
282
     0
 72
     1
 77
     1
171
     1
175
     1
179
     1
273
     0
  0
XRECORD
  5
186
102
{ACAD_REACTORS
330
185
102
}
330
185
100
AcDbXrecord
280
     1
 70
     1
 90
429727718
  1
7581DE8E-A623-425F-9BF4-B3F4BE6C4F9A
310
504B03040A0000080000AC70623B3DEE336E79000000790000001B0000006175746F6465736B2D64657369676E2D7061636B6167652E786D6C3C3F786D6C2076657273696F6E3D22312E302220656E636F64696E673D227574662D3822203F3E3C666F726D6174733E3C666F726D61743E687474703A2F2F736368656D612E
310
6175746F6465736B2E636F6D2F64657369676E2D7061636B6167652F323030393C2F666F726D61743E3C2F666F726D6174733E504B0304140006080800AC70623BD486FD9CA0000000F4000000130000005B436F6E74656E745F54797065735D2E786D6C7D8EC10E82300C865F65E91D8A1E8C310C0EEA1BF002731658846E
310
D98AC1B77784ABF1D8FE5FBFBF75BBCE937A534CCEB38643598122B6FEE978D0B0485F9C41B54DDD7D022595594E1A469170414C76A4D9A4D207E29CF43ECE46F218070CC6BECC4078ACAA135ACF422C856C0E68EA1BF5669944DDD7BCDE7B1F8E415D77AECB980613C2E4AC91FC167A2B244592486606FC29C8FD7F045B9A
310
EF7053A7E60B504B0304140006080800AC70623B9A2F3B5FEC0000007C01000008000000636F72652E786D6C8D90416E83301045AF62CDB632D8040820E328B4E204BD80653BC44AB011B6AB1EBF262152BBEB6A467FFE9B197D76FA9EEFE84BAFDE38DB03CD08206DA553C64E3DC470C10DA01367AB73E1970D9015B3EE61
310
9381B3697571D925E96CD03624D53AA5775178AF0320794F4D0F5E5EF52C32114372F85BB608791393CEE8AB4B708C46A1E711A3D23E73317A055E0D4D53D6C71A9FC7A1C6657D18703354232ECFED4731B6B43CBED72CDF60CE82995FF7E5AA45D00A7841488B29C5A4F8A46547AAAEA8DE48D311C2F2CDFE078A8BFA2714
310
8D0D87627FF78979E0343DF21870966F59A4F2082AD52D37FE03504B0304140006080800AC70623B55019EA25F0000007C00000007000000636E782E786D6C4DCB3B0E80201045D1AD90E915ED2CF8AC45050C11660C8261F98AB1B07AC9C97D42D718D865D3E909258CFD00CCE24AC6E326A164D74DC0B4128928FF326038
310
472BA13128B1252AC747C6BAB984FC68F0B87FE8960A5C09FE86CFB69FBA01504B0304140006080800AC70623B6E137E0172010000D40300000C0000006662782F636F72652E786D6CC5535B6E833010BC8AE5DF0A6C0810121947A1554ED00B38E05014B091B1518EDFE511A5A9D22AFD2A1F60CDEC7A67C698ED2E6D8306
310
69FA5AAB0C073EC548AA4297B5AA32ECECC94B31DA7166B4B65FCA3052A295191E61CC5965B4EB16A8D0CA4A650155BA940B28FA5E5A8C8A061619EE8B0FD90A5F380B15FDD9EF44711695F4031F68A8E3ACB70604A079C8F8C6FC74BC3032E39C3957970B5B9730AD3ED5D2601EE7691A25EBC4DB1FF2C48B9255EEA5797C
310
F0A2FDE62D3C6C8268FD9A3032367366EBF6AAAE30525859621E52BAF182C0A3E17B106D69BC0DE3179A6E2965642CBF6B725DF96493AB955D858BDCB9ADC73C002113F1CD2D4464512F06D04338236388F09912BE0F1A028190AD3836571F67800659586D22604AED6ED4201A27612AF5E9F4A09F178CCC9D3075DA1C5C3F
310
9C113E3DE3F71DE1A885AAC084B0B03C3A3BEA64B38625B44E1A6FB017A4B46945F39C8D5F1CFE89BA897F28A9D08D36FFA5882C074496DF838CF7917F02504B0304140006080800AC70623BE001BAC07D0000009D0000000B0000006662782F636E782E786D6C4DCCD10AC2201886E15B91FFDCA6536B037548D87D8CE686
310
E4344CA3CB6F8B1D74F4C1C3C72B87CF1AD0DBE5974F51013D11402EDED3E4E3A2A096197780062D734AE5EF06288EAB53B03368B9E4549F074D6E1E6B289B061F1F07124689687987B9601C7373BD60C36E065B6A6DDF7341A93843A365F32B6DBB87F517504B0304140006080800AC70623B8E5068122901000012020000
310
310000006662782F30333130353234382D343533342D344143372D413346412D4531454539393435313135362F636F72652E786D6C8D515B6EC32010BC0AE22B55850D364E93081345557A825E801892A2C460F1A872FC2EB523B57FF961D1EECCECECAED8DFC71BFA36215AEF7ACC2A8A917183D7D65D7A9CD3996C30DA4B
310
11BC4F7F601839359A1E973496E2127C9E96D4E05D322E41D6796D96A48AD1248C861B7C7A1C872F33AA4AE5048878AD26355CD5C554AC8232E0A4882980013437292F96B465B46BF886F0AEE5841FDEDFC8A1FD3890233B1EB75BDE31D6AD453D13A5C8D9EA856E35D8B1676BC2B322852C45B2E3C3FE108C4A4663D950BA
310
258C11DA7C32BEA3DDAEE95EE96647A9A80BFC1F294FFA4952B62EB5CD6277A6452C99A8E78214DAE7D3ED61C6DC271F122AFD56D10C2F305545CB6A60FC1908E383E29A2F8A31F900EB5D5D4F8065DD2CBBE652D4E542107ECF07B15C53FE00504B0304140006080800AC70623B503B51794E010000330300003000000066
310
62782F30333130353234382D343533342D344143372D413346412D4531454539393435313135362F636E782E786D6CD593C16EC32010447F0571AD6CE3D489D20813A9877E410FBD62D82434182CC055F3F75D1292E692438FBD206B7698593D61BEFD1E2DF982108D773D6D6B460938E5B571FB9ECE6957AD29D90A1EBC4F
310
77364A9C1CA1A759A682EF839FA72269D8C9D92654AD71C72206887E0E0A22CAF926B15E498B01E0AA19451807D01A34B919F16B070157417138917400F2F6FA41FCF0092A45DEE414C19BDC21783E4BD39D891265658C3D8DEA00A3ACE59CBC8678ACB54CB26EEB6BD7839D7E9348BE70AD9C8321B9BCA7F9A4A26C542347
310
DEE050F09802D22BA6749A800A394DD62899107273365E3C82CFC6A55557BC06C10774B7ABE7AEC3B0F34CF06446280E154026D0542C187BA9DAB6628BF7B6DBB0E566B17C62EB0D63BCC976C107EF6DB9843110FC449477095CA2A2E54D1E3FC2577C449B80AC7D38FD01240228AD173AB78CFFCCA739BF6FC415F02F103F
310
504B0304140006080800AC70623B38FA165F680500003C100000340000006662782F30333130353234382D343533342D344143372D413346412D4531454539393435313135362F6F626A656374732E786D6CAD575D6FA33814FD2B887D0E8424EDB42BCAA8499A2A1A756634D18CF6A15264C0A16CC146B6E9A4FBEBF7180C
310
019276B21F7908D8D8F7F3DCE36BFFE33ECFAC172A64CAD98DED3963DBA22CE271CA921BBB54BBD1956D7D0C7CC1B9EA2CB32D46727A63EB693BF013C1CBC24CC57447CA4C0D6657F33F2C1951466D2BCA889437B68C9E684E1C522A1E53F9ECC4441127D9ED1DCFA917F6C52682144F03A105119429588A790629566D94D7
310
1F8E6D37F05DFD3DF0F5BF59357D7B955BF9D3D79F32A9088B8E940DC44CBDD9F26E72713DBA98CDA6A3D9E5C41BCD57F3E5C8FB301D2F2E178BEBDBBB6B28964A4092B144D09D1DDC2336228D7CB7FED45A6C0C3F6552C419A351E53F3CAC6C3612635A5016238F2995D0D6F17ADC1F7A3A369DCF533D362ABBD3E779D5DD
310
D111D4D8DE3CBB96F2F04FB820CF41859054A3AA8E8F71B4C6DFF810B590F3CC7C4BA5951345454A322B4B4341C4AB1D60A95E12F83D311A9D42235C7B6007DE415ED75694C6AFB17BCACA5D99651A9A7650217B0BFC53252BCBD2BFA838AD0D36215765CAD4957148BD16D40EAE7DB79A0C7CFD984ECCC73A90D62E230952
310
0E37EBAF034717BAF6D64B3BF8B40AF71B5D8FA79517821754280D1F40AB495CF3D451326ABDB332A737C0995ECC0F41F986C87F46F91E4C41DE44BA9FED67468B1284C91D173972E38CAB9F356E5E46EDDBF10BF86CB0FA784D3BF3AF16FB6E6B6C9F30DECA1FC0A55373F5DFF3D78F5917A99DF405FE0B0A8C8BA909E526
310
2219A8E72165488806A595714C81CB77E1DE0ED6604A303B76912C680372F4E2BB2FF88EFF5A36D8AA52DF79322474C0B767303F625995056C7B032C473C592936CEBD15F38BFFA5666E979B4F9B52EC48441F0CB12CE92E65A9C2D979006FD7A05E227A1E3DD3D79F5CC470F438099B6E1272A34A22DA3AE63AF0497358E8
310
C141734F41847D09D79CE7FF42C3432A239A6584515E365ADA634863B52519D327A00AEB804E2703140BFA92EA4EA2B7A26716CEFA48A4850E597BE8B53CEDBCE1CBF7F56780D20EE6AF73A0F5F9B02A3CD07DC4332EB6E1EBB666421BE0C39E3EBA7FF4E16D22EA6A29407C85E586724C88B771BADB9512BC7B228A3FD68B
310
6EA65A22397E690AA8D158D7E40CEC8CDA23C2C0B7D1898640101CEC9C6D531CE328CB93CABBBA870A6425F70DF96199175B92F392A973C2346EFC69AC6F8577BB18F993A8E8C90E36D573340765C7343EA4AA87027D049DF0A9979E0F1757DEF2EEEA6E747B39412B35B9588DAEE7ABD9683E5DCDE677978BD9EAFAB6B5A8
310
B224F09B13AA5B8388264E44BF14A909F3F7F5A16CEDE08128E9DED705E526F5F3FBDA415BECBBD80380B71BD77991D19C3245347C1FF44BF68DA0ABE8C9A8E7D73949E81952BEDC6F063660E68C7D5F75A9D19F83BD6676A16BE1A410F554E621236936D8681C770A9618B79B50B6CF9AD19BA11E9978A20F953C4B63104E
310
6C2594E7548176CE607B915309C474BBF2D8DC1ECED8FD52F7838A84196D2C79226889330954036E65A4FAF3D66F68E174177563E3B0739EF1670AD1B690EA1B1BFCA6D2884A27C4F1A81B9F4A3820802EAC2541408DB02443675D6F6AC7ED2E1D1BD00F4E40A3BF5D724EB764FCEA116F4E8A02A7768F562BDB8C82E81F39
310
DE98631185D7B054AD2F8789D6994A0D2AAB76CADC0DD0423C1BD57BD4D7FB6E794EB5A61791B3EE49EF82A0963A524424D5BD40DB674CBA5D7E75D10A58EB2F569195097279BEA491A00073A90B1C28022A8CCC82284075F1FBE357C17117CDAD550A083C2E789E736606B7E62E6B6D9E70338D1F410B545F3FE464EC798F
310
55D76F2E22DB9048EA90583E63A22938EDC1006B00E4D1716A52E0EA1C0C96AF9796393066105A81F6A829ADAFE1168A47DF1C75A974C9B278B7F177ABA5008340CB1EFC0D504B0304140006080000AC70623B000000000000000000000000350000006662782F30333130353234382D343533342D344143372D413346412D
310
4531454539393435313135362F76657274696365732E62696E504B0304140006080800AC70623BF270F1330600000004000000360000006662782F30333130353234382D343533342D344143372D413346412D4531454539393435313135362F747269616E676C65732E62696E636660600000504B0304140006080000AC70
310
623B000000000000000000000000370000006662782F30333130353234382D343533342D344143372D413346412D4531454539393435313135362F617474726962757465732E62696E504B0304140006080800AC70623B08DA0BD19000000041010000360000006662782F30333130353234382D343533342D344143372D41
310
3346412D4531454539393435313135362F6469726563746F72792E786D6C858F410AC3201045AF22B36F53E9A60B35CBEEBAE80D244E44489C6234F4F835464A48035D0DF398FF9F8AF63D0E6CC63039F212F8F9020C7D47C6792B21C5FE7403D62A1188E2E60C98D7234A5830286103A55745067B9D86B8A3CF9C7F90C11D
310
E607FB144396D7B6A82D282E9A152AD114D5EF2CB866EEE831B8EEA07A7BB5A8D7D61A2BAAEB7FD5F70921FF497D00504B0304140006080800AC70623BF2C5666EFF000000A00100003B0000006662782F30333130353234382D343533342D344143372D413346412D4531454539393435313135362F7265736F7572636573
310
2F636F72652E786D6C8D504B6E833010BD0A9A6D65B00910888CA3D02A27E8052C33A156821DF953F5F8B5132AB5BB6E6646EFA3797AFCF8B5DE8A4F745E5B33022B291468949DB5594688E1427A288E823B6BC32F191446AE38428641F0C5D978DF20654D4013126AEC8C1B28BDC70085BAA56304AF3E7095A58C2129FCB5
310
BC4B75950B96AC4C74D209EE834B018AE7933C4138F4363A859E574F56F018F5BC69F49C7EEA8B4607A29DFABEE9F62D399DA78E34DD6E22FDD49E49731ADEEAF3C09AFD6BC7AB6C163CE8F527A3722803CE206A4A07C218A1F53B6B0EB43DD4ED0BED0F94F22ACBFF98E27DFEA7296A1376F516F769F320580AF22004AF72
310
5F693DCA4C3B772BBE01504B010214000A0000080000AC70623B3DEE336E79000000790000001B00000000000000000000000000000000006175746F6465736B2D64657369676E2D7061636B6167652E786D6C504B01021400140006080800AC70623BD486FD9CA0000000F40000001300000000000000000000000000B200
310
00005B436F6E74656E745F54797065735D2E786D6C504B01021400140006080800AC70623B9A2F3B5FEC0000007C010000080000000000000000000000000083010000636F72652E786D6C504B01021400140006080800AC70623B55019EA25F0000007C000000070000000000000000000000000095020000636E782E786D
310
6C504B01021400140006080800AC70623B6E137E0172010000D40300000C00000000000000000000000000190300006662782F636F72652E786D6C504B01021400140006080800AC70623BE001BAC07D0000009D0000000B00000000000000000000000000B50400006662782F636E782E786D6C504B010214001400060808
310
00AC70623B8E506812290100001202000031000000000000000000000000005B0500006662782F30333130353234382D343533342D344143372D413346412D4531454539393435313135362F636F72652E786D6C504B01021400140006080800AC70623B503B51794E010000330300003000000000000000000000000000D3
310
0600006662782F30333130353234382D343533342D344143372D413346412D4531454539393435313135362F636E782E786D6C504B01021400140006080800AC70623B38FA165F680500003C10000034000000000000000000000000006F0800006662782F30333130353234382D343533342D344143372D413346412D4531
310
454539393435313135362F6F626A656374732E786D6C504B01021400140006080000AC70623B0000000000000000000000003500000000000000000000000000290E00006662782F30333130353234382D343533342D344143372D413346412D4531454539393435313135362F76657274696365732E62696E504B01021400
310
140006080800AC70623BF270F133060000000400000036000000000000000000000000007C0E00006662782F30333130353234382D343533342D344143372D413346412D4531454539393435313135362F747269616E676C65732E62696E504B01021400140006080000AC70623B0000000000000000000000003700000000
310
000000000000000000D60E00006662782F30333130353234382D343533342D344143372D413346412D4531454539393435313135362F617474726962757465732E62696E504B01021400140006080800AC70623B08DA0BD1900000004101000036000000000000000000000000002B0F00006662782F30333130353234382D
310
343533342D344143372D413346412D4531454539393435313135362F6469726563746F72792E786D6C504B01021400140006080800AC70623BF2C5666EFF000000A00100003B000000000000000000000000000F1000006662782F30333130353234382D343533342D344143372D413346412D453145453939343531313536
310
2F7265736F75726365732F636F72652E786D6C504B0506000000000E000E0080040000671100000000
  0
XRECORD
  5
585
102
{ACAD_REACTORS
330
183
102
}
330
183
100
AcDbXrecord
280
     1
102
MATERIAL
148
0.0
149
0.0
149
0.0
 93
        0
 94
      127
282
     0
 72
     1
 77
     1
171
     1
175
     1
179
     1
273
     0
  0
XRECORD
  5
184
102
{ACAD_REACTORS
330
183
102
}
330
183
100
AcDbXrecord
280
     1
 70
     1
 90
429727718
  1
778E3A9F-1AF3-452F-85C1-1BC15BD3F630
310
504B03040A0000080000AC70623B3DEE336E79000000790000001B0000006175746F6465736B2D64657369676E2D7061636B6167652E786D6C3C3F786D6C2076657273696F6E3D22312E302220656E636F64696E673D227574662D3822203F3E3C666F726D6174733E3C666F726D61743E687474703A2F2F736368656D612E
310
6175746F6465736B2E636F6D2F64657369676E2D7061636B6167652F323030393C2F666F726D61743E3C2F666F726D6174733E504B0304140006080800AC70623BD486FD9CA0000000F4000000130000005B436F6E74656E745F54797065735D2E786D6C7D8EC10E82300C865F65E91D8A1E8C310C0EEA1BF002731658846E
310
D98AC1B77784ABF1D8FE5FBFBF75BBCE937A534CCEB38643598122B6FEE978D0B0485F9C41B54DDD7D022595594E1A469170414C76A4D9A4D207E29CF43ECE46F218070CC6BECC4078ACAA135ACF422C856C0E68EA1BF5669944DDD7BCDE7B1F8E415D77AECB980613C2E4AC91FC167A2B244592486606FC29C8FD7F045B9A
310
EF7053A7E60B504B0304140006080800AC70623BFD5588D4EC0000007C01000008000000636F72652E786D6C8D90416EC3201045AF82665B6103891DC7C24471939CA01740405C94182C03558F5F9C3852BBEB6A467FFE9B197D7EF81EEFE8CBCCC17AD7012D0820E394D7D60D1DA478C50DA083E0B3F7F1970D9093A3E960
310
9141F061F6695A25E55D342E66D5796D56518660222075CF4D07417D9A511632C5EC08B76292EA260753D05797E194AC46CF2356E77DF66ACD0C62C768BD63971E5727D2E06DDF9C71BF7B3FE10BABF79BFA488FE4DCF07281058F767CDD57B391D168108C903DA61413F641B72DA95A56BD91A62584978BFD0F9426FD4F28
310
5917376C7DF7890510343FF218085E2E59E4F2082AD72537F103504B0304140006080800AC70623B55019EA25F0000007C00000007000000636E782E786D6C4DCB3B0E80201045D1AD90E915ED2CF8AC45050C11660C8261F98AB1B07AC9C97D42D718D865D3E909258CFD00CCE24AC6E326A164D74DC0B4128928FF326038
310
472BA13128B1252AC747C6BAB984FC68F0B87FE8960A5C09FE86CFB69FBA01504B0304140006080800AC70623BB5D38BAD72010000D40300000C0000006662782F636F72652E786D6CC553DB8E823014FC95A6AF1B68C11B9A52A3AB7EC1FE4085CA36424B4A4BFCFC3D5C8CEBC635EED3F200CDCC393D3353CAD697AA44AD
310
B48D323AC5514831923A33B9D2458ABD3B0509466BCEAC31EE5B19465A5432C51D8C392BACF1F50865463BA91DA0DAE4720445D348875156C222C54DF6292B110AEFA0A23987B5C8CEA2906114020D759C35CE8200340CE9DE989F8E1746069C33EF553EB22A8769EAA4A4C57C1147F3457CD806B31D4D82E936D907DBC5FB
310
2E38C4F3E564BE8936749F30D23573E65475559759299CCC318F295D065114D0F8239AAEE86C15CFDE68B2A29491AEFCAEC9D7F98B4D5E69378947B9435B837904427AE2875B88C8A146B4A0877046BA10E1D3277C1F340402213B712CAF3ECE00B53273C64E81C98DBF51AD28BD84A934A4FD837E5F303274C2D47E7370FD
310
7046FCF28CE73BC2510B5D8009E16079F4AED3C9060D6368B5B441EB2E481B5B89F2351B4F1CFE89BA897F282933A5B1FFA5888C0744C6DF8374F7917F01504B0304140006080800AC70623B09885E1C7E0000009D0000000B0000006662782F636E782E786D6C4DCCDF0A83201C86E15B91DFB9CBA6FD11D41063F711CB42
310
663A9C8E5DFE6A74B0A30F1E3E5E317C368FDE36BD5C0C12EA0B0164C33DCE2EAC124A5E700F685022C598FF6E80C2B459090783126B8AE579D26C97A9F8BCAB77E17122E586D5843498B3EE8699D114F39E5E713D76EDA84DCBB569A052A2FA95F63DC2EA0B504B0304140006080800AC70623B961D28872A010000120200
310
00310000006662782F33394334313030352D393437462D344341332D393833322D3144373644414336394143352F636F72652E786D6C8D515B6EC32010BC8AC557AA0A1BFC4A1C61A2C8514FD00B10435294182C1E558EDFA576A4F62F3F80666766875D76784CF7EC5B39AFADE911CD09CA9419ADD4E6DAA3182E7887B203
310
67CEDAF08786322326D5A30423CEAECEC67985466B8232015063A55A41E1BD0A281BEFF0E8911FBFD42472110330FC2D9FC578135795D31CCAC0E3CC070701B2A5493A11AFBAA1A68434B8ABB71FB81E8E15EE765589E969DB9E8E43DB1D8786158B90B318B55CE55A421C7DD1CABD6A92C49C053D3DE38F4E89A024E22521
310
1DA61493F293D67BD2ECCBE69DECF684B022D1FF89E22C5F14456D4255AE711799479CB2622970266D3CDF9F61D463B62E64A9DFC6ABF10D7192C35CCA0A040B11BE0F8E6DBD3AFA601D8C77733B0397C290926D5B7356A40DC1F5BB3EB8D336F90F504B0304140006080800AC70623B503B51794E01000033030000300000
310
006662782F33394334313030352D393437462D344341332D393833322D3144373644414336394143352F636E782E786D6CD593C16EC32010447F0571AD6CE3D489D20813A9877E410FBD62D82434182CC055F3F75D1292E692438FBD206B7698593D61BEFD1E2DF982108D773D6D6B460938E5B571FB9ECE6957AD29D90A1E
310
BC4F77364A9C1CA1A759A682EF839FA72269D8C9D92654AD71C72206887E0E0A22CAF926B15E498B01E0AA19451807D01A34B919F16B070157417138917400F2F6FA41FCF0092A45DEE414C19BDC21783E4BD39D891265658C3D8DEA00A3ACE59CBC8678ACB54CB26EEB6BD7839D7E9348BE70AD9C8321B9BCA7F9A4A26C54
310
2347DEE050F09802D22BA6749A800A394DD62899107273365E3C82CFC6A55557BC06C10774B7ABE7AEC3B0F34CF06446280E154026D0542C187BA9DAB6628BF7B6DBB0E566B17C62EB0D63BCC976C107EF6DB9843110FC449477095CA2A2E54D1E3FC2577C449B80AC7D38FD01240228AD173AB78CFFCCA739BF6FC415F02F
310
103F504B0304140006080800AC70623B2EA4D28F640500003C100000340000006662782F33394334313030352D393437462D344341332D393833322D3144373644414336394143352F6F626A656374732E786D6CAD575D739B3814FD2B0CFB6C30B1D3263B844E6CC71D4F376DA79E76F621331E01326103122389C4E9AFDF
310
231018B09D7A3FFC609090EEE7B94757FE875D9E59CF54C894B31BDB73C6B64559C4E394253776A9B6A32BDBFA10F88273D559665B8CE4F4C6D6D376E027829785998AE99694991ACC2E677F5A32A28CDA569411296F6C193DD29C38A4543CA6F2C98989224EB2DD399E532FEC8B4D04291E07420B222853B014F30C52ACDA
310
28AF3F1CDB6EE0BBFA7BE0EB7FB36A727A955BF9D3D79F32A9088B0E940DC44CBCE9E2EEE2F27A74399D4E46D37717DE68B69C2D46DEFBC978FE6E3EBFBEBDBB8662A90424194B04DDDAC147C446A491EFD69F5A8B8DE1C74C8A386334AAFC878795CD46624C0BCA62E431A512DA3A5E8FFB434FC7A6F379A2C7466577FA3C
310
AFBA3B3A821ADB9B67D7521EFE0517E439A810926A54D5F1318ED6F81BEFA316729E996FA9B472A2A84849666569288878B5032CD54B02BF2746A35368846B0FECC0DBCBEBDA8AD2F835768F59B92DB34C43D30E2A646F807FAA646559FA938AE3DA60137255A64C5D1987D46B41EDE0DA77ABC9C0D78FC985F95807D2DA66
310
2441CAE166FD75E0E85CD7DE6A61079F96E16EADEBF1B8F242F0820AA5E1036835896B9E3A4A46AD7756E6F40638D38BF93E28DF10F9CF28DFBD29C89B4877D3DDD468518230B9E522476E9C71F5B3C6CDCBA87D3B7C019F0D561FAE6967FED562DF6D8DED13C6A9FC015C3A3557FF3D7FFD987591DA495FE03FA3C0B89898
310
50AE2392817AEE53868468505A19C714B87C1BEEEC6005A604B36317C9823620072FBEFB8CEFF8AF6583AD2AF59D274342077C7B06F323965559C0B6136039E0C94AB171EE54CC2FFF979AB95DAC3FAD4BB12511BD37C4B2A0DB94A50A67E71EBC5D837A89E879F4445F5FB888E1E86112D6DD24E4469544B475CC75E093E6
310
B0D083BDE69E8208FB12AE39CFFF8586FB544634CB08A3BC6CB4B4C790C66A4B32A64F4015D6019D5C0C502CE873AA3B89DE8A9E5938EB2391163A64EDA1D7F2B473C297EFABCF00A51DCC5EFF20AF5DC20CF7741FF18C8B4DF8BAA999D006F8B0A78FEE1F7D789B88BA5A0A105F61B9A11C13E24D9C6EB7A504EF1E89E28F
310
D5BC9BA996480E5F9A026A34D63539053BA3F68830F06D74A2211004073B679B14C738CAF2A8F2AEEEA10259C93D213F2CF36243725E32754E98C68D3F8DF5ADF06E17235F888A1EED605D3D473350764CE31309D547D0119F7AE979FFFEEA6E727BBD1C79B74BB4529717CBD1D5E5DC1B79B3B977395B4C96EF2638E6FA15
310
D09C50DD1A44347122FAA5484D98BFAFF6656B07F74449F7635D506E523FBFAF1CB4C5BE8B3D0078BB71951719CD295344C3F75EBF64DF08BA8A9E8C7A7E9593849E21E5CBC7F5C006CC9CB1EFAB2E35FA32D86B66E7BA168E0A518F651E329266838DC671A7608971BB0965FBAC19BD19EA918927FA50C9B33406E1C45642
310
794E1568E70CB6173995404CB72B8FCDEDE18CDDCF753FA84898D1C6924782963893403548A78C547FDEFA0D2D9CEEA26E6C1C76CE13FE4C21DA16527D6383DF541A51E984381E75E353090704D085B52408D0139664E8ACEB4DEDB8DDA56303FAC10968F4B74BCEE9968C5F3DE2CD4951E0D4EED16A659B5110FD23C71B73
310
2CA2F01A96AAF5653FD13A53A909C03570A77DA0857832AA77A8AFB7DDF29C6A4D2F2267DD93DE04412D75A48848AA7B810EBA31E976F1D5452B60ADBE58455626C8E5F992468202CCA52E70A008A830320BA200D5F9EF0F5F05C75D34B7962920F030E779CE9919DC9ABBACB57EC4CD347E002D507DFD901763CF7BA8BA7E
310
7311D984445287C4F209134DC1690F065803200F8E53733D73750E06CB570BCB1C185308AD407BD094D6D7700BC5A36F8EBA54BA6459BCD9F8BBD552A040A0650FFE06504B0304140006080000AC70623B000000000000000000000000350000006662782F33394334313030352D393437462D344341332D393833322D3144
310
373644414336394143352F76657274696365732E62696E504B0304140006080800AC70623BF270F1330600000004000000360000006662782F33394334313030352D393437462D344341332D393833322D3144373644414336394143352F747269616E676C65732E62696E636660600000504B0304140006080000AC70623B
310
000000000000000000000000370000006662782F33394334313030352D393437462D344341332D393833322D3144373644414336394143352F617474726962757465732E62696E504B0304140006080800AC70623B08DA0BD19000000041010000360000006662782F33394334313030352D393437462D344341332D393833
310
322D3144373644414336394143352F6469726563746F72792E786D6C858F410AC3201045AF22B36F53E9A60B35CBEEBAE80D244E44489C6234F4F835464A48035D0DF398FF9F8AF63D0E6CC63039F212F8F9020C7D47C6792B21C5FE7403D62A1188E2E60C98D7234A5830286103A55745067B9D86B8A3CF9C7F90C11DE607
310
FB144396D7B6A82D282E9A152AD114D5EF2CB866EEE831B8EEA07A7BB5A8D7D61A2BAAEB7FD5F70921FF497D00504B0304140006080800AC70623B95BFD5E5FE000000A00100003B0000006662782F33394334313030352D393437462D344341332D393833322D3144373644414336394143352F7265736F75726365732F63
310
6F72652E786D6C8D50596E833010BD0A9ADFCA603B1B41C611699213F40296992456828DBC543D7E4DA052FBD79F99D15B344F4F1CBE8667F1893E18675B60258502AD76BDB1B71652BC921A8A8314DEB9F84B06855503B630C120C5CDBB342E907636A28D19B5AEC70554216084423FF3D142D0771C54A952CC8AF02847A5
310
1FEA86252B339D755284E87380627E324D901E834B5E6310D5CC4A9192E9178DE9F34F7335E841EE38DBEEF8A5239B13ADC9FA589FC971F77E2217BEDDAFB61DEBE8B916D56496229AE127A3F6A822F62039A57BC218A1FC83AD1BBA69F8E68DD60DA5A29AE47F4C69ECFF694AC6C6155FE2CEB60092E5202F428A6AEA2BAF
310
5799794FDDCA6F504B010214000A0000080000AC70623B3DEE336E79000000790000001B00000000000000000000000000000000006175746F6465736B2D64657369676E2D7061636B6167652E786D6C504B01021400140006080800AC70623BD486FD9CA0000000F40000001300000000000000000000000000B20000005B
310
436F6E74656E745F54797065735D2E786D6C504B01021400140006080800AC70623BFD5588D4EC0000007C010000080000000000000000000000000083010000636F72652E786D6C504B01021400140006080800AC70623B55019EA25F0000007C000000070000000000000000000000000095020000636E782E786D6C504B
310
01021400140006080800AC70623BB5D38BAD72010000D40300000C00000000000000000000000000190300006662782F636F72652E786D6C504B01021400140006080800AC70623B09885E1C7E0000009D0000000B00000000000000000000000000B50400006662782F636E782E786D6C504B01021400140006080800AC70
310
623B961D28872A0100001202000031000000000000000000000000005C0500006662782F33394334313030352D393437462D344341332D393833322D3144373644414336394143352F636F72652E786D6C504B01021400140006080800AC70623B503B51794E010000330300003000000000000000000000000000D5060000
310
6662782F33394334313030352D393437462D344341332D393833322D3144373644414336394143352F636E782E786D6C504B01021400140006080800AC70623B2EA4D28F640500003C1000003400000000000000000000000000710800006662782F33394334313030352D393437462D344341332D393833322D3144373644
310
414336394143352F6F626A656374732E786D6C504B01021400140006080000AC70623B0000000000000000000000003500000000000000000000000000270E00006662782F33394334313030352D393437462D344341332D393833322D3144373644414336394143352F76657274696365732E62696E504B01021400140006
310
080800AC70623BF270F133060000000400000036000000000000000000000000007A0E00006662782F33394334313030352D393437462D344341332D393833322D3144373644414336394143352F747269616E676C65732E62696E504B01021400140006080000AC70623B0000000000000000000000003700000000000000
310
000000000000D40E00006662782F33394334313030352D393437462D344341332D393833322D3144373644414336394143352F617474726962757465732E62696E504B01021400140006080800AC70623B08DA0BD190000000410100003600000000000000000000000000290F00006662782F33394334313030352D393437
310
462D344341332D393833322D3144373644414336394143352F6469726563746F72792E786D6C504B01021400140006080800AC70623B95BFD5E5FE000000A00100003B000000000000000000000000000D1000006662782F33394334313030352D393437462D344341332D393833322D3144373644414336394143352F7265
310
736F75726365732F636F72652E786D6C504B0506000000000E000E0080040000641100000000
  0
XRECORD
  5
587
102
{ACAD_REACTORS
330
10B
102
}
330
10B
100
AcDbXrecord
280
     1
102
MATERIAL
148
0.0
149
0.0
149
0.0
 93
        0
 94
      127
282
     0
 72
     1
 77
     1
171
     1
175
     1
179
     1
273
     0
  0
XRECORD
  5
10D
102
{ACAD_REACTORS
330
10B
102
}
330
10B
100
AcDbXrecord
280
     1
270
     1
271
     1
  0
XRECORD
  5
10C
102
{ACAD_REACTORS
330
10B
102
}
330
10B
100
AcDbXrecord
280
     1
270
     1
271
     1
  0
XRECORD
  5
187
102
{ACAD_REACTORS
330
10B
102
}
330
10B
100
AcDbXrecord
280
     1
 70
     1
 90
778084567
 71
     1
  1
0BDA2A4E-B341-4E60-A729-962E27B786CD
311
504B03040A000008000060581B533DEE336E79000000790000001B0000006175746F6465736B2D64657369676E2D7061636B6167652E786D6C3C3F786D6C2076657273696F6E3D22312E302220656E636F64696E673D227574662D3822203F3E3C666F726D6174733E3C666F726D61743E687474703A2F2F736368656D612E
311
6175746F6465736B2E636F6D2F64657369676E2D7061636B6167652F323030393C2F666F726D61743E3C2F666F726D6174733E504B030414000608080060581B53FAA28935A700000035010000130000005B436F6E74656E745F54797065735D2E786D6CA58FC10E823010447FA5D93B143D1863281ED43FE0076ADD4223DD
311
36ED62F0EF2DE16ABC78DC9DC99B99F6BCF849BC30651748C1AE6E402099F070342898D9564710E7AEEDDF11B3285ECA0A46E67892329B11BDCE75884845B12179CDE54C838CDA3CF58072DF34076902311257BC32A06BAF68F53CB1B82DE5BDE5DE1D81B86CBEBED814E818276734975A321846AE3227D41EE4578023FB1F
311
A00CF80158D5122CD76EB9FB00504B030414000608080060581B5391A2D726F80000009701000008000000636F72652E786D6C8D505B6EC32010BC0AE2B7C206DB6A9C0813A5B67B825E0001715062B078443D7ED78923B57FFDDAD1ECCCEE68F8F17BBEA1BB09D17AD76156508C8C535E5B377538A73369313A0A1EBC4FBF
311
641839399B0EAF34167C0A3E2F1BA5BC4BC625609DD76623658C2661A46E003A1CD5C5CCB2903981225E8B45AAAB9C4CC15E08CC395B8D9E4FAC867BF66C4DC0A21DF6F5C8C613E969FF4E9A1D65A4ED4F3B52EDE9F039361F7D3B34BC5CCD82273BBFFEAB6064321A8B8A568CD09654BB2FC60EB43E50FA4601505EAEF23F
311
A6BCE87F9AB275A9AEB6B84F5BC4824190C742F0980214BA09A08484A2BC439E52F072AD09C6A343986BA5E207504B030414000608080060581B53EE6221757D0000009D00000007000000636E782E786D6C4DCCD10A83201886E15B91FFDCE5C2B4400DA5BA8F581631D3703A76F9ABD1C18E3E78F87845FBD91C7ADBF85A
311
839770BF1140D63FC2B4FA45424E33AE01B54AC410D2DF0D901F372BE16450628921EF174D761EB34B87BAD53F2F1C78C7CAA12298775A635A19821B63282E59DDF78632CD1A0E8512C5AF74EC19565F504B030414000608080060581B53E1178DBC2B0100001E0200002D00000046374436324635302D374441412D343542
311
302D394242342D3236384545423436413639372F636F72652E786D6C8D515B6EC23010BC8AE52FAA2A89134212906344049CA01708F6422D881DF95171FCDA4DA0ED1F3FF66A766776ECA1DBFB70435F60ACD4AAC5794A3002C5B590EAD262EFCE4983D19651A3B5FB338691EA0768718431A317A3FD38435C2B07CA055469
311
0133D85B0B0E237E0B458B2DFF84A14F7BEFC284BDA663CFAFFD05D23C0DED30C7A875261840D392786276ACF755715C91A4DEEF7649B9EA48B2EEBA3229AAE670E8CA6A57AD6B9A4D4446BD9762A64B11ECC8B304F3AA482433EAE4F0B0CF0DF40E04660529F2843449517FE4F9862C3784BC9350109AC5F17F243F8A1749
311
5E2AB72C66BB13CD6296D36C6A302AB43FDD1E66E03E6AE350DCB7B0C0DF70169E1B14AA7256B04E9BF09D8BEBE9D97BAAC3700281F4E842DC98AD7E5764312D46B39F28C31D9365DF504B030414000608080060581B536A77868595000000F50000002C00000046374436324635302D374441412D343542302D394242342D
311
3236384545423436413639372F636E782E786D6C5D8E4B0EC2300C44AF12795F023B164E2A246EC00942E396887C503E88E313438550375EBC9979328EAFE0C5937271292A38ECF620284EC9BAB82868751E8E20468D39A5FA5703114D20058C41E392537BACC8D26C9AAF9D7A17EF2B3C9542F56CAAE99897C2A7C9F82EA0
311
38B402FA97A3E458A3E4B146BEABE232DD2898DE456E6C0514AE642D5951BEB58D477E3EEC5A7E58BF01504B030414000608080060581B530ACA00B1FC000000A00100003700000046374436324635302D374441412D343542302D394242342D3236384545423436413639372F4173736574446174612F636F72652E786D6C
311
8D505B6E842014DD0AB9BF0D0A6A469D2093A9DA15740344194B6604C3A3E9F20BA34DDABFFE706FCE837B72D8E56B7DA04F699D32BA039A1140524F66567AE920F81B6E005D38B3C6F85F32405AACB2830403678B35613BA0C9682FB58FA836B33C40E19CF480A6475C3A70D3875C4526828F0A77CF3631DDC522339A453A
311
EA3873DEC600683F925EE0D7F4C520BC60F9CE7216829A0F8D9AE34D7553D2026F86B61CE9D8E29EF4275CD584E2A6BFD6B868C9F03656AF7D33542C4F66CEBC5A7F324E560A2F67E0052928260D2EEA774ACFA43C13F242E242589EE47F4C619BFF690A4AFBB238E2EE3607FC14833C09CEF2D4571CCF32E34CDDF26F504B
311
030414000608080060581B5394F892DA75010000860500003600000046374436324635302D374441412D343542302D394242342D3236384545423436413639372F4173736574446174612F636E782E786D6CD5544D4FC3300CFD2B51AEA85FE3C084D24C082E3B0D89897B96BA235A9A54898BE0DFE3B49D8A8476DA01B8A4
311
96FBDEB3F3E4586C3E3ACBDE2144E35DCDABBCE40C9CF68D71C79A0FD8666BCE365204EFF11B8C33A73AA8794A73298EC10FFD9C6AA0558345CA5AE34E73F2095AE30C528D2D4250E8C373F03D04341039D356C558F3A8DFA053B91AD037104F79A350E5551E20FA216820C5549459AF95A5DAE0B22172B948B3B3365BC445
311
9138520CC1B014D53C9DDF5967D2C2C90FC689821852440C64C4CCC4CF9E9A507D6F8D56E92E85D70898110854270AFA12580A341DCC141D4021345CAECA559595EB6C75B7AFAAFBF2F6BE2C6F4A0A4A5124B81407EFED4C328E3CF23DD39E02875C1228FD96A248964A91CE19BB751195D3B074FF2B76FE6CE33F99F81023
311
E05E1D2CECDAC7C9F46BA7729464A326DBB5ECAC7A691C47F8885E3AF84F0EBE200D7AF73AAD91F11E578EE124C866C5383979C9BD093C63C7EAB971ED9F7EC2C5B832E945075AACF20B504B030414000608080060581B537014875B81000000200100004F00000046374436324635302D374441412D343542302D39424234
311
2D3236384545423436413639372F4173736574446174612F446566696E6974696F6E4974657261746F7250726F706572746965732E62696EEB600866F80F050C40C008C40D0C8C0CBC40DA3D352FB5283339383923353791810D2492939F9498C30E6241E498804C10D725352DB134A704A4CB37B33839352727312F35BFB4
311
5810280F35462137B104685C628E1E481327500226500C32211D622023505C0288414E02D1BE8925C531EE10B9987408AD5790970E5442170400504B030414000608080060581B533FBBC349F3000000300200004500000046374436324635302D374441412D343542302D394242342D3236384545423436413639372F4173
311
736574446174612F496E7374616E636550726F706572746965732E62696EEB606060F80F054026032390680092BC40DA3D352FB5283339383923353751052860E0E4E268E468E2AAEB646C62A86BE26A66A0EB686E64A96B6966E46A64EE646E61E6ECC20E5407D508D2626C68E2E26A646AA96B6A6262AC6B626664A8EBE4
311
E6E4A26B686E6CE06CE6EC6CE9E86A09B2934133A6FFD0578D2BF6509A09684C030303038C6F0F6403D1077BA0DB8034038380038300031CA83830E007408D10057006848B49C2158019CC40050D0C60F000EA061E300F9D00852142E603542DBA2A0686949D0E0C780176AD20E341E109D2FAC19E05483102311F10079727
311
962467E83A1525E6A5A4A680DC0B14A4190200504B030414000608080060581B53155C00D751000000570000004700000046374436324635302D374441412D343542302D394242342D3236384545423436413639372F4173736574446174612F41737365745461626C654F66436F6E74656E74732E62696E53616060307072
311
7134723471D575323631D435713533D0753437B2D4B534337235327732B73073761102AACB4D2C492DCA4CCC492C28484D2C4ACC4B4E050A82112F90744FCD03CA26072767A4E6260200504B030414000608080060581B53F865834058000000680000004500000046374436324635302D374441412D343542302D39424234
311
2D3236384545423436413639372F4173736574446174612F53747265616D56657273696F6E5461626C652E696E66558CBD0A80300C06F73E4B117FB66E451741D041DC5BF98480A492E4FDD18EAEC7DD4555D89EF28DF51A0B1BD8340C4DE7DD848B988C0ACF0649566493F2408C508DDEBB99D5129FF8F1AF8CF5B9503E20
311
FAE5A16B5AF702504B030414000608080060581B53DA0BB95CFB0000009E0100003500000046374436324635302D374441412D343542302D394242342D3236384545423436413639372F536368656D61732F636F72652E786D6C8D50596E833010BD0A9ADFCA60032A24328E52A017682F60D90EB5126CE4A5EAF16B964AED
311
5F7F66466FD13C3D7AF99A1FD9A7725E5BD301C93164CA082BB5993A88E1865AC82E8C3A6BC32F196486CFAA831506462767E37240C29AA04C48A8B1521D20F75E05C8C4231D1D78F1A1669EF31892C2DFF3858B3B9F544EF244271DA33EB81420DB9FAC13D8DB66F2B4D8394663D4F25068993EEA9B560E583B9CAA918C57
311
D4E3FE19D50D26A8EDAF0D2A4F78781DEB97BE1D6A5AAC6646839E7F120AA778501258894B82708BCAE69D9033AECE183FE174605AACF23FA6B8C87F9AA236A12A8FB8BBCD032329C846305AAC6DA5B55599F6DA2CFB06504B030414000608080060581B5303F26FC826010000D30300003400000046374436324635302D37
311
4441412D343542302D394242342D3236384545423436413639372F536368656D61732F636E782E786D6CD593CF4EC42010C65F8570356D693DB8D950F6E0C19317D717403A5DC952A6E18FD1B777E8725813AF1ABD9061F80D5FE6839187F7C5B13708D1A21F79DF0ACEC01B9CAC3F8D3CA7B9D97176503220A62B8C33AF17
311
18794973254F01F35A5313CC3ABB445967FDB926EF7159D01FCD2B2C9A33E3748C238FDBB6D539E104F1DC4E3AE9B66F0344CCC100DD50449843A31D69816F72E4EAB855B1D93A905D0194CCC1569DB2E7EA5AADA5FE644784923105EAAA92E9632505BDAECE1A9DA8F96E032F8C92C92E504913402798B81AC4D03762D70C
311
77CF7DBF17B77B216E040542760557F205D1D522EB13045C99410A7CE28AA072AC64576C51B2AC957D000FC19A4B633FEFCE17B97F60CF13F809C223BD41B0DAFD964BDFA9FE55B3BA6DFEE86B059A52F509504B030414000608080060581B532F7B2A8D8D0100005E0600003D00000046374436324635302D374441412D34
311
3542302D394242342D3236384545423436413639372F536368656D61732F436F6D6D6F6E536368656D612E786D6CC5944D6EC2301085F79C22F20550BB4E90A0486D24D44551BA1FE201AC3A76E43841B97D9D716A151228B448CD2A9267BE37CF3F2F9E5715DA75BEC702669388BE384B97510332614FBA28B4F2AB6C3689
311
A76E2554ADAD116A17099EB00554D8574565BD91224FD81664852CE2B8154A58A1556AD180D566091612664DED569B4E85C89E16E0A9B2B84343744F7E4753390A3B1530085C2BD91E211F89D94302D46B10936CAFC4265D326F95451236E83C7F5BE91CFB9E3104743B67DBD2D938F13C3A124D749E26750EF22A1A551EB9
311
BD06ADA0F879D09BD159FA3AC6BD7CE837AB7C607BD0860F8E1EA4D487A296569412DD55AAB1FADA973B4F9083BB8EDAB4FF3802C72A37A2EC5ED2608A7BB8CDDE56F432ECBE2E360A841CA8FC7ABBDDD1248C2EA913094F69A1B5445024FA2238473550BCEC8BB05B8A99EEA5F6BCC0CF6AC109DE27C7B30BAFDF28F8C11D
311
2C90FB5C21787326969A2ED91EA8B72F1F6D37D888D158BBD0EF3691A49D9F10AE0363E733C8B58751DC3FA1E6BC019523FF2B329ECEBB54F4893D9B7C02504B030414000608080060581B537229482E27050000001600003E00000046374436324635302D374441412D343542302D394242342D3236384545423436413639
311
372F536368656D61732F47656E65726963536368656D612E786D6CDD586D4FE33810FECEAFB0F27D4BCB1DAB5BA9456A41F4FA0171A2705F2D37718AEF9CA4B29D42EFD7DF783C3549CBB601F676B587549197F1CC3CF3F278E2E1D85AE9E6E9A32CC4C509C3BFE1C3EC8AAD851E2553594AA3D2F03AB938199EC2AB283611
311
5606B93B5966D2DC0807D24237C4BD4894779B15C9172429562B298C285389CABD40949E954E2EA5612A1B2541E39FD2585595095BD50BADD251920B6D65C28C145955EACD2871A686FBB5777D801A4949543A7746954BD4A9AB54686FF1A83E946C291FB7FD0E5ABF6AA414057875C4E97D23147CC4B1636152555A8A1271
311
A495AE0C5F6C78B5F84BA62E0919C94368B45848C8E3A59761930DBB0D323E93A4237A1D647CB49721EB3C53795EFB000BADABA7B42A4BD02F33E12BC68E120B91D4006C2DF4DD28E9F77E199CA3F169F366D2BC198F9241C29A3E2138B41CFDB8D69570886CC70FAE0AB1943C1799443B4D6533FF8A5DFB57172754C68C0D
311
27555D6696ADA44965E960F5368BAA4C8D2CE09955FF485454A852157501EE268CAE15204C756DD51A44426915E23948010EBADE970AD1F59623A85344156FF1AE85D1C85C4374D55AB90D178EF733B94CD8D1C0A3BB14D0BB860A8C2B5A7983CD2FDFC3E8525716E22AADED06AF771E2B66FAB2D487B80D8FCAB915546579
311
219DD0542E79AB277E57CB470D3F673158B4FE40B81C10955D0923CB74D3CDF7E8F97D73E9CF59A0AE01E1FFDE8946A40E361AAE60577BA6E219F4CECF623EA1D548066AE720DD50CD1DE29B5EDF9349A09F7D32614433A3041A81AEF7A57C3F04B28B05DC85720804C7E4EA1A4832DDF027E9BBE23D154E1A8EC52450E9A1
311
90FC100A4E6B57D58E572B91020977C20F8923F2BDC4C5814A8E13D342A47FE722953CADF5EBEC34210976E925427A71CF8FF9452B2DBAB352E75C695D171C7EAAC4B92A8C03FD58BA731062332F0402BECA215BC3A3B5626115A94EFD2CC19D2C605715AE36921AE4F379FFC5CAA51762F70D210F015D8E00824C73E06858
311
C9958661921762D5211177B883AF8586D10352021793ED93D6C8718D4A191A46D878151D42F75A115DD4C58A8B02A60898ABBA6CC6BDB32F3B7F31F0E3A0E608FBE7618F3AD01C9F06FD7EBF5B8304C130B2BC8733303CFB01E99C1470738D490917909470D14ACA0462FC4A32683F6E591715AF60FC079D71F6A7F61B170B
311
05D31CBB4D716003295F6FA4232698BE0676755A51ACB4847904150F3EC794CDE9C58773063B478799F2EC1C4CBF89E2095004B85FC110B24C59D7A0825F23BC1BF1CCAEB62F7DBC70795446D1DB8D56061395D2DB68052EA72C3CC0F760A8996B5315ECD63DC2F7DB0D7DEB056E24A5D1089A6C9930D06D595A19F8F2B4DC
311
884CD560AB4BEF455C775E037439AAC0D2422BD126F9F075AB680D3F7F244C7B0E5808B848416712D5E57009B447A8275A96197B52EEB11362CA59DB3A8CEE3C932BF74816A04F483B8C1AF8615095CCE7EBDEC0B6C1AE50F4C3650956BA94A5177B0B8910C2186FBADF456C5A883F017113E4DBB534466592017680EB37A9
311
6F85D85BF9819029937CE9BF6436DC12BF843D7A002C411100E024CAA628CAE624FA9D723E38FB0DB698FF22E9345A2F11D6C1086C533F45D19F3B0245150F2D1AFCEB1F7ADEA506890D532BEC15386B93397C17F806387A48B5F6875EC0B5F6741A8E6FB6FF1F66BDE742230DD66AD7C4385BFBAD21FB36A65EB4BD6652F9
311
5DD69FB9080F0811CE5A8F6E600787B324015FD7470ECBF6C186B5780C146DAB96F608BDFDF8153F6EA7F377841B567DD8F21F46AE957C7A87755A89BBEF413786A7637F7E174E542F4EFE05504B030414000608080060581B530A3355BE74010000170400004500000046374436324635302D374441412D343542302D3942
311
42342D3236384545423436413639372F536368656D61732F52656E6465724D6174657269616C536368656D612E786D6CAD93DF6AC23014C6EF7D8A90075895B1BB54D00EA430D968A7B725B6C73690269244C5B75FFED955866C0C7B9593F3E577724EBE9285D660CABA839ECE27C87F6493BFA213E5292E4034A0D6D48062
311
9407159E4F486215837A4935047926FB5E8A91CCA5065D2E0CB4A0106B521C345B509A4981D1E1B8E3AC4EF19E720D1829A08D14FC9262A38E363EB9BBCC7CE10819A09BE2CD03F3FEC0A10761A8B1C4B55BF0825EFE86F6644BFA85FABE2A1FCAFB507062707E287305C2BE55FD4F66691413AD1FA83E5353773F38FE29FC
311
BC82761859D64956833F5A7B1B54654715349537180E068919ED331871BA03EBB2D286B6ACA546032244026E4BF9F186A9AD149A489BDE10ECB673E6E8E0F56EF771CCDAFBE03C2E4C64CE06663ECADD01932454BB16224B293950319EC22713A632B26DF9D5C8FB60F2D8BCCBDBCE4912CF0EAC4C72197E963835A7AC6AB7
311
EBEF5AA478FAF43C7BF1C16A1C2CC7C122C5DF3D3904CA3CC2B7E456A12049FC3B85FF723EF902504B010214000A000008000060581B533DEE336E79000000790000001B00000000000000000000000000000000006175746F6465736B2D64657369676E2D7061636B6167652E786D6C504B0102140014000608080060581B
311
53FAA28935A7000000350100001300000000000000000000000000B20000005B436F6E74656E745F54797065735D2E786D6C504B0102140014000608080060581B5391A2D726F80000009701000008000000000000000000000000008A010000636F72652E786D6C504B0102140014000608080060581B53EE6221757D0000
311
009D0000000700000000000000000000000000A8020000636E782E786D6C504B0102140014000608080060581B53E1178DBC2B0100001E0200002D000000000000000000000000004A03000046374436324635302D374441412D343542302D394242342D3236384545423436413639372F636F72652E786D6C504B01021400
311
14000608080060581B536A77868595000000F50000002C00000000000000000000000000C004000046374436324635302D374441412D343542302D394242342D3236384545423436413639372F636E782E786D6C504B0102140014000608080060581B530ACA00B1FC000000A001000037000000000000000000000000009F
311
05000046374436324635302D374441412D343542302D394242342D3236384545423436413639372F4173736574446174612F636F72652E786D6C504B0102140014000608080060581B5394F892DA75010000860500003600000000000000000000000000F006000046374436324635302D374441412D343542302D39424234
311
2D3236384545423436413639372F4173736574446174612F636E782E786D6C504B0102140014000608080060581B537014875B81000000200100004F00000000000000000000000000B908000046374436324635302D374441412D343542302D394242342D3236384545423436413639372F4173736574446174612F446566
311
696E6974696F6E4974657261746F7250726F706572746965732E62696E504B0102140014000608080060581B533FBBC349F3000000300200004500000000000000000000000000A709000046374436324635302D374441412D343542302D394242342D3236384545423436413639372F4173736574446174612F496E737461
311
6E636550726F706572746965732E62696E504B0102140014000608080060581B53155C00D751000000570000004700000000000000000000000000FD0A000046374436324635302D374441412D343542302D394242342D3236384545423436413639372F4173736574446174612F41737365745461626C654F66436F6E7465
311
6E74732E62696E504B0102140014000608080060581B53F865834058000000680000004500000000000000000000000000B30B000046374436324635302D374441412D343542302D394242342D3236384545423436413639372F4173736574446174612F53747265616D56657273696F6E5461626C652E696E66504B010214
311
0014000608080060581B53DA0BB95CFB0000009E01000035000000000000000000000000006E0C000046374436324635302D374441412D343542302D394242342D3236384545423436413639372F536368656D61732F636F72652E786D6C504B0102140014000608080060581B5303F26FC826010000D30300003400000000
311
000000000000000000BC0D000046374436324635302D374441412D343542302D394242342D3236384545423436413639372F536368656D61732F636E782E786D6C504B0102140014000608080060581B532F7B2A8D8D0100005E0600003D00000000000000000000000000340F000046374436324635302D374441412D3435
311
42302D394242342D3236384545423436413639372F536368656D61732F436F6D6D6F6E536368656D612E786D6C504B0102140014000608080060581B537229482E27050000001600003E000000000000000000000000001C11000046374436324635302D374441412D343542302D394242342D323638454542343641363937
311
2F536368656D61732F47656E65726963536368656D612E786D6C504B0102140014000608080060581B530A3355BE740100001704000045000000000000000000000000009F16000046374436324635302D374441412D343542302D394242342D3236384545423436413639372F536368656D61732F52656E6465724D617465
311
7269616C536368656D612E786D6C504B050600000000110011005A060000761800000000
310
504B03040A000008000060581B533DEE336E79000000790000001B0000006175746F6465736B2D64657369676E2D7061636B6167652E786D6C3C3F786D6C2076657273696F6E3D22312E302220656E636F64696E673D227574662D3822203F3E3C666F726D6174733E3C666F726D61743E687474703A2F2F736368656D612E
310
6175746F6465736B2E636F6D2F64657369676E2D7061636B6167652F323030393C2F666F726D61743E3C2F666F726D6174733E504B030414000608080060581B53D486FD9CA0000000F4000000130000005B436F6E74656E745F54797065735D2E786D6C7D8EC10E82300C865F65E91D8A1E8C310C0EEA1BF002731658846E
310
D98AC1B77784ABF1D8FE5FBFBF75BBCE937A534CCEB38643598122B6FEE978D0B0485F9C41B54DDD7D022595594E1A469170414C76A4D9A4D207E29CF43ECE46F218070CC6BECC4078ACAA135ACF422C856C0E68EA1BF5669944DDD7BCDE7B1F8E415D77AECB980613C2E4AC91FC167A2B244592486606FC29C8FD7F045B9A
310
EF7053A7E60B504B030414000608080060581B53088D7ADEEA0000007C01000008000000636F72652E786D6C8D905D6EC3201084AF82F6B5C201E23A4E84895C373D412F808038283158FC543D7E71E248ED5B9F7634CCC7AE861FBFA71BFA32215AEF3AA01501649CF2DABAB1839CCEB80574143C789F7EC5003939990E16
310
1B041F83CFF36A29EF9271A9B8CE6BB39A32469300A95B111D44753193AC644E2511AFD52CD5558EA6A24F55E09CAD468F255697FFECD99A0062D7B366181A864F6F35C175431BBC6FD8803FDAF675A8FBFEFDB4277CB3C082273B3DF7AB6064321A04238C62D262B6FBA4F440B607425E4811055AE27FA03CEB7F42D9BAB4
310
65EBB90F2C82A0E590FB83E09BA58B32EE4595B9F4267E00504B030414000608080060581B5355019EA25F0000007C00000007000000636E782E786D6C4DCB3B0E80201045D1AD90E915ED2CF8AC45050C11660C8261F98AB1B07AC9C97D42D718D865D3E909258CFD00CCE24AC6E326A164D74DC0B4128928FF326038472B
310
A13128B1252AC747C6BAB984FC68F0B87FE8960A5C09FE86CFB69FBA01504B030414000608080060581B533790206A66010000020300000C0000006662782F636F72652E786D6C8D52ED8E8230107C95A67F2F85821CA229351EE73DC1BD402D9523424B4A4B7CFC5B3E8CE7C51843529A999DDDD901B6BBB40D1A94ED6BA3
310
731C051423A5A5296B5DE5D8BB13C930DA71668D717FCA30D2A255391E61CC59658DEF16481AED9476806A53AA05147DAF1C46B2814B8E7BF9A35A1108EFA0A23F079D906751A9200A80863ACE7A67C1009A878C27E6A7E3858533CE99F775B9B07509D3EA53AD2CE6EB7D9C16451A93C3474249924629D9A47141BEB2ECBD
310
48F6FBCFC386B2701473E6EAF6EA4E5A259C2A318F691C119A9178FD1D455BBADA52FA46E102A2B1FC4EE4BBF24591AFB55BC58BDD59D6631E819189F8B72D44E4502F06F01372168E21C26B4AF83E6808044276E2D85CF738033428E98C4D80298DBF518368BC82A9144D0F0B67163A4F0D60B3877DE2277D9EF7800F2874
310
05D68483EBD1BB713A9BA72E5174CA92C15D9036B615CDCDDC6CF176DE063D944BD318FB8A3A5C560D9730C3F1EFE5BF504B030414000608080060581B53617551937E0000009D0000000B0000006662782F636E782E786D6C4DCCD10A83201886E15B91FFDCE5CACA400DCABC8F581692E9703676F9ABD1C18E3E78F87879
310
FBD91C7A9BF8B2C10BB8DF0820E31F61B27E11B0A7193340ADE43184F47703E4C7CD083819245F62D89F174D661E77970E75D6AF17F69A505A0F05CECBB2C0540F3D66AAEEB0CA35234DA3BA8A5590499EFD4AC79E61F905504B030414000608080060581B5332DB879C2A01000013020000310000006662782F4346303434
310
3745332D323535332D344645432D384437422D4432463830393944423638362F636F72652E786D6C8D515B6EC32010BC0AE22B55858D1F719C081329AF13F4020E900425068B4795E377A91DA9FDCB0F8B66676607966D9FC3037D2BE7B5351D2E328A9132C24A6DAE1D8EE1425A8CB69C396BC31F1A46A61F5487138C39BB
310
3A1BC71912D6046502A0C64A3583BDF72A60241E70E9B0173735F4591F0330FC3D1B7B71EFAF2A2B3268038F331F1C0440D3907462BE3FD1BA5E1D2B522E9715A94FC73D690FAB1D3994A796AED7875DD3362C9F849CC5A8E52CD712E2E88B56EE5D9324E62CE8E1155F38D50725312F695910DA9272F555141B5A6D28FDA4
310
70A12C4FF47FA238CA3745519B509573DC49E6312F583E353893369E1FAF30EA395A17509AB7F04A7C604E334A9BAA592F593E31E1FD60D9D4B3A50FD6C1FF2EEE672057B36F537396A71541F9DD1FD4B44EFE03504B030414000608080060581B5316E172D35401000033030000300000006662782F43463034343745332D
310
323535332D344645432D384437422D4432463830393944423638362F636E782E786D6CBD93CD6E022114855F85B06DE657638D6130E9A24FD045B70C5C95CAC0849FA6BE7D2F8AD68D8B264D37849C7B38E7E6CB0CDB7E4D867C820FDAD98176754B0958E994B6FB81A6B8ABD6946C39F3CEC53B1B25564C30D02C53CEF6DE
310
A5B9480A76229988AAD1F658440FC1252F21A09C5F12E3A4301800B64A28C2348252A0C8CD88B71D785C05C5F144E201C8EBCB3B71E307C818589353386B720767F92C4D77264AA411210C34C8034CA216293A05E1582B1145DDD5D7AE073BFD2491FCE05A99BC26B97CA0F9A4BC6C542347D6E090B3103DD22BA6789A8172
310
31CF464B11117273365E3C9C256DE36A59BC1AC17B742FFAD57A8D61E71967514F501CD28388A028EFDBBEABDA75D53FBF75DDA65D6CDAF6A9C54BCB9A6CE76C74CE94471803DECD443A1BC146CA3BD6E4F1237CC54794F6C8DAF9D32F402280D27AA173CBF84B3EDD6AB15CFE239FE6FC7D232E8F7F01FF06504B03041400
310
0608080060581B53B3CAF76F42070000021C0000340000006662782F43463034343745332D323535332D344645432D384437422D4432463830393944423638362F6F626A656374732E786D6CED595B6FA33814FE2B887DD97D0809497A5B51566DD256D1A833A38966B40F91900187786B20B24D9BEEAFDFE30B044868C96E
310
F76D1E12C0D8DFB91F1F1FBC3F7629B59E31E324CFAE6DD719D916CEA23C2659726D17623DB8B4AD3F7C8FE5B9A84DB3AD0CA5F8DA96C3B6EF252C2FB66628C66B5450D11ABDBFFDD3E211CEB06D4514717E6DF3688353E4A042E431E64F4E8C047292F5CE711D3DB1099B30B4DDB440B788E14C00A7309E018AA599729B8F
310
237BE87B43F9DEF7E4BF9935EE356BD23D6BA8A46E7249322E50161DB0D48219F76269E24EE777E3B3ABC1D9743A194CCFC7EEE0F6FE763E702F26A3D9F96C7675737705EC85794E8D4C31DEE22C06FBBDDABEEB0DE59B4A74A381635C477996E148291254A5C46A0312CC81544D7DA3E6A32B25AABD5612D69E27F2BD61A1
310
36DC3242C7AC9E8A68E08220865C297179ADCB97877F81E0BC8F53328EA55373C1C0BA463D0CA2C2F647DE508FFA5EB8B705E1568A046604518B929021064681A9728AEFE9050646060703284B4AA02CA75F377D0B22F3FDD039C6E5BAA0544686EDABC00A20FCB0E08A33F237667BEEEB9A019EC0C205C9C4A5E152BC6EB1
310
ED5F794335E87BF232199B975A91D69AA2041C05C4D46F5B82CE64E82FE6B6FFE93EDC2D653A384E7CCBF22D66423A9DB4A3E20B1CD95CA5960C59B797E5E40210462BD5ACDC2BE51B68FE33648F3D2B60374676D3DDD4CC150C657C9DB3146C638DACC108FE4696ABFEE57DEDCE1B568B9BD6EBD22784A954D5E57FD76753
310
06A52BC37F4D9DBEF70C0E9FB38979B58C10057F7E241928483A8945731882D4BE0E77B6BF80C409891E5621EABB2032B0FB0CB7DED0C0ECAD52869789BA0C346A688CFB1809D4A63C12D8E8B0D303EC1E8C447B33D545EC52EFD987B8EBCD7CF96959B0358AF0A389E9395E938C08D8358F33D4D0794322D8ED2246B672A9
310
ED1BA1AA54E1ECD11A8B9EF0EB4BCE62D0CEA191967523A5863F0E26928692D64A4ACDC9870E0211AC4B7299A3BC772880E47283AFE13F121E614A5186F3A2A45BA544E9DD559A308586ED4FB45D26E396DF33FC4C64290291B69FD1D0C40F5DAB3C7C9779A44398EF8BCFE0B536ECF77079C3A31F681E226A24A9386E90E3
310
2F48449BF7A1966ADEE01652458CE33664B8DF17A29CE62C085F039D328F22FF68C41D64536D388902A1A802B8CC4DC6B6414CD6EB8243823E62BE1F8B59DD4546CEC43DB3EAFFADA89E42DA8624809809E0168D80A428C1C11AC55DE4EAD42A6CAE203BA0195E53908B3C13F11A20118C629C9CA29A93C0AF3E143DA139E7
310
24C31C36BEA3CAAF6B63E44046D2D62C5996566D299AF020C502D1533420613A94ABF62F552C475083BCCF63E5BD6F59AC0EFA3F7904435094E65940A0A6DDF5D085EB9C8D7BF10EDE56622B316801B548F41ABC60926C440F4A55489646D4D796192338DB1422C8B72802B7EE017B102BD2A82DD010454F72230AA2827E94
310
83704CD701A1B44803F8910C8E307D42BB9F166AE03AF7099C42758744C1FA10393F1B1DD0D1C5473B05D608AD0985D23B48D1B643EB8D84A80A1BAB52BE41EF08A6B048B7014AF322EBE528CEA4ED9106BE6D5609DB935F597342FD59021B40DF8362BDDA69CB9C0DAE4E0338178A4D87261AD9A9845448DD803253435CAA
310
CCF71A70946EA93E1F1E6CB7CD9DCCADC2F36D02CC04FEC71248F35E1BD6B4A584B2B0AD979BA05599ED0B468C19C5A648C30C91E311D9D8CE1F91E0AB075D92AD127D75B65952920550288A2A64A873AA52F3A809BBC11F34F8F785034D9E0EF885B45D8A33816441FA286FE837747C9BE8A6A4D72D645DD09BD69787E589
310
F2C08ADEE85F6525895F4EA46056CD648D7640AA7484EA2ACF385063825B192F98FC3CE9D4DB233F4F3A70AA86FCAF8F4010D42AEB195F91FE79C249C7C4F2FEC0532B0D22E9AE271D29AABD4EA27CC49142F5422AD46A473A5A1641F22C137CEFCAAECC5E1AB08BE37F5D0174EDA89A9CB158A2D369705A05E01E542F8DF3
310
A53AC56607FB6623D58E6EE737E39BE9DDE076327507D3BBF3D1E0E6627C35B83A1FDF8D2F6E2F2ECF67F34A412A007DAF4A526ADB82679DACCA61F964C482EE2FCF2989A101105B09CEE1E4016D801E6D7A9662AEAA8A7D028C4DF3BFC7EA67DD4F1528A4B8E46483A0114D39246DD0511189E6B8F50BB4406517F2DA86E6
310
94F3047FC6D16C0B36CD6BFB59F60C23CC9D10DA59B271A8C05B7107FA415922EB15BDA87AAE5649DD34D27A35A54F7A3772E9983702405DB7852E5BA3A9A17833EFA393042FD9B19080DBB010507B6959F60395308ACCDEFC5A364AB227437A07D1F8B658AEA3E63434D2AB23FFA61368D481402C517D75C99861E966FE75
310
08FD3C6BF1C5DAD222015BF6471A300CCE5CC85A06BC08BCC2606E912C8067BFAFBEB21C3E25A5D63D0117B07EDD5D9EFFB69AE5699A677A68750387B6183E4859CB0D7C5E8A5750AE61D9C4E7ABF1C89DAC54F3DCF4F3831071ECA0983FC180372C18A914DD303FF8E541A6376DD2A13445CB431773CBE4C52980AA3DE3A0
310
97AC3FA6591043F2B38D8C1815E7A5B46FF6CF876A2AB0CAA0F3EDFF03504B030414000608000060581B53000000000000000000000000350000006662782F43463034343745332D323535332D344645432D384437422D4432463830393944423638362F76657274696365732E62696E504B030414000608080060581B53F2
310
70F1330600000004000000360000006662782F43463034343745332D323535332D344645432D384437422D4432463830393944423638362F747269616E676C65732E62696E636660600000504B030414000608000060581B53000000000000000000000000370000006662782F43463034343745332D323535332D34464543
310
2D384437422D4432463830393944423638362F617474726962757465732E62696E504B030414000608080060581B53B28BD8DE8F00000041010000360000006662782F43463034343745332D323535332D344645432D384437422D4432463830393944423638362F6469726563746F72792E786D6C858F410EC2201045AF42
310
66AF15DDB800BA74E7C21B903225242D6328188F2FA5C4183471359997F9FF81E89FF3C41E1816475E02DF1F80A11FC8386F25A438EECEC07A250251FC3803E6F58C12560C4AD840E95E91C151A72936F496F35732D860FE635F62C8F2DA16B505C545B74125BAA2FA9E05D7CC053D063734D5A7665FD55B6B8D15D5F1BFEA
310
FD8490FFA45E504B030414000608080060581B53606727EFFD000000A00100003B0000006662782F43463034343745332D323535332D344645432D384437422D4432463830393944423638362F7265736F75726365732F636F72652E786D6C8D504B6E833010BD0A9A6D65623B9490C838A2343D412F609909B5126CE44FD5
310
E3D7042AB5BB6E6646EFA3797AE2FC35DD8B4FF4C138DB022B291468B51B8C1D5B48F14A1A28CE5278E7E22F1914564DD8C2028314A37769DE20ED6C441B336ADD801BA842C00885BEE7A385A03F7052A54A312BC2AD9C95BEA9114B56663AEBA408D1E700C5FA6499203D0697BCC620762B2B454A66D83466C83FCDD5A007
310
79E878DDF7352397978A92AA663539D6BC276F4DF3DC575DF77A3952B15BCC524433FD64D41E55C40124A79C11DA107E7867EC44F7274A9F683EB26991FF31A579F8A729191BF77C8BBBDA024896833C0829764B5F793DCACC7BE9567E03504B010214000A000008000060581B533DEE336E79000000790000001B00000000
310
000000000000000000000000006175746F6465736B2D64657369676E2D7061636B6167652E786D6C504B0102140014000608080060581B53D486FD9CA0000000F40000001300000000000000000000000000B20000005B436F6E74656E745F54797065735D2E786D6C504B0102140014000608080060581B53088D7ADEEA00
310
00007C010000080000000000000000000000000083010000636F72652E786D6C504B0102140014000608080060581B5355019EA25F0000007C000000070000000000000000000000000093020000636E782E786D6C504B0102140014000608080060581B533790206A66010000020300000C00000000000000000000000000
310
170300006662782F636F72652E786D6C504B0102140014000608080060581B53617551937E0000009D0000000B00000000000000000000000000A70400006662782F636E782E786D6C504B0102140014000608080060581B5332DB879C2A0100001302000031000000000000000000000000004E0500006662782F43463034
310
343745332D323535332D344645432D384437422D4432463830393944423638362F636F72652E786D6C504B0102140014000608080060581B5316E172D354010000330300003000000000000000000000000000C70600006662782F43463034343745332D323535332D344645432D384437422D443246383039394442363836
310
2F636E782E786D6C504B0102140014000608080060581B53B3CAF76F42070000021C00003400000000000000000000000000690800006662782F43463034343745332D323535332D344645432D384437422D4432463830393944423638362F6F626A656374732E786D6C504B0102140014000608000060581B530000000000
310
000000000000003500000000000000000000000000FD0F00006662782F43463034343745332D323535332D344645432D384437422D4432463830393944423638362F76657274696365732E62696E504B0102140014000608080060581B53F270F1330600000004000000360000000000000000000000000050100000666278
310
2F43463034343745332D323535332D344645432D384437422D4432463830393944423638362F747269616E676C65732E62696E504B0102140014000608000060581B530000000000000000000000003700000000000000000000000000AA1000006662782F43463034343745332D323535332D344645432D384437422D4432
310
463830393944423638362F617474726962757465732E62696E504B0102140014000608080060581B53B28BD8DE8F000000410100003600000000000000000000000000FF1000006662782F43463034343745332D323535332D344645432D384437422D4432463830393944423638362F6469726563746F72792E786D6C504B
310
0102140014000608080060581B53606727EFFD000000A00100003B00000000000000000000000000E21100006662782F43463034343745332D323535332D344645432D384437422D4432463830393944423638362F7265736F75726365732F636F72652E786D6C504B0506000000000E000E0080040000381300000000
  0
XRECORD
  5
10E
102
{ACAD_REACTORS
330
10B
102
}
330
10B
100
AcDbXrecord
280
     1
270
     1
271
     1
  0
XRECORD
  5
10F
102
{ACAD_REACTORS
330
10B
102
}
330
10B
100
AcDbXrecord
280
     1
270
     1
271
     1
  0
CELLSTYLEMAP
  5
5C0
102
{ACAD_REACTORS
330
FF
102
}
330
FF
100
AcDbCellStyleMap
 90
        3
300
CELLSTYLE
  1
TABLEFORMAT_BEGIN
 90
        5
170
     1
 91
        0
 92
    32768
 62
   257
 93
        1
300
CONTENTFORMAT
  1
CONTENTFORMAT_BEGIN
 90
        0
 91
        0
 92
      512
 93
        0
300

 40
0.0
140
1.0
 94
        5
 62
     0
340
11
144
0.25
309
CONTENTFORMAT_END
171
     1
301
MARGIN
  1
CELLMARGIN_BEGIN
 40
0.06
 40
0.06
 40
0.06
 40
0.06
 40
0.18
 40
0.18
309
CELLMARGIN_END
 94
        6
 95
        1
302
GRIDFORMAT
  1
GRIDFORMAT_BEGIN
 90
        0
 91
        1
 62
     0
 92
       -2
340
0
 93
        0
 40
0.045
309
GRIDFORMAT_END
 95
        2
302
GRIDFORMAT
  1
GRIDFORMAT_BEGIN
 90
        0
 91
        1
 62
     0
 92
       -2
340
0
 93
        0
 40
0.045
309
GRIDFORMAT_END
 95
        4
302
GRIDFORMAT
  1
GRIDFORMAT_BEGIN
 90
        0
 91
        1
 62
     0
 92
       -2
340
0
 93
        0
 40
0.045
309
GRIDFORMAT_END
 95
        8
302
GRIDFORMAT
  1
GRIDFORMAT_BEGIN
 90
        0
 91
        1
 62
     0
 92
       -2
340
0
 93
        0
 40
0.045
309
GRIDFORMAT_END
 95
       16
302
GRIDFORMAT
  1
GRIDFORMAT_BEGIN
 90
        0
 91
        1
 62
     0
 92
       -2
340
0
 93
        0
 40
0.045
309
GRIDFORMAT_END
 95
       32
302
GRIDFORMAT
  1
GRIDFORMAT_BEGIN
 90
        0
 91
        1
 62
     0
 92
       -2
340
0
 93
        0
 40
0.045
309
GRIDFORMAT_END
309
TABLEFORMAT_END
  1
CELLSTYLE_BEGIN
 90
        1
 91
        1
300
_TITLE
309
CELLSTYLE_END
300
CELLSTYLE
  1
TABLEFORMAT_BEGIN
 90
        5
170
     1
 91
        0
 92
        0
 62
   257
 93
        1
300
CONTENTFORMAT
  1
CONTENTFORMAT_BEGIN
 90
        0
 91
        0
 92
      512
 93
        0
300

 40
0.0
140
1.0
 94
        5
 62
     0
340
11
144
0.18
309
CONTENTFORMAT_END
171
     1
301
MARGIN
  1
CELLMARGIN_BEGIN
 40
0.06
 40
0.06
 40
0.06
 40
0.06
 40
0.18
 40
0.18
309
CELLMARGIN_END
 94
        6
 95
        1
302
GRIDFORMAT
  1
GRIDFORMAT_BEGIN
 90
        0
 91
        1
 62
     0
 92
       -2
340
0
 93
        0
 40
0.045
309
GRIDFORMAT_END
 95
        2
302
GRIDFORMAT
  1
GRIDFORMAT_BEGIN
 90
        0
 91
        1
 62
     0
 92
       -2
340
0
 93
        0
 40
0.045
309
GRIDFORMAT_END
 95
        4
302
GRIDFORMAT
  1
GRIDFORMAT_BEGIN
 90
        0
 91
        1
 62
     0
 92
       -2
340
0
 93
        0
 40
0.045
309
GRIDFORMAT_END
 95
        8
302
GRIDFORMAT
  1
GRIDFORMAT_BEGIN
 90
        0
 91
        1
 62
     0
 92
       -2
340
0
 93
        0
 40
0.045
309
GRIDFORMAT_END
 95
       16
302
GRIDFORMAT
  1
GRIDFORMAT_BEGIN
 90
        0
 91
        1
 62
     0
 92
       -2
340
0
 93
        0
 40
0.045
309
GRIDFORMAT_END
 95
       32
302
GRIDFORMAT
  1
GRIDFORMAT_BEGIN
 90
        0
 91
        1
 62
     0
 92
       -2
340
0
 93
        0
 40
0.045
309
GRIDFORMAT_END
309
TABLEFORMAT_END
  1
CELLSTYLE_BEGIN
 90
        2
 91
        1
300
_HEADER
309
CELLSTYLE_END
300
CELLSTYLE
  1
TABLEFORMAT_BEGIN
 90
        5
170
     1
 91
        0
 92
        0
 62
   257
 93
        1
300
CONTENTFORMAT
  1
CONTENTFORMAT_BEGIN
 90
        0
 91
        0
 92
      512
 93
        0
300

 40
0.0
140
1.0
 94
        2
 62
     0
340
11
144
0.18
309
CONTENTFORMAT_END
171
     1
301
MARGIN
  1
CELLMARGIN_BEGIN
 40
0.06
 40
0.06
 40
0.06
 40
0.06
 40
0.18
 40
0.18
309
CELLMARGIN_END
 94
        6
 95
        1
302
GRIDFORMAT
  1
GRIDFORMAT_BEGIN
 90
        0
 91
        1
 62
     0
 92
       -2
340
0
 93
        0
 40
0.045
309
GRIDFORMAT_END
 95
        2
302
GRIDFORMAT
  1
GRIDFORMAT_BEGIN
 90
        0
 91
        1
 62
     0
 92
       -2
340
0
 93
        0
 40
0.045
309
GRIDFORMAT_END
 95
        4
302
GRIDFORMAT
  1
GRIDFORMAT_BEGIN
 90
        0
 91
        1
 62
     0
 92
       -2
340
0
 93
        0
 40
0.045
309
GRIDFORMAT_END
 95
        8
302
GRIDFORMAT
  1
GRIDFORMAT_BEGIN
 90
        0
 91
        1
 62
     0
 92
       -2
340
0
 93
        0
 40
0.045
309
GRIDFORMAT_END
 95
       16
302
GRIDFORMAT
  1
GRIDFORMAT_BEGIN
 90
        0
 91
        1
 62
     0
 92
       -2
340
0
 93
        0
 40
0.045
309
GRIDFORMAT_END
 95
       32
302
GRIDFORMAT
  1
GRIDFORMAT_BEGIN
 90
        0
 91
        1
 62
     0
 92
       -2
340
0
 93
        0
 40
0.045
309
GRIDFORMAT_END
309
TABLEFORMAT_END
  1
CELLSTYLE_BEGIN
 90
        3
 91
        2
300
_DATA
309
CELLSTYLE_END
  0
XRECORD
  5
5E9
102
{ACAD_REACTORS
330
FF
102
}
330
FF
100
AcDbXrecord
280
     1
102
ACAD_ROUNDTRIP_PRE2007_TABLESTYLE
 90
      512
 91
        0
  1

 92
      512
 93
        0
  2

 94
      512
 95
        0
  3

  0
XRECORD
  5
5D4
102
{ACAD_REACTORS
330
5D3
102
}
330
5D3
100
AcDbXrecord
280
     1
102
RTVSPost2010Prop28
280
     1
102
RTVSPost2010PropOp28
 70
     1
102
RTVSPost2010Prop29
280
     1
102
RTVSPost2010PropOp29
 70
     1
102
RTVSPost2010Prop30
280
     0
102
RTVSPost2010PropOp30
 70
     1
102
RTVSPost2010Prop31
280
     0
102
RTVSPost2010PropOp31
 70
     1
102
RTVSPost2010Prop32
280
     0
102
RTVSPost2010PropOp32
 70
     1
102
RTVSPost2010Prop33
280
     0
102
RTVSPost2010PropOp33
 70
     1
102
RTVSPost2010Prop34
280
     0
102
RTVSPost2010PropOp34
 70
     1
102
RTVSPost2010Prop35
280
     0
102
RTVSPost2010PropOp35
 70
     1
102
RTVSPost2010Prop36
280
     0
102
RTVSPost2010PropOp36
 70
     1
102
RTVSPost2010Prop37
 90
       50
102
RTVSPost2010PropOp37
 70
     1
102
RTVSPost2010Prop38
140
0.0
102
RTVSPost2010PropOp38
 70
     1
102
RTVSPost2010Prop39
140
1.0
102
RTVSPost2010PropOp39
 70
     1
102
RTVSPost2010Prop40
 90
        0
102
RTVSPost2010PropOp40
 70
     1
102
RTVSPost2010Prop41ColorIndex
 90
       18
102
RTVSPost2010Prop41ColorRGB
 90
        0
102
RTVSPost2010PropOp41
 70
     1
102
RTVSPost2010Prop42
 90
       50
102
RTVSPost2010PropOp42
 70
     1
102
RTVSPost2010Prop43
 90
        3
102
RTVSPost2010PropOp43
 70
     1
102
RTVSPost2010Prop44ColorIndex
 90
        5
102
RTVSPost2010Prop44ColorRGB
 90
      255
102
RTVSPost2010PropOp44
 70
     1
102
RTVSPost2010Prop45
280
     0
102
RTVSPost2010PropOp45
 70
     1
102
RTVSPost2010Prop46
 90
       50
102
RTVSPost2010PropOp46
 70
     1
102
RTVSPost2010Prop47
 90
       50
102
RTVSPost2010PropOp47
 70
     1
102
RTVSPost2010Prop48
 90
       50
102
RTVSPost2010PropOp48
 70
     1
102
RTVSPost2010Prop49
280
     0
102
RTVSPost2010PropOp49
 70
     1
102
RTVSPost2010Prop50
 90
       50
102
RTVSPost2010PropOp50
 70
     1
102
RTVSPost2010Prop51ColorIndex
 90
      256
102
RTVSPost2010Prop51ColorRGB
 90
-16777216
102
RTVSPost2010PropOp51
 70
     0
102
RTVSPost2010Prop52
140
1.0
102
RTVSPost2010PropOp52
 70
     0
102
RTVSPost2010Prop53
 90
        2
102
RTVSPost2010PropOp53
 70
     1
102
RTVSPost2010Prop54
  1
strokes_ogs.tif
102
RTVSPost2010PropOp54
 70
     1
102
RTVSPost2010Prop55
280
     0
102
RTVSPost2010PropOp55
 70
     1
102
RTVSPost2010Prop56
140
1.0
102
RTVSPost2010PropOp56
 70
     1
102
RTVSPost2010Prop57
140
1.0
102
RTVSPost2010PropOp57
 70
     1
102
RTVSPropertyOp0
 70
     1
102
RTVSPropertyOp1
 70
     1
102
RTVSPropertyOp2
 70
     1
102
RTVSPropertyOp3
 70
     1
102
RTVSPropertyOp4
 70
     1
102
RTVSPropertyOp5
 70
     1
102
RTVSPropertyOp6
 70
     1
102
RTVSPropertyOp7
 70
     1
102
RTVSPropertyOp8
 70
     1
102
RTVSPropertyOp9
 70
     1
102
RTVSPropertyOp10
 70
     1
102
RTVSPropertyOp11
 70
     1
102
RTVSPropertyOp12
 70
     1
102
RTVSPropertyOp13
 70
     1
102
RTVSPropertyOp14
 70
     1
102
RTVSPropertyOp15
 70
     1
102
RTVSPropertyOp16
 70
     1
102
RTVSPropertyOp17
 70
     1
102
RTVSPropertyOp18
 70
     1
102
RTVSPropertyOp19
 70
     1
102
RTVSPropertyOp20
 70
     1
102
RTVSPropertyOp21
 70
     1
102
RTVSPropertyOp22
 70
     1
102
RTVSPropertyOp23
 70
     1
102
RTVSPropertyOp24
 70
     1
102
RTVSPropertyOp25
 70
     1
102
RTVSPropertyOp26
 70
     1
102
RTVSPropertyOp27
 70
     1
102
RTVSPropertyOp28
 70
     1
102
RTVSPropertyOp29
 70
     1
102
RTVSPropertyOp30
 70
     1
102
RTVSPropertyOp31
 70
     1
102
RTVSPropertyOp32
 70
     1
102
RTVSPropertyOp33
 70
     1
102
RTVSPropertyOp34
 70
     1
102
RTVSPropertyOp35
 70
     1
102
RTVSPropertyOp36
 70
     1
102
RTVSPropertyOp37
 70
     1
102
RTVSPropertyOp38
 70
     1
102
RTVSPropertyOp39
 70
     1
102
RTVSPropertyOp40
 70
     1
102
RTVSPropertyOp41
 70
     1
102
RTVSPropertyOp42
 70
     1
102
RTVSPropertyOp43
 70
     1
102
RTVSPropertyOp44
 70
     1
102
RTVSPropertyOp45
 70
     1
102
RTVSPropertyOp46
 70
     1
102
RTVSPropertyOp47
 70
     1
102
RTVSPropertyOp48
 70
     1
102
RTVSPropertyOp49
 70
     1
102
RTVSPropertyOp50
 70
     1
102
RTVSPropertyOp51
 70
     0
102
RTVSPropertyOp52
 70
     0
102
RTVSPropertyOp53
 70
     1
102
RTVSPropertyOp54
 70
     1
102
RTVSPropertyOp55
 70
     1
102
RTVSPropertyOp56
 70
     1
102
RTVSPropertyOp57
 70
     1
102
RTVSPropertyOp58
 70
     1
102
RTVSPropertyOp59
 70
     1
102
RTVSPropertyOp60
 70
     1
102
RTVSPropertyOp61
 70
     1
102
RTVSPropertyOp62
 70
     1
  0
XRECORD
  5
5D2
102
{ACAD_REACTORS
330
5D1
102
}
330
5D1
100
AcDbXrecord
280
     1
102
RTVSPost2010Prop28
280
     0
102
RTVSPost2010PropOp28
 70
     1
102
RTVSPost2010Prop29
280
     1
102
RTVSPost2010PropOp29
 70
     1
102
RTVSPost2010Prop30
280
     1
102
RTVSPost2010PropOp30
 70
     1
102
RTVSPost2010Prop31
280
     0
102
RTVSPost2010PropOp31
 70
     1
102
RTVSPost2010Prop32
280
     0
102
RTVSPost2010PropOp32
 70
     1
102
RTVSPost2010Prop33
280
     0
102
RTVSPost2010PropOp33
 70
     1
102
RTVSPost2010Prop34
280
     0
102
RTVSPost2010PropOp34
 70
     1
102
RTVSPost2010Prop35
280
     0
102
RTVSPost2010PropOp35
 70
     1
102
RTVSPost2010Prop36
280
     0
102
RTVSPost2010PropOp36
 70
     1
102
RTVSPost2010Prop37
 90
       50
102
RTVSPost2010PropOp37
 70
     1
102
RTVSPost2010Prop38
140
0.0
102
RTVSPost2010PropOp38
 70
     1
102
RTVSPost2010Prop39
140
1.0
102
RTVSPost2010PropOp39
 70
     1
102
RTVSPost2010Prop40
 90
        0
102
RTVSPost2010PropOp40
 70
     1
102
RTVSPost2010Prop41ColorIndex
 90
       18
102
RTVSPost2010Prop41ColorRGB
 90
        0
102
RTVSPost2010PropOp41
 70
     1
102
RTVSPost2010Prop42
 90
       50
102
RTVSPost2010PropOp42
 70
     1
102
RTVSPost2010Prop43
 90
        3
102
RTVSPost2010PropOp43
 70
     1
102
RTVSPost2010Prop44ColorIndex
 90
        5
102
RTVSPost2010Prop44ColorRGB
 90
      255
102
RTVSPost2010PropOp44
 70
     1
102
RTVSPost2010Prop45
280
     0
102
RTVSPost2010PropOp45
 70
     1
102
RTVSPost2010Prop46
 90
       50
102
RTVSPost2010PropOp46
 70
     1
102
RTVSPost2010Prop47
 90
       50
102
RTVSPost2010PropOp47
 70
     1
102
RTVSPost2010Prop48
 90
       50
102
RTVSPost2010PropOp48
 70
     1
102
RTVSPost2010Prop49
280
     0
102
RTVSPost2010PropOp49
 70
     1
102
RTVSPost2010Prop50
 90
       50
102
RTVSPost2010PropOp50
 70
     1
102
RTVSPost2010Prop51ColorIndex
 90
      256
102
RTVSPost2010Prop51ColorRGB
 90
-16777216
102
RTVSPost2010PropOp51
 70
     0
102
RTVSPost2010Prop52
140
1.0
102
RTVSPost2010PropOp52
 70
     0
102
RTVSPost2010Prop53
 90
        2
102
RTVSPost2010PropOp53
 70
     1
102
RTVSPost2010Prop54
  1
strokes_ogs.tif
102
RTVSPost2010PropOp54
 70
     1
102
RTVSPost2010Prop55
280
     0
102
RTVSPost2010PropOp55
 70
     1
102
RTVSPost2010Prop56
140
1.0
102
RTVSPost2010PropOp56
 70
     1
102
RTVSPost2010Prop57
140
1.0
102
RTVSPost2010PropOp57
 70
     1
102
RTVSPropertyOp0
 70
     1
102
RTVSPropertyOp1
 70
     1
102
RTVSPropertyOp2
 70
     1
102
RTVSPropertyOp3
 70
     1
102
RTVSPropertyOp4
 70
     1
102
RTVSPropertyOp5
 70
     1
102
RTVSPropertyOp6
 70
     1
102
RTVSPropertyOp7
 70
     1
102
RTVSPropertyOp8
 70
     1
102
RTVSPropertyOp9
 70
     1
102
RTVSPropertyOp10
 70
     1
102
RTVSPropertyOp11
 70
     1
102
RTVSPropertyOp12
 70
     1
102
RTVSPropertyOp13
 70
     1
102
RTVSPropertyOp14
 70
     1
102
RTVSPropertyOp15
 70
     1
102
RTVSPropertyOp16
 70
     1
102
RTVSPropertyOp17
 70
     1
102
RTVSPropertyOp18
 70
     1
102
RTVSPropertyOp19
 70
     1
102
RTVSPropertyOp20
 70
     1
102
RTVSPropertyOp21
 70
     1
102
RTVSPropertyOp22
 70
     1
102
RTVSPropertyOp23
 70
     1
102
RTVSPropertyOp24
 70
     1
102
RTVSPropertyOp25
 70
     1
102
RTVSPropertyOp26
 70
     1
102
RTVSPropertyOp27
 70
     1
102
RTVSPropertyOp28
 70
     1
102
RTVSPropertyOp29
 70
     1
102
RTVSPropertyOp30
 70
     1
102
RTVSPropertyOp31
 70
     1
102
RTVSPropertyOp32
 70
     1
102
RTVSPropertyOp33
 70
     1
102
RTVSPropertyOp34
 70
     1
102
RTVSPropertyOp35
 70
     1
102
RTVSPropertyOp36
 70
     1
102
RTVSPropertyOp37
 70
     1
102
RTVSPropertyOp38
 70
     1
102
RTVSPropertyOp39
 70
     1
102
RTVSPropertyOp40
 70
     1
102
RTVSPropertyOp41
 70
     1
102
RTVSPropertyOp42
 70
     1
102
RTVSPropertyOp43
 70
     1
102
RTVSPropertyOp44
 70
     1
102
RTVSPropertyOp45
 70
     1
102
RTVSPropertyOp46
 70
     1
102
RTVSPropertyOp47
 70
     1
102
RTVSPropertyOp48
 70
     1
102
RTVSPropertyOp49
 70
     1
102
RTVSPropertyOp50
 70
     1
102
RTVSPropertyOp51
 70
     0
102
RTVSPropertyOp52
 70
     0
102
RTVSPropertyOp53
 70
     1
102
RTVSPropertyOp54
 70
     1
102
RTVSPropertyOp55
 70
     1
102
RTVSPropertyOp56
 70
     1
102
RTVSPropertyOp57
 70
     1
102
RTVSPropertyOp58
 70
     1
102
RTVSPropertyOp59
 70
     1
102
RTVSPropertyOp60
 70
     1
102
RTVSPropertyOp61
 70
     1
102
RTVSPropertyOp62
 70
     1
  0
XRECORD
  5
5E0
102
{ACAD_REACTORS
330
5DF
102
}
330
5DF
100
AcDbXrecord
280
     1
102
RTVSPost2010Prop28
280
     0
102
RTVSPost2010PropOp28
 70
     1
102
RTVSPost2010Prop29
280
     1
102
RTVSPost2010PropOp29
 70
     1
102
RTVSPost2010Prop30
280
     1
102
RTVSPost2010PropOp30
 70
     1
102
RTVSPost2010Prop31
280
     0
102
RTVSPost2010PropOp31
 70
     1
102
RTVSPost2010Prop32
280
     0
102
RTVSPost2010PropOp32
 70
     1
102
RTVSPost2010Prop33
280
     0
102
RTVSPost2010PropOp33
 70
     1
102
RTVSPost2010Prop34
280
     0
102
RTVSPost2010PropOp34
 70
     1
102
RTVSPost2010Prop35
280
     0
102
RTVSPost2010PropOp35
 70
     1
102
RTVSPost2010Prop36
280
     0
102
RTVSPost2010PropOp36
 70
     1
102
RTVSPost2010Prop37
 90
       50
102
RTVSPost2010PropOp37
 70
     1
102
RTVSPost2010Prop38
140
0.0
102
RTVSPost2010PropOp38
 70
     1
102
RTVSPost2010Prop39
140
1.0
102
RTVSPost2010PropOp39
 70
     1
102
RTVSPost2010Prop40
 90
        0
102
RTVSPost2010PropOp40
 70
     1
102
RTVSPost2010Prop41ColorIndex
 90
       18
102
RTVSPost2010Prop41ColorRGB
 90
        0
102
RTVSPost2010PropOp41
 70
     1
102
RTVSPost2010Prop42
 90
       50
102
RTVSPost2010PropOp42
 70
     1
102
RTVSPost2010Prop43
 90
        3
102
RTVSPost2010PropOp43
 70
     1
102
RTVSPost2010Prop44ColorIndex
 90
        5
102
RTVSPost2010Prop44ColorRGB
 90
      255
102
RTVSPost2010PropOp44
 70
     1
102
RTVSPost2010Prop45
280
     0
102
RTVSPost2010PropOp45
 70
     1
102
RTVSPost2010Prop46
 90
       50
102
RTVSPost2010PropOp46
 70
     1
102
RTVSPost2010Prop47
 90
       50
102
RTVSPost2010PropOp47
 70
     1
102
RTVSPost2010Prop48
 90
       50
102
RTVSPost2010PropOp48
 70
     1
102
RTVSPost2010Prop49
280
     0
102
RTVSPost2010PropOp49
 70
     1
102
RTVSPost2010Prop50
 90
       50
102
RTVSPost2010PropOp50
 70
     1
102
RTVSPost2010Prop51ColorIndex
 90
      256
102
RTVSPost2010Prop51ColorRGB
 90
-16777216
102
RTVSPost2010PropOp51
 70
     0
102
RTVSPost2010Prop52
140
1.0
102
RTVSPost2010PropOp52
 70
     0
102
RTVSPost2010Prop53
 90
        2
102
RTVSPost2010PropOp53
 70
     1
102
RTVSPost2010Prop54
  1
strokes_ogs.tif
102
RTVSPost2010PropOp54
 70
     1
102
RTVSPost2010Prop55
280
     0
102
RTVSPost2010PropOp55
 70
     1
102
RTVSPost2010Prop56
140
1.0
102
RTVSPost2010PropOp56
 70
     1
102
RTVSPost2010Prop57
140
1.0
102
RTVSPost2010PropOp57
 70
     1
102
RTVSPropertyOp0
 70
     1
102
RTVSPropertyOp1
 70
     1
102
RTVSPropertyOp2
 70
     1
102
RTVSPropertyOp3
 70
     1
102
RTVSPropertyOp4
 70
     1
102
RTVSPropertyOp5
 70
     1
102
RTVSPropertyOp6
 70
     1
102
RTVSPropertyOp7
 70
     1
102
RTVSPropertyOp8
 70
     1
102
RTVSPropertyOp9
 70
     1
102
RTVSPropertyOp10
 70
     1
102
RTVSPropertyOp11
 70
     1
102
RTVSPropertyOp12
 70
     1
102
RTVSPropertyOp13
 70
     1
102
RTVSPropertyOp14
 70
     1
102
RTVSPropertyOp15
 70
     1
102
RTVSPropertyOp16
 70
     1
102
RTVSPropertyOp17
 70
     1
102
RTVSPropertyOp18
 70
     1
102
RTVSPropertyOp19
 70
     1
102
RTVSPropertyOp20
 70
     1
102
RTVSPropertyOp21
 70
     1
102
RTVSPropertyOp22
 70
     1
102
RTVSPropertyOp23
 70
     1
102
RTVSPropertyOp24
 70
     1
102
RTVSPropertyOp25
 70
     1
102
RTVSPropertyOp26
 70
     1
102
RTVSPropertyOp27
 70
     1
102
RTVSPropertyOp28
 70
     1
102
RTVSPropertyOp29
 70
     1
102
RTVSPropertyOp30
 70
     1
102
RTVSPropertyOp31
 70
     1
102
RTVSPropertyOp32
 70
     1
102
RTVSPropertyOp33
 70
     1
102
RTVSPropertyOp34
 70
     1
102
RTVSPropertyOp35
 70
     1
102
RTVSPropertyOp36
 70
     1
102
RTVSPropertyOp37
 70
     1
102
RTVSPropertyOp38
 70
     1
102
RTVSPropertyOp39
 70
     1
102
RTVSPropertyOp40
 70
     1
102
RTVSPropertyOp41
 70
     1
102
RTVSPropertyOp42
 70
     1
102
RTVSPropertyOp43
 70
     1
102
RTVSPropertyOp44
 70
     1
102
RTVSPropertyOp45
 70
     1
102
RTVSPropertyOp46
 70
     1
102
RTVSPropertyOp47
 70
     1
102
RTVSPropertyOp48
 70
     1
102
RTVSPropertyOp49
 70
     1
102
RTVSPropertyOp50
 70
     1
102
RTVSPropertyOp51
 70
     0
102
RTVSPropertyOp52
 70
     0
102
RTVSPropertyOp53
 70
     1
102
RTVSPropertyOp54
 70
     1
102
RTVSPropertyOp55
 70
     1
102
RTVSPropertyOp56
 70
     1
102
RTVSPropertyOp57
 70
     1
102
RTVSPropertyOp58
 70
     1
102
RTVSPropertyOp59
 70
     1
102
RTVSPropertyOp60
 70
     1
102
RTVSPropertyOp61
 70
     1
102
RTVSPropertyOp62
 70
     1
  0
XRECORD
  5
5E8
102
{ACAD_REACTORS
330
5E7
102
}
330
5E7
100
AcDbXrecord
280
     1
102
RTVSPost2010Prop28
280
     0
102
RTVSPost2010PropOp28
 70
     1
102
RTVSPost2010Prop29
280
     1
102
RTVSPost2010PropOp29
 70
     1
102
RTVSPost2010Prop30
280
     1
102
RTVSPost2010PropOp30
 70
     1
102
RTVSPost2010Prop31
280
     0
102
RTVSPost2010PropOp31
 70
     1
102
RTVSPost2010Prop32
280
     0
102
RTVSPost2010PropOp32
 70
     1
102
RTVSPost2010Prop33
280
     0
102
RTVSPost2010PropOp33
 70
     1
102
RTVSPost2010Prop34
280
     0
102
RTVSPost2010PropOp34
 70
     1
102
RTVSPost2010Prop35
280
     0
102
RTVSPost2010PropOp35
 70
     1
102
RTVSPost2010Prop36
280
     0
102
RTVSPost2010PropOp36
 70
     1
102
RTVSPost2010Prop37
 90
       50
102
RTVSPost2010PropOp37
 70
     1
102
RTVSPost2010Prop38
140
0.0
102
RTVSPost2010PropOp38
 70
     1
102
RTVSPost2010Prop39
140
1.0
102
RTVSPost2010PropOp39
 70
     1
102
RTVSPost2010Prop40
 90
        0
102
RTVSPost2010PropOp40
 70
     1
102
RTVSPost2010Prop41ColorIndex
 90
       18
102
RTVSPost2010Prop41ColorRGB
 90
        0
102
RTVSPost2010PropOp41
 70
     1
102
RTVSPost2010Prop42
 90
       50
102
RTVSPost2010PropOp42
 70
     1
102
RTVSPost2010Prop43
 90
        3
102
RTVSPost2010PropOp43
 70
     1
102
RTVSPost2010Prop44ColorIndex
 90
        5
102
RTVSPost2010Prop44ColorRGB
 90
      255
102
RTVSPost2010PropOp44
 70
     1
102
RTVSPost2010Prop45
280
     0
102
RTVSPost2010PropOp45
 70
     1
102
RTVSPost2010Prop46
 90
       50
102
RTVSPost2010PropOp46
 70
     1
102
RTVSPost2010Prop47
 90
       50
102
RTVSPost2010PropOp47
 70
     1
102
RTVSPost2010Prop48
 90
       50
102
RTVSPost2010PropOp48
 70
     1
102
RTVSPost2010Prop49
280
     0
102
RTVSPost2010PropOp49
 70
     1
102
RTVSPost2010Prop50
 90
       50
102
RTVSPost2010PropOp50
 70
     1
102
RTVSPost2010Prop51ColorIndex
 90
      256
102
RTVSPost2010Prop51ColorRGB
 90
-16777216
102
RTVSPost2010PropOp51
 70
     0
102
RTVSPost2010Prop52
140
1.0
102
RTVSPost2010PropOp52
 70
     0
102
RTVSPost2010Prop53
 90
        2
102
RTVSPost2010PropOp53
 70
     1
102
RTVSPost2010Prop54
  1
strokes_ogs.tif
102
RTVSPost2010PropOp54
 70
     1
102
RTVSPost2010Prop55
280
     0
102
RTVSPost2010PropOp55
 70
     1
102
RTVSPost2010Prop56
140
1.0
102
RTVSPost2010PropOp56
 70
     1
102
RTVSPost2010Prop57
140
1.0
102
RTVSPost2010PropOp57
 70
     1
102
RTVSPropertyOp0
 70
     1
102
RTVSPropertyOp1
 70
     1
102
RTVSPropertyOp2
 70
     1
102
RTVSPropertyOp3
 70
     1
102
RTVSPropertyOp4
 70
     1
102
RTVSPropertyOp5
 70
     1
102
RTVSPropertyOp6
 70
     1
102
RTVSPropertyOp7
 70
     1
102
RTVSPropertyOp8
 70
     1
102
RTVSPropertyOp9
 70
     1
102
RTVSPropertyOp10
 70
     1
102
RTVSPropertyOp11
 70
     1
102
RTVSPropertyOp12
 70
     1
102
RTVSPropertyOp13
 70
     1
102
RTVSPropertyOp14
 70
     1
102
RTVSPropertyOp15
 70
     1
102
RTVSPropertyOp16
 70
     1
102
RTVSPropertyOp17
 70
     1
102
RTVSPropertyOp18
 70
     1
102
RTVSPropertyOp19
 70
     1
102
RTVSPropertyOp20
 70
     1
102
RTVSPropertyOp21
 70
     1
102
RTVSPropertyOp22
 70
     1
102
RTVSPropertyOp23
 70
     1
102
RTVSPropertyOp24
 70
     1
102
RTVSPropertyOp25
 70
     1
102
RTVSPropertyOp26
 70
     1
102
RTVSPropertyOp27
 70
     1
102
RTVSPropertyOp28
 70
     1
102
RTVSPropertyOp29
 70
     1
102
RTVSPropertyOp30
 70
     1
102
RTVSPropertyOp31
 70
     1
102
RTVSPropertyOp32
 70
     1
102
RTVSPropertyOp33
 70
     1
102
RTVSPropertyOp34
 70
     1
102
RTVSPropertyOp35
 70
     1
102
RTVSPropertyOp36
 70
     1
102
RTVSPropertyOp37
 70
     1
102
RTVSPropertyOp38
 70
     1
102
RTVSPropertyOp39
 70
     1
102
RTVSPropertyOp40
 70
     1
102
RTVSPropertyOp41
 70
     1
102
RTVSPropertyOp42
 70
     1
102
RTVSPropertyOp43
 70
     1
102
RTVSPropertyOp44
 70
     1
102
RTVSPropertyOp45
 70
     1
102
RTVSPropertyOp46
 70
     1
102
RTVSPropertyOp47
 70
     1
102
RTVSPropertyOp48
 70
     1
102
RTVSPropertyOp49
 70
     1
102
RTVSPropertyOp50
 70
     1
102
RTVSPropertyOp51
 70
     0
102
RTVSPropertyOp52
 70
     0
102
RTVSPropertyOp53
 70
     1
102
RTVSPropertyOp54
 70
     1
102
RTVSPropertyOp55
 70
     1
102
RTVSPropertyOp56
 70
     1
102
RTVSPropertyOp57
 70
     1
102
RTVSPropertyOp58
 70
     1
102
RTVSPropertyOp59
 70
     1
102
RTVSPropertyOp60
 70
     1
102
RTVSPropertyOp61
 70
     1
102
RTVSPropertyOp62
 70
     1
  0
XRECORD
  5
5DA
102
{ACAD_REACTORS
330
5D9
102
}
330
5D9
100
AcDbXrecord
280
     1
102
RTVSPost2010Prop28
280
     0
102
RTVSPost2010PropOp28
 70
     1
102
RTVSPost2010Prop29
280
     1
102
RTVSPost2010PropOp29
 70
     1
102
RTVSPost2010Prop30
280
     1
102
RTVSPost2010PropOp30
 70
     1
102
RTVSPost2010Prop31
280
     0
102
RTVSPost2010PropOp31
 70
     1
102
RTVSPost2010Prop32
280
     0
102
RTVSPost2010PropOp32
 70
     1
102
RTVSPost2010Prop33
280
     0
102
RTVSPost2010PropOp33
 70
     1
102
RTVSPost2010Prop34
280
     0
102
RTVSPost2010PropOp34
 70
     1
102
RTVSPost2010Prop35
280
     0
102
RTVSPost2010PropOp35
 70
     1
102
RTVSPost2010Prop36
280
     0
102
RTVSPost2010PropOp36
 70
     1
102
RTVSPost2010Prop37
 90
       50
102
RTVSPost2010PropOp37
 70
     1
102
RTVSPost2010Prop38
140
0.0
102
RTVSPost2010PropOp38
 70
     1
102
RTVSPost2010Prop39
140
1.0
102
RTVSPost2010PropOp39
 70
     1
102
RTVSPost2010Prop40
 90
        0
102
RTVSPost2010PropOp40
 70
     1
102
RTVSPost2010Prop41ColorIndex
 90
       18
102
RTVSPost2010Prop41ColorRGB
 90
        0
102
RTVSPost2010PropOp41
 70
     1
102
RTVSPost2010Prop42
 90
       50
102
RTVSPost2010PropOp42
 70
     1
102
RTVSPost2010Prop43
 90
        3
102
RTVSPost2010PropOp43
 70
     1
102
RTVSPost2010Prop44ColorIndex
 90
        5
102
RTVSPost2010Prop44ColorRGB
 90
      255
102
RTVSPost2010PropOp44
 70
     1
102
RTVSPost2010Prop45
280
     0
102
RTVSPost2010PropOp45
 70
     1
102
RTVSPost2010Prop46
 90
       50
102
RTVSPost2010PropOp46
 70
     1
102
RTVSPost2010Prop47
 90
       50
102
RTVSPost2010PropOp47
 70
     1
102
RTVSPost2010Prop48
 90
       50
102
RTVSPost2010PropOp48
 70
     1
102
RTVSPost2010Prop49
280
     0
102
RTVSPost2010PropOp49
 70
     1
102
RTVSPost2010Prop50
 90
       50
102
RTVSPost2010PropOp50
 70
     1
102
RTVSPost2010Prop51ColorIndex
 90
      256
102
RTVSPost2010Prop51ColorRGB
 90
-16777216
102
RTVSPost2010PropOp51
 70
     0
102
RTVSPost2010Prop52
140
1.0
102
RTVSPost2010PropOp52
 70
     0
102
RTVSPost2010Prop53
 90
        2
102
RTVSPost2010PropOp53
 70
     1
102
RTVSPost2010Prop54
  1
strokes_ogs.tif
102
RTVSPost2010PropOp54
 70
     1
102
RTVSPost2010Prop55
280
     0
102
RTVSPost2010PropOp55
 70
     1
102
RTVSPost2010Prop56
140
1.0
102
RTVSPost2010PropOp56
 70
     1
102
RTVSPost2010Prop57
140
1.0
102
RTVSPost2010PropOp57
 70
     1
102
RTVSPropertyOp0
 70
     1
102
RTVSPropertyOp1
 70
     1
102
RTVSPropertyOp2
 70
     1
102
RTVSPropertyOp3
 70
     1
102
RTVSPropertyOp4
 70
     1
102
RTVSPropertyOp5
 70
     1
102
RTVSPropertyOp6
 70
     1
102
RTVSPropertyOp7
 70
     1
102
RTVSPropertyOp8
 70
     1
102
RTVSPropertyOp9
 70
     1
102
RTVSPropertyOp10
 70
     1
102
RTVSPropertyOp11
 70
     1
102
RTVSPropertyOp12
 70
     1
102
RTVSPropertyOp13
 70
     1
102
RTVSPropertyOp14
 70
     1
102
RTVSPropertyOp15
 70
     1
102
RTVSPropertyOp16
 70
     1
102
RTVSPropertyOp17
 70
     1
102
RTVSPropertyOp18
 70
     1
102
RTVSPropertyOp19
 70
     1
102
RTVSPropertyOp20
 70
     1
102
RTVSPropertyOp21
 70
     1
102
RTVSPropertyOp22
 70
     1
102
RTVSPropertyOp23
 70
     1
102
RTVSPropertyOp24
 70
     1
102
RTVSPropertyOp25
 70
     1
102
RTVSPropertyOp26
 70
     1
102
RTVSPropertyOp27
 70
     1
102
RTVSPropertyOp28
 70
     1
102
RTVSPropertyOp29
 70
     1
102
RTVSPropertyOp30
 70
     1
102
RTVSPropertyOp31
 70
     1
102
RTVSPropertyOp32
 70
     1
102
RTVSPropertyOp33
 70
     1
102
RTVSPropertyOp34
 70
     1
102
RTVSPropertyOp35
 70
     1
102
RTVSPropertyOp36
 70
     1
102
RTVSPropertyOp37
 70
     1
102
RTVSPropertyOp38
 70
     1
102
RTVSPropertyOp39
 70
     1
102
RTVSPropertyOp40
 70
     1
102
RTVSPropertyOp41
 70
     1
102
RTVSPropertyOp42
 70
     1
102
RTVSPropertyOp43
 70
     1
102
RTVSPropertyOp44
 70
     1
102
RTVSPropertyOp45
 70
     1
102
RTVSPropertyOp46
 70
     1
102
RTVSPropertyOp47
 70
     1
102
RTVSPropertyOp48
 70
     1
102
RTVSPropertyOp49
 70
     1
102
RTVSPropertyOp50
 70
     1
102
RTVSPropertyOp51
 70
     0
102
RTVSPropertyOp52
 70
     0
102
RTVSPropertyOp53
 70
     1
102
RTVSPropertyOp54
 70
     1
102
RTVSPropertyOp55
 70
     1
102
RTVSPropertyOp56
 70
     1
102
RTVSPropertyOp57
 70
     1
102
RTVSPropertyOp58
 70
     1
102
RTVSPropertyOp59
 70
     1
102
RTVSPropertyOp60
 70
     1
102
RTVSPropertyOp61
 70
     1
102
RTVSPropertyOp62
 70
     1
  0
XRECORD
  5
5DE
102
{ACAD_REACTORS
330
5DD
102
}
330
5DD
100
AcDbXrecord
280
     1
102
RTVSPost2010Prop28
280
     0
102
RTVSPost2010PropOp28
 70
     1
102
RTVSPost2010Prop29
280
     1
102
RTVSPost2010PropOp29
 70
     1
102
RTVSPost2010Prop30
280
     1
102
RTVSPost2010PropOp30
 70
     1
102
RTVSPost2010Prop31
280
     0
102
RTVSPost2010PropOp31
 70
     1
102
RTVSPost2010Prop32
280
     0
102
RTVSPost2010PropOp32
 70
     1
102
RTVSPost2010Prop33
280
     0
102
RTVSPost2010PropOp33
 70
     1
102
RTVSPost2010Prop34
280
     0
102
RTVSPost2010PropOp34
 70
     1
102
RTVSPost2010Prop35
280
     0
102
RTVSPost2010PropOp35
 70
     1
102
RTVSPost2010Prop36
280
     0
102
RTVSPost2010PropOp36
 70
     1
102
RTVSPost2010Prop37
 90
       50
102
RTVSPost2010PropOp37
 70
     1
102
RTVSPost2010Prop38
140
0.0
102
RTVSPost2010PropOp38
 70
     1
102
RTVSPost2010Prop39
140
1.0
102
RTVSPost2010PropOp39
 70
     1
102
RTVSPost2010Prop40
 90
        0
102
RTVSPost2010PropOp40
 70
     1
102
RTVSPost2010Prop41ColorIndex
 90
       18
102
RTVSPost2010Prop41ColorRGB
 90
        0
102
RTVSPost2010PropOp41
 70
     1
102
RTVSPost2010Prop42
 90
       50
102
RTVSPost2010PropOp42
 70
     1
102
RTVSPost2010Prop43
 90
        3
102
RTVSPost2010PropOp43
 70
     1
102
RTVSPost2010Prop44ColorIndex
 90
        5
102
RTVSPost2010Prop44ColorRGB
 90
      255
102
RTVSPost2010PropOp44
 70
     1
102
RTVSPost2010Prop45
280
     0
102
RTVSPost2010PropOp45
 70
     1
102
RTVSPost2010Prop46
 90
       50
102
RTVSPost2010PropOp46
 70
     1
102
RTVSPost2010Prop47
 90
       50
102
RTVSPost2010PropOp47
 70
     1
102
RTVSPost2010Prop48
 90
       50
102
RTVSPost2010PropOp48
 70
     1
102
RTVSPost2010Prop49
280
     0
102
RTVSPost2010PropOp49
 70
     1
102
RTVSPost2010Prop50
 90
       50
102
RTVSPost2010PropOp50
 70
     1
102
RTVSPost2010Prop51ColorIndex
 90
      256
102
RTVSPost2010Prop51ColorRGB
 90
-16777216
102
RTVSPost2010PropOp51
 70
     0
102
RTVSPost2010Prop52
140
1.0
102
RTVSPost2010PropOp52
 70
     0
102
RTVSPost2010Prop53
 90
        2
102
RTVSPost2010PropOp53
 70
     1
102
RTVSPost2010Prop54
  1
strokes_ogs.tif
102
RTVSPost2010PropOp54
 70
     1
102
RTVSPost2010Prop55
280
     0
102
RTVSPost2010PropOp55
 70
     1
102
RTVSPost2010Prop56
140
1.0
102
RTVSPost2010PropOp56
 70
     1
102
RTVSPost2010Prop57
140
1.0
102
RTVSPost2010PropOp57
 70
     1
102
RTVSPropertyOp0
 70
     1
102
RTVSPropertyOp1
 70
     1
102
RTVSPropertyOp2
 70
     1
102
RTVSPropertyOp3
 70
     1
102
RTVSPropertyOp4
 70
     1
102
RTVSPropertyOp5
 70
     1
102
RTVSPropertyOp6
 70
     1
102
RTVSPropertyOp7
 70
     1
102
RTVSPropertyOp8
 70
     1
102
RTVSPropertyOp9
 70
     1
102
RTVSPropertyOp10
 70
     1
102
RTVSPropertyOp11
 70
     1
102
RTVSPropertyOp12
 70
     1
102
RTVSPropertyOp13
 70
     1
102
RTVSPropertyOp14
 70
     1
102
RTVSPropertyOp15
 70
     1
102
RTVSPropertyOp16
 70
     1
102
RTVSPropertyOp17
 70
     1
102
RTVSPropertyOp18
 70
     1
102
RTVSPropertyOp19
 70
     1
102
RTVSPropertyOp20
 70
     1
102
RTVSPropertyOp21
 70
     1
102
RTVSPropertyOp22
 70
     1
102
RTVSPropertyOp23
 70
     1
102
RTVSPropertyOp24
 70
     1
102
RTVSPropertyOp25
 70
     1
102
RTVSPropertyOp26
 70
     1
102
RTVSPropertyOp27
 70
     1
102
RTVSPropertyOp28
 70
     1
102
RTVSPropertyOp29
 70
     1
102
RTVSPropertyOp30
 70
     1
102
RTVSPropertyOp31
 70
     1
102
RTVSPropertyOp32
 70
     1
102
RTVSPropertyOp33
 70
     1
102
RTVSPropertyOp34
 70
     1
102
RTVSPropertyOp35
 70
     1
102
RTVSPropertyOp36
 70
     1
102
RTVSPropertyOp37
 70
     1
102
RTVSPropertyOp38
 70
     1
102
RTVSPropertyOp39
 70
     1
102
RTVSPropertyOp40
 70
     1
102
RTVSPropertyOp41
 70
     1
102
RTVSPropertyOp42
 70
     1
102
RTVSPropertyOp43
 70
     1
102
RTVSPropertyOp44
 70
     1
102
RTVSPropertyOp45
 70
     1
102
RTVSPropertyOp46
 70
     1
102
RTVSPropertyOp47
 70
     1
102
RTVSPropertyOp48
 70
     1
102
RTVSPropertyOp49
 70
     1
102
RTVSPropertyOp50
 70
     1
102
RTVSPropertyOp51
 70
     0
102
RTVSPropertyOp52
 70
     0
102
RTVSPropertyOp53
 70
     1
102
RTVSPropertyOp54
 70
     1
102
RTVSPropertyOp55
 70
     1
102
RTVSPropertyOp56
 70
     1
102
RTVSPropertyOp57
 70
     1
102
RTVSPropertyOp58
 70
     1
102
RTVSPropertyOp59
 70
     1
102
RTVSPropertyOp60
 70
     1
102
RTVSPropertyOp61
 70
     1
102
RTVSPropertyOp62
 70
     1
  0
XRECORD
  5
5EF
102
{ACAD_REACTORS
330
5EE
102
}
330
5EE
100
AcDbXrecord
280
     1
102
RTVSPost2010Prop28
280
     0
102
RTVSPost2010PropOp28
 70
     1
102
RTVSPost2010Prop29
280
     1
102
RTVSPost2010PropOp29
 70
     1
102
RTVSPost2010Prop30
280
     1
102
RTVSPost2010PropOp30
 70
     1
102
RTVSPost2010Prop31
280
     0
102
RTVSPost2010PropOp31
 70
     1
102
RTVSPost2010Prop32
280
     0
102
RTVSPost2010PropOp32
 70
     1
102
RTVSPost2010Prop33
280
     0
102
RTVSPost2010PropOp33
 70
     1
102
RTVSPost2010Prop34
280
     0
102
RTVSPost2010PropOp34
 70
     1
102
RTVSPost2010Prop35
280
     0
102
RTVSPost2010PropOp35
 70
     1
102
RTVSPost2010Prop36
280
     0
102
RTVSPost2010PropOp36
 70
     1
102
RTVSPost2010Prop37
 90
       50
102
RTVSPost2010PropOp37
 70
     1
102
RTVSPost2010Prop38
140
0.0
102
RTVSPost2010PropOp38
 70
     1
102
RTVSPost2010Prop39
140
1.0
102
RTVSPost2010PropOp39
 70
     1
102
RTVSPost2010Prop40
 90
        0
102
RTVSPost2010PropOp40
 70
     1
102
RTVSPost2010Prop41ColorIndex
 90
       18
102
RTVSPost2010Prop41ColorRGB
 90
        0
102
RTVSPost2010PropOp41
 70
     1
102
RTVSPost2010Prop42
 90
       50
102
RTVSPost2010PropOp42
 70
     1
102
RTVSPost2010Prop43
 90
        3
102
RTVSPost2010PropOp43
 70
     1
102
RTVSPost2010Prop44ColorIndex
 90
        5
102
RTVSPost2010Prop44ColorRGB
 90
      255
102
RTVSPost2010PropOp44
 70
     1
102
RTVSPost2010Prop45
280
     0
102
RTVSPost2010PropOp45
 70
     1
102
RTVSPost2010Prop46
 90
       50
102
RTVSPost2010PropOp46
 70
     1
102
RTVSPost2010Prop47
 90
       50
102
RTVSPost2010PropOp47
 70
     1
102
RTVSPost2010Prop48
 90
       50
102
RTVSPost2010PropOp48
 70
     1
102
RTVSPost2010Prop49
280
     0
102
RTVSPost2010PropOp49
 70
     1
102
RTVSPost2010Prop50
 90
       50
102
RTVSPost2010PropOp50
 70
     1
102
RTVSPost2010Prop51ColorIndex
 90
      256
102
RTVSPost2010Prop51ColorRGB
 90
-16777216
102
RTVSPost2010PropOp51
 70
     0
102
RTVSPost2010Prop52
140
1.0
102
RTVSPost2010PropOp52
 70
     0
102
RTVSPost2010Prop53
 90
        2
102
RTVSPost2010PropOp53
 70
     1
102
RTVSPost2010Prop54
  1
strokes_ogs.tif
102
RTVSPost2010PropOp54
 70
     1
102
RTVSPost2010Prop55
280
     0
102
RTVSPost2010PropOp55
 70
     1
102
RTVSPost2010Prop56
140
1.0
102
RTVSPost2010PropOp56
 70
     1
102
RTVSPost2010Prop57
140
1.0
102
RTVSPost2010PropOp57
 70
     1
102
RTVSPropertyOp0
 70
     0
102
RTVSPropertyOp1
 70
     0
102
RTVSPropertyOp2
 70
     0
102
RTVSPropertyOp3
 70
     0
102
RTVSPropertyOp4
 70
     0
102
RTVSPropertyOp5
 70
     0
102
RTVSPropertyOp6
 70
     0
102
RTVSPropertyOp7
 70
     0
102
RTVSPropertyOp8
 70
     0
102
RTVSPropertyOp9
 70
     0
102
RTVSPropertyOp10
 70
     0
102
RTVSPropertyOp11
 70
     0
102
RTVSPropertyOp12
 70
     0
102
RTVSPropertyOp13
 70
     0
102
RTVSPropertyOp14
 70
     2
102
RTVSPropertyOp15
 70
     0
102
RTVSPropertyOp16
 70
     0
102
RTVSPropertyOp17
 70
     0
102
RTVSPropertyOp18
 70
     0
102
RTVSPropertyOp19
 70
     0
102
RTVSPropertyOp20
 70
     0
102
RTVSPropertyOp21
 70
     0
102
RTVSPropertyOp22
 70
     0
102
RTVSPropertyOp23
 70
     0
102
RTVSPropertyOp24
 70
     0
102
RTVSPropertyOp25
 70
     0
102
RTVSPropertyOp26
 70
     0
102
RTVSPropertyOp27
 70
     0
102
RTVSPropertyOp28
 70
     1
102
RTVSPropertyOp29
 70
     1
102
RTVSPropertyOp30
 70
     1
102
RTVSPropertyOp31
 70
     1
102
RTVSPropertyOp32
 70
     1
102
RTVSPropertyOp33
 70
     1
102
RTVSPropertyOp34
 70
     1
102
RTVSPropertyOp35
 70
     1
102
RTVSPropertyOp36
 70
     1
102
RTVSPropertyOp37
 70
     1
102
RTVSPropertyOp38
 70
     1
102
RTVSPropertyOp39
 70
     1
102
RTVSPropertyOp40
 70
     1
102
RTVSPropertyOp41
 70
     1
102
RTVSPropertyOp42
 70
     1
102
RTVSPropertyOp43
 70
     1
102
RTVSPropertyOp44
 70
     1
102
RTVSPropertyOp45
 70
     1
102
RTVSPropertyOp46
 70
     1
102
RTVSPropertyOp47
 70
     1
102
RTVSPropertyOp48
 70
     1
102
RTVSPropertyOp49
 70
     1
102
RTVSPropertyOp50
 70
     1
102
RTVSPropertyOp51
 70
     0
102
RTVSPropertyOp52
 70
     0
102
RTVSPropertyOp53
 70
     1
102
RTVSPropertyOp54
 70
     1
102
RTVSPropertyOp55
 70
     1
102
RTVSPropertyOp56
 70
     1
102
RTVSPropertyOp57
 70
     1
102
RTVSPropertyOp58
 70
     1
102
RTVSPropertyOp59
 70
     1
102
RTVSPropertyOp60
 70
     1
102
RTVSPropertyOp61
 70
     1
102
RTVSPropertyOp62
 70
     1
  0
XRECORD
  5
5E6
102
{ACAD_REACTORS
330
5E5
102
}
330
5E5
100
AcDbXrecord
280
     1
102
RTVSPost2010Prop28
280
     0
102
RTVSPost2010PropOp28
 70
     1
102
RTVSPost2010Prop29
280
     1
102
RTVSPost2010PropOp29
 70
     1
102
RTVSPost2010Prop30
280
     1
102
RTVSPost2010PropOp30
 70
     1
102
RTVSPost2010Prop31
280
     0
102
RTVSPost2010PropOp31
 70
     1
102
RTVSPost2010Prop32
280
     0
102
RTVSPost2010PropOp32
 70
     1
102
RTVSPost2010Prop33
280
     0
102
RTVSPost2010PropOp33
 70
     1
102
RTVSPost2010Prop34
280
     0
102
RTVSPost2010PropOp34
 70
     1
102
RTVSPost2010Prop35
280
     0
102
RTVSPost2010PropOp35
 70
     1
102
RTVSPost2010Prop36
280
     0
102
RTVSPost2010PropOp36
 70
     1
102
RTVSPost2010Prop37
 90
       50
102
RTVSPost2010PropOp37
 70
     1
102
RTVSPost2010Prop38
140
0.0
102
RTVSPost2010PropOp38
 70
     1
102
RTVSPost2010Prop39
140
1.0
102
RTVSPost2010PropOp39
 70
     1
102
RTVSPost2010Prop40
 90
        0
102
RTVSPost2010PropOp40
 70
     1
102
RTVSPost2010Prop41ColorIndex
 90
       18
102
RTVSPost2010Prop41ColorRGB
 90
        0
102
RTVSPost2010PropOp41
 70
     1
102
RTVSPost2010Prop42
 90
       50
102
RTVSPost2010PropOp42
 70
     1
102
RTVSPost2010Prop43
 90
        3
102
RTVSPost2010PropOp43
 70
     1
102
RTVSPost2010Prop44ColorIndex
 90
        5
102
RTVSPost2010Prop44ColorRGB
 90
      255
102
RTVSPost2010PropOp44
 70
     1
102
RTVSPost2010Prop45
280
     0
102
RTVSPost2010PropOp45
 70
     1
102
RTVSPost2010Prop46
 90
       50
102
RTVSPost2010PropOp46
 70
     1
102
RTVSPost2010Prop47
 90
       50
102
RTVSPost2010PropOp47
 70
     1
102
RTVSPost2010Prop48
 90
       50
102
RTVSPost2010PropOp48
 70
     1
102
RTVSPost2010Prop49
280
     0
102
RTVSPost2010PropOp49
 70
     1
102
RTVSPost2010Prop50
 90
       50
102
RTVSPost2010PropOp50
 70
     1
102
RTVSPost2010Prop51ColorIndex
 90
      256
102
RTVSPost2010Prop51ColorRGB
 90
-16777216
102
RTVSPost2010PropOp51
 70
     0
102
RTVSPost2010Prop52
140
1.0
102
RTVSPost2010PropOp52
 70
     0
102
RTVSPost2010Prop53
 90
        2
102
RTVSPost2010PropOp53
 70
     1
102
RTVSPost2010Prop54
  1
strokes_ogs.tif
102
RTVSPost2010PropOp54
 70
     1
102
RTVSPost2010Prop55
280
     0
102
RTVSPost2010PropOp55
 70
     1
102
RTVSPost2010Prop56
140
1.0
102
RTVSPost2010PropOp56
 70
     1
102
RTVSPost2010Prop57
140
1.0
102
RTVSPost2010PropOp57
 70
     1
102
RTVSPropertyOp0
 70
     1
102
RTVSPropertyOp1
 70
     1
102
RTVSPropertyOp2
 70
     1
102
RTVSPropertyOp3
 70
     1
102
RTVSPropertyOp4
 70
     1
102
RTVSPropertyOp5
 70
     1
102
RTVSPropertyOp6
 70
     1
102
RTVSPropertyOp7
 70
     1
102
RTVSPropertyOp8
 70
     1
102
RTVSPropertyOp9
 70
     1
102
RTVSPropertyOp10
 70
     1
102
RTVSPropertyOp11
 70
     1
102
RTVSPropertyOp12
 70
     1
102
RTVSPropertyOp13
 70
     1
102
RTVSPropertyOp14
 70
     1
102
RTVSPropertyOp15
 70
     1
102
RTVSPropertyOp16
 70
     1
102
RTVSPropertyOp17
 70
     1
102
RTVSPropertyOp18
 70
     1
102
RTVSPropertyOp19
 70
     1
102
RTVSPropertyOp20
 70
     1
102
RTVSPropertyOp21
 70
     1
102
RTVSPropertyOp22
 70
     1
102
RTVSPropertyOp23
 70
     1
102
RTVSPropertyOp24
 70
     1
102
RTVSPropertyOp25
 70
     1
102
RTVSPropertyOp26
 70
     1
102
RTVSPropertyOp27
 70
     1
102
RTVSPropertyOp28
 70
     1
102
RTVSPropertyOp29
 70
     1
102
RTVSPropertyOp30
 70
     1
102
RTVSPropertyOp31
 70
     1
102
RTVSPropertyOp32
 70
     1
102
RTVSPropertyOp33
 70
     1
102
RTVSPropertyOp34
 70
     1
102
RTVSPropertyOp35
 70
     1
102
RTVSPropertyOp36
 70
     1
102
RTVSPropertyOp37
 70
     1
102
RTVSPropertyOp38
 70
     1
102
RTVSPropertyOp39
 70
     1
102
RTVSPropertyOp40
 70
     1
102
RTVSPropertyOp41
 70
     1
102
RTVSPropertyOp42
 70
     1
102
RTVSPropertyOp43
 70
     1
102
RTVSPropertyOp44
 70
     1
102
RTVSPropertyOp45
 70
     1
102
RTVSPropertyOp46
 70
     1
102
RTVSPropertyOp47
 70
     1
102
RTVSPropertyOp48
 70
     1
102
RTVSPropertyOp49
 70
     1
102
RTVSPropertyOp50
 70
     1
102
RTVSPropertyOp51
 70
     0
102
RTVSPropertyOp52
 70
     0
102
RTVSPropertyOp53
 70
     1
102
RTVSPropertyOp54
 70
     1
102
RTVSPropertyOp55
 70
     1
102
RTVSPropertyOp56
 70
     1
102
RTVSPropertyOp57
 70
     1
102
RTVSPropertyOp58
 70
     1
102
RTVSPropertyOp59
 70
     1
102
RTVSPropertyOp60
 70
     1
102
RTVSPropertyOp61
 70
     1
102
RTVSPropertyOp62
 70
     1
  0
XRECORD
  5
5CA
102
{ACAD_REACTORS
330
5C9
102
}
330
5C9
100
AcDbXrecord
280
     1
102
RTVSPost2010Prop28
280
     0
102
RTVSPost2010PropOp28
 70
     1
102
RTVSPost2010Prop29
280
     1
102
RTVSPost2010PropOp29
 70
     1
102
RTVSPost2010Prop30
280
     1
102
RTVSPost2010PropOp30
 70
     1
102
RTVSPost2010Prop31
280
     0
102
RTVSPost2010PropOp31
 70
     1
102
RTVSPost2010Prop32
280
     0
102
RTVSPost2010PropOp32
 70
     1
102
RTVSPost2010Prop33
280
     0
102
RTVSPost2010PropOp33
 70
     1
102
RTVSPost2010Prop34
280
     0
102
RTVSPost2010PropOp34
 70
     1
102
RTVSPost2010Prop35
280
     0
102
RTVSPost2010PropOp35
 70
     1
102
RTVSPost2010Prop36
280
     0
102
RTVSPost2010PropOp36
 70
     1
102
RTVSPost2010Prop37
 90
       50
102
RTVSPost2010PropOp37
 70
     1
102
RTVSPost2010Prop38
140
0.0
102
RTVSPost2010PropOp38
 70
     1
102
RTVSPost2010Prop39
140
1.0
102
RTVSPost2010PropOp39
 70
     1
102
RTVSPost2010Prop40
 90
        0
102
RTVSPost2010PropOp40
 70
     1
102
RTVSPost2010Prop41ColorIndex
 90
       18
102
RTVSPost2010Prop41ColorRGB
 90
        0
102
RTVSPost2010PropOp41
 70
     1
102
RTVSPost2010Prop42
 90
       50
102
RTVSPost2010PropOp42
 70
     1
102
RTVSPost2010Prop43
 90
        3
102
RTVSPost2010PropOp43
 70
     1
102
RTVSPost2010Prop44ColorIndex
 90
        5
102
RTVSPost2010Prop44ColorRGB
 90
      255
102
RTVSPost2010PropOp44
 70
     1
102
RTVSPost2010Prop45
280
     0
102
RTVSPost2010PropOp45
 70
     1
102
RTVSPost2010Prop46
 90
       50
102
RTVSPost2010PropOp46
 70
     1
102
RTVSPost2010Prop47
 90
       50
102
RTVSPost2010PropOp47
 70
     1
102
RTVSPost2010Prop48
 90
       50
102
RTVSPost2010PropOp48
 70
     1
102
RTVSPost2010Prop49
280
     0
102
RTVSPost2010PropOp49
 70
     1
102
RTVSPost2010Prop50
 90
       50
102
RTVSPost2010PropOp50
 70
     1
102
RTVSPost2010Prop51ColorIndex
 90
      256
102
RTVSPost2010Prop51ColorRGB
 90
-16777216
102
RTVSPost2010PropOp51
 70
     0
102
RTVSPost2010Prop52
140
1.0
102
RTVSPost2010PropOp52
 70
     0
102
RTVSPost2010Prop53
 90
        2
102
RTVSPost2010PropOp53
 70
     1
102
RTVSPost2010Prop54
  1
strokes_ogs.tif
102
RTVSPost2010PropOp54
 70
     1
102
RTVSPost2010Prop55
280
     0
102
RTVSPost2010PropOp55
 70
     1
102
RTVSPost2010Prop56
140
1.0
102
RTVSPost2010PropOp56
 70
     1
102
RTVSPost2010Prop57
140
1.0
102
RTVSPost2010PropOp57
 70
     1
102
RTVSPropertyOp0
 70
     1
102
RTVSPropertyOp1
 70
     1
102
RTVSPropertyOp2
 70
     1
102
RTVSPropertyOp3
 70
     1
102
RTVSPropertyOp4
 70
     1
102
RTVSPropertyOp5
 70
     1
102
RTVSPropertyOp6
 70
     1
102
RTVSPropertyOp7
 70
     1
102
RTVSPropertyOp8
 70
     1
102
RTVSPropertyOp9
 70
     1
102
RTVSPropertyOp10
 70
     1
102
RTVSPropertyOp11
 70
     1
102
RTVSPropertyOp12
 70
     1
102
RTVSPropertyOp13
 70
     1
102
RTVSPropertyOp14
 70
     1
102
RTVSPropertyOp15
 70
     1
102
RTVSPropertyOp16
 70
     1
102
RTVSPropertyOp17
 70
     1
102
RTVSPropertyOp18
 70
     1
102
RTVSPropertyOp19
 70
     1
102
RTVSPropertyOp20
 70
     1
102
RTVSPropertyOp21
 70
     1
102
RTVSPropertyOp22
 70
     1
102
RTVSPropertyOp23
 70
     1
102
RTVSPropertyOp24
 70
     1
102
RTVSPropertyOp25
 70
     1
102
RTVSPropertyOp26
 70
     1
102
RTVSPropertyOp27
 70
     1
102
RTVSPropertyOp28
 70
     1
102
RTVSPropertyOp29
 70
     1
102
RTVSPropertyOp30
 70
     1
102
RTVSPropertyOp31
 70
     1
102
RTVSPropertyOp32
 70
     1
102
RTVSPropertyOp33
 70
     1
102
RTVSPropertyOp34
 70
     1
102
RTVSPropertyOp35
 70
     1
102
RTVSPropertyOp36
 70
     1
102
RTVSPropertyOp37
 70
     1
102
RTVSPropertyOp38
 70
     1
102
RTVSPropertyOp39
 70
     1
102
RTVSPropertyOp40
 70
     1
102
RTVSPropertyOp41
 70
     1
102
RTVSPropertyOp42
 70
     1
102
RTVSPropertyOp43
 70
     1
102
RTVSPropertyOp44
 70
     1
102
RTVSPropertyOp45
 70
     1
102
RTVSPropertyOp46
 70
     1
102
RTVSPropertyOp47
 70
     1
102
RTVSPropertyOp48
 70
     1
102
RTVSPropertyOp49
 70
     1
102
RTVSPropertyOp50
 70
     1
102
RTVSPropertyOp51
 70
     0
102
RTVSPropertyOp52
 70
     0
102
RTVSPropertyOp53
 70
     1
102
RTVSPropertyOp54
 70
     1
102
RTVSPropertyOp55
 70
     1
102
RTVSPropertyOp56
 70
     1
102
RTVSPropertyOp57
 70
     1
102
RTVSPropertyOp58
 70
     1
102
RTVSPropertyOp59
 70
     1
102
RTVSPropertyOp60
 70
     1
102
RTVSPropertyOp61
 70
     1
102
RTVSPropertyOp62
 70
     1
  0
XRECORD
  5
5CC
102
{ACAD_REACTORS
330
5CB
102
}
330
5CB
100
AcDbXrecord
280
     1
102
RTVSPost2010Prop28
280
     0
102
RTVSPost2010PropOp28
 70
     1
102
RTVSPost2010Prop29
280
     1
102
RTVSPost2010PropOp29
 70
     1
102
RTVSPost2010Prop30
280
     1
102
RTVSPost2010PropOp30
 70
     1
102
RTVSPost2010Prop31
280
     0
102
RTVSPost2010PropOp31
 70
     1
102
RTVSPost2010Prop32
280
     0
102
RTVSPost2010PropOp32
 70
     1
102
RTVSPost2010Prop33
280
     0
102
RTVSPost2010PropOp33
 70
     1
102
RTVSPost2010Prop34
280
     0
102
RTVSPost2010PropOp34
 70
     1
102
RTVSPost2010Prop35
280
     0
102
RTVSPost2010PropOp35
 70
     1
102
RTVSPost2010Prop36
280
     0
102
RTVSPost2010PropOp36
 70
     1
102
RTVSPost2010Prop37
 90
       50
102
RTVSPost2010PropOp37
 70
     1
102
RTVSPost2010Prop38
140
0.0
102
RTVSPost2010PropOp38
 70
     1
102
RTVSPost2010Prop39
140
1.0
102
RTVSPost2010PropOp39
 70
     1
102
RTVSPost2010Prop40
 90
        0
102
RTVSPost2010PropOp40
 70
     1
102
RTVSPost2010Prop41ColorIndex
 90
       18
102
RTVSPost2010Prop41ColorRGB
 90
        0
102
RTVSPost2010PropOp41
 70
     1
102
RTVSPost2010Prop42
 90
       50
102
RTVSPost2010PropOp42
 70
     1
102
RTVSPost2010Prop43
 90
        3
102
RTVSPost2010PropOp43
 70
     1
102
RTVSPost2010Prop44ColorIndex
 90
        5
102
RTVSPost2010Prop44ColorRGB
 90
      255
102
RTVSPost2010PropOp44
 70
     1
102
RTVSPost2010Prop45
280
     0
102
RTVSPost2010PropOp45
 70
     1
102
RTVSPost2010Prop46
 90
       50
102
RTVSPost2010PropOp46
 70
     1
102
RTVSPost2010Prop47
 90
       50
102
RTVSPost2010PropOp47
 70
     1
102
RTVSPost2010Prop48
 90
       50
102
RTVSPost2010PropOp48
 70
     1
102
RTVSPost2010Prop49
280
     0
102
RTVSPost2010PropOp49
 70
     1
102
RTVSPost2010Prop50
 90
       50
102
RTVSPost2010PropOp50
 70
     1
102
RTVSPost2010Prop51ColorIndex
 90
      256
102
RTVSPost2010Prop51ColorRGB
 90
-16777216
102
RTVSPost2010PropOp51
 70
     0
102
RTVSPost2010Prop52
140
1.0
102
RTVSPost2010PropOp52
 70
     0
102
RTVSPost2010Prop53
 90
        2
102
RTVSPost2010PropOp53
 70
     1
102
RTVSPost2010Prop54
  1
strokes_ogs.tif
102
RTVSPost2010PropOp54
 70
     1
102
RTVSPost2010Prop55
280
     0
102
RTVSPost2010PropOp55
 70
     1
102
RTVSPost2010Prop56
140
1.0
102
RTVSPost2010PropOp56
 70
     1
102
RTVSPost2010Prop57
140
1.0
102
RTVSPost2010PropOp57
 70
     1
102
RTVSPropertyOp0
 70
     1
102
RTVSPropertyOp1
 70
     1
102
RTVSPropertyOp2
 70
     1
102
RTVSPropertyOp3
 70
     1
102
RTVSPropertyOp4
 70
     1
102
RTVSPropertyOp5
 70
     1
102
RTVSPropertyOp6
 70
     1
102
RTVSPropertyOp7
 70
     1
102
RTVSPropertyOp8
 70
     1
102
RTVSPropertyOp9
 70
     1
102
RTVSPropertyOp10
 70
     1
102
RTVSPropertyOp11
 70
     1
102
RTVSPropertyOp12
 70
     1
102
RTVSPropertyOp13
 70
     1
102
RTVSPropertyOp14
 70
     1
102
RTVSPropertyOp15
 70
     1
102
RTVSPropertyOp16
 70
     1
102
RTVSPropertyOp17
 70
     1
102
RTVSPropertyOp18
 70
     1
102
RTVSPropertyOp19
 70
     1
102
RTVSPropertyOp20
 70
     1
102
RTVSPropertyOp21
 70
     1
102
RTVSPropertyOp22
 70
     1
102
RTVSPropertyOp23
 70
     1
102
RTVSPropertyOp24
 70
     1
102
RTVSPropertyOp25
 70
     1
102
RTVSPropertyOp26
 70
     1
102
RTVSPropertyOp27
 70
     1
102
RTVSPropertyOp28
 70
     1
102
RTVSPropertyOp29
 70
     1
102
RTVSPropertyOp30
 70
     1
102
RTVSPropertyOp31
 70
     1
102
RTVSPropertyOp32
 70
     1
102
RTVSPropertyOp33
 70
     1
102
RTVSPropertyOp34
 70
     1
102
RTVSPropertyOp35
 70
     1
102
RTVSPropertyOp36
 70
     1
102
RTVSPropertyOp37
 70
     1
102
RTVSPropertyOp38
 70
     1
102
RTVSPropertyOp39
 70
     1
102
RTVSPropertyOp40
 70
     1
102
RTVSPropertyOp41
 70
     1
102
RTVSPropertyOp42
 70
     1
102
RTVSPropertyOp43
 70
     1
102
RTVSPropertyOp44
 70
     1
102
RTVSPropertyOp45
 70
     1
102
RTVSPropertyOp46
 70
     1
102
RTVSPropertyOp47
 70
     1
102
RTVSPropertyOp48
 70
     1
102
RTVSPropertyOp49
 70
     1
102
RTVSPropertyOp50
 70
     1
102
RTVSPropertyOp51
 70
     0
102
RTVSPropertyOp52
 70
     0
102
RTVSPropertyOp53
 70
     1
102
RTVSPropertyOp54
 70
     1
102
RTVSPropertyOp55
 70
     1
102
RTVSPropertyOp56
 70
     1
102
RTVSPropertyOp57
 70
     1
102
RTVSPropertyOp58
 70
     1
102
RTVSPropertyOp59
 70
     1
102
RTVSPropertyOp60
 70
     1
102
RTVSPropertyOp61
 70
     1
102
RTVSPropertyOp62
 70
     1
  0
XRECORD
  5
5CE
102
{ACAD_REACTORS
330
5CD
102
}
330
5CD
100
AcDbXrecord
280
     1
102
RTVSPost2010Prop28
280
     0
102
RTVSPost2010PropOp28
 70
     1
102
RTVSPost2010Prop29
280
     1
102
RTVSPost2010PropOp29
 70
     1
102
RTVSPost2010Prop30
280
     1
102
RTVSPost2010PropOp30
 70
     1
102
RTVSPost2010Prop31
280
     0
102
RTVSPost2010PropOp31
 70
     1
102
RTVSPost2010Prop32
280
     0
102
RTVSPost2010PropOp32
 70
     1
102
RTVSPost2010Prop33
280
     0
102
RTVSPost2010PropOp33
 70
     1
102
RTVSPost2010Prop34
280
     0
102
RTVSPost2010PropOp34
 70
     1
102
RTVSPost2010Prop35
280
     0
102
RTVSPost2010PropOp35
 70
     1
102
RTVSPost2010Prop36
280
     0
102
RTVSPost2010PropOp36
 70
     1
102
RTVSPost2010Prop37
 90
       50
102
RTVSPost2010PropOp37
 70
     1
102
RTVSPost2010Prop38
140
0.0
102
RTVSPost2010PropOp38
 70
     1
102
RTVSPost2010Prop39
140
1.0
102
RTVSPost2010PropOp39
 70
     1
102
RTVSPost2010Prop40
 90
        0
102
RTVSPost2010PropOp40
 70
     1
102
RTVSPost2010Prop41ColorIndex
 90
       18
102
RTVSPost2010Prop41ColorRGB
 90
        0
102
RTVSPost2010PropOp41
 70
     1
102
RTVSPost2010Prop42
 90
       50
102
RTVSPost2010PropOp42
 70
     1
102
RTVSPost2010Prop43
 90
        3
102
RTVSPost2010PropOp43
 70
     1
102
RTVSPost2010Prop44ColorIndex
 90
        5
102
RTVSPost2010Prop44ColorRGB
 90
      255
102
RTVSPost2010PropOp44
 70
     1
102
RTVSPost2010Prop45
280
     0
102
RTVSPost2010PropOp45
 70
     1
102
RTVSPost2010Prop46
 90
       50
102
RTVSPost2010PropOp46
 70
     1
102
RTVSPost2010Prop47
 90
       50
102
RTVSPost2010PropOp47
 70
     1
102
RTVSPost2010Prop48
 90
       50
102
RTVSPost2010PropOp48
 70
     1
102
RTVSPost2010Prop49
280
     0
102
RTVSPost2010PropOp49
 70
     1
102
RTVSPost2010Prop50
 90
       50
102
RTVSPost2010PropOp50
 70
     1
102
RTVSPost2010Prop51ColorIndex
 90
      256
102
RTVSPost2010Prop51ColorRGB
 90
-16777216
102
RTVSPost2010PropOp51
 70
     0
102
RTVSPost2010Prop52
140
1.0
102
RTVSPost2010PropOp52
 70
     0
102
RTVSPost2010Prop53
 90
        2
102
RTVSPost2010PropOp53
 70
     1
102
RTVSPost2010Prop54
  1
strokes_ogs.tif
102
RTVSPost2010PropOp54
 70
     1
102
RTVSPost2010Prop55
280
     0
102
RTVSPost2010PropOp55
 70
     1
102
RTVSPost2010Prop56
140
1.0
102
RTVSPost2010PropOp56
 70
     1
102
RTVSPost2010Prop57
140
1.0
102
RTVSPost2010PropOp57
 70
     1
102
RTVSPropertyOp0
 70
     1
102
RTVSPropertyOp1
 70
     1
102
RTVSPropertyOp2
 70
     1
102
RTVSPropertyOp3
 70
     1
102
RTVSPropertyOp4
 70
     1
102
RTVSPropertyOp5
 70
     1
102
RTVSPropertyOp6
 70
     1
102
RTVSPropertyOp7
 70
     1
102
RTVSPropertyOp8
 70
     1
102
RTVSPropertyOp9
 70
     1
102
RTVSPropertyOp10
 70
     1
102
RTVSPropertyOp11
 70
     1
102
RTVSPropertyOp12
 70
     1
102
RTVSPropertyOp13
 70
     1
102
RTVSPropertyOp14
 70
     1
102
RTVSPropertyOp15
 70
     1
102
RTVSPropertyOp16
 70
     1
102
RTVSPropertyOp17
 70
     1
102
RTVSPropertyOp18
 70
     1
102
RTVSPropertyOp19
 70
     1
102
RTVSPropertyOp20
 70
     1
102
RTVSPropertyOp21
 70
     1
102
RTVSPropertyOp22
 70
     1
102
RTVSPropertyOp23
 70
     1
102
RTVSPropertyOp24
 70
     1
102
RTVSPropertyOp25
 70
     1
102
RTVSPropertyOp26
 70
     1
102
RTVSPropertyOp27
 70
     1
102
RTVSPropertyOp28
 70
     1
102
RTVSPropertyOp29
 70
     1
102
RTVSPropertyOp30
 70
     1
102
RTVSPropertyOp31
 70
     1
102
RTVSPropertyOp32
 70
     1
102
RTVSPropertyOp33
 70
     1
102
RTVSPropertyOp34
 70
     1
102
RTVSPropertyOp35
 70
     1
102
RTVSPropertyOp36
 70
     1
102
RTVSPropertyOp37
 70
     1
102
RTVSPropertyOp38
 70
     1
102
RTVSPropertyOp39
 70
     1
102
RTVSPropertyOp40
 70
     1
102
RTVSPropertyOp41
 70
     1
102
RTVSPropertyOp42
 70
     1
102
RTVSPropertyOp43
 70
     1
102
RTVSPropertyOp44
 70
     1
102
RTVSPropertyOp45
 70
     1
102
RTVSPropertyOp46
 70
     1
102
RTVSPropertyOp47
 70
     1
102
RTVSPropertyOp48
 70
     1
102
RTVSPropertyOp49
 70
     1
102
RTVSPropertyOp50
 70
     1
102
RTVSPropertyOp51
 70
     0
102
RTVSPropertyOp52
 70
     0
102
RTVSPropertyOp53
 70
     1
102
RTVSPropertyOp54
 70
     1
102
RTVSPropertyOp55
 70
     1
102
RTVSPropertyOp56
 70
     1
102
RTVSPropertyOp57
 70
     1
102
RTVSPropertyOp58
 70
     1
102
RTVSPropertyOp59
 70
     1
102
RTVSPropertyOp60
 70
     1
102
RTVSPropertyOp61
 70
     1
102
RTVSPropertyOp62
 70
     1
  0
XRECORD
  5
5D0
102
{ACAD_REACTORS
330
5CF
102
}
330
5CF
100
AcDbXrecord
280
     1
102
RTVSPost2010Prop28
280
     0
102
RTVSPost2010PropOp28
 70
     1
102
RTVSPost2010Prop29
280
     1
102
RTVSPost2010PropOp29
 70
     1
102
RTVSPost2010Prop30
280
     1
102
RTVSPost2010PropOp30
 70
     1
102
RTVSPost2010Prop31
280
     0
102
RTVSPost2010PropOp31
 70
     1
102
RTVSPost2010Prop32
280
     0
102
RTVSPost2010PropOp32
 70
     1
102
RTVSPost2010Prop33
280
     0
102
RTVSPost2010PropOp33
 70
     1
102
RTVSPost2010Prop34
280
     0
102
RTVSPost2010PropOp34
 70
     1
102
RTVSPost2010Prop35
280
     0
102
RTVSPost2010PropOp35
 70
     1
102
RTVSPost2010Prop36
280
     0
102
RTVSPost2010PropOp36
 70
     1
102
RTVSPost2010Prop37
 90
       50
102
RTVSPost2010PropOp37
 70
     1
102
RTVSPost2010Prop38
140
0.0
102
RTVSPost2010PropOp38
 70
     1
102
RTVSPost2010Prop39
140
1.0
102
RTVSPost2010PropOp39
 70
     1
102
RTVSPost2010Prop40
 90
        0
102
RTVSPost2010PropOp40
 70
     1
102
RTVSPost2010Prop41ColorIndex
 90
       18
102
RTVSPost2010Prop41ColorRGB
 90
        0
102
RTVSPost2010PropOp41
 70
     1
102
RTVSPost2010Prop42
 90
       50
102
RTVSPost2010PropOp42
 70
     1
102
RTVSPost2010Prop43
 90
        3
102
RTVSPost2010PropOp43
 70
     1
102
RTVSPost2010Prop44ColorIndex
 90
        5
102
RTVSPost2010Prop44ColorRGB
 90
      255
102
RTVSPost2010PropOp44
 70
     1
102
RTVSPost2010Prop45
280
     0
102
RTVSPost2010PropOp45
 70
     1
102
RTVSPost2010Prop46
 90
       50
102
RTVSPost2010PropOp46
 70
     1
102
RTVSPost2010Prop47
 90
       50
102
RTVSPost2010PropOp47
 70
     1
102
RTVSPost2010Prop48
 90
       50
102
RTVSPost2010PropOp48
 70
     1
102
RTVSPost2010Prop49
280
     0
102
RTVSPost2010PropOp49
 70
     1
102
RTVSPost2010Prop50
 90
       50
102
RTVSPost2010PropOp50
 70
     1
102
RTVSPost2010Prop51ColorIndex
 90
      256
102
RTVSPost2010Prop51ColorRGB
 90
-16777216
102
RTVSPost2010PropOp51
 70
     0
102
RTVSPost2010Prop52
140
1.0
102
RTVSPost2010PropOp52
 70
     0
102
RTVSPost2010Prop53
 90
        2
102
RTVSPost2010PropOp53
 70
     1
102
RTVSPost2010Prop54
  1
strokes_ogs.tif
102
RTVSPost2010PropOp54
 70
     1
102
RTVSPost2010Prop55
280
     0
102
RTVSPost2010PropOp55
 70
     1
102
RTVSPost2010Prop56
140
1.0
102
RTVSPost2010PropOp56
 70
     1
102
RTVSPost2010Prop57
140
1.0
102
RTVSPost2010PropOp57
 70
     1
102
RTVSPropertyOp0
 70
     1
102
RTVSPropertyOp1
 70
     1
102
RTVSPropertyOp2
 70
     1
102
RTVSPropertyOp3
 70
     1
102
RTVSPropertyOp4
 70
     1
102
RTVSPropertyOp5
 70
     1
102
RTVSPropertyOp6
 70
     1
102
RTVSPropertyOp7
 70
     1
102
RTVSPropertyOp8
 70
     1
102
RTVSPropertyOp9
 70
     1
102
RTVSPropertyOp10
 70
     1
102
RTVSPropertyOp11
 70
     1
102
RTVSPropertyOp12
 70
     1
102
RTVSPropertyOp13
 70
     1
102
RTVSPropertyOp14
 70
     1
102
RTVSPropertyOp15
 70
     1
102
RTVSPropertyOp16
 70
     1
102
RTVSPropertyOp17
 70
     1
102
RTVSPropertyOp18
 70
     1
102
RTVSPropertyOp19
 70
     1
102
RTVSPropertyOp20
 70
     1
102
RTVSPropertyOp21
 70
     1
102
RTVSPropertyOp22
 70
     1
102
RTVSPropertyOp23
 70
     1
102
RTVSPropertyOp24
 70
     1
102
RTVSPropertyOp25
 70
     1
102
RTVSPropertyOp26
 70
     1
102
RTVSPropertyOp27
 70
     1
102
RTVSPropertyOp28
 70
     1
102
RTVSPropertyOp29
 70
     1
102
RTVSPropertyOp30
 70
     1
102
RTVSPropertyOp31
 70
     1
102
RTVSPropertyOp32
 70
     1
102
RTVSPropertyOp33
 70
     1
102
RTVSPropertyOp34
 70
     1
102
RTVSPropertyOp35
 70
     1
102
RTVSPropertyOp36
 70
     1
102
RTVSPropertyOp37
 70
     1
102
RTVSPropertyOp38
 70
     1
102
RTVSPropertyOp39
 70
     1
102
RTVSPropertyOp40
 70
     1
102
RTVSPropertyOp41
 70
     1
102
RTVSPropertyOp42
 70
     1
102
RTVSPropertyOp43
 70
     1
102
RTVSPropertyOp44
 70
     1
102
RTVSPropertyOp45
 70
     1
102
RTVSPropertyOp46
 70
     1
102
RTVSPropertyOp47
 70
     1
102
RTVSPropertyOp48
 70
     1
102
RTVSPropertyOp49
 70
     1
102
RTVSPropertyOp50
 70
     1
102
RTVSPropertyOp51
 70
     0
102
RTVSPropertyOp52
 70
     0
102
RTVSPropertyOp53
 70
     1
102
RTVSPropertyOp54
 70
     1
102
RTVSPropertyOp55
 70
     1
102
RTVSPropertyOp56
 70
     1
102
RTVSPropertyOp57
 70
     1
102
RTVSPropertyOp58
 70
     1
102
RTVSPropertyOp59
 70
     1
102
RTVSPropertyOp60
 70
     1
102
RTVSPropertyOp61
 70
     1
102
RTVSPropertyOp62
 70
     1
  0
XRECORD
  5
5D8
102
{ACAD_REACTORS
330
5D7
102
}
330
5D7
100
AcDbXrecord
280
     1
102
RTVSPost2010Prop28
280
     0
102
RTVSPost2010PropOp28
 70
     1
102
RTVSPost2010Prop29
280
     1
102
RTVSPost2010PropOp29
 70
     1
102
RTVSPost2010Prop30
280
     1
102
RTVSPost2010PropOp30
 70
     1
102
RTVSPost2010Prop31
280
     0
102
RTVSPost2010PropOp31
 70
     1
102
RTVSPost2010Prop32
280
     0
102
RTVSPost2010PropOp32
 70
     1
102
RTVSPost2010Prop33
280
     0
102
RTVSPost2010PropOp33
 70
     1
102
RTVSPost2010Prop34
280
     0
102
RTVSPost2010PropOp34
 70
     1
102
RTVSPost2010Prop35
280
     0
102
RTVSPost2010PropOp35
 70
     1
102
RTVSPost2010Prop36
280
     0
102
RTVSPost2010PropOp36
 70
     1
102
RTVSPost2010Prop37
 90
       50
102
RTVSPost2010PropOp37
 70
     1
102
RTVSPost2010Prop38
140
0.0
102
RTVSPost2010PropOp38
 70
     1
102
RTVSPost2010Prop39
140
1.0
102
RTVSPost2010PropOp39
 70
     1
102
RTVSPost2010Prop40
 90
        0
102
RTVSPost2010PropOp40
 70
     1
102
RTVSPost2010Prop41ColorIndex
 90
       18
102
RTVSPost2010Prop41ColorRGB
 90
        0
102
RTVSPost2010PropOp41
 70
     1
102
RTVSPost2010Prop42
 90
       50
102
RTVSPost2010PropOp42
 70
     1
102
RTVSPost2010Prop43
 90
        3
102
RTVSPost2010PropOp43
 70
     1
102
RTVSPost2010Prop44ColorIndex
 90
        5
102
RTVSPost2010Prop44ColorRGB
 90
      255
102
RTVSPost2010PropOp44
 70
     1
102
RTVSPost2010Prop45
280
     0
102
RTVSPost2010PropOp45
 70
     1
102
RTVSPost2010Prop46
 90
       50
102
RTVSPost2010PropOp46
 70
     1
102
RTVSPost2010Prop47
 90
       50
102
RTVSPost2010PropOp47
 70
     1
102
RTVSPost2010Prop48
 90
       50
102
RTVSPost2010PropOp48
 70
     1
102
RTVSPost2010Prop49
280
     0
102
RTVSPost2010PropOp49
 70
     1
102
RTVSPost2010Prop50
 90
       50
102
RTVSPost2010PropOp50
 70
     1
102
RTVSPost2010Prop51ColorIndex
 90
      256
102
RTVSPost2010Prop51ColorRGB
 90
-16777216
102
RTVSPost2010PropOp51
 70
     0
102
RTVSPost2010Prop52
140
1.0
102
RTVSPost2010PropOp52
 70
     0
102
RTVSPost2010Prop53
 90
        2
102
RTVSPost2010PropOp53
 70
     1
102
RTVSPost2010Prop54
  1
strokes_ogs.tif
102
RTVSPost2010PropOp54
 70
     1
102
RTVSPost2010Prop55
280
     0
102
RTVSPost2010PropOp55
 70
     1
102
RTVSPost2010Prop56
140
1.0
102
RTVSPost2010PropOp56
 70
     1
102
RTVSPost2010Prop57
140
1.0
102
RTVSPost2010PropOp57
 70
     1
102
RTVSPropertyOp0
 70
     1
102
RTVSPropertyOp1
 70
     1
102
RTVSPropertyOp2
 70
     1
102
RTVSPropertyOp3
 70
     1
102
RTVSPropertyOp4
 70
     1
102
RTVSPropertyOp5
 70
     1
102
RTVSPropertyOp6
 70
     1
102
RTVSPropertyOp7
 70
     1
102
RTVSPropertyOp8
 70
     1
102
RTVSPropertyOp9
 70
     1
102
RTVSPropertyOp10
 70
     1
102
RTVSPropertyOp11
 70
     1
102
RTVSPropertyOp12
 70
     1
102
RTVSPropertyOp13
 70
     1
102
RTVSPropertyOp14
 70
     1
102
RTVSPropertyOp15
 70
     1
102
RTVSPropertyOp16
 70
     1
102
RTVSPropertyOp17
 70
     1
102
RTVSPropertyOp18
 70
     1
102
RTVSPropertyOp19
 70
     1
102
RTVSPropertyOp20
 70
     1
102
RTVSPropertyOp21
 70
     1
102
RTVSPropertyOp22
 70
     1
102
RTVSPropertyOp23
 70
     1
102
RTVSPropertyOp24
 70
     1
102
RTVSPropertyOp25
 70
     1
102
RTVSPropertyOp26
 70
     1
102
RTVSPropertyOp27
 70
     1
102
RTVSPropertyOp28
 70
     1
102
RTVSPropertyOp29
 70
     1
102
RTVSPropertyOp30
 70
     1
102
RTVSPropertyOp31
 70
     1
102
RTVSPropertyOp32
 70
     1
102
RTVSPropertyOp33
 70
     1
102
RTVSPropertyOp34
 70
     1
102
RTVSPropertyOp35
 70
     1
102
RTVSPropertyOp36
 70
     1
102
RTVSPropertyOp37
 70
     1
102
RTVSPropertyOp38
 70
     1
102
RTVSPropertyOp39
 70
     1
102
RTVSPropertyOp40
 70
     1
102
RTVSPropertyOp41
 70
     1
102
RTVSPropertyOp42
 70
     1
102
RTVSPropertyOp43
 70
     1
102
RTVSPropertyOp44
 70
     1
102
RTVSPropertyOp45
 70
     1
102
RTVSPropertyOp46
 70
     1
102
RTVSPropertyOp47
 70
     1
102
RTVSPropertyOp48
 70
     1
102
RTVSPropertyOp49
 70
     1
102
RTVSPropertyOp50
 70
     1
102
RTVSPropertyOp51
 70
     0
102
RTVSPropertyOp52
 70
     0
102
RTVSPropertyOp53
 70
     1
102
RTVSPropertyOp54
 70
     1
102
RTVSPropertyOp55
 70
     1
102
RTVSPropertyOp56
 70
     1
102
RTVSPropertyOp57
 70
     1
102
RTVSPropertyOp58
 70
     1
102
RTVSPropertyOp59
 70
     1
102
RTVSPropertyOp60
 70
     1
102
RTVSPropertyOp61
 70
     1
102
RTVSPropertyOp62
 70
     1
  0
XRECORD
  5
5EB
102
{ACAD_REACTORS
330
5EA
102
}
330
5EA
100
AcDbXrecord
280
     1
102
RTVSPost2010Prop28
280
     0
102
RTVSPost2010PropOp28
 70
     1
102
RTVSPost2010Prop29
280
     1
102
RTVSPost2010PropOp29
 70
     1
102
RTVSPost2010Prop30
280
     1
102
RTVSPost2010PropOp30
 70
     1
102
RTVSPost2010Prop31
280
     0
102
RTVSPost2010PropOp31
 70
     1
102
RTVSPost2010Prop32
280
     0
102
RTVSPost2010PropOp32
 70
     1
102
RTVSPost2010Prop33
280
     0
102
RTVSPost2010PropOp33
 70
     1
102
RTVSPost2010Prop34
280
     0
102
RTVSPost2010PropOp34
 70
     1
102
RTVSPost2010Prop35
280
     0
102
RTVSPost2010PropOp35
 70
     1
102
RTVSPost2010Prop36
280
     0
102
RTVSPost2010PropOp36
 70
     1
102
RTVSPost2010Prop37
 90
       50
102
RTVSPost2010PropOp37
 70
     1
102
RTVSPost2010Prop38
140
0.0
102
RTVSPost2010PropOp38
 70
     1
102
RTVSPost2010Prop39
140
1.0
102
RTVSPost2010PropOp39
 70
     1
102
RTVSPost2010Prop40
 90
        0
102
RTVSPost2010PropOp40
 70
     1
102
RTVSPost2010Prop41ColorIndex
 90
       18
102
RTVSPost2010Prop41ColorRGB
 90
        0
102
RTVSPost2010PropOp41
 70
     1
102
RTVSPost2010Prop42
 90
       50
102
RTVSPost2010PropOp42
 70
     1
102
RTVSPost2010Prop43
 90
        3
102
RTVSPost2010PropOp43
 70
     1
102
RTVSPost2010Prop44ColorIndex
 90
        5
102
RTVSPost2010Prop44ColorRGB
 90
      255
102
RTVSPost2010PropOp44
 70
     1
102
RTVSPost2010Prop45
280
     0
102
RTVSPost2010PropOp45
 70
     1
102
RTVSPost2010Prop46
 90
       50
102
RTVSPost2010PropOp46
 70
     1
102
RTVSPost2010Prop47
 90
       50
102
RTVSPost2010PropOp47
 70
     1
102
RTVSPost2010Prop48
 90
       50
102
RTVSPost2010PropOp48
 70
     1
102
RTVSPost2010Prop49
280
     0
102
RTVSPost2010PropOp49
 70
     1
102
RTVSPost2010Prop50
 90
       50
102
RTVSPost2010PropOp50
 70
     1
102
RTVSPost2010Prop51ColorIndex
 90
      256
102
RTVSPost2010Prop51ColorRGB
 90
-16777216
102
RTVSPost2010PropOp51
 70
     0
102
RTVSPost2010Prop52
140
1.0
102
RTVSPost2010PropOp52
 70
     0
102
RTVSPost2010Prop53
 90
        2
102
RTVSPost2010PropOp53
 70
     1
102
RTVSPost2010Prop54
  1
strokes_ogs.tif
102
RTVSPost2010PropOp54
 70
     1
102
RTVSPost2010Prop55
280
     0
102
RTVSPost2010PropOp55
 70
     1
102
RTVSPost2010Prop56
140
1.0
102
RTVSPost2010PropOp56
 70
     1
102
RTVSPost2010Prop57
140
1.0
102
RTVSPost2010PropOp57
 70
     1
102
RTVSPropertyOp0
 70
     0
102
RTVSPropertyOp1
 70
     0
102
RTVSPropertyOp2
 70
     0
102
RTVSPropertyOp3
 70
     0
102
RTVSPropertyOp4
 70
     0
102
RTVSPropertyOp5
 70
     0
102
RTVSPropertyOp6
 70
     0
102
RTVSPropertyOp7
 70
     0
102
RTVSPropertyOp8
 70
     0
102
RTVSPropertyOp9
 70
     0
102
RTVSPropertyOp10
 70
     0
102
RTVSPropertyOp11
 70
     0
102
RTVSPropertyOp12
 70
     0
102
RTVSPropertyOp13
 70
     0
102
RTVSPropertyOp14
 70
     2
102
RTVSPropertyOp15
 70
     0
102
RTVSPropertyOp16
 70
     0
102
RTVSPropertyOp17
 70
     0
102
RTVSPropertyOp18
 70
     0
102
RTVSPropertyOp19
 70
     0
102
RTVSPropertyOp20
 70
     0
102
RTVSPropertyOp21
 70
     0
102
RTVSPropertyOp22
 70
     0
102
RTVSPropertyOp23
 70
     0
102
RTVSPropertyOp24
 70
     0
102
RTVSPropertyOp25
 70
     0
102
RTVSPropertyOp26
 70
     0
102
RTVSPropertyOp27
 70
     0
102
RTVSPropertyOp28
 70
     1
102
RTVSPropertyOp29
 70
     1
102
RTVSPropertyOp30
 70
     1
102
RTVSPropertyOp31
 70
     1
102
RTVSPropertyOp32
 70
     1
102
RTVSPropertyOp33
 70
     1
102
RTVSPropertyOp34
 70
     1
102
RTVSPropertyOp35
 70
     1
102
RTVSPropertyOp36
 70
     1
102
RTVSPropertyOp37
 70
     1
102
RTVSPropertyOp38
 70
     1
102
RTVSPropertyOp39
 70
     1
102
RTVSPropertyOp40
 70
     1
102
RTVSPropertyOp41
 70
     1
102
RTVSPropertyOp42
 70
     1
102
RTVSPropertyOp43
 70
     1
102
RTVSPropertyOp44
 70
     1
102
RTVSPropertyOp45
 70
     1
102
RTVSPropertyOp46
 70
     1
102
RTVSPropertyOp47
 70
     1
102
RTVSPropertyOp48
 70
     1
102
RTVSPropertyOp49
 70
     1
102
RTVSPropertyOp50
 70
     1
102
RTVSPropertyOp51
 70
     0
102
RTVSPropertyOp52
 70
     0
102
RTVSPropertyOp53
 70
     1
102
RTVSPropertyOp54
 70
     1
102
RTVSPropertyOp55
 70
     1
102
RTVSPropertyOp56
 70
     1
102
RTVSPropertyOp57
 70
     1
102
RTVSPropertyOp58
 70
     1
102
RTVSPropertyOp59
 70
     1
102
RTVSPropertyOp60
 70
     1
102
RTVSPropertyOp61
 70
     1
102
RTVSPropertyOp62
 70
     1
  0
XRECORD
  5
5E4
102
{ACAD_REACTORS
330
5E3
102
}
330
5E3
100
AcDbXrecord
280
     1
102
RTVSPost2010Prop28
280
     0
102
RTVSPost2010PropOp28
 70
     1
102
RTVSPost2010Prop29
280
     1
102
RTVSPost2010PropOp29
 70
     1
102
RTVSPost2010Prop30
280
     1
102
RTVSPost2010PropOp30
 70
     1
102
RTVSPost2010Prop31
280
     0
102
RTVSPost2010PropOp31
 70
     1
102
RTVSPost2010Prop32
280
     0
102
RTVSPost2010PropOp32
 70
     1
102
RTVSPost2010Prop33
280
     0
102
RTVSPost2010PropOp33
 70
     1
102
RTVSPost2010Prop34
280
     0
102
RTVSPost2010PropOp34
 70
     1
102
RTVSPost2010Prop35
280
     0
102
RTVSPost2010PropOp35
 70
     1
102
RTVSPost2010Prop36
280
     0
102
RTVSPost2010PropOp36
 70
     1
102
RTVSPost2010Prop37
 90
       50
102
RTVSPost2010PropOp37
 70
     1
102
RTVSPost2010Prop38
140
0.0
102
RTVSPost2010PropOp38
 70
     1
102
RTVSPost2010Prop39
140
1.0
102
RTVSPost2010PropOp39
 70
     1
102
RTVSPost2010Prop40
 90
        0
102
RTVSPost2010PropOp40
 70
     1
102
RTVSPost2010Prop41ColorIndex
 90
       18
102
RTVSPost2010Prop41ColorRGB
 90
        0
102
RTVSPost2010PropOp41
 70
     1
102
RTVSPost2010Prop42
 90
       50
102
RTVSPost2010PropOp42
 70
     1
102
RTVSPost2010Prop43
 90
        3
102
RTVSPost2010PropOp43
 70
     1
102
RTVSPost2010Prop44ColorIndex
 90
        5
102
RTVSPost2010Prop44ColorRGB
 90
      255
102
RTVSPost2010PropOp44
 70
     1
102
RTVSPost2010Prop45
280
     0
102
RTVSPost2010PropOp45
 70
     1
102
RTVSPost2010Prop46
 90
       50
102
RTVSPost2010PropOp46
 70
     1
102
RTVSPost2010Prop47
 90
       50
102
RTVSPost2010PropOp47
 70
     1
102
RTVSPost2010Prop48
 90
       50
102
RTVSPost2010PropOp48
 70
     1
102
RTVSPost2010Prop49
280
     0
102
RTVSPost2010PropOp49
 70
     1
102
RTVSPost2010Prop50
 90
       50
102
RTVSPost2010PropOp50
 70
     1
102
RTVSPost2010Prop51ColorIndex
 90
      256
102
RTVSPost2010Prop51ColorRGB
 90
-16777216
102
RTVSPost2010PropOp51
 70
     0
102
RTVSPost2010Prop52
140
1.0
102
RTVSPost2010PropOp52
 70
     0
102
RTVSPost2010Prop53
 90
        2
102
RTVSPost2010PropOp53
 70
     1
102
RTVSPost2010Prop54
  1
strokes_ogs.tif
102
RTVSPost2010PropOp54
 70
     1
102
RTVSPost2010Prop55
280
     0
102
RTVSPost2010PropOp55
 70
     1
102
RTVSPost2010Prop56
140
1.0
102
RTVSPost2010PropOp56
 70
     1
102
RTVSPost2010Prop57
140
1.0
102
RTVSPost2010PropOp57
 70
     1
102
RTVSPropertyOp0
 70
     1
102
RTVSPropertyOp1
 70
     1
102
RTVSPropertyOp2
 70
     1
102
RTVSPropertyOp3
 70
     1
102
RTVSPropertyOp4
 70
     1
102
RTVSPropertyOp5
 70
     1
102
RTVSPropertyOp6
 70
     1
102
RTVSPropertyOp7
 70
     1
102
RTVSPropertyOp8
 70
     1
102
RTVSPropertyOp9
 70
     1
102
RTVSPropertyOp10
 70
     1
102
RTVSPropertyOp11
 70
     1
102
RTVSPropertyOp12
 70
     1
102
RTVSPropertyOp13
 70
     1
102
RTVSPropertyOp14
 70
     1
102
RTVSPropertyOp15
 70
     1
102
RTVSPropertyOp16
 70
     1
102
RTVSPropertyOp17
 70
     1
102
RTVSPropertyOp18
 70
     1
102
RTVSPropertyOp19
 70
     1
102
RTVSPropertyOp20
 70
     1
102
RTVSPropertyOp21
 70
     1
102
RTVSPropertyOp22
 70
     1
102
RTVSPropertyOp23
 70
     1
102
RTVSPropertyOp24
 70
     1
102
RTVSPropertyOp25
 70
     1
102
RTVSPropertyOp26
 70
     1
102
RTVSPropertyOp27
 70
     1
102
RTVSPropertyOp28
 70
     1
102
RTVSPropertyOp29
 70
     1
102
RTVSPropertyOp30
 70
     1
102
RTVSPropertyOp31
 70
     1
102
RTVSPropertyOp32
 70
     1
102
RTVSPropertyOp33
 70
     1
102
RTVSPropertyOp34
 70
     1
102
RTVSPropertyOp35
 70
     1
102
RTVSPropertyOp36
 70
     1
102
RTVSPropertyOp37
 70
     1
102
RTVSPropertyOp38
 70
     1
102
RTVSPropertyOp39
 70
     1
102
RTVSPropertyOp40
 70
     1
102
RTVSPropertyOp41
 70
     1
102
RTVSPropertyOp42
 70
     1
102
RTVSPropertyOp43
 70
     1
102
RTVSPropertyOp44
 70
     1
102
RTVSPropertyOp45
 70
     1
102
RTVSPropertyOp46
 70
     1
102
RTVSPropertyOp47
 70
     1
102
RTVSPropertyOp48
 70
     1
102
RTVSPropertyOp49
 70
     1
102
RTVSPropertyOp50
 70
     1
102
RTVSPropertyOp51
 70
     0
102
RTVSPropertyOp52
 70
     0
102
RTVSPropertyOp53
 70
     1
102
RTVSPropertyOp54
 70
     1
102
RTVSPropertyOp55
 70
     1
102
RTVSPropertyOp56
 70
     1
102
RTVSPropertyOp57
 70
     1
102
RTVSPropertyOp58
 70
     1
102
RTVSPropertyOp59
 70
     1
102
RTVSPropertyOp60
 70
     1
102
RTVSPropertyOp61
 70
     1
102
RTVSPropertyOp62
 70
     1
  0
XRECORD
  5
5ED
102
{ACAD_REACTORS
330
5EC
102
}
330
5EC
100
AcDbXrecord
280
     1
102
RTVSPost2010Prop28
280
     0
102
RTVSPost2010PropOp28
 70
     1
102
RTVSPost2010Prop29
280
     1
102
RTVSPost2010PropOp29
 70
     1
102
RTVSPost2010Prop30
280
     1
102
RTVSPost2010PropOp30
 70
     1
102
RTVSPost2010Prop31
280
     0
102
RTVSPost2010PropOp31
 70
     1
102
RTVSPost2010Prop32
280
     0
102
RTVSPost2010PropOp32
 70
     1
102
RTVSPost2010Prop33
280
     0
102
RTVSPost2010PropOp33
 70
     1
102
RTVSPost2010Prop34
280
     0
102
RTVSPost2010PropOp34
 70
     1
102
RTVSPost2010Prop35
280
     0
102
RTVSPost2010PropOp35
 70
     1
102
RTVSPost2010Prop36
280
     0
102
RTVSPost2010PropOp36
 70
     1
102
RTVSPost2010Prop37
 90
       50
102
RTVSPost2010PropOp37
 70
     1
102
RTVSPost2010Prop38
140
0.0
102
RTVSPost2010PropOp38
 70
     1
102
RTVSPost2010Prop39
140
1.0
102
RTVSPost2010PropOp39
 70
     1
102
RTVSPost2010Prop40
 90
        0
102
RTVSPost2010PropOp40
 70
     1
102
RTVSPost2010Prop41ColorIndex
 90
       18
102
RTVSPost2010Prop41ColorRGB
 90
        0
102
RTVSPost2010PropOp41
 70
     1
102
RTVSPost2010Prop42
 90
       50
102
RTVSPost2010PropOp42
 70
     1
102
RTVSPost2010Prop43
 90
        3
102
RTVSPost2010PropOp43
 70
     1
102
RTVSPost2010Prop44ColorIndex
 90
        5
102
RTVSPost2010Prop44ColorRGB
 90
      255
102
RTVSPost2010PropOp44
 70
     1
102
RTVSPost2010Prop45
280
     0
102
RTVSPost2010PropOp45
 70
     1
102
RTVSPost2010Prop46
 90
       50
102
RTVSPost2010PropOp46
 70
     1
102
RTVSPost2010Prop47
 90
       50
102
RTVSPost2010PropOp47
 70
     1
102
RTVSPost2010Prop48
 90
       50
102
RTVSPost2010PropOp48
 70
     1
102
RTVSPost2010Prop49
280
     0
102
RTVSPost2010PropOp49
 70
     1
102
RTVSPost2010Prop50
 90
       50
102
RTVSPost2010PropOp50
 70
     1
102
RTVSPost2010Prop51ColorIndex
 90
      256
102
RTVSPost2010Prop51ColorRGB
 90
-16777216
102
RTVSPost2010PropOp51
 70
     0
102
RTVSPost2010Prop52
140
1.0
102
RTVSPost2010PropOp52
 70
     0
102
RTVSPost2010Prop53
 90
        2
102
RTVSPost2010PropOp53
 70
     1
102
RTVSPost2010Prop54
  1
strokes_ogs.tif
102
RTVSPost2010PropOp54
 70
     1
102
RTVSPost2010Prop55
280
     0
102
RTVSPost2010PropOp55
 70
     1
102
RTVSPost2010Prop56
140
1.0
102
RTVSPost2010PropOp56
 70
     1
102
RTVSPost2010Prop57
140
1.0
102
RTVSPost2010PropOp57
 70
     1
102
RTVSPropertyOp0
 70
     0
102
RTVSPropertyOp1
 70
     0
102
RTVSPropertyOp2
 70
     0
102
RTVSPropertyOp3
 70
     0
102
RTVSPropertyOp4
 70
     0
102
RTVSPropertyOp5
 70
     0
102
RTVSPropertyOp6
 70
     0
102
RTVSPropertyOp7
 70
     0
102
RTVSPropertyOp8
 70
     0
102
RTVSPropertyOp9
 70
     0
102
RTVSPropertyOp10
 70
     0
102
RTVSPropertyOp11
 70
     0
102
RTVSPropertyOp12
 70
     0
102
RTVSPropertyOp13
 70
     0
102
RTVSPropertyOp14
 70
     2
102
RTVSPropertyOp15
 70
     0
102
RTVSPropertyOp16
 70
     0
102
RTVSPropertyOp17
 70
     0
102
RTVSPropertyOp18
 70
     0
102
RTVSPropertyOp19
 70
     0
102
RTVSPropertyOp20
 70
     0
102
RTVSPropertyOp21
 70
     0
102
RTVSPropertyOp22
 70
     0
102
RTVSPropertyOp23
 70
     0
102
RTVSPropertyOp24
 70
     0
102
RTVSPropertyOp25
 70
     0
102
RTVSPropertyOp26
 70
     0
102
RTVSPropertyOp27
 70
     0
102
RTVSPropertyOp28
 70
     1
102
RTVSPropertyOp29
 70
     1
102
RTVSPropertyOp30
 70
     1
102
RTVSPropertyOp31
 70
     1
102
RTVSPropertyOp32
 70
     1
102
RTVSPropertyOp33
 70
     1
102
RTVSPropertyOp34
 70
     1
102
RTVSPropertyOp35
 70
     1
102
RTVSPropertyOp36
 70
     1
102
RTVSPropertyOp37
 70
     1
102
RTVSPropertyOp38
 70
     1
102
RTVSPropertyOp39
 70
     1
102
RTVSPropertyOp40
 70
     1
102
RTVSPropertyOp41
 70
     1
102
RTVSPropertyOp42
 70
     1
102
RTVSPropertyOp43
 70
     1
102
RTVSPropertyOp44
 70
     1
102
RTVSPropertyOp45
 70
     1
102
RTVSPropertyOp46
 70
     1
102
RTVSPropertyOp47
 70
     1
102
RTVSPropertyOp48
 70
     1
102
RTVSPropertyOp49
 70
     1
102
RTVSPropertyOp50
 70
     1
102
RTVSPropertyOp51
 70
     0
102
RTVSPropertyOp52
 70
     0
102
RTVSPropertyOp53
 70
     1
102
RTVSPropertyOp54
 70
     1
102
RTVSPropertyOp55
 70
     1
102
RTVSPropertyOp56
 70
     1
102
RTVSPropertyOp57
 70
     1
102
RTVSPropertyOp58
 70
     1
102
RTVSPropertyOp59
 70
     1
102
RTVSPropertyOp60
 70
     1
102
RTVSPropertyOp61
 70
     1
102
RTVSPropertyOp62
 70
     1
  0
XRECORD
  5
5DC
102
{ACAD_REACTORS
330
5DB
102
}
330
5DB
100
AcDbXrecord
280
     1
102
RTVSPost2010Prop28
280
     0
102
RTVSPost2010PropOp28
 70
     1
102
RTVSPost2010Prop29
280
     1
102
RTVSPost2010PropOp29
 70
     1
102
RTVSPost2010Prop30
280
     1
102
RTVSPost2010PropOp30
 70
     1
102
RTVSPost2010Prop31
280
     0
102
RTVSPost2010PropOp31
 70
     1
102
RTVSPost2010Prop32
280
     0
102
RTVSPost2010PropOp32
 70
     1
102
RTVSPost2010Prop33
280
     0
102
RTVSPost2010PropOp33
 70
     1
102
RTVSPost2010Prop34
280
     0
102
RTVSPost2010PropOp34
 70
     1
102
RTVSPost2010Prop35
280
     0
102
RTVSPost2010PropOp35
 70
     1
102
RTVSPost2010Prop36
280
     0
102
RTVSPost2010PropOp36
 70
     1
102
RTVSPost2010Prop37
 90
       50
102
RTVSPost2010PropOp37
 70
     1
102
RTVSPost2010Prop38
140
0.0
102
RTVSPost2010PropOp38
 70
     1
102
RTVSPost2010Prop39
140
1.0
102
RTVSPost2010PropOp39
 70
     1
102
RTVSPost2010Prop40
 90
        0
102
RTVSPost2010PropOp40
 70
     1
102
RTVSPost2010Prop41ColorIndex
 90
       18
102
RTVSPost2010Prop41ColorRGB
 90
        0
102
RTVSPost2010PropOp41
 70
     1
102
RTVSPost2010Prop42
 90
       50
102
RTVSPost2010PropOp42
 70
     1
102
RTVSPost2010Prop43
 90
        3
102
RTVSPost2010PropOp43
 70
     1
102
RTVSPost2010Prop44ColorIndex
 90
        5
102
RTVSPost2010Prop44ColorRGB
 90
      255
102
RTVSPost2010PropOp44
 70
     1
102
RTVSPost2010Prop45
280
     0
102
RTVSPost2010PropOp45
 70
     1
102
RTVSPost2010Prop46
 90
       50
102
RTVSPost2010PropOp46
 70
     1
102
RTVSPost2010Prop47
 90
       50
102
RTVSPost2010PropOp47
 70
     1
102
RTVSPost2010Prop48
 90
       50
102
RTVSPost2010PropOp48
 70
     1
102
RTVSPost2010Prop49
280
     0
102
RTVSPost2010PropOp49
 70
     1
102
RTVSPost2010Prop50
 90
       50
102
RTVSPost2010PropOp50
 70
     1
102
RTVSPost2010Prop51ColorIndex
 90
      256
102
RTVSPost2010Prop51ColorRGB
 90
-16777216
102
RTVSPost2010PropOp51
 70
     0
102
RTVSPost2010Prop52
140
1.0
102
RTVSPost2010PropOp52
 70
     0
102
RTVSPost2010Prop53
 90
        2
102
RTVSPost2010PropOp53
 70
     1
102
RTVSPost2010Prop54
  1
strokes_ogs.tif
102
RTVSPost2010PropOp54
 70
     1
102
RTVSPost2010Prop55
280
     0
102
RTVSPost2010PropOp55
 70
     1
102
RTVSPost2010Prop56
140
1.0
102
RTVSPost2010PropOp56
 70
     1
102
RTVSPost2010Prop57
140
1.0
102
RTVSPost2010PropOp57
 70
     1
102
RTVSPropertyOp0
 70
     1
102
RTVSPropertyOp1
 70
     1
102
RTVSPropertyOp2
 70
     1
102
RTVSPropertyOp3
 70
     1
102
RTVSPropertyOp4
 70
     1
102
RTVSPropertyOp5
 70
     1
102
RTVSPropertyOp6
 70
     1
102
RTVSPropertyOp7
 70
     1
102
RTVSPropertyOp8
 70
     1
102
RTVSPropertyOp9
 70
     1
102
RTVSPropertyOp10
 70
     1
102
RTVSPropertyOp11
 70
     1
102
RTVSPropertyOp12
 70
     1
102
RTVSPropertyOp13
 70
     1
102
RTVSPropertyOp14
 70
     1
102
RTVSPropertyOp15
 70
     1
102
RTVSPropertyOp16
 70
     1
102
RTVSPropertyOp17
 70
     1
102
RTVSPropertyOp18
 70
     1
102
RTVSPropertyOp19
 70
     1
102
RTVSPropertyOp20
 70
     1
102
RTVSPropertyOp21
 70
     1
102
RTVSPropertyOp22
 70
     1
102
RTVSPropertyOp23
 70
     1
102
RTVSPropertyOp24
 70
     1
102
RTVSPropertyOp25
 70
     1
102
RTVSPropertyOp26
 70
     1
102
RTVSPropertyOp27
 70
     1
102
RTVSPropertyOp28
 70
     1
102
RTVSPropertyOp29
 70
     1
102
RTVSPropertyOp30
 70
     1
102
RTVSPropertyOp31
 70
     1
102
RTVSPropertyOp32
 70
     1
102
RTVSPropertyOp33
 70
     1
102
RTVSPropertyOp34
 70
     1
102
RTVSPropertyOp35
 70
     1
102
RTVSPropertyOp36
 70
     1
102
RTVSPropertyOp37
 70
     1
102
RTVSPropertyOp38
 70
     1
102
RTVSPropertyOp39
 70
     1
102
RTVSPropertyOp40
 70
     1
102
RTVSPropertyOp41
 70
     1
102
RTVSPropertyOp42
 70
     1
102
RTVSPropertyOp43
 70
     1
102
RTVSPropertyOp44
 70
     1
102
RTVSPropertyOp45
 70
     1
102
RTVSPropertyOp46
 70
     1
102
RTVSPropertyOp47
 70
     1
102
RTVSPropertyOp48
 70
     1
102
RTVSPropertyOp49
 70
     1
102
RTVSPropertyOp50
 70
     1
102
RTVSPropertyOp51
 70
     0
102
RTVSPropertyOp52
 70
     0
102
RTVSPropertyOp53
 70
     1
102
RTVSPropertyOp54
 70
     1
102
RTVSPropertyOp55
 70
     1
102
RTVSPropertyOp56
 70
     1
102
RTVSPropertyOp57
 70
     1
102
RTVSPropertyOp58
 70
     1
102
RTVSPropertyOp59
 70
     1
102
RTVSPropertyOp60
 70
     1
102
RTVSPropertyOp61
 70
     1
102
RTVSPropertyOp62
 70
     1
  0
XRECORD
  5
5F9
102
{ACAD_REACTORS
330
5F8
102
}
330
5F8
100
AcDbXrecord
280
     1
102
RTVSPost2010Prop28
280
     0
102
RTVSPost2010PropOp28
 70
     1
102
RTVSPost2010Prop29
280
     1
102
RTVSPost2010PropOp29
 70
     1
102
RTVSPost2010Prop30
280
     1
102
RTVSPost2010PropOp30
 70
     1
102
RTVSPost2010Prop31
280
     0
102
RTVSPost2010PropOp31
 70
     1
102
RTVSPost2010Prop32
280
     0
102
RTVSPost2010PropOp32
 70
     1
102
RTVSPost2010Prop33
280
     0
102
RTVSPost2010PropOp33
 70
     1
102
RTVSPost2010Prop34
280
     0
102
RTVSPost2010PropOp34
 70
     1
102
RTVSPost2010Prop35
280
     0
102
RTVSPost2010PropOp35
 70
     1
102
RTVSPost2010Prop36
280
     0
102
RTVSPost2010PropOp36
 70
     1
102
RTVSPost2010Prop37
 90
       50
102
RTVSPost2010PropOp37
 70
     1
102
RTVSPost2010Prop38
140
0.0
102
RTVSPost2010PropOp38
 70
     1
102
RTVSPost2010Prop39
140
1.0
102
RTVSPost2010PropOp39
 70
     1
102
RTVSPost2010Prop40
 90
        0
102
RTVSPost2010PropOp40
 70
     1
102
RTVSPost2010Prop41ColorIndex
 90
       18
102
RTVSPost2010Prop41ColorRGB
 90
        0
102
RTVSPost2010PropOp41
 70
     1
102
RTVSPost2010Prop42
 90
       50
102
RTVSPost2010PropOp42
 70
     1
102
RTVSPost2010Prop43
 90
        3
102
RTVSPost2010PropOp43
 70
     1
102
RTVSPost2010Prop44ColorIndex
 90
        5
102
RTVSPost2010Prop44ColorRGB
 90
      255
102
RTVSPost2010PropOp44
 70
     1
102
RTVSPost2010Prop45
280
     0
102
RTVSPost2010PropOp45
 70
     1
102
RTVSPost2010Prop46
 90
       50
102
RTVSPost2010PropOp46
 70
     1
102
RTVSPost2010Prop47
 90
       50
102
RTVSPost2010PropOp47
 70
     1
102
RTVSPost2010Prop48
 90
       50
102
RTVSPost2010PropOp48
 70
     1
102
RTVSPost2010Prop49
280
     0
102
RTVSPost2010PropOp49
 70
     1
102
RTVSPost2010Prop50
 90
       50
102
RTVSPost2010PropOp50
 70
     1
102
RTVSPost2010Prop51ColorIndex
 90
      256
102
RTVSPost2010Prop51ColorRGB
 90
-16777216
102
RTVSPost2010PropOp51
 70
     0
102
RTVSPost2010Prop52
140
1.0
102
RTVSPost2010PropOp52
 70
     0
102
RTVSPost2010Prop53
 90
        2
102
RTVSPost2010PropOp53
 70
     1
102
RTVSPost2010Prop54
  1
strokes_ogs.tif
102
RTVSPost2010PropOp54
 70
     1
102
RTVSPost2010Prop55
280
     0
102
RTVSPost2010PropOp55
 70
     1
102
RTVSPost2010Prop56
140
1.0
102
RTVSPost2010PropOp56
 70
     1
102
RTVSPost2010Prop57
140
1.0
102
RTVSPost2010PropOp57
 70
     1
102
RTVSPropertyOp0
 70
     1
102
RTVSPropertyOp1
 70
     1
102
RTVSPropertyOp2
 70
     1
102
RTVSPropertyOp3
 70
     1
102
RTVSPropertyOp4
 70
     1
102
RTVSPropertyOp5
 70
     1
102
RTVSPropertyOp6
 70
     1
102
RTVSPropertyOp7
 70
     1
102
RTVSPropertyOp8
 70
     1
102
RTVSPropertyOp9
 70
     1
102
RTVSPropertyOp10
 70
     1
102
RTVSPropertyOp11
 70
     1
102
RTVSPropertyOp12
 70
     1
102
RTVSPropertyOp13
 70
     1
102
RTVSPropertyOp14
 70
     1
102
RTVSPropertyOp15
 70
     1
102
RTVSPropertyOp16
 70
     1
102
RTVSPropertyOp17
 70
     1
102
RTVSPropertyOp18
 70
     1
102
RTVSPropertyOp19
 70
     1
102
RTVSPropertyOp20
 70
     1
102
RTVSPropertyOp21
 70
     1
102
RTVSPropertyOp22
 70
     1
102
RTVSPropertyOp23
 70
     1
102
RTVSPropertyOp24
 70
     1
102
RTVSPropertyOp25
 70
     1
102
RTVSPropertyOp26
 70
     1
102
RTVSPropertyOp27
 70
     1
102
RTVSPropertyOp28
 70
     1
102
RTVSPropertyOp29
 70
     1
102
RTVSPropertyOp30
 70
     1
102
RTVSPropertyOp31
 70
     1
102
RTVSPropertyOp32
 70
     1
102
RTVSPropertyOp33
 70
     1
102
RTVSPropertyOp34
 70
     1
102
RTVSPropertyOp35
 70
     1
102
RTVSPropertyOp36
 70
     1
102
RTVSPropertyOp37
 70
     1
102
RTVSPropertyOp38
 70
     1
102
RTVSPropertyOp39
 70
     1
102
RTVSPropertyOp40
 70
     1
102
RTVSPropertyOp41
 70
     1
102
RTVSPropertyOp42
 70
     1
102
RTVSPropertyOp43
 70
     1
102
RTVSPropertyOp44
 70
     1
102
RTVSPropertyOp45
 70
     1
102
RTVSPropertyOp46
 70
     1
102
RTVSPropertyOp47
 70
     1
102
RTVSPropertyOp48
 70
     1
102
RTVSPropertyOp49
 70
     1
102
RTVSPropertyOp50
 70
     1
102
RTVSPropertyOp51
 70
     0
102
RTVSPropertyOp52
 70
     0
102
RTVSPropertyOp53
 70
     1
102
RTVSPropertyOp54
 70
     1
102
RTVSPropertyOp55
 70
     1
102
RTVSPropertyOp56
 70
     1
102
RTVSPropertyOp57
 70
     1
102
RTVSPropertyOp58
 70
     1
102
RTVSPropertyOp59
 70
     1
102
RTVSPropertyOp60
 70
     1
102
RTVSPropertyOp61
 70
     1
102
RTVSPropertyOp62
 70
     1
  0
XRECORD
  5
5F7
102
{ACAD_REACTORS
330
5F6
102
}
330
5F6
100
AcDbXrecord
280
     1
102
RTVSPost2010Prop28
280
     0
102
RTVSPost2010PropOp28
 70
     1
102
RTVSPost2010Prop29
280
     1
102
RTVSPost2010PropOp29
 70
     1
102
RTVSPost2010Prop30
280
     1
102
RTVSPost2010PropOp30
 70
     1
102
RTVSPost2010Prop31
280
     0
102
RTVSPost2010PropOp31
 70
     1
102
RTVSPost2010Prop32
280
     0
102
RTVSPost2010PropOp32
 70
     1
102
RTVSPost2010Prop33
280
     0
102
RTVSPost2010PropOp33
 70
     1
102
RTVSPost2010Prop34
280
     0
102
RTVSPost2010PropOp34
 70
     1
102
RTVSPost2010Prop35
280
     0
102
RTVSPost2010PropOp35
 70
     1
102
RTVSPost2010Prop36
280
     0
102
RTVSPost2010PropOp36
 70
     1
102
RTVSPost2010Prop37
 90
       50
102
RTVSPost2010PropOp37
 70
     1
102
RTVSPost2010Prop38
140
0.0
102
RTVSPost2010PropOp38
 70
     1
102
RTVSPost2010Prop39
140
1.0
102
RTVSPost2010PropOp39
 70
     1
102
RTVSPost2010Prop40
 90
        0
102
RTVSPost2010PropOp40
 70
     1
102
RTVSPost2010Prop41ColorIndex
 90
       18
102
RTVSPost2010Prop41ColorRGB
 90
        0
102
RTVSPost2010PropOp41
 70
     1
102
RTVSPost2010Prop42
 90
       50
102
RTVSPost2010PropOp42
 70
     1
102
RTVSPost2010Prop43
 90
        3
102
RTVSPost2010PropOp43
 70
     1
102
RTVSPost2010Prop44ColorIndex
 90
        5
102
RTVSPost2010Prop44ColorRGB
 90
      255
102
RTVSPost2010PropOp44
 70
     1
102
RTVSPost2010Prop45
280
     0
102
RTVSPost2010PropOp45
 70
     1
102
RTVSPost2010Prop46
 90
       50
102
RTVSPost2010PropOp46
 70
     1
102
RTVSPost2010Prop47
 90
       50
102
RTVSPost2010PropOp47
 70
     1
102
RTVSPost2010Prop48
 90
       50
102
RTVSPost2010PropOp48
 70
     1
102
RTVSPost2010Prop49
280
     0
102
RTVSPost2010PropOp49
 70
     1
102
RTVSPost2010Prop50
 90
       50
102
RTVSPost2010PropOp50
 70
     1
102
RTVSPost2010Prop51ColorIndex
 90
      256
102
RTVSPost2010Prop51ColorRGB
 90
-16777216
102
RTVSPost2010PropOp51
 70
     0
102
RTVSPost2010Prop52
140
1.0
102
RTVSPost2010PropOp52
 70
     0
102
RTVSPost2010Prop53
 90
        2
102
RTVSPost2010PropOp53
 70
     1
102
RTVSPost2010Prop54
  1
strokes_ogs.tif
102
RTVSPost2010PropOp54
 70
     1
102
RTVSPost2010Prop55
280
     0
102
RTVSPost2010PropOp55
 70
     1
102
RTVSPost2010Prop56
140
1.0
102
RTVSPost2010PropOp56
 70
     1
102
RTVSPost2010Prop57
140
1.0
102
RTVSPost2010PropOp57
 70
     1
102
RTVSPropertyOp0
 70
     1
102
RTVSPropertyOp1
 70
     1
102
RTVSPropertyOp2
 70
     1
102
RTVSPropertyOp3
 70
     1
102
RTVSPropertyOp4
 70
     1
102
RTVSPropertyOp5
 70
     1
102
RTVSPropertyOp6
 70
     1
102
RTVSPropertyOp7
 70
     1
102
RTVSPropertyOp8
 70
     1
102
RTVSPropertyOp9
 70
     1
102
RTVSPropertyOp10
 70
     1
102
RTVSPropertyOp11
 70
     1
102
RTVSPropertyOp12
 70
     1
102
RTVSPropertyOp13
 70
     1
102
RTVSPropertyOp14
 70
     1
102
RTVSPropertyOp15
 70
     1
102
RTVSPropertyOp16
 70
     1
102
RTVSPropertyOp17
 70
     1
102
RTVSPropertyOp18
 70
     1
102
RTVSPropertyOp19
 70
     1
102
RTVSPropertyOp20
 70
     1
102
RTVSPropertyOp21
 70
     1
102
RTVSPropertyOp22
 70
     1
102
RTVSPropertyOp23
 70
     1
102
RTVSPropertyOp24
 70
     1
102
RTVSPropertyOp25
 70
     1
102
RTVSPropertyOp26
 70
     1
102
RTVSPropertyOp27
 70
     1
102
RTVSPropertyOp28
 70
     1
102
RTVSPropertyOp29
 70
     1
102
RTVSPropertyOp30
 70
     1
102
RTVSPropertyOp31
 70
     1
102
RTVSPropertyOp32
 70
     1
102
RTVSPropertyOp33
 70
     1
102
RTVSPropertyOp34
 70
     1
102
RTVSPropertyOp35
 70
     1
102
RTVSPropertyOp36
 70
     1
102
RTVSPropertyOp37
 70
     1
102
RTVSPropertyOp38
 70
     1
102
RTVSPropertyOp39
 70
     1
102
RTVSPropertyOp40
 70
     1
102
RTVSPropertyOp41
 70
     1
102
RTVSPropertyOp42
 70
     1
102
RTVSPropertyOp43
 70
     1
102
RTVSPropertyOp44
 70
     1
102
RTVSPropertyOp45
 70
     1
102
RTVSPropertyOp46
 70
     1
102
RTVSPropertyOp47
 70
     1
102
RTVSPropertyOp48
 70
     1
102
RTVSPropertyOp49
 70
     1
102
RTVSPropertyOp50
 70
     1
102
RTVSPropertyOp51
 70
     0
102
RTVSPropertyOp52
 70
     0
102
RTVSPropertyOp53
 70
     1
102
RTVSPropertyOp54
 70
     1
102
RTVSPropertyOp55
 70
     1
102
RTVSPropertyOp56
 70
     1
102
RTVSPropertyOp57
 70
     1
102
RTVSPropertyOp58
 70
     1
102
RTVSPropertyOp59
 70
     1
102
RTVSPropertyOp60
 70
     1
102
RTVSPropertyOp61
 70
     1
102
RTVSPropertyOp62
 70
     1
  0
XRECORD
  5
5F1
102
{ACAD_REACTORS
330
5F0
102
}
330
5F0
100
AcDbXrecord
280
     1
102
RTVSPost2010Prop28
280
     0
102
RTVSPost2010PropOp28
 70
     1
102
RTVSPost2010Prop29
280
     1
102
RTVSPost2010PropOp29
 70
     1
102
RTVSPost2010Prop30
280
     1
102
RTVSPost2010PropOp30
 70
     1
102
RTVSPost2010Prop31
280
     0
102
RTVSPost2010PropOp31
 70
     1
102
RTVSPost2010Prop32
280
     0
102
RTVSPost2010PropOp32
 70
     1
102
RTVSPost2010Prop33
280
     0
102
RTVSPost2010PropOp33
 70
     1
102
RTVSPost2010Prop34
280
     0
102
RTVSPost2010PropOp34
 70
     1
102
RTVSPost2010Prop35
280
     0
102
RTVSPost2010PropOp35
 70
     1
102
RTVSPost2010Prop36
280
     0
102
RTVSPost2010PropOp36
 70
     1
102
RTVSPost2010Prop37
 90
       50
102
RTVSPost2010PropOp37
 70
     1
102
RTVSPost2010Prop38
140
0.0
102
RTVSPost2010PropOp38
 70
     1
102
RTVSPost2010Prop39
140
1.0
102
RTVSPost2010PropOp39
 70
     1
102
RTVSPost2010Prop40
 90
        0
102
RTVSPost2010PropOp40
 70
     1
102
RTVSPost2010Prop41ColorIndex
 90
       18
102
RTVSPost2010Prop41ColorRGB
 90
        0
102
RTVSPost2010PropOp41
 70
     1
102
RTVSPost2010Prop42
 90
       50
102
RTVSPost2010PropOp42
 70
     1
102
RTVSPost2010Prop43
 90
        3
102
RTVSPost2010PropOp43
 70
     1
102
RTVSPost2010Prop44ColorIndex
 90
        5
102
RTVSPost2010Prop44ColorRGB
 90
      255
102
RTVSPost2010PropOp44
 70
     1
102
RTVSPost2010Prop45
280
     0
102
RTVSPost2010PropOp45
 70
     1
102
RTVSPost2010Prop46
 90
       50
102
RTVSPost2010PropOp46
 70
     1
102
RTVSPost2010Prop47
 90
       50
102
RTVSPost2010PropOp47
 70
     1
102
RTVSPost2010Prop48
 90
       50
102
RTVSPost2010PropOp48
 70
     1
102
RTVSPost2010Prop49
280
     0
102
RTVSPost2010PropOp49
 70
     1
102
RTVSPost2010Prop50
 90
       50
102
RTVSPost2010PropOp50
 70
     1
102
RTVSPost2010Prop51ColorIndex
 90
      256
102
RTVSPost2010Prop51ColorRGB
 90
-16777216
102
RTVSPost2010PropOp51
 70
     0
102
RTVSPost2010Prop52
140
1.0
102
RTVSPost2010PropOp52
 70
     0
102
RTVSPost2010Prop53
 90
        2
102
RTVSPost2010PropOp53
 70
     1
102
RTVSPost2010Prop54
  1
strokes_ogs.tif
102
RTVSPost2010PropOp54
 70
     1
102
RTVSPost2010Prop55
280
     0
102
RTVSPost2010PropOp55
 70
     1
102
RTVSPost2010Prop56
140
1.0
102
RTVSPost2010PropOp56
 70
     1
102
RTVSPost2010Prop57
140
1.0
102
RTVSPost2010PropOp57
 70
     1
102
RTVSPropertyOp0
 70
     1
102
RTVSPropertyOp1
 70
     1
102
RTVSPropertyOp2
 70
     1
102
RTVSPropertyOp3
 70
     1
102
RTVSPropertyOp4
 70
     1
102
RTVSPropertyOp5
 70
     1
102
RTVSPropertyOp6
 70
     1
102
RTVSPropertyOp7
 70
     1
102
RTVSPropertyOp8
 70
     1
102
RTVSPropertyOp9
 70
     1
102
RTVSPropertyOp10
 70
     1
102
RTVSPropertyOp11
 70
     1
102
RTVSPropertyOp12
 70
     1
102
RTVSPropertyOp13
 70
     1
102
RTVSPropertyOp14
 70
     1
102
RTVSPropertyOp15
 70
     1
102
RTVSPropertyOp16
 70
     1
102
RTVSPropertyOp17
 70
     1
102
RTVSPropertyOp18
 70
     1
102
RTVSPropertyOp19
 70
     1
102
RTVSPropertyOp20
 70
     1
102
RTVSPropertyOp21
 70
     1
102
RTVSPropertyOp22
 70
     1
102
RTVSPropertyOp23
 70
     1
102
RTVSPropertyOp24
 70
     1
102
RTVSPropertyOp25
 70
     1
102
RTVSPropertyOp26
 70
     1
102
RTVSPropertyOp27
 70
     1
102
RTVSPropertyOp28
 70
     1
102
RTVSPropertyOp29
 70
     1
102
RTVSPropertyOp30
 70
     1
102
RTVSPropertyOp31
 70
     1
102
RTVSPropertyOp32
 70
     1
102
RTVSPropertyOp33
 70
     1
102
RTVSPropertyOp34
 70
     1
102
RTVSPropertyOp35
 70
     1
102
RTVSPropertyOp36
 70
     1
102
RTVSPropertyOp37
 70
     1
102
RTVSPropertyOp38
 70
     1
102
RTVSPropertyOp39
 70
     1
102
RTVSPropertyOp40
 70
     1
102
RTVSPropertyOp41
 70
     1
102
RTVSPropertyOp42
 70
     1
102
RTVSPropertyOp43
 70
     1
102
RTVSPropertyOp44
 70
     1
102
RTVSPropertyOp45
 70
     1
102
RTVSPropertyOp46
 70
     1
102
RTVSPropertyOp47
 70
     1
102
RTVSPropertyOp48
 70
     1
102
RTVSPropertyOp49
 70
     1
102
RTVSPropertyOp50
 70
     1
102
RTVSPropertyOp51
 70
     0
102
RTVSPropertyOp52
 70
     0
102
RTVSPropertyOp53
 70
     1
102
RTVSPropertyOp54
 70
     1
102
RTVSPropertyOp55
 70
     1
102
RTVSPropertyOp56
 70
     1
102
RTVSPropertyOp57
 70
     1
102
RTVSPropertyOp58
 70
     1
102
RTVSPropertyOp59
 70
     1
102
RTVSPropertyOp60
 70
     1
102
RTVSPropertyOp61
 70
     1
102
RTVSPropertyOp62
 70
     1
  0
XRECORD
  5
5F3
102
{ACAD_REACTORS
330
5F2
102
}
330
5F2
100
AcDbXrecord
280
     1
102
RTVSPost2010Prop28
280
     0
102
RTVSPost2010PropOp28
 70
     1
102
RTVSPost2010Prop29
280
     1
102
RTVSPost2010PropOp29
 70
     1
102
RTVSPost2010Prop30
280
     1
102
RTVSPost2010PropOp30
 70
     1
102
RTVSPost2010Prop31
280
     0
102
RTVSPost2010PropOp31
 70
     1
102
RTVSPost2010Prop32
280
     0
102
RTVSPost2010PropOp32
 70
     1
102
RTVSPost2010Prop33
280
     0
102
RTVSPost2010PropOp33
 70
     1
102
RTVSPost2010Prop34
280
     0
102
RTVSPost2010PropOp34
 70
     1
102
RTVSPost2010Prop35
280
     0
102
RTVSPost2010PropOp35
 70
     1
102
RTVSPost2010Prop36
280
     0
102
RTVSPost2010PropOp36
 70
     1
102
RTVSPost2010Prop37
 90
       50
102
RTVSPost2010PropOp37
 70
     1
102
RTVSPost2010Prop38
140
0.0
102
RTVSPost2010PropOp38
 70
     1
102
RTVSPost2010Prop39
140
1.0
102
RTVSPost2010PropOp39
 70
     1
102
RTVSPost2010Prop40
 90
        0
102
RTVSPost2010PropOp40
 70
     1
102
RTVSPost2010Prop41ColorIndex
 90
       18
102
RTVSPost2010Prop41ColorRGB
 90
        0
102
RTVSPost2010PropOp41
 70
     1
102
RTVSPost2010Prop42
 90
       50
102
RTVSPost2010PropOp42
 70
     1
102
RTVSPost2010Prop43
 90
        3
102
RTVSPost2010PropOp43
 70
     1
102
RTVSPost2010Prop44ColorIndex
 90
        5
102
RTVSPost2010Prop44ColorRGB
 90
      255
102
RTVSPost2010PropOp44
 70
     1
102
RTVSPost2010Prop45
280
     0
102
RTVSPost2010PropOp45
 70
     1
102
RTVSPost2010Prop46
 90
       50
102
RTVSPost2010PropOp46
 70
     1
102
RTVSPost2010Prop47
 90
       50
102
RTVSPost2010PropOp47
 70
     1
102
RTVSPost2010Prop48
 90
       50
102
RTVSPost2010PropOp48
 70
     1
102
RTVSPost2010Prop49
280
     0
102
RTVSPost2010PropOp49
 70
     1
102
RTVSPost2010Prop50
 90
       50
102
RTVSPost2010PropOp50
 70
     1
102
RTVSPost2010Prop51ColorIndex
 90
      256
102
RTVSPost2010Prop51ColorRGB
 90
-16777216
102
RTVSPost2010PropOp51
 70
     0
102
RTVSPost2010Prop52
140
1.0
102
RTVSPost2010PropOp52
 70
     0
102
RTVSPost2010Prop53
 90
        2
102
RTVSPost2010PropOp53
 70
     1
102
RTVSPost2010Prop54
  1
strokes_ogs.tif
102
RTVSPost2010PropOp54
 70
     1
102
RTVSPost2010Prop55
280
     0
102
RTVSPost2010PropOp55
 70
     1
102
RTVSPost2010Prop56
140
1.0
102
RTVSPost2010PropOp56
 70
     1
102
RTVSPost2010Prop57
140
1.0
102
RTVSPost2010PropOp57
 70
     1
102
RTVSPropertyOp0
 70
     1
102
RTVSPropertyOp1
 70
     1
102
RTVSPropertyOp2
 70
     1
102
RTVSPropertyOp3
 70
     1
102
RTVSPropertyOp4
 70
     1
102
RTVSPropertyOp5
 70
     1
102
RTVSPropertyOp6
 70
     1
102
RTVSPropertyOp7
 70
     1
102
RTVSPropertyOp8
 70
     1
102
RTVSPropertyOp9
 70
     1
102
RTVSPropertyOp10
 70
     1
102
RTVSPropertyOp11
 70
     1
102
RTVSPropertyOp12
 70
     1
102
RTVSPropertyOp13
 70
     1
102
RTVSPropertyOp14
 70
     1
102
RTVSPropertyOp15
 70
     1
102
RTVSPropertyOp16
 70
     1
102
RTVSPropertyOp17
 70
     1
102
RTVSPropertyOp18
 70
     1
102
RTVSPropertyOp19
 70
     1
102
RTVSPropertyOp20
 70
     1
102
RTVSPropertyOp21
 70
     1
102
RTVSPropertyOp22
 70
     1
102
RTVSPropertyOp23
 70
     1
102
RTVSPropertyOp24
 70
     1
102
RTVSPropertyOp25
 70
     1
102
RTVSPropertyOp26
 70
     1
102
RTVSPropertyOp27
 70
     1
102
RTVSPropertyOp28
 70
     1
102
RTVSPropertyOp29
 70
     1
102
RTVSPropertyOp30
 70
     1
102
RTVSPropertyOp31
 70
     1
102
RTVSPropertyOp32
 70
     1
102
RTVSPropertyOp33
 70
     1
102
RTVSPropertyOp34
 70
     1
102
RTVSPropertyOp35
 70
     1
102
RTVSPropertyOp36
 70
     1
102
RTVSPropertyOp37
 70
     1
102
RTVSPropertyOp38
 70
     1
102
RTVSPropertyOp39
 70
     1
102
RTVSPropertyOp40
 70
     1
102
RTVSPropertyOp41
 70
     1
102
RTVSPropertyOp42
 70
     1
102
RTVSPropertyOp43
 70
     1
102
RTVSPropertyOp44
 70
     1
102
RTVSPropertyOp45
 70
     1
102
RTVSPropertyOp46
 70
     1
102
RTVSPropertyOp47
 70
     1
102
RTVSPropertyOp48
 70
     1
102
RTVSPropertyOp49
 70
     1
102
RTVSPropertyOp50
 70
     1
102
RTVSPropertyOp51
 70
     0
102
RTVSPropertyOp52
 70
     0
102
RTVSPropertyOp53
 70
     1
102
RTVSPropertyOp54
 70
     1
102
RTVSPropertyOp55
 70
     1
102
RTVSPropertyOp56
 70
     1
102
RTVSPropertyOp57
 70
     1
102
RTVSPropertyOp58
 70
     1
102
RTVSPropertyOp59
 70
     1
102
RTVSPropertyOp60
 70
     1
102
RTVSPropertyOp61
 70
     1
102
RTVSPropertyOp62
 70
     1
  0
XRECORD
  5
5E2
102
{ACAD_REACTORS
330
5E1
102
}
330
5E1
100
AcDbXrecord
280
     1
102
RTVSPost2010Prop28
280
     0
102
RTVSPost2010PropOp28
 70
     1
102
RTVSPost2010Prop29
280
     1
102
RTVSPost2010PropOp29
 70
     1
102
RTVSPost2010Prop30
280
     1
102
RTVSPost2010PropOp30
 70
     1
102
RTVSPost2010Prop31
280
     0
102
RTVSPost2010PropOp31
 70
     1
102
RTVSPost2010Prop32
280
     0
102
RTVSPost2010PropOp32
 70
     1
102
RTVSPost2010Prop33
280
     0
102
RTVSPost2010PropOp33
 70
     1
102
RTVSPost2010Prop34
280
     0
102
RTVSPost2010PropOp34
 70
     1
102
RTVSPost2010Prop35
280
     0
102
RTVSPost2010PropOp35
 70
     1
102
RTVSPost2010Prop36
280
     0
102
RTVSPost2010PropOp36
 70
     1
102
RTVSPost2010Prop37
 90
       50
102
RTVSPost2010PropOp37
 70
     1
102
RTVSPost2010Prop38
140
0.0
102
RTVSPost2010PropOp38
 70
     1
102
RTVSPost2010Prop39
140
1.0
102
RTVSPost2010PropOp39
 70
     1
102
RTVSPost2010Prop40
 90
        0
102
RTVSPost2010PropOp40
 70
     1
102
RTVSPost2010Prop41ColorIndex
 90
       18
102
RTVSPost2010Prop41ColorRGB
 90
        0
102
RTVSPost2010PropOp41
 70
     1
102
RTVSPost2010Prop42
 90
       50
102
RTVSPost2010PropOp42
 70
     1
102
RTVSPost2010Prop43
 90
        3
102
RTVSPost2010PropOp43
 70
     1
102
RTVSPost2010Prop44ColorIndex
 90
        5
102
RTVSPost2010Prop44ColorRGB
 90
      255
102
RTVSPost2010PropOp44
 70
     1
102
RTVSPost2010Prop45
280
     0
102
RTVSPost2010PropOp45
 70
     1
102
RTVSPost2010Prop46
 90
       50
102
RTVSPost2010PropOp46
 70
     1
102
RTVSPost2010Prop47
 90
       50
102
RTVSPost2010PropOp47
 70
     1
102
RTVSPost2010Prop48
 90
       50
102
RTVSPost2010PropOp48
 70
     1
102
RTVSPost2010Prop49
280
     0
102
RTVSPost2010PropOp49
 70
     1
102
RTVSPost2010Prop50
 90
       50
102
RTVSPost2010PropOp50
 70
     1
102
RTVSPost2010Prop51ColorIndex
 90
      256
102
RTVSPost2010Prop51ColorRGB
 90
-16777216
102
RTVSPost2010PropOp51
 70
     0
102
RTVSPost2010Prop52
140
1.0
102
RTVSPost2010PropOp52
 70
     0
102
RTVSPost2010Prop53
 90
        2
102
RTVSPost2010PropOp53
 70
     1
102
RTVSPost2010Prop54
  1
strokes_ogs.tif
102
RTVSPost2010PropOp54
 70
     1
102
RTVSPost2010Prop55
280
     0
102
RTVSPost2010PropOp55
 70
     1
102
RTVSPost2010Prop56
140
1.0
102
RTVSPost2010PropOp56
 70
     1
102
RTVSPost2010Prop57
140
1.0
102
RTVSPost2010PropOp57
 70
     1
102
RTVSPropertyOp0
 70
     1
102
RTVSPropertyOp1
 70
     1
102
RTVSPropertyOp2
 70
     1
102
RTVSPropertyOp3
 70
     1
102
RTVSPropertyOp4
 70
     1
102
RTVSPropertyOp5
 70
     1
102
RTVSPropertyOp6
 70
     1
102
RTVSPropertyOp7
 70
     1
102
RTVSPropertyOp8
 70
     1
102
RTVSPropertyOp9
 70
     1
102
RTVSPropertyOp10
 70
     1
102
RTVSPropertyOp11
 70
     1
102
RTVSPropertyOp12
 70
     1
102
RTVSPropertyOp13
 70
     1
102
RTVSPropertyOp14
 70
     1
102
RTVSPropertyOp15
 70
     1
102
RTVSPropertyOp16
 70
     1
102
RTVSPropertyOp17
 70
     1
102
RTVSPropertyOp18
 70
     1
102
RTVSPropertyOp19
 70
     1
102
RTVSPropertyOp20
 70
     1
102
RTVSPropertyOp21
 70
     1
102
RTVSPropertyOp22
 70
     1
102
RTVSPropertyOp23
 70
     1
102
RTVSPropertyOp24
 70
     1
102
RTVSPropertyOp25
 70
     1
102
RTVSPropertyOp26
 70
     1
102
RTVSPropertyOp27
 70
     1
102
RTVSPropertyOp28
 70
     1
102
RTVSPropertyOp29
 70
     1
102
RTVSPropertyOp30
 70
     1
102
RTVSPropertyOp31
 70
     1
102
RTVSPropertyOp32
 70
     1
102
RTVSPropertyOp33
 70
     1
102
RTVSPropertyOp34
 70
     1
102
RTVSPropertyOp35
 70
     1
102
RTVSPropertyOp36
 70
     1
102
RTVSPropertyOp37
 70
     1
102
RTVSPropertyOp38
 70
     1
102
RTVSPropertyOp39
 70
     1
102
RTVSPropertyOp40
 70
     1
102
RTVSPropertyOp41
 70
     1
102
RTVSPropertyOp42
 70
     1
102
RTVSPropertyOp43
 70
     1
102
RTVSPropertyOp44
 70
     1
102
RTVSPropertyOp45
 70
     1
102
RTVSPropertyOp46
 70
     1
102
RTVSPropertyOp47
 70
     1
102
RTVSPropertyOp48
 70
     1
102
RTVSPropertyOp49
 70
     1
102
RTVSPropertyOp50
 70
     1
102
RTVSPropertyOp51
 70
     0
102
RTVSPropertyOp52
 70
     0
102
RTVSPropertyOp53
 70
     1
102
RTVSPropertyOp54
 70
     1
102
RTVSPropertyOp55
 70
     1
102
RTVSPropertyOp56
 70
     1
102
RTVSPropertyOp57
 70
     1
102
RTVSPropertyOp58
 70
     1
102
RTVSPropertyOp59
 70
     1
102
RTVSPropertyOp60
 70
     1
102
RTVSPropertyOp61
 70
     1
102
RTVSPropertyOp62
 70
     1
  0
XRECORD
  5
5D6
102
{ACAD_REACTORS
330
5D5
102
}
330
5D5
100
AcDbXrecord
280
     1
102
RTVSPost2010Prop28
280
     0
102
RTVSPost2010PropOp28
 70
     1
102
RTVSPost2010Prop29
280
     1
102
RTVSPost2010PropOp29
 70
     1
102
RTVSPost2010Prop30
280
     1
102
RTVSPost2010PropOp30
 70
     1
102
RTVSPost2010Prop31
280
     0
102
RTVSPost2010PropOp31
 70
     1
102
RTVSPost2010Prop32
280
     0
102
RTVSPost2010PropOp32
 70
     1
102
RTVSPost2010Prop33
280
     0
102
RTVSPost2010PropOp33
 70
     1
102
RTVSPost2010Prop34
280
     0
102
RTVSPost2010PropOp34
 70
     1
102
RTVSPost2010Prop35
280
     0
102
RTVSPost2010PropOp35
 70
     1
102
RTVSPost2010Prop36
280
     0
102
RTVSPost2010PropOp36
 70
     1
102
RTVSPost2010Prop37
 90
       50
102
RTVSPost2010PropOp37
 70
     1
102
RTVSPost2010Prop38
140
0.0
102
RTVSPost2010PropOp38
 70
     1
102
RTVSPost2010Prop39
140
1.0
102
RTVSPost2010PropOp39
 70
     1
102
RTVSPost2010Prop40
 90
        0
102
RTVSPost2010PropOp40
 70
     1
102
RTVSPost2010Prop41ColorIndex
 90
       18
102
RTVSPost2010Prop41ColorRGB
 90
        0
102
RTVSPost2010PropOp41
 70
     1
102
RTVSPost2010Prop42
 90
       50
102
RTVSPost2010PropOp42
 70
     1
102
RTVSPost2010Prop43
 90
        3
102
RTVSPost2010PropOp43
 70
     1
102
RTVSPost2010Prop44ColorIndex
 90
        5
102
RTVSPost2010Prop44ColorRGB
 90
      255
102
RTVSPost2010PropOp44
 70
     1
102
RTVSPost2010Prop45
280
     0
102
RTVSPost2010PropOp45
 70
     1
102
RTVSPost2010Prop46
 90
       50
102
RTVSPost2010PropOp46
 70
     1
102
RTVSPost2010Prop47
 90
       50
102
RTVSPost2010PropOp47
 70
     1
102
RTVSPost2010Prop48
 90
       50
102
RTVSPost2010PropOp48
 70
     1
102
RTVSPost2010Prop49
280
     0
102
RTVSPost2010PropOp49
 70
     1
102
RTVSPost2010Prop50
 90
       50
102
RTVSPost2010PropOp50
 70
     1
102
RTVSPost2010Prop51ColorIndex
 90
      256
102
RTVSPost2010Prop51ColorRGB
 90
-16777216
102
RTVSPost2010PropOp51
 70
     0
102
RTVSPost2010Prop52
140
1.0
102
RTVSPost2010PropOp52
 70
     0
102
RTVSPost2010Prop53
 90
        2
102
RTVSPost2010PropOp53
 70
     1
102
RTVSPost2010Prop54
  1
strokes_ogs.tif
102
RTVSPost2010PropOp54
 70
     1
102
RTVSPost2010Prop55
280
     0
102
RTVSPost2010PropOp55
 70
     1
102
RTVSPost2010Prop56
140
1.0
102
RTVSPost2010PropOp56
 70
     1
102
RTVSPost2010Prop57
140
1.0
102
RTVSPost2010PropOp57
 70
     1
102
RTVSPropertyOp0
 70
     1
102
RTVSPropertyOp1
 70
     1
102
RTVSPropertyOp2
 70
     1
102
RTVSPropertyOp3
 70
     1
102
RTVSPropertyOp4
 70
     1
102
RTVSPropertyOp5
 70
     1
102
RTVSPropertyOp6
 70
     1
102
RTVSPropertyOp7
 70
     1
102
RTVSPropertyOp8
 70
     1
102
RTVSPropertyOp9
 70
     1
102
RTVSPropertyOp10
 70
     1
102
RTVSPropertyOp11
 70
     1
102
RTVSPropertyOp12
 70
     1
102
RTVSPropertyOp13
 70
     1
102
RTVSPropertyOp14
 70
     1
102
RTVSPropertyOp15
 70
     1
102
RTVSPropertyOp16
 70
     1
102
RTVSPropertyOp17
 70
     1
102
RTVSPropertyOp18
 70
     1
102
RTVSPropertyOp19
 70
     1
102
RTVSPropertyOp20
 70
     1
102
RTVSPropertyOp21
 70
     1
102
RTVSPropertyOp22
 70
     1
102
RTVSPropertyOp23
 70
     1
102
RTVSPropertyOp24
 70
     1
102
RTVSPropertyOp25
 70
     1
102
RTVSPropertyOp26
 70
     1
102
RTVSPropertyOp27
 70
     1
102
RTVSPropertyOp28
 70
     1
102
RTVSPropertyOp29
 70
     1
102
RTVSPropertyOp30
 70
     1
102
RTVSPropertyOp31
 70
     1
102
RTVSPropertyOp32
 70
     1
102
RTVSPropertyOp33
 70
     1
102
RTVSPropertyOp34
 70
     1
102
RTVSPropertyOp35
 70
     1
102
RTVSPropertyOp36
 70
     1
102
RTVSPropertyOp37
 70
     1
102
RTVSPropertyOp38
 70
     1
102
RTVSPropertyOp39
 70
     1
102
RTVSPropertyOp40
 70
     1
102
RTVSPropertyOp41
 70
     1
102
RTVSPropertyOp42
 70
     1
102
RTVSPropertyOp43
 70
     1
102
RTVSPropertyOp44
 70
     1
102
RTVSPropertyOp45
 70
     1
102
RTVSPropertyOp46
 70
     1
102
RTVSPropertyOp47
 70
     1
102
RTVSPropertyOp48
 70
     1
102
RTVSPropertyOp49
 70
     1
102
RTVSPropertyOp50
 70
     1
102
RTVSPropertyOp51
 70
     0
102
RTVSPropertyOp52
 70
     0
102
RTVSPropertyOp53
 70
     1
102
RTVSPropertyOp54
 70
     1
102
RTVSPropertyOp55
 70
     1
102
RTVSPropertyOp56
 70
     1
102
RTVSPropertyOp57
 70
     1
102
RTVSPropertyOp58
 70
     1
102
RTVSPropertyOp59
 70
     1
102
RTVSPropertyOp60
 70
     1
102
RTVSPropertyOp61
 70
     1
102
RTVSPropertyOp62
 70
     1
  0
XRECORD
  5
5F5
102
{ACAD_REACTORS
330
5F4
102
}
330
5F4
100
AcDbXrecord
280
     1
102
RTVSPost2010Prop28
280
     0
102
RTVSPost2010PropOp28
 70
     1
102
RTVSPost2010Prop29
280
     1
102
RTVSPost2010PropOp29
 70
     1
102
RTVSPost2010Prop30
280
     1
102
RTVSPost2010PropOp30
 70
     1
102
RTVSPost2010Prop31
280
     0
102
RTVSPost2010PropOp31
 70
     1
102
RTVSPost2010Prop32
280
     0
102
RTVSPost2010PropOp32
 70
     1
102
RTVSPost2010Prop33
280
     0
102
RTVSPost2010PropOp33
 70
     1
102
RTVSPost2010Prop34
280
     0
102
RTVSPost2010PropOp34
 70
     1
102
RTVSPost2010Prop35
280
     0
102
RTVSPost2010PropOp35
 70
     1
102
RTVSPost2010Prop36
280
     0
102
RTVSPost2010PropOp36
 70
     1
102
RTVSPost2010Prop37
 90
       50
102
RTVSPost2010PropOp37
 70
     1
102
RTVSPost2010Prop38
140
0.0
102
RTVSPost2010PropOp38
 70
     1
102
RTVSPost2010Prop39
140
1.0
102
RTVSPost2010PropOp39
 70
     1
102
RTVSPost2010Prop40
 90
        0
102
RTVSPost2010PropOp40
 70
     1
102
RTVSPost2010Prop41ColorIndex
 90
       18
102
RTVSPost2010Prop41ColorRGB
 90
        0
102
RTVSPost2010PropOp41
 70
     1
102
RTVSPost2010Prop42
 90
       50
102
RTVSPost2010PropOp42
 70
     1
102
RTVSPost2010Prop43
 90
        3
102
RTVSPost2010PropOp43
 70
     1
102
RTVSPost2010Prop44ColorIndex
 90
        5
102
RTVSPost2010Prop44ColorRGB
 90
      255
102
RTVSPost2010PropOp44
 70
     1
102
RTVSPost2010Prop45
280
     0
102
RTVSPost2010PropOp45
 70
     1
102
RTVSPost2010Prop46
 90
       50
102
RTVSPost2010PropOp46
 70
     1
102
RTVSPost2010Prop47
 90
       50
102
RTVSPost2010PropOp47
 70
     1
102
RTVSPost2010Prop48
 90
       50
102
RTVSPost2010PropOp48
 70
     1
102
RTVSPost2010Prop49
280
     0
102
RTVSPost2010PropOp49
 70
     1
102
RTVSPost2010Prop50
 90
       50
102
RTVSPost2010PropOp50
 70
     1
102
RTVSPost2010Prop51ColorIndex
 90
      256
102
RTVSPost2010Prop51ColorRGB
 90
-16777216
102
RTVSPost2010PropOp51
 70
     0
102
RTVSPost2010Prop52
140
1.0
102
RTVSPost2010PropOp52
 70
     0
102
RTVSPost2010Prop53
 90
        2
102
RTVSPost2010PropOp53
 70
     1
102
RTVSPost2010Prop54
  1
strokes_ogs.tif
102
RTVSPost2010PropOp54
 70
     1
102
RTVSPost2010Prop55
280
     0
102
RTVSPost2010PropOp55
 70
     1
102
RTVSPost2010Prop56
140
1.0
102
RTVSPost2010PropOp56
 70
     1
102
RTVSPost2010Prop57
140
1.0
102
RTVSPost2010PropOp57
 70
     1
102
RTVSPropertyOp0
 70
     1
102
RTVSPropertyOp1
 70
     1
102
RTVSPropertyOp2
 70
     1
102
RTVSPropertyOp3
 70
     1
102
RTVSPropertyOp4
 70
     1
102
RTVSPropertyOp5
 70
     1
102
RTVSPropertyOp6
 70
     1
102
RTVSPropertyOp7
 70
     1
102
RTVSPropertyOp8
 70
     1
102
RTVSPropertyOp9
 70
     1
102
RTVSPropertyOp10
 70
     1
102
RTVSPropertyOp11
 70
     1
102
RTVSPropertyOp12
 70
     1
102
RTVSPropertyOp13
 70
     1
102
RTVSPropertyOp14
 70
     1
102
RTVSPropertyOp15
 70
     1
102
RTVSPropertyOp16
 70
     1
102
RTVSPropertyOp17
 70
     1
102
RTVSPropertyOp18
 70
     1
102
RTVSPropertyOp19
 70
     1
102
RTVSPropertyOp20
 70
     1
102
RTVSPropertyOp21
 70
     1
102
RTVSPropertyOp22
 70
     1
102
RTVSPropertyOp23
 70
     1
102
RTVSPropertyOp24
 70
     1
102
RTVSPropertyOp25
 70
     1
102
RTVSPropertyOp26
 70
     1
102
RTVSPropertyOp27
 70
     1
102
RTVSPropertyOp28
 70
     1
102
RTVSPropertyOp29
 70
     1
102
RTVSPropertyOp30
 70
     1
102
RTVSPropertyOp31
 70
     1
102
RTVSPropertyOp32
 70
     1
102
RTVSPropertyOp33
 70
     1
102
RTVSPropertyOp34
 70
     1
102
RTVSPropertyOp35
 70
     1
102
RTVSPropertyOp36
 70
     1
102
RTVSPropertyOp37
 70
     1
102
RTVSPropertyOp38
 70
     1
102
RTVSPropertyOp39
 70
     1
102
RTVSPropertyOp40
 70
     1
102
RTVSPropertyOp41
 70
     1
102
RTVSPropertyOp42
 70
     1
102
RTVSPropertyOp43
 70
     1
102
RTVSPropertyOp44
 70
     1
102
RTVSPropertyOp45
 70
     1
102
RTVSPropertyOp46
 70
     1
102
RTVSPropertyOp47
 70
     1
102
RTVSPropertyOp48
 70
     1
102
RTVSPropertyOp49
 70
     1
102
RTVSPropertyOp50
 70
     1
102
RTVSPropertyOp51
 70
     0
102
RTVSPropertyOp52
 70
     0
102
RTVSPropertyOp53
 70
     1
102
RTVSPropertyOp54
 70
     1
102
RTVSPropertyOp55
 70
     1
102
RTVSPropertyOp56
 70
     1
102
RTVSPropertyOp57
 70
     1
102
RTVSPropertyOp58
 70
     1
102
RTVSPropertyOp59
 70
     1
102
RTVSPropertyOp60
 70
     1
102
RTVSPropertyOp61
 70
     1
102
RTVSPropertyOp62
 70
     1
  0
ENDSEC
  0
EOF
