  0
SECTION
  2
HEADER
  9
$ACADVER
  1
AC1009
  9
$DWGCODEPAGE
  3
ansi_1250
  9
$INSBASE
 10
0.0
 20
0.0
 30
0.0
  9
$EXTMIN
 10
-300.0006694980013
 20
-24.88458098613958
 30
-166.8796659701454
  9
$EXTMAX
 10
299.9993305019989
 20
195.1154190146876
 30
363.1203340301636
  9
$LIMMIN
 10
0.0
 20
0.0
  9
$LIMMAX
 10
420.0
 20
297.0
  9
$ORTHOMODE
 70
     0
  9
$REGENMODE
 70
     1
  9
$FILLMODE
 70
     1
  9
$QTEXTMODE
 70
     0
  9
$MIRRTEXT
 70
     0
  9
$DRAGMODE
 70
     2
  9
$LTSCALE
 40
1.0
  9
$OSMODE
 70
   511
  9
$ATTMODE
 70
     1
  9
$TEXTSIZE
 40
2.5
  9
$TRACEWID
 40
1.0
  9
$TEXTSTYLE
  7
STANDARD
  9
$CLAYER
  8
0
  9
$CELTYPE
  6
BYLAYER
  9
$CECOLOR
 62
   256
  9
$DIMSCALE
 40
1.0
  9
$DIMASZ
 40
2.5
  9
$DIMEXO
 40
0.625
  9
$DIMDLI
 40
3.75
  9
$DIMRND
 40
0.0
  9
$DIMDLE
 40
0.0
  9
$DIMEXE
 40
1.25
  9
$DIMTP
 40
0.0
  9
$DIMTM
 40
0.0
  9
$DIMTXT
 40
2.5
  9
$DIMCEN
 40
-2.5
  9
$DIMTSZ
 40
0.0
  9
$DIMTOL
 70
     0
  9
$DIMLIM
 70
     0
  9
$DIMTIH
 70
     0
  9
$DIMTOH
 70
     0
  9
$DIMSE1
 70
     0
  9
$DIMSE2
 70
     0
  9
$DIMTAD
 70
     1
  9
$DIMZIN
 70
     8
  9
$DIMBLK
  1

  9
$DIMASO
 70
     1
  9
$DIMSHO
 70
     1
  9
$DIMPOST
  1

  9
$DIMAPOST
  1

  9
$DIMALT
 70
     0
  9
$DIMALTD
 70
     3
  9
$DIMALTF
 40
0.03937007874016
  9
$DIMLFAC
 40
1.0
  9
$DIMTOFL
 70
     1
  9
$DIMTVP
 40
0.0
  9
$DIMTIX
 70
     0
  9
$DIMSOXD
 70
     0
  9
$DIMSAH
 70
     0
  9
$DIMBLK1
  1

  9
$DIMBLK2
  1

  9
$DIMSTYLE
  2
ISO-25
  9
$DIMCLRD
 70
     0
  9
$DIMCLRE
 70
     0
  9
$DIMCLRT
 70
     0
  9
$DIMTFAC
 40
1.0
  9
$DIMGAP
 40
0.625
  9
$LUNITS
 70
     2
  9
$LUPREC
 70
     3
  9
$SKETCHINC
 40
1.0
  9
$FILLETRAD
 40
10.0
  9
$AUNITS
 70
     0
  9
$AUPREC
 70
     0
  9
$MENU
  1
.
  9
$ELEVATION
 40
0.0
  9
$PELEVATION
 40
0.0
  9
$THICKNESS
 40
0.0
  9
$LIMCHECK
 70
     0
  9
$CHAMFERA
 40
10.0
  9
$CHAMFERB
 40
10.0
  9
$SKPOLY
 70
     0
  9
$TDCREATE
 40
2455022.679026181
  9
$TDUPDATE
 40
2460397.377863576
  9
$TDINDWG
 40
0.0002684375
  9
$TDUSRTIMER
 40
0.0002684375
  9
$USRTIMER
 70
     1
  9
$ANGBASE
 50
0.0
  9
$ANGDIR
 70
     0
  9
$PDMODE
 70
     0
  9
$PDSIZE
 40
0.0
  9
$PLINEWID
 40
0.0
  9
$COORDS
 70
     1
  9
$SPLFRAME
 70
     0
  9
$SPLINETYPE
 70
     6
  9
$SPLINESEGS
 70
     8
  9
$ATTDIA
 70
     0
  9
$ATTREQ
 70
     1
  9
$HANDLING
 70
     1
  9
$HANDSEED
  5
FA7
  9
$SURFTAB1
 70
     6
  9
$SURFTAB2
 70
     6
  9
$SURFTYPE
 70
     6
  9
$SURFU
 70
     6
  9
$SURFV
 70
     6
  9
$UCSNAME
  2

  9
$UCSORG
 10
0.0
 20
0.0
 30
0.0
  9
$UCSXDIR
 10
1.0
 20
0.0
 30
0.0
  9
$UCSYDIR
 10
0.0
 20
1.0
 30
0.0
  9
$PUCSNAME
  2

  9
$PUCSORG
 10
0.0
 20
0.0
 30
0.0
  9
$PUCSXDIR
 10
1.0
 20
0.0
 30
0.0
  9
$PUCSYDIR
 10
0.0
 20
1.0
 30
0.0
  9
$USERI1
 70
     0
  9
$USERI2
 70
     0
  9
$USERI3
 70
     0
  9
$USERI4
 70
     0
  9
$USERI5
 70
     0
  9
$USERR1
 40
0.0
  9
$USERR2
 40
0.0
  9
$USERR3
 40
0.0
  9
$USERR4
 40
0.0
  9
$USERR5
 40
0.0
  9
$WORLDVIEW
 70
     1
  9
$SHADEDGE
 70
     3
  9
$SHADEDIF
 70
    70
  9
$TILEMODE
 70
     1
  9
$MAXACTVP
 70
    64
  9
$PLIMCHECK
 70
     0
  9
$PEXTMIN
 10
1.000000000000000E+20
 20
1.000000000000000E+20
 30
1.000000000000000E+20
  9
$PEXTMAX
 10
-1.000000000000000E+20
 20
-1.000000000000000E+20
 30
-1.000000000000000E+20
  9
$PLIMMIN
 10
0.0
 20
0.0
  9
$PLIMMAX
 10
0.0
 20
0.0
  9
$UNITMODE
 70
     0
  9
$VISRETAIN
 70
     1
  9
$PLINEGEN
 70
     0
  9
$PSLTSCALE
 70
     1
  0
ENDSEC
  0
SECTION
  2
TABLES
  0
TABLE
  2
VPORT
 70
     1
  0
VPORT
  2
*ACTIVE
 70
     0
 10
0.0
 20
0.0
 11
1.0
 21
1.0
 12
134.1862463898492
 22
85.11541901427402
 13
0.0
 23
0.0
 14
10.0
 24
10.0
 15
10.0
 25
10.0
 16
0.0
 26
0.0
 36
1.0
 17
-134.1869158878504
 27
0.0
 37
0.0
 40
336.2371541501977
 41
1.820143884892086
 42
50.0
 43
0.0
 44
0.0
 50
0.0
 51
0.0
 71
    16
 72
  1000
 73
     1
 74
     3
 75
     0
 76
     0
 77
     0
 78
     0
  0
ENDTAB
  0
TABLE
  2
LTYPE
 70
     1
  0
LTYPE
  2
CONTINUOUS
 70
     0
  3
Solid line
 72
    65
 73
     0
 40
0.0
  0
ENDTAB
  0
TABLE
  2
LAYER
 70
     1
  0
LAYER
  2
0
 70
     0
 62
     7
  6
CONTINUOUS
  0
ENDTAB
  0
TABLE
  2
STYLE
 70
     2
  0
STYLE
  2
STANDARD
 70
     0
 40
0.0
 41
1.0
 50
0.0
 71
     0
 42
2.5
  3
arial.ttf
  4

  0
STYLE
  2
ANNOTATIVE
 70
     0
 40
0.0
 41
1.0
 50
0.0
 71
     0
 42
2.5
  3
arial.ttf
  4

  0
ENDTAB
  0
TABLE
  2
VIEW
 70
     0
  0
ENDTAB
  0
TABLE
  2
UCS
 70
     0
  0
ENDTAB
  0
TABLE
  2
APPID
 70
     2
  0
APPID
  2
ACAD
 70
     0
  0
APPID
  2
ACADANNOTATIVE
 70
     0
  0
ENDTAB
  0
TABLE
  2
DIMSTYLE
 70
     2
  0
DIMSTYLE
  2
ISO-25
 70
     0
  3

  4

  5

  6

  7

 40
1.0
 41
2.5
 42
0.625
 43
3.75
 44
1.25
 45
0.0
 46
0.0
 47
0.0
 48
0.0
140
2.5
141
-2.5
142
0.0
143
0.03937007874016
144
1.0
145
0.0
146
1.0
147
0.625
 71
     0
 72
     0
 73
     0
 74
     0
 75
     0
 76
     0
 77
     1
 78
     8
170
     0
171
     3
172
     1
173
     0
174
     0
175
     0
176
     0
177
     0
178
     0
  0
DIMSTYLE
  2
ANNOTATIVE
 70
     0
  3

  4

  5

  6

  7

 40
0.0
 41
2.5
 42
0.625
 43
3.75
 44
1.25
 45
0.0
 46
0.0
 47
0.0
 48
0.0
140
2.5
141
-2.5
142
0.0
143
0.03937007874016
144
1.0
145
0.0
146
1.0
147
0.625
 71
     0
 72
     0
 73
     0
 74
     0
 75
     0
 76
     0
 77
     1
 78
     8
170
     0
171
     3
172
     1
173
     0
174
     0
175
     0
176
     0
177
     0
178
     0
  0
ENDTAB
  0
ENDSEC
  0
SECTION
  2
BLOCKS
  0
BLOCK
  8
0
  2
$MODEL_SPACE
 70
     0
 10
0.0
 20
0.0
 30
0.0
  3
$MODEL_SPACE
  1

  0
ENDBLK
  5
21
  8
0
  0
BLOCK
 67
     1
  8
0
  2
$PAPER_SPACE
 70
     0
 10
0.0
 20
0.0
 30
0.0
  3
$PAPER_SPACE
  1

  0
ENDBLK
  5
1D
 67
     1
  8
0
  0
BLOCK
  8
0
  2
*X1
 70
     1
 10
0.0
 20
0.0
 30
0.0
  3
*X1
  1

  0
POLYLINE
  5
83B
  8
0
 66
     1
 10
0.0
 20
0.0
 30
0.0
 70
    64
 71
    14
 72
    12
  0
VERTEX
  5
83C
  8
0
 10
-45.00066949800097
 20
-19.8845809857055
 30
-9.980705027408026
 70
   192
  0
VERTEX
  5
83D
  8
0
 10
-45.00066949800159
 20
5.115419014294464
 30
-9.980705027378356
 70
   192
  0
VERTEX
  5
83E
  8
0
 10
-38.97169180101908
 20
5.11541901426701
 30
12.51922934685892
 70
   192
  0
VERTEX
  5
83F
  8
0
 10
-38.9717879117071
 20
-19.884580985733
 30
12.5192921474558
 70
   192
  0
VERTEX
  5
840
  8
0
 10
-0.000669498001038
 20
5.115419014239508
 30
35.01929497262272
 70
   192
  0
VERTEX
  5
841
  8
0
 10
-0.000669498001038
 20
-19.88458098576046
 30
35.01929497259219
 70
   192
  0
VERTEX
  5
842
  8
0
 10
-22.50061581113003
 20
-19.88458098575312
 30
28.99018397021354
 70
   192
  0
VERTEX
  5
843
  8
0
 10
-22.50060387223757
 20
5.115419014246894
 30
28.99031727564013
 70
   192
  0
VERTEX
  5
844
  8
0
 10
22.49926487623572
 20
5.115419014246893
 30
28.99031727563997
 70
   192
  0
VERTEX
  5
845
  8
0
 10
22.49932767686363
 20
-19.88458098575311
 30
28.99041338629813
 70
   192
  0
VERTEX
  5
846
  8
0
 10
44.999330501999
 20
5.115419014294464
 30
-9.980705027377482
 70
   192
  0
VERTEX
  5
847
  8
0
 10
44.99933050199952
 20
-19.8845809857055
 30
-9.980705027408888
 70
   192
  0
VERTEX
  5
848
  8
0
 10
38.97021949962043
 20
-19.88458098573297
 30
12.51924128572088
 70
   192
  0
VERTEX
  5
849
  8
0
 10
38.97035280501729
 20
5.115419014267011
 30
12.51922934685842
 70
   192
  0
VERTEX
  5
84A
  8
0
 10
0.0
 20
0.0
 30
0.0
 70
   128
 71
     1
 72
     2
 73
     3
  0
VERTEX
  5
84B
  8
0
 10
0.0
 20
0.0
 30
0.0
 70
   128
 71
     4
 72
     1
 73
     3
  0
VERTEX
  5
84C
  8
0
 10
0.0
 20
0.0
 30
0.0
 70
   128
 71
     5
 72
     6
 73
     7
  0
VERTEX
  5
84D
  8
0
 10
0.0
 20
0.0
 30
0.0
 70
   128
 71
     8
 72
     5
 73
     7
  0
VERTEX
  5
84E
  8
0
 10
0.0
 20
0.0
 30
0.0
 70
   128
 71
     6
 72
     5
 73
     9
  0
VERTEX
  5
84F
  8
0
 10
0.0
 20
0.0
 30
0.0
 70
   128
 71
    10
 72
     6
 73
     9
  0
VERTEX
  5
850
  8
0
 10
0.0
 20
0.0
 30
0.0
 70
   128
 71
    11
 72
    12
 73
    13
  0
VERTEX
  5
851
  8
0
 10
0.0
 20
0.0
 30
0.0
 70
   128
 71
    14
 72
    11
 73
    13
  0
VERTEX
  5
852
  8
0
 10
0.0
 20
0.0
 30
0.0
 70
   128
 71
     7
 72
     4
 73
     3
  0
VERTEX
  5
853
  8
0
 10
0.0
 20
0.0
 30
0.0
 70
   128
 71
     8
 72
     7
 73
     3
  0
VERTEX
  5
854
  8
0
 10
0.0
 20
0.0
 30
0.0
 70
   128
 71
    13
 72
    10
 73
     9
  0
VERTEX
  5
855
  8
0
 10
0.0
 20
0.0
 30
0.0
 70
   128
 71
    14
 72
    13
 73
     9
  0
SEQEND
  5
F5A
  8
0
  0
POLYLINE
  5
856
  8
0
 66
     1
 10
0.0
 20
0.0
 30
0.0
 70
    64
 71
    12
 72
    10
  0
VERTEX
  5
857
  8
0
 10
-0.0006694980081434
 20
-24.88458098576657
 30
40.01929497367608
 70
   192
  0
VERTEX
  5
858
  8
0
 10
-0.0006694980046708
 20
-24.24588308131493
 30
37.57408659133264
 70
   192
  0
VERTEX
  5
859
  8
0
 10
-0.0006694980019478
 20
-22.3297893679666
 30
35.65799287757128
 70
   192
  0
VERTEX
  5
85A
  8
0
 10
-0.000669498001038
 20
-19.88458098576046
 30
35.01929497259219
 70
   192
  0
VERTEX
  5
85B
  8
0
 10
22.49932767686363
 20
-19.88458098575311
 30
28.99041338629813
 70
   192
  0
VERTEX
  5
85C
  8
0
 10
38.97021949962043
 20
-19.88458098573297
 30
12.51924128572088
 70
   192
  0
VERTEX
  5
85D
  8
0
 10
44.999330501999
 20
-19.8845809857055
 30
-9.98070502740801
 70
   192
  0
VERTEX
  5
85E
  8
0
 10
45.66920348334497
 20
-22.38458098573987
 30
-9.980705027410579
 70
   192
  0
VERTEX
  5
85F
  8
0
 10
47.49933050243655
 20
-24.21470800463204
 30
-9.980705027411535
 70
   192
  0
VERTEX
  5
860
  8
0
 10
49.99933050254391
 20
-24.88458098568996
 30
-9.98070502741061
 70
   192
  0
VERTEX
  5
861
  8
0
 10
43.29902339744396
 20
-24.88458098573603
 30
15.02152631025864
 70
   192
  0
VERTEX
  5
862
  8
0
 10
25.00037066107414
 20
-24.88458098575837
 30
33.31997447073822
 70
   192
  0
VERTEX
  5
863
  8
0
 10
0.0
 20
0.0
 30
0.0
 70
   128
 71
     6
 72
     7
 73
     8
  0
VERTEX
  5
864
  8
0
 10
0.0
 20
0.0
 30
0.0
 70
   128
 71
     9
 72
    11
 73
     6
  0
VERTEX
  5
865
  8
0
 10
0.0
 20
0.0
 30
0.0
 70
   128
 71
     8
 72
     9
 73
     6
  0
VERTEX
  5
866
  8
0
 10
0.0
 20
0.0
 30
0.0
 70
   128
 71
     9
 72
    10
 73
    11
  0
VERTEX
  5
867
  8
0
 10
0.0
 20
0.0
 30
0.0
 70
   128
 71
    12
 72
     5
 73
     6
  0
VERTEX
  5
868
  8
0
 10
0.0
 20
0.0
 30
0.0
 70
   128
 71
    11
 72
    12
 73
     6
  0
VERTEX
  5
869
  8
0
 10
0.0
 20
0.0
 30
0.0
 70
   128
 71
    12
 72
     1
 73
     2
  0
VERTEX
  5
86A
  8
0
 10
0.0
 20
0.0
 30
0.0
 70
   128
 71
     3
 72
     5
 73
    12
  0
VERTEX
  5
86B
  8
0
 10
0.0
 20
0.0
 30
0.0
 70
   128
 71
     2
 72
     3
 73
    12
  0
VERTEX
  5
86C
  8
0
 10
0.0
 20
0.0
 30
0.0
 70
   128
 71
     3
 72
     4
 73
     5
  0
SEQEND
  5
F5B
  8
0
  0
POLYLINE
  5
86D
  8
0
 66
     1
 10
0.0
 20
0.0
 30
0.0
 70
    64
 71
    12
 72
    10
  0
VERTEX
  5
86E
  8
0
 10
-0.0006694979930444
 20
-24.88458098564444
 30
-59.98070502850469
 70
   192
  0
VERTEX
  5
86F
  8
0
 10
-0.0006694979969558
 20
-24.24588308119878
 30
-57.53549664615926
 70
   192
  0
VERTEX
  5
870
  8
0
 10
-0.0006694980000191
 20
-22.32978936785513
 30
-55.61940293239299
 70
   192
  0
VERTEX
  5
871
  8
0
 10
-0.000669498001038
 20
-19.88458098565055
 30
-54.98070502740799
 70
   192
  0
VERTEX
  5
872
  8
0
 10
-22.50066667296191
 20
-19.88458098565792
 30
-48.95182344100173
 70
   192
  0
VERTEX
  5
873
  8
0
 10
-38.97155849558326
 20
-19.884580985678
 30
-32.48065134059575
 70
   192
  0
VERTEX
  5
874
  8
0
 10
-45.00066949800097
 20
-19.8845809857055
 30
-9.980705027408026
 70
   192
  0
VERTEX
  5
875
  8
0
 10
-45.67054247957473
 20
-22.38458098579758
 30
-9.980705027412089
 70
   192
  0
VERTEX
  5
876
  8
0
 10
-47.50066949885289
 20
-24.21470800467681
 30
-9.98070502741689
 70
   192
  0
VERTEX
  5
877
  8
0
 10
-50.00066949909099
 20
-24.88458098572111
 30
-9.980705027421212
 70
   192
  0
VERTEX
  5
878
  8
0
 10
-43.30036239397086
 20
-24.88458098567495
 30
-34.98293636407813
 70
   192
  0
VERTEX
  5
879
  8
0
 10
-25.00170965771705
 20
-24.88458098565261
 30
-53.2813845254033
 70
   192
  0
VERTEX
  5
87A
  8
0
 10
0.0
 20
0.0
 30
0.0
 70
   128
 71
     6
 72
     7
 73
     8
  0
VERTEX
  5
87B
  8
0
 10
0.0
 20
0.0
 30
0.0
 70
   128
 71
     9
 72
    11
 73
     6
  0
VERTEX
  5
87C
  8
0
 10
0.0
 20
0.0
 30
0.0
 70
   128
 71
     8
 72
     9
 73
     6
  0
VERTEX
  5
87D
  8
0
 10
0.0
 20
0.0
 30
0.0
 70
   128
 71
     9
 72
    10
 73
    11
  0
VERTEX
  5
87E
  8
0
 10
0.0
 20
0.0
 30
0.0
 70
   128
 71
    12
 72
     5
 73
     6
  0
VERTEX
  5
87F
  8
0
 10
0.0
 20
0.0
 30
0.0
 70
   128
 71
    11
 72
    12
 73
     6
  0
VERTEX
  5
880
  8
0
 10
0.0
 20
0.0
 30
0.0
 70
   128
 71
    12
 72
     1
 73
     2
  0
VERTEX
  5
881
  8
0
 10
0.0
 20
0.0
 30
0.0
 70
   128
 71
     3
 72
     5
 73
    12
  0
VERTEX
  5
882
  8
0
 10
0.0
 20
0.0
 30
0.0
 70
   128
 71
     2
 72
     3
 73
    12
  0
VERTEX
  5
883
  8
0
 10
0.0
 20
0.0
 30
0.0
 70
   128
 71
     3
 72
     4
 73
     5
  0
SEQEND
  5
F5C
  8
0
  0
POLYLINE
  5
884
  8
0
 66
     1
 10
0.0
 20
0.0
 30
0.0
 70
    64
 71
    12
 72
    10
  0
VERTEX
  5
885
  8
0
 10
-0.000669498046113
 20
15.1154190142273
 30
45.01929497659992
 70
   192
  0
VERTEX
  5
886
  8
0
 10
-0.0006694980240677
 20
13.8380232053977
 30
40.12887821143423
 70
   192
  0
VERTEX
  5
887
  8
0
 10
-0.0006694980067941
 20
10.00583577889561
 30
36.29669078340333
 70
   192
  0
VERTEX
  5
888
  8
0
 10
-0.000669498001038
 20
5.115419014239508
 30
35.01929497262272
 70
   192
  0
VERTEX
  5
889
  8
0
 10
-22.50060387223757
 20
5.115419014246894
 30
28.99031727564013
 70
   192
  0
VERTEX
  5
88A
  8
0
 10
-38.97169180101908
 20
5.11541901426701
 30
12.51922934685892
 70
   192
  0
VERTEX
  5
88B
  8
0
 10
-45.00066949800097
 20
5.115419014294464
 30
-9.980705027377482
 70
   192
  0
VERTEX
  5
88C
  8
0
 10
-46.34041546195994
 20
10.1154190146293
 30
-9.980705027377484
 70
   192
  0
VERTEX
  5
88D
  8
0
 10
-50.00066950109918
 20
13.77567305231719
 30
-9.98070502738974
 70
   192
  0
VERTEX
  5
88E
  8
0
 10
-55.00066950196525
 20
15.11541901435067
 30
-9.980705027410954
 70
   192
  0
VERTEX
  5
88F
  8
0
 10
-47.631990426278
 20
15.11541901426091
 30
17.51925358198969
 70
   192
  0
VERTEX
  5
890
  8
0
 10
-27.50065133987671
 20
15.11541901423631
 30
37.6506628488505
 70
   192
  0
VERTEX
  5
891
  8
0
 10
0.0
 20
0.0
 30
0.0
 70
   128
 71
     6
 72
     7
 73
     8
  0
VERTEX
  5
892
  8
0
 10
0.0
 20
0.0
 30
0.0
 70
   128
 71
     9
 72
    11
 73
     6
  0
VERTEX
  5
893
  8
0
 10
0.0
 20
0.0
 30
0.0
 70
   128
 71
     8
 72
     9
 73
     6
  0
VERTEX
  5
894
  8
0
 10
0.0
 20
0.0
 30
0.0
 70
   128
 71
     9
 72
    10
 73
    11
  0
VERTEX
  5
895
  8
0
 10
0.0
 20
0.0
 30
0.0
 70
   128
 71
    12
 72
     5
 73
     6
  0
VERTEX
  5
896
  8
0
 10
0.0
 20
0.0
 30
0.0
 70
   128
 71
    11
 72
    12
 73
     6
  0
VERTEX
  5
897
  8
0
 10
0.0
 20
0.0
 30
0.0
 70
   128
 71
    12
 72
     1
 73
     2
  0
VERTEX
  5
898
  8
0
 10
0.0
 20
0.0
 30
0.0
 70
   128
 71
     3
 72
     5
 73
    12
  0
VERTEX
  5
899
  8
0
 10
0.0
 20
0.0
 30
0.0
 70
   128
 71
     2
 72
     3
 73
    12
  0
VERTEX
  5
89A
  8
0
 10
0.0
 20
0.0
 30
0.0
 70
   128
 71
     3
 72
     4
 73
     5
  0
SEQEND
  5
F5D
  8
0
  0
POLYLINE
  5
89B
  8
0
 66
     1
 10
0.0
 20
0.0
 30
0.0
 70
    64
 71
    12
 72
    10
  0
VERTEX
  5
89C
  8
0
 10
-0.0006694979550748
 20
15.11541901436164
 30
-64.98070503133013
 70
   192
  0
VERTEX
  5
89D
  8
0
 10
-0.0006694979775509
 20
13.83802320552008
 30
-60.09028826616756
 70
   192
  0
VERTEX
  5
89E
  8
0
 10
-0.0006694979951649
 20
10.00583577900865
 30
-56.25810083814606
 70
   192
  0
VERTEX
  5
89F
  8
0
 10
-0.000669498001038
 20
5.11541901434942
 30
-54.98070502737745
 70
   192
  0
VERTEX
  5
8A0
  8
0
 10
22.499264876236
 20
5.115419014342093
 30
-48.95172733039654
 70
   192
  0
VERTEX
  5
8A1
  8
0
 10
38.97035280501761
 20
5.115419014321975
 30
-32.48063940161458
 70
   192
  0
VERTEX
  5
8A2
  8
0
 10
44.999330501999
 20
5.115419014294464
 30
-9.980705027377482
 70
   192
  0
VERTEX
  5
8A3
  8
0
 10
46.33907646513033
 20
10.11541901441949
 30
-9.980705027368293
 70
   192
  0
VERTEX
  5
8A4
  8
0
 10
49.99933050359119
 20
13.77567305215458
 30
-9.980705027355441
 70
   192
  0
VERTEX
  5
8A5
  8
0
 10
54.99933050398187
 20
15.11541901423777
 30
-9.980705027342355
 70
   192
  0
VERTEX
  5
8A6
  8
0
 10
47.63065143012129
 20
15.11541901432806
 30
-37.48066363686522
 70
   192
  0
VERTEX
  5
8A7
  8
0
 10
27.49931234375959
 20
15.11541901435265
 30
-57.61207290369386
 70
   192
  0
VERTEX
  5
8A8
  8
0
 10
0.0
 20
0.0
 30
0.0
 70
   128
 71
     6
 72
     7
 73
     8
  0
VERTEX
  5
8A9
  8
0
 10
0.0
 20
0.0
 30
0.0
 70
   128
 71
     9
 72
    11
 73
     6
  0
VERTEX
  5
8AA
  8
0
 10
0.0
 20
0.0
 30
0.0
 70
   128
 71
     8
 72
     9
 73
     6
  0
VERTEX
  5
8AB
  8
0
 10
0.0
 20
0.0
 30
0.0
 70
   128
 71
     9
 72
    10
 73
    11
  0
VERTEX
  5
8AC
  8
0
 10
0.0
 20
0.0
 30
0.0
 70
   128
 71
    12
 72
     5
 73
     6
  0
VERTEX
  5
8AD
  8
0
 10
0.0
 20
0.0
 30
0.0
 70
   128
 71
    11
 72
    12
 73
     6
  0
VERTEX
  5
8AE
  8
0
 10
0.0
 20
0.0
 30
0.0
 70
   128
 71
    12
 72
     1
 73
     2
  0
VERTEX
  5
8AF
  8
0
 10
0.0
 20
0.0
 30
0.0
 70
   128
 71
     3
 72
     5
 73
    12
  0
VERTEX
  5
8B0
  8
0
 10
0.0
 20
0.0
 30
0.0
 70
   128
 71
     2
 72
     3
 73
    12
  0
VERTEX
  5
8B1
  8
0
 10
0.0
 20
0.0
 30
0.0
 70
   128
 71
     3
 72
     4
 73
     5
  0
SEQEND
  5
F5E
  8
0
  0
POLYLINE
  5
8B2
  8
0
 66
     1
 10
0.0
 20
0.0
 30
0.0
 70
    64
 71
    12
 72
    10
  0
VERTEX
  5
8B3
  8
0
 10
-0.0006694980005939
 20
195.1154190138448
 30
358.1203340301699
 70
   192
  0
VERTEX
  5
8B4
  8
0
 10
-0.0006694980007961
 20
194.4767211093555
 30
360.5655424122234
 70
   192
  0
VERTEX
  5
8B5
  8
0
 10
-0.0006694980009663
 20
192.5606273958939
 30
362.4816361256803
 70
   192
  0
VERTEX
  5
8B6
  8
0
 10
-0.000669498001038
 20
190.1154190138387
 30
363.1203340301637
 70
   192
  0
VERTEX
  5
8B7
  8
0
 10
99.688534589348
 20
190.1154190138498
 30
354.0906123588433
 70
   192
  0
VERTEX
  5
8B8
  8
0
 10
196.8677205074389
 20
190.1154190138807
 30
328.7640429617977
 70
   192
  0
VERTEX
  5
8B9
  8
0
 10
289.0268700870127
 20
190.1154190139283
 30
289.7845192644002
 70
   192
  0
VERTEX
  5
8BA
  8
0
 10
288.7245161208624
 20
192.6154196363105
 30
289.1867900677141
 70
   192
  0
VERTEX
  5
8BB
  8
0
 10
287.8984403410213
 20
194.4455471108581
 30
287.5537054468485
 70
   192
  0
VERTEX
  5
8BC
  8
0
 10
286.7699998402568
 20
195.1154202587028
 30
285.3228703682125
 70
   192
  0
VERTEX
  5
8BD
  8
0
 10
195.1846823226098
 20
195.1154190138865
 30
324.0554611546917
 70
   192
  0
VERTEX
  5
8BE
  8
0
 10
98.98067256360311
 20
195.1154190138558
 30
349.1381823048495
 70
   192
  0
VERTEX
  5
8BF
  8
0
 10
0.0
 20
0.0
 30
0.0
 70
   128
 71
     6
 72
     7
 73
     8
  0
VERTEX
  5
8C0
  8
0
 10
0.0
 20
0.0
 30
0.0
 70
   128
 71
     9
 72
    11
 73
     6
  0
VERTEX
  5
8C1
  8
0
 10
0.0
 20
0.0
 30
0.0
 70
   128
 71
     8
 72
     9
 73
     6
  0
VERTEX
  5
8C2
  8
0
 10
0.0
 20
0.0
 30
0.0
 70
   128
 71
     9
 72
    10
 73
    11
  0
VERTEX
  5
8C3
  8
0
 10
0.0
 20
0.0
 30
0.0
 70
   128
 71
    12
 72
     5
 73
     6
  0
VERTEX
  5
8C4
  8
0
 10
0.0
 20
0.0
 30
0.0
 70
   128
 71
    11
 72
    12
 73
     6
  0
VERTEX
  5
8C5
  8
0
 10
0.0
 20
0.0
 30
0.0
 70
   128
 71
    12
 72
     1
 73
     2
  0
VERTEX
  5
8C6
  8
0
 10
0.0
 20
0.0
 30
0.0
 70
   128
 71
     5
 72
    12
 73
     2
  0
VERTEX
  5
8C7
  8
0
 10
0.0
 20
0.0
 30
0.0
 70
   128
 71
     2
 72
     3
 73
     5
  0
VERTEX
  5
8C8
  8
0
 10
0.0
 20
0.0
 30
0.0
 70
   128
 71
     3
 72
     4
 73
     5
  0
SEQEND
  5
F5F
  8
0
  0
POLYLINE
  5
8C9
  8
0
 66
     1
 10
0.0
 20
0.0
 30
0.0
 70
    64
 71
    12
 72
    10
  0
VERTEX
  5
8CA
  8
0
 10
-0.0006694963351483
 20
157.1599976023797
 30
363.1203340301234
 70
   192
  0
VERTEX
  5
8CB
  8
0
 10
-0.0006694970455005
 20
154.7147892415941
 30
362.4816361045119
 70
   192
  0
VERTEX
  5
8CC
  8
0
 10
-0.0006694973708484
 20
152.798695544803
 30
360.5655423276837
 70
   192
  0
VERTEX
  5
8CD
  8
0
 10
-0.0006694971841359
 20
152.1599976458749
 30
358.1203338647638
 70
   192
  0
VERTEX
  5
8CE
  8
0
 10
75.42410389652754
 20
152.1599962314236
 30
352.8617750292642
 70
   192
  0
VERTEX
  5
8CF
  8
0
 10
149.6035766778079
 20
152.1599958831281
 30
337.9037469121612
 70
   192
  0
VERTEX
  5
8D0
  8
0
 10
221.5757962850462
 20
152.159995545209
 30
314.4127600119442
 70
   192
  0
VERTEX
  5
8D1
  8
0
 10
222.4805121689833
 20
152.8298684713368
 30
316.7433158349189
 70
   192
  0
VERTEX
  5
8D2
  8
0
 10
223.1428105377063
 20
154.6599957922913
 30
318.4494008581016
 70
   192
  0
VERTEX
  5
8D3
  8
0
 10
223.3852285396801
 20
157.1599961247573
 30
319.0738711107433
 70
   192
  0
VERTEX
  5
8D4
  8
0
 10
150.7622155219759
 20
157.1599971935665
 30
342.7693124841184
 70
   192
  0
VERTEX
  5
8D5
  8
0
 10
75.9324592759886
 20
157.1599975766495
 30
357.8388752151075
 70
   192
  0
VERTEX
  5
8D6
  8
0
 10
0.0
 20
0.0
 30
0.0
 70
   128
 71
     6
 72
     7
 73
     8
  0
VERTEX
  5
8D7
  8
0
 10
0.0
 20
0.0
 30
0.0
 70
   128
 71
     9
 72
    11
 73
     6
  0
VERTEX
  5
8D8
  8
0
 10
0.0
 20
0.0
 30
0.0
 70
   128
 71
     8
 72
     9
 73
     6
  0
VERTEX
  5
8D9
  8
0
 10
0.0
 20
0.0
 30
0.0
 70
   128
 71
     9
 72
    10
 73
    11
  0
VERTEX
  5
8DA
  8
0
 10
0.0
 20
0.0
 30
0.0
 70
   128
 71
    12
 72
     5
 73
     6
  0
VERTEX
  5
8DB
  8
0
 10
0.0
 20
0.0
 30
0.0
 70
   128
 71
    11
 72
    12
 73
     6
  0
VERTEX
  5
8DC
  8
0
 10
0.0
 20
0.0
 30
0.0
 70
   128
 71
    12
 72
     1
 73
     2
  0
VERTEX
  5
8DD
  8
0
 10
0.0
 20
0.0
 30
0.0
 70
   128
 71
     2
 72
     3
 73
    12
  0
VERTEX
  5
8DE
  8
0
 10
0.0
 20
0.0
 30
0.0
 70
   128
 71
     4
 72
     5
 73
    12
  0
VERTEX
  5
8DF
  8
0
 10
0.0
 20
0.0
 30
0.0
 70
   128
 71
     3
 72
     4
 73
    12
  0
SEQEND
  5
F60
  8
0
  0
POLYLINE
  5
8E0
  8
0
 66
     1
 10
0.0
 20
0.0
 30
0.0
 70
    64
 71
    12
 72
    10
  0
VERTEX
  5
8E1
  8
0
 10
109.5125607734181
 20
15.11541901389563
 30
316.5570690875037
 70
   192
  0
VERTEX
  5
8E2
  8
0
 10
110.0084508131839
 20
15.75411691837913
 30
318.9514577307231
 70
   192
  0
VERTEX
  5
8E3
  8
0
 10
110.3970360130122
 20
17.67021063183611
 30
320.8277285060591
 70
   192
  0
VERTEX
  5
8E4
  8
0
 10
110.5265644129549
 20
20.11541901388969
 30
321.45315209784
 70
   192
  0
VERTEX
  5
8E5
  8
0
 10
165.2349918152692
 20
20.11541901390673
 30
307.4681251559197
 70
   192
  0
VERTEX
  5
8E6
  8
0
 10
218.483632778952
 20
20.11541901392957
 30
288.7634214148642
 70
   192
  0
VERTEX
  5
8E7
  8
0
 10
269.9993305019989
 20
20.11541901395769
 30
265.760204949304
 70
   192
  0
VERTEX
  5
8E8
  8
0
 10
269.2540706967653
 20
17.48917136509674
 30
265.2977786731232
 70
   192
  0
VERTEX
  5
8E9
  8
0
 10
267.3981522717659
 20
15.72843899541211
 30
264.1432116004573
 70
   192
  0
VERTEX
  5
8EA
  8
0
 10
264.9993305019989
 20
15.11541901396152
 30
262.649054179089
 70
   192
  0
VERTEX
  5
8EB
  8
0
 10
214.6494254929235
 20
15.11541901393432
 30
284.9064316642212
 70
   192
  0
VERTEX
  5
8EC
  8
0
 10
162.7138186857152
 20
15.11541901391221
 30
303.0077029706778
 70
   192
  0
VERTEX
  5
8ED
  8
0
 10
0.0
 20
0.0
 30
0.0
 70
   128
 71
     7
 72
     8
 73
     9
  0
VERTEX
  5
8EE
  8
0
 10
0.0
 20
0.0
 30
0.0
 70
   128
 71
    11
 72
     6
 73
     7
  0
VERTEX
  5
8EF
  8
0
 10
0.0
 20
0.0
 30
0.0
 70
   128
 71
    10
 72
    11
 73
     7
  0
VERTEX
  5
8F0
  8
0
 10
0.0
 20
0.0
 30
0.0
 70
   128
 71
     9
 72
    10
 73
     7
  0
VERTEX
  5
8F1
  8
0
 10
0.0
 20
0.0
 30
0.0
 70
   128
 71
    12
 72
     5
 73
     6
  0
VERTEX
  5
8F2
  8
0
 10
0.0
 20
0.0
 30
0.0
 70
   128
 71
    11
 72
    12
 73
     6
  0
VERTEX
  5
8F3
  8
0
 10
0.0
 20
0.0
 30
0.0
 70
   128
 71
    12
 72
     1
 73
     2
  0
VERTEX
  5
8F4
  8
0
 10
0.0
 20
0.0
 30
0.0
 70
   128
 71
     2
 72
     3
 73
    12
  0
VERTEX
  5
8F5
  8
0
 10
0.0
 20
0.0
 30
0.0
 70
   128
 71
     4
 72
     5
 73
    12
  0
VERTEX
  5
8F6
  8
0
 10
0.0
 20
0.0
 30
0.0
 70
   128
 71
     3
 72
     4
 73
    12
  0
SEQEND
  5
F61
  8
0
  0
POLYLINE
  5
8F7
  8
0
 66
     1
 10
0.0
 20
0.0
 30
0.0
 70
    64
 71
    12
 72
    10
  0
VERTEX
  5
8F8
  8
0
 10
73.80656882704895
 20
20.11541901388186
 30
327.8459660461571
 70
   192
  0
VERTEX
  5
8F9
  8
0
 10
86.0935827578291
 20
20.11541901388414
 30
325.9782206273135
 70
   192
  0
VERTEX
  5
8FA
  8
0
 10
98.3351305398748
 20
20.11541901388675
 30
323.845172461107
 70
   192
  0
VERTEX
  5
8FB
  8
0
 10
110.5265644129549
 20
20.11541901388969
 30
321.45315209784
 70
   192
  0
VERTEX
  5
8FC
  8
0
 10
110.3970360130122
 20
17.67021063183611
 30
320.8277285060591
 70
   192
  0
VERTEX
  5
8FD
  8
0
 10
110.0084508131839
 20
15.75411691837913
 30
318.9514577307231
 70
   192
  0
VERTEX
  5
8FE
  8
0
 10
109.5125607734181
 20
15.11541901389563
 30
316.5570690875037
 70
   192
  0
VERTEX
  5
8FF
  8
0
 10
97.34230306775932
 20
15.11541901389273
 30
318.9440773605413
 70
   192
  0
VERTEX
  5
900
  8
0
 10
85.20793329768745
 20
15.11541901389016
 30
321.0566575507532
 70
   192
  0
VERTEX
  5
901
  8
0
 10
73.10945086882481
 20
15.11541901388791
 30
322.8948071558365
 70
   192
  0
VERTEX
  5
902
  8
0
 10
73.45037060377088
 20
15.7541169183714
 30
325.3161301997332
 70
   192
  0
VERTEX
  5
903
  8
0
 10
73.71751927122945
 20
17.67021063182831
 30
327.2135070845495
 70
   192
  0
VERTEX
  5
904
  8
0
 10
0.0
 20
0.0
 30
0.0
 70
   128
 71
     6
 72
     7
 73
     8
  0
VERTEX
  5
905
  8
0
 10
0.0
 20
0.0
 30
0.0
 70
   128
 71
     9
 72
    11
 73
     6
  0
VERTEX
  5
906
  8
0
 10
0.0
 20
0.0
 30
0.0
 70
   128
 71
     8
 72
     9
 73
     6
  0
VERTEX
  5
907
  8
0
 10
0.0
 20
0.0
 30
0.0
 70
   128
 71
     9
 72
    10
 73
    11
  0
VERTEX
  5
908
  8
0
 10
0.0
 20
0.0
 30
0.0
 70
   128
 71
    12
 72
     5
 73
     6
  0
VERTEX
  5
909
  8
0
 10
0.0
 20
0.0
 30
0.0
 70
   128
 71
    11
 72
    12
 73
     6
  0
VERTEX
  5
90A
  8
0
 10
0.0
 20
0.0
 30
0.0
 70
   128
 71
    12
 72
     1
 73
     2
  0
VERTEX
  5
90B
  8
0
 10
0.0
 20
0.0
 30
0.0
 70
   128
 71
     3
 72
     5
 73
    12
  0
VERTEX
  5
90C
  8
0
 10
0.0
 20
0.0
 30
0.0
 70
   128
 71
     2
 72
     3
 73
    12
  0
VERTEX
  5
90D
  8
0
 10
0.0
 20
0.0
 30
0.0
 70
   128
 71
     3
 72
     4
 73
     5
  0
SEQEND
  5
F62
  8
0
  0
POLYLINE
  5
90E
  8
0
 66
     1
 10
0.0
 20
0.0
 30
0.0
 70
    64
 71
    12
 72
    10
  0
VERTEX
  5
90F
  8
0
 10
-73.80790078778409
 20
20.11541901388186
 30
327.845965269976
 70
   192
  0
VERTEX
  5
910
  8
0
 10
-24.68563484423597
 20
20.11541901387615
 30
332.5173284165018
 70
   192
  0
VERTEX
  5
911
  8
0
 10
24.6843032390871
 20
20.11541901387615
 30
332.5173286806713
 70
   192
  0
VERTEX
  5
912
  8
0
 10
73.80656882704895
 20
20.11541901388186
 30
327.8459660461571
 70
   192
  0
VERTEX
  5
913
  8
0
 10
73.71751927122945
 20
17.67021063182831
 30
327.2135070845495
 70
   192
  0
VERTEX
  5
914
  8
0
 10
73.45037060377088
 20
15.7541169183714
 30
325.3161301997332
 70
   192
  0
VERTEX
  5
915
  8
0
 10
73.10945086882481
 20
15.11541901388791
 30
322.8948071558365
 70
   192
  0
VERTEX
  5
916
  8
0
 10
24.35822013511442
 20
15.11541901388226
 30
327.5273263871602
 70
   192
  0
VERTEX
  5
917
  8
0
 10
-24.35982568078175
 20
15.11541901388226
 30
327.5273120535064
 70
   192
  0
VERTEX
  5
918
  8
0
 10
-73.11078246043667
 20
15.11541901388791
 30
322.8948062585401
 70
   192
  0
VERTEX
  5
919
  8
0
 10
-73.45170237589976
 20
15.75411691837137
 30
325.3161293616673
 70
   192
  0
VERTEX
  5
91A
  8
0
 10
-73.71885118481326
 20
17.67021063182831
 30
327.2135062928972
 70
   192
  0
VERTEX
  5
91B
  8
0
 10
0.0
 20
0.0
 30
0.0
 70
   128
 71
     6
 72
     7
 73
     8
  0
VERTEX
  5
91C
  8
0
 10
0.0
 20
0.0
 30
0.0
 70
   128
 71
     8
 72
     9
 73
     6
  0
VERTEX
  5
91D
  8
0
 10
0.0
 20
0.0
 30
0.0
 70
   128
 71
     9
 72
    11
 73
     6
  0
VERTEX
  5
91E
  8
0
 10
0.0
 20
0.0
 30
0.0
 70
   128
 71
     9
 72
    10
 73
    11
  0
VERTEX
  5
91F
  8
0
 10
0.0
 20
0.0
 30
0.0
 70
   128
 71
    12
 72
     5
 73
    -6
  0
VERTEX
  5
920
  8
0
 10
0.0
 20
0.0
 30
0.0
 70
   128
 71
    11
 72
   -12
 73
     6
  0
VERTEX
  5
921
  8
0
 10
0.0
 20
0.0
 30
0.0
 70
   128
 71
    12
 72
     1
 73
     2
  0
VERTEX
  5
922
  8
0
 10
0.0
 20
0.0
 30
0.0
 70
   128
 71
     2
 72
    -3
 73
    12
  0
VERTEX
  5
923
  8
0
 10
0.0
 20
0.0
 30
0.0
 70
   128
 71
     3
 72
     5
 73
   -12
  0
VERTEX
  5
924
  8
0
 10
0.0
 20
0.0
 30
0.0
 70
   128
 71
     3
 72
     4
 73
     5
  0
SEQEND
  5
F63
  8
0
  0
POLYLINE
  5
925
  8
0
 66
     1
 10
0.0
 20
0.0
 30
0.0
 70
    64
 71
    12
 72
    10
  0
VERTEX
  5
926
  8
0
 10
-110.5279068257712
 20
20.11541901388969
 30
321.4531551632271
 70
   192
  0
VERTEX
  5
927
  8
0
 10
-98.33646834698736
 20
20.11541901388675
 30
323.8451742405678
 70
   192
  0
VERTEX
  5
928
  8
0
 10
-86.09491705273531
 20
20.11541901388414
 30
325.9782202592374
 70
   192
  0
VERTEX
  5
929
  8
0
 10
-73.80790078778409
 20
20.11541901388186
 30
327.845965269976
 70
   192
  0
VERTEX
  5
92A
  8
0
 10
-73.71885118481326
 20
17.67021063182831
 30
327.2135062928972
 70
   192
  0
VERTEX
  5
92B
  8
0
 10
-73.45170237589976
 20
15.75411691837137
 30
325.3161293616673
 70
   192
  0
VERTEX
  5
92C
  8
0
 10
-73.11078246043667
 20
15.11541901388791
 30
322.8948062585401
 70
   192
  0
VERTEX
  5
92D
  8
0
 10
-85.20930670893861
 20
15.11541901389016
 30
321.0566507516943
 70
   192
  0
VERTEX
  5
92E
  8
0
 10
-97.34368017094447
 20
15.11541901389274
 30
318.9440717440858
 70
   192
  0
VERTEX
  5
92F
  8
0
 10
-109.5139034277969
 20
15.11541901389563
 30
316.557071687153
 70
   192
  0
VERTEX
  5
930
  8
0
 10
-110.0097933494285
 20
15.75411691837914
 30
318.9514605581376
 70
   192
  0
VERTEX
  5
931
  8
0
 10
-110.3983784566855
 20
17.67021063183611
 30
320.827731511953
 70
   192
  0
VERTEX
  5
932
  8
0
 10
0.0
 20
0.0
 30
0.0
 70
   128
 71
     6
 72
     7
 73
     8
  0
VERTEX
  5
933
  8
0
 10
0.0
 20
0.0
 30
0.0
 70
   128
 71
     9
 72
    11
 73
     6
  0
VERTEX
  5
934
  8
0
 10
0.0
 20
0.0
 30
0.0
 70
   128
 71
     8
 72
     9
 73
     6
  0
VERTEX
  5
935
  8
0
 10
0.0
 20
0.0
 30
0.0
 70
   128
 71
     9
 72
    10
 73
    11
  0
VERTEX
  5
936
  8
0
 10
0.0
 20
0.0
 30
0.0
 70
   128
 71
    12
 72
     5
 73
     6
  0
VERTEX
  5
937
  8
0
 10
0.0
 20
0.0
 30
0.0
 70
   128
 71
    11
 72
    12
 73
     6
  0
VERTEX
  5
938
  8
0
 10
0.0
 20
0.0
 30
0.0
 70
   128
 71
    12
 72
     1
 73
     2
  0
VERTEX
  5
939
  8
0
 10
0.0
 20
0.0
 30
0.0
 70
   128
 71
     3
 72
     5
 73
    12
  0
VERTEX
  5
93A
  8
0
 10
0.0
 20
0.0
 30
0.0
 70
   128
 71
     2
 72
     3
 73
    12
  0
VERTEX
  5
93B
  8
0
 10
0.0
 20
0.0
 30
0.0
 70
   128
 71
     3
 72
     4
 73
     5
  0
SEQEND
  5
F64
  8
0
  0
POLYLINE
  5
93C
  8
0
 66
     1
 10
0.0
 20
0.0
 30
0.0
 70
    64
 71
    12
 72
    10
  0
VERTEX
  5
93D
  8
0
 10
-148.2309567093614
 20
195.1154190138944
 30
317.5649364587695
 70
   192
  0
VERTEX
  5
93E
  8
0
 10
-147.5899594950591
 20
194.4767211094108
 30
315.2052330818753
 70
   192
  0
VERTEX
  5
93F
  8
0
 10
-147.0876666264093
 20
192.5606273959539
 30
313.3561420844442
 70
   192
  0
VERTEX
  5
940
  8
0
 10
-146.9202356701931
 20
190.1154190139003
 30
312.7397784186317
 70
   192
  0
VERTEX
  5
941
  8
0
 10
-188.923407815125
 20
190.1154190139161
 30
299.7711464456785
 70
   192
  0
VERTEX
  5
942
  8
0
 10
-229.9945331384172
 20
190.1154190139353
 30
284.0509941155998
 70
   192
  0
VERTEX
  5
943
  8
0
 10
-270.0006694980012
 20
190.1154190139577
 30
265.7602049495117
 70
   192
  0
VERTEX
  5
944
  8
0
 10
-270.7412349853599
 20
192.7331370073191
 30
266.2191380214933
 70
   192
  0
VERTEX
  5
945
  8
0
 10
-272.6158982851047
 20
194.5100157820397
 30
267.3813995998713
 70
   192
  0
VERTEX
  5
946
  8
0
 10
-275.0006694980012
 20
195.1154190139539
 30
268.8563755423348
 70
   192
  0
VERTEX
  5
947
  8
0
 10
-233.8041523968212
 20
195.1154190139306
 30
287.8710000363719
 70
   192
  0
VERTEX
  5
948
  8
0
 10
-191.4946913552803
 20
195.1154190139108
 30
304.1716424241332
 70
   192
  0
VERTEX
  5
949
  8
0
 10
0.0
 20
0.0
 30
0.0
 70
   128
 71
     6
 72
     7
 73
     8
  0
VERTEX
  5
94A
  8
0
 10
0.0
 20
0.0
 30
0.0
 70
   128
 71
    11
 72
     6
 73
     8
  0
VERTEX
  5
94B
  8
0
 10
0.0
 20
0.0
 30
0.0
 70
   128
 71
     8
 72
     9
 73
    11
  0
VERTEX
  5
94C
  8
0
 10
0.0
 20
0.0
 30
0.0
 70
   128
 71
     9
 72
    10
 73
    11
  0
VERTEX
  5
94D
  8
0
 10
0.0
 20
0.0
 30
0.0
 70
   128
 71
    12
 72
     5
 73
     6
  0
VERTEX
  5
94E
  8
0
 10
0.0
 20
0.0
 30
0.0
 70
   128
 71
    11
 72
    12
 73
     6
  0
VERTEX
  5
94F
  8
0
 10
0.0
 20
0.0
 30
0.0
 70
   128
 71
    12
 72
     1
 73
     2
  0
VERTEX
  5
950
  8
0
 10
0.0
 20
0.0
 30
0.0
 70
   128
 71
     5
 72
    12
 73
     2
  0
VERTEX
  5
951
  8
0
 10
0.0
 20
0.0
 30
0.0
 70
   128
 71
     2
 72
     3
 73
     5
  0
VERTEX
  5
952
  8
0
 10
0.0
 20
0.0
 30
0.0
 70
   128
 71
     3
 72
     4
 73
     5
  0
SEQEND
  5
F65
  8
0
  0
POLYLINE
  5
953
  8
0
 66
     1
 10
0.0
 20
0.0
 30
0.0
 70
    64
 71
    12
 72
    10
  0
VERTEX
  5
954
  8
0
 10
-110.5279068257712
 20
190.1154190138896
 30
321.4531551634347
 70
   192
  0
VERTEX
  5
955
  8
0
 10
-122.7153038363754
 20
190.1154190138929
 30
318.7968090899096
 70
   192
  0
VERTEX
  5
956
  8
0
 10
-134.8474205063403
 20
190.1154190138965
 30
315.8905011877709
 70
   192
  0
VERTEX
  5
957
  8
0
 10
-146.9202356701931
 20
190.1154190139003
 30
312.7397784186317
 70
   192
  0
VERTEX
  5
958
  8
0
 10
-147.0876666264093
 20
192.5606273959539
 30
313.3561420844442
 70
   192
  0
VERTEX
  5
959
  8
0
 10
-147.5899594950591
 20
194.4767211094108
 30
315.2052330818753
 70
   192
  0
VERTEX
  5
95A
  8
0
 10
-148.2309567093614
 20
195.1154190138944
 30
317.5649364587695
 70
   192
  0
VERTEX
  5
95B
  8
0
 10
-135.9880135286199
 20
195.1154190138905
 30
320.7593063096102
 70
   192
  0
VERTEX
  5
95C
  8
0
 10
-123.7583332254846
 20
195.1154190138869
 30
323.6874157003139
 70
   192
  0
VERTEX
  5
95D
  8
0
 10
-111.5419153979137
 20
195.1154190138837
 30
326.3492636235481
 70
   192
  0
VERTEX
  5
95E
  8
0
 10
-111.0460229458981
 20
194.4767211094002
 30
323.954862534327
 70
   192
  0
VERTEX
  5
95F
  8
0
 10
-110.6574358558029
 20
192.5606273959432
 30
322.0785820061594
 70
   192
  0
VERTEX
  5
960
  8
0
 10
0.0
 20
0.0
 30
0.0
 70
   128
 71
     6
 72
     7
 73
     8
  0
VERTEX
  5
961
  8
0
 10
0.0
 20
0.0
 30
0.0
 70
   128
 71
     9
 72
    11
 73
     6
  0
VERTEX
  5
962
  8
0
 10
0.0
 20
0.0
 30
0.0
 70
   128
 71
     8
 72
     9
 73
     6
  0
VERTEX
  5
963
  8
0
 10
0.0
 20
0.0
 30
0.0
 70
   128
 71
     9
 72
    10
 73
    11
  0
VERTEX
  5
964
  8
0
 10
0.0
 20
0.0
 30
0.0
 70
   128
 71
    12
 72
     5
 73
     6
  0
VERTEX
  5
965
  8
0
 10
0.0
 20
0.0
 30
0.0
 70
   128
 71
    11
 72
    12
 73
     6
  0
VERTEX
  5
966
  8
0
 10
0.0
 20
0.0
 30
0.0
 70
   128
 71
    12
 72
     1
 73
     2
  0
VERTEX
  5
967
  8
0
 10
0.0
 20
0.0
 30
0.0
 70
   128
 71
     3
 72
     5
 73
    12
  0
VERTEX
  5
968
  8
0
 10
0.0
 20
0.0
 30
0.0
 70
   128
 71
     2
 72
     3
 73
    12
  0
VERTEX
  5
969
  8
0
 10
0.0
 20
0.0
 30
0.0
 70
   128
 71
     3
 72
     4
 73
     5
  0
SEQEND
  5
F66
  8
0
  0
POLYLINE
  5
96A
  8
0
 66
     1
 10
0.0
 20
0.0
 30
0.0
 70
    64
 71
    12
 72
    10
  0
VERTEX
  5
96B
  8
0
 10
-73.80790078778409
 20
190.1154190138818
 30
327.8459652701837
 70
   192
  0
VERTEX
  5
96C
  8
0
 10
-86.09069239918288
 20
190.1154190138842
 30
325.978909523664
 70
   192
  0
VERTEX
  5
96D
  8
0
 10
-98.33229144607179
 20
190.1154190138867
 30
323.8459479902198
 70
   192
  0
VERTEX
  5
96E
  8
0
 10
-110.5279068257712
 20
190.1154190138896
 30
321.4531551634347
 70
   192
  0
VERTEX
  5
96F
  8
0
 10
-110.6574358558029
 20
192.5606273959432
 30
322.0785820061594
 70
   192
  0
VERTEX
  5
970
  8
0
 10
-111.0460229458981
 20
194.4767211094002
 30
323.954862534327
 70
   192
  0
VERTEX
  5
971
  8
0
 10
-111.5419153979137
 20
195.1154190138837
 30
326.3492636235481
 70
   192
  0
VERTEX
  5
972
  8
0
 10
-99.16122235578118
 20
195.1154190138807
 30
328.77751171559
 70
   192
  0
VERTEX
  5
973
  8
0
 10
-86.81559074725303
 20
195.1154190138781
 30
330.9268017391924
 70
   192
  0
VERTEX
  5
974
  8
0
 10
-74.50502025777783
 20
195.1154190138758
 30
332.7971323972614
 70
   192
  0
VERTEX
  5
975
  8
0
 10
-74.16409978351378
 20
194.4767211093923
 30
330.3758053252471
 70
   192
  0
VERTEX
  5
976
  8
0
 10
-73.89695053671676
 20
192.5606273959354
 30
328.4784252839511
 70
   192
  0
VERTEX
  5
977
  8
0
 10
0.0
 20
0.0
 30
0.0
 70
   128
 71
     6
 72
     7
 73
     8
  0
VERTEX
  5
978
  8
0
 10
0.0
 20
0.0
 30
0.0
 70
   128
 71
     9
 72
    11
 73
     6
  0
VERTEX
  5
979
  8
0
 10
0.0
 20
0.0
 30
0.0
 70
   128
 71
     8
 72
     9
 73
     6
  0
VERTEX
  5
97A
  8
0
 10
0.0
 20
0.0
 30
0.0
 70
   128
 71
     9
 72
    10
 73
    11
  0
VERTEX
  5
97B
  8
0
 10
0.0
 20
0.0
 30
0.0
 70
   128
 71
    12
 72
     5
 73
     6
  0
VERTEX
  5
97C
  8
0
 10
0.0
 20
0.0
 30
0.0
 70
   128
 71
    11
 72
    12
 73
     6
  0
VERTEX
  5
97D
  8
0
 10
0.0
 20
0.0
 30
0.0
 70
   128
 71
    12
 72
     1
 73
     2
  0
VERTEX
  5
97E
  8
0
 10
0.0
 20
0.0
 30
0.0
 70
   128
 71
     3
 72
     5
 73
    12
  0
VERTEX
  5
97F
  8
0
 10
0.0
 20
0.0
 30
0.0
 70
   128
 71
     2
 72
     3
 73
    12
  0
VERTEX
  5
980
  8
0
 10
0.0
 20
0.0
 30
0.0
 70
   128
 71
     3
 72
     4
 73
     5
  0
SEQEND
  5
F67
  8
0
  0
POLYLINE
  5
981
  8
0
 66
     1
 10
0.0
 20
0.0
 30
0.0
 70
    64
 71
    12
 72
    10
  0
VERTEX
  5
982
  8
0
 10
73.80656882704983
 20
190.1154190138818
 30
327.8459660463652
 70
   192
  0
VERTEX
  5
983
  8
0
 10
24.66552485080379
 20
190.1154190138761
 30
332.5182402585864
 70
   192
  0
VERTEX
  5
984
  8
0
 10
-24.66685757120746
 20
190.1154190138761
 30
332.5182399389028
 70
   192
  0
VERTEX
  5
985
  8
0
 10
-73.80790078778409
 20
190.1154190138818
 30
327.8459652701837
 70
   192
  0
VERTEX
  5
986
  8
0
 10
-73.89695053671676
 20
192.5606273959354
 30
328.4784252839511
 70
   192
  0
VERTEX
  5
987
  8
0
 10
-74.16409978351378
 20
194.4767211093923
 30
330.3758053252471
 70
   192
  0
VERTEX
  5
988
  8
0
 10
-74.50502025777783
 20
195.1154190138758
 30
332.7971323972614
 70
   192
  0
VERTEX
  5
989
  8
0
 10
-24.82565473408743
 20
195.11541901387
 30
337.5164734071985
 70
   192
  0
VERTEX
  5
98A
  8
0
 10
24.82465883367011
 20
195.11541901387
 30
337.5164531892347
 70
   192
  0
VERTEX
  5
98B
  8
0
 10
74.50368791474304
 20
195.1154190138758
 30
332.7971329587632
 70
   192
  0
VERTEX
  5
98C
  8
0
 10
74.16276762743921
 20
194.4767211093923
 30
330.3758059917361
 70
   192
  0
VERTEX
  5
98D
  8
0
 10
73.89561852714694
 20
192.5606273959353
 30
328.4784260327094
 70
   192
  0
VERTEX
  5
98E
  8
0
 10
0.0
 20
0.0
 30
0.0
 70
   128
 71
     6
 72
     7
 73
     8
  0
VERTEX
  5
98F
  8
0
 10
0.0
 20
0.0
 30
0.0
 70
   128
 71
     8
 72
     9
 73
     6
  0
VERTEX
  5
990
  8
0
 10
0.0
 20
0.0
 30
0.0
 70
   128
 71
     9
 72
    11
 73
     6
  0
VERTEX
  5
991
  8
0
 10
0.0
 20
0.0
 30
0.0
 70
   128
 71
     9
 72
    10
 73
    11
  0
VERTEX
  5
992
  8
0
 10
0.0
 20
0.0
 30
0.0
 70
   128
 71
    12
 72
     5
 73
     6
  0
VERTEX
  5
993
  8
0
 10
0.0
 20
0.0
 30
0.0
 70
   128
 71
    11
 72
    12
 73
     6
  0
VERTEX
  5
994
  8
0
 10
0.0
 20
0.0
 30
0.0
 70
   128
 71
    12
 72
     1
 73
     2
  0
VERTEX
  5
995
  8
0
 10
0.0
 20
0.0
 30
0.0
 70
   128
 71
     2
 72
     3
 73
    12
  0
VERTEX
  5
996
  8
0
 10
0.0
 20
0.0
 30
0.0
 70
   128
 71
     3
 72
     5
 73
    12
  0
VERTEX
  5
997
  8
0
 10
0.0
 20
0.0
 30
0.0
 70
   128
 71
     3
 72
     4
 73
     5
  0
SEQEND
  5
F68
  8
0
  0
POLYLINE
  5
998
  8
0
 66
     1
 10
0.0
 20
0.0
 30
0.0
 70
    64
 71
    12
 72
    10
  0
VERTEX
  5
999
  8
0
 10
110.5265644129549
 20
190.1154190138896
 30
321.4531520980477
 70
   192
  0
VERTEX
  5
99A
  8
0
 10
98.33095154361241
 20
190.1154190138867
 30
323.8459466002254
 70
   192
  0
VERTEX
  5
99B
  8
0
 10
86.08935622231982
 20
190.1154190138841
 30
325.9789101998892
 70
   192
  0
VERTEX
  5
99C
  8
0
 10
73.80656882704983
 20
190.1154190138818
 30
327.8459660463652
 70
   192
  0
VERTEX
  5
99D
  8
0
 10
73.89561852714694
 20
192.5606273959353
 30
328.4784260327094
 70
   192
  0
VERTEX
  5
99E
  8
0
 10
74.16276762743921
 20
194.4767211093923
 30
330.3758059917361
 70
   192
  0
VERTEX
  5
99F
  8
0
 10
74.50368791474304
 20
195.1154190138758
 30
332.7971329587632
 70
   192
  0
VERTEX
  5
9A0
  8
0
 10
86.81421707493675
 20
195.1154190138781
 30
330.9268084275812
 70
   192
  0
VERTEX
  5
9A1
  8
0
 10
99.1598454216658
 20
195.1154190138807
 30
328.7775171024488
 70
   192
  0
VERTEX
  5
9A2
  8
0
 10
111.5405732687214
 20
195.1154190138836
 30
326.3492602955205
 70
   192
  0
VERTEX
  5
9A3
  8
0
 10
111.0446806780019
 20
194.4767211094002
 30
323.9548593347416
 70
   192
  0
VERTEX
  5
9A4
  8
0
 10
110.6560934792167
 20
192.5606273959432
 30
322.0785789072228
 70
   192
  0
VERTEX
  5
9A5
  8
0
 10
0.0
 20
0.0
 30
0.0
 70
   128
 71
     6
 72
     7
 73
     8
  0
VERTEX
  5
9A6
  8
0
 10
0.0
 20
0.0
 30
0.0
 70
   128
 71
     9
 72
    11
 73
     6
  0
VERTEX
  5
9A7
  8
0
 10
0.0
 20
0.0
 30
0.0
 70
   128
 71
     8
 72
     9
 73
     6
  0
VERTEX
  5
9A8
  8
0
 10
0.0
 20
0.0
 30
0.0
 70
   128
 71
     9
 72
    10
 73
    11
  0
VERTEX
  5
9A9
  8
0
 10
0.0
 20
0.0
 30
0.0
 70
   128
 71
    12
 72
     5
 73
     6
  0
VERTEX
  5
9AA
  8
0
 10
0.0
 20
0.0
 30
0.0
 70
   128
 71
    11
 72
    12
 73
     6
  0
VERTEX
  5
9AB
  8
0
 10
0.0
 20
0.0
 30
0.0
 70
   128
 71
    12
 72
     1
 73
     2
  0
VERTEX
  5
9AC
  8
0
 10
0.0
 20
0.0
 30
0.0
 70
   128
 71
     3
 72
     5
 73
    12
  0
VERTEX
  5
9AD
  8
0
 10
0.0
 20
0.0
 30
0.0
 70
   128
 71
     2
 72
     3
 73
    12
  0
VERTEX
  5
9AE
  8
0
 10
0.0
 20
0.0
 30
0.0
 70
   128
 71
     3
 72
     4
 73
     5
  0
SEQEND
  5
F69
  8
0
  0
POLYLINE
  5
9AF
  8
0
 66
     1
 10
0.0
 20
0.0
 30
0.0
 70
    64
 71
    12
 72
    10
  0
VERTEX
  5
9B0
  8
0
 10
146.9188988543599
 20
190.1154190139003
 30
312.7397796881068
 70
   192
  0
VERTEX
  5
9B1
  8
0
 10
134.8460826016164
 20
190.1154190138965
 30
315.8905004902908
 70
   192
  0
VERTEX
  5
9B2
  8
0
 10
122.7139638629816
 20
190.1154190138929
 30
318.7968062515524
 70
   192
  0
VERTEX
  5
9B3
  8
0
 10
110.5265644129549
 20
190.1154190138896
 30
321.4531520980477
 70
   192
  0
VERTEX
  5
9B4
  8
0
 10
110.6560934792167
 20
192.5606273959432
 30
322.0785789072228
 70
   192
  0
VERTEX
  5
9B5
  8
0
 10
111.0446806780019
 20
194.4767211094002
 30
323.9548593347416
 70
   192
  0
VERTEX
  5
9B6
  8
0
 10
111.5405732687214
 20
195.1154190138836
 30
326.3492602955205
 70
   192
  0
VERTEX
  5
9B7
  8
0
 10
123.7570278061071
 20
195.1154190138869
 30
323.6874048967356
 70
   192
  0
VERTEX
  5
9B8
  8
0
 10
135.9867097034204
 20
195.1154190138905
 30
320.7592969790137
 70
   192
  0
VERTEX
  5
9B9
  8
0
 10
148.22961935169
 20
195.1154190138944
 30
317.5649375194678
 70
   192
  0
VERTEX
  5
9BA
  8
0
 10
147.5886224023693
 20
194.4767211094109
 30
315.2052342446741
 70
   192
  0
VERTEX
  5
9BB
  8
0
 10
147.0863297413619
 20
192.5606273959539
 30
313.3561433272502
 70
   192
  0
VERTEX
  5
9BC
  8
0
 10
0.0
 20
0.0
 30
0.0
 70
   128
 71
     6
 72
     7
 73
     8
  0
VERTEX
  5
9BD
  8
0
 10
0.0
 20
0.0
 30
0.0
 70
   128
 71
     9
 72
    11
 73
     6
  0
VERTEX
  5
9BE
  8
0
 10
0.0
 20
0.0
 30
0.0
 70
   128
 71
     8
 72
     9
 73
     6
  0
VERTEX
  5
9BF
  8
0
 10
0.0
 20
0.0
 30
0.0
 70
   128
 71
     9
 72
    10
 73
    11
  0
VERTEX
  5
9C0
  8
0
 10
0.0
 20
0.0
 30
0.0
 70
   128
 71
    12
 72
     5
 73
     6
  0
VERTEX
  5
9C1
  8
0
 10
0.0
 20
0.0
 30
0.0
 70
   128
 71
    11
 72
    12
 73
     6
  0
VERTEX
  5
9C2
  8
0
 10
0.0
 20
0.0
 30
0.0
 70
   128
 71
    12
 72
     1
 73
     2
  0
VERTEX
  5
9C3
  8
0
 10
0.0
 20
0.0
 30
0.0
 70
   128
 71
     3
 72
     5
 73
    12
  0
VERTEX
  5
9C4
  8
0
 10
0.0
 20
0.0
 30
0.0
 70
   128
 71
     2
 72
     3
 73
    12
  0
VERTEX
  5
9C5
  8
0
 10
0.0
 20
0.0
 30
0.0
 70
   128
 71
     3
 72
     4
 73
     5
  0
SEQEND
  5
F6A
  8
0
  0
POLYLINE
  5
9C6
  8
0
 66
     1
 10
0.0
 20
0.0
 30
0.0
 70
    64
 71
    45
 72
    45
  0
VERTEX
  5
9C7
  8
0
 10
284.5130884387139
 20
-24.88458084280387
 30
280.861149817942
 70
   192
  0
VERTEX
  5
9C8
  8
0
 10
278.5540771433953
 20
-24.88458094361789
 30
283.8416929888955
 70
   192
  0
VERTEX
  5
9C9
  8
0
 10
272.5749767107383
 20
-24.88458098076214
 30
286.7651090863523
 70
   192
  0
VERTEX
  5
9CA
  8
0
 10
266.5757871407424
 20
-24.88458098607149
 30
289.6313981103122
 70
   192
  0
VERTEX
  5
9CB
  8
0
 10
266.5757871407439
 20
-24.88458098606334
 30
282.9915019387102
 70
   192
  0
VERTEX
  5
9CC
  8
0
 10
264.9104061368088
 20
-24.88458098606432
 30
283.7624745748731
 70
   192
  0
VERTEX
  5
9CD
  8
0
 10
263.2437435906604
 20
-24.88458098606522
 30
284.529021969442
 70
   192
  0
VERTEX
  5
9CE
  8
0
 10
261.5757995023026
 20
-24.88458098606616
 30
285.2911441224172
 70
   192
  0
VERTEX
  5
9CF
  8
0
 10
134.1352773559133
 20
-24.88458098611983
 30
329.2578201621158
 70
   192
  0
VERTEX
  5
9D0
  8
0
 10
-0.0751245897596107
 20
-24.88458098613959
 30
345.4381488786852
 70
   192
  0
VERTEX
  5
9D1
  8
0
 10
-133.2277673291601
 20
-24.88458098612008
 30
329.4723409254483
 70
   192
  0
VERTEX
  5
9D2
  8
0
 10
-261.5771113740193
 20
-24.88458098606616
 30
285.2911505271503
 70
   192
  0
VERTEX
  5
9D3
  8
0
 10
-263.2450545974749
 20
-24.88458098606522
 30
284.5290285271809
 70
   192
  0
VERTEX
  5
9D4
  8
0
 10
-264.9117162575116
 20
-24.88458098606431
 30
283.7624812907343
 70
   192
  0
VERTEX
  5
9D5
  8
0
 10
-266.5770963541297
 20
-24.8845809860635
 30
282.9915088178107
 70
   192
  0
VERTEX
  5
9D6
  8
0
 10
-266.5770963541299
 20
-24.88458098607145
 30
289.6315912703552
 70
   192
  0
VERTEX
  5
9D7
  8
0
 10
-272.5762966672786
 20
-24.88458097963307
 30
286.7652382669973
 70
   192
  0
VERTEX
  5
9D8
  8
0
 10
-278.555407027475
 20
-24.88458094347716
 30
283.8417577828691
 70
   192
  0
VERTEX
  5
9D9
  8
0
 10
-284.5144274347141
 20
-24.88458084280526
 30
280.861149817942
 70
   192
  0
VERTEX
  5
9DA
  8
0
 10
-287.4188912886719
 20
-24.88458098605802
 30
278.6436240434031
 70
   192
  0
VERTEX
  5
9DB
  8
0
 10
-289.332870239333
 20
-24.88458098605421
 30
275.5304998389527
 70
   192
  0
VERTEX
  5
9DC
  8
0
 10
-290.0006694980011
 20
-24.88458098604984
 30
271.9378239989861
 70
   192
  0
VERTEX
  5
9DD
  8
0
 10
-290.0006694980011
 20
-24.8845809855383
 30
-146.8796659700986
 70
   192
  0
VERTEX
  5
9DE
  8
0
 10
-288.6616893933458
 20
-24.88458098553218
 30
-151.8779168925225
 70
   192
  0
VERTEX
  5
9DF
  8
0
 10
-284.9990914002232
 20
-24.8845809855277
 30
-155.5405749088849
 70
   192
  0
VERTEX
  5
9E0
  8
0
 10
-280.0006694980011
 20
-24.8845809855261
 30
-156.8796659700986
 70
   192
  0
VERTEX
  5
9E1
  8
0
 10
279.9993305019989
 20
-24.8845809855261
 30
-156.8796659700986
 70
   192
  0
VERTEX
  5
9E2
  8
0
 10
284.9975814242693
 20
-24.88458098552771
 30
-155.5406858655743
 70
   192
  0
VERTEX
  5
9E3
  8
0
 10
288.6602394406578
 20
-24.88458098553218
 30
-151.8780878724747
 70
   192
  0
VERTEX
  5
9E4
  8
0
 10
289.9993305019989
 20
-24.88458098553847
 30
-146.8796659700987
 70
   192
  0
VERTEX
  5
9E5
  8
0
 10
289.9993305019989
 20
-24.88458098604984
 30
271.937823998985
 70
   192
  0
VERTEX
  5
9E6
  8
0
 10
289.3315518418468
 20
-24.88458098605421
 30
275.5305129133015
 70
   192
  0
VERTEX
  5
9E7
  8
0
 10
287.4175339174461
 20
-24.88458098605802
 30
278.6436091807071
 70
   192
  0
VERTEX
  5
9E8
  8
0
 10
-50.00066949909099
 20
-24.88458098570551
 30
-9.980705027421072
 70
   192
  0
VERTEX
  5
9E9
  8
0
 10
-43.3013489959738
 20
-24.88458098573602
 30
15.02033513206583
 70
   192
  0
VERTEX
  5
9EA
  8
0
 10
-25.0029008341548
 20
-24.88458098575838
 30
33.31898786866294
 70
   192
  0
VERTEX
  5
9EB
  8
0
 10
-0.0006694980081434
 20
-24.88458098576657
 30
40.01929497367608
 70
   192
  0
VERTEX
  5
9EC
  8
0
 10
25.00037066107414
 20
-24.88458098575837
 30
33.31997447073822
 70
   192
  0
VERTEX
  5
9ED
  8
0
 10
43.29902339744396
 20
-24.88458098573603
 30
15.02152631025864
 70
   192
  0
VERTEX
  5
9EE
  8
0
 10
49.99933050254391
 20
-24.88458098570551
 30
-9.980705027410622
 70
   192
  0
VERTEX
  5
9EF
  8
0
 10
43.30001000061586
 20
-24.88458098567495
 30
-34.98174518598506
 70
   192
  0
VERTEX
  5
9F0
  8
0
 10
25.00156183843741
 20
-24.8845809856526
 30
-53.28039792336521
 70
   192
  0
VERTEX
  5
9F1
  8
0
 10
-0.0006694979930444
 20
-24.88458098564444
 30
-59.98070502850469
 70
   192
  0
VERTEX
  5
9F2
  8
0
 10
-25.00170965771705
 20
-24.88458098565261
 30
-53.2813845254033
 70
   192
  0
VERTEX
  5
9F3
  8
0
 10
-43.30036239397086
 20
-24.88458098567495
 30
-34.98293636407813
 70
   192
  0
VERTEX
  5
9F4
  8
0
 10
0.0
 20
0.0
 30
0.0
 70
   128
 71
    33
 72
     1
 73
    -2
  0
VERTEX
  5
9F5
  8
0
 10
0.0
 20
0.0
 30
0.0
 70
   128
 71
    32
 72
   -33
 73
    -2
  0
VERTEX
  5
9F6
  8
0
 10
0.0
 20
0.0
 30
0.0
 70
   128
 71
    31
 72
   -32
 73
    -2
  0
VERTEX
  5
9F7
  8
0
 10
0.0
 20
0.0
 30
0.0
 70
   128
 71
    -5
 72
   -31
 73
    -2
  0
VERTEX
  5
9F8
  8
0
 10
0.0
 20
0.0
 30
0.0
 70
   128
 71
     2
 72
    -3
 73
    -5
  0
VERTEX
  5
9F9
  8
0
 10
0.0
 20
0.0
 30
0.0
 70
   128
 71
     3
 72
     4
 73
    -5
  0
VERTEX
  5
9FA
  8
0
 10
0.0
 20
0.0
 30
0.0
 70
   128
 71
    30
 72
   -31
 73
    -5
  0
VERTEX
  5
9FB
  8
0
 10
0.0
 20
0.0
 30
0.0
 70
   128
 71
    29
 72
   -30
 73
    -5
  0
VERTEX
  5
9FC
  8
0
 10
0.0
 20
0.0
 30
0.0
 70
   128
 71
    28
 72
   -29
 73
    -5
  0
VERTEX
  5
9FD
  8
0
 10
0.0
 20
0.0
 30
0.0
 70
   128
 71
    27
 72
   -28
 73
    -5
  0
VERTEX
  5
9FE
  8
0
 10
0.0
 20
0.0
 30
0.0
 70
   128
 71
     5
 72
    -6
 73
   -27
  0
VERTEX
  5
9FF
  8
0
 10
0.0
 20
0.0
 30
0.0
 70
   128
 71
     6
 72
    -7
 73
   -27
  0
VERTEX
  5
A00
  8
0
 10
0.0
 20
0.0
 30
0.0
 70
   128
 71
     7
 72
    -8
 73
   -27
  0
VERTEX
  5
A01
  8
0
 10
0.0
 20
0.0
 30
0.0
 70
   128
 71
   -12
 72
    36
 73
   -37
  0
VERTEX
  5
A02
  8
0
 10
0.0
 20
0.0
 30
0.0
 70
   128
 71
    11
 72
   -12
 73
   -37
  0
VERTEX
  5
A03
  8
0
 10
0.0
 20
0.0
 30
0.0
 70
   128
 71
    10
 72
   -11
 73
   -37
  0
VERTEX
  5
A04
  8
0
 10
0.0
 20
0.0
 30
0.0
 70
   128
 71
   -38
 72
     9
 73
   -10
  0
VERTEX
  5
A05
  8
0
 10
0.0
 20
0.0
 30
0.0
 70
   128
 71
    37
 72
   -38
 73
   -10
  0
VERTEX
  5
A06
  8
0
 10
0.0
 20
0.0
 30
0.0
 70
   128
 71
   -27
 72
     8
 73
    -9
  0
VERTEX
  5
A07
  8
0
 10
0.0
 20
0.0
 30
0.0
 70
   128
 71
   -39
 72
   -27
 73
    -9
  0
VERTEX
  5
A08
  8
0
 10
0.0
 20
0.0
 30
0.0
 70
   128
 71
    38
 72
   -39
 73
    -9
  0
VERTEX
  5
A09
  8
0
 10
0.0
 20
0.0
 30
0.0
 70
   128
 71
    39
 72
   -40
 73
   -27
  0
VERTEX
  5
A0A
  8
0
 10
0.0
 20
0.0
 30
0.0
 70
   128
 71
    40
 72
   -41
 73
   -27
  0
VERTEX
  5
A0B
  8
0
 10
0.0
 20
0.0
 30
0.0
 70
   128
 71
    41
 72
   -42
 73
   -27
  0
VERTEX
  5
A0C
  8
0
 10
0.0
 20
0.0
 30
0.0
 70
   128
 71
    42
 72
   -43
 73
   -27
  0
VERTEX
  5
A0D
  8
0
 10
0.0
 20
0.0
 30
0.0
 70
   128
 71
    26
 72
   -27
 73
   -43
  0
VERTEX
  5
A0E
  8
0
 10
0.0
 20
0.0
 30
0.0
 70
   128
 71
    43
 72
   -44
 73
   -26
  0
VERTEX
  5
A0F
  8
0
 10
0.0
 20
0.0
 30
0.0
 70
   128
 71
    44
 72
   -45
 73
   -26
  0
VERTEX
  5
A10
  8
0
 10
0.0
 20
0.0
 30
0.0
 70
   128
 71
    24
 72
    25
 73
   -26
  0
VERTEX
  5
A11
  8
0
 10
0.0
 20
0.0
 30
0.0
 70
   128
 71
    23
 72
   -24
 73
   -26
  0
VERTEX
  5
A12
  8
0
 10
0.0
 20
0.0
 30
0.0
 70
   128
 71
   -34
 72
   -23
 73
   -26
  0
VERTEX
  5
A13
  8
0
 10
0.0
 20
0.0
 30
0.0
 70
   128
 71
    45
 72
   -34
 73
   -26
  0
VERTEX
  5
A14
  8
0
 10
0.0
 20
0.0
 30
0.0
 70
   128
 71
    12
 72
   -13
 73
   -36
  0
VERTEX
  5
A15
  8
0
 10
0.0
 20
0.0
 30
0.0
 70
   128
 71
    13
 72
   -14
 73
   -36
  0
VERTEX
  5
A16
  8
0
 10
0.0
 20
0.0
 30
0.0
 70
   128
 71
    14
 72
   -15
 73
   -36
  0
VERTEX
  5
A17
  8
0
 10
0.0
 20
0.0
 30
0.0
 70
   128
 71
   -17
 72
    34
 73
   -35
  0
VERTEX
  5
A18
  8
0
 10
0.0
 20
0.0
 30
0.0
 70
   128
 71
   -36
 72
   -15
 73
   -17
  0
VERTEX
  5
A19
  8
0
 10
0.0
 20
0.0
 30
0.0
 70
   128
 71
    35
 72
   -36
 73
   -17
  0
VERTEX
  5
A1A
  8
0
 10
0.0
 20
0.0
 30
0.0
 70
   128
 71
    15
 72
    16
 73
   -17
  0
VERTEX
  5
A1B
  8
0
 10
0.0
 20
0.0
 30
0.0
 70
   128
 71
    17
 72
   -18
 73
   -34
  0
VERTEX
  5
A1C
  8
0
 10
0.0
 20
0.0
 30
0.0
 70
   128
 71
    22
 72
   -23
 73
   -34
  0
VERTEX
  5
A1D
  8
0
 10
0.0
 20
0.0
 30
0.0
 70
   128
 71
    21
 72
   -22
 73
   -34
  0
VERTEX
  5
A1E
  8
0
 10
0.0
 20
0.0
 30
0.0
 70
   128
 71
    20
 72
   -21
 73
   -34
  0
VERTEX
  5
A1F
  8
0
 10
0.0
 20
0.0
 30
0.0
 70
   128
 71
    19
 72
   -20
 73
   -34
  0
VERTEX
  5
A20
  8
0
 10
0.0
 20
0.0
 30
0.0
 70
   128
 71
    18
 72
   -19
 73
   -34
  0
SEQEND
  5
F6B
  8
0
  0
POLYLINE
  5
A21
  8
0
 66
     1
 10
0.0
 20
0.0
 30
0.0
 70
    64
 71
    12
 72
    10
  0
VERTEX
  5
A22
  8
0
 10
-45.00066949800097
 20
-19.8845809857055
 30
-9.980705027408026
 70
   192
  0
VERTEX
  5
A23
  8
0
 10
-38.9717879117071
 20
-19.884580985733
 30
12.5192921474558
 70
   192
  0
VERTEX
  5
A24
  8
0
 10
-22.50061581113003
 20
-19.88458098575312
 30
28.99018397021354
 70
   192
  0
VERTEX
  5
A25
  8
0
 10
-0.000669498001038
 20
-19.88458098576046
 30
35.01929497259219
 70
   192
  0
VERTEX
  5
A26
  8
0
 10
-0.0006694980019478
 20
-22.3297893679666
 30
35.65799287757128
 70
   192
  0
VERTEX
  5
A27
  8
0
 10
-0.0006694980046708
 20
-24.24588308131493
 30
37.57408659133264
 70
   192
  0
VERTEX
  5
A28
  8
0
 10
-0.0006694980081434
 20
-24.88458098576657
 30
40.01929497367608
 70
   192
  0
VERTEX
  5
A29
  8
0
 10
-25.0029008341548
 20
-24.88458098575838
 30
33.31898786866294
 70
   192
  0
VERTEX
  5
A2A
  8
0
 10
-43.3013489959738
 20
-24.88458098573602
 30
15.02033513206583
 70
   192
  0
VERTEX
  5
A2B
  8
0
 10
-50.00066949909099
 20
-24.88458098570551
 30
-9.980705027421072
 70
   192
  0
VERTEX
  5
A2C
  8
0
 10
-47.50066949885289
 20
-24.21470800467681
 30
-9.98070502741689
 70
   192
  0
VERTEX
  5
A2D
  8
0
 10
-45.67054247957473
 20
-22.38458098579758
 30
-9.980705027412089
 70
   192
  0
VERTEX
  5
A2E
  8
0
 10
0.0
 20
0.0
 30
0.0
 70
   128
 71
     6
 72
     7
 73
     8
  0
VERTEX
  5
A2F
  8
0
 10
0.0
 20
0.0
 30
0.0
 70
   128
 71
    11
 72
     6
 73
     8
  0
VERTEX
  5
A30
  8
0
 10
0.0
 20
0.0
 30
0.0
 70
   128
 71
     8
 72
     9
 73
    11
  0
VERTEX
  5
A31
  8
0
 10
0.0
 20
0.0
 30
0.0
 70
   128
 71
     9
 72
    10
 73
    11
  0
VERTEX
  5
A32
  8
0
 10
0.0
 20
0.0
 30
0.0
 70
   128
 71
    12
 72
     5
 73
     6
  0
VERTEX
  5
A33
  8
0
 10
0.0
 20
0.0
 30
0.0
 70
   128
 71
    11
 72
    12
 73
     6
  0
VERTEX
  5
A34
  8
0
 10
0.0
 20
0.0
 30
0.0
 70
   128
 71
    12
 72
     1
 73
     2
  0
VERTEX
  5
A35
  8
0
 10
0.0
 20
0.0
 30
0.0
 70
   128
 71
     2
 72
     3
 73
    12
  0
VERTEX
  5
A36
  8
0
 10
0.0
 20
0.0
 30
0.0
 70
   128
 71
     3
 72
     5
 73
    12
  0
VERTEX
  5
A37
  8
0
 10
0.0
 20
0.0
 30
0.0
 70
   128
 71
     3
 72
     4
 73
     5
  0
SEQEND
  5
F6C
  8
0
  0
POLYLINE
  5
A38
  8
0
 66
     1
 10
0.0
 20
0.0
 30
0.0
 70
    64
 71
    12
 72
    10
  0
VERTEX
  5
A39
  8
0
 10
44.999330501999
 20
-19.8845809857055
 30
-9.980705027408012
 70
   192
  0
VERTEX
  5
A3A
  8
0
 10
38.9704489155932
 20
-19.88458098567803
 30
-32.48070220236956
 70
   192
  0
VERTEX
  5
A3B
  8
0
 10
22.49927681518643
 20
-19.8845809856579
 30
-48.95159402499074
 70
   192
  0
VERTEX
  5
A3C
  8
0
 10
-0.000669498001038
 20
-19.88458098565055
 30
-54.98070502740799
 70
   192
  0
VERTEX
  5
A3D
  8
0
 10
-0.0006694980000191
 20
-22.32978936785513
 30
-55.61940293239299
 70
   192
  0
VERTEX
  5
A3E
  8
0
 10
-0.0006694979969558
 20
-24.24588308119878
 30
-57.53549664615926
 70
   192
  0
VERTEX
  5
A3F
  8
0
 10
-0.0006694979930444
 20
-24.88458098564444
 30
-59.98070502850469
 70
   192
  0
VERTEX
  5
A40
  8
0
 10
25.00156183843741
 20
-24.8845809856526
 30
-53.28039792336521
 70
   192
  0
VERTEX
  5
A41
  8
0
 10
43.30001000061586
 20
-24.88458098567495
 30
-34.98174518598506
 70
   192
  0
VERTEX
  5
A42
  8
0
 10
49.99933050254391
 20
-24.88458098570551
 30
-9.980705027410622
 70
   192
  0
VERTEX
  5
A43
  8
0
 10
47.49933050243655
 20
-24.21470800463204
 30
-9.980705027411535
 70
   192
  0
VERTEX
  5
A44
  8
0
 10
45.66920348334497
 20
-22.38458098573987
 30
-9.980705027410579
 70
   192
  0
VERTEX
  5
A45
  8
0
 10
0.0
 20
0.0
 30
0.0
 70
   128
 71
     6
 72
     7
 73
     8
  0
VERTEX
  5
A46
  8
0
 10
0.0
 20
0.0
 30
0.0
 70
   128
 71
    11
 72
     6
 73
     8
  0
VERTEX
  5
A47
  8
0
 10
0.0
 20
0.0
 30
0.0
 70
   128
 71
     8
 72
     9
 73
    11
  0
VERTEX
  5
A48
  8
0
 10
0.0
 20
0.0
 30
0.0
 70
   128
 71
     9
 72
    10
 73
    11
  0
VERTEX
  5
A49
  8
0
 10
0.0
 20
0.0
 30
0.0
 70
   128
 71
    12
 72
     5
 73
     6
  0
VERTEX
  5
A4A
  8
0
 10
0.0
 20
0.0
 30
0.0
 70
   128
 71
    11
 72
    12
 73
     6
  0
VERTEX
  5
A4B
  8
0
 10
0.0
 20
0.0
 30
0.0
 70
   128
 71
    12
 72
     1
 73
     2
  0
VERTEX
  5
A4C
  8
0
 10
0.0
 20
0.0
 30
0.0
 70
   128
 71
     2
 72
     3
 73
    12
  0
VERTEX
  5
A4D
  8
0
 10
0.0
 20
0.0
 30
0.0
 70
   128
 71
     3
 72
     5
 73
    12
  0
VERTEX
  5
A4E
  8
0
 10
0.0
 20
0.0
 30
0.0
 70
   128
 71
     3
 72
     4
 73
     5
  0
SEQEND
  5
F6D
  8
0
  0
POLYLINE
  5
A4F
  8
0
 66
     1
 10
0.0
 20
0.0
 30
0.0
 70
    64
 71
     9
 72
     7
  0
VERTEX
  5
A50
  8
0
 10
264.0757870376843
 20
-24.21470794549027
 30
289.6313981103058
 70
   192
  0
VERTEX
  5
A51
  8
0
 10
262.2456600028209
 20
-22.38458077994952
 30
289.6313981103081
 70
   192
  0
VERTEX
  5
A52
  8
0
 10
262.2994690424095
 20
-22.47564463549866
 30
284.9610983739283
 70
   192
  0
VERTEX
  5
A53
  8
0
 10
266.5757871407439
 20
-24.88458098607145
 30
289.6313981103123
 70
   192
  0
VERTEX
  5
A54
  8
0
 10
264.1651604441781
 20
-24.26513990820234
 30
284.1058549148809
 70
   192
  0
VERTEX
  5
A55
  8
0
 10
266.5757871407478
 20
-24.8845809860635
 30
282.9915019387102
 70
   192
  0
VERTEX
  5
A56
  8
0
 10
261.5757871407481
 20
-19.88458098606718
 30
285.2911495691627
 70
   192
  0
VERTEX
  5
A57
  8
0
 10
261.5757871407481
 20
-19.88458068855498
 30
285.2911495691627
 70
   192
  0
VERTEX
  5
A58
  8
0
 10
261.5757871407481
 20
-19.88458062906024
 30
289.6313981103111
 70
   192
  0
VERTEX
  5
A59
  8
0
 10
0.0
 20
0.0
 30
0.0
 70
   128
 71
     1
 72
     2
 73
     3
  0
VERTEX
  5
A5A
  8
0
 10
0.0
 20
0.0
 30
0.0
 70
   128
 71
     4
 72
     1
 73
     5
  0
VERTEX
  5
A5B
  8
0
 10
0.0
 20
0.0
 30
0.0
 70
   128
 71
     6
 72
     4
 73
     5
  0
VERTEX
  5
A5C
  8
0
 10
0.0
 20
0.0
 30
0.0
 70
   128
 71
     5
 72
     1
 73
     3
  0
VERTEX
  5
A5D
  8
0
 10
0.0
 20
0.0
 30
0.0
 70
   128
 71
     7
 72
     8
 73
     3
  0
VERTEX
  5
A5E
  8
0
 10
0.0
 20
0.0
 30
0.0
 70
   128
 71
     3
 72
     2
 73
     9
  0
VERTEX
  5
A5F
  8
0
 10
0.0
 20
0.0
 30
0.0
 70
   128
 71
     3
 72
     9
 73
     7
  0
SEQEND
  5
F6E
  8
0
  0
POLYLINE
  5
A60
  8
0
 66
     1
 10
0.0
 20
0.0
 30
0.0
 70
    64
 71
    12
 72
    10
  0
VERTEX
  5
A61
  8
0
 10
289.0268557256293
 20
-14.88458098607165
 30
289.7844908727478
 70
   192
  0
VERTEX
  5
A62
  8
0
 10
282.2837559823865
 20
-14.88458098607578
 30
293.1527628094231
 70
   192
  0
VERTEX
  5
A63
  8
0
 10
275.5067139215721
 20
-14.8845809860798
 30
296.4530614086935
 70
   192
  0
VERTEX
  5
A64
  8
0
 10
268.6962790032534
 20
-14.88458098608375
 30
299.6847527233912
 70
   192
  0
VERTEX
  5
A65
  8
0
 10
268.3985475978262
 20
-20.01147613642153
 30
298.2623848772106
 70
   192
  0
VERTEX
  5
A66
  8
0
 10
267.6119202421879
 20
-23.61925918333687
 30
294.5255128430416
 70
   192
  0
VERTEX
  5
A67
  8
0
 10
266.5757871407424
 20
-24.88458098607149
 30
289.6313981103122
 70
   192
  0
VERTEX
  5
A68
  8
0
 10
272.5749767107383
 20
-24.88458098076214
 30
286.7651090863523
 70
   192
  0
VERTEX
  5
A69
  8
0
 10
278.5540771433953
 20
-24.88458094361789
 30
283.8416929888955
 70
   192
  0
VERTEX
  5
A6A
  8
0
 10
284.5130884387139
 20
-24.88458084280387
 30
280.861149817942
 70
   192
  0
VERTEX
  5
A6B
  8
0
 10
286.7699706713645
 20
-23.54483440359373
 30
285.3228175561729
 70
   192
  0
VERTEX
  5
A6C
  8
0
 10
288.4221231323458
 20
-19.88458062792492
 30
288.5889850270404
 70
   192
  0
VERTEX
  5
A6D
  8
0
 10
0.0
 20
0.0
 30
0.0
 70
   128
 71
     6
 72
     7
 73
     8
  0
VERTEX
  5
A6E
  8
0
 10
0.0
 20
0.0
 30
0.0
 70
   128
 71
     9
 72
    11
 73
     6
  0
VERTEX
  5
A6F
  8
0
 10
0.0
 20
0.0
 30
0.0
 70
   128
 71
     8
 72
     9
 73
     6
  0
VERTEX
  5
A70
  8
0
 10
0.0
 20
0.0
 30
0.0
 70
   128
 71
     9
 72
    10
 73
    11
  0
VERTEX
  5
A71
  8
0
 10
0.0
 20
0.0
 30
0.0
 70
   128
 71
    12
 72
     5
 73
     6
  0
VERTEX
  5
A72
  8
0
 10
0.0
 20
0.0
 30
0.0
 70
   128
 71
    11
 72
    12
 73
     6
  0
VERTEX
  5
A73
  8
0
 10
0.0
 20
0.0
 30
0.0
 70
   128
 71
    12
 72
     1
 73
     2
  0
VERTEX
  5
A74
  8
0
 10
0.0
 20
0.0
 30
0.0
 70
   128
 71
     3
 72
     5
 73
    12
  0
VERTEX
  5
A75
  8
0
 10
0.0
 20
0.0
 30
0.0
 70
   128
 71
     2
 72
     3
 73
    12
  0
VERTEX
  5
A76
  8
0
 10
0.0
 20
0.0
 30
0.0
 70
   128
 71
     3
 72
     4
 73
     5
  0
SEQEND
  5
F6F
  8
0
  0
POLYLINE
  5
A77
  8
0
 66
     1
 10
0.0
 20
0.0
 30
0.0
 70
    64
 71
    12
 72
    10
  0
VERTEX
  5
A78
  8
0
 10
289.9993305019989
 20
-24.8845809860499
 30
271.937823998985
 70
   192
  0
VERTEX
  5
A79
  8
0
 10
294.9993305019989
 20
-23.54483502389419
 30
271.9378239989872
 70
   192
  0
VERTEX
  5
A7A
  8
0
 10
298.6595845398433
 20
-19.88458098604972
 30
271.9378239989921
 70
   192
  0
VERTEX
  5
A7B
  8
0
 10
299.9993305019988
 20
-14.88458098604966
 30
271.9378239989983
 70
   192
  0
VERTEX
  5
A7C
  8
0
 10
298.6638086074433
 20
-14.8845809860586
 30
279.1233639011646
 70
   192
  0
VERTEX
  5
A7D
  8
0
 10
294.8359346974652
 20
-14.88458098606623
 30
285.3493825430796
 70
   192
  0
VERTEX
  5
A7E
  8
0
 10
289.0268557256293
 20
-14.88458098607165
 30
289.7844908727478
 70
   192
  0
VERTEX
  5
A7F
  8
0
 10
288.4221231323458
 20
-19.88458062792492
 30
288.5889850270404
 70
   192
  0
VERTEX
  5
A80
  8
0
 10
286.7699706713645
 20
-23.54483440359373
 30
285.3228175561729
 70
   192
  0
VERTEX
  5
A81
  8
0
 10
284.5130884387139
 20
-24.88458026977646
 30
280.861149817942
 70
   192
  0
VERTEX
  5
A82
  8
0
 10
287.4175339174461
 20
-24.88458098605802
 30
278.6436091807071
 70
   192
  0
VERTEX
  5
A83
  8
0
 10
289.3315518418468
 20
-24.88458098605421
 30
275.5305129133015
 70
   192
  0
VERTEX
  5
A84
  8
0
 10
0.0
 20
0.0
 30
0.0
 70
   128
 71
     6
 72
     7
 73
     8
  0
VERTEX
  5
A85
  8
0
 10
0.0
 20
0.0
 30
0.0
 70
   128
 71
     9
 72
    11
 73
     6
  0
VERTEX
  5
A86
  8
0
 10
0.0
 20
0.0
 30
0.0
 70
   128
 71
     8
 72
     9
 73
     6
  0
VERTEX
  5
A87
  8
0
 10
0.0
 20
0.0
 30
0.0
 70
   128
 71
     9
 72
    10
 73
    11
  0
VERTEX
  5
A88
  8
0
 10
0.0
 20
0.0
 30
0.0
 70
   128
 71
    12
 72
     5
 73
     6
  0
VERTEX
  5
A89
  8
0
 10
0.0
 20
0.0
 30
0.0
 70
   128
 71
    11
 72
    12
 73
     6
  0
VERTEX
  5
A8A
  8
0
 10
0.0
 20
0.0
 30
0.0
 70
   128
 71
    12
 72
     1
 73
     2
  0
VERTEX
  5
A8B
  8
0
 10
0.0
 20
0.0
 30
0.0
 70
   128
 71
     3
 72
     5
 73
    12
  0
VERTEX
  5
A8C
  8
0
 10
0.0
 20
0.0
 30
0.0
 70
   128
 71
     2
 72
     3
 73
    12
  0
VERTEX
  5
A8D
  8
0
 10
0.0
 20
0.0
 30
0.0
 70
   128
 71
     3
 72
     4
 73
     5
  0
SEQEND
  5
F70
  8
0
  0
POLYLINE
  5
A8E
  8
0
 66
     1
 10
0.0
 20
0.0
 30
0.0
 70
    64
 71
     8
 72
     6
  0
VERTEX
  5
A8F
  8
0
 10
298.6595845398431
 20
-19.88458098553848
 30
-146.8796659700929
 70
   192
  0
VERTEX
  5
A90
  8
0
 10
298.6595845398433
 20
-19.88458098604972
 30
271.9378239989921
 70
   192
  0
VERTEX
  5
A91
  8
0
 10
294.9993305019989
 20
-23.54483502389419
 30
271.9378239989872
 70
   192
  0
VERTEX
  5
A92
  8
0
 10
294.9993305019989
 20
-23.54483502338312
 30
-146.8796659700974
 70
   192
  0
VERTEX
  5
A93
  8
0
 10
299.9993305019983
 20
-14.8845809855383
 30
-146.8796659700868
 70
   192
  0
VERTEX
  5
A94
  8
0
 10
299.9993305019989
 20
-14.88458098604986
 30
271.9378239989981
 70
   192
  0
VERTEX
  5
A95
  8
0
 10
289.9993305019989
 20
-24.8845809860499
 30
271.937823998985
 70
   192
  0
VERTEX
  5
A96
  8
0
 10
289.9993305019989
 20
-24.8845809855383
 30
-146.8796659700988
 70
   192
  0
VERTEX
  5
A97
  8
0
 10
0.0
 20
0.0
 30
0.0
 70
   128
 71
     1
 72
     2
 73
    -3
  0
VERTEX
  5
A98
  8
0
 10
0.0
 20
0.0
 30
0.0
 70
   128
 71
    -1
 72
     3
 73
     4
  0
VERTEX
  5
A99
  8
0
 10
0.0
 20
0.0
 30
0.0
 70
   128
 71
     5
 72
     6
 73
    -2
  0
VERTEX
  5
A9A
  8
0
 10
0.0
 20
0.0
 30
0.0
 70
   128
 71
    -5
 72
     2
 73
     1
  0
VERTEX
  5
A9B
  8
0
 10
0.0
 20
0.0
 30
0.0
 70
   128
 71
     4
 72
     3
 73
    -7
  0
VERTEX
  5
A9C
  8
0
 10
0.0
 20
0.0
 30
0.0
 70
   128
 71
    -4
 72
     7
 73
     8
  0
SEQEND
  5
F71
  8
0
  0
POLYLINE
  5
A9D
  8
0
 66
     1
 10
0.0
 20
0.0
 30
0.0
 70
    64
 71
    12
 72
    10
  0
VERTEX
  5
A9E
  8
0
 10
279.9993305019989
 20
-24.88458098552609
 30
-156.8796659700986
 70
   192
  0
VERTEX
  5
A9F
  8
0
 10
279.9993305019989
 20
-23.54483502336442
 30
-161.8796659700969
 70
   192
  0
VERTEX
  5
AA0
  8
0
 10
279.9993305019989
 20
-19.88458098551568
 30
-165.5399200079367
 70
   192
  0
VERTEX
  5
AA1
  8
0
 10
279.9993305019989
 20
-14.88458098551416
 30
-166.8796659700863
 70
   192
  0
VERTEX
  5
AA2
  8
0
 10
289.9989469594331
 20
-14.88458098551718
 30
-164.1996473640731
 70
   192
  0
VERTEX
  5
AA3
  8
0
 10
297.3193118959858
 20
-14.8845809855261
 30
-156.8792824275201
 70
   192
  0
VERTEX
  5
AA4
  8
0
 10
299.9993305019782
 20
-14.8845809855383
 30
-146.8796659700868
 70
   192
  0
VERTEX
  5
AA5
  8
0
 10
298.6595845398431
 20
-19.88458098553848
 30
-146.8796659700929
 70
   192
  0
VERTEX
  5
AA6
  8
0
 10
294.9993305019989
 20
-23.54483502338312
 30
-146.8796659700974
 70
   192
  0
VERTEX
  5
AA7
  8
0
 10
289.9993305019989
 20
-24.88458098553886
 30
-146.879665970099
 70
   192
  0
VERTEX
  5
AA8
  8
0
 10
288.6602394406578
 20
-24.88458098553218
 30
-151.8780878724747
 70
   192
  0
VERTEX
  5
AA9
  8
0
 10
284.9975814242693
 20
-24.88458098552771
 30
-155.5406858655743
 70
   192
  0
VERTEX
  5
AAA
  8
0
 10
0.0
 20
0.0
 30
0.0
 70
   128
 71
     6
 72
     7
 73
     8
  0
VERTEX
  5
AAB
  8
0
 10
0.0
 20
0.0
 30
0.0
 70
   128
 71
     9
 72
    11
 73
     6
  0
VERTEX
  5
AAC
  8
0
 10
0.0
 20
0.0
 30
0.0
 70
   128
 71
     8
 72
     9
 73
     6
  0
VERTEX
  5
AAD
  8
0
 10
0.0
 20
0.0
 30
0.0
 70
   128
 71
     9
 72
    10
 73
    11
  0
VERTEX
  5
AAE
  8
0
 10
0.0
 20
0.0
 30
0.0
 70
   128
 71
    12
 72
     5
 73
     6
  0
VERTEX
  5
AAF
  8
0
 10
0.0
 20
0.0
 30
0.0
 70
   128
 71
    11
 72
    12
 73
     6
  0
VERTEX
  5
AB0
  8
0
 10
0.0
 20
0.0
 30
0.0
 70
   128
 71
    12
 72
     1
 73
     2
  0
VERTEX
  5
AB1
  8
0
 10
0.0
 20
0.0
 30
0.0
 70
   128
 71
     3
 72
     5
 73
    12
  0
VERTEX
  5
AB2
  8
0
 10
0.0
 20
0.0
 30
0.0
 70
   128
 71
     2
 72
     3
 73
    12
  0
VERTEX
  5
AB3
  8
0
 10
0.0
 20
0.0
 30
0.0
 70
   128
 71
     3
 72
     4
 73
     5
  0
SEQEND
  5
F72
  8
0
  0
POLYLINE
  5
AB4
  8
0
 66
     1
 10
0.0
 20
0.0
 30
0.0
 70
    64
 71
     8
 72
     6
  0
VERTEX
  5
AB5
  8
0
 10
-280.0006694980008
 20
-19.88458098551554
 30
-165.5399200079369
 70
   192
  0
VERTEX
  5
AB6
  8
0
 10
279.9993305019989
 20
-19.88458098551568
 30
-165.5399200079367
 70
   192
  0
VERTEX
  5
AB7
  8
0
 10
279.9993305019989
 20
-23.54483502336442
 30
-161.8796659700969
 70
   192
  0
VERTEX
  5
AB8
  8
0
 10
-280.0006694980008
 20
-23.54483502336436
 30
-161.8796659700969
 70
   192
  0
VERTEX
  5
AB9
  8
0
 10
-280.0006694980011
 20
-14.88458098551393
 30
-166.8796659700864
 70
   192
  0
VERTEX
  5
ABA
  8
0
 10
279.9993305019783
 20
-14.88458098551387
 30
-166.8796659700864
 70
   192
  0
VERTEX
  5
ABB
  8
0
 10
279.9993305019989
 20
-24.88458098552609
 30
-156.8796659700986
 70
   192
  0
VERTEX
  5
ABC
  8
0
 10
-280.0006694980011
 20
-24.8845809855261
 30
-156.8796659700986
 70
   192
  0
VERTEX
  5
ABD
  8
0
 10
0.0
 20
0.0
 30
0.0
 70
   128
 71
     1
 72
     2
 73
    -3
  0
VERTEX
  5
ABE
  8
0
 10
0.0
 20
0.0
 30
0.0
 70
   128
 71
    -1
 72
     3
 73
     4
  0
VERTEX
  5
ABF
  8
0
 10
0.0
 20
0.0
 30
0.0
 70
   128
 71
     5
 72
     6
 73
    -2
  0
VERTEX
  5
AC0
  8
0
 10
0.0
 20
0.0
 30
0.0
 70
   128
 71
    -5
 72
     2
 73
     1
  0
VERTEX
  5
AC1
  8
0
 10
0.0
 20
0.0
 30
0.0
 70
   128
 71
     4
 72
     3
 73
    -7
  0
VERTEX
  5
AC2
  8
0
 10
0.0
 20
0.0
 30
0.0
 70
   128
 71
    -4
 72
     7
 73
     8
  0
SEQEND
  5
F73
  8
0
  0
POLYLINE
  5
AC3
  8
0
 66
     1
 10
0.0
 20
0.0
 30
0.0
 70
    64
 71
    12
 72
    10
  0
VERTEX
  5
AC4
  8
0
 10
-290.0006694980011
 20
-24.8845809855382
 30
-146.8796659700986
 70
   192
  0
VERTEX
  5
AC5
  8
0
 10
-295.0006694980007
 20
-23.5448350233828
 30
-146.8796659700969
 70
   192
  0
VERTEX
  5
AC6
  8
0
 10
-298.6609235358451
 20
-19.88458098553894
 30
-146.8796659700925
 70
   192
  0
VERTEX
  5
AC7
  8
0
 10
-300.0006694980012
 20
-14.88458098553947
 30
-146.8796659700864
 70
   192
  0
VERTEX
  5
AC8
  8
0
 10
-297.320650891988
 20
-14.8845809855261
 30
-156.8792824275202
 70
   192
  0
VERTEX
  5
AC9
  8
0
 10
-290.0002859554351
 20
-14.88458098551715
 30
-164.1996473640733
 70
   192
  0
VERTEX
  5
ACA
  8
0
 10
-280.0006694980011
 20
-14.88458098551393
 30
-166.8796659700863
 70
   192
  0
VERTEX
  5
ACB
  8
0
 10
-280.0006694980008
 20
-19.88458098551554
 30
-165.5399200079369
 70
   192
  0
VERTEX
  5
ACC
  8
0
 10
-280.0006694980008
 20
-23.54483502336436
 30
-161.8796659700969
 70
   192
  0
VERTEX
  5
ACD
  8
0
 10
-280.0006694980011
 20
-24.88458098552604
 30
-156.8796659700986
 70
   192
  0
VERTEX
  5
ACE
  8
0
 10
-284.9990914002232
 20
-24.8845809855277
 30
-155.5405749088849
 70
   192
  0
VERTEX
  5
ACF
  8
0
 10
-288.6616893933458
 20
-24.88458098553218
 30
-151.8779168925225
 70
   192
  0
VERTEX
  5
AD0
  8
0
 10
0.0
 20
0.0
 30
0.0
 70
   128
 71
     6
 72
     7
 73
     8
  0
VERTEX
  5
AD1
  8
0
 10
0.0
 20
0.0
 30
0.0
 70
   128
 71
     9
 72
    11
 73
     6
  0
VERTEX
  5
AD2
  8
0
 10
0.0
 20
0.0
 30
0.0
 70
   128
 71
     8
 72
     9
 73
     6
  0
VERTEX
  5
AD3
  8
0
 10
0.0
 20
0.0
 30
0.0
 70
   128
 71
     9
 72
    10
 73
    11
  0
VERTEX
  5
AD4
  8
0
 10
0.0
 20
0.0
 30
0.0
 70
   128
 71
    12
 72
     5
 73
     6
  0
VERTEX
  5
AD5
  8
0
 10
0.0
 20
0.0
 30
0.0
 70
   128
 71
    11
 72
    12
 73
     6
  0
VERTEX
  5
AD6
  8
0
 10
0.0
 20
0.0
 30
0.0
 70
   128
 71
    12
 72
     1
 73
     2
  0
VERTEX
  5
AD7
  8
0
 10
0.0
 20
0.0
 30
0.0
 70
   128
 71
     3
 72
     5
 73
    12
  0
VERTEX
  5
AD8
  8
0
 10
0.0
 20
0.0
 30
0.0
 70
   128
 71
     2
 72
     3
 73
    12
  0
VERTEX
  5
AD9
  8
0
 10
0.0
 20
0.0
 30
0.0
 70
   128
 71
     3
 72
     4
 73
     5
  0
SEQEND
  5
F74
  8
0
  0
POLYLINE
  5
ADA
  8
0
 66
     1
 10
0.0
 20
0.0
 30
0.0
 70
    64
 71
     8
 72
     6
  0
VERTEX
  5
ADB
  8
0
 10
-298.6609235358455
 20
-19.88458098604983
 30
271.9378239989921
 70
   192
  0
VERTEX
  5
ADC
  8
0
 10
-298.6609235358451
 20
-19.88458098553894
 30
-146.8796659700925
 70
   192
  0
VERTEX
  5
ADD
  8
0
 10
-295.0006694980007
 20
-23.5448350233828
 30
-146.8796659700969
 70
   192
  0
VERTEX
  5
ADE
  8
0
 10
-295.0006694980011
 20
-23.54483502389418
 30
271.9378239989877
 70
   192
  0
VERTEX
  5
ADF
  8
0
 10
-300.0006694980011
 20
-14.88458098604984
 30
271.9378239989983
 70
   192
  0
VERTEX
  5
AE0
  8
0
 10
-300.0006694980011
 20
-14.88458098553832
 30
-146.8796659700864
 70
   192
  0
VERTEX
  5
AE1
  8
0
 10
-290.0006694980011
 20
-24.8845809855382
 30
-146.8796659700986
 70
   192
  0
VERTEX
  5
AE2
  8
0
 10
-290.0006694980011
 20
-24.88458098604984
 30
271.9378239989861
 70
   192
  0
VERTEX
  5
AE3
  8
0
 10
0.0
 20
0.0
 30
0.0
 70
   128
 71
     1
 72
     2
 73
    -3
  0
VERTEX
  5
AE4
  8
0
 10
0.0
 20
0.0
 30
0.0
 70
   128
 71
    -1
 72
     3
 73
     4
  0
VERTEX
  5
AE5
  8
0
 10
0.0
 20
0.0
 30
0.0
 70
   128
 71
     5
 72
     6
 73
    -2
  0
VERTEX
  5
AE6
  8
0
 10
0.0
 20
0.0
 30
0.0
 70
   128
 71
    -5
 72
     2
 73
     1
  0
VERTEX
  5
AE7
  8
0
 10
0.0
 20
0.0
 30
0.0
 70
   128
 71
     4
 72
     3
 73
    -7
  0
VERTEX
  5
AE8
  8
0
 10
0.0
 20
0.0
 30
0.0
 70
   128
 71
    -4
 72
     7
 73
     8
  0
SEQEND
  5
F75
  8
0
  0
POLYLINE
  5
AE9
  8
0
 66
     1
 10
0.0
 20
0.0
 30
0.0
 70
    64
 71
    12
 72
    10
  0
VERTEX
  5
AEA
  8
0
 10
-284.514427434714
 20
-24.88458026978338
 30
280.861149817942
 70
   192
  0
VERTEX
  5
AEB
  8
0
 10
-286.7713096673616
 20
-23.5448344035859
 30
285.322817556167
 70
   192
  0
VERTEX
  5
AEC
  8
0
 10
-288.4234621283417
 20
-19.8845806279186
 30
288.5889850270328
 70
   192
  0
VERTEX
  5
AED
  8
0
 10
-289.0281918999584
 20
-14.8845809860717
 30
289.7844852943696
 70
   192
  0
VERTEX
  5
AEE
  8
0
 10
-294.8372736934668
 20
-14.88458098606622
 30
285.3493825430794
 70
   192
  0
VERTEX
  5
AEF
  8
0
 10
-298.6651476034459
 20
-14.88458098605863
 30
279.1233639011646
 70
   192
  0
VERTEX
  5
AF0
  8
0
 10
-300.0006694980009
 20
-14.88458098604983
 30
271.9378239989978
 70
   192
  0
VERTEX
  5
AF1
  8
0
 10
-298.6609235358455
 20
-19.88458098604983
 30
271.9378239989921
 70
   192
  0
VERTEX
  5
AF2
  8
0
 10
-295.0006694980011
 20
-23.54483502389418
 30
271.9378239989877
 70
   192
  0
VERTEX
  5
AF3
  8
0
 10
-290.0006694980011
 20
-24.88458098604979
 30
271.9378239989861
 70
   192
  0
VERTEX
  5
AF4
  8
0
 10
-289.332870239333
 20
-24.88458098605421
 30
275.5304998389527
 70
   192
  0
VERTEX
  5
AF5
  8
0
 10
-287.4188912886719
 20
-24.88458098605802
 30
278.6436240434031
 70
   192
  0
VERTEX
  5
AF6
  8
0
 10
0.0
 20
0.0
 30
0.0
 70
   128
 71
     6
 72
     7
 73
     8
  0
VERTEX
  5
AF7
  8
0
 10
0.0
 20
0.0
 30
0.0
 70
   128
 71
     9
 72
    11
 73
     6
  0
VERTEX
  5
AF8
  8
0
 10
0.0
 20
0.0
 30
0.0
 70
   128
 71
     8
 72
     9
 73
     6
  0
VERTEX
  5
AF9
  8
0
 10
0.0
 20
0.0
 30
0.0
 70
   128
 71
     9
 72
    10
 73
    11
  0
VERTEX
  5
AFA
  8
0
 10
0.0
 20
0.0
 30
0.0
 70
   128
 71
    12
 72
     5
 73
     6
  0
VERTEX
  5
AFB
  8
0
 10
0.0
 20
0.0
 30
0.0
 70
   128
 71
    11
 72
    12
 73
     6
  0
VERTEX
  5
AFC
  8
0
 10
0.0
 20
0.0
 30
0.0
 70
   128
 71
    12
 72
     1
 73
     2
  0
VERTEX
  5
AFD
  8
0
 10
0.0
 20
0.0
 30
0.0
 70
   128
 71
     3
 72
     5
 73
    12
  0
VERTEX
  5
AFE
  8
0
 10
0.0
 20
0.0
 30
0.0
 70
   128
 71
     2
 72
     3
 73
    12
  0
VERTEX
  5
AFF
  8
0
 10
0.0
 20
0.0
 30
0.0
 70
   128
 71
     3
 72
     4
 73
     5
  0
SEQEND
  5
F76
  8
0
  0
POLYLINE
  5
B00
  8
0
 66
     1
 10
0.0
 20
0.0
 30
0.0
 70
    64
 71
    12
 72
    10
  0
VERTEX
  5
B01
  8
0
 10
-284.5144274347141
 20
-24.88458084280526
 30
280.861149817942
 70
   192
  0
VERTEX
  5
B02
  8
0
 10
-278.555407027475
 20
-24.88458094347716
 30
283.8417577828691
 70
   192
  0
VERTEX
  5
B03
  8
0
 10
-272.5762966672786
 20
-24.88458097963307
 30
286.7652382669973
 70
   192
  0
VERTEX
  5
B04
  8
0
 10
-266.5770963541308
 20
-24.88458098226071
 30
289.6315912703552
 70
   192
  0
VERTEX
  5
B05
  8
0
 10
-267.6223104600102
 20
-23.5932696498425
 30
294.5721828427721
 70
   192
  0
VERTEX
  5
B06
  8
0
 10
-268.399844642059
 20
-20.01177594511054
 30
298.2622736056457
 70
   192
  0
VERTEX
  5
B07
  8
0
 10
-268.6975867788264
 20
-14.88458098608375
 30
299.6847683079444
 70
   192
  0
VERTEX
  5
B08
  8
0
 10
-275.5080329852627
 20
-14.8845809860798
 30
296.4530710420412
 70
   192
  0
VERTEX
  5
B09
  8
0
 10
-282.2850850958121
 20
-14.88458098607578
 30
293.1527676838835
 70
   192
  0
VERTEX
  5
B0A
  8
0
 10
-289.0281947216297
 20
-14.8845809860717
 30
289.7844908727486
 70
   192
  0
VERTEX
  5
B0B
  8
0
 10
-288.4234621283417
 20
-19.8845806279186
 30
288.5889850270328
 70
   192
  0
VERTEX
  5
B0C
  8
0
 10
-286.7713096673616
 20
-23.5448344035859
 30
285.322817556167
 70
   192
  0
VERTEX
  5
B0D
  8
0
 10
0.0
 20
0.0
 30
0.0
 70
   128
 71
     6
 72
     7
 73
     8
  0
VERTEX
  5
B0E
  8
0
 10
0.0
 20
0.0
 30
0.0
 70
   128
 71
     9
 72
    11
 73
     6
  0
VERTEX
  5
B0F
  8
0
 10
0.0
 20
0.0
 30
0.0
 70
   128
 71
     8
 72
     9
 73
     6
  0
VERTEX
  5
B10
  8
0
 10
0.0
 20
0.0
 30
0.0
 70
   128
 71
     9
 72
    10
 73
    11
  0
VERTEX
  5
B11
  8
0
 10
0.0
 20
0.0
 30
0.0
 70
   128
 71
    12
 72
     5
 73
     6
  0
VERTEX
  5
B12
  8
0
 10
0.0
 20
0.0
 30
0.0
 70
   128
 71
    11
 72
    12
 73
     6
  0
VERTEX
  5
B13
  8
0
 10
0.0
 20
0.0
 30
0.0
 70
   128
 71
    12
 72
     1
 73
     2
  0
VERTEX
  5
B14
  8
0
 10
0.0
 20
0.0
 30
0.0
 70
   128
 71
     3
 72
     5
 73
    12
  0
VERTEX
  5
B15
  8
0
 10
0.0
 20
0.0
 30
0.0
 70
   128
 71
     2
 72
     3
 73
    12
  0
VERTEX
  5
B16
  8
0
 10
0.0
 20
0.0
 30
0.0
 70
   128
 71
     3
 72
     4
 73
     5
  0
SEQEND
  5
F77
  8
0
  0
POLYLINE
  5
B17
  8
0
 66
     1
 10
0.0
 20
0.0
 30
0.0
 70
    64
 71
     8
 72
     6
  0
VERTEX
  5
B18
  8
0
 10
-261.5770963541299
 20
-19.88458058523257
 30
285.2911571536313
 70
   192
  0
VERTEX
  5
B19
  8
0
 10
-262.2471738583564
 20
-22.38444785173892
 30
289.6316808180865
 70
   192
  0
VERTEX
  5
B1A
  8
0
 10
-262.3058687436511
 20
-22.48393678202531
 30
284.9587806046966
 70
   192
  0
VERTEX
  5
B1B
  8
0
 10
-261.57709635413
 20
-19.88458058523895
 30
289.6317255920181
 70
   192
  0
VERTEX
  5
B1C
  8
0
 10
-264.0772291413248
 20
-24.21450328142645
 30
289.6316360441556
 70
   192
  0
VERTEX
  5
B1D
  8
0
 10
-264.1671588669542
 20
-24.26551778571441
 30
284.1055451143702
 70
   192
  0
VERTEX
  5
B1E
  8
0
 10
-266.5770963541308
 20
-24.88458098226071
 30
289.6315912703552
 70
   192
  0
VERTEX
  5
B1F
  8
0
 10
-266.5770963541299
 20
-24.88458098606334
 30
282.9915088178107
 70
   192
  0
VERTEX
  5
B20
  8
0
 10
0.0
 20
0.0
 30
0.0
 70
   128
 71
     1
 72
     2
 73
     3
  0
VERTEX
  5
B21
  8
0
 10
0.0
 20
0.0
 30
0.0
 70
   128
 71
     1
 72
     4
 73
     2
  0
VERTEX
  5
B22
  8
0
 10
0.0
 20
0.0
 30
0.0
 70
   128
 71
     3
 72
     5
 73
     6
  0
VERTEX
  5
B23
  8
0
 10
0.0
 20
0.0
 30
0.0
 70
   128
 71
     3
 72
     2
 73
     5
  0
VERTEX
  5
B24
  8
0
 10
0.0
 20
0.0
 30
0.0
 70
   128
 71
     6
 72
     5
 73
     7
  0
VERTEX
  5
B25
  8
0
 10
0.0
 20
0.0
 30
0.0
 70
   128
 71
     6
 72
     7
 73
     8
  0
SEQEND
  5
F78
  8
0
  0
POLYLINE
  5
B26
  8
0
 66
     1
 10
0.0
 20
0.0
 30
0.0
 70
    64
 71
    31
 72
    29
  0
VERTEX
  5
B27
  8
0
 10
-264.1671588669542
 20
-24.26551778571441
 30
284.1055451143702
 70
   192
  0
VERTEX
  5
B28
  8
0
 10
-266.5770963541297
 20
-24.8845809860635
 30
282.9915088178107
 70
   192
  0
VERTEX
  5
B29
  8
0
 10
-264.9117162575116
 20
-24.88458098606431
 30
283.7624812907343
 70
   192
  0
VERTEX
  5
B2A
  8
0
 10
-263.2450545974749
 20
-24.88458098606522
 30
284.5290285271809
 70
   192
  0
VERTEX
  5
B2B
  8
0
 10
-255.8450864762383
 20
132.7926887897031
 30
287.8721512907547
 70
   192
  0
VERTEX
  5
B2C
  8
0
 10
-261.5771069396822
 20
112.1599944393033
 30
285.2911460648783
 70
   192
  0
VERTEX
  5
B2D
  8
0
 10
-261.5771034111647
 20
68.14513609779195
 30
285.2911501508267
 70
   192
  0
VERTEX
  5
B2E
  8
0
 10
-241.0646676720348
 20
147.0922533162771
 30
294.2577103227016
 70
   192
  0
VERTEX
  5
B2F
  8
0
 10
-221.577106939682
 20
152.1599976459435
 30
302.0912778432631
 70
   192
  0
VERTEX
  5
B30
  8
0
 10
-0.4806637921041652
 20
152.1599965878477
 30
345.4379294154886
 70
   192
  0
VERTEX
  5
B31
  8
0
 10
-261.5770963541299
 20
-19.88458058523257
 30
285.2911571536313
 70
   192
  0
VERTEX
  5
B32
  8
0
 10
-261.5771113740193
 20
-24.88458098606616
 30
285.2911505271503
 70
   192
  0
VERTEX
  5
B33
  8
0
 10
-133.2277673291601
 20
-24.88458098612008
 30
329.4723409254483
 70
   192
  0
VERTEX
  5
B34
  8
0
 10
-0.0751245897596107
 20
-24.88458098613959
 30
345.4381488786852
 70
   192
  0
VERTEX
  5
B35
  8
0
 10
-262.3058687436511
 20
-22.48393678202531
 30
284.9587806046966
 70
   192
  0
VERTEX
  5
B36
  8
0
 10
261.5757995023026
 20
-24.88458098606616
 30
285.2911441224172
 70
   192
  0
VERTEX
  5
B37
  8
0
 10
262.2994690424095
 20
-22.47564463549866
 30
284.9610983739283
 70
   192
  0
VERTEX
  5
B38
  8
0
 10
261.5757871407481
 20
-19.88458068855498
 30
285.2911495691627
 70
   192
  0
VERTEX
  5
B39
  8
0
 10
134.1352773559133
 20
-24.88458098611983
 30
329.2578201621158
 70
   192
  0
VERTEX
  5
B3A
  8
0
 10
261.5757902835098
 20
24.13027710401391
 30
285.2911465271757
 70
   192
  0
VERTEX
  5
B3B
  8
0
 10
261.5757934262719
 20
68.14513489658266
 30
285.291143078265
 70
   192
  0
VERTEX
  5
B3C
  8
0
 10
221.5757977587018
 20
152.1599955452226
 30
302.091267984645
 70
   192
  0
VERTEX
  5
B3D
  8
0
 10
112.6103320429179
 20
152.1599960568367
 30
333.9626008688834
 70
   192
  0
VERTEX
  5
B3E
  8
0
 10
241.0709671383009
 20
147.0880110624605
 30
294.2545100243178
 70
   192
  0
VERTEX
  5
B3F
  8
0
 10
255.8811041664129
 20
132.7312904588659
 30
287.85554468218
 70
   192
  0
VERTEX
  5
B40
  8
0
 10
261.575796569034
 20
112.1599926891512
 30
285.2911371095512
 70
   192
  0
VERTEX
  5
B41
  8
0
 10
264.9104061368088
 20
-24.88458098606432
 30
283.7624745748731
 70
   192
  0
VERTEX
  5
B42
  8
0
 10
266.5757871407478
 20
-24.8845809860635
 30
282.9915019387102
 70
   192
  0
VERTEX
  5
B43
  8
0
 10
264.1651604441781
 20
-24.26513990820234
 30
284.1058549148809
 70
   192
  0
VERTEX
  5
B44
  8
0
 10
263.2437435906604
 20
-24.88458098606522
 30
284.529021969442
 70
   192
  0
VERTEX
  5
B45
  8
0
 10
-261.5770998826472
 20
24.13027775628018
 30
285.2911536636908
 70
   192
  0
VERTEX
  5
B46
  8
0
 10
0.0
 20
0.0
 30
0.0
 70
   128
 71
     1
 72
     2
 73
     3
  0
VERTEX
  5
B47
  8
0
 10
0.0
 20
0.0
 30
0.0
 70
   128
 71
     3
 72
     4
 73
     1
  0
VERTEX
  5
B48
  8
0
 10
0.0
 20
0.0
 30
0.0
 70
   128
 71
     5
 72
     6
 73
     7
  0
VERTEX
  5
B49
  8
0
 10
0.0
 20
0.0
 30
0.0
 70
   128
 71
     8
 72
     5
 73
     7
  0
VERTEX
  5
B4A
  8
0
 10
0.0
 20
0.0
 30
0.0
 70
   128
 71
     9
 72
     8
 73
     7
  0
VERTEX
  5
B4B
  8
0
 10
0.0
 20
0.0
 30
0.0
 70
   128
 71
    10
 72
     9
 73
     7
  0
VERTEX
  5
B4C
  8
0
 10
0.0
 20
0.0
 30
0.0
 70
   128
 71
    11
 72
    12
 73
    13
  0
VERTEX
  5
B4D
  8
0
 10
0.0
 20
0.0
 30
0.0
 70
   128
 71
    13
 72
    14
 73
    11
  0
VERTEX
  5
B4E
  8
0
 10
0.0
 20
0.0
 30
0.0
 70
   128
 71
    11
 72
    15
 73
    12
  0
VERTEX
  5
B4F
  8
0
 10
0.0
 20
0.0
 30
0.0
 70
   128
 71
     1
 72
     4
 73
    12
  0
VERTEX
  5
B50
  8
0
 10
0.0
 20
0.0
 30
0.0
 70
   128
 71
    15
 72
     1
 73
    12
  0
VERTEX
  5
B51
  8
0
 10
0.0
 20
0.0
 30
0.0
 70
   128
 71
    16
 72
    17
 73
    18
  0
VERTEX
  5
B52
  8
0
 10
0.0
 20
0.0
 30
0.0
 70
   128
 71
    19
 72
    16
 73
    18
  0
VERTEX
  5
B53
  8
0
 10
0.0
 20
0.0
 30
0.0
 70
   128
 71
    18
 72
   -20
 73
    19
  0
VERTEX
  5
B54
  8
0
 10
0.0
 20
0.0
 30
0.0
 70
   128
 71
    20
 72
    21
 73
   -19
  0
VERTEX
  5
B55
  8
0
 10
0.0
 20
0.0
 30
0.0
 70
   128
 71
    22
 72
    23
 73
    19
  0
VERTEX
  5
B56
  8
0
 10
0.0
 20
0.0
 30
0.0
 70
   128
 71
    24
 72
    22
 73
    19
  0
VERTEX
  5
B57
  8
0
 10
0.0
 20
0.0
 30
0.0
 70
   128
 71
    25
 72
    24
 73
    19
  0
VERTEX
  5
B58
  8
0
 10
0.0
 20
0.0
 30
0.0
 70
   128
 71
    26
 72
    25
 73
    19
  0
VERTEX
  5
B59
  8
0
 10
0.0
 20
0.0
 30
0.0
 70
   128
 71
    21
 72
    26
 73
    19
  0
VERTEX
  5
B5A
  8
0
 10
0.0
 20
0.0
 30
0.0
 70
   128
 71
    27
 72
    28
 73
    29
  0
VERTEX
  5
B5B
  8
0
 10
0.0
 20
0.0
 30
0.0
 70
   128
 71
    17
 72
    16
 73
    30
  0
VERTEX
  5
B5C
  8
0
 10
0.0
 20
0.0
 30
0.0
 70
   128
 71
    29
 72
    17
 73
    30
  0
VERTEX
  5
B5D
  8
0
 10
0.0
 20
0.0
 30
0.0
 70
   128
 71
    30
 72
    27
 73
    29
  0
VERTEX
  5
B5E
  8
0
 10
0.0
 20
0.0
 30
0.0
 70
   128
 71
    31
 72
    11
 73
   -14
  0
VERTEX
  5
B5F
  8
0
 10
0.0
 20
0.0
 30
0.0
 70
   128
 71
     7
 72
   -31
 73
    14
  0
VERTEX
  5
B60
  8
0
 10
0.0
 20
0.0
 30
0.0
 70
   128
 71
    10
 72
     7
 73
    14
  0
VERTEX
  5
B61
  8
0
 10
0.0
 20
0.0
 30
0.0
 70
   128
 71
    23
 72
    10
 73
    14
  0
VERTEX
  5
B62
  8
0
 10
0.0
 20
0.0
 30
0.0
 70
   128
 71
    19
 72
    23
 73
    14
  0
SEQEND
  5
F79
  8
0
  0
POLYLINE
  5
B63
  8
0
 66
     1
 10
0.0
 20
0.0
 30
0.0
 70
    64
 71
    14
 72
    12
  0
VERTEX
  5
B64
  8
0
 10
44.999330501999
 20
-19.8845809857055
 30
-9.980705027408012
 70
   192
  0
VERTEX
  5
B65
  8
0
 10
44.99933050199952
 20
5.115419014294464
 30
-9.980705027378352
 70
   192
  0
VERTEX
  5
B66
  8
0
 10
38.97035280501761
 20
5.115419014321975
 30
-32.48063940161458
 70
   192
  0
VERTEX
  5
B67
  8
0
 10
38.9704489155932
 20
-19.88458098567803
 30
-32.48070220236956
 70
   192
  0
VERTEX
  5
B68
  8
0
 10
-0.000669498001038
 20
5.11541901434942
 30
-54.98070502737745
 70
   192
  0
VERTEX
  5
B69
  8
0
 10
-0.000669498001038
 20
-19.88458098565055
 30
-54.98070502740799
 70
   192
  0
VERTEX
  5
B6A
  8
0
 10
22.49927681518643
 20
-19.8845809856579
 30
-48.95159402499074
 70
   192
  0
VERTEX
  5
B6B
  8
0
 10
22.499264876236
 20
5.115419014342093
 30
-48.95172733039654
 70
   192
  0
VERTEX
  5
B6C
  8
0
 10
-22.50060387223802
 20
5.115419014342091
 30
-48.95172733039656
 70
   192
  0
VERTEX
  5
B6D
  8
0
 10
-22.50066667296191
 20
-19.88458098565792
 30
-48.95182344100173
 70
   192
  0
VERTEX
  5
B6E
  8
0
 10
-45.00066949800159
 20
5.115419014294464
 30
-9.980705027378356
 70
   192
  0
VERTEX
  5
B6F
  8
0
 10
-45.00066949800159
 20
-19.8845809857055
 30
-9.980705027408892
 70
   192
  0
VERTEX
  5
B70
  8
0
 10
-38.97155849558326
 20
-19.884580985678
 30
-32.48065134059575
 70
   192
  0
VERTEX
  5
B71
  8
0
 10
-38.97169180101963
 20
5.11541901432197
 30
-32.48063940161462
 70
   192
  0
VERTEX
  5
B72
  8
0
 10
0.0
 20
0.0
 30
0.0
 70
   128
 71
     1
 72
     2
 73
     3
  0
VERTEX
  5
B73
  8
0
 10
0.0
 20
0.0
 30
0.0
 70
   128
 71
     4
 72
     1
 73
     3
  0
VERTEX
  5
B74
  8
0
 10
0.0
 20
0.0
 30
0.0
 70
   128
 71
     5
 72
     6
 73
     7
  0
VERTEX
  5
B75
  8
0
 10
0.0
 20
0.0
 30
0.0
 70
   128
 71
     8
 72
     5
 73
     7
  0
VERTEX
  5
B76
  8
0
 10
0.0
 20
0.0
 30
0.0
 70
   128
 71
     6
 72
     5
 73
     9
  0
VERTEX
  5
B77
  8
0
 10
0.0
 20
0.0
 30
0.0
 70
   128
 71
    10
 72
     6
 73
     9
  0
VERTEX
  5
B78
  8
0
 10
0.0
 20
0.0
 30
0.0
 70
   128
 71
    11
 72
    12
 73
    13
  0
VERTEX
  5
B79
  8
0
 10
0.0
 20
0.0
 30
0.0
 70
   128
 71
    14
 72
    11
 73
    13
  0
VERTEX
  5
B7A
  8
0
 10
0.0
 20
0.0
 30
0.0
 70
   128
 71
     7
 72
     4
 73
     3
  0
VERTEX
  5
B7B
  8
0
 10
0.0
 20
0.0
 30
0.0
 70
   128
 71
     8
 72
     7
 73
     3
  0
VERTEX
  5
B7C
  8
0
 10
0.0
 20
0.0
 30
0.0
 70
   128
 71
    13
 72
    10
 73
     9
  0
VERTEX
  5
B7D
  8
0
 10
0.0
 20
0.0
 30
0.0
 70
   128
 71
    14
 72
    13
 73
     9
  0
SEQEND
  5
F7A
  8
0
  0
POLYLINE
  5
B7E
  8
0
 66
     1
 10
0.0
 20
0.0
 30
0.0
 70
    64
 71
    11
 72
     9
  0
VERTEX
  5
B7F
  8
0
 10
261.575796569034
 20
112.1599926891512
 30
285.2911371095512
 70
   192
  0
VERTEX
  5
B80
  8
0
 10
261.5757934262719
 20
68.14513489658266
 30
285.291143078265
 70
   192
  0
VERTEX
  5
B81
  8
0
 10
261.5757902835098
 20
24.13027710401391
 30
285.2911465271757
 70
   192
  0
VERTEX
  5
B82
  8
0
 10
261.5757871407481
 20
-19.88458068855498
 30
285.2911495691627
 70
   192
  0
VERTEX
  5
B83
  8
0
 10
261.5757871407482
 20
-19.88458098607243
 30
289.6313981103184
 70
   192
  0
VERTEX
  5
B84
  8
0
 10
261.5757871849051
 20
-19.26615151429414
 30
292.2943675260709
 70
   192
  0
VERTEX
  5
B85
  8
0
 10
261.5757873125292
 20
-17.47875516172289
 30
294.3554170041244
 70
   192
  0
VERTEX
  5
B86
  8
0
 10
261.5757874977591
 20
-14.88458062906639
 30
295.1566514851373
 70
   192
  0
VERTEX
  5
B87
  8
0
 10
261.5757905215174
 20
27.46361047700196
 30
295.1566499066755
 70
   192
  0
VERTEX
  5
B88
  8
0
 10
261.5757935452757
 20
69.81180158307042
 30
295.1566488157163
 70
   192
  0
VERTEX
  5
B89
  8
0
 10
261.5757965690339
 20
112.159992689139
 30
295.1566479685084
 70
   192
  0
VERTEX
  5
B8A
  8
0
 10
0.0
 20
0.0
 30
0.0
 70
   128
 71
     7
 72
     8
 73
    -9
  0
VERTEX
  5
B8B
  8
0
 10
0.0
 20
0.0
 30
0.0
 70
   128
 71
     6
 72
    -7
 73
    -9
  0
VERTEX
  5
B8C
  8
0
 10
0.0
 20
0.0
 30
0.0
 70
   128
 71
     5
 72
    -6
 73
    -9
  0
VERTEX
  5
B8D
  8
0
 10
0.0
 20
0.0
 30
0.0
 70
   128
 71
     4
 72
    -5
 73
    -9
  0
VERTEX
  5
B8E
  8
0
 10
0.0
 20
0.0
 30
0.0
 70
   128
 71
     3
 72
    -4
 73
    -9
  0
VERTEX
  5
B8F
  8
0
 10
0.0
 20
0.0
 30
0.0
 70
   128
 71
   -10
 72
     2
 73
    -3
  0
VERTEX
  5
B90
  8
0
 10
0.0
 20
0.0
 30
0.0
 70
   128
 71
     9
 72
   -10
 73
    -3
  0
VERTEX
  5
B91
  8
0
 10
0.0
 20
0.0
 30
0.0
 70
   128
 71
    11
 72
     1
 73
    -2
  0
VERTEX
  5
B92
  8
0
 10
0.0
 20
0.0
 30
0.0
 70
   128
 71
    10
 72
   -11
 73
    -2
  0
SEQEND
  5
F7B
  8
0
  0
POLYLINE
  5
B93
  8
0
 66
     1
 10
0.0
 20
0.0
 30
0.0
 70
    64
 71
    12
 72
    10
  0
VERTEX
  5
B94
  8
0
 10
268.6962790032534
 20
-14.88458098608375
 30
299.6847527233912
 70
   192
  0
VERTEX
  5
B95
  8
0
 10
265.5612676641182
 20
-14.88458084626341
 30
300.0526542775435
 70
   192
  0
VERTEX
  5
B96
  8
0
 10
262.5721501319887
 20
-14.88458069639077
 30
298.1517985868826
 70
   192
  0
VERTEX
  5
B97
  8
0
 10
261.5757874977591
 20
-14.88458062906639
 30
295.1566514851373
 70
   192
  0
VERTEX
  5
B98
  8
0
 10
261.5757873125292
 20
-17.47875516172289
 30
294.3554170041244
 70
   192
  0
VERTEX
  5
B99
  8
0
 10
261.5757871849051
 20
-19.26615151429414
 30
292.2943675260709
 70
   192
  0
VERTEX
  5
B9A
  8
0
 10
261.5757871407479
 20
-19.88458062906023
 30
289.6313981103184
 70
   192
  0
VERTEX
  5
B9B
  8
0
 10
262.2456600028209
 20
-22.38458077994952
 30
289.6313981103081
 70
   192
  0
VERTEX
  5
B9C
  8
0
 10
264.0757870376843
 20
-24.21470794549027
 30
289.6313981103058
 70
   192
  0
VERTEX
  5
B9D
  8
0
 10
266.5757871407424
 20
-24.88458098607168
 30
289.631398110305
 70
   192
  0
VERTEX
  5
B9E
  8
0
 10
267.6119202421879
 20
-23.61925918333687
 30
294.5255128430416
 70
   192
  0
VERTEX
  5
B9F
  8
0
 10
268.3985475978262
 20
-20.01147613642153
 30
298.2623848772106
 70
   192
  0
VERTEX
  5
BA0
  8
0
 10
0.0
 20
0.0
 30
0.0
 70
   128
 71
     6
 72
     7
 73
     8
  0
VERTEX
  5
BA1
  8
0
 10
0.0
 20
0.0
 30
0.0
 70
   128
 71
     9
 72
    11
 73
     6
  0
VERTEX
  5
BA2
  8
0
 10
0.0
 20
0.0
 30
0.0
 70
   128
 71
     8
 72
     9
 73
     6
  0
VERTEX
  5
BA3
  8
0
 10
0.0
 20
0.0
 30
0.0
 70
   128
 71
     9
 72
    10
 73
    11
  0
VERTEX
  5
BA4
  8
0
 10
0.0
 20
0.0
 30
0.0
 70
   128
 71
    12
 72
     5
 73
     6
  0
VERTEX
  5
BA5
  8
0
 10
0.0
 20
0.0
 30
0.0
 70
   128
 71
    11
 72
    12
 73
     6
  0
VERTEX
  5
BA6
  8
0
 10
0.0
 20
0.0
 30
0.0
 70
   128
 71
    12
 72
     1
 73
     2
  0
VERTEX
  5
BA7
  8
0
 10
0.0
 20
0.0
 30
0.0
 70
   128
 71
     3
 72
     5
 73
    12
  0
VERTEX
  5
BA8
  8
0
 10
0.0
 20
0.0
 30
0.0
 70
   128
 71
     2
 72
     3
 73
    12
  0
VERTEX
  5
BA9
  8
0
 10
0.0
 20
0.0
 30
0.0
 70
   128
 71
     3
 72
     4
 73
     5
  0
SEQEND
  5
F7C
  8
0
  0
POLYLINE
  5
BAA
  8
0
 66
     1
 10
0.0
 20
0.0
 30
0.0
 70
    64
 71
    30
 72
    28
  0
VERTEX
  5
BAB
  8
0
 10
-268.697584342007
 20
27.46361068876157
 30
299.684754906184
 70
   192
  0
VERTEX
  5
BAC
  8
0
 10
-289.0281977664811
 20
-14.8845809860717
 30
289.7844968923353
 70
   192
  0
VERTEX
  5
BAD
  8
0
 10
-282.2850850958121
 20
-14.88458098607578
 30
293.1527676838835
 70
   192
  0
VERTEX
  5
BAE
  8
0
 10
-275.5080329852627
 20
-14.8845809860798
 30
296.4530710420412
 70
   192
  0
VERTEX
  5
BAF
  8
0
 10
-268.6975867788264
 20
-14.88458098608375
 30
299.6847683079444
 70
   192
  0
VERTEX
  5
BB0
  8
0
 10
-268.6975855279403
 20
69.81180236360689
 30
299.6847489929344
 70
   192
  0
VERTEX
  5
BB1
  8
0
 10
-196.8690595034404
 20
190.1154190138807
 30
328.7640429617981
 70
   192
  0
VERTEX
  5
BB2
  8
0
 10
-223.3865355427764
 20
157.1599975594981
 30
319.073878160166
 70
   192
  0
VERTEX
  5
BB3
  8
0
 10
-150.7635336210794
 20
157.1599975027057
 30
342.769318030576
 70
   192
  0
VERTEX
  5
BB4
  8
0
 10
-75.93378758706434
 20
157.1599975138187
 30
357.8388766825672
 70
   192
  0
VERTEX
  5
BB5
  8
0
 10
-99.6898735853501
 20
190.1154190138498
 30
354.0906123588434
 70
   192
  0
VERTEX
  5
BB6
  8
0
 10
-268.6975886676657
 20
112.1599940384522
 30
299.6847467572478
 70
   192
  0
VERTEX
  5
BB7
  8
0
 10
-289.0282090830134
 20
190.1154190139284
 30
289.7845192644018
 70
   192
  0
VERTEX
  5
BB8
  8
0
 10
-262.2376776474339
 20
135.3190964865271
 30
302.6720957768037
 70
   192
  0
VERTEX
  5
BB9
  8
0
 10
-245.472140259241
 20
151.4538123322325
 30
310.0761557573794
 70
   192
  0
VERTEX
  5
BBA
  8
0
 10
75.9324592759886
 20
157.1599975766495
 30
357.8388752151075
 70
   192
  0
VERTEX
  5
BBB
  8
0
 10
99.688534589348
 20
190.1154190138498
 30
354.0906123588433
 70
   192
  0
VERTEX
  5
BBC
  8
0
 10
-0.000669498001038
 20
190.1154190138387
 30
363.1203340301637
 70
   192
  0
VERTEX
  5
BBD
  8
0
 10
-0.0006694963351483
 20
157.1599976023797
 30
363.1203340301234
 70
   192
  0
VERTEX
  5
BBE
  8
0
 10
196.8677205074389
 20
190.1154190138807
 30
328.7640429617977
 70
   192
  0
VERTEX
  5
BBF
  8
0
 10
223.3852267141794
 20
157.1599961247568
 30
319.073866408245
 70
   192
  0
VERTEX
  5
BC0
  8
0
 10
245.4707936519899
 20
151.4538291382723
 30
310.0761585924416
 70
   192
  0
VERTEX
  5
BC1
  8
0
 10
289.02685877048
 20
190.1154190139283
 30
289.7844968925857
 70
   192
  0
VERTEX
  5
BC2
  8
0
 10
262.2363471594084
 20
135.3191319805443
 30
302.6720935801808
 70
   192
  0
VERTEX
  5
BC3
  8
0
 10
268.6962786143188
 20
112.1599923321213
 30
299.6847332035301
 70
   192
  0
VERTEX
  5
BC4
  8
0
 10
268.6962790032534
 20
-14.88458098608375
 30
299.6847527233912
 70
   192
  0
VERTEX
  5
BC5
  8
0
 10
275.5067139215721
 20
-14.8845809860798
 30
296.4530614086935
 70
   192
  0
VERTEX
  5
BC6
  8
0
 10
282.2837559823865
 20
-14.88458098607578
 30
293.1527628094231
 70
   192
  0
VERTEX
  5
BC7
  8
0
 10
289.0268557256293
 20
-14.88458098607165
 30
289.7844908727478
 70
   192
  0
VERTEX
  5
BC8
  8
0
 10
150.7622155219759
 20
157.1599971935665
 30
342.7693124841184
 70
   192
  0
VERTEX
  5
BC9
  8
0
 10
0.0
 20
0.0
 30
0.0
 70
   128
 71
     1
 72
     2
 73
     3
  0
VERTEX
  5
BCA
  8
0
 10
0.0
 20
0.0
 30
0.0
 70
   128
 71
     3
 72
     4
 73
     1
  0
VERTEX
  5
BCB
  8
0
 10
0.0
 20
0.0
 30
0.0
 70
   128
 71
     4
 72
     5
 73
     1
  0
VERTEX
  5
BCC
  8
0
 10
0.0
 20
0.0
 30
0.0
 70
   128
 71
     1
 72
     6
 73
     2
  0
VERTEX
  5
BCD
  8
0
 10
0.0
 20
0.0
 30
0.0
 70
   128
 71
     7
 72
     8
 73
     9
  0
VERTEX
  5
BCE
  8
0
 10
0.0
 20
0.0
 30
0.0
 70
   128
 71
    10
 72
    11
 73
     7
  0
VERTEX
  5
BCF
  8
0
 10
0.0
 20
0.0
 30
0.0
 70
   128
 71
     9
 72
    10
 73
     7
  0
VERTEX
  5
BD0
  8
0
 10
0.0
 20
0.0
 30
0.0
 70
   128
 71
     2
 72
     6
 73
    12
  0
VERTEX
  5
BD1
  8
0
 10
0.0
 20
0.0
 30
0.0
 70
   128
 71
    13
 72
     2
 73
    12
  0
VERTEX
  5
BD2
  8
0
 10
0.0
 20
0.0
 30
0.0
 70
   128
 71
    12
 72
    14
 73
    13
  0
VERTEX
  5
BD3
  8
0
 10
0.0
 20
0.0
 30
0.0
 70
   128
 71
    14
 72
    15
 73
    13
  0
VERTEX
  5
BD4
  8
0
 10
0.0
 20
0.0
 30
0.0
 70
   128
 71
     8
 72
     7
 73
    13
  0
VERTEX
  5
BD5
  8
0
 10
0.0
 20
0.0
 30
0.0
 70
   128
 71
    15
 72
     8
 73
    13
  0
VERTEX
  5
BD6
  8
0
 10
0.0
 20
0.0
 30
0.0
 70
   128
 71
    16
 72
    17
 73
    18
  0
VERTEX
  5
BD7
  8
0
 10
0.0
 20
0.0
 30
0.0
 70
   128
 71
    19
 72
    16
 73
    18
  0
VERTEX
  5
BD8
  8
0
 10
0.0
 20
0.0
 30
0.0
 70
   128
 71
    20
 72
    21
 73
    22
  0
VERTEX
  5
BD9
  8
0
 10
0.0
 20
0.0
 30
0.0
 70
   128
 71
    23
 72
    20
 73
    22
  0
VERTEX
  5
BDA
  8
0
 10
0.0
 20
0.0
 30
0.0
 70
   128
 71
    22
 72
    24
 73
    23
  0
VERTEX
  5
BDB
  8
0
 10
0.0
 20
0.0
 30
0.0
 70
   128
 71
    24
 72
    25
 73
    23
  0
VERTEX
  5
BDC
  8
0
 10
0.0
 20
0.0
 30
0.0
 70
   128
 71
    26
 72
    27
 73
    23
  0
VERTEX
  5
BDD
  8
0
 10
0.0
 20
0.0
 30
0.0
 70
   128
 71
    25
 72
    26
 73
    23
  0
VERTEX
  5
BDE
  8
0
 10
0.0
 20
0.0
 30
0.0
 70
   128
 71
    27
 72
    28
 73
    23
  0
VERTEX
  5
BDF
  8
0
 10
0.0
 20
0.0
 30
0.0
 70
   128
 71
    28
 72
    29
 73
    23
  0
VERTEX
  5
BE0
  8
0
 10
0.0
 20
0.0
 30
0.0
 70
   128
 71
    17
 72
    16
 73
    30
  0
VERTEX
  5
BE1
  8
0
 10
0.0
 20
0.0
 30
0.0
 70
   128
 71
    20
 72
    17
 73
    30
  0
VERTEX
  5
BE2
  8
0
 10
0.0
 20
0.0
 30
0.0
 70
   128
 71
    30
 72
    21
 73
    20
  0
VERTEX
  5
BE3
  8
0
 10
0.0
 20
0.0
 30
0.0
 70
   128
 71
    18
 72
    11
 73
    10
  0
VERTEX
  5
BE4
  8
0
 10
0.0
 20
0.0
 30
0.0
 70
   128
 71
    19
 72
    18
 73
    10
  0
SEQEND
  5
F7D
  8
0
  0
POLYLINE
  5
BE5
  8
0
 66
     1
 10
0.0
 20
0.0
 30
0.0
 70
    64
 71
     8
 72
     6
  0
VERTEX
  5
BE6
  8
0
 10
294.8358613418796
 20
190.1154190139338
 30
285.3493068279004
 70
   192
  0
VERTEX
  5
BE7
  8
0
 10
294.8359346974652
 20
-14.88458098606623
 30
285.3493825430796
 70
   192
  0
VERTEX
  5
BE8
  8
0
 10
298.6638086074433
 20
-14.8845809860586
 30
279.1233639011646
 70
   192
  0
VERTEX
  5
BE9
  8
0
 10
298.6637079330396
 20
190.1154190139413
 30
279.1233326199103
 70
   192
  0
VERTEX
  5
BEA
  8
0
 10
289.0268700870127
 20
190.1154190139283
 30
289.7845192644002
 70
   192
  0
VERTEX
  5
BEB
  8
0
 10
289.02685877048
 20
-14.88458098607165
 30
289.7844968923353
 70
   192
  0
VERTEX
  5
BEC
  8
0
 10
299.9993305019989
 20
-14.88458098604967
 30
271.9378239989981
 70
   192
  0
VERTEX
  5
BED
  8
0
 10
299.9993305019989
 20
190.1154190139501
 30
271.9378239992486
 70
   192
  0
VERTEX
  5
BEE
  8
0
 10
0.0
 20
0.0
 30
0.0
 70
   128
 71
     1
 72
     2
 73
    -3
  0
VERTEX
  5
BEF
  8
0
 10
0.0
 20
0.0
 30
0.0
 70
   128
 71
    -1
 72
     3
 73
     4
  0
VERTEX
  5
BF0
  8
0
 10
0.0
 20
0.0
 30
0.0
 70
   128
 71
     5
 72
     6
 73
     2
  0
VERTEX
  5
BF1
  8
0
 10
0.0
 20
0.0
 30
0.0
 70
   128
 71
     5
 72
     2
 73
     1
  0
VERTEX
  5
BF2
  8
0
 10
0.0
 20
0.0
 30
0.0
 70
   128
 71
     4
 72
     3
 73
     7
  0
VERTEX
  5
BF3
  8
0
 10
0.0
 20
0.0
 30
0.0
 70
   128
 71
     4
 72
     7
 73
     8
  0
SEQEND
  5
F7E
  8
0
  0
POLYLINE
  5
BF4
  8
0
 66
     1
 10
0.0
 20
0.0
 30
0.0
 70
    64
 71
     4
 72
     2
  0
VERTEX
  5
BF5
  8
0
 10
299.9993305019989
 20
-14.88458098553829
 30
-146.879665970088
 70
   192
  0
VERTEX
  5
BF6
  8
0
 10
299.9993305019989
 20
190.1154190144617
 30
-146.8796659698376
 70
   192
  0
VERTEX
  5
BF7
  8
0
 10
299.9993305019989
 20
190.1154190139501
 30
271.9378239992483
 70
   192
  0
VERTEX
  5
BF8
  8
0
 10
299.9993305019989
 20
-14.88458098604967
 30
271.9378239989983
 70
   192
  0
VERTEX
  5
BF9
  8
0
 10
0.0
 20
0.0
 30
0.0
 70
   128
 71
     3
 72
     4
 73
    -1
  0
VERTEX
  5
BFA
  8
0
 10
0.0
 20
0.0
 30
0.0
 70
   128
 71
     2
 72
    -3
 73
     1
  0
SEQEND
  5
F7F
  8
0
  0
POLYLINE
  5
BFB
  8
0
 66
     1
 10
0.0
 20
0.0
 30
0.0
 70
    64
 71
     8
 72
     6
  0
VERTEX
  5
BFC
  8
0
 10
289.9989469594331
 20
-14.88458098551718
 30
-164.1996473640731
 70
   192
  0
VERTEX
  5
BFD
  8
0
 10
289.9993013349929
 20
190.1154190144792
 30
-164.2001203267328
 70
   192
  0
VERTEX
  5
BFE
  8
0
 10
297.3197848588956
 20
190.1154190144702
 30
-156.87963680283
 70
   192
  0
VERTEX
  5
BFF
  8
0
 10
297.3193118959858
 20
-14.8845809855261
 30
-156.8792824275201
 70
   192
  0
VERTEX
  5
C00
  8
0
 10
279.9993305019783
 20
-14.88458098551415
 30
-166.8796659700658
 70
   192
  0
VERTEX
  5
C01
  8
0
 10
279.9993305019989
 20
190.1154190144869
 30
-166.879665969836
 70
   192
  0
VERTEX
  5
C02
  8
0
 10
299.9993305019989
 20
190.1154190144617
 30
-146.8796659698367
 70
   192
  0
VERTEX
  5
C03
  8
0
 10
299.9993305019989
 20
-14.88458098553829
 30
-146.879665970088
 70
   192
  0
VERTEX
  5
C04
  8
0
 10
0.0
 20
0.0
 30
0.0
 70
   128
 71
     1
 72
     2
 73
    -3
  0
VERTEX
  5
C05
  8
0
 10
0.0
 20
0.0
 30
0.0
 70
   128
 71
    -1
 72
     3
 73
     4
  0
VERTEX
  5
C06
  8
0
 10
0.0
 20
0.0
 30
0.0
 70
   128
 71
     5
 72
     6
 73
     2
  0
VERTEX
  5
C07
  8
0
 10
0.0
 20
0.0
 30
0.0
 70
   128
 71
     5
 72
     2
 73
     1
  0
VERTEX
  5
C08
  8
0
 10
0.0
 20
0.0
 30
0.0
 70
   128
 71
     4
 72
     3
 73
     7
  0
VERTEX
  5
C09
  8
0
 10
0.0
 20
0.0
 30
0.0
 70
   128
 71
     4
 72
     7
 73
     8
  0
SEQEND
  5
F80
  8
0
  0
POLYLINE
  5
C0A
  8
0
 66
     1
 10
0.0
 20
0.0
 30
0.0
 70
    64
 71
     4
 72
     2
  0
VERTEX
  5
C0B
  8
0
 10
-280.0006694980011
 20
-14.88458098551392
 30
-166.8796659700864
 70
   192
  0
VERTEX
  5
C0C
  8
0
 10
-280.0006694980011
 20
190.1154190144861
 30
-166.879665969836
 70
   192
  0
VERTEX
  5
C0D
  8
0
 10
279.9993305019989
 20
190.1154190144861
 30
-166.879665969836
 70
   192
  0
VERTEX
  5
C0E
  8
0
 10
279.9993305019989
 20
-14.88458098551415
 30
-166.8796659700864
 70
   192
  0
VERTEX
  5
C0F
  8
0
 10
0.0
 20
0.0
 30
0.0
 70
   128
 71
     3
 72
     4
 73
    -1
  0
VERTEX
  5
C10
  8
0
 10
0.0
 20
0.0
 30
0.0
 70
   128
 71
     2
 72
    -3
 73
     1
  0
SEQEND
  5
F81
  8
0
  0
POLYLINE
  5
C11
  8
0
 66
     1
 10
0.0
 20
0.0
 30
0.0
 70
    64
 71
     8
 72
     6
  0
VERTEX
  5
C12
  8
0
 10
-297.320650891988
 20
-14.8845809855261
 30
-156.8792824275202
 70
   192
  0
VERTEX
  5
C13
  8
0
 10
-297.321123854898
 20
190.1154190144739
 30
-156.8796368028298
 70
   192
  0
VERTEX
  5
C14
  8
0
 10
-290.0006403309951
 20
190.1154190144828
 30
-164.2001203267324
 70
   192
  0
VERTEX
  5
C15
  8
0
 10
-290.0002859554351
 20
-14.88458098551715
 30
-164.1996473640733
 70
   192
  0
VERTEX
  5
C16
  8
0
 10
-300.0006694980013
 20
-14.88458098553946
 30
-146.8796659700864
 70
   192
  0
VERTEX
  5
C17
  8
0
 10
-300.0006694980011
 20
190.1154190144617
 30
-146.879665969836
 70
   192
  0
VERTEX
  5
C18
  8
0
 10
-280.0006694980011
 20
190.1154190144861
 30
-166.8796659698359
 70
   192
  0
VERTEX
  5
C19
  8
0
 10
-280.0006694980011
 20
-14.88458098551392
 30
-166.8796659700864
 70
   192
  0
VERTEX
  5
C1A
  8
0
 10
0.0
 20
0.0
 30
0.0
 70
   128
 71
     1
 72
     2
 73
    -3
  0
VERTEX
  5
C1B
  8
0
 10
0.0
 20
0.0
 30
0.0
 70
   128
 71
    -1
 72
     3
 73
     4
  0
VERTEX
  5
C1C
  8
0
 10
0.0
 20
0.0
 30
0.0
 70
   128
 71
     5
 72
     6
 73
     2
  0
VERTEX
  5
C1D
  8
0
 10
0.0
 20
0.0
 30
0.0
 70
   128
 71
     5
 72
     2
 73
     1
  0
VERTEX
  5
C1E
  8
0
 10
0.0
 20
0.0
 30
0.0
 70
   128
 71
     4
 72
     3
 73
     7
  0
VERTEX
  5
C1F
  8
0
 10
0.0
 20
0.0
 30
0.0
 70
   128
 71
     4
 72
     7
 73
     8
  0
SEQEND
  5
F82
  8
0
  0
POLYLINE
  5
C20
  8
0
 66
     1
 10
0.0
 20
0.0
 30
0.0
 70
    64
 71
     4
 72
     2
  0
VERTEX
  5
C21
  8
0
 10
-300.0006694980011
 20
-14.88458098604983
 30
271.9378239989983
 70
   192
  0
VERTEX
  5
C22
  8
0
 10
-300.0006694980011
 20
190.1154190139501
 30
271.9378239992486
 70
   192
  0
VERTEX
  5
C23
  8
0
 10
-300.0006694980011
 20
190.1154190144616
 30
-146.879665969836
 70
   192
  0
VERTEX
  5
C24
  8
0
 10
-300.0006694980011
 20
-14.88458098553946
 30
-146.8796659700864
 70
   192
  0
VERTEX
  5
C25
  8
0
 10
0.0
 20
0.0
 30
0.0
 70
   128
 71
     3
 72
     4
 73
    -1
  0
VERTEX
  5
C26
  8
0
 10
0.0
 20
0.0
 30
0.0
 70
   128
 71
     2
 72
    -3
 73
     1
  0
SEQEND
  5
F83
  8
0
  0
POLYLINE
  5
C27
  8
0
 66
     1
 10
0.0
 20
0.0
 30
0.0
 70
    64
 71
     8
 72
     6
  0
VERTEX
  5
C28
  8
0
 10
-294.8372736934668
 20
-14.88458098606622
 30
285.3493825430794
 70
   192
  0
VERTEX
  5
C29
  8
0
 10
-294.8372003379084
 20
190.1154190139337
 30
285.349306827875
 70
   192
  0
VERTEX
  5
C2A
  8
0
 10
-298.6650469290577
 20
190.1154190139413
 30
279.1233326198792
 70
   192
  0
VERTEX
  5
C2B
  8
0
 10
-298.6651476034459
 20
-14.88458098605863
 30
279.1233639011646
 70
   192
  0
VERTEX
  5
C2C
  8
0
 10
-289.0281947216297
 20
-14.8845809860717
 30
289.7844908727486
 70
   192
  0
VERTEX
  5
C2D
  8
0
 10
-289.0281977664811
 20
190.1154190139284
 30
289.7844968925857
 70
   192
  0
VERTEX
  5
C2E
  8
0
 10
-300.0006694980009
 20
190.1154190139501
 30
271.9378239992481
 70
   192
  0
VERTEX
  5
C2F
  8
0
 10
-300.0006694980011
 20
-14.88458098604983
 30
271.9378239989983
 70
   192
  0
VERTEX
  5
C30
  8
0
 10
0.0
 20
0.0
 30
0.0
 70
   128
 71
     1
 72
     2
 73
    -3
  0
VERTEX
  5
C31
  8
0
 10
0.0
 20
0.0
 30
0.0
 70
   128
 71
    -1
 72
     3
 73
     4
  0
VERTEX
  5
C32
  8
0
 10
0.0
 20
0.0
 30
0.0
 70
   128
 71
     5
 72
     6
 73
     2
  0
VERTEX
  5
C33
  8
0
 10
0.0
 20
0.0
 30
0.0
 70
   128
 71
     5
 72
     2
 73
     1
  0
VERTEX
  5
C34
  8
0
 10
0.0
 20
0.0
 30
0.0
 70
   128
 71
     4
 72
     3
 73
     7
  0
VERTEX
  5
C35
  8
0
 10
0.0
 20
0.0
 30
0.0
 70
   128
 71
     4
 72
     7
 73
     8
  0
SEQEND
  5
F84
  8
0
  0
POLYLINE
  5
C36
  8
0
 66
     1
 10
0.0
 20
0.0
 30
0.0
 70
    64
 71
    12
 72
    10
  0
VERTEX
  5
C37
  8
0
 10
-266.5770963541308
 20
-24.88458098226071
 30
289.6315912703552
 70
   192
  0
VERTEX
  5
C38
  8
0
 10
-264.0772291413248
 20
-24.21450328142645
 30
289.6316360441556
 70
   192
  0
VERTEX
  5
C39
  8
0
 10
-262.2471738583564
 20
-22.38444785173892
 30
289.6316808180865
 70
   192
  0
VERTEX
  5
C3A
  8
0
 10
-261.57709635413
 20
-19.88458058523895
 30
289.6317255920181
 70
   192
  0
VERTEX
  5
C3B
  8
0
 10
-261.5770964037025
 20
-19.26621817785487
 30
292.2937237596798
 70
   192
  0
VERTEX
  5
C3C
  8
0
 10
-261.5770965468774
 20
-17.48024124542204
 30
294.354069895544
 70
   192
  0
VERTEX
  5
C3D
  8
0
 10
-261.5770967549621
 20
-14.88458058524589
 30
295.156665451163
 70
   192
  0
VERTEX
  5
C3E
  8
0
 10
-262.5736155433351
 20
-14.88458066066448
 30
298.1518084328975
 70
   192
  0
VERTEX
  5
C3F
  8
0
 10
-265.5625068886067
 20
-14.88458082892008
 30
300.0525160744661
 70
   192
  0
VERTEX
  5
C40
  8
0
 10
-268.6975867788264
 20
-14.88458098608375
 30
299.6847683079444
 70
   192
  0
VERTEX
  5
C41
  8
0
 10
-268.399844642059
 20
-20.01177594511054
 30
298.2622736056457
 70
   192
  0
VERTEX
  5
C42
  8
0
 10
-267.6223104600102
 20
-23.5932696498425
 30
294.5721828427721
 70
   192
  0
VERTEX
  5
C43
  8
0
 10
0.0
 20
0.0
 30
0.0
 70
   128
 71
     6
 72
     7
 73
     8
  0
VERTEX
  5
C44
  8
0
 10
0.0
 20
0.0
 30
0.0
 70
   128
 71
     9
 72
    11
 73
     6
  0
VERTEX
  5
C45
  8
0
 10
0.0
 20
0.0
 30
0.0
 70
   128
 71
     8
 72
     9
 73
     6
  0
VERTEX
  5
C46
  8
0
 10
0.0
 20
0.0
 30
0.0
 70
   128
 71
     9
 72
    10
 73
    11
  0
VERTEX
  5
C47
  8
0
 10
0.0
 20
0.0
 30
0.0
 70
   128
 71
    12
 72
     5
 73
     6
  0
VERTEX
  5
C48
  8
0
 10
0.0
 20
0.0
 30
0.0
 70
   128
 71
    11
 72
    12
 73
     6
  0
VERTEX
  5
C49
  8
0
 10
0.0
 20
0.0
 30
0.0
 70
   128
 71
    12
 72
     1
 73
     2
  0
VERTEX
  5
C4A
  8
0
 10
0.0
 20
0.0
 30
0.0
 70
   128
 71
     3
 72
     5
 73
    12
  0
VERTEX
  5
C4B
  8
0
 10
0.0
 20
0.0
 30
0.0
 70
   128
 71
     2
 72
     3
 73
    12
  0
VERTEX
  5
C4C
  8
0
 10
0.0
 20
0.0
 30
0.0
 70
   128
 71
     3
 72
     4
 73
     5
  0
SEQEND
  5
F85
  8
0
  0
POLYLINE
  5
C4D
  8
0
 66
     1
 10
0.0
 20
0.0
 30
0.0
 70
    64
 71
     9
 72
     7
  0
VERTEX
  5
C4E
  8
0
 10
-261.577106939682
 20
112.1599944392907
 30
295.1566613736344
 70
   192
  0
VERTEX
  5
C4F
  8
0
 10
-261.5770967549624
 20
-14.88458058524589
 30
295.1566661429383
 70
   192
  0
VERTEX
  5
C50
  8
0
 10
-261.5770965468774
 20
-17.48024124542204
 30
294.354069895544
 70
   192
  0
VERTEX
  5
C51
  8
0
 10
-261.5770964037025
 20
-19.26621817785487
 30
292.2937237596798
 70
   192
  0
VERTEX
  5
C52
  8
0
 10
-261.57709635413
 20
-19.88458058523895
 30
289.6317255920181
 70
   192
  0
VERTEX
  5
C53
  8
0
 10
-261.57709635413
 20
-19.88458058523365
 30
285.2911571536313
 70
   192
  0
VERTEX
  5
C54
  8
0
 10
-261.5770998826472
 20
24.13027775628018
 30
285.2911536636908
 70
   192
  0
VERTEX
  5
C55
  8
0
 10
-261.5771034111647
 20
68.14513609779195
 30
285.2911501508267
 70
   192
  0
VERTEX
  5
C56
  8
0
 10
-261.5771069396822
 20
112.1599944393033
 30
285.2911460648783
 70
   192
  0
VERTEX
  5
C57
  8
0
 10
0.0
 20
0.0
 30
0.0
 70
   128
 71
     5
 72
     6
 73
    -7
  0
VERTEX
  5
C58
  8
0
 10
0.0
 20
0.0
 30
0.0
 70
   128
 71
     4
 72
    -5
 73
    -7
  0
VERTEX
  5
C59
  8
0
 10
0.0
 20
0.0
 30
0.0
 70
   128
 71
     3
 72
    -4
 73
    -7
  0
VERTEX
  5
C5A
  8
0
 10
0.0
 20
0.0
 30
0.0
 70
   128
 71
     2
 72
    -3
 73
    -7
  0
VERTEX
  5
C5B
  8
0
 10
0.0
 20
0.0
 30
0.0
 70
   128
 71
    -8
 72
     1
 73
    -2
  0
VERTEX
  5
C5C
  8
0
 10
0.0
 20
0.0
 30
0.0
 70
   128
 71
     7
 72
    -8
 73
    -2
  0
VERTEX
  5
C5D
  8
0
 10
0.0
 20
0.0
 30
0.0
 70
   128
 71
     8
 72
     9
 73
    -1
  0
SEQEND
  5
F86
  8
0
  0
POLYLINE
  5
C5E
  8
0
 66
     1
 10
0.0
 20
0.0
 30
0.0
 70
    64
 71
     8
 72
     6
  0
VERTEX
  5
C5F
  8
0
 10
-255.8968380017871
 20
132.7064206339888
 30
298.1120498306382
 70
   192
  0
VERTEX
  5
C60
  8
0
 10
-261.5771069396823
 20
112.1599944392908
 30
295.1566631524848
 70
   192
  0
VERTEX
  5
C61
  8
0
 10
-261.5771069396822
 20
112.1599944393033
 30
285.2911460648783
 70
   192
  0
VERTEX
  5
C62
  8
0
 10
-255.8450864762383
 20
132.7926887897031
 30
287.8721512907547
 70
   192
  0
VERTEX
  5
C63
  8
0
 10
-241.2408336296238
 20
146.9929987480651
 30
305.3969720820847
 70
   192
  0
VERTEX
  5
C64
  8
0
 10
-241.0646676720348
 20
147.0922533162771
 30
294.2577103227016
 70
   192
  0
VERTEX
  5
C65
  8
0
 10
-221.5771069396821
 20
152.1599976459283
 30
314.4127717659258
 70
   192
  0
VERTEX
  5
C66
  8
0
 10
-221.577106939682
 20
152.1599976459435
 30
302.0912778432631
 70
   192
  0
VERTEX
  5
C67
  8
0
 10
0.0
 20
0.0
 30
0.0
 70
   128
 71
     1
 72
     2
 73
     3
  0
VERTEX
  5
C68
  8
0
 10
0.0
 20
0.0
 30
0.0
 70
   128
 71
     4
 72
     1
 73
     3
  0
VERTEX
  5
C69
  8
0
 10
0.0
 20
0.0
 30
0.0
 70
   128
 71
     5
 72
     1
 73
     4
  0
VERTEX
  5
C6A
  8
0
 10
0.0
 20
0.0
 30
0.0
 70
   128
 71
     6
 72
     5
 73
     4
  0
VERTEX
  5
C6B
  8
0
 10
0.0
 20
0.0
 30
0.0
 70
   128
 71
     7
 72
     5
 73
     6
  0
VERTEX
  5
C6C
  8
0
 10
0.0
 20
0.0
 30
0.0
 70
   128
 71
     8
 72
     7
 73
     6
  0
SEQEND
  5
F87
  8
0
  0
POLYLINE
  5
C6D
  8
0
 66
     1
 10
0.0
 20
0.0
 30
0.0
 70
    64
 71
    13
 72
    11
  0
VERTEX
  5
C6E
  8
0
 10
221.5757962850462
 20
152.159995545209
 30
314.4127600119442
 70
   192
  0
VERTEX
  5
C6F
  8
0
 10
149.6035766778079
 20
152.1599958831281
 30
337.9037469121612
 70
   192
  0
VERTEX
  5
C70
  8
0
 10
75.42410389652754
 20
152.1599962314236
 30
352.8617750292642
 70
   192
  0
VERTEX
  5
C71
  8
0
 10
-0.0006694971841359
 20
152.1599976458749
 30
358.1203338647638
 70
   192
  0
VERTEX
  5
C72
  8
0
 10
-75.424947089925
 20
152.1599969397438
 30
352.8618390417437
 70
   192
  0
VERTEX
  5
C73
  8
0
 10
-149.6044334793769
 20
152.159997288076
 30
337.9038784164052
 70
   192
  0
VERTEX
  5
C74
  8
0
 10
-221.5771055096835
 20
152.1599976430894
 30
314.4127717659258
 70
   192
  0
VERTEX
  5
C75
  8
0
 10
-221.5771069396821
 20
152.1599976459283
 30
314.4127717659258
 70
   192
  0
VERTEX
  5
C76
  8
0
 10
-221.5771069396821
 20
152.1599976459433
 30
302.0912778432631
 70
   192
  0
VERTEX
  5
C77
  8
0
 10
-0.4806637921041652
 20
152.1599965878477
 30
345.4379294154886
 70
   192
  0
VERTEX
  5
C78
  8
0
 10
112.6103320429179
 20
152.1599960568367
 30
333.9626008688834
 70
   192
  0
VERTEX
  5
C79
  8
0
 10
221.5757977587018
 20
152.1599955452226
 30
302.091267984645
 70
   192
  0
VERTEX
  5
C7A
  8
0
 10
221.5757977587019
 20
152.1599955452073
 30
314.4127600119442
 70
   192
  0
VERTEX
  5
C7B
  8
0
 10
0.0
 20
0.0
 30
0.0
 70
   128
 71
    12
 72
    13
 73
    -1
  0
VERTEX
  5
C7C
  8
0
 10
0.0
 20
0.0
 30
0.0
 70
   128
 71
     5
 72
     6
 73
    -7
  0
VERTEX
  5
C7D
  8
0
 10
0.0
 20
0.0
 30
0.0
 70
   128
 71
     4
 72
    -5
 73
    -7
  0
VERTEX
  5
C7E
  8
0
 10
0.0
 20
0.0
 30
0.0
 70
   128
 71
   -10
 72
    -4
 73
    -7
  0
VERTEX
  5
C7F
  8
0
 10
0.0
 20
0.0
 30
0.0
 70
   128
 71
     9
 72
   -10
 73
    -7
  0
VERTEX
  5
C80
  8
0
 10
0.0
 20
0.0
 30
0.0
 70
   128
 71
     7
 72
     8
 73
    -9
  0
VERTEX
  5
C81
  8
0
 10
0.0
 20
0.0
 30
0.0
 70
   128
 71
     2
 72
     3
 73
    -4
  0
VERTEX
  5
C82
  8
0
 10
0.0
 20
0.0
 30
0.0
 70
   128
 71
   -11
 72
    -2
 73
    -4
  0
VERTEX
  5
C83
  8
0
 10
0.0
 20
0.0
 30
0.0
 70
   128
 71
    10
 72
   -11
 73
    -4
  0
VERTEX
  5
C84
  8
0
 10
0.0
 20
0.0
 30
0.0
 70
   128
 71
   -12
 72
     1
 73
    -2
  0
VERTEX
  5
C85
  8
0
 10
0.0
 20
0.0
 30
0.0
 70
   128
 71
    11
 72
   -12
 73
    -2
  0
SEQEND
  5
F88
  8
0
  0
POLYLINE
  5
C86
  8
0
 66
     1
 10
0.0
 20
0.0
 30
0.0
 70
    64
 71
     8
 72
     6
  0
VERTEX
  5
C87
  8
0
 10
241.2395332985825
 20
146.9930168807539
 30
305.3969429367599
 70
   192
  0
VERTEX
  5
C88
  8
0
 10
221.5757962850462
 20
152.159995545209
 30
314.4127600119442
 70
   192
  0
VERTEX
  5
C89
  8
0
 10
221.5757977587018
 20
152.1599955452226
 30
302.091267984645
 70
   192
  0
VERTEX
  5
C8A
  8
0
 10
241.0709671383009
 20
147.0880110624605
 30
294.2545100243178
 70
   192
  0
VERTEX
  5
C8B
  8
0
 10
255.8955615313883
 20
132.7063747908442
 30
298.1120261495388
 70
   192
  0
VERTEX
  5
C8C
  8
0
 10
255.8811041664129
 20
132.7312904588659
 30
287.85554468218
 70
   192
  0
VERTEX
  5
C8D
  8
0
 10
261.5757965690339
 20
112.1599926891388
 30
295.1566479685084
 70
   192
  0
VERTEX
  5
C8E
  8
0
 10
261.575796569034
 20
112.1599926891512
 30
285.2911371095512
 70
   192
  0
VERTEX
  5
C8F
  8
0
 10
0.0
 20
0.0
 30
0.0
 70
   128
 71
     1
 72
     2
 73
     3
  0
VERTEX
  5
C90
  8
0
 10
0.0
 20
0.0
 30
0.0
 70
   128
 71
     4
 72
     1
 73
     3
  0
VERTEX
  5
C91
  8
0
 10
0.0
 20
0.0
 30
0.0
 70
   128
 71
     5
 72
     1
 73
     4
  0
VERTEX
  5
C92
  8
0
 10
0.0
 20
0.0
 30
0.0
 70
   128
 71
     5
 72
     4
 73
     6
  0
VERTEX
  5
C93
  8
0
 10
0.0
 20
0.0
 30
0.0
 70
   128
 71
     7
 72
     5
 73
     6
  0
VERTEX
  5
C94
  8
0
 10
0.0
 20
0.0
 30
0.0
 70
   128
 71
     8
 72
     7
 73
     6
  0
SEQEND
  5
F89
  8
0
  0
POLYLINE
  5
C95
  8
0
 66
     1
 10
0.0
 20
0.0
 30
0.0
 70
    64
 71
    12
 72
    10
  0
VERTEX
  5
C96
  8
0
 10
44.999330501999
 20
5.115419014294464
 30
-9.980705027377482
 70
   192
  0
VERTEX
  5
C97
  8
0
 10
38.97035280501729
 20
5.115419014267011
 30
12.51922934685842
 70
   192
  0
VERTEX
  5
C98
  8
0
 10
22.49926487623572
 20
5.115419014246893
 30
28.99031727563997
 70
   192
  0
VERTEX
  5
C99
  8
0
 10
-0.000669498001038
 20
5.115419014239508
 30
35.01929497262272
 70
   192
  0
VERTEX
  5
C9A
  8
0
 10
-0.0006694980067941
 20
10.00583577889561
 30
36.29669078340333
 70
   192
  0
VERTEX
  5
C9B
  8
0
 10
-0.0006694980240677
 20
13.8380232053977
 30
40.12887821143423
 70
   192
  0
VERTEX
  5
C9C
  8
0
 10
-0.000669498046113
 20
15.1154190142273
 30
45.01929497659992
 70
   192
  0
VERTEX
  5
C9D
  8
0
 10
27.4992891114962
 20
15.11541901423631
 30
37.65061590132035
 70
   192
  0
VERTEX
  5
C9E
  8
0
 10
47.63069837769841
 20
15.11541901426091
 30
17.51927681432549
 70
   192
  0
VERTEX
  5
C9F
  8
0
 10
54.99933050398187
 20
15.11541901429447
 30
-9.980705027342356
 70
   192
  0
VERTEX
  5
CA0
  8
0
 10
49.99933050359119
 20
13.77567305215458
 30
-9.980705027355441
 70
   192
  0
VERTEX
  5
CA1
  8
0
 10
46.33907646513033
 20
10.11541901441949
 30
-9.980705027368293
 70
   192
  0
VERTEX
  5
CA2
  8
0
 10
0.0
 20
0.0
 30
0.0
 70
   128
 71
     6
 72
     7
 73
     8
  0
VERTEX
  5
CA3
  8
0
 10
0.0
 20
0.0
 30
0.0
 70
   128
 71
     9
 72
    11
 73
     6
  0
VERTEX
  5
CA4
  8
0
 10
0.0
 20
0.0
 30
0.0
 70
   128
 71
     8
 72
     9
 73
     6
  0
VERTEX
  5
CA5
  8
0
 10
0.0
 20
0.0
 30
0.0
 70
   128
 71
     9
 72
    10
 73
    11
  0
VERTEX
  5
CA6
  8
0
 10
0.0
 20
0.0
 30
0.0
 70
   128
 71
    12
 72
     5
 73
     6
  0
VERTEX
  5
CA7
  8
0
 10
0.0
 20
0.0
 30
0.0
 70
   128
 71
    11
 72
    12
 73
     6
  0
VERTEX
  5
CA8
  8
0
 10
0.0
 20
0.0
 30
0.0
 70
   128
 71
    12
 72
     1
 73
     2
  0
VERTEX
  5
CA9
  8
0
 10
0.0
 20
0.0
 30
0.0
 70
   128
 71
     3
 72
     5
 73
    12
  0
VERTEX
  5
CAA
  8
0
 10
0.0
 20
0.0
 30
0.0
 70
   128
 71
     2
 72
     3
 73
    12
  0
VERTEX
  5
CAB
  8
0
 10
0.0
 20
0.0
 30
0.0
 70
   128
 71
     3
 72
     4
 73
     5
  0
SEQEND
  5
F8A
  8
0
  0
POLYLINE
  5
CAC
  8
0
 66
     1
 10
0.0
 20
0.0
 30
0.0
 70
    64
 71
    12
 72
    10
  0
VERTEX
  5
CAD
  8
0
 10
-45.00066949800097
 20
5.115419014294464
 30
-9.980705027377482
 70
   192
  0
VERTEX
  5
CAE
  8
0
 10
-38.97169180101963
 20
5.11541901432197
 30
-32.48063940161462
 70
   192
  0
VERTEX
  5
CAF
  8
0
 10
-22.50060387223802
 20
5.115419014342091
 30
-48.95172733039656
 70
   192
  0
VERTEX
  5
CB0
  8
0
 10
-0.000669498001038
 20
5.11541901434942
 30
-54.98070502737745
 70
   192
  0
VERTEX
  5
CB1
  8
0
 10
-0.0006694979951649
 20
10.00583577900865
 30
-56.25810083814606
 70
   192
  0
VERTEX
  5
CB2
  8
0
 10
-0.0006694979775509
 20
13.83802320552008
 30
-60.09028826616756
 70
   192
  0
VERTEX
  5
CB3
  8
0
 10
-0.0006694979550748
 20
15.11541901436164
 30
-64.98070503133013
 70
   192
  0
VERTEX
  5
CB4
  8
0
 10
-27.50062810750184
 20
15.11541901435265
 30
-57.6120259554866
 70
   192
  0
VERTEX
  5
CB5
  8
0
 10
-47.63203737432924
 20
15.11541901432806
 30
-37.48068686912582
 70
   192
  0
VERTEX
  5
CB6
  8
0
 10
-55.00066950196525
 20
15.11541901429447
 30
-9.980705027410956
 70
   192
  0
VERTEX
  5
CB7
  8
0
 10
-50.00066950109918
 20
13.77567305231719
 30
-9.98070502738974
 70
   192
  0
VERTEX
  5
CB8
  8
0
 10
-46.34041546195994
 20
10.1154190146293
 30
-9.980705027377484
 70
   192
  0
VERTEX
  5
CB9
  8
0
 10
0.0
 20
0.0
 30
0.0
 70
   128
 71
     6
 72
     7
 73
     8
  0
VERTEX
  5
CBA
  8
0
 10
0.0
 20
0.0
 30
0.0
 70
   128
 71
     9
 72
    11
 73
     6
  0
VERTEX
  5
CBB
  8
0
 10
0.0
 20
0.0
 30
0.0
 70
   128
 71
     8
 72
     9
 73
     6
  0
VERTEX
  5
CBC
  8
0
 10
0.0
 20
0.0
 30
0.0
 70
   128
 71
     9
 72
    10
 73
    11
  0
VERTEX
  5
CBD
  8
0
 10
0.0
 20
0.0
 30
0.0
 70
   128
 71
    12
 72
     5
 73
     6
  0
VERTEX
  5
CBE
  8
0
 10
0.0
 20
0.0
 30
0.0
 70
   128
 71
    11
 72
    12
 73
     6
  0
VERTEX
  5
CBF
  8
0
 10
0.0
 20
0.0
 30
0.0
 70
   128
 71
    12
 72
     1
 73
     2
  0
VERTEX
  5
CC0
  8
0
 10
0.0
 20
0.0
 30
0.0
 70
   128
 71
     3
 72
     5
 73
    12
  0
VERTEX
  5
CC1
  8
0
 10
0.0
 20
0.0
 30
0.0
 70
   128
 71
     2
 72
     3
 73
    12
  0
VERTEX
  5
CC2
  8
0
 10
0.0
 20
0.0
 30
0.0
 70
   128
 71
     3
 72
     4
 73
     5
  0
SEQEND
  5
F8B
  8
0
  0
POLYLINE
  5
CC3
  8
0
 66
     1
 10
0.0
 20
0.0
 30
0.0
 70
    64
 71
    10
 72
     8
  0
VERTEX
  5
CC4
  8
0
 10
268.6962790032534
 20
-14.88458098608375
 30
299.6847527233912
 70
   192
  0
VERTEX
  5
CC5
  8
0
 10
268.6962786143188
 20
112.1599923321213
 30
299.6847332035301
 70
   192
  0
VERTEX
  5
CC6
  8
0
 10
265.4280098868763
 20
112.1599924773946
 30
300.0231236678475
 70
   192
  0
VERTEX
  5
CC7
  8
0
 10
262.6554054271459
 20
112.1599926164116
 30
298.2599580230478
 70
   192
  0
VERTEX
  5
CC8
  8
0
 10
261.5757965690339
 20
112.1599926891388
 30
295.1566479685084
 70
   192
  0
VERTEX
  5
CC9
  8
0
 10
261.5757935452757
 20
69.81180158307042
 30
295.1566488157163
 70
   192
  0
VERTEX
  5
CCA
  8
0
 10
261.5757905215174
 20
27.46361047700196
 30
295.1566499066755
 70
   192
  0
VERTEX
  5
CCB
  8
0
 10
261.5757874977591
 20
-14.88458062906639
 30
295.1566514851373
 70
   192
  0
VERTEX
  5
CCC
  8
0
 10
262.5721501319887
 20
-14.88458069639077
 30
298.1517985868826
 70
   192
  0
VERTEX
  5
CCD
  8
0
 10
265.5612676641182
 20
-14.88458084626341
 30
300.0526542775435
 70
   192
  0
VERTEX
  5
CCE
  8
0
 10
0.0
 20
0.0
 30
0.0
 70
   128
 71
     4
 72
     5
 73
     6
  0
VERTEX
  5
CCF
  8
0
 10
0.0
 20
0.0
 30
0.0
 70
   128
 71
     6
 72
     7
 73
     4
  0
VERTEX
  5
CD0
  8
0
 10
0.0
 20
0.0
 30
0.0
 70
   128
 71
     7
 72
     9
 73
     4
  0
VERTEX
  5
CD1
  8
0
 10
0.0
 20
0.0
 30
0.0
 70
   128
 71
     7
 72
     8
 73
     9
  0
VERTEX
  5
CD2
  8
0
 10
0.0
 20
0.0
 30
0.0
 70
   128
 71
    10
 72
     3
 73
     4
  0
VERTEX
  5
CD3
  8
0
 10
0.0
 20
0.0
 30
0.0
 70
   128
 71
     9
 72
    10
 73
     4
  0
VERTEX
  5
CD4
  8
0
 10
0.0
 20
0.0
 30
0.0
 70
   128
 71
     1
 72
     2
 73
     3
  0
VERTEX
  5
CD5
  8
0
 10
0.0
 20
0.0
 30
0.0
 70
   128
 71
    10
 72
     1
 73
     3
  0
SEQEND
  5
F8C
  8
0
  0
POLYLINE
  5
CD6
  8
0
 66
     1
 10
0.0
 20
0.0
 30
0.0
 70
    64
 71
    13
 72
    11
  0
VERTEX
  5
CD7
  8
0
 10
-268.6975886676658
 20
112.1599940384523
 30
299.684746757248
 70
   192
  0
VERTEX
  5
CD8
  8
0
 10
-265.4293206072974
 20
112.1599942026617
 30
300.0231371554702
 70
   192
  0
VERTEX
  5
CD9
  8
0
 10
-262.6567164613502
 20
112.1599943587419
 30
298.2599722664399
 70
   192
  0
VERTEX
  5
CDA
  8
0
 10
-261.5771069396824
 20
112.1599944392908
 30
295.1566631524848
 70
   192
  0
VERTEX
  5
CDB
  8
0
 10
-255.8968380017871
 20
132.7064206339888
 30
298.1120498306382
 70
   192
  0
VERTEX
  5
CDC
  8
0
 10
-241.2408336296238
 20
146.9929987480651
 30
305.3969720820847
 70
   192
  0
VERTEX
  5
CDD
  8
0
 10
-221.5771055096835
 20
152.1599976430894
 30
314.4127717659258
 70
   192
  0
VERTEX
  5
CDE
  8
0
 10
-221.5771049940173
 20
152.159997470298
 30
314.4127719661062
 70
   192
  0
VERTEX
  5
CDF
  8
0
 10
-222.4818211744119
 20
152.8298705128011
 30
316.7433273970749
 70
   192
  0
VERTEX
  5
CE0
  8
0
 10
-223.1441193844378
 20
154.6599975534407
 30
318.449412381205
 70
   192
  0
VERTEX
  5
CE1
  8
0
 10
-223.3865373643784
 20
157.159997559498
 30
319.0738828526228
 70
   192
  0
VERTEX
  5
CE2
  8
0
 10
-245.472140259241
 20
151.4538123322325
 30
310.0761557573794
 70
   192
  0
VERTEX
  5
CE3
  8
0
 10
-262.2376776474339
 20
135.3190964865271
 30
302.6720957768037
 70
   192
  0
VERTEX
  5
CE4
  8
0
 10
0.0
 20
0.0
 30
0.0
 70
   128
 71
     9
 72
     6
 73
     7
  0
VERTEX
  5
CE5
  8
0
 10
0.0
 20
0.0
 30
0.0
 70
   128
 71
     7
 72
     8
 73
     9
  0
VERTEX
  5
CE6
  8
0
 10
0.0
 20
0.0
 30
0.0
 70
   128
 71
    10
 72
    12
 73
     6
  0
VERTEX
  5
CE7
  8
0
 10
0.0
 20
0.0
 30
0.0
 70
   128
 71
     9
 72
    10
 73
     6
  0
VERTEX
  5
CE8
  8
0
 10
0.0
 20
0.0
 30
0.0
 70
   128
 71
    10
 72
    11
 73
    12
  0
VERTEX
  5
CE9
  8
0
 10
0.0
 20
0.0
 30
0.0
 70
   128
 71
    13
 72
     5
 73
     6
  0
VERTEX
  5
CEA
  8
0
 10
0.0
 20
0.0
 30
0.0
 70
   128
 71
    12
 72
    13
 73
     6
  0
VERTEX
  5
CEB
  8
0
 10
0.0
 20
0.0
 30
0.0
 70
   128
 71
    13
 72
     1
 73
     2
  0
VERTEX
  5
CEC
  8
0
 10
0.0
 20
0.0
 30
0.0
 70
   128
 71
     3
 72
     5
 73
    13
  0
VERTEX
  5
CED
  8
0
 10
0.0
 20
0.0
 30
0.0
 70
   128
 71
     2
 72
     3
 73
    13
  0
VERTEX
  5
CEE
  8
0
 10
0.0
 20
0.0
 30
0.0
 70
   128
 71
     3
 72
     4
 73
     5
  0
SEQEND
  5
F8D
  8
0
  0
POLYLINE
  5
CEF
  8
0
 66
     1
 10
0.0
 20
0.0
 30
0.0
 70
    64
 71
    11
 72
     9
  0
VERTEX
  5
CF0
  8
0
 10
-268.6975886676657
 20
112.1599940384522
 30
299.6847467572478
 70
   192
  0
VERTEX
  5
CF1
  8
0
 10
-268.6975855279403
 20
69.81180236360689
 30
299.6847489929344
 70
   192
  0
VERTEX
  5
CF2
  8
0
 10
-268.697584342007
 20
27.46361068876157
 30
299.684754906184
 70
   192
  0
VERTEX
  5
CF3
  8
0
 10
-268.6975867788264
 20
-14.88458098608375
 30
299.6847683079444
 70
   192
  0
VERTEX
  5
CF4
  8
0
 10
-265.5625068886067
 20
-14.88458082892008
 30
300.0525160744661
 70
   192
  0
VERTEX
  5
CF5
  8
0
 10
-262.5736155433351
 20
-14.88458066066448
 30
298.1518084328975
 70
   192
  0
VERTEX
  5
CF6
  8
0
 10
-261.5770967549621
 20
-14.88458058524589
 30
295.156665451163
 70
   192
  0
VERTEX
  5
CF7
  8
0
 10
-261.577106939682
 20
112.1599944392907
 30
295.1566613736344
 70
   192
  0
VERTEX
  5
CF8
  8
0
 10
-261.5771069396824
 20
112.1599944392908
 30
295.1566631524848
 70
   192
  0
VERTEX
  5
CF9
  8
0
 10
-262.6567164613502
 20
112.1599943587419
 30
298.2599722664399
 70
   192
  0
VERTEX
  5
CFA
  8
0
 10
-265.4293206072974
 20
112.1599942026617
 30
300.0231371554702
 70
   192
  0
VERTEX
  5
CFB
  8
0
 10
0.0
 20
0.0
 30
0.0
 70
   128
 71
     7
 72
     8
 73
     9
  0
VERTEX
  5
CFC
  8
0
 10
0.0
 20
0.0
 30
0.0
 70
   128
 71
    10
 72
     6
 73
     7
  0
VERTEX
  5
CFD
  8
0
 10
0.0
 20
0.0
 30
0.0
 70
   128
 71
     9
 72
    10
 73
     7
  0
VERTEX
  5
CFE
  8
0
 10
0.0
 20
0.0
 30
0.0
 70
   128
 71
    11
 72
     5
 73
     6
  0
VERTEX
  5
CFF
  8
0
 10
0.0
 20
0.0
 30
0.0
 70
   128
 71
    10
 72
    11
 73
     6
  0
VERTEX
  5
D00
  8
0
 10
0.0
 20
0.0
 30
0.0
 70
   128
 71
    11
 72
     1
 73
     2
  0
VERTEX
  5
D01
  8
0
 10
0.0
 20
0.0
 30
0.0
 70
   128
 71
     2
 72
     3
 73
    11
  0
VERTEX
  5
D02
  8
0
 10
0.0
 20
0.0
 30
0.0
 70
   128
 71
     3
 72
     5
 73
    11
  0
VERTEX
  5
D03
  8
0
 10
0.0
 20
0.0
 30
0.0
 70
   128
 71
     3
 72
     4
 73
     5
  0
SEQEND
  5
F8E
  8
0
  0
POLYLINE
  5
D04
  8
0
 66
     1
 10
0.0
 20
0.0
 30
0.0
 70
    64
 71
    12
 72
    10
  0
VERTEX
  5
D05
  8
0
 10
-289.0282090830134
 20
190.1154190139284
 30
289.7845192644018
 70
   192
  0
VERTEX
  5
D06
  8
0
 10
-196.8690595034404
 20
190.1154190138807
 30
328.7640429617981
 70
   192
  0
VERTEX
  5
D07
  8
0
 10
-99.6898735853501
 20
190.1154190138498
 30
354.0906123588434
 70
   192
  0
VERTEX
  5
D08
  8
0
 10
-0.000669498001038
 20
190.1154190138387
 30
363.1203340301637
 70
   192
  0
VERTEX
  5
D09
  8
0
 10
-0.0006694980009663
 20
192.5606273958939
 30
362.4816361256803
 70
   192
  0
VERTEX
  5
D0A
  8
0
 10
-0.0006694980007961
 20
194.4767211093555
 30
360.5655424122234
 70
   192
  0
VERTEX
  5
D0B
  8
0
 10
-0.0006694980005939
 20
195.1154190138448
 30
358.1203340301699
 70
   192
  0
VERTEX
  5
D0C
  8
0
 10
-98.98201155960666
 20
195.1154190138559
 30
349.1381823048498
 70
   192
  0
VERTEX
  5
D0D
  8
0
 10
-195.1860213186116
 20
195.1154190138865
 30
324.0554611546917
 70
   192
  0
VERTEX
  5
D0E
  8
0
 10
-286.771338838576
 20
195.1154190139338
 30
285.3228703725387
 70
   192
  0
VERTEX
  5
D0F
  8
0
 10
-287.8997793387355
 20
194.445547110442
 30
287.5537054501077
 70
   192
  0
VERTEX
  5
D10
  8
0
 10
-288.7258551177976
 20
192.6154196357427
 30
289.186790069525
 70
   192
  0
VERTEX
  5
D11
  8
0
 10
0.0
 20
0.0
 30
0.0
 70
   128
 71
     6
 72
     7
 73
     8
  0
VERTEX
  5
D12
  8
0
 10
0.0
 20
0.0
 30
0.0
 70
   128
 71
     8
 72
     9
 73
     6
  0
VERTEX
  5
D13
  8
0
 10
0.0
 20
0.0
 30
0.0
 70
   128
 71
     9
 72
    11
 73
     6
  0
VERTEX
  5
D14
  8
0
 10
0.0
 20
0.0
 30
0.0
 70
   128
 71
     9
 72
    10
 73
    11
  0
VERTEX
  5
D15
  8
0
 10
0.0
 20
0.0
 30
0.0
 70
   128
 71
    12
 72
     5
 73
     6
  0
VERTEX
  5
D16
  8
0
 10
0.0
 20
0.0
 30
0.0
 70
   128
 71
    11
 72
    12
 73
     6
  0
VERTEX
  5
D17
  8
0
 10
0.0
 20
0.0
 30
0.0
 70
   128
 71
    12
 72
     1
 73
     2
  0
VERTEX
  5
D18
  8
0
 10
0.0
 20
0.0
 30
0.0
 70
   128
 71
     2
 72
     3
 73
    12
  0
VERTEX
  5
D19
  8
0
 10
0.0
 20
0.0
 30
0.0
 70
   128
 71
     3
 72
     5
 73
    12
  0
VERTEX
  5
D1A
  8
0
 10
0.0
 20
0.0
 30
0.0
 70
   128
 71
     3
 72
     4
 73
     5
  0
SEQEND
  5
F8F
  8
0
  0
POLYLINE
  5
D1B
  8
0
 66
     1
 10
0.0
 20
0.0
 30
0.0
 70
    64
 71
    13
 72
    11
  0
VERTEX
  5
D1C
  8
0
 10
223.3852285396801
 20
157.1599961247573
 30
319.0738711107433
 70
   192
  0
VERTEX
  5
D1D
  8
0
 10
223.1428105377063
 20
154.6599957922913
 30
318.4494008581016
 70
   192
  0
VERTEX
  5
D1E
  8
0
 10
222.4805121689833
 20
152.8298684713368
 30
316.7433158349189
 70
   192
  0
VERTEX
  5
D1F
  8
0
 10
221.5757957720659
 20
152.159995370073
 30
314.4127602110821
 70
   192
  0
VERTEX
  5
D20
  8
0
 10
221.5757962850462
 20
152.159995545209
 30
314.4127600119442
 70
   192
  0
VERTEX
  5
D21
  8
0
 10
241.2395332985825
 20
146.9930168807539
 30
305.3969429367599
 70
   192
  0
VERTEX
  5
D22
  8
0
 10
255.8955615313883
 20
132.7063747908442
 30
298.1120261495388
 70
   192
  0
VERTEX
  5
D23
  8
0
 10
261.5757965690339
 20
112.159992689139
 30
295.1566479685084
 70
   192
  0
VERTEX
  5
D24
  8
0
 10
262.6554054271459
 20
112.1599926164116
 30
298.2599580230478
 70
   192
  0
VERTEX
  5
D25
  8
0
 10
265.4280098868763
 20
112.1599924773946
 30
300.0231236678475
 70
   192
  0
VERTEX
  5
D26
  8
0
 10
268.6962786143187
 20
112.1599923321213
 30
299.6847332035297
 70
   192
  0
VERTEX
  5
D27
  8
0
 10
262.2363471594084
 20
135.3191319805443
 30
302.6720935801808
 70
   192
  0
VERTEX
  5
D28
  8
0
 10
245.4707936519899
 20
151.4538291382723
 30
310.0761585924416
 70
   192
  0
VERTEX
  5
D29
  8
0
 10
0.0
 20
0.0
 30
0.0
 70
   128
 71
     7
 72
     8
 73
     9
  0
VERTEX
  5
D2A
  8
0
 10
0.0
 20
0.0
 30
0.0
 70
   128
 71
    10
 72
    12
 73
     7
  0
VERTEX
  5
D2B
  8
0
 10
0.0
 20
0.0
 30
0.0
 70
   128
 71
     9
 72
    10
 73
     7
  0
VERTEX
  5
D2C
  8
0
 10
0.0
 20
0.0
 30
0.0
 70
   128
 71
    10
 72
    11
 73
    12
  0
VERTEX
  5
D2D
  8
0
 10
0.0
 20
0.0
 30
0.0
 70
   128
 71
    13
 72
     6
 73
     7
  0
VERTEX
  5
D2E
  8
0
 10
0.0
 20
0.0
 30
0.0
 70
   128
 71
    12
 72
    13
 73
     7
  0
VERTEX
  5
D2F
  8
0
 10
0.0
 20
0.0
 30
0.0
 70
   128
 71
     5
 72
     1
 73
     2
  0
VERTEX
  5
D30
  8
0
 10
0.0
 20
0.0
 30
0.0
 70
   128
 71
     2
 72
     3
 73
     5
  0
VERTEX
  5
D31
  8
0
 10
0.0
 20
0.0
 30
0.0
 70
   128
 71
     3
 72
     4
 73
     5
  0
VERTEX
  5
D32
  8
0
 10
0.0
 20
0.0
 30
0.0
 70
   128
 71
     6
 72
    13
 73
     1
  0
VERTEX
  5
D33
  8
0
 10
0.0
 20
0.0
 30
0.0
 70
   128
 71
     5
 72
     6
 73
     1
  0
SEQEND
  5
F90
  8
0
  0
POLYLINE
  5
D34
  8
0
 66
     1
 10
0.0
 20
0.0
 30
0.0
 70
    64
 71
    12
 72
    10
  0
VERTEX
  5
D35
  8
0
 10
-221.5771055096835
 20
152.1599976430894
 30
314.4127717659258
 70
   192
  0
VERTEX
  5
D36
  8
0
 10
-149.6044334793769
 20
152.159997288076
 30
337.9038784164052
 70
   192
  0
VERTEX
  5
D37
  8
0
 10
-75.424947089925
 20
152.1599969397438
 30
352.8618390417437
 70
   192
  0
VERTEX
  5
D38
  8
0
 10
-0.0006694971841359
 20
152.1599976458749
 30
358.1203338647638
 70
   192
  0
VERTEX
  5
D39
  8
0
 10
-0.0006694973708484
 20
152.798695544803
 30
360.5655423276837
 70
   192
  0
VERTEX
  5
D3A
  8
0
 10
-0.0006694970455005
 20
154.7147892415941
 30
362.4816361045119
 70
   192
  0
VERTEX
  5
D3B
  8
0
 10
-0.0006694963351483
 20
157.1599976023797
 30
363.1203340301234
 70
   192
  0
VERTEX
  5
D3C
  8
0
 10
-75.93378758706434
 20
157.1599975138187
 30
357.8388766825672
 70
   192
  0
VERTEX
  5
D3D
  8
0
 10
-150.7635336210794
 20
157.1599975027057
 30
342.769318030576
 70
   192
  0
VERTEX
  5
D3E
  8
0
 10
-223.3865355427764
 20
157.1599975594981
 30
319.073878160166
 70
   192
  0
VERTEX
  5
D3F
  8
0
 10
-223.1441193844378
 20
154.6599975534407
 30
318.449412381205
 70
   192
  0
VERTEX
  5
D40
  8
0
 10
-222.4818211744119
 20
152.8298705128011
 30
316.7433273970749
 70
   192
  0
VERTEX
  5
D41
  8
0
 10
0.0
 20
0.0
 30
0.0
 70
   128
 71
     6
 72
     7
 73
     8
  0
VERTEX
  5
D42
  8
0
 10
0.0
 20
0.0
 30
0.0
 70
   128
 71
     8
 72
     9
 73
     6
  0
VERTEX
  5
D43
  8
0
 10
0.0
 20
0.0
 30
0.0
 70
   128
 71
     9
 72
    11
 73
     6
  0
VERTEX
  5
D44
  8
0
 10
0.0
 20
0.0
 30
0.0
 70
   128
 71
     9
 72
    10
 73
    11
  0
VERTEX
  5
D45
  8
0
 10
0.0
 20
0.0
 30
0.0
 70
   128
 71
    12
 72
     5
 73
     6
  0
VERTEX
  5
D46
  8
0
 10
0.0
 20
0.0
 30
0.0
 70
   128
 71
    11
 72
    12
 73
     6
  0
VERTEX
  5
D47
  8
0
 10
0.0
 20
0.0
 30
0.0
 70
   128
 71
    12
 72
     1
 73
     2
  0
VERTEX
  5
D48
  8
0
 10
0.0
 20
0.0
 30
0.0
 70
   128
 71
     2
 72
     3
 73
    12
  0
VERTEX
  5
D49
  8
0
 10
0.0
 20
0.0
 30
0.0
 70
   128
 71
     3
 72
     5
 73
    12
  0
VERTEX
  5
D4A
  8
0
 10
0.0
 20
0.0
 30
0.0
 70
   128
 71
     3
 72
     4
 73
     5
  0
SEQEND
  5
F91
  8
0
  0
POLYLINE
  5
D4B
  8
0
 66
     1
 10
0.0
 20
0.0
 30
0.0
 70
    64
 71
    12
 72
    10
  0
VERTEX
  5
D4C
  8
0
 10
294.9993305019989
 20
195.1154190139503
 30
271.9378239992548
 70
   192
  0
VERTEX
  5
D4D
  8
0
 10
293.9976890813164
 20
195.1154190139436
 30
277.3269789254416
 70
   192
  0
VERTEX
  5
D4E
  8
0
 10
291.1267836483139
 20
195.1154190139379
 30
281.996492907722
 70
   192
  0
VERTEX
  5
D4F
  8
0
 10
286.769999840258
 20
195.1154190139337
 30
285.322870368212
 70
   192
  0
VERTEX
  5
D50
  8
0
 10
287.8984403410213
 20
194.4455471108581
 30
287.5537054468485
 70
   192
  0
VERTEX
  5
D51
  8
0
 10
288.7245161208624
 20
192.6154196363105
 30
289.1867900677141
 70
   192
  0
VERTEX
  5
D52
  8
0
 10
289.026880841677
 20
190.1154190139283
 30
289.7845405254614
 70
   192
  0
VERTEX
  5
D53
  8
0
 10
294.8358613418796
 20
190.1154190139338
 30
285.3493068279004
 70
   192
  0
VERTEX
  5
D54
  8
0
 10
298.6637079330396
 20
190.1154190139413
 30
279.1233326199103
 70
   192
  0
VERTEX
  5
D55
  8
0
 10
299.9993305019988
 20
190.1154190139501
 30
271.9378239992483
 70
   192
  0
VERTEX
  5
D56
  8
0
 10
299.329457520921
 20
192.6154190139503
 30
271.9378239992517
 70
   192
  0
VERTEX
  5
D57
  8
0
 10
297.4993305019989
 20
194.4455460328728
 30
271.937823999254
 70
   192
  0
VERTEX
  5
D58
  8
0
 10
0.0
 20
0.0
 30
0.0
 70
   128
 71
     6
 72
     7
 73
     8
  0
VERTEX
  5
D59
  8
0
 10
0.0
 20
0.0
 30
0.0
 70
   128
 71
     9
 72
    11
 73
     6
  0
VERTEX
  5
D5A
  8
0
 10
0.0
 20
0.0
 30
0.0
 70
   128
 71
     8
 72
     9
 73
     6
  0
VERTEX
  5
D5B
  8
0
 10
0.0
 20
0.0
 30
0.0
 70
   128
 71
     9
 72
    10
 73
    11
  0
VERTEX
  5
D5C
  8
0
 10
0.0
 20
0.0
 30
0.0
 70
   128
 71
    12
 72
     5
 73
     6
  0
VERTEX
  5
D5D
  8
0
 10
0.0
 20
0.0
 30
0.0
 70
   128
 71
    11
 72
    12
 73
     6
  0
VERTEX
  5
D5E
  8
0
 10
0.0
 20
0.0
 30
0.0
 70
   128
 71
    12
 72
     1
 73
     2
  0
VERTEX
  5
D5F
  8
0
 10
0.0
 20
0.0
 30
0.0
 70
   128
 71
     3
 72
     5
 73
    12
  0
VERTEX
  5
D60
  8
0
 10
0.0
 20
0.0
 30
0.0
 70
   128
 71
     2
 72
     3
 73
    12
  0
VERTEX
  5
D61
  8
0
 10
0.0
 20
0.0
 30
0.0
 70
   128
 71
     3
 72
     4
 73
     5
  0
SEQEND
  5
F92
  8
0
  0
POLYLINE
  5
D62
  8
0
 66
     1
 10
0.0
 20
0.0
 30
0.0
 70
    64
 71
     9
 72
     7
  0
VERTEX
  5
D63
  8
0
 10
294.9993305060617
 20
195.1154190144617
 30
-146.8796659698302
 70
   192
  0
VERTEX
  5
D64
  8
0
 10
294.9993305019989
 20
195.1154190144617
 30
-146.8796659697292
 70
   192
  0
VERTEX
  5
D65
  8
0
 10
294.9993305019989
 20
195.1154190139501
 30
271.9378239992548
 70
   192
  0
VERTEX
  5
D66
  8
0
 10
297.4993305043445
 20
194.4455460320296
 30
-146.8796659698308
 70
   192
  0
VERTEX
  5
D67
  8
0
 10
297.4993305019989
 20
194.4455460328728
 30
271.937823999254
 70
   192
  0
VERTEX
  5
D68
  8
0
 10
299.329457520921
 20
192.6154190139503
 30
271.9378239992517
 70
   192
  0
VERTEX
  5
D69
  8
0
 10
299.3294575215982
 20
192.6154190132888
 30
-146.8796659698331
 70
   192
  0
VERTEX
  5
D6A
  8
0
 10
299.9993305019984
 20
190.1154190139501
 30
271.9378239992487
 70
   192
  0
VERTEX
  5
D6B
  8
0
 10
299.9993305019989
 20
190.1154190144616
 30
-146.8796659698367
 70
   192
  0
VERTEX
  5
D6C
  8
0
 10
0.0
 20
0.0
 30
0.0
 70
   128
 71
     1
 72
     2
 73
     3
  0
VERTEX
  5
D6D
  8
0
 10
0.0
 20
0.0
 30
0.0
 70
   128
 71
     4
 72
     5
 73
    -6
  0
VERTEX
  5
D6E
  8
0
 10
0.0
 20
0.0
 30
0.0
 70
   128
 71
    -4
 72
     6
 73
     7
  0
VERTEX
  5
D6F
  8
0
 10
0.0
 20
0.0
 30
0.0
 70
   128
 71
     1
 72
     3
 73
    -5
  0
VERTEX
  5
D70
  8
0
 10
0.0
 20
0.0
 30
0.0
 70
   128
 71
    -1
 72
     5
 73
     4
  0
VERTEX
  5
D71
  8
0
 10
0.0
 20
0.0
 30
0.0
 70
   128
 71
     7
 72
     6
 73
    -8
  0
VERTEX
  5
D72
  8
0
 10
0.0
 20
0.0
 30
0.0
 70
   128
 71
    -7
 72
     8
 73
     9
  0
SEQEND
  5
F93
  8
0
  0
POLYLINE
  5
D73
  8
0
 66
     1
 10
0.0
 20
0.0
 30
0.0
 70
    64
 71
    12
 72
    10
  0
VERTEX
  5
D74
  8
0
 10
279.9993305019514
 20
195.1154190144583
 30
-161.8796659736197
 70
   192
  0
VERTEX
  5
D75
  8
0
 10
287.4990428438635
 20
195.1154190144776
 30
-159.8696520168386
 70
   192
  0
VERTEX
  5
D76
  8
0
 10
292.9893165494574
 20
195.1154190144708
 30
-154.3793783115946
 70
   192
  0
VERTEX
  5
D77
  8
0
 10
294.9993305060617
 20
195.1154190144617
 30
-146.8796659697292
 70
   192
  0
VERTEX
  5
D78
  8
0
 10
297.4993305043445
 20
194.4455460320296
 30
-146.8796659698308
 70
   192
  0
VERTEX
  5
D79
  8
0
 10
299.3294575215982
 20
192.6154190132888
 30
-146.8796659698331
 70
   192
  0
VERTEX
  5
D7A
  8
0
 10
299.9993305019989
 20
190.1154190144617
 30
-146.8796659698363
 70
   192
  0
VERTEX
  5
D7B
  8
0
 10
297.3197848588956
 20
190.1154190144702
 30
-156.87963680283
 70
   192
  0
VERTEX
  5
D7C
  8
0
 10
289.9993013349929
 20
190.1154190144792
 30
-164.2001203267328
 70
   192
  0
VERTEX
  5
D7D
  8
0
 10
279.9993305019989
 20
190.1154190144869
 30
-166.8796659698186
 70
   192
  0
VERTEX
  5
D7E
  8
0
 10
279.9993305019887
 20
192.6154190146298
 30
-166.2097929911344
 70
   192
  0
VERTEX
  5
D7F
  8
0
 10
279.9993305019609
 20
194.44554603389
 30
-164.3796659732566
 70
   192
  0
VERTEX
  5
D80
  8
0
 10
0.0
 20
0.0
 30
0.0
 70
   128
 71
     6
 72
     7
 73
     8
  0
VERTEX
  5
D81
  8
0
 10
0.0
 20
0.0
 30
0.0
 70
   128
 71
     9
 72
    11
 73
    -6
  0
VERTEX
  5
D82
  8
0
 10
0.0
 20
0.0
 30
0.0
 70
   128
 71
     8
 72
    -9
 73
     6
  0
VERTEX
  5
D83
  8
0
 10
0.0
 20
0.0
 30
0.0
 70
   128
 71
     9
 72
    10
 73
    11
  0
VERTEX
  5
D84
  8
0
 10
0.0
 20
0.0
 30
0.0
 70
   128
 71
    12
 72
     5
 73
    -6
  0
VERTEX
  5
D85
  8
0
 10
0.0
 20
0.0
 30
0.0
 70
   128
 71
    11
 72
   -12
 73
     6
  0
VERTEX
  5
D86
  8
0
 10
0.0
 20
0.0
 30
0.0
 70
   128
 71
    12
 72
     1
 73
     2
  0
VERTEX
  5
D87
  8
0
 10
0.0
 20
0.0
 30
0.0
 70
   128
 71
     3
 72
     5
 73
   -12
  0
VERTEX
  5
D88
  8
0
 10
0.0
 20
0.0
 30
0.0
 70
   128
 71
     2
 72
    -3
 73
    12
  0
VERTEX
  5
D89
  8
0
 10
0.0
 20
0.0
 30
0.0
 70
   128
 71
     3
 72
     4
 73
     5
  0
SEQEND
  5
F94
  8
0
  0
POLYLINE
  5
D8A
  8
0
 66
     1
 10
0.0
 20
0.0
 30
0.0
 70
    64
 71
     9
 72
     7
  0
VERTEX
  5
D8B
  8
0
 10
-280.0006694980011
 20
195.11541901448
 30
-161.8796659738925
 70
   192
  0
VERTEX
  5
D8C
  8
0
 10
-280.0006694978998
 20
195.11541901448
 30
-161.8796659698299
 70
   192
  0
VERTEX
  5
D8D
  8
0
 10
279.9993305019515
 20
195.11541901448
 30
-161.87966596983
 70
   192
  0
VERTEX
  5
D8E
  8
0
 10
-280.0006694980008
 20
194.4455460320511
 30
-164.3796659721763
 70
   192
  0
VERTEX
  5
D8F
  8
0
 10
279.9993305019609
 20
194.44554603389
 30
-164.3796659732566
 70
   192
  0
VERTEX
  5
D90
  8
0
 10
279.9993305019887
 20
192.6154190146298
 30
-166.2097929911344
 70
   192
  0
VERTEX
  5
D91
  8
0
 10
-280.0006694980008
 20
192.6154190133125
 30
-166.2097929894322
 70
   192
  0
VERTEX
  5
D92
  8
0
 10
279.9993305019989
 20
190.1154190144869
 30
-166.8796659697493
 70
   192
  0
VERTEX
  5
D93
  8
0
 10
-280.0006694980011
 20
190.1154190144861
 30
-166.879665969836
 70
   192
  0
VERTEX
  5
D94
  8
0
 10
0.0
 20
0.0
 30
0.0
 70
   128
 71
     1
 72
     2
 73
     3
  0
VERTEX
  5
D95
  8
0
 10
0.0
 20
0.0
 30
0.0
 70
   128
 71
     4
 72
     5
 73
    -6
  0
VERTEX
  5
D96
  8
0
 10
0.0
 20
0.0
 30
0.0
 70
   128
 71
    -4
 72
     6
 73
     7
  0
VERTEX
  5
D97
  8
0
 10
0.0
 20
0.0
 30
0.0
 70
   128
 71
     1
 72
     3
 73
    -5
  0
VERTEX
  5
D98
  8
0
 10
0.0
 20
0.0
 30
0.0
 70
   128
 71
    -1
 72
     5
 73
     4
  0
VERTEX
  5
D99
  8
0
 10
0.0
 20
0.0
 30
0.0
 70
   128
 71
     7
 72
     6
 73
    -8
  0
VERTEX
  5
D9A
  8
0
 10
0.0
 20
0.0
 30
0.0
 70
   128
 71
    -7
 72
     8
 73
     9
  0
SEQEND
  5
F95
  8
0
  0
POLYLINE
  5
D9B
  8
0
 66
     1
 10
0.0
 20
0.0
 30
0.0
 70
    64
 71
    12
 72
    10
  0
VERTEX
  5
D9C
  8
0
 10
-295.0006695017906
 20
195.1154190144399
 30
-146.8796659697825
 70
   192
  0
VERTEX
  5
D9D
  8
0
 10
-292.9906555450095
 20
195.1154190144709
 30
-154.3793783116944
 70
   192
  0
VERTEX
  5
D9E
  8
0
 10
-287.5003818397656
 20
195.1154190144776
 30
-159.8696520172877
 70
   192
  0
VERTEX
  5
D9F
  8
0
 10
-280.0006694978998
 20
195.11541901448
 30
-161.8796659738925
 70
   192
  0
VERTEX
  5
DA0
  8
0
 10
-280.0006694980008
 20
194.4455460320511
 30
-164.3796659721763
 70
   192
  0
VERTEX
  5
DA1
  8
0
 10
-280.0006694980008
 20
192.6154190133125
 30
-166.2097929894322
 70
   192
  0
VERTEX
  5
DA2
  8
0
 10
-280.0006694980011
 20
190.1154190144861
 30
-166.8796659698359
 70
   192
  0
VERTEX
  5
DA3
  8
0
 10
-290.0006403309951
 20
190.1154190144828
 30
-164.2001203267324
 70
   192
  0
VERTEX
  5
DA4
  8
0
 10
-297.321123854898
 20
190.1154190144739
 30
-156.8796368028298
 70
   192
  0
VERTEX
  5
DA5
  8
0
 10
-300.000669497984
 20
190.1154190144617
 30
-146.879665969836
 70
   192
  0
VERTEX
  5
DA6
  8
0
 10
-299.3307965193025
 20
192.6154190146056
 30
-146.8796659698228
 70
   192
  0
VERTEX
  5
DA7
  8
0
 10
-297.5006695014268
 20
194.4455460338683
 30
-146.8796659697927
 70
   192
  0
VERTEX
  5
DA8
  8
0
 10
0.0
 20
0.0
 30
0.0
 70
   128
 71
     6
 72
     7
 73
     8
  0
VERTEX
  5
DA9
  8
0
 10
0.0
 20
0.0
 30
0.0
 70
   128
 71
     9
 72
    11
 73
    -6
  0
VERTEX
  5
DAA
  8
0
 10
0.0
 20
0.0
 30
0.0
 70
   128
 71
     8
 72
    -9
 73
     6
  0
VERTEX
  5
DAB
  8
0
 10
0.0
 20
0.0
 30
0.0
 70
   128
 71
     9
 72
    10
 73
    11
  0
VERTEX
  5
DAC
  8
0
 10
0.0
 20
0.0
 30
0.0
 70
   128
 71
    12
 72
     5
 73
    -6
  0
VERTEX
  5
DAD
  8
0
 10
0.0
 20
0.0
 30
0.0
 70
   128
 71
    11
 72
   -12
 73
     6
  0
VERTEX
  5
DAE
  8
0
 10
0.0
 20
0.0
 30
0.0
 70
   128
 71
    12
 72
     1
 73
     2
  0
VERTEX
  5
DAF
  8
0
 10
0.0
 20
0.0
 30
0.0
 70
   128
 71
     3
 72
     5
 73
   -12
  0
VERTEX
  5
DB0
  8
0
 10
0.0
 20
0.0
 30
0.0
 70
   128
 71
     2
 72
    -3
 73
    12
  0
VERTEX
  5
DB1
  8
0
 10
0.0
 20
0.0
 30
0.0
 70
   128
 71
     3
 72
     4
 73
     5
  0
SEQEND
  5
F96
  8
0
  0
POLYLINE
  5
DB2
  8
0
 66
     1
 10
0.0
 20
0.0
 30
0.0
 70
    64
 71
     8
 72
     6
  0
VERTEX
  5
DB3
  8
0
 10
-297.5006694980373
 20
194.4455460328514
 30
271.9378239992529
 70
   192
  0
VERTEX
  5
DB4
  8
0
 10
-297.5006695014268
 20
194.4455460338683
 30
-146.8796659697927
 70
   192
  0
VERTEX
  5
DB5
  8
0
 10
-299.3307965193025
 20
192.6154190146056
 30
-146.8796659698228
 70
   192
  0
VERTEX
  5
DB6
  8
0
 10
-299.3307965169337
 20
192.615419013932
 30
271.9378239992507
 70
   192
  0
VERTEX
  5
DB7
  8
0
 10
-295.0006694980638
 20
195.1154190139501
 30
271.9378239992537
 70
   192
  0
VERTEX
  5
DB8
  8
0
 10
-295.0006694980009
 20
195.1154190144617
 30
-146.8796659697825
 70
   192
  0
VERTEX
  5
DB9
  8
0
 10
-300.0006694979144
 20
190.1154190144617
 30
-146.879665969836
 70
   192
  0
VERTEX
  5
DBA
  8
0
 10
-300.0006694980011
 20
190.1154190139501
 30
271.9378239992481
 70
   192
  0
VERTEX
  5
DBB
  8
0
 10
0.0
 20
0.0
 30
0.0
 70
   128
 71
     1
 72
     2
 73
    -3
  0
VERTEX
  5
DBC
  8
0
 10
0.0
 20
0.0
 30
0.0
 70
   128
 71
    -1
 72
     3
 73
     4
  0
VERTEX
  5
DBD
  8
0
 10
0.0
 20
0.0
 30
0.0
 70
   128
 71
     5
 72
     6
 73
    -2
  0
VERTEX
  5
DBE
  8
0
 10
0.0
 20
0.0
 30
0.0
 70
   128
 71
    -5
 72
     2
 73
     1
  0
VERTEX
  5
DBF
  8
0
 10
0.0
 20
0.0
 30
0.0
 70
   128
 71
     4
 72
     3
 73
    -7
  0
VERTEX
  5
DC0
  8
0
 10
0.0
 20
0.0
 30
0.0
 70
   128
 71
    -4
 72
     7
 73
     8
  0
SEQEND
  5
F97
  8
0
  0
POLYLINE
  5
DC1
  8
0
 66
     1
 10
0.0
 20
0.0
 30
0.0
 70
    64
 71
    12
 72
    10
  0
VERTEX
  5
DC2
  8
0
 10
-286.771338838576
 20
195.1154190139338
 30
285.3228703725387
 70
   192
  0
VERTEX
  5
DC3
  8
0
 10
-291.128122644719
 20
195.1154190139378
 30
281.9964929083903
 70
   192
  0
VERTEX
  5
DC4
  8
0
 10
-293.9990280773429
 20
195.1154190139435
 30
277.3269789254244
 70
   192
  0
VERTEX
  5
DC5
  8
0
 10
-295.0006694980638
 20
195.1154190139501
 30
271.937823999255
 70
   192
  0
VERTEX
  5
DC6
  8
0
 10
-297.5006694980373
 20
194.4455460328514
 30
271.9378239992529
 70
   192
  0
VERTEX
  5
DC7
  8
0
 10
-299.3307965169337
 20
192.615419013932
 30
271.9378239992507
 70
   192
  0
VERTEX
  5
DC8
  8
0
 10
-300.0006694980011
 20
190.1154190139501
 30
271.9378239992477
 70
   192
  0
VERTEX
  5
DC9
  8
0
 10
-298.6650469290577
 20
190.1154190139413
 30
279.1233326198792
 70
   192
  0
VERTEX
  5
DCA
  8
0
 10
-294.8372003379084
 20
190.1154190139337
 30
285.349306827875
 70
   192
  0
VERTEX
  5
DCB
  8
0
 10
-289.0282090830134
 20
190.1154190139284
 30
289.7845192644018
 70
   192
  0
VERTEX
  5
DCC
  8
0
 10
-288.7258551177976
 20
192.6154196357427
 30
289.186790069525
 70
   192
  0
VERTEX
  5
DCD
  8
0
 10
-287.8997793387355
 20
194.445547110442
 30
287.5537054501077
 70
   192
  0
VERTEX
  5
DCE
  8
0
 10
0.0
 20
0.0
 30
0.0
 70
   128
 71
     6
 72
     7
 73
     8
  0
VERTEX
  5
DCF
  8
0
 10
0.0
 20
0.0
 30
0.0
 70
   128
 71
     9
 72
    11
 73
     6
  0
VERTEX
  5
DD0
  8
0
 10
0.0
 20
0.0
 30
0.0
 70
   128
 71
     8
 72
     9
 73
     6
  0
VERTEX
  5
DD1
  8
0
 10
0.0
 20
0.0
 30
0.0
 70
   128
 71
     9
 72
    10
 73
    11
  0
VERTEX
  5
DD2
  8
0
 10
0.0
 20
0.0
 30
0.0
 70
   128
 71
    12
 72
     5
 73
     6
  0
VERTEX
  5
DD3
  8
0
 10
0.0
 20
0.0
 30
0.0
 70
   128
 71
    11
 72
    12
 73
     6
  0
VERTEX
  5
DD4
  8
0
 10
0.0
 20
0.0
 30
0.0
 70
   128
 71
    12
 72
     1
 73
     2
  0
VERTEX
  5
DD5
  8
0
 10
0.0
 20
0.0
 30
0.0
 70
   128
 71
     3
 72
     5
 73
    12
  0
VERTEX
  5
DD6
  8
0
 10
0.0
 20
0.0
 30
0.0
 70
   128
 71
     2
 72
     3
 73
    12
  0
VERTEX
  5
DD7
  8
0
 10
0.0
 20
0.0
 30
0.0
 70
   128
 71
     3
 72
     4
 73
     5
  0
SEQEND
  5
F98
  8
0
  0
POLYLINE
  5
DD8
  8
0
 66
     1
 10
0.0
 20
0.0
 30
0.0
 70
    64
 71
    30
 72
    30
  0
VERTEX
  5
DD9
  8
0
 10
264.999330501999
 20
15.11541901396149
 30
262.649054179089
 70
   192
  0
VERTEX
  5
DDA
  8
0
 10
264.999330501999
 20
15.11541901444336
 30
-131.8796659700462
 70
   192
  0
VERTEX
  5
DDB
  8
0
 10
-265.0006694979582
 20
15.11541901444335
 30
-131.8796659700498
 70
   192
  0
VERTEX
  5
DDC
  8
0
 10
-265.0006694980009
 20
15.11541901396149
 30
262.6490542011609
 70
   192
  0
VERTEX
  5
DDD
  8
0
 10
-214.6512082953389
 20
15.11541901393432
 30
284.9062610384806
 70
   192
  0
VERTEX
  5
DDE
  8
0
 10
-162.7156544847152
 20
15.11541901391221
 30
303.007545943057
 70
   192
  0
VERTEX
  5
DDF
  8
0
 10
-109.5139034277969
 20
15.11541901389563
 30
316.557071687153
 70
   192
  0
VERTEX
  5
DE0
  8
0
 10
-97.34368017094447
 20
15.11541901389274
 30
318.9440717440858
 70
   192
  0
VERTEX
  5
DE1
  8
0
 10
-85.20930670893861
 20
15.11541901389016
 30
321.0566507516943
 70
   192
  0
VERTEX
  5
DE2
  8
0
 10
-73.11078246043667
 20
15.11541901388791
 30
322.8948062585401
 70
   192
  0
VERTEX
  5
DE3
  8
0
 10
-24.35982568078175
 20
15.11541901388226
 30
327.5273120535064
 70
   192
  0
VERTEX
  5
DE4
  8
0
 10
24.35822013511442
 20
15.11541901388226
 30
327.5273263871602
 70
   192
  0
VERTEX
  5
DE5
  8
0
 10
73.10945086882481
 20
15.11541901388791
 30
322.8948071558365
 70
   192
  0
VERTEX
  5
DE6
  8
0
 10
85.20793329768745
 20
15.11541901389016
 30
321.0566575507532
 70
   192
  0
VERTEX
  5
DE7
  8
0
 10
97.34230306775932
 20
15.11541901389273
 30
318.9440773605413
 70
   192
  0
VERTEX
  5
DE8
  8
0
 10
109.5125607734181
 20
15.11541901389563
 30
316.5570690875037
 70
   192
  0
VERTEX
  5
DE9
  8
0
 10
162.7138186857152
 20
15.11541901391221
 30
303.0077029706778
 70
   192
  0
VERTEX
  5
DEA
  8
0
 10
214.6494254929235
 20
15.11541901393432
 30
284.9064316642212
 70
   192
  0
VERTEX
  5
DEB
  8
0
 10
-55.00066950196525
 20
15.11541901429447
 30
-9.980705027410956
 70
   192
  0
VERTEX
  5
DEC
  8
0
 10
-47.63203737432924
 20
15.11541901432806
 30
-37.48068686912582
 70
   192
  0
VERTEX
  5
DED
  8
0
 10
-27.50062810750184
 20
15.11541901435265
 30
-57.6120259554866
 70
   192
  0
VERTEX
  5
DEE
  8
0
 10
-0.0006694979550748
 20
15.11541901436164
 30
-64.98070503133013
 70
   192
  0
VERTEX
  5
DEF
  8
0
 10
27.49931234375959
 20
15.11541901435265
 30
-57.61207290369386
 70
   192
  0
VERTEX
  5
DF0
  8
0
 10
47.63065143012129
 20
15.11541901432806
 30
-37.48066363686522
 70
   192
  0
VERTEX
  5
DF1
  8
0
 10
54.99933050398187
 20
15.11541901429447
 30
-9.980705027342356
 70
   192
  0
VERTEX
  5
DF2
  8
0
 10
47.63069837769841
 20
15.11541901426091
 30
17.51927681432549
 70
   192
  0
VERTEX
  5
DF3
  8
0
 10
27.4992891114962
 20
15.11541901423631
 30
37.65061590132035
 70
   192
  0
VERTEX
  5
DF4
  8
0
 10
-0.000669498046113
 20
15.1154190142273
 30
45.01929497659992
 70
   192
  0
VERTEX
  5
DF5
  8
0
 10
-27.50065133987671
 20
15.11541901423631
 30
37.6506628488505
 70
   192
  0
VERTEX
  5
DF6
  8
0
 10
-47.631990426278
 20
15.11541901426091
 30
17.51925358198969
 70
   192
  0
VERTEX
  5
DF7
  8
0
 10
0.0
 20
0.0
 30
0.0
 70
   128
 71
     3
 72
     4
 73
    -5
  0
VERTEX
  5
DF8
  8
0
 10
0.0
 20
0.0
 30
0.0
 70
   128
 71
   -19
 72
    -3
 73
    -5
  0
VERTEX
  5
DF9
  8
0
 10
0.0
 20
0.0
 30
0.0
 70
   128
 71
     5
 72
    -6
 73
   -19
  0
VERTEX
  5
DFA
  8
0
 10
0.0
 20
0.0
 30
0.0
 70
   128
 71
    -7
 72
    30
 73
   -19
  0
VERTEX
  5
DFB
  8
0
 10
0.0
 20
0.0
 30
0.0
 70
   128
 71
     6
 72
    -7
 73
   -19
  0
VERTEX
  5
DFC
  8
0
 10
0.0
 20
0.0
 30
0.0
 70
   128
 71
    -8
 72
    29
 73
   -30
  0
VERTEX
  5
DFD
  8
0
 10
0.0
 20
0.0
 30
0.0
 70
   128
 71
     7
 72
    -8
 73
   -30
  0
VERTEX
  5
DFE
  8
0
 10
0.0
 20
0.0
 30
0.0
 70
   128
 71
     8
 72
    -9
 73
   -29
  0
VERTEX
  5
DFF
  8
0
 10
0.0
 20
0.0
 30
0.0
 70
   128
 71
     9
 72
   -10
 73
   -29
  0
VERTEX
  5
E00
  8
0
 10
0.0
 20
0.0
 30
0.0
 70
   128
 71
   -11
 72
    28
 73
   -29
  0
VERTEX
  5
E01
  8
0
 10
0.0
 20
0.0
 30
0.0
 70
   128
 71
    10
 72
   -11
 73
   -29
  0
VERTEX
  5
E02
  8
0
 10
0.0
 20
0.0
 30
0.0
 70
   128
 71
    11
 72
   -12
 73
   -28
  0
VERTEX
  5
E03
  8
0
 10
0.0
 20
0.0
 30
0.0
 70
   128
 71
   -13
 72
    27
 73
   -28
  0
VERTEX
  5
E04
  8
0
 10
0.0
 20
0.0
 30
0.0
 70
   128
 71
    12
 72
   -13
 73
   -28
  0
VERTEX
  5
E05
  8
0
 10
0.0
 20
0.0
 30
0.0
 70
   128
 71
    13
 72
   -14
 73
   -27
  0
VERTEX
  5
E06
  8
0
 10
0.0
 20
0.0
 30
0.0
 70
   128
 71
    14
 72
   -15
 73
   -27
  0
VERTEX
  5
E07
  8
0
 10
0.0
 20
0.0
 30
0.0
 70
   128
 71
    15
 72
   -16
 73
   -27
  0
VERTEX
  5
E08
  8
0
 10
0.0
 20
0.0
 30
0.0
 70
   128
 71
   -17
 72
    26
 73
   -27
  0
VERTEX
  5
E09
  8
0
 10
0.0
 20
0.0
 30
0.0
 70
   128
 71
    16
 72
   -17
 73
   -27
  0
VERTEX
  5
E0A
  8
0
 10
0.0
 20
0.0
 30
0.0
 70
   128
 71
    -3
 72
    19
 73
   -20
  0
VERTEX
  5
E0B
  8
0
 10
0.0
 20
0.0
 30
0.0
 70
   128
 71
    20
 72
   -21
 73
    -3
  0
VERTEX
  5
E0C
  8
0
 10
0.0
 20
0.0
 30
0.0
 70
   128
 71
    21
 72
   -22
 73
    -3
  0
VERTEX
  5
E0D
  8
0
 10
0.0
 20
0.0
 30
0.0
 70
   128
 71
   -22
 72
     2
 73
    -3
  0
VERTEX
  5
E0E
  8
0
 10
0.0
 20
0.0
 30
0.0
 70
   128
 71
    22
 72
   -23
 73
    -2
  0
VERTEX
  5
E0F
  8
0
 10
0.0
 20
0.0
 30
0.0
 70
   128
 71
    23
 72
   -24
 73
    -2
  0
VERTEX
  5
E10
  8
0
 10
0.0
 20
0.0
 30
0.0
 70
   128
 71
    24
 72
   -25
 73
    -2
  0
VERTEX
  5
E11
  8
0
 10
0.0
 20
0.0
 30
0.0
 70
   128
 71
    17
 72
   -18
 73
    -2
  0
VERTEX
  5
E12
  8
0
 10
0.0
 20
0.0
 30
0.0
 70
   128
 71
   -26
 72
   -17
 73
    -2
  0
VERTEX
  5
E13
  8
0
 10
0.0
 20
0.0
 30
0.0
 70
   128
 71
    25
 72
   -26
 73
    -2
  0
VERTEX
  5
E14
  8
0
 10
0.0
 20
0.0
 30
0.0
 70
   128
 71
    18
 72
     1
 73
    -2
  0
SEQEND
  5
F99
  8
0
  0
POLYLINE
  5
E15
  8
0
 66
     1
 10
0.0
 20
0.0
 30
0.0
 70
    64
 71
    45
 72
    45
  0
VERTEX
  5
E16
  8
0
 10
-0.0006694980005939
 20
195.1154190138448
 30
358.1203340301698
 70
   192
  0
VERTEX
  5
E17
  8
0
 10
98.98067256360311
 20
195.1154190138558
 30
349.1381823048495
 70
   192
  0
VERTEX
  5
E18
  8
0
 10
195.1846823226098
 20
195.1154190138865
 30
324.0554611546917
 70
   192
  0
VERTEX
  5
E19
  8
0
 10
286.769999840258
 20
195.1154190139337
 30
285.322870368212
 70
   192
  0
VERTEX
  5
E1A
  8
0
 10
291.1267836483139
 20
195.1154190139379
 30
281.996492907722
 70
   192
  0
VERTEX
  5
E1B
  8
0
 10
293.9976890813164
 20
195.1154190139436
 30
277.3269789254416
 70
   192
  0
VERTEX
  5
E1C
  8
0
 10
294.9993305019989
 20
195.1154190139503
 30
271.9378239992548
 70
   192
  0
VERTEX
  5
E1D
  8
0
 10
294.9993305019989
 20
195.1154190144617
 30
-146.8796659697292
 70
   192
  0
VERTEX
  5
E1E
  8
0
 10
292.9893165494574
 20
195.1154190144708
 30
-154.3793783115946
 70
   192
  0
VERTEX
  5
E1F
  8
0
 10
287.4990428438635
 20
195.1154190144776
 30
-159.8696520168386
 70
   192
  0
VERTEX
  5
E20
  8
0
 10
279.9993305019514
 20
195.1154190144583
 30
-161.8796659736197
 70
   192
  0
VERTEX
  5
E21
  8
0
 10
-280.0006694978998
 20
195.11541901448
 30
-161.8796659698299
 70
   192
  0
VERTEX
  5
E22
  8
0
 10
-287.5003818397656
 20
195.1154190144776
 30
-159.8696520172877
 70
   192
  0
VERTEX
  5
E23
  8
0
 10
-292.9906555450095
 20
195.1154190144709
 30
-154.3793783116944
 70
   192
  0
VERTEX
  5
E24
  8
0
 10
-295.0006695017906
 20
195.1154190144399
 30
-146.8796659697825
 70
   192
  0
VERTEX
  5
E25
  8
0
 10
-295.0006694980009
 20
195.1154190139501
 30
271.937823999255
 70
   192
  0
VERTEX
  5
E26
  8
0
 10
-293.9990280773429
 20
195.1154190139435
 30
277.3269789254244
 70
   192
  0
VERTEX
  5
E27
  8
0
 10
-291.128122644719
 20
195.1154190139378
 30
281.9964929083903
 70
   192
  0
VERTEX
  5
E28
  8
0
 10
-286.771338838576
 20
195.1154190139338
 30
285.3228703725387
 70
   192
  0
VERTEX
  5
E29
  8
0
 10
-195.1860213186116
 20
195.1154190138865
 30
324.0554611546917
 70
   192
  0
VERTEX
  5
E2A
  8
0
 10
-98.98201155960666
 20
195.1154190138559
 30
349.1381823048498
 70
   192
  0
VERTEX
  5
E2B
  8
0
 10
274.9993305019988
 20
195.1154190144555
 30
-141.8796659697128
 70
   192
  0
VERTEX
  5
E2C
  8
0
 10
274.9993305019988
 20
195.1154190139539
 30
268.8563755167768
 70
   192
  0
VERTEX
  5
E2D
  8
0
 10
233.8032566647649
 20
195.1154190139307
 30
287.8708168241994
 70
   192
  0
VERTEX
  5
E2E
  8
0
 10
191.4938260487837
 20
195.1154190139108
 30
304.1714721623359
 70
   192
  0
VERTEX
  5
E2F
  8
0
 10
148.22961935169
 20
195.1154190138944
 30
317.5649375194678
 70
   192
  0
VERTEX
  5
E30
  8
0
 10
135.9867097034204
 20
195.1154190138905
 30
320.7592969790137
 70
   192
  0
VERTEX
  5
E31
  8
0
 10
123.7570278061071
 20
195.1154190138869
 30
323.6874048967356
 70
   192
  0
VERTEX
  5
E32
  8
0
 10
111.5405732687214
 20
195.1154190138836
 30
326.3492602955205
 70
   192
  0
VERTEX
  5
E33
  8
0
 10
99.1598454216658
 20
195.1154190138807
 30
328.7775171024488
 70
   192
  0
VERTEX
  5
E34
  8
0
 10
86.81421707493675
 20
195.1154190138781
 30
330.9268084275812
 70
   192
  0
VERTEX
  5
E35
  8
0
 10
74.50368791474304
 20
195.1154190138758
 30
332.7971329587632
 70
   192
  0
VERTEX
  5
E36
  8
0
 10
24.82465883367011
 20
195.11541901387
 30
337.5164531892347
 70
   192
  0
VERTEX
  5
E37
  8
0
 10
-24.82565473408743
 20
195.11541901387
 30
337.5164734071985
 70
   192
  0
VERTEX
  5
E38
  8
0
 10
-74.50502025777783
 20
195.1154190138758
 30
332.7971323972614
 70
   192
  0
VERTEX
  5
E39
  8
0
 10
-86.81559074725303
 20
195.1154190138781
 30
330.9268017391924
 70
   192
  0
VERTEX
  5
E3A
  8
0
 10
-99.16122235578118
 20
195.1154190138807
 30
328.77751171559
 70
   192
  0
VERTEX
  5
E3B
  8
0
 10
-111.5419153979137
 20
195.1154190138837
 30
326.3492636235481
 70
   192
  0
VERTEX
  5
E3C
  8
0
 10
-123.7583332254846
 20
195.1154190138869
 30
323.6874157003139
 70
   192
  0
VERTEX
  5
E3D
  8
0
 10
-135.9880135286199
 20
195.1154190138905
 30
320.7593063096102
 70
   192
  0
VERTEX
  5
E3E
  8
0
 10
-148.2309567093614
 20
195.1154190138944
 30
317.5649364587695
 70
   192
  0
VERTEX
  5
E3F
  8
0
 10
-191.4946913552803
 20
195.1154190139108
 30
304.1716424241332
 70
   192
  0
VERTEX
  5
E40
  8
0
 10
-233.8041523968212
 20
195.1154190139306
 30
287.8710000363719
 70
   192
  0
VERTEX
  5
E41
  8
0
 10
-275.0006694980012
 20
195.1154190139539
 30
268.8563755423348
 70
   192
  0
VERTEX
  5
E42
  8
0
 10
-275.0006694980011
 20
195.1154190144556
 30
-141.8796659698671
 70
   192
  0
VERTEX
  5
E43
  8
0
 10
0.0
 20
0.0
 30
0.0
 70
   128
 71
   -10
 72
    22
 73
   -23
  0
VERTEX
  5
E44
  8
0
 10
0.0
 20
0.0
 30
0.0
 70
   128
 71
     9
 72
   -10
 73
   -23
  0
VERTEX
  5
E45
  8
0
 10
0.0
 20
0.0
 30
0.0
 70
   128
 71
     8
 72
    -9
 73
   -23
  0
VERTEX
  5
E46
  8
0
 10
0.0
 20
0.0
 30
0.0
 70
   128
 71
     7
 72
    -8
 73
   -23
  0
VERTEX
  5
E47
  8
0
 10
0.0
 20
0.0
 30
0.0
 70
   128
 71
     6
 72
    -7
 73
   -23
  0
VERTEX
  5
E48
  8
0
 10
0.0
 20
0.0
 30
0.0
 70
   128
 71
     5
 72
    -6
 73
   -23
  0
VERTEX
  5
E49
  8
0
 10
0.0
 20
0.0
 30
0.0
 70
   128
 71
     4
 72
    -5
 73
   -23
  0
VERTEX
  5
E4A
  8
0
 10
0.0
 20
0.0
 30
0.0
 70
   128
 71
   -24
 72
     3
 73
    -4
  0
VERTEX
  5
E4B
  8
0
 10
0.0
 20
0.0
 30
0.0
 70
   128
 71
    23
 72
   -24
 73
    -4
  0
VERTEX
  5
E4C
  8
0
 10
0.0
 20
0.0
 30
0.0
 70
   128
 71
    24
 72
   -25
 73
    -3
  0
VERTEX
  5
E4D
  8
0
 10
0.0
 20
0.0
 30
0.0
 70
   128
 71
    25
 72
   -26
 73
    -3
  0
VERTEX
  5
E4E
  8
0
 10
0.0
 20
0.0
 30
0.0
 70
   128
 71
   -27
 72
     2
 73
    -3
  0
VERTEX
  5
E4F
  8
0
 10
0.0
 20
0.0
 30
0.0
 70
   128
 71
    26
 72
   -27
 73
    -3
  0
VERTEX
  5
E50
  8
0
 10
0.0
 20
0.0
 30
0.0
 70
   128
 71
    27
 72
   -28
 73
    -2
  0
VERTEX
  5
E51
  8
0
 10
0.0
 20
0.0
 30
0.0
 70
   128
 71
    28
 72
   -29
 73
    -2
  0
VERTEX
  5
E52
  8
0
 10
0.0
 20
0.0
 30
0.0
 70
   128
 71
    29
 72
   -30
 73
    -2
  0
VERTEX
  5
E53
  8
0
 10
0.0
 20
0.0
 30
0.0
 70
   128
 71
    30
 72
   -31
 73
    -2
  0
VERTEX
  5
E54
  8
0
 10
0.0
 20
0.0
 30
0.0
 70
   128
 71
    31
 72
   -32
 73
    -2
  0
VERTEX
  5
E55
  8
0
 10
0.0
 20
0.0
 30
0.0
 70
   128
 71
   -33
 72
     1
 73
    -2
  0
VERTEX
  5
E56
  8
0
 10
0.0
 20
0.0
 30
0.0
 70
   128
 71
    32
 72
   -33
 73
    -2
  0
VERTEX
  5
E57
  8
0
 10
0.0
 20
0.0
 30
0.0
 70
   128
 71
    33
 72
   -34
 73
    -1
  0
VERTEX
  5
E58
  8
0
 10
0.0
 20
0.0
 30
0.0
 70
   128
 71
   -35
 72
    21
 73
    -1
  0
VERTEX
  5
E59
  8
0
 10
0.0
 20
0.0
 30
0.0
 70
   128
 71
    34
 72
   -35
 73
    -1
  0
VERTEX
  5
E5A
  8
0
 10
0.0
 20
0.0
 30
0.0
 70
   128
 71
    35
 72
   -36
 73
   -21
  0
VERTEX
  5
E5B
  8
0
 10
0.0
 20
0.0
 30
0.0
 70
   128
 71
    36
 72
   -37
 73
   -21
  0
VERTEX
  5
E5C
  8
0
 10
0.0
 20
0.0
 30
0.0
 70
   128
 71
    37
 72
   -38
 73
   -21
  0
VERTEX
  5
E5D
  8
0
 10
0.0
 20
0.0
 30
0.0
 70
   128
 71
    38
 72
   -39
 73
   -21
  0
VERTEX
  5
E5E
  8
0
 10
0.0
 20
0.0
 30
0.0
 70
   128
 71
    39
 72
   -40
 73
   -21
  0
VERTEX
  5
E5F
  8
0
 10
0.0
 20
0.0
 30
0.0
 70
   128
 71
   -41
 72
    20
 73
   -21
  0
VERTEX
  5
E60
  8
0
 10
0.0
 20
0.0
 30
0.0
 70
   128
 71
    40
 72
   -41
 73
   -21
  0
VERTEX
  5
E61
  8
0
 10
0.0
 20
0.0
 30
0.0
 70
   128
 71
    41
 72
   -42
 73
   -20
  0
VERTEX
  5
E62
  8
0
 10
0.0
 20
0.0
 30
0.0
 70
   128
 71
    42
 72
   -43
 73
   -20
  0
VERTEX
  5
E63
  8
0
 10
0.0
 20
0.0
 30
0.0
 70
   128
 71
   -44
 72
    19
 73
   -20
  0
VERTEX
  5
E64
  8
0
 10
0.0
 20
0.0
 30
0.0
 70
   128
 71
    43
 72
   -44
 73
   -20
  0
VERTEX
  5
E65
  8
0
 10
0.0
 20
0.0
 30
0.0
 70
   128
 71
    17
 72
    18
 73
   -19
  0
VERTEX
  5
E66
  8
0
 10
0.0
 20
0.0
 30
0.0
 70
   128
 71
    16
 72
   -17
 73
   -19
  0
VERTEX
  5
E67
  8
0
 10
0.0
 20
0.0
 30
0.0
 70
   128
 71
    15
 72
   -16
 73
   -19
  0
VERTEX
  5
E68
  8
0
 10
0.0
 20
0.0
 30
0.0
 70
   128
 71
    14
 72
   -15
 73
   -19
  0
VERTEX
  5
E69
  8
0
 10
0.0
 20
0.0
 30
0.0
 70
   128
 71
   -45
 72
   -14
 73
   -19
  0
VERTEX
  5
E6A
  8
0
 10
0.0
 20
0.0
 30
0.0
 70
   128
 71
    44
 72
   -45
 73
   -19
  0
VERTEX
  5
E6B
  8
0
 10
0.0
 20
0.0
 30
0.0
 70
   128
 71
    12
 72
    13
 73
   -14
  0
VERTEX
  5
E6C
  8
0
 10
0.0
 20
0.0
 30
0.0
 70
   128
 71
    11
 72
   -12
 73
   -14
  0
VERTEX
  5
E6D
  8
0
 10
0.0
 20
0.0
 30
0.0
 70
   128
 71
    10
 72
   -11
 73
   -14
  0
VERTEX
  5
E6E
  8
0
 10
0.0
 20
0.0
 30
0.0
 70
   128
 71
   -22
 72
   -10
 73
   -14
  0
VERTEX
  5
E6F
  8
0
 10
0.0
 20
0.0
 30
0.0
 70
   128
 71
    45
 72
   -22
 73
   -14
  0
SEQEND
  5
F9A
  8
0
  0
POLYLINE
  5
E70
  8
0
 66
     1
 10
0.0
 20
0.0
 30
0.0
 70
    64
 71
     8
 72
     6
  0
VERTEX
  5
E71
  8
0
 10
-267.4458778799972
 20
15.75411691897449
 30
-134.3248743521312
 70
   192
  0
VERTEX
  5
E72
  8
0
 10
-265.0006694979582
 20
15.11541901444336
 30
-131.8796659700925
 70
   192
  0
VERTEX
  5
E73
  8
0
 10
264.9993305020026
 20
15.11541901444335
 30
-131.8796659700461
 70
   192
  0
VERTEX
  5
E74
  8
0
 10
267.4445388840544
 20
15.75411691894207
 30
-134.3248743520949
 70
   192
  0
VERTEX
  5
E75
  8
0
 10
-269.3619715934499
 20
17.67021063243966
 30
-136.2409680655816
 70
   192
  0
VERTEX
  5
E76
  8
0
 10
269.3606325975111
 20
17.67021063240332
 30
-136.2409680655492
 70
   192
  0
VERTEX
  5
E77
  8
0
 10
269.9993305020001
 20
20.11541901445346
 30
-136.8796659700374
 70
   192
  0
VERTEX
  5
E78
  8
0
 10
-270.0006694979581
 20
20.11541901444946
 30
-136.8796659700436
 70
   192
  0
VERTEX
  5
E79
  8
0
 10
0.0
 20
0.0
 30
0.0
 70
   128
 71
     1
 72
     2
 73
    -3
  0
VERTEX
  5
E7A
  8
0
 10
0.0
 20
0.0
 30
0.0
 70
   128
 71
    -1
 72
     3
 73
     4
  0
VERTEX
  5
E7B
  8
0
 10
0.0
 20
0.0
 30
0.0
 70
   128
 71
     5
 72
     1
 73
     4
  0
VERTEX
  5
E7C
  8
0
 10
0.0
 20
0.0
 30
0.0
 70
   128
 71
     4
 72
     6
 73
     7
  0
VERTEX
  5
E7D
  8
0
 10
0.0
 20
0.0
 30
0.0
 70
   128
 71
     5
 72
     4
 73
     7
  0
VERTEX
  5
E7E
  8
0
 10
0.0
 20
0.0
 30
0.0
 70
   128
 71
     7
 72
     8
 73
     5
  0
SEQEND
  5
F9B
  8
0
  0
POLYLINE
  5
E7F
  8
0
 66
     1
 10
0.0
 20
0.0
 30
0.0
 70
    64
 71
     8
 72
     6
  0
VERTEX
  5
E80
  8
0
 10
267.4445388840544
 20
15.75411691894207
 30
-134.3248743520949
 70
   192
  0
VERTEX
  5
E81
  8
0
 10
264.9993305020026
 20
15.11541901444335
 30
-131.8796659700461
 70
   192
  0
VERTEX
  5
E82
  8
0
 10
264.9993305019989
 20
15.11541901396152
 30
262.649054179089
 70
   192
  0
VERTEX
  5
E83
  8
0
 10
267.3981522717659
 20
15.72843899541211
 30
264.1432116004573
 70
   192
  0
VERTEX
  5
E84
  8
0
 10
269.3606325975111
 20
17.67021063240332
 30
-136.2409680655492
 70
   192
  0
VERTEX
  5
E85
  8
0
 10
269.2540706967653
 20
17.48917136509674
 30
265.2977786731232
 70
   192
  0
VERTEX
  5
E86
  8
0
 10
269.9993305019989
 20
20.11541901395769
 30
265.760204949304
 70
   192
  0
VERTEX
  5
E87
  8
0
 10
269.999330501999
 20
20.1154190144495
 30
-136.8796659700374
 70
   192
  0
VERTEX
  5
E88
  8
0
 10
0.0
 20
0.0
 30
0.0
 70
   128
 71
     1
 72
     2
 73
     3
  0
VERTEX
  5
E89
  8
0
 10
0.0
 20
0.0
 30
0.0
 70
   128
 71
     1
 72
     3
 73
     4
  0
VERTEX
  5
E8A
  8
0
 10
0.0
 20
0.0
 30
0.0
 70
   128
 71
     5
 72
     1
 73
     4
  0
VERTEX
  5
E8B
  8
0
 10
0.0
 20
0.0
 30
0.0
 70
   128
 71
     4
 72
     6
 73
     7
  0
VERTEX
  5
E8C
  8
0
 10
0.0
 20
0.0
 30
0.0
 70
   128
 71
     5
 72
     4
 73
     7
  0
VERTEX
  5
E8D
  8
0
 10
0.0
 20
0.0
 30
0.0
 70
   128
 71
     7
 72
     8
 73
     5
  0
SEQEND
  5
F9C
  8
0
  0
POLYLINE
  5
E8E
  8
0
 66
     1
 10
0.0
 20
0.0
 30
0.0
 70
    64
 71
    12
 72
    10
  0
VERTEX
  5
E8F
  8
0
 10
-270.0006694980012
 20
20.11541901395769
 30
265.760204949304
 70
   192
  0
VERTEX
  5
E90
  8
0
 10
-218.4849725454606
 20
20.11541901392957
 30
288.7634204155556
 70
   192
  0
VERTEX
  5
E91
  8
0
 10
-165.2363318439565
 20
20.1154190139068
 30
307.4681237010239
 70
   192
  0
VERTEX
  5
E92
  8
0
 10
-110.5279068257712
 20
20.11541901388969
 30
321.4531551632271
 70
   192
  0
VERTEX
  5
E93
  8
0
 10
-110.3983784566855
 20
17.67021063183611
 30
320.827731511953
 70
   192
  0
VERTEX
  5
E94
  8
0
 10
-110.0097933494285
 20
15.75411691837914
 30
318.9514605581376
 70
   192
  0
VERTEX
  5
E95
  8
0
 10
-109.5139034277969
 20
15.11541901389563
 30
316.557071687153
 70
   192
  0
VERTEX
  5
E96
  8
0
 10
-162.7156544847152
 20
15.11541901391221
 30
303.007545943057
 70
   192
  0
VERTEX
  5
E97
  8
0
 10
-214.6512082953389
 20
15.11541901393432
 30
284.9062610384806
 70
   192
  0
VERTEX
  5
E98
  8
0
 10
-265.0006694980008
 20
15.11541901396146
 30
262.6490542011609
 70
   192
  0
VERTEX
  5
E99
  8
0
 10
-267.408684082476
 20
15.7331167813729
 30
264.1484269049685
 70
   192
  0
VERTEX
  5
E9A
  8
0
 10
-269.2582899441254
 20
17.49472896809435
 30
265.2998334051507
 70
   192
  0
VERTEX
  5
E9B
  8
0
 10
0.0
 20
0.0
 30
0.0
 70
   128
 71
     3
 72
     4
 73
     5
  0
VERTEX
  5
E9C
  8
0
 10
0.0
 20
0.0
 30
0.0
 70
   128
 71
     8
 72
     3
 73
     5
  0
VERTEX
  5
E9D
  8
0
 10
0.0
 20
0.0
 30
0.0
 70
   128
 71
     5
 72
     6
 73
     8
  0
VERTEX
  5
E9E
  8
0
 10
0.0
 20
0.0
 30
0.0
 70
   128
 71
     6
 72
     7
 73
     8
  0
VERTEX
  5
E9F
  8
0
 10
0.0
 20
0.0
 30
0.0
 70
   128
 71
     9
 72
     2
 73
     3
  0
VERTEX
  5
EA0
  8
0
 10
0.0
 20
0.0
 30
0.0
 70
   128
 71
     8
 72
     9
 73
     3
  0
VERTEX
  5
EA1
  8
0
 10
0.0
 20
0.0
 30
0.0
 70
   128
 71
    11
 72
     1
 73
     2
  0
VERTEX
  5
EA2
  8
0
 10
0.0
 20
0.0
 30
0.0
 70
   128
 71
    10
 72
    11
 73
     2
  0
VERTEX
  5
EA3
  8
0
 10
0.0
 20
0.0
 30
0.0
 70
   128
 71
     9
 72
    10
 73
     2
  0
VERTEX
  5
EA4
  8
0
 10
0.0
 20
0.0
 30
0.0
 70
   128
 71
    11
 72
    12
 73
     1
  0
SEQEND
  5
F9D
  8
0
  0
POLYLINE
  5
EA5
  8
0
 66
     1
 10
0.0
 20
0.0
 30
0.0
 70
    64
 71
     8
 72
     6
  0
VERTEX
  5
EA6
  8
0
 10
-267.408684082476
 20
15.7331167813729
 30
264.1484269049685
 70
   192
  0
VERTEX
  5
EA7
  8
0
 10
-265.0006694980008
 20
15.11541901396146
 30
262.6490542011609
 70
   192
  0
VERTEX
  5
EA8
  8
0
 10
-265.0006694979582
 20
15.11541901444336
 30
-131.8796659700925
 70
   192
  0
VERTEX
  5
EA9
  8
0
 10
-267.4458778799972
 20
15.75411691897449
 30
-134.3248743521312
 70
   192
  0
VERTEX
  5
EAA
  8
0
 10
-269.2582899441254
 20
17.49472896809435
 30
265.2998334051507
 70
   192
  0
VERTEX
  5
EAB
  8
0
 10
-269.3619715934499
 20
17.67021063243966
 30
-136.2409680655816
 70
   192
  0
VERTEX
  5
EAC
  8
0
 10
-270.0006694979582
 20
20.11541901447095
 30
-136.8796659700864
 70
   192
  0
VERTEX
  5
EAD
  8
0
 10
-270.0006694980011
 20
20.11541901395772
 30
265.760204949304
 70
   192
  0
VERTEX
  5
EAE
  8
0
 10
0.0
 20
0.0
 30
0.0
 70
   128
 71
     1
 72
     2
 73
     3
  0
VERTEX
  5
EAF
  8
0
 10
0.0
 20
0.0
 30
0.0
 70
   128
 71
     1
 72
     3
 73
     4
  0
VERTEX
  5
EB0
  8
0
 10
0.0
 20
0.0
 30
0.0
 70
   128
 71
     5
 72
     1
 73
     4
  0
VERTEX
  5
EB1
  8
0
 10
0.0
 20
0.0
 30
0.0
 70
   128
 71
     4
 72
     6
 73
     7
  0
VERTEX
  5
EB2
  8
0
 10
0.0
 20
0.0
 30
0.0
 70
   128
 71
     5
 72
     4
 73
     7
  0
VERTEX
  5
EB3
  8
0
 10
0.0
 20
0.0
 30
0.0
 70
   128
 71
     7
 72
     8
 73
     5
  0
SEQEND
  5
F9E
  8
0
  0
POLYLINE
  5
EB4
  8
0
 66
     1
 10
0.0
 20
0.0
 30
0.0
 70
    64
 71
    12
 72
    10
  0
VERTEX
  5
EB5
  8
0
 10
269.9993305019989
 20
190.1154190139577
 30
265.7602049495117
 70
   192
  0
VERTEX
  5
EB6
  8
0
 10
229.9931944386405
 20
190.1154190139353
 30
284.0509943851627
 70
   192
  0
VERTEX
  5
EB7
  8
0
 10
188.9220692537791
 20
190.1154190139161
 30
299.7711450396619
 70
   192
  0
VERTEX
  5
EB8
  8
0
 10
146.9188988543599
 20
190.1154190139003
 30
312.7397796881068
 70
   192
  0
VERTEX
  5
EB9
  8
0
 10
147.0863297413619
 20
192.5606273959539
 30
313.3561433272502
 70
   192
  0
VERTEX
  5
EBA
  8
0
 10
147.5886224023693
 20
194.4767211094109
 30
315.2052342446741
 70
   192
  0
VERTEX
  5
EBB
  8
0
 10
148.22961935169
 20
195.1154190138944
 30
317.5649375194678
 70
   192
  0
VERTEX
  5
EBC
  8
0
 10
191.4938260487837
 20
195.1154190139108
 30
304.1714721623359
 70
   192
  0
VERTEX
  5
EBD
  8
0
 10
233.8032566647649
 20
195.1154190139307
 30
287.8708168241994
 70
   192
  0
VERTEX
  5
EBE
  8
0
 10
274.9993305019989
 20
195.1154190139538
 30
268.8563755167768
 70
   192
  0
VERTEX
  5
EBF
  8
0
 10
272.585744952507
 20
194.4946342137854
 30
267.3644655641066
 70
   192
  0
VERTEX
  5
EC0
  8
0
 10
270.7398974190274
 20
192.7331400018315
 30
266.2191066448182
 70
   192
  0
VERTEX
  5
EC1
  8
0
 10
0.0
 20
0.0
 30
0.0
 70
   128
 71
     9
 72
    10
 73
    11
  0
VERTEX
  5
EC2
  8
0
 10
0.0
 20
0.0
 30
0.0
 70
   128
 71
    11
 72
    12
 73
     9
  0
VERTEX
  5
EC3
  8
0
 10
0.0
 20
0.0
 30
0.0
 70
   128
 71
     3
 72
     4
 73
     5
  0
VERTEX
  5
EC4
  8
0
 10
0.0
 20
0.0
 30
0.0
 70
   128
 71
     5
 72
     6
 73
     3
  0
VERTEX
  5
EC5
  8
0
 10
0.0
 20
0.0
 30
0.0
 70
   128
 71
     7
 72
     8
 73
     3
  0
VERTEX
  5
EC6
  8
0
 10
0.0
 20
0.0
 30
0.0
 70
   128
 71
     6
 72
     7
 73
     3
  0
VERTEX
  5
EC7
  8
0
 10
0.0
 20
0.0
 30
0.0
 70
   128
 71
    12
 72
     1
 73
     2
  0
VERTEX
  5
EC8
  8
0
 10
0.0
 20
0.0
 30
0.0
 70
   128
 71
     9
 72
    12
 73
     2
  0
VERTEX
  5
EC9
  8
0
 10
0.0
 20
0.0
 30
0.0
 70
   128
 71
     3
 72
     8
 73
     9
  0
VERTEX
  5
ECA
  8
0
 10
0.0
 20
0.0
 30
0.0
 70
   128
 71
     2
 72
     3
 73
     9
  0
SEQEND
  5
F9F
  8
0
  0
POLYLINE
  5
ECB
  8
0
 66
     1
 10
0.0
 20
0.0
 30
0.0
 70
    64
 71
     8
 72
     6
  0
VERTEX
  5
ECC
  8
0
 10
274.9993305019989
 20
195.1154190139538
 30
268.8563755167768
 70
   192
  0
VERTEX
  5
ECD
  8
0
 10
272.5541221200072
 20
194.4767211100716
 30
-139.4344575876041
 70
   192
  0
VERTEX
  5
ECE
  8
0
 10
272.585744952507
 20
194.4946342137854
 30
267.3644655641066
 70
   192
  0
VERTEX
  5
ECF
  8
0
 10
274.9993305019988
 20
195.1154190144555
 30
-141.8796659697128
 70
   192
  0
VERTEX
  5
ED0
  8
0
 10
270.638028406527
 20
192.5606273966098
 30
-137.5183638741262
 70
   192
  0
VERTEX
  5
ED1
  8
0
 10
270.7398974190274
 20
192.7331400018315
 30
266.2191066448182
 70
   192
  0
VERTEX
  5
ED2
  8
0
 10
269.999330502118
 20
190.1154190145056
 30
-136.8796659697209
 70
   192
  0
VERTEX
  5
ED3
  8
0
 10
269.9993305019989
 20
190.1154190139577
 30
265.7602049495117
 70
   192
  0
VERTEX
  5
ED4
  8
0
 10
0.0
 20
0.0
 30
0.0
 70
   128
 71
     1
 72
     2
 73
     3
  0
VERTEX
  5
ED5
  8
0
 10
0.0
 20
0.0
 30
0.0
 70
   128
 71
     1
 72
     4
 73
     2
  0
VERTEX
  5
ED6
  8
0
 10
0.0
 20
0.0
 30
0.0
 70
   128
 71
     3
 72
     2
 73
     5
  0
VERTEX
  5
ED7
  8
0
 10
0.0
 20
0.0
 30
0.0
 70
   128
 71
     3
 72
     5
 73
     6
  0
VERTEX
  5
ED8
  8
0
 10
0.0
 20
0.0
 30
0.0
 70
   128
 71
     6
 72
     5
 73
     7
  0
VERTEX
  5
ED9
  8
0
 10
0.0
 20
0.0
 30
0.0
 70
   128
 71
     6
 72
     7
 73
     8
  0
SEQEND
  5
FA0
  8
0
  0
POLYLINE
  5
EDA
  8
0
 66
     1
 10
0.0
 20
0.0
 30
0.0
 70
    64
 71
     8
 72
     6
  0
VERTEX
  5
EDB
  8
0
 10
274.9993305021158
 20
195.1154190144555
 30
-141.8796659697128
 70
   192
  0
VERTEX
  5
EDC
  8
0
 10
-272.5554611158907
 20
194.4767211100022
 30
-139.4344575877937
 70
   192
  0
VERTEX
  5
EDD
  8
0
 10
272.5541221200072
 20
194.4767211100716
 30
-139.4344575876041
 70
   192
  0
VERTEX
  5
EDE
  8
0
 10
-275.0006694979639
 20
195.1154190144556
 30
-141.8796659698298
 70
   192
  0
VERTEX
  5
EDF
  8
0
 10
-270.6393674024238
 20
192.5606273965408
 30
-137.5183638743291
 70
   192
  0
VERTEX
  5
EE0
  8
0
 10
270.638028406527
 20
192.5606273966098
 30
-137.5183638741262
 70
   192
  0
VERTEX
  5
EE1
  8
0
 10
-270.0006694979629
 20
190.1154190144692
 30
-136.8796659698722
 70
   192
  0
VERTEX
  5
EE2
  8
0
 10
269.999330502118
 20
190.1154190144495
 30
-136.879665969836
 70
   192
  0
VERTEX
  5
EE3
  8
0
 10
0.0
 20
0.0
 30
0.0
 70
   128
 71
    -1
 72
     2
 73
     3
  0
VERTEX
  5
EE4
  8
0
 10
0.0
 20
0.0
 30
0.0
 70
   128
 71
     1
 72
     4
 73
    -2
  0
VERTEX
  5
EE5
  8
0
 10
0.0
 20
0.0
 30
0.0
 70
   128
 71
     3
 72
     2
 73
    -5
  0
VERTEX
  5
EE6
  8
0
 10
0.0
 20
0.0
 30
0.0
 70
   128
 71
    -3
 72
     5
 73
     6
  0
VERTEX
  5
EE7
  8
0
 10
0.0
 20
0.0
 30
0.0
 70
   128
 71
     6
 72
     5
 73
    -7
  0
VERTEX
  5
EE8
  8
0
 10
0.0
 20
0.0
 30
0.0
 70
   128
 71
    -6
 72
     7
 73
     8
  0
SEQEND
  5
FA1
  8
0
  0
POLYLINE
  5
EE9
  8
0
 66
     1
 10
0.0
 20
0.0
 30
0.0
 70
    64
 71
     8
 72
     6
  0
VERTEX
  5
EEA
  8
0
 10
-275.0006694979639
 20
195.1154190144556
 30
-141.8796659698671
 70
   192
  0
VERTEX
  5
EEB
  8
0
 10
-272.6158982851047
 20
194.5100157820397
 30
267.3813995998713
 70
   192
  0
VERTEX
  5
EEC
  8
0
 10
-272.5554611158907
 20
194.4767211100022
 30
-139.4344575877937
 70
   192
  0
VERTEX
  5
EED
  8
0
 10
-275.0006694980011
 20
195.1154190139539
 30
268.8563755423348
 70
   192
  0
VERTEX
  5
EEE
  8
0
 10
-270.7412349853599
 20
192.7331370073191
 30
266.2191380214933
 70
   192
  0
VERTEX
  5
EEF
  8
0
 10
-270.6393674024238
 20
192.5606273965408
 30
-137.5183638743291
 70
   192
  0
VERTEX
  5
EF0
  8
0
 10
-270.0006694980012
 20
190.1154190139577
 30
265.7602049495117
 70
   192
  0
VERTEX
  5
EF1
  8
0
 10
-270.0006694980011
 20
190.1154190144495
 30
-136.8796659698722
 70
   192
  0
VERTEX
  5
EF2
  8
0
 10
0.0
 20
0.0
 30
0.0
 70
   128
 71
     1
 72
     2
 73
     3
  0
VERTEX
  5
EF3
  8
0
 10
0.0
 20
0.0
 30
0.0
 70
   128
 71
     1
 72
     4
 73
     2
  0
VERTEX
  5
EF4
  8
0
 10
0.0
 20
0.0
 30
0.0
 70
   128
 71
     3
 72
     2
 73
     5
  0
VERTEX
  5
EF5
  8
0
 10
0.0
 20
0.0
 30
0.0
 70
   128
 71
     3
 72
     5
 73
     6
  0
VERTEX
  5
EF6
  8
0
 10
0.0
 20
0.0
 30
0.0
 70
   128
 71
     6
 72
     5
 73
     7
  0
VERTEX
  5
EF7
  8
0
 10
0.0
 20
0.0
 30
0.0
 70
   128
 71
     6
 72
     7
 73
     8
  0
SEQEND
  5
FA2
  8
0
  0
POLYLINE
  5
EF8
  8
0
 66
     1
 10
0.0
 20
0.0
 30
0.0
 70
    64
 71
     4
 72
     2
  0
VERTEX
  5
EF9
  8
0
 10
269.999330502118
 20
190.1154190144495
 30
-136.879665969836
 70
   192
  0
VERTEX
  5
EFA
  8
0
 10
-270.0006694979629
 20
190.1154190144495
 30
-136.879665969836
 70
   192
  0
VERTEX
  5
EFB
  8
0
 10
-270.0006694980011
 20
20.11541901447094
 30
-136.8796659700436
 70
   192
  0
VERTEX
  5
EFC
  8
0
 10
269.9993305020001
 20
20.11541901444946
 30
-136.8796659700436
 70
   192
  0
VERTEX
  5
EFD
  8
0
 10
0.0
 20
0.0
 30
0.0
 70
   128
 71
     3
 72
     4
 73
    -1
  0
VERTEX
  5
EFE
  8
0
 10
0.0
 20
0.0
 30
0.0
 70
   128
 71
     2
 72
    -3
 73
     1
  0
SEQEND
  5
FA3
  8
0
  0
POLYLINE
  5
EFF
  8
0
 66
     1
 10
0.0
 20
0.0
 30
0.0
 70
    64
 71
     4
 72
     2
  0
VERTEX
  5
F00
  8
0
 10
269.9993305019989
 20
190.1154190139577
 30
265.7602049495117
 70
   192
  0
VERTEX
  5
F01
  8
0
 10
269.9993305019989
 20
190.1154190144495
 30
-136.8796659697209
 70
   192
  0
VERTEX
  5
F02
  8
0
 10
269.9993305019989
 20
20.11541901445347
 30
-136.8796659700436
 70
   192
  0
VERTEX
  5
F03
  8
0
 10
269.999330501999
 20
20.11541901395772
 30
265.760204949304
 70
   192
  0
VERTEX
  5
F04
  8
0
 10
0.0
 20
0.0
 30
0.0
 70
   128
 71
     3
 72
     4
 73
    -1
  0
VERTEX
  5
F05
  8
0
 10
0.0
 20
0.0
 30
0.0
 70
   128
 71
     2
 72
    -3
 73
     1
  0
SEQEND
  5
FA4
  8
0
  0
POLYLINE
  5
F06
  8
0
 66
     1
 10
0.0
 20
0.0
 30
0.0
 70
    64
 71
    38
 72
    36
  0
VERTEX
  5
F07
  8
0
 10
73.80656882704983
 20
190.1154190138818
 30
327.8459660463652
 70
   192
  0
VERTEX
  5
F08
  8
0
 10
73.80656882704895
 20
20.11541901388186
 30
327.8459660461571
 70
   192
  0
VERTEX
  5
F09
  8
0
 10
24.6843032390871
 20
20.11541901387615
 30
332.5173286806713
 70
   192
  0
VERTEX
  5
F0A
  8
0
 10
24.66552485080379
 20
190.1154190138761
 30
332.5182402585864
 70
   192
  0
VERTEX
  5
F0B
  8
0
 10
86.08935622231982
 20
190.1154190138841
 30
325.9789101998892
 70
   192
  0
VERTEX
  5
F0C
  8
0
 10
86.0935827578291
 20
20.11541901388414
 30
325.9782206273135
 70
   192
  0
VERTEX
  5
F0D
  8
0
 10
98.33095154361241
 20
190.1154190138867
 30
323.8459466002254
 70
   192
  0
VERTEX
  5
F0E
  8
0
 10
98.3351305398748
 20
20.11541901388675
 30
323.845172461107
 70
   192
  0
VERTEX
  5
F0F
  8
0
 10
110.5265644129549
 20
190.1154190138896
 30
321.4531520980477
 70
   192
  0
VERTEX
  5
F10
  8
0
 10
110.5265644129549
 20
20.11541901388969
 30
321.45315209784
 70
   192
  0
VERTEX
  5
F11
  8
0
 10
122.7139638629816
 20
190.1154190138929
 30
318.7968062515524
 70
   192
  0
VERTEX
  5
F12
  8
0
 10
134.8460826016164
 20
190.1154190138965
 30
315.8905004902908
 70
   192
  0
VERTEX
  5
F13
  8
0
 10
146.9188988543599
 20
190.1154190139003
 30
312.7397796881068
 70
   192
  0
VERTEX
  5
F14
  8
0
 10
165.2349918152692
 20
20.11541901390673
 30
307.4681251559197
 70
   192
  0
VERTEX
  5
F15
  8
0
 10
188.9220692537791
 20
190.1154190139161
 30
299.7711450396619
 70
   192
  0
VERTEX
  5
F16
  8
0
 10
229.9931944386405
 20
190.1154190139353
 30
284.0509943851627
 70
   192
  0
VERTEX
  5
F17
  8
0
 10
218.483632778952
 20
20.11541901392957
 30
288.7634214148642
 70
   192
  0
VERTEX
  5
F18
  8
0
 10
269.9993305019989
 20
190.1154190139577
 30
265.7602049495117
 70
   192
  0
VERTEX
  5
F19
  8
0
 10
269.9993305019989
 20
20.11541901395769
 30
265.760204949304
 70
   192
  0
VERTEX
  5
F1A
  8
0
 10
-73.80790078778409
 20
20.11541901388186
 30
327.845965269976
 70
   192
  0
VERTEX
  5
F1B
  8
0
 10
-73.80790078778409
 20
190.1154190138818
 30
327.8459652701837
 70
   192
  0
VERTEX
  5
F1C
  8
0
 10
-24.66685757120746
 20
190.1154190138761
 30
332.5182399389028
 70
   192
  0
VERTEX
  5
F1D
  8
0
 10
-24.68563484423597
 20
20.11541901387615
 30
332.5173284165018
 70
   192
  0
VERTEX
  5
F1E
  8
0
 10
-270.0006694980012
 20
20.11541901395769
 30
265.760204949304
 70
   192
  0
VERTEX
  5
F1F
  8
0
 10
-270.0006694980011
 20
190.1154190139577
 30
265.7602049495117
 70
   192
  0
VERTEX
  5
F20
  8
0
 10
-229.9945331384172
 20
190.1154190139353
 30
284.0509941155998
 70
   192
  0
VERTEX
  5
F21
  8
0
 10
-218.4849725454606
 20
20.11541901392957
 30
288.7634204155556
 70
   192
  0
VERTEX
  5
F22
  8
0
 10
-188.923407815125
 20
190.1154190139161
 30
299.7711464456785
 70
   192
  0
VERTEX
  5
F23
  8
0
 10
-165.2363318439565
 20
20.1154190139068
 30
307.4681237010239
 70
   192
  0
VERTEX
  5
F24
  8
0
 10
-146.9202356701931
 20
190.1154190139003
 30
312.7397784186317
 70
   192
  0
VERTEX
  5
F25
  8
0
 10
-134.8474205063403
 20
190.1154190138965
 30
315.8905011877709
 70
   192
  0
VERTEX
  5
F26
  8
0
 10
-110.5279068257712
 20
20.11541901388969
 30
321.4531551632271
 70
   192
  0
VERTEX
  5
F27
  8
0
 10
-122.7153038363754
 20
190.1154190138929
 30
318.7968090899096
 70
   192
  0
VERTEX
  5
F28
  8
0
 10
-110.5279068257712
 20
190.1154190138896
 30
321.4531551634347
 70
   192
  0
VERTEX
  5
F29
  8
0
 10
-98.33229144607179
 20
190.1154190138867
 30
323.8459479902198
 70
   192
  0
VERTEX
  5
F2A
  8
0
 10
-98.33646834698736
 20
20.11541901388675
 30
323.8451742405678
 70
   192
  0
VERTEX
  5
F2B
  8
0
 10
-86.09069239918288
 20
190.1154190138842
 30
325.978909523664
 70
   192
  0
VERTEX
  5
F2C
  8
0
 10
-86.09491705273531
 20
20.11541901388414
 30
325.9782202592374
 70
   192
  0
VERTEX
  5
F2D
  8
0
 10
0.0
 20
0.0
 30
0.0
 70
   128
 71
     1
 72
     2
 73
     3
  0
VERTEX
  5
F2E
  8
0
 10
0.0
 20
0.0
 30
0.0
 70
   128
 71
     4
 72
     1
 73
     3
  0
VERTEX
  5
F2F
  8
0
 10
0.0
 20
0.0
 30
0.0
 70
   128
 71
     5
 72
     6
 73
     2
  0
VERTEX
  5
F30
  8
0
 10
0.0
 20
0.0
 30
0.0
 70
   128
 71
     1
 72
     5
 73
     2
  0
VERTEX
  5
F31
  8
0
 10
0.0
 20
0.0
 30
0.0
 70
   128
 71
     7
 72
     8
 73
     6
  0
VERTEX
  5
F32
  8
0
 10
0.0
 20
0.0
 30
0.0
 70
   128
 71
     5
 72
     7
 73
     6
  0
VERTEX
  5
F33
  8
0
 10
0.0
 20
0.0
 30
0.0
 70
   128
 71
     9
 72
    10
 73
     8
  0
VERTEX
  5
F34
  8
0
 10
0.0
 20
0.0
 30
0.0
 70
   128
 71
     7
 72
     9
 73
     8
  0
VERTEX
  5
F35
  8
0
 10
0.0
 20
0.0
 30
0.0
 70
   128
 71
     9
 72
    11
 73
    10
  0
VERTEX
  5
F36
  8
0
 10
0.0
 20
0.0
 30
0.0
 70
   128
 71
    11
 72
    12
 73
    10
  0
VERTEX
  5
F37
  8
0
 10
0.0
 20
0.0
 30
0.0
 70
   128
 71
    13
 72
    14
 73
    10
  0
VERTEX
  5
F38
  8
0
 10
0.0
 20
0.0
 30
0.0
 70
   128
 71
    12
 72
    13
 73
    10
  0
VERTEX
  5
F39
  8
0
 10
0.0
 20
0.0
 30
0.0
 70
   128
 71
    13
 72
    15
 73
    14
  0
VERTEX
  5
F3A
  8
0
 10
0.0
 20
0.0
 30
0.0
 70
   128
 71
    16
 72
    17
 73
    14
  0
VERTEX
  5
F3B
  8
0
 10
0.0
 20
0.0
 30
0.0
 70
   128
 71
    15
 72
    16
 73
    14
  0
VERTEX
  5
F3C
  8
0
 10
0.0
 20
0.0
 30
0.0
 70
   128
 71
    18
 72
    19
 73
    17
  0
VERTEX
  5
F3D
  8
0
 10
0.0
 20
0.0
 30
0.0
 70
   128
 71
    16
 72
    18
 73
    17
  0
VERTEX
  5
F3E
  8
0
 10
0.0
 20
0.0
 30
0.0
 70
   128
 71
    20
 72
    21
 73
    22
  0
VERTEX
  5
F3F
  8
0
 10
0.0
 20
0.0
 30
0.0
 70
   128
 71
    23
 72
    20
 73
    22
  0
VERTEX
  5
F40
  8
0
 10
0.0
 20
0.0
 30
0.0
 70
   128
 71
    24
 72
    25
 73
    26
  0
VERTEX
  5
F41
  8
0
 10
0.0
 20
0.0
 30
0.0
 70
   128
 71
    27
 72
    24
 73
    26
  0
VERTEX
  5
F42
  8
0
 10
0.0
 20
0.0
 30
0.0
 70
   128
 71
    28
 72
    29
 73
    27
  0
VERTEX
  5
F43
  8
0
 10
0.0
 20
0.0
 30
0.0
 70
   128
 71
    26
 72
    28
 73
    27
  0
VERTEX
  5
F44
  8
0
 10
0.0
 20
0.0
 30
0.0
 70
   128
 71
    28
 72
    30
 73
    29
  0
VERTEX
  5
F45
  8
0
 10
0.0
 20
0.0
 30
0.0
 70
   128
 71
    31
 72
    32
 73
    29
  0
VERTEX
  5
F46
  8
0
 10
0.0
 20
0.0
 30
0.0
 70
   128
 71
    30
 72
    31
 73
    29
  0
VERTEX
  5
F47
  8
0
 10
0.0
 20
0.0
 30
0.0
 70
   128
 71
    31
 72
    33
 73
    32
  0
VERTEX
  5
F48
  8
0
 10
0.0
 20
0.0
 30
0.0
 70
   128
 71
    33
 72
    34
 73
    32
  0
VERTEX
  5
F49
  8
0
 10
0.0
 20
0.0
 30
0.0
 70
   128
 71
    35
 72
    36
 73
    32
  0
VERTEX
  5
F4A
  8
0
 10
0.0
 20
0.0
 30
0.0
 70
   128
 71
    34
 72
    35
 73
    32
  0
VERTEX
  5
F4B
  8
0
 10
0.0
 20
0.0
 30
0.0
 70
   128
 71
    37
 72
    38
 73
    36
  0
VERTEX
  5
F4C
  8
0
 10
0.0
 20
0.0
 30
0.0
 70
   128
 71
    35
 72
    37
 73
    36
  0
VERTEX
  5
F4D
  8
0
 10
0.0
 20
0.0
 30
0.0
 70
   128
 71
    21
 72
    20
 73
    38
  0
VERTEX
  5
F4E
  8
0
 10
0.0
 20
0.0
 30
0.0
 70
   128
 71
    37
 72
    21
 73
    38
  0
VERTEX
  5
F4F
  8
0
 10
0.0
 20
0.0
 30
0.0
 70
   128
 71
    22
 72
     4
 73
    -3
  0
VERTEX
  5
F50
  8
0
 10
0.0
 20
0.0
 30
0.0
 70
   128
 71
    23
 72
   -22
 73
     3
  0
SEQEND
  5
FA5
  8
0
  0
POLYLINE
  5
F51
  8
0
 66
     1
 10
0.0
 20
0.0
 30
0.0
 70
    64
 71
     4
 72
     2
  0
VERTEX
  5
F52
  8
0
 10
-270.0006694980011
 20
190.1154190144495
 30
-136.8796659698722
 70
   192
  0
VERTEX
  5
F53
  8
0
 10
-270.0006694980011
 20
190.1154190139577
 30
265.7602049495117
 70
   192
  0
VERTEX
  5
F54
  8
0
 10
-270.0006694980011
 20
20.11541901395769
 30
265.760204949304
 70
   192
  0
VERTEX
  5
F55
  8
0
 10
-270.0006694980011
 20
20.1154190144495
 30
-136.8796659700864
 70
   192
  0
VERTEX
  5
F56
  8
0
 10
0.0
 20
0.0
 30
0.0
 70
   128
 71
     3
 72
     4
 73
    -1
  0
VERTEX
  5
F57
  8
0
 10
0.0
 20
0.0
 30
0.0
 70
   128
 71
     2
 72
    -3
 73
     1
  0
SEQEND
  5
FA6
  8
0
  0
ENDBLK
  5
F59
  8
0
  0
ENDSEC
  0
SECTION
  2
ENTITIES
  0
INSERT
  5
BE
  8
0
  2
*X1
 10
0.0
 20
0.0
 30
0.0
  0
ENDSEC
  0
EOF
