  0
SECTION
  2
HEADER
  9
$ACADVER
  1
AC1009
  9
$DWGCODEPAGE
  3
ansi_1250
  9
$INSBASE
 10
0.0
 20
0.0
 30
0.0
  9
$EXTMIN
 10
-200.0000000000001
 20
-106.0000005744436
 30
-110.0
  9
$EXTMAX
 10
200.0
 20
0.0000101391119358
 30
110.0
  9
$LIMMIN
 10
0.0
 20
0.0
  9
$LIMMAX
 10
420.0
 20
297.0
  9
$ORTHOMODE
 70
     0
  9
$REGENMODE
 70
     1
  9
$FILLMODE
 70
     1
  9
$QTEXTMODE
 70
     0
  9
$MIRRTEXT
 70
     0
  9
$DRAGMODE
 70
     2
  9
$LTSCALE
 40
1.0
  9
$OSMODE
 70
   511
  9
$ATTMODE
 70
     1
  9
$TEXTSIZE
 40
2.5
  9
$TRACEWID
 40
1.0
  9
$TEXTSTYLE
  7
STANDARD
  9
$CLAYER
  8
0
  9
$CELTYPE
  6
BYLAYER
  9
$CECOLOR
 62
   256
  9
$DIMSCALE
 40
1.0
  9
$DIMASZ
 40
2.5
  9
$DIMEXO
 40
0.625
  9
$DIMDLI
 40
3.75
  9
$DIMRND
 40
0.0
  9
$DIMDLE
 40
0.0
  9
$DIMEXE
 40
1.25
  9
$DIMTP
 40
0.0
  9
$DIMTM
 40
0.0
  9
$DIMTXT
 40
2.5
  9
$DIMCEN
 40
-2.5
  9
$DIMTSZ
 40
0.0
  9
$DIMTOL
 70
     0
  9
$DIMLIM
 70
     0
  9
$DIMTIH
 70
     0
  9
$DIMTOH
 70
     0
  9
$DIMSE1
 70
     0
  9
$DIMSE2
 70
     0
  9
$DIMTAD
 70
     1
  9
$DIMZIN
 70
     8
  9
$DIMBLK
  1

  9
$DIMASO
 70
     1
  9
$DIMSHO
 70
     1
  9
$DIMPOST
  1

  9
$DIMAPOST
  1

  9
$DIMALT
 70
     0
  9
$DIMALTD
 70
     3
  9
$DIMALTF
 40
0.03937007874016
  9
$DIMLFAC
 40
1.0
  9
$DIMTOFL
 70
     1
  9
$DIMTVP
 40
0.0
  9
$DIMTIX
 70
     0
  9
$DIMSOXD
 70
     0
  9
$DIMSAH
 70
     0
  9
$DIMBLK1
  1

  9
$DIMBLK2
  1

  9
$DIMSTYLE
  2
ISO-25
  9
$DIMCLRD
 70
     0
  9
$DIMCLRE
 70
     0
  9
$DIMCLRT
 70
     0
  9
$DIMTFAC
 40
1.0
  9
$DIMGAP
 40
0.625
  9
$LUNITS
 70
     2
  9
$LUPREC
 70
     3
  9
$SKETCHINC
 40
1.0
  9
$FILLETRAD
 40
10.0
  9
$AUNITS
 70
     0
  9
$AUPREC
 70
     0
  9
$MENU
  1
.
  9
$ELEVATION
 40
0.0
  9
$PELEVATION
 40
0.0
  9
$THICKNESS
 40
0.0
  9
$LIMCHECK
 70
     0
  9
$CHAMFERA
 40
10.0
  9
$CHAMFERB
 40
10.0
  9
$SKPOLY
 70
     0
  9
$TDCREATE
 40
2455022.720692848
  9
$TDUPDATE
 40
2460413.565121354
  9
$TDINDWG
 40
0.0002419792
  9
$TDUSRTIMER
 40
0.0002419792
  9
$USRTIMER
 70
     1
  9
$ANGBASE
 50
0.0
  9
$ANGDIR
 70
     0
  9
$PDMODE
 70
     0
  9
$PDSIZE
 40
0.0
  9
$PLINEWID
 40
0.0
  9
$COORDS
 70
     1
  9
$SPLFRAME
 70
     0
  9
$SPLINETYPE
 70
     6
  9
$SPLINESEGS
 70
     8
  9
$ATTDIA
 70
     0
  9
$ATTREQ
 70
     1
  9
$HANDLING
 70
     1
  9
$HANDSEED
  5
12FC
  9
$SURFTAB1
 70
     6
  9
$SURFTAB2
 70
     6
  9
$SURFTYPE
 70
     6
  9
$SURFU
 70
     6
  9
$SURFV
 70
     6
  9
$UCSNAME
  2

  9
$UCSORG
 10
0.0
 20
0.0
 30
0.0
  9
$UCSXDIR
 10
1.0
 20
0.0
 30
0.0
  9
$UCSYDIR
 10
0.0
 20
1.0
 30
0.0
  9
$PUCSNAME
  2

  9
$PUCSORG
 10
0.0
 20
0.0
 30
0.0
  9
$PUCSXDIR
 10
1.0
 20
0.0
 30
0.0
  9
$PUCSYDIR
 10
0.0
 20
1.0
 30
0.0
  9
$USERI1
 70
     0
  9
$USERI2
 70
     0
  9
$USERI3
 70
     0
  9
$USERI4
 70
     0
  9
$USERI5
 70
     0
  9
$USERR1
 40
0.0
  9
$USERR2
 40
0.0
  9
$USERR3
 40
0.0
  9
$USERR4
 40
0.0
  9
$USERR5
 40
0.0
  9
$WORLDVIEW
 70
     1
  9
$SHADEDGE
 70
     3
  9
$SHADEDIF
 70
    70
  9
$TILEMODE
 70
     1
  9
$MAXACTVP
 70
    64
  9
$PLIMCHECK
 70
     0
  9
$PEXTMIN
 10
1.000000000000000E+20
 20
1.000000000000000E+20
 30
1.000000000000000E+20
  9
$PEXTMAX
 10
-1.000000000000000E+20
 20
-1.000000000000000E+20
 30
-1.000000000000000E+20
  9
$PLIMMIN
 10
0.0
 20
0.0
  9
$PLIMMAX
 10
0.0
 20
0.0
  9
$UNITMODE
 70
     0
  9
$VISRETAIN
 70
     1
  9
$PLINEGEN
 70
     0
  9
$PSLTSCALE
 70
     1
  0
ENDSEC
  0
SECTION
  2
TABLES
  0
TABLE
  2
VPORT
 70
     1
  0
VPORT
  2
*ACTIVE
 70
     0
 10
0.0
 20
0.0
 11
1.0
 21
1.0
 12
134.1869158878503
 22
-52.99999521766586
 13
0.0
 23
0.0
 14
10.0
 24
10.0
 15
10.0
 25
10.0
 16
0.0
 26
0.0
 36
1.0
 17
-134.1869158878504
 27
0.0
 37
0.0
 40
215.8260869565218
 41
1.89041095890411
 42
50.0
 43
0.0
 44
0.0
 50
0.0
 51
0.0
 71
    16
 72
  1000
 73
     1
 74
     3
 75
     0
 76
     0
 77
     0
 78
     0
  0
ENDTAB
  0
TABLE
  2
LTYPE
 70
     1
  0
LTYPE
  2
CONTINUOUS
 70
     0
  3
Solid line
 72
    65
 73
     0
 40
0.0
  0
ENDTAB
  0
TABLE
  2
LAYER
 70
     1
  0
LAYER
  2
0
 70
     0
 62
     7
  6
CONTINUOUS
  0
ENDTAB
  0
TABLE
  2
STYLE
 70
     2
  0
STYLE
  2
STANDARD
 70
     0
 40
0.0
 41
1.0
 50
0.0
 71
     0
 42
2.5
  3
arial.ttf
  4

  0
STYLE
  2
ANNOTATIVE
 70
     0
 40
0.0
 41
1.0
 50
0.0
 71
     0
 42
2.5
  3
arial.ttf
  4

  0
ENDTAB
  0
TABLE
  2
VIEW
 70
     0
  0
ENDTAB
  0
TABLE
  2
UCS
 70
     0
  0
ENDTAB
  0
TABLE
  2
APPID
 70
     2
  0
APPID
  2
ACAD
 70
     0
  0
APPID
  2
ACADANNOTATIVE
 70
     0
  0
ENDTAB
  0
TABLE
  2
DIMSTYLE
 70
     2
  0
DIMSTYLE
  2
ISO-25
 70
     0
  3

  4

  5

  6

  7

 40
1.0
 41
2.5
 42
0.625
 43
3.75
 44
1.25
 45
0.0
 46
0.0
 47
0.0
 48
0.0
140
2.5
141
-2.5
142
0.0
143
0.03937007874016
144
1.0
145
0.0
146
1.0
147
0.625
 71
     0
 72
     0
 73
     0
 74
     0
 75
     0
 76
     0
 77
     1
 78
     8
170
     0
171
     3
172
     1
173
     0
174
     0
175
     0
176
     0
177
     0
178
     0
  0
DIMSTYLE
  2
ANNOTATIVE
 70
     0
  3

  4

  5

  6

  7

 40
0.0
 41
2.5
 42
0.625
 43
3.75
 44
1.25
 45
0.0
 46
0.0
 47
0.0
 48
0.0
140
2.5
141
-2.5
142
0.0
143
0.03937007874016
144
1.0
145
0.0
146
1.0
147
0.625
 71
     0
 72
     0
 73
     0
 74
     0
 75
     0
 76
     0
 77
     1
 78
     8
170
     0
171
     3
172
     1
173
     0
174
     0
175
     0
176
     0
177
     0
178
     0
  0
ENDTAB
  0
ENDSEC
  0
SECTION
  2
BLOCKS
  0
BLOCK
  8
0
  2
$MODEL_SPACE
 70
     0
 10
0.0
 20
0.0
 30
0.0
  3
$MODEL_SPACE
  1

  0
ENDBLK
  5
21
  8
0
  0
BLOCK
 67
     1
  8
0
  2
$PAPER_SPACE
 70
     0
 10
0.0
 20
0.0
 30
0.0
  3
$PAPER_SPACE
  1

  0
ENDBLK
  5
1D
 67
     1
  8
0
  0
BLOCK
  8
0
  2
*X1
 70
     1
 10
0.0
 20
0.0
 30
0.0
  3
*X1
  1

  0
POLYLINE
  5
9E5
  8
0
 66
     1
 10
0.0
 20
0.0
 30
0.0
 70
    64
 71
    13
 72
    11
  0
VERTEX
  5
9E6
  8
0
 10
0.0000100768430033
 20
-85.3473677779642
 30
-35.8860570083023
 70
   192
  0
VERTEX
  5
9E7
  8
0
 10
0.0000121762469045
 20
-96.99915309214042
 30
-21.9999999999966
 70
   192
  0
VERTEX
  5
9E8
  8
0
 10
15.3368263744887
 20
-96.99909747204272
 30
-15.77282258195967
 70
   192
  0
VERTEX
  5
9E9
  8
0
 10
21.94810422315376
 20
-85.40289080586788
 30
-28.30585942180872
 70
   192
  0
VERTEX
  5
9EA
  8
0
 10
-0.000000000000008
 20
-96.9991500245376
 30
22.0
 70
   192
  0
VERTEX
  5
9EB
  8
0
 10
0.0000000454005013
 20
-85.34822751484721
 30
35.8850287579606
 70
   192
  0
VERTEX
  5
9EC
  8
0
 10
5.405144892506707
 20
-85.35381474277816
 30
35.46689169896355
 70
   192
  0
VERTEX
  5
9ED
  8
0
 10
11.87683793176493
 20
-85.3682188872942
 30
33.83682103609093
 70
   192
  0
VERTEX
  5
9EE
  8
0
 10
17.16872352576125
 20
-85.3852688833084
 30
31.459543183053
 70
   192
  0
VERTEX
  5
9EF
  8
0
 10
34.65568722402213
 20
-85.44081571087813
 30
-8.869859332387744
 70
   192
  0
VERTEX
  5
9F0
  8
0
 10
21.99999220265357
 20
-96.999130410464
 30
-0.0185225047735599
 70
   192
  0
VERTEX
  5
9F1
  8
0
 10
32.632572763429
 20
-85.43519082013442
 30
14.67680176005942
 70
   192
  0
VERTEX
  5
9F2
  8
0
 10
15.80797795463065
 20
-96.99893698341756
 30
15.30086600244714
 70
   192
  0
VERTEX
  5
9F3
  8
0
 10
0.0
 20
0.0
 30
0.0
 70
   128
 71
     1
 72
     2
 73
     3
  0
VERTEX
  5
9F4
  8
0
 10
0.0
 20
0.0
 30
0.0
 70
   128
 71
     4
 72
     1
 73
     3
  0
VERTEX
  5
9F5
  8
0
 10
0.0
 20
0.0
 30
0.0
 70
   128
 71
     5
 72
     6
 73
     7
  0
VERTEX
  5
9F6
  8
0
 10
0.0
 20
0.0
 30
0.0
 70
   128
 71
     7
 72
     8
 73
     5
  0
VERTEX
  5
9F7
  8
0
 10
0.0
 20
0.0
 30
0.0
 70
   128
 71
     8
 72
     9
 73
     5
  0
VERTEX
  5
9F8
  8
0
 10
0.0
 20
0.0
 30
0.0
 70
   128
 71
    10
 72
     4
 73
     3
  0
VERTEX
  5
9F9
  8
0
 10
0.0
 20
0.0
 30
0.0
 70
   128
 71
    11
 72
    10
 73
     3
  0
VERTEX
  5
9FA
  8
0
 10
0.0
 20
0.0
 30
0.0
 70
   128
 71
    12
 72
    10
 73
    11
  0
VERTEX
  5
9FB
  8
0
 10
0.0
 20
0.0
 30
0.0
 70
   128
 71
    13
 72
    12
 73
    11
  0
VERTEX
  5
9FC
  8
0
 10
0.0
 20
0.0
 30
0.0
 70
   128
 71
     9
 72
    12
 73
    13
  0
VERTEX
  5
9FD
  8
0
 10
0.0
 20
0.0
 30
0.0
 70
   128
 71
     5
 72
     9
 73
    13
  0
SEQEND
  5
12A0
  8
0
  0
POLYLINE
  5
9FE
  8
0
 66
     1
 10
0.0
 20
0.0
 30
0.0
 70
    64
 71
    12
 72
    10
  0
VERTEX
  5
9FF
  8
0
 10
-179.0886072632
 20
-17.41464670470904
 30
89.0886072632
 70
   192
  0
VERTEX
  5
A00
  8
0
 10
-178.6062842836793
 20
-17.43406441337434
 30
89.0886072632
 70
   192
  0
VERTEX
  5
A01
  8
0
 10
-177.88444729998
 20
-18.27467897620695
 30
91.94005085074211
 70
   192
  0
VERTEX
  5
A02
  8
0
 10
-178.1270831731917
 20
-17.49219185690027
 30
89.0886072632
 70
   192
  0
VERTEX
  5
A03
  8
0
 10
-177.6541055942555
 20
-17.58865280136557
 30
89.0886072632
 70
   192
  0
VERTEX
  5
A04
  8
0
 10
-181.9362094816858
 20
-18.13343835762837
 30
89.0886072632
 70
   192
  0
VERTEX
  5
A05
  8
0
 10
-184.2499347746009
 20
-22.70276186470253
 30
92.06416070661618
 70
   192
  0
VERTEX
  5
A06
  8
0
 10
-185.0657754517505
 20
-22.89171224822307
 30
89.0886072632001
 70
   192
  0
VERTEX
  5
A07
  8
0
 10
-184.1015341316776
 20
-20.11759283628418
 30
89.0886072632
 70
   192
  0
VERTEX
  5
A08
  8
0
 10
-178.4042697213745
 20
-20.19635621238081
 30
94.1060058357511
 70
   192
  0
VERTEX
  5
A09
  8
0
 10
-179.0886072632
 20
-22.89171224822305
 30
95.06577545175057
 70
   192
  0
VERTEX
  5
A0A
  8
0
 10
-182.0641607066161
 20
-22.70276186470253
 30
94.24993477460099
 70
   192
  0
VERTEX
  5
A0B
  8
0
 10
0.0
 20
0.0
 30
0.0
 70
   128
 71
     1
 72
     2
 73
     3
  0
VERTEX
  5
A0C
  8
0
 10
0.0
 20
0.0
 30
0.0
 70
   128
 71
     2
 72
     4
 73
     3
  0
VERTEX
  5
A0D
  8
0
 10
0.0
 20
0.0
 30
0.0
 70
   128
 71
     4
 72
     5
 73
     3
  0
VERTEX
  5
A0E
  8
0
 10
0.0
 20
0.0
 30
0.0
 70
   128
 71
     6
 72
     1
 73
     3
  0
VERTEX
  5
A0F
  8
0
 10
0.0
 20
0.0
 30
0.0
 70
   128
 71
     7
 72
     8
 73
     9
  0
VERTEX
  5
A10
  8
0
 10
0.0
 20
0.0
 30
0.0
 70
   128
 71
     3
 72
    10
 73
    11
  0
VERTEX
  5
A11
  8
0
 10
0.0
 20
0.0
 30
0.0
 70
   128
 71
     6
 72
     3
 73
    11
  0
VERTEX
  5
A12
  8
0
 10
0.0
 20
0.0
 30
0.0
 70
   128
 71
     9
 72
     6
 73
    11
  0
VERTEX
  5
A13
  8
0
 10
0.0
 20
0.0
 30
0.0
 70
   128
 71
     7
 72
     9
 73
    11
  0
VERTEX
  5
A14
  8
0
 10
0.0
 20
0.0
 30
0.0
 70
   128
 71
    12
 72
     7
 73
    11
  0
SEQEND
  5
12A1
  8
0
  0
POLYLINE
  5
A15
  8
0
 66
     1
 10
0.0
 20
0.0
 30
0.0
 70
    64
 71
    12
 72
    10
  0
VERTEX
  5
A16
  8
0
 10
-179.086069041063
 20
-17.38563469292355
 30
-89.0860690410626
 70
   192
  0
VERTEX
  5
A17
  8
0
 10
-178.605634630941
 20
-17.40490039205624
 30
-89.0860690410626
 70
   192
  0
VERTEX
  5
A18
  8
0
 10
-177.6520525072644
 20
-17.57562463637102
 30
-88.65319524473011
 70
   192
  0
VERTEX
  5
A19
  8
0
 10
-178.1282855224185
 20
-17.46257376706662
 30
-89.0860690410626
 70
   192
  0
VERTEX
  5
A1A
  8
0
 10
-177.6570872035975
 20
-17.5582844453244
 30
-89.0860690410626
 70
   192
  0
VERTEX
  5
A1B
  8
0
 10
-183.8246378659743
 20
-19.77422210470832
 30
-88.37637572049684
 70
   192
  0
VERTEX
  5
A1C
  8
0
 10
-184.0989959095421
 20
-20.08858082450096
 30
-89.0860690410626
 70
   192
  0
VERTEX
  5
A1D
  8
0
 10
-181.93367125955
 20
-18.10442634584351
 30
-89.0860690410626
 70
   192
  0
VERTEX
  5
A1E
  8
0
 10
-177.6544948430047
 20
-17.62325850292012
 30
-88.2225784734616
 70
   192
  0
VERTEX
  5
A1F
  8
0
 10
-177.6644014763613
 20
-17.70093767967469
 30
-87.79646398406413
 70
   192
  0
VERTEX
  5
A20
  8
0
 10
-181.0622608526564
 20
-17.84706292581305
 30
-87.89489789284066
 70
   192
  0
VERTEX
  5
A21
  8
0
 10
-185.0632372296135
 20
-22.86270023644167
 30
-89.08606904104431
 70
   192
  0
VERTEX
  5
A22
  8
0
 10
0.0
 20
0.0
 30
0.0
 70
   128
 71
     1
 72
     2
 73
     3
  0
VERTEX
  5
A23
  8
0
 10
0.0
 20
0.0
 30
0.0
 70
   128
 71
     2
 72
     4
 73
     3
  0
VERTEX
  5
A24
  8
0
 10
0.0
 20
0.0
 30
0.0
 70
   128
 71
     4
 72
     5
 73
     3
  0
VERTEX
  5
A25
  8
0
 10
0.0
 20
0.0
 30
0.0
 70
   128
 71
     6
 72
     7
 73
     8
  0
VERTEX
  5
A26
  8
0
 10
0.0
 20
0.0
 30
0.0
 70
   128
 71
     1
 72
     3
 73
     9
  0
VERTEX
  5
A27
  8
0
 10
0.0
 20
0.0
 30
0.0
 70
   128
 71
     8
 72
     1
 73
     9
  0
VERTEX
  5
A28
  8
0
 10
0.0
 20
0.0
 30
0.0
 70
   128
 71
     9
 72
    10
 73
    11
  0
VERTEX
  5
A29
  8
0
 10
0.0
 20
0.0
 30
0.0
 70
   128
 71
     8
 72
     9
 73
    11
  0
VERTEX
  5
A2A
  8
0
 10
0.0
 20
0.0
 30
0.0
 70
   128
 71
     6
 72
     8
 73
    11
  0
VERTEX
  5
A2B
  8
0
 10
0.0
 20
0.0
 30
0.0
 70
   128
 71
    12
 72
     7
 73
     6
  0
SEQEND
  5
12A2
  8
0
  0
POLYLINE
  5
A2C
  8
0
 66
     1
 10
0.0
 20
0.0
 30
0.0
 70
    64
 71
    13
 72
    11
  0
VERTEX
  5
A2D
  8
0
 10
-5.793922504522541
 20
-89.63312960030225
 30
-59.1020879355879
 70
   192
  0
VERTEX
  5
A2E
  8
0
 10
-0.0000000000000367
 20
-89.48385834534669
 30
-59.4254869723641
 70
   192
  0
VERTEX
  5
A2F
  8
0
 10
0.0
 20
-106.0000005744436
 30
-55.0
 70
   192
  0
VERTEX
  5
A30
  8
0
 10
-11.43271902872489
 20
-90.05220035139888
 30
-58.16016905000689
 70
   192
  0
VERTEX
  5
A31
  8
0
 10
-17.20709705544805
 20
-90.72587685623289
 30
-56.531953069147
 70
   192
  0
VERTEX
  5
A32
  8
0
 10
-38.89087296526011
 20
-106.0000005744436
 30
38.89087296526012
 70
   192
  0
VERTEX
  5
A33
  8
0
 10
0.0000000000000067
 20
-106.0000005744436
 30
55.0
 70
   192
  0
VERTEX
  5
A34
  8
0
 10
-0.0000000000000073
 20
-89.45655850059731
 30
59.43280194371818
 70
   192
  0
VERTEX
  5
A35
  8
0
 10
-37.49502935268949
 20
-94.10895301510709
 30
44.49445187358436
 70
   192
  0
VERTEX
  5
A36
  8
0
 10
-38.89087296526012
 20
-106.0000005744436
 30
-38.89087296526011
 70
   192
  0
VERTEX
  5
A37
  8
0
 10
-48.6155932952945
 20
-95.8808200147189
 30
-31.09875896879916
 70
   192
  0
VERTEX
  5
A38
  8
0
 10
-55.0
 20
-106.0000005744436
 30
0.0000000000000061
 70
   192
  0
VERTEX
  5
A39
  8
0
 10
-56.81530373352025
 20
-96.72015772646023
 30
8.759108337118567
 70
   192
  0
VERTEX
  5
A3A
  8
0
 10
0.0
 20
0.0
 30
0.0
 70
   128
 71
     1
 72
     2
 73
     3
  0
VERTEX
  5
A3B
  8
0
 10
0.0
 20
0.0
 30
0.0
 70
   128
 71
     4
 72
     1
 73
     3
  0
VERTEX
  5
A3C
  8
0
 10
0.0
 20
0.0
 30
0.0
 70
   128
 71
     3
 72
     5
 73
     4
  0
VERTEX
  5
A3D
  8
0
 10
0.0
 20
0.0
 30
0.0
 70
   128
 71
     6
 72
     7
 73
     8
  0
VERTEX
  5
A3E
  8
0
 10
0.0
 20
0.0
 30
0.0
 70
   128
 71
     6
 72
     8
 73
     9
  0
VERTEX
  5
A3F
  8
0
 10
0.0
 20
0.0
 30
0.0
 70
   128
 71
     5
 72
     3
 73
    10
  0
VERTEX
  5
A40
  8
0
 10
0.0
 20
0.0
 30
0.0
 70
   128
 71
     5
 72
    10
 73
    11
  0
VERTEX
  5
A41
  8
0
 10
0.0
 20
0.0
 30
0.0
 70
   128
 71
    11
 72
    10
 73
    12
  0
VERTEX
  5
A42
  8
0
 10
0.0
 20
0.0
 30
0.0
 70
   128
 71
    11
 72
    12
 73
    13
  0
VERTEX
  5
A43
  8
0
 10
0.0
 20
0.0
 30
0.0
 70
   128
 71
    13
 72
    12
 73
     6
  0
VERTEX
  5
A44
  8
0
 10
0.0
 20
0.0
 30
0.0
 70
   128
 71
    13
 72
     6
 73
     9
  0
SEQEND
  5
12A3
  8
0
  0
POLYLINE
  5
A45
  8
0
 66
     1
 10
0.0
 20
0.0
 30
0.0
 70
    64
 71
    10
 72
     8
  0
VERTEX
  5
A46
  8
0
 10
-0.000000000000008
 20
-96.9991500245376
 30
22.0
 70
   192
  0
VERTEX
  5
A47
  8
0
 10
0.0000000000000027
 20
-106.0000005744436
 30
22.0
 70
   192
  0
VERTEX
  5
A48
  8
0
 10
-15.55634918610404
 20
-106.0000005744436
 30
15.55634918610405
 70
   192
  0
VERTEX
  5
A49
  8
0
 10
-15.34074458542065
 20
-96.99884465774892
 30
15.76945908690031
 70
   192
  0
VERTEX
  5
A4A
  8
0
 10
-21.999998618599
 20
-96.99913048515344
 30
0.0077962582471072
 70
   192
  0
VERTEX
  5
A4B
  8
0
 10
-22.0
 20
-106.0000005744436
 30
0.0000000000000024
 70
   192
  0
VERTEX
  5
A4C
  8
0
 10
-15.76064721979263
 20
-96.99895286642432
 30
-15.34958804821238
 70
   192
  0
VERTEX
  5
A4D
  8
0
 10
-15.55634918610405
 20
-106.0000005744436
 30
-15.55634918610404
 70
   192
  0
VERTEX
  5
A4E
  8
0
 10
0.0000121762469045
 20
-96.99915309214042
 30
-21.9999999999966
 70
   192
  0
VERTEX
  5
A4F
  8
0
 10
-0.0000000000000024
 20
-106.0000005744436
 30
-22.0
 70
   192
  0
VERTEX
  5
A50
  8
0
 10
0.0
 20
0.0
 30
0.0
 70
   128
 71
     1
 72
     2
 73
     3
  0
VERTEX
  5
A51
  8
0
 10
0.0
 20
0.0
 30
0.0
 70
   128
 71
     4
 72
     1
 73
     3
  0
VERTEX
  5
A52
  8
0
 10
0.0
 20
0.0
 30
0.0
 70
   128
 71
     5
 72
     4
 73
     3
  0
VERTEX
  5
A53
  8
0
 10
0.0
 20
0.0
 30
0.0
 70
   128
 71
     6
 72
     5
 73
     3
  0
VERTEX
  5
A54
  8
0
 10
0.0
 20
0.0
 30
0.0
 70
   128
 71
     7
 72
     5
 73
     6
  0
VERTEX
  5
A55
  8
0
 10
0.0
 20
0.0
 30
0.0
 70
   128
 71
     8
 72
     7
 73
     6
  0
VERTEX
  5
A56
  8
0
 10
0.0
 20
0.0
 30
0.0
 70
   128
 71
     9
 72
     7
 73
     8
  0
VERTEX
  5
A57
  8
0
 10
0.0
 20
0.0
 30
0.0
 70
   128
 71
    10
 72
     9
 73
     8
  0
SEQEND
  5
12A4
  8
0
  0
POLYLINE
  5
A58
  8
0
 66
     1
 10
0.0
 20
0.0
 30
0.0
 70
    64
 71
    10
 72
     8
  0
VERTEX
  5
A59
  8
0
 10
155.0
 20
-13.01
 30
-17.5
 70
   192
  0
VERTEX
  5
A5A
  8
0
 10
155.0
 20
-13.01
 30
17.5
 70
   192
  0
VERTEX
  5
A5B
  8
0
 10
155.0
 20
0.0
 30
17.5
 70
   192
  0
VERTEX
  5
A5C
  8
0
 10
155.0
 20
0.0
 30
-17.5
 70
   192
  0
VERTEX
  5
A5D
  8
0
 10
137.5
 20
0.0
 30
-0.0000000000000019
 70
   192
  0
VERTEX
  5
A5E
  8
0
 10
137.5
 20
-13.01
 30
-0.0000000000000019
 70
   192
  0
VERTEX
  5
A5F
  8
0
 10
142.6256313292354
 20
0.0
 30
-12.37436867076458
 70
   192
  0
VERTEX
  5
A60
  8
0
 10
142.6256313292354
 20
-13.01
 30
-12.37436867076458
 70
   192
  0
VERTEX
  5
A61
  8
0
 10
142.6256313292354
 20
0.0
 30
12.37436867076458
 70
   192
  0
VERTEX
  5
A62
  8
0
 10
142.6256313292354
 20
-13.01
 30
12.37436867076458
 70
   192
  0
VERTEX
  5
A63
  8
0
 10
0.0
 20
0.0
 30
0.0
 70
   128
 71
     8
 72
     1
 73
    -4
  0
VERTEX
  5
A64
  8
0
 10
0.0
 20
0.0
 30
0.0
 70
   128
 71
     7
 72
    -8
 73
     4
  0
VERTEX
  5
A65
  8
0
 10
0.0
 20
0.0
 30
0.0
 70
   128
 71
     6
 72
     8
 73
    -7
  0
VERTEX
  5
A66
  8
0
 10
0.0
 20
0.0
 30
0.0
 70
   128
 71
     5
 72
    -6
 73
     7
  0
VERTEX
  5
A67
  8
0
 10
0.0
 20
0.0
 30
0.0
 70
   128
 71
    10
 72
     6
 73
    -5
  0
VERTEX
  5
A68
  8
0
 10
0.0
 20
0.0
 30
0.0
 70
   128
 71
     9
 72
   -10
 73
     5
  0
VERTEX
  5
A69
  8
0
 10
0.0
 20
0.0
 30
0.0
 70
   128
 71
     2
 72
    10
 73
    -9
  0
VERTEX
  5
A6A
  8
0
 10
0.0
 20
0.0
 30
0.0
 70
   128
 71
     3
 72
    -2
 73
     9
  0
SEQEND
  5
12A5
  8
0
  0
POLYLINE
  5
A6B
  8
0
 66
     1
 10
0.0
 20
0.0
 30
0.0
 70
    64
 71
    10
 72
     8
  0
VERTEX
  5
A6C
  8
0
 10
109.259815495345
 20
-21.21164038326505
 30
0.0000000000000058
 70
   192
  0
VERTEX
  5
A6D
  8
0
 10
104.9186110536718
 20
-45.83183420857024
 30
0.0000000000000087
 70
   192
  0
VERTEX
  5
A6E
  8
0
 10
92.31060901856347
 20
-43.60870327695344
 30
0.000000000000005
 70
   192
  0
VERTEX
  5
A6F
  8
0
 10
96.65181346023672
 20
-18.98850945164825
 30
0.0000000000000079
 70
   192
  0
VERTEX
  5
A70
  8
0
 10
94.4812112394001
 20
-31.29860636430084
 30
-12.49999999999999
 70
   192
  0
VERTEX
  5
A71
  8
0
 10
107.0892132745084
 20
-33.52173729591765
 30
-12.49999999999999
 70
   192
  0
VERTEX
  5
A72
  8
0
 10
96.01605878901226
 20
-22.59405336030061
 30
-8.838834764831835
 70
   192
  0
VERTEX
  5
A73
  8
0
 10
108.6240608241206
 20
-24.81718429191741
 30
-8.838834764831839
 70
   192
  0
VERTEX
  5
A74
  8
0
 10
92.94636368978793
 20
-40.00315936830108
 30
-8.838834764831839
 70
   192
  0
VERTEX
  5
A75
  8
0
 10
105.5543657248962
 20
-42.22629029991788
 30
-8.838834764831835
 70
   192
  0
VERTEX
  5
A76
  8
0
 10
0.0
 20
0.0
 30
0.0
 70
   128
 71
     8
 72
     1
 73
    -4
  0
VERTEX
  5
A77
  8
0
 10
0.0
 20
0.0
 30
0.0
 70
   128
 71
     7
 72
    -8
 73
     4
  0
VERTEX
  5
A78
  8
0
 10
0.0
 20
0.0
 30
0.0
 70
   128
 71
     6
 72
     8
 73
    -7
  0
VERTEX
  5
A79
  8
0
 10
0.0
 20
0.0
 30
0.0
 70
   128
 71
     5
 72
    -6
 73
     7
  0
VERTEX
  5
A7A
  8
0
 10
0.0
 20
0.0
 30
0.0
 70
   128
 71
    10
 72
     6
 73
    -5
  0
VERTEX
  5
A7B
  8
0
 10
0.0
 20
0.0
 30
0.0
 70
   128
 71
     9
 72
   -10
 73
     5
  0
VERTEX
  5
A7C
  8
0
 10
0.0
 20
0.0
 30
0.0
 70
   128
 71
     2
 72
    10
 73
    -9
  0
VERTEX
  5
A7D
  8
0
 10
0.0
 20
0.0
 30
0.0
 70
   128
 71
     3
 72
    -2
 73
     9
  0
SEQEND
  5
12A6
  8
0
  0
POLYLINE
  5
A7E
  8
0
 66
     1
 10
0.0
 20
0.0
 30
0.0
 70
    64
 71
    13
 72
    11
  0
VERTEX
  5
A7F
  8
0
 10
0.0000000454005013
 20
-85.34822751484721
 30
35.8850287579606
 70
   192
  0
VERTEX
  5
A80
  8
0
 10
-0.000000000000008
 20
-96.9991500245376
 30
22.0
 70
   192
  0
VERTEX
  5
A81
  8
0
 10
-15.34074458542065
 20
-96.99884465774892
 30
15.76945908690031
 70
   192
  0
VERTEX
  5
A82
  8
0
 10
-21.9453082903717
 20
-85.40203777492734
 30
28.30934756419479
 70
   192
  0
VERTEX
  5
A83
  8
0
 10
0.0000121762469045
 20
-96.99915309214042
 30
-21.9999999999966
 70
   192
  0
VERTEX
  5
A84
  8
0
 10
0.0000100768430033
 20
-85.3473677779642
 30
-35.8860570083023
 70
   192
  0
VERTEX
  5
A85
  8
0
 10
-5.69871493832372
 20
-85.35287908845754
 30
-35.42393208883615
 70
   192
  0
VERTEX
  5
A86
  8
0
 10
-11.72009618369226
 20
-85.36853802946678
 30
-33.89143710185131
 70
   192
  0
VERTEX
  5
A87
  8
0
 10
-17.1694224237289
 20
-85.3864167753228
 30
-31.45756625530965
 70
   192
  0
VERTEX
  5
A88
  8
0
 10
-34.65625757998681
 20
-85.44051808832745
 30
8.869045332004678
 70
   192
  0
VERTEX
  5
A89
  8
0
 10
-21.999998618599
 20
-96.99913048515344
 30
0.0077962582471072
 70
   192
  0
VERTEX
  5
A8A
  8
0
 10
-32.80764011860152
 20
-85.43565665916513
 30
-14.28007060069059
 70
   192
  0
VERTEX
  5
A8B
  8
0
 10
-15.76064721979263
 20
-96.99895286642432
 30
-15.34958804821238
 70
   192
  0
VERTEX
  5
A8C
  8
0
 10
0.0
 20
0.0
 30
0.0
 70
   128
 71
     1
 72
     2
 73
     3
  0
VERTEX
  5
A8D
  8
0
 10
0.0
 20
0.0
 30
0.0
 70
   128
 71
     4
 72
     1
 73
     3
  0
VERTEX
  5
A8E
  8
0
 10
0.0
 20
0.0
 30
0.0
 70
   128
 71
     5
 72
     6
 73
     7
  0
VERTEX
  5
A8F
  8
0
 10
0.0
 20
0.0
 30
0.0
 70
   128
 71
     5
 72
     7
 73
     8
  0
VERTEX
  5
A90
  8
0
 10
0.0
 20
0.0
 30
0.0
 70
   128
 71
     8
 72
     9
 73
     5
  0
VERTEX
  5
A91
  8
0
 10
0.0
 20
0.0
 30
0.0
 70
   128
 71
    10
 72
     4
 73
     3
  0
VERTEX
  5
A92
  8
0
 10
0.0
 20
0.0
 30
0.0
 70
   128
 71
    11
 72
    10
 73
     3
  0
VERTEX
  5
A93
  8
0
 10
0.0
 20
0.0
 30
0.0
 70
   128
 71
    12
 72
    10
 73
    11
  0
VERTEX
  5
A94
  8
0
 10
0.0
 20
0.0
 30
0.0
 70
   128
 71
    13
 72
    12
 73
    11
  0
VERTEX
  5
A95
  8
0
 10
0.0
 20
0.0
 30
0.0
 70
   128
 71
     9
 72
    12
 73
    13
  0
VERTEX
  5
A96
  8
0
 10
0.0
 20
0.0
 30
0.0
 70
   128
 71
     5
 72
     9
 73
    13
  0
SEQEND
  5
12A7
  8
0
  0
POLYLINE
  5
A97
  8
0
 66
     1
 10
0.0
 20
0.0
 30
0.0
 70
    64
 71
    10
 72
     8
  0
VERTEX
  5
A98
  8
0
 10
104.9186110536718
 20
-45.83183420857024
 30
0.0000000000000058
 70
   192
  0
VERTEX
  5
A99
  8
0
 10
109.259815495345
 20
-21.21164038326508
 30
0.0000000000000087
 70
   192
  0
VERTEX
  5
A9A
  8
0
 10
96.65181346023672
 20
-18.98850945164825
 30
0.0000000000000079
 70
   192
  0
VERTEX
  5
A9B
  8
0
 10
92.31060901856345
 20
-43.60870327695345
 30
0.0000000000000063
 70
   192
  0
VERTEX
  5
A9C
  8
0
 10
94.4812112394001
 20
-31.29860636430084
 30
12.50000000000001
 70
   192
  0
VERTEX
  5
A9D
  8
0
 10
107.0892132745084
 20
-33.52173729591765
 30
12.50000000000001
 70
   192
  0
VERTEX
  5
A9E
  8
0
 10
92.94636368978793
 20
-40.00315936830108
 30
8.838834764831851
 70
   192
  0
VERTEX
  5
A9F
  8
0
 10
105.5543657248962
 20
-42.22629029991788
 30
8.83883476483185
 70
   192
  0
VERTEX
  5
AA0
  8
0
 10
96.01605878901226
 20
-22.59405336030061
 30
8.838834764831853
 70
   192
  0
VERTEX
  5
AA1
  8
0
 10
108.6240608241206
 20
-24.81718429191741
 30
8.838834764831853
 70
   192
  0
VERTEX
  5
AA2
  8
0
 10
0.0
 20
0.0
 30
0.0
 70
   128
 71
     8
 72
     1
 73
    -4
  0
VERTEX
  5
AA3
  8
0
 10
0.0
 20
0.0
 30
0.0
 70
   128
 71
     7
 72
    -8
 73
     4
  0
VERTEX
  5
AA4
  8
0
 10
0.0
 20
0.0
 30
0.0
 70
   128
 71
     6
 72
     8
 73
    -7
  0
VERTEX
  5
AA5
  8
0
 10
0.0
 20
0.0
 30
0.0
 70
   128
 71
     5
 72
    -6
 73
     7
  0
VERTEX
  5
AA6
  8
0
 10
0.0
 20
0.0
 30
0.0
 70
   128
 71
    10
 72
     6
 73
    -5
  0
VERTEX
  5
AA7
  8
0
 10
0.0
 20
0.0
 30
0.0
 70
   128
 71
     9
 72
   -10
 73
     5
  0
VERTEX
  5
AA8
  8
0
 10
0.0
 20
0.0
 30
0.0
 70
   128
 71
     3
 72
     2
 73
   -10
  0
VERTEX
  5
AA9
  8
0
 10
0.0
 20
0.0
 30
0.0
 70
   128
 71
     9
 72
    -3
 73
    10
  0
SEQEND
  5
12A8
  8
0
  0
POLYLINE
  5
AAA
  8
0
 66
     1
 10
0.0
 20
0.0
 30
0.0
 70
    64
 71
    10
 72
     8
  0
VERTEX
  5
AAB
  8
0
 10
155.0
 20
-13.01
 30
17.5
 70
   192
  0
VERTEX
  5
AAC
  8
0
 10
155.0
 20
-13.01
 30
-17.5
 70
   192
  0
VERTEX
  5
AAD
  8
0
 10
155.0
 20
0.0
 30
-17.5
 70
   192
  0
VERTEX
  5
AAE
  8
0
 10
155.0
 20
0.0
 30
17.5
 70
   192
  0
VERTEX
  5
AAF
  8
0
 10
172.5
 20
0.0
 30
0.0
 70
   192
  0
VERTEX
  5
AB0
  8
0
 10
172.5
 20
-13.01
 30
0.0
 70
   192
  0
VERTEX
  5
AB1
  8
0
 10
167.3743686707646
 20
0.0
 30
12.37436867076458
 70
   192
  0
VERTEX
  5
AB2
  8
0
 10
167.3743686707646
 20
-13.01
 30
12.37436867076458
 70
   192
  0
VERTEX
  5
AB3
  8
0
 10
167.3743686707646
 20
0.0
 30
-12.37436867076458
 70
   192
  0
VERTEX
  5
AB4
  8
0
 10
167.3743686707646
 20
-13.01
 30
-12.37436867076458
 70
   192
  0
VERTEX
  5
AB5
  8
0
 10
0.0
 20
0.0
 30
0.0
 70
   128
 71
     8
 72
     1
 73
    -4
  0
VERTEX
  5
AB6
  8
0
 10
0.0
 20
0.0
 30
0.0
 70
   128
 71
     7
 72
    -8
 73
     4
  0
VERTEX
  5
AB7
  8
0
 10
0.0
 20
0.0
 30
0.0
 70
   128
 71
     6
 72
     8
 73
    -7
  0
VERTEX
  5
AB8
  8
0
 10
0.0
 20
0.0
 30
0.0
 70
   128
 71
     5
 72
    -6
 73
     7
  0
VERTEX
  5
AB9
  8
0
 10
0.0
 20
0.0
 30
0.0
 70
   128
 71
    10
 72
     6
 73
    -5
  0
VERTEX
  5
ABA
  8
0
 10
0.0
 20
0.0
 30
0.0
 70
   128
 71
     9
 72
   -10
 73
     5
  0
VERTEX
  5
ABB
  8
0
 10
0.0
 20
0.0
 30
0.0
 70
   128
 71
     3
 72
     2
 73
   -10
  0
VERTEX
  5
ABC
  8
0
 10
0.0
 20
0.0
 30
0.0
 70
   128
 71
     9
 72
    -3
 73
    10
  0
SEQEND
  5
12A9
  8
0
  0
POLYLINE
  5
ABD
  8
0
 66
     1
 10
0.0
 20
0.0
 30
0.0
 70
    64
 71
    11
 72
     9
  0
VERTEX
  5
ABE
  8
0
 10
0.0000121762469045
 20
-96.99915309214042
 30
-21.9999999999966
 70
   192
  0
VERTEX
  5
ABF
  8
0
 10
0.0
 20
-106.0000005744436
 30
-22.0
 70
   192
  0
VERTEX
  5
AC0
  8
0
 10
15.55634918610405
 20
-106.0000005744436
 30
-15.55634918610405
 70
   192
  0
VERTEX
  5
AC1
  8
0
 10
15.3368263744887
 20
-96.99909747204272
 30
-15.77282258195967
 70
   192
  0
VERTEX
  5
AC2
  8
0
 10
0.0
 20
-96.99915309214042
 30
-22.0
 70
   192
  0
VERTEX
  5
AC3
  8
0
 10
22.0
 20
-106.0000005744436
 30
0.0
 70
   192
  0
VERTEX
  5
AC4
  8
0
 10
21.99999220265357
 20
-96.999130410464
 30
-0.0185225047735599
 70
   192
  0
VERTEX
  5
AC5
  8
0
 10
15.55634918610405
 20
-106.0000005744436
 30
15.55634918610405
 70
   192
  0
VERTEX
  5
AC6
  8
0
 10
15.80797795463065
 20
-96.99893698341756
 30
15.30086600244714
 70
   192
  0
VERTEX
  5
AC7
  8
0
 10
0.0000000000000027
 20
-106.0000005744436
 30
22.0
 70
   192
  0
VERTEX
  5
AC8
  8
0
 10
0.0000000000000027
 20
-96.9991500245376
 30
22.0
 70
   192
  0
VERTEX
  5
AC9
  8
0
 10
0.0
 20
0.0
 30
0.0
 70
   128
 71
     1
 72
     2
 73
     3
  0
VERTEX
  5
ACA
  8
0
 10
0.0
 20
0.0
 30
0.0
 70
   128
 71
     4
 72
     1
 73
     3
  0
VERTEX
  5
ACB
  8
0
 10
0.0
 20
0.0
 30
0.0
 70
   128
 71
     1
 72
     5
 73
     2
  0
VERTEX
  5
ACC
  8
0
 10
0.0
 20
0.0
 30
0.0
 70
   128
 71
     6
 72
     7
 73
     4
  0
VERTEX
  5
ACD
  8
0
 10
0.0
 20
0.0
 30
0.0
 70
   128
 71
     3
 72
     6
 73
     4
  0
VERTEX
  5
ACE
  8
0
 10
0.0
 20
0.0
 30
0.0
 70
   128
 71
     8
 72
     9
 73
     7
  0
VERTEX
  5
ACF
  8
0
 10
0.0
 20
0.0
 30
0.0
 70
   128
 71
     6
 72
     8
 73
     7
  0
VERTEX
  5
AD0
  8
0
 10
0.0
 20
0.0
 30
0.0
 70
   128
 71
    10
 72
    11
 73
     9
  0
VERTEX
  5
AD1
  8
0
 10
0.0
 20
0.0
 30
0.0
 70
   128
 71
     8
 72
    10
 73
     9
  0
SEQEND
  5
12AA
  8
0
  0
POLYLINE
  5
AD2
  8
0
 66
     1
 10
0.0
 20
0.0
 30
0.0
 70
    64
 71
    17
 72
    15
  0
VERTEX
  5
AD3
  8
0
 10
11.87683793176493
 20
-85.3682188872942
 30
33.83682103609093
 70
   192
  0
VERTEX
  5
AD4
  8
0
 10
17.4861473525083
 20
-84.96681327927661
 30
32.03306578712782
 70
   192
  0
VERTEX
  5
AD5
  8
0
 10
17.32092019369388
 20
-85.15471063303146
 30
31.73434723803062
 70
   192
  0
VERTEX
  5
AD6
  8
0
 10
17.16872352576128
 20
-85.38526888330846
 30
31.45954318305303
 70
   192
  0
VERTEX
  5
AD7
  8
0
 10
5.405144892506707
 20
-85.35381474277816
 30
35.46689169896355
 70
   192
  0
VERTEX
  5
AD8
  8
0
 10
-10.49443449251217
 20
-84.82444247558146
 30
35.2926663289459
 70
   192
  0
VERTEX
  5
AD9
  8
0
 10
17.6616174694742
 20
-84.8247468216207
 30
32.350659176218
 70
   192
  0
VERTEX
  5
ADA
  8
0
 10
0.0000000454005013
 20
-85.34822751484721
 30
35.8850287579606
 70
   192
  0
VERTEX
  5
ADB
  8
0
 10
-21.9453082903717
 20
-85.40203777492734
 30
28.30934756419479
 70
   192
  0
VERTEX
  5
ADC
  8
0
 10
-32.80764011860152
 20
-85.43565665916513
 30
-14.28007060069059
 70
   192
  0
VERTEX
  5
ADD
  8
0
 10
-35.44928546412374
 20
-84.83279276984878
 30
-10.43942851697372
 70
   192
  0
VERTEX
  5
ADE
  8
0
 10
-32.46658844040139
 20
-84.8310564385549
 30
17.6220259552624
 70
   192
  0
VERTEX
  5
ADF
  8
0
 10
-34.65625757998681
 20
-85.44051808832745
 30
8.869045332004678
 70
   192
  0
VERTEX
  5
AE0
  8
0
 10
-17.1694224237289
 20
-85.3864167753228
 30
-31.45756625530965
 70
   192
  0
VERTEX
  5
AE1
  8
0
 10
-17.32210981644704
 20
-85.15525569469186
 30
-31.73317711442058
 70
   192
  0
VERTEX
  5
AE2
  8
0
 10
-17.48789550294682
 20
-84.96701068665412
 30
-32.03282549812064
 70
   192
  0
VERTEX
  5
AE3
  8
0
 10
-17.66396646429054
 20
-84.82487585550025
 30
-32.35142703154092
 70
   192
  0
VERTEX
  5
AE4
  8
0
 10
0.0
 20
0.0
 30
0.0
 70
   128
 71
     1
 72
     2
 73
     3
  0
VERTEX
  5
AE5
  8
0
 10
0.0
 20
0.0
 30
0.0
 70
   128
 71
     3
 72
     4
 73
     1
  0
VERTEX
  5
AE6
  8
0
 10
0.0
 20
0.0
 30
0.0
 70
   128
 71
     1
 72
     5
 73
     2
  0
VERTEX
  5
AE7
  8
0
 10
0.0
 20
0.0
 30
0.0
 70
   128
 71
     6
 72
     7
 73
     2
  0
VERTEX
  5
AE8
  8
0
 10
0.0
 20
0.0
 30
0.0
 70
   128
 71
     5
 72
     8
 73
     6
  0
VERTEX
  5
AE9
  8
0
 10
0.0
 20
0.0
 30
0.0
 70
   128
 71
     2
 72
     5
 73
     6
  0
VERTEX
  5
AEA
  8
0
 10
0.0
 20
0.0
 30
0.0
 70
   128
 71
     8
 72
     9
 73
     6
  0
VERTEX
  5
AEB
  8
0
 10
0.0
 20
0.0
 30
0.0
 70
   128
 71
    10
 72
    11
 73
    12
  0
VERTEX
  5
AEC
  8
0
 10
0.0
 20
0.0
 30
0.0
 70
   128
 71
    13
 72
    10
 73
    12
  0
VERTEX
  5
AED
  8
0
 10
0.0
 20
0.0
 30
0.0
 70
   128
 71
    10
 72
    14
 73
    15
  0
VERTEX
  5
AEE
  8
0
 10
0.0
 20
0.0
 30
0.0
 70
   128
 71
    15
 72
    16
 73
    10
  0
VERTEX
  5
AEF
  8
0
 10
0.0
 20
0.0
 30
0.0
 70
   128
 71
    16
 72
    11
 73
    10
  0
VERTEX
  5
AF0
  8
0
 10
0.0
 20
0.0
 30
0.0
 70
   128
 71
    16
 72
    17
 73
    11
  0
VERTEX
  5
AF1
  8
0
 10
0.0
 20
0.0
 30
0.0
 70
   128
 71
    12
 72
     6
 73
     9
  0
VERTEX
  5
AF2
  8
0
 10
0.0
 20
0.0
 30
0.0
 70
   128
 71
    13
 72
    12
 73
     9
  0
SEQEND
  5
12AB
  8
0
  0
POLYLINE
  5
AF3
  8
0
 66
     1
 10
0.0
 20
0.0
 30
0.0
 70
    64
 71
    17
 72
    15
  0
VERTEX
  5
AF4
  8
0
 10
-17.67677854710223
 20
-88.68663804995751
 30
-57.22293670175418
 70
   192
  0
VERTEX
  5
AF5
  8
0
 10
-17.20709705544803
 20
-90.7258768562329
 30
-56.53195306914704
 70
   192
  0
VERTEX
  5
AF6
  8
0
 10
-48.6155932952945
 20
-95.8808200147189
 30
-31.09875896879916
 70
   192
  0
VERTEX
  5
AF7
  8
0
 10
-56.35234941811017
 20
-89.51537281693699
 30
-29.24972465075744
 70
   192
  0
VERTEX
  5
AF8
  8
0
 10
-18.26024817952858
 20
-86.87213284405789
 30
-58.3291410404513
 70
   192
  0
VERTEX
  5
AF9
  8
0
 10
-18.9291694349946
 20
-85.3704836635671
 30
-59.796842674255
 70
   192
  0
VERTEX
  5
AFA
  8
0
 10
18.32271596718547
 20
-86.84894264850668
 30
58.31301377509556
 70
   192
  0
VERTEX
  5
AFB
  8
0
 10
18.99127253945916
 20
-85.34812186966506
 30
59.77685292897104
 70
   192
  0
VERTEX
  5
AFC
  8
0
 10
11.63958637443792
 20
-90.03951146214884
 30
58.1225891676915
 70
   192
  0
VERTEX
  5
AFD
  8
0
 10
17.73992400332722
 20
-88.66146810828171
 30
57.20967296035086
 70
   192
  0
VERTEX
  5
AFE
  8
0
 10
17.27111692656115
 20
-90.69793112672781
 30
56.5202570711901
 70
   192
  0
VERTEX
  5
AFF
  8
0
 10
5.832016583307705
 20
-89.60638186914078
 30
59.10554043132124
 70
   192
  0
VERTEX
  5
B00
  8
0
 10
-0.0000000000004836
 20
-89.45655850059731
 30
59.4328019437182
 70
   192
  0
VERTEX
  5
B01
  8
0
 10
-56.81530373352025
 20
-96.72015772646023
 30
8.759108337118567
 70
   192
  0
VERTEX
  5
B02
  8
0
 10
-60.69791816924209
 20
-89.81939260940217
 30
18.91903974561819
 70
   192
  0
VERTEX
  5
B03
  8
0
 10
-37.49502935268949
 20
-94.10895301510709
 30
44.49445187358436
 70
   192
  0
VERTEX
  5
B04
  8
0
 10
-29.27876542620715
 20
-86.4764189067572
 30
55.59052662435207
 70
   192
  0
VERTEX
  5
B05
  8
0
 10
0.0
 20
0.0
 30
0.0
 70
   128
 71
     1
 72
     2
 73
     3
  0
VERTEX
  5
B06
  8
0
 10
0.0
 20
0.0
 30
0.0
 70
   128
 71
     3
 72
     4
 73
     5
  0
VERTEX
  5
B07
  8
0
 10
0.0
 20
0.0
 30
0.0
 70
   128
 71
     3
 72
     5
 73
     1
  0
VERTEX
  5
B08
  8
0
 10
0.0
 20
0.0
 30
0.0
 70
   128
 71
     4
 72
     6
 73
     5
  0
VERTEX
  5
B09
  8
0
 10
0.0
 20
0.0
 30
0.0
 70
   128
 71
     7
 72
     8
 73
     9
  0
VERTEX
  5
B0A
  8
0
 10
0.0
 20
0.0
 30
0.0
 70
   128
 71
     9
 72
    10
 73
     7
  0
VERTEX
  5
B0B
  8
0
 10
0.0
 20
0.0
 30
0.0
 70
   128
 71
     9
 72
    11
 73
    10
  0
VERTEX
  5
B0C
  8
0
 10
0.0
 20
0.0
 30
0.0
 70
   128
 71
     8
 72
    12
 73
     9
  0
VERTEX
  5
B0D
  8
0
 10
0.0
 20
0.0
 30
0.0
 70
   128
 71
     8
 72
    13
 73
    12
  0
VERTEX
  5
B0E
  8
0
 10
0.0
 20
0.0
 30
0.0
 70
   128
 71
     3
 72
    14
 73
    15
  0
VERTEX
  5
B0F
  8
0
 10
0.0
 20
0.0
 30
0.0
 70
   128
 71
     3
 72
    15
 73
     4
  0
VERTEX
  5
B10
  8
0
 10
0.0
 20
0.0
 30
0.0
 70
   128
 71
    14
 72
    16
 73
    17
  0
VERTEX
  5
B11
  8
0
 10
0.0
 20
0.0
 30
0.0
 70
   128
 71
    14
 72
    17
 73
    15
  0
VERTEX
  5
B12
  8
0
 10
0.0
 20
0.0
 30
0.0
 70
   128
 71
    16
 72
    13
 73
     8
  0
VERTEX
  5
B13
  8
0
 10
0.0
 20
0.0
 30
0.0
 70
   128
 71
    16
 72
     8
 73
    17
  0
SEQEND
  5
12AC
  8
0
  0
POLYLINE
  5
B14
  8
0
 66
     1
 10
0.0
 20
0.0
 30
0.0
 70
    64
 71
    13
 72
    11
  0
VERTEX
  5
B15
  8
0
 10
5.832016583307705
 20
-89.60638186914078
 30
59.10554043132124
 70
   192
  0
VERTEX
  5
B16
  8
0
 10
-0.0000000000004836
 20
-89.45655850059731
 30
59.4328019437182
 70
   192
  0
VERTEX
  5
B17
  8
0
 10
-0.0000000000000067
 20
-106.0000005744436
 30
55.0
 70
   192
  0
VERTEX
  5
B18
  8
0
 10
11.63958637443792
 20
-90.03951146214884
 30
58.1225891676915
 70
   192
  0
VERTEX
  5
B19
  8
0
 10
17.27111692656115
 20
-90.69793112672781
 30
56.5202570711901
 70
   192
  0
VERTEX
  5
B1A
  8
0
 10
38.89087296526012
 20
-106.0000005744436
 30
-38.89087296526012
 70
   192
  0
VERTEX
  5
B1B
  8
0
 10
0.0
 20
-106.0000005744436
 30
-55.0
 70
   192
  0
VERTEX
  5
B1C
  8
0
 10
0.0
 20
-89.48385834534668
 30
-59.42548697236408
 70
   192
  0
VERTEX
  5
B1D
  8
0
 10
37.51764298680664
 20
-94.15812277716071
 30
-44.45814780142602
 70
   192
  0
VERTEX
  5
B1E
  8
0
 10
38.89087296526012
 20
-106.0000005744436
 30
38.89087296526012
 70
   192
  0
VERTEX
  5
B1F
  8
0
 10
48.62968103416114
 20
-95.86548720564507
 30
31.08435402399297
 70
   192
  0
VERTEX
  5
B20
  8
0
 10
55.00000000000001
 20
-106.0000005744436
 30
0.0
 70
   192
  0
VERTEX
  5
B21
  8
0
 10
56.81763592105919
 20
-96.72557661858161
 30
-8.73441630433806
 70
   192
  0
VERTEX
  5
B22
  8
0
 10
0.0
 20
0.0
 30
0.0
 70
   128
 71
     1
 72
     2
 73
     3
  0
VERTEX
  5
B23
  8
0
 10
0.0
 20
0.0
 30
0.0
 70
   128
 71
     3
 72
     4
 73
     1
  0
VERTEX
  5
B24
  8
0
 10
0.0
 20
0.0
 30
0.0
 70
   128
 71
     5
 72
     4
 73
     3
  0
VERTEX
  5
B25
  8
0
 10
0.0
 20
0.0
 30
0.0
 70
   128
 71
     6
 72
     7
 73
     8
  0
VERTEX
  5
B26
  8
0
 10
0.0
 20
0.0
 30
0.0
 70
   128
 71
     6
 72
     8
 73
     9
  0
VERTEX
  5
B27
  8
0
 10
0.0
 20
0.0
 30
0.0
 70
   128
 71
     5
 72
     3
 73
    10
  0
VERTEX
  5
B28
  8
0
 10
0.0
 20
0.0
 30
0.0
 70
   128
 71
     5
 72
    10
 73
    11
  0
VERTEX
  5
B29
  8
0
 10
0.0
 20
0.0
 30
0.0
 70
   128
 71
    11
 72
    10
 73
    12
  0
VERTEX
  5
B2A
  8
0
 10
0.0
 20
0.0
 30
0.0
 70
   128
 71
    11
 72
    12
 73
    13
  0
VERTEX
  5
B2B
  8
0
 10
0.0
 20
0.0
 30
0.0
 70
   128
 71
    13
 72
    12
 73
     6
  0
VERTEX
  5
B2C
  8
0
 10
0.0
 20
0.0
 30
0.0
 70
   128
 71
    13
 72
     6
 73
     9
  0
SEQEND
  5
12AD
  8
0
  0
POLYLINE
  5
B2D
  8
0
 66
     1
 10
0.0
 20
0.0
 30
0.0
 70
    64
 71
    18
 72
    16
  0
VERTEX
  5
B2E
  8
0
 10
109.5997050207594
 20
-15.0944103334666
 30
87.43261698186329
 70
   192
  0
VERTEX
  5
B2F
  8
0
 10
104.4009415674373
 20
-26.96451011952268
 30
87.29754461746376
 70
   192
  0
VERTEX
  5
B30
  8
0
 10
96.4685622465773
 20
-37.13377110785122
 30
87.15503984487526
 70
   192
  0
VERTEX
  5
B31
  8
0
 10
85.38658104976793
 20
-43.58576294282464
 30
86.99387511980254
 70
   192
  0
VERTEX
  5
B32
  8
0
 10
85.06311394449587
 20
-41.96428814918009
 30
90.2797603321127
 70
   192
  0
VERTEX
  5
B33
  8
0
 10
85.27079990968015
 20
-42.50296453716789
 30
93.91260321228054
 70
   192
  0
VERTEX
  5
B34
  8
0
 10
85.9318382668435
 20
-45.0
 30
96.5315143010492
 70
   192
  0
VERTEX
  5
B35
  8
0
 10
88.18305175446379
 20
-45.0
 30
96.75837224645467
 70
   192
  0
VERTEX
  5
B36
  8
0
 10
90.43058801816039
 20
-44.99999999999999
 30
96.9337582634603
 70
   192
  0
VERTEX
  5
B37
  8
0
 10
92.5564280267746
 20
-45.0
 30
97.0
 70
   192
  0
VERTEX
  5
B38
  8
0
 10
102.3031830551577
 20
-37.94660940858741
 30
96.38290828383097
 70
   192
  0
VERTEX
  5
B39
  8
0
 10
109.674584935448
 20
-28.43081744546608
 30
95.5503843625868
 70
   192
  0
VERTEX
  5
B3A
  8
0
 10
114.8074804271288
 20
-17.5742212862617
 30
94.60055527417731
 70
   192
  0
VERTEX
  5
B3B
  8
0
 10
112.803137702777
 20
-16.29019446111128
 30
94.01428829353996
 70
   192
  0
VERTEX
  5
B3C
  8
0
 10
111.1548855367386
 20
-15.39712136114245
 30
92.66980699762416
 70
   192
  0
VERTEX
  5
B3D
  8
0
 10
109.9670467175106
 20
-15.01534080413075
 30
90.7174461238327
 70
   192
  0
VERTEX
  5
B3E
  8
0
 10
109.6402720129525
 20
-15.00604704388343
 30
89.64717283019952
 70
   192
  0
VERTEX
  5
B3F
  8
0
 10
109.5172612804225
 20
-15.03224973847412
 30
88.55196777285408
 70
   192
  0
VERTEX
  5
B40
  8
0
 10
0.0
 20
0.0
 30
0.0
 70
   128
 71
     8
 72
     7
 73
    11
  0
VERTEX
  5
B41
  8
0
 10
0.0
 20
0.0
 30
0.0
 70
   128
 71
    11
 72
     9
 73
     8
  0
VERTEX
  5
B42
  8
0
 10
0.0
 20
0.0
 30
0.0
 70
   128
 71
    11
 72
    10
 73
     9
  0
VERTEX
  5
B43
  8
0
 10
0.0
 20
0.0
 30
0.0
 70
   128
 71
     7
 72
    12
 73
    11
  0
VERTEX
  5
B44
  8
0
 10
0.0
 20
0.0
 30
0.0
 70
   128
 71
     7
 72
    14
 73
    13
  0
VERTEX
  5
B45
  8
0
 10
0.0
 20
0.0
 30
0.0
 70
   128
 71
     7
 72
    13
 73
    12
  0
VERTEX
  5
B46
  8
0
 10
0.0
 20
0.0
 30
0.0
 70
   128
 71
     7
 72
     6
 73
    15
  0
VERTEX
  5
B47
  8
0
 10
0.0
 20
0.0
 30
0.0
 70
   128
 71
     7
 72
    15
 73
    14
  0
VERTEX
  5
B48
  8
0
 10
0.0
 20
0.0
 30
0.0
 70
   128
 71
     6
 72
     5
 73
    16
  0
VERTEX
  5
B49
  8
0
 10
0.0
 20
0.0
 30
0.0
 70
   128
 71
     6
 72
    16
 73
    15
  0
VERTEX
  5
B4A
  8
0
 10
0.0
 20
0.0
 30
0.0
 70
   128
 71
     5
 72
    17
 73
    16
  0
VERTEX
  5
B4B
  8
0
 10
0.0
 20
0.0
 30
0.0
 70
   128
 71
     5
 72
     4
 73
    18
  0
VERTEX
  5
B4C
  8
0
 10
0.0
 20
0.0
 30
0.0
 70
   128
 71
     5
 72
    18
 73
    17
  0
VERTEX
  5
B4D
  8
0
 10
0.0
 20
0.0
 30
0.0
 70
   128
 71
     2
 72
     1
 73
    18
  0
VERTEX
  5
B4E
  8
0
 10
0.0
 20
0.0
 30
0.0
 70
   128
 71
    18
 72
     3
 73
     2
  0
VERTEX
  5
B4F
  8
0
 10
0.0
 20
0.0
 30
0.0
 70
   128
 71
    18
 72
     4
 73
     3
  0
SEQEND
  5
12AE
  8
0
  0
POLYLINE
  5
B50
  8
0
 66
     1
 10
0.0
 20
0.0
 30
0.0
 70
    64
 71
    12
 72
    10
  0
VERTEX
  5
B51
  8
0
 10
78.5219319982106
 20
-45.32563605504941
 30
87.0341612911577
 70
   192
  0
VERTEX
  5
B52
  8
0
 10
77.28437079508534
 20
-45.14649286031646
 30
87.54962636136791
 70
   192
  0
VERTEX
  5
B53
  8
0
 10
76.06129145149245
 20
-45.03680091662947
 30
88.0889419405718
 70
   192
  0
VERTEX
  5
B54
  8
0
 10
74.832409648401
 20
-45.0
 30
88.6384085326333
 70
   192
  0
VERTEX
  5
B55
  8
0
 10
73.05303130478708
 20
-44.99999032360154
 30
93.30047953053032
 70
   192
  0
VERTEX
  5
B56
  8
0
 10
79.29851227752346
 20
-44.99997552030858
 30
95.51215509732852
 70
   192
  0
VERTEX
  5
B57
  8
0
 10
85.93183826684859
 20
-45.00000000001178
 30
96.53151430102494
 70
   192
  0
VERTEX
  5
B58
  8
0
 10
85.27079990968015
 20
-42.50296453716789
 30
93.91260321228054
 70
   192
  0
VERTEX
  5
B59
  8
0
 10
85.06311394449587
 20
-41.96428814918009
 30
90.2797603321127
 70
   192
  0
VERTEX
  5
B5A
  8
0
 10
85.386581049768
 20
-43.58576294282459
 30
86.99387511980251
 70
   192
  0
VERTEX
  5
B5B
  8
0
 10
83.13271690223554
 20
-44.16470213863156
 30
87.00663079261233
 70
   192
  0
VERTEX
  5
B5C
  8
0
 10
80.84452053886578
 20
-44.74491496152945
 30
87.02008201523196
 70
   192
  0
VERTEX
  5
B5D
  8
0
 10
0.0
 20
0.0
 30
0.0
 70
   128
 71
     8
 72
     7
 73
     6
  0
VERTEX
  5
B5E
  8
0
 10
0.0
 20
0.0
 30
0.0
 70
   128
 71
     6
 72
     9
 73
     8
  0
VERTEX
  5
B5F
  8
0
 10
0.0
 20
0.0
 30
0.0
 70
   128
 71
     6
 72
    11
 73
     9
  0
VERTEX
  5
B60
  8
0
 10
0.0
 20
0.0
 30
0.0
 70
   128
 71
    11
 72
    10
 73
     9
  0
VERTEX
  5
B61
  8
0
 10
0.0
 20
0.0
 30
0.0
 70
   128
 71
     6
 72
    12
 73
    11
  0
VERTEX
  5
B62
  8
0
 10
0.0
 20
0.0
 30
0.0
 70
   128
 71
     2
 72
     1
 73
    12
  0
VERTEX
  5
B63
  8
0
 10
0.0
 20
0.0
 30
0.0
 70
   128
 71
    12
 72
     3
 73
     2
  0
VERTEX
  5
B64
  8
0
 10
0.0
 20
0.0
 30
0.0
 70
   128
 71
    12
 72
     4
 73
     3
  0
VERTEX
  5
B65
  8
0
 10
0.0
 20
0.0
 30
0.0
 70
   128
 71
    12
 72
     5
 73
     4
  0
VERTEX
  5
B66
  8
0
 10
0.0
 20
0.0
 30
0.0
 70
   128
 71
    12
 72
     6
 73
     5
  0
SEQEND
  5
12AF
  8
0
  0
POLYLINE
  5
B67
  8
0
 66
     1
 10
0.0
 20
0.0
 30
0.0
 70
    64
 71
    12
 72
    10
  0
VERTEX
  5
B68
  8
0
 10
85.9506407284219
 20
-45.0
 30
-96.52541637793979
 70
   192
  0
VERTEX
  5
B69
  8
0
 10
79.36389012198653
 20
-44.9999771903985
 30
-95.5023431969061
 70
   192
  0
VERTEX
  5
B6A
  8
0
 10
73.1677734654472
 20
-44.99999117559473
 30
-93.28182310854838
 70
   192
  0
VERTEX
  5
B6B
  8
0
 10
74.96175101516688
 20
-45.0
 30
-88.639925597834
 70
   192
  0
VERTEX
  5
B6C
  8
0
 10
76.18367101294918
 20
-45.03685908387889
 30
-88.09036001853256
 70
   192
  0
VERTEX
  5
B6D
  8
0
 10
77.40002637713542
 20
-45.14642730519807
 30
-87.55087407078018
 70
   192
  0
VERTEX
  5
B6E
  8
0
 10
78.63116605934
 20
-45.325677130299
 30
-87.0352299752978
 70
   192
  0
VERTEX
  5
B6F
  8
0
 10
80.92100218764853
 20
-44.75022958308634
 30
-87.02117108887599
 70
   192
  0
VERTEX
  5
B70
  8
0
 10
83.17937260530323
 20
-44.17476434389857
 30
-87.00771321758063
 70
   192
  0
VERTEX
  5
B71
  8
0
 10
85.40633178203497
 20
-43.60000504359624
 30
-86.99492200699385
 70
   192
  0
VERTEX
  5
B72
  8
0
 10
85.0814186125711
 20
-41.97955431130666
 30
-90.27569234679926
 70
   192
  0
VERTEX
  5
B73
  8
0
 10
85.28866477487583
 20
-42.51260375663881
 30
-93.9044373754637
 70
   192
  0
VERTEX
  5
B74
  8
0
 10
0.0
 20
0.0
 30
0.0
 70
   128
 71
     5
 72
     4
 73
     8
  0
VERTEX
  5
B75
  8
0
 10
0.0
 20
0.0
 30
0.0
 70
   128
 71
     8
 72
     6
 73
     5
  0
VERTEX
  5
B76
  8
0
 10
0.0
 20
0.0
 30
0.0
 70
   128
 71
     8
 72
     7
 73
     6
  0
VERTEX
  5
B77
  8
0
 10
0.0
 20
0.0
 30
0.0
 70
   128
 71
     4
 72
     9
 73
     8
  0
VERTEX
  5
B78
  8
0
 10
0.0
 20
0.0
 30
0.0
 70
   128
 71
     4
 72
    11
 73
    10
  0
VERTEX
  5
B79
  8
0
 10
0.0
 20
0.0
 30
0.0
 70
   128
 71
     4
 72
    10
 73
     9
  0
VERTEX
  5
B7A
  8
0
 10
0.0
 20
0.0
 30
0.0
 70
   128
 71
    11
 72
     4
 73
     3
  0
VERTEX
  5
B7B
  8
0
 10
0.0
 20
0.0
 30
0.0
 70
   128
 71
     3
 72
    12
 73
    11
  0
VERTEX
  5
B7C
  8
0
 10
0.0
 20
0.0
 30
0.0
 70
   128
 71
     2
 72
     1
 73
    12
  0
VERTEX
  5
B7D
  8
0
 10
0.0
 20
0.0
 30
0.0
 70
   128
 71
    12
 72
     3
 73
     2
  0
SEQEND
  5
12B0
  8
0
  0
POLYLINE
  5
B7E
  8
0
 66
     1
 10
0.0
 20
0.0
 30
0.0
 70
    64
 71
    18
 72
    16
  0
VERTEX
  5
B7F
  8
0
 10
92.59173774932279
 20
-45.0
 30
-97.0
 70
   192
  0
VERTEX
  5
B80
  8
0
 10
90.46027776435929
 20
-45.0
 30
-96.93295997540272
 70
   192
  0
VERTEX
  5
B81
  8
0
 10
88.207394106567
 20
-45.00000000000001
 30
-96.75540346959916
 70
   192
  0
VERTEX
  5
B82
  8
0
 10
85.9506407284189
 20
-44.99999999999332
 30
-96.5254163779535
 70
   192
  0
VERTEX
  5
B83
  8
0
 10
85.28866477487583
 20
-42.51260375663881
 30
-93.9044373754637
 70
   192
  0
VERTEX
  5
B84
  8
0
 10
85.0814186125711
 20
-41.97955431130666
 30
-90.27569234679926
 70
   192
  0
VERTEX
  5
B85
  8
0
 10
85.40633178203501
 20
-43.6000050435963
 30
-86.9949220069939
 70
   192
  0
VERTEX
  5
B86
  8
0
 10
96.39896280150485
 20
-37.21347133893038
 30
-87.15547479063002
 70
   192
  0
VERTEX
  5
B87
  8
0
 10
104.3292062044109
 20
-27.09835282191579
 30
-87.29726354069153
 70
   192
  0
VERTEX
  5
B88
  8
0
 10
109.6009671060398
 20
-15.09493613264435
 30
-87.4332637086806
 70
   192
  0
VERTEX
  5
B89
  8
0
 10
109.5191007818987
 20
-15.03271893670277
 30
-88.55805035710803
 70
   192
  0
VERTEX
  5
B8A
  8
0
 10
109.6426132252122
 20
-15.00647479118939
 30
-89.65302154705098
 70
   192
  0
VERTEX
  5
B8B
  8
0
 10
109.9684393556704
 20
-15.01587049087395
 30
-90.71749246541751
 70
   192
  0
VERTEX
  5
B8C
  8
0
 10
111.156295446118
 20
-15.39750722055163
 30
-92.66978234410635
 70
   192
  0
VERTEX
  5
B8D
  8
0
 10
112.8250311088531
 20
-16.30176650108674
 30
-94.02502001656404
 70
   192
  0
VERTEX
  5
B8E
  8
0
 10
114.8093050750674
 20
-17.5742212862617
 30
-94.60055527417721
 70
   192
  0
VERTEX
  5
B8F
  8
0
 10
109.6551762528775
 20
-28.47345674719105
 30
-95.55411481810833
 70
   192
  0
VERTEX
  5
B90
  8
0
 10
102.3001588546762
 20
-37.9623606140653
 30
-96.38428633574706
 70
   192
  0
VERTEX
  5
B91
  8
0
 10
0.0
 20
0.0
 30
0.0
 70
   128
 71
    11
 72
    10
 73
     9
  0
VERTEX
  5
B92
  8
0
 10
0.0
 20
0.0
 30
0.0
 70
   128
 71
     9
 72
    12
 73
    11
  0
VERTEX
  5
B93
  8
0
 10
0.0
 20
0.0
 30
0.0
 70
   128
 71
     9
 72
    13
 73
    12
  0
VERTEX
  5
B94
  8
0
 10
0.0
 20
0.0
 30
0.0
 70
   128
 71
     9
 72
    14
 73
    13
  0
VERTEX
  5
B95
  8
0
 10
0.0
 20
0.0
 30
0.0
 70
   128
 71
     9
 72
    15
 73
    14
  0
VERTEX
  5
B96
  8
0
 10
0.0
 20
0.0
 30
0.0
 70
   128
 71
     9
 72
    17
 73
    15
  0
VERTEX
  5
B97
  8
0
 10
0.0
 20
0.0
 30
0.0
 70
   128
 71
    17
 72
    16
 73
    15
  0
VERTEX
  5
B98
  8
0
 10
0.0
 20
0.0
 30
0.0
 70
   128
 71
     9
 72
     8
 73
    18
  0
VERTEX
  5
B99
  8
0
 10
0.0
 20
0.0
 30
0.0
 70
   128
 71
     9
 72
    18
 73
    17
  0
VERTEX
  5
B9A
  8
0
 10
0.0
 20
0.0
 30
0.0
 70
   128
 71
     2
 72
     1
 73
    18
  0
VERTEX
  5
B9B
  8
0
 10
0.0
 20
0.0
 30
0.0
 70
   128
 71
    18
 72
     3
 73
     2
  0
VERTEX
  5
B9C
  8
0
 10
0.0
 20
0.0
 30
0.0
 70
   128
 71
    18
 72
     4
 73
     3
  0
VERTEX
  5
B9D
  8
0
 10
0.0
 20
0.0
 30
0.0
 70
   128
 71
    18
 72
     5
 73
     4
  0
VERTEX
  5
B9E
  8
0
 10
0.0
 20
0.0
 30
0.0
 70
   128
 71
    18
 72
     6
 73
     5
  0
VERTEX
  5
B9F
  8
0
 10
0.0
 20
0.0
 30
0.0
 70
   128
 71
    18
 72
     8
 73
     6
  0
VERTEX
  5
BA0
  8
0
 10
0.0
 20
0.0
 30
0.0
 70
   128
 71
     8
 72
     7
 73
     6
  0
SEQEND
  5
12B1
  8
0
  0
POLYLINE
  5
BA1
  8
0
 66
     1
 10
0.0
 20
0.0
 30
0.0
 70
    64
 71
    12
 72
    10
  0
VERTEX
  5
BA2
  8
0
 10
-178.1282855224185
 20
-17.46257376706662
 30
-89.0860690410626
 70
   192
  0
VERTEX
  5
BA3
  8
0
 10
-178.4043719388966
 20
-20.16672944733378
 30
-94.10343269948054
 70
   192
  0
VERTEX
  5
BA4
  8
0
 10
-177.8865509225043
 20
-18.24456507525648
 30
-91.93748263252047
 70
   192
  0
VERTEX
  5
BA5
  8
0
 10
-177.6570872035975
 20
-17.55828444532435
 30
-89.0860690410626
 70
   192
  0
VERTEX
  5
BA6
  8
0
 10
-178.605634630941
 20
-17.40490039205624
 30
-89.0860690410626
 70
   192
  0
VERTEX
  5
BA7
  8
0
 10
-179.086069041063
 20
-17.38563469292355
 30
-89.0860690410626
 70
   192
  0
VERTEX
  5
BA8
  8
0
 10
-184.0989959095421
 20
-20.08858082450096
 30
-89.0860690410626
 70
   192
  0
VERTEX
  5
BA9
  8
0
 10
-185.0632372296138
 20
-22.86270023644162
 30
-89.0860690410626
 70
   192
  0
VERTEX
  5
BAA
  8
0
 10
-184.2473965524638
 20
-22.67374985292112
 30
-92.06162248446057
 70
   192
  0
VERTEX
  5
BAB
  8
0
 10
-182.0616224844789
 20
-22.67374985292113
 30
-94.2473965524454
 70
   192
  0
VERTEX
  5
BAC
  8
0
 10
-179.0860690410627
 20
-22.86270023644168
 30
-95.06323722959489
 70
   192
  0
VERTEX
  5
BAD
  8
0
 10
-181.93367125955
 20
-18.10442634584351
 30
-89.0860690410626
 70
   192
  0
VERTEX
  5
BAE
  8
0
 10
0.0
 20
0.0
 30
0.0
 70
   128
 71
     1
 72
     2
 73
     3
  0
VERTEX
  5
BAF
  8
0
 10
0.0
 20
0.0
 30
0.0
 70
   128
 71
     3
 72
     4
 73
     1
  0
VERTEX
  5
BB0
  8
0
 10
0.0
 20
0.0
 30
0.0
 70
   128
 71
     1
 72
     5
 73
     2
  0
VERTEX
  5
BB1
  8
0
 10
0.0
 20
0.0
 30
0.0
 70
   128
 71
     5
 72
     6
 73
     2
  0
VERTEX
  5
BB2
  8
0
 10
0.0
 20
0.0
 30
0.0
 70
   128
 71
     7
 72
     8
 73
     9
  0
VERTEX
  5
BB3
  8
0
 10
0.0
 20
0.0
 30
0.0
 70
   128
 71
     9
 72
    10
 73
     7
  0
VERTEX
  5
BB4
  8
0
 10
0.0
 20
0.0
 30
0.0
 70
   128
 71
    11
 72
     2
 73
     6
  0
VERTEX
  5
BB5
  8
0
 10
0.0
 20
0.0
 30
0.0
 70
   128
 71
    11
 72
     6
 73
    12
  0
VERTEX
  5
BB6
  8
0
 10
0.0
 20
0.0
 30
0.0
 70
   128
 71
    11
 72
    12
 73
     7
  0
VERTEX
  5
BB7
  8
0
 10
0.0
 20
0.0
 30
0.0
 70
   128
 71
    10
 72
    11
 73
     7
  0
SEQEND
  5
12B2
  8
0
  0
POLYLINE
  5
BB8
  8
0
 66
     1
 10
0.0
 20
0.0
 30
0.0
 70
    64
 71
     8
 72
     6
  0
VERTEX
  5
BB9
  8
0
 10
-182.0616224844789
 20
-22.67374985292113
 30
-94.2473965524454
 70
   192
  0
VERTEX
  5
BBA
  8
0
 10
-184.2473965524638
 20
-22.67374985292112
 30
-92.06162248446057
 70
   192
  0
VERTEX
  5
BBB
  8
0
 10
-186.2375233679644
 20
-45.00000000000003
 30
-93.95009347185737
 70
   192
  0
VERTEX
  5
BBC
  8
0
 10
-183.9500934718575
 20
-45.00000000000003
 30
-96.23752336796431
 70
   192
  0
VERTEX
  5
BBD
  8
0
 10
-185.0632372296135
 20
-22.86270023644165
 30
-89.08606904104441
 70
   192
  0
VERTEX
  5
BBE
  8
0
 10
-186.9999999999999
 20
-45.00000000000001
 30
-91.02283181144945
 70
   192
  0
VERTEX
  5
BBF
  8
0
 10
-179.0860690410627
 20
-22.86270023644168
 30
-95.06323722959489
 70
   192
  0
VERTEX
  5
BC0
  8
0
 10
-181.0228318114495
 20
-45.00000000000001
 30
-97.00000000000003
 70
   192
  0
VERTEX
  5
BC1
  8
0
 10
0.0
 20
0.0
 30
0.0
 70
   128
 71
     1
 72
     2
 73
    -3
  0
VERTEX
  5
BC2
  8
0
 10
0.0
 20
0.0
 30
0.0
 70
   128
 71
     4
 72
    -1
 73
     3
  0
VERTEX
  5
BC3
  8
0
 10
0.0
 20
0.0
 30
0.0
 70
   128
 71
     2
 72
     5
 73
     6
  0
VERTEX
  5
BC4
  8
0
 10
0.0
 20
0.0
 30
0.0
 70
   128
 71
     3
 72
     2
 73
     6
  0
VERTEX
  5
BC5
  8
0
 10
0.0
 20
0.0
 30
0.0
 70
   128
 71
     7
 72
     1
 73
     4
  0
VERTEX
  5
BC6
  8
0
 10
0.0
 20
0.0
 30
0.0
 70
   128
 71
     8
 72
     7
 73
     4
  0
SEQEND
  5
12B3
  8
0
  0
POLYLINE
  5
BC7
  8
0
 66
     1
 10
0.0
 20
0.0
 30
0.0
 70
    64
 71
    18
 72
    16
  0
VERTEX
  5
BC8
  8
0
 10
-78.5668791509734
 20
-45.32588149812479
 30
-87.0503571328791
 70
   192
  0
VERTEX
  5
BC9
  8
0
 10
-77.33584873140823
 20
-45.14671662154173
 30
-87.5656658736072
 70
   192
  0
VERTEX
  5
BCA
  8
0
 10
-76.1192105091192
 20
-45.03691642449618
 30
-88.10482927028268
 70
   192
  0
VERTEX
  5
BCB
  8
0
 10
-74.89684579386481
 20
-45.0
 30
-88.65417575906629
 70
   192
  0
VERTEX
  5
BCC
  8
0
 10
-75.74634618657606
 20
-44.99976512190383
 30
-94.52747623794166
 70
   192
  0
VERTEX
  5
BCD
  8
0
 10
-85.5593678671014
 20
-44.99913806440977
 30
-96.49184364473547
 70
   192
  0
VERTEX
  5
BCE
  8
0
 10
-95.34185660222471
 20
-45.0
 30
-97.0
 70
   192
  0
VERTEX
  5
BCF
  8
0
 10
-123.2609341719493
 20
-37.63719369025939
 30
-96.35583791616051
 70
   192
  0
VERTEX
  5
BD0
  8
0
 10
-151.1304244573551
 20
-30.08822628188908
 30
-95.6953888466013
 70
   192
  0
VERTEX
  5
BD1
  8
0
 10
-179.086069041063
 20
-22.86270023643747
 30
-95.06323722961307
 70
   192
  0
VERTEX
  5
BD2
  8
0
 10
-178.4043719388966
 20
-20.16672944733378
 30
-94.10343269948054
 70
   192
  0
VERTEX
  5
BD3
  8
0
 10
-177.8865509225043
 20
-18.24456507525648
 30
-91.93748263252047
 70
   192
  0
VERTEX
  5
BD4
  8
0
 10
-177.6570872035975
 20
-17.55828444532435
 30
-89.0860690410626
 70
   192
  0
VERTEX
  5
BD5
  8
0
 10
-177.6520525072644
 20
-17.57562463637102
 30
-88.65319524473011
 70
   192
  0
VERTEX
  5
BD6
  8
0
 10
-177.6544948430047
 20
-17.62325850292012
 30
-88.2225784734616
 70
   192
  0
VERTEX
  5
BD7
  8
0
 10
-177.664401476361
 20
-17.7009376796707
 30
-87.7964639840824
 70
   192
  0
VERTEX
  5
BD8
  8
0
 10
-144.9470123448677
 20
-26.75255313365654
 30
-87.07958279287766
 70
   192
  0
VERTEX
  5
BD9
  8
0
 10
-112.0242326677063
 20
-36.28733207889846
 30
-86.91668848367324
 70
   192
  0
VERTEX
  5
BDA
  8
0
 10
0.0
 20
0.0
 30
0.0
 70
   128
 71
    11
 72
    10
 73
     9
  0
VERTEX
  5
BDB
  8
0
 10
0.0
 20
0.0
 30
0.0
 70
   128
 71
     9
 72
    12
 73
    11
  0
VERTEX
  5
BDC
  8
0
 10
0.0
 20
0.0
 30
0.0
 70
   128
 71
     9
 72
    17
 73
    12
  0
VERTEX
  5
BDD
  8
0
 10
0.0
 20
0.0
 30
0.0
 70
   128
 71
    17
 72
    13
 73
    12
  0
VERTEX
  5
BDE
  8
0
 10
0.0
 20
0.0
 30
0.0
 70
   128
 71
    17
 72
    14
 73
    13
  0
VERTEX
  5
BDF
  8
0
 10
0.0
 20
0.0
 30
0.0
 70
   128
 71
    17
 72
    15
 73
    14
  0
VERTEX
  5
BE0
  8
0
 10
0.0
 20
0.0
 30
0.0
 70
   128
 71
    17
 72
    16
 73
    15
  0
VERTEX
  5
BE1
  8
0
 10
0.0
 20
0.0
 30
0.0
 70
   128
 71
     9
 72
     8
 73
    18
  0
VERTEX
  5
BE2
  8
0
 10
0.0
 20
0.0
 30
0.0
 70
   128
 71
     9
 72
    18
 73
    17
  0
VERTEX
  5
BE3
  8
0
 10
0.0
 20
0.0
 30
0.0
 70
   128
 71
     2
 72
     1
 73
    18
  0
VERTEX
  5
BE4
  8
0
 10
0.0
 20
0.0
 30
0.0
 70
   128
 71
    18
 72
     3
 73
     2
  0
VERTEX
  5
BE5
  8
0
 10
0.0
 20
0.0
 30
0.0
 70
   128
 71
    18
 72
     4
 73
     3
  0
VERTEX
  5
BE6
  8
0
 10
0.0
 20
0.0
 30
0.0
 70
   128
 71
    18
 72
     8
 73
     5
  0
VERTEX
  5
BE7
  8
0
 10
0.0
 20
0.0
 30
0.0
 70
   128
 71
    18
 72
     5
 73
     4
  0
VERTEX
  5
BE8
  8
0
 10
0.0
 20
0.0
 30
0.0
 70
   128
 71
     8
 72
     6
 73
     5
  0
VERTEX
  5
BE9
  8
0
 10
0.0
 20
0.0
 30
0.0
 70
   128
 71
     8
 72
     7
 73
     6
  0
SEQEND
  5
12B4
  8
0
  0
POLYLINE
  5
BEA
  8
0
 66
     1
 10
0.0
 20
0.0
 30
0.0
 70
    64
 71
    12
 72
    10
  0
VERTEX
  5
BEB
  8
0
 10
-178.1270831731917
 20
-17.49219185690027
 30
89.0886072632
 70
   192
  0
VERTEX
  5
BEC
  8
0
 10
-177.661601596626
 20
-17.73231973073156
 30
87.79446083084638
 70
   192
  0
VERTEX
  5
BED
  8
0
 10
-177.6515519541777
 20
-17.65409565577657
 30
88.22204875308445
 70
   192
  0
VERTEX
  5
BEE
  8
0
 10
-177.6490489051931
 20
-17.60612270380931
 30
88.65418734553496
 70
   192
  0
VERTEX
  5
BEF
  8
0
 10
-177.6541055942555
 20
-17.58865280136558
 30
89.0886072632
 70
   192
  0
VERTEX
  5
BF0
  8
0
 10
-178.6062842836793
 20
-17.43406441337434
 30
89.0886072632
 70
   192
  0
VERTEX
  5
BF1
  8
0
 10
-179.0886072632
 20
-17.41464670470904
 30
89.0886072632
 70
   192
  0
VERTEX
  5
BF2
  8
0
 10
-181.061365084379
 20
-17.87586366255206
 30
87.89273561837726
 70
   192
  0
VERTEX
  5
BF3
  8
0
 10
-181.9362094816858
 20
-18.13343835762837
 30
89.0886072632
 70
   192
  0
VERTEX
  5
BF4
  8
0
 10
-183.8260838795275
 20
-19.80238102205256
 30
88.37596994474656
 70
   192
  0
VERTEX
  5
BF5
  8
0
 10
-184.1015341316776
 20
-20.11759283628418
 30
89.0886072632
 70
   192
  0
VERTEX
  5
BF6
  8
0
 10
-185.0657754517505
 20
-22.89171224822305
 30
89.0886072632
 70
   192
  0
VERTEX
  5
BF7
  8
0
 10
0.0
 20
0.0
 30
0.0
 70
   128
 71
     1
 72
     2
 73
     3
  0
VERTEX
  5
BF8
  8
0
 10
0.0
 20
0.0
 30
0.0
 70
   128
 71
     3
 72
     4
 73
     1
  0
VERTEX
  5
BF9
  8
0
 10
0.0
 20
0.0
 30
0.0
 70
   128
 71
     4
 72
     5
 73
     1
  0
VERTEX
  5
BFA
  8
0
 10
0.0
 20
0.0
 30
0.0
 70
   128
 71
     1
 72
     6
 73
     2
  0
VERTEX
  5
BFB
  8
0
 10
0.0
 20
0.0
 30
0.0
 70
   128
 71
     6
 72
     7
 73
     2
  0
VERTEX
  5
BFC
  8
0
 10
0.0
 20
0.0
 30
0.0
 70
   128
 71
     8
 72
     2
 73
     7
  0
VERTEX
  5
BFD
  8
0
 10
0.0
 20
0.0
 30
0.0
 70
   128
 71
     9
 72
     8
 73
     7
  0
VERTEX
  5
BFE
  8
0
 10
0.0
 20
0.0
 30
0.0
 70
   128
 71
    10
 72
     8
 73
     9
  0
VERTEX
  5
BFF
  8
0
 10
0.0
 20
0.0
 30
0.0
 70
   128
 71
    11
 72
    10
 73
     9
  0
VERTEX
  5
C00
  8
0
 10
0.0
 20
0.0
 30
0.0
 70
   128
 71
    12
 72
    10
 73
    11
  0
SEQEND
  5
12B5
  8
0
  0
POLYLINE
  5
C01
  8
0
 66
     1
 10
0.0
 20
0.0
 30
0.0
 70
    64
 71
    18
 72
    16
  0
VERTEX
  5
C02
  8
0
 10
-177.6541055942555
 20
-17.58865280136558
 30
89.0886072632
 70
   192
  0
VERTEX
  5
C03
  8
0
 10
-177.88444729998
 20
-18.27467897620695
 30
91.94005085074211
 70
   192
  0
VERTEX
  5
C04
  8
0
 10
-178.4042697213745
 20
-20.19635621238081
 30
94.1060058357511
 70
   192
  0
VERTEX
  5
C05
  8
0
 10
-179.0886072632
 20
-22.89171224822305
 30
95.0657754517505
 70
   192
  0
VERTEX
  5
C06
  8
0
 10
-151.1261731147368
 20
-30.13007048256999
 30
95.69904973979538
 70
   192
  0
VERTEX
  5
C07
  8
0
 10
-123.2429562611681
 20
-37.66512106851241
 30
96.35828124515972
 70
   192
  0
VERTEX
  5
C08
  8
0
 10
-95.3067125689075
 20
-45.0
 30
97.0
 70
   192
  0
VERTEX
  5
C09
  8
0
 10
-85.4741922998245
 20
-45.00056392603711
 30
96.49228711869591
 70
   192
  0
VERTEX
  5
C0A
  8
0
 10
-75.62058806701778
 20
-44.99972569545906
 30
94.52952930352816
 70
   192
  0
VERTEX
  5
C0B
  8
0
 10
-74.7647750339071
 20
-45.0
 30
88.65265319455261
 70
   192
  0
VERTEX
  5
C0C
  8
0
 10
-75.99417058656826
 20
-45.03694996985367
 30
88.10337974006391
 70
   192
  0
VERTEX
  5
C0D
  8
0
 10
-77.21750417787985
 20
-45.14661473203287
 30
87.5643271284892
 70
   192
  0
VERTEX
  5
C0E
  8
0
 10
-78.4550195174406
 20
-45.3258415122306
 30
87.04928074511199
 70
   192
  0
VERTEX
  5
C0F
  8
0
 10
-111.9604186658416
 20
-36.31821085134202
 30
86.91754335559523
 70
   192
  0
VERTEX
  5
C10
  8
0
 10
-144.9234625259715
 20
-26.7999895170225
 30
87.08035550099854
 70
   192
  0
VERTEX
  5
C11
  8
0
 10
-177.661601596626
 20
-17.73231973073155
 30
87.79446083084639
 70
   192
  0
VERTEX
  5
C12
  8
0
 10
-177.6515519541777
 20
-17.65409565577657
 30
88.22204875308445
 70
   192
  0
VERTEX
  5
C13
  8
0
 10
-177.6490489051931
 20
-17.60612270380931
 30
88.65418734553496
 70
   192
  0
VERTEX
  5
C14
  8
0
 10
0.0
 20
0.0
 30
0.0
 70
   128
 71
    14
 72
    13
 73
    12
  0
VERTEX
  5
C15
  8
0
 10
0.0
 20
0.0
 30
0.0
 70
   128
 71
    12
 72
    17
 73
    15
  0
VERTEX
  5
C16
  8
0
 10
0.0
 20
0.0
 30
0.0
 70
   128
 71
    12
 72
    15
 73
    14
  0
VERTEX
  5
C17
  8
0
 10
0.0
 20
0.0
 30
0.0
 70
   128
 71
    17
 72
    16
 73
    15
  0
VERTEX
  5
C18
  8
0
 10
0.0
 20
0.0
 30
0.0
 70
   128
 71
    12
 72
    11
 73
    18
  0
VERTEX
  5
C19
  8
0
 10
0.0
 20
0.0
 30
0.0
 70
   128
 71
    12
 72
    18
 73
    17
  0
VERTEX
  5
C1A
  8
0
 10
0.0
 20
0.0
 30
0.0
 70
   128
 71
    11
 72
     1
 73
    18
  0
VERTEX
  5
C1B
  8
0
 10
0.0
 20
0.0
 30
0.0
 70
   128
 71
     5
 72
     4
 73
     3
  0
VERTEX
  5
C1C
  8
0
 10
0.0
 20
0.0
 30
0.0
 70
   128
 71
     5
 72
     3
 73
     8
  0
VERTEX
  5
C1D
  8
0
 10
0.0
 20
0.0
 30
0.0
 70
   128
 71
     8
 72
     6
 73
     5
  0
VERTEX
  5
C1E
  8
0
 10
0.0
 20
0.0
 30
0.0
 70
   128
 71
     8
 72
     7
 73
     6
  0
VERTEX
  5
C1F
  8
0
 10
0.0
 20
0.0
 30
0.0
 70
   128
 71
     3
 72
     9
 73
     8
  0
VERTEX
  5
C20
  8
0
 10
0.0
 20
0.0
 30
0.0
 70
   128
 71
     2
 72
     1
 73
    10
  0
VERTEX
  5
C21
  8
0
 10
0.0
 20
0.0
 30
0.0
 70
   128
 71
     2
 72
    10
 73
     9
  0
VERTEX
  5
C22
  8
0
 10
0.0
 20
0.0
 30
0.0
 70
   128
 71
     9
 72
     3
 73
     2
  0
VERTEX
  5
C23
  8
0
 10
0.0
 20
0.0
 30
0.0
 70
   128
 71
     1
 72
    11
 73
    10
  0
SEQEND
  5
12B6
  8
0
  0
POLYLINE
  5
C24
  8
0
 66
     1
 10
0.0
 20
0.0
 30
0.0
 70
    64
 71
     8
 72
     6
  0
VERTEX
  5
C25
  8
0
 10
-183.9500934718575
 20
-44.99999999999997
 30
96.23752336796441
 70
   192
  0
VERTEX
  5
C26
  8
0
 10
-186.2375233679644
 20
-44.99999999999996
 30
93.95009347185753
 70
   192
  0
VERTEX
  5
C27
  8
0
 10
-184.2499347746009
 20
-22.70276186470253
 30
92.06416070661618
 70
   192
  0
VERTEX
  5
C28
  8
0
 10
-182.0641607066161
 20
-22.70276186470253
 30
94.24993477460099
 70
   192
  0
VERTEX
  5
C29
  8
0
 10
-186.9999999999999
 20
-45.00000000000001
 30
91.02283181144954
 70
   192
  0
VERTEX
  5
C2A
  8
0
 10
-185.0657754517503
 20
-22.89171224822307
 30
89.08860726320002
 70
   192
  0
VERTEX
  5
C2B
  8
0
 10
-181.0228318114494
 20
-45.00000000000001
 30
97.00000000000004
 70
   192
  0
VERTEX
  5
C2C
  8
0
 10
-179.0886072632
 20
-22.89171224822305
 30
95.06577545175057
 70
   192
  0
VERTEX
  5
C2D
  8
0
 10
0.0
 20
0.0
 30
0.0
 70
   128
 71
     1
 72
     2
 73
    -3
  0
VERTEX
  5
C2E
  8
0
 10
0.0
 20
0.0
 30
0.0
 70
   128
 71
     4
 72
    -1
 73
     3
  0
VERTEX
  5
C2F
  8
0
 10
0.0
 20
0.0
 30
0.0
 70
   128
 71
     2
 72
     5
 73
     6
  0
VERTEX
  5
C30
  8
0
 10
0.0
 20
0.0
 30
0.0
 70
   128
 71
     3
 72
     2
 73
     6
  0
VERTEX
  5
C31
  8
0
 10
0.0
 20
0.0
 30
0.0
 70
   128
 71
     7
 72
     1
 73
     4
  0
VERTEX
  5
C32
  8
0
 10
0.0
 20
0.0
 30
0.0
 70
   128
 71
     8
 72
     7
 73
     4
  0
SEQEND
  5
12B7
  8
0
  0
POLYLINE
  5
C33
  8
0
 66
     1
 10
0.0
 20
0.0
 30
0.0
 70
    64
 71
    12
 72
    10
  0
VERTEX
  5
C34
  8
0
 10
-185.0657754517505
 20
-22.89171224822308
 30
89.0886072632
 70
   192
  0
VERTEX
  5
C35
  8
0
 10
-183.8260838795275
 20
-19.80238102205256
 30
88.37596994474656
 70
   192
  0
VERTEX
  5
C36
  8
0
 10
-181.061365084379
 20
-17.87586366255206
 30
87.89273561837726
 70
   192
  0
VERTEX
  5
C37
  8
0
 10
-177.661601596626
 20
-17.73231973073155
 30
87.79446083084639
 70
   192
  0
VERTEX
  5
C38
  8
0
 10
-176.7490264001288
 20
-27.20140522887683
 30
29.98595392305938
 70
   192
  0
VERTEX
  5
C39
  8
0
 10
-176.748884055893
 20
-27.18733873169746
 30
-29.91740657863294
 70
   192
  0
VERTEX
  5
C3A
  8
0
 10
-177.6644014763613
 20
-17.70093767967469
 30
-87.79646398406413
 70
   192
  0
VERTEX
  5
C3B
  8
0
 10
-181.0622608526564
 20
-17.84706292581305
 30
-87.89489789284066
 70
   192
  0
VERTEX
  5
C3C
  8
0
 10
-183.8246378659743
 20
-19.77422210470832
 30
-88.37637572049684
 70
   192
  0
VERTEX
  5
C3D
  8
0
 10
-185.0632372296135
 20
-22.86270023644165
 30
-89.08606904104441
 70
   192
  0
VERTEX
  5
C3E
  8
0
 10
-185.8456988000447
 20
-31.80627691136822
 30
-29.88051071474379
 70
   192
  0
VERTEX
  5
C3F
  8
0
 10
-185.8467102400595
 20
-31.81783772363782
 30
29.97304886151027
 70
   192
  0
VERTEX
  5
C40
  8
0
 10
0.0
 20
0.0
 30
0.0
 70
   128
 71
     8
 72
     7
 73
     6
  0
VERTEX
  5
C41
  8
0
 10
0.0
 20
0.0
 30
0.0
 70
   128
 71
     6
 72
    11
 73
     9
  0
VERTEX
  5
C42
  8
0
 10
0.0
 20
0.0
 30
0.0
 70
   128
 71
     6
 72
     9
 73
     8
  0
VERTEX
  5
C43
  8
0
 10
0.0
 20
0.0
 30
0.0
 70
   128
 71
    11
 72
    10
 73
     9
  0
VERTEX
  5
C44
  8
0
 10
0.0
 20
0.0
 30
0.0
 70
   128
 71
     6
 72
     5
 73
    12
  0
VERTEX
  5
C45
  8
0
 10
0.0
 20
0.0
 30
0.0
 70
   128
 71
     6
 72
    12
 73
    11
  0
VERTEX
  5
C46
  8
0
 10
0.0
 20
0.0
 30
0.0
 70
   128
 71
     2
 72
     1
 73
    12
  0
VERTEX
  5
C47
  8
0
 10
0.0
 20
0.0
 30
0.0
 70
   128
 71
    12
 72
     5
 73
     3
  0
VERTEX
  5
C48
  8
0
 10
0.0
 20
0.0
 30
0.0
 70
   128
 71
    12
 72
     3
 73
     2
  0
VERTEX
  5
C49
  8
0
 10
0.0
 20
0.0
 30
0.0
 70
   128
 71
     5
 72
     4
 73
     3
  0
SEQEND
  5
12B8
  8
0
  0
POLYLINE
  5
C4A
  8
0
 66
     1
 10
0.0
 20
0.0
 30
0.0
 70
    64
 71
     5
 72
     3
  0
VERTEX
  5
C4B
  8
0
 10
-95.34185660222471
 20
-45.0
 30
-97.0
 70
   192
  0
VERTEX
  5
C4C
  8
0
 10
-123.2609341719493
 20
-37.63719369025939
 30
-96.35583791616051
 70
   192
  0
VERTEX
  5
C4D
  8
0
 10
-151.1304244573551
 20
-30.08822628188908
 30
-95.6953888466013
 70
   192
  0
VERTEX
  5
C4E
  8
0
 10
-179.0860690410625
 20
-22.8627002364376
 30
-95.06323722961301
 70
   192
  0
VERTEX
  5
C4F
  8
0
 10
-181.0228318114494
 20
-45.00000000000003
 30
-96.99999999999986
 70
   192
  0
VERTEX
  5
C50
  8
0
 10
0.0
 20
0.0
 30
0.0
 70
   128
 71
     5
 72
     1
 73
    -2
  0
VERTEX
  5
C51
  8
0
 10
0.0
 20
0.0
 30
0.0
 70
   128
 71
     2
 72
    -3
 73
    -5
  0
VERTEX
  5
C52
  8
0
 10
0.0
 20
0.0
 30
0.0
 70
   128
 71
     3
 72
     4
 73
    -5
  0
SEQEND
  5
12B9
  8
0
  0
POLYLINE
  5
C53
  8
0
 66
     1
 10
0.0
 20
0.0
 30
0.0
 70
    64
 71
     6
 72
     4
  0
VERTEX
  5
C54
  8
0
 10
182.0190265095415
 20
-45.0
 30
96.99999999999993
 70
   192
  0
VERTEX
  5
C55
  8
0
 10
92.5564280267746
 20
-45.0
 30
96.99999999999994
 70
   192
  0
VERTEX
  5
C56
  8
0
 10
102.3031830551577
 20
-37.94660940858741
 30
96.38290828383097
 70
   192
  0
VERTEX
  5
C57
  8
0
 10
109.674584935448
 20
-28.43081744546608
 30
95.5503843625868
 70
   192
  0
VERTEX
  5
C58
  8
0
 10
114.8074804271288
 20
-17.5742212862617
 30
94.60055527417731
 70
   192
  0
VERTEX
  5
C59
  8
0
 10
179.6195817837185
 20
-17.5742212862617
 30
94.60055527417734
 70
   192
  0
VERTEX
  5
C5A
  8
0
 10
0.0
 20
0.0
 30
0.0
 70
   128
 71
     1
 72
     2
 73
    -3
  0
VERTEX
  5
C5B
  8
0
 10
0.0
 20
0.0
 30
0.0
 70
   128
 71
     3
 72
    -4
 73
    -1
  0
VERTEX
  5
C5C
  8
0
 10
0.0
 20
0.0
 30
0.0
 70
   128
 71
     5
 72
     6
 73
    -1
  0
VERTEX
  5
C5D
  8
0
 10
0.0
 20
0.0
 30
0.0
 70
   128
 71
     4
 72
    -5
 73
    -1
  0
SEQEND
  5
12BA
  8
0
  0
POLYLINE
  5
C5E
  8
0
 66
     1
 10
0.0
 20
0.0
 30
0.0
 70
    64
 71
    47
 72
    49
  0
VERTEX
  5
C5F
  8
0
 10
-73.32007734402768
 20
-45.34233208524041
 30
-88.22647297353487
 70
   192
  0
VERTEX
  5
C60
  8
0
 10
-49.31237385442962
 20
-85.33202554067654
 30
-48.27556865574828
 70
   192
  0
VERTEX
  5
C61
  8
0
 10
-56.35234941811017
 20
-89.51537281693699
 30
-29.24972465075744
 70
   192
  0
VERTEX
  5
C62
  8
0
 10
-78.5668791509734
 20
-45.32588149812479
 30
-87.0503571328791
 70
   192
  0
VERTEX
  5
C63
  8
0
 10
-75.9713317254354
 20
-45.33414871099378
 30
-87.64904217064195
 70
   192
  0
VERTEX
  5
C64
  8
0
 10
-176.748884055893
 20
-27.18733873169746
 30
-29.91740657863294
 70
   192
  0
VERTEX
  5
C65
  8
0
 10
-112.0242326677063
 20
-36.28733207889846
 30
-86.91668848367324
 70
   192
  0
VERTEX
  5
C66
  8
0
 10
-144.9470123448677
 20
-26.75255313365654
 30
-87.07958279287766
 70
   192
  0
VERTEX
  5
C67
  8
0
 10
-177.664401476361
 20
-17.7009376796707
 30
-87.7964639840824
 70
   192
  0
VERTEX
  5
C68
  8
0
 10
-24.08366617096401
 20
-56.0301886449718
 30
-86.94606637163542
 70
   192
  0
VERTEX
  5
C69
  8
0
 10
23.34153328619434
 20
-56.13231450901181
 30
-86.92845751970492
 70
   192
  0
VERTEX
  5
C6A
  8
0
 10
29.32282454475553
 20
-86.51958171021933
 30
-55.56512638391072
 70
   192
  0
VERTEX
  5
C6B
  8
0
 10
-18.9291694349946
 20
-85.3704836635671
 30
-59.796842674255
 70
   192
  0
VERTEX
  5
C6C
  8
0
 10
-144.9234625259715
 20
-26.7999895170225
 30
87.08035550099854
 70
   192
  0
VERTEX
  5
C6D
  8
0
 10
-177.661601596626
 20
-17.73231973073155
 30
87.79446083084639
 70
   192
  0
VERTEX
  5
C6E
  8
0
 10
-176.7490264001288
 20
-27.20140522887683
 30
29.98595392305938
 70
   192
  0
VERTEX
  5
C6F
  8
0
 10
-49.33186532040211
 20
-85.66426245179976
 30
47.490448284016
 70
   192
  0
VERTEX
  5
C70
  8
0
 10
-111.9604186658416
 20
-36.31821085134202
 30
86.91754335559523
 70
   192
  0
VERTEX
  5
C71
  8
0
 10
-78.4550195174406
 20
-45.3258415122306
 30
87.04928074511199
 70
   192
  0
VERTEX
  5
C72
  8
0
 10
-75.84193054173798
 20
-45.33414904724923
 30
87.6485445762914
 70
   192
  0
VERTEX
  5
C73
  8
0
 10
-73.17257959916478
 20
-45.34237123638832
 30
88.22640811707132
 70
   192
  0
VERTEX
  5
C74
  8
0
 10
-70.44695309576751
 20
-45.3504552244449
 30
88.7827659111312
 70
   192
  0
VERTEX
  5
C75
  8
0
 10
-29.27876542620715
 20
-86.4764189067572
 30
55.59052662435207
 70
   192
  0
VERTEX
  5
C76
  8
0
 10
18.99127253946925
 20
-85.3481218696662
 30
59.7768529289676
 70
   192
  0
VERTEX
  5
C77
  8
0
 10
24.02301245594838
 20
-55.95378862306742
 30
86.95973576420498
 70
   192
  0
VERTEX
  5
C78
  8
0
 10
-23.26728290375877
 20
-56.05721870779513
 30
86.9418948335531
 70
   192
  0
VERTEX
  5
C79
  8
0
 10
73.19848803428575
 20
-45.34227747903746
 30
88.22152348770409
 70
   192
  0
VERTEX
  5
C7A
  8
0
 10
70.4497293497313
 20
-45.3504555775833
 30
88.7827665597316
 70
   192
  0
VERTEX
  5
C7B
  8
0
 10
86.72149537728124
 20
-71.3290999391454
 30
47.49888872346552
 70
   192
  0
VERTEX
  5
C7C
  8
0
 10
85.386581049768
 20
-43.58576294282459
 30
86.99387511980251
 70
   192
  0
VERTEX
  5
C7D
  8
0
 10
83.13271690223554
 20
-44.16470213863156
 30
87.00663079261233
 70
   192
  0
VERTEX
  5
C7E
  8
0
 10
-60.69791816924209
 20
-89.81939260940217
 30
18.91903974561819
 70
   192
  0
VERTEX
  5
C7F
  8
0
 10
-70.6131053057495
 20
-45.3503798881697
 30
-88.782541960378
 70
   192
  0
VERTEX
  5
C80
  8
0
 10
86.73749856333264
 20
-71.36334483217827
 30
-47.44550689300815
 70
   192
  0
VERTEX
  5
C81
  8
0
 10
60.69337941694048
 20
-89.82771805131026
 30
-18.93073041128601
 70
   192
  0
VERTEX
  5
C82
  8
0
 10
83.17937260530323
 20
-44.17476434389857
 30
-87.00771321758063
 70
   192
  0
VERTEX
  5
C83
  8
0
 10
85.40633178203501
 20
-43.6000050435963
 30
-86.9949220069939
 70
   192
  0
VERTEX
  5
C84
  8
0
 10
80.92100218764853
 20
-44.75022958308634
 30
-87.02117108887599
 70
   192
  0
VERTEX
  5
C85
  8
0
 10
78.63116605934
 20
-45.325677130299
 30
-87.0352299752978
 70
   192
  0
VERTEX
  5
C86
  8
0
 10
76.01598684349966
 20
-45.33400782863163
 30
-87.63913507173088
 70
   192
  0
VERTEX
  5
C87
  8
0
 10
73.34340378635864
 20
-45.34224179171508
 30
-88.2215987240579
 70
   192
  0
VERTEX
  5
C88
  8
0
 10
70.6134197823257
 20
-45.3503804580301
 30
-88.7825432760965
 70
   192
  0
VERTEX
  5
C89
  8
0
 10
86.77420455947858
 20
-80.18653294721992
 30
0.0793144361985376
 70
   192
  0
VERTEX
  5
C8A
  8
0
 10
56.34597557843333
 20
-89.50376579763429
 30
29.25982005010557
 70
   192
  0
VERTEX
  5
C8B
  8
0
 10
75.88922230106155
 20
-45.33400514351311
 30
87.63863009540351
 70
   192
  0
VERTEX
  5
C8C
  8
0
 10
78.5219319982106
 20
-45.32563605504941
 30
87.0341612911577
 70
   192
  0
VERTEX
  5
C8D
  8
0
 10
80.84452053886578
 20
-44.74491496152945
 30
87.02008201523196
 70
   192
  0
VERTEX
  5
C8E
  8
0
 10
0.0
 20
0.0
 30
0.0
 70
   128
 71
     1
 72
     2
 73
     3
  0
VERTEX
  5
C8F
  8
0
 10
0.0
 20
0.0
 30
0.0
 70
   128
 71
     4
 72
     5
 73
     1
  0
VERTEX
  5
C90
  8
0
 10
0.0
 20
0.0
 30
0.0
 70
   128
 71
     4
 72
     1
 73
     6
  0
VERTEX
  5
C91
  8
0
 10
0.0
 20
0.0
 30
0.0
 70
   128
 71
     6
 72
     7
 73
     4
  0
VERTEX
  5
C92
  8
0
 10
0.0
 20
0.0
 30
0.0
 70
   128
 71
     6
 72
     8
 73
     7
  0
VERTEX
  5
C93
  8
0
 10
0.0
 20
0.0
 30
0.0
 70
   128
 71
     6
 72
     9
 73
     8
  0
VERTEX
  5
C94
  8
0
 10
0.0
 20
0.0
 30
0.0
 70
   128
 71
    10
 72
    11
 73
    12
  0
VERTEX
  5
C95
  8
0
 10
0.0
 20
0.0
 30
0.0
 70
   128
 71
    10
 72
    12
 73
    13
  0
VERTEX
  5
C96
  8
0
 10
0.0
 20
0.0
 30
0.0
 70
   128
 71
    14
 72
    15
 73
    16
  0
VERTEX
  5
C97
  8
0
 10
0.0
 20
0.0
 30
0.0
 70
   128
 71
    16
 72
    17
 73
    18
  0
VERTEX
  5
C98
  8
0
 10
0.0
 20
0.0
 30
0.0
 70
   128
 71
    16
 72
    18
 73
    14
  0
VERTEX
  5
C99
  8
0
 10
0.0
 20
0.0
 30
0.0
 70
   128
 71
    17
 72
    19
 73
    18
  0
VERTEX
  5
C9A
  8
0
 10
0.0
 20
0.0
 30
0.0
 70
   128
 71
    17
 72
    20
 73
    19
  0
VERTEX
  5
C9B
  8
0
 10
0.0
 20
0.0
 30
0.0
 70
   128
 71
    17
 72
    21
 73
    20
  0
VERTEX
  5
C9C
  8
0
 10
0.0
 20
0.0
 30
0.0
 70
   128
 71
    17
 72
    22
 73
    21
  0
VERTEX
  5
C9D
  8
0
 10
0.0
 20
0.0
 30
0.0
 70
   128
 71
    23
 72
    24
 73
    25
  0
VERTEX
  5
C9E
  8
0
 10
0.0
 20
0.0
 30
0.0
 70
   128
 71
    23
 72
    25
 73
    26
  0
VERTEX
  5
C9F
  8
0
 10
0.0
 20
0.0
 30
0.0
 70
   128
 71
    24
 72
    27
 73
    28
  0
VERTEX
  5
CA0
  8
0
 10
0.0
 20
0.0
 30
0.0
 70
   128
 71
    24
 72
    28
 73
    25
  0
VERTEX
  5
CA1
  8
0
 10
0.0
 20
0.0
 30
0.0
 70
   128
 71
    29
 72
    30
 73
    31
  0
VERTEX
  5
CA2
  8
0
 10
0.0
 20
0.0
 30
0.0
 70
   128
 71
    16
 72
     6
 73
     1
  0
VERTEX
  5
CA3
  8
0
 10
0.0
 20
0.0
 30
0.0
 70
   128
 71
    32
 72
    16
 73
     1
  0
VERTEX
  5
CA4
  8
0
 10
0.0
 20
0.0
 30
0.0
 70
   128
 71
    32
 72
     1
 73
     3
  0
VERTEX
  5
CA5
  8
0
 10
0.0
 20
0.0
 30
0.0
 70
   128
 71
    10
 72
    13
 73
     2
  0
VERTEX
  5
CA6
  8
0
 10
0.0
 20
0.0
 30
0.0
 70
   128
 71
    10
 72
     2
 73
     1
  0
VERTEX
  5
CA7
  8
0
 10
0.0
 20
0.0
 30
0.0
 70
   128
 71
    10
 72
     1
 73
    33
  0
VERTEX
  5
CA8
  8
0
 10
0.0
 20
0.0
 30
0.0
 70
   128
 71
     3
 72
     2
 73
    13
  0
VERTEX
  5
CA9
  8
0
 10
0.0
 20
0.0
 30
0.0
 70
   128
 71
    34
 72
    35
 73
    12
  0
VERTEX
  5
CAA
  8
0
 10
0.0
 20
0.0
 30
0.0
 70
   128
 71
    36
 72
    37
 73
    34
  0
VERTEX
  5
CAB
  8
0
 10
0.0
 20
0.0
 30
0.0
 70
   128
 71
    34
 72
    38
 73
    36
  0
VERTEX
  5
CAC
  8
0
 10
0.0
 20
0.0
 30
0.0
 70
   128
 71
    34
 72
    39
 73
    38
  0
VERTEX
  5
CAD
  8
0
 10
0.0
 20
0.0
 30
0.0
 70
   128
 71
    34
 72
    40
 73
    39
  0
VERTEX
  5
CAE
  8
0
 10
0.0
 20
0.0
 30
0.0
 70
   128
 71
    34
 72
    41
 73
    40
  0
VERTEX
  5
CAF
  8
0
 10
0.0
 20
0.0
 30
0.0
 70
   128
 71
    34
 72
    12
 73
    11
  0
VERTEX
  5
CB0
  8
0
 10
0.0
 20
0.0
 30
0.0
 70
   128
 71
    34
 72
    11
 73
    42
  0
VERTEX
  5
CB1
  8
0
 10
0.0
 20
0.0
 30
0.0
 70
   128
 71
    34
 72
    42
 73
    41
  0
VERTEX
  5
CB2
  8
0
 10
0.0
 20
0.0
 30
0.0
 70
   128
 71
    43
 72
    44
 73
    35
  0
VERTEX
  5
CB3
  8
0
 10
0.0
 20
0.0
 30
0.0
 70
   128
 71
    43
 72
    35
 73
    34
  0
VERTEX
  5
CB4
  8
0
 10
0.0
 20
0.0
 30
0.0
 70
   128
 71
    22
 72
    17
 73
    26
  0
VERTEX
  5
CB5
  8
0
 10
0.0
 20
0.0
 30
0.0
 70
   128
 71
    45
 72
    27
 73
    24
  0
VERTEX
  5
CB6
  8
0
 10
0.0
 20
0.0
 30
0.0
 70
   128
 71
    29
 72
    46
 73
    45
  0
VERTEX
  5
CB7
  8
0
 10
0.0
 20
0.0
 30
0.0
 70
   128
 71
    29
 72
    47
 73
    46
  0
VERTEX
  5
CB8
  8
0
 10
0.0
 20
0.0
 30
0.0
 70
   128
 71
    29
 72
    31
 73
    47
  0
VERTEX
  5
CB9
  8
0
 10
0.0
 20
0.0
 30
0.0
 70
   128
 71
    44
 72
    43
 73
    29
  0
VERTEX
  5
CBA
  8
0
 10
0.0
 20
0.0
 30
0.0
 70
   128
 71
    29
 72
    45
 73
    24
  0
VERTEX
  5
CBB
  8
0
 10
0.0
 20
0.0
 30
0.0
 70
   128
 71
    29
 72
    24
 73
    44
  0
VERTEX
  5
CBC
  8
0
 10
0.0
 20
0.0
 30
0.0
 70
   128
 71
    17
 72
    16
 73
    32
  0
VERTEX
  5
CBD
  8
0
 10
0.0
 20
0.0
 30
0.0
 70
   128
 71
    32
 72
    23
 73
    17
  0
VERTEX
  5
CBE
  8
0
 10
0.0
 20
0.0
 30
0.0
 70
   128
 71
    23
 72
    26
 73
    17
  0
SEQEND
  5
12BB
  8
0
  0
POLYLINE
  5
CBF
  8
0
 66
     1
 10
0.0
 20
0.0
 30
0.0
 70
    64
 71
     4
 72
     2
  0
VERTEX
  5
CC0
  8
0
 10
198.0003046096875
 20
-45.0
 30
109.9999999999999
 70
   192
  0
VERTEX
  5
CC1
  8
0
 10
197.2491275519991
 20
-1.965095187125442
 30
109.2488229423115
 70
   192
  0
VERTEX
  5
CC2
  8
0
 10
-197.249127551999
 20
-1.965095187125435
 30
109.2488229423116
 70
   192
  0
VERTEX
  5
CC3
  8
0
 10
-198.0003046096872
 20
-45.0
 30
110.0
 70
   192
  0
VERTEX
  5
CC4
  8
0
 10
0.0
 20
0.0
 30
0.0
 70
   128
 71
     3
 72
     4
 73
    -1
  0
VERTEX
  5
CC5
  8
0
 10
0.0
 20
0.0
 30
0.0
 70
   128
 71
     2
 72
    -3
 73
     1
  0
SEQEND
  5
12BC
  8
0
  0
POLYLINE
  5
CC6
  8
0
 66
     1
 10
0.0
 20
0.0
 30
0.0
 70
    64
 71
     4
 72
     2
  0
VERTEX
  5
CC7
  8
0
 10
-198.0003046096872
 20
-45.0
 30
-109.9999999999998
 70
   192
  0
VERTEX
  5
CC8
  8
0
 10
-197.2491275519988
 20
-1.965095187125449
 30
-109.2488229423114
 70
   192
  0
VERTEX
  5
CC9
  8
0
 10
197.249127551999
 20
-1.965095187125435
 30
-109.2488229423116
 70
   192
  0
VERTEX
  5
CCA
  8
0
 10
198.0003046096875
 20
-44.99999999999999
 30
-109.9999999999999
 70
   192
  0
VERTEX
  5
CCB
  8
0
 10
0.0
 20
0.0
 30
0.0
 70
   128
 71
     3
 72
     4
 73
    -1
  0
VERTEX
  5
CCC
  8
0
 10
0.0
 20
0.0
 30
0.0
 70
   128
 71
     2
 72
    -3
 73
     1
  0
SEQEND
  5
12BD
  8
0
  0
POLYLINE
  5
CCD
  8
0
 66
     1
 10
0.0
 20
0.0
 30
0.0
 70
    64
 71
     4
 72
     2
  0
VERTEX
  5
CCE
  8
0
 10
200.0000000000002
 20
-44.99999999999999
 30
-108.0003046096872
 70
   192
  0
VERTEX
  5
CCF
  8
0
 10
199.2488229423118
 20
-1.965095187125442
 30
-107.2491275519988
 70
   192
  0
VERTEX
  5
CD0
  8
0
 10
199.2488229423115
 20
-1.965095187125435
 30
107.2491275519988
 70
   192
  0
VERTEX
  5
CD1
  8
0
 10
200.0000000000003
 20
-44.99999999999999
 30
108.0003046096872
 70
   192
  0
VERTEX
  5
CD2
  8
0
 10
0.0
 20
0.0
 30
0.0
 70
   128
 71
     3
 72
     4
 73
    -1
  0
VERTEX
  5
CD3
  8
0
 10
0.0
 20
0.0
 30
0.0
 70
   128
 71
     2
 72
    -3
 73
     1
  0
SEQEND
  5
12BE
  8
0
  0
POLYLINE
  5
CD4
  8
0
 66
     1
 10
0.0
 20
0.0
 30
0.0
 70
    64
 71
     4
 72
     2
  0
VERTEX
  5
CD5
  8
0
 10
-199.9999999999997
 20
-45.00000000000001
 30
108.0003046096872
 70
   192
  0
VERTEX
  5
CD6
  8
0
 10
-199.2488229423114
 20
-1.965095187125442
 30
107.2491275519988
 70
   192
  0
VERTEX
  5
CD7
  8
0
 10
-199.2488229423115
 20
-1.965095187125435
 30
-107.2491275519986
 70
   192
  0
VERTEX
  5
CD8
  8
0
 10
-200.0000000000002
 20
-44.99999999999999
 30
-108.0003046096872
 70
   192
  0
VERTEX
  5
CD9
  8
0
 10
0.0
 20
0.0
 30
0.0
 70
   128
 71
     3
 72
     4
 73
    -1
  0
VERTEX
  5
CDA
  8
0
 10
0.0
 20
0.0
 30
0.0
 70
   128
 71
     2
 72
    -3
 73
     1
  0
SEQEND
  5
12BF
  8
0
  0
POLYLINE
  5
CDB
  8
0
 66
     1
 10
0.0
 20
0.0
 30
0.0
 70
    64
 71
    48
 72
    53
  0
VERTEX
  5
CDC
  8
0
 10
82.45138307992576
 20
-49.13322422547234
 30
-61.60867276302854
 70
   192
  0
VERTEX
  5
CDD
  8
0
 10
-54.8772860534397
 20
-64.96724870494322
 30
-53.30861271064392
 70
   192
  0
VERTEX
  5
CDE
  8
0
 10
15.68415448659648
 20
-74.25750966972683
 30
-53.35329218557619
 70
   192
  0
VERTEX
  5
CDF
  8
0
 10
86.2451971937208
 20
-0.6245844254734371
 30
-105.5520624897006
 70
   192
  0
VERTEX
  5
CE0
  8
0
 10
-17.66396646429055
 20
-84.82487585550021
 30
-32.3514270315409
 70
   192
  0
VERTEX
  5
CE1
  8
0
 10
-54.87728605343969
 20
-79.34935755251479
 30
-0.3790580104938956
 70
   192
  0
VERTEX
  5
CE2
  8
0
 10
-35.44928546412374
 20
-84.83279276984878
 30
-10.43942851697372
 70
   192
  0
VERTEX
  5
CE3
  8
0
 10
10.45785052730276
 20
-84.82387716149653
 30
-35.30673303470553
 70
   192
  0
VERTEX
  5
CE4
  8
0
 10
-195.999999999993
 20
0.0
 30
-9.47650217824125
 70
   192
  0
VERTEX
  5
CE5
  8
0
 10
-196.0
 20
-0.0000025490790629
 30
-38.7680193173541
 70
   192
  0
VERTEX
  5
CE6
  8
0
 10
-54.87950137683787
 20
-0.7388850783852611
 30
-105.5657807107885
 70
   192
  0
VERTEX
  5
CE7
  8
0
 10
-98.3970535195321
 20
-0.5606459120777204
 30
-105.5537737749695
 70
   192
  0
VERTEX
  5
CE8
  8
0
 10
-125.4408460398649
 20
-0.3983328349201651
 30
-105.5698282970973
 70
   192
  0
VERTEX
  5
CE9
  8
0
 10
-196.0001671337385
 20
0.000000484356032
 30
-105.9948892411586
 70
   192
  0
VERTEX
  5
CEA
  8
0
 10
-196.0000220093813
 20
0.0000020233677583
 30
-105.8375190939656
 70
   192
  0
VERTEX
  5
CEB
  8
0
 10
-196.0000006877931
 20
0.0000011735752347
 30
-105.6763631967931
 70
   192
  0
VERTEX
  5
CEC
  8
0
 10
-196.0
 20
0.0
 30
-105.5145763277112
 70
   192
  0
VERTEX
  5
CED
  8
0
 10
-196.0
 20
-0.0000092910806663
 30
-102.7934021255552
 70
   192
  0
VERTEX
  5
CEE
  8
0
 10
-195.9999999999997
 20
-0.0000064487641001
 30
-100.0722278514471
 70
   192
  0
VERTEX
  5
CEF
  8
0
 10
-195.9999999999975
 20
0.0
 30
-97.35105355773041
 70
   192
  0
VERTEX
  5
CF0
  8
0
 10
-196.0
 20
0.0000032880292014
 30
-68.05953641559788
 70
   192
  0
VERTEX
  5
CF1
  8
0
 10
-54.86806620519611
 20
-0.7377185212693222
 30
105.5655634424731
 70
   192
  0
VERTEX
  5
CF2
  8
0
 10
-3.109162766293156
 20
-0.834611485529662
 30
105.569912986109
 70
   192
  0
VERTEX
  5
CF3
  8
0
 10
-54.8772860534397
 20
-65.3459278267151
 30
52.6870107204399
 70
   192
  0
VERTEX
  5
CF4
  8
0
 10
86.24559502663269
 20
-0.624207119781104
 30
105.5520386502174
 70
   192
  0
VERTEX
  5
CF5
  8
0
 10
82.44106338808459
 20
-49.09313610997636
 30
61.63586614004317
 70
   192
  0
VERTEX
  5
CF6
  8
0
 10
15.68415448659649
 20
-74.78625083447635
 30
52.64160955458077
 70
   192
  0
VERTEX
  5
CF7
  8
0
 10
-10.49443449251217
 20
-84.82444247558146
 30
35.2926663289459
 70
   192
  0
VERTEX
  5
CF8
  8
0
 10
-32.46658844040139
 20
-84.8310564385549
 30
17.6220259552624
 70
   192
  0
VERTEX
  5
CF9
  8
0
 10
17.6616174694742
 20
-84.8247468216207
 30
32.350659176218
 70
   192
  0
VERTEX
  5
CFA
  8
0
 10
81.48907613146454
 20
-68.30656454177556
 30
0.045066423106461
 70
   192
  0
VERTEX
  5
CFB
  8
0
 10
35.45277677058335
 20
-84.83271800204054
 30
10.42541271532593
 70
   192
  0
VERTEX
  5
CFC
  8
0
 10
-195.9999999999931
 20
-0.0000000488525285
 30
60.2422338018918
 70
   192
  0
VERTEX
  5
CFD
  8
0
 10
-195.999999999987
 20
-0.000013982876921
 30
95.1016017924612
 70
   192
  0
VERTEX
  5
CFE
  8
0
 10
-195.9999983506535
 20
0.0000173251759734
 30
97.19335821308609
 70
   192
  0
VERTEX
  5
CFF
  8
0
 10
-195.9999983506534
 20
0.0000153770292686
 30
99.28511455057098
 70
   192
  0
VERTEX
  5
D00
  8
0
 10
-195.9999999999865
 20
-0.0000471179371471
 30
101.376870771965
 70
   192
  0
VERTEX
  5
D01
  8
0
 10
-186.4592625107384
 20
-0.0274410519837278
 30
105.7849575035522
 70
   192
  0
VERTEX
  5
D02
  8
0
 10
-195.9999975376047
 20
-0.0000279117054131
 30
102.8462143426201
 70
   192
  0
VERTEX
  5
D03
  8
0
 10
-195.9999975376047
 20
-0.0000310678990395
 30
104.3155579724533
 70
   192
  0
VERTEX
  5
D04
  8
0
 10
-195.9999999999865
 20
0.0
 30
105.784901794639
 70
   192
  0
VERTEX
  5
D05
  8
0
 10
-195.9999999999913
 20
0.0000031823831021
 30
105.8566011953034
 70
   192
  0
VERTEX
  5
D06
  8
0
 10
-195.9999999999913
 20
0.00000656017567
 30
105.9283005969077
 70
   192
  0
VERTEX
  5
D07
  8
0
 10
-195.9999999999865
 20
0.0000101391119475
 30
105.9999999994794
 70
   192
  0
VERTEX
  5
D08
  8
0
 10
-159.7570277150552
 20
-0.17358207904039
 30
105.6408030763803
 70
   192
  0
VERTEX
  5
D09
  8
0
 10
-115.8932956129371
 20
-0.4529168867317381
 30
105.5674669644115
 70
   192
  0
VERTEX
  5
D0A
  8
0
 10
32.46425022956566
 20
-84.83115180307311
 30
-17.6281511083138
 70
   192
  0
VERTEX
  5
D0B
  8
0
 10
-195.999999999993
 20
-0.0000005119069377
 30
25.38286580948088
 70
   192
  0
VERTEX
  5
D0C
  8
0
 10
0.0
 20
0.0
 30
0.0
 70
   128
 71
     1
 72
     2
 73
     3
  0
VERTEX
  5
D0D
  8
0
 10
0.0
 20
0.0
 30
0.0
 70
   128
 71
     1
 72
     4
 73
     2
  0
VERTEX
  5
D0E
  8
0
 10
0.0
 20
0.0
 30
0.0
 70
   128
 71
     5
 72
     2
 73
     6
  0
VERTEX
  5
D0F
  8
0
 10
0.0
 20
0.0
 30
0.0
 70
   128
 71
     7
 72
     5
 73
     6
  0
VERTEX
  5
D10
  8
0
 10
0.0
 20
0.0
 30
0.0
 70
   128
 71
     5
 72
     3
 73
     2
  0
VERTEX
  5
D11
  8
0
 10
0.0
 20
0.0
 30
0.0
 70
   128
 71
     3
 72
     5
 73
     8
  0
VERTEX
  5
D12
  8
0
 10
0.0
 20
0.0
 30
0.0
 70
   128
 71
     9
 72
     6
 73
     2
  0
VERTEX
  5
D13
  8
0
 10
0.0
 20
0.0
 30
0.0
 70
   128
 71
    10
 72
     9
 73
     2
  0
VERTEX
  5
D14
  8
0
 10
0.0
 20
0.0
 30
0.0
 70
   128
 71
    11
 72
    12
 73
     2
  0
VERTEX
  5
D15
  8
0
 10
0.0
 20
0.0
 30
0.0
 70
   128
 71
    13
 72
    14
 73
    15
  0
VERTEX
  5
D16
  8
0
 10
0.0
 20
0.0
 30
0.0
 70
   128
 71
    15
 72
    16
 73
    13
  0
VERTEX
  5
D17
  8
0
 10
0.0
 20
0.0
 30
0.0
 70
   128
 71
    17
 72
    12
 73
    13
  0
VERTEX
  5
D18
  8
0
 10
0.0
 20
0.0
 30
0.0
 70
   128
 71
    13
 72
    16
 73
    17
  0
VERTEX
  5
D19
  8
0
 10
0.0
 20
0.0
 30
0.0
 70
   128
 71
    17
 72
    18
 73
    12
  0
VERTEX
  5
D1A
  8
0
 10
0.0
 20
0.0
 30
0.0
 70
   128
 71
    18
 72
    19
 73
    12
  0
VERTEX
  5
D1B
  8
0
 10
0.0
 20
0.0
 30
0.0
 70
   128
 71
    19
 72
    20
 73
    12
  0
VERTEX
  5
D1C
  8
0
 10
0.0
 20
0.0
 30
0.0
 70
   128
 71
    20
 72
    21
 73
    12
  0
VERTEX
  5
D1D
  8
0
 10
0.0
 20
0.0
 30
0.0
 70
   128
 71
    22
 72
    23
 73
    24
  0
VERTEX
  5
D1E
  8
0
 10
0.0
 20
0.0
 30
0.0
 70
   128
 71
    25
 72
    26
 73
    24
  0
VERTEX
  5
D1F
  8
0
 10
0.0
 20
0.0
 30
0.0
 70
   128
 71
    23
 72
    25
 73
    24
  0
VERTEX
  5
D20
  8
0
 10
0.0
 20
0.0
 30
0.0
 70
   128
 71
    27
 72
    24
 73
    26
  0
VERTEX
  5
D21
  8
0
 10
0.0
 20
0.0
 30
0.0
 70
   128
 71
    24
 72
    27
 73
    28
  0
VERTEX
  5
D22
  8
0
 10
0.0
 20
0.0
 30
0.0
 70
   128
 71
    28
 72
    29
 73
    24
  0
VERTEX
  5
D23
  8
0
 10
0.0
 20
0.0
 30
0.0
 70
   128
 71
    29
 72
     6
 73
    24
  0
VERTEX
  5
D24
  8
0
 10
0.0
 20
0.0
 30
0.0
 70
   128
 71
    30
 72
    27
 73
    31
  0
VERTEX
  5
D25
  8
0
 10
0.0
 20
0.0
 30
0.0
 70
   128
 71
    32
 72
    30
 73
    31
  0
VERTEX
  5
D26
  8
0
 10
0.0
 20
0.0
 30
0.0
 70
   128
 71
    33
 72
    34
 73
    24
  0
VERTEX
  5
D27
  8
0
 10
0.0
 20
0.0
 30
0.0
 70
   128
 71
    35
 72
    36
 73
    37
  0
VERTEX
  5
D28
  8
0
 10
0.0
 20
0.0
 30
0.0
 70
   128
 71
    38
 72
    34
 73
    35
  0
VERTEX
  5
D29
  8
0
 10
0.0
 20
0.0
 30
0.0
 70
   128
 71
    38
 72
    35
 73
    37
  0
VERTEX
  5
D2A
  8
0
 10
0.0
 20
0.0
 30
0.0
 70
   128
 71
    37
 72
    39
 73
    38
  0
VERTEX
  5
D2B
  8
0
 10
0.0
 20
0.0
 30
0.0
 70
   128
 71
    39
 72
    40
 73
    38
  0
VERTEX
  5
D2C
  8
0
 10
0.0
 20
0.0
 30
0.0
 70
   128
 71
    40
 72
    41
 73
    38
  0
VERTEX
  5
D2D
  8
0
 10
0.0
 20
0.0
 30
0.0
 70
   128
 71
    41
 72
    42
 73
    38
  0
VERTEX
  5
D2E
  8
0
 10
0.0
 20
0.0
 30
0.0
 70
   128
 71
    42
 72
    43
 73
    38
  0
VERTEX
  5
D2F
  8
0
 10
0.0
 20
0.0
 30
0.0
 70
   128
 71
    43
 72
    44
 73
    38
  0
VERTEX
  5
D30
  8
0
 10
0.0
 20
0.0
 30
0.0
 70
   128
 71
    38
 72
    45
 73
    34
  0
VERTEX
  5
D31
  8
0
 10
0.0
 20
0.0
 30
0.0
 70
   128
 71
    45
 72
    46
 73
    34
  0
VERTEX
  5
D32
  8
0
 10
0.0
 20
0.0
 30
0.0
 70
   128
 71
    11
 72
     2
 73
     4
  0
VERTEX
  5
D33
  8
0
 10
0.0
 20
0.0
 30
0.0
 70
   128
 71
     3
 72
     8
 73
    47
  0
VERTEX
  5
D34
  8
0
 10
0.0
 20
0.0
 30
0.0
 70
   128
 71
     7
 72
     6
 73
    29
  0
VERTEX
  5
D35
  8
0
 10
0.0
 20
0.0
 30
0.0
 70
   128
 71
    47
 72
    32
 73
    31
  0
VERTEX
  5
D36
  8
0
 10
0.0
 20
0.0
 30
0.0
 70
   128
 71
     3
 72
    47
 73
    31
  0
VERTEX
  5
D37
  8
0
 10
0.0
 20
0.0
 30
0.0
 70
   128
 71
     1
 72
     3
 73
    31
  0
VERTEX
  5
D38
  8
0
 10
0.0
 20
0.0
 30
0.0
 70
   128
 71
     6
 72
     9
 73
    48
  0
VERTEX
  5
D39
  8
0
 10
0.0
 20
0.0
 30
0.0
 70
   128
 71
    12
 72
    21
 73
    10
  0
VERTEX
  5
D3A
  8
0
 10
0.0
 20
0.0
 30
0.0
 70
   128
 71
     2
 72
    12
 73
    10
  0
VERTEX
  5
D3B
  8
0
 10
0.0
 20
0.0
 30
0.0
 70
   128
 71
    31
 72
    27
 73
    26
  0
VERTEX
  5
D3C
  8
0
 10
0.0
 20
0.0
 30
0.0
 70
   128
 71
    24
 72
    34
 73
    46
  0
VERTEX
  5
D3D
  8
0
 10
0.0
 20
0.0
 30
0.0
 70
   128
 71
    22
 72
    24
 73
    46
  0
VERTEX
  5
D3E
  8
0
 10
0.0
 20
0.0
 30
0.0
 70
   128
 71
    30
 72
    28
 73
    27
  0
VERTEX
  5
D3F
  8
0
 10
0.0
 20
0.0
 30
0.0
 70
   128
 71
     6
 72
    48
 73
    33
  0
VERTEX
  5
D40
  8
0
 10
0.0
 20
0.0
 30
0.0
 70
   128
 71
    24
 72
     6
 73
    33
  0
SEQEND
  5
12C0
  8
0
  0
POLYLINE
  5
D41
  8
0
 66
     1
 10
0.0
 20
0.0
 30
0.0
 70
    64
 71
    13
 72
    13
  0
VERTEX
  5
D42
  8
0
 10
99.7814378172476
 20
-1.23952773349962
 30
-88.4297408664354
 70
   192
  0
VERTEX
  5
D43
  8
0
 10
92.70130782528449
 20
-41.39294023744999
 30
-51.50513143005774
 70
   192
  0
VERTEX
  5
D44
  8
0
 10
89.8909724816275
 20
-57.33114397896097
 30
0.0407353781244488
 70
   192
  0
VERTEX
  5
D45
  8
0
 10
92.70933535256086
 20
-41.3474138679514
 30
51.53224314721718
 70
   192
  0
VERTEX
  5
D46
  8
0
 10
99.7814378172477
 20
-1.23952773349961
 30
88.4260518268017
 70
   192
  0
VERTEX
  5
D47
  8
0
 10
96.65181346023672
 20
-18.98850945164824
 30
0.0000000000000063
 70
   192
  0
VERTEX
  5
D48
  8
0
 10
96.01605878901226
 20
-22.59405336030061
 30
8.838834764831853
 70
   192
  0
VERTEX
  5
D49
  8
0
 10
94.4812112394001
 20
-31.29860636430084
 30
12.50000000000001
 70
   192
  0
VERTEX
  5
D4A
  8
0
 10
92.94636368978793
 20
-40.00315936830108
 30
8.838834764831851
 70
   192
  0
VERTEX
  5
D4B
  8
0
 10
92.31060901856347
 20
-43.60870327695344
 30
0.0000000000000063
 70
   192
  0
VERTEX
  5
D4C
  8
0
 10
92.94636368978793
 20
-40.00315936830108
 30
-8.838834764831839
 70
   192
  0
VERTEX
  5
D4D
  8
0
 10
94.4812112394001
 20
-31.29860636430084
 30
-12.49999999999999
 70
   192
  0
VERTEX
  5
D4E
  8
0
 10
96.01605878901226
 20
-22.59405336030061
 30
-8.838834764831835
 70
   192
  0
VERTEX
  5
D4F
  8
0
 10
0.0
 20
0.0
 30
0.0
 70
   128
 71
    -5
 72
     6
 73
    -7
  0
VERTEX
  5
D50
  8
0
 10
0.0
 20
0.0
 30
0.0
 70
   128
 71
    -8
 72
     4
 73
    -5
  0
VERTEX
  5
D51
  8
0
 10
0.0
 20
0.0
 30
0.0
 70
   128
 71
     7
 72
    -8
 73
    -5
  0
VERTEX
  5
D52
  8
0
 10
0.0
 20
0.0
 30
0.0
 70
   128
 71
     8
 72
    -9
 73
    -4
  0
VERTEX
  5
D53
  8
0
 10
0.0
 20
0.0
 30
0.0
 70
   128
 71
    -9
 72
     3
 73
    -4
  0
VERTEX
  5
D54
  8
0
 10
0.0
 20
0.0
 30
0.0
 70
   128
 71
     9
 72
   -10
 73
    -3
  0
VERTEX
  5
D55
  8
0
 10
0.0
 20
0.0
 30
0.0
 70
   128
 71
    10
 72
   -11
 73
    -3
  0
VERTEX
  5
D56
  8
0
 10
0.0
 20
0.0
 30
0.0
 70
   128
 71
     2
 72
    -3
 73
   -11
  0
VERTEX
  5
D57
  8
0
 10
0.0
 20
0.0
 30
0.0
 70
   128
 71
    11
 72
   -12
 73
    -2
  0
VERTEX
  5
D58
  8
0
 10
0.0
 20
0.0
 30
0.0
 70
   128
 71
   -13
 72
     1
 73
    -2
  0
VERTEX
  5
D59
  8
0
 10
0.0
 20
0.0
 30
0.0
 70
   128
 71
    12
 72
   -13
 73
    -2
  0
VERTEX
  5
D5A
  8
0
 10
0.0
 20
0.0
 30
0.0
 70
   128
 71
    13
 72
    -6
 73
    -1
  0
VERTEX
  5
D5B
  8
0
 10
0.0
 20
0.0
 30
0.0
 70
   128
 71
    -6
 72
     5
 73
    -1
  0
SEQEND
  5
12C1
  8
0
  0
POLYLINE
  5
D5C
  8
0
 66
     1
 10
0.0
 20
0.0
 30
0.0
 70
    64
 71
    46
 72
    48
  0
VERTEX
  5
D5D
  8
0
 10
197.249127551999
 20
0.0
 30
-107.2491275519988
 70
   192
  0
VERTEX
  5
D5E
  8
0
 10
197.249127551999
 20
0.0
 30
107.2491275519988
 70
   192
  0
VERTEX
  5
D5F
  8
0
 10
-197.249127551999
 20
0.0
 30
107.2491275519988
 70
   192
  0
VERTEX
  5
D60
  8
0
 10
-197.249127551999
 20
0.0
 30
-107.2491275519986
 70
   192
  0
VERTEX
  5
D61
  8
0
 10
-196.0
 20
0.0
 30
-105.5145763277112
 70
   192
  0
VERTEX
  5
D62
  8
0
 10
-196.0
 20
-0.0000092910806663
 30
-102.7934021255552
 70
   192
  0
VERTEX
  5
D63
  8
0
 10
-195.9999999999997
 20
-0.0000064487641001
 30
-100.0722278514471
 70
   192
  0
VERTEX
  5
D64
  8
0
 10
-195.9999999999975
 20
0.0
 30
-97.35105355773041
 70
   192
  0
VERTEX
  5
D65
  8
0
 10
-196.0
 20
0.0000032880292014
 30
-68.05953641559788
 70
   192
  0
VERTEX
  5
D66
  8
0
 10
-196.0
 20
-0.0000025490790629
 30
-38.7680193173541
 70
   192
  0
VERTEX
  5
D67
  8
0
 10
-195.999999999993
 20
0.0
 30
-9.47650217824125
 70
   192
  0
VERTEX
  5
D68
  8
0
 10
-195.999999999993
 20
-0.0000005119069377
 30
25.38286580948088
 70
   192
  0
VERTEX
  5
D69
  8
0
 10
-195.9999999999931
 20
-0.0000000488525285
 30
60.2422338018918
 70
   192
  0
VERTEX
  5
D6A
  8
0
 10
-195.999999999987
 20
-0.000013982876921
 30
95.1016017924612
 70
   192
  0
VERTEX
  5
D6B
  8
0
 10
-195.9999983506535
 20
0.0000173251759734
 30
97.19335821308609
 70
   192
  0
VERTEX
  5
D6C
  8
0
 10
-195.9999983506534
 20
0.0000153770292686
 30
99.28511455057098
 70
   192
  0
VERTEX
  5
D6D
  8
0
 10
-195.9999999999865
 20
-0.0000471179371471
 30
101.376870771965
 70
   192
  0
VERTEX
  5
D6E
  8
0
 10
-195.9999975376047
 20
-0.0000279117054131
 30
102.8462143426201
 70
   192
  0
VERTEX
  5
D6F
  8
0
 10
-195.9999975376047
 20
-0.0000310678990395
 30
104.3155579724533
 70
   192
  0
VERTEX
  5
D70
  8
0
 10
-195.9999999999865
 20
0.0
 30
105.784901794639
 70
   192
  0
VERTEX
  5
D71
  8
0
 10
-195.9999999999913
 20
0.0000031823831021
 30
105.8566011953034
 70
   192
  0
VERTEX
  5
D72
  8
0
 10
-195.9999999999913
 20
0.00000656017567
 30
105.9283005969077
 70
   192
  0
VERTEX
  5
D73
  8
0
 10
-195.9999999999865
 20
0.0000101391119475
 30
105.9999999994794
 70
   192
  0
VERTEX
  5
D74
  8
0
 10
-101.9047270642695
 20
-0.0000000000000017
 30
106.7087168134285
 70
   192
  0
VERTEX
  5
D75
  8
0
 10
-7.827486280556412
 20
-0.0000000000000051
 30
106.9136516733009
 70
   192
  0
VERTEX
  5
D76
  8
0
 10
86.24987498850639
 20
0.0
 30
106.76981059639
 70
   192
  0
VERTEX
  5
D77
  8
0
 10
94.44338661948811
 20
0.0
 30
103.9455107899947
 70
   192
  0
VERTEX
  5
D78
  8
0
 10
99.63657044129037
 20
0.0
 30
96.97198240165184
 70
   192
  0
VERTEX
  5
D79
  8
0
 10
101.258649446766
 20
0.0
 30
88.4260518268017
 70
   192
  0
VERTEX
  5
D7A
  8
0
 10
101.258649446766
 20
0.0
 30
-88.4297408664354
 70
   192
  0
VERTEX
  5
D7B
  8
0
 10
99.62122642086949
 20
0.0
 30
-97.01092711804279
 70
   192
  0
VERTEX
  5
D7C
  8
0
 10
94.41266213254211
 20
0.0
 30
-103.9693602353527
 70
   192
  0
VERTEX
  5
D7D
  8
0
 10
86.24951055439419
 20
0.0
 30
-106.770105578756
 70
   192
  0
VERTEX
  5
D7E
  8
0
 10
-6.957568771703754
 20
0.0
 30
-106.9172737733512
 70
   192
  0
VERTEX
  5
D7F
  8
0
 10
-103.4208197597046
 20
0.0
 30
-106.7014947014445
 70
   192
  0
VERTEX
  5
D80
  8
0
 10
-196.0001671337385
 20
0.000000484356032
 30
-105.9948892411586
 70
   192
  0
VERTEX
  5
D81
  8
0
 10
-196.0000220093813
 20
0.0000020233677583
 30
-105.8375190939656
 70
   192
  0
VERTEX
  5
D82
  8
0
 10
-196.0000006877931
 20
0.0000011735752347
 30
-105.6763631967931
 70
   192
  0
VERTEX
  5
D83
  8
0
 10
155.0
 20
0.0
 30
-17.5
 70
   192
  0
VERTEX
  5
D84
  8
0
 10
142.6256313292354
 20
0.0
 30
-12.37436867076458
 70
   192
  0
VERTEX
  5
D85
  8
0
 10
137.5
 20
0.0
 30
-0.0000000000000019
 70
   192
  0
VERTEX
  5
D86
  8
0
 10
142.6256313292354
 20
0.0
 30
12.37436867076458
 70
   192
  0
VERTEX
  5
D87
  8
0
 10
155.0
 20
0.0
 30
17.5
 70
   192
  0
VERTEX
  5
D88
  8
0
 10
167.3743686707646
 20
0.0
 30
12.37436867076458
 70
   192
  0
VERTEX
  5
D89
  8
0
 10
172.5
 20
0.0
 30
0.0
 70
   192
  0
VERTEX
  5
D8A
  8
0
 10
167.3743686707646
 20
0.0
 30
-12.37436867076458
 70
   192
  0
VERTEX
  5
D8B
  8
0
 10
0.0
 20
0.0
 30
0.0
 70
   128
 71
     6
 72
    -5
 73
    -4
  0
VERTEX
  5
D8C
  8
0
 10
0.0
 20
0.0
 30
0.0
 70
   128
 71
    -4
 72
     7
 73
    -6
  0
VERTEX
  5
D8D
  8
0
 10
0.0
 20
0.0
 30
0.0
 70
   128
 71
    -4
 72
     8
 73
    -7
  0
VERTEX
  5
D8E
  8
0
 10
0.0
 20
0.0
 30
0.0
 70
   128
 71
    -4
 72
     9
 73
    -8
  0
VERTEX
  5
D8F
  8
0
 10
0.0
 20
0.0
 30
0.0
 70
   128
 71
    -4
 72
    10
 73
    -9
  0
VERTEX
  5
D90
  8
0
 10
0.0
 20
0.0
 30
0.0
 70
   128
 71
    -4
 72
    11
 73
   -10
  0
VERTEX
  5
D91
  8
0
 10
0.0
 20
0.0
 30
0.0
 70
   128
 71
    -4
 72
    12
 73
   -11
  0
VERTEX
  5
D92
  8
0
 10
0.0
 20
0.0
 30
0.0
 70
   128
 71
    -4
 72
    13
 73
   -12
  0
VERTEX
  5
D93
  8
0
 10
0.0
 20
0.0
 30
0.0
 70
   128
 71
     4
 72
    -3
 73
   -13
  0
VERTEX
  5
D94
  8
0
 10
0.0
 20
0.0
 30
0.0
 70
   128
 71
    -3
 72
    14
 73
   -13
  0
VERTEX
  5
D95
  8
0
 10
0.0
 20
0.0
 30
0.0
 70
   128
 71
    -3
 72
    15
 73
   -14
  0
VERTEX
  5
D96
  8
0
 10
0.0
 20
0.0
 30
0.0
 70
   128
 71
    -3
 72
    16
 73
   -15
  0
VERTEX
  5
D97
  8
0
 10
0.0
 20
0.0
 30
0.0
 70
   128
 71
    -3
 72
    17
 73
   -16
  0
VERTEX
  5
D98
  8
0
 10
0.0
 20
0.0
 30
0.0
 70
   128
 71
    -3
 72
    18
 73
   -17
  0
VERTEX
  5
D99
  8
0
 10
0.0
 20
0.0
 30
0.0
 70
   128
 71
    -3
 72
    19
 73
   -18
  0
VERTEX
  5
D9A
  8
0
 10
0.0
 20
0.0
 30
0.0
 70
   128
 71
    -3
 72
    20
 73
   -19
  0
VERTEX
  5
D9B
  8
0
 10
0.0
 20
0.0
 30
0.0
 70
   128
 71
    -3
 72
    21
 73
   -20
  0
VERTEX
  5
D9C
  8
0
 10
0.0
 20
0.0
 30
0.0
 70
   128
 71
    -3
 72
    22
 73
   -21
  0
VERTEX
  5
D9D
  8
0
 10
0.0
 20
0.0
 30
0.0
 70
   128
 71
    -3
 72
    23
 73
   -22
  0
VERTEX
  5
D9E
  8
0
 10
0.0
 20
0.0
 30
0.0
 70
   128
 71
    -3
 72
    24
 73
   -23
  0
VERTEX
  5
D9F
  8
0
 10
0.0
 20
0.0
 30
0.0
 70
   128
 71
    -3
 72
    25
 73
   -24
  0
VERTEX
  5
DA0
  8
0
 10
0.0
 20
0.0
 30
0.0
 70
   128
 71
    -3
 72
    26
 73
   -25
  0
VERTEX
  5
DA1
  8
0
 10
0.0
 20
0.0
 30
0.0
 70
   128
 71
     3
 72
    -2
 73
   -26
  0
VERTEX
  5
DA2
  8
0
 10
0.0
 20
0.0
 30
0.0
 70
   128
 71
    -2
 72
    27
 73
   -26
  0
VERTEX
  5
DA3
  8
0
 10
0.0
 20
0.0
 30
0.0
 70
   128
 71
    -2
 72
    28
 73
   -27
  0
VERTEX
  5
DA4
  8
0
 10
0.0
 20
0.0
 30
0.0
 70
   128
 71
    -2
 72
    29
 73
   -28
  0
VERTEX
  5
DA5
  8
0
 10
0.0
 20
0.0
 30
0.0
 70
   128
 71
    40
 72
   -39
 73
   -30
  0
VERTEX
  5
DA6
  8
0
 10
0.0
 20
0.0
 30
0.0
 70
   128
 71
   -30
 72
    41
 73
   -40
  0
VERTEX
  5
DA7
  8
0
 10
0.0
 20
0.0
 30
0.0
 70
   128
 71
    30
 72
   -29
 73
   -41
  0
VERTEX
  5
DA8
  8
0
 10
0.0
 20
0.0
 30
0.0
 70
   128
 71
   -29
 72
    42
 73
   -41
  0
VERTEX
  5
DA9
  8
0
 10
0.0
 20
0.0
 30
0.0
 70
   128
 71
   -29
 72
    43
 73
   -42
  0
VERTEX
  5
DAA
  8
0
 10
0.0
 20
0.0
 30
0.0
 70
   128
 71
   -29
 72
    -2
 73
   -44
  0
VERTEX
  5
DAB
  8
0
 10
0.0
 20
0.0
 30
0.0
 70
   128
 71
   -29
 72
    44
 73
   -43
  0
VERTEX
  5
DAC
  8
0
 10
0.0
 20
0.0
 30
0.0
 70
   128
 71
    -2
 72
    45
 73
   -44
  0
VERTEX
  5
DAD
  8
0
 10
0.0
 20
0.0
 30
0.0
 70
   128
 71
     2
 72
    -1
 73
   -45
  0
VERTEX
  5
DAE
  8
0
 10
0.0
 20
0.0
 30
0.0
 70
   128
 71
    -1
 72
    46
 73
   -45
  0
VERTEX
  5
DAF
  8
0
 10
0.0
 20
0.0
 30
0.0
 70
   128
 71
    -1
 72
    39
 73
   -46
  0
VERTEX
  5
DB0
  8
0
 10
0.0
 20
0.0
 30
0.0
 70
   128
 71
   -39
 72
    -1
 73
   -31
  0
VERTEX
  5
DB1
  8
0
 10
0.0
 20
0.0
 30
0.0
 70
   128
 71
   -39
 72
    31
 73
   -30
  0
VERTEX
  5
DB2
  8
0
 10
0.0
 20
0.0
 30
0.0
 70
   128
 71
    -1
 72
    32
 73
   -31
  0
VERTEX
  5
DB3
  8
0
 10
0.0
 20
0.0
 30
0.0
 70
   128
 71
    -1
 72
    33
 73
   -32
  0
VERTEX
  5
DB4
  8
0
 10
0.0
 20
0.0
 30
0.0
 70
   128
 71
    -1
 72
    34
 73
   -33
  0
VERTEX
  5
DB5
  8
0
 10
0.0
 20
0.0
 30
0.0
 70
   128
 71
     1
 72
    -4
 73
   -34
  0
VERTEX
  5
DB6
  8
0
 10
0.0
 20
0.0
 30
0.0
 70
   128
 71
    -4
 72
    35
 73
   -34
  0
VERTEX
  5
DB7
  8
0
 10
0.0
 20
0.0
 30
0.0
 70
   128
 71
    -4
 72
    36
 73
   -35
  0
VERTEX
  5
DB8
  8
0
 10
0.0
 20
0.0
 30
0.0
 70
   128
 71
    -4
 72
    37
 73
   -36
  0
VERTEX
  5
DB9
  8
0
 10
0.0
 20
0.0
 30
0.0
 70
   128
 71
    -4
 72
    38
 73
   -37
  0
VERTEX
  5
DBA
  8
0
 10
0.0
 20
0.0
 30
0.0
 70
   128
 71
    -4
 72
     5
 73
   -38
  0
SEQEND
  5
12C2
  8
0
  0
POLYLINE
  5
DBB
  8
0
 66
     1
 10
0.0
 20
0.0
 30
0.0
 70
    64
 71
    14
 72
    12
  0
VERTEX
  5
DBC
  8
0
 10
92.70933535256086
 20
-41.3474138679514
 30
51.53224314721718
 70
   192
  0
VERTEX
  5
DBD
  8
0
 10
81.48907613146454
 20
-68.30656454177556
 30
0.045066423106461
 70
   192
  0
VERTEX
  5
DBE
  8
0
 10
82.44106338808459
 20
-49.09313610997636
 30
61.63586614004317
 70
   192
  0
VERTEX
  5
DBF
  8
0
 10
89.8909724816275
 20
-57.33114397896097
 30
0.0407353781244488
 70
   192
  0
VERTEX
  5
DC0
  8
0
 10
92.70130782528449
 20
-41.39294023744999
 30
-51.50513143005774
 70
   192
  0
VERTEX
  5
DC1
  8
0
 10
82.45138307992576
 20
-49.13322422547234
 30
-61.60867276302854
 70
   192
  0
VERTEX
  5
DC2
  8
0
 10
98.37631006059104
 20
-0.8958817027234757
 30
96.42694176153798
 70
   192
  0
VERTEX
  5
DC3
  8
0
 10
99.7814378172477
 20
-1.23952773349961
 30
88.4260518268017
 70
   192
  0
VERTEX
  5
DC4
  8
0
 10
93.74012916386997
 20
-0.6591004321989193
 30
102.9193737024896
 70
   192
  0
VERTEX
  5
DC5
  8
0
 10
99.7814378172476
 20
-1.23952773349962
 30
-88.4297408664354
 70
   192
  0
VERTEX
  5
DC6
  8
0
 10
98.37891296470318
 20
-0.896323620576271
 30
-96.42187212320987
 70
   192
  0
VERTEX
  5
DC7
  8
0
 10
86.24559502663269
 20
-0.624207119781104
 30
105.5520386502174
 70
   192
  0
VERTEX
  5
DC8
  8
0
 10
93.73593419016572
 20
-0.6592985422838232
 30
-102.9229185731627
 70
   192
  0
VERTEX
  5
DC9
  8
0
 10
86.2451971937208
 20
-0.6245844254734371
 30
-105.5520624897006
 70
   192
  0
VERTEX
  5
DCA
  8
0
 10
0.0
 20
0.0
 30
0.0
 70
   128
 71
     1
 72
     2
 73
     3
  0
VERTEX
  5
DCB
  8
0
 10
0.0
 20
0.0
 30
0.0
 70
   128
 71
     4
 72
     5
 73
     6
  0
VERTEX
  5
DCC
  8
0
 10
0.0
 20
0.0
 30
0.0
 70
   128
 71
     4
 72
     6
 73
     2
  0
VERTEX
  5
DCD
  8
0
 10
0.0
 20
0.0
 30
0.0
 70
   128
 71
     4
 72
     2
 73
     1
  0
VERTEX
  5
DCE
  8
0
 10
0.0
 20
0.0
 30
0.0
 70
   128
 71
     7
 72
     8
 73
     1
  0
VERTEX
  5
DCF
  8
0
 10
0.0
 20
0.0
 30
0.0
 70
   128
 71
     1
 72
     9
 73
     7
  0
VERTEX
  5
DD0
  8
0
 10
0.0
 20
0.0
 30
0.0
 70
   128
 71
     5
 72
    10
 73
    11
  0
VERTEX
  5
DD1
  8
0
 10
0.0
 20
0.0
 30
0.0
 70
   128
 71
     9
 72
     1
 73
     3
  0
VERTEX
  5
DD2
  8
0
 10
0.0
 20
0.0
 30
0.0
 70
   128
 71
     3
 72
    12
 73
     9
  0
VERTEX
  5
DD3
  8
0
 10
0.0
 20
0.0
 30
0.0
 70
   128
 71
    13
 72
    14
 73
     6
  0
VERTEX
  5
DD4
  8
0
 10
0.0
 20
0.0
 30
0.0
 70
   128
 71
     6
 72
     5
 73
    11
  0
VERTEX
  5
DD5
  8
0
 10
0.0
 20
0.0
 30
0.0
 70
   128
 71
     6
 72
    11
 73
    13
  0
SEQEND
  5
12C3
  8
0
  0
POLYLINE
  5
DD6
  8
0
 66
     1
 10
0.0
 20
0.0
 30
0.0
 70
    64
 71
     6
 72
     4
  0
VERTEX
  5
DD7
  8
0
 10
-187.0
 20
-45.0
 30
91.0228318114496
 70
   192
  0
VERTEX
  5
DD8
  8
0
 10
-187.0
 20
-45.0
 30
-91.0228318114494
 70
   192
  0
VERTEX
  5
DD9
  8
0
 10
-185.0632372296133
 20
-22.86270023644007
 30
-89.08606904106283
 70
   192
  0
VERTEX
  5
DDA
  8
0
 10
-185.8456988000447
 20
-31.80627691136822
 30
-29.88051071474379
 70
   192
  0
VERTEX
  5
DDB
  8
0
 10
-185.8467102400595
 20
-31.81783772363782
 30
29.97304886151027
 70
   192
  0
VERTEX
  5
DDC
  8
0
 10
-185.0657754517505
 20
-22.89171224822305
 30
89.0886072632001
 70
   192
  0
VERTEX
  5
DDD
  8
0
 10
0.0
 20
0.0
 30
0.0
 70
   128
 71
     2
 72
     3
 73
    -4
  0
VERTEX
  5
DDE
  8
0
 10
0.0
 20
0.0
 30
0.0
 70
   128
 71
    -5
 72
     1
 73
    -2
  0
VERTEX
  5
DDF
  8
0
 10
0.0
 20
0.0
 30
0.0
 70
   128
 71
     4
 72
    -5
 73
    -2
  0
VERTEX
  5
DE0
  8
0
 10
0.0
 20
0.0
 30
0.0
 70
   128
 71
     5
 72
     6
 73
    -1
  0
SEQEND
  5
12C4
  8
0
  0
POLYLINE
  5
DE1
  8
0
 66
     1
 10
0.0
 20
0.0
 30
0.0
 70
    64
 71
     6
 72
     4
  0
VERTEX
  5
DE2
  8
0
 10
179.6195817837185
 20
-17.5742212862617
 30
-94.60055527417728
 70
   192
  0
VERTEX
  5
DE3
  8
0
 10
114.8093050750674
 20
-17.5742212862617
 30
-94.60055527417727
 70
   192
  0
VERTEX
  5
DE4
  8
0
 10
109.6551762528775
 20
-28.47345674719105
 30
-95.55411481810833
 70
   192
  0
VERTEX
  5
DE5
  8
0
 10
102.3001588546762
 20
-37.9623606140653
 30
-96.38428633574706
 70
   192
  0
VERTEX
  5
DE6
  8
0
 10
92.59173774932279
 20
-45.0
 30
-97.0
 70
   192
  0
VERTEX
  5
DE7
  8
0
 10
182.0190265095415
 20
-45.0
 30
-97.00000000000007
 70
   192
  0
VERTEX
  5
DE8
  8
0
 10
0.0
 20
0.0
 30
0.0
 70
   128
 71
     1
 72
     2
 73
    -3
  0
VERTEX
  5
DE9
  8
0
 10
0.0
 20
0.0
 30
0.0
 70
   128
 71
     6
 72
    -1
 73
    -3
  0
VERTEX
  5
DEA
  8
0
 10
0.0
 20
0.0
 30
0.0
 70
   128
 71
     3
 72
    -4
 73
    -6
  0
VERTEX
  5
DEB
  8
0
 10
0.0
 20
0.0
 30
0.0
 70
   128
 71
     4
 72
     5
 73
    -6
  0
SEQEND
  5
12C5
  8
0
  0
POLYLINE
  5
DEC
  8
0
 66
     1
 10
0.0
 20
0.0
 30
0.0
 70
    64
 71
     5
 72
     3
  0
VERTEX
  5
DED
  8
0
 10
-181.0228318114494
 20
-45.00000000000001
 30
97.00000000000004
 70
   192
  0
VERTEX
  5
DEE
  8
0
 10
-179.0886072631999
 20
-22.89171224822306
 30
95.06577545175053
 70
   192
  0
VERTEX
  5
DEF
  8
0
 10
-151.1261731147368
 20
-30.13007048256999
 30
95.69904973979538
 70
   192
  0
VERTEX
  5
DF0
  8
0
 10
-123.2429562611681
 20
-37.66512106851241
 30
96.35828124515972
 70
   192
  0
VERTEX
  5
DF1
  8
0
 10
-95.3067125689075
 20
-45.0
 30
97.0
 70
   192
  0
VERTEX
  5
DF2
  8
0
 10
0.0
 20
0.0
 30
0.0
 70
   128
 71
     1
 72
     2
 73
    -3
  0
VERTEX
  5
DF3
  8
0
 10
0.0
 20
0.0
 30
0.0
 70
   128
 71
     3
 72
    -4
 73
    -1
  0
VERTEX
  5
DF4
  8
0
 10
0.0
 20
0.0
 30
0.0
 70
   128
 71
     4
 72
     5
 73
    -1
  0
SEQEND
  5
12C6
  8
0
  0
POLYLINE
  5
DF5
  8
0
 66
     1
 10
0.0
 20
0.0
 30
0.0
 70
    64
 71
    78
 72
    78
  0
VERTEX
  5
DF6
  8
0
 10
198.0003046096875
 20
-45.0
 30
109.9999999999999
 70
   192
  0
VERTEX
  5
DF7
  8
0
 10
-198.000304609687
 20
-45.0
 30
110.0
 70
   192
  0
VERTEX
  5
DF8
  8
0
 10
-198.9782952095468
 20
-44.99999999999999
 30
109.7445738023867
 70
   192
  0
VERTEX
  5
DF9
  8
0
 10
-199.7445738023868
 20
-45.00000000000001
 30
108.9782952095469
 70
   192
  0
VERTEX
  5
DFA
  8
0
 10
-200.0000000000001
 20
-45.00000000000001
 30
108.0003046096872
 70
   192
  0
VERTEX
  5
DFB
  8
0
 10
-200.0
 20
-45.0
 30
-108.000304609687
 70
   192
  0
VERTEX
  5
DFC
  8
0
 10
-199.7445738023867
 20
-45.00000000000001
 30
-108.9782952095467
 70
   192
  0
VERTEX
  5
DFD
  8
0
 10
-198.9782952095468
 20
-45.00000000000001
 30
-109.7445738023867
 70
   192
  0
VERTEX
  5
DFE
  8
0
 10
-198.000304609687
 20
-45.0
 30
-110.0
 70
   192
  0
VERTEX
  5
DFF
  8
0
 10
198.000304609687
 20
-45.0
 30
-110.0000000000001
 70
   192
  0
VERTEX
  5
E00
  8
0
 10
198.9782952095468
 20
-45.00000000000001
 30
-109.7445738023867
 70
   192
  0
VERTEX
  5
E01
  8
0
 10
199.7445738023867
 20
-45.00000000000001
 30
-108.9782952095469
 70
   192
  0
VERTEX
  5
E02
  8
0
 10
200.0
 20
-45.0
 30
-108.0003046096872
 70
   192
  0
VERTEX
  5
E03
  8
0
 10
200.0
 20
-45.0
 30
108.000304609687
 70
   192
  0
VERTEX
  5
E04
  8
0
 10
199.7445738023868
 20
-45.00000000000001
 30
108.9782952095468
 70
   192
  0
VERTEX
  5
E05
  8
0
 10
198.978295209547
 20
-45.00000000000003
 30
109.7445738023867
 70
   192
  0
VERTEX
  5
E06
  8
0
 10
-66.97507177086109
 20
-45.0
 30
89.83909963117729
 70
   192
  0
VERTEX
  5
E07
  8
0
 10
66.9778018903285
 20
-45.0
 30
89.83909963117729
 70
   192
  0
VERTEX
  5
E08
  8
0
 10
68.19131814377441
 20
-45.00000000000001
 30
89.80923752677117
 70
   192
  0
VERTEX
  5
E09
  8
0
 10
69.39910002323694
 20
-45.0
 30
89.71257306407644
 70
   192
  0
VERTEX
  5
E0A
  8
0
 10
70.5993548322857
 20
-45.0
 30
89.5282222983761
 70
   192
  0
VERTEX
  5
E0B
  8
0
 10
72.01218993770024
 20
-45.00000000000001
 30
89.240260816443
 70
   192
  0
VERTEX
  5
E0C
  8
0
 10
73.42322463214353
 20
-45.0
 30
88.94373435313274
 70
   192
  0
VERTEX
  5
E0D
  8
0
 10
74.832409648401
 20
-45.0
 30
88.6384085326333
 70
   192
  0
VERTEX
  5
E0E
  8
0
 10
73.05303130478708
 20
-44.99999032360154
 30
93.30047953053032
 70
   192
  0
VERTEX
  5
E0F
  8
0
 10
79.29851227752346
 20
-44.99997552030858
 30
95.51215509732852
 70
   192
  0
VERTEX
  5
E10
  8
0
 10
85.9318382668435
 20
-45.0
 30
96.5315143010492
 70
   192
  0
VERTEX
  5
E11
  8
0
 10
88.18305175446379
 20
-45.0
 30
96.75837224645467
 70
   192
  0
VERTEX
  5
E12
  8
0
 10
90.43058801816039
 20
-44.99999999999999
 30
96.9337582634603
 70
   192
  0
VERTEX
  5
E13
  8
0
 10
92.5564280267746
 20
-45.0
 30
97.0
 70
   192
  0
VERTEX
  5
E14
  8
0
 10
182.0190265095415
 20
-45.0
 30
96.99999999999993
 70
   192
  0
VERTEX
  5
E15
  8
0
 10
184.458411226548
 20
-45.00000000000002
 30
96.364602806637
 70
   192
  0
VERTEX
  5
E16
  8
0
 10
186.364602806637
 20
-45.00000000000002
 30
94.45841122654788
 70
   192
  0
VERTEX
  5
E17
  8
0
 10
187.0
 20
-45.0
 30
92.0190265095412
 70
   192
  0
VERTEX
  5
E18
  8
0
 10
187.0
 20
-45.0
 30
-92.0190265095412
 70
   192
  0
VERTEX
  5
E19
  8
0
 10
186.364602806637
 20
-45.00000000000003
 30
-94.45841122654781
 70
   192
  0
VERTEX
  5
E1A
  8
0
 10
184.458411226548
 20
-45.00000000000004
 30
-96.36460280663692
 70
   192
  0
VERTEX
  5
E1B
  8
0
 10
182.0190265095415
 20
-45.0
 30
-97.0
 70
   192
  0
VERTEX
  5
E1C
  8
0
 10
92.59173774932276
 20
-45.0
 30
-97.00000000000006
 70
   192
  0
VERTEX
  5
E1D
  8
0
 10
90.46027776435929
 20
-45.0
 30
-96.93295997540272
 70
   192
  0
VERTEX
  5
E1E
  8
0
 10
88.207394106567
 20
-45.00000000000001
 30
-96.75540346959916
 70
   192
  0
VERTEX
  5
E1F
  8
0
 10
85.9506407284219
 20
-45.0
 30
-96.52541637793979
 70
   192
  0
VERTEX
  5
E20
  8
0
 10
79.36389012198653
 20
-44.9999771903985
 30
-95.5023431969061
 70
   192
  0
VERTEX
  5
E21
  8
0
 10
73.1677734654472
 20
-44.99999117559473
 30
-93.28182310854838
 70
   192
  0
VERTEX
  5
E22
  8
0
 10
74.96175101516688
 20
-45.0
 30
-88.639925597834
 70
   192
  0
VERTEX
  5
E23
  8
0
 10
73.56431477996117
 20
-44.99999999999999
 30
-88.94450639754973
 70
   192
  0
VERTEX
  5
E24
  8
0
 10
72.16503504532263
 20
-45.0
 30
-89.24037079912245
 70
   192
  0
VERTEX
  5
E25
  8
0
 10
70.7639605482535
 20
-45.0
 30
-89.5277492398975
 70
   192
  0
VERTEX
  5
E26
  8
0
 10
69.57103235877457
 20
-45.00000000000001
 30
-89.71219731950431
 70
   192
  0
VERTEX
  5
E27
  8
0
 10
68.36796201121786
 20
-45.0
 30
-89.80915560342369
 70
   192
  0
VERTEX
  5
E28
  8
0
 10
67.1596861996387
 20
-45.0
 30
-89.83909963117729
 70
   192
  0
VERTEX
  5
E29
  8
0
 10
-67.15947006704889
 20
-45.0
 30
-89.83909963117729
 70
   192
  0
VERTEX
  5
E2A
  8
0
 10
-68.36639183289145
 20
-44.99999999999999
 30
-89.80923509801025
 70
   192
  0
VERTEX
  5
E2B
  8
0
 10
-69.56967958881225
 20
-45.0
 30
-89.71229101309365
 70
   192
  0
VERTEX
  5
E2C
  8
0
 10
-70.76365112036922
 20
-45.0
 30
-89.52774640749709
 70
   192
  0
VERTEX
  5
E2D
  8
0
 10
-72.14313618563638
 20
-45.00000000000001
 30
-89.244852701322
 70
   192
  0
VERTEX
  5
E2E
  8
0
 10
-73.52088321963504
 20
-45.0
 30
-88.95373570880571
 70
   192
  0
VERTEX
  5
E2F
  8
0
 10
-74.89684579386481
 20
-45.0
 30
-88.65417575906629
 70
   192
  0
VERTEX
  5
E30
  8
0
 10
-75.74634618657606
 20
-44.99976512190383
 30
-94.52747623794166
 70
   192
  0
VERTEX
  5
E31
  8
0
 10
-85.5593678671014
 20
-44.99913806440977
 30
-96.49184364473547
 70
   192
  0
VERTEX
  5
E32
  8
0
 10
-95.34185660222471
 20
-45.0
 30
-97.0
 70
   192
  0
VERTEX
  5
E33
  8
0
 10
-181.0228318114495
 20
-45.0
 30
-97.0
 70
   192
  0
VERTEX
  5
E34
  8
0
 10
-183.9500934718575
 20
-45.00000000000003
 30
-96.23752336796431
 70
   192
  0
VERTEX
  5
E35
  8
0
 10
-186.2375233679644
 20
-45.00000000000003
 30
-93.95009347185737
 70
   192
  0
VERTEX
  5
E36
  8
0
 10
-187.0
 20
-45.0
 30
-91.0228318114494
 70
   192
  0
VERTEX
  5
E37
  8
0
 10
-187.0
 20
-45.0
 30
91.0228318114496
 70
   192
  0
VERTEX
  5
E38
  8
0
 10
-186.2375233679644
 20
-44.99999999999996
 30
93.95009347185753
 70
   192
  0
VERTEX
  5
E39
  8
0
 10
-183.9500934718575
 20
-44.99999999999997
 30
96.23752336796441
 70
   192
  0
VERTEX
  5
E3A
  8
0
 10
-181.0228318114495
 20
-45.0
 30
97.0
 70
   192
  0
VERTEX
  5
E3B
  8
0
 10
-95.3067125689075
 20
-45.0
 30
96.99999999999999
 70
   192
  0
VERTEX
  5
E3C
  8
0
 10
-85.4741922998245
 20
-45.00056392603711
 30
96.49228711869591
 70
   192
  0
VERTEX
  5
E3D
  8
0
 10
-75.62058806701778
 20
-44.99972569545906
 30
94.52952930352816
 70
   192
  0
VERTEX
  5
E3E
  8
0
 10
-74.7647750339071
 20
-45.0
 30
88.65265319455261
 70
   192
  0
VERTEX
  5
E3F
  8
0
 10
-73.37715188409607
 20
-45.00000000000001
 30
88.95295858975098
 70
   192
  0
VERTEX
  5
E40
  8
0
 10
-71.98773819270565
 20
-45.0
 30
89.24474000094996
 70
   192
  0
VERTEX
  5
E41
  8
0
 10
-70.59658089715539
 20
-45.0
 30
89.52822087663941
 70
   192
  0
VERTEX
  5
E42
  8
0
 10
-69.39634083635683
 20
-45.0
 30
89.71257243660556
 70
   192
  0
VERTEX
  5
E43
  8
0
 10
-68.18857355153271
 20
-45.0
 30
89.80923736599169
 70
   192
  0
VERTEX
  5
E44
  8
0
 10
0.0
 20
0.0
 30
0.0
 70
   128
 71
    44
 72
    45
 73
   -46
  0
VERTEX
  5
E45
  8
0
 10
0.0
 20
0.0
 30
0.0
 70
   128
 71
    46
 72
   -47
 73
   -44
  0
VERTEX
  5
E46
  8
0
 10
0.0
 20
0.0
 30
0.0
 70
   128
 71
    47
 72
   -48
 73
   -44
  0
VERTEX
  5
E47
  8
0
 10
0.0
 20
0.0
 30
0.0
 70
   128
 71
    48
 72
   -49
 73
   -44
  0
VERTEX
  5
E48
  8
0
 10
0.0
 20
0.0
 30
0.0
 70
   128
 71
    49
 72
   -50
 73
   -44
  0
VERTEX
  5
E49
  8
0
 10
0.0
 20
0.0
 30
0.0
 70
   128
 71
    50
 72
   -51
 73
   -44
  0
VERTEX
  5
E4A
  8
0
 10
0.0
 20
0.0
 30
0.0
 70
   128
 71
    72
 72
    73
 73
   -74
  0
VERTEX
  5
E4B
  8
0
 10
0.0
 20
0.0
 30
0.0
 70
   128
 71
    74
 72
   -75
 73
   -72
  0
VERTEX
  5
E4C
  8
0
 10
0.0
 20
0.0
 30
0.0
 70
   128
 71
    75
 72
   -76
 73
   -72
  0
VERTEX
  5
E4D
  8
0
 10
0.0
 20
0.0
 30
0.0
 70
   128
 71
    76
 72
   -77
 73
   -72
  0
VERTEX
  5
E4E
  8
0
 10
0.0
 20
0.0
 30
0.0
 70
   128
 71
    77
 72
   -78
 73
   -72
  0
VERTEX
  5
E4F
  8
0
 10
0.0
 20
0.0
 30
0.0
 70
   128
 71
    78
 72
   -17
 73
   -72
  0
VERTEX
  5
E50
  8
0
 10
0.0
 20
0.0
 30
0.0
 70
   128
 71
   -18
 72
   -25
 73
   -72
  0
VERTEX
  5
E51
  8
0
 10
0.0
 20
0.0
 30
0.0
 70
   128
 71
    17
 72
   -18
 73
   -72
  0
VERTEX
  5
E52
  8
0
 10
0.0
 20
0.0
 30
0.0
 70
   128
 71
    18
 72
   -19
 73
   -25
  0
VERTEX
  5
E53
  8
0
 10
0.0
 20
0.0
 30
0.0
 70
   128
 71
    19
 72
   -20
 73
   -25
  0
VERTEX
  5
E54
  8
0
 10
0.0
 20
0.0
 30
0.0
 70
   128
 71
    20
 72
   -21
 73
   -25
  0
VERTEX
  5
E55
  8
0
 10
0.0
 20
0.0
 30
0.0
 70
   128
 71
    21
 72
   -22
 73
   -25
  0
VERTEX
  5
E56
  8
0
 10
0.0
 20
0.0
 30
0.0
 70
   128
 71
    22
 72
   -23
 73
   -25
  0
VERTEX
  5
E57
  8
0
 10
0.0
 20
0.0
 30
0.0
 70
   128
 71
    23
 72
    24
 73
   -25
  0
VERTEX
  5
E58
  8
0
 10
0.0
 20
0.0
 30
0.0
 70
   128
 71
    25
 72
   -26
 73
   -72
  0
VERTEX
  5
E59
  8
0
 10
0.0
 20
0.0
 30
0.0
 70
   128
 71
    26
 72
   -27
 73
   -72
  0
VERTEX
  5
E5A
  8
0
 10
0.0
 20
0.0
 30
0.0
 70
   128
 71
    27
 72
   -28
 73
   -72
  0
VERTEX
  5
E5B
  8
0
 10
0.0
 20
0.0
 30
0.0
 70
   128
 71
    28
 72
   -29
 73
   -72
  0
VERTEX
  5
E5C
  8
0
 10
0.0
 20
0.0
 30
0.0
 70
   128
 71
    29
 72
   -30
 73
   -72
  0
VERTEX
  5
E5D
  8
0
 10
0.0
 20
0.0
 30
0.0
 70
   128
 71
   -30
 72
    -1
 73
   -72
  0
VERTEX
  5
E5E
  8
0
 10
0.0
 20
0.0
 30
0.0
 70
   128
 71
    30
 72
   -31
 73
    -1
  0
VERTEX
  5
E5F
  8
0
 10
0.0
 20
0.0
 30
0.0
 70
   128
 71
    31
 72
   -32
 73
    -1
  0
VERTEX
  5
E60
  8
0
 10
0.0
 20
0.0
 30
0.0
 70
   128
 71
    32
 72
   -33
 73
    -1
  0
VERTEX
  5
E61
  8
0
 10
0.0
 20
0.0
 30
0.0
 70
   128
 71
    33
 72
   -34
 73
    -1
  0
VERTEX
  5
E62
  8
0
 10
0.0
 20
0.0
 30
0.0
 70
   128
 71
    15
 72
    16
 73
    -1
  0
VERTEX
  5
E63
  8
0
 10
0.0
 20
0.0
 30
0.0
 70
   128
 71
    14
 72
   -15
 73
    -1
  0
VERTEX
  5
E64
  8
0
 10
0.0
 20
0.0
 30
0.0
 70
   128
 71
    13
 72
   -14
 73
    -1
  0
VERTEX
  5
E65
  8
0
 10
0.0
 20
0.0
 30
0.0
 70
   128
 71
   -35
 72
   -13
 73
    -1
  0
VERTEX
  5
E66
  8
0
 10
0.0
 20
0.0
 30
0.0
 70
   128
 71
    34
 72
   -35
 73
    -1
  0
VERTEX
  5
E67
  8
0
 10
0.0
 20
0.0
 30
0.0
 70
   128
 71
    35
 72
   -36
 73
   -13
  0
VERTEX
  5
E68
  8
0
 10
0.0
 20
0.0
 30
0.0
 70
   128
 71
    36
 72
   -37
 73
   -13
  0
VERTEX
  5
E69
  8
0
 10
0.0
 20
0.0
 30
0.0
 70
   128
 71
    37
 72
   -38
 73
   -13
  0
VERTEX
  5
E6A
  8
0
 10
0.0
 20
0.0
 30
0.0
 70
   128
 71
    11
 72
    12
 73
   -13
  0
VERTEX
  5
E6B
  8
0
 10
0.0
 20
0.0
 30
0.0
 70
   128
 71
    10
 72
   -11
 73
   -13
  0
VERTEX
  5
E6C
  8
0
 10
0.0
 20
0.0
 30
0.0
 70
   128
 71
   -39
 72
   -10
 73
   -13
  0
VERTEX
  5
E6D
  8
0
 10
0.0
 20
0.0
 30
0.0
 70
   128
 71
    38
 72
   -39
 73
   -13
  0
VERTEX
  5
E6E
  8
0
 10
0.0
 20
0.0
 30
0.0
 70
   128
 71
    39
 72
   -40
 73
   -10
  0
VERTEX
  5
E6F
  8
0
 10
0.0
 20
0.0
 30
0.0
 70
   128
 71
    40
 72
   -41
 73
   -10
  0
VERTEX
  5
E70
  8
0
 10
0.0
 20
0.0
 30
0.0
 70
   128
 71
    41
 72
   -42
 73
   -10
  0
VERTEX
  5
E71
  8
0
 10
0.0
 20
0.0
 30
0.0
 70
   128
 71
   -59
 72
   -10
 73
   -42
  0
VERTEX
  5
E72
  8
0
 10
0.0
 20
0.0
 30
0.0
 70
   128
 71
    42
 72
   -43
 73
   -59
  0
VERTEX
  5
E73
  8
0
 10
0.0
 20
0.0
 30
0.0
 70
   128
 71
    43
 72
   -44
 73
   -59
  0
VERTEX
  5
E74
  8
0
 10
0.0
 20
0.0
 30
0.0
 70
   128
 71
    51
 72
   -52
 73
   -59
  0
VERTEX
  5
E75
  8
0
 10
0.0
 20
0.0
 30
0.0
 70
   128
 71
   -44
 72
   -51
 73
   -59
  0
VERTEX
  5
E76
  8
0
 10
0.0
 20
0.0
 30
0.0
 70
   128
 71
    52
 72
   -53
 73
   -59
  0
VERTEX
  5
E77
  8
0
 10
0.0
 20
0.0
 30
0.0
 70
   128
 71
    53
 72
   -54
 73
   -59
  0
VERTEX
  5
E78
  8
0
 10
0.0
 20
0.0
 30
0.0
 70
   128
 71
    54
 72
   -55
 73
   -59
  0
VERTEX
  5
E79
  8
0
 10
0.0
 20
0.0
 30
0.0
 70
   128
 71
    55
 72
   -56
 73
   -59
  0
VERTEX
  5
E7A
  8
0
 10
0.0
 20
0.0
 30
0.0
 70
   128
 71
    56
 72
   -57
 73
   -59
  0
VERTEX
  5
E7B
  8
0
 10
0.0
 20
0.0
 30
0.0
 70
   128
 71
    57
 72
    58
 73
   -59
  0
VERTEX
  5
E7C
  8
0
 10
0.0
 20
0.0
 30
0.0
 70
   128
 71
    59
 72
   -60
 73
   -10
  0
VERTEX
  5
E7D
  8
0
 10
0.0
 20
0.0
 30
0.0
 70
   128
 71
    60
 72
   -61
 73
   -10
  0
VERTEX
  5
E7E
  8
0
 10
0.0
 20
0.0
 30
0.0
 70
   128
 71
   -61
 72
     9
 73
   -10
  0
VERTEX
  5
E7F
  8
0
 10
0.0
 20
0.0
 30
0.0
 70
   128
 71
    61
 72
   -62
 73
    -9
  0
VERTEX
  5
E80
  8
0
 10
0.0
 20
0.0
 30
0.0
 70
   128
 71
    62
 72
   -63
 73
    -9
  0
VERTEX
  5
E81
  8
0
 10
0.0
 20
0.0
 30
0.0
 70
   128
 71
    63
 72
   -64
 73
    -9
  0
VERTEX
  5
E82
  8
0
 10
0.0
 20
0.0
 30
0.0
 70
   128
 71
    64
 72
   -65
 73
    -9
  0
VERTEX
  5
E83
  8
0
 10
0.0
 20
0.0
 30
0.0
 70
   128
 71
     7
 72
     8
 73
    -9
  0
VERTEX
  5
E84
  8
0
 10
0.0
 20
0.0
 30
0.0
 70
   128
 71
     6
 72
    -7
 73
    -9
  0
VERTEX
  5
E85
  8
0
 10
0.0
 20
0.0
 30
0.0
 70
   128
 71
     5
 72
    -6
 73
    -9
  0
VERTEX
  5
E86
  8
0
 10
0.0
 20
0.0
 30
0.0
 70
   128
 71
   -66
 72
    -5
 73
    -9
  0
VERTEX
  5
E87
  8
0
 10
0.0
 20
0.0
 30
0.0
 70
   128
 71
    65
 72
   -66
 73
    -9
  0
VERTEX
  5
E88
  8
0
 10
0.0
 20
0.0
 30
0.0
 70
   128
 71
    66
 72
   -67
 73
    -5
  0
VERTEX
  5
E89
  8
0
 10
0.0
 20
0.0
 30
0.0
 70
   128
 71
    67
 72
   -68
 73
    -5
  0
VERTEX
  5
E8A
  8
0
 10
0.0
 20
0.0
 30
0.0
 70
   128
 71
    68
 72
   -69
 73
    -5
  0
VERTEX
  5
E8B
  8
0
 10
0.0
 20
0.0
 30
0.0
 70
   128
 71
     3
 72
     4
 73
    -5
  0
VERTEX
  5
E8C
  8
0
 10
0.0
 20
0.0
 30
0.0
 70
   128
 71
     2
 72
    -3
 73
    -5
  0
VERTEX
  5
E8D
  8
0
 10
0.0
 20
0.0
 30
0.0
 70
   128
 71
   -70
 72
    -2
 73
    -5
  0
VERTEX
  5
E8E
  8
0
 10
0.0
 20
0.0
 30
0.0
 70
   128
 71
    69
 72
   -70
 73
    -5
  0
VERTEX
  5
E8F
  8
0
 10
0.0
 20
0.0
 30
0.0
 70
   128
 71
    70
 72
   -71
 73
    -2
  0
VERTEX
  5
E90
  8
0
 10
0.0
 20
0.0
 30
0.0
 70
   128
 71
     1
 72
    -2
 73
   -71
  0
VERTEX
  5
E91
  8
0
 10
0.0
 20
0.0
 30
0.0
 70
   128
 71
    71
 72
   -72
 73
    -1
  0
SEQEND
  5
12C7
  8
0
  0
POLYLINE
  5
E92
  8
0
 66
     1
 10
0.0
 20
0.0
 30
0.0
 70
    64
 71
     4
 72
     2
  0
VERTEX
  5
E93
  8
0
 10
186.9999999999998
 20
-45.00000000000001
 30
92.01902650954128
 70
   192
  0
VERTEX
  5
E94
  8
0
 10
184.6005552741771
 20
-17.57422128626174
 30
89.61958178371857
 70
   192
  0
VERTEX
  5
E95
  8
0
 10
184.6005552741775
 20
-17.5742212862617
 30
-89.61958178371852
 70
   192
  0
VERTEX
  5
E96
  8
0
 10
186.9999999999999
 20
-45.00000000000001
 30
-92.01902650954115
 70
   192
  0
VERTEX
  5
E97
  8
0
 10
0.0
 20
0.0
 30
0.0
 70
   128
 71
     3
 72
     4
 73
    -1
  0
VERTEX
  5
E98
  8
0
 10
0.0
 20
0.0
 30
0.0
 70
   128
 71
     2
 72
    -3
 73
     1
  0
SEQEND
  5
12C8
  8
0
  0
POLYLINE
  5
E99
  8
0
 66
     1
 10
0.0
 20
0.0
 30
0.0
 70
    64
 71
    13
 72
    13
  0
VERTEX
  5
E9A
  8
0
 10
110.268861615478
 20
-15.4890554669992
 30
79.1702728848815
 70
   192
  0
VERTEX
  5
E9B
  8
0
 10
104.5339836999167
 20
-48.01316432724928
 30
45.27894964097518
 70
   192
  0
VERTEX
  5
E9C
  8
0
 10
102.4748608620958
 20
-59.69103024174301
 30
0.0362105194565652
 70
   192
  0
VERTEX
  5
E9D
  8
0
 10
104.5322425306132
 20
-48.02303898906563
 30
-45.2999851022056
 70
   192
  0
VERTEX
  5
E9E
  8
0
 10
110.2688616154778
 20
-15.4890554670008
 30
-79.1808423702882
 70
   192
  0
VERTEX
  5
E9F
  8
0
 10
109.259815495345
 20
-21.21164038326505
 30
0.0000000000000058
 70
   192
  0
VERTEX
  5
EA0
  8
0
 10
108.6240608241206
 20
-24.81718429191741
 30
-8.838834764831839
 70
   192
  0
VERTEX
  5
EA1
  8
0
 10
107.0892132745084
 20
-33.52173729591765
 30
-12.49999999999999
 70
   192
  0
VERTEX
  5
EA2
  8
0
 10
105.5543657248962
 20
-42.22629029991788
 30
-8.838834764831835
 70
   192
  0
VERTEX
  5
EA3
  8
0
 10
104.9186110536718
 20
-45.83183420857024
 30
0.0000000000000087
 70
   192
  0
VERTEX
  5
EA4
  8
0
 10
105.5543657248962
 20
-42.22629029991788
 30
8.83883476483185
 70
   192
  0
VERTEX
  5
EA5
  8
0
 10
107.0892132745084
 20
-33.52173729591765
 30
12.50000000000001
 70
   192
  0
VERTEX
  5
EA6
  8
0
 10
108.6240608241206
 20
-24.81718429191741
 30
8.838834764831853
 70
   192
  0
VERTEX
  5
EA7
  8
0
 10
0.0
 20
0.0
 30
0.0
 70
   128
 71
     5
 72
    -1
 73
    -6
  0
VERTEX
  5
EA8
  8
0
 10
0.0
 20
0.0
 30
0.0
 70
   128
 71
     6
 72
    -7
 73
    -5
  0
VERTEX
  5
EA9
  8
0
 10
0.0
 20
0.0
 30
0.0
 70
   128
 71
    -8
 72
     4
 73
    -5
  0
VERTEX
  5
EAA
  8
0
 10
0.0
 20
0.0
 30
0.0
 70
   128
 71
     7
 72
    -8
 73
    -5
  0
VERTEX
  5
EAB
  8
0
 10
0.0
 20
0.0
 30
0.0
 70
   128
 71
     8
 72
    -9
 73
    -4
  0
VERTEX
  5
EAC
  8
0
 10
0.0
 20
0.0
 30
0.0
 70
   128
 71
    -9
 72
     3
 73
    -4
  0
VERTEX
  5
EAD
  8
0
 10
0.0
 20
0.0
 30
0.0
 70
   128
 71
     9
 72
   -10
 73
    -3
  0
VERTEX
  5
EAE
  8
0
 10
0.0
 20
0.0
 30
0.0
 70
   128
 71
    10
 72
   -11
 73
    -3
  0
VERTEX
  5
EAF
  8
0
 10
0.0
 20
0.0
 30
0.0
 70
   128
 71
     2
 72
    -3
 73
   -11
  0
VERTEX
  5
EB0
  8
0
 10
0.0
 20
0.0
 30
0.0
 70
   128
 71
    11
 72
   -12
 73
    -2
  0
VERTEX
  5
EB1
  8
0
 10
0.0
 20
0.0
 30
0.0
 70
   128
 71
   -13
 72
     1
 73
    -2
  0
VERTEX
  5
EB2
  8
0
 10
0.0
 20
0.0
 30
0.0
 70
   128
 71
    12
 72
   -13
 73
    -2
  0
VERTEX
  5
EB3
  8
0
 10
0.0
 20
0.0
 30
0.0
 70
   128
 71
    13
 72
    -6
 73
    -1
  0
SEQEND
  5
12C9
  8
0
  0
POLYLINE
  5
EB4
  8
0
 66
     1
 10
0.0
 20
0.0
 30
0.0
 70
    64
 71
    20
 72
    18
  0
VERTEX
  5
EB5
  8
0
 10
86.72149537728124
 20
-71.3290999391454
 30
47.49888872346552
 70
   192
  0
VERTEX
  5
EB6
  8
0
 10
86.77420455947858
 20
-80.18653294721992
 30
0.0793144361985376
 70
   192
  0
VERTEX
  5
EB7
  8
0
 10
104.5339836999167
 20
-48.01316432724928
 30
45.27894964097518
 70
   192
  0
VERTEX
  5
EB8
  8
0
 10
104.5322425306132
 20
-48.02303898906563
 30
-45.2999851022056
 70
   192
  0
VERTEX
  5
EB9
  8
0
 10
102.4748608620958
 20
-59.69103024174301
 30
0.0362105194565652
 70
   192
  0
VERTEX
  5
EBA
  8
0
 10
86.73749856333264
 20
-71.36334483217827
 30
-47.44550689300815
 70
   192
  0
VERTEX
  5
EBB
  8
0
 10
110.268861615478
 20
-15.4890554669992
 30
79.1702728848815
 70
   192
  0
VERTEX
  5
EBC
  8
0
 10
110.2112086793036
 20
-15.35222196699804
 30
81.97359207888921
 70
   192
  0
VERTEX
  5
EBD
  8
0
 10
109.9825792107129
 20
-15.21809168931736
 30
84.78312829578655
 70
   192
  0
VERTEX
  5
EBE
  8
0
 10
109.5997050207594
 20
-15.0944103334666
 30
87.43261698186329
 70
   192
  0
VERTEX
  5
EBF
  8
0
 10
104.4009415674373
 20
-26.96451011952268
 30
87.29754461746376
 70
   192
  0
VERTEX
  5
EC0
  8
0
 10
96.4685622465773
 20
-37.13377110785122
 30
87.15503984487526
 70
   192
  0
VERTEX
  5
EC1
  8
0
 10
96.39896280150485
 20
-37.21347133893038
 30
-87.15547479063002
 70
   192
  0
VERTEX
  5
EC2
  8
0
 10
104.3292062044109
 20
-27.09835282191579
 30
-87.29726354069153
 70
   192
  0
VERTEX
  5
EC3
  8
0
 10
109.6009671060398
 20
-15.09493613264435
 30
-87.4332637086806
 70
   192
  0
VERTEX
  5
EC4
  8
0
 10
109.9828983056725
 20
-15.21843781516634
 30
-84.78909269390942
 70
   192
  0
VERTEX
  5
EC5
  8
0
 10
110.2111352834871
 20
-15.35223766765738
 30
-81.98443005404904
 70
   192
  0
VERTEX
  5
EC6
  8
0
 10
110.2688616154778
 20
-15.4890554670008
 30
-79.1808423702882
 70
   192
  0
VERTEX
  5
EC7
  8
0
 10
85.386581049768
 20
-43.58576294282459
 30
86.99387511980251
 70
   192
  0
VERTEX
  5
EC8
  8
0
 10
85.40633178203501
 20
-43.6000050435963
 30
-86.9949220069939
 70
   192
  0
VERTEX
  5
EC9
  8
0
 10
0.0
 20
0.0
 30
0.0
 70
   128
 71
     1
 72
     2
 73
     3
  0
VERTEX
  5
ECA
  8
0
 10
0.0
 20
0.0
 30
0.0
 70
   128
 71
     4
 72
     5
 73
     6
  0
VERTEX
  5
ECB
  8
0
 10
0.0
 20
0.0
 30
0.0
 70
   128
 71
     3
 72
     2
 73
     5
  0
VERTEX
  5
ECC
  8
0
 10
0.0
 20
0.0
 30
0.0
 70
   128
 71
     3
 72
     7
 73
     8
  0
VERTEX
  5
ECD
  8
0
 10
0.0
 20
0.0
 30
0.0
 70
   128
 71
     8
 72
     9
 73
     3
  0
VERTEX
  5
ECE
  8
0
 10
0.0
 20
0.0
 30
0.0
 70
   128
 71
     9
 72
    10
 73
     3
  0
VERTEX
  5
ECF
  8
0
 10
0.0
 20
0.0
 30
0.0
 70
   128
 71
    10
 72
    11
 73
     3
  0
VERTEX
  5
ED0
  8
0
 10
0.0
 20
0.0
 30
0.0
 70
   128
 71
    11
 72
    12
 73
     3
  0
VERTEX
  5
ED1
  8
0
 10
0.0
 20
0.0
 30
0.0
 70
   128
 71
    13
 72
    14
 73
     4
  0
VERTEX
  5
ED2
  8
0
 10
0.0
 20
0.0
 30
0.0
 70
   128
 71
    14
 72
    15
 73
     4
  0
VERTEX
  5
ED3
  8
0
 10
0.0
 20
0.0
 30
0.0
 70
   128
 71
    15
 72
    16
 73
     4
  0
VERTEX
  5
ED4
  8
0
 10
0.0
 20
0.0
 30
0.0
 70
   128
 71
    16
 72
    17
 73
     4
  0
VERTEX
  5
ED5
  8
0
 10
0.0
 20
0.0
 30
0.0
 70
   128
 71
    17
 72
    18
 73
     4
  0
VERTEX
  5
ED6
  8
0
 10
0.0
 20
0.0
 30
0.0
 70
   128
 71
     1
 72
     3
 73
    12
  0
VERTEX
  5
ED7
  8
0
 10
0.0
 20
0.0
 30
0.0
 70
   128
 71
    12
 72
    19
 73
     1
  0
VERTEX
  5
ED8
  8
0
 10
0.0
 20
0.0
 30
0.0
 70
   128
 71
     2
 72
     6
 73
     5
  0
VERTEX
  5
ED9
  8
0
 10
0.0
 20
0.0
 30
0.0
 70
   128
 71
     6
 72
    20
 73
    13
  0
VERTEX
  5
EDA
  8
0
 10
0.0
 20
0.0
 30
0.0
 70
   128
 71
    13
 72
     4
 73
     6
  0
SEQEND
  5
12CA
  8
0
  0
POLYLINE
  5
EDB
  8
0
 66
     1
 10
0.0
 20
0.0
 30
0.0
 70
    64
 71
    24
 72
    24
  0
VERTEX
  5
EDC
  8
0
 10
113.2232848745146
 20
-13.01
 30
-79.18084237028961
 70
   192
  0
VERTEX
  5
EDD
  8
0
 10
113.2232848745146
 20
-13.01
 30
79.1702728848815
 70
   192
  0
VERTEX
  5
EDE
  8
0
 10
113.1351948968521
 20
-13.01
 30
82.12098891578052
 70
   192
  0
VERTEX
  5
EDF
  8
0
 10
112.8653506448521
 20
-13.01
 30
85.05481358292403
 70
   192
  0
VERTEX
  5
EE0
  8
0
 10
112.4053906399962
 20
-13.01
 30
87.9709698109133
 70
   192
  0
VERTEX
  5
EE1
  8
0
 10
112.3532485827214
 20
-13.01
 30
88.52682671132101
 70
   192
  0
VERTEX
  5
EE2
  8
0
 10
112.4103242507447
 20
-13.01
 30
89.08372448954505
 70
   192
  0
VERTEX
  5
EE3
  8
0
 10
112.575752713743
 20
-13.01
 30
89.61958178371854
 70
   192
  0
VERTEX
  5
EE4
  8
0
 10
179.6195817837185
 20
-13.01
 30
89.6195817837186
 70
   192
  0
VERTEX
  5
EE5
  8
0
 10
179.6195817837184
 20
-13.01
 30
-89.61958178371847
 70
   192
  0
VERTEX
  5
EE6
  8
0
 10
112.5773277500044
 20
-13.01
 30
-89.61958178371852
 70
   192
  0
VERTEX
  5
EE7
  8
0
 10
112.4123076923569
 20
-13.01
 30
-89.0864181671971
 70
   192
  0
VERTEX
  5
EE8
  8
0
 10
112.3549683997031
 20
-13.01
 30
-88.52967525056593
 70
   192
  0
VERTEX
  5
EE9
  8
0
 10
112.406890594771
 20
-13.01
 30
-87.9712706733623
 70
   192
  0
VERTEX
  5
EEA
  8
0
 10
112.8659956099402
 20
-13.01
 30
-85.05849272146007
 70
   192
  0
VERTEX
  5
EEB
  8
0
 10
113.1353507177545
 20
-13.01
 30
-82.12809210845357
 70
   192
  0
VERTEX
  5
EEC
  8
0
 10
155.0
 20
-13.01
 30
17.5
 70
   192
  0
VERTEX
  5
EED
  8
0
 10
142.6256313292354
 20
-13.01
 30
12.37436867076458
 70
   192
  0
VERTEX
  5
EEE
  8
0
 10
137.5
 20
-13.01
 30
-0.0000000000000019
 70
   192
  0
VERTEX
  5
EEF
  8
0
 10
142.6256313292354
 20
-13.01
 30
-12.37436867076458
 70
   192
  0
VERTEX
  5
EF0
  8
0
 10
155.0
 20
-13.01
 30
-17.5
 70
   192
  0
VERTEX
  5
EF1
  8
0
 10
167.3743686707646
 20
-13.01
 30
-12.37436867076458
 70
   192
  0
VERTEX
  5
EF2
  8
0
 10
172.5
 20
-13.01
 30
0.0
 70
   192
  0
VERTEX
  5
EF3
  8
0
 10
167.3743686707646
 20
-13.01
 30
12.37436867076458
 70
   192
  0
VERTEX
  5
EF4
  8
0
 10
0.0
 20
0.0
 30
0.0
 70
   128
 71
    14
 72
    13
 73
   -12
  0
VERTEX
  5
EF5
  8
0
 10
0.0
 20
0.0
 30
0.0
 70
   128
 71
   -14
 72
    12
 73
   -11
  0
VERTEX
  5
EF6
  8
0
 10
0.0
 20
0.0
 30
0.0
 70
   128
 71
   -11
 72
    15
 73
   -14
  0
VERTEX
  5
EF7
  8
0
 10
0.0
 20
0.0
 30
0.0
 70
   128
 71
   -15
 72
    11
 73
   -10
  0
VERTEX
  5
EF8
  8
0
 10
0.0
 20
0.0
 30
0.0
 70
   128
 71
   -10
 72
    16
 73
   -15
  0
VERTEX
  5
EF9
  8
0
 10
0.0
 20
0.0
 30
0.0
 70
   128
 71
   -10
 72
     1
 73
   -16
  0
VERTEX
  5
EFA
  8
0
 10
0.0
 20
0.0
 30
0.0
 70
   128
 71
    18
 72
   -17
 73
    -9
  0
VERTEX
  5
EFB
  8
0
 10
0.0
 20
0.0
 30
0.0
 70
   128
 71
   -18
 72
    -9
 73
    -2
  0
VERTEX
  5
EFC
  8
0
 10
0.0
 20
0.0
 30
0.0
 70
   128
 71
    -2
 72
    19
 73
   -18
  0
VERTEX
  5
EFD
  8
0
 10
0.0
 20
0.0
 30
0.0
 70
   128
 71
   -19
 72
     2
 73
    -1
  0
VERTEX
  5
EFE
  8
0
 10
0.0
 20
0.0
 30
0.0
 70
   128
 71
    -1
 72
    20
 73
   -19
  0
VERTEX
  5
EFF
  8
0
 10
0.0
 20
0.0
 30
0.0
 70
   128
 71
    -1
 72
    21
 73
   -20
  0
VERTEX
  5
F00
  8
0
 10
0.0
 20
0.0
 30
0.0
 70
   128
 71
    -1
 72
   -10
 73
   -22
  0
VERTEX
  5
F01
  8
0
 10
0.0
 20
0.0
 30
0.0
 70
   128
 71
    -1
 72
    22
 73
   -21
  0
VERTEX
  5
F02
  8
0
 10
0.0
 20
0.0
 30
0.0
 70
   128
 71
   -10
 72
    23
 73
   -22
  0
VERTEX
  5
F03
  8
0
 10
0.0
 20
0.0
 30
0.0
 70
   128
 71
   -23
 72
    10
 73
    -9
  0
VERTEX
  5
F04
  8
0
 10
0.0
 20
0.0
 30
0.0
 70
   128
 71
    -9
 72
    24
 73
   -23
  0
VERTEX
  5
F05
  8
0
 10
0.0
 20
0.0
 30
0.0
 70
   128
 71
    -9
 72
    17
 73
   -24
  0
VERTEX
  5
F06
  8
0
 10
0.0
 20
0.0
 30
0.0
 70
   128
 71
    -9
 72
     3
 73
    -2
  0
VERTEX
  5
F07
  8
0
 10
0.0
 20
0.0
 30
0.0
 70
   128
 71
    -9
 72
     4
 73
    -3
  0
VERTEX
  5
F08
  8
0
 10
0.0
 20
0.0
 30
0.0
 70
   128
 71
     9
 72
    -8
 73
    -4
  0
VERTEX
  5
F09
  8
0
 10
0.0
 20
0.0
 30
0.0
 70
   128
 71
    -8
 72
     5
 73
    -4
  0
VERTEX
  5
F0A
  8
0
 10
0.0
 20
0.0
 30
0.0
 70
   128
 71
     8
 72
     7
 73
    -6
  0
VERTEX
  5
F0B
  8
0
 10
0.0
 20
0.0
 30
0.0
 70
   128
 71
    -8
 72
     6
 73
    -5
  0
SEQEND
  5
12CB
  8
0
  0
POLYLINE
  5
F0C
  8
0
 66
     1
 10
0.0
 20
0.0
 30
0.0
 70
    64
 71
    16
 72
    16
  0
VERTEX
  5
F0D
  8
0
 10
0.0
 20
-106.0000005744436
 30
-55.0
 70
   192
  0
VERTEX
  5
F0E
  8
0
 10
38.89087296526012
 20
-106.0000005744436
 30
-38.89087296526012
 70
   192
  0
VERTEX
  5
F0F
  8
0
 10
55.00000000000001
 20
-106.0000005744436
 30
0.0
 70
   192
  0
VERTEX
  5
F10
  8
0
 10
38.89087296526012
 20
-106.0000005744436
 30
38.89087296526012
 70
   192
  0
VERTEX
  5
F11
  8
0
 10
0.0
 20
-106.0000005744436
 30
55.00000000000001
 70
   192
  0
VERTEX
  5
F12
  8
0
 10
-38.89087296526011
 20
-106.0000005744436
 30
38.89087296526012
 70
   192
  0
VERTEX
  5
F13
  8
0
 10
-55.0
 20
-106.0000005744436
 30
0.0000000000000061
 70
   192
  0
VERTEX
  5
F14
  8
0
 10
-38.89087296526012
 20
-106.0000005744436
 30
-38.89087296526011
 70
   192
  0
VERTEX
  5
F15
  8
0
 10
0.0
 20
-106.0000005744436
 30
22.0
 70
   192
  0
VERTEX
  5
F16
  8
0
 10
15.55634918610405
 20
-106.0000005744436
 30
15.55634918610405
 70
   192
  0
VERTEX
  5
F17
  8
0
 10
22.0
 20
-106.0000005744436
 30
0.0
 70
   192
  0
VERTEX
  5
F18
  8
0
 10
15.55634918610405
 20
-106.0000005744436
 30
-15.55634918610405
 70
   192
  0
VERTEX
  5
F19
  8
0
 10
0.0
 20
-106.0000005744436
 30
-22.0
 70
   192
  0
VERTEX
  5
F1A
  8
0
 10
-15.55634918610405
 20
-106.0000005744436
 30
-15.55634918610404
 70
   192
  0
VERTEX
  5
F1B
  8
0
 10
-22.0
 20
-106.0000005744436
 30
0.0000000000000024
 70
   192
  0
VERTEX
  5
F1C
  8
0
 10
-15.55634918610404
 20
-106.0000005744436
 30
15.55634918610405
 70
   192
  0
VERTEX
  5
F1D
  8
0
 10
0.0
 20
0.0
 30
0.0
 70
   128
 71
    -5
 72
     9
 73
   -10
  0
VERTEX
  5
F1E
  8
0
 10
0.0
 20
0.0
 30
0.0
 70
   128
 71
     4
 72
    -5
 73
   -10
  0
VERTEX
  5
F1F
  8
0
 10
0.0
 20
0.0
 30
0.0
 70
   128
 71
   -11
 72
     3
 73
    -4
  0
VERTEX
  5
F20
  8
0
 10
0.0
 20
0.0
 30
0.0
 70
   128
 71
    10
 72
   -11
 73
    -4
  0
VERTEX
  5
F21
  8
0
 10
0.0
 20
0.0
 30
0.0
 70
   128
 71
   -12
 72
     2
 73
    -3
  0
VERTEX
  5
F22
  8
0
 10
0.0
 20
0.0
 30
0.0
 70
   128
 71
    11
 72
   -12
 73
    -3
  0
VERTEX
  5
F23
  8
0
 10
0.0
 20
0.0
 30
0.0
 70
   128
 71
   -13
 72
     1
 73
    -2
  0
VERTEX
  5
F24
  8
0
 10
0.0
 20
0.0
 30
0.0
 70
   128
 71
    12
 72
   -13
 73
    -2
  0
VERTEX
  5
F25
  8
0
 10
0.0
 20
0.0
 30
0.0
 70
   128
 71
   -14
 72
     8
 73
    -1
  0
VERTEX
  5
F26
  8
0
 10
0.0
 20
0.0
 30
0.0
 70
   128
 71
    13
 72
   -14
 73
    -1
  0
VERTEX
  5
F27
  8
0
 10
0.0
 20
0.0
 30
0.0
 70
   128
 71
   -15
 72
     7
 73
    -8
  0
VERTEX
  5
F28
  8
0
 10
0.0
 20
0.0
 30
0.0
 70
   128
 71
    14
 72
   -15
 73
    -8
  0
VERTEX
  5
F29
  8
0
 10
0.0
 20
0.0
 30
0.0
 70
   128
 71
   -16
 72
     6
 73
    -7
  0
VERTEX
  5
F2A
  8
0
 10
0.0
 20
0.0
 30
0.0
 70
   128
 71
    15
 72
   -16
 73
    -7
  0
VERTEX
  5
F2B
  8
0
 10
0.0
 20
0.0
 30
0.0
 70
   128
 71
    -9
 72
     5
 73
    -6
  0
VERTEX
  5
F2C
  8
0
 10
0.0
 20
0.0
 30
0.0
 70
   128
 71
    16
 72
    -9
 73
    -6
  0
SEQEND
  5
12CC
  8
0
  0
POLYLINE
  5
F2D
  8
0
 66
     1
 10
0.0
 20
0.0
 30
0.0
 70
    64
 71
    17
 72
    15
  0
VERTEX
  5
F2E
  8
0
 10
17.73992400332722
 20
-88.66146810828171
 30
57.20967296035086
 70
   192
  0
VERTEX
  5
F2F
  8
0
 10
17.27111692654089
 20
-90.69793112672544
 30
56.52025707119681
 70
   192
  0
VERTEX
  5
F30
  8
0
 10
48.62968103416114
 20
-95.86548720564507
 30
31.08435402399297
 70
   192
  0
VERTEX
  5
F31
  8
0
 10
56.34597557843333
 20
-89.50376579763429
 30
29.25982005010557
 70
   192
  0
VERTEX
  5
F32
  8
0
 10
18.99127253946925
 20
-85.3481218696662
 30
59.7768529289676
 70
   192
  0
VERTEX
  5
F33
  8
0
 10
18.32271596718547
 20
-86.84894264850668
 30
58.31301377509556
 70
   192
  0
VERTEX
  5
F34
  8
0
 10
-18.26024817952858
 20
-86.87213284405789
 30
-58.3291410404513
 70
   192
  0
VERTEX
  5
F35
  8
0
 10
-18.92916943499464
 20
-85.37048366356711
 30
-59.79684267425499
 70
   192
  0
VERTEX
  5
F36
  8
0
 10
29.32282454475553
 20
-86.51958171021933
 30
-55.56512638391072
 70
   192
  0
VERTEX
  5
F37
  8
0
 10
-17.67677854710223
 20
-88.68663804995751
 30
-57.22293670175418
 70
   192
  0
VERTEX
  5
F38
  8
0
 10
-11.43271902872489
 20
-90.05220035139888
 30
-58.16016905000689
 70
   192
  0
VERTEX
  5
F39
  8
0
 10
-17.20709705544805
 20
-90.72587685623289
 30
-56.531953069147
 70
   192
  0
VERTEX
  5
F3A
  8
0
 10
-5.793922504522541
 20
-89.63312960030225
 30
-59.1020879355879
 70
   192
  0
VERTEX
  5
F3B
  8
0
 10
-0.0000000000000367
 20
-89.48385834534669
 30
-59.4254869723641
 70
   192
  0
VERTEX
  5
F3C
  8
0
 10
37.51764298680664
 20
-94.15812277716071
 30
-44.45814780142602
 70
   192
  0
VERTEX
  5
F3D
  8
0
 10
60.69337941694048
 20
-89.82771805131026
 30
-18.93073041128601
 70
   192
  0
VERTEX
  5
F3E
  8
0
 10
56.81763592105919
 20
-96.72557661858161
 30
-8.73441630433806
 70
   192
  0
VERTEX
  5
F3F
  8
0
 10
0.0
 20
0.0
 30
0.0
 70
   128
 71
     1
 72
     2
 73
     3
  0
VERTEX
  5
F40
  8
0
 10
0.0
 20
0.0
 30
0.0
 70
   128
 71
     4
 72
     5
 73
     6
  0
VERTEX
  5
F41
  8
0
 10
0.0
 20
0.0
 30
0.0
 70
   128
 71
     7
 72
     8
 73
     9
  0
VERTEX
  5
F42
  8
0
 10
0.0
 20
0.0
 30
0.0
 70
   128
 71
    10
 72
     7
 73
    11
  0
VERTEX
  5
F43
  8
0
 10
0.0
 20
0.0
 30
0.0
 70
   128
 71
    11
 72
    12
 73
    10
  0
VERTEX
  5
F44
  8
0
 10
0.0
 20
0.0
 30
0.0
 70
   128
 71
     7
 72
    13
 73
    11
  0
VERTEX
  5
F45
  8
0
 10
0.0
 20
0.0
 30
0.0
 70
   128
 71
     7
 72
    14
 73
    13
  0
VERTEX
  5
F46
  8
0
 10
0.0
 20
0.0
 30
0.0
 70
   128
 71
    15
 72
     9
 73
    16
  0
VERTEX
  5
F47
  8
0
 10
0.0
 20
0.0
 30
0.0
 70
   128
 71
    15
 72
    16
 73
    17
  0
VERTEX
  5
F48
  8
0
 10
0.0
 20
0.0
 30
0.0
 70
   128
 71
     3
 72
    17
 73
    16
  0
VERTEX
  5
F49
  8
0
 10
0.0
 20
0.0
 30
0.0
 70
   128
 71
     3
 72
    16
 73
     4
  0
VERTEX
  5
F4A
  8
0
 10
0.0
 20
0.0
 30
0.0
 70
   128
 71
     3
 72
     4
 73
     6
  0
VERTEX
  5
F4B
  8
0
 10
0.0
 20
0.0
 30
0.0
 70
   128
 71
     3
 72
     6
 73
     1
  0
VERTEX
  5
F4C
  8
0
 10
0.0
 20
0.0
 30
0.0
 70
   128
 71
    15
 72
    14
 73
     7
  0
VERTEX
  5
F4D
  8
0
 10
0.0
 20
0.0
 30
0.0
 70
   128
 71
    15
 72
     7
 73
     9
  0
SEQEND
  5
12CD
  8
0
  0
POLYLINE
  5
F4E
  8
0
 66
     1
 10
0.0
 20
0.0
 30
0.0
 70
    64
 71
    17
 72
    15
  0
VERTEX
  5
F4F
  8
0
 10
-17.48789550294682
 20
-84.96701068665412
 30
-32.03282549812064
 70
   192
  0
VERTEX
  5
F50
  8
0
 10
32.46425022956566
 20
-84.83115180307311
 30
-17.6281511083138
 70
   192
  0
VERTEX
  5
F51
  8
0
 10
10.45785052730276
 20
-84.82387716149653
 30
-35.30673303470553
 70
   192
  0
VERTEX
  5
F52
  8
0
 10
-17.66396646429054
 20
-84.82487585550025
 30
-32.35142703154092
 70
   192
  0
VERTEX
  5
F53
  8
0
 10
-17.32210981644704
 20
-85.15525569469186
 30
-31.73317711442058
 70
   192
  0
VERTEX
  5
F54
  8
0
 10
-17.16942242372908
 20
-85.38641677532284
 30
-31.45756625530959
 70
   192
  0
VERTEX
  5
F55
  8
0
 10
-11.72009618369226
 20
-85.36853802946678
 30
-33.89143710185131
 70
   192
  0
VERTEX
  5
F56
  8
0
 10
-5.69871493832372
 20
-85.35287908845754
 30
-35.42393208883615
 70
   192
  0
VERTEX
  5
F57
  8
0
 10
0.0000100768430033
 20
-85.3473677779642
 30
-35.8860570083023
 70
   192
  0
VERTEX
  5
F58
  8
0
 10
21.94810422315376
 20
-85.40289080586788
 30
-28.30585942180872
 70
   192
  0
VERTEX
  5
F59
  8
0
 10
32.632572763429
 20
-85.43519082013442
 30
14.67680176005942
 70
   192
  0
VERTEX
  5
F5A
  8
0
 10
35.45277677058335
 20
-84.83271800204054
 30
10.42541271532593
 70
   192
  0
VERTEX
  5
F5B
  8
0
 10
34.65568722402213
 20
-85.44081571087813
 30
-8.869859332387744
 70
   192
  0
VERTEX
  5
F5C
  8
0
 10
17.16872352576125
 20
-85.3852688833084
 30
31.459543183053
 70
   192
  0
VERTEX
  5
F5D
  8
0
 10
17.32092019369388
 20
-85.15471063303146
 30
31.73434723803062
 70
   192
  0
VERTEX
  5
F5E
  8
0
 10
17.4861473525083
 20
-84.96681327927661
 30
32.03306578712782
 70
   192
  0
VERTEX
  5
F5F
  8
0
 10
17.66161746947424
 20
-84.82474682162075
 30
32.35065917621799
 70
   192
  0
VERTEX
  5
F60
  8
0
 10
0.0
 20
0.0
 30
0.0
 70
   128
 71
     1
 72
     2
 73
     3
  0
VERTEX
  5
F61
  8
0
 10
0.0
 20
0.0
 30
0.0
 70
   128
 71
     3
 72
     4
 73
     1
  0
VERTEX
  5
F62
  8
0
 10
0.0
 20
0.0
 30
0.0
 70
   128
 71
     1
 72
     5
 73
     2
  0
VERTEX
  5
F63
  8
0
 10
0.0
 20
0.0
 30
0.0
 70
   128
 71
     5
 72
     6
 73
     7
  0
VERTEX
  5
F64
  8
0
 10
0.0
 20
0.0
 30
0.0
 70
   128
 71
     7
 72
     8
 73
     5
  0
VERTEX
  5
F65
  8
0
 10
0.0
 20
0.0
 30
0.0
 70
   128
 71
     8
 72
     9
 73
     5
  0
VERTEX
  5
F66
  8
0
 10
0.0
 20
0.0
 30
0.0
 70
   128
 71
     9
 72
    10
 73
     5
  0
VERTEX
  5
F67
  8
0
 10
0.0
 20
0.0
 30
0.0
 70
   128
 71
    11
 72
    12
 73
     2
  0
VERTEX
  5
F68
  8
0
 10
0.0
 20
0.0
 30
0.0
 70
   128
 71
    13
 72
    11
 73
     2
  0
VERTEX
  5
F69
  8
0
 10
0.0
 20
0.0
 30
0.0
 70
   128
 71
    11
 72
    14
 73
    15
  0
VERTEX
  5
F6A
  8
0
 10
0.0
 20
0.0
 30
0.0
 70
   128
 71
    15
 72
    16
 73
    11
  0
VERTEX
  5
F6B
  8
0
 10
0.0
 20
0.0
 30
0.0
 70
   128
 71
    16
 72
    12
 73
    11
  0
VERTEX
  5
F6C
  8
0
 10
0.0
 20
0.0
 30
0.0
 70
   128
 71
    16
 72
    17
 73
    12
  0
VERTEX
  5
F6D
  8
0
 10
0.0
 20
0.0
 30
0.0
 70
   128
 71
     2
 72
     5
 73
    10
  0
VERTEX
  5
F6E
  8
0
 10
0.0
 20
0.0
 30
0.0
 70
   128
 71
    13
 72
     2
 73
    10
  0
SEQEND
  5
12CE
  8
0
  0
POLYLINE
  5
F6F
  8
0
 66
     1
 10
0.0
 20
0.0
 30
0.0
 70
    64
 71
     8
 72
     6
  0
VERTEX
  5
F70
  8
0
 10
184.458411226548
 20
-45.00000000000004
 30
-96.36460280663692
 70
   192
  0
VERTEX
  5
F71
  8
0
 10
186.364602806637
 20
-45.00000000000003
 30
-94.45841122654781
 70
   192
  0
VERTEX
  5
F72
  8
0
 10
183.9206880432192
 20
-17.41676263332793
 30
-92.09920965323191
 70
   192
  0
VERTEX
  5
F73
  8
0
 10
182.0992096532319
 20
-17.41676263332793
 30
-93.92068804321926
 70
   192
  0
VERTEX
  5
F74
  8
0
 10
186.9999999999999
 20
-45.00000000000001
 30
-92.01902650954115
 70
   192
  0
VERTEX
  5
F75
  8
0
 10
184.6005552741773
 20
-17.57422128626173
 30
-89.61958178371844
 70
   192
  0
VERTEX
  5
F76
  8
0
 10
182.0190265095412
 20
-45.00000000000001
 30
-96.99999999999997
 70
   192
  0
VERTEX
  5
F77
  8
0
 10
179.6195817837185
 20
-17.57422128626171
 30
-94.60055527417724
 70
   192
  0
VERTEX
  5
F78
  8
0
 10
0.0
 20
0.0
 30
0.0
 70
   128
 71
     1
 72
     2
 73
    -3
  0
VERTEX
  5
F79
  8
0
 10
0.0
 20
0.0
 30
0.0
 70
   128
 71
     4
 72
    -1
 73
     3
  0
VERTEX
  5
F7A
  8
0
 10
0.0
 20
0.0
 30
0.0
 70
   128
 71
     2
 72
     5
 73
     6
  0
VERTEX
  5
F7B
  8
0
 10
0.0
 20
0.0
 30
0.0
 70
   128
 71
     3
 72
     2
 73
     6
  0
VERTEX
  5
F7C
  8
0
 10
0.0
 20
0.0
 30
0.0
 70
   128
 71
     7
 72
     1
 73
     4
  0
VERTEX
  5
F7D
  8
0
 10
0.0
 20
0.0
 30
0.0
 70
   128
 71
     8
 72
     7
 73
     4
  0
SEQEND
  5
12CF
  8
0
  0
POLYLINE
  5
F7E
  8
0
 66
     1
 10
0.0
 20
0.0
 30
0.0
 70
    64
 71
     8
 72
     6
  0
VERTEX
  5
F7F
  8
0
 10
186.364602806637
 20
-45.00000000000002
 30
94.45841122654788
 70
   192
  0
VERTEX
  5
F80
  8
0
 10
184.458411226548
 20
-45.00000000000002
 30
96.364602806637
 70
   192
  0
VERTEX
  5
F81
  8
0
 10
182.0992096532319
 20
-17.41676263332793
 30
93.92068804321934
 70
   192
  0
VERTEX
  5
F82
  8
0
 10
183.9206880432192
 20
-17.41676263332793
 30
92.099209653232
 70
   192
  0
VERTEX
  5
F83
  8
0
 10
182.0190265095414
 20
-45.00000000000001
 30
96.99999999999997
 70
   192
  0
VERTEX
  5
F84
  8
0
 10
179.6195817837188
 20
-17.57422128626169
 30
94.60055527417727
 70
   192
  0
VERTEX
  5
F85
  8
0
 10
186.9999999999998
 20
-45.00000000000001
 30
92.01902650954128
 70
   192
  0
VERTEX
  5
F86
  8
0
 10
184.6005552741772
 20
-17.57422128626171
 30
89.6195817837186
 70
   192
  0
VERTEX
  5
F87
  8
0
 10
0.0
 20
0.0
 30
0.0
 70
   128
 71
     1
 72
     2
 73
    -3
  0
VERTEX
  5
F88
  8
0
 10
0.0
 20
0.0
 30
0.0
 70
   128
 71
     4
 72
    -1
 73
     3
  0
VERTEX
  5
F89
  8
0
 10
0.0
 20
0.0
 30
0.0
 70
   128
 71
     2
 72
     5
 73
     6
  0
VERTEX
  5
F8A
  8
0
 10
0.0
 20
0.0
 30
0.0
 70
   128
 71
     3
 72
     2
 73
     6
  0
VERTEX
  5
F8B
  8
0
 10
0.0
 20
0.0
 30
0.0
 70
   128
 71
     7
 72
     1
 73
     4
  0
VERTEX
  5
F8C
  8
0
 10
0.0
 20
0.0
 30
0.0
 70
   128
 71
     8
 72
     7
 73
     4
  0
SEQEND
  5
12D0
  8
0
  0
POLYLINE
  5
F8D
  8
0
 66
     1
 10
0.0
 20
0.0
 30
0.0
 70
    64
 71
     8
 72
     6
  0
VERTEX
  5
F8E
  8
0
 10
179.6195817837185
 20
-13.60899304409944
 30
91.9925836324568
 70
   192
  0
VERTEX
  5
F8F
  8
0
 10
113.1294257998616
 20
-13.62464303873587
 30
92.02138067051447
 70
   192
  0
VERTEX
  5
F90
  8
0
 10
179.6195817837184
 20
-13.01
 30
89.61958178371853
 70
   192
  0
VERTEX
  5
F91
  8
0
 10
112.575752713743
 20
-13.01
 30
89.6195817837186
 70
   192
  0
VERTEX
  5
F92
  8
0
 10
113.8986661792208
 20
-15.26663065008944
 30
93.79975909217895
 70
   192
  0
VERTEX
  5
F93
  8
0
 10
179.6195817837185
 20
-15.26245510964596
 30
93.79702084078329
 70
   192
  0
VERTEX
  5
F94
  8
0
 10
114.8074804271288
 20
-17.5742212862617
 30
94.60055527417735
 70
   192
  0
VERTEX
  5
F95
  8
0
 10
179.6195817837185
 20
-17.5742212862617
 30
94.60055527417734
 70
   192
  0
VERTEX
  5
F96
  8
0
 10
0.0
 20
0.0
 30
0.0
 70
   128
 71
     1
 72
     2
 73
     3
  0
VERTEX
  5
F97
  8
0
 10
0.0
 20
0.0
 30
0.0
 70
   128
 71
     2
 72
     4
 73
     3
  0
VERTEX
  5
F98
  8
0
 10
0.0
 20
0.0
 30
0.0
 70
   128
 71
     5
 72
     2
 73
     1
  0
VERTEX
  5
F99
  8
0
 10
0.0
 20
0.0
 30
0.0
 70
   128
 71
     6
 72
     5
 73
     1
  0
VERTEX
  5
F9A
  8
0
 10
0.0
 20
0.0
 30
0.0
 70
   128
 71
     7
 72
     5
 73
     6
  0
VERTEX
  5
F9B
  8
0
 10
0.0
 20
0.0
 30
0.0
 70
   128
 71
     8
 72
     7
 73
     6
  0
SEQEND
  5
12D1
  8
0
  0
POLYLINE
  5
F9C
  8
0
 66
     1
 10
0.0
 20
0.0
 30
0.0
 70
    64
 71
     9
 72
     7
  0
VERTEX
  5
F9D
  8
0
 10
183.7970208407832
 20
-15.26245510964597
 30
89.6195817837186
 70
   192
  0
VERTEX
  5
F9E
  8
0
 10
184.6005552741772
 20
-17.57422128626171
 30
89.6195817837186
 70
   192
  0
VERTEX
  5
F9F
  8
0
 10
183.9206880432192
 20
-17.41676263332793
 30
92.099209653232
 70
   192
  0
VERTEX
  5
FA0
  8
0
 10
179.6195817837185
 20
-13.60899304409944
 30
91.9925836324568
 70
   192
  0
VERTEX
  5
FA1
  8
0
 10
179.6195817837185
 20
-13.01
 30
89.6195817837186
 70
   192
  0
VERTEX
  5
FA2
  8
0
 10
181.9925836324567
 20
-13.60899304409944
 30
89.6195817837186
 70
   192
  0
VERTEX
  5
FA3
  8
0
 10
182.0992096532319
 20
-17.41676263332793
 30
93.92068804321934
 70
   192
  0
VERTEX
  5
FA4
  8
0
 10
179.6195817837185
 20
-17.57422128626171
 30
94.60055527417732
 70
   192
  0
VERTEX
  5
FA5
  8
0
 10
179.6195817837185
 20
-15.26245510964596
 30
93.79702084078329
 70
   192
  0
VERTEX
  5
FA6
  8
0
 10
0.0
 20
0.0
 30
0.0
 70
   128
 71
     1
 72
     2
 73
     3
  0
VERTEX
  5
FA7
  8
0
 10
0.0
 20
0.0
 30
0.0
 70
   128
 71
     4
 72
     5
 73
     6
  0
VERTEX
  5
FA8
  8
0
 10
0.0
 20
0.0
 30
0.0
 70
   128
 71
     1
 72
     3
 73
     7
  0
VERTEX
  5
FA9
  8
0
 10
0.0
 20
0.0
 30
0.0
 70
   128
 71
     6
 72
     1
 73
     7
  0
VERTEX
  5
FAA
  8
0
 10
0.0
 20
0.0
 30
0.0
 70
   128
 71
     7
 72
     8
 73
     9
  0
VERTEX
  5
FAB
  8
0
 10
0.0
 20
0.0
 30
0.0
 70
   128
 71
     6
 72
     7
 73
     9
  0
VERTEX
  5
FAC
  8
0
 10
0.0
 20
0.0
 30
0.0
 70
   128
 71
     9
 72
     4
 73
     6
  0
SEQEND
  5
12D2
  8
0
  0
POLYLINE
  5
FAD
  8
0
 66
     1
 10
0.0
 20
0.0
 30
0.0
 70
    64
 71
     8
 72
     6
  0
VERTEX
  5
FAE
  8
0
 10
183.7970208407832
 20
-15.26245510964597
 30
89.6195817837186
 70
   192
  0
VERTEX
  5
FAF
  8
0
 10
181.9925836324567
 20
-13.60899304409944
 30
89.6195817837186
 70
   192
  0
VERTEX
  5
FB0
  8
0
 10
181.9925836324567
 20
-13.60899304409944
 30
-89.61958178371852
 70
   192
  0
VERTEX
  5
FB1
  8
0
 10
183.7970208407832
 20
-15.26245510964597
 30
-89.61958178371852
 70
   192
  0
VERTEX
  5
FB2
  8
0
 10
179.6195817837185
 20
-13.01
 30
89.6195817837186
 70
   192
  0
VERTEX
  5
FB3
  8
0
 10
179.6195817837185
 20
-13.01
 30
-89.61958178371852
 70
   192
  0
VERTEX
  5
FB4
  8
0
 10
184.6005552741775
 20
-17.5742212862617
 30
89.61958178371859
 70
   192
  0
VERTEX
  5
FB5
  8
0
 10
184.6005552741772
 20
-17.57422128626172
 30
-89.61958178371852
 70
   192
  0
VERTEX
  5
FB6
  8
0
 10
0.0
 20
0.0
 30
0.0
 70
   128
 71
     1
 72
     2
 73
    -3
  0
VERTEX
  5
FB7
  8
0
 10
0.0
 20
0.0
 30
0.0
 70
   128
 71
     4
 72
    -1
 73
     3
  0
VERTEX
  5
FB8
  8
0
 10
0.0
 20
0.0
 30
0.0
 70
   128
 71
     2
 72
     5
 73
    -6
  0
VERTEX
  5
FB9
  8
0
 10
0.0
 20
0.0
 30
0.0
 70
   128
 71
     3
 72
    -2
 73
     6
  0
VERTEX
  5
FBA
  8
0
 10
0.0
 20
0.0
 30
0.0
 70
   128
 71
     7
 72
     1
 73
    -4
  0
VERTEX
  5
FBB
  8
0
 10
0.0
 20
0.0
 30
0.0
 70
   128
 71
     8
 72
    -7
 73
     4
  0
SEQEND
  5
12D3
  8
0
  0
POLYLINE
  5
FBC
  8
0
 66
     1
 10
0.0
 20
0.0
 30
0.0
 70
    64
 71
     9
 72
     7
  0
VERTEX
  5
FBD
  8
0
 10
181.9925836324567
 20
-13.60899304409944
 30
-89.61958178371852
 70
   192
  0
VERTEX
  5
FBE
  8
0
 10
179.6195817837185
 20
-13.01
 30
-89.61958178371852
 70
   192
  0
VERTEX
  5
FBF
  8
0
 10
179.6195817837185
 20
-13.60899304409944
 30
-91.99258363245671
 70
   192
  0
VERTEX
  5
FC0
  8
0
 10
179.6195817837185
 20
-15.26245510964596
 30
-93.7970208407832
 70
   192
  0
VERTEX
  5
FC1
  8
0
 10
183.9206880432192
 20
-17.41676263332793
 30
-92.09920965323191
 70
   192
  0
VERTEX
  5
FC2
  8
0
 10
184.6005552741772
 20
-17.57422128626171
 30
-89.61958178371852
 70
   192
  0
VERTEX
  5
FC3
  8
0
 10
183.7970208407832
 20
-15.26245510964597
 30
-89.61958178371852
 70
   192
  0
VERTEX
  5
FC4
  8
0
 10
182.0992096532319
 20
-17.41676263332793
 30
-93.92068804321926
 70
   192
  0
VERTEX
  5
FC5
  8
0
 10
179.6195817837185
 20
-17.57422128626171
 30
-94.60055527417724
 70
   192
  0
VERTEX
  5
FC6
  8
0
 10
0.0
 20
0.0
 30
0.0
 70
   128
 71
     1
 72
     2
 73
     3
  0
VERTEX
  5
FC7
  8
0
 10
0.0
 20
0.0
 30
0.0
 70
   128
 71
     3
 72
     4
 73
     1
  0
VERTEX
  5
FC8
  8
0
 10
0.0
 20
0.0
 30
0.0
 70
   128
 71
     5
 72
     6
 73
     7
  0
VERTEX
  5
FC9
  8
0
 10
0.0
 20
0.0
 30
0.0
 70
   128
 71
     8
 72
     5
 73
     7
  0
VERTEX
  5
FCA
  8
0
 10
0.0
 20
0.0
 30
0.0
 70
   128
 71
     8
 72
     7
 73
     1
  0
VERTEX
  5
FCB
  8
0
 10
0.0
 20
0.0
 30
0.0
 70
   128
 71
     9
 72
     8
 73
     1
  0
VERTEX
  5
FCC
  8
0
 10
0.0
 20
0.0
 30
0.0
 70
   128
 71
     4
 72
     9
 73
     1
  0
SEQEND
  5
12D4
  8
0
  0
POLYLINE
  5
FCD
  8
0
 66
     1
 10
0.0
 20
0.0
 30
0.0
 70
    64
 71
     8
 72
     6
  0
VERTEX
  5
FCE
  8
0
 10
113.9003971036741
 20
-15.26667982122282
 30
-93.79979631144064
 70
   192
  0
VERTEX
  5
FCF
  8
0
 10
179.6195817837185
 20
-15.26245510964596
 30
-93.7970208407832
 70
   192
  0
VERTEX
  5
FD0
  8
0
 10
179.6195817837185
 20
-13.60899304409944
 30
-91.99258363245671
 70
   192
  0
VERTEX
  5
FD1
  8
0
 10
113.1310394600589
 20
-13.62467750002673
 30
-92.02142562400708
 70
   192
  0
VERTEX
  5
FD2
  8
0
 10
179.6195817837184
 20
-13.01
 30
-89.61958178371847
 70
   192
  0
VERTEX
  5
FD3
  8
0
 10
112.5773277500044
 20
-13.01
 30
-89.61958178371846
 70
   192
  0
VERTEX
  5
FD4
  8
0
 10
179.6195817837185
 20
-17.5742212862617
 30
-94.60055527417728
 70
   192
  0
VERTEX
  5
FD5
  8
0
 10
114.8093050750674
 20
-17.5742212862617
 30
-94.60055527417721
 70
   192
  0
VERTEX
  5
FD6
  8
0
 10
0.0
 20
0.0
 30
0.0
 70
   128
 71
     1
 72
     2
 73
     3
  0
VERTEX
  5
FD7
  8
0
 10
0.0
 20
0.0
 30
0.0
 70
   128
 71
     4
 72
     3
 73
     5
  0
VERTEX
  5
FD8
  8
0
 10
0.0
 20
0.0
 30
0.0
 70
   128
 71
     4
 72
     5
 73
     6
  0
VERTEX
  5
FD9
  8
0
 10
0.0
 20
0.0
 30
0.0
 70
   128
 71
     1
 72
     3
 73
     4
  0
VERTEX
  5
FDA
  8
0
 10
0.0
 20
0.0
 30
0.0
 70
   128
 71
     7
 72
     2
 73
     1
  0
VERTEX
  5
FDB
  8
0
 10
0.0
 20
0.0
 30
0.0
 70
   128
 71
     8
 72
     7
 73
     1
  0
SEQEND
  5
12D5
  8
0
  0
POLYLINE
  5
FDC
  8
0
 66
     1
 10
0.0
 20
0.0
 30
0.0
 70
    64
 71
    12
 72
    10
  0
VERTEX
  5
FDD
  8
0
 10
86.24559502663269
 20
-0.624207119781104
 30
105.5520386502174
 70
   192
  0
VERTEX
  5
FDE
  8
0
 10
-3.109162766293156
 20
-0.834611485529662
 30
105.569912986109
 70
   192
  0
VERTEX
  5
FDF
  8
0
 10
-54.86806620519611
 20
-0.7377185212693222
 30
105.5655634424731
 70
   192
  0
VERTEX
  5
FE0
  8
0
 10
-115.8932956129371
 20
-0.4529168867317381
 30
105.5674669644115
 70
   192
  0
VERTEX
  5
FE1
  8
0
 10
-159.7570277150552
 20
-0.17358207904039
 30
105.6408030763803
 70
   192
  0
VERTEX
  5
FE2
  8
0
 10
-186.4592625107384
 20
-0.0274410519837278
 30
105.7849575035522
 70
   192
  0
VERTEX
  5
FE3
  8
0
 10
-195.9999999999865
 20
0.0000101391119475
 30
105.9999999994794
 70
   192
  0
VERTEX
  5
FE4
  8
0
 10
-101.9047270642695
 20
-0.0000000000000017
 30
106.7087168134285
 70
   192
  0
VERTEX
  5
FE5
  8
0
 10
-7.827486280556412
 20
-0.0000000000000051
 30
106.9136516733009
 70
   192
  0
VERTEX
  5
FE6
  8
0
 10
86.24987498850639
 20
0.0
 30
106.76981059639
 70
   192
  0
VERTEX
  5
FE7
  8
0
 10
86.24823781073319
 20
-0.0741650598934174
 30
106.3039865488996
 70
   192
  0
VERTEX
  5
FE8
  8
0
 10
86.24676252814345
 20
-0.2893262980951301
 30
105.8842263259183
 70
   192
  0
VERTEX
  5
FE9
  8
0
 10
0.0
 20
0.0
 30
0.0
 70
   128
 71
    11
 72
     7
 73
     8
  0
VERTEX
  5
FEA
  8
0
 10
0.0
 20
0.0
 30
0.0
 70
   128
 71
     8
 72
     9
 73
    11
  0
VERTEX
  5
FEB
  8
0
 10
0.0
 20
0.0
 30
0.0
 70
   128
 71
     9
 72
    10
 73
    11
  0
VERTEX
  5
FEC
  8
0
 10
0.0
 20
0.0
 30
0.0
 70
   128
 71
    12
 72
     6
 73
     7
  0
VERTEX
  5
FED
  8
0
 10
0.0
 20
0.0
 30
0.0
 70
   128
 71
    11
 72
    12
 73
     7
  0
VERTEX
  5
FEE
  8
0
 10
0.0
 20
0.0
 30
0.0
 70
   128
 71
    12
 72
     1
 73
     2
  0
VERTEX
  5
FEF
  8
0
 10
0.0
 20
0.0
 30
0.0
 70
   128
 71
     4
 72
    12
 73
     2
  0
VERTEX
  5
FF0
  8
0
 10
0.0
 20
0.0
 30
0.0
 70
   128
 71
     2
 72
     3
 73
     4
  0
VERTEX
  5
FF1
  8
0
 10
0.0
 20
0.0
 30
0.0
 70
   128
 71
     4
 72
     6
 73
    12
  0
VERTEX
  5
FF2
  8
0
 10
0.0
 20
0.0
 30
0.0
 70
   128
 71
     4
 72
     5
 73
     6
  0
SEQEND
  5
12D6
  8
0
  0
POLYLINE
  5
FF3
  8
0
 66
     1
 10
0.0
 20
0.0
 30
0.0
 70
    64
 71
    12
 72
    10
  0
VERTEX
  5
FF4
  8
0
 10
86.24559502663269
 20
-0.6242071197811575
 30
105.5520386502175
 70
   192
  0
VERTEX
  5
FF5
  8
0
 10
86.24676252814345
 20
-0.2893262980951301
 30
105.8842263259183
 70
   192
  0
VERTEX
  5
FF6
  8
0
 10
86.24823781073319
 20
-0.0741650598934174
 30
106.3039865488996
 70
   192
  0
VERTEX
  5
FF7
  8
0
 10
86.24987498850639
 20
0.0000000000000009
 30
106.76981059639
 70
   192
  0
VERTEX
  5
FF8
  8
0
 10
94.44338661948811
 20
0.0
 30
103.9455107899947
 70
   192
  0
VERTEX
  5
FF9
  8
0
 10
99.63657044129037
 20
0.0
 30
96.97198240165184
 70
   192
  0
VERTEX
  5
FFA
  8
0
 10
101.258649446766
 20
0.0
 30
88.4260518268017
 70
   192
  0
VERTEX
  5
FFB
  8
0
 10
100.5854506764653
 20
-0.1595510395148803
 30
88.4260518268017
 70
   192
  0
VERTEX
  5
FFC
  8
0
 10
100.0554646576334
 20
-0.6042621124458193
 30
88.4260518268017
 70
   192
  0
VERTEX
  5
FFD
  8
0
 10
99.78143781724768
 20
-1.239527733499603
 30
88.4260518268017
 70
   192
  0
VERTEX
  5
FFE
  8
0
 10
98.37631006059104
 20
-0.8958817027234757
 30
96.42694176153798
 70
   192
  0
VERTEX
  5
FFF
  8
0
 10
93.74012916386997
 20
-0.6591004321989193
 30
102.9193737024896
 70
   192
  0
VERTEX
  5
1000
  8
0
 10
0.0
 20
0.0
 30
0.0
 70
   128
 71
     6
 72
     7
 73
     8
  0
VERTEX
  5
1001
  8
0
 10
0.0
 20
0.0
 30
0.0
 70
   128
 71
     8
 72
     9
 73
     6
  0
VERTEX
  5
1002
  8
0
 10
0.0
 20
0.0
 30
0.0
 70
   128
 71
     9
 72
    11
 73
     6
  0
VERTEX
  5
1003
  8
0
 10
0.0
 20
0.0
 30
0.0
 70
   128
 71
     9
 72
    10
 73
    11
  0
VERTEX
  5
1004
  8
0
 10
0.0
 20
0.0
 30
0.0
 70
   128
 71
    12
 72
     5
 73
     6
  0
VERTEX
  5
1005
  8
0
 10
0.0
 20
0.0
 30
0.0
 70
   128
 71
    11
 72
    12
 73
     6
  0
VERTEX
  5
1006
  8
0
 10
0.0
 20
0.0
 30
0.0
 70
   128
 71
    12
 72
     1
 73
     2
  0
VERTEX
  5
1007
  8
0
 10
0.0
 20
0.0
 30
0.0
 70
   128
 71
     2
 72
     3
 73
    12
  0
VERTEX
  5
1008
  8
0
 10
0.0
 20
0.0
 30
0.0
 70
   128
 71
     3
 72
     5
 73
    12
  0
VERTEX
  5
1009
  8
0
 10
0.0
 20
0.0
 30
0.0
 70
   128
 71
     3
 72
     4
 73
     5
  0
SEQEND
  5
12D7
  8
0
  0
POLYLINE
  5
100A
  8
0
 66
     1
 10
0.0
 20
0.0
 30
0.0
 70
    64
 71
     8
 72
     6
  0
VERTEX
  5
100B
  8
0
 10
100.0554646576334
 20
-0.6042621124458343
 30
-88.4297408664354
 70
   192
  0
VERTEX
  5
100C
  8
0
 10
100.0554646576334
 20
-0.6042621124458193
 30
88.4260518268017
 70
   192
  0
VERTEX
  5
100D
  8
0
 10
100.5854506764653
 20
-0.1595510395148803
 30
88.4260518268017
 70
   192
  0
VERTEX
  5
100E
  8
0
 10
100.5854506764653
 20
-0.1595510395148845
 30
-88.4297408664354
 70
   192
  0
VERTEX
  5
100F
  8
0
 10
99.78143781724766
 20
-1.239527733499631
 30
-88.4297408664354
 70
   192
  0
VERTEX
  5
1010
  8
0
 10
99.78143781724759
 20
-1.239527733499602
 30
88.42605182680171
 70
   192
  0
VERTEX
  5
1011
  8
0
 10
101.258649446766
 20
0.0000000000000013
 30
88.4260518268017
 70
   192
  0
VERTEX
  5
1012
  8
0
 10
101.258649446766
 20
0.0
 30
-88.42974086643538
 70
   192
  0
VERTEX
  5
1013
  8
0
 10
0.0
 20
0.0
 30
0.0
 70
   128
 71
     1
 72
     2
 73
    -3
  0
VERTEX
  5
1014
  8
0
 10
0.0
 20
0.0
 30
0.0
 70
   128
 71
    -1
 72
     3
 73
     4
  0
VERTEX
  5
1015
  8
0
 10
0.0
 20
0.0
 30
0.0
 70
   128
 71
     5
 72
     6
 73
    -2
  0
VERTEX
  5
1016
  8
0
 10
0.0
 20
0.0
 30
0.0
 70
   128
 71
    -5
 72
     2
 73
     1
  0
VERTEX
  5
1017
  8
0
 10
0.0
 20
0.0
 30
0.0
 70
   128
 71
     4
 72
     3
 73
    -7
  0
VERTEX
  5
1018
  8
0
 10
0.0
 20
0.0
 30
0.0
 70
   128
 71
    -4
 72
     7
 73
     8
  0
SEQEND
  5
12D8
  8
0
  0
POLYLINE
  5
1019
  8
0
 66
     1
 10
0.0
 20
0.0
 30
0.0
 70
    64
 71
    12
 72
    10
  0
VERTEX
  5
101A
  8
0
 10
99.78143781724766
 20
-1.239527733499631
 30
-88.4297408664354
 70
   192
  0
VERTEX
  5
101B
  8
0
 10
100.0554646576334
 20
-0.6042621124458343
 30
-88.4297408664354
 70
   192
  0
VERTEX
  5
101C
  8
0
 10
100.5854506764653
 20
-0.1595510395148845
 30
-88.4297408664354
 70
   192
  0
VERTEX
  5
101D
  8
0
 10
101.258649446766
 20
0.0000000000000013
 30
-88.4297408664354
 70
   192
  0
VERTEX
  5
101E
  8
0
 10
99.62122642086949
 20
0.0
 30
-97.01092711804279
 70
   192
  0
VERTEX
  5
101F
  8
0
 10
94.41266213254211
 20
0.0
 30
-103.9693602353527
 70
   192
  0
VERTEX
  5
1020
  8
0
 10
86.24951055439419
 20
0.0
 30
-106.770105578756
 70
   192
  0
VERTEX
  5
1021
  8
0
 10
86.24786044690721
 20
-0.0742131713275211
 30
-106.3041343389468
 70
   192
  0
VERTEX
  5
1022
  8
0
 10
86.24637361903308
 20
-0.2895092255787703
 30
-105.8842713704091
 70
   192
  0
VERTEX
  5
1023
  8
0
 10
86.24519719372081
 20
-0.624584425473363
 30
-105.5520624897005
 70
   192
  0
VERTEX
  5
1024
  8
0
 10
93.73593419016572
 20
-0.6592985422838232
 30
-102.9229185731627
 70
   192
  0
VERTEX
  5
1025
  8
0
 10
98.37891296470318
 20
-0.896323620576271
 30
-96.42187212320987
 70
   192
  0
VERTEX
  5
1026
  8
0
 10
0.0
 20
0.0
 30
0.0
 70
   128
 71
     6
 72
     7
 73
     8
  0
VERTEX
  5
1027
  8
0
 10
0.0
 20
0.0
 30
0.0
 70
   128
 71
     8
 72
     9
 73
     6
  0
VERTEX
  5
1028
  8
0
 10
0.0
 20
0.0
 30
0.0
 70
   128
 71
     9
 72
    11
 73
     6
  0
VERTEX
  5
1029
  8
0
 10
0.0
 20
0.0
 30
0.0
 70
   128
 71
     9
 72
    10
 73
    11
  0
VERTEX
  5
102A
  8
0
 10
0.0
 20
0.0
 30
0.0
 70
   128
 71
    12
 72
     5
 73
     6
  0
VERTEX
  5
102B
  8
0
 10
0.0
 20
0.0
 30
0.0
 70
   128
 71
    11
 72
    12
 73
     6
  0
VERTEX
  5
102C
  8
0
 10
0.0
 20
0.0
 30
0.0
 70
   128
 71
    12
 72
     1
 73
     2
  0
VERTEX
  5
102D
  8
0
 10
0.0
 20
0.0
 30
0.0
 70
   128
 71
     2
 72
     3
 73
    12
  0
VERTEX
  5
102E
  8
0
 10
0.0
 20
0.0
 30
0.0
 70
   128
 71
     3
 72
     5
 73
    12
  0
VERTEX
  5
102F
  8
0
 10
0.0
 20
0.0
 30
0.0
 70
   128
 71
     3
 72
     4
 73
     5
  0
SEQEND
  5
12D9
  8
0
  0
POLYLINE
  5
1030
  8
0
 66
     1
 10
0.0
 20
0.0
 30
0.0
 70
    64
 71
    10
 72
     8
  0
VERTEX
  5
1031
  8
0
 10
86.24519719372081
 20
-0.624584425473363
 30
-105.5520624897005
 70
   192
  0
VERTEX
  5
1032
  8
0
 10
86.24637361903308
 20
-0.2895092255787703
 30
-105.8842713704091
 70
   192
  0
VERTEX
  5
1033
  8
0
 10
86.24786044690721
 20
-0.0742131713275211
 30
-106.3041343389468
 70
   192
  0
VERTEX
  5
1034
  8
0
 10
86.24951055439419
 20
0.0000000000000011
 30
-106.770105578756
 70
   192
  0
VERTEX
  5
1035
  8
0
 10
-6.957568771703754
 20
0.0
 30
-106.9172737733512
 70
   192
  0
VERTEX
  5
1036
  8
0
 10
-103.4208197597046
 20
0.0
 30
-106.7014947014445
 70
   192
  0
VERTEX
  5
1037
  8
0
 10
-196.0001671337385
 20
0.000000484356032
 30
-105.9948892411586
 70
   192
  0
VERTEX
  5
1038
  8
0
 10
-125.4408460398649
 20
-0.3983328349201651
 30
-105.5698282970973
 70
   192
  0
VERTEX
  5
1039
  8
0
 10
-98.3970535195321
 20
-0.5606459120777204
 30
-105.5537737749695
 70
   192
  0
VERTEX
  5
103A
  8
0
 10
-54.87950137683787
 20
-0.7388850783852611
 30
-105.5657807107885
 70
   192
  0
VERTEX
  5
103B
  8
0
 10
0.0
 20
0.0
 30
0.0
 70
   128
 71
     7
 72
     8
 73
     9
  0
VERTEX
  5
103C
  8
0
 10
0.0
 20
0.0
 30
0.0
 70
   128
 71
     6
 72
     7
 73
     9
  0
VERTEX
  5
103D
  8
0
 10
0.0
 20
0.0
 30
0.0
 70
   128
 71
    10
 72
     5
 73
     6
  0
VERTEX
  5
103E
  8
0
 10
0.0
 20
0.0
 30
0.0
 70
   128
 71
     9
 72
    10
 73
     6
  0
VERTEX
  5
103F
  8
0
 10
0.0
 20
0.0
 30
0.0
 70
   128
 71
    10
 72
     1
 73
     2
  0
VERTEX
  5
1040
  8
0
 10
0.0
 20
0.0
 30
0.0
 70
   128
 71
     3
 72
     5
 73
    10
  0
VERTEX
  5
1041
  8
0
 10
0.0
 20
0.0
 30
0.0
 70
   128
 71
     2
 72
     3
 73
    10
  0
VERTEX
  5
1042
  8
0
 10
0.0
 20
0.0
 30
0.0
 70
   128
 71
     3
 72
     4
 73
     5
  0
SEQEND
  5
12DA
  8
0
  0
POLYLINE
  5
1043
  8
0
 66
     1
 10
0.0
 20
0.0
 30
0.0
 70
    64
 71
     8
 72
     6
  0
VERTEX
  5
1044
  8
0
 10
198.248799462062
 20
-1.952325750305236
 30
108.9807115777241
 70
   192
  0
VERTEX
  5
1045
  8
0
 10
198.978295209547
 20
-45.00000000000003
 30
109.7445738023867
 70
   192
  0
VERTEX
  5
1046
  8
0
 10
199.7445738023868
 20
-45.00000000000001
 30
108.9782952095468
 70
   192
  0
VERTEX
  5
1047
  8
0
 10
198.9807115777243
 20
-1.952325750305236
 30
108.2487994620618
 70
   192
  0
VERTEX
  5
1048
  8
0
 10
197.249127551999
 20
-1.965095187125433
 30
109.2488229423116
 70
   192
  0
VERTEX
  5
1049
  8
0
 10
198.0003046096875
 20
-45.0
 30
109.9999999999999
 70
   192
  0
VERTEX
  5
104A
  8
0
 10
200.0
 20
-45.0
 30
108.000304609687
 70
   192
  0
VERTEX
  5
104B
  8
0
 10
199.2488229423119
 20
-1.965095187125435
 30
107.2491275519988
 70
   192
  0
VERTEX
  5
104C
  8
0
 10
0.0
 20
0.0
 30
0.0
 70
   128
 71
     1
 72
     2
 73
    -3
  0
VERTEX
  5
104D
  8
0
 10
0.0
 20
0.0
 30
0.0
 70
   128
 71
    -1
 72
     3
 73
     4
  0
VERTEX
  5
104E
  8
0
 10
0.0
 20
0.0
 30
0.0
 70
   128
 71
     5
 72
     6
 73
     2
  0
VERTEX
  5
104F
  8
0
 10
0.0
 20
0.0
 30
0.0
 70
   128
 71
     5
 72
     2
 73
     1
  0
VERTEX
  5
1050
  8
0
 10
0.0
 20
0.0
 30
0.0
 70
   128
 71
     4
 72
     3
 73
     7
  0
VERTEX
  5
1051
  8
0
 10
0.0
 20
0.0
 30
0.0
 70
   128
 71
     4
 72
     7
 73
     8
  0
SEQEND
  5
12DB
  8
0
  0
POLYLINE
  5
1052
  8
0
 66
     1
 10
0.0
 20
0.0
 30
0.0
 70
    64
 71
     8
 72
     6
  0
VERTEX
  5
1053
  8
0
 10
-198.9807115777243
 20
-1.952325750305236
 30
108.2487994620618
 70
   192
  0
VERTEX
  5
1054
  8
0
 10
-199.7445738023868
 20
-45.00000000000001
 30
108.9782952095469
 70
   192
  0
VERTEX
  5
1055
  8
0
 10
-198.9782952095468
 20
-44.99999999999999
 30
109.7445738023867
 70
   192
  0
VERTEX
  5
1056
  8
0
 10
-198.248799462062
 20
-1.952325750305236
 30
108.9807115777241
 70
   192
  0
VERTEX
  5
1057
  8
0
 10
-199.2488229423118
 20
-1.965095187125433
 30
107.2491275519988
 70
   192
  0
VERTEX
  5
1058
  8
0
 10
-199.9999999999997
 20
-45.00000000000001
 30
108.0003046096872
 70
   192
  0
VERTEX
  5
1059
  8
0
 10
-198.000304609687
 20
-45.0
 30
110.0
 70
   192
  0
VERTEX
  5
105A
  8
0
 10
-197.2491275519988
 20
-1.965095187125449
 30
109.2488229423116
 70
   192
  0
VERTEX
  5
105B
  8
0
 10
0.0
 20
0.0
 30
0.0
 70
   128
 71
     1
 72
     2
 73
    -3
  0
VERTEX
  5
105C
  8
0
 10
0.0
 20
0.0
 30
0.0
 70
   128
 71
    -1
 72
     3
 73
     4
  0
VERTEX
  5
105D
  8
0
 10
0.0
 20
0.0
 30
0.0
 70
   128
 71
     5
 72
     6
 73
     2
  0
VERTEX
  5
105E
  8
0
 10
0.0
 20
0.0
 30
0.0
 70
   128
 71
     5
 72
     2
 73
     1
  0
VERTEX
  5
105F
  8
0
 10
0.0
 20
0.0
 30
0.0
 70
   128
 71
     4
 72
     3
 73
     7
  0
VERTEX
  5
1060
  8
0
 10
0.0
 20
0.0
 30
0.0
 70
   128
 71
     4
 72
     7
 73
     8
  0
SEQEND
  5
12DC
  8
0
  0
POLYLINE
  5
1061
  8
0
 66
     1
 10
0.0
 20
0.0
 30
0.0
 70
    64
 71
     8
 72
     6
  0
VERTEX
  5
1062
  8
0
 10
-198.248799462062
 20
-1.952325750305236
 30
-108.9807115777239
 70
   192
  0
VERTEX
  5
1063
  8
0
 10
-198.9782952095468
 20
-45.00000000000001
 30
-109.7445738023867
 70
   192
  0
VERTEX
  5
1064
  8
0
 10
-199.7445738023867
 20
-45.00000000000001
 30
-108.9782952095467
 70
   192
  0
VERTEX
  5
1065
  8
0
 10
-198.9807115777243
 20
-1.952325750305236
 30
-108.2487994620616
 70
   192
  0
VERTEX
  5
1066
  8
0
 10
-197.249127551999
 20
-1.965095187125433
 30
-109.2488229423114
 70
   192
  0
VERTEX
  5
1067
  8
0
 10
-198.0003046096872
 20
-45.0
 30
-109.9999999999998
 70
   192
  0
VERTEX
  5
1068
  8
0
 10
-200.0
 20
-45.0
 30
-108.000304609687
 70
   192
  0
VERTEX
  5
1069
  8
0
 10
-199.2488229423118
 20
-1.965095187125435
 30
-107.2491275519988
 70
   192
  0
VERTEX
  5
106A
  8
0
 10
0.0
 20
0.0
 30
0.0
 70
   128
 71
     1
 72
     2
 73
    -3
  0
VERTEX
  5
106B
  8
0
 10
0.0
 20
0.0
 30
0.0
 70
   128
 71
    -1
 72
     3
 73
     4
  0
VERTEX
  5
106C
  8
0
 10
0.0
 20
0.0
 30
0.0
 70
   128
 71
     5
 72
     6
 73
     2
  0
VERTEX
  5
106D
  8
0
 10
0.0
 20
0.0
 30
0.0
 70
   128
 71
     5
 72
     2
 73
     1
  0
VERTEX
  5
106E
  8
0
 10
0.0
 20
0.0
 30
0.0
 70
   128
 71
     4
 72
     3
 73
     7
  0
VERTEX
  5
106F
  8
0
 10
0.0
 20
0.0
 30
0.0
 70
   128
 71
     4
 72
     7
 73
     8
  0
SEQEND
  5
12DD
  8
0
  0
POLYLINE
  5
1070
  8
0
 66
     1
 10
0.0
 20
0.0
 30
0.0
 70
    64
 71
     8
 72
     6
  0
VERTEX
  5
1071
  8
0
 10
198.9807115777243
 20
-1.952325750305236
 30
-108.2487994620618
 70
   192
  0
VERTEX
  5
1072
  8
0
 10
199.7445738023867
 20
-45.00000000000001
 30
-108.9782952095469
 70
   192
  0
VERTEX
  5
1073
  8
0
 10
198.9782952095468
 20
-45.00000000000001
 30
-109.7445738023867
 70
   192
  0
VERTEX
  5
1074
  8
0
 10
198.248799462062
 20
-1.952325750305236
 30
-108.9807115777241
 70
   192
  0
VERTEX
  5
1075
  8
0
 10
199.2488229423118
 20
-1.965095187125433
 30
-107.2491275519988
 70
   192
  0
VERTEX
  5
1076
  8
0
 10
200.0000000000002
 20
-44.99999999999999
 30
-108.0003046096872
 70
   192
  0
VERTEX
  5
1077
  8
0
 10
198.000304609687
 20
-45.0
 30
-110.0
 70
   192
  0
VERTEX
  5
1078
  8
0
 10
197.2491275519991
 20
-1.965095187125442
 30
-109.2488229423115
 70
   192
  0
VERTEX
  5
1079
  8
0
 10
0.0
 20
0.0
 30
0.0
 70
   128
 71
     1
 72
     2
 73
    -3
  0
VERTEX
  5
107A
  8
0
 10
0.0
 20
0.0
 30
0.0
 70
   128
 71
    -1
 72
     3
 73
     4
  0
VERTEX
  5
107B
  8
0
 10
0.0
 20
0.0
 30
0.0
 70
   128
 71
     5
 72
     6
 73
     2
  0
VERTEX
  5
107C
  8
0
 10
0.0
 20
0.0
 30
0.0
 70
   128
 71
     5
 72
     2
 73
     1
  0
VERTEX
  5
107D
  8
0
 10
0.0
 20
0.0
 30
0.0
 70
   128
 71
     4
 72
     3
 73
     7
  0
VERTEX
  5
107E
  8
0
 10
0.0
 20
0.0
 30
0.0
 70
   128
 71
     4
 72
     7
 73
     8
  0
SEQEND
  5
12DE
  8
0
  0
POLYLINE
  5
107F
  8
0
 66
     1
 10
0.0
 20
0.0
 30
0.0
 70
    64
 71
     4
 72
     2
  0
VERTEX
  5
1080
  8
0
 10
-67.15947006704937
 20
-45.8263518223331
 30
-88.8542918781651
 70
   192
  0
VERTEX
  5
1081
  8
0
 10
67.1596861996387
 20
-45.8263518223331
 30
-88.8542918781651
 70
   192
  0
VERTEX
  5
1082
  8
0
 10
22.52844032229909
 20
-55.81301544242932
 30
-87.0933736346825
 70
   192
  0
VERTEX
  5
1083
  8
0
 10
-22.97530462134314
 20
-55.75317527953034
 30
-87.1039250699315
 70
   192
  0
VERTEX
  5
1084
  8
0
 10
0.0
 20
0.0
 30
0.0
 70
   128
 71
     3
 72
     4
 73
    -1
  0
VERTEX
  5
1085
  8
0
 10
0.0
 20
0.0
 30
0.0
 70
   128
 71
     2
 72
    -3
 73
     1
  0
SEQEND
  5
12DF
  8
0
  0
POLYLINE
  5
1086
  8
0
 66
     1
 10
0.0
 20
0.0
 30
0.0
 70
    64
 71
     4
 72
     2
  0
VERTEX
  5
1087
  8
0
 10
66.97780189032848
 20
-45.8263518223331
 30
88.8542918781651
 70
   192
  0
VERTEX
  5
1088
  8
0
 10
-66.97507177086109
 20
-45.8263518223331
 30
88.8542918781651
 70
   192
  0
VERTEX
  5
1089
  8
0
 10
-22.44585442310791
 20
-55.73903641611563
 30
87.10641813302807
 70
   192
  0
VERTEX
  5
108A
  8
0
 10
22.91735664437685
 20
-55.67636331935381
 30
87.11746909095174
 70
   192
  0
VERTEX
  5
108B
  8
0
 10
0.0
 20
0.0
 30
0.0
 70
   128
 71
     3
 72
     4
 73
    -1
  0
VERTEX
  5
108C
  8
0
 10
0.0
 20
0.0
 30
0.0
 70
   128
 71
     2
 72
    -3
 73
     1
  0
SEQEND
  5
12E0
  8
0
  0
POLYLINE
  5
108D
  8
0
 66
     1
 10
0.0
 20
0.0
 30
0.0
 70
    64
 71
     9
 72
     7
  0
VERTEX
  5
108E
  8
0
 10
197.249127551999
 20
-0.2621607728183393
 30
-108.2390340225649
 70
   192
  0
VERTEX
  5
108F
  8
0
 10
197.249127551999
 20
0.0000000000000018
 30
-107.2491275519988
 70
   192
  0
VERTEX
  5
1090
  8
0
 10
198.2390340225651
 20
-0.2621607728183384
 30
-107.2491275519988
 70
   192
  0
VERTEX
  5
1091
  8
0
 10
197.249127551999
 20
-0.9799148204686527
 30
-108.9694258477895
 70
   192
  0
VERTEX
  5
1092
  8
0
 10
198.9694258477898
 20
-0.9799148204686499
 30
-107.2491275519988
 70
   192
  0
VERTEX
  5
1093
  8
0
 10
199.2488229423118
 20
-1.965095187125435
 30
-107.2491275519988
 70
   192
  0
VERTEX
  5
1094
  8
0
 10
198.9807115777243
 20
-1.952325750305236
 30
-108.2487994620618
 70
   192
  0
VERTEX
  5
1095
  8
0
 10
198.248799462062
 20
-1.952325750305236
 30
-108.9807115777241
 70
   192
  0
VERTEX
  5
1096
  8
0
 10
197.249127551999
 20
-1.965095187125433
 30
-109.2488229423116
 70
   192
  0
VERTEX
  5
1097
  8
0
 10
0.0
 20
0.0
 30
0.0
 70
   128
 71
     1
 72
     2
 73
     3
  0
VERTEX
  5
1098
  8
0
 10
0.0
 20
0.0
 30
0.0
 70
   128
 71
     3
 72
     4
 73
     1
  0
VERTEX
  5
1099
  8
0
 10
0.0
 20
0.0
 30
0.0
 70
   128
 71
     5
 72
     6
 73
     7
  0
VERTEX
  5
109A
  8
0
 10
0.0
 20
0.0
 30
0.0
 70
   128
 71
     5
 72
     7
 73
     8
  0
VERTEX
  5
109B
  8
0
 10
0.0
 20
0.0
 30
0.0
 70
   128
 71
     3
 72
     5
 73
     8
  0
VERTEX
  5
109C
  8
0
 10
0.0
 20
0.0
 30
0.0
 70
   128
 71
     3
 72
     8
 73
     9
  0
VERTEX
  5
109D
  8
0
 10
0.0
 20
0.0
 30
0.0
 70
   128
 71
     3
 72
     9
 73
     4
  0
SEQEND
  5
12E1
  8
0
  0
POLYLINE
  5
109E
  8
0
 66
     1
 10
0.0
 20
0.0
 30
0.0
 70
    64
 71
     8
 72
     6
  0
VERTEX
  5
109F
  8
0
 10
197.249127551999
 20
-0.9799148204686527
 30
-108.9694258477895
 70
   192
  0
VERTEX
  5
10A0
  8
0
 10
-197.249127551999
 20
-0.9799148204686527
 30
-108.9694258477893
 70
   192
  0
VERTEX
  5
10A1
  8
0
 10
-197.249127551999
 20
-0.2621607728183393
 30
-108.2390340225647
 70
   192
  0
VERTEX
  5
10A2
  8
0
 10
197.249127551999
 20
-0.2621607728183393
 30
-108.2390340225649
 70
   192
  0
VERTEX
  5
10A3
  8
0
 10
197.249127551999
 20
-1.96509518712544
 30
-109.2488229423116
 70
   192
  0
VERTEX
  5
10A4
  8
0
 10
-197.249127551999
 20
-1.965095187125435
 30
-109.2488229423115
 70
   192
  0
VERTEX
  5
10A5
  8
0
 10
-197.249127551999
 20
0.0000000000000018
 30
-107.2491275519986
 70
   192
  0
VERTEX
  5
10A6
  8
0
 10
197.249127551999
 20
0.0
 30
-107.2491275519987
 70
   192
  0
VERTEX
  5
10A7
  8
0
 10
0.0
 20
0.0
 30
0.0
 70
   128
 71
     1
 72
     2
 73
    -3
  0
VERTEX
  5
10A8
  8
0
 10
0.0
 20
0.0
 30
0.0
 70
   128
 71
    -1
 72
     3
 73
     4
  0
VERTEX
  5
10A9
  8
0
 10
0.0
 20
0.0
 30
0.0
 70
   128
 71
     5
 72
     6
 73
    -2
  0
VERTEX
  5
10AA
  8
0
 10
0.0
 20
0.0
 30
0.0
 70
   128
 71
    -5
 72
     2
 73
     1
  0
VERTEX
  5
10AB
  8
0
 10
0.0
 20
0.0
 30
0.0
 70
   128
 71
     4
 72
     3
 73
    -7
  0
VERTEX
  5
10AC
  8
0
 10
0.0
 20
0.0
 30
0.0
 70
   128
 71
    -4
 72
     7
 73
     8
  0
SEQEND
  5
12E2
  8
0
  0
POLYLINE
  5
10AD
  8
0
 66
     1
 10
0.0
 20
0.0
 30
0.0
 70
    64
 71
     8
 72
     6
  0
VERTEX
  5
10AE
  8
0
 10
198.9694258477898
 20
-0.979914820468647
 30
107.2491275519988
 70
   192
  0
VERTEX
  5
10AF
  8
0
 10
198.9694258477898
 20
-0.9799148204686499
 30
-107.2491275519988
 70
   192
  0
VERTEX
  5
10B0
  8
0
 10
198.2390340225651
 20
-0.2621607728183384
 30
-107.2491275519988
 70
   192
  0
VERTEX
  5
10B1
  8
0
 10
198.2390340225651
 20
-0.2621607728183377
 30
107.2491275519988
 70
   192
  0
VERTEX
  5
10B2
  8
0
 10
199.2488229423118
 20
-1.96509518712543
 30
107.2491275519988
 70
   192
  0
VERTEX
  5
10B3
  8
0
 10
199.2488229423115
 20
-1.965095187125435
 30
-107.2491275519988
 70
   192
  0
VERTEX
  5
10B4
  8
0
 10
197.249127551999
 20
0.0000000000000018
 30
-107.2491275519988
 70
   192
  0
VERTEX
  5
10B5
  8
0
 10
197.249127551999
 20
0.0
 30
107.2491275519988
 70
   192
  0
VERTEX
  5
10B6
  8
0
 10
0.0
 20
0.0
 30
0.0
 70
   128
 71
     1
 72
     2
 73
    -3
  0
VERTEX
  5
10B7
  8
0
 10
0.0
 20
0.0
 30
0.0
 70
   128
 71
    -1
 72
     3
 73
     4
  0
VERTEX
  5
10B8
  8
0
 10
0.0
 20
0.0
 30
0.0
 70
   128
 71
     5
 72
     6
 73
    -2
  0
VERTEX
  5
10B9
  8
0
 10
0.0
 20
0.0
 30
0.0
 70
   128
 71
    -5
 72
     2
 73
     1
  0
VERTEX
  5
10BA
  8
0
 10
0.0
 20
0.0
 30
0.0
 70
   128
 71
     4
 72
     3
 73
    -7
  0
VERTEX
  5
10BB
  8
0
 10
0.0
 20
0.0
 30
0.0
 70
   128
 71
    -4
 72
     7
 73
     8
  0
SEQEND
  5
12E3
  8
0
  0
POLYLINE
  5
10BC
  8
0
 66
     1
 10
0.0
 20
0.0
 30
0.0
 70
    64
 71
     9
 72
     7
  0
VERTEX
  5
10BD
  8
0
 10
-198.9807115777243
 20
-1.952325750305236
 30
-108.2487994620616
 70
   192
  0
VERTEX
  5
10BE
  8
0
 10
-199.2488229423118
 20
-1.965095187125433
 30
-107.2491275519986
 70
   192
  0
VERTEX
  5
10BF
  8
0
 10
-198.9694258477898
 20
-0.9799148204686496
 30
-107.2491275519986
 70
   192
  0
VERTEX
  5
10C0
  8
0
 10
-198.248799462062
 20
-1.952325750305236
 30
-108.9807115777239
 70
   192
  0
VERTEX
  5
10C1
  8
0
 10
-198.2390340225651
 20
-0.2621607728183384
 30
-107.2491275519986
 70
   192
  0
VERTEX
  5
10C2
  8
0
 10
-197.249127551999
 20
0.0000000000000018
 30
-107.2491275519986
 70
   192
  0
VERTEX
  5
10C3
  8
0
 10
-197.249127551999
 20
-0.2621607728183393
 30
-108.2390340225647
 70
   192
  0
VERTEX
  5
10C4
  8
0
 10
-197.249127551999
 20
-0.9799148204686527
 30
-108.9694258477893
 70
   192
  0
VERTEX
  5
10C5
  8
0
 10
-197.249127551999
 20
-1.96509518712544
 30
-109.2488229423114
 70
   192
  0
VERTEX
  5
10C6
  8
0
 10
0.0
 20
0.0
 30
0.0
 70
   128
 71
     1
 72
     2
 73
     3
  0
VERTEX
  5
10C7
  8
0
 10
0.0
 20
0.0
 30
0.0
 70
   128
 71
    -3
 72
     4
 73
     1
  0
VERTEX
  5
10C8
  8
0
 10
0.0
 20
0.0
 30
0.0
 70
   128
 71
     5
 72
     6
 73
     7
  0
VERTEX
  5
10C9
  8
0
 10
0.0
 20
0.0
 30
0.0
 70
   128
 71
     8
 72
     9
 73
     4
  0
VERTEX
  5
10CA
  8
0
 10
0.0
 20
0.0
 30
0.0
 70
   128
 71
     8
 72
    -4
 73
     3
  0
VERTEX
  5
10CB
  8
0
 10
0.0
 20
0.0
 30
0.0
 70
   128
 71
     3
 72
     5
 73
    -7
  0
VERTEX
  5
10CC
  8
0
 10
0.0
 20
0.0
 30
0.0
 70
   128
 71
    -3
 72
     7
 73
     8
  0
SEQEND
  5
12E4
  8
0
  0
POLYLINE
  5
10CD
  8
0
 66
     1
 10
0.0
 20
0.0
 30
0.0
 70
    64
 71
     9
 72
     7
  0
VERTEX
  5
10CE
  8
0
 10
198.9807115777243
 20
-1.952325750305236
 30
108.2487994620618
 70
   192
  0
VERTEX
  5
10CF
  8
0
 10
199.2488229423118
 20
-1.965095187125433
 30
107.2491275519988
 70
   192
  0
VERTEX
  5
10D0
  8
0
 10
198.9694258477898
 20
-0.979914820468647
 30
107.2491275519988
 70
   192
  0
VERTEX
  5
10D1
  8
0
 10
198.248799462062
 20
-1.952325750305236
 30
108.9807115777241
 70
   192
  0
VERTEX
  5
10D2
  8
0
 10
198.2390340225651
 20
-0.2621607728183377
 30
107.2491275519988
 70
   192
  0
VERTEX
  5
10D3
  8
0
 10
197.249127551999
 20
0.0000000000000018
 30
107.2491275519988
 70
   192
  0
VERTEX
  5
10D4
  8
0
 10
197.249127551999
 20
-0.2621607728183393
 30
108.2390340225649
 70
   192
  0
VERTEX
  5
10D5
  8
0
 10
197.249127551999
 20
-0.979914820468653
 30
108.9694258477895
 70
   192
  0
VERTEX
  5
10D6
  8
0
 10
197.249127551999
 20
-1.965095187125441
 30
109.2488229423116
 70
   192
  0
VERTEX
  5
10D7
  8
0
 10
0.0
 20
0.0
 30
0.0
 70
   128
 71
     1
 72
     2
 73
     3
  0
VERTEX
  5
10D8
  8
0
 10
0.0
 20
0.0
 30
0.0
 70
   128
 71
     3
 72
     4
 73
     1
  0
VERTEX
  5
10D9
  8
0
 10
0.0
 20
0.0
 30
0.0
 70
   128
 71
     5
 72
     6
 73
     7
  0
VERTEX
  5
10DA
  8
0
 10
0.0
 20
0.0
 30
0.0
 70
   128
 71
     4
 72
     3
 73
     5
  0
VERTEX
  5
10DB
  8
0
 10
0.0
 20
0.0
 30
0.0
 70
   128
 71
     8
 72
     9
 73
     4
  0
VERTEX
  5
10DC
  8
0
 10
0.0
 20
0.0
 30
0.0
 70
   128
 71
     8
 72
     4
 73
     5
  0
VERTEX
  5
10DD
  8
0
 10
0.0
 20
0.0
 30
0.0
 70
   128
 71
     5
 72
     7
 73
     8
  0
SEQEND
  5
12E5
  8
0
  0
POLYLINE
  5
10DE
  8
0
 66
     1
 10
0.0
 20
0.0
 30
0.0
 70
    64
 71
     8
 72
     6
  0
VERTEX
  5
10DF
  8
0
 10
-198.9694258477898
 20
-0.9799148204686496
 30
-107.2491275519986
 70
   192
  0
VERTEX
  5
10E0
  8
0
 10
-198.9694258477898
 20
-0.9799148204686468
 30
107.2491275519988
 70
   192
  0
VERTEX
  5
10E1
  8
0
 10
-198.2390340225651
 20
-0.2621607728183375
 30
107.2491275519988
 70
   192
  0
VERTEX
  5
10E2
  8
0
 10
-198.2390340225651
 20
-0.2621607728183384
 30
-107.2491275519986
 70
   192
  0
VERTEX
  5
10E3
  8
0
 10
-199.2488229423118
 20
-1.965095187125435
 30
-107.2491275519986
 70
   192
  0
VERTEX
  5
10E4
  8
0
 10
-199.2488229423114
 20
-1.965095187125435
 30
107.2491275519988
 70
   192
  0
VERTEX
  5
10E5
  8
0
 10
-197.249127551999
 20
0.0000000000000018
 30
107.2491275519988
 70
   192
  0
VERTEX
  5
10E6
  8
0
 10
-197.2491275519991
 20
0.0
 30
-107.2491275519986
 70
   192
  0
VERTEX
  5
10E7
  8
0
 10
0.0
 20
0.0
 30
0.0
 70
   128
 71
     1
 72
     2
 73
    -3
  0
VERTEX
  5
10E8
  8
0
 10
0.0
 20
0.0
 30
0.0
 70
   128
 71
    -1
 72
     3
 73
     4
  0
VERTEX
  5
10E9
  8
0
 10
0.0
 20
0.0
 30
0.0
 70
   128
 71
     5
 72
     6
 73
    -2
  0
VERTEX
  5
10EA
  8
0
 10
0.0
 20
0.0
 30
0.0
 70
   128
 71
    -5
 72
     2
 73
     1
  0
VERTEX
  5
10EB
  8
0
 10
0.0
 20
0.0
 30
0.0
 70
   128
 71
     4
 72
     3
 73
    -7
  0
VERTEX
  5
10EC
  8
0
 10
0.0
 20
0.0
 30
0.0
 70
   128
 71
    -4
 72
     7
 73
     8
  0
SEQEND
  5
12E6
  8
0
  0
POLYLINE
  5
10ED
  8
0
 66
     1
 10
0.0
 20
0.0
 30
0.0
 70
    64
 71
     8
 72
     6
  0
VERTEX
  5
10EE
  8
0
 10
-197.249127551999
 20
-0.979914820468653
 30
108.9694258477895
 70
   192
  0
VERTEX
  5
10EF
  8
0
 10
197.249127551999
 20
-0.979914820468653
 30
108.9694258477895
 70
   192
  0
VERTEX
  5
10F0
  8
0
 10
197.249127551999
 20
-0.2621607728183393
 30
108.2390340225649
 70
   192
  0
VERTEX
  5
10F1
  8
0
 10
-197.249127551999
 20
-0.2621607728183393
 30
108.2390340225649
 70
   192
  0
VERTEX
  5
10F2
  8
0
 10
-197.249127551999
 20
-1.965095187125441
 30
109.2488229423116
 70
   192
  0
VERTEX
  5
10F3
  8
0
 10
197.249127551999
 20
-1.965095187125435
 30
109.2488229423115
 70
   192
  0
VERTEX
  5
10F4
  8
0
 10
197.249127551999
 20
0.0000000000000018
 30
107.2491275519988
 70
   192
  0
VERTEX
  5
10F5
  8
0
 10
-197.249127551999
 20
0.0
 30
107.2491275519989
 70
   192
  0
VERTEX
  5
10F6
  8
0
 10
0.0
 20
0.0
 30
0.0
 70
   128
 71
     1
 72
     2
 73
    -3
  0
VERTEX
  5
10F7
  8
0
 10
0.0
 20
0.0
 30
0.0
 70
   128
 71
    -1
 72
     3
 73
     4
  0
VERTEX
  5
10F8
  8
0
 10
0.0
 20
0.0
 30
0.0
 70
   128
 71
     5
 72
     6
 73
    -2
  0
VERTEX
  5
10F9
  8
0
 10
0.0
 20
0.0
 30
0.0
 70
   128
 71
    -5
 72
     2
 73
     1
  0
VERTEX
  5
10FA
  8
0
 10
0.0
 20
0.0
 30
0.0
 70
   128
 71
     4
 72
     3
 73
    -7
  0
VERTEX
  5
10FB
  8
0
 10
0.0
 20
0.0
 30
0.0
 70
   128
 71
    -4
 72
     7
 73
     8
  0
SEQEND
  5
12E7
  8
0
  0
POLYLINE
  5
10FC
  8
0
 66
     1
 10
0.0
 20
0.0
 30
0.0
 70
    64
 71
     9
 72
     7
  0
VERTEX
  5
10FD
  8
0
 10
-197.249127551999
 20
-0.2621607728183393
 30
108.2390340225649
 70
   192
  0
VERTEX
  5
10FE
  8
0
 10
-197.249127551999
 20
0.0000000000000018
 30
107.2491275519988
 70
   192
  0
VERTEX
  5
10FF
  8
0
 10
-198.2390340225651
 20
-0.2621607728183375
 30
107.2491275519988
 70
   192
  0
VERTEX
  5
1100
  8
0
 10
-197.249127551999
 20
-0.979914820468653
 30
108.9694258477895
 70
   192
  0
VERTEX
  5
1101
  8
0
 10
-198.9694258477898
 20
-0.9799148204686468
 30
107.2491275519988
 70
   192
  0
VERTEX
  5
1102
  8
0
 10
-199.2488229423118
 20
-1.96509518712543
 30
107.2491275519988
 70
   192
  0
VERTEX
  5
1103
  8
0
 10
-198.9807115777243
 20
-1.952325750305236
 30
108.2487994620618
 70
   192
  0
VERTEX
  5
1104
  8
0
 10
-197.249127551999
 20
-1.965095187125433
 30
109.2488229423116
 70
   192
  0
VERTEX
  5
1105
  8
0
 10
-198.248799462062
 20
-1.952325750305236
 30
108.9807115777241
 70
   192
  0
VERTEX
  5
1106
  8
0
 10
0.0
 20
0.0
 30
0.0
 70
   128
 71
     1
 72
     2
 73
     3
  0
VERTEX
  5
1107
  8
0
 10
0.0
 20
0.0
 30
0.0
 70
   128
 71
     3
 72
     4
 73
     1
  0
VERTEX
  5
1108
  8
0
 10
0.0
 20
0.0
 30
0.0
 70
   128
 71
     5
 72
     6
 73
     7
  0
VERTEX
  5
1109
  8
0
 10
0.0
 20
0.0
 30
0.0
 70
   128
 71
     8
 72
     4
 73
     3
  0
VERTEX
  5
110A
  8
0
 10
0.0
 20
0.0
 30
0.0
 70
   128
 71
     8
 72
     3
 73
     5
  0
VERTEX
  5
110B
  8
0
 10
0.0
 20
0.0
 30
0.0
 70
   128
 71
     8
 72
     5
 73
     7
  0
VERTEX
  5
110C
  8
0
 10
0.0
 20
0.0
 30
0.0
 70
   128
 71
     8
 72
     7
 73
     9
  0
SEQEND
  5
12E8
  8
0
  0
POLYLINE
  5
110D
  8
0
 66
     1
 10
0.0
 20
0.0
 30
0.0
 70
    64
 71
     8
 72
     6
  0
VERTEX
  5
110E
  8
0
 10
-67.15947006704889
 20
-45.40284140829723
 30
-89.03697643842223
 70
   192
  0
VERTEX
  5
110F
  8
0
 10
-67.15947006704889
 20
-45.10636735967659
 30
-89.39030045097682
 70
   192
  0
VERTEX
  5
1110
  8
0
 10
67.1596861996387
 20
-45.10636735967659
 30
-89.39030045097682
 70
   192
  0
VERTEX
  5
1111
  8
0
 10
67.1596861996387
 20
-45.40284140829723
 30
-89.03697643842223
 70
   192
  0
VERTEX
  5
1112
  8
0
 10
-67.15947006704889
 20
-45.0
 30
-89.83909963117729
 70
   192
  0
VERTEX
  5
1113
  8
0
 10
67.15968619963871
 20
-45.0
 30
-89.83909963117729
 70
   192
  0
VERTEX
  5
1114
  8
0
 10
-67.15947006704937
 20
-45.8263518223331
 30
-88.8542918781651
 70
   192
  0
VERTEX
  5
1115
  8
0
 10
67.1596861996387
 20
-45.82635182233309
 30
-88.85429187816507
 70
   192
  0
VERTEX
  5
1116
  8
0
 10
0.0
 20
0.0
 30
0.0
 70
   128
 71
     1
 72
     2
 73
    -3
  0
VERTEX
  5
1117
  8
0
 10
0.0
 20
0.0
 30
0.0
 70
   128
 71
     4
 72
    -1
 73
     3
  0
VERTEX
  5
1118
  8
0
 10
0.0
 20
0.0
 30
0.0
 70
   128
 71
     2
 72
     5
 73
    -6
  0
VERTEX
  5
1119
  8
0
 10
0.0
 20
0.0
 30
0.0
 70
   128
 71
     3
 72
    -2
 73
     6
  0
VERTEX
  5
111A
  8
0
 10
0.0
 20
0.0
 30
0.0
 70
   128
 71
     7
 72
     1
 73
    -4
  0
VERTEX
  5
111B
  8
0
 10
0.0
 20
0.0
 30
0.0
 70
   128
 71
     8
 72
    -7
 73
     4
  0
SEQEND
  5
12E9
  8
0
  0
POLYLINE
  5
111C
  8
0
 66
     1
 10
0.0
 20
0.0
 30
0.0
 70
    64
 71
     8
 72
     6
  0
VERTEX
  5
111D
  8
0
 10
66.9778018903285
 20
-45.40284140829723
 30
89.03697643842223
 70
   192
  0
VERTEX
  5
111E
  8
0
 10
66.9778018903285
 20
-45.10636735967659
 30
89.39030045097682
 70
   192
  0
VERTEX
  5
111F
  8
0
 10
-66.97507177086109
 20
-45.10636735967659
 30
89.39030045097682
 70
   192
  0
VERTEX
  5
1120
  8
0
 10
-66.97507177086109
 20
-45.40284140829723
 30
89.03697643842223
 70
   192
  0
VERTEX
  5
1121
  8
0
 10
66.9778018903285
 20
-45.0
 30
89.83909963117729
 70
   192
  0
VERTEX
  5
1122
  8
0
 10
-66.97507177086109
 20
-45.0
 30
89.83909963117729
 70
   192
  0
VERTEX
  5
1123
  8
0
 10
66.97780189032848
 20
-45.8263518223331
 30
88.8542918781651
 70
   192
  0
VERTEX
  5
1124
  8
0
 10
-66.97507177086109
 20
-45.82635182233309
 30
88.85429187816507
 70
   192
  0
VERTEX
  5
1125
  8
0
 10
0.0
 20
0.0
 30
0.0
 70
   128
 71
     1
 72
     2
 73
    -3
  0
VERTEX
  5
1126
  8
0
 10
0.0
 20
0.0
 30
0.0
 70
   128
 71
     4
 72
    -1
 73
     3
  0
VERTEX
  5
1127
  8
0
 10
0.0
 20
0.0
 30
0.0
 70
   128
 71
     2
 72
     5
 73
    -6
  0
VERTEX
  5
1128
  8
0
 10
0.0
 20
0.0
 30
0.0
 70
   128
 71
     3
 72
    -2
 73
     6
  0
VERTEX
  5
1129
  8
0
 10
0.0
 20
0.0
 30
0.0
 70
   128
 71
     7
 72
     1
 73
    -4
  0
VERTEX
  5
112A
  8
0
 10
0.0
 20
0.0
 30
0.0
 70
   128
 71
     8
 72
    -7
 73
     4
  0
SEQEND
  5
12EA
  8
0
  0
POLYLINE
  5
112B
  8
0
 66
     1
 10
0.0
 20
0.0
 30
0.0
 70
    64
 71
    12
 72
    10
  0
VERTEX
  5
112C
  8
0
 10
-24.08366617096401
 20
-56.0301886449718
 30
-86.94606637163542
 70
   192
  0
VERTEX
  5
112D
  8
0
 10
-70.6131053057495
 20
-45.3503798881697
 30
-88.782541960378
 70
   192
  0
VERTEX
  5
112E
  8
0
 10
-69.54161184387723
 20
-45.4986063937332
 30
-88.84427535568584
 70
   192
  0
VERTEX
  5
112F
  8
0
 10
-68.33433829105974
 20
-45.66494734830349
 30
-88.86736630178106
 70
   192
  0
VERTEX
  5
1130
  8
0
 10
-22.97530462134314
 20
-55.75317527953034
 30
-87.1039250699315
 70
   192
  0
VERTEX
  5
1131
  8
0
 10
-67.1594700670494
 20
-45.8263518223331
 30
-88.8542918781651
 70
   192
  0
VERTEX
  5
1132
  8
0
 10
22.52844032229909
 20
-55.81301544242932
 30
-87.0933736346825
 70
   192
  0
VERTEX
  5
1133
  8
0
 10
67.1596861996387
 20
-45.8263518223331
 30
-88.8542918781651
 70
   192
  0
VERTEX
  5
1134
  8
0
 10
68.33492046750635
 20
-45.66490231762273
 30
-88.86736693735438
 70
   192
  0
VERTEX
  5
1135
  8
0
 10
69.5421180962174
 20
-45.49847819226304
 30
-88.84429788867834
 70
   192
  0
VERTEX
  5
1136
  8
0
 10
23.34153328619434
 20
-56.13231450901181
 30
-86.92845751970492
 70
   192
  0
VERTEX
  5
1137
  8
0
 10
70.6134197823257
 20
-45.3503804580301
 30
-88.7825432760965
 70
   192
  0
VERTEX
  5
1138
  8
0
 10
0.0
 20
0.0
 30
0.0
 70
   128
 71
     1
 72
     2
 73
     3
  0
VERTEX
  5
1139
  8
0
 10
0.0
 20
0.0
 30
0.0
 70
   128
 71
     4
 72
     5
 73
     1
  0
VERTEX
  5
113A
  8
0
 10
0.0
 20
0.0
 30
0.0
 70
   128
 71
     3
 72
     4
 73
     1
  0
VERTEX
  5
113B
  8
0
 10
0.0
 20
0.0
 30
0.0
 70
   128
 71
     4
 72
     6
 73
     5
  0
VERTEX
  5
113C
  8
0
 10
0.0
 20
0.0
 30
0.0
 70
   128
 71
     7
 72
     8
 73
     9
  0
VERTEX
  5
113D
  8
0
 10
0.0
 20
0.0
 30
0.0
 70
   128
 71
    10
 72
    11
 73
     7
  0
VERTEX
  5
113E
  8
0
 10
0.0
 20
0.0
 30
0.0
 70
   128
 71
     9
 72
    10
 73
     7
  0
VERTEX
  5
113F
  8
0
 10
0.0
 20
0.0
 30
0.0
 70
   128
 71
    10
 72
    12
 73
    11
  0
VERTEX
  5
1140
  8
0
 10
0.0
 20
0.0
 30
0.0
 70
   128
 71
     5
 72
     7
 73
    11
  0
VERTEX
  5
1141
  8
0
 10
0.0
 20
0.0
 30
0.0
 70
   128
 71
     1
 72
     5
 73
    11
  0
SEQEND
  5
12EB
  8
0
  0
POLYLINE
  5
1142
  8
0
 66
     1
 10
0.0
 20
0.0
 30
0.0
 70
    64
 71
    12
 72
    10
  0
VERTEX
  5
1143
  8
0
 10
24.02301245594838
 20
-55.95378862306742
 30
86.95973576420498
 70
   192
  0
VERTEX
  5
1144
  8
0
 10
70.4497293497313
 20
-45.3504555775833
 30
88.7827665597316
 70
   192
  0
VERTEX
  5
1145
  8
0
 10
69.37258585628518
 20
-45.4986648524867
 30
88.844362068098
 70
   192
  0
VERTEX
  5
1146
  8
0
 10
68.1589505454506
 20
-45.66497539603282
 30
88.86738186500887
 70
   192
  0
VERTEX
  5
1147
  8
0
 10
22.91735664437685
 20
-55.67636331935381
 30
87.11746909095174
 70
   192
  0
VERTEX
  5
1148
  8
0
 10
66.9778018903285
 20
-45.8263518223331
 30
88.8542918781651
 70
   192
  0
VERTEX
  5
1149
  8
0
 10
-22.44585442310791
 20
-55.73903641611563
 30
87.10641813302807
 70
   192
  0
VERTEX
  5
114A
  8
0
 10
-66.97507177086109
 20
-45.8263518223331
 30
88.8542918781651
 70
   192
  0
VERTEX
  5
114B
  8
0
 10
-68.1563755364334
 20
-45.66495214057005
 30
88.86738296824117
 70
   192
  0
VERTEX
  5
114C
  8
0
 10
-69.36993368141819
 20
-45.49855183475746
 30
88.84438801510666
 70
   192
  0
VERTEX
  5
114D
  8
0
 10
-23.26728290375877
 20
-56.05721870779513
 30
86.9418948335531
 70
   192
  0
VERTEX
  5
114E
  8
0
 10
-70.44695309576751
 20
-45.3504552244449
 30
88.7827659111312
 70
   192
  0
VERTEX
  5
114F
  8
0
 10
0.0
 20
0.0
 30
0.0
 70
   128
 71
     1
 72
     2
 73
     3
  0
VERTEX
  5
1150
  8
0
 10
0.0
 20
0.0
 30
0.0
 70
   128
 71
     4
 72
     5
 73
     1
  0
VERTEX
  5
1151
  8
0
 10
0.0
 20
0.0
 30
0.0
 70
   128
 71
     3
 72
     4
 73
     1
  0
VERTEX
  5
1152
  8
0
 10
0.0
 20
0.0
 30
0.0
 70
   128
 71
     4
 72
     6
 73
     5
  0
VERTEX
  5
1153
  8
0
 10
0.0
 20
0.0
 30
0.0
 70
   128
 71
     7
 72
     8
 73
     9
  0
VERTEX
  5
1154
  8
0
 10
0.0
 20
0.0
 30
0.0
 70
   128
 71
    10
 72
    11
 73
     7
  0
VERTEX
  5
1155
  8
0
 10
0.0
 20
0.0
 30
0.0
 70
   128
 71
     9
 72
    10
 73
     7
  0
VERTEX
  5
1156
  8
0
 10
0.0
 20
0.0
 30
0.0
 70
   128
 71
    10
 72
    12
 73
    11
  0
VERTEX
  5
1157
  8
0
 10
0.0
 20
0.0
 30
0.0
 70
   128
 71
     5
 72
     7
 73
    11
  0
VERTEX
  5
1158
  8
0
 10
0.0
 20
0.0
 30
0.0
 70
   128
 71
     1
 72
     5
 73
    11
  0
SEQEND
  5
12EC
  8
0
  0
POLYLINE
  5
1159
  8
0
 66
     1
 10
0.0
 20
0.0
 30
0.0
 70
    64
 71
    12
 72
    10
  0
VERTEX
  5
115A
  8
0
 10
74.96175101516688
 20
-45.0
 30
-88.639925597834
 70
   192
  0
VERTEX
  5
115B
  8
0
 10
73.56431477996117
 20
-44.99999999999999
 30
-88.94450639754973
 70
   192
  0
VERTEX
  5
115C
  8
0
 10
72.16503504532263
 20
-45.0
 30
-89.24037079912245
 70
   192
  0
VERTEX
  5
115D
  8
0
 10
70.7639605482535
 20
-45.0
 30
-89.5277492398975
 70
   192
  0
VERTEX
  5
115E
  8
0
 10
70.70773627563172
 20
-45.04115891454727
 30
-89.2494281950303
 70
   192
  0
VERTEX
  5
115F
  8
0
 10
70.65614026307458
 20
-45.16124754569564
 30
-88.99401793436789
 70
   192
  0
VERTEX
  5
1160
  8
0
 10
70.6134197823257
 20
-45.3503804580301
 30
-88.7825432760965
 70
   192
  0
VERTEX
  5
1161
  8
0
 10
73.34340378635864
 20
-45.34224179171508
 30
-88.2215987240579
 70
   192
  0
VERTEX
  5
1162
  8
0
 10
76.01598684349966
 20
-45.33400782863163
 30
-87.63913507173088
 70
   192
  0
VERTEX
  5
1163
  8
0
 10
78.63116605934
 20
-45.325677130299
 30
-87.0352299752978
 70
   192
  0
VERTEX
  5
1164
  8
0
 10
77.40002637713542
 20
-45.14642730519807
 30
-87.55087407078018
 70
   192
  0
VERTEX
  5
1165
  8
0
 10
76.18367101294918
 20
-45.03685908387889
 30
-88.09036001853256
 70
   192
  0
VERTEX
  5
1166
  8
0
 10
0.0
 20
0.0
 30
0.0
 70
   128
 71
     8
 72
     7
 73
     6
  0
VERTEX
  5
1167
  8
0
 10
0.0
 20
0.0
 30
0.0
 70
   128
 71
     6
 72
     9
 73
     8
  0
VERTEX
  5
1168
  8
0
 10
0.0
 20
0.0
 30
0.0
 70
   128
 71
     6
 72
    11
 73
    10
  0
VERTEX
  5
1169
  8
0
 10
0.0
 20
0.0
 30
0.0
 70
   128
 71
     6
 72
    10
 73
     9
  0
VERTEX
  5
116A
  8
0
 10
0.0
 20
0.0
 30
0.0
 70
   128
 71
     6
 72
     5
 73
    12
  0
VERTEX
  5
116B
  8
0
 10
0.0
 20
0.0
 30
0.0
 70
   128
 71
     6
 72
    12
 73
    11
  0
VERTEX
  5
116C
  8
0
 10
0.0
 20
0.0
 30
0.0
 70
   128
 71
     2
 72
     1
 73
    12
  0
VERTEX
  5
116D
  8
0
 10
0.0
 20
0.0
 30
0.0
 70
   128
 71
     2
 72
    12
 73
     5
  0
VERTEX
  5
116E
  8
0
 10
0.0
 20
0.0
 30
0.0
 70
   128
 71
     5
 72
     3
 73
     2
  0
VERTEX
  5
116F
  8
0
 10
0.0
 20
0.0
 30
0.0
 70
   128
 71
     5
 72
     4
 73
     3
  0
SEQEND
  5
12ED
  8
0
  0
POLYLINE
  5
1170
  8
0
 66
     1
 10
0.0
 20
0.0
 30
0.0
 70
    64
 71
    12
 72
    10
  0
VERTEX
  5
1171
  8
0
 10
67.1596861996387
 20
-45.0
 30
-89.83909963117729
 70
   192
  0
VERTEX
  5
1172
  8
0
 10
67.1596861996387
 20
-45.10636735967659
 30
-89.39030045097682
 70
   192
  0
VERTEX
  5
1173
  8
0
 10
67.1596861996387
 20
-45.40284140829723
 30
-89.03697643842223
 70
   192
  0
VERTEX
  5
1174
  8
0
 10
67.1596861996387
 20
-45.8263518223331
 30
-88.8542918781651
 70
   192
  0
VERTEX
  5
1175
  8
0
 10
68.33492046750635
 20
-45.66490231762273
 30
-88.86736693735438
 70
   192
  0
VERTEX
  5
1176
  8
0
 10
69.5421180962174
 20
-45.49847819226304
 30
-88.84429788867834
 70
   192
  0
VERTEX
  5
1177
  8
0
 10
70.61341978232572
 20
-45.35038045803007
 30
-88.78254327609646
 70
   192
  0
VERTEX
  5
1178
  8
0
 10
70.65614026307458
 20
-45.16124754569564
 30
-88.99401793436789
 70
   192
  0
VERTEX
  5
1179
  8
0
 10
70.70773627563172
 20
-45.04115891454727
 30
-89.2494281950303
 70
   192
  0
VERTEX
  5
117A
  8
0
 10
70.7639605482535
 20
-45.0
 30
-89.5277492398975
 70
   192
  0
VERTEX
  5
117B
  8
0
 10
69.57103235877457
 20
-45.00000000000001
 30
-89.71219731950431
 70
   192
  0
VERTEX
  5
117C
  8
0
 10
68.36796201121786
 20
-45.0
 30
-89.80915560342369
 70
   192
  0
VERTEX
  5
117D
  8
0
 10
0.0
 20
0.0
 30
0.0
 70
   128
 71
     8
 72
     7
 73
     6
  0
VERTEX
  5
117E
  8
0
 10
0.0
 20
0.0
 30
0.0
 70
   128
 71
     6
 72
     9
 73
     8
  0
VERTEX
  5
117F
  8
0
 10
0.0
 20
0.0
 30
0.0
 70
   128
 71
     6
 72
    11
 73
     9
  0
VERTEX
  5
1180
  8
0
 10
0.0
 20
0.0
 30
0.0
 70
   128
 71
    11
 72
    10
 73
     9
  0
VERTEX
  5
1181
  8
0
 10
0.0
 20
0.0
 30
0.0
 70
   128
 71
     6
 72
     5
 73
    12
  0
VERTEX
  5
1182
  8
0
 10
0.0
 20
0.0
 30
0.0
 70
   128
 71
     6
 72
    12
 73
    11
  0
VERTEX
  5
1183
  8
0
 10
0.0
 20
0.0
 30
0.0
 70
   128
 71
     2
 72
     1
 73
    12
  0
VERTEX
  5
1184
  8
0
 10
0.0
 20
0.0
 30
0.0
 70
   128
 71
    12
 72
     3
 73
     2
  0
VERTEX
  5
1185
  8
0
 10
0.0
 20
0.0
 30
0.0
 70
   128
 71
    12
 72
     5
 73
     3
  0
VERTEX
  5
1186
  8
0
 10
0.0
 20
0.0
 30
0.0
 70
   128
 71
     5
 72
     4
 73
     3
  0
SEQEND
  5
12EE
  8
0
  0
POLYLINE
  5
1187
  8
0
 66
     1
 10
0.0
 20
0.0
 30
0.0
 70
    64
 71
    12
 72
    10
  0
VERTEX
  5
1188
  8
0
 10
-78.5668791509734
 20
-45.32588149812479
 30
-87.0503571328791
 70
   192
  0
VERTEX
  5
1189
  8
0
 10
-75.9713317254354
 20
-45.33414871099378
 30
-87.64904217064195
 70
   192
  0
VERTEX
  5
118A
  8
0
 10
-73.32007734402768
 20
-45.34233208524041
 30
-88.22647297353487
 70
   192
  0
VERTEX
  5
118B
  8
0
 10
-70.61310530574947
 20
-45.35037988816969
 30
-88.782541960378
 70
   192
  0
VERTEX
  5
118C
  8
0
 10
-70.65582723315386
 20
-45.16124727359878
 30
-88.99401625723358
 70
   192
  0
VERTEX
  5
118D
  8
0
 10
-70.70742497357936
 20
-45.04115884360306
 30
-89.24942598565104
 70
   192
  0
VERTEX
  5
118E
  8
0
 10
-70.76365112036922
 20
-45.0
 30
-89.52774640749709
 70
   192
  0
VERTEX
  5
118F
  8
0
 10
-72.14313618563638
 20
-45.00000000000001
 30
-89.244852701322
 70
   192
  0
VERTEX
  5
1190
  8
0
 10
-73.52088321963504
 20
-45.0
 30
-88.95373570880571
 70
   192
  0
VERTEX
  5
1191
  8
0
 10
-74.89684579386481
 20
-45.0
 30
-88.65417575906629
 70
   192
  0
VERTEX
  5
1192
  8
0
 10
-76.1192105091192
 20
-45.03691642449618
 30
-88.10482927028268
 70
   192
  0
VERTEX
  5
1193
  8
0
 10
-77.33584873140823
 20
-45.14671662154173
 30
-87.5656658736072
 70
   192
  0
VERTEX
  5
1194
  8
0
 10
0.0
 20
0.0
 30
0.0
 70
   128
 71
     8
 72
     7
 73
     6
  0
VERTEX
  5
1195
  8
0
 10
0.0
 20
0.0
 30
0.0
 70
   128
 71
     6
 72
    11
 73
     9
  0
VERTEX
  5
1196
  8
0
 10
0.0
 20
0.0
 30
0.0
 70
   128
 71
     6
 72
     9
 73
     8
  0
VERTEX
  5
1197
  8
0
 10
0.0
 20
0.0
 30
0.0
 70
   128
 71
    11
 72
    10
 73
     9
  0
VERTEX
  5
1198
  8
0
 10
0.0
 20
0.0
 30
0.0
 70
   128
 71
     6
 72
     5
 73
    12
  0
VERTEX
  5
1199
  8
0
 10
0.0
 20
0.0
 30
0.0
 70
   128
 71
     6
 72
    12
 73
    11
  0
VERTEX
  5
119A
  8
0
 10
0.0
 20
0.0
 30
0.0
 70
   128
 71
     2
 72
     1
 73
    12
  0
VERTEX
  5
119B
  8
0
 10
0.0
 20
0.0
 30
0.0
 70
   128
 71
     2
 72
    12
 73
     5
  0
VERTEX
  5
119C
  8
0
 10
0.0
 20
0.0
 30
0.0
 70
   128
 71
     5
 72
     3
 73
     2
  0
VERTEX
  5
119D
  8
0
 10
0.0
 20
0.0
 30
0.0
 70
   128
 71
     5
 72
     4
 73
     3
  0
SEQEND
  5
12EF
  8
0
  0
POLYLINE
  5
119E
  8
0
 66
     1
 10
0.0
 20
0.0
 30
0.0
 70
    64
 71
    12
 72
    10
  0
VERTEX
  5
119F
  8
0
 10
-67.15947006704889
 20
-45.8263518223331
 30
-88.85429187816507
 70
   192
  0
VERTEX
  5
11A0
  8
0
 10
-67.15947006704889
 20
-45.40284140829723
 30
-89.03697643842223
 70
   192
  0
VERTEX
  5
11A1
  8
0
 10
-67.15947006704889
 20
-45.10636735967659
 30
-89.39030045097682
 70
   192
  0
VERTEX
  5
11A2
  8
0
 10
-67.15947006704889
 20
-45.0
 30
-89.83909963117729
 70
   192
  0
VERTEX
  5
11A3
  8
0
 10
-68.36639183289145
 20
-44.99999999999999
 30
-89.80923509801025
 70
   192
  0
VERTEX
  5
11A4
  8
0
 10
-69.56967958881225
 20
-45.0
 30
-89.71229101309365
 70
   192
  0
VERTEX
  5
11A5
  8
0
 10
-70.76365112036912
 20
-45.0
 30
-89.5277464074971
 70
   192
  0
VERTEX
  5
11A6
  8
0
 10
-70.70742497357936
 20
-45.04115884360306
 30
-89.24942598565104
 70
   192
  0
VERTEX
  5
11A7
  8
0
 10
-70.65582723315386
 20
-45.16124727359878
 30
-88.99401625723358
 70
   192
  0
VERTEX
  5
11A8
  8
0
 10
-70.6131053057495
 20
-45.3503798881697
 30
-88.782541960378
 70
   192
  0
VERTEX
  5
11A9
  8
0
 10
-69.54161184387723
 20
-45.4986063937332
 30
-88.84427535568584
 70
   192
  0
VERTEX
  5
11AA
  8
0
 10
-68.33433829105974
 20
-45.66494734830349
 30
-88.86736630178106
 70
   192
  0
VERTEX
  5
11AB
  8
0
 10
0.0
 20
0.0
 30
0.0
 70
   128
 71
     8
 72
     7
 73
     6
  0
VERTEX
  5
11AC
  8
0
 10
0.0
 20
0.0
 30
0.0
 70
   128
 71
     6
 72
     9
 73
     8
  0
VERTEX
  5
11AD
  8
0
 10
0.0
 20
0.0
 30
0.0
 70
   128
 71
     6
 72
    11
 73
     9
  0
VERTEX
  5
11AE
  8
0
 10
0.0
 20
0.0
 30
0.0
 70
   128
 71
    11
 72
    10
 73
     9
  0
VERTEX
  5
11AF
  8
0
 10
0.0
 20
0.0
 30
0.0
 70
   128
 71
     6
 72
     5
 73
    12
  0
VERTEX
  5
11B0
  8
0
 10
0.0
 20
0.0
 30
0.0
 70
   128
 71
     6
 72
    12
 73
    11
  0
VERTEX
  5
11B1
  8
0
 10
0.0
 20
0.0
 30
0.0
 70
   128
 71
     2
 72
     1
 73
    12
  0
VERTEX
  5
11B2
  8
0
 10
0.0
 20
0.0
 30
0.0
 70
   128
 71
    12
 72
     3
 73
     2
  0
VERTEX
  5
11B3
  8
0
 10
0.0
 20
0.0
 30
0.0
 70
   128
 71
    12
 72
     5
 73
     3
  0
VERTEX
  5
11B4
  8
0
 10
0.0
 20
0.0
 30
0.0
 70
   128
 71
     5
 72
     4
 73
     3
  0
SEQEND
  5
12F0
  8
0
  0
POLYLINE
  5
11B5
  8
0
 66
     1
 10
0.0
 20
0.0
 30
0.0
 70
    64
 71
    12
 72
    10
  0
VERTEX
  5
11B6
  8
0
 10
-74.7647750339071
 20
-45.0
 30
88.65265319455261
 70
   192
  0
VERTEX
  5
11B7
  8
0
 10
-73.37715188409607
 20
-45.00000000000001
 30
88.95295858975098
 70
   192
  0
VERTEX
  5
11B8
  8
0
 10
-71.98773819270565
 20
-45.0
 30
89.24474000094996
 70
   192
  0
VERTEX
  5
11B9
  8
0
 10
-70.59658089715539
 20
-45.0
 30
89.52822087663941
 70
   192
  0
VERTEX
  5
11BA
  8
0
 10
-70.54069611014563
 20
-45.04116822264245
 30
89.24979940959663
 70
   192
  0
VERTEX
  5
11BB
  8
0
 10
-70.48941267784376
 20
-45.16128324545875
 30
88.99430217644117
 70
   192
  0
VERTEX
  5
11BC
  8
0
 10
-70.44695309576751
 20
-45.3504552244449
 30
88.7827659111312
 70
   192
  0
VERTEX
  5
11BD
  8
0
 10
-73.17257959916478
 20
-45.34237123638832
 30
88.22640811707132
 70
   192
  0
VERTEX
  5
11BE
  8
0
 10
-75.84193054173798
 20
-45.33414904724923
 30
87.6485445762914
 70
   192
  0
VERTEX
  5
11BF
  8
0
 10
-78.4550195174406
 20
-45.3258415122306
 30
87.04928074511199
 70
   192
  0
VERTEX
  5
11C0
  8
0
 10
-77.21750417787985
 20
-45.14661473203287
 30
87.5643271284892
 70
   192
  0
VERTEX
  5
11C1
  8
0
 10
-75.99417058656826
 20
-45.03694996985367
 30
88.10337974006391
 70
   192
  0
VERTEX
  5
11C2
  8
0
 10
0.0
 20
0.0
 30
0.0
 70
   128
 71
     8
 72
     7
 73
     6
  0
VERTEX
  5
11C3
  8
0
 10
0.0
 20
0.0
 30
0.0
 70
   128
 71
     6
 72
     9
 73
     8
  0
VERTEX
  5
11C4
  8
0
 10
0.0
 20
0.0
 30
0.0
 70
   128
 71
     6
 72
    11
 73
    10
  0
VERTEX
  5
11C5
  8
0
 10
0.0
 20
0.0
 30
0.0
 70
   128
 71
     6
 72
    10
 73
     9
  0
VERTEX
  5
11C6
  8
0
 10
0.0
 20
0.0
 30
0.0
 70
   128
 71
     6
 72
     5
 73
    12
  0
VERTEX
  5
11C7
  8
0
 10
0.0
 20
0.0
 30
0.0
 70
   128
 71
     6
 72
    12
 73
    11
  0
VERTEX
  5
11C8
  8
0
 10
0.0
 20
0.0
 30
0.0
 70
   128
 71
     2
 72
     1
 73
    12
  0
VERTEX
  5
11C9
  8
0
 10
0.0
 20
0.0
 30
0.0
 70
   128
 71
     2
 72
    12
 73
     5
  0
VERTEX
  5
11CA
  8
0
 10
0.0
 20
0.0
 30
0.0
 70
   128
 71
     5
 72
     3
 73
     2
  0
VERTEX
  5
11CB
  8
0
 10
0.0
 20
0.0
 30
0.0
 70
   128
 71
     5
 72
     4
 73
     3
  0
SEQEND
  5
12F1
  8
0
  0
POLYLINE
  5
11CC
  8
0
 66
     1
 10
0.0
 20
0.0
 30
0.0
 70
    64
 71
    12
 72
    10
  0
VERTEX
  5
11CD
  8
0
 10
-66.97507177086109
 20
-45.0
 30
89.83909963117729
 70
   192
  0
VERTEX
  5
11CE
  8
0
 10
-66.97507177086109
 20
-45.10636735967659
 30
89.39030045097682
 70
   192
  0
VERTEX
  5
11CF
  8
0
 10
-66.97507177086109
 20
-45.40284140829723
 30
89.03697643842223
 70
   192
  0
VERTEX
  5
11D0
  8
0
 10
-66.97507177086109
 20
-45.8263518223331
 30
88.8542918781651
 70
   192
  0
VERTEX
  5
11D1
  8
0
 10
-68.1563755364334
 20
-45.66495214057005
 30
88.86738296824117
 70
   192
  0
VERTEX
  5
11D2
  8
0
 10
-69.36993368141819
 20
-45.49855183475746
 30
88.84438801510666
 70
   192
  0
VERTEX
  5
11D3
  8
0
 10
-70.44695309576753
 20
-45.35045522444489
 30
88.78276591113116
 70
   192
  0
VERTEX
  5
11D4
  8
0
 10
-70.48941267784376
 20
-45.16128324545875
 30
88.99430217644117
 70
   192
  0
VERTEX
  5
11D5
  8
0
 10
-70.54069611014563
 20
-45.04116822264245
 30
89.24979940959663
 70
   192
  0
VERTEX
  5
11D6
  8
0
 10
-70.59658089715539
 20
-45.0
 30
89.52822087663941
 70
   192
  0
VERTEX
  5
11D7
  8
0
 10
-69.39634083635683
 20
-45.0
 30
89.71257243660556
 70
   192
  0
VERTEX
  5
11D8
  8
0
 10
-68.18857355153271
 20
-45.0
 30
89.80923736599169
 70
   192
  0
VERTEX
  5
11D9
  8
0
 10
0.0
 20
0.0
 30
0.0
 70
   128
 71
     8
 72
     7
 73
     6
  0
VERTEX
  5
11DA
  8
0
 10
0.0
 20
0.0
 30
0.0
 70
   128
 71
     6
 72
     9
 73
     8
  0
VERTEX
  5
11DB
  8
0
 10
0.0
 20
0.0
 30
0.0
 70
   128
 71
     6
 72
    11
 73
     9
  0
VERTEX
  5
11DC
  8
0
 10
0.0
 20
0.0
 30
0.0
 70
   128
 71
    11
 72
    10
 73
     9
  0
VERTEX
  5
11DD
  8
0
 10
0.0
 20
0.0
 30
0.0
 70
   128
 71
     6
 72
     5
 73
    12
  0
VERTEX
  5
11DE
  8
0
 10
0.0
 20
0.0
 30
0.0
 70
   128
 71
     6
 72
    12
 73
    11
  0
VERTEX
  5
11DF
  8
0
 10
0.0
 20
0.0
 30
0.0
 70
   128
 71
     2
 72
     1
 73
    12
  0
VERTEX
  5
11E0
  8
0
 10
0.0
 20
0.0
 30
0.0
 70
   128
 71
    12
 72
     3
 73
     2
  0
VERTEX
  5
11E1
  8
0
 10
0.0
 20
0.0
 30
0.0
 70
   128
 71
    12
 72
     5
 73
     3
  0
VERTEX
  5
11E2
  8
0
 10
0.0
 20
0.0
 30
0.0
 70
   128
 71
     5
 72
     4
 73
     3
  0
SEQEND
  5
12F2
  8
0
  0
POLYLINE
  5
11E3
  8
0
 66
     1
 10
0.0
 20
0.0
 30
0.0
 70
    64
 71
    12
 72
    10
  0
VERTEX
  5
11E4
  8
0
 10
78.5219319982106
 20
-45.32563605504941
 30
87.0341612911577
 70
   192
  0
VERTEX
  5
11E5
  8
0
 10
75.88922230106155
 20
-45.33400514351311
 30
87.63863009540351
 70
   192
  0
VERTEX
  5
11E6
  8
0
 10
73.19848803428575
 20
-45.34227747903746
 30
88.22152348770409
 70
   192
  0
VERTEX
  5
11E7
  8
0
 10
70.44972934973129
 20
-45.3504555775833
 30
88.7827665597316
 70
   192
  0
VERTEX
  5
11E8
  8
0
 10
70.49218826521235
 20
-45.16128341407808
 30
88.99430300166412
 70
   192
  0
VERTEX
  5
11E9
  8
0
 10
70.54347090430274
 20
-45.04116826660722
 30
89.24980050750423
 70
   192
  0
VERTEX
  5
11EA
  8
0
 10
70.5993548322857
 20
-45.0
 30
89.5282222983761
 70
   192
  0
VERTEX
  5
11EB
  8
0
 10
72.01218993770024
 20
-45.00000000000001
 30
89.240260816443
 70
   192
  0
VERTEX
  5
11EC
  8
0
 10
73.42322463214353
 20
-45.0
 30
88.94373435313274
 70
   192
  0
VERTEX
  5
11ED
  8
0
 10
74.832409648401
 20
-45.0
 30
88.6384085326333
 70
   192
  0
VERTEX
  5
11EE
  8
0
 10
76.06129145149245
 20
-45.03680091662947
 30
88.0889419405718
 70
   192
  0
VERTEX
  5
11EF
  8
0
 10
77.28437079508534
 20
-45.14649286031646
 30
87.54962636136791
 70
   192
  0
VERTEX
  5
11F0
  8
0
 10
0.0
 20
0.0
 30
0.0
 70
   128
 71
     8
 72
     7
 73
     6
  0
VERTEX
  5
11F1
  8
0
 10
0.0
 20
0.0
 30
0.0
 70
   128
 71
     6
 72
    11
 73
     9
  0
VERTEX
  5
11F2
  8
0
 10
0.0
 20
0.0
 30
0.0
 70
   128
 71
     6
 72
     9
 73
     8
  0
VERTEX
  5
11F3
  8
0
 10
0.0
 20
0.0
 30
0.0
 70
   128
 71
    11
 72
    10
 73
     9
  0
VERTEX
  5
11F4
  8
0
 10
0.0
 20
0.0
 30
0.0
 70
   128
 71
     6
 72
     5
 73
    12
  0
VERTEX
  5
11F5
  8
0
 10
0.0
 20
0.0
 30
0.0
 70
   128
 71
     6
 72
    12
 73
    11
  0
VERTEX
  5
11F6
  8
0
 10
0.0
 20
0.0
 30
0.0
 70
   128
 71
     2
 72
     1
 73
    12
  0
VERTEX
  5
11F7
  8
0
 10
0.0
 20
0.0
 30
0.0
 70
   128
 71
     2
 72
    12
 73
     5
  0
VERTEX
  5
11F8
  8
0
 10
0.0
 20
0.0
 30
0.0
 70
   128
 71
     5
 72
     3
 73
     2
  0
VERTEX
  5
11F9
  8
0
 10
0.0
 20
0.0
 30
0.0
 70
   128
 71
     5
 72
     4
 73
     3
  0
SEQEND
  5
12F3
  8
0
  0
POLYLINE
  5
11FA
  8
0
 66
     1
 10
0.0
 20
0.0
 30
0.0
 70
    64
 71
    12
 72
    10
  0
VERTEX
  5
11FB
  8
0
 10
66.9778018903285
 20
-45.8263518223331
 30
88.85429187816507
 70
   192
  0
VERTEX
  5
11FC
  8
0
 10
66.9778018903285
 20
-45.40284140829723
 30
89.03697643842223
 70
   192
  0
VERTEX
  5
11FD
  8
0
 10
66.9778018903285
 20
-45.10636735967659
 30
89.39030045097682
 70
   192
  0
VERTEX
  5
11FE
  8
0
 10
66.9778018903285
 20
-45.0
 30
89.83909963117729
 70
   192
  0
VERTEX
  5
11FF
  8
0
 10
68.19131814377441
 20
-45.00000000000001
 30
89.80923752677117
 70
   192
  0
VERTEX
  5
1200
  8
0
 10
69.39910002323694
 20
-45.0
 30
89.71257306407644
 70
   192
  0
VERTEX
  5
1201
  8
0
 10
70.59935483228566
 20
-45.00000000000001
 30
89.52822229837611
 70
   192
  0
VERTEX
  5
1202
  8
0
 10
70.54347090430274
 20
-45.04116826660722
 30
89.24980050750423
 70
   192
  0
VERTEX
  5
1203
  8
0
 10
70.49218826521235
 20
-45.16128341407808
 30
88.99430300166412
 70
   192
  0
VERTEX
  5
1204
  8
0
 10
70.4497293497313
 20
-45.3504555775833
 30
88.7827665597316
 70
   192
  0
VERTEX
  5
1205
  8
0
 10
69.37258585628518
 20
-45.4986648524867
 30
88.844362068098
 70
   192
  0
VERTEX
  5
1206
  8
0
 10
68.1589505454506
 20
-45.66497539603282
 30
88.86738186500887
 70
   192
  0
VERTEX
  5
1207
  8
0
 10
0.0
 20
0.0
 30
0.0
 70
   128
 71
     8
 72
     7
 73
     6
  0
VERTEX
  5
1208
  8
0
 10
0.0
 20
0.0
 30
0.0
 70
   128
 71
     6
 72
     9
 73
     8
  0
VERTEX
  5
1209
  8
0
 10
0.0
 20
0.0
 30
0.0
 70
   128
 71
     6
 72
    11
 73
     9
  0
VERTEX
  5
120A
  8
0
 10
0.0
 20
0.0
 30
0.0
 70
   128
 71
    11
 72
    10
 73
     9
  0
VERTEX
  5
120B
  8
0
 10
0.0
 20
0.0
 30
0.0
 70
   128
 71
     6
 72
     5
 73
    12
  0
VERTEX
  5
120C
  8
0
 10
0.0
 20
0.0
 30
0.0
 70
   128
 71
     6
 72
    12
 73
    11
  0
VERTEX
  5
120D
  8
0
 10
0.0
 20
0.0
 30
0.0
 70
   128
 71
     2
 72
     1
 73
    12
  0
VERTEX
  5
120E
  8
0
 10
0.0
 20
0.0
 30
0.0
 70
   128
 71
    12
 72
     3
 73
     2
  0
VERTEX
  5
120F
  8
0
 10
0.0
 20
0.0
 30
0.0
 70
   128
 71
    12
 72
     5
 73
     3
  0
VERTEX
  5
1210
  8
0
 10
0.0
 20
0.0
 30
0.0
 70
   128
 71
     5
 72
     4
 73
     3
  0
SEQEND
  5
12F4
  8
0
  0
POLYLINE
  5
1211
  8
0
 66
     1
 10
0.0
 20
0.0
 30
0.0
 70
    64
 71
     9
 72
     7
  0
VERTEX
  5
1212
  8
0
 10
112.575752713743
 20
-13.01
 30
89.61958178371862
 70
   192
  0
VERTEX
  5
1213
  8
0
 10
111.4711478827323
 20
-13.25977363024707
 30
90.08445067106582
 70
   192
  0
VERTEX
  5
1214
  8
0
 10
110.5504771574749
 20
-13.96750327674377
 30
90.47191156535861
 70
   192
  0
VERTEX
  5
1215
  8
0
 10
109.9670467175106
 20
-15.01534080413075
 30
90.7174461238327
 70
   192
  0
VERTEX
  5
1216
  8
0
 10
111.1548855367386
 20
-15.39712136114245
 30
92.66980699762416
 70
   192
  0
VERTEX
  5
1217
  8
0
 10
112.803137702777
 20
-16.29019446111128
 30
94.01428829353996
 70
   192
  0
VERTEX
  5
1218
  8
0
 10
114.8074804271288
 20
-17.5742212862617
 30
94.60055527417731
 70
   192
  0
VERTEX
  5
1219
  8
0
 10
113.8986661792208
 20
-15.26663065008944
 30
93.79975909217895
 70
   192
  0
VERTEX
  5
121A
  8
0
 10
113.1294257998616
 20
-13.62464303873587
 30
92.02138067051447
 70
   192
  0
VERTEX
  5
121B
  8
0
 10
0.0
 20
0.0
 30
0.0
 70
   128
 71
     8
 72
     7
 73
     6
  0
VERTEX
  5
121C
  8
0
 10
0.0
 20
0.0
 30
0.0
 70
   128
 71
     6
 72
     5
 73
     9
  0
VERTEX
  5
121D
  8
0
 10
0.0
 20
0.0
 30
0.0
 70
   128
 71
     6
 72
     9
 73
     8
  0
VERTEX
  5
121E
  8
0
 10
0.0
 20
0.0
 30
0.0
 70
   128
 71
     2
 72
     1
 73
     9
  0
VERTEX
  5
121F
  8
0
 10
0.0
 20
0.0
 30
0.0
 70
   128
 71
     9
 72
     3
 73
     2
  0
VERTEX
  5
1220
  8
0
 10
0.0
 20
0.0
 30
0.0
 70
   128
 71
     9
 72
     5
 73
     3
  0
VERTEX
  5
1221
  8
0
 10
0.0
 20
0.0
 30
0.0
 70
   128
 71
     5
 72
     4
 73
     3
  0
SEQEND
  5
12F5
  8
0
  0
POLYLINE
  5
1222
  8
0
 66
     1
 10
0.0
 20
0.0
 30
0.0
 70
    64
 71
    12
 72
    10
  0
VERTEX
  5
1223
  8
0
 10
112.575752713743
 20
-13.01
 30
89.6195817837186
 70
   192
  0
VERTEX
  5
1224
  8
0
 10
112.4103242507447
 20
-13.01
 30
89.08372448954505
 70
   192
  0
VERTEX
  5
1225
  8
0
 10
112.3532485827214
 20
-13.01
 30
88.52682671132101
 70
   192
  0
VERTEX
  5
1226
  8
0
 10
112.4053906399962
 20
-13.01000000000001
 30
87.97096981091326
 70
   192
  0
VERTEX
  5
1227
  8
0
 10
111.2034409131871
 20
-13.27099890008316
 30
87.74034060877864
 70
   192
  0
VERTEX
  5
1228
  8
0
 10
110.2106295574795
 20
-14.00858198310273
 30
87.54984071870012
 70
   192
  0
VERTEX
  5
1229
  8
0
 10
109.5997050207594
 20
-15.0944103334666
 30
87.43261698186329
 70
   192
  0
VERTEX
  5
122A
  8
0
 10
109.5172612804225
 20
-15.03224973847412
 30
88.55196777285408
 70
   192
  0
VERTEX
  5
122B
  8
0
 10
109.6402720129525
 20
-15.00604704388343
 30
89.64717283019952
 70
   192
  0
VERTEX
  5
122C
  8
0
 10
109.9670467175107
 20
-15.01534080413077
 30
90.71744612383279
 70
   192
  0
VERTEX
  5
122D
  8
0
 10
110.5504771574749
 20
-13.96750327674377
 30
90.47191156535861
 70
   192
  0
VERTEX
  5
122E
  8
0
 10
111.4711478827323
 20
-13.25977363024707
 30
90.08445067106582
 70
   192
  0
VERTEX
  5
122F
  8
0
 10
0.0
 20
0.0
 30
0.0
 70
   128
 71
     8
 72
     7
 73
     6
  0
VERTEX
  5
1230
  8
0
 10
0.0
 20
0.0
 30
0.0
 70
   128
 71
     8
 72
     6
 73
    11
  0
VERTEX
  5
1231
  8
0
 10
0.0
 20
0.0
 30
0.0
 70
   128
 71
    11
 72
     9
 73
     8
  0
VERTEX
  5
1232
  8
0
 10
0.0
 20
0.0
 30
0.0
 70
   128
 71
    11
 72
    10
 73
     9
  0
VERTEX
  5
1233
  8
0
 10
0.0
 20
0.0
 30
0.0
 70
   128
 71
     6
 72
     5
 73
    12
  0
VERTEX
  5
1234
  8
0
 10
0.0
 20
0.0
 30
0.0
 70
   128
 71
     6
 72
    12
 73
    11
  0
VERTEX
  5
1235
  8
0
 10
0.0
 20
0.0
 30
0.0
 70
   128
 71
     2
 72
     1
 73
    12
  0
VERTEX
  5
1236
  8
0
 10
0.0
 20
0.0
 30
0.0
 70
   128
 71
    12
 72
     3
 73
     2
  0
VERTEX
  5
1237
  8
0
 10
0.0
 20
0.0
 30
0.0
 70
   128
 71
    12
 72
     5
 73
     4
  0
VERTEX
  5
1238
  8
0
 10
0.0
 20
0.0
 30
0.0
 70
   128
 71
    12
 72
     4
 73
     3
  0
SEQEND
  5
12F6
  8
0
  0
POLYLINE
  5
1239
  8
0
 66
     1
 10
0.0
 20
0.0
 30
0.0
 70
    64
 71
    12
 72
    10
  0
VERTEX
  5
123A
  8
0
 10
112.4053906399962
 20
-13.01
 30
87.9709698109133
 70
   192
  0
VERTEX
  5
123B
  8
0
 10
112.8653506448521
 20
-13.01
 30
85.05481358292403
 70
   192
  0
VERTEX
  5
123C
  8
0
 10
113.1351948968521
 20
-13.01
 30
82.12098891578052
 70
   192
  0
VERTEX
  5
123D
  8
0
 10
113.2232848745146
 20
-13.01
 30
79.1702728848815
 70
   192
  0
VERTEX
  5
123E
  8
0
 10
111.8768873339132
 20
-13.32910207902976
 30
79.1702728848815
 70
   192
  0
VERTEX
  5
123F
  8
0
 10
110.8169152962495
 20
-14.21852422489163
 30
79.1702728848815
 70
   192
  0
VERTEX
  5
1240
  8
0
 10
110.268861615478
 20
-15.4890554669992
 30
79.1702728848815
 70
   192
  0
VERTEX
  5
1241
  8
0
 10
110.2112086793036
 20
-15.35222196699804
 30
81.97359207888921
 70
   192
  0
VERTEX
  5
1242
  8
0
 10
109.9825792107129
 20
-15.21809168931736
 30
84.78312829578655
 70
   192
  0
VERTEX
  5
1243
  8
0
 10
109.59970502076
 20
-15.09441033346671
 30
87.43261698186203
 70
   192
  0
VERTEX
  5
1244
  8
0
 10
110.2106295574795
 20
-14.00858198310273
 30
87.54984071870012
 70
   192
  0
VERTEX
  5
1245
  8
0
 10
111.2034409131871
 20
-13.27099890008316
 30
87.74034060877864
 70
   192
  0
VERTEX
  5
1246
  8
0
 10
0.0
 20
0.0
 30
0.0
 70
   128
 71
     8
 72
     7
 73
     6
  0
VERTEX
  5
1247
  8
0
 10
0.0
 20
0.0
 30
0.0
 70
   128
 71
     8
 72
     6
 73
    11
  0
VERTEX
  5
1248
  8
0
 10
0.0
 20
0.0
 30
0.0
 70
   128
 71
    11
 72
     9
 73
     8
  0
VERTEX
  5
1249
  8
0
 10
0.0
 20
0.0
 30
0.0
 70
   128
 71
    11
 72
    10
 73
     9
  0
VERTEX
  5
124A
  8
0
 10
0.0
 20
0.0
 30
0.0
 70
   128
 71
     6
 72
     5
 73
    12
  0
VERTEX
  5
124B
  8
0
 10
0.0
 20
0.0
 30
0.0
 70
   128
 71
     6
 72
    12
 73
    11
  0
VERTEX
  5
124C
  8
0
 10
0.0
 20
0.0
 30
0.0
 70
   128
 71
     2
 72
     1
 73
    12
  0
VERTEX
  5
124D
  8
0
 10
0.0
 20
0.0
 30
0.0
 70
   128
 71
    12
 72
     3
 73
     2
  0
VERTEX
  5
124E
  8
0
 10
0.0
 20
0.0
 30
0.0
 70
   128
 71
    12
 72
     5
 73
     4
  0
VERTEX
  5
124F
  8
0
 10
0.0
 20
0.0
 30
0.0
 70
   128
 71
    12
 72
     4
 73
     3
  0
SEQEND
  5
12F7
  8
0
  0
POLYLINE
  5
1250
  8
0
 66
     1
 10
0.0
 20
0.0
 30
0.0
 70
    64
 71
     8
 72
     6
  0
VERTEX
  5
1251
  8
0
 10
110.8169152962488
 20
-14.21852422489249
 30
-79.1808423702896
 70
   192
  0
VERTEX
  5
1252
  8
0
 10
111.8768873339127
 20
-13.32910207903
 30
-79.1808423702896
 70
   192
  0
VERTEX
  5
1253
  8
0
 10
111.8768873339132
 20
-13.32910207902976
 30
79.1702728848815
 70
   192
  0
VERTEX
  5
1254
  8
0
 10
110.8169152962495
 20
-14.21852422489163
 30
79.1702728848815
 70
   192
  0
VERTEX
  5
1255
  8
0
 10
113.2232848745146
 20
-13.01
 30
-79.1808423702896
 70
   192
  0
VERTEX
  5
1256
  8
0
 10
113.2232848745146
 20
-13.01
 30
79.1702728848815
 70
   192
  0
VERTEX
  5
1257
  8
0
 10
110.268861615478
 20
-15.4890554669992
 30
-79.1808423702882
 70
   192
  0
VERTEX
  5
1258
  8
0
 10
110.268861615478
 20
-15.4890554669992
 30
79.1702728848815
 70
   192
  0
VERTEX
  5
1259
  8
0
 10
0.0
 20
0.0
 30
0.0
 70
   128
 71
     1
 72
     2
 73
    -3
  0
VERTEX
  5
125A
  8
0
 10
0.0
 20
0.0
 30
0.0
 70
   128
 71
     4
 72
    -1
 73
     3
  0
VERTEX
  5
125B
  8
0
 10
0.0
 20
0.0
 30
0.0
 70
   128
 71
     2
 72
     5
 73
    -6
  0
VERTEX
  5
125C
  8
0
 10
0.0
 20
0.0
 30
0.0
 70
   128
 71
     3
 72
    -2
 73
     6
  0
VERTEX
  5
125D
  8
0
 10
0.0
 20
0.0
 30
0.0
 70
   128
 71
     7
 72
     1
 73
    -4
  0
VERTEX
  5
125E
  8
0
 10
0.0
 20
0.0
 30
0.0
 70
   128
 71
     8
 72
    -7
 73
     4
  0
SEQEND
  5
12F8
  8
0
  0
POLYLINE
  5
125F
  8
0
 66
     1
 10
0.0
 20
0.0
 30
0.0
 70
    64
 71
    12
 72
    10
  0
VERTEX
  5
1260
  8
0
 10
113.2232848745146
 20
-13.01
 30
-79.1808423702896
 70
   192
  0
VERTEX
  5
1261
  8
0
 10
113.1353507177545
 20
-13.01
 30
-82.12809210845357
 70
   192
  0
VERTEX
  5
1262
  8
0
 10
112.8659956099402
 20
-13.01
 30
-85.05849272146007
 70
   192
  0
VERTEX
  5
1263
  8
0
 10
112.406890594771
 20
-13.01
 30
-87.9712706733623
 70
   192
  0
VERTEX
  5
1264
  8
0
 10
111.2047448193427
 20
-13.27107398677154
 30
-87.74077158728939
 70
   192
  0
VERTEX
  5
1265
  8
0
 10
110.2118317040956
 20
-14.00885619604029
 30
-87.55039071144864
 70
   192
  0
VERTEX
  5
1266
  8
0
 10
109.6009671060398
 20
-15.09493613264435
 30
-87.4332637086806
 70
   192
  0
VERTEX
  5
1267
  8
0
 10
109.9828983056725
 20
-15.21843781516634
 30
-84.78909269390942
 70
   192
  0
VERTEX
  5
1268
  8
0
 10
110.2111352834871
 20
-15.35223766765738
 30
-81.98443005404904
 70
   192
  0
VERTEX
  5
1269
  8
0
 10
110.2688616154777
 20
-15.48905546700078
 30
-79.1808423702896
 70
   192
  0
VERTEX
  5
126A
  8
0
 10
110.8169152962488
 20
-14.21852422489249
 30
-79.1808423702896
 70
   192
  0
VERTEX
  5
126B
  8
0
 10
111.8768873339127
 20
-13.32910207903
 30
-79.1808423702896
 70
   192
  0
VERTEX
  5
126C
  8
0
 10
0.0
 20
0.0
 30
0.0
 70
   128
 71
     8
 72
     7
 73
     6
  0
VERTEX
  5
126D
  8
0
 10
0.0
 20
0.0
 30
0.0
 70
   128
 71
     6
 72
     9
 73
     8
  0
VERTEX
  5
126E
  8
0
 10
0.0
 20
0.0
 30
0.0
 70
   128
 71
     6
 72
    11
 73
    10
  0
VERTEX
  5
126F
  8
0
 10
0.0
 20
0.0
 30
0.0
 70
   128
 71
     6
 72
    10
 73
     9
  0
VERTEX
  5
1270
  8
0
 10
0.0
 20
0.0
 30
0.0
 70
   128
 71
     6
 72
     5
 73
    12
  0
VERTEX
  5
1271
  8
0
 10
0.0
 20
0.0
 30
0.0
 70
   128
 71
     6
 72
    12
 73
    11
  0
VERTEX
  5
1272
  8
0
 10
0.0
 20
0.0
 30
0.0
 70
   128
 71
     2
 72
     1
 73
    12
  0
VERTEX
  5
1273
  8
0
 10
0.0
 20
0.0
 30
0.0
 70
   128
 71
     2
 72
    12
 73
     5
  0
VERTEX
  5
1274
  8
0
 10
0.0
 20
0.0
 30
0.0
 70
   128
 71
     5
 72
     3
 73
     2
  0
VERTEX
  5
1275
  8
0
 10
0.0
 20
0.0
 30
0.0
 70
   128
 71
     5
 72
     4
 73
     3
  0
SEQEND
  5
12F9
  8
0
  0
POLYLINE
  5
1276
  8
0
 66
     1
 10
0.0
 20
0.0
 30
0.0
 70
    64
 71
    12
 72
    10
  0
VERTEX
  5
1277
  8
0
 10
112.406890594771
 20
-13.01
 30
-87.9712706733623
 70
   192
  0
VERTEX
  5
1278
  8
0
 10
112.3549683997031
 20
-13.01
 30
-88.52967525056593
 70
   192
  0
VERTEX
  5
1279
  8
0
 10
112.4123076923569
 20
-13.01
 30
-89.0864181671971
 70
   192
  0
VERTEX
  5
127A
  8
0
 10
112.5773277500044
 20
-13.01
 30
-89.61958178371852
 70
   192
  0
VERTEX
  5
127B
  8
0
 10
111.4725601874972
 20
-13.25984839492317
 30
-90.08450627428144
 70
   192
  0
VERTEX
  5
127C
  8
0
 10
110.5518088931604
 20
-13.96777743272889
 30
-90.47199033969262
 70
   192
  0
VERTEX
  5
127D
  8
0
 10
109.9684393556704
 20
-15.01587049087395
 30
-90.71749246541751
 70
   192
  0
VERTEX
  5
127E
  8
0
 10
109.6426132252122
 20
-15.00647479118939
 30
-89.65302154705098
 70
   192
  0
VERTEX
  5
127F
  8
0
 10
109.5191007818987
 20
-15.03271893670277
 30
-88.55805035710803
 70
   192
  0
VERTEX
  5
1280
  8
0
 10
109.6009671060397
 20
-15.09493613264432
 30
-87.4332637086806
 70
   192
  0
VERTEX
  5
1281
  8
0
 10
110.2118317040956
 20
-14.00885619604029
 30
-87.55039071144864
 70
   192
  0
VERTEX
  5
1282
  8
0
 10
111.2047448193427
 20
-13.27107398677154
 30
-87.74077158728939
 70
   192
  0
VERTEX
  5
1283
  8
0
 10
0.0
 20
0.0
 30
0.0
 70
   128
 71
     8
 72
     7
 73
     6
  0
VERTEX
  5
1284
  8
0
 10
0.0
 20
0.0
 30
0.0
 70
   128
 71
     8
 72
     6
 73
    11
  0
VERTEX
  5
1285
  8
0
 10
0.0
 20
0.0
 30
0.0
 70
   128
 71
    11
 72
     9
 73
     8
  0
VERTEX
  5
1286
  8
0
 10
0.0
 20
0.0
 30
0.0
 70
   128
 71
    11
 72
    10
 73
     9
  0
VERTEX
  5
1287
  8
0
 10
0.0
 20
0.0
 30
0.0
 70
   128
 71
     6
 72
     5
 73
    12
  0
VERTEX
  5
1288
  8
0
 10
0.0
 20
0.0
 30
0.0
 70
   128
 71
     6
 72
    12
 73
    11
  0
VERTEX
  5
1289
  8
0
 10
0.0
 20
0.0
 30
0.0
 70
   128
 71
     2
 72
     1
 73
    12
  0
VERTEX
  5
128A
  8
0
 10
0.0
 20
0.0
 30
0.0
 70
   128
 71
     2
 72
    12
 73
     5
  0
VERTEX
  5
128B
  8
0
 10
0.0
 20
0.0
 30
0.0
 70
   128
 71
     5
 72
     3
 73
     2
  0
VERTEX
  5
128C
  8
0
 10
0.0
 20
0.0
 30
0.0
 70
   128
 71
     5
 72
     4
 73
     3
  0
SEQEND
  5
12FA
  8
0
  0
POLYLINE
  5
128D
  8
0
 66
     1
 10
0.0
 20
0.0
 30
0.0
 70
    64
 71
     9
 72
     7
  0
VERTEX
  5
128E
  8
0
 10
112.5773277500044
 20
-13.01
 30
-89.61958178371852
 70
   192
  0
VERTEX
  5
128F
  8
0
 10
113.1310394600589
 20
-13.62467750002673
 30
-92.02142562400708
 70
   192
  0
VERTEX
  5
1290
  8
0
 10
113.9003971036741
 20
-15.26667982122282
 30
-93.79979631144064
 70
   192
  0
VERTEX
  5
1291
  8
0
 10
114.8093050750674
 20
-17.5742212862617
 30
-94.60055527417721
 70
   192
  0
VERTEX
  5
1292
  8
0
 10
112.8250311088531
 20
-16.30176650108674
 30
-94.02502001656404
 70
   192
  0
VERTEX
  5
1293
  8
0
 10
111.156295446118
 20
-15.39750722055163
 30
-92.66978234410635
 70
   192
  0
VERTEX
  5
1294
  8
0
 10
109.9684393556696
 20
-15.01587049087365
 30
-90.71749246541786
 70
   192
  0
VERTEX
  5
1295
  8
0
 10
110.5518088931604
 20
-13.96777743272889
 30
-90.47199033969262
 70
   192
  0
VERTEX
  5
1296
  8
0
 10
111.4725601874972
 20
-13.25984839492317
 30
-90.08450627428144
 70
   192
  0
VERTEX
  5
1297
  8
0
 10
0.0
 20
0.0
 30
0.0
 70
   128
 71
     5
 72
     4
 73
     8
  0
VERTEX
  5
1298
  8
0
 10
0.0
 20
0.0
 30
0.0
 70
   128
 71
     8
 72
     7
 73
     5
  0
VERTEX
  5
1299
  8
0
 10
0.0
 20
0.0
 30
0.0
 70
   128
 71
     7
 72
     6
 73
     5
  0
VERTEX
  5
129A
  8
0
 10
0.0
 20
0.0
 30
0.0
 70
   128
 71
     4
 72
     9
 73
     8
  0
VERTEX
  5
129B
  8
0
 10
0.0
 20
0.0
 30
0.0
 70
   128
 71
     2
 72
     1
 73
     9
  0
VERTEX
  5
129C
  8
0
 10
0.0
 20
0.0
 30
0.0
 70
   128
 71
     9
 72
     3
 73
     2
  0
VERTEX
  5
129D
  8
0
 10
0.0
 20
0.0
 30
0.0
 70
   128
 71
     9
 72
     4
 73
     3
  0
SEQEND
  5
12FB
  8
0
  0
ENDBLK
  5
129F
  8
0
  0
ENDSEC
  0
SECTION
  2
ENTITIES
  0
INSERT
  5
BE
  8
0
  2
*X1
 10
0.0
 20
0.0
 30
0.0
  0
ENDSEC
  0
EOF
