  0
SECTION
  2
HEADER
  9
$ACADVER
  1
AC1009
  9
$DWGCODEPAGE
  3
ansi_1250
  9
$INSBASE
 10
0.0
 20
0.0
 30
0.0
  9
$EXTMIN
 10
-378.0000000000002
 20
-480.0
 30
-25.0
  9
$EXTMAX
 10
378.0000000000002
 20
480.0000000000001
 30
25.0
  9
$LIMMIN
 10
0.0
 20
0.0
  9
$LIMMAX
 10
420.0
 20
297.0
  9
$ORTHOMODE
 70
     0
  9
$REGENMODE
 70
     1
  9
$FILLMODE
 70
     1
  9
$QTEXTMODE
 70
     0
  9
$MIRRTEXT
 70
     0
  9
$DRAGMODE
 70
     2
  9
$LTSCALE
 40
1.0
  9
$OSMODE
 70
   511
  9
$ATTMODE
 70
     1
  9
$TEXTSIZE
 40
2.5
  9
$TRACEWID
 40
1.0
  9
$TEXTSTYLE
  7
STANDARD
  9
$CLAYER
  8
0
  9
$CELTYPE
  6
BYLAYER
  9
$CECOLOR
 62
   256
  9
$DIMSCALE
 40
1.0
  9
$DIMASZ
 40
2.5
  9
$DIMEXO
 40
0.625
  9
$DIMDLI
 40
3.75
  9
$DIMRND
 40
0.0
  9
$DIMDLE
 40
0.0
  9
$DIMEXE
 40
1.25
  9
$DIMTP
 40
0.0
  9
$DIMTM
 40
0.0
  9
$DIMTXT
 40
2.5
  9
$DIMCEN
 40
-2.5
  9
$DIMTSZ
 40
0.0
  9
$DIMTOL
 70
     0
  9
$DIMLIM
 70
     0
  9
$DIMTIH
 70
     0
  9
$DIMTOH
 70
     0
  9
$DIMSE1
 70
     0
  9
$DIMSE2
 70
     0
  9
$DIMTAD
 70
     1
  9
$DIMZIN
 70
     8
  9
$DIMBLK
  1

  9
$DIMASO
 70
     1
  9
$DIMSHO
 70
     1
  9
$DIMPOST
  1

  9
$DIMAPOST
  1

  9
$DIMALT
 70
     0
  9
$DIMALTD
 70
     3
  9
$DIMALTF
 40
0.03937007874016
  9
$DIMLFAC
 40
1.0
  9
$DIMTOFL
 70
     1
  9
$DIMTVP
 40
0.0
  9
$DIMTIX
 70
     0
  9
$DIMSOXD
 70
     0
  9
$DIMSAH
 70
     0
  9
$DIMBLK1
  1

  9
$DIMBLK2
  1

  9
$DIMSTYLE
  2
ISO-25
  9
$DIMCLRD
 70
     0
  9
$DIMCLRE
 70
     0
  9
$DIMCLRT
 70
     0
  9
$DIMTFAC
 40
1.0
  9
$DIMGAP
 40
0.625
  9
$LUNITS
 70
     2
  9
$LUPREC
 70
     3
  9
$SKETCHINC
 40
1.0
  9
$FILLETRAD
 40
10.0
  9
$AUNITS
 70
     0
  9
$AUPREC
 70
     0
  9
$MENU
  1
.
  9
$ELEVATION
 40
0.0
  9
$PELEVATION
 40
0.0
  9
$THICKNESS
 40
0.0
  9
$LIMCHECK
 70
     0
  9
$CHAMFERA
 40
10.0
  9
$CHAMFERB
 40
10.0
  9
$SKPOLY
 70
     0
  9
$TDCREATE
 40
2455022.679026181
  9
$TDUPDATE
 40
2460357.440185752
  9
$TDINDWG
 40
0.0642836806
  9
$TDUSRTIMER
 40
0.0642836806
  9
$USRTIMER
 70
     1
  9
$ANGBASE
 50
0.0
  9
$ANGDIR
 70
     0
  9
$PDMODE
 70
     0
  9
$PDSIZE
 40
0.0
  9
$PLINEWID
 40
0.0
  9
$COORDS
 70
     1
  9
$SPLFRAME
 70
     0
  9
$SPLINETYPE
 70
     6
  9
$SPLINESEGS
 70
     8
  9
$ATTDIA
 70
     0
  9
$ATTREQ
 70
     1
  9
$HANDLING
 70
     1
  9
$HANDSEED
  5
FC4
  9
$SURFTAB1
 70
     6
  9
$SURFTAB2
 70
     6
  9
$SURFTYPE
 70
     6
  9
$SURFU
 70
     6
  9
$SURFV
 70
     6
  9
$UCSNAME
  2

  9
$UCSORG
 10
0.0
 20
0.0
 30
0.0
  9
$UCSXDIR
 10
1.0
 20
0.0
 30
0.0
  9
$UCSYDIR
 10
0.0
 20
1.0
 30
0.0
  9
$PUCSNAME
  2

  9
$PUCSORG
 10
0.0
 20
0.0
 30
0.0
  9
$PUCSXDIR
 10
1.0
 20
0.0
 30
0.0
  9
$PUCSYDIR
 10
0.0
 20
1.0
 30
0.0
  9
$USERI1
 70
     0
  9
$USERI2
 70
     0
  9
$USERI3
 70
     0
  9
$USERI4
 70
     0
  9
$USERI5
 70
     0
  9
$USERR1
 40
0.0
  9
$USERR2
 40
0.0
  9
$USERR3
 40
0.0
  9
$USERR4
 40
0.0
  9
$USERR5
 40
0.0
  9
$WORLDVIEW
 70
     1
  9
$SHADEDGE
 70
     3
  9
$SHADEDIF
 70
    70
  9
$TILEMODE
 70
     1
  9
$MAXACTVP
 70
    64
  9
$PLIMCHECK
 70
     0
  9
$PEXTMIN
 10
1.000000000000000E+20
 20
1.000000000000000E+20
 30
1.000000000000000E+20
  9
$PEXTMAX
 10
-1.000000000000000E+20
 20
-1.000000000000000E+20
 30
-1.000000000000000E+20
  9
$PLIMMIN
 10
0.0
 20
0.0
  9
$PLIMMAX
 10
0.0
 20
0.0
  9
$UNITMODE
 70
     0
  9
$VISRETAIN
 70
     1
  9
$PLINEGEN
 70
     0
  9
$PSLTSCALE
 70
     1
  0
ENDSEC
  0
SECTION
  2
TABLES
  0
TABLE
  2
VPORT
 70
     1
  0
VPORT
  2
*ACTIVE
 70
     0
 10
0.0
 20
0.0
 11
1.0
 21
1.0
 12
0.0
 22
0.0
 13
0.0
 23
0.0
 14
10.0
 24
10.0
 15
10.0
 25
10.0
 16
0.0
 26
0.0
 36
1.0
 17
0.0
 27
0.0000000000000568
 37
-0.0000000000000036
 40
979.2000000000002
 41
1.89041095890411
 42
50.0
 43
0.0
 44
0.0
 50
0.0
 51
0.0
 71
    16
 72
  1000
 73
     1
 74
     3
 75
     0
 76
     0
 77
     0
 78
     0
  0
ENDTAB
  0
TABLE
  2
LTYPE
 70
     1
  0
LTYPE
  2
CONTINUOUS
 70
     0
  3
Solid line
 72
    65
 73
     0
 40
0.0
  0
ENDTAB
  0
TABLE
  2
LAYER
 70
     1
  0
LAYER
  2
0
 70
     0
 62
     7
  6
CONTINUOUS
  0
ENDTAB
  0
TABLE
  2
STYLE
 70
     2
  0
STYLE
  2
STANDARD
 70
     0
 40
0.0
 41
1.0
 50
0.0
 71
     0
 42
2.5
  3
arial.ttf
  4

  0
STYLE
  2
ANNOTATIVE
 70
     0
 40
0.0
 41
1.0
 50
0.0
 71
     0
 42
2.5
  3
arial.ttf
  4

  0
ENDTAB
  0
TABLE
  2
VIEW
 70
     0
  0
ENDTAB
  0
TABLE
  2
UCS
 70
     0
  0
ENDTAB
  0
TABLE
  2
APPID
 70
     2
  0
APPID
  2
ACAD
 70
     0
  0
APPID
  2
ACADANNOTATIVE
 70
     0
  0
ENDTAB
  0
TABLE
  2
DIMSTYLE
 70
     2
  0
DIMSTYLE
  2
ISO-25
 70
     0
  3

  4

  5

  6

  7

 40
1.0
 41
2.5
 42
0.625
 43
3.75
 44
1.25
 45
0.0
 46
0.0
 47
0.0
 48
0.0
140
2.5
141
-2.5
142
0.0
143
0.03937007874016
144
1.0
145
0.0
146
1.0
147
0.625
 71
     0
 72
     0
 73
     0
 74
     0
 75
     0
 76
     0
 77
     1
 78
     8
170
     0
171
     3
172
     1
173
     0
174
     0
175
     0
176
     0
177
     0
178
     0
  0
DIMSTYLE
  2
ANNOTATIVE
 70
     0
  3

  4

  5

  6

  7

 40
0.0
 41
2.5
 42
0.625
 43
3.75
 44
1.25
 45
0.0
 46
0.0
 47
0.0
 48
0.0
140
2.5
141
-2.5
142
0.0
143
0.03937007874016
144
1.0
145
0.0
146
1.0
147
0.625
 71
     0
 72
     0
 73
     0
 74
     0
 75
     0
 76
     0
 77
     1
 78
     8
170
     0
171
     3
172
     1
173
     0
174
     0
175
     0
176
     0
177
     0
178
     0
  0
ENDTAB
  0
ENDSEC
  0
SECTION
  2
BLOCKS
  0
BLOCK
  8
0
  2
$MODEL_SPACE
 70
     0
 10
0.0
 20
0.0
 30
0.0
  3
$MODEL_SPACE
  1

  0
ENDBLK
  5
21
  8
0
  0
BLOCK
 67
     1
  8
0
  2
$PAPER_SPACE
 70
     0
 10
0.0
 20
0.0
 30
0.0
  3
$PAPER_SPACE
  1

  0
ENDBLK
  5
1D
 67
     1
  8
0
  0
BLOCK
  8
0
  2
*X1
 70
     1
 10
0.0
 20
0.0
 30
0.0
  3
*X1
  1

  0
POLYLINE
  5
849
  8
0
 66
     1
 10
0.0
 20
0.0
 30
0.0
 70
    64
 71
     4
 72
     2
  0
VERTEX
  5
84A
  8
0
 10
132.5
 20
75.09999999999997
 30
-25.0
 70
   192
  0
VERTEX
  5
84B
  8
0
 10
132.5
 20
75.09999999999997
 30
-24.00000000000001
 70
   192
  0
VERTEX
  5
84C
  8
0
 10
85.0
 20
75.09999999999997
 30
-24.0
 70
   192
  0
VERTEX
  5
84D
  8
0
 10
85.0
 20
75.09999999999997
 30
-25.0
 70
   192
  0
VERTEX
  5
84E
  8
0
 10
0.0
 20
0.0
 30
0.0
 70
   128
 71
     3
 72
     4
 73
    -1
  0
VERTEX
  5
84F
  8
0
 10
0.0
 20
0.0
 30
0.0
 70
   128
 71
     2
 72
    -3
 73
     1
  0
SEQEND
  5
F67
  8
0
  0
POLYLINE
  5
850
  8
0
 66
     1
 10
0.0
 20
0.0
 30
0.0
 70
    64
 71
     8
 72
     6
  0
VERTEX
  5
851
  8
0
 10
85.0
 20
115.1
 30
-25.0
 70
   192
  0
VERTEX
  5
852
  8
0
 10
85.0
 20
75.09999999999997
 30
-25.0
 70
   192
  0
VERTEX
  5
853
  8
0
 10
85.0
 20
75.09999999999997
 30
-24.0
 70
   192
  0
VERTEX
  5
854
  8
0
 10
85.0
 20
114.1
 30
-24.0
 70
   192
  0
VERTEX
  5
855
  8
0
 10
85.0
 20
114.1
 30
-1.0
 70
   192
  0
VERTEX
  5
856
  8
0
 10
85.0
 20
40.09999999999998
 30
-1.0
 70
   192
  0
VERTEX
  5
857
  8
0
 10
85.0
 20
40.09999999999998
 30
0.0
 70
   192
  0
VERTEX
  5
858
  8
0
 10
85.0
 20
115.1
 30
0.0
 70
   192
  0
VERTEX
  5
859
  8
0
 10
0.0
 20
0.0
 30
0.0
 70
   128
 71
     2
 72
     3
 73
    -4
  0
VERTEX
  5
85A
  8
0
 10
0.0
 20
0.0
 30
0.0
 70
   128
 71
     1
 72
    -2
 73
    -4
  0
VERTEX
  5
85B
  8
0
 10
0.0
 20
0.0
 30
0.0
 70
   128
 71
    -5
 72
     8
 73
    -1
  0
VERTEX
  5
85C
  8
0
 10
0.0
 20
0.0
 30
0.0
 70
   128
 71
     4
 72
    -5
 73
    -1
  0
VERTEX
  5
85D
  8
0
 10
0.0
 20
0.0
 30
0.0
 70
   128
 71
     6
 72
     7
 73
    -8
  0
VERTEX
  5
85E
  8
0
 10
0.0
 20
0.0
 30
0.0
 70
   128
 71
     5
 72
    -6
 73
    -8
  0
SEQEND
  5
F68
  8
0
  0
POLYLINE
  5
85F
  8
0
 66
     1
 10
0.0
 20
0.0
 30
0.0
 70
    64
 71
     4
 72
     2
  0
VERTEX
  5
860
  8
0
 10
185.0
 20
115.1
 30
-25.0
 70
   192
  0
VERTEX
  5
861
  8
0
 10
85.0
 20
115.1
 30
-25.0
 70
   192
  0
VERTEX
  5
862
  8
0
 10
85.0
 20
115.1
 30
0.0
 70
   192
  0
VERTEX
  5
863
  8
0
 10
185.0
 20
115.1
 30
0.0
 70
   192
  0
VERTEX
  5
864
  8
0
 10
0.0
 20
0.0
 30
0.0
 70
   128
 71
     3
 72
     4
 73
    -1
  0
VERTEX
  5
865
  8
0
 10
0.0
 20
0.0
 30
0.0
 70
   128
 71
     2
 72
    -3
 73
     1
  0
SEQEND
  5
F69
  8
0
  0
POLYLINE
  5
866
  8
0
 66
     1
 10
0.0
 20
0.0
 30
0.0
 70
    64
 71
     8
 72
     6
  0
VERTEX
  5
867
  8
0
 10
132.5000000000001
 20
110.1
 30
-25.0
 70
   192
  0
VERTEX
  5
868
  8
0
 10
132.5
 20
75.09999999999997
 30
-25.0
 70
   192
  0
VERTEX
  5
869
  8
0
 10
85.0
 20
75.09999999999997
 30
-25.0
 70
   192
  0
VERTEX
  5
86A
  8
0
 10
85.0
 20
115.1
 30
-25.0
 70
   192
  0
VERTEX
  5
86B
  8
0
 10
185.0
 20
115.1
 30
-25.0
 70
   192
  0
VERTEX
  5
86C
  8
0
 10
185.0
 20
75.09999999999997
 30
-25.0
 70
   192
  0
VERTEX
  5
86D
  8
0
 10
137.5
 20
75.09999999999997
 30
-25.0
 70
   192
  0
VERTEX
  5
86E
  8
0
 10
137.5
 20
110.1
 30
-25.0
 70
   192
  0
VERTEX
  5
86F
  8
0
 10
0.0
 20
0.0
 30
0.0
 70
   128
 71
     6
 72
     7
 73
    -8
  0
VERTEX
  5
870
  8
0
 10
0.0
 20
0.0
 30
0.0
 70
   128
 71
     5
 72
    -6
 73
    -8
  0
VERTEX
  5
871
  8
0
 10
0.0
 20
0.0
 30
0.0
 70
   128
 71
    -1
 72
     4
 73
    -5
  0
VERTEX
  5
872
  8
0
 10
0.0
 20
0.0
 30
0.0
 70
   128
 71
     8
 72
    -1
 73
    -5
  0
VERTEX
  5
873
  8
0
 10
0.0
 20
0.0
 30
0.0
 70
   128
 71
     2
 72
     3
 73
    -4
  0
VERTEX
  5
874
  8
0
 10
0.0
 20
0.0
 30
0.0
 70
   128
 71
     1
 72
    -2
 73
    -4
  0
SEQEND
  5
F6A
  8
0
  0
POLYLINE
  5
875
  8
0
 66
     1
 10
0.0
 20
0.0
 30
0.0
 70
    64
 71
     4
 72
     2
  0
VERTEX
  5
876
  8
0
 10
85.0
 20
115.1
 30
0.0
 70
   192
  0
VERTEX
  5
877
  8
0
 10
85.0
 20
40.09999999999998
 30
0.0
 70
   192
  0
VERTEX
  5
878
  8
0
 10
185.0
 20
40.09999999999998
 30
0.0
 70
   192
  0
VERTEX
  5
879
  8
0
 10
185.0
 20
115.1
 30
0.0
 70
   192
  0
VERTEX
  5
87A
  8
0
 10
0.0
 20
0.0
 30
0.0
 70
   128
 71
     3
 72
     4
 73
    -1
  0
VERTEX
  5
87B
  8
0
 10
0.0
 20
0.0
 30
0.0
 70
   128
 71
     2
 72
    -3
 73
     1
  0
SEQEND
  5
F6B
  8
0
  0
POLYLINE
  5
87C
  8
0
 66
     1
 10
0.0
 20
0.0
 30
0.0
 70
    64
 71
     4
 72
     2
  0
VERTEX
  5
87D
  8
0
 10
85.0
 20
40.09999999999998
 30
0.0
 70
   192
  0
VERTEX
  5
87E
  8
0
 10
85.0
 20
40.09999999999998
 30
-1.0
 70
   192
  0
VERTEX
  5
87F
  8
0
 10
185.0
 20
40.09999999999998
 30
-1.0
 70
   192
  0
VERTEX
  5
880
  8
0
 10
185.0
 20
40.09999999999998
 30
0.0
 70
   192
  0
VERTEX
  5
881
  8
0
 10
0.0
 20
0.0
 30
0.0
 70
   128
 71
     3
 72
     4
 73
    -1
  0
VERTEX
  5
882
  8
0
 10
0.0
 20
0.0
 30
0.0
 70
   128
 71
     2
 72
    -3
 73
     1
  0
SEQEND
  5
F6C
  8
0
  0
POLYLINE
  5
883
  8
0
 66
     1
 10
0.0
 20
0.0
 30
0.0
 70
    64
 71
     4
 72
     2
  0
VERTEX
  5
884
  8
0
 10
85.0
 20
40.09999999999998
 30
-1.0
 70
   192
  0
VERTEX
  5
885
  8
0
 10
185.0
 20
40.09999999999998
 30
-1.0
 70
   192
  0
VERTEX
  5
886
  8
0
 10
185.0
 20
114.1
 30
-1.0
 70
   192
  0
VERTEX
  5
887
  8
0
 10
85.0
 20
114.1
 30
-1.0
 70
   192
  0
VERTEX
  5
888
  8
0
 10
0.0
 20
0.0
 30
0.0
 70
   128
 71
     1
 72
     4
 73
    -3
  0
VERTEX
  5
889
  8
0
 10
0.0
 20
0.0
 30
0.0
 70
   128
 71
    -1
 72
     3
 73
     2
  0
SEQEND
  5
F6D
  8
0
  0
POLYLINE
  5
88A
  8
0
 66
     1
 10
0.0
 20
0.0
 30
0.0
 70
    64
 71
     4
 72
     2
  0
VERTEX
  5
88B
  8
0
 10
85.0
 20
114.1
 30
-24.0
 70
   192
  0
VERTEX
  5
88C
  8
0
 10
85.0
 20
114.1
 30
-1.0
 70
   192
  0
VERTEX
  5
88D
  8
0
 10
185.0
 20
114.1
 30
-1.0
 70
   192
  0
VERTEX
  5
88E
  8
0
 10
185.0
 20
114.1
 30
-24.0
 70
   192
  0
VERTEX
  5
88F
  8
0
 10
0.0
 20
0.0
 30
0.0
 70
   128
 71
     1
 72
     4
 73
    -3
  0
VERTEX
  5
890
  8
0
 10
0.0
 20
0.0
 30
0.0
 70
   128
 71
    -1
 72
     3
 73
     2
  0
SEQEND
  5
F6E
  8
0
  0
POLYLINE
  5
891
  8
0
 66
     1
 10
0.0
 20
0.0
 30
0.0
 70
    64
 71
     8
 72
     6
  0
VERTEX
  5
892
  8
0
 10
185.0
 20
75.09999999999997
 30
-25.0
 70
   192
  0
VERTEX
  5
893
  8
0
 10
185.0
 20
75.09999999999997
 30
-24.0
 70
   192
  0
VERTEX
  5
894
  8
0
 10
185.0
 20
114.1
 30
-24.0
 70
   192
  0
VERTEX
  5
895
  8
0
 10
185.0
 20
114.1
 30
-1.0
 70
   192
  0
VERTEX
  5
896
  8
0
 10
185.0
 20
40.09999999999998
 30
-1.0
 70
   192
  0
VERTEX
  5
897
  8
0
 10
185.0
 20
40.09999999999998
 30
0.0
 70
   192
  0
VERTEX
  5
898
  8
0
 10
185.0
 20
115.1
 30
0.0
 70
   192
  0
VERTEX
  5
899
  8
0
 10
185.0
 20
115.1
 30
-25.0
 70
   192
  0
VERTEX
  5
89A
  8
0
 10
0.0
 20
0.0
 30
0.0
 70
   128
 71
     3
 72
     2
 73
    -1
  0
VERTEX
  5
89B
  8
0
 10
0.0
 20
0.0
 30
0.0
 70
   128
 71
    -3
 72
     1
 73
    -8
  0
VERTEX
  5
89C
  8
0
 10
0.0
 20
0.0
 30
0.0
 70
   128
 71
     8
 72
    -7
 73
    -4
  0
VERTEX
  5
89D
  8
0
 10
0.0
 20
0.0
 30
0.0
 70
   128
 71
    -8
 72
     4
 73
    -3
  0
VERTEX
  5
89E
  8
0
 10
0.0
 20
0.0
 30
0.0
 70
   128
 71
     7
 72
     6
 73
    -5
  0
VERTEX
  5
89F
  8
0
 10
0.0
 20
0.0
 30
0.0
 70
   128
 71
    -7
 72
     5
 73
    -4
  0
SEQEND
  5
F6F
  8
0
  0
POLYLINE
  5
8A0
  8
0
 66
     1
 10
0.0
 20
0.0
 30
0.0
 70
    64
 71
     8
 72
     6
  0
VERTEX
  5
8A1
  8
0
 10
85.0
 20
75.09999999999997
 30
-24.0
 70
   192
  0
VERTEX
  5
8A2
  8
0
 10
85.0
 20
114.1
 30
-24.0
 70
   192
  0
VERTEX
  5
8A3
  8
0
 10
185.0
 20
114.1
 30
-24.0
 70
   192
  0
VERTEX
  5
8A4
  8
0
 10
185.0
 20
75.09999999999997
 30
-24.0
 70
   192
  0
VERTEX
  5
8A5
  8
0
 10
137.4999999999999
 20
75.09999999999997
 30
-24.0
 70
   192
  0
VERTEX
  5
8A6
  8
0
 10
137.5
 20
110.1
 30
-24.0
 70
   192
  0
VERTEX
  5
8A7
  8
0
 10
132.5000000000001
 20
110.1
 30
-24.0
 70
   192
  0
VERTEX
  5
8A8
  8
0
 10
132.5
 20
75.09999999999997
 30
-24.0
 70
   192
  0
VERTEX
  5
8A9
  8
0
 10
0.0
 20
0.0
 30
0.0
 70
   128
 71
     6
 72
     5
 73
    -4
  0
VERTEX
  5
8AA
  8
0
 10
0.0
 20
0.0
 30
0.0
 70
   128
 71
    -6
 72
     4
 73
    -3
  0
VERTEX
  5
8AB
  8
0
 10
0.0
 20
0.0
 30
0.0
 70
   128
 71
    -3
 72
     7
 73
    -6
  0
VERTEX
  5
8AC
  8
0
 10
0.0
 20
0.0
 30
0.0
 70
   128
 71
     3
 72
    -2
 73
    -7
  0
VERTEX
  5
8AD
  8
0
 10
0.0
 20
0.0
 30
0.0
 70
   128
 71
     2
 72
     1
 73
    -8
  0
VERTEX
  5
8AE
  8
0
 10
0.0
 20
0.0
 30
0.0
 70
   128
 71
    -2
 72
     8
 73
    -7
  0
SEQEND
  5
F70
  8
0
  0
POLYLINE
  5
8AF
  8
0
 66
     1
 10
0.0
 20
0.0
 30
0.0
 70
    64
 71
     4
 72
     2
  0
VERTEX
  5
8B0
  8
0
 10
137.4999999999999
 20
75.09999999999997
 30
-24.00000000000001
 70
   192
  0
VERTEX
  5
8B1
  8
0
 10
137.4999999999999
 20
75.09999999999997
 30
-25.0
 70
   192
  0
VERTEX
  5
8B2
  8
0
 10
185.0
 20
75.09999999999997
 30
-25.0
 70
   192
  0
VERTEX
  5
8B3
  8
0
 10
185.0
 20
75.09999999999997
 30
-24.0
 70
   192
  0
VERTEX
  5
8B4
  8
0
 10
0.0
 20
0.0
 30
0.0
 70
   128
 71
     3
 72
     4
 73
    -1
  0
VERTEX
  5
8B5
  8
0
 10
0.0
 20
0.0
 30
0.0
 70
   128
 71
     2
 72
    -3
 73
     1
  0
SEQEND
  5
F71
  8
0
  0
POLYLINE
  5
8B6
  8
0
 66
     1
 10
0.0
 20
0.0
 30
0.0
 70
    64
 71
     4
 72
     2
  0
VERTEX
  5
8B7
  8
0
 10
132.5000000000001
 20
110.1
 30
-24.00000000000001
 70
   192
  0
VERTEX
  5
8B8
  8
0
 10
132.5000000000001
 20
110.1
 30
-25.0
 70
   192
  0
VERTEX
  5
8B9
  8
0
 10
132.5
 20
75.09999999999997
 30
-25.0
 70
   192
  0
VERTEX
  5
8BA
  8
0
 10
132.5
 20
75.09999999999997
 30
-24.0
 70
   192
  0
VERTEX
  5
8BB
  8
0
 10
0.0
 20
0.0
 30
0.0
 70
   128
 71
     1
 72
     4
 73
    -3
  0
VERTEX
  5
8BC
  8
0
 10
0.0
 20
0.0
 30
0.0
 70
   128
 71
    -1
 72
     3
 73
     2
  0
SEQEND
  5
F72
  8
0
  0
POLYLINE
  5
8BD
  8
0
 66
     1
 10
0.0
 20
0.0
 30
0.0
 70
    64
 71
     4
 72
     2
  0
VERTEX
  5
8BE
  8
0
 10
137.4999999999999
 20
75.09999999999997
 30
-24.00000000000001
 70
   192
  0
VERTEX
  5
8BF
  8
0
 10
137.4999999999999
 20
75.09999999999997
 30
-25.0
 70
   192
  0
VERTEX
  5
8C0
  8
0
 10
137.5
 20
110.1
 30
-25.0
 70
   192
  0
VERTEX
  5
8C1
  8
0
 10
137.5
 20
110.1
 30
-24.0
 70
   192
  0
VERTEX
  5
8C2
  8
0
 10
0.0
 20
0.0
 30
0.0
 70
   128
 71
     1
 72
     4
 73
    -3
  0
VERTEX
  5
8C3
  8
0
 10
0.0
 20
0.0
 30
0.0
 70
   128
 71
    -1
 72
     3
 73
     2
  0
SEQEND
  5
F73
  8
0
  0
POLYLINE
  5
8C4
  8
0
 66
     1
 10
0.0
 20
0.0
 30
0.0
 70
    64
 71
     4
 72
     2
  0
VERTEX
  5
8C5
  8
0
 10
137.5
 20
110.1
 30
-24.00000000000001
 70
   192
  0
VERTEX
  5
8C6
  8
0
 10
137.5
 20
110.1
 30
-25.0
 70
   192
  0
VERTEX
  5
8C7
  8
0
 10
132.5000000000001
 20
110.1
 30
-25.0
 70
   192
  0
VERTEX
  5
8C8
  8
0
 10
132.5000000000001
 20
110.1
 30
-24.0
 70
   192
  0
VERTEX
  5
8C9
  8
0
 10
0.0
 20
0.0
 30
0.0
 70
   128
 71
     1
 72
     4
 73
    -3
  0
VERTEX
  5
8CA
  8
0
 10
0.0
 20
0.0
 30
0.0
 70
   128
 71
    -1
 72
     3
 73
     2
  0
SEQEND
  5
F74
  8
0
  0
ENDBLK
  5
F66
  8
0
  0
BLOCK
  8
0
  2
*X2
 70
     1
 10
0.0
 20
0.0
 30
0.0
  3
*X2
  1

  0
POLYLINE
  5
8CC
  8
0
 66
     1
 10
0.0
 20
0.0
 30
0.0
 70
    64
 71
    10
 72
     8
  0
VERTEX
  5
8CD
  8
0
 10
23.50000000000012
 20
-357.5
 30
-4.999999999999987
 70
   192
  0
VERTEX
  5
8CE
  8
0
 10
23.50000000000012
 20
-357.5
 30
-20.00000000000001
 70
   192
  0
VERTEX
  5
8CF
  8
0
 10
23.50000000000012
 20
-345.0
 30
-20.00000000000001
 70
   192
  0
VERTEX
  5
8D0
  8
0
 10
23.50000000000012
 20
-345.0
 30
-4.999999999999987
 70
   192
  0
VERTEX
  5
8D1
  8
0
 10
31.00000000000013
 20
-345.0
 30
-12.5
 70
   192
  0
VERTEX
  5
8D2
  8
0
 10
31.00000000000013
 20
-357.5
 30
-12.5
 70
   192
  0
VERTEX
  5
8D3
  8
0
 10
28.80330085889923
 20
-345.0
 30
-7.196699141100884
 70
   192
  0
VERTEX
  5
8D4
  8
0
 10
28.80330085889923
 20
-357.5
 30
-7.196699141100883
 70
   192
  0
VERTEX
  5
8D5
  8
0
 10
28.80330085889923
 20
-345.0
 30
-17.80330085889912
 70
   192
  0
VERTEX
  5
8D6
  8
0
 10
28.80330085889923
 20
-357.5
 30
-17.80330085889912
 70
   192
  0
VERTEX
  5
8D7
  8
0
 10
0.0
 20
0.0
 30
0.0
 70
   128
 71
     7
 72
     4
 73
    -1
  0
VERTEX
  5
8D8
  8
0
 10
0.0
 20
0.0
 30
0.0
 70
   128
 71
    -7
 72
     1
 73
     8
  0
VERTEX
  5
8D9
  8
0
 10
0.0
 20
0.0
 30
0.0
 70
   128
 71
     6
 72
     5
 73
    -7
  0
VERTEX
  5
8DA
  8
0
 10
0.0
 20
0.0
 30
0.0
 70
   128
 71
    -6
 72
     7
 73
     8
  0
VERTEX
  5
8DB
  8
0
 10
0.0
 20
0.0
 30
0.0
 70
   128
 71
    10
 72
     9
 73
    -5
  0
VERTEX
  5
8DC
  8
0
 10
0.0
 20
0.0
 30
0.0
 70
   128
 71
   -10
 72
     5
 73
     6
  0
VERTEX
  5
8DD
  8
0
 10
0.0
 20
0.0
 30
0.0
 70
   128
 71
     2
 72
     3
 73
    -9
  0
VERTEX
  5
8DE
  8
0
 10
0.0
 20
0.0
 30
0.0
 70
   128
 71
    -2
 72
     9
 73
    10
  0
SEQEND
  5
F77
  8
0
  0
POLYLINE
  5
8DF
  8
0
 66
     1
 10
0.0
 20
0.0
 30
0.0
 70
    64
 71
    10
 72
     8
  0
VERTEX
  5
8E0
  8
0
 10
3.999999999999887
 20
195.6295683170198
 30
-22.0
 70
   192
  0
VERTEX
  5
8E1
  8
0
 10
-4.000000000000115
 20
195.6295683170198
 30
-22.0
 70
   192
  0
VERTEX
  5
8E2
  8
0
 10
-4.000000000000115
 20
195.6295683170198
 30
-25.0
 70
   192
  0
VERTEX
  5
8E3
  8
0
 10
3.999999999999886
 20
195.6295683170198
 30
-25.0
 70
   192
  0
VERTEX
  5
8E4
  8
0
 10
-0.0000000000001139
 20
191.6295683170198
 30
-25.0
 70
   192
  0
VERTEX
  5
8E5
  8
0
 10
-0.0000000000001139
 20
191.6295683170198
 30
-22.0
 70
   192
  0
VERTEX
  5
8E6
  8
0
 10
2.828427124746077
 20
192.8011411922736
 30
-25.0
 70
   192
  0
VERTEX
  5
8E7
  8
0
 10
2.828427124746077
 20
192.8011411922736
 30
-22.0
 70
   192
  0
VERTEX
  5
8E8
  8
0
 10
-2.828427124746304
 20
192.8011411922736
 30
-25.0
 70
   192
  0
VERTEX
  5
8E9
  8
0
 10
-2.828427124746304
 20
192.8011411922736
 30
-22.0
 70
   192
  0
VERTEX
  5
8EA
  8
0
 10
0.0
 20
0.0
 30
0.0
 70
   128
 71
     8
 72
     1
 73
    -4
  0
VERTEX
  5
8EB
  8
0
 10
0.0
 20
0.0
 30
0.0
 70
   128
 71
     7
 72
    -8
 73
     4
  0
VERTEX
  5
8EC
  8
0
 10
0.0
 20
0.0
 30
0.0
 70
   128
 71
     6
 72
     8
 73
    -7
  0
VERTEX
  5
8ED
  8
0
 10
0.0
 20
0.0
 30
0.0
 70
   128
 71
     5
 72
    -6
 73
     7
  0
VERTEX
  5
8EE
  8
0
 10
0.0
 20
0.0
 30
0.0
 70
   128
 71
    10
 72
     6
 73
    -5
  0
VERTEX
  5
8EF
  8
0
 10
0.0
 20
0.0
 30
0.0
 70
   128
 71
     9
 72
   -10
 73
     5
  0
VERTEX
  5
8F0
  8
0
 10
0.0
 20
0.0
 30
0.0
 70
   128
 71
     2
 72
    10
 73
    -9
  0
VERTEX
  5
8F1
  8
0
 10
0.0
 20
0.0
 30
0.0
 70
   128
 71
     3
 72
    -2
 73
     9
  0
SEQEND
  5
F78
  8
0
  0
POLYLINE
  5
8F2
  8
0
 66
     1
 10
0.0
 20
0.0
 30
0.0
 70
    64
 71
     8
 72
     6
  0
VERTEX
  5
8F3
  8
0
 10
-3.064177772475972
 20
198.200718755766
 30
-22.0
 70
   192
  0
VERTEX
  5
8F4
  8
0
 10
-3.758770483143734
 20
196.9976488903225
 30
-22.0
 70
   192
  0
VERTEX
  5
8F5
  8
0
 10
-3.758770483143734
 20
196.9976488903225
 30
-25.0
 70
   192
  0
VERTEX
  5
8F6
  8
0
 10
-3.064177772475972
 20
198.200718755766
 30
-25.0
 70
   192
  0
VERTEX
  5
8F7
  8
0
 10
-4.000000000000115
 20
195.6295683170198
 30
-22.0
 70
   192
  0
VERTEX
  5
8F8
  8
0
 10
-4.000000000000115
 20
195.6295683170198
 30
-25.0
 70
   192
  0
VERTEX
  5
8F9
  8
0
 10
-2.000000000000003
 20
199.0936699321576
 30
-22.0
 70
   192
  0
VERTEX
  5
8FA
  8
0
 10
-2.000000000000003
 20
199.0936699321576
 30
-25.0
 70
   192
  0
VERTEX
  5
8FB
  8
0
 10
0.0
 20
0.0
 30
0.0
 70
   128
 71
     1
 72
     2
 73
    -3
  0
VERTEX
  5
8FC
  8
0
 10
0.0
 20
0.0
 30
0.0
 70
   128
 71
     4
 72
    -1
 73
     3
  0
VERTEX
  5
8FD
  8
0
 10
0.0
 20
0.0
 30
0.0
 70
   128
 71
     2
 72
     5
 73
    -6
  0
VERTEX
  5
8FE
  8
0
 10
0.0
 20
0.0
 30
0.0
 70
   128
 71
     3
 72
    -2
 73
     6
  0
VERTEX
  5
8FF
  8
0
 10
0.0
 20
0.0
 30
0.0
 70
   128
 71
     7
 72
     1
 73
    -4
  0
VERTEX
  5
900
  8
0
 10
0.0
 20
0.0
 30
0.0
 70
   128
 71
     8
 72
    -7
 73
     4
  0
SEQEND
  5
F79
  8
0
  0
POLYLINE
  5
901
  8
0
 66
     1
 10
0.0
 20
0.0
 30
0.0
 70
    64
 71
     8
 72
     6
  0
VERTEX
  5
902
  8
0
 10
-345.0000000000001
 20
-105.0
 30
0.0000000000000011
 70
   192
  0
VERTEX
  5
903
  8
0
 10
-349.428104193123
 20
-105.0
 30
0.0
 70
   192
  0
VERTEX
  5
904
  8
0
 10
-349.379144749358
 20
-104.1622045742437
 30
-3.125900437111759
 70
   192
  0
VERTEX
  5
905
  8
0
 10
-345.0000000000001
 20
-104.1626587736528
 30
-3.125000000000004
 70
   192
  0
VERTEX
  5
906
  8
0
 10
-349.235220538255
 20
-101.8751103971656
 30
-5.412571079402509
 70
   192
  0
VERTEX
  5
907
  8
0
 10
-345.0000000000001
 20
-101.875
 30
-5.412658773652744
 70
   192
  0
VERTEX
  5
908
  8
0
 10
-349.0142368156349
 20
-98.75000000000003
 30
-6.250000000000005
 70
   192
  0
VERTEX
  5
909
  8
0
 10
-345.0000000000001
 20
-98.75000000000003
 30
-6.250000000000005
 70
   192
  0
VERTEX
  5
90A
  8
0
 10
0.0
 20
0.0
 30
0.0
 70
   128
 71
     1
 72
     2
 73
     3
  0
VERTEX
  5
90B
  8
0
 10
0.0
 20
0.0
 30
0.0
 70
   128
 71
     1
 72
     3
 73
     4
  0
VERTEX
  5
90C
  8
0
 10
0.0
 20
0.0
 30
0.0
 70
   128
 71
     4
 72
     3
 73
     5
  0
VERTEX
  5
90D
  8
0
 10
0.0
 20
0.0
 30
0.0
 70
   128
 71
     4
 72
     5
 73
     6
  0
VERTEX
  5
90E
  8
0
 10
0.0
 20
0.0
 30
0.0
 70
   128
 71
     6
 72
     5
 73
     7
  0
VERTEX
  5
90F
  8
0
 10
0.0
 20
0.0
 30
0.0
 70
   128
 71
     6
 72
     7
 73
     8
  0
SEQEND
  5
F7A
  8
0
  0
POLYLINE
  5
910
  8
0
 66
     1
 10
0.0
 20
0.0
 30
0.0
 70
    64
 71
     8
 72
     6
  0
VERTEX
  5
911
  8
0
 10
370.6957089326445
 20
-98.75000000000011
 30
-6.249999999999957
 70
   192
  0
VERTEX
  5
912
  8
0
 10
354.0281591907626
 20
-98.75000000000003
 30
-6.249999999999957
 70
   192
  0
VERTEX
  5
913
  8
0
 10
353.5853549028664
 20
-93.33934996815285
 30
-3.128438172110529
 70
   192
  0
VERTEX
  5
914
  8
0
 10
367.5730612213473
 20
-93.43575628890646
 30
-3.289619459249671
 70
   192
  0
VERTEX
  5
915
  8
0
 10
353.5853962570168
 20
-93.33981084765861
 30
3.129281060459598
 70
   192
  0
VERTEX
  5
916
  8
0
 10
367.5876535165094
 20
-93.46129883875676
 30
3.330102521006265
 70
   192
  0
VERTEX
  5
917
  8
0
 10
354.0281591907626
 20
-98.75000000000003
 30
6.249999999999957
 70
   192
  0
VERTEX
  5
918
  8
0
 10
370.6957089326446
 20
-98.75000000000003
 30
6.249999999999957
 70
   192
  0
VERTEX
  5
919
  8
0
 10
0.0
 20
0.0
 30
0.0
 70
   128
 71
     1
 72
     2
 73
     3
  0
VERTEX
  5
91A
  8
0
 10
0.0
 20
0.0
 30
0.0
 70
   128
 71
     1
 72
     3
 73
     4
  0
VERTEX
  5
91B
  8
0
 10
0.0
 20
0.0
 30
0.0
 70
   128
 71
     4
 72
     3
 73
     5
  0
VERTEX
  5
91C
  8
0
 10
0.0
 20
0.0
 30
0.0
 70
   128
 71
     4
 72
     5
 73
     6
  0
VERTEX
  5
91D
  8
0
 10
0.0
 20
0.0
 30
0.0
 70
   128
 71
     6
 72
     7
 73
     8
  0
VERTEX
  5
91E
  8
0
 10
0.0
 20
0.0
 30
0.0
 70
   128
 71
     6
 72
     5
 73
     7
  0
SEQEND
  5
F7B
  8
0
  0
POLYLINE
  5
91F
  8
0
 66
     1
 10
0.0
 20
0.0
 30
0.0
 70
    64
 71
     9
 72
     7
  0
VERTEX
  5
920
  8
0
 10
378.0000000000002
 20
-94.33058261758417
 30
-4.419417382415857
 70
   192
  0
VERTEX
  5
921
  8
0
 10
378.0000000000002
 20
-98.75000000000003
 30
-6.249999999999909
 70
   192
  0
VERTEX
  5
922
  8
0
 10
376.5597008720714
 20
-98.75000000000003
 30
-6.249999999999957
 70
   192
  0
VERTEX
  5
923
  8
0
 10
376.5597008720713
 20
-98.75000000000013
 30
6.249999999999957
 70
   192
  0
VERTEX
  5
924
  8
0
 10
378.0000000000002
 20
-98.75000000000003
 30
6.249999999999957
 70
   192
  0
VERTEX
  5
925
  8
0
 10
378.0000000000002
 20
-94.33058261758417
 30
4.419417382415858
 70
   192
  0
VERTEX
  5
926
  8
0
 10
373.355130444178
 20
-93.4438530875423
 30
-3.302756483515189
 70
   192
  0
VERTEX
  5
927
  8
0
 10
373.3651839058917
 20
-93.46098162286899
 30
3.329934894814063
 70
   192
  0
VERTEX
  5
928
  8
0
 10
378.0000000000002
 20
-92.50000000000011
 30
0.0
 70
   192
  0
VERTEX
  5
929
  8
0
 10
0.0
 20
0.0
 30
0.0
 70
   128
 71
     1
 72
     2
 73
     3
  0
VERTEX
  5
92A
  8
0
 10
0.0
 20
0.0
 30
0.0
 70
   128
 71
     4
 72
     5
 73
     6
  0
VERTEX
  5
92B
  8
0
 10
0.0
 20
0.0
 30
0.0
 70
   128
 71
     1
 72
     3
 73
     7
  0
VERTEX
  5
92C
  8
0
 10
0.0
 20
0.0
 30
0.0
 70
   128
 71
     1
 72
     7
 73
     8
  0
VERTEX
  5
92D
  8
0
 10
0.0
 20
0.0
 30
0.0
 70
   128
 71
     9
 72
     1
 73
     8
  0
VERTEX
  5
92E
  8
0
 10
0.0
 20
0.0
 30
0.0
 70
   128
 71
     8
 72
     4
 73
     6
  0
VERTEX
  5
92F
  8
0
 10
0.0
 20
0.0
 30
0.0
 70
   128
 71
     8
 72
     6
 73
     9
  0
SEQEND
  5
F7C
  8
0
  0
POLYLINE
  5
930
  8
0
 66
     1
 10
0.0
 20
0.0
 30
0.0
 70
    64
 71
     8
 72
     6
  0
VERTEX
  5
931
  8
0
 10
345.0000000000003
 20
-104.1626587736528
 30
-3.125000000000004
 70
   192
  0
VERTEX
  5
932
  8
0
 10
345.0000000000003
 20
-101.875
 30
-5.412658773652744
 70
   192
  0
VERTEX
  5
933
  8
0
 10
349.2348653918008
 20
-101.8697468275566
 30
-5.415669063334468
 70
   192
  0
VERTEX
  5
934
  8
0
 10
345.0000000000001
 20
-105.0
 30
0.0
 70
   192
  0
VERTEX
  5
935
  8
0
 10
349.3790794981337
 20
-104.1611099627922
 30
-3.127794984120013
 70
   192
  0
VERTEX
  5
936
  8
0
 10
349.4281041931228
 20
-105.0
 30
0.0
 70
   192
  0
VERTEX
  5
937
  8
0
 10
345.0000000000003
 20
-98.75000000000003
 30
-6.250000000000005
 70
   192
  0
VERTEX
  5
938
  8
0
 10
349.0142368156348
 20
-98.75000000000003
 30
-6.249999999999957
 70
   192
  0
VERTEX
  5
939
  8
0
 10
0.0
 20
0.0
 30
0.0
 70
   128
 71
     1
 72
     2
 73
     3
  0
VERTEX
  5
93A
  8
0
 10
0.0
 20
0.0
 30
0.0
 70
   128
 71
     4
 72
     1
 73
     5
  0
VERTEX
  5
93B
  8
0
 10
0.0
 20
0.0
 30
0.0
 70
   128
 71
     6
 72
     4
 73
     5
  0
VERTEX
  5
93C
  8
0
 10
0.0
 20
0.0
 30
0.0
 70
   128
 71
     5
 72
     1
 73
     3
  0
VERTEX
  5
93D
  8
0
 10
0.0
 20
0.0
 30
0.0
 70
   128
 71
     3
 72
     2
 73
     7
  0
VERTEX
  5
93E
  8
0
 10
0.0
 20
0.0
 30
0.0
 70
   128
 71
     3
 72
     7
 73
     8
  0
SEQEND
  5
F7D
  8
0
  0
POLYLINE
  5
93F
  8
0
 66
     1
 10
0.0
 20
0.0
 30
0.0
 70
    64
 71
    14
 72
    12
  0
VERTEX
  5
940
  8
0
 10
349.9999999999999
 20
-125.0000000000003
 30
25.0
 70
   192
  0
VERTEX
  5
941
  8
0
 10
349.9999999999999
 20
-125.0
 30
13.0
 70
   192
  0
VERTEX
  5
942
  8
0
 10
303.1088913245533
 20
-300.0000000000002
 30
13.0
 70
   192
  0
VERTEX
  5
943
  8
0
 10
303.1088913245533
 20
-300.0000000000002
 30
25.0
 70
   192
  0
VERTEX
  5
944
  8
0
 10
-0.0000000000002447
 20
-475.0
 30
13.0
 70
   192
  0
VERTEX
  5
945
  8
0
 10
-0.0000000000002447
 20
-475.0
 30
25.0
 70
   192
  0
VERTEX
  5
946
  8
0
 10
174.9999999999997
 20
-428.1088913245536
 30
25.0
 70
   192
  0
VERTEX
  5
947
  8
0
 10
174.9999999999997
 20
-428.1088913245536
 30
13.0
 70
   192
  0
VERTEX
  5
948
  8
0
 10
-175.0000000000002
 20
-428.1088913245535
 30
13.0
 70
   192
  0
VERTEX
  5
949
  8
0
 10
-175.0000000000002
 20
-428.1088913245535
 30
25.0
 70
   192
  0
VERTEX
  5
94A
  8
0
 10
-350.0000000000001
 20
-125.0
 30
13.0
 70
   192
  0
VERTEX
  5
94B
  8
0
 10
-350.0000000000001
 20
-125.0
 30
25.0
 70
   192
  0
VERTEX
  5
94C
  8
0
 10
-303.1088913245537
 20
-299.9999999999999
 30
25.0
 70
   192
  0
VERTEX
  5
94D
  8
0
 10
-303.1088913245537
 20
-299.9999999999999
 30
13.0
 70
   192
  0
VERTEX
  5
94E
  8
0
 10
0.0
 20
0.0
 30
0.0
 70
   128
 71
     1
 72
     2
 73
    -3
  0
VERTEX
  5
94F
  8
0
 10
0.0
 20
0.0
 30
0.0
 70
   128
 71
     4
 72
    -1
 73
     3
  0
VERTEX
  5
950
  8
0
 10
0.0
 20
0.0
 30
0.0
 70
   128
 71
     5
 72
     6
 73
    -7
  0
VERTEX
  5
951
  8
0
 10
0.0
 20
0.0
 30
0.0
 70
   128
 71
     8
 72
    -5
 73
     7
  0
VERTEX
  5
952
  8
0
 10
0.0
 20
0.0
 30
0.0
 70
   128
 71
     6
 72
     5
 73
    -9
  0
VERTEX
  5
953
  8
0
 10
0.0
 20
0.0
 30
0.0
 70
   128
 71
    10
 72
    -6
 73
     9
  0
VERTEX
  5
954
  8
0
 10
0.0
 20
0.0
 30
0.0
 70
   128
 71
    11
 72
    12
 73
   -13
  0
VERTEX
  5
955
  8
0
 10
0.0
 20
0.0
 30
0.0
 70
   128
 71
    14
 72
   -11
 73
    13
  0
VERTEX
  5
956
  8
0
 10
0.0
 20
0.0
 30
0.0
 70
   128
 71
     7
 72
     4
 73
    -3
  0
VERTEX
  5
957
  8
0
 10
0.0
 20
0.0
 30
0.0
 70
   128
 71
     8
 72
    -7
 73
     3
  0
VERTEX
  5
958
  8
0
 10
0.0
 20
0.0
 30
0.0
 70
   128
 71
    13
 72
    10
 73
    -9
  0
VERTEX
  5
959
  8
0
 10
0.0
 20
0.0
 30
0.0
 70
   128
 71
    14
 72
   -13
 73
     9
  0
SEQEND
  5
F7E
  8
0
  0
POLYLINE
  5
95A
  8
0
 66
     1
 10
0.0
 20
0.0
 30
0.0
 70
    64
 71
    42
 72
    48
  0
VERTEX
  5
95B
  8
0
 10
-287.2976302849354
 20
83.53074505372257
 30
14.5
 70
   192
  0
VERTEX
  5
95C
  8
0
 10
-320.5882448640044
 20
27.4735296863598
 30
14.5
 70
   192
  0
VERTEX
  5
95D
  8
0
 10
-307.4390183434758
 20
52.50000000000009
 30
25.0
 70
   192
  0
VERTEX
  5
95E
  8
0
 10
-307.4390183434758
 20
52.50000000000009
 30
-25.0
 70
   192
  0
VERTEX
  5
95F
  8
0
 10
-320.5882448640044
 20
27.47352968635965
 30
-14.5
 70
   192
  0
VERTEX
  5
960
  8
0
 10
-287.2976302849355
 20
83.53074505372243
 30
-14.5
 70
   192
  0
VERTEX
  5
961
  8
0
 10
-355.0000000000001
 20
-124.9999999999999
 30
-25.0
 70
   192
  0
VERTEX
  5
962
  8
0
 10
-343.0657914725647
 20
-33.72644018499753
 30
-14.5
 70
   192
  0
VERTEX
  5
963
  8
0
 10
-354.0281591907627
 20
-98.75000000000003
 30
6.250000000000005
 70
   192
  0
VERTEX
  5
964
  8
0
 10
-354.3877523464644
 20
-104.159617627945
 30
3.130375004278839
 70
   192
  0
VERTEX
  5
965
  8
0
 10
-355.0000000000001
 20
-125.0
 30
25.0
 70
   192
  0
VERTEX
  5
966
  8
0
 10
-353.585396257017
 20
-93.3398108476586
 30
3.129281060459702
 70
   192
  0
VERTEX
  5
967
  8
0
 10
-343.0657914725646
 20
-33.72644018499729
 30
14.5
 70
   192
  0
VERTEX
  5
968
  8
0
 10
-353.5853549028664
 20
-93.33934996815272
 30
-3.128438172110454
 70
   192
  0
VERTEX
  5
969
  8
0
 10
-354.0281591907628
 20
-98.75000000000003
 30
-6.250000000000005
 70
   192
  0
VERTEX
  5
96A
  8
0
 10
-354.3880162700727
 20
-104.164107202152
 30
-3.122604173666445
 70
   192
  0
VERTEX
  5
96B
  8
0
 10
-177.5000000000001
 20
182.4390183434758
 30
25.0
 70
   192
  0
VERTEX
  5
96C
  8
0
 10
-177.5000000000001
 20
182.4390183434758
 30
-25.0
 70
   192
  0
VERTEX
  5
96D
  8
0
 10
-244.3168013770319
 20
132.5544613570032
 30
-14.5
 70
   192
  0
VERTEX
  5
96E
  8
0
 10
-244.3168013770319
 20
132.5544613570032
 30
14.5
 70
   192
  0
VERTEX
  5
96F
  8
0
 10
-0.0000000000000693
 20
230.0
 30
25.0
 70
   192
  0
VERTEX
  5
970
  8
0
 10
-0.0000000000000693
 20
230.0
 30
-25.0
 70
   192
  0
VERTEX
  5
971
  8
0
 10
177.4999999999999
 20
182.4390183434757
 30
-25.0
 70
   192
  0
VERTEX
  5
972
  8
0
 10
177.4999999999999
 20
182.4390183434757
 30
25.0
 70
   192
  0
VERTEX
  5
973
  8
0
 10
244.3168013770317
 20
132.5544613570033
 30
14.5
 70
   192
  0
VERTEX
  5
974
  8
0
 10
244.316801377032
 20
132.554461357003
 30
-14.5
 70
   192
  0
VERTEX
  5
975
  8
0
 10
287.2976302849354
 20
83.53074505372243
 30
-14.5
 70
   192
  0
VERTEX
  5
976
  8
0
 10
320.5882448640043
 20
27.47352968635977
 30
-14.5
 70
   192
  0
VERTEX
  5
977
  8
0
 10
307.4390183434756
 20
52.5
 30
-25.0
 70
   192
  0
VERTEX
  5
978
  8
0
 10
307.4390183434756
 20
52.5
 30
25.0
 70
   192
  0
VERTEX
  5
979
  8
0
 10
320.5882448640044
 20
27.47352968635963
 30
14.5
 70
   192
  0
VERTEX
  5
97A
  8
0
 10
287.2976302849353
 20
83.53074505372254
 30
14.5
 70
   192
  0
VERTEX
  5
97B
  8
0
 10
354.9999999999999
 20
-125.0
 30
25.0
 70
   192
  0
VERTEX
  5
97C
  8
0
 10
343.0657914725646
 20
-33.72644018499741
 30
14.5
 70
   192
  0
VERTEX
  5
97D
  8
0
 10
354.0281591907626
 20
-98.75000000000003
 30
-6.249999999999957
 70
   192
  0
VERTEX
  5
97E
  8
0
 10
354.3880162700725
 20
-104.1641072021518
 30
-3.122604173666691
 70
   192
  0
VERTEX
  5
97F
  8
0
 10
354.9999999999999
 20
-125.0
 30
-25.0
 70
   192
  0
VERTEX
  5
980
  8
0
 10
353.5853549028664
 20
-93.33934996815285
 30
-3.128438172110529
 70
   192
  0
VERTEX
  5
981
  8
0
 10
343.0657914725646
 20
-33.72644018499733
 30
-14.5
 70
   192
  0
VERTEX
  5
982
  8
0
 10
353.5853962570168
 20
-93.33981084765861
 30
3.129281060459598
 70
   192
  0
VERTEX
  5
983
  8
0
 10
354.0281591907626
 20
-98.75000000000003
 30
6.249999999999957
 70
   192
  0
VERTEX
  5
984
  8
0
 10
354.3877523464643
 20
-104.1596176279451
 30
3.130375004278551
 70
   192
  0
VERTEX
  5
985
  8
0
 10
0.0
 20
0.0
 30
0.0
 70
   128
 71
     1
 72
     2
 73
     3
  0
VERTEX
  5
986
  8
0
 10
0.0
 20
0.0
 30
0.0
 70
   128
 71
     4
 72
     5
 73
     6
  0
VERTEX
  5
987
  8
0
 10
0.0
 20
0.0
 30
0.0
 70
   128
 71
     4
 72
     7
 73
     8
  0
VERTEX
  5
988
  8
0
 10
0.0
 20
0.0
 30
0.0
 70
   128
 71
     4
 72
     8
 73
     5
  0
VERTEX
  5
989
  8
0
 10
0.0
 20
0.0
 30
0.0
 70
   128
 71
     9
 72
    10
 73
    11
  0
VERTEX
  5
98A
  8
0
 10
0.0
 20
0.0
 30
0.0
 70
   128
 71
    11
 72
    12
 73
     9
  0
VERTEX
  5
98B
  8
0
 10
0.0
 20
0.0
 30
0.0
 70
   128
 71
    12
 72
    11
 73
    13
  0
VERTEX
  5
98C
  8
0
 10
0.0
 20
0.0
 30
0.0
 70
   128
 71
    12
 72
    13
 73
     8
  0
VERTEX
  5
98D
  8
0
 10
0.0
 20
0.0
 30
0.0
 70
   128
 71
     8
 72
    14
 73
    12
  0
VERTEX
  5
98E
  8
0
 10
0.0
 20
0.0
 30
0.0
 70
   128
 71
     8
 72
    15
 73
    14
  0
VERTEX
  5
98F
  8
0
 10
0.0
 20
0.0
 30
0.0
 70
   128
 71
     8
 72
     7
 73
    15
  0
VERTEX
  5
990
  8
0
 10
0.0
 20
0.0
 30
0.0
 70
   128
 71
     7
 72
    16
 73
    15
  0
VERTEX
  5
991
  8
0
 10
0.0
 20
0.0
 30
0.0
 70
   128
 71
     7
 72
    11
 73
    10
  0
VERTEX
  5
992
  8
0
 10
0.0
 20
0.0
 30
0.0
 70
   128
 71
     7
 72
    10
 73
    16
  0
VERTEX
  5
993
  8
0
 10
0.0
 20
0.0
 30
0.0
 70
   128
 71
    11
 72
     3
 73
     2
  0
VERTEX
  5
994
  8
0
 10
0.0
 20
0.0
 30
0.0
 70
   128
 71
    11
 72
     2
 73
    13
  0
VERTEX
  5
995
  8
0
 10
0.0
 20
0.0
 30
0.0
 70
   128
 71
    17
 72
    18
 73
   -19
  0
VERTEX
  5
996
  8
0
 10
0.0
 20
0.0
 30
0.0
 70
   128
 71
   -17
 72
    19
 73
    20
  0
VERTEX
  5
997
  8
0
 10
0.0
 20
0.0
 30
0.0
 70
   128
 71
    17
 72
    21
 73
   -22
  0
VERTEX
  5
998
  8
0
 10
0.0
 20
0.0
 30
0.0
 70
   128
 71
   -17
 72
    22
 73
    18
  0
VERTEX
  5
999
  8
0
 10
0.0
 20
0.0
 30
0.0
 70
   128
 71
    23
 72
    22
 73
   -21
  0
VERTEX
  5
99A
  8
0
 10
0.0
 20
0.0
 30
0.0
 70
   128
 71
   -23
 72
    21
 73
    24
  0
VERTEX
  5
99B
  8
0
 10
0.0
 20
0.0
 30
0.0
 70
   128
 71
    23
 72
    24
 73
   -25
  0
VERTEX
  5
99C
  8
0
 10
0.0
 20
0.0
 30
0.0
 70
   128
 71
   -23
 72
    25
 73
    26
  0
VERTEX
  5
99D
  8
0
 10
0.0
 20
0.0
 30
0.0
 70
   128
 71
    27
 72
    28
 73
    29
  0
VERTEX
  5
99E
  8
0
 10
0.0
 20
0.0
 30
0.0
 70
   128
 71
    30
 72
    31
 73
    32
  0
VERTEX
  5
99F
  8
0
 10
0.0
 20
0.0
 30
0.0
 70
   128
 71
    30
 72
    33
 73
    34
  0
VERTEX
  5
9A0
  8
0
 10
0.0
 20
0.0
 30
0.0
 70
   128
 71
    30
 72
    34
 73
    31
  0
VERTEX
  5
9A1
  8
0
 10
0.0
 20
0.0
 30
0.0
 70
   128
 71
    35
 72
    36
 73
    37
  0
VERTEX
  5
9A2
  8
0
 10
0.0
 20
0.0
 30
0.0
 70
   128
 71
    37
 72
    38
 73
    35
  0
VERTEX
  5
9A3
  8
0
 10
0.0
 20
0.0
 30
0.0
 70
   128
 71
    38
 72
    37
 73
    39
  0
VERTEX
  5
9A4
  8
0
 10
0.0
 20
0.0
 30
0.0
 70
   128
 71
    38
 72
    39
 73
    34
  0
VERTEX
  5
9A5
  8
0
 10
0.0
 20
0.0
 30
0.0
 70
   128
 71
    34
 72
    40
 73
    38
  0
VERTEX
  5
9A6
  8
0
 10
0.0
 20
0.0
 30
0.0
 70
   128
 71
    34
 72
    41
 73
    40
  0
VERTEX
  5
9A7
  8
0
 10
0.0
 20
0.0
 30
0.0
 70
   128
 71
    34
 72
    33
 73
    41
  0
VERTEX
  5
9A8
  8
0
 10
0.0
 20
0.0
 30
0.0
 70
   128
 71
    33
 72
    42
 73
    41
  0
VERTEX
  5
9A9
  8
0
 10
0.0
 20
0.0
 30
0.0
 70
   128
 71
    33
 72
    37
 73
    36
  0
VERTEX
  5
9AA
  8
0
 10
0.0
 20
0.0
 30
0.0
 70
   128
 71
    33
 72
    36
 73
    42
  0
VERTEX
  5
9AB
  8
0
 10
0.0
 20
0.0
 30
0.0
 70
   128
 71
    37
 72
    29
 73
    28
  0
VERTEX
  5
9AC
  8
0
 10
0.0
 20
0.0
 30
0.0
 70
   128
 71
    37
 72
    28
 73
    39
  0
VERTEX
  5
9AD
  8
0
 10
0.0
 20
0.0
 30
0.0
 70
   128
 71
     3
 72
    17
 73
    20
  0
VERTEX
  5
9AE
  8
0
 10
0.0
 20
0.0
 30
0.0
 70
   128
 71
    24
 72
    30
 73
    32
  0
VERTEX
  5
9AF
  8
0
 10
0.0
 20
0.0
 30
0.0
 70
   128
 71
     4
 72
     6
 73
    19
  0
VERTEX
  5
9B0
  8
0
 10
0.0
 20
0.0
 30
0.0
 70
   128
 71
     4
 72
    19
 73
    18
  0
VERTEX
  5
9B1
  8
0
 10
0.0
 20
0.0
 30
0.0
 70
   128
 71
     1
 72
     3
 73
    20
  0
VERTEX
  5
9B2
  8
0
 10
0.0
 20
0.0
 30
0.0
 70
   128
 71
    23
 72
    26
 73
    27
  0
VERTEX
  5
9B3
  8
0
 10
0.0
 20
0.0
 30
0.0
 70
   128
 71
    23
 72
    27
 73
    29
  0
VERTEX
  5
9B4
  8
0
 10
0.0
 20
0.0
 30
0.0
 70
   128
 71
    25
 72
    24
 73
    32
  0
SEQEND
  5
F7F
  8
0
  0
POLYLINE
  5
9B5
  8
0
 66
     1
 10
0.0
 20
0.0
 30
0.0
 70
    64
 71
     9
 72
     7
  0
VERTEX
  5
9B6
  8
0
 10
-376.5597008720713
 20
-98.75000000000001
 30
-6.250000000000005
 70
   192
  0
VERTEX
  5
9B7
  8
0
 10
-378.0000000000002
 20
-98.75000000000003
 30
-6.250000000000005
 70
   192
  0
VERTEX
  5
9B8
  8
0
 10
-378.0000000000002
 20
-94.3305826175841
 30
-4.419417382415926
 70
   192
  0
VERTEX
  5
9B9
  8
0
 10
-373.3562378040861
 20
-93.44573964222437
 30
-3.305795997540046
 70
   192
  0
VERTEX
  5
9BA
  8
0
 10
-378.0000000000002
 20
-92.50000000000003
 30
0.0
 70
   192
  0
VERTEX
  5
9BB
  8
0
 10
-378.0000000000002
 20
-94.3305826175841
 30
4.419417382415927
 70
   192
  0
VERTEX
  5
9BC
  8
0
 10
-378.0000000000002
 20
-98.75000000000003
 30
6.250000000000007
 70
   192
  0
VERTEX
  5
9BD
  8
0
 10
-376.5597008720713
 20
-98.75000000000003
 30
6.250000000000005
 70
   192
  0
VERTEX
  5
9BE
  8
0
 10
-373.3670033511046
 20
-93.46407963522148
 30
3.334558883096736
 70
   192
  0
VERTEX
  5
9BF
  8
0
 10
0.0
 20
0.0
 30
0.0
 70
   128
 71
     1
 72
     2
 73
     3
  0
VERTEX
  5
9C0
  8
0
 10
0.0
 20
0.0
 30
0.0
 70
   128
 71
     4
 72
     1
 73
     3
  0
VERTEX
  5
9C1
  8
0
 10
0.0
 20
0.0
 30
0.0
 70
   128
 71
     4
 72
     3
 73
     5
  0
VERTEX
  5
9C2
  8
0
 10
0.0
 20
0.0
 30
0.0
 70
   128
 71
     6
 72
     7
 73
     8
  0
VERTEX
  5
9C3
  8
0
 10
0.0
 20
0.0
 30
0.0
 70
   128
 71
     6
 72
     8
 73
     9
  0
VERTEX
  5
9C4
  8
0
 10
0.0
 20
0.0
 30
0.0
 70
   128
 71
     9
 72
     4
 73
     5
  0
VERTEX
  5
9C5
  8
0
 10
0.0
 20
0.0
 30
0.0
 70
   128
 71
     9
 72
     5
 73
     6
  0
SEQEND
  5
F80
  8
0
  0
POLYLINE
  5
9C6
  8
0
 66
     1
 10
0.0
 20
0.0
 30
0.0
 70
    64
 71
     8
 72
     6
  0
VERTEX
  5
9C7
  8
0
 10
-354.0281591907628
 20
-98.75000000000003
 30
-6.250000000000005
 70
   192
  0
VERTEX
  5
9C8
  8
0
 10
-370.6957089326445
 20
-98.75000000000003
 30
-6.250000000000005
 70
   192
  0
VERTEX
  5
9C9
  8
0
 10
-367.5750123566024
 20
-93.43917321566856
 30
-3.295224755281901
 70
   192
  0
VERTEX
  5
9CA
  8
0
 10
-353.5853549028664
 20
-93.33934996815272
 30
-3.128438172110454
 70
   192
  0
VERTEX
  5
9CB
  8
0
 10
-367.5864990415583
 20
-93.45927818310903
 30
3.326892866401172
 70
   192
  0
VERTEX
  5
9CC
  8
0
 10
-353.585396257017
 20
-93.3398108476586
 30
3.129281060459702
 70
   192
  0
VERTEX
  5
9CD
  8
0
 10
-354.0281591907627
 20
-98.75000000000003
 30
6.250000000000005
 70
   192
  0
VERTEX
  5
9CE
  8
0
 10
-370.6957089326445
 20
-98.75000000000001
 30
6.250000000000005
 70
   192
  0
VERTEX
  5
9CF
  8
0
 10
0.0
 20
0.0
 30
0.0
 70
   128
 71
     1
 72
     2
 73
     3
  0
VERTEX
  5
9D0
  8
0
 10
0.0
 20
0.0
 30
0.0
 70
   128
 71
     1
 72
     3
 73
     4
  0
VERTEX
  5
9D1
  8
0
 10
0.0
 20
0.0
 30
0.0
 70
   128
 71
     4
 72
     3
 73
     5
  0
VERTEX
  5
9D2
  8
0
 10
0.0
 20
0.0
 30
0.0
 70
   128
 71
     4
 72
     5
 73
     6
  0
VERTEX
  5
9D3
  8
0
 10
0.0
 20
0.0
 30
0.0
 70
   128
 71
     7
 72
     6
 73
     5
  0
VERTEX
  5
9D4
  8
0
 10
0.0
 20
0.0
 30
0.0
 70
   128
 71
     5
 72
     8
 73
     7
  0
SEQEND
  5
F81
  8
0
  0
POLYLINE
  5
9D5
  8
0
 66
     1
 10
0.0
 20
0.0
 30
0.0
 70
    64
 71
    14
 72
    12
  0
VERTEX
  5
9D6
  8
0
 10
349.9999999999999
 20
-125.0000000000003
 30
0.0
 70
   192
  0
VERTEX
  5
9D7
  8
0
 10
349.9999999999999
 20
-125.0
 30
-25.0
 70
   192
  0
VERTEX
  5
9D8
  8
0
 10
303.1088913245533
 20
-300.0000000000002
 30
-25.0
 70
   192
  0
VERTEX
  5
9D9
  8
0
 10
303.1088913245533
 20
-300.0000000000002
 30
0.0
 70
   192
  0
VERTEX
  5
9DA
  8
0
 10
-0.0000000000002447
 20
-475.0
 30
-25.0
 70
   192
  0
VERTEX
  5
9DB
  8
0
 10
-0.0000000000002447
 20
-475.0
 30
0.0
 70
   192
  0
VERTEX
  5
9DC
  8
0
 10
174.9999999999997
 20
-428.1088913245536
 30
0.0
 70
   192
  0
VERTEX
  5
9DD
  8
0
 10
174.9999999999997
 20
-428.1088913245536
 30
-25.0
 70
   192
  0
VERTEX
  5
9DE
  8
0
 10
-175.0000000000002
 20
-428.1088913245535
 30
-25.0
 70
   192
  0
VERTEX
  5
9DF
  8
0
 10
-175.0000000000002
 20
-428.1088913245535
 30
0.0
 70
   192
  0
VERTEX
  5
9E0
  8
0
 10
-350.0000000000001
 20
-125.0
 30
-25.0
 70
   192
  0
VERTEX
  5
9E1
  8
0
 10
-350.0000000000001
 20
-125.0
 30
0.0
 70
   192
  0
VERTEX
  5
9E2
  8
0
 10
-303.1088913245537
 20
-299.9999999999999
 30
0.0
 70
   192
  0
VERTEX
  5
9E3
  8
0
 10
-303.1088913245537
 20
-299.9999999999999
 30
-25.0
 70
   192
  0
VERTEX
  5
9E4
  8
0
 10
0.0
 20
0.0
 30
0.0
 70
   128
 71
     1
 72
     2
 73
    -3
  0
VERTEX
  5
9E5
  8
0
 10
0.0
 20
0.0
 30
0.0
 70
   128
 71
     4
 72
    -1
 73
     3
  0
VERTEX
  5
9E6
  8
0
 10
0.0
 20
0.0
 30
0.0
 70
   128
 71
     5
 72
     6
 73
    -7
  0
VERTEX
  5
9E7
  8
0
 10
0.0
 20
0.0
 30
0.0
 70
   128
 71
     8
 72
    -5
 73
     7
  0
VERTEX
  5
9E8
  8
0
 10
0.0
 20
0.0
 30
0.0
 70
   128
 71
     6
 72
     5
 73
    -9
  0
VERTEX
  5
9E9
  8
0
 10
0.0
 20
0.0
 30
0.0
 70
   128
 71
    10
 72
    -6
 73
     9
  0
VERTEX
  5
9EA
  8
0
 10
0.0
 20
0.0
 30
0.0
 70
   128
 71
    11
 72
    12
 73
   -13
  0
VERTEX
  5
9EB
  8
0
 10
0.0
 20
0.0
 30
0.0
 70
   128
 71
    14
 72
   -11
 73
    13
  0
VERTEX
  5
9EC
  8
0
 10
0.0
 20
0.0
 30
0.0
 70
   128
 71
     7
 72
     4
 73
    -3
  0
VERTEX
  5
9ED
  8
0
 10
0.0
 20
0.0
 30
0.0
 70
   128
 71
     8
 72
    -7
 73
     3
  0
VERTEX
  5
9EE
  8
0
 10
0.0
 20
0.0
 30
0.0
 70
   128
 71
    13
 72
    10
 73
    -9
  0
VERTEX
  5
9EF
  8
0
 10
0.0
 20
0.0
 30
0.0
 70
   128
 71
    14
 72
   -13
 73
     9
  0
SEQEND
  5
F82
  8
0
  0
POLYLINE
  5
9F0
  8
0
 66
     1
 10
0.0
 20
0.0
 30
0.0
 70
    64
 71
    36
 72
    34
  0
VERTEX
  5
9F1
  8
0
 10
-271.2429301898771
 20
96.19510126132886
 30
0.0
 70
   192
  0
VERTEX
  5
9F2
  8
0
 10
-348.4878046646684
 20
-92.50000000000011
 30
0.0
 70
   192
  0
VERTEX
  5
9F3
  8
0
 10
-348.5649918488833
 20
-93.33856573309899
 30
-3.127081502635216
 70
   192
  0
VERTEX
  5
9F4
  8
0
 10
-303.9388130193771
 20
48.55459642536752
 30
-25.0
 70
   192
  0
VERTEX
  5
9F5
  8
0
 10
-348.7653990621561
 20
-95.62830271234238
 30
-5.414629786152274
 70
   192
  0
VERTEX
  5
9F6
  8
0
 10
-350.0000000000001
 20
-125.0
 30
-25.0
 70
   192
  0
VERTEX
  5
9F7
  8
0
 10
-349.0142368156349
 20
-98.75000000000003
 30
-6.250000000000005
 70
   192
  0
VERTEX
  5
9F8
  8
0
 10
-349.235220538255
 20
-101.8751103971656
 30
-5.412571079402509
 70
   192
  0
VERTEX
  5
9F9
  8
0
 10
-349.379144749358
 20
-104.1622045742437
 30
-3.125900437111759
 70
   192
  0
VERTEX
  5
9FA
  8
0
 10
-349.7457856153381
 20
-111.6626297828251
 30
0.0
 70
   192
  0
VERTEX
  5
9FB
  8
0
 10
-349.428104193123
 20
-105.0
 30
0.0
 70
   192
  0
VERTEX
  5
9FC
  8
0
 10
-349.9364406327015
 20
-118.3301036502927
 30
0.0
 70
   192
  0
VERTEX
  5
9FD
  8
0
 10
-350.0000000000001
 20
-125.0
 30
0.0
 70
   192
  0
VERTEX
  5
9FE
  8
0
 10
-177.8788689121591
 20
176.4284458947612
 30
-25.0
 70
   192
  0
VERTEX
  5
9FF
  8
0
 10
-5.000000000000023
 20
224.9642838919423
 30
-25.0
 70
   192
  0
VERTEX
  5
A00
  8
0
 10
-4.999999999999996
 20
224.9642838919423
 30
-22.0
 70
   192
  0
VERTEX
  5
A01
  8
0
 10
177.878868912159
 20
176.4284458947611
 30
-25.0
 70
   192
  0
VERTEX
  5
A02
  8
0
 10
101.9468144090944
 20
209.8236058461793
 30
0.0
 70
   192
  0
VERTEX
  5
A03
  8
0
 10
5.00000000000004
 20
224.9642838919423
 30
-22.0
 70
   192
  0
VERTEX
  5
A04
  8
0
 10
4.999999999999994
 20
224.9642838919423
 30
-25.0
 70
   192
  0
VERTEX
  5
A05
  8
0
 10
349.9999999999999
 20
-125.0
 30
-25.0
 70
   192
  0
VERTEX
  5
A06
  8
0
 10
349.9999999999999
 20
-125.0
 30
0.0
 70
   192
  0
VERTEX
  5
A07
  8
0
 10
349.9364406327013
 20
-118.3301036502927
 30
0.0
 70
   192
  0
VERTEX
  5
A08
  8
0
 10
349.3790794981337
 20
-104.1611099627922
 30
-3.127794984120013
 70
   192
  0
VERTEX
  5
A09
  8
0
 10
349.7457856153379
 20
-111.6626297828251
 30
0.0
 70
   192
  0
VERTEX
  5
A0A
  8
0
 10
349.4281041931229
 20
-104.9999999999999
 30
0.0
 70
   192
  0
VERTEX
  5
A0B
  8
0
 10
349.2348653918008
 20
-101.8697468275566
 30
-5.415669063334468
 70
   192
  0
VERTEX
  5
A0C
  8
0
 10
349.0142368156347
 20
-98.75000000000003
 30
-6.249999999999957
 70
   192
  0
VERTEX
  5
A0D
  8
0
 10
348.7653216672484
 20
-95.62738648776234
 30
-5.414040158883951
 70
   192
  0
VERTEX
  5
A0E
  8
0
 10
303.9388130193769
 20
48.55459642536741
 30
-25.0
 70
   192
  0
VERTEX
  5
A0F
  8
0
 10
348.5653193366623
 20
-93.34217031641884
 30
-3.1333566588677
 70
   192
  0
VERTEX
  5
A10
  8
0
 10
348.4878046646681
 20
-92.50000000000009
 30
-0.0000000000000001
 70
   192
  0
VERTEX
  5
A11
  8
0
 10
271.2429301898769
 20
96.19510126132886
 30
0.0
 70
   192
  0
VERTEX
  5
A12
  8
0
 10
-101.9468144090946
 20
209.8236058461793
 30
0.0
 70
   192
  0
VERTEX
  5
A13
  8
0
 10
-1.666717061764349
 20
224.9960314835527
 30
-22.0
 70
   192
  0
VERTEX
  5
A14
  8
0
 10
1.6667170617644
 20
224.9960314835527
 30
-22.0
 70
   192
  0
VERTEX
  5
A15
  8
0
 10
0.0
 20
0.0
 30
0.0
 70
   128
 71
     1
 72
     2
 73
     3
  0
VERTEX
  5
A16
  8
0
 10
0.0
 20
0.0
 30
0.0
 70
   128
 71
     4
 72
     1
 73
     3
  0
VERTEX
  5
A17
  8
0
 10
0.0
 20
0.0
 30
0.0
 70
   128
 71
     3
 72
     5
 73
     4
  0
VERTEX
  5
A18
  8
0
 10
0.0
 20
0.0
 30
0.0
 70
   128
 71
     5
 72
     6
 73
     4
  0
VERTEX
  5
A19
  8
0
 10
0.0
 20
0.0
 30
0.0
 70
   128
 71
     5
 72
     7
 73
     6
  0
VERTEX
  5
A1A
  8
0
 10
0.0
 20
0.0
 30
0.0
 70
   128
 71
     7
 72
     8
 73
     6
  0
VERTEX
  5
A1B
  8
0
 10
0.0
 20
0.0
 30
0.0
 70
   128
 71
     9
 72
    10
 73
     6
  0
VERTEX
  5
A1C
  8
0
 10
0.0
 20
0.0
 30
0.0
 70
   128
 71
     8
 72
     9
 73
     6
  0
VERTEX
  5
A1D
  8
0
 10
0.0
 20
0.0
 30
0.0
 70
   128
 71
     9
 72
    11
 73
    10
  0
VERTEX
  5
A1E
  8
0
 10
0.0
 20
0.0
 30
0.0
 70
   128
 71
    10
 72
    12
 73
     6
  0
VERTEX
  5
A1F
  8
0
 10
0.0
 20
0.0
 30
0.0
 70
   128
 71
    12
 72
    13
 73
     6
  0
VERTEX
  5
A20
  8
0
 10
0.0
 20
0.0
 30
0.0
 70
   128
 71
    14
 72
    15
 73
    16
  0
VERTEX
  5
A21
  8
0
 10
0.0
 20
0.0
 30
0.0
 70
   128
 71
    17
 72
    18
 73
    19
  0
VERTEX
  5
A22
  8
0
 10
0.0
 20
0.0
 30
0.0
 70
   128
 71
    19
 72
    20
 73
    17
  0
VERTEX
  5
A23
  8
0
 10
0.0
 20
0.0
 30
0.0
 70
   128
 71
    21
 72
    22
 73
    23
  0
VERTEX
  5
A24
  8
0
 10
0.0
 20
0.0
 30
0.0
 70
   128
 71
    24
 72
    23
 73
    25
  0
VERTEX
  5
A25
  8
0
 10
0.0
 20
0.0
 30
0.0
 70
   128
 71
    25
 72
    26
 73
    24
  0
VERTEX
  5
A26
  8
0
 10
0.0
 20
0.0
 30
0.0
 70
   128
 71
    27
 72
    21
 73
    23
  0
VERTEX
  5
A27
  8
0
 10
0.0
 20
0.0
 30
0.0
 70
   128
 71
    24
 72
    27
 73
    23
  0
VERTEX
  5
A28
  8
0
 10
0.0
 20
0.0
 30
0.0
 70
   128
 71
    27
 72
    28
 73
    21
  0
VERTEX
  5
A29
  8
0
 10
0.0
 20
0.0
 30
0.0
 70
   128
 71
    28
 72
    29
 73
    21
  0
VERTEX
  5
A2A
  8
0
 10
0.0
 20
0.0
 30
0.0
 70
   128
 71
    30
 72
    21
 73
    29
  0
VERTEX
  5
A2B
  8
0
 10
0.0
 20
0.0
 30
0.0
 70
   128
 71
    29
 72
    31
 73
    30
  0
VERTEX
  5
A2C
  8
0
 10
0.0
 20
0.0
 30
0.0
 70
   128
 71
    32
 72
    33
 73
    30
  0
VERTEX
  5
A2D
  8
0
 10
0.0
 20
0.0
 30
0.0
 70
   128
 71
    31
 72
    32
 73
    30
  0
VERTEX
  5
A2E
  8
0
 10
0.0
 20
0.0
 30
0.0
 70
   128
 71
    34
 72
    14
 73
    16
  0
VERTEX
  5
A2F
  8
0
 10
0.0
 20
0.0
 30
0.0
 70
   128
 71
    16
 72
    35
 73
    34
  0
VERTEX
  5
A30
  8
0
 10
0.0
 20
0.0
 30
0.0
 70
   128
 71
    36
 72
    19
 73
    18
  0
VERTEX
  5
A31
  8
0
 10
0.0
 20
0.0
 30
0.0
 70
   128
 71
    34
 72
     1
 73
     4
  0
VERTEX
  5
A32
  8
0
 10
0.0
 20
0.0
 30
0.0
 70
   128
 71
    14
 72
    34
 73
     4
  0
VERTEX
  5
A33
  8
0
 10
0.0
 20
0.0
 30
0.0
 70
   128
 71
    33
 72
    18
 73
    17
  0
VERTEX
  5
A34
  8
0
 10
0.0
 20
0.0
 30
0.0
 70
   128
 71
    30
 72
    33
 73
    17
  0
VERTEX
  5
A35
  8
0
 10
0.0
 20
0.0
 30
0.0
 70
   128
 71
    18
 72
    34
 73
   -35
  0
VERTEX
  5
A36
  8
0
 10
0.0
 20
0.0
 30
0.0
 70
   128
 71
    36
 72
   -18
 73
    35
  0
SEQEND
  5
F83
  8
0
  0
POLYLINE
  5
A37
  8
0
 66
     1
 10
0.0
 20
0.0
 30
0.0
 70
    64
 71
    31
 72
    33
  0
VERTEX
  5
A38
  8
0
 10
-350.0000000000001
 20
-125.0
 30
0.0
 70
   192
  0
VERTEX
  5
A39
  8
0
 10
-303.1088913245537
 20
-299.9999999999999
 30
0.0
 70
   192
  0
VERTEX
  5
A3A
  8
0
 10
-175.0000000000002
 20
-428.1088913245535
 30
0.0
 70
   192
  0
VERTEX
  5
A3B
  8
0
 10
-0.0000000000002447
 20
-475.0
 30
0.0
 70
   192
  0
VERTEX
  5
A3C
  8
0
 10
174.9999999999997
 20
-428.1088913245536
 30
0.0
 70
   192
  0
VERTEX
  5
A3D
  8
0
 10
303.1088913245533
 20
-300.0000000000002
 30
0.0
 70
   192
  0
VERTEX
  5
A3E
  8
0
 10
349.9999999999999
 20
-125.0
 30
0.0
 70
   192
  0
VERTEX
  5
A3F
  8
0
 10
349.9364406327013
 20
-118.3301036502927
 30
0.0
 70
   192
  0
VERTEX
  5
A40
  8
0
 10
349.7457856153379
 20
-111.6626297828251
 30
0.0
 70
   192
  0
VERTEX
  5
A41
  8
0
 10
349.4281041931227
 20
-105.0
 30
0.0
 70
   192
  0
VERTEX
  5
A42
  8
0
 10
345.0000000000002
 20
-105.0
 30
0.0
 70
   192
  0
VERTEX
  5
A43
  8
0
 10
345.0000000000003
 20
-92.50000000000009
 30
0.0
 70
   192
  0
VERTEX
  5
A44
  8
0
 10
348.4878046646681
 20
-92.50000000000009
 30
0.0
 70
   192
  0
VERTEX
  5
A45
  8
0
 10
271.2429301898769
 20
96.19510126132886
 30
0.0
 70
   192
  0
VERTEX
  5
A46
  8
0
 10
101.9468144090944
 20
209.8236058461793
 30
0.0
 70
   192
  0
VERTEX
  5
A47
  8
0
 10
-101.9468144090946
 20
209.8236058461793
 30
0.0
 70
   192
  0
VERTEX
  5
A48
  8
0
 10
-271.2429301898771
 20
96.19510126132886
 30
0.0
 70
   192
  0
VERTEX
  5
A49
  8
0
 10
-348.4878046646684
 20
-92.50000000000003
 30
0.0
 70
   192
  0
VERTEX
  5
A4A
  8
0
 10
-345.0000000000001
 20
-92.50000000000003
 30
0.0
 70
   192
  0
VERTEX
  5
A4B
  8
0
 10
-345.0000000000001
 20
-105.0
 30
0.0
 70
   192
  0
VERTEX
  5
A4C
  8
0
 10
-349.4281041931231
 20
-105.0
 30
0.0
 70
   192
  0
VERTEX
  5
A4D
  8
0
 10
-349.7457856153381
 20
-111.6626297828251
 30
0.0
 70
   192
  0
VERTEX
  5
A4E
  8
0
 10
-349.9364406327015
 20
-118.3301036502927
 30
0.0
 70
   192
  0
VERTEX
  5
A4F
  8
0
 10
-85.0
 20
40.09999999999998
 30
0.0
 70
   192
  0
VERTEX
  5
A50
  8
0
 10
-185.0
 20
40.09999999999998
 30
0.0
 70
   192
  0
VERTEX
  5
A51
  8
0
 10
-185.0
 20
115.1
 30
0.0
 70
   192
  0
VERTEX
  5
A52
  8
0
 10
-85.0
 20
115.1
 30
0.0
 70
   192
  0
VERTEX
  5
A53
  8
0
 10
93.50000000000013
 20
-345.0
 30
0.0
 70
   192
  0
VERTEX
  5
A54
  8
0
 10
-93.50000000000013
 20
-345.0
 30
0.0
 70
   192
  0
VERTEX
  5
A55
  8
0
 10
-93.4999999999999
 20
-167.9999999999999
 30
0.0
 70
   192
  0
VERTEX
  5
A56
  8
0
 10
93.5000000000001
 20
-168.0
 30
0.0
 70
   192
  0
VERTEX
  5
A57
  8
0
 10
0.0
 20
0.0
 30
0.0
 70
   128
 71
    19
 72
    18
 73
   -17
  0
VERTEX
  5
A58
  8
0
 10
0.0
 20
0.0
 30
0.0
 70
   128
 71
     8
 72
    -7
 73
   -11
  0
VERTEX
  5
A59
  8
0
 10
0.0
 20
0.0
 30
0.0
 70
   128
 71
   -11
 72
     9
 73
    -8
  0
VERTEX
  5
A5A
  8
0
 10
0.0
 20
0.0
 30
0.0
 70
   128
 71
    11
 72
    10
 73
    -9
  0
VERTEX
  5
A5B
  8
0
 10
0.0
 20
0.0
 30
0.0
 70
   128
 71
    31
 72
   -30
 73
   -20
  0
VERTEX
  5
A5C
  8
0
 10
0.0
 20
0.0
 30
0.0
 70
   128
 71
   -31
 72
   -20
 73
   -25
  0
VERTEX
  5
A5D
  8
0
 10
0.0
 20
0.0
 30
0.0
 70
   128
 71
   -31
 72
    25
 73
   -24
  0
VERTEX
  5
A5E
  8
0
 10
0.0
 20
0.0
 30
0.0
 70
   128
 71
   -31
 72
   -24
 73
    -7
  0
VERTEX
  5
A5F
  8
0
 10
0.0
 20
0.0
 30
0.0
 70
   128
 71
     7
 72
     6
 73
    -5
  0
VERTEX
  5
A60
  8
0
 10
0.0
 20
0.0
 30
0.0
 70
   128
 71
    -7
 72
    -5
 73
   -28
  0
VERTEX
  5
A61
  8
0
 10
0.0
 20
0.0
 30
0.0
 70
   128
 71
    -7
 72
    28
 73
   -31
  0
VERTEX
  5
A62
  8
0
 10
0.0
 20
0.0
 30
0.0
 70
   128
 71
    20
 72
   -19
 73
   -17
  0
VERTEX
  5
A63
  8
0
 10
0.0
 20
0.0
 30
0.0
 70
   128
 71
   -20
 72
   -17
 73
   -25
  0
VERTEX
  5
A64
  8
0
 10
0.0
 20
0.0
 30
0.0
 70
   128
 71
   -17
 72
    26
 73
   -25
  0
VERTEX
  5
A65
  8
0
 10
0.0
 20
0.0
 30
0.0
 70
   128
 71
   -26
 72
    17
 73
   -16
  0
VERTEX
  5
A66
  8
0
 10
0.0
 20
0.0
 30
0.0
 70
   128
 71
   -16
 72
    27
 73
   -26
  0
VERTEX
  5
A67
  8
0
 10
0.0
 20
0.0
 30
0.0
 70
   128
 71
   -27
 72
    16
 73
   -15
  0
VERTEX
  5
A68
  8
0
 10
0.0
 20
0.0
 30
0.0
 70
   128
 71
    15
 72
   -14
 73
   -11
  0
VERTEX
  5
A69
  8
0
 10
0.0
 20
0.0
 30
0.0
 70
   128
 71
   -15
 72
   -11
 73
    -7
  0
VERTEX
  5
A6A
  8
0
 10
0.0
 20
0.0
 30
0.0
 70
   128
 71
   -15
 72
    -7
 73
   -24
  0
VERTEX
  5
A6B
  8
0
 10
0.0
 20
0.0
 30
0.0
 70
   128
 71
   -15
 72
    24
 73
   -27
  0
VERTEX
  5
A6C
  8
0
 10
0.0
 20
0.0
 30
0.0
 70
   128
 71
   -14
 72
    12
 73
   -11
  0
VERTEX
  5
A6D
  8
0
 10
0.0
 20
0.0
 30
0.0
 70
   128
 71
    14
 72
    13
 73
   -12
  0
VERTEX
  5
A6E
  8
0
 10
0.0
 20
0.0
 30
0.0
 70
   128
 71
   -30
 72
   -22
 73
   -20
  0
VERTEX
  5
A6F
  8
0
 10
0.0
 20
0.0
 30
0.0
 70
   128
 71
    22
 72
    21
 73
   -20
  0
VERTEX
  5
A70
  8
0
 10
0.0
 20
0.0
 30
0.0
 70
   128
 71
    29
 72
   -28
 73
    -5
  0
VERTEX
  5
A71
  8
0
 10
0.0
 20
0.0
 30
0.0
 70
   128
 71
   -29
 72
     5
 73
    -4
  0
VERTEX
  5
A72
  8
0
 10
0.0
 20
0.0
 30
0.0
 70
   128
 71
   -29
 72
     4
 73
    -3
  0
VERTEX
  5
A73
  8
0
 10
0.0
 20
0.0
 30
0.0
 70
   128
 71
    23
 72
   -22
 73
   -30
  0
VERTEX
  5
A74
  8
0
 10
0.0
 20
0.0
 30
0.0
 70
   128
 71
    30
 72
   -29
 73
    -3
  0
VERTEX
  5
A75
  8
0
 10
0.0
 20
0.0
 30
0.0
 70
   128
 71
   -30
 72
     3
 73
    -2
  0
VERTEX
  5
A76
  8
0
 10
0.0
 20
0.0
 30
0.0
 70
   128
 71
   -30
 72
     2
 73
    -1
  0
VERTEX
  5
A77
  8
0
 10
0.0
 20
0.0
 30
0.0
 70
   128
 71
   -30
 72
     1
 73
   -23
  0
SEQEND
  5
F84
  8
0
  0
POLYLINE
  5
A78
  8
0
 66
     1
 10
0.0
 20
0.0
 30
0.0
 70
    64
 71
    29
 72
    27
  0
VERTEX
  5
A79
  8
0
 10
-376.8948650206956
 20
-99.28787341599974
 30
6.226824061570927
 70
   192
  0
VERTEX
  5
A7A
  8
0
 10
-376.7268753857544
 20
-99.01867014140993
 30
6.244234199244003
 70
   192
  0
VERTEX
  5
A7B
  8
0
 10
-376.5597008720713
 20
-98.75000000000001
 30
6.250000000000005
 70
   192
  0
VERTEX
  5
A7C
  8
0
 10
-378.0000000000002
 20
-98.75000000000003
 30
6.250000000000005
 70
   192
  0
VERTEX
  5
A7D
  8
0
 10
-377.0636795005701
 20
-99.55761887192865
 30
6.197600483873165
 70
   192
  0
VERTEX
  5
A7E
  8
0
 10
-378.0000000000002
 20
-103.169417382416
 30
4.419417382415927
 70
   192
  0
VERTEX
  5
A7F
  8
0
 10
-375.5787908300849
 20
-100.488247454609
 30
6.003415343497861
 70
   192
  0
VERTEX
  5
A80
  8
0
 10
-374.1500083987436
 20
-101.3837124113207
 30
5.667985438800582
 70
   192
  0
VERTEX
  5
A81
  8
0
 10
-372.826990933844
 20
-102.2128909838924
 30
5.20296896335901
 70
   192
  0
VERTEX
  5
A82
  8
0
 10
-354.3880162700727
 20
-104.164107202152
 30
-3.122604173666445
 70
   192
  0
VERTEX
  5
A83
  8
0
 10
-378.0000000000002
 20
-105.0
 30
0.0000000000000007
 70
   192
  0
VERTEX
  5
A84
  8
0
 10
-378.0000000000002
 20
-103.169417382416
 30
-4.419417382415926
 70
   192
  0
VERTEX
  5
A85
  8
0
 10
-371.4291057037271
 20
-99.9559154173327
 30
-6.132576215724376
 70
   192
  0
VERTEX
  5
A86
  8
0
 10
-370.6957089326445
 20
-98.75000000000001
 30
-6.250000000000005
 70
   192
  0
VERTEX
  5
A87
  8
0
 10
-354.0281591907628
 20
-98.75000000000003
 30
-6.250000000000005
 70
   192
  0
VERTEX
  5
A88
  8
0
 10
-374.1500083987436
 20
-101.3837124113208
 30
-5.667985438800552
 70
   192
  0
VERTEX
  5
A89
  8
0
 10
-372.8269909338441
 20
-102.2128909838925
 30
-5.202968963358935
 70
   192
  0
VERTEX
  5
A8A
  8
0
 10
-375.5787908300849
 20
-100.488247454609
 30
-6.003415343497848
 70
   192
  0
VERTEX
  5
A8B
  8
0
 10
-377.0636795005701
 20
-99.55761887192865
 30
-6.197600483873149
 70
   192
  0
VERTEX
  5
A8C
  8
0
 10
-378.0000000000002
 20
-98.75000000000003
 30
-6.250000000000005
 70
   192
  0
VERTEX
  5
A8D
  8
0
 10
-376.8950522677504
 20
-99.28817303345568
 30
-6.226797884788546
 70
   192
  0
VERTEX
  5
A8E
  8
0
 10
-376.7270610341497
 20
-99.01896805862464
 30
-6.244221110852813
 70
   192
  0
VERTEX
  5
A8F
  8
0
 10
-376.5597008720713
 20
-98.75000000000003
 30
-6.250000000000005
 70
   192
  0
VERTEX
  5
A90
  8
0
 10
-354.3877523464644
 20
-104.159617627945
 30
3.130375004278839
 70
   192
  0
VERTEX
  5
A91
  8
0
 10
-372.1458332070989
 20
-101.1198031403362
 30
5.783661562144192
 70
   192
  0
VERTEX
  5
A92
  8
0
 10
-371.430937171944
 20
-99.95890781568612
 30
6.131987406892379
 70
   192
  0
VERTEX
  5
A93
  8
0
 10
-354.0281591907627
 20
-98.75000000000003
 30
6.250000000000005
 70
   192
  0
VERTEX
  5
A94
  8
0
 10
-370.6957089326445
 20
-98.75000000000003
 30
6.250000000000005
 70
   192
  0
VERTEX
  5
A95
  8
0
 10
-372.1438226326455
 20
-101.1165596374117
 30
-5.784646400801898
 70
   192
  0
VERTEX
  5
A96
  8
0
 10
0.0
 20
0.0
 30
0.0
 70
   128
 71
     1
 72
     2
 73
     3
  0
VERTEX
  5
A97
  8
0
 10
0.0
 20
0.0
 30
0.0
 70
   128
 71
     1
 72
     3
 73
     4
  0
VERTEX
  5
A98
  8
0
 10
0.0
 20
0.0
 30
0.0
 70
   128
 71
     4
 72
     5
 73
     1
  0
VERTEX
  5
A99
  8
0
 10
0.0
 20
0.0
 30
0.0
 70
   128
 71
     5
 72
     4
 73
     6
  0
VERTEX
  5
A9A
  8
0
 10
0.0
 20
0.0
 30
0.0
 70
   128
 71
     6
 72
     7
 73
     5
  0
VERTEX
  5
A9B
  8
0
 10
0.0
 20
0.0
 30
0.0
 70
   128
 71
     6
 72
     8
 73
     7
  0
VERTEX
  5
A9C
  8
0
 10
0.0
 20
0.0
 30
0.0
 70
   128
 71
     6
 72
     9
 73
     8
  0
VERTEX
  5
A9D
  8
0
 10
0.0
 20
0.0
 30
0.0
 70
   128
 71
    10
 72
    11
 73
    12
  0
VERTEX
  5
A9E
  8
0
 10
0.0
 20
0.0
 30
0.0
 70
   128
 71
    13
 72
    14
 73
    15
  0
VERTEX
  5
A9F
  8
0
 10
0.0
 20
0.0
 30
0.0
 70
   128
 71
    12
 72
    16
 73
    17
  0
VERTEX
  5
AA0
  8
0
 10
0.0
 20
0.0
 30
0.0
 70
   128
 71
    12
 72
    18
 73
    16
  0
VERTEX
  5
AA1
  8
0
 10
0.0
 20
0.0
 30
0.0
 70
   128
 71
    12
 72
    19
 73
    18
  0
VERTEX
  5
AA2
  8
0
 10
0.0
 20
0.0
 30
0.0
 70
   128
 71
    12
 72
    20
 73
    19
  0
VERTEX
  5
AA3
  8
0
 10
0.0
 20
0.0
 30
0.0
 70
   128
 71
    20
 72
    21
 73
    19
  0
VERTEX
  5
AA4
  8
0
 10
0.0
 20
0.0
 30
0.0
 70
   128
 71
    20
 72
    22
 73
    21
  0
VERTEX
  5
AA5
  8
0
 10
0.0
 20
0.0
 30
0.0
 70
   128
 71
    20
 72
    23
 73
    22
  0
VERTEX
  5
AA6
  8
0
 10
0.0
 20
0.0
 30
0.0
 70
   128
 71
     9
 72
     6
 73
    24
  0
VERTEX
  5
AA7
  8
0
 10
0.0
 20
0.0
 30
0.0
 70
   128
 71
    24
 72
    25
 73
     9
  0
VERTEX
  5
AA8
  8
0
 10
0.0
 20
0.0
 30
0.0
 70
   128
 71
    24
 72
    26
 73
    25
  0
VERTEX
  5
AA9
  8
0
 10
0.0
 20
0.0
 30
0.0
 70
   128
 71
    24
 72
    27
 73
    28
  0
VERTEX
  5
AAA
  8
0
 10
0.0
 20
0.0
 30
0.0
 70
   128
 71
    24
 72
    28
 73
    26
  0
VERTEX
  5
AAB
  8
0
 10
0.0
 20
0.0
 30
0.0
 70
   128
 71
    24
 72
     6
 73
    11
  0
VERTEX
  5
AAC
  8
0
 10
0.0
 20
0.0
 30
0.0
 70
   128
 71
    24
 72
    11
 73
    10
  0
VERTEX
  5
AAD
  8
0
 10
0.0
 20
0.0
 30
0.0
 70
   128
 71
    29
 72
    13
 73
    15
  0
VERTEX
  5
AAE
  8
0
 10
0.0
 20
0.0
 30
0.0
 70
   128
 71
    29
 72
    15
 73
    10
  0
VERTEX
  5
AAF
  8
0
 10
0.0
 20
0.0
 30
0.0
 70
   128
 71
    10
 72
    17
 73
    29
  0
VERTEX
  5
AB0
  8
0
 10
0.0
 20
0.0
 30
0.0
 70
   128
 71
    10
 72
    12
 73
    17
  0
SEQEND
  5
F85
  8
0
  0
POLYLINE
  5
AB1
  8
0
 66
     1
 10
0.0
 20
0.0
 30
0.0
 70
    64
 71
    14
 72
    12
  0
VERTEX
  5
AB2
  8
0
 10
307.4390183434755
 20
-302.5000000000002
 30
-25.0
 70
   192
  0
VERTEX
  5
AB3
  8
0
 10
354.9999999999999
 20
-125.0000000000003
 30
-25.0
 70
   192
  0
VERTEX
  5
AB4
  8
0
 10
354.9999999999999
 20
-125.0
 30
25.0
 70
   192
  0
VERTEX
  5
AB5
  8
0
 10
307.4390183434755
 20
-302.5000000000002
 30
25.0
 70
   192
  0
VERTEX
  5
AB6
  8
0
 10
177.4999999999997
 20
-432.4390183434758
 30
25.0
 70
   192
  0
VERTEX
  5
AB7
  8
0
 10
-0.0000000000002466
 20
-480.0
 30
25.0
 70
   192
  0
VERTEX
  5
AB8
  8
0
 10
-0.0000000000002466
 20
-480.0
 30
-25.0
 70
   192
  0
VERTEX
  5
AB9
  8
0
 10
177.4999999999997
 20
-432.4390183434758
 30
-25.0
 70
   192
  0
VERTEX
  5
ABA
  8
0
 10
-177.5000000000002
 20
-432.4390183434757
 30
-25.0
 70
   192
  0
VERTEX
  5
ABB
  8
0
 10
-177.5000000000002
 20
-432.4390183434757
 30
25.0
 70
   192
  0
VERTEX
  5
ABC
  8
0
 10
-307.4390183434759
 20
-302.4999999999999
 30
25.0
 70
   192
  0
VERTEX
  5
ABD
  8
0
 10
-355.0000000000001
 20
-125.0
 30
25.0
 70
   192
  0
VERTEX
  5
ABE
  8
0
 10
-355.0000000000001
 20
-125.0
 30
-25.0
 70
   192
  0
VERTEX
  5
ABF
  8
0
 10
-307.4390183434759
 20
-302.4999999999999
 30
-25.0
 70
   192
  0
VERTEX
  5
AC0
  8
0
 10
0.0
 20
0.0
 30
0.0
 70
   128
 71
     1
 72
     2
 73
    -3
  0
VERTEX
  5
AC1
  8
0
 10
0.0
 20
0.0
 30
0.0
 70
   128
 71
    -1
 72
     3
 73
     4
  0
VERTEX
  5
AC2
  8
0
 10
0.0
 20
0.0
 30
0.0
 70
   128
 71
     5
 72
     6
 73
    -7
  0
VERTEX
  5
AC3
  8
0
 10
0.0
 20
0.0
 30
0.0
 70
   128
 71
    -5
 72
     7
 73
     8
  0
VERTEX
  5
AC4
  8
0
 10
0.0
 20
0.0
 30
0.0
 70
   128
 71
     9
 72
     7
 73
    -6
  0
VERTEX
  5
AC5
  8
0
 10
0.0
 20
0.0
 30
0.0
 70
   128
 71
    -9
 72
     6
 73
    10
  0
VERTEX
  5
AC6
  8
0
 10
0.0
 20
0.0
 30
0.0
 70
   128
 71
    11
 72
    12
 73
   -13
  0
VERTEX
  5
AC7
  8
0
 10
0.0
 20
0.0
 30
0.0
 70
   128
 71
   -11
 72
    13
 73
    14
  0
VERTEX
  5
AC8
  8
0
 10
0.0
 20
0.0
 30
0.0
 70
   128
 71
     1
 72
     4
 73
    -5
  0
VERTEX
  5
AC9
  8
0
 10
0.0
 20
0.0
 30
0.0
 70
   128
 71
    -1
 72
     5
 73
     8
  0
VERTEX
  5
ACA
  8
0
 10
0.0
 20
0.0
 30
0.0
 70
   128
 71
     9
 72
    10
 73
   -11
  0
VERTEX
  5
ACB
  8
0
 10
0.0
 20
0.0
 30
0.0
 70
   128
 71
    -9
 72
    11
 73
    14
  0
SEQEND
  5
F86
  8
0
  0
POLYLINE
  5
ACC
  8
0
 66
     1
 10
0.0
 20
0.0
 30
0.0
 70
    64
 71
    24
 72
    24
  0
VERTEX
  5
ACD
  8
0
 10
-355.0000000000001
 20
-125.0
 30
25.0
 70
   192
  0
VERTEX
  5
ACE
  8
0
 10
-307.4390183434759
 20
-302.4999999999999
 30
25.0
 70
   192
  0
VERTEX
  5
ACF
  8
0
 10
-177.5000000000002
 20
-432.4390183434757
 30
25.0
 70
   192
  0
VERTEX
  5
AD0
  8
0
 10
-0.0000000000002466
 20
-480.0
 30
25.0
 70
   192
  0
VERTEX
  5
AD1
  8
0
 10
177.4999999999997
 20
-432.4390183434758
 30
25.0
 70
   192
  0
VERTEX
  5
AD2
  8
0
 10
307.4390183434755
 20
-302.5000000000002
 30
25.0
 70
   192
  0
VERTEX
  5
AD3
  8
0
 10
354.9999999999999
 20
-125.0000000000003
 30
25.0
 70
   192
  0
VERTEX
  5
AD4
  8
0
 10
307.4390183434756
 20
52.5
 30
25.0
 70
   192
  0
VERTEX
  5
AD5
  8
0
 10
177.4999999999999
 20
182.4390183434757
 30
25.0
 70
   192
  0
VERTEX
  5
AD6
  8
0
 10
-0.0000000000000693
 20
230.0
 30
25.0
 70
   192
  0
VERTEX
  5
AD7
  8
0
 10
-177.5000000000001
 20
182.4390183434758
 30
25.0
 70
   192
  0
VERTEX
  5
AD8
  8
0
 10
-307.4390183434758
 20
52.50000000000009
 30
25.0
 70
   192
  0
VERTEX
  5
AD9
  8
0
 10
349.9999999999999
 20
-125.0000000000003
 30
25.0
 70
   192
  0
VERTEX
  5
ADA
  8
0
 10
303.1088913245533
 20
-300.0000000000002
 30
25.0
 70
   192
  0
VERTEX
  5
ADB
  8
0
 10
174.9999999999997
 20
-428.1088913245536
 30
25.0
 70
   192
  0
VERTEX
  5
ADC
  8
0
 10
-0.0000000000002447
 20
-475.0
 30
25.0
 70
   192
  0
VERTEX
  5
ADD
  8
0
 10
-175.0000000000002
 20
-428.1088913245535
 30
25.0
 70
   192
  0
VERTEX
  5
ADE
  8
0
 10
-303.1088913245537
 20
-299.9999999999999
 30
25.0
 70
   192
  0
VERTEX
  5
ADF
  8
0
 10
-350.0000000000001
 20
-125.0
 30
25.0
 70
   192
  0
VERTEX
  5
AE0
  8
0
 10
-303.1088913245536
 20
50.00000000000009
 30
25.0
 70
   192
  0
VERTEX
  5
AE1
  8
0
 10
-175.0000000000001
 20
178.1088913245536
 30
25.0
 70
   192
  0
VERTEX
  5
AE2
  8
0
 10
-0.0000000000000698
 20
225.0
 30
25.0
 70
   192
  0
VERTEX
  5
AE3
  8
0
 10
174.9999999999999
 20
178.1088913245535
 30
25.0
 70
   192
  0
VERTEX
  5
AE4
  8
0
 10
303.1088913245534
 20
50.0
 30
25.0
 70
   192
  0
VERTEX
  5
AE5
  8
0
 10
0.0
 20
0.0
 30
0.0
 70
   128
 71
    -7
 72
    13
 73
   -14
  0
VERTEX
  5
AE6
  8
0
 10
0.0
 20
0.0
 30
0.0
 70
   128
 71
     6
 72
    -7
 73
   -14
  0
VERTEX
  5
AE7
  8
0
 10
0.0
 20
0.0
 30
0.0
 70
   128
 71
   -15
 72
     5
 73
    -6
  0
VERTEX
  5
AE8
  8
0
 10
0.0
 20
0.0
 30
0.0
 70
   128
 71
    14
 72
   -15
 73
    -6
  0
VERTEX
  5
AE9
  8
0
 10
0.0
 20
0.0
 30
0.0
 70
   128
 71
   -16
 72
     4
 73
    -5
  0
VERTEX
  5
AEA
  8
0
 10
0.0
 20
0.0
 30
0.0
 70
   128
 71
    15
 72
   -16
 73
    -5
  0
VERTEX
  5
AEB
  8
0
 10
0.0
 20
0.0
 30
0.0
 70
   128
 71
   -17
 72
     3
 73
    -4
  0
VERTEX
  5
AEC
  8
0
 10
0.0
 20
0.0
 30
0.0
 70
   128
 71
    16
 72
   -17
 73
    -4
  0
VERTEX
  5
AED
  8
0
 10
0.0
 20
0.0
 30
0.0
 70
   128
 71
   -18
 72
     2
 73
    -3
  0
VERTEX
  5
AEE
  8
0
 10
0.0
 20
0.0
 30
0.0
 70
   128
 71
    17
 72
   -18
 73
    -3
  0
VERTEX
  5
AEF
  8
0
 10
0.0
 20
0.0
 30
0.0
 70
   128
 71
   -19
 72
     1
 73
    -2
  0
VERTEX
  5
AF0
  8
0
 10
0.0
 20
0.0
 30
0.0
 70
   128
 71
    18
 72
   -19
 73
    -2
  0
VERTEX
  5
AF1
  8
0
 10
0.0
 20
0.0
 30
0.0
 70
   128
 71
   -20
 72
    12
 73
    -1
  0
VERTEX
  5
AF2
  8
0
 10
0.0
 20
0.0
 30
0.0
 70
   128
 71
    19
 72
   -20
 73
    -1
  0
VERTEX
  5
AF3
  8
0
 10
0.0
 20
0.0
 30
0.0
 70
   128
 71
   -21
 72
    11
 73
   -12
  0
VERTEX
  5
AF4
  8
0
 10
0.0
 20
0.0
 30
0.0
 70
   128
 71
    20
 72
   -21
 73
   -12
  0
VERTEX
  5
AF5
  8
0
 10
0.0
 20
0.0
 30
0.0
 70
   128
 71
   -22
 72
    10
 73
   -11
  0
VERTEX
  5
AF6
  8
0
 10
0.0
 20
0.0
 30
0.0
 70
   128
 71
    21
 72
   -22
 73
   -11
  0
VERTEX
  5
AF7
  8
0
 10
0.0
 20
0.0
 30
0.0
 70
   128
 71
   -23
 72
     9
 73
   -10
  0
VERTEX
  5
AF8
  8
0
 10
0.0
 20
0.0
 30
0.0
 70
   128
 71
    22
 72
   -23
 73
   -10
  0
VERTEX
  5
AF9
  8
0
 10
0.0
 20
0.0
 30
0.0
 70
   128
 71
   -24
 72
     8
 73
    -9
  0
VERTEX
  5
AFA
  8
0
 10
0.0
 20
0.0
 30
0.0
 70
   128
 71
    23
 72
   -24
 73
    -9
  0
VERTEX
  5
AFB
  8
0
 10
0.0
 20
0.0
 30
0.0
 70
   128
 71
   -13
 72
     7
 73
    -8
  0
VERTEX
  5
AFC
  8
0
 10
0.0
 20
0.0
 30
0.0
 70
   128
 71
    24
 72
   -13
 73
    -8
  0
SEQEND
  5
F87
  8
0
  0
POLYLINE
  5
AFD
  8
0
 66
     1
 10
0.0
 20
0.0
 30
0.0
 70
    64
 71
    43
 72
    45
  0
VERTEX
  5
AFE
  8
0
 10
354.9999999999999
 20
-125.0
 30
-25.0
 70
   192
  0
VERTEX
  5
AFF
  8
0
 10
307.4390183434756
 20
52.5
 30
-25.0
 70
   192
  0
VERTEX
  5
B00
  8
0
 10
177.4999999999999
 20
182.4390183434757
 30
-25.0
 70
   192
  0
VERTEX
  5
B01
  8
0
 10
-0.0000000000000693
 20
230.0
 30
-25.0
 70
   192
  0
VERTEX
  5
B02
  8
0
 10
-177.5000000000001
 20
182.4390183434758
 30
-25.0
 70
   192
  0
VERTEX
  5
B03
  8
0
 10
-307.4390183434758
 20
52.50000000000009
 30
-25.0
 70
   192
  0
VERTEX
  5
B04
  8
0
 10
-355.0000000000001
 20
-125.0
 30
-25.0
 70
   192
  0
VERTEX
  5
B05
  8
0
 10
-307.4390183434759
 20
-302.4999999999999
 30
-25.0
 70
   192
  0
VERTEX
  5
B06
  8
0
 10
-177.5000000000002
 20
-432.4390183434757
 30
-25.0
 70
   192
  0
VERTEX
  5
B07
  8
0
 10
-0.0000000000002466
 20
-480.0
 30
-25.0
 70
   192
  0
VERTEX
  5
B08
  8
0
 10
177.4999999999997
 20
-432.4390183434758
 30
-25.0
 70
   192
  0
VERTEX
  5
B09
  8
0
 10
307.4390183434755
 20
-302.5000000000002
 30
-25.0
 70
   192
  0
VERTEX
  5
B0A
  8
0
 10
-4.999999999999996
 20
224.9642838919422
 30
-25.0
 70
   192
  0
VERTEX
  5
B0B
  8
0
 10
-5.000000000000005
 20
189.9647869859769
 30
-25.0
 70
   192
  0
VERTEX
  5
B0C
  8
0
 10
4.999999999999995
 20
189.9647869859769
 30
-25.0
 70
   192
  0
VERTEX
  5
B0D
  8
0
 10
5.000000000000146
 20
224.9642838919423
 30
-25.0
 70
   192
  0
VERTEX
  5
B0E
  8
0
 10
177.878868912159
 20
176.4284458947611
 30
-25.0
 70
   192
  0
VERTEX
  5
B0F
  8
0
 10
303.9388130193769
 20
48.55459642536741
 30
-25.0
 70
   192
  0
VERTEX
  5
B10
  8
0
 10
349.9999999999999
 20
-125.0000000000003
 30
-25.0
 70
   192
  0
VERTEX
  5
B11
  8
0
 10
303.1088913245533
 20
-300.0000000000002
 30
-25.0
 70
   192
  0
VERTEX
  5
B12
  8
0
 10
174.9999999999997
 20
-428.1088913245536
 30
-25.0
 70
   192
  0
VERTEX
  5
B13
  8
0
 10
-0.0000000000002447
 20
-475.0
 30
-25.0
 70
   192
  0
VERTEX
  5
B14
  8
0
 10
-175.0000000000002
 20
-428.1088913245535
 30
-25.0
 70
   192
  0
VERTEX
  5
B15
  8
0
 10
-303.1088913245537
 20
-299.9999999999999
 30
-25.0
 70
   192
  0
VERTEX
  5
B16
  8
0
 10
-350.0000000000001
 20
-124.9999999999999
 30
-25.0
 70
   192
  0
VERTEX
  5
B17
  8
0
 10
-303.9388130193771
 20
48.55459642536752
 30
-25.0
 70
   192
  0
VERTEX
  5
B18
  8
0
 10
-177.8788689121591
 20
176.4284458947612
 30
-25.0
 70
   192
  0
VERTEX
  5
B19
  8
0
 10
3.999999999999887
 20
195.6295683170198
 30
-25.0
 70
   192
  0
VERTEX
  5
B1A
  8
0
 10
2.828427124746077
 20
192.8011411922736
 30
-25.0
 70
   192
  0
VERTEX
  5
B1B
  8
0
 10
-0.0000000000001139
 20
191.6295683170198
 30
-25.0
 70
   192
  0
VERTEX
  5
B1C
  8
0
 10
-2.828427124746304
 20
192.8011411922736
 30
-25.0
 70
   192
  0
VERTEX
  5
B1D
  8
0
 10
-4.000000000000115
 20
195.6295683170198
 30
-25.0
 70
   192
  0
VERTEX
  5
B1E
  8
0
 10
-3.758770483143734
 20
196.9976488903225
 30
-25.0
 70
   192
  0
VERTEX
  5
B1F
  8
0
 10
-3.064177772475972
 20
198.200718755766
 30
-25.0
 70
   192
  0
VERTEX
  5
B20
  8
0
 10
-2.000000000000003
 20
199.0936699321576
 30
-25.0
 70
   192
  0
VERTEX
  5
B21
  8
0
 10
-2.0
 20
215.5000000000007
 30
-25.0
 70
   192
  0
VERTEX
  5
B22
  8
0
 10
-1.414213562373096
 20
216.9142135623738
 30
-25.0
 70
   192
  0
VERTEX
  5
B23
  8
0
 10
-0.0000000000000005
 20
217.5000000000007
 30
-25.0
 70
   192
  0
VERTEX
  5
B24
  8
0
 10
1.414213562373095
 20
216.9142135623738
 30
-25.0
 70
   192
  0
VERTEX
  5
B25
  8
0
 10
2.0
 20
215.5000000000007
 30
-25.0
 70
   192
  0
VERTEX
  5
B26
  8
0
 10
2.000000000000001
 20
199.0936699321575
 30
-25.0
 70
   192
  0
VERTEX
  5
B27
  8
0
 10
3.064177772475856
 20
198.2007187557659
 30
-25.0
 70
   192
  0
VERTEX
  5
B28
  8
0
 10
3.758770483143535
 20
196.9976488903224
 30
-25.0
 70
   192
  0
VERTEX
  5
B29
  8
0
 10
0.0
 20
0.0
 30
0.0
 70
   128
 71
    29
 72
   -28
 73
   -15
  0
VERTEX
  5
B2A
  8
0
 10
0.0
 20
0.0
 30
0.0
 70
   128
 71
   -15
 72
    30
 73
   -29
  0
VERTEX
  5
B2B
  8
0
 10
0.0
 20
0.0
 30
0.0
 70
   128
 71
    15
 72
   -14
 73
   -30
  0
VERTEX
  5
B2C
  8
0
 10
0.0
 20
0.0
 30
0.0
 70
   128
 71
   -14
 72
    31
 73
   -30
  0
VERTEX
  5
B2D
  8
0
 10
0.0
 20
0.0
 30
0.0
 70
   128
 71
   -14
 72
    32
 73
   -31
  0
VERTEX
  5
B2E
  8
0
 10
0.0
 20
0.0
 30
0.0
 70
   128
 71
   -14
 72
    33
 73
   -32
  0
VERTEX
  5
B2F
  8
0
 10
0.0
 20
0.0
 30
0.0
 70
   128
 71
   -33
 72
    14
 73
   -13
  0
VERTEX
  5
B30
  8
0
 10
0.0
 20
0.0
 30
0.0
 70
   128
 71
   -13
 72
    34
 73
   -33
  0
VERTEX
  5
B31
  8
0
 10
0.0
 20
0.0
 30
0.0
 70
   128
 71
   -13
 72
    36
 73
   -35
  0
VERTEX
  5
B32
  8
0
 10
0.0
 20
0.0
 30
0.0
 70
   128
 71
   -13
 72
    35
 73
   -34
  0
VERTEX
  5
B33
  8
0
 10
0.0
 20
0.0
 30
0.0
 70
   128
 71
   -13
 72
    37
 73
   -36
  0
VERTEX
  5
B34
  8
0
 10
0.0
 20
0.0
 30
0.0
 70
   128
 71
   -13
 72
    -4
 73
   -16
  0
VERTEX
  5
B35
  8
0
 10
0.0
 20
0.0
 30
0.0
 70
   128
 71
   -13
 72
   -16
 73
   -38
  0
VERTEX
  5
B36
  8
0
 10
0.0
 20
0.0
 30
0.0
 70
   128
 71
   -13
 72
    38
 73
   -37
  0
VERTEX
  5
B37
  8
0
 10
0.0
 20
0.0
 30
0.0
 70
   128
 71
   -16
 72
    39
 73
   -38
  0
VERTEX
  5
B38
  8
0
 10
0.0
 20
0.0
 30
0.0
 70
   128
 71
   -16
 72
    40
 73
   -39
  0
VERTEX
  5
B39
  8
0
 10
0.0
 20
0.0
 30
0.0
 70
   128
 71
   -16
 72
    42
 73
   -41
  0
VERTEX
  5
B3A
  8
0
 10
0.0
 20
0.0
 30
0.0
 70
   128
 71
   -16
 72
    41
 73
   -40
  0
VERTEX
  5
B3B
  8
0
 10
0.0
 20
0.0
 30
0.0
 70
   128
 71
   -16
 72
    43
 73
   -42
  0
VERTEX
  5
B3C
  8
0
 10
0.0
 20
0.0
 30
0.0
 70
   128
 71
   -16
 72
    28
 73
   -43
  0
VERTEX
  5
B3D
  8
0
 10
0.0
 20
0.0
 30
0.0
 70
   128
 71
    16
 72
   -15
 73
   -28
  0
VERTEX
  5
B3E
  8
0
 10
0.0
 20
0.0
 30
0.0
 70
   128
 71
     4
 72
    -3
 73
   -17
  0
VERTEX
  5
B3F
  8
0
 10
0.0
 20
0.0
 30
0.0
 70
   128
 71
    -4
 72
    17
 73
   -16
  0
VERTEX
  5
B40
  8
0
 10
0.0
 20
0.0
 30
0.0
 70
   128
 71
     3
 72
    -2
 73
   -18
  0
VERTEX
  5
B41
  8
0
 10
0.0
 20
0.0
 30
0.0
 70
   128
 71
    -3
 72
    18
 73
   -17
  0
VERTEX
  5
B42
  8
0
 10
0.0
 20
0.0
 30
0.0
 70
   128
 71
     2
 72
    -1
 73
   -19
  0
VERTEX
  5
B43
  8
0
 10
0.0
 20
0.0
 30
0.0
 70
   128
 71
    -2
 72
    19
 73
   -18
  0
VERTEX
  5
B44
  8
0
 10
0.0
 20
0.0
 30
0.0
 70
   128
 71
     1
 72
   -12
 73
   -20
  0
VERTEX
  5
B45
  8
0
 10
0.0
 20
0.0
 30
0.0
 70
   128
 71
    -1
 72
    20
 73
   -19
  0
VERTEX
  5
B46
  8
0
 10
0.0
 20
0.0
 30
0.0
 70
   128
 71
    12
 72
   -11
 73
   -21
  0
VERTEX
  5
B47
  8
0
 10
0.0
 20
0.0
 30
0.0
 70
   128
 71
   -12
 72
    21
 73
   -20
  0
VERTEX
  5
B48
  8
0
 10
0.0
 20
0.0
 30
0.0
 70
   128
 71
    11
 72
   -10
 73
   -22
  0
VERTEX
  5
B49
  8
0
 10
0.0
 20
0.0
 30
0.0
 70
   128
 71
   -11
 72
    22
 73
   -21
  0
VERTEX
  5
B4A
  8
0
 10
0.0
 20
0.0
 30
0.0
 70
   128
 71
    10
 72
    -9
 73
   -23
  0
VERTEX
  5
B4B
  8
0
 10
0.0
 20
0.0
 30
0.0
 70
   128
 71
   -10
 72
    23
 73
   -22
  0
VERTEX
  5
B4C
  8
0
 10
0.0
 20
0.0
 30
0.0
 70
   128
 71
     9
 72
    -8
 73
   -24
  0
VERTEX
  5
B4D
  8
0
 10
0.0
 20
0.0
 30
0.0
 70
   128
 71
    -9
 72
    24
 73
   -23
  0
VERTEX
  5
B4E
  8
0
 10
0.0
 20
0.0
 30
0.0
 70
   128
 71
     8
 72
    -7
 73
   -25
  0
VERTEX
  5
B4F
  8
0
 10
0.0
 20
0.0
 30
0.0
 70
   128
 71
    -8
 72
    25
 73
   -24
  0
VERTEX
  5
B50
  8
0
 10
0.0
 20
0.0
 30
0.0
 70
   128
 71
     7
 72
    -6
 73
   -26
  0
VERTEX
  5
B51
  8
0
 10
0.0
 20
0.0
 30
0.0
 70
   128
 71
    -7
 72
    26
 73
   -25
  0
VERTEX
  5
B52
  8
0
 10
0.0
 20
0.0
 30
0.0
 70
   128
 71
     6
 72
    -5
 73
   -27
  0
VERTEX
  5
B53
  8
0
 10
0.0
 20
0.0
 30
0.0
 70
   128
 71
    -6
 72
    27
 73
   -26
  0
VERTEX
  5
B54
  8
0
 10
0.0
 20
0.0
 30
0.0
 70
   128
 71
     5
 72
    -4
 73
   -13
  0
VERTEX
  5
B55
  8
0
 10
0.0
 20
0.0
 30
0.0
 70
   128
 71
    -5
 72
    13
 73
   -27
  0
SEQEND
  5
F88
  8
0
  0
POLYLINE
  5
B56
  8
0
 66
     1
 10
0.0
 20
0.0
 30
0.0
 70
    64
 71
    14
 72
    12
  0
VERTEX
  5
B57
  8
0
 10
-350.0000000000001
 20
-124.9999999999999
 30
25.0
 70
   192
  0
VERTEX
  5
B58
  8
0
 10
-350.0000000000001
 20
-125.0
 30
13.0
 70
   192
  0
VERTEX
  5
B59
  8
0
 10
-303.1088913245536
 20
50.00000000000009
 30
13.0
 70
   192
  0
VERTEX
  5
B5A
  8
0
 10
-303.1088913245536
 20
50.00000000000009
 30
25.0
 70
   192
  0
VERTEX
  5
B5B
  8
0
 10
-0.0000000000000698
 20
225.0
 30
13.0
 70
   192
  0
VERTEX
  5
B5C
  8
0
 10
-0.0000000000000698
 20
225.0
 30
25.0
 70
   192
  0
VERTEX
  5
B5D
  8
0
 10
-175.0000000000001
 20
178.1088913245536
 30
25.0
 70
   192
  0
VERTEX
  5
B5E
  8
0
 10
-175.0000000000001
 20
178.1088913245536
 30
13.0
 70
   192
  0
VERTEX
  5
B5F
  8
0
 10
174.9999999999999
 20
178.1088913245535
 30
13.0
 70
   192
  0
VERTEX
  5
B60
  8
0
 10
174.9999999999999
 20
178.1088913245535
 30
25.0
 70
   192
  0
VERTEX
  5
B61
  8
0
 10
349.9999999999999
 20
-125.0
 30
13.0
 70
   192
  0
VERTEX
  5
B62
  8
0
 10
349.9999999999999
 20
-125.0
 30
25.0
 70
   192
  0
VERTEX
  5
B63
  8
0
 10
303.1088913245534
 20
50.0
 30
25.0
 70
   192
  0
VERTEX
  5
B64
  8
0
 10
303.1088913245534
 20
50.0
 30
13.0
 70
   192
  0
VERTEX
  5
B65
  8
0
 10
0.0
 20
0.0
 30
0.0
 70
   128
 71
     1
 72
     2
 73
    -3
  0
VERTEX
  5
B66
  8
0
 10
0.0
 20
0.0
 30
0.0
 70
   128
 71
     4
 72
    -1
 73
     3
  0
VERTEX
  5
B67
  8
0
 10
0.0
 20
0.0
 30
0.0
 70
   128
 71
     5
 72
     6
 73
    -7
  0
VERTEX
  5
B68
  8
0
 10
0.0
 20
0.0
 30
0.0
 70
   128
 71
     8
 72
    -5
 73
     7
  0
VERTEX
  5
B69
  8
0
 10
0.0
 20
0.0
 30
0.0
 70
   128
 71
     6
 72
     5
 73
    -9
  0
VERTEX
  5
B6A
  8
0
 10
0.0
 20
0.0
 30
0.0
 70
   128
 71
    10
 72
    -6
 73
     9
  0
VERTEX
  5
B6B
  8
0
 10
0.0
 20
0.0
 30
0.0
 70
   128
 71
    11
 72
    12
 73
   -13
  0
VERTEX
  5
B6C
  8
0
 10
0.0
 20
0.0
 30
0.0
 70
   128
 71
    14
 72
   -11
 73
    13
  0
VERTEX
  5
B6D
  8
0
 10
0.0
 20
0.0
 30
0.0
 70
   128
 71
     7
 72
     4
 73
    -3
  0
VERTEX
  5
B6E
  8
0
 10
0.0
 20
0.0
 30
0.0
 70
   128
 71
     8
 72
    -7
 73
     3
  0
VERTEX
  5
B6F
  8
0
 10
0.0
 20
0.0
 30
0.0
 70
   128
 71
    13
 72
    10
 73
    -9
  0
VERTEX
  5
B70
  8
0
 10
0.0
 20
0.0
 30
0.0
 70
   128
 71
    14
 72
   -13
 73
     9
  0
SEQEND
  5
F89
  8
0
  0
POLYLINE
  5
B71
  8
0
 66
     1
 10
0.0
 20
0.0
 30
0.0
 70
    64
 71
    12
 72
    10
  0
VERTEX
  5
B72
  8
0
 10
-350.0000000000001
 20
-125.0
 30
13.0
 70
   192
  0
VERTEX
  5
B73
  8
0
 10
-303.1088913245537
 20
-299.9999999999999
 30
13.0
 70
   192
  0
VERTEX
  5
B74
  8
0
 10
-175.0000000000002
 20
-428.1088913245535
 30
13.0
 70
   192
  0
VERTEX
  5
B75
  8
0
 10
-0.0000000000002447
 20
-475.0
 30
13.0
 70
   192
  0
VERTEX
  5
B76
  8
0
 10
174.9999999999997
 20
-428.1088913245536
 30
13.0
 70
   192
  0
VERTEX
  5
B77
  8
0
 10
303.1088913245533
 20
-300.0000000000002
 30
13.0
 70
   192
  0
VERTEX
  5
B78
  8
0
 10
349.9999999999999
 20
-125.0000000000003
 30
13.0
 70
   192
  0
VERTEX
  5
B79
  8
0
 10
303.1088913245534
 20
50.0
 30
13.0
 70
   192
  0
VERTEX
  5
B7A
  8
0
 10
174.9999999999999
 20
178.1088913245535
 30
13.0
 70
   192
  0
VERTEX
  5
B7B
  8
0
 10
-0.0000000000000698
 20
225.0
 30
13.0
 70
   192
  0
VERTEX
  5
B7C
  8
0
 10
-175.0000000000001
 20
178.1088913245536
 30
13.0
 70
   192
  0
VERTEX
  5
B7D
  8
0
 10
-303.1088913245536
 20
50.00000000000009
 30
13.0
 70
   192
  0
VERTEX
  5
B7E
  8
0
 10
0.0
 20
0.0
 30
0.0
 70
   128
 71
    11
 72
    12
 73
    -1
  0
VERTEX
  5
B7F
  8
0
 10
0.0
 20
0.0
 30
0.0
 70
   128
 71
    10
 72
   -11
 73
    -1
  0
VERTEX
  5
B80
  8
0
 10
0.0
 20
0.0
 30
0.0
 70
   128
 71
     9
 72
   -10
 73
    -1
  0
VERTEX
  5
B81
  8
0
 10
0.0
 20
0.0
 30
0.0
 70
   128
 71
     8
 72
    -9
 73
    -1
  0
VERTEX
  5
B82
  8
0
 10
0.0
 20
0.0
 30
0.0
 70
   128
 71
     7
 72
    -8
 73
    -1
  0
VERTEX
  5
B83
  8
0
 10
0.0
 20
0.0
 30
0.0
 70
   128
 71
     6
 72
    -7
 73
    -1
  0
VERTEX
  5
B84
  8
0
 10
0.0
 20
0.0
 30
0.0
 70
   128
 71
     5
 72
    -6
 73
    -1
  0
VERTEX
  5
B85
  8
0
 10
0.0
 20
0.0
 30
0.0
 70
   128
 71
     4
 72
    -5
 73
    -1
  0
VERTEX
  5
B86
  8
0
 10
0.0
 20
0.0
 30
0.0
 70
   128
 71
     3
 72
    -4
 73
    -1
  0
VERTEX
  5
B87
  8
0
 10
0.0
 20
0.0
 30
0.0
 70
   128
 71
     2
 72
    -3
 73
     1
  0
SEQEND
  5
F8A
  8
0
  0
POLYLINE
  5
B88
  8
0
 66
     1
 10
0.0
 20
0.0
 30
0.0
 70
    64
 71
     8
 72
     6
  0
VERTEX
  5
B89
  8
0
 10
345.0000000000003
 20
-95.62500000000003
 30
-5.412658773652747
 70
   192
  0
VERTEX
  5
B8A
  8
0
 10
345.0000000000003
 20
-93.33734122634728
 30
-3.125000000000004
 70
   192
  0
VERTEX
  5
B8B
  8
0
 10
348.5653193366623
 20
-93.34217031641884
 30
-3.1333566588677
 70
   192
  0
VERTEX
  5
B8C
  8
0
 10
349.0142368156347
 20
-98.75000000000003
 30
-6.249999999999957
 70
   192
  0
VERTEX
  5
B8D
  8
0
 10
345.0000000000003
 20
-98.75000000000003
 30
-6.249999999999957
 70
   192
  0
VERTEX
  5
B8E
  8
0
 10
348.7653216672484
 20
-95.62738648776234
 30
-5.414040158883951
 70
   192
  0
VERTEX
  5
B8F
  8
0
 10
345.0000000000003
 20
-92.50000000000003
 30
-0.0000000000000004
 70
   192
  0
VERTEX
  5
B90
  8
0
 10
348.4878046646681
 20
-92.50000000000009
 30
0.0
 70
   192
  0
VERTEX
  5
B91
  8
0
 10
0.0
 20
0.0
 30
0.0
 70
   128
 71
     1
 72
     2
 73
     3
  0
VERTEX
  5
B92
  8
0
 10
0.0
 20
0.0
 30
0.0
 70
   128
 71
     4
 72
     5
 73
     1
  0
VERTEX
  5
B93
  8
0
 10
0.0
 20
0.0
 30
0.0
 70
   128
 71
     4
 72
     1
 73
     6
  0
VERTEX
  5
B94
  8
0
 10
0.0
 20
0.0
 30
0.0
 70
   128
 71
     6
 72
     1
 73
     3
  0
VERTEX
  5
B95
  8
0
 10
0.0
 20
0.0
 30
0.0
 70
   128
 71
     3
 72
     2
 73
     7
  0
VERTEX
  5
B96
  8
0
 10
0.0
 20
0.0
 30
0.0
 70
   128
 71
     3
 72
     7
 73
     8
  0
SEQEND
  5
F8B
  8
0
  0
POLYLINE
  5
B97
  8
0
 66
     1
 10
0.0
 20
0.0
 30
0.0
 70
    64
 71
     7
 72
     5
  0
VERTEX
  5
B98
  8
0
 10
345.0000000000003
 20
-98.75000000000003
 30
-6.250000000000005
 70
   192
  0
VERTEX
  5
B99
  8
0
 10
345.0000000000003
 20
-95.62500000000003
 30
-5.412658773652747
 70
   192
  0
VERTEX
  5
B9A
  8
0
 10
345.0000000000003
 20
-93.33734122634728
 30
-3.125000000000004
 70
   192
  0
VERTEX
  5
B9B
  8
0
 10
345.0000000000002
 20
-92.50000000000009
 30
0.0
 70
   192
  0
VERTEX
  5
B9C
  8
0
 10
345.0000000000003
 20
-105.0
 30
0.0000000000000011
 70
   192
  0
VERTEX
  5
B9D
  8
0
 10
345.0000000000003
 20
-104.1626587736528
 30
-3.125000000000004
 70
   192
  0
VERTEX
  5
B9E
  8
0
 10
345.0000000000003
 20
-101.875
 30
-5.412658773652744
 70
   192
  0
VERTEX
  5
B9F
  8
0
 10
0.0
 20
0.0
 30
0.0
 70
   128
 71
     1
 72
     7
 73
    -6
  0
VERTEX
  5
BA0
  8
0
 10
0.0
 20
0.0
 30
0.0
 70
   128
 71
    -1
 72
     6
 73
    -5
  0
VERTEX
  5
BA1
  8
0
 10
0.0
 20
0.0
 30
0.0
 70
   128
 71
    -1
 72
     5
 73
    -4
  0
VERTEX
  5
BA2
  8
0
 10
0.0
 20
0.0
 30
0.0
 70
   128
 71
    -1
 72
     4
 73
    -3
  0
VERTEX
  5
BA3
  8
0
 10
0.0
 20
0.0
 30
0.0
 70
   128
 71
    -1
 72
     3
 73
     2
  0
SEQEND
  5
F8C
  8
0
  0
POLYLINE
  5
BA4
  8
0
 66
     1
 10
0.0
 20
0.0
 30
0.0
 70
    64
 71
    29
 72
    27
  0
VERTEX
  5
BA5
  8
0
 10
371.4281914371706
 20
-99.95442156612833
 30
6.132869632509033
 70
   192
  0
VERTEX
  5
BA6
  8
0
 10
370.6957089326446
 20
-98.7500000000001
 30
6.249999999999957
 70
   192
  0
VERTEX
  5
BA7
  8
0
 10
354.0281591907625
 20
-98.75000000000003
 30
6.249999999999957
 70
   192
  0
VERTEX
  5
BA8
  8
0
 10
378.0000000000002
 20
-103.1694173824159
 30
4.419417382415858
 70
   192
  0
VERTEX
  5
BA9
  8
0
 10
374.1500083987436
 20
-101.3837124113208
 30
5.667985438800506
 70
   192
  0
VERTEX
  5
BAA
  8
0
 10
372.8269909338441
 20
-102.2128909838925
 30
5.202968963358864
 70
   192
  0
VERTEX
  5
BAB
  8
0
 10
375.578790830085
 20
-100.488247454609
 30
6.003415343497815
 70
   192
  0
VERTEX
  5
BAC
  8
0
 10
377.0636795005701
 20
-99.55761887192858
 30
6.197600483873119
 70
   192
  0
VERTEX
  5
BAD
  8
0
 10
378.0000000000002
 20
-98.75000000000003
 30
6.249999999999909
 70
   192
  0
VERTEX
  5
BAE
  8
0
 10
376.8950789813793
 20
-99.28821577045431
 30
6.226783611946137
 70
   192
  0
VERTEX
  5
BAF
  8
0
 10
376.7270875550025
 20
-99.01901060860821
 30
6.244208686407242
 70
   192
  0
VERTEX
  5
BB0
  8
0
 10
376.5597008720714
 20
-98.75000000000003
 30
6.249999999999957
 70
   192
  0
VERTEX
  5
BB1
  8
0
 10
354.3877523464643
 20
-104.1596176279451
 30
3.130375004278551
 70
   192
  0
VERTEX
  5
BB2
  8
0
 10
378.0000000000002
 20
-104.9999999999999
 30
0.0000000000000007
 70
   192
  0
VERTEX
  5
BB3
  8
0
 10
376.896485322685
 20
-99.29046615263518
 30
-6.226588584880786
 70
   192
  0
VERTEX
  5
BB4
  8
0
 10
376.7284956331235
 20
-99.02127028301997
 30
-6.244111097070992
 70
   192
  0
VERTEX
  5
BB5
  8
0
 10
376.5597008720713
 20
-98.75000000000011
 30
-6.249999999999957
 70
   192
  0
VERTEX
  5
BB6
  8
0
 10
378.0000000000002
 20
-98.75000000000003
 30
-6.249999999999957
 70
   192
  0
VERTEX
  5
BB7
  8
0
 10
377.0636795005701
 20
-99.55761887192857
 30
-6.197600483873121
 70
   192
  0
VERTEX
  5
BB8
  8
0
 10
378.0000000000002
 20
-103.1694173824159
 30
-4.419417382415857
 70
   192
  0
VERTEX
  5
BB9
  8
0
 10
375.5787908300849
 20
-100.488247454609
 30
-6.003415343497814
 70
   192
  0
VERTEX
  5
BBA
  8
0
 10
374.1500083987435
 20
-101.3837124113208
 30
-5.667985438800502
 70
   192
  0
VERTEX
  5
BBB
  8
0
 10
372.8269909338441
 20
-102.2128909838925
 30
-5.202968963358862
 70
   192
  0
VERTEX
  5
BBC
  8
0
 10
372.1440742364615
 20
-101.1169657139677
 30
5.784481017792727
 70
   192
  0
VERTEX
  5
BBD
  8
0
 10
354.3880162700725
 20
-104.1641072021518
 30
-3.122604173666691
 70
   192
  0
VERTEX
  5
BBE
  8
0
 10
372.1429489228883
 20
-101.1151493486015
 30
-5.785226407088139
 70
   192
  0
VERTEX
  5
BBF
  8
0
 10
371.427578610773
 20
-99.95342104022347
 30
-6.13333271095908
 70
   192
  0
VERTEX
  5
BC0
  8
0
 10
354.0281591907626
 20
-98.75000000000003
 30
-6.249999999999957
 70
   192
  0
VERTEX
  5
BC1
  8
0
 10
370.6957089326446
 20
-98.75000000000003
 30
-6.249999999999957
 70
   192
  0
VERTEX
  5
BC2
  8
0
 10
0.0
 20
0.0
 30
0.0
 70
   128
 71
     1
 72
     2
 73
     3
  0
VERTEX
  5
BC3
  8
0
 10
0.0
 20
0.0
 30
0.0
 70
   128
 71
     4
 72
     5
 73
     6
  0
VERTEX
  5
BC4
  8
0
 10
0.0
 20
0.0
 30
0.0
 70
   128
 71
     4
 72
     7
 73
     5
  0
VERTEX
  5
BC5
  8
0
 10
0.0
 20
0.0
 30
0.0
 70
   128
 71
     4
 72
     8
 73
     7
  0
VERTEX
  5
BC6
  8
0
 10
0.0
 20
0.0
 30
0.0
 70
   128
 71
     4
 72
     9
 73
     8
  0
VERTEX
  5
BC7
  8
0
 10
0.0
 20
0.0
 30
0.0
 70
   128
 71
     9
 72
    10
 73
     8
  0
VERTEX
  5
BC8
  8
0
 10
0.0
 20
0.0
 30
0.0
 70
   128
 71
     9
 72
    11
 73
    10
  0
VERTEX
  5
BC9
  8
0
 10
0.0
 20
0.0
 30
0.0
 70
   128
 71
     9
 72
    12
 73
    11
  0
VERTEX
  5
BCA
  8
0
 10
0.0
 20
0.0
 30
0.0
 70
   128
 71
    13
 72
    14
 73
     4
  0
VERTEX
  5
BCB
  8
0
 10
0.0
 20
0.0
 30
0.0
 70
   128
 71
    15
 72
    16
 73
    17
  0
VERTEX
  5
BCC
  8
0
 10
0.0
 20
0.0
 30
0.0
 70
   128
 71
    15
 72
    17
 73
    18
  0
VERTEX
  5
BCD
  8
0
 10
0.0
 20
0.0
 30
0.0
 70
   128
 71
    18
 72
    19
 73
    15
  0
VERTEX
  5
BCE
  8
0
 10
0.0
 20
0.0
 30
0.0
 70
   128
 71
    19
 72
    18
 73
    20
  0
VERTEX
  5
BCF
  8
0
 10
0.0
 20
0.0
 30
0.0
 70
   128
 71
    20
 72
    21
 73
    19
  0
VERTEX
  5
BD0
  8
0
 10
0.0
 20
0.0
 30
0.0
 70
   128
 71
    20
 72
    22
 73
    21
  0
VERTEX
  5
BD1
  8
0
 10
0.0
 20
0.0
 30
0.0
 70
   128
 71
    20
 72
    23
 73
    22
  0
VERTEX
  5
BD2
  8
0
 10
0.0
 20
0.0
 30
0.0
 70
   128
 71
    24
 72
     1
 73
     3
  0
VERTEX
  5
BD3
  8
0
 10
0.0
 20
0.0
 30
0.0
 70
   128
 71
    24
 72
     3
 73
    13
  0
VERTEX
  5
BD4
  8
0
 10
0.0
 20
0.0
 30
0.0
 70
   128
 71
    13
 72
     6
 73
    24
  0
VERTEX
  5
BD5
  8
0
 10
0.0
 20
0.0
 30
0.0
 70
   128
 71
    13
 72
     4
 73
     6
  0
VERTEX
  5
BD6
  8
0
 10
0.0
 20
0.0
 30
0.0
 70
   128
 71
    13
 72
    25
 73
    20
  0
VERTEX
  5
BD7
  8
0
 10
0.0
 20
0.0
 30
0.0
 70
   128
 71
    13
 72
    20
 73
    14
  0
VERTEX
  5
BD8
  8
0
 10
0.0
 20
0.0
 30
0.0
 70
   128
 71
    23
 72
    20
 73
    25
  0
VERTEX
  5
BD9
  8
0
 10
0.0
 20
0.0
 30
0.0
 70
   128
 71
    25
 72
    26
 73
    23
  0
VERTEX
  5
BDA
  8
0
 10
0.0
 20
0.0
 30
0.0
 70
   128
 71
    25
 72
    27
 73
    26
  0
VERTEX
  5
BDB
  8
0
 10
0.0
 20
0.0
 30
0.0
 70
   128
 71
    25
 72
    28
 73
    29
  0
VERTEX
  5
BDC
  8
0
 10
0.0
 20
0.0
 30
0.0
 70
   128
 71
    25
 72
    29
 73
    27
  0
SEQEND
  5
F8D
  8
0
  0
POLYLINE
  5
BDD
  8
0
 66
     1
 10
0.0
 20
0.0
 30
0.0
 70
    64
 71
     8
 72
     6
  0
VERTEX
  5
BDE
  8
0
 10
378.0000000000002
 20
-98.75000000000003
 30
-6.249999999999909
 70
   192
  0
VERTEX
  5
BDF
  8
0
 10
378.0000000000002
 20
-94.33058261758417
 30
-4.419417382415857
 70
   192
  0
VERTEX
  5
BE0
  8
0
 10
378.0000000000002
 20
-92.50000000000011
 30
0.0
 70
   192
  0
VERTEX
  5
BE1
  8
0
 10
378.0000000000002
 20
-94.33058261758417
 30
4.419417382415858
 70
   192
  0
VERTEX
  5
BE2
  8
0
 10
378.0000000000002
 20
-98.75000000000003
 30
6.24999999999991
 70
   192
  0
VERTEX
  5
BE3
  8
0
 10
378.0000000000002
 20
-103.1694173824159
 30
4.419417382415858
 70
   192
  0
VERTEX
  5
BE4
  8
0
 10
378.0000000000002
 20
-104.9999999999999
 30
0.0000000000000007
 70
   192
  0
VERTEX
  5
BE5
  8
0
 10
378.0000000000002
 20
-103.1694173824159
 30
-4.419417382415857
 70
   192
  0
VERTEX
  5
BE6
  8
0
 10
0.0
 20
0.0
 30
0.0
 70
   128
 71
     7
 72
     8
 73
    -1
  0
VERTEX
  5
BE7
  8
0
 10
0.0
 20
0.0
 30
0.0
 70
   128
 71
     6
 72
    -7
 73
    -1
  0
VERTEX
  5
BE8
  8
0
 10
0.0
 20
0.0
 30
0.0
 70
   128
 71
     5
 72
    -6
 73
    -1
  0
VERTEX
  5
BE9
  8
0
 10
0.0
 20
0.0
 30
0.0
 70
   128
 71
     4
 72
    -5
 73
    -1
  0
VERTEX
  5
BEA
  8
0
 10
0.0
 20
0.0
 30
0.0
 70
   128
 71
     3
 72
    -4
 73
    -1
  0
VERTEX
  5
BEB
  8
0
 10
0.0
 20
0.0
 30
0.0
 70
   128
 71
     2
 72
    -3
 73
     1
  0
SEQEND
  5
F8E
  8
0
  0
POLYLINE
  5
BEC
  8
0
 66
     1
 10
0.0
 20
0.0
 30
0.0
 70
    64
 71
     7
 72
     5
  0
VERTEX
  5
BED
  8
0
 10
-345.0000000000001
 20
-92.50000000000003
 30
0.0
 70
   192
  0
VERTEX
  5
BEE
  8
0
 10
-345.0000000000001
 20
-105.0
 30
0.0
 70
   192
  0
VERTEX
  5
BEF
  8
0
 10
-345.0000000000001
 20
-104.1626587736528
 30
-3.125000000000004
 70
   192
  0
VERTEX
  5
BF0
  8
0
 10
-345.0000000000001
 20
-101.875
 30
-5.412658773652744
 70
   192
  0
VERTEX
  5
BF1
  8
0
 10
-345.0000000000001
 20
-98.75000000000003
 30
-6.250000000000005
 70
   192
  0
VERTEX
  5
BF2
  8
0
 10
-345.0000000000001
 20
-95.62500000000003
 30
-5.412658773652747
 70
   192
  0
VERTEX
  5
BF3
  8
0
 10
-345.0000000000001
 20
-93.33734122634728
 30
-3.125000000000004
 70
   192
  0
VERTEX
  5
BF4
  8
0
 10
0.0
 20
0.0
 30
0.0
 70
   128
 71
     6
 72
     7
 73
    -1
  0
VERTEX
  5
BF5
  8
0
 10
0.0
 20
0.0
 30
0.0
 70
   128
 71
     5
 72
    -6
 73
    -1
  0
VERTEX
  5
BF6
  8
0
 10
0.0
 20
0.0
 30
0.0
 70
   128
 71
     4
 72
    -5
 73
    -1
  0
VERTEX
  5
BF7
  8
0
 10
0.0
 20
0.0
 30
0.0
 70
   128
 71
     3
 72
    -4
 73
    -1
  0
VERTEX
  5
BF8
  8
0
 10
0.0
 20
0.0
 30
0.0
 70
   128
 71
     2
 72
    -3
 73
     1
  0
SEQEND
  5
F8F
  8
0
  0
POLYLINE
  5
BF9
  8
0
 66
     1
 10
0.0
 20
0.0
 30
0.0
 70
    64
 71
     8
 72
     6
  0
VERTEX
  5
BFA
  8
0
 10
-345.0000000000001
 20
-98.75000000000003
 30
-6.250000000000005
 70
   192
  0
VERTEX
  5
BFB
  8
0
 10
-349.0142368156349
 20
-98.75000000000003
 30
-6.250000000000005
 70
   192
  0
VERTEX
  5
BFC
  8
0
 10
-348.7653990621561
 20
-95.62830271234238
 30
-5.414629786152274
 70
   192
  0
VERTEX
  5
BFD
  8
0
 10
-345.0000000000001
 20
-95.62500000000003
 30
-5.412658773652747
 70
   192
  0
VERTEX
  5
BFE
  8
0
 10
-348.5649918488833
 20
-93.33856573309899
 30
-3.127081502635216
 70
   192
  0
VERTEX
  5
BFF
  8
0
 10
-345.0000000000001
 20
-93.33734122634728
 30
-3.125000000000004
 70
   192
  0
VERTEX
  5
C00
  8
0
 10
-348.4878046646684
 20
-92.50000000000003
 30
0.0
 70
   192
  0
VERTEX
  5
C01
  8
0
 10
-345.0000000000001
 20
-92.50000000000003
 30
0.0
 70
   192
  0
VERTEX
  5
C02
  8
0
 10
0.0
 20
0.0
 30
0.0
 70
   128
 71
     1
 72
     2
 73
     3
  0
VERTEX
  5
C03
  8
0
 10
0.0
 20
0.0
 30
0.0
 70
   128
 71
     1
 72
     3
 73
     4
  0
VERTEX
  5
C04
  8
0
 10
0.0
 20
0.0
 30
0.0
 70
   128
 71
     4
 72
     3
 73
     5
  0
VERTEX
  5
C05
  8
0
 10
0.0
 20
0.0
 30
0.0
 70
   128
 71
     4
 72
     5
 73
     6
  0
VERTEX
  5
C06
  8
0
 10
0.0
 20
0.0
 30
0.0
 70
   128
 71
     6
 72
     5
 73
     7
  0
VERTEX
  5
C07
  8
0
 10
0.0
 20
0.0
 30
0.0
 70
   128
 71
     6
 72
     7
 73
     8
  0
SEQEND
  5
F90
  8
0
  0
POLYLINE
  5
C08
  8
0
 66
     1
 10
0.0
 20
0.0
 30
0.0
 70
    64
 71
     8
 72
     6
  0
VERTEX
  5
C09
  8
0
 10
-378.0000000000002
 20
-98.75000000000003
 30
6.250000000000005
 70
   192
  0
VERTEX
  5
C0A
  8
0
 10
-378.0000000000002
 20
-103.169417382416
 30
4.419417382415927
 70
   192
  0
VERTEX
  5
C0B
  8
0
 10
-378.0000000000002
 20
-105.0
 30
0.0000000000000007
 70
   192
  0
VERTEX
  5
C0C
  8
0
 10
-378.0000000000002
 20
-103.169417382416
 30
-4.419417382415926
 70
   192
  0
VERTEX
  5
C0D
  8
0
 10
-378.0000000000002
 20
-98.75000000000003
 30
-6.250000000000005
 70
   192
  0
VERTEX
  5
C0E
  8
0
 10
-378.0000000000002
 20
-94.3305826175841
 30
-4.419417382415926
 70
   192
  0
VERTEX
  5
C0F
  8
0
 10
-378.0000000000002
 20
-92.50000000000003
 30
0.0
 70
   192
  0
VERTEX
  5
C10
  8
0
 10
-378.0000000000002
 20
-94.3305826175841
 30
4.419417382415927
 70
   192
  0
VERTEX
  5
C11
  8
0
 10
0.0
 20
0.0
 30
0.0
 70
   128
 71
     1
 72
     8
 73
    -7
  0
VERTEX
  5
C12
  8
0
 10
0.0
 20
0.0
 30
0.0
 70
   128
 71
    -1
 72
     7
 73
    -6
  0
VERTEX
  5
C13
  8
0
 10
0.0
 20
0.0
 30
0.0
 70
   128
 71
    -1
 72
     6
 73
    -5
  0
VERTEX
  5
C14
  8
0
 10
0.0
 20
0.0
 30
0.0
 70
   128
 71
    -1
 72
     5
 73
    -4
  0
VERTEX
  5
C15
  8
0
 10
0.0
 20
0.0
 30
0.0
 70
   128
 71
    -1
 72
     4
 73
    -3
  0
VERTEX
  5
C16
  8
0
 10
0.0
 20
0.0
 30
0.0
 70
   128
 71
    -1
 72
     3
 73
     2
  0
SEQEND
  5
F91
  8
0
  0
POLYLINE
  5
C17
  8
0
 66
     1
 10
0.0
 20
0.0
 30
0.0
 70
    64
 71
    18
 72
    16
  0
VERTEX
  5
C18
  8
0
 10
372.1440742364615
 20
-101.1169657139677
 30
5.784481017792727
 70
   192
  0
VERTEX
  5
C19
  8
0
 10
372.8269909338441
 20
-102.2128909838925
 30
5.202968963358864
 70
   192
  0
VERTEX
  5
C1A
  8
0
 10
372.8269909338441
 20
-102.2128909838925
 30
14.5
 70
   192
  0
VERTEX
  5
C1B
  8
0
 10
371.4281914371706
 20
-99.95442156612833
 30
6.132869632509033
 70
   192
  0
VERTEX
  5
C1C
  8
0
 10
370.6957089326446
 20
-98.7500000000001
 30
6.249999999999957
 70
   192
  0
VERTEX
  5
C1D
  8
0
 10
367.5876535165094
 20
-93.46129883875676
 30
3.330102521006265
 70
   192
  0
VERTEX
  5
C1E
  8
0
 10
372.8269909338442
 20
-102.2128909838925
 30
-14.5
 70
   192
  0
VERTEX
  5
C1F
  8
0
 10
371.427578610773
 20
-99.95342104022347
 30
-6.13333271095908
 70
   192
  0
VERTEX
  5
C20
  8
0
 10
370.6957089326445
 20
-98.75000000000011
 30
-6.249999999999957
 70
   192
  0
VERTEX
  5
C21
  8
0
 10
372.1429489228883
 20
-101.1151493486015
 30
-5.785226407088139
 70
   192
  0
VERTEX
  5
C22
  8
0
 10
372.8269909338441
 20
-102.2128909838925
 30
-5.202968963358863
 70
   192
  0
VERTEX
  5
C23
  8
0
 10
360.6378628815964
 20
-80.4152539662815
 30
-14.5
 70
   192
  0
VERTEX
  5
C24
  8
0
 10
360.6378628815966
 20
-80.41525396628171
 30
14.5
 70
   192
  0
VERTEX
  5
C25
  8
0
 10
350.6843530785738
 20
-57.51024436517571
 30
14.5
 70
   192
  0
VERTEX
  5
C26
  8
0
 10
350.6843530785738
 20
-57.51024436517571
 30
-14.5
 70
   192
  0
VERTEX
  5
C27
  8
0
 10
367.5730612213473
 20
-93.43575628890646
 30
-3.289619459249671
 70
   192
  0
VERTEX
  5
C28
  8
0
 10
343.0657914725647
 20
-33.72644018499753
 30
14.5
 70
   192
  0
VERTEX
  5
C29
  8
0
 10
343.0657914725646
 20
-33.72644018499741
 30
-14.5
 70
   192
  0
VERTEX
  5
C2A
  8
0
 10
0.0
 20
0.0
 30
0.0
 70
   128
 71
     1
 72
     2
 73
     3
  0
VERTEX
  5
C2B
  8
0
 10
0.0
 20
0.0
 30
0.0
 70
   128
 71
     3
 72
     4
 73
     1
  0
VERTEX
  5
C2C
  8
0
 10
0.0
 20
0.0
 30
0.0
 70
   128
 71
     3
 72
     5
 73
     4
  0
VERTEX
  5
C2D
  8
0
 10
0.0
 20
0.0
 30
0.0
 70
   128
 71
     3
 72
     6
 73
     5
  0
VERTEX
  5
C2E
  8
0
 10
0.0
 20
0.0
 30
0.0
 70
   128
 71
     7
 72
     8
 73
     9
  0
VERTEX
  5
C2F
  8
0
 10
0.0
 20
0.0
 30
0.0
 70
   128
 71
     7
 72
    10
 73
     8
  0
VERTEX
  5
C30
  8
0
 10
0.0
 20
0.0
 30
0.0
 70
   128
 71
     7
 72
    11
 73
    10
  0
VERTEX
  5
C31
  8
0
 10
0.0
 20
0.0
 30
0.0
 70
   128
 71
    12
 72
    13
 73
   -14
  0
VERTEX
  5
C32
  8
0
 10
0.0
 20
0.0
 30
0.0
 70
   128
 71
   -12
 72
    14
 73
    15
  0
VERTEX
  5
C33
  8
0
 10
0.0
 20
0.0
 30
0.0
 70
   128
 71
    12
 72
     7
 73
    16
  0
VERTEX
  5
C34
  8
0
 10
0.0
 20
0.0
 30
0.0
 70
   128
 71
     7
 72
     9
 73
    16
  0
VERTEX
  5
C35
  8
0
 10
0.0
 20
0.0
 30
0.0
 70
   128
 71
     6
 72
     3
 73
    13
  0
VERTEX
  5
C36
  8
0
 10
0.0
 20
0.0
 30
0.0
 70
   128
 71
    13
 72
    12
 73
    16
  0
VERTEX
  5
C37
  8
0
 10
0.0
 20
0.0
 30
0.0
 70
   128
 71
    13
 72
    16
 73
     6
  0
VERTEX
  5
C38
  8
0
 10
0.0
 20
0.0
 30
0.0
 70
   128
 71
    15
 72
    14
 73
   -17
  0
VERTEX
  5
C39
  8
0
 10
0.0
 20
0.0
 30
0.0
 70
   128
 71
   -15
 72
    17
 73
    18
  0
SEQEND
  5
F92
  8
0
  0
POLYLINE
  5
C3A
  8
0
 66
     1
 10
0.0
 20
0.0
 30
0.0
 70
    64
 71
     6
 72
     4
  0
VERTEX
  5
C3B
  8
0
 10
372.8269909338441
 20
-102.2128909838925
 30
5.202968963358864
 70
   192
  0
VERTEX
  5
C3C
  8
0
 10
374.1500083987436
 20
-101.3837124113208
 30
5.667985438800506
 70
   192
  0
VERTEX
  5
C3D
  8
0
 10
375.578790830085
 20
-100.488247454609
 30
6.003415343497815
 70
   192
  0
VERTEX
  5
C3E
  8
0
 10
377.0636795005701
 20
-99.55761887192858
 30
6.197600483873119
 70
   192
  0
VERTEX
  5
C3F
  8
0
 10
377.0636795005701
 20
-99.55761887192857
 30
14.5
 70
   192
  0
VERTEX
  5
C40
  8
0
 10
372.8269909338441
 20
-102.2128909838925
 30
14.5
 70
   192
  0
VERTEX
  5
C41
  8
0
 10
0.0
 20
0.0
 30
0.0
 70
   128
 71
     6
 72
     1
 73
    -2
  0
VERTEX
  5
C42
  8
0
 10
0.0
 20
0.0
 30
0.0
 70
   128
 71
    -3
 72
     5
 73
    -6
  0
VERTEX
  5
C43
  8
0
 10
0.0
 20
0.0
 30
0.0
 70
   128
 71
     2
 72
    -3
 73
    -6
  0
VERTEX
  5
C44
  8
0
 10
0.0
 20
0.0
 30
0.0
 70
   128
 71
     3
 72
     4
 73
    -5
  0
SEQEND
  5
F93
  8
0
  0
POLYLINE
  5
C45
  8
0
 66
     1
 10
0.0
 20
0.0
 30
0.0
 70
    64
 71
    18
 72
    16
  0
VERTEX
  5
C46
  8
0
 10
377.0636795005701
 20
-99.55761887192857
 30
14.5
 70
   192
  0
VERTEX
  5
C47
  8
0
 10
377.0636795005701
 20
-99.55761887192857
 30
6.197600483873119
 70
   192
  0
VERTEX
  5
C48
  8
0
 10
376.8950789813793
 20
-99.28821577045431
 30
6.226783611946137
 70
   192
  0
VERTEX
  5
C49
  8
0
 10
376.7270875550025
 20
-99.01901060860821
 30
6.244208686407242
 70
   192
  0
VERTEX
  5
C4A
  8
0
 10
376.5597008720713
 20
-98.75000000000013
 30
6.249999999999957
 70
   192
  0
VERTEX
  5
C4B
  8
0
 10
373.3651839058917
 20
-93.46098162286899
 30
3.329934894814063
 70
   192
  0
VERTEX
  5
C4C
  8
0
 10
376.5597008720713
 20
-98.75000000000011
 30
-6.249999999999957
 70
   192
  0
VERTEX
  5
C4D
  8
0
 10
376.7284956331235
 20
-99.02127028301997
 30
-6.244111097070992
 70
   192
  0
VERTEX
  5
C4E
  8
0
 10
377.0636795005701
 20
-99.55761887192857
 30
-14.5
 70
   192
  0
VERTEX
  5
C4F
  8
0
 10
376.896485322685
 20
-99.29046615263518
 30
-6.226588584880786
 70
   192
  0
VERTEX
  5
C50
  8
0
 10
377.0636795005701
 20
-99.55761887192857
 30
-6.197600483873121
 70
   192
  0
VERTEX
  5
C51
  8
0
 10
355.3638944024052
 20
-55.74902518558608
 30
14.5
 70
   192
  0
VERTEX
  5
C52
  8
0
 10
365.1183340093673
 20
-78.19593459466975
 30
14.5
 70
   192
  0
VERTEX
  5
C53
  8
0
 10
365.1183340093673
 20
-78.19593459466975
 30
-14.5
 70
   192
  0
VERTEX
  5
C54
  8
0
 10
355.3638944024052
 20
-55.74902518558608
 30
-14.5
 70
   192
  0
VERTEX
  5
C55
  8
0
 10
373.355130444178
 20
-93.4438530875423
 30
-3.302756483515189
 70
   192
  0
VERTEX
  5
C56
  8
0
 10
347.8977040285162
 20
-32.44089708901146
 30
14.5
 70
   192
  0
VERTEX
  5
C57
  8
0
 10
347.8977040285163
 20
-32.44089708901144
 30
-14.5
 70
   192
  0
VERTEX
  5
C58
  8
0
 10
0.0
 20
0.0
 30
0.0
 70
   128
 71
     1
 72
     2
 73
     3
  0
VERTEX
  5
C59
  8
0
 10
0.0
 20
0.0
 30
0.0
 70
   128
 71
     1
 72
     3
 73
     4
  0
VERTEX
  5
C5A
  8
0
 10
0.0
 20
0.0
 30
0.0
 70
   128
 71
     4
 72
     5
 73
     1
  0
VERTEX
  5
C5B
  8
0
 10
0.0
 20
0.0
 30
0.0
 70
   128
 71
     5
 72
     6
 73
     1
  0
VERTEX
  5
C5C
  8
0
 10
0.0
 20
0.0
 30
0.0
 70
   128
 71
     7
 72
     8
 73
     9
  0
VERTEX
  5
C5D
  8
0
 10
0.0
 20
0.0
 30
0.0
 70
   128
 71
     8
 72
    10
 73
     9
  0
VERTEX
  5
C5E
  8
0
 10
0.0
 20
0.0
 30
0.0
 70
   128
 71
    10
 72
    11
 73
     9
  0
VERTEX
  5
C5F
  8
0
 10
0.0
 20
0.0
 30
0.0
 70
   128
 71
    12
 72
    13
 73
   -14
  0
VERTEX
  5
C60
  8
0
 10
0.0
 20
0.0
 30
0.0
 70
   128
 71
    15
 72
   -12
 73
    14
  0
VERTEX
  5
C61
  8
0
 10
0.0
 20
0.0
 30
0.0
 70
   128
 71
    16
 72
     9
 73
    14
  0
VERTEX
  5
C62
  8
0
 10
0.0
 20
0.0
 30
0.0
 70
   128
 71
    16
 72
     7
 73
     9
  0
VERTEX
  5
C63
  8
0
 10
0.0
 20
0.0
 30
0.0
 70
   128
 71
    13
 72
     1
 73
     6
  0
VERTEX
  5
C64
  8
0
 10
0.0
 20
0.0
 30
0.0
 70
   128
 71
    16
 72
    14
 73
    13
  0
VERTEX
  5
C65
  8
0
 10
0.0
 20
0.0
 30
0.0
 70
   128
 71
     6
 72
    16
 73
    13
  0
VERTEX
  5
C66
  8
0
 10
0.0
 20
0.0
 30
0.0
 70
   128
 71
    17
 72
    12
 73
   -15
  0
VERTEX
  5
C67
  8
0
 10
0.0
 20
0.0
 30
0.0
 70
   128
 71
    18
 72
   -17
 73
    15
  0
SEQEND
  5
F94
  8
0
  0
POLYLINE
  5
C68
  8
0
 66
     1
 10
0.0
 20
0.0
 30
0.0
 70
    64
 71
     6
 72
     4
  0
VERTEX
  5
C69
  8
0
 10
-372.8269909338441
 20
-102.2128909838925
 30
-14.5
 70
   192
  0
VERTEX
  5
C6A
  8
0
 10
-372.8269909338441
 20
-102.2128909838925
 30
-5.202968963358931
 70
   192
  0
VERTEX
  5
C6B
  8
0
 10
-374.1500083987436
 20
-101.3837124113208
 30
-5.667985438800552
 70
   192
  0
VERTEX
  5
C6C
  8
0
 10
-375.5787908300849
 20
-100.488247454609
 30
-6.003415343497848
 70
   192
  0
VERTEX
  5
C6D
  8
0
 10
-377.0636795005701
 20
-99.55761887192865
 30
-6.197600483873149
 70
   192
  0
VERTEX
  5
C6E
  8
0
 10
-377.0636795005701
 20
-99.55761887192865
 30
-14.5
 70
   192
  0
VERTEX
  5
C6F
  8
0
 10
0.0
 20
0.0
 30
0.0
 70
   128
 71
     1
 72
     2
 73
    -3
  0
VERTEX
  5
C70
  8
0
 10
0.0
 20
0.0
 30
0.0
 70
   128
 71
    -4
 72
     6
 73
    -1
  0
VERTEX
  5
C71
  8
0
 10
0.0
 20
0.0
 30
0.0
 70
   128
 71
     3
 72
    -4
 73
    -1
  0
VERTEX
  5
C72
  8
0
 10
0.0
 20
0.0
 30
0.0
 70
   128
 71
     4
 72
     5
 73
    -6
  0
SEQEND
  5
F95
  8
0
  0
POLYLINE
  5
C73
  8
0
 66
     1
 10
0.0
 20
0.0
 30
0.0
 70
    64
 71
    18
 72
    16
  0
VERTEX
  5
C74
  8
0
 10
-377.0636795005702
 20
-99.55761887192861
 30
-14.5
 70
   192
  0
VERTEX
  5
C75
  8
0
 10
-377.0636795005701
 20
-99.55761887192865
 30
-6.197600483873149
 70
   192
  0
VERTEX
  5
C76
  8
0
 10
-376.8950522677504
 20
-99.28817303345568
 30
-6.226797884788546
 70
   192
  0
VERTEX
  5
C77
  8
0
 10
-376.7270610341497
 20
-99.01896805862464
 30
-6.244221110852813
 70
   192
  0
VERTEX
  5
C78
  8
0
 10
-376.5597008720713
 20
-98.75000000000001
 30
-6.250000000000005
 70
   192
  0
VERTEX
  5
C79
  8
0
 10
-373.3562378040861
 20
-93.44573964222437
 30
-3.305795997540046
 70
   192
  0
VERTEX
  5
C7A
  8
0
 10
-376.5597008720713
 20
-98.75000000000001
 30
6.250000000000005
 70
   192
  0
VERTEX
  5
C7B
  8
0
 10
-376.7268753857544
 20
-99.01867014140993
 30
6.244234199244003
 70
   192
  0
VERTEX
  5
C7C
  8
0
 10
-377.0636795005701
 20
-99.55761887192865
 30
14.5
 70
   192
  0
VERTEX
  5
C7D
  8
0
 10
-376.8948650206956
 20
-99.28787341599974
 30
6.226824061570927
 70
   192
  0
VERTEX
  5
C7E
  8
0
 10
-377.0636795005701
 20
-99.55761887192865
 30
6.197600483873165
 70
   192
  0
VERTEX
  5
C7F
  8
0
 10
-365.1183340093675
 20
-78.19593459466982
 30
14.5
 70
   192
  0
VERTEX
  5
C80
  8
0
 10
-355.3638944024052
 20
-55.74902518558616
 30
14.5
 70
   192
  0
VERTEX
  5
C81
  8
0
 10
-355.3638944024052
 20
-55.74902518558616
 30
-14.5
 70
   192
  0
VERTEX
  5
C82
  8
0
 10
-365.1183340093675
 20
-78.19593459466982
 30
-14.5
 70
   192
  0
VERTEX
  5
C83
  8
0
 10
-347.8977040285164
 20
-32.44089708901156
 30
14.5
 70
   192
  0
VERTEX
  5
C84
  8
0
 10
-347.8977040285163
 20
-32.44089708901157
 30
-14.5
 70
   192
  0
VERTEX
  5
C85
  8
0
 10
-373.3670033511046
 20
-93.46407963522148
 30
3.334558883096736
 70
   192
  0
VERTEX
  5
C86
  8
0
 10
0.0
 20
0.0
 30
0.0
 70
   128
 71
     1
 72
     2
 73
     3
  0
VERTEX
  5
C87
  8
0
 10
0.0
 20
0.0
 30
0.0
 70
   128
 71
     3
 72
     4
 73
     1
  0
VERTEX
  5
C88
  8
0
 10
0.0
 20
0.0
 30
0.0
 70
   128
 71
     4
 72
     5
 73
     1
  0
VERTEX
  5
C89
  8
0
 10
0.0
 20
0.0
 30
0.0
 70
   128
 71
     5
 72
     6
 73
     1
  0
VERTEX
  5
C8A
  8
0
 10
0.0
 20
0.0
 30
0.0
 70
   128
 71
     7
 72
     8
 73
     9
  0
VERTEX
  5
C8B
  8
0
 10
0.0
 20
0.0
 30
0.0
 70
   128
 71
     8
 72
    10
 73
     9
  0
VERTEX
  5
C8C
  8
0
 10
0.0
 20
0.0
 30
0.0
 70
   128
 71
    10
 72
    11
 73
     9
  0
VERTEX
  5
C8D
  8
0
 10
0.0
 20
0.0
 30
0.0
 70
   128
 71
    12
 72
    13
 73
   -14
  0
VERTEX
  5
C8E
  8
0
 10
0.0
 20
0.0
 30
0.0
 70
   128
 71
    15
 72
   -12
 73
    14
  0
VERTEX
  5
C8F
  8
0
 10
0.0
 20
0.0
 30
0.0
 70
   128
 71
    13
 72
    16
 73
   -17
  0
VERTEX
  5
C90
  8
0
 10
0.0
 20
0.0
 30
0.0
 70
   128
 71
    14
 72
   -13
 73
    17
  0
VERTEX
  5
C91
  8
0
 10
0.0
 20
0.0
 30
0.0
 70
   128
 71
    15
 72
     1
 73
     6
  0
VERTEX
  5
C92
  8
0
 10
0.0
 20
0.0
 30
0.0
 70
   128
 71
     6
 72
    18
 73
    15
  0
VERTEX
  5
C93
  8
0
 10
0.0
 20
0.0
 30
0.0
 70
   128
 71
    12
 72
    15
 73
    18
  0
VERTEX
  5
C94
  8
0
 10
0.0
 20
0.0
 30
0.0
 70
   128
 71
     9
 72
    12
 73
    18
  0
VERTEX
  5
C95
  8
0
 10
0.0
 20
0.0
 30
0.0
 70
   128
 71
    18
 72
     7
 73
     9
  0
SEQEND
  5
F96
  8
0
  0
POLYLINE
  5
C96
  8
0
 66
     1
 10
0.0
 20
0.0
 30
0.0
 70
    64
 71
     6
 72
     4
  0
VERTEX
  5
C97
  8
0
 10
-377.0636795005701
 20
-99.55761887192865
 30
14.5
 70
   192
  0
VERTEX
  5
C98
  8
0
 10
-377.0636795005701
 20
-99.55761887192865
 30
6.197600483873163
 70
   192
  0
VERTEX
  5
C99
  8
0
 10
-375.5787908300849
 20
-100.488247454609
 30
6.003415343497861
 70
   192
  0
VERTEX
  5
C9A
  8
0
 10
-374.1500083987436
 20
-101.3837124113207
 30
5.667985438800582
 70
   192
  0
VERTEX
  5
C9B
  8
0
 10
-372.826990933844
 20
-102.2128909838924
 30
5.20296896335901
 70
   192
  0
VERTEX
  5
C9C
  8
0
 10
-372.8269909338441
 20
-102.2128909838925
 30
14.5
 70
   192
  0
VERTEX
  5
C9D
  8
0
 10
0.0
 20
0.0
 30
0.0
 70
   128
 71
     1
 72
     2
 73
    -3
  0
VERTEX
  5
C9E
  8
0
 10
0.0
 20
0.0
 30
0.0
 70
   128
 71
    -4
 72
     6
 73
    -1
  0
VERTEX
  5
C9F
  8
0
 10
0.0
 20
0.0
 30
0.0
 70
   128
 71
     3
 72
    -4
 73
    -1
  0
VERTEX
  5
CA0
  8
0
 10
0.0
 20
0.0
 30
0.0
 70
   128
 71
     4
 72
     5
 73
    -6
  0
SEQEND
  5
F97
  8
0
  0
POLYLINE
  5
CA1
  8
0
 66
     1
 10
0.0
 20
0.0
 30
0.0
 70
    64
 71
    18
 72
    16
  0
VERTEX
  5
CA2
  8
0
 10
-372.1438226326455
 20
-101.1165596374117
 30
-5.784646400801898
 70
   192
  0
VERTEX
  5
CA3
  8
0
 10
-372.8269909338441
 20
-102.2128909838925
 30
-5.202968963358935
 70
   192
  0
VERTEX
  5
CA4
  8
0
 10
-372.8269909338441
 20
-102.2128909838925
 30
-14.5
 70
   192
  0
VERTEX
  5
CA5
  8
0
 10
-371.4291057037271
 20
-99.9559154173327
 30
-6.132576215724376
 70
   192
  0
VERTEX
  5
CA6
  8
0
 10
-370.6957089326445
 20
-98.75000000000001
 30
-6.250000000000005
 70
   192
  0
VERTEX
  5
CA7
  8
0
 10
-367.5750123566024
 20
-93.43917321566856
 30
-3.295224755281901
 70
   192
  0
VERTEX
  5
CA8
  8
0
 10
-372.8269909338441
 20
-102.2128909838924
 30
14.5
 70
   192
  0
VERTEX
  5
CA9
  8
0
 10
-371.430937171944
 20
-99.95890781568612
 30
6.131987406892379
 70
   192
  0
VERTEX
  5
CAA
  8
0
 10
-370.6957089326445
 20
-98.75000000000001
 30
6.250000000000005
 70
   192
  0
VERTEX
  5
CAB
  8
0
 10
-372.1458332070989
 20
-101.1198031403362
 30
5.783661562144192
 70
   192
  0
VERTEX
  5
CAC
  8
0
 10
-372.8269909338441
 20
-102.2128909838925
 30
5.202968963359011
 70
   192
  0
VERTEX
  5
CAD
  8
0
 10
-350.6843530785738
 20
-57.51024436517568
 30
-14.5
 70
   192
  0
VERTEX
  5
CAE
  8
0
 10
-350.6843530785737
 20
-57.51024436517555
 30
14.5
 70
   192
  0
VERTEX
  5
CAF
  8
0
 10
-360.6378628815964
 20
-80.4152539662814
 30
14.5
 70
   192
  0
VERTEX
  5
CB0
  8
0
 10
-360.6378628815964
 20
-80.41525396628147
 30
-14.5
 70
   192
  0
VERTEX
  5
CB1
  8
0
 10
-343.0657914725647
 20
-33.72644018499753
 30
-14.5
 70
   192
  0
VERTEX
  5
CB2
  8
0
 10
-343.0657914725647
 20
-33.72644018499753
 30
14.5
 70
   192
  0
VERTEX
  5
CB3
  8
0
 10
-367.5864990415583
 20
-93.45927818310903
 30
3.326892866401172
 70
   192
  0
VERTEX
  5
CB4
  8
0
 10
0.0
 20
0.0
 30
0.0
 70
   128
 71
     1
 72
     2
 73
     3
  0
VERTEX
  5
CB5
  8
0
 10
0.0
 20
0.0
 30
0.0
 70
   128
 71
     3
 72
     4
 73
     1
  0
VERTEX
  5
CB6
  8
0
 10
0.0
 20
0.0
 30
0.0
 70
   128
 71
     3
 72
     5
 73
     4
  0
VERTEX
  5
CB7
  8
0
 10
0.0
 20
0.0
 30
0.0
 70
   128
 71
     3
 72
     6
 73
     5
  0
VERTEX
  5
CB8
  8
0
 10
0.0
 20
0.0
 30
0.0
 70
   128
 71
     7
 72
     8
 73
     9
  0
VERTEX
  5
CB9
  8
0
 10
0.0
 20
0.0
 30
0.0
 70
   128
 71
     7
 72
    10
 73
     8
  0
VERTEX
  5
CBA
  8
0
 10
0.0
 20
0.0
 30
0.0
 70
   128
 71
     7
 72
    11
 73
    10
  0
VERTEX
  5
CBB
  8
0
 10
0.0
 20
0.0
 30
0.0
 70
   128
 71
    12
 72
    13
 73
   -14
  0
VERTEX
  5
CBC
  8
0
 10
0.0
 20
0.0
 30
0.0
 70
   128
 71
   -12
 72
    14
 73
    15
  0
VERTEX
  5
CBD
  8
0
 10
0.0
 20
0.0
 30
0.0
 70
   128
 71
    16
 72
    17
 73
   -13
  0
VERTEX
  5
CBE
  8
0
 10
0.0
 20
0.0
 30
0.0
 70
   128
 71
   -16
 72
    13
 73
    12
  0
VERTEX
  5
CBF
  8
0
 10
0.0
 20
0.0
 30
0.0
 70
   128
 71
     6
 72
     3
 73
    15
  0
VERTEX
  5
CC0
  8
0
 10
0.0
 20
0.0
 30
0.0
 70
   128
 71
    15
 72
    18
 73
     6
  0
VERTEX
  5
CC1
  8
0
 10
0.0
 20
0.0
 30
0.0
 70
   128
 71
    18
 72
    15
 73
    14
  0
VERTEX
  5
CC2
  8
0
 10
0.0
 20
0.0
 30
0.0
 70
   128
 71
    14
 72
     7
 73
    18
  0
VERTEX
  5
CC3
  8
0
 10
0.0
 20
0.0
 30
0.0
 70
   128
 71
     7
 72
     9
 73
    18
  0
SEQEND
  5
F98
  8
0
  0
POLYLINE
  5
CC4
  8
0
 66
     1
 10
0.0
 20
0.0
 30
0.0
 70
    64
 71
     8
 72
     6
  0
VERTEX
  5
CC5
  8
0
 10
-188.5204203695362
 20
195.1800019393007
 30
-14.5
 70
   192
  0
VERTEX
  5
CC6
  8
0
 10
-188.5204203695362
 20
195.1800019393007
 30
14.5
 70
   192
  0
VERTEX
  5
CC7
  8
0
 10
-215.1030970700985
 20
162.6951713561261
 30
14.5
 70
   192
  0
VERTEX
  5
CC8
  8
0
 10
-215.1030970700985
 20
162.6951713561261
 30
-14.5
 70
   192
  0
VERTEX
  5
CC9
  8
0
 10
-164.7561156579952
 20
229.7800126352701
 30
-14.5
 70
   192
  0
VERTEX
  5
CCA
  8
0
 10
-164.7561156579952
 20
229.7800126352701
 30
14.5
 70
   192
  0
VERTEX
  5
CCB
  8
0
 10
-244.3168013770318
 20
132.5544613570031
 30
14.5
 70
   192
  0
VERTEX
  5
CCC
  8
0
 10
-244.3168013770319
 20
132.5544613570032
 30
-14.5
 70
   192
  0
VERTEX
  5
CCD
  8
0
 10
0.0
 20
0.0
 30
0.0
 70
   128
 71
     1
 72
     2
 73
    -3
  0
VERTEX
  5
CCE
  8
0
 10
0.0
 20
0.0
 30
0.0
 70
   128
 71
    -1
 72
     3
 73
     4
  0
VERTEX
  5
CCF
  8
0
 10
0.0
 20
0.0
 30
0.0
 70
   128
 71
     5
 72
     6
 73
    -2
  0
VERTEX
  5
CD0
  8
0
 10
0.0
 20
0.0
 30
0.0
 70
   128
 71
    -5
 72
     2
 73
     1
  0
VERTEX
  5
CD1
  8
0
 10
0.0
 20
0.0
 30
0.0
 70
   128
 71
     4
 72
     3
 73
    -7
  0
VERTEX
  5
CD2
  8
0
 10
0.0
 20
0.0
 30
0.0
 70
   128
 71
    -4
 72
     7
 73
     8
  0
SEQEND
  5
F99
  8
0
  0
POLYLINE
  5
CD3
  8
0
 66
     1
 10
0.0
 20
0.0
 30
0.0
 70
    64
 71
     4
 72
     2
  0
VERTEX
  5
CD4
  8
0
 10
-164.7561156579952
 20
229.7800126352702
 30
-14.5
 70
   192
  0
VERTEX
  5
CD5
  8
0
 10
-16.94675426690415
 20
465.6210884478554
 30
-14.5
 70
   192
  0
VERTEX
  5
CD6
  8
0
 10
-16.94675426690415
 20
465.6210884478555
 30
14.5
 70
   192
  0
VERTEX
  5
CD7
  8
0
 10
-164.7561156579952
 20
229.7800126352702
 30
14.5
 70
   192
  0
VERTEX
  5
CD8
  8
0
 10
0.0
 20
0.0
 30
0.0
 70
   128
 71
     3
 72
     4
 73
    -1
  0
VERTEX
  5
CD9
  8
0
 10
0.0
 20
0.0
 30
0.0
 70
   128
 71
     2
 72
    -3
 73
     1
  0
SEQEND
  5
F9A
  8
0
  0
POLYLINE
  5
CDA
  8
0
 66
     1
 10
0.0
 20
0.0
 30
0.0
 70
    64
 71
     8
 72
     6
  0
VERTEX
  5
CDB
  8
0
 10
6.612843698492924
 20
473.8751237934829
 30
14.5
 70
   192
  0
VERTEX
  5
CDC
  8
0
 10
-6.612843698492896
 20
473.8751237934829
 30
14.5
 70
   192
  0
VERTEX
  5
CDD
  8
0
 10
-6.612843698492896
 20
473.8751237934829
 30
-14.5
 70
   192
  0
VERTEX
  5
CDE
  8
0
 10
6.612843698492924
 20
473.8751237934829
 30
-14.5
 70
   192
  0
VERTEX
  5
CDF
  8
0
 10
-16.94675426690415
 20
465.6210884478555
 30
14.5
 70
   192
  0
VERTEX
  5
CE0
  8
0
 10
-16.94675426690415
 20
465.6210884478555
 30
-14.5
 70
   192
  0
VERTEX
  5
CE1
  8
0
 10
16.94675426690415
 20
465.6210884478555
 30
14.5
 70
   192
  0
VERTEX
  5
CE2
  8
0
 10
16.94675426690416
 20
465.6210884478555
 30
-14.5
 70
   192
  0
VERTEX
  5
CE3
  8
0
 10
0.0
 20
0.0
 30
0.0
 70
   128
 71
     1
 72
     2
 73
    -3
  0
VERTEX
  5
CE4
  8
0
 10
0.0
 20
0.0
 30
0.0
 70
   128
 71
     4
 72
    -1
 73
     3
  0
VERTEX
  5
CE5
  8
0
 10
0.0
 20
0.0
 30
0.0
 70
   128
 71
     2
 72
     5
 73
    -6
  0
VERTEX
  5
CE6
  8
0
 10
0.0
 20
0.0
 30
0.0
 70
   128
 71
     3
 72
    -2
 73
     6
  0
VERTEX
  5
CE7
  8
0
 10
0.0
 20
0.0
 30
0.0
 70
   128
 71
     7
 72
     1
 73
    -4
  0
VERTEX
  5
CE8
  8
0
 10
0.0
 20
0.0
 30
0.0
 70
   128
 71
     8
 72
    -7
 73
     4
  0
SEQEND
  5
F9B
  8
0
  0
POLYLINE
  5
CE9
  8
0
 66
     1
 10
0.0
 20
0.0
 30
0.0
 70
    64
 71
     4
 72
     2
  0
VERTEX
  5
CEA
  8
0
 10
16.94675426690415
 20
465.6210884478554
 30
-14.5
 70
   192
  0
VERTEX
  5
CEB
  8
0
 10
164.7561156579951
 20
229.7800126352703
 30
-14.5
 70
   192
  0
VERTEX
  5
CEC
  8
0
 10
164.7561156579951
 20
229.7800126352703
 30
14.5
 70
   192
  0
VERTEX
  5
CED
  8
0
 10
16.94675426690415
 20
465.6210884478554
 30
14.5
 70
   192
  0
VERTEX
  5
CEE
  8
0
 10
0.0
 20
0.0
 30
0.0
 70
   128
 71
     3
 72
     4
 73
    -1
  0
VERTEX
  5
CEF
  8
0
 10
0.0
 20
0.0
 30
0.0
 70
   128
 71
     2
 72
    -3
 73
     1
  0
SEQEND
  5
F9C
  8
0
  0
POLYLINE
  5
CF0
  8
0
 66
     1
 10
0.0
 20
0.0
 30
0.0
 70
    64
 71
     8
 72
     6
  0
VERTEX
  5
CF1
  8
0
 10
215.1030970700984
 20
162.6951713561262
 30
-14.5
 70
   192
  0
VERTEX
  5
CF2
  8
0
 10
215.1030970700984
 20
162.6951713561262
 30
14.5
 70
   192
  0
VERTEX
  5
CF3
  8
0
 10
188.5204203695363
 20
195.1800019393006
 30
14.5
 70
   192
  0
VERTEX
  5
CF4
  8
0
 10
188.5204203695363
 20
195.1800019393006
 30
-14.5
 70
   192
  0
VERTEX
  5
CF5
  8
0
 10
244.3168013770319
 20
132.554461357003
 30
-14.5
 70
   192
  0
VERTEX
  5
CF6
  8
0
 10
244.316801377032
 20
132.554461357003
 30
14.5
 70
   192
  0
VERTEX
  5
CF7
  8
0
 10
164.7561156579951
 20
229.7800126352702
 30
14.5
 70
   192
  0
VERTEX
  5
CF8
  8
0
 10
164.7561156579951
 20
229.7800126352703
 30
-14.5
 70
   192
  0
VERTEX
  5
CF9
  8
0
 10
0.0
 20
0.0
 30
0.0
 70
   128
 71
     1
 72
     2
 73
    -3
  0
VERTEX
  5
CFA
  8
0
 10
0.0
 20
0.0
 30
0.0
 70
   128
 71
    -1
 72
     3
 73
     4
  0
VERTEX
  5
CFB
  8
0
 10
0.0
 20
0.0
 30
0.0
 70
   128
 71
     5
 72
     6
 73
    -2
  0
VERTEX
  5
CFC
  8
0
 10
0.0
 20
0.0
 30
0.0
 70
   128
 71
    -5
 72
     2
 73
     1
  0
VERTEX
  5
CFD
  8
0
 10
0.0
 20
0.0
 30
0.0
 70
   128
 71
     4
 72
     3
 73
    -7
  0
VERTEX
  5
CFE
  8
0
 10
0.0
 20
0.0
 30
0.0
 70
   128
 71
    -4
 72
     7
 73
     8
  0
SEQEND
  5
F9D
  8
0
  0
POLYLINE
  5
CFF
  8
0
 66
     1
 10
0.0
 20
0.0
 30
0.0
 70
    64
 71
     6
 72
     4
  0
VERTEX
  5
D00
  8
0
 10
377.0636795005701
 20
-99.55761887192857
 30
-6.197600483873121
 70
   192
  0
VERTEX
  5
D01
  8
0
 10
375.5787908300849
 20
-100.488247454609
 30
-6.003415343497814
 70
   192
  0
VERTEX
  5
D02
  8
0
 10
374.1500083987435
 20
-101.3837124113208
 30
-5.667985438800502
 70
   192
  0
VERTEX
  5
D03
  8
0
 10
372.8269909338441
 20
-102.2128909838925
 30
-5.202968963358862
 70
   192
  0
VERTEX
  5
D04
  8
0
 10
372.8269909338441
 20
-102.2128909838925
 30
-14.5
 70
   192
  0
VERTEX
  5
D05
  8
0
 10
377.0636795005701
 20
-99.55761887192857
 30
-14.5
 70
   192
  0
VERTEX
  5
D06
  8
0
 10
0.0
 20
0.0
 30
0.0
 70
   128
 71
     6
 72
     1
 73
    -2
  0
VERTEX
  5
D07
  8
0
 10
0.0
 20
0.0
 30
0.0
 70
   128
 71
    -3
 72
     5
 73
    -6
  0
VERTEX
  5
D08
  8
0
 10
0.0
 20
0.0
 30
0.0
 70
   128
 71
     2
 72
    -3
 73
    -6
  0
VERTEX
  5
D09
  8
0
 10
0.0
 20
0.0
 30
0.0
 70
   128
 71
     3
 72
     4
 73
    -5
  0
SEQEND
  5
F9E
  8
0
  0
POLYLINE
  5
D0A
  8
0
 66
     1
 10
0.0
 20
0.0
 30
0.0
 70
    64
 71
     8
 72
     6
  0
VERTEX
  5
D0B
  8
0
 10
291.3440757819063
 20
86.46779780095798
 30
-14.5
 70
   192
  0
VERTEX
  5
D0C
  8
0
 10
291.3440757819063
 20
86.46779780095798
 30
14.5
 70
   192
  0
VERTEX
  5
D0D
  8
0
 10
325.1035722564551
 20
29.62104418898448
 30
14.5
 70
   192
  0
VERTEX
  5
D0E
  8
0
 10
325.1035722564551
 20
29.62104418898448
 30
-14.5
 70
   192
  0
VERTEX
  5
D0F
  8
0
 10
247.7578830865675
 20
136.1819889817496
 30
-14.5
 70
   192
  0
VERTEX
  5
D10
  8
0
 10
247.7578830865675
 20
136.1819889817497
 30
14.5
 70
   192
  0
VERTEX
  5
D11
  8
0
 10
347.8977040285162
 20
-32.44089708901146
 30
14.5
 70
   192
  0
VERTEX
  5
D12
  8
0
 10
347.8977040285162
 20
-32.44089708901146
 30
-14.5
 70
   192
  0
VERTEX
  5
D13
  8
0
 10
0.0
 20
0.0
 30
0.0
 70
   128
 71
     1
 72
     2
 73
    -3
  0
VERTEX
  5
D14
  8
0
 10
0.0
 20
0.0
 30
0.0
 70
   128
 71
    -1
 72
     3
 73
     4
  0
VERTEX
  5
D15
  8
0
 10
0.0
 20
0.0
 30
0.0
 70
   128
 71
     5
 72
     6
 73
    -2
  0
VERTEX
  5
D16
  8
0
 10
0.0
 20
0.0
 30
0.0
 70
   128
 71
    -5
 72
     2
 73
     1
  0
VERTEX
  5
D17
  8
0
 10
0.0
 20
0.0
 30
0.0
 70
   128
 71
     4
 72
     3
 73
    -7
  0
VERTEX
  5
D18
  8
0
 10
0.0
 20
0.0
 30
0.0
 70
   128
 71
    -4
 72
     7
 73
     8
  0
SEQEND
  5
F9F
  8
0
  0
POLYLINE
  5
D19
  8
0
 66
     1
 10
0.0
 20
0.0
 30
0.0
 70
    64
 71
     8
 72
     6
  0
VERTEX
  5
D1A
  8
0
 10
192.5194658891468
 20
198.1812741582244
 30
14.5
 70
   192
  0
VERTEX
  5
D1B
  8
0
 10
218.8363158227036
 20
166.0212918808814
 30
14.5
 70
   192
  0
VERTEX
  5
D1C
  8
0
 10
218.8363158227036
 20
166.0212918808814
 30
-14.5
 70
   192
  0
VERTEX
  5
D1D
  8
0
 10
192.5194658891468
 20
198.1812741582244
 30
-14.5
 70
   192
  0
VERTEX
  5
D1E
  8
0
 10
247.7578830865676
 20
136.1819889817497
 30
14.5
 70
   192
  0
VERTEX
  5
D1F
  8
0
 10
247.7578830865676
 20
136.1819889817497
 30
-14.5
 70
   192
  0
VERTEX
  5
D20
  8
0
 10
168.9928042247211
 20
232.4352847472342
 30
14.5
 70
   192
  0
VERTEX
  5
D21
  8
0
 10
168.9928042247212
 20
232.4352847472342
 30
-14.5
 70
   192
  0
VERTEX
  5
D22
  8
0
 10
0.0
 20
0.0
 30
0.0
 70
   128
 71
     1
 72
     2
 73
    -3
  0
VERTEX
  5
D23
  8
0
 10
0.0
 20
0.0
 30
0.0
 70
   128
 71
     4
 72
    -1
 73
     3
  0
VERTEX
  5
D24
  8
0
 10
0.0
 20
0.0
 30
0.0
 70
   128
 71
     2
 72
     5
 73
    -6
  0
VERTEX
  5
D25
  8
0
 10
0.0
 20
0.0
 30
0.0
 70
   128
 71
     3
 72
    -2
 73
     6
  0
VERTEX
  5
D26
  8
0
 10
0.0
 20
0.0
 30
0.0
 70
   128
 71
     7
 72
     1
 73
    -4
  0
VERTEX
  5
D27
  8
0
 10
0.0
 20
0.0
 30
0.0
 70
   128
 71
     8
 72
    -7
 73
     4
  0
SEQEND
  5
FA0
  8
0
  0
POLYLINE
  5
D28
  8
0
 66
     1
 10
0.0
 20
0.0
 30
0.0
 70
    64
 71
     4
 72
     2
  0
VERTEX
  5
D29
  8
0
 10
168.9928042247211
 20
232.4352847472342
 30
-14.5
 70
   192
  0
VERTEX
  5
D2A
  8
0
 10
168.9928042247211
 20
232.4352847472342
 30
14.5
 70
   192
  0
VERTEX
  5
D2B
  8
0
 10
21.18344283363017
 20
468.2763605598194
 30
14.5
 70
   192
  0
VERTEX
  5
D2C
  8
0
 10
21.1834428336301
 20
468.2763605598194
 30
-14.5
 70
   192
  0
VERTEX
  5
D2D
  8
0
 10
0.0
 20
0.0
 30
0.0
 70
   128
 71
     1
 72
     4
 73
    -3
  0
VERTEX
  5
D2E
  8
0
 10
0.0
 20
0.0
 30
0.0
 70
   128
 71
    -1
 72
     3
 73
     2
  0
SEQEND
  5
FA1
  8
0
  0
POLYLINE
  5
D2F
  8
0
 66
     1
 10
0.0
 20
0.0
 30
0.0
 70
    64
 71
     8
 72
     6
  0
VERTEX
  5
D30
  8
0
 10
-8.266054623116107
 20
478.5939047418537
 30
-14.5
 70
   192
  0
VERTEX
  5
D31
  8
0
 10
-8.266054623116107
 20
478.5939047418537
 30
14.5
 70
   192
  0
VERTEX
  5
D32
  8
0
 10
8.26605462311613
 20
478.5939047418537
 30
14.5
 70
   192
  0
VERTEX
  5
D33
  8
0
 10
8.26605462311613
 20
478.5939047418537
 30
-14.5
 70
   192
  0
VERTEX
  5
D34
  8
0
 10
-21.18344283363015
 20
468.2763605598194
 30
-14.5
 70
   192
  0
VERTEX
  5
D35
  8
0
 10
-21.18344283363014
 20
468.2763605598194
 30
14.5
 70
   192
  0
VERTEX
  5
D36
  8
0
 10
21.18344283363016
 20
468.2763605598194
 30
14.5
 70
   192
  0
VERTEX
  5
D37
  8
0
 10
21.18344283363017
 20
468.2763605598194
 30
-14.5
 70
   192
  0
VERTEX
  5
D38
  8
0
 10
0.0
 20
0.0
 30
0.0
 70
   128
 71
     1
 72
     2
 73
    -3
  0
VERTEX
  5
D39
  8
0
 10
0.0
 20
0.0
 30
0.0
 70
   128
 71
    -1
 72
     3
 73
     4
  0
VERTEX
  5
D3A
  8
0
 10
0.0
 20
0.0
 30
0.0
 70
   128
 71
     5
 72
     6
 73
    -2
  0
VERTEX
  5
D3B
  8
0
 10
0.0
 20
0.0
 30
0.0
 70
   128
 71
    -5
 72
     2
 73
     1
  0
VERTEX
  5
D3C
  8
0
 10
0.0
 20
0.0
 30
0.0
 70
   128
 71
     4
 72
     3
 73
    -7
  0
VERTEX
  5
D3D
  8
0
 10
0.0
 20
0.0
 30
0.0
 70
   128
 71
    -4
 72
     7
 73
     8
  0
SEQEND
  5
FA2
  8
0
  0
POLYLINE
  5
D3E
  8
0
 66
     1
 10
0.0
 20
0.0
 30
0.0
 70
    64
 71
     4
 72
     2
  0
VERTEX
  5
D3F
  8
0
 10
-21.18344283363014
 20
468.2763605598194
 30
-14.5
 70
   192
  0
VERTEX
  5
D40
  8
0
 10
-21.18344283363007
 20
468.2763605598194
 30
14.5
 70
   192
  0
VERTEX
  5
D41
  8
0
 10
-168.9928042247212
 20
232.435284747234
 30
14.5
 70
   192
  0
VERTEX
  5
D42
  8
0
 10
-168.9928042247212
 20
232.435284747234
 30
-14.5
 70
   192
  0
VERTEX
  5
D43
  8
0
 10
0.0
 20
0.0
 30
0.0
 70
   128
 71
     1
 72
     4
 73
    -3
  0
VERTEX
  5
D44
  8
0
 10
0.0
 20
0.0
 30
0.0
 70
   128
 71
    -1
 72
     3
 73
     2
  0
SEQEND
  5
FA3
  8
0
  0
POLYLINE
  5
D45
  8
0
 66
     1
 10
0.0
 20
0.0
 30
0.0
 70
    64
 71
     8
 72
     6
  0
VERTEX
  5
D46
  8
0
 10
-218.8363158227035
 20
166.0212918808814
 30
14.5
 70
   192
  0
VERTEX
  5
D47
  8
0
 10
-192.5194658891468
 20
198.1812741582243
 30
14.5
 70
   192
  0
VERTEX
  5
D48
  8
0
 10
-192.5194658891468
 20
198.1812741582243
 30
-14.5
 70
   192
  0
VERTEX
  5
D49
  8
0
 10
-218.8363158227035
 20
166.0212918808814
 30
-14.5
 70
   192
  0
VERTEX
  5
D4A
  8
0
 10
-168.9928042247212
 20
232.435284747234
 30
14.5
 70
   192
  0
VERTEX
  5
D4B
  8
0
 10
-168.9928042247212
 20
232.435284747234
 30
-14.5
 70
   192
  0
VERTEX
  5
D4C
  8
0
 10
-247.7578830865675
 20
136.1819889817497
 30
14.5
 70
   192
  0
VERTEX
  5
D4D
  8
0
 10
-247.7578830865675
 20
136.1819889817496
 30
-14.5
 70
   192
  0
VERTEX
  5
D4E
  8
0
 10
0.0
 20
0.0
 30
0.0
 70
   128
 71
     1
 72
     2
 73
    -3
  0
VERTEX
  5
D4F
  8
0
 10
0.0
 20
0.0
 30
0.0
 70
   128
 71
     4
 72
    -1
 73
     3
  0
VERTEX
  5
D50
  8
0
 10
0.0
 20
0.0
 30
0.0
 70
   128
 71
     2
 72
     5
 73
    -6
  0
VERTEX
  5
D51
  8
0
 10
0.0
 20
0.0
 30
0.0
 70
   128
 71
     3
 72
    -2
 73
     6
  0
VERTEX
  5
D52
  8
0
 10
0.0
 20
0.0
 30
0.0
 70
   128
 71
     7
 72
     1
 73
    -4
  0
VERTEX
  5
D53
  8
0
 10
0.0
 20
0.0
 30
0.0
 70
   128
 71
     8
 72
    -7
 73
     4
  0
SEQEND
  5
FA4
  8
0
  0
POLYLINE
  5
D54
  8
0
 66
     1
 10
0.0
 20
0.0
 30
0.0
 70
    64
 71
     8
 72
     6
  0
VERTEX
  5
D55
  8
0
 10
-325.1035722564552
 20
29.62104418898443
 30
-14.5
 70
   192
  0
VERTEX
  5
D56
  8
0
 10
-325.1035722564552
 20
29.62104418898443
 30
14.5
 70
   192
  0
VERTEX
  5
D57
  8
0
 10
-291.3440757819064
 20
86.46779780095798
 30
14.5
 70
   192
  0
VERTEX
  5
D58
  8
0
 10
-291.3440757819064
 20
86.46779780095798
 30
-14.5
 70
   192
  0
VERTEX
  5
D59
  8
0
 10
-347.8977040285163
 20
-32.44089708901163
 30
-14.5
 70
   192
  0
VERTEX
  5
D5A
  8
0
 10
-347.8977040285163
 20
-32.44089708901157
 30
14.5
 70
   192
  0
VERTEX
  5
D5B
  8
0
 10
-247.7578830865675
 20
136.1819889817497
 30
14.5
 70
   192
  0
VERTEX
  5
D5C
  8
0
 10
-247.7578830865675
 20
136.1819889817497
 30
-14.5
 70
   192
  0
VERTEX
  5
D5D
  8
0
 10
0.0
 20
0.0
 30
0.0
 70
   128
 71
     1
 72
     2
 73
    -3
  0
VERTEX
  5
D5E
  8
0
 10
0.0
 20
0.0
 30
0.0
 70
   128
 71
    -1
 72
     3
 73
     4
  0
VERTEX
  5
D5F
  8
0
 10
0.0
 20
0.0
 30
0.0
 70
   128
 71
     5
 72
     6
 73
    -2
  0
VERTEX
  5
D60
  8
0
 10
0.0
 20
0.0
 30
0.0
 70
   128
 71
    -5
 72
     2
 73
     1
  0
VERTEX
  5
D61
  8
0
 10
0.0
 20
0.0
 30
0.0
 70
   128
 71
     4
 72
     3
 73
    -7
  0
VERTEX
  5
D62
  8
0
 10
0.0
 20
0.0
 30
0.0
 70
   128
 71
    -4
 72
     7
 73
     8
  0
SEQEND
  5
FA5
  8
0
  0
POLYLINE
  5
D63
  8
0
 66
     1
 10
0.0
 20
0.0
 30
0.0
 70
    64
 71
    48
 72
    46
  0
VERTEX
  5
D64
  8
0
 10
-347.8977040285164
 20
-32.44089708901156
 30
14.5
 70
   192
  0
VERTEX
  5
D65
  8
0
 10
-355.3638944024052
 20
-55.74902518558616
 30
14.5
 70
   192
  0
VERTEX
  5
D66
  8
0
 10
-365.1183340093675
 20
-78.19593459466982
 30
14.5
 70
   192
  0
VERTEX
  5
D67
  8
0
 10
-377.0636795005702
 20
-99.55761887192861
 30
14.5
 70
   192
  0
VERTEX
  5
D68
  8
0
 10
-372.8269909338441
 20
-102.2128909838925
 30
14.5
 70
   192
  0
VERTEX
  5
D69
  8
0
 10
-360.6378628815964
 20
-80.4152539662814
 30
14.5
 70
   192
  0
VERTEX
  5
D6A
  8
0
 10
-350.6843530785737
 20
-57.51024436517555
 30
14.5
 70
   192
  0
VERTEX
  5
D6B
  8
0
 10
-343.0657914725647
 20
-33.7264401849973
 30
14.5
 70
   192
  0
VERTEX
  5
D6C
  8
0
 10
-320.5882448640044
 20
27.4735296863598
 30
14.5
 70
   192
  0
VERTEX
  5
D6D
  8
0
 10
-287.2976302849354
 20
83.53074505372257
 30
14.5
 70
   192
  0
VERTEX
  5
D6E
  8
0
 10
-244.3168013770319
 20
132.5544613570032
 30
14.5
 70
   192
  0
VERTEX
  5
D6F
  8
0
 10
-215.1030970700985
 20
162.6951713561261
 30
14.5
 70
   192
  0
VERTEX
  5
D70
  8
0
 10
-188.5204203695362
 20
195.1800019393007
 30
14.5
 70
   192
  0
VERTEX
  5
D71
  8
0
 10
-164.7561156579952
 20
229.7800126352701
 30
14.5
 70
   192
  0
VERTEX
  5
D72
  8
0
 10
-16.94675426690415
 20
465.6210884478554
 30
14.5
 70
   192
  0
VERTEX
  5
D73
  8
0
 10
-6.612843698492896
 20
473.8751237934829
 30
14.5
 70
   192
  0
VERTEX
  5
D74
  8
0
 10
6.612843698492924
 20
473.8751237934829
 30
14.5
 70
   192
  0
VERTEX
  5
D75
  8
0
 10
16.94675426690416
 20
465.6210884478555
 30
14.5
 70
   192
  0
VERTEX
  5
D76
  8
0
 10
164.7561156579951
 20
229.7800126352703
 30
14.5
 70
   192
  0
VERTEX
  5
D77
  8
0
 10
188.5204203695363
 20
195.1800019393006
 30
14.5
 70
   192
  0
VERTEX
  5
D78
  8
0
 10
215.1030970700984
 20
162.6951713561262
 30
14.5
 70
   192
  0
VERTEX
  5
D79
  8
0
 10
244.3168013770319
 20
132.554461357003
 30
14.5
 70
   192
  0
VERTEX
  5
D7A
  8
0
 10
287.2976302849353
 20
83.53074505372254
 30
14.5
 70
   192
  0
VERTEX
  5
D7B
  8
0
 10
320.5882448640044
 20
27.47352968635963
 30
14.5
 70
   192
  0
VERTEX
  5
D7C
  8
0
 10
343.0657914725646
 20
-33.72644018499766
 30
14.5
 70
   192
  0
VERTEX
  5
D7D
  8
0
 10
350.6843530785738
 20
-57.51024436517571
 30
14.5
 70
   192
  0
VERTEX
  5
D7E
  8
0
 10
360.6378628815966
 20
-80.41525396628171
 30
14.5
 70
   192
  0
VERTEX
  5
D7F
  8
0
 10
372.8269909338443
 20
-102.2128909838927
 30
14.5
 70
   192
  0
VERTEX
  5
D80
  8
0
 10
377.0636795005701
 20
-99.55761887192857
 30
14.5
 70
   192
  0
VERTEX
  5
D81
  8
0
 10
365.1183340093673
 20
-78.19593459466975
 30
14.5
 70
   192
  0
VERTEX
  5
D82
  8
0
 10
355.3638944024052
 20
-55.74902518558608
 30
14.5
 70
   192
  0
VERTEX
  5
D83
  8
0
 10
347.8977040285163
 20
-32.44089708901144
 30
14.5
 70
   192
  0
VERTEX
  5
D84
  8
0
 10
325.1035722564551
 20
29.62104418898448
 30
14.5
 70
   192
  0
VERTEX
  5
D85
  8
0
 10
291.3440757819063
 20
86.46779780095798
 30
14.5
 70
   192
  0
VERTEX
  5
D86
  8
0
 10
247.7578830865675
 20
136.1819889817496
 30
14.5
 70
   192
  0
VERTEX
  5
D87
  8
0
 10
218.8363158227036
 20
166.0212918808814
 30
14.5
 70
   192
  0
VERTEX
  5
D88
  8
0
 10
192.5194658891468
 20
198.1812741582244
 30
14.5
 70
   192
  0
VERTEX
  5
D89
  8
0
 10
168.9928042247212
 20
232.4352847472342
 30
14.5
 70
   192
  0
VERTEX
  5
D8A
  8
0
 10
21.1834428336301
 20
468.2763605598194
 30
14.5
 70
   192
  0
VERTEX
  5
D8B
  8
0
 10
8.26605462311613
 20
478.5939047418537
 30
14.5
 70
   192
  0
VERTEX
  5
D8C
  8
0
 10
-8.266054623116107
 20
478.5939047418537
 30
14.5
 70
   192
  0
VERTEX
  5
D8D
  8
0
 10
-21.18344283363015
 20
468.2763605598194
 30
14.5
 70
   192
  0
VERTEX
  5
D8E
  8
0
 10
-168.9928042247212
 20
232.435284747234
 30
14.5
 70
   192
  0
VERTEX
  5
D8F
  8
0
 10
-192.5194658891468
 20
198.1812741582243
 30
14.5
 70
   192
  0
VERTEX
  5
D90
  8
0
 10
-218.8363158227035
 20
166.0212918808814
 30
14.5
 70
   192
  0
VERTEX
  5
D91
  8
0
 10
-247.7578830865675
 20
136.1819889817496
 30
14.5
 70
   192
  0
VERTEX
  5
D92
  8
0
 10
-291.3440757819064
 20
86.46779780095798
 30
14.5
 70
   192
  0
VERTEX
  5
D93
  8
0
 10
-325.1035722564552
 20
29.62104418898443
 30
14.5
 70
   192
  0
VERTEX
  5
D94
  8
0
 10
0.0
 20
0.0
 30
0.0
 70
   128
 71
    28
 72
    29
 73
   -30
  0
VERTEX
  5
D95
  8
0
 10
0.0
 20
0.0
 30
0.0
 70
   128
 71
    27
 72
   -28
 73
   -30
  0
VERTEX
  5
D96
  8
0
 10
0.0
 20
0.0
 30
0.0
 70
   128
 71
   -31
 72
    26
 73
   -27
  0
VERTEX
  5
D97
  8
0
 10
0.0
 20
0.0
 30
0.0
 70
   128
 71
    30
 72
   -31
 73
   -27
  0
VERTEX
  5
D98
  8
0
 10
0.0
 20
0.0
 30
0.0
 70
   128
 71
   -32
 72
    25
 73
   -26
  0
VERTEX
  5
D99
  8
0
 10
0.0
 20
0.0
 30
0.0
 70
   128
 71
    31
 72
   -32
 73
   -26
  0
VERTEX
  5
D9A
  8
0
 10
0.0
 20
0.0
 30
0.0
 70
   128
 71
   -35
 72
    22
 73
   -23
  0
VERTEX
  5
D9B
  8
0
 10
0.0
 20
0.0
 30
0.0
 70
   128
 71
    34
 72
   -35
 73
   -23
  0
VERTEX
  5
D9C
  8
0
 10
0.0
 20
0.0
 30
0.0
 70
   128
 71
   -24
 72
    33
 73
   -34
  0
VERTEX
  5
D9D
  8
0
 10
0.0
 20
0.0
 30
0.0
 70
   128
 71
    23
 72
   -24
 73
   -34
  0
VERTEX
  5
D9E
  8
0
 10
0.0
 20
0.0
 30
0.0
 70
   128
 71
   -25
 72
    32
 73
   -33
  0
VERTEX
  5
D9F
  8
0
 10
0.0
 20
0.0
 30
0.0
 70
   128
 71
    24
 72
   -25
 73
   -33
  0
VERTEX
  5
DA0
  8
0
 10
0.0
 20
0.0
 30
0.0
 70
   128
 71
   -36
 72
    21
 73
   -22
  0
VERTEX
  5
DA1
  8
0
 10
0.0
 20
0.0
 30
0.0
 70
   128
 71
    35
 72
   -36
 73
   -22
  0
VERTEX
  5
DA2
  8
0
 10
0.0
 20
0.0
 30
0.0
 70
   128
 71
   -37
 72
    20
 73
   -21
  0
VERTEX
  5
DA3
  8
0
 10
0.0
 20
0.0
 30
0.0
 70
   128
 71
    36
 72
   -37
 73
   -21
  0
VERTEX
  5
DA4
  8
0
 10
0.0
 20
0.0
 30
0.0
 70
   128
 71
   -38
 72
    19
 73
   -20
  0
VERTEX
  5
DA5
  8
0
 10
0.0
 20
0.0
 30
0.0
 70
   128
 71
    37
 72
   -38
 73
   -20
  0
VERTEX
  5
DA6
  8
0
 10
0.0
 20
0.0
 30
0.0
 70
   128
 71
   -43
 72
    14
 73
   -15
  0
VERTEX
  5
DA7
  8
0
 10
0.0
 20
0.0
 30
0.0
 70
   128
 71
    42
 72
   -43
 73
   -15
  0
VERTEX
  5
DA8
  8
0
 10
0.0
 20
0.0
 30
0.0
 70
   128
 71
   -16
 72
    41
 73
   -42
  0
VERTEX
  5
DA9
  8
0
 10
0.0
 20
0.0
 30
0.0
 70
   128
 71
    15
 72
   -16
 73
   -42
  0
VERTEX
  5
DAA
  8
0
 10
0.0
 20
0.0
 30
0.0
 70
   128
 71
   -17
 72
    40
 73
   -41
  0
VERTEX
  5
DAB
  8
0
 10
0.0
 20
0.0
 30
0.0
 70
   128
 71
    16
 72
   -17
 73
   -41
  0
VERTEX
  5
DAC
  8
0
 10
0.0
 20
0.0
 30
0.0
 70
   128
 71
   -18
 72
    39
 73
   -40
  0
VERTEX
  5
DAD
  8
0
 10
0.0
 20
0.0
 30
0.0
 70
   128
 71
    17
 72
   -18
 73
   -40
  0
VERTEX
  5
DAE
  8
0
 10
0.0
 20
0.0
 30
0.0
 70
   128
 71
   -19
 72
    38
 73
   -39
  0
VERTEX
  5
DAF
  8
0
 10
0.0
 20
0.0
 30
0.0
 70
   128
 71
    18
 72
   -19
 73
   -39
  0
VERTEX
  5
DB0
  8
0
 10
0.0
 20
0.0
 30
0.0
 70
   128
 71
   -44
 72
    13
 73
   -14
  0
VERTEX
  5
DB1
  8
0
 10
0.0
 20
0.0
 30
0.0
 70
   128
 71
    43
 72
   -44
 73
   -14
  0
VERTEX
  5
DB2
  8
0
 10
0.0
 20
0.0
 30
0.0
 70
   128
 71
   -45
 72
    12
 73
   -13
  0
VERTEX
  5
DB3
  8
0
 10
0.0
 20
0.0
 30
0.0
 70
   128
 71
    44
 72
   -45
 73
   -13
  0
VERTEX
  5
DB4
  8
0
 10
0.0
 20
0.0
 30
0.0
 70
   128
 71
   -46
 72
    11
 73
   -12
  0
VERTEX
  5
DB5
  8
0
 10
0.0
 20
0.0
 30
0.0
 70
   128
 71
    45
 72
   -46
 73
   -12
  0
VERTEX
  5
DB6
  8
0
 10
0.0
 20
0.0
 30
0.0
 70
   128
 71
    -1
 72
     8
 73
    -9
  0
VERTEX
  5
DB7
  8
0
 10
0.0
 20
0.0
 30
0.0
 70
   128
 71
    48
 72
    -1
 73
    -9
  0
VERTEX
  5
DB8
  8
0
 10
0.0
 20
0.0
 30
0.0
 70
   128
 71
   -10
 72
    47
 73
   -48
  0
VERTEX
  5
DB9
  8
0
 10
0.0
 20
0.0
 30
0.0
 70
   128
 71
     9
 72
   -10
 73
   -48
  0
VERTEX
  5
DBA
  8
0
 10
0.0
 20
0.0
 30
0.0
 70
   128
 71
   -11
 72
    46
 73
   -47
  0
VERTEX
  5
DBB
  8
0
 10
0.0
 20
0.0
 30
0.0
 70
   128
 71
    10
 72
   -11
 73
   -47
  0
VERTEX
  5
DBC
  8
0
 10
0.0
 20
0.0
 30
0.0
 70
   128
 71
     4
 72
     5
 73
    -6
  0
VERTEX
  5
DBD
  8
0
 10
0.0
 20
0.0
 30
0.0
 70
   128
 71
     3
 72
    -4
 73
    -6
  0
VERTEX
  5
DBE
  8
0
 10
0.0
 20
0.0
 30
0.0
 70
   128
 71
    -7
 72
     2
 73
    -3
  0
VERTEX
  5
DBF
  8
0
 10
0.0
 20
0.0
 30
0.0
 70
   128
 71
     6
 72
    -7
 73
    -3
  0
VERTEX
  5
DC0
  8
0
 10
0.0
 20
0.0
 30
0.0
 70
   128
 71
    -8
 72
     1
 73
    -2
  0
VERTEX
  5
DC1
  8
0
 10
0.0
 20
0.0
 30
0.0
 70
   128
 71
     7
 72
    -8
 73
    -2
  0
SEQEND
  5
FA6
  8
0
  0
POLYLINE
  5
DC2
  8
0
 66
     1
 10
0.0
 20
0.0
 30
0.0
 70
    64
 71
    48
 72
    46
  0
VERTEX
  5
DC3
  8
0
 10
-377.0636795005701
 20
-99.55761887192864
 30
-14.5
 70
   192
  0
VERTEX
  5
DC4
  8
0
 10
-372.8269909338441
 20
-102.2128909838924
 30
-14.5
 70
   192
  0
VERTEX
  5
DC5
  8
0
 10
-360.6378628815964
 20
-80.41525396628147
 30
-14.5
 70
   192
  0
VERTEX
  5
DC6
  8
0
 10
-350.6843530785738
 20
-57.51024436517568
 30
-14.5
 70
   192
  0
VERTEX
  5
DC7
  8
0
 10
-343.0657914725647
 20
-33.72644018499759
 30
-14.5
 70
   192
  0
VERTEX
  5
DC8
  8
0
 10
-320.5882448640044
 20
27.47352968635965
 30
-14.5
 70
   192
  0
VERTEX
  5
DC9
  8
0
 10
-287.2976302849355
 20
83.53074505372243
 30
-14.5
 70
   192
  0
VERTEX
  5
DCA
  8
0
 10
-244.3168013770318
 20
132.5544613570031
 30
-14.5
 70
   192
  0
VERTEX
  5
DCB
  8
0
 10
-215.1030970700985
 20
162.6951713561261
 30
-14.5
 70
   192
  0
VERTEX
  5
DCC
  8
0
 10
-188.5204203695362
 20
195.1800019393007
 30
-14.5
 70
   192
  0
VERTEX
  5
DCD
  8
0
 10
-164.7561156579952
 20
229.7800126352702
 30
-14.5
 70
   192
  0
VERTEX
  5
DCE
  8
0
 10
-16.94675426690415
 20
465.6210884478555
 30
-14.5
 70
   192
  0
VERTEX
  5
DCF
  8
0
 10
-6.612843698492896
 20
473.8751237934829
 30
-14.5
 70
   192
  0
VERTEX
  5
DD0
  8
0
 10
6.612843698492924
 20
473.8751237934829
 30
-14.5
 70
   192
  0
VERTEX
  5
DD1
  8
0
 10
16.94675426690415
 20
465.6210884478554
 30
-14.5
 70
   192
  0
VERTEX
  5
DD2
  8
0
 10
164.7561156579951
 20
229.7800126352702
 30
-14.5
 70
   192
  0
VERTEX
  5
DD3
  8
0
 10
188.5204203695363
 20
195.1800019393006
 30
-14.5
 70
   192
  0
VERTEX
  5
DD4
  8
0
 10
215.1030970700984
 20
162.6951713561262
 30
-14.5
 70
   192
  0
VERTEX
  5
DD5
  8
0
 10
244.3168013770319
 20
132.554461357003
 30
-14.5
 70
   192
  0
VERTEX
  5
DD6
  8
0
 10
287.2976302849354
 20
83.53074505372243
 30
-14.5
 70
   192
  0
VERTEX
  5
DD7
  8
0
 10
320.5882448640043
 20
27.47352968635977
 30
-14.5
 70
   192
  0
VERTEX
  5
DD8
  8
0
 10
343.0657914725647
 20
-33.72644018499753
 30
-14.5
 70
   192
  0
VERTEX
  5
DD9
  8
0
 10
350.6843530785738
 20
-57.51024436517571
 30
-14.5
 70
   192
  0
VERTEX
  5
DDA
  8
0
 10
360.6378628815964
 20
-80.4152539662815
 30
-14.5
 70
   192
  0
VERTEX
  5
DDB
  8
0
 10
372.8269909338441
 20
-102.2128909838925
 30
-14.5
 70
   192
  0
VERTEX
  5
DDC
  8
0
 10
377.0636795005701
 20
-99.55761887192855
 30
-14.5
 70
   192
  0
VERTEX
  5
DDD
  8
0
 10
365.1183340093673
 20
-78.19593459466975
 30
-14.5
 70
   192
  0
VERTEX
  5
DDE
  8
0
 10
355.3638944024052
 20
-55.74902518558608
 30
-14.5
 70
   192
  0
VERTEX
  5
DDF
  8
0
 10
347.8977040285162
 20
-32.44089708901146
 30
-14.5
 70
   192
  0
VERTEX
  5
DE0
  8
0
 10
325.1035722564551
 20
29.62104418898448
 30
-14.5
 70
   192
  0
VERTEX
  5
DE1
  8
0
 10
291.3440757819063
 20
86.46779780095798
 30
-14.5
 70
   192
  0
VERTEX
  5
DE2
  8
0
 10
247.7578830865676
 20
136.1819889817497
 30
-14.5
 70
   192
  0
VERTEX
  5
DE3
  8
0
 10
218.8363158227036
 20
166.0212918808814
 30
-14.5
 70
   192
  0
VERTEX
  5
DE4
  8
0
 10
192.5194658891468
 20
198.1812741582244
 30
-14.5
 70
   192
  0
VERTEX
  5
DE5
  8
0
 10
168.9928042247211
 20
232.4352847472342
 30
-14.5
 70
   192
  0
VERTEX
  5
DE6
  8
0
 10
21.18344283363016
 20
468.2763605598194
 30
-14.5
 70
   192
  0
VERTEX
  5
DE7
  8
0
 10
8.26605462311613
 20
478.5939047418537
 30
-14.5
 70
   192
  0
VERTEX
  5
DE8
  8
0
 10
-8.266054623116107
 20
478.5939047418537
 30
-14.5
 70
   192
  0
VERTEX
  5
DE9
  8
0
 10
-21.18344283363007
 20
468.2763605598194
 30
-14.5
 70
   192
  0
VERTEX
  5
DEA
  8
0
 10
-168.9928042247212
 20
232.435284747234
 30
-14.5
 70
   192
  0
VERTEX
  5
DEB
  8
0
 10
-192.5194658891468
 20
198.1812741582243
 30
-14.5
 70
   192
  0
VERTEX
  5
DEC
  8
0
 10
-218.8363158227035
 20
166.0212918808814
 30
-14.5
 70
   192
  0
VERTEX
  5
DED
  8
0
 10
-247.7578830865675
 20
136.1819889817497
 30
-14.5
 70
   192
  0
VERTEX
  5
DEE
  8
0
 10
-291.3440757819064
 20
86.46779780095798
 30
-14.5
 70
   192
  0
VERTEX
  5
DEF
  8
0
 10
-325.1035722564552
 20
29.62104418898443
 30
-14.5
 70
   192
  0
VERTEX
  5
DF0
  8
0
 10
-347.8977040285164
 20
-32.44089708901156
 30
-14.5
 70
   192
  0
VERTEX
  5
DF1
  8
0
 10
-355.3638944024052
 20
-55.74902518558616
 30
-14.5
 70
   192
  0
VERTEX
  5
DF2
  8
0
 10
-365.1183340093675
 20
-78.19593459466982
 30
-14.5
 70
   192
  0
VERTEX
  5
DF3
  8
0
 10
0.0
 20
0.0
 30
0.0
 70
   128
 71
    27
 72
    26
 73
   -25
  0
VERTEX
  5
DF4
  8
0
 10
0.0
 20
0.0
 30
0.0
 70
   128
 71
   -27
 72
    25
 73
   -24
  0
VERTEX
  5
DF5
  8
0
 10
0.0
 20
0.0
 30
0.0
 70
   128
 71
    24
 72
   -23
 73
   -28
  0
VERTEX
  5
DF6
  8
0
 10
0.0
 20
0.0
 30
0.0
 70
   128
 71
   -24
 72
    28
 73
   -27
  0
VERTEX
  5
DF7
  8
0
 10
0.0
 20
0.0
 30
0.0
 70
   128
 71
    23
 72
   -22
 73
   -29
  0
VERTEX
  5
DF8
  8
0
 10
0.0
 20
0.0
 30
0.0
 70
   128
 71
   -23
 72
    29
 73
   -28
  0
VERTEX
  5
DF9
  8
0
 10
0.0
 20
0.0
 30
0.0
 70
   128
 71
    20
 72
   -19
 73
   -32
  0
VERTEX
  5
DFA
  8
0
 10
0.0
 20
0.0
 30
0.0
 70
   128
 71
   -20
 72
    32
 73
   -31
  0
VERTEX
  5
DFB
  8
0
 10
0.0
 20
0.0
 30
0.0
 70
   128
 71
    31
 72
   -30
 73
   -21
  0
VERTEX
  5
DFC
  8
0
 10
0.0
 20
0.0
 30
0.0
 70
   128
 71
   -31
 72
    21
 73
   -20
  0
VERTEX
  5
DFD
  8
0
 10
0.0
 20
0.0
 30
0.0
 70
   128
 71
    30
 72
   -29
 73
   -22
  0
VERTEX
  5
DFE
  8
0
 10
0.0
 20
0.0
 30
0.0
 70
   128
 71
   -30
 72
    22
 73
   -21
  0
VERTEX
  5
DFF
  8
0
 10
0.0
 20
0.0
 30
0.0
 70
   128
 71
    19
 72
   -18
 73
   -33
  0
VERTEX
  5
E00
  8
0
 10
0.0
 20
0.0
 30
0.0
 70
   128
 71
   -19
 72
    33
 73
   -32
  0
VERTEX
  5
E01
  8
0
 10
0.0
 20
0.0
 30
0.0
 70
   128
 71
    18
 72
   -17
 73
   -34
  0
VERTEX
  5
E02
  8
0
 10
0.0
 20
0.0
 30
0.0
 70
   128
 71
   -18
 72
    34
 73
   -33
  0
VERTEX
  5
E03
  8
0
 10
0.0
 20
0.0
 30
0.0
 70
   128
 71
    17
 72
   -16
 73
   -35
  0
VERTEX
  5
E04
  8
0
 10
0.0
 20
0.0
 30
0.0
 70
   128
 71
   -17
 72
    35
 73
   -34
  0
VERTEX
  5
E05
  8
0
 10
0.0
 20
0.0
 30
0.0
 70
   128
 71
    12
 72
   -11
 73
   -40
  0
VERTEX
  5
E06
  8
0
 10
0.0
 20
0.0
 30
0.0
 70
   128
 71
   -12
 72
    40
 73
   -39
  0
VERTEX
  5
E07
  8
0
 10
0.0
 20
0.0
 30
0.0
 70
   128
 71
    39
 72
   -38
 73
   -13
  0
VERTEX
  5
E08
  8
0
 10
0.0
 20
0.0
 30
0.0
 70
   128
 71
   -39
 72
    13
 73
   -12
  0
VERTEX
  5
E09
  8
0
 10
0.0
 20
0.0
 30
0.0
 70
   128
 71
    38
 72
   -37
 73
   -14
  0
VERTEX
  5
E0A
  8
0
 10
0.0
 20
0.0
 30
0.0
 70
   128
 71
   -38
 72
    14
 73
   -13
  0
VERTEX
  5
E0B
  8
0
 10
0.0
 20
0.0
 30
0.0
 70
   128
 71
    37
 72
   -36
 73
   -15
  0
VERTEX
  5
E0C
  8
0
 10
0.0
 20
0.0
 30
0.0
 70
   128
 71
   -37
 72
    15
 73
   -14
  0
VERTEX
  5
E0D
  8
0
 10
0.0
 20
0.0
 30
0.0
 70
   128
 71
    36
 72
   -35
 73
   -16
  0
VERTEX
  5
E0E
  8
0
 10
0.0
 20
0.0
 30
0.0
 70
   128
 71
   -36
 72
    16
 73
   -15
  0
VERTEX
  5
E0F
  8
0
 10
0.0
 20
0.0
 30
0.0
 70
   128
 71
    11
 72
   -10
 73
   -41
  0
VERTEX
  5
E10
  8
0
 10
0.0
 20
0.0
 30
0.0
 70
   128
 71
   -11
 72
    41
 73
   -40
  0
VERTEX
  5
E11
  8
0
 10
0.0
 20
0.0
 30
0.0
 70
   128
 71
    10
 72
    -9
 73
   -42
  0
VERTEX
  5
E12
  8
0
 10
0.0
 20
0.0
 30
0.0
 70
   128
 71
   -10
 72
    42
 73
   -41
  0
VERTEX
  5
E13
  8
0
 10
0.0
 20
0.0
 30
0.0
 70
   128
 71
     9
 72
    -8
 73
   -43
  0
VERTEX
  5
E14
  8
0
 10
0.0
 20
0.0
 30
0.0
 70
   128
 71
    -9
 72
    43
 73
   -42
  0
VERTEX
  5
E15
  8
0
 10
0.0
 20
0.0
 30
0.0
 70
   128
 71
     6
 72
    -5
 73
   -46
  0
VERTEX
  5
E16
  8
0
 10
0.0
 20
0.0
 30
0.0
 70
   128
 71
    -6
 72
    46
 73
   -45
  0
VERTEX
  5
E17
  8
0
 10
0.0
 20
0.0
 30
0.0
 70
   128
 71
    45
 72
   -44
 73
    -7
  0
VERTEX
  5
E18
  8
0
 10
0.0
 20
0.0
 30
0.0
 70
   128
 71
   -45
 72
     7
 73
    -6
  0
VERTEX
  5
E19
  8
0
 10
0.0
 20
0.0
 30
0.0
 70
   128
 71
    44
 72
   -43
 73
    -8
  0
VERTEX
  5
E1A
  8
0
 10
0.0
 20
0.0
 30
0.0
 70
   128
 71
   -44
 72
     8
 73
    -7
  0
VERTEX
  5
E1B
  8
0
 10
0.0
 20
0.0
 30
0.0
 70
   128
 71
     5
 72
    -4
 73
   -47
  0
VERTEX
  5
E1C
  8
0
 10
0.0
 20
0.0
 30
0.0
 70
   128
 71
    -5
 72
    47
 73
   -46
  0
VERTEX
  5
E1D
  8
0
 10
0.0
 20
0.0
 30
0.0
 70
   128
 71
     4
 72
    -3
 73
   -48
  0
VERTEX
  5
E1E
  8
0
 10
0.0
 20
0.0
 30
0.0
 70
   128
 71
    -4
 72
    48
 73
   -47
  0
VERTEX
  5
E1F
  8
0
 10
0.0
 20
0.0
 30
0.0
 70
   128
 71
     3
 72
     2
 73
    -1
  0
VERTEX
  5
E20
  8
0
 10
0.0
 20
0.0
 30
0.0
 70
   128
 71
    -3
 72
     1
 73
   -48
  0
SEQEND
  5
FA7
  8
0
  0
POLYLINE
  5
E21
  8
0
 66
     1
 10
0.0
 20
0.0
 30
0.0
 70
    64
 71
     4
 72
     2
  0
VERTEX
  5
E22
  8
0
 10
93.5000000000001
 20
-168.0
 30
0.0
 70
   192
  0
VERTEX
  5
E23
  8
0
 10
93.5000000000001
 20
-168.0
 30
-25.0
 70
   192
  0
VERTEX
  5
E24
  8
0
 10
93.50000000000013
 20
-345.0
 30
-25.0
 70
   192
  0
VERTEX
  5
E25
  8
0
 10
93.50000000000013
 20
-345.0
 30
0.0
 70
   192
  0
VERTEX
  5
E26
  8
0
 10
0.0
 20
0.0
 30
0.0
 70
   128
 71
     1
 72
     4
 73
    -3
  0
VERTEX
  5
E27
  8
0
 10
0.0
 20
0.0
 30
0.0
 70
   128
 71
    -1
 72
     3
 73
     2
  0
SEQEND
  5
FA8
  8
0
  0
POLYLINE
  5
E28
  8
0
 66
     1
 10
0.0
 20
0.0
 30
0.0
 70
    64
 71
    12
 72
    12
  0
VERTEX
  5
E29
  8
0
 10
93.50000000000013
 20
-345.0
 30
0.0
 70
   192
  0
VERTEX
  5
E2A
  8
0
 10
93.50000000000013
 20
-345.0
 30
-25.0
 70
   192
  0
VERTEX
  5
E2B
  8
0
 10
-93.50000000000013
 20
-345.0
 30
-25.0
 70
   192
  0
VERTEX
  5
E2C
  8
0
 10
-93.50000000000013
 20
-345.0
 30
0.0
 70
   192
  0
VERTEX
  5
E2D
  8
0
 10
23.50000000000012
 20
-345.0
 30
-20.00000000000001
 70
   192
  0
VERTEX
  5
E2E
  8
0
 10
28.80330085889923
 20
-345.0
 30
-17.80330085889912
 70
   192
  0
VERTEX
  5
E2F
  8
0
 10
31.00000000000013
 20
-345.0
 30
-12.5
 70
   192
  0
VERTEX
  5
E30
  8
0
 10
28.80330085889923
 20
-345.0
 30
-7.196699141100884
 70
   192
  0
VERTEX
  5
E31
  8
0
 10
23.50000000000012
 20
-345.0
 30
-4.999999999999987
 70
   192
  0
VERTEX
  5
E32
  8
0
 10
18.196699141101
 20
-345.0
 30
-7.196699141100884
 70
   192
  0
VERTEX
  5
E33
  8
0
 10
16.0000000000001
 20
-345.0
 30
-12.5
 70
   192
  0
VERTEX
  5
E34
  8
0
 10
18.196699141101
 20
-345.0
 30
-17.80330085889912
 70
   192
  0
VERTEX
  5
E35
  8
0
 10
0.0
 20
0.0
 30
0.0
 70
   128
 71
     6
 72
    -5
 73
    -2
  0
VERTEX
  5
E36
  8
0
 10
0.0
 20
0.0
 30
0.0
 70
   128
 71
     2
 72
    -1
 73
    -7
  0
VERTEX
  5
E37
  8
0
 10
0.0
 20
0.0
 30
0.0
 70
   128
 71
    -2
 72
     7
 73
    -6
  0
VERTEX
  5
E38
  8
0
 10
0.0
 20
0.0
 30
0.0
 70
   128
 71
    -1
 72
     8
 73
    -7
  0
VERTEX
  5
E39
  8
0
 10
0.0
 20
0.0
 30
0.0
 70
   128
 71
    -1
 72
     9
 73
    -8
  0
VERTEX
  5
E3A
  8
0
 10
0.0
 20
0.0
 30
0.0
 70
   128
 71
    -9
 72
     1
 73
    -4
  0
VERTEX
  5
E3B
  8
0
 10
0.0
 20
0.0
 30
0.0
 70
   128
 71
    -4
 72
    10
 73
    -9
  0
VERTEX
  5
E3C
  8
0
 10
0.0
 20
0.0
 30
0.0
 70
   128
 71
     4
 72
    -3
 73
   -11
  0
VERTEX
  5
E3D
  8
0
 10
0.0
 20
0.0
 30
0.0
 70
   128
 71
    -4
 72
    11
 73
   -10
  0
VERTEX
  5
E3E
  8
0
 10
0.0
 20
0.0
 30
0.0
 70
   128
 71
    -3
 72
    12
 73
   -11
  0
VERTEX
  5
E3F
  8
0
 10
0.0
 20
0.0
 30
0.0
 70
   128
 71
    -3
 72
     5
 73
   -12
  0
VERTEX
  5
E40
  8
0
 10
0.0
 20
0.0
 30
0.0
 70
   128
 71
     3
 72
    -2
 73
    -5
  0
SEQEND
  5
FA9
  8
0
  0
POLYLINE
  5
E41
  8
0
 66
     1
 10
0.0
 20
0.0
 30
0.0
 70
    64
 71
     4
 72
     2
  0
VERTEX
  5
E42
  8
0
 10
-93.50000000000013
 20
-345.0
 30
0.0
 70
   192
  0
VERTEX
  5
E43
  8
0
 10
-93.50000000000013
 20
-345.0
 30
-25.0
 70
   192
  0
VERTEX
  5
E44
  8
0
 10
-93.4999999999999
 20
-167.9999999999999
 30
-25.0
 70
   192
  0
VERTEX
  5
E45
  8
0
 10
-93.4999999999999
 20
-168.0
 30
0.0
 70
   192
  0
VERTEX
  5
E46
  8
0
 10
0.0
 20
0.0
 30
0.0
 70
   128
 71
     1
 72
     4
 73
    -3
  0
VERTEX
  5
E47
  8
0
 10
0.0
 20
0.0
 30
0.0
 70
   128
 71
    -1
 72
     3
 73
     2
  0
SEQEND
  5
FAA
  8
0
  0
POLYLINE
  5
E48
  8
0
 66
     1
 10
0.0
 20
0.0
 30
0.0
 70
    64
 71
     4
 72
     2
  0
VERTEX
  5
E49
  8
0
 10
-93.4999999999999
 20
-167.9999999999999
 30
0.0
 70
   192
  0
VERTEX
  5
E4A
  8
0
 10
-93.4999999999999
 20
-167.9999999999999
 30
-25.0
 70
   192
  0
VERTEX
  5
E4B
  8
0
 10
93.5000000000001
 20
-168.0
 30
-25.0
 70
   192
  0
VERTEX
  5
E4C
  8
0
 10
93.5000000000001
 20
-168.0
 30
0.0
 70
   192
  0
VERTEX
  5
E4D
  8
0
 10
0.0
 20
0.0
 30
0.0
 70
   128
 71
     1
 72
     4
 73
    -3
  0
VERTEX
  5
E4E
  8
0
 10
0.0
 20
0.0
 30
0.0
 70
   128
 71
    -1
 72
     3
 73
     2
  0
SEQEND
  5
FAB
  8
0
  0
POLYLINE
  5
E4F
  8
0
 66
     1
 10
0.0
 20
0.0
 30
0.0
 70
    64
 71
     4
 72
     2
  0
VERTEX
  5
E50
  8
0
 10
93.5000000000001
 20
-168.0
 30
-25.0
 70
   192
  0
VERTEX
  5
E51
  8
0
 10
93.50000000000013
 20
-345.0
 30
-25.0
 70
   192
  0
VERTEX
  5
E52
  8
0
 10
-93.50000000000013
 20
-345.0
 30
-25.0
 70
   192
  0
VERTEX
  5
E53
  8
0
 10
-93.4999999999999
 20
-167.9999999999999
 30
-25.0
 70
   192
  0
VERTEX
  5
E54
  8
0
 10
0.0
 20
0.0
 30
0.0
 70
   128
 71
     3
 72
     4
 73
    -1
  0
VERTEX
  5
E55
  8
0
 10
0.0
 20
0.0
 30
0.0
 70
   128
 71
     2
 72
    -3
 73
     1
  0
SEQEND
  5
FAC
  8
0
  0
POLYLINE
  5
E56
  8
0
 66
     1
 10
0.0
 20
0.0
 30
0.0
 70
    64
 71
     4
 72
     2
  0
VERTEX
  5
E57
  8
0
 10
-132.5
 20
75.09999999999997
 30
-24.00000000000001
 70
   192
  0
VERTEX
  5
E58
  8
0
 10
-132.5
 20
75.09999999999997
 30
-25.0
 70
   192
  0
VERTEX
  5
E59
  8
0
 10
-85.0
 20
75.09999999999997
 30
-25.0
 70
   192
  0
VERTEX
  5
E5A
  8
0
 10
-85.0
 20
75.09999999999997
 30
-24.0
 70
   192
  0
VERTEX
  5
E5B
  8
0
 10
0.0
 20
0.0
 30
0.0
 70
   128
 71
     3
 72
     4
 73
    -1
  0
VERTEX
  5
E5C
  8
0
 10
0.0
 20
0.0
 30
0.0
 70
   128
 71
     2
 72
    -3
 73
     1
  0
SEQEND
  5
FAD
  8
0
  0
POLYLINE
  5
E5D
  8
0
 66
     1
 10
0.0
 20
0.0
 30
0.0
 70
    64
 71
     4
 72
     2
  0
VERTEX
  5
E5E
  8
0
 10
-85.0
 20
115.1
 30
-25.0
 70
   192
  0
VERTEX
  5
E5F
  8
0
 10
-185.0
 20
115.1
 30
-25.0
 70
   192
  0
VERTEX
  5
E60
  8
0
 10
-185.0
 20
115.1
 30
0.0
 70
   192
  0
VERTEX
  5
E61
  8
0
 10
-85.0
 20
115.1
 30
0.0
 70
   192
  0
VERTEX
  5
E62
  8
0
 10
0.0
 20
0.0
 30
0.0
 70
   128
 71
     3
 72
     4
 73
    -1
  0
VERTEX
  5
E63
  8
0
 10
0.0
 20
0.0
 30
0.0
 70
   128
 71
     2
 72
    -3
 73
     1
  0
SEQEND
  5
FAE
  8
0
  0
POLYLINE
  5
E64
  8
0
 66
     1
 10
0.0
 20
0.0
 30
0.0
 70
    64
 71
     8
 72
     6
  0
VERTEX
  5
E65
  8
0
 10
-85.0
 20
75.09999999999997
 30
-25.0
 70
   192
  0
VERTEX
  5
E66
  8
0
 10
-85.0
 20
115.1
 30
-25.0
 70
   192
  0
VERTEX
  5
E67
  8
0
 10
-85.0
 20
115.1
 30
0.0
 70
   192
  0
VERTEX
  5
E68
  8
0
 10
-85.0
 20
40.09999999999997
 30
0.0
 70
   192
  0
VERTEX
  5
E69
  8
0
 10
-85.0
 20
40.09999999999998
 30
-1.0
 70
   192
  0
VERTEX
  5
E6A
  8
0
 10
-85.0
 20
114.1
 30
-1.0
 70
   192
  0
VERTEX
  5
E6B
  8
0
 10
-85.0
 20
114.1
 30
-24.0
 70
   192
  0
VERTEX
  5
E6C
  8
0
 10
-85.0
 20
75.09999999999997
 30
-24.0
 70
   192
  0
VERTEX
  5
E6D
  8
0
 10
0.0
 20
0.0
 30
0.0
 70
   128
 71
     4
 72
     5
 73
    -6
  0
VERTEX
  5
E6E
  8
0
 10
0.0
 20
0.0
 30
0.0
 70
   128
 71
     3
 72
    -4
 73
    -6
  0
VERTEX
  5
E6F
  8
0
 10
0.0
 20
0.0
 30
0.0
 70
   128
 71
    -7
 72
     2
 73
    -3
  0
VERTEX
  5
E70
  8
0
 10
0.0
 20
0.0
 30
0.0
 70
   128
 71
     6
 72
    -7
 73
    -3
  0
VERTEX
  5
E71
  8
0
 10
0.0
 20
0.0
 30
0.0
 70
   128
 71
     8
 72
     1
 73
    -2
  0
VERTEX
  5
E72
  8
0
 10
0.0
 20
0.0
 30
0.0
 70
   128
 71
     7
 72
    -8
 73
    -2
  0
SEQEND
  5
FAF
  8
0
  0
POLYLINE
  5
E73
  8
0
 66
     1
 10
0.0
 20
0.0
 30
0.0
 70
    64
 71
     8
 72
     6
  0
VERTEX
  5
E74
  8
0
 10
-132.5
 20
75.09999999999997
 30
-25.0
 70
   192
  0
VERTEX
  5
E75
  8
0
 10
-132.5000000000001
 20
110.1
 30
-25.0
 70
   192
  0
VERTEX
  5
E76
  8
0
 10
-137.5
 20
110.1
 30
-25.0
 70
   192
  0
VERTEX
  5
E77
  8
0
 10
-137.4999999999999
 20
75.09999999999997
 30
-25.0
 70
   192
  0
VERTEX
  5
E78
  8
0
 10
-185.0
 20
75.09999999999997
 30
-25.0
 70
   192
  0
VERTEX
  5
E79
  8
0
 10
-185.0
 20
115.1
 30
-25.0
 70
   192
  0
VERTEX
  5
E7A
  8
0
 10
-85.0
 20
115.1
 30
-25.0
 70
   192
  0
VERTEX
  5
E7B
  8
0
 10
-85.0
 20
75.09999999999997
 30
-25.0
 70
   192
  0
VERTEX
  5
E7C
  8
0
 10
0.0
 20
0.0
 30
0.0
 70
   128
 71
     8
 72
     1
 73
    -2
  0
VERTEX
  5
E7D
  8
0
 10
0.0
 20
0.0
 30
0.0
 70
   128
 71
     7
 72
    -8
 73
    -2
  0
VERTEX
  5
E7E
  8
0
 10
0.0
 20
0.0
 30
0.0
 70
   128
 71
    -3
 72
     6
 73
    -7
  0
VERTEX
  5
E7F
  8
0
 10
0.0
 20
0.0
 30
0.0
 70
   128
 71
     2
 72
    -3
 73
    -7
  0
VERTEX
  5
E80
  8
0
 10
0.0
 20
0.0
 30
0.0
 70
   128
 71
     4
 72
     5
 73
    -6
  0
VERTEX
  5
E81
  8
0
 10
0.0
 20
0.0
 30
0.0
 70
   128
 71
     3
 72
    -4
 73
    -6
  0
SEQEND
  5
FB0
  8
0
  0
POLYLINE
  5
E82
  8
0
 66
     1
 10
0.0
 20
0.0
 30
0.0
 70
    64
 71
     8
 72
     6
  0
VERTEX
  5
E83
  8
0
 10
-185.0
 20
115.1
 30
-25.0
 70
   192
  0
VERTEX
  5
E84
  8
0
 10
-185.0
 20
115.1
 30
0.0
 70
   192
  0
VERTEX
  5
E85
  8
0
 10
-185.0
 20
40.09999999999998
 30
0.0
 70
   192
  0
VERTEX
  5
E86
  8
0
 10
-185.0
 20
40.09999999999998
 30
-1.0
 70
   192
  0
VERTEX
  5
E87
  8
0
 10
-185.0
 20
114.1
 30
-1.0
 70
   192
  0
VERTEX
  5
E88
  8
0
 10
-185.0
 20
114.1
 30
-24.0
 70
   192
  0
VERTEX
  5
E89
  8
0
 10
-185.0
 20
75.09999999999997
 30
-24.0
 70
   192
  0
VERTEX
  5
E8A
  8
0
 10
-185.0
 20
75.09999999999997
 30
-25.0
 70
   192
  0
VERTEX
  5
E8B
  8
0
 10
0.0
 20
0.0
 30
0.0
 70
   128
 71
     5
 72
     4
 73
    -3
  0
VERTEX
  5
E8C
  8
0
 10
0.0
 20
0.0
 30
0.0
 70
   128
 71
    -5
 72
     3
 73
    -2
  0
VERTEX
  5
E8D
  8
0
 10
0.0
 20
0.0
 30
0.0
 70
   128
 71
     2
 72
    -1
 73
    -6
  0
VERTEX
  5
E8E
  8
0
 10
0.0
 20
0.0
 30
0.0
 70
   128
 71
    -2
 72
     6
 73
    -5
  0
VERTEX
  5
E8F
  8
0
 10
0.0
 20
0.0
 30
0.0
 70
   128
 71
     1
 72
     8
 73
    -7
  0
VERTEX
  5
E90
  8
0
 10
0.0
 20
0.0
 30
0.0
 70
   128
 71
    -1
 72
     7
 73
    -6
  0
SEQEND
  5
FB1
  8
0
  0
POLYLINE
  5
E91
  8
0
 66
     1
 10
0.0
 20
0.0
 30
0.0
 70
    64
 71
     4
 72
     2
  0
VERTEX
  5
E92
  8
0
 10
-85.0
 20
40.09999999999998
 30
-1.0
 70
   192
  0
VERTEX
  5
E93
  8
0
 10
-85.0
 20
40.09999999999998
 30
0.0
 70
   192
  0
VERTEX
  5
E94
  8
0
 10
-185.0
 20
40.09999999999998
 30
0.0
 70
   192
  0
VERTEX
  5
E95
  8
0
 10
-185.0
 20
40.09999999999998
 30
-1.0
 70
   192
  0
VERTEX
  5
E96
  8
0
 10
0.0
 20
0.0
 30
0.0
 70
   128
 71
     3
 72
     4
 73
    -1
  0
VERTEX
  5
E97
  8
0
 10
0.0
 20
0.0
 30
0.0
 70
   128
 71
     2
 72
    -3
 73
     1
  0
SEQEND
  5
FB2
  8
0
  0
POLYLINE
  5
E98
  8
0
 66
     1
 10
0.0
 20
0.0
 30
0.0
 70
    64
 71
     4
 72
     2
  0
VERTEX
  5
E99
  8
0
 10
-85.0
 20
114.1
 30
-1.0
 70
   192
  0
VERTEX
  5
E9A
  8
0
 10
-185.0
 20
114.1
 30
-1.0
 70
   192
  0
VERTEX
  5
E9B
  8
0
 10
-185.0
 20
40.09999999999998
 30
-1.0
 70
   192
  0
VERTEX
  5
E9C
  8
0
 10
-85.0
 20
40.09999999999998
 30
-1.0
 70
   192
  0
VERTEX
  5
E9D
  8
0
 10
0.0
 20
0.0
 30
0.0
 70
   128
 71
     1
 72
     4
 73
    -3
  0
VERTEX
  5
E9E
  8
0
 10
0.0
 20
0.0
 30
0.0
 70
   128
 71
    -1
 72
     3
 73
     2
  0
SEQEND
  5
FB3
  8
0
  0
POLYLINE
  5
E9F
  8
0
 66
     1
 10
0.0
 20
0.0
 30
0.0
 70
    64
 71
     4
 72
     2
  0
VERTEX
  5
EA0
  8
0
 10
-185.0
 20
114.1
 30
-24.0
 70
   192
  0
VERTEX
  5
EA1
  8
0
 10
-185.0
 20
114.1
 30
-1.0
 70
   192
  0
VERTEX
  5
EA2
  8
0
 10
-85.0
 20
114.1
 30
-1.0
 70
   192
  0
VERTEX
  5
EA3
  8
0
 10
-85.0
 20
114.1
 30
-24.0
 70
   192
  0
VERTEX
  5
EA4
  8
0
 10
0.0
 20
0.0
 30
0.0
 70
   128
 71
     1
 72
     4
 73
    -3
  0
VERTEX
  5
EA5
  8
0
 10
0.0
 20
0.0
 30
0.0
 70
   128
 71
    -1
 72
     3
 73
     2
  0
SEQEND
  5
FB4
  8
0
  0
POLYLINE
  5
EA6
  8
0
 66
     1
 10
0.0
 20
0.0
 30
0.0
 70
    64
 71
     8
 72
     6
  0
VERTEX
  5
EA7
  8
0
 10
-132.5
 20
75.09999999999997
 30
-24.0
 70
   192
  0
VERTEX
  5
EA8
  8
0
 10
-132.5000000000001
 20
110.1
 30
-24.0
 70
   192
  0
VERTEX
  5
EA9
  8
0
 10
-137.5
 20
110.1
 30
-24.0
 70
   192
  0
VERTEX
  5
EAA
  8
0
 10
-137.4999999999999
 20
75.09999999999997
 30
-24.0
 70
   192
  0
VERTEX
  5
EAB
  8
0
 10
-185.0
 20
75.09999999999997
 30
-24.0
 70
   192
  0
VERTEX
  5
EAC
  8
0
 10
-185.0
 20
114.1
 30
-24.0
 70
   192
  0
VERTEX
  5
EAD
  8
0
 10
-85.0
 20
114.1
 30
-24.0
 70
   192
  0
VERTEX
  5
EAE
  8
0
 10
-85.0
 20
75.09999999999997
 30
-24.0
 70
   192
  0
VERTEX
  5
EAF
  8
0
 10
0.0
 20
0.0
 30
0.0
 70
   128
 71
     2
 72
     1
 73
    -8
  0
VERTEX
  5
EB0
  8
0
 10
0.0
 20
0.0
 30
0.0
 70
   128
 71
    -2
 72
     8
 73
    -7
  0
VERTEX
  5
EB1
  8
0
 10
0.0
 20
0.0
 30
0.0
 70
   128
 71
    -7
 72
     3
 73
    -2
  0
VERTEX
  5
EB2
  8
0
 10
0.0
 20
0.0
 30
0.0
 70
   128
 71
     7
 72
    -6
 73
    -3
  0
VERTEX
  5
EB3
  8
0
 10
0.0
 20
0.0
 30
0.0
 70
   128
 71
     6
 72
     5
 73
    -4
  0
VERTEX
  5
EB4
  8
0
 10
0.0
 20
0.0
 30
0.0
 70
   128
 71
    -6
 72
     4
 73
    -3
  0
SEQEND
  5
FB5
  8
0
  0
POLYLINE
  5
EB5
  8
0
 66
     1
 10
0.0
 20
0.0
 30
0.0
 70
    64
 71
     4
 72
     2
  0
VERTEX
  5
EB6
  8
0
 10
-137.4999999999999
 20
75.09999999999997
 30
-25.0
 70
   192
  0
VERTEX
  5
EB7
  8
0
 10
-137.4999999999999
 20
75.09999999999997
 30
-24.00000000000001
 70
   192
  0
VERTEX
  5
EB8
  8
0
 10
-185.0
 20
75.09999999999997
 30
-24.0
 70
   192
  0
VERTEX
  5
EB9
  8
0
 10
-185.0
 20
75.09999999999997
 30
-25.0
 70
   192
  0
VERTEX
  5
EBA
  8
0
 10
0.0
 20
0.0
 30
0.0
 70
   128
 71
     3
 72
     4
 73
    -1
  0
VERTEX
  5
EBB
  8
0
 10
0.0
 20
0.0
 30
0.0
 70
   128
 71
     2
 72
    -3
 73
     1
  0
SEQEND
  5
FB6
  8
0
  0
POLYLINE
  5
EBC
  8
0
 66
     1
 10
0.0
 20
0.0
 30
0.0
 70
    64
 71
     4
 72
     2
  0
VERTEX
  5
EBD
  8
0
 10
-132.5
 20
75.09999999999997
 30
-24.00000000000001
 70
   192
  0
VERTEX
  5
EBE
  8
0
 10
-132.5
 20
75.09999999999997
 30
-25.0
 70
   192
  0
VERTEX
  5
EBF
  8
0
 10
-132.5000000000001
 20
110.1
 30
-25.0
 70
   192
  0
VERTEX
  5
EC0
  8
0
 10
-132.5000000000001
 20
110.1
 30
-24.0
 70
   192
  0
VERTEX
  5
EC1
  8
0
 10
0.0
 20
0.0
 30
0.0
 70
   128
 71
     1
 72
     4
 73
    -3
  0
VERTEX
  5
EC2
  8
0
 10
0.0
 20
0.0
 30
0.0
 70
   128
 71
    -1
 72
     3
 73
     2
  0
SEQEND
  5
FB7
  8
0
  0
POLYLINE
  5
EC3
  8
0
 66
     1
 10
0.0
 20
0.0
 30
0.0
 70
    64
 71
     4
 72
     2
  0
VERTEX
  5
EC4
  8
0
 10
-137.5
 20
110.1
 30
-24.00000000000001
 70
   192
  0
VERTEX
  5
EC5
  8
0
 10
-137.5
 20
110.1
 30
-25.0
 70
   192
  0
VERTEX
  5
EC6
  8
0
 10
-137.4999999999999
 20
75.09999999999997
 30
-25.0
 70
   192
  0
VERTEX
  5
EC7
  8
0
 10
-137.4999999999999
 20
75.09999999999997
 30
-24.0
 70
   192
  0
VERTEX
  5
EC8
  8
0
 10
0.0
 20
0.0
 30
0.0
 70
   128
 71
     1
 72
     4
 73
    -3
  0
VERTEX
  5
EC9
  8
0
 10
0.0
 20
0.0
 30
0.0
 70
   128
 71
    -1
 72
     3
 73
     2
  0
SEQEND
  5
FB8
  8
0
  0
POLYLINE
  5
ECA
  8
0
 66
     1
 10
0.0
 20
0.0
 30
0.0
 70
    64
 71
     4
 72
     2
  0
VERTEX
  5
ECB
  8
0
 10
-132.5000000000001
 20
110.1
 30
-24.00000000000001
 70
   192
  0
VERTEX
  5
ECC
  8
0
 10
-132.5000000000001
 20
110.1
 30
-25.0
 70
   192
  0
VERTEX
  5
ECD
  8
0
 10
-137.5
 20
110.1
 30
-25.0
 70
   192
  0
VERTEX
  5
ECE
  8
0
 10
-137.5
 20
110.1
 30
-24.0
 70
   192
  0
VERTEX
  5
ECF
  8
0
 10
0.0
 20
0.0
 30
0.0
 70
   128
 71
     1
 72
     4
 73
    -3
  0
VERTEX
  5
ED0
  8
0
 10
0.0
 20
0.0
 30
0.0
 70
   128
 71
    -1
 72
     3
 73
     2
  0
SEQEND
  5
FB9
  8
0
  0
POLYLINE
  5
ED1
  8
0
 66
     1
 10
0.0
 20
0.0
 30
0.0
 70
    64
 71
     8
 72
     6
  0
VERTEX
  5
ED2
  8
0
 10
3.758770483143535
 20
196.9976488903224
 30
-22.0
 70
   192
  0
VERTEX
  5
ED3
  8
0
 10
3.064177772475856
 20
198.2007187557659
 30
-22.0
 70
   192
  0
VERTEX
  5
ED4
  8
0
 10
3.064177772475856
 20
198.2007187557659
 30
-25.0
 70
   192
  0
VERTEX
  5
ED5
  8
0
 10
3.758770483143535
 20
196.9976488903224
 30
-25.0
 70
   192
  0
VERTEX
  5
ED6
  8
0
 10
2.000000000000001
 20
199.0936699321575
 30
-22.0
 70
   192
  0
VERTEX
  5
ED7
  8
0
 10
1.999999999999998
 20
199.0936699321575
 30
-25.0
 70
   192
  0
VERTEX
  5
ED8
  8
0
 10
3.999999999999886
 20
195.6295683170198
 30
-22.0
 70
   192
  0
VERTEX
  5
ED9
  8
0
 10
3.999999999999886
 20
195.6295683170198
 30
-25.0
 70
   192
  0
VERTEX
  5
EDA
  8
0
 10
0.0
 20
0.0
 30
0.0
 70
   128
 71
     1
 72
     2
 73
    -3
  0
VERTEX
  5
EDB
  8
0
 10
0.0
 20
0.0
 30
0.0
 70
   128
 71
     4
 72
    -1
 73
     3
  0
VERTEX
  5
EDC
  8
0
 10
0.0
 20
0.0
 30
0.0
 70
   128
 71
     2
 72
     5
 73
    -6
  0
VERTEX
  5
EDD
  8
0
 10
0.0
 20
0.0
 30
0.0
 70
   128
 71
     3
 72
    -2
 73
     6
  0
VERTEX
  5
EDE
  8
0
 10
0.0
 20
0.0
 30
0.0
 70
   128
 71
     7
 72
     1
 73
    -4
  0
VERTEX
  5
EDF
  8
0
 10
0.0
 20
0.0
 30
0.0
 70
   128
 71
     8
 72
    -7
 73
     4
  0
SEQEND
  5
FBA
  8
0
  0
POLYLINE
  5
EE0
  8
0
 66
     1
 10
0.0
 20
0.0
 30
0.0
 70
    64
 71
     4
 72
     2
  0
VERTEX
  5
EE1
  8
0
 10
-2.000000000000003
 20
199.0936699321576
 30
-25.0
 70
   192
  0
VERTEX
  5
EE2
  8
0
 10
-2.0
 20
215.5000000000007
 30
-25.0
 70
   192
  0
VERTEX
  5
EE3
  8
0
 10
-2.0
 20
215.5000000000007
 30
-22.0
 70
   192
  0
VERTEX
  5
EE4
  8
0
 10
-2.000000000000003
 20
199.0936699321576
 30
-22.0
 70
   192
  0
VERTEX
  5
EE5
  8
0
 10
0.0
 20
0.0
 30
0.0
 70
   128
 71
     3
 72
     4
 73
    -1
  0
VERTEX
  5
EE6
  8
0
 10
0.0
 20
0.0
 30
0.0
 70
   128
 71
     2
 72
    -3
 73
     1
  0
SEQEND
  5
FBB
  8
0
  0
POLYLINE
  5
EE7
  8
0
 66
     1
 10
0.0
 20
0.0
 30
0.0
 70
    64
 71
    10
 72
     8
  0
VERTEX
  5
EE8
  8
0
 10
-2.0
 20
215.5000000000007
 30
-22.0
 70
   192
  0
VERTEX
  5
EE9
  8
0
 10
2.0
 20
215.5000000000007
 30
-22.0
 70
   192
  0
VERTEX
  5
EEA
  8
0
 10
2.0
 20
215.5000000000007
 30
-25.0
 70
   192
  0
VERTEX
  5
EEB
  8
0
 10
-2.0
 20
215.5000000000007
 30
-25.0
 70
   192
  0
VERTEX
  5
EEC
  8
0
 10
-0.0000000000000005
 20
217.5000000000007
 30
-25.0
 70
   192
  0
VERTEX
  5
EED
  8
0
 10
-0.0000000000000005
 20
217.5000000000007
 30
-22.0
 70
   192
  0
VERTEX
  5
EEE
  8
0
 10
-1.414213562373096
 20
216.9142135623738
 30
-25.0
 70
   192
  0
VERTEX
  5
EEF
  8
0
 10
-1.414213562373096
 20
216.9142135623738
 30
-22.0
 70
   192
  0
VERTEX
  5
EF0
  8
0
 10
1.414213562373095
 20
216.9142135623738
 30
-25.0
 70
   192
  0
VERTEX
  5
EF1
  8
0
 10
1.414213562373095
 20
216.9142135623738
 30
-22.0
 70
   192
  0
VERTEX
  5
EF2
  8
0
 10
0.0
 20
0.0
 30
0.0
 70
   128
 71
     4
 72
     7
 73
    -8
  0
VERTEX
  5
EF3
  8
0
 10
0.0
 20
0.0
 30
0.0
 70
   128
 71
     1
 72
    -4
 73
     8
  0
VERTEX
  5
EF4
  8
0
 10
0.0
 20
0.0
 30
0.0
 70
   128
 71
     7
 72
     5
 73
    -6
  0
VERTEX
  5
EF5
  8
0
 10
0.0
 20
0.0
 30
0.0
 70
   128
 71
     8
 72
    -7
 73
     6
  0
VERTEX
  5
EF6
  8
0
 10
0.0
 20
0.0
 30
0.0
 70
   128
 71
     5
 72
     9
 73
   -10
  0
VERTEX
  5
EF7
  8
0
 10
0.0
 20
0.0
 30
0.0
 70
   128
 71
     6
 72
    -5
 73
    10
  0
VERTEX
  5
EF8
  8
0
 10
0.0
 20
0.0
 30
0.0
 70
   128
 71
     9
 72
     3
 73
    -2
  0
VERTEX
  5
EF9
  8
0
 10
0.0
 20
0.0
 30
0.0
 70
   128
 71
    10
 72
    -9
 73
     2
  0
SEQEND
  5
FBC
  8
0
  0
POLYLINE
  5
EFA
  8
0
 66
     1
 10
0.0
 20
0.0
 30
0.0
 70
    64
 71
     4
 72
     2
  0
VERTEX
  5
EFB
  8
0
 10
-4.999999999999996
 20
224.9642838919422
 30
-22.0
 70
   192
  0
VERTEX
  5
EFC
  8
0
 10
-5.000000000000005
 20
189.9647869859769
 30
-22.0
 70
   192
  0
VERTEX
  5
EFD
  8
0
 10
-5.000000000000006
 20
189.9647869859769
 30
-25.0
 70
   192
  0
VERTEX
  5
EFE
  8
0
 10
-4.999999999999996
 20
224.9642838919423
 30
-25.0
 70
   192
  0
VERTEX
  5
EFF
  8
0
 10
0.0
 20
0.0
 30
0.0
 70
   128
 71
     1
 72
     4
 73
    -3
  0
VERTEX
  5
F00
  8
0
 10
0.0
 20
0.0
 30
0.0
 70
   128
 71
    -1
 72
     3
 73
     2
  0
SEQEND
  5
FBD
  8
0
  0
POLYLINE
  5
F01
  8
0
 66
     1
 10
0.0
 20
0.0
 30
0.0
 70
    64
 71
     4
 72
     2
  0
VERTEX
  5
F02
  8
0
 10
-5.000000000000005
 20
189.9647869859769
 30
-25.0
 70
   192
  0
VERTEX
  5
F03
  8
0
 10
4.999999999999995
 20
189.9647869859769
 30
-25.0
 70
   192
  0
VERTEX
  5
F04
  8
0
 10
4.999999999999995
 20
189.9647869859769
 30
-22.0
 70
   192
  0
VERTEX
  5
F05
  8
0
 10
-5.000000000000005
 20
189.9647869859769
 30
-22.0
 70
   192
  0
VERTEX
  5
F06
  8
0
 10
0.0
 20
0.0
 30
0.0
 70
   128
 71
     3
 72
     4
 73
    -1
  0
VERTEX
  5
F07
  8
0
 10
0.0
 20
0.0
 30
0.0
 70
   128
 71
     2
 72
    -3
 73
     1
  0
SEQEND
  5
FBE
  8
0
  0
POLYLINE
  5
F08
  8
0
 66
     1
 10
0.0
 20
0.0
 30
0.0
 70
    64
 71
     4
 72
     2
  0
VERTEX
  5
F09
  8
0
 10
4.999999999999995
 20
189.9647869859769
 30
-25.0
 70
   192
  0
VERTEX
  5
F0A
  8
0
 10
4.999999999999995
 20
224.9642838919422
 30
-25.0
 70
   192
  0
VERTEX
  5
F0B
  8
0
 10
4.999999999999994
 20
224.9642838919423
 30
-22.0
 70
   192
  0
VERTEX
  5
F0C
  8
0
 10
4.999999999999995
 20
189.9647869859769
 30
-22.0
 70
   192
  0
VERTEX
  5
F0D
  8
0
 10
0.0
 20
0.0
 30
0.0
 70
   128
 71
     3
 72
     4
 73
    -1
  0
VERTEX
  5
F0E
  8
0
 10
0.0
 20
0.0
 30
0.0
 70
   128
 71
     2
 72
    -3
 73
     1
  0
SEQEND
  5
FBF
  8
0
  0
POLYLINE
  5
F0F
  8
0
 66
     1
 10
0.0
 20
0.0
 30
0.0
 70
    64
 71
     4
 72
     2
  0
VERTEX
  5
F10
  8
0
 10
2.0
 20
215.5000000000007
 30
-25.0
 70
   192
  0
VERTEX
  5
F11
  8
0
 10
2.0
 20
215.5000000000007
 30
-22.0
 70
   192
  0
VERTEX
  5
F12
  8
0
 10
1.999999999999998
 20
199.0936699321575
 30
-22.0
 70
   192
  0
VERTEX
  5
F13
  8
0
 10
1.999999999999998
 20
199.0936699321575
 30
-25.0
 70
   192
  0
VERTEX
  5
F14
  8
0
 10
0.0
 20
0.0
 30
0.0
 70
   128
 71
     1
 72
     4
 73
    -3
  0
VERTEX
  5
F15
  8
0
 10
0.0
 20
0.0
 30
0.0
 70
   128
 71
    -1
 72
     3
 73
     2
  0
SEQEND
  5
FC0
  8
0
  0
POLYLINE
  5
F16
  8
0
 66
     1
 10
0.0
 20
0.0
 30
0.0
 70
    64
 71
    22
 72
    22
  0
VERTEX
  5
F17
  8
0
 10
4.999999999999995
 20
224.9642838919422
 30
-22.0
 70
   192
  0
VERTEX
  5
F18
  8
0
 10
4.999999999999995
 20
189.9647869859769
 30
-22.0
 70
   192
  0
VERTEX
  5
F19
  8
0
 10
-5.000000000000006
 20
189.9647869859769
 30
-22.0
 70
   192
  0
VERTEX
  5
F1A
  8
0
 10
-4.999999999999988
 20
224.9642838919423
 30
-22.0
 70
   192
  0
VERTEX
  5
F1B
  8
0
 10
-1.666717061764349
 20
224.9960314835527
 30
-22.0
 70
   192
  0
VERTEX
  5
F1C
  8
0
 10
1.6667170617644
 20
224.9960314835527
 30
-22.0
 70
   192
  0
VERTEX
  5
F1D
  8
0
 10
1.999999999999998
 20
199.0936699321575
 30
-22.0
 70
   192
  0
VERTEX
  5
F1E
  8
0
 10
2.0
 20
215.5000000000007
 30
-22.0
 70
   192
  0
VERTEX
  5
F1F
  8
0
 10
1.414213562373095
 20
216.9142135623738
 30
-22.0
 70
   192
  0
VERTEX
  5
F20
  8
0
 10
-0.0000000000000005
 20
217.5000000000007
 30
-22.0
 70
   192
  0
VERTEX
  5
F21
  8
0
 10
-1.414213562373096
 20
216.9142135623738
 30
-22.0
 70
   192
  0
VERTEX
  5
F22
  8
0
 10
-2.0
 20
215.5000000000007
 30
-22.0
 70
   192
  0
VERTEX
  5
F23
  8
0
 10
-2.000000000000003
 20
199.0936699321576
 30
-22.0
 70
   192
  0
VERTEX
  5
F24
  8
0
 10
-3.064177772475972
 20
198.200718755766
 30
-22.0
 70
   192
  0
VERTEX
  5
F25
  8
0
 10
-3.758770483143734
 20
196.9976488903225
 30
-22.0
 70
   192
  0
VERTEX
  5
F26
  8
0
 10
-4.000000000000115
 20
195.6295683170198
 30
-22.0
 70
   192
  0
VERTEX
  5
F27
  8
0
 10
-2.828427124746304
 20
192.8011411922736
 30
-22.0
 70
   192
  0
VERTEX
  5
F28
  8
0
 10
-0.0000000000001139
 20
191.6295683170198
 30
-22.0
 70
   192
  0
VERTEX
  5
F29
  8
0
 10
2.828427124746077
 20
192.8011411922736
 30
-22.0
 70
   192
  0
VERTEX
  5
F2A
  8
0
 10
3.999999999999887
 20
195.6295683170198
 30
-22.0
 70
   192
  0
VERTEX
  5
F2B
  8
0
 10
3.758770483143535
 20
196.9976488903224
 30
-22.0
 70
   192
  0
VERTEX
  5
F2C
  8
0
 10
3.064177772475856
 20
198.2007187557659
 30
-22.0
 70
   192
  0
VERTEX
  5
F2D
  8
0
 10
0.0
 20
0.0
 30
0.0
 70
   128
 71
    12
 72
   -11
 73
    -5
  0
VERTEX
  5
F2E
  8
0
 10
0.0
 20
0.0
 30
0.0
 70
   128
 71
   -12
 72
     5
 73
    -4
  0
VERTEX
  5
F2F
  8
0
 10
0.0
 20
0.0
 30
0.0
 70
   128
 71
    -4
 72
    14
 73
   -13
  0
VERTEX
  5
F30
  8
0
 10
0.0
 20
0.0
 30
0.0
 70
   128
 71
    -4
 72
    13
 73
   -12
  0
VERTEX
  5
F31
  8
0
 10
0.0
 20
0.0
 30
0.0
 70
   128
 71
    -4
 72
    15
 73
   -14
  0
VERTEX
  5
F32
  8
0
 10
0.0
 20
0.0
 30
0.0
 70
   128
 71
    -4
 72
    16
 73
   -15
  0
VERTEX
  5
F33
  8
0
 10
0.0
 20
0.0
 30
0.0
 70
   128
 71
     4
 72
    -3
 73
   -16
  0
VERTEX
  5
F34
  8
0
 10
0.0
 20
0.0
 30
0.0
 70
   128
 71
    -3
 72
    17
 73
   -16
  0
VERTEX
  5
F35
  8
0
 10
0.0
 20
0.0
 30
0.0
 70
   128
 71
    -3
 72
    18
 73
   -17
  0
VERTEX
  5
F36
  8
0
 10
0.0
 20
0.0
 30
0.0
 70
   128
 71
   -18
 72
     3
 73
    -2
  0
VERTEX
  5
F37
  8
0
 10
0.0
 20
0.0
 30
0.0
 70
   128
 71
    -2
 72
    19
 73
   -18
  0
VERTEX
  5
F38
  8
0
 10
0.0
 20
0.0
 30
0.0
 70
   128
 71
    -2
 72
    20
 73
   -19
  0
VERTEX
  5
F39
  8
0
 10
0.0
 20
0.0
 30
0.0
 70
   128
 71
    -2
 72
    21
 73
   -20
  0
VERTEX
  5
F3A
  8
0
 10
0.0
 20
0.0
 30
0.0
 70
   128
 71
   -21
 72
     2
 73
    -1
  0
VERTEX
  5
F3B
  8
0
 10
0.0
 20
0.0
 30
0.0
 70
   128
 71
    -1
 72
    22
 73
   -21
  0
VERTEX
  5
F3C
  8
0
 10
0.0
 20
0.0
 30
0.0
 70
   128
 71
    10
 72
    -9
 73
    -6
  0
VERTEX
  5
F3D
  8
0
 10
0.0
 20
0.0
 30
0.0
 70
   128
 71
   -10
 72
     6
 73
    -5
  0
VERTEX
  5
F3E
  8
0
 10
0.0
 20
0.0
 30
0.0
 70
   128
 71
    -5
 72
    11
 73
   -10
  0
VERTEX
  5
F3F
  8
0
 10
0.0
 20
0.0
 30
0.0
 70
   128
 71
     8
 72
     7
 73
   -22
  0
VERTEX
  5
F40
  8
0
 10
0.0
 20
0.0
 30
0.0
 70
   128
 71
    -8
 72
   -22
 73
    -1
  0
VERTEX
  5
F41
  8
0
 10
0.0
 20
0.0
 30
0.0
 70
   128
 71
     1
 72
    -6
 73
    -8
  0
VERTEX
  5
F42
  8
0
 10
0.0
 20
0.0
 30
0.0
 70
   128
 71
    -6
 72
     9
 73
    -8
  0
SEQEND
  5
FC1
  8
0
  0
POLYLINE
  5
F43
  8
0
 66
     1
 10
0.0
 20
0.0
 30
0.0
 70
    64
 71
    10
 72
     8
  0
VERTEX
  5
F44
  8
0
 10
23.50000000000012
 20
-357.5
 30
-20.00000000000001
 70
   192
  0
VERTEX
  5
F45
  8
0
 10
23.50000000000012
 20
-357.5
 30
-4.999999999999987
 70
   192
  0
VERTEX
  5
F46
  8
0
 10
23.50000000000012
 20
-345.0
 30
-4.999999999999987
 70
   192
  0
VERTEX
  5
F47
  8
0
 10
23.50000000000012
 20
-345.0
 30
-20.00000000000001
 70
   192
  0
VERTEX
  5
F48
  8
0
 10
16.0000000000001
 20
-345.0
 30
-12.5
 70
   192
  0
VERTEX
  5
F49
  8
0
 10
16.0000000000001
 20
-357.5
 30
-12.5
 70
   192
  0
VERTEX
  5
F4A
  8
0
 10
18.196699141101
 20
-345.0
 30
-17.80330085889912
 70
   192
  0
VERTEX
  5
F4B
  8
0
 10
18.196699141101
 20
-357.5
 30
-17.80330085889911
 70
   192
  0
VERTEX
  5
F4C
  8
0
 10
18.196699141101
 20
-345.0
 30
-7.196699141100884
 70
   192
  0
VERTEX
  5
F4D
  8
0
 10
18.196699141101
 20
-357.5
 30
-7.196699141100883
 70
   192
  0
VERTEX
  5
F4E
  8
0
 10
0.0
 20
0.0
 30
0.0
 70
   128
 71
     8
 72
     7
 73
    -4
  0
VERTEX
  5
F4F
  8
0
 10
0.0
 20
0.0
 30
0.0
 70
   128
 71
    -8
 72
     4
 73
     1
  0
VERTEX
  5
F50
  8
0
 10
0.0
 20
0.0
 30
0.0
 70
   128
 71
     6
 72
     5
 73
    -7
  0
VERTEX
  5
F51
  8
0
 10
0.0
 20
0.0
 30
0.0
 70
   128
 71
    -6
 72
     7
 73
     8
  0
VERTEX
  5
F52
  8
0
 10
0.0
 20
0.0
 30
0.0
 70
   128
 71
    10
 72
     9
 73
    -5
  0
VERTEX
  5
F53
  8
0
 10
0.0
 20
0.0
 30
0.0
 70
   128
 71
   -10
 72
     5
 73
     6
  0
VERTEX
  5
F54
  8
0
 10
0.0
 20
0.0
 30
0.0
 70
   128
 71
     2
 72
     3
 73
    -9
  0
VERTEX
  5
F55
  8
0
 10
0.0
 20
0.0
 30
0.0
 70
   128
 71
    -2
 72
     9
 73
    10
  0
SEQEND
  5
FC2
  8
0
  0
POLYLINE
  5
F56
  8
0
 66
     1
 10
0.0
 20
0.0
 30
0.0
 70
    64
 71
     8
 72
     6
  0
VERTEX
  5
F57
  8
0
 10
23.50000000000012
 20
-357.5
 30
-4.999999999999987
 70
   192
  0
VERTEX
  5
F58
  8
0
 10
18.196699141101
 20
-357.5
 30
-7.196699141100883
 70
   192
  0
VERTEX
  5
F59
  8
0
 10
16.0000000000001
 20
-357.5
 30
-12.5
 70
   192
  0
VERTEX
  5
F5A
  8
0
 10
18.196699141101
 20
-357.5
 30
-17.80330085889911
 70
   192
  0
VERTEX
  5
F5B
  8
0
 10
23.50000000000012
 20
-357.5
 30
-20.00000000000001
 70
   192
  0
VERTEX
  5
F5C
  8
0
 10
28.80330085889923
 20
-357.5
 30
-17.80330085889912
 70
   192
  0
VERTEX
  5
F5D
  8
0
 10
31.00000000000013
 20
-357.5
 30
-12.5
 70
   192
  0
VERTEX
  5
F5E
  8
0
 10
28.80330085889923
 20
-357.5
 30
-7.196699141100883
 70
   192
  0
VERTEX
  5
F5F
  8
0
 10
0.0
 20
0.0
 30
0.0
 70
   128
 71
     7
 72
     8
 73
    -1
  0
VERTEX
  5
F60
  8
0
 10
0.0
 20
0.0
 30
0.0
 70
   128
 71
     6
 72
    -7
 73
    -1
  0
VERTEX
  5
F61
  8
0
 10
0.0
 20
0.0
 30
0.0
 70
   128
 71
     5
 72
    -6
 73
    -1
  0
VERTEX
  5
F62
  8
0
 10
0.0
 20
0.0
 30
0.0
 70
   128
 71
     4
 72
    -5
 73
    -1
  0
VERTEX
  5
F63
  8
0
 10
0.0
 20
0.0
 30
0.0
 70
   128
 71
     3
 72
    -4
 73
    -1
  0
VERTEX
  5
F64
  8
0
 10
0.0
 20
0.0
 30
0.0
 70
   128
 71
     2
 72
    -3
 73
     1
  0
SEQEND
  5
FC3
  8
0
  0
ENDBLK
  5
F76
  8
0
  0
ENDSEC
  0
SECTION
  2
ENTITIES
  0
INSERT
  5
BD
  8
0
  2
*X1
 10
0.0
 20
0.0
 30
0.0
  0
INSERT
  5
BE
  8
0
  2
*X2
 10
0.0
 20
0.0
 30
0.0
  0
ENDSEC
  0
EOF
