  0
SECTION
  2
HEADER
  9
$ACADVER
  1
AC1009
  9
$DWGCODEPAGE
  3
ansi_1250
  9
$INSBASE
 10
0.0
 20
0.0
 30
0.0
  9
$EXTMIN
 10
-275.0
 20
0.0
 30
-100.0
  9
$EXTMAX
 10
275.0
 20
799.9999999999998
 30
100.0
  9
$LIMMIN
 10
0.0
 20
0.0
  9
$LIMMAX
 10
420.0
 20
297.0
  9
$ORTHOMODE
 70
     0
  9
$REGENMODE
 70
     1
  9
$FILLMODE
 70
     1
  9
$QTEXTMODE
 70
     0
  9
$MIRRTEXT
 70
     0
  9
$DRAGMODE
 70
     2
  9
$LTSCALE
 40
1.0
  9
$OSMODE
 70
   511
  9
$ATTMODE
 70
     1
  9
$TEXTSIZE
 40
2.5
  9
$TRACEWID
 40
1.0
  9
$TEXTSTYLE
  7
STANDARD
  9
$CLAYER
  8
0
  9
$CELTYPE
  6
BYLAYER
  9
$CECOLOR
 62
   256
  9
$DIMSCALE
 40
1.0
  9
$DIMASZ
 40
2.5
  9
$DIMEXO
 40
0.625
  9
$DIMDLI
 40
3.75
  9
$DIMRND
 40
0.0
  9
$DIMDLE
 40
0.0
  9
$DIMEXE
 40
1.25
  9
$DIMTP
 40
0.0
  9
$DIMTM
 40
0.0
  9
$DIMTXT
 40
2.5
  9
$DIMCEN
 40
-2.5
  9
$DIMTSZ
 40
0.0
  9
$DIMTOL
 70
     0
  9
$DIMLIM
 70
     0
  9
$DIMTIH
 70
     0
  9
$DIMTOH
 70
     0
  9
$DIMSE1
 70
     0
  9
$DIMSE2
 70
     0
  9
$DIMTAD
 70
     1
  9
$DIMZIN
 70
     8
  9
$DIMBLK
  1

  9
$DIMASO
 70
     1
  9
$DIMSHO
 70
     1
  9
$DIMPOST
  1

  9
$DIMAPOST
  1

  9
$DIMALT
 70
     0
  9
$DIMALTD
 70
     3
  9
$DIMALTF
 40
0.03937007874016
  9
$DIMLFAC
 40
1.0
  9
$DIMTOFL
 70
     1
  9
$DIMTVP
 40
0.0
  9
$DIMTIX
 70
     0
  9
$DIMSOXD
 70
     0
  9
$DIMSAH
 70
     0
  9
$DIMBLK1
  1

  9
$DIMBLK2
  1

  9
$DIMSTYLE
  2
ISO-25
  9
$DIMCLRD
 70
     0
  9
$DIMCLRE
 70
     0
  9
$DIMCLRT
 70
     0
  9
$DIMTFAC
 40
1.0
  9
$DIMGAP
 40
0.625
  9
$LUNITS
 70
     2
  9
$LUPREC
 70
     3
  9
$SKETCHINC
 40
1.0
  9
$FILLETRAD
 40
10.0
  9
$AUNITS
 70
     0
  9
$AUPREC
 70
     0
  9
$MENU
  1
.
  9
$ELEVATION
 40
0.0
  9
$PELEVATION
 40
0.0
  9
$THICKNESS
 40
0.0
  9
$LIMCHECK
 70
     0
  9
$CHAMFERA
 40
10.0
  9
$CHAMFERB
 40
10.0
  9
$SKPOLY
 70
     0
  9
$TDCREATE
 40
2455022.679026181
  9
$TDUPDATE
 40
2460356.503583542
  9
$TDINDWG
 40
0.0003223148
  9
$TDUSRTIMER
 40
0.0003223148
  9
$USRTIMER
 70
     1
  9
$ANGBASE
 50
0.0
  9
$ANGDIR
 70
     0
  9
$PDMODE
 70
     0
  9
$PDSIZE
 40
0.0
  9
$PLINEWID
 40
0.0
  9
$COORDS
 70
     1
  9
$SPLFRAME
 70
     0
  9
$SPLINETYPE
 70
     6
  9
$SPLINESEGS
 70
     8
  9
$ATTDIA
 70
     0
  9
$ATTREQ
 70
     1
  9
$HANDLING
 70
     1
  9
$HANDSEED
  5
313
  9
$SURFTAB1
 70
     6
  9
$SURFTAB2
 70
     6
  9
$SURFTYPE
 70
     6
  9
$SURFU
 70
     6
  9
$SURFV
 70
     6
  9
$UCSNAME
  2

  9
$UCSORG
 10
0.0
 20
0.0
 30
0.0
  9
$UCSXDIR
 10
1.0
 20
0.0
 30
0.0
  9
$UCSYDIR
 10
0.0
 20
1.0
 30
0.0
  9
$PUCSNAME
  2

  9
$PUCSORG
 10
0.0
 20
0.0
 30
0.0
  9
$PUCSXDIR
 10
1.0
 20
0.0
 30
0.0
  9
$PUCSYDIR
 10
0.0
 20
1.0
 30
0.0
  9
$USERI1
 70
     0
  9
$USERI2
 70
     0
  9
$USERI3
 70
     0
  9
$USERI4
 70
     0
  9
$USERI5
 70
     0
  9
$USERR1
 40
0.0
  9
$USERR2
 40
0.0
  9
$USERR3
 40
0.0
  9
$USERR4
 40
0.0
  9
$USERR5
 40
0.0
  9
$WORLDVIEW
 70
     1
  9
$SHADEDGE
 70
     3
  9
$SHADEDIF
 70
    70
  9
$TILEMODE
 70
     1
  9
$MAXACTVP
 70
    64
  9
$PLIMCHECK
 70
     0
  9
$PEXTMIN
 10
1.000000000000000E+20
 20
1.000000000000000E+20
 30
1.000000000000000E+20
  9
$PEXTMAX
 10
-1.000000000000000E+20
 20
-1.000000000000000E+20
 30
-1.000000000000000E+20
  9
$PLIMMIN
 10
0.0
 20
0.0
  9
$PLIMMAX
 10
0.0
 20
0.0
  9
$UNITMODE
 70
     0
  9
$VISRETAIN
 70
     1
  9
$PLINEGEN
 70
     0
  9
$PSLTSCALE
 70
     1
  0
ENDSEC
  0
SECTION
  2
TABLES
  0
TABLE
  2
VPORT
 70
     1
  0
VPORT
  2
*ACTIVE
 70
     0
 10
0.0
 20
0.0
 11
1.0
 21
1.0
 12
0.0
 22
0.0
 13
0.0
 23
0.0
 14
10.0
 24
10.0
 15
10.0
 25
10.0
 16
0.0
 26
0.0
 36
1.0
 17
0.0
 27
399.9999999999999
 37
0.0
 40
815.9999999999998
 41
1.89041095890411
 42
50.0
 43
0.0
 44
0.0
 50
0.0
 51
0.0
 71
    16
 72
  1000
 73
     1
 74
     3
 75
     0
 76
     0
 77
     0
 78
     0
  0
ENDTAB
  0
TABLE
  2
LTYPE
 70
     1
  0
LTYPE
  2
CONTINUOUS
 70
     0
  3
Solid line
 72
    65
 73
     0
 40
0.0
  0
ENDTAB
  0
TABLE
  2
LAYER
 70
     1
  0
LAYER
  2
0
 70
     0
 62
     7
  6
CONTINUOUS
  0
ENDTAB
  0
TABLE
  2
STYLE
 70
     2
  0
STYLE
  2
STANDARD
 70
     0
 40
0.0
 41
1.0
 50
0.0
 71
     0
 42
2.5
  3
arial.ttf
  4

  0
STYLE
  2
ANNOTATIVE
 70
     0
 40
0.0
 41
1.0
 50
0.0
 71
     0
 42
2.5
  3
arial.ttf
  4

  0
ENDTAB
  0
TABLE
  2
VIEW
 70
     0
  0
ENDTAB
  0
TABLE
  2
UCS
 70
     0
  0
ENDTAB
  0
TABLE
  2
APPID
 70
     2
  0
APPID
  2
ACAD
 70
     0
  0
APPID
  2
ACADANNOTATIVE
 70
     0
  0
ENDTAB
  0
TABLE
  2
DIMSTYLE
 70
     2
  0
DIMSTYLE
  2
ISO-25
 70
     0
  3

  4

  5

  6

  7

 40
1.0
 41
2.5
 42
0.625
 43
3.75
 44
1.25
 45
0.0
 46
0.0
 47
0.0
 48
0.0
140
2.5
141
-2.5
142
0.0
143
0.03937007874016
144
1.0
145
0.0
146
1.0
147
0.625
 71
     0
 72
     0
 73
     0
 74
     0
 75
     0
 76
     0
 77
     1
 78
     8
170
     0
171
     3
172
     1
173
     0
174
     0
175
     0
176
     0
177
     0
178
     0
  0
DIMSTYLE
  2
ANNOTATIVE
 70
     0
  3

  4

  5

  6

  7

 40
0.0
 41
2.5
 42
0.625
 43
3.75
 44
1.25
 45
0.0
 46
0.0
 47
0.0
 48
0.0
140
2.5
141
-2.5
142
0.0
143
0.03937007874016
144
1.0
145
0.0
146
1.0
147
0.625
 71
     0
 72
     0
 73
     0
 74
     0
 75
     0
 76
     0
 77
     1
 78
     8
170
     0
171
     3
172
     1
173
     0
174
     0
175
     0
176
     0
177
     0
178
     0
  0
ENDTAB
  0
ENDSEC
  0
SECTION
  2
BLOCKS
  0
BLOCK
  8
0
  2
$MODEL_SPACE
 70
     0
 10
0.0
 20
0.0
 30
0.0
  3
$MODEL_SPACE
  1

  0
ENDBLK
  5
21
  8
0
  0
BLOCK
 67
     1
  8
0
  2
$PAPER_SPACE
 70
     0
 10
0.0
 20
0.0
 30
0.0
  3
$PAPER_SPACE
  1

  0
ENDBLK
  5
1D
 67
     1
  8
0
  0
BLOCK
  8
0
  2
*X1
 70
     1
 10
0.0
 20
0.0
 30
0.0
  3
*X1
  1

  0
POLYLINE
  5
1F1
  8
0
 66
     1
 10
0.0
 20
0.0
 30
0.0
 70
    64
 71
    12
 72
    10
  0
VERTEX
  5
1F2
  8
0
 10
255.0
 20
20.0
 30
-79.99999999999999
 70
   192
  0
VERTEX
  5
1F3
  8
0
 10
255.0
 20
20.0
 30
-10.00000000000009
 70
   192
  0
VERTEX
  5
1F4
  8
0
 10
255.0
 20
705.0
 30
-9.999999999999995
 70
   192
  0
VERTEX
  5
1F5
  8
0
 10
255.0
 20
705.0
 30
10.0
 70
   192
  0
VERTEX
  5
1F6
  8
0
 10
255.0
 20
20.0
 30
9.999999999999922
 70
   192
  0
VERTEX
  5
1F7
  8
0
 10
255.0
 20
20.0
 30
80.0
 70
   192
  0
VERTEX
  5
1F8
  8
0
 10
255.0
 20
630.0000000000001
 30
80.0
 70
   192
  0
VERTEX
  5
1F9
  8
0
 10
255.0
 20
630.0000000000001
 30
100.0
 70
   192
  0
VERTEX
  5
1FA
  8
0
 10
255.0
 20
0.0
 30
100.0
 70
   192
  0
VERTEX
  5
1FB
  8
0
 10
255.0
 20
0.0000000000000382
 30
-100.0
 70
   192
  0
VERTEX
  5
1FC
  8
0
 10
255.0
 20
779.9999999999999
 30
-100.0
 70
   192
  0
VERTEX
  5
1FD
  8
0
 10
255.0
 20
779.9999999999999
 30
-80.0
 70
   192
  0
VERTEX
  5
1FE
  8
0
 10
0.0
 20
0.0
 30
0.0
 70
   128
 71
     1
 72
    12
 73
   -11
  0
VERTEX
  5
1FF
  8
0
 10
0.0
 20
0.0
 30
0.0
 70
   128
 71
    -1
 72
    11
 73
   -10
  0
VERTEX
  5
200
  8
0
 10
0.0
 20
0.0
 30
0.0
 70
   128
 71
     2
 72
    -1
 73
   -10
  0
VERTEX
  5
201
  8
0
 10
0.0
 20
0.0
 30
0.0
 70
   128
 71
   -10
 72
    -5
 73
    -2
  0
VERTEX
  5
202
  8
0
 10
0.0
 20
0.0
 30
0.0
 70
   128
 71
     5
 72
     4
 73
    -3
  0
VERTEX
  5
203
  8
0
 10
0.0
 20
0.0
 30
0.0
 70
   128
 71
    -5
 72
     3
 73
    -2
  0
VERTEX
  5
204
  8
0
 10
0.0
 20
0.0
 30
0.0
 70
   128
 71
    10
 72
    -9
 73
    -5
  0
VERTEX
  5
205
  8
0
 10
0.0
 20
0.0
 30
0.0
 70
   128
 71
    -9
 72
     6
 73
    -5
  0
VERTEX
  5
206
  8
0
 10
0.0
 20
0.0
 30
0.0
 70
   128
 71
     9
 72
     8
 73
    -7
  0
VERTEX
  5
207
  8
0
 10
0.0
 20
0.0
 30
0.0
 70
   128
 71
    -9
 72
     7
 73
    -6
  0
SEQEND
  5
2FD
  8
0
  0
POLYLINE
  5
208
  8
0
 66
     1
 10
0.0
 20
0.0
 30
0.0
 70
    64
 71
     8
 72
     6
  0
VERTEX
  5
209
  8
0
 10
275.0
 20
0.0
 30
100.0
 70
   192
  0
VERTEX
  5
20A
  8
0
 10
255.0
 20
0.0
 30
100.0
 70
   192
  0
VERTEX
  5
20B
  8
0
 10
255.0
 20
630.0000000000001
 30
100.0
 70
   192
  0
VERTEX
  5
20C
  8
0
 10
-255.0
 20
630.0000000000001
 30
100.0
 70
   192
  0
VERTEX
  5
20D
  8
0
 10
-255.0
 20
0.0
 30
100.0
 70
   192
  0
VERTEX
  5
20E
  8
0
 10
-275.0
 20
0.0
 30
100.0
 70
   192
  0
VERTEX
  5
20F
  8
0
 10
-275.0
 20
650.0000000000001
 30
100.0
 70
   192
  0
VERTEX
  5
210
  8
0
 10
275.0
 20
650.0000000000001
 30
100.0
 70
   192
  0
VERTEX
  5
211
  8
0
 10
0.0
 20
0.0
 30
0.0
 70
   128
 71
     3
 72
     2
 73
    -1
  0
VERTEX
  5
212
  8
0
 10
0.0
 20
0.0
 30
0.0
 70
   128
 71
    -3
 72
     1
 73
    -8
  0
VERTEX
  5
213
  8
0
 10
0.0
 20
0.0
 30
0.0
 70
   128
 71
     8
 72
    -7
 73
    -4
  0
VERTEX
  5
214
  8
0
 10
0.0
 20
0.0
 30
0.0
 70
   128
 71
    -8
 72
     4
 73
    -3
  0
VERTEX
  5
215
  8
0
 10
0.0
 20
0.0
 30
0.0
 70
   128
 71
     7
 72
     6
 73
    -5
  0
VERTEX
  5
216
  8
0
 10
0.0
 20
0.0
 30
0.0
 70
   128
 71
    -7
 72
     5
 73
    -4
  0
SEQEND
  5
2FE
  8
0
  0
POLYLINE
  5
217
  8
0
 66
     1
 10
0.0
 20
0.0
 30
0.0
 70
    64
 71
     4
 72
     2
  0
VERTEX
  5
218
  8
0
 10
275.0
 20
650.0000000000001
 30
100.0
 70
   192
  0
VERTEX
  5
219
  8
0
 10
275.0
 20
650.0000000000001
 30
80.0
 70
   192
  0
VERTEX
  5
21A
  8
0
 10
-275.0
 20
650.0000000000001
 30
80.0
 70
   192
  0
VERTEX
  5
21B
  8
0
 10
-275.0
 20
650.0000000000001
 30
100.0
 70
   192
  0
VERTEX
  5
21C
  8
0
 10
0.0
 20
0.0
 30
0.0
 70
   128
 71
     3
 72
     4
 73
    -1
  0
VERTEX
  5
21D
  8
0
 10
0.0
 20
0.0
 30
0.0
 70
   128
 71
     2
 72
    -3
 73
     1
  0
SEQEND
  5
2FF
  8
0
  0
POLYLINE
  5
21E
  8
0
 66
     1
 10
0.0
 20
0.0
 30
0.0
 70
    64
 71
     8
 72
     6
  0
VERTEX
  5
21F
  8
0
 10
275.0
 20
650.0000000000001
 30
80.0
 70
   192
  0
VERTEX
  5
220
  8
0
 10
275.0
 20
20.0
 30
80.0
 70
   192
  0
VERTEX
  5
221
  8
0
 10
255.0
 20
20.0
 30
80.0
 70
   192
  0
VERTEX
  5
222
  8
0
 10
255.0
 20
630.0000000000001
 30
80.0
 70
   192
  0
VERTEX
  5
223
  8
0
 10
-255.0
 20
630.0000000000001
 30
80.0
 70
   192
  0
VERTEX
  5
224
  8
0
 10
-255.0
 20
20.0
 30
80.0
 70
   192
  0
VERTEX
  5
225
  8
0
 10
-275.0
 20
20.0
 30
80.0
 70
   192
  0
VERTEX
  5
226
  8
0
 10
-275.0
 20
650.0000000000001
 30
80.0
 70
   192
  0
VERTEX
  5
227
  8
0
 10
0.0
 20
0.0
 30
0.0
 70
   128
 71
     2
 72
     3
 73
    -4
  0
VERTEX
  5
228
  8
0
 10
0.0
 20
0.0
 30
0.0
 70
   128
 71
     1
 72
    -2
 73
    -4
  0
VERTEX
  5
229
  8
0
 10
0.0
 20
0.0
 30
0.0
 70
   128
 71
    -5
 72
     8
 73
    -1
  0
VERTEX
  5
22A
  8
0
 10
0.0
 20
0.0
 30
0.0
 70
   128
 71
     4
 72
    -5
 73
    -1
  0
VERTEX
  5
22B
  8
0
 10
0.0
 20
0.0
 30
0.0
 70
   128
 71
     6
 72
     7
 73
    -8
  0
VERTEX
  5
22C
  8
0
 10
0.0
 20
0.0
 30
0.0
 70
   128
 71
     5
 72
    -6
 73
    -8
  0
SEQEND
  5
300
  8
0
  0
POLYLINE
  5
22D
  8
0
 66
     1
 10
0.0
 20
0.0
 30
0.0
 70
    64
 71
     4
 72
     2
  0
VERTEX
  5
22E
  8
0
 10
275.0
 20
20.0
 30
80.0
 70
   192
  0
VERTEX
  5
22F
  8
0
 10
255.0
 20
20.0
 30
80.0
 70
   192
  0
VERTEX
  5
230
  8
0
 10
255.0
 20
20.0
 30
9.999999999999922
 70
   192
  0
VERTEX
  5
231
  8
0
 10
275.0
 20
20.0
 30
9.999999999999922
 70
   192
  0
VERTEX
  5
232
  8
0
 10
0.0
 20
0.0
 30
0.0
 70
   128
 71
     1
 72
     4
 73
    -3
  0
VERTEX
  5
233
  8
0
 10
0.0
 20
0.0
 30
0.0
 70
   128
 71
    -1
 72
     3
 73
     2
  0
SEQEND
  5
301
  8
0
  0
POLYLINE
  5
234
  8
0
 66
     1
 10
0.0
 20
0.0
 30
0.0
 70
    64
 71
     8
 72
     6
  0
VERTEX
  5
235
  8
0
 10
275.0
 20
20.0
 30
9.999999999999922
 70
   192
  0
VERTEX
  5
236
  8
0
 10
275.0
 20
725.0
 30
10.00000000000001
 70
   192
  0
VERTEX
  5
237
  8
0
 10
-275.0
 20
725.0
 30
10.00000000000001
 70
   192
  0
VERTEX
  5
238
  8
0
 10
-275.0
 20
20.0
 30
9.999999999999922
 70
   192
  0
VERTEX
  5
239
  8
0
 10
-255.0
 20
20.0
 30
9.999999999999922
 70
   192
  0
VERTEX
  5
23A
  8
0
 10
-255.0
 20
705.0
 30
10.0
 70
   192
  0
VERTEX
  5
23B
  8
0
 10
255.0
 20
705.0
 30
10.00000000000001
 70
   192
  0
VERTEX
  5
23C
  8
0
 10
255.0
 20
20.0
 30
9.999999999999922
 70
   192
  0
VERTEX
  5
23D
  8
0
 10
0.0
 20
0.0
 30
0.0
 70
   128
 71
     4
 72
     5
 73
    -6
  0
VERTEX
  5
23E
  8
0
 10
0.0
 20
0.0
 30
0.0
 70
   128
 71
     3
 72
    -4
 73
    -6
  0
VERTEX
  5
23F
  8
0
 10
0.0
 20
0.0
 30
0.0
 70
   128
 71
    -7
 72
     2
 73
    -3
  0
VERTEX
  5
240
  8
0
 10
0.0
 20
0.0
 30
0.0
 70
   128
 71
     6
 72
    -7
 73
    -3
  0
VERTEX
  5
241
  8
0
 10
0.0
 20
0.0
 30
0.0
 70
   128
 71
     8
 72
     1
 73
    -2
  0
VERTEX
  5
242
  8
0
 10
0.0
 20
0.0
 30
0.0
 70
   128
 71
     7
 72
    -8
 73
    -2
  0
SEQEND
  5
302
  8
0
  0
POLYLINE
  5
243
  8
0
 66
     1
 10
0.0
 20
0.0
 30
0.0
 70
    64
 71
     4
 72
     2
  0
VERTEX
  5
244
  8
0
 10
275.0
 20
725.0
 30
10.00000000000001
 70
   192
  0
VERTEX
  5
245
  8
0
 10
275.0
 20
725.0
 30
-9.999999999999998
 70
   192
  0
VERTEX
  5
246
  8
0
 10
-275.0
 20
725.0
 30
-9.999999999999998
 70
   192
  0
VERTEX
  5
247
  8
0
 10
-275.0
 20
725.0
 30
10.00000000000001
 70
   192
  0
VERTEX
  5
248
  8
0
 10
0.0
 20
0.0
 30
0.0
 70
   128
 71
     3
 72
     4
 73
    -1
  0
VERTEX
  5
249
  8
0
 10
0.0
 20
0.0
 30
0.0
 70
   128
 71
     2
 72
    -3
 73
     1
  0
SEQEND
  5
303
  8
0
  0
POLYLINE
  5
24A
  8
0
 66
     1
 10
0.0
 20
0.0
 30
0.0
 70
    64
 71
     8
 72
     6
  0
VERTEX
  5
24B
  8
0
 10
275.0
 20
725.0
 30
-9.999999999999998
 70
   192
  0
VERTEX
  5
24C
  8
0
 10
-275.0
 20
725.0
 30
-9.999999999999998
 70
   192
  0
VERTEX
  5
24D
  8
0
 10
-275.0
 20
20.0
 30
-10.00000000000009
 70
   192
  0
VERTEX
  5
24E
  8
0
 10
-255.0
 20
20.0
 30
-10.00000000000009
 70
   192
  0
VERTEX
  5
24F
  8
0
 10
-255.0
 20
705.0
 30
-9.999999999999995
 70
   192
  0
VERTEX
  5
250
  8
0
 10
255.0
 20
705.0
 30
-10.0
 70
   192
  0
VERTEX
  5
251
  8
0
 10
255.0
 20
20.0
 30
-10.00000000000009
 70
   192
  0
VERTEX
  5
252
  8
0
 10
275.0
 20
20.0
 30
-10.00000000000009
 70
   192
  0
VERTEX
  5
253
  8
0
 10
0.0
 20
0.0
 30
0.0
 70
   128
 71
     5
 72
     4
 73
    -3
  0
VERTEX
  5
254
  8
0
 10
0.0
 20
0.0
 30
0.0
 70
   128
 71
    -5
 72
     3
 73
    -2
  0
VERTEX
  5
255
  8
0
 10
0.0
 20
0.0
 30
0.0
 70
   128
 71
     2
 72
    -1
 73
    -6
  0
VERTEX
  5
256
  8
0
 10
0.0
 20
0.0
 30
0.0
 70
   128
 71
    -2
 72
     6
 73
    -5
  0
VERTEX
  5
257
  8
0
 10
0.0
 20
0.0
 30
0.0
 70
   128
 71
     1
 72
     8
 73
    -7
  0
VERTEX
  5
258
  8
0
 10
0.0
 20
0.0
 30
0.0
 70
   128
 71
    -1
 72
     7
 73
    -6
  0
SEQEND
  5
304
  8
0
  0
POLYLINE
  5
259
  8
0
 66
     1
 10
0.0
 20
0.0
 30
0.0
 70
    64
 71
     4
 72
     2
  0
VERTEX
  5
25A
  8
0
 10
275.0
 20
20.0
 30
-10.00000000000009
 70
   192
  0
VERTEX
  5
25B
  8
0
 10
255.0
 20
20.0
 30
-10.00000000000009
 70
   192
  0
VERTEX
  5
25C
  8
0
 10
255.0
 20
20.0
 30
-79.99999999999999
 70
   192
  0
VERTEX
  5
25D
  8
0
 10
275.0
 20
20.0
 30
-79.99999999999999
 70
   192
  0
VERTEX
  5
25E
  8
0
 10
0.0
 20
0.0
 30
0.0
 70
   128
 71
     1
 72
     4
 73
    -3
  0
VERTEX
  5
25F
  8
0
 10
0.0
 20
0.0
 30
0.0
 70
   128
 71
    -1
 72
     3
 73
     2
  0
SEQEND
  5
305
  8
0
  0
POLYLINE
  5
260
  8
0
 66
     1
 10
0.0
 20
0.0
 30
0.0
 70
    64
 71
     8
 72
     6
  0
VERTEX
  5
261
  8
0
 10
275.0
 20
20.0
 30
-79.99999999999999
 70
   192
  0
VERTEX
  5
262
  8
0
 10
255.0
 20
20.0
 30
-79.99999999999999
 70
   192
  0
VERTEX
  5
263
  8
0
 10
255.0
 20
779.9999999999999
 30
-80.0
 70
   192
  0
VERTEX
  5
264
  8
0
 10
-255.0
 20
779.9999999999999
 30
-80.0
 70
   192
  0
VERTEX
  5
265
  8
0
 10
-255.0
 20
20.0
 30
-79.99999999999999
 70
   192
  0
VERTEX
  5
266
  8
0
 10
-275.0
 20
20.0
 30
-79.99999999999999
 70
   192
  0
VERTEX
  5
267
  8
0
 10
-275.0
 20
799.9999999999998
 30
-80.0
 70
   192
  0
VERTEX
  5
268
  8
0
 10
275.0
 20
799.9999999999998
 30
-80.0
 70
   192
  0
VERTEX
  5
269
  8
0
 10
0.0
 20
0.0
 30
0.0
 70
   128
 71
     3
 72
     2
 73
    -1
  0
VERTEX
  5
26A
  8
0
 10
0.0
 20
0.0
 30
0.0
 70
   128
 71
    -3
 72
     1
 73
    -8
  0
VERTEX
  5
26B
  8
0
 10
0.0
 20
0.0
 30
0.0
 70
   128
 71
     8
 72
    -7
 73
    -4
  0
VERTEX
  5
26C
  8
0
 10
0.0
 20
0.0
 30
0.0
 70
   128
 71
    -8
 72
     4
 73
    -3
  0
VERTEX
  5
26D
  8
0
 10
0.0
 20
0.0
 30
0.0
 70
   128
 71
     7
 72
     6
 73
    -5
  0
VERTEX
  5
26E
  8
0
 10
0.0
 20
0.0
 30
0.0
 70
   128
 71
    -7
 72
     5
 73
    -4
  0
SEQEND
  5
306
  8
0
  0
POLYLINE
  5
26F
  8
0
 66
     1
 10
0.0
 20
0.0
 30
0.0
 70
    64
 71
     4
 72
     2
  0
VERTEX
  5
270
  8
0
 10
275.0
 20
799.9999999999998
 30
-80.0
 70
   192
  0
VERTEX
  5
271
  8
0
 10
275.0
 20
799.9999999999998
 30
-100.0
 70
   192
  0
VERTEX
  5
272
  8
0
 10
-275.0
 20
799.9999999999998
 30
-100.0
 70
   192
  0
VERTEX
  5
273
  8
0
 10
-275.0
 20
799.9999999999998
 30
-80.0
 70
   192
  0
VERTEX
  5
274
  8
0
 10
0.0
 20
0.0
 30
0.0
 70
   128
 71
     3
 72
     4
 73
    -1
  0
VERTEX
  5
275
  8
0
 10
0.0
 20
0.0
 30
0.0
 70
   128
 71
     2
 72
    -3
 73
     1
  0
SEQEND
  5
307
  8
0
  0
POLYLINE
  5
276
  8
0
 66
     1
 10
0.0
 20
0.0
 30
0.0
 70
    64
 71
     8
 72
     6
  0
VERTEX
  5
277
  8
0
 10
275.0
 20
799.9999999999998
 30
-100.0
 70
   192
  0
VERTEX
  5
278
  8
0
 10
275.0
 20
0.0000000000000382
 30
-100.0
 70
   192
  0
VERTEX
  5
279
  8
0
 10
255.0
 20
0.0000000000000382
 30
-100.0
 70
   192
  0
VERTEX
  5
27A
  8
0
 10
255.0
 20
779.9999999999999
 30
-100.0
 70
   192
  0
VERTEX
  5
27B
  8
0
 10
-255.0
 20
779.9999999999999
 30
-100.0000000000001
 70
   192
  0
VERTEX
  5
27C
  8
0
 10
-255.0
 20
0.0000000000000382
 30
-100.0
 70
   192
  0
VERTEX
  5
27D
  8
0
 10
-275.0
 20
0.0000000000000382
 30
-100.0
 70
   192
  0
VERTEX
  5
27E
  8
0
 10
-275.0
 20
799.9999999999998
 30
-100.0
 70
   192
  0
VERTEX
  5
27F
  8
0
 10
0.0
 20
0.0
 30
0.0
 70
   128
 71
     2
 72
     3
 73
    -4
  0
VERTEX
  5
280
  8
0
 10
0.0
 20
0.0
 30
0.0
 70
   128
 71
     1
 72
    -2
 73
    -4
  0
VERTEX
  5
281
  8
0
 10
0.0
 20
0.0
 30
0.0
 70
   128
 71
    -5
 72
     8
 73
    -1
  0
VERTEX
  5
282
  8
0
 10
0.0
 20
0.0
 30
0.0
 70
   128
 71
     4
 72
    -5
 73
    -1
  0
VERTEX
  5
283
  8
0
 10
0.0
 20
0.0
 30
0.0
 70
   128
 71
     6
 72
     7
 73
    -8
  0
VERTEX
  5
284
  8
0
 10
0.0
 20
0.0
 30
0.0
 70
   128
 71
     5
 72
    -6
 73
    -8
  0
SEQEND
  5
308
  8
0
  0
POLYLINE
  5
285
  8
0
 66
     1
 10
0.0
 20
0.0
 30
0.0
 70
    64
 71
     4
 72
     2
  0
VERTEX
  5
286
  8
0
 10
275.0
 20
0.0000000000000382
 30
-100.0
 70
   192
  0
VERTEX
  5
287
  8
0
 10
275.0
 20
0.0
 30
100.0
 70
   192
  0
VERTEX
  5
288
  8
0
 10
255.0
 20
0.0
 30
100.0
 70
   192
  0
VERTEX
  5
289
  8
0
 10
255.0
 20
0.0000000000000382
 30
-100.0
 70
   192
  0
VERTEX
  5
28A
  8
0
 10
0.0
 20
0.0
 30
0.0
 70
   128
 71
     3
 72
     4
 73
    -1
  0
VERTEX
  5
28B
  8
0
 10
0.0
 20
0.0
 30
0.0
 70
   128
 71
     2
 72
    -3
 73
     1
  0
SEQEND
  5
309
  8
0
  0
POLYLINE
  5
28C
  8
0
 66
     1
 10
0.0
 20
0.0
 30
0.0
 70
    64
 71
    12
 72
    10
  0
VERTEX
  5
28D
  8
0
 10
275.0
 20
650.0000000000001
 30
100.0
 70
   192
  0
VERTEX
  5
28E
  8
0
 10
275.0
 20
0.0
 30
100.0
 70
   192
  0
VERTEX
  5
28F
  8
0
 10
275.0
 20
0.0000000000000382
 30
-100.0
 70
   192
  0
VERTEX
  5
290
  8
0
 10
275.0
 20
799.9999999999998
 30
-100.0
 70
   192
  0
VERTEX
  5
291
  8
0
 10
275.0
 20
799.9999999999998
 30
-80.0
 70
   192
  0
VERTEX
  5
292
  8
0
 10
275.0
 20
20.0
 30
-79.99999999999999
 70
   192
  0
VERTEX
  5
293
  8
0
 10
275.0
 20
20.0
 30
-10.00000000000009
 70
   192
  0
VERTEX
  5
294
  8
0
 10
275.0
 20
725.0
 30
-9.999999999999998
 70
   192
  0
VERTEX
  5
295
  8
0
 10
275.0
 20
725.0
 30
10.00000000000001
 70
   192
  0
VERTEX
  5
296
  8
0
 10
275.0
 20
20.0
 30
9.999999999999922
 70
   192
  0
VERTEX
  5
297
  8
0
 10
275.0
 20
20.0
 30
80.0
 70
   192
  0
VERTEX
  5
298
  8
0
 10
275.0
 20
650.0000000000001
 30
80.0
 70
   192
  0
VERTEX
  5
299
  8
0
 10
0.0
 20
0.0
 30
0.0
 70
   128
 71
     4
 72
     5
 73
    -6
  0
VERTEX
  5
29A
  8
0
 10
0.0
 20
0.0
 30
0.0
 70
   128
 71
     3
 72
    -4
 73
    -6
  0
VERTEX
  5
29B
  8
0
 10
0.0
 20
0.0
 30
0.0
 70
   128
 71
     6
 72
    -7
 73
    -3
  0
VERTEX
  5
29C
  8
0
 10
0.0
 20
0.0
 30
0.0
 70
   128
 71
    -7
 72
   -10
 73
    -3
  0
VERTEX
  5
29D
  8
0
 10
0.0
 20
0.0
 30
0.0
 70
   128
 71
     8
 72
     9
 73
   -10
  0
VERTEX
  5
29E
  8
0
 10
0.0
 20
0.0
 30
0.0
 70
   128
 71
     7
 72
    -8
 73
   -10
  0
VERTEX
  5
29F
  8
0
 10
0.0
 20
0.0
 30
0.0
 70
   128
 71
   -10
 72
     2
 73
    -3
  0
VERTEX
  5
2A0
  8
0
 10
0.0
 20
0.0
 30
0.0
 70
   128
 71
    10
 72
   -11
 73
    -2
  0
VERTEX
  5
2A1
  8
0
 10
0.0
 20
0.0
 30
0.0
 70
   128
 71
    12
 72
     1
 73
    -2
  0
VERTEX
  5
2A2
  8
0
 10
0.0
 20
0.0
 30
0.0
 70
   128
 71
    11
 72
   -12
 73
    -2
  0
SEQEND
  5
30A
  8
0
  0
POLYLINE
  5
2A3
  8
0
 66
     1
 10
0.0
 20
0.0
 30
0.0
 70
    64
 71
     4
 72
     2
  0
VERTEX
  5
2A4
  8
0
 10
-255.0
 20
630.0000000000001
 30
80.0
 70
   192
  0
VERTEX
  5
2A5
  8
0
 10
255.0
 20
630.0000000000001
 30
80.0
 70
   192
  0
VERTEX
  5
2A6
  8
0
 10
255.0
 20
630.0000000000001
 30
100.0
 70
   192
  0
VERTEX
  5
2A7
  8
0
 10
-255.0
 20
630.0000000000001
 30
100.0
 70
   192
  0
VERTEX
  5
2A8
  8
0
 10
0.0
 20
0.0
 30
0.0
 70
   128
 71
     3
 72
     4
 73
    -1
  0
VERTEX
  5
2A9
  8
0
 10
0.0
 20
0.0
 30
0.0
 70
   128
 71
     2
 72
    -3
 73
     1
  0
SEQEND
  5
30B
  8
0
  0
POLYLINE
  5
2AA
  8
0
 66
     1
 10
0.0
 20
0.0
 30
0.0
 70
    64
 71
    12
 72
    10
  0
VERTEX
  5
2AB
  8
0
 10
-255.0
 20
779.9999999999999
 30
-100.0
 70
   192
  0
VERTEX
  5
2AC
  8
0
 10
-255.0
 20
779.9999999999999
 30
-80.0
 70
   192
  0
VERTEX
  5
2AD
  8
0
 10
-255.0
 20
20.0
 30
-79.99999999999999
 70
   192
  0
VERTEX
  5
2AE
  8
0
 10
-255.0
 20
20.0
 30
-10.00000000000009
 70
   192
  0
VERTEX
  5
2AF
  8
0
 10
-255.0
 20
705.0
 30
-10.0
 70
   192
  0
VERTEX
  5
2B0
  8
0
 10
-255.0
 20
705.0
 30
10.00000000000001
 70
   192
  0
VERTEX
  5
2B1
  8
0
 10
-255.0
 20
20.0
 30
9.999999999999922
 70
   192
  0
VERTEX
  5
2B2
  8
0
 10
-255.0
 20
20.0
 30
80.0
 70
   192
  0
VERTEX
  5
2B3
  8
0
 10
-255.0
 20
630.0000000000001
 30
80.0
 70
   192
  0
VERTEX
  5
2B4
  8
0
 10
-255.0
 20
630.0000000000001
 30
100.0
 70
   192
  0
VERTEX
  5
2B5
  8
0
 10
-255.0
 20
0.0
 30
100.0
 70
   192
  0
VERTEX
  5
2B6
  8
0
 10
-255.0
 20
0.0000000000000382
 30
-100.0
 70
   192
  0
VERTEX
  5
2B7
  8
0
 10
0.0
 20
0.0
 30
0.0
 70
   128
 71
     1
 72
     2
 73
    -3
  0
VERTEX
  5
2B8
  8
0
 10
0.0
 20
0.0
 30
0.0
 70
   128
 71
    12
 72
    -1
 73
    -3
  0
VERTEX
  5
2B9
  8
0
 10
0.0
 20
0.0
 30
0.0
 70
   128
 71
     3
 72
    -4
 73
   -12
  0
VERTEX
  5
2BA
  8
0
 10
0.0
 20
0.0
 30
0.0
 70
   128
 71
    -4
 72
    -7
 73
   -12
  0
VERTEX
  5
2BB
  8
0
 10
0.0
 20
0.0
 30
0.0
 70
   128
 71
     5
 72
     6
 73
    -7
  0
VERTEX
  5
2BC
  8
0
 10
0.0
 20
0.0
 30
0.0
 70
   128
 71
     4
 72
    -5
 73
    -7
  0
VERTEX
  5
2BD
  8
0
 10
0.0
 20
0.0
 30
0.0
 70
   128
 71
    -7
 72
    11
 73
   -12
  0
VERTEX
  5
2BE
  8
0
 10
0.0
 20
0.0
 30
0.0
 70
   128
 71
     7
 72
    -8
 73
   -11
  0
VERTEX
  5
2BF
  8
0
 10
0.0
 20
0.0
 30
0.0
 70
   128
 71
     9
 72
    10
 73
   -11
  0
VERTEX
  5
2C0
  8
0
 10
0.0
 20
0.0
 30
0.0
 70
   128
 71
     8
 72
    -9
 73
   -11
  0
SEQEND
  5
30C
  8
0
  0
POLYLINE
  5
2C1
  8
0
 66
     1
 10
0.0
 20
0.0
 30
0.0
 70
    64
 71
     4
 72
     2
  0
VERTEX
  5
2C2
  8
0
 10
-275.0
 20
0.0
 30
100.0
 70
   192
  0
VERTEX
  5
2C3
  8
0
 10
-255.0
 20
0.0
 30
100.0
 70
   192
  0
VERTEX
  5
2C4
  8
0
 10
-255.0
 20
0.0000000000000382
 30
-100.0
 70
   192
  0
VERTEX
  5
2C5
  8
0
 10
-275.0
 20
0.0000000000000382
 30
-100.0
 70
   192
  0
VERTEX
  5
2C6
  8
0
 10
0.0
 20
0.0
 30
0.0
 70
   128
 71
     1
 72
     4
 73
    -3
  0
VERTEX
  5
2C7
  8
0
 10
0.0
 20
0.0
 30
0.0
 70
   128
 71
    -1
 72
     3
 73
     2
  0
SEQEND
  5
30D
  8
0
  0
POLYLINE
  5
2C8
  8
0
 66
     1
 10
0.0
 20
0.0
 30
0.0
 70
    64
 71
     4
 72
     2
  0
VERTEX
  5
2C9
  8
0
 10
-275.0
 20
20.0
 30
-79.99999999999999
 70
   192
  0
VERTEX
  5
2CA
  8
0
 10
-275.0
 20
20.0
 30
-10.00000000000009
 70
   192
  0
VERTEX
  5
2CB
  8
0
 10
-255.0
 20
20.0
 30
-10.00000000000009
 70
   192
  0
VERTEX
  5
2CC
  8
0
 10
-255.0
 20
20.0
 30
-79.99999999999999
 70
   192
  0
VERTEX
  5
2CD
  8
0
 10
0.0
 20
0.0
 30
0.0
 70
   128
 71
     3
 72
     4
 73
    -1
  0
VERTEX
  5
2CE
  8
0
 10
0.0
 20
0.0
 30
0.0
 70
   128
 71
     2
 72
    -3
 73
     1
  0
SEQEND
  5
30E
  8
0
  0
POLYLINE
  5
2CF
  8
0
 66
     1
 10
0.0
 20
0.0
 30
0.0
 70
    64
 71
     4
 72
     2
  0
VERTEX
  5
2D0
  8
0
 10
-275.0
 20
20.0
 30
9.999999999999922
 70
   192
  0
VERTEX
  5
2D1
  8
0
 10
-275.0
 20
20.0
 30
80.0
 70
   192
  0
VERTEX
  5
2D2
  8
0
 10
-255.0
 20
20.0
 30
80.0
 70
   192
  0
VERTEX
  5
2D3
  8
0
 10
-255.0
 20
20.0
 30
9.999999999999922
 70
   192
  0
VERTEX
  5
2D4
  8
0
 10
0.0
 20
0.0
 30
0.0
 70
   128
 71
     3
 72
     4
 73
    -1
  0
VERTEX
  5
2D5
  8
0
 10
0.0
 20
0.0
 30
0.0
 70
   128
 71
     2
 72
    -3
 73
     1
  0
SEQEND
  5
30F
  8
0
  0
POLYLINE
  5
2D6
  8
0
 66
     1
 10
0.0
 20
0.0
 30
0.0
 70
    64
 71
    12
 72
    10
  0
VERTEX
  5
2D7
  8
0
 10
-275.0
 20
0.0
 30
100.0
 70
   192
  0
VERTEX
  5
2D8
  8
0
 10
-275.0
 20
0.0000000000000382
 30
-100.0
 70
   192
  0
VERTEX
  5
2D9
  8
0
 10
-275.0
 20
799.9999999999998
 30
-100.0
 70
   192
  0
VERTEX
  5
2DA
  8
0
 10
-275.0
 20
799.9999999999998
 30
-80.0
 70
   192
  0
VERTEX
  5
2DB
  8
0
 10
-275.0
 20
20.0
 30
-79.99999999999999
 70
   192
  0
VERTEX
  5
2DC
  8
0
 10
-275.0
 20
20.0
 30
-10.00000000000009
 70
   192
  0
VERTEX
  5
2DD
  8
0
 10
-275.0
 20
725.0
 30
-9.999999999999998
 70
   192
  0
VERTEX
  5
2DE
  8
0
 10
-275.0
 20
725.0
 30
10.00000000000001
 70
   192
  0
VERTEX
  5
2DF
  8
0
 10
-275.0
 20
20.0
 30
9.999999999999922
 70
   192
  0
VERTEX
  5
2E0
  8
0
 10
-275.0
 20
20.0
 30
80.0
 70
   192
  0
VERTEX
  5
2E1
  8
0
 10
-275.0
 20
650.0000000000001
 30
80.0
 70
   192
  0
VERTEX
  5
2E2
  8
0
 10
-275.0
 20
650.0000000000001
 30
100.0
 70
   192
  0
VERTEX
  5
2E3
  8
0
 10
0.0
 20
0.0
 30
0.0
 70
   128
 71
     5
 72
     4
 73
    -3
  0
VERTEX
  5
2E4
  8
0
 10
0.0
 20
0.0
 30
0.0
 70
   128
 71
    -5
 72
     3
 73
    -2
  0
VERTEX
  5
2E5
  8
0
 10
0.0
 20
0.0
 30
0.0
 70
   128
 71
    -2
 72
     6
 73
    -5
  0
VERTEX
  5
2E6
  8
0
 10
0.0
 20
0.0
 30
0.0
 70
   128
 71
    -2
 72
    -9
 73
    -6
  0
VERTEX
  5
2E7
  8
0
 10
0.0
 20
0.0
 30
0.0
 70
   128
 71
     9
 72
     8
 73
    -7
  0
VERTEX
  5
2E8
  8
0
 10
0.0
 20
0.0
 30
0.0
 70
   128
 71
    -9
 72
     7
 73
    -6
  0
VERTEX
  5
2E9
  8
0
 10
0.0
 20
0.0
 30
0.0
 70
   128
 71
     2
 72
    -1
 73
    -9
  0
VERTEX
  5
2EA
  8
0
 10
0.0
 20
0.0
 30
0.0
 70
   128
 71
    -1
 72
    10
 73
    -9
  0
VERTEX
  5
2EB
  8
0
 10
0.0
 20
0.0
 30
0.0
 70
   128
 71
     1
 72
    12
 73
   -11
  0
VERTEX
  5
2EC
  8
0
 10
0.0
 20
0.0
 30
0.0
 70
   128
 71
    -1
 72
    11
 73
   -10
  0
SEQEND
  5
310
  8
0
  0
POLYLINE
  5
2ED
  8
0
 66
     1
 10
0.0
 20
0.0
 30
0.0
 70
    64
 71
     4
 72
     2
  0
VERTEX
  5
2EE
  8
0
 10
-255.0
 20
705.0
 30
-9.999999999999995
 70
   192
  0
VERTEX
  5
2EF
  8
0
 10
255.0
 20
705.0
 30
-9.999999999999995
 70
   192
  0
VERTEX
  5
2F0
  8
0
 10
255.0
 20
705.0
 30
10.0
 70
   192
  0
VERTEX
  5
2F1
  8
0
 10
-255.0
 20
705.0
 30
10.00000000000001
 70
   192
  0
VERTEX
  5
2F2
  8
0
 10
0.0
 20
0.0
 30
0.0
 70
   128
 71
     3
 72
     4
 73
    -1
  0
VERTEX
  5
2F3
  8
0
 10
0.0
 20
0.0
 30
0.0
 70
   128
 71
     2
 72
    -3
 73
     1
  0
SEQEND
  5
311
  8
0
  0
POLYLINE
  5
2F4
  8
0
 66
     1
 10
0.0
 20
0.0
 30
0.0
 70
    64
 71
     4
 72
     2
  0
VERTEX
  5
2F5
  8
0
 10
-255.0
 20
779.9999999999999
 30
-100.0000000000001
 70
   192
  0
VERTEX
  5
2F6
  8
0
 10
255.0
 20
779.9999999999999
 30
-100.0000000000001
 70
   192
  0
VERTEX
  5
2F7
  8
0
 10
255.0
 20
779.9999999999999
 30
-80.0
 70
   192
  0
VERTEX
  5
2F8
  8
0
 10
-255.0
 20
779.9999999999999
 30
-80.0
 70
   192
  0
VERTEX
  5
2F9
  8
0
 10
0.0
 20
0.0
 30
0.0
 70
   128
 71
     3
 72
     4
 73
    -1
  0
VERTEX
  5
2FA
  8
0
 10
0.0
 20
0.0
 30
0.0
 70
   128
 71
     2
 72
    -3
 73
     1
  0
SEQEND
  5
312
  8
0
  0
ENDBLK
  5
2FC
  8
0
  0
ENDSEC
  0
SECTION
  2
ENTITIES
  0
INSERT
  5
BF
  8
0
  2
*X1
 10
0.0
 20
0.0
 30
0.0
  0
ENDSEC
  0
EOF
