  0
SECTION
  2
HEADER
  9
$ACADVER
  1
AC1009
  9
$DWGCODEPAGE
  3
ansi_1250
  9
$INSBASE
 10
0.0
 20
0.0
 30
0.0
  9
$EXTMIN
 10
-29.99999999999997
 20
-68.20020509923592
 30
-0.0000000000000213
  9
$EXTMAX
 10
29.99999999999997
 20
30.00000000000001
 30
186.5530907866784
  9
$LIMMIN
 10
0.0
 20
0.0
  9
$LIMMAX
 10
420.0
 20
297.0
  9
$ORTHOMODE
 70
     0
  9
$REGENMODE
 70
     1
  9
$FILLMODE
 70
     1
  9
$QTEXTMODE
 70
     0
  9
$MIRRTEXT
 70
     0
  9
$DRAGMODE
 70
     2
  9
$LTSCALE
 40
1.0
  9
$OSMODE
 70
   511
  9
$ATTMODE
 70
     1
  9
$TEXTSIZE
 40
2.5
  9
$TRACEWID
 40
1.0
  9
$TEXTSTYLE
  7
STANDARD
  9
$CLAYER
  8
0
  9
$CELTYPE
  6
BYLAYER
  9
$CECOLOR
 62
   256
  9
$DIMSCALE
 40
1.0
  9
$DIMASZ
 40
2.5
  9
$DIMEXO
 40
0.625
  9
$DIMDLI
 40
3.75
  9
$DIMRND
 40
0.0
  9
$DIMDLE
 40
0.0
  9
$DIMEXE
 40
1.25
  9
$DIMTP
 40
0.0
  9
$DIMTM
 40
0.0
  9
$DIMTXT
 40
2.5
  9
$DIMCEN
 40
-2.5
  9
$DIMTSZ
 40
0.0
  9
$DIMTOL
 70
     0
  9
$DIMLIM
 70
     0
  9
$DIMTIH
 70
     0
  9
$DIMTOH
 70
     0
  9
$DIMSE1
 70
     0
  9
$DIMSE2
 70
     0
  9
$DIMTAD
 70
     1
  9
$DIMZIN
 70
     8
  9
$DIMBLK
  1

  9
$DIMASO
 70
     1
  9
$DIMSHO
 70
     1
  9
$DIMPOST
  1

  9
$DIMAPOST
  1

  9
$DIMALT
 70
     0
  9
$DIMALTD
 70
     3
  9
$DIMALTF
 40
0.03937007874016
  9
$DIMLFAC
 40
1.0
  9
$DIMTOFL
 70
     1
  9
$DIMTVP
 40
0.0
  9
$DIMTIX
 70
     0
  9
$DIMSOXD
 70
     0
  9
$DIMSAH
 70
     0
  9
$DIMBLK1
  1

  9
$DIMBLK2
  1

  9
$DIMSTYLE
  2
ISO-25
  9
$DIMCLRD
 70
     0
  9
$DIMCLRE
 70
     0
  9
$DIMCLRT
 70
     0
  9
$DIMTFAC
 40
1.0
  9
$DIMGAP
 40
0.625
  9
$LUNITS
 70
     2
  9
$LUPREC
 70
     3
  9
$SKETCHINC
 40
1.0
  9
$FILLETRAD
 40
10.0
  9
$AUNITS
 70
     0
  9
$AUPREC
 70
     0
  9
$MENU
  1
.
  9
$ELEVATION
 40
0.0
  9
$PELEVATION
 40
0.0
  9
$THICKNESS
 40
0.0
  9
$LIMCHECK
 70
     0
  9
$CHAMFERA
 40
10.0
  9
$CHAMFERB
 40
10.0
  9
$SKPOLY
 70
     0
  9
$TDCREATE
 40
2455022.720692848
  9
$TDUPDATE
 40
2460528.534783716
  9
$TDINDWG
 40
0.0698729282
  9
$TDUSRTIMER
 40
0.1444294792
  9
$USRTIMER
 70
     1
  9
$ANGBASE
 50
0.0
  9
$ANGDIR
 70
     0
  9
$PDMODE
 70
     0
  9
$PDSIZE
 40
0.0
  9
$PLINEWID
 40
0.0
  9
$COORDS
 70
     1
  9
$SPLFRAME
 70
     0
  9
$SPLINETYPE
 70
     6
  9
$SPLINESEGS
 70
     8
  9
$ATTDIA
 70
     0
  9
$ATTREQ
 70
     1
  9
$HANDLING
 70
     1
  9
$HANDSEED
  5
133046
  9
$SURFTAB1
 70
     6
  9
$SURFTAB2
 70
     6
  9
$SURFTYPE
 70
     6
  9
$SURFU
 70
     6
  9
$SURFV
 70
     6
  9
$UCSNAME
  2

  9
$UCSORG
 10
0.0
 20
0.0
 30
0.0
  9
$UCSXDIR
 10
1.0
 20
0.0
 30
0.0
  9
$UCSYDIR
 10
0.0
 20
1.0
 30
0.0
  9
$PUCSNAME
  2

  9
$PUCSORG
 10
0.0
 20
0.0
 30
0.0
  9
$PUCSXDIR
 10
1.0
 20
0.0
 30
0.0
  9
$PUCSYDIR
 10
0.0
 20
1.0
 30
0.0
  9
$USERI1
 70
     0
  9
$USERI2
 70
     0
  9
$USERI3
 70
     0
  9
$USERI4
 70
     0
  9
$USERI5
 70
     0
  9
$USERR1
 40
0.0
  9
$USERR2
 40
0.0
  9
$USERR3
 40
0.0
  9
$USERR4
 40
0.0
  9
$USERR5
 40
0.0
  9
$WORLDVIEW
 70
     1
  9
$SHADEDGE
 70
     3
  9
$SHADEDIF
 70
    70
  9
$TILEMODE
 70
     1
  9
$MAXACTVP
 70
    64
  9
$PLIMCHECK
 70
     0
  9
$PEXTMIN
 10
1.000000000000000E+20
 20
1.000000000000000E+20
 30
1.000000000000000E+20
  9
$PEXTMAX
 10
-1.000000000000000E+20
 20
-1.000000000000000E+20
 30
-1.000000000000000E+20
  9
$PLIMMIN
 10
0.0
 20
0.0
  9
$PLIMMAX
 10
0.0
 20
0.0
  9
$UNITMODE
 70
     0
  9
$VISRETAIN
 70
     1
  9
$PLINEGEN
 70
     0
  9
$PSLTSCALE
 70
     1
  0
ENDSEC
  0
SECTION
  2
TABLES
  0
TABLE
  2
VPORT
 70
     1
  0
VPORT
  2
*ACTIVE
 70
     0
 10
0.0
 20
0.0
 11
1.0
 21
1.0
 12
-108.0621235184004
 22
28.98186115664394
 13
0.0
 23
0.0
 14
10.0
 24
10.0
 15
10.0
 25
10.0
 16
0.5773502691896226
 26
0.5773502691896226
 36
0.5773502691896262
 17
-134.0401322861792
 27
-0.3173141772386519
 37
0.1524876214564905
 40
221.2430225530505
 41
1.89041095890411
 42
50.0
 43
0.0
 44
0.0
 50
0.0
 51
0.0
 71
    16
 72
  1000
 73
     1
 74
     3
 75
     0
 76
     0
 77
     0
 78
     0
  0
ENDTAB
  0
TABLE
  2
LTYPE
 70
     1
  0
LTYPE
  2
CONTINUOUS
 70
     0
  3
Solid line
 72
    65
 73
     0
 40
0.0
  0
ENDTAB
  0
TABLE
  2
LAYER
 70
     1
  0
LAYER
  2
0
 70
     0
 62
     7
  6
CONTINUOUS
  0
ENDTAB
  0
TABLE
  2
STYLE
 70
     2
  0
STYLE
  2
STANDARD
 70
     0
 40
0.0
 41
1.0
 50
0.0
 71
     0
 42
2.5
  3
arial.ttf
  4

  0
STYLE
  2
ANNOTATIVE
 70
     0
 40
0.0
 41
1.0
 50
0.0
 71
     0
 42
2.5
  3
arial.ttf
  4

  0
ENDTAB
  0
TABLE
  2
VIEW
 70
     0
  0
ENDTAB
  0
TABLE
  2
UCS
 70
     0
  0
ENDTAB
  0
TABLE
  2
APPID
 70
     2
  0
APPID
  2
ACAD
 70
     0
  0
APPID
  2
ACADANNOTATIVE
 70
     0
  0
ENDTAB
  0
TABLE
  2
DIMSTYLE
 70
     2
  0
DIMSTYLE
  2
ISO-25
 70
     0
  3

  4

  5

  6

  7

 40
1.0
 41
2.5
 42
0.625
 43
3.75
 44
1.25
 45
0.0
 46
0.0
 47
0.0
 48
0.0
140
2.5
141
-2.5
142
0.0
143
0.03937007874016
144
1.0
145
0.0
146
1.0
147
0.625
 71
     0
 72
     0
 73
     0
 74
     0
 75
     0
 76
     0
 77
     1
 78
     8
170
     0
171
     3
172
     1
173
     0
174
     0
175
     0
176
     0
177
     0
178
     0
  0
DIMSTYLE
  2
ANNOTATIVE
 70
     0
  3

  4

  5

  6

  7

 40
0.0
 41
2.5
 42
0.625
 43
3.75
 44
1.25
 45
0.0
 46
0.0
 47
0.0
 48
0.0
140
2.5
141
-2.5
142
0.0
143
0.03937007874016
144
1.0
145
0.0
146
1.0
147
0.625
 71
     0
 72
     0
 73
     0
 74
     0
 75
     0
 76
     0
 77
     1
 78
     8
170
     0
171
     3
172
     1
173
     0
174
     0
175
     0
176
     0
177
     0
178
     0
  0
ENDTAB
  0
ENDSEC
  0
SECTION
  2
BLOCKS
  0
BLOCK
  8
0
  2
$MODEL_SPACE
 70
     0
 10
0.0
 20
0.0
 30
0.0
  3
$MODEL_SPACE
  1

  0
ENDBLK
  5
21
  8
0
  0
BLOCK
 67
     1
  8
0
  2
$PAPER_SPACE
 70
     0
 10
0.0
 20
0.0
 30
0.0
  3
$PAPER_SPACE
  1

  0
ENDBLK
  5
1D
 67
     1
  8
0
  0
BLOCK
  8
0
  2
*X1
 70
     1
 10
0.0
 20
0.0
 30
0.0
  3
*X1
  1

  0
POLYLINE
  5
132904
  8
0
 66
     1
 10
0.0
 20
0.0
 30
0.0
 70
    64
 71
    10
 72
     8
  0
VERTEX
  5
132905
  8
0
 10
-0.0000000000000112
 20
-13.99999999999997
 30
99.99999999999983
 70
   192
  0
VERTEX
  5
132906
  8
0
 10
-0.0000000000000221
 20
-14.00000000000431
 30
14.49999999999996
 70
   192
  0
VERTEX
  5
132907
  8
0
 10
0.0000000000000242
 20
14.00000000000001
 30
14.49999999999998
 70
   192
  0
VERTEX
  5
132908
  8
0
 10
0.0000000000000339
 20
14.00000000000003
 30
99.99999999999986
 70
   192
  0
VERTEX
  5
132909
  8
0
 10
14.0000000000002
 20
-0.0000000000001217
 30
14.49999999999997
 70
   192
  0
VERTEX
  5
13290A
  8
0
 10
14.00000000000021
 20
-0.0000224984438075
 30
99.99999999969413
 70
   192
  0
VERTEX
  5
13290B
  8
0
 10
9.89742143028441
 20
-9.897440597805684
 30
99.99999999972766
 70
   192
  0
VERTEX
  5
13290C
  8
0
 10
9.897421430284401
 20
-9.897421430286007
 30
14.49999999999996
 70
   192
  0
VERTEX
  5
13290D
  8
0
 10
9.897421430284954
 20
9.897421430285403
 30
14.49999999999998
 70
   192
  0
VERTEX
  5
13290E
  8
0
 10
9.897421430284979
 20
9.897395600916774
 30
99.99999999963993
 70
   192
  0
VERTEX
  5
13290F
  8
0
 10
0.0
 20
0.0
 30
0.0
 70
   128
 71
     6
 72
     5
 73
     8
  0
VERTEX
  5
132910
  8
0
 10
0.0
 20
0.0
 30
0.0
 70
   128
 71
     7
 72
     6
 73
     8
  0
VERTEX
  5
132911
  8
0
 10
0.0
 20
0.0
 30
0.0
 70
   128
 71
     2
 72
     1
 73
     7
  0
VERTEX
  5
132912
  8
0
 10
0.0
 20
0.0
 30
0.0
 70
   128
 71
     8
 72
     2
 73
     7
  0
VERTEX
  5
132913
  8
0
 10
0.0
 20
0.0
 30
0.0
 70
   128
 71
     4
 72
     3
 73
     9
  0
VERTEX
  5
132914
  8
0
 10
0.0
 20
0.0
 30
0.0
 70
   128
 71
    10
 72
     4
 73
     9
  0
VERTEX
  5
132915
  8
0
 10
0.0
 20
0.0
 30
0.0
 70
   128
 71
     5
 72
     6
 73
    10
  0
VERTEX
  5
132916
  8
0
 10
0.0
 20
0.0
 30
0.0
 70
   128
 71
     9
 72
     5
 73
    10
  0
SEQEND
  5
13300D
  8
0
  0
POLYLINE
  5
132917
  8
0
 66
     1
 10
0.0
 20
0.0
 30
0.0
 70
    64
 71
    10
 72
     8
  0
VERTEX
  5
132918
  8
0
 10
0.0000000000000339
 20
14.00000000000003
 30
99.99999999999986
 70
   192
  0
VERTEX
  5
132919
  8
0
 10
0.0000000000000242
 20
14.00000000000001
 30
14.49999999999998
 70
   192
  0
VERTEX
  5
13291A
  8
0
 10
-0.0000000000000221
 20
-14.00000000000431
 30
14.49999999999996
 70
   192
  0
VERTEX
  5
13291B
  8
0
 10
-0.0000000000000112
 20
-13.99999999999997
 30
99.99999999999983
 70
   192
  0
VERTEX
  5
13291C
  8
0
 10
-14.00000000000024
 20
-0.0000000000000187
 30
14.49999999999997
 70
   192
  0
VERTEX
  5
13291D
  8
0
 10
-14.00000000000022
 20
-0.0000224984436157
 30
99.99999999969413
 70
   192
  0
VERTEX
  5
13291E
  8
0
 10
-9.897421430284908
 20
9.89739560091676
 30
99.9999999996369
 70
   192
  0
VERTEX
  5
13291F
  8
0
 10
-9.897421430284915
 20
9.897421430285375
 30
14.49999999999997
 70
   192
  0
VERTEX
  5
132920
  8
0
 10
-9.89742143028495
 20
-9.897421430285393
 30
14.49999999999996
 70
   192
  0
VERTEX
  5
132921
  8
0
 10
-9.89742143028494
 20
-9.89744059780492
 30
99.99999999973065
 70
   192
  0
VERTEX
  5
132922
  8
0
 10
0.0
 20
0.0
 30
0.0
 70
   128
 71
     6
 72
     5
 73
     8
  0
VERTEX
  5
132923
  8
0
 10
0.0
 20
0.0
 30
0.0
 70
   128
 71
     7
 72
     6
 73
     8
  0
VERTEX
  5
132924
  8
0
 10
0.0
 20
0.0
 30
0.0
 70
   128
 71
     2
 72
     1
 73
     7
  0
VERTEX
  5
132925
  8
0
 10
0.0
 20
0.0
 30
0.0
 70
   128
 71
     8
 72
     2
 73
     7
  0
VERTEX
  5
132926
  8
0
 10
0.0
 20
0.0
 30
0.0
 70
   128
 71
     4
 72
     3
 73
     9
  0
VERTEX
  5
132927
  8
0
 10
0.0
 20
0.0
 30
0.0
 70
   128
 71
    10
 72
     4
 73
     9
  0
VERTEX
  5
132928
  8
0
 10
0.0
 20
0.0
 30
0.0
 70
   128
 71
     5
 72
     6
 73
    10
  0
VERTEX
  5
132929
  8
0
 10
0.0
 20
0.0
 30
0.0
 70
   128
 71
     9
 72
     5
 73
    10
  0
SEQEND
  5
13300E
  8
0
  0
POLYLINE
  5
13292A
  8
0
 66
     1
 10
0.0
 20
0.0
 30
0.0
 70
    64
 71
    10
 72
     8
  0
VERTEX
  5
13292B
  8
0
 10
-0.0000000000000128
 20
-14.99999999999997
 30
99.99999999999983
 70
   192
  0
VERTEX
  5
13292C
  8
0
 10
-0.0000000000000204
 20
-15.00000000000196
 30
14.49999999999997
 70
   192
  0
VERTEX
  5
13292D
  8
0
 10
0.0000000000000258
 20
15.00000000000001
 30
14.49999999999998
 70
   192
  0
VERTEX
  5
13292E
  8
0
 10
0.0000000000000355
 20
15.00000000000003
 30
99.99999999999986
 70
   192
  0
VERTEX
  5
13292F
  8
0
 10
-15.00000000000021
 20
-0.0000000000001517
 30
14.49999999999997
 70
   192
  0
VERTEX
  5
132930
  8
0
 10
-15.0000000000002
 20
-0.0000000000001461
 30
99.99999999999983
 70
   192
  0
VERTEX
  5
132931
  8
0
 10
-10.60438010387819
 20
-10.60438010387975
 30
99.99999999999983
 70
   192
  0
VERTEX
  5
132932
  8
0
 10
-10.60438010387819
 20
-10.60438010387977
 30
14.49999999999996
 70
   192
  0
VERTEX
  5
132933
  8
0
 10
-10.60438010387869
 20
10.60438010387908
 30
14.49999999999997
 70
   192
  0
VERTEX
  5
132934
  8
0
 10
-10.60438010387868
 20
10.60438010387911
 30
99.99999999999983
 70
   192
  0
VERTEX
  5
132935
  8
0
 10
0.0
 20
0.0
 30
0.0
 70
   128
 71
     6
 72
     5
 73
    -8
  0
VERTEX
  5
132936
  8
0
 10
0.0
 20
0.0
 30
0.0
 70
   128
 71
     7
 72
    -6
 73
     8
  0
VERTEX
  5
132937
  8
0
 10
0.0
 20
0.0
 30
0.0
 70
   128
 71
     2
 72
     1
 73
    -7
  0
VERTEX
  5
132938
  8
0
 10
0.0
 20
0.0
 30
0.0
 70
   128
 71
     8
 72
    -2
 73
     7
  0
VERTEX
  5
132939
  8
0
 10
0.0
 20
0.0
 30
0.0
 70
   128
 71
     4
 72
     3
 73
    -9
  0
VERTEX
  5
13293A
  8
0
 10
0.0
 20
0.0
 30
0.0
 70
   128
 71
    10
 72
    -4
 73
     9
  0
VERTEX
  5
13293B
  8
0
 10
0.0
 20
0.0
 30
0.0
 70
   128
 71
     5
 72
     6
 73
   -10
  0
VERTEX
  5
13293C
  8
0
 10
0.0
 20
0.0
 30
0.0
 70
   128
 71
     9
 72
    -5
 73
    10
  0
SEQEND
  5
13300F
  8
0
  0
POLYLINE
  5
13293D
  8
0
 66
     1
 10
0.0
 20
0.0
 30
0.0
 70
    64
 71
    10
 72
     8
  0
VERTEX
  5
13293E
  8
0
 10
0.0000000000000355
 20
15.00000000000003
 30
99.99999999999986
 70
   192
  0
VERTEX
  5
13293F
  8
0
 10
0.0000000000000258
 20
15.00000000000001
 30
14.49999999999998
 70
   192
  0
VERTEX
  5
132940
  8
0
 10
-0.0000000000000204
 20
-15.00000000000196
 30
14.49999999999997
 70
   192
  0
VERTEX
  5
132941
  8
0
 10
-0.0000000000000128
 20
-14.99999999999997
 30
99.99999999999983
 70
   192
  0
VERTEX
  5
132942
  8
0
 10
15.00000000000025
 20
0.0000000000000051
 30
14.49999999999997
 70
   192
  0
VERTEX
  5
132943
  8
0
 10
15.00000000000026
 20
-0.0000224984435329
 30
99.99999999969403
 70
   192
  0
VERTEX
  5
132944
  8
0
 10
10.60438010387873
 20
10.60435403658632
 30
99.9999999996309
 70
   192
  0
VERTEX
  5
132945
  8
0
 10
10.60438010387875
 20
10.60438010387909
 30
14.49999999999998
 70
   192
  0
VERTEX
  5
132946
  8
0
 10
10.60438010387869
 20
-10.60438010387907
 30
14.49999999999997
 70
   192
  0
VERTEX
  5
132947
  8
0
 10
10.60438010387873
 20
-10.60439903347282
 30
99.99999999973961
 70
   192
  0
VERTEX
  5
132948
  8
0
 10
0.0
 20
0.0
 30
0.0
 70
   128
 71
     6
 72
     5
 73
     8
  0
VERTEX
  5
132949
  8
0
 10
0.0
 20
0.0
 30
0.0
 70
   128
 71
     7
 72
     6
 73
     8
  0
VERTEX
  5
13294A
  8
0
 10
0.0
 20
0.0
 30
0.0
 70
   128
 71
     2
 72
     1
 73
     7
  0
VERTEX
  5
13294B
  8
0
 10
0.0
 20
0.0
 30
0.0
 70
   128
 71
     8
 72
     2
 73
     7
  0
VERTEX
  5
13294C
  8
0
 10
0.0
 20
0.0
 30
0.0
 70
   128
 71
     4
 72
     3
 73
     9
  0
VERTEX
  5
13294D
  8
0
 10
0.0
 20
0.0
 30
0.0
 70
   128
 71
    10
 72
     4
 73
     9
  0
VERTEX
  5
13294E
  8
0
 10
0.0
 20
0.0
 30
0.0
 70
   128
 71
     5
 72
     6
 73
    10
  0
VERTEX
  5
13294F
  8
0
 10
0.0
 20
0.0
 30
0.0
 70
   128
 71
     9
 72
     5
 73
    10
  0
SEQEND
  5
133010
  8
0
  0
POLYLINE
  5
132950
  8
0
 66
     1
 10
0.0
 20
0.0
 30
0.0
 70
    64
 71
    16
 72
    16
  0
VERTEX
  5
132951
  8
0
 10
-0.0000000000000577
 20
-46.30384757728996
 30
148.0096189431997
 70
   192
  0
VERTEX
  5
132952
  8
0
 10
10.60438010387905
 20
-44.10603762923071
 30
151.8163374386496
 70
   192
  0
VERTEX
  5
132953
  8
0
 10
14.99999999999979
 20
-38.80384757729161
 30
160.9999999999997
 70
   192
  0
VERTEX
  5
132954
  8
0
 10
10.60438010387909
 20
-33.50165752535396
 30
170.1836625613497
 70
   192
  0
VERTEX
  5
132955
  8
0
 10
-0.0000000000000306
 20
-31.30384757728995
 30
173.9903810567997
 70
   192
  0
VERTEX
  5
132956
  8
0
 10
-10.60438010387914
 20
-33.50165752535398
 30
170.1836625613498
 70
   192
  0
VERTEX
  5
132957
  8
0
 10
-14.99999999999988
 20
-38.80384757729163
 30
160.9999999999997
 70
   192
  0
VERTEX
  5
132958
  8
0
 10
-10.60438010387918
 20
-44.10603762923073
 30
151.8163374386496
 70
   192
  0
VERTEX
  5
132959
  8
0
 10
-0.0000000000000324
 20
-32.30384757728995
 30
172.2583302491997
 70
   192
  0
VERTEX
  5
13295A
  8
0
 10
9.192388155426485
 20
-34.20765349957737
 30
168.9608416640467
 70
   192
  0
VERTEX
  5
13295B
  8
0
 10
13.00000000000193
 20
-38.80384757728993
 30
160.9999999999997
 70
   192
  0
VERTEX
  5
13295C
  8
0
 10
9.192388155426464
 20
-43.40004165500252
 30
153.0391583359527
 70
   192
  0
VERTEX
  5
13295D
  8
0
 10
-0.0000000000000559
 20
-45.30384757728995
 30
149.7416697507997
 70
   192
  0
VERTEX
  5
13295E
  8
0
 10
-9.19238815542657
 20
-43.40004165500254
 30
153.0391583359527
 70
   192
  0
VERTEX
  5
13295F
  8
0
 10
-13.00000000000202
 20
-38.80384757728996
 30
160.9999999999997
 70
   192
  0
VERTEX
  5
132960
  8
0
 10
-9.192388155426553
 20
-34.20765349957741
 30
168.9608416640467
 70
   192
  0
VERTEX
  5
132961
  8
0
 10
0.0
 20
0.0
 30
0.0
 70
   128
 71
    -5
 72
     9
 73
   -10
  0
VERTEX
  5
132962
  8
0
 10
0.0
 20
0.0
 30
0.0
 70
   128
 71
     4
 72
    -5
 73
   -10
  0
VERTEX
  5
132963
  8
0
 10
0.0
 20
0.0
 30
0.0
 70
   128
 71
   -11
 72
     3
 73
    -4
  0
VERTEX
  5
132964
  8
0
 10
0.0
 20
0.0
 30
0.0
 70
   128
 71
    10
 72
   -11
 73
    -4
  0
VERTEX
  5
132965
  8
0
 10
0.0
 20
0.0
 30
0.0
 70
   128
 71
   -12
 72
     2
 73
    -3
  0
VERTEX
  5
132966
  8
0
 10
0.0
 20
0.0
 30
0.0
 70
   128
 71
    11
 72
   -12
 73
    -3
  0
VERTEX
  5
132967
  8
0
 10
0.0
 20
0.0
 30
0.0
 70
   128
 71
   -13
 72
     1
 73
    -2
  0
VERTEX
  5
132968
  8
0
 10
0.0
 20
0.0
 30
0.0
 70
   128
 71
    12
 72
   -13
 73
    -2
  0
VERTEX
  5
132969
  8
0
 10
0.0
 20
0.0
 30
0.0
 70
   128
 71
   -14
 72
     8
 73
    -1
  0
VERTEX
  5
13296A
  8
0
 10
0.0
 20
0.0
 30
0.0
 70
   128
 71
    13
 72
   -14
 73
    -1
  0
VERTEX
  5
13296B
  8
0
 10
0.0
 20
0.0
 30
0.0
 70
   128
 71
   -15
 72
     7
 73
    -8
  0
VERTEX
  5
13296C
  8
0
 10
0.0
 20
0.0
 30
0.0
 70
   128
 71
    14
 72
   -15
 73
    -8
  0
VERTEX
  5
13296D
  8
0
 10
0.0
 20
0.0
 30
0.0
 70
   128
 71
   -16
 72
     6
 73
    -7
  0
VERTEX
  5
13296E
  8
0
 10
0.0
 20
0.0
 30
0.0
 70
   128
 71
    15
 72
   -16
 73
    -7
  0
VERTEX
  5
13296F
  8
0
 10
0.0
 20
0.0
 30
0.0
 70
   128
 71
    -9
 72
     5
 73
    -6
  0
VERTEX
  5
132970
  8
0
 10
0.0
 20
0.0
 30
0.0
 70
   128
 71
    16
 72
    -9
 73
    -6
  0
SEQEND
  5
133011
  8
0
  0
POLYLINE
  5
132971
  8
0
 66
     1
 10
0.0
 20
0.0
 30
0.0
 70
    64
 71
    10
 72
     8
  0
VERTEX
  5
132972
  8
0
 10
-0.0000000000000559
 20
-45.30384757728995
 30
149.7416697507997
 70
   192
  0
VERTEX
  5
132973
  8
0
 10
-0.0000000000000586
 20
-47.03589838485995
 30
150.7416697507997
 70
   192
  0
VERTEX
  5
132974
  8
0
 10
-0.0000000000000351
 20
-34.03589838485995
 30
173.2583302491997
 70
   192
  0
VERTEX
  5
132975
  8
0
 10
-0.0000000000000324
 20
-32.30384757728995
 30
172.2583302491997
 70
   192
  0
VERTEX
  5
132976
  8
0
 10
13.00000000000193
 20
-40.53589838485992
 30
161.9999999999997
 70
   192
  0
VERTEX
  5
132977
  8
0
 10
13.00000000000193
 20
-38.80384757728993
 30
160.9999999999997
 70
   192
  0
VERTEX
  5
132978
  8
0
 10
9.192388155426464
 20
-43.40004165500252
 30
153.0391583359527
 70
   192
  0
VERTEX
  5
132979
  8
0
 10
9.192388155426466
 20
-45.13209246257249
 30
154.0391583359527
 70
   192
  0
VERTEX
  5
13297A
  8
0
 10
9.19238815542648
 20
-35.93970430714739
 30
169.9608416640466
 70
   192
  0
VERTEX
  5
13297B
  8
0
 10
9.192388155426485
 20
-34.20765349957737
 30
168.9608416640467
 70
   192
  0
VERTEX
  5
13297C
  8
0
 10
0.0
 20
0.0
 30
0.0
 70
   128
 71
     6
 72
     5
 73
    -8
  0
VERTEX
  5
13297D
  8
0
 10
0.0
 20
0.0
 30
0.0
 70
   128
 71
     7
 72
    -6
 73
     8
  0
VERTEX
  5
13297E
  8
0
 10
0.0
 20
0.0
 30
0.0
 70
   128
 71
     2
 72
     1
 73
    -7
  0
VERTEX
  5
13297F
  8
0
 10
0.0
 20
0.0
 30
0.0
 70
   128
 71
     8
 72
    -2
 73
     7
  0
VERTEX
  5
132980
  8
0
 10
0.0
 20
0.0
 30
0.0
 70
   128
 71
     4
 72
     3
 73
    -9
  0
VERTEX
  5
132981
  8
0
 10
0.0
 20
0.0
 30
0.0
 70
   128
 71
    10
 72
    -4
 73
     9
  0
VERTEX
  5
132982
  8
0
 10
0.0
 20
0.0
 30
0.0
 70
   128
 71
     5
 72
     6
 73
   -10
  0
VERTEX
  5
132983
  8
0
 10
0.0
 20
0.0
 30
0.0
 70
   128
 71
     9
 72
    -5
 73
    10
  0
SEQEND
  5
133012
  8
0
  0
POLYLINE
  5
132984
  8
0
 66
     1
 10
0.0
 20
0.0
 30
0.0
 70
    64
 71
    10
 72
     8
  0
VERTEX
  5
132985
  8
0
 10
-0.0000000000000324
 20
-32.30384757728995
 30
172.2583302491997
 70
   192
  0
VERTEX
  5
132986
  8
0
 10
-0.0000000000000351
 20
-34.03589838485995
 30
173.2583302491997
 70
   192
  0
VERTEX
  5
132987
  8
0
 10
-0.0000000000000586
 20
-47.03589838485995
 30
150.7416697507997
 70
   192
  0
VERTEX
  5
132988
  8
0
 10
-0.0000000000000559
 20
-45.30384757728995
 30
149.7416697507997
 70
   192
  0
VERTEX
  5
132989
  8
0
 10
-13.00000000000202
 20
-40.53589838485997
 30
161.9999999999997
 70
   192
  0
VERTEX
  5
13298A
  8
0
 10
-13.00000000000202
 20
-38.80384757728996
 30
160.9999999999997
 70
   192
  0
VERTEX
  5
13298B
  8
0
 10
-9.192388155426553
 20
-34.20765349957741
 30
168.9608416640467
 70
   192
  0
VERTEX
  5
13298C
  8
0
 10
-9.192388155426558
 20
-35.93970430714741
 30
169.9608416640465
 70
   192
  0
VERTEX
  5
13298D
  8
0
 10
-9.192388155426572
 20
-45.13209246257252
 30
154.0391583359528
 70
   192
  0
VERTEX
  5
13298E
  8
0
 10
-9.19238815542657
 20
-43.40004165500254
 30
153.0391583359527
 70
   192
  0
VERTEX
  5
13298F
  8
0
 10
0.0
 20
0.0
 30
0.0
 70
   128
 71
     2
 72
     1
 73
    -7
  0
VERTEX
  5
132990
  8
0
 10
0.0
 20
0.0
 30
0.0
 70
   128
 71
     8
 72
    -2
 73
     7
  0
VERTEX
  5
132991
  8
0
 10
0.0
 20
0.0
 30
0.0
 70
   128
 71
     6
 72
     5
 73
    -8
  0
VERTEX
  5
132992
  8
0
 10
0.0
 20
0.0
 30
0.0
 70
   128
 71
     7
 72
    -6
 73
     8
  0
VERTEX
  5
132993
  8
0
 10
0.0
 20
0.0
 30
0.0
 70
   128
 71
     5
 72
     6
 73
   -10
  0
VERTEX
  5
132994
  8
0
 10
0.0
 20
0.0
 30
0.0
 70
   128
 71
     9
 72
    -5
 73
    10
  0
VERTEX
  5
132995
  8
0
 10
0.0
 20
0.0
 30
0.0
 70
   128
 71
     4
 72
     3
 73
    -9
  0
VERTEX
  5
132996
  8
0
 10
0.0
 20
0.0
 30
0.0
 70
   128
 71
    10
 72
    -4
 73
     9
  0
SEQEND
  5
133013
  8
0
  0
POLYLINE
  5
132997
  8
0
 66
     1
 10
0.0
 20
0.0
 30
0.0
 70
    64
 71
    16
 72
    16
  0
VERTEX
  5
132998
  8
0
 10
-0.0000000000000595
 20
-47.53589838485995
 30
149.8756443469997
 70
   192
  0
VERTEX
  5
132999
  8
0
 10
-9.899494936622643
 20
-45.48564585316581
 30
153.4267859002459
 70
   192
  0
VERTEX
  5
13299A
  8
0
 10
-14.00000000001552
 20
-40.53589838485999
 30
161.9999999999997
 70
   192
  0
VERTEX
  5
13299B
  8
0
 10
-9.899494936622668
 20
-35.58615091655412
 30
170.5732140997535
 70
   192
  0
VERTEX
  5
13299C
  8
0
 10
-0.0000000000000342
 20
-33.53589838485994
 30
174.1243556529997
 70
   192
  0
VERTEX
  5
13299D
  8
0
 10
9.899494936622549
 20
-35.58615091655408
 30
170.5732140997535
 70
   192
  0
VERTEX
  5
13299E
  8
0
 10
14.00000000001543
 20
-40.5358983848599
 30
161.9999999999997
 70
   192
  0
VERTEX
  5
13299F
  8
0
 10
9.899494936622572
 20
-45.48564585316576
 30
153.426785900246
 70
   192
  0
VERTEX
  5
1329A0
  8
0
 10
-0.0000000000000351
 20
-34.03589838485995
 30
173.2583302491997
 70
   192
  0
VERTEX
  5
1329A1
  8
0
 10
-9.192388155426558
 20
-35.93970430714741
 30
169.9608416640465
 70
   192
  0
VERTEX
  5
1329A2
  8
0
 10
-13.00000000000202
 20
-40.53589838485997
 30
161.9999999999997
 70
   192
  0
VERTEX
  5
1329A3
  8
0
 10
-9.192388155426572
 20
-45.13209246257252
 30
154.0391583359528
 70
   192
  0
VERTEX
  5
1329A4
  8
0
 10
-0.0000000000000586
 20
-47.03589838485995
 30
150.7416697507997
 70
   192
  0
VERTEX
  5
1329A5
  8
0
 10
9.192388155426466
 20
-45.13209246257249
 30
154.0391583359527
 70
   192
  0
VERTEX
  5
1329A6
  8
0
 10
13.00000000000193
 20
-40.53589838485992
 30
161.9999999999997
 70
   192
  0
VERTEX
  5
1329A7
  8
0
 10
9.19238815542648
 20
-35.93970430714739
 30
169.9608416640466
 70
   192
  0
VERTEX
  5
1329A8
  8
0
 10
0.0
 20
0.0
 30
0.0
 70
   128
 71
    -5
 72
     9
 73
   -10
  0
VERTEX
  5
1329A9
  8
0
 10
0.0
 20
0.0
 30
0.0
 70
   128
 71
     4
 72
    -5
 73
   -10
  0
VERTEX
  5
1329AA
  8
0
 10
0.0
 20
0.0
 30
0.0
 70
   128
 71
   -11
 72
     3
 73
    -4
  0
VERTEX
  5
1329AB
  8
0
 10
0.0
 20
0.0
 30
0.0
 70
   128
 71
    10
 72
   -11
 73
    -4
  0
VERTEX
  5
1329AC
  8
0
 10
0.0
 20
0.0
 30
0.0
 70
   128
 71
   -12
 72
     2
 73
    -3
  0
VERTEX
  5
1329AD
  8
0
 10
0.0
 20
0.0
 30
0.0
 70
   128
 71
    11
 72
   -12
 73
    -3
  0
VERTEX
  5
1329AE
  8
0
 10
0.0
 20
0.0
 30
0.0
 70
   128
 71
   -13
 72
     1
 73
    -2
  0
VERTEX
  5
1329AF
  8
0
 10
0.0
 20
0.0
 30
0.0
 70
   128
 71
    12
 72
   -13
 73
    -2
  0
VERTEX
  5
1329B0
  8
0
 10
0.0
 20
0.0
 30
0.0
 70
   128
 71
   -14
 72
     8
 73
    -1
  0
VERTEX
  5
1329B1
  8
0
 10
0.0
 20
0.0
 30
0.0
 70
   128
 71
    13
 72
   -14
 73
    -1
  0
VERTEX
  5
1329B2
  8
0
 10
0.0
 20
0.0
 30
0.0
 70
   128
 71
   -15
 72
     7
 73
    -8
  0
VERTEX
  5
1329B3
  8
0
 10
0.0
 20
0.0
 30
0.0
 70
   128
 71
    14
 72
   -15
 73
    -8
  0
VERTEX
  5
1329B4
  8
0
 10
0.0
 20
0.0
 30
0.0
 70
   128
 71
   -16
 72
     6
 73
    -7
  0
VERTEX
  5
1329B5
  8
0
 10
0.0
 20
0.0
 30
0.0
 70
   128
 71
    15
 72
   -16
 73
    -7
  0
VERTEX
  5
1329B6
  8
0
 10
0.0
 20
0.0
 30
0.0
 70
   128
 71
    -9
 72
     5
 73
    -6
  0
VERTEX
  5
1329B7
  8
0
 10
0.0
 20
0.0
 30
0.0
 70
   128
 71
    16
 72
    -9
 73
    -6
  0
SEQEND
  5
133014
  8
0
  0
POLYLINE
  5
1329B8
  8
0
 66
     1
 10
0.0
 20
0.0
 30
0.0
 70
    64
 71
    10
 72
     8
  0
VERTEX
  5
1329B9
  8
0
 10
-0.0000000000000595
 20
-47.53589838485995
 30
149.8756443469997
 70
   192
  0
VERTEX
  5
1329BA
  8
0
 10
-0.0000000000000638
 20
-50.35046420871995
 30
151.5006346830997
 70
   192
  0
VERTEX
  5
1329BB
  8
0
 10
-0.0000000000000385
 20
-36.35046420871994
 30
175.7493459889997
 70
   192
  0
VERTEX
  5
1329BC
  8
0
 10
-0.0000000000000342
 20
-33.53589838485994
 30
174.1243556529997
 70
   192
  0
VERTEX
  5
1329BD
  8
0
 10
14.00000000000015
 20
-43.35046420873013
 30
163.6249903360319
 70
   192
  0
VERTEX
  5
1329BE
  8
0
 10
14.00000000001543
 20
-40.5358983848599
 30
161.9999999999997
 70
   192
  0
VERTEX
  5
1329BF
  8
0
 10
9.899494936622572
 20
-45.48564585316576
 30
153.426785900246
 70
   192
  0
VERTEX
  5
1329C0
  8
0
 10
9.899494936611855
 20
-48.3002116770332
 30
155.0517762363055
 70
   192
  0
VERTEX
  5
1329C1
  8
0
 10
9.899494936622549
 20
-35.58615091655408
 30
170.5732140997535
 70
   192
  0
VERTEX
  5
1329C2
  8
0
 10
9.89949493661171
 20
-38.40071674042111
 30
172.1982044357687
 70
   192
  0
VERTEX
  5
1329C3
  8
0
 10
0.0
 20
0.0
 30
0.0
 70
   128
 71
     6
 72
     5
 73
    -8
  0
VERTEX
  5
1329C4
  8
0
 10
0.0
 20
0.0
 30
0.0
 70
   128
 71
     7
 72
    -6
 73
     8
  0
VERTEX
  5
1329C5
  8
0
 10
0.0
 20
0.0
 30
0.0
 70
   128
 71
     2
 72
     1
 73
    -7
  0
VERTEX
  5
1329C6
  8
0
 10
0.0
 20
0.0
 30
0.0
 70
   128
 71
     8
 72
    -2
 73
     7
  0
VERTEX
  5
1329C7
  8
0
 10
0.0
 20
0.0
 30
0.0
 70
   128
 71
     4
 72
     3
 73
   -10
  0
VERTEX
  5
1329C8
  8
0
 10
0.0
 20
0.0
 30
0.0
 70
   128
 71
     9
 72
    -4
 73
    10
  0
VERTEX
  5
1329C9
  8
0
 10
0.0
 20
0.0
 30
0.0
 70
   128
 71
     5
 72
     6
 73
    -9
  0
VERTEX
  5
1329CA
  8
0
 10
0.0
 20
0.0
 30
0.0
 70
   128
 71
    10
 72
    -5
 73
     9
  0
SEQEND
  5
133015
  8
0
  0
POLYLINE
  5
1329CB
  8
0
 66
     1
 10
0.0
 20
0.0
 30
0.0
 70
    64
 71
    10
 72
     8
  0
VERTEX
  5
1329CC
  8
0
 10
-0.0000000000000376
 20
-37.37497347143994
 30
175.4746884245997
 70
   192
  0
VERTEX
  5
1329CD
  8
0
 10
-0.0000000000000385
 20
-36.35046420871994
 30
175.7493459889997
 70
   192
  0
VERTEX
  5
1329CE
  8
0
 10
-0.0000000000000638
 20
-50.35046420871995
 30
151.5006346830997
 70
   192
  0
VERTEX
  5
1329CF
  8
0
 10
-0.0000000000000628
 20
-50.62485841193995
 30
152.5252145131997
 70
   192
  0
VERTEX
  5
1329D0
  8
0
 10
14.00000000000015
 20
-43.35046420873013
 30
163.6249903360319
 70
   192
  0
VERTEX
  5
1329D1
  8
0
 10
13.24988494050586
 20
-43.99991594169736
 30
163.9999514688878
 70
   192
  0
VERTEX
  5
1329D2
  8
0
 10
9.89949493661171
 20
-38.40071674042111
 30
172.1982044357687
 70
   192
  0
VERTEX
  5
1329D3
  8
0
 10
9.369083491373196
 20
-39.31537419600931
 30
172.1138157825983
 70
   192
  0
VERTEX
  5
1329D4
  8
0
 10
9.899494936611855
 20
-48.3002116770332
 30
155.0517762363055
 70
   192
  0
VERTEX
  5
1329D5
  8
0
 10
9.369083491373205
 20
-48.68445768738099
 30
155.8860871551846
 70
   192
  0
VERTEX
  5
1329D6
  8
0
 10
0.0
 20
0.0
 30
0.0
 70
   128
 71
     7
 72
     2
 73
    -1
  0
VERTEX
  5
1329D7
  8
0
 10
0.0
 20
0.0
 30
0.0
 70
   128
 71
     8
 72
    -7
 73
     1
  0
VERTEX
  5
1329D8
  8
0
 10
0.0
 20
0.0
 30
0.0
 70
   128
 71
     5
 72
     7
 73
    -8
  0
VERTEX
  5
1329D9
  8
0
 10
0.0
 20
0.0
 30
0.0
 70
   128
 71
     6
 72
    -5
 73
     8
  0
VERTEX
  5
1329DA
  8
0
 10
0.0
 20
0.0
 30
0.0
 70
   128
 71
     9
 72
     5
 73
    -6
  0
VERTEX
  5
1329DB
  8
0
 10
0.0
 20
0.0
 30
0.0
 70
   128
 71
    10
 72
    -9
 73
     6
  0
VERTEX
  5
1329DC
  8
0
 10
0.0
 20
0.0
 30
0.0
 70
   128
 71
     3
 72
     9
 73
   -10
  0
VERTEX
  5
1329DD
  8
0
 10
0.0
 20
0.0
 30
0.0
 70
   128
 71
     4
 72
    -3
 73
    10
  0
SEQEND
  5
133016
  8
0
  0
POLYLINE
  5
1329DE
  8
0
 66
     1
 10
0.0
 20
0.0
 30
0.0
 70
    64
 71
    10
 72
     8
  0
VERTEX
  5
1329DF
  8
0
 10
-9.899422527941962
 20
-48.30012776229778
 30
155.0517767659089
 70
   192
  0
VERTEX
  5
1329E0
  8
0
 10
-0.0000000000000638
 20
-50.35046420871995
 30
151.5006346830997
 70
   192
  0
VERTEX
  5
1329E1
  8
0
 10
-0.0000000000000628
 20
-50.62485841193995
 30
152.5252145131997
 70
   192
  0
VERTEX
  5
1329E2
  8
0
 10
-13.24988494050532
 20
-44.00000000000885
 30
163.9999999999848
 70
   192
  0
VERTEX
  5
1329E3
  8
0
 10
-13.99989759867725
 20
-43.35037552802639
 30
163.6249391362053
 70
   192
  0
VERTEX
  5
1329E4
  8
0
 10
-9.369083491369384
 20
-48.68454174569371
 30
155.8861356862816
 70
   192
  0
VERTEX
  5
1329E5
  8
0
 10
-9.899422527941965
 20
-38.4006752417026
 30
172.1981314986762
 70
   192
  0
VERTEX
  5
1329E6
  8
0
 10
-0.0000000000000376
 20
-37.37497347143994
 30
175.4746884245997
 70
   192
  0
VERTEX
  5
1329E7
  8
0
 10
-0.0000000000000385
 20
-36.35046420871994
 30
175.7493459889997
 70
   192
  0
VERTEX
  5
1329E8
  8
0
 10
-9.369083491376692
 20
-39.31545825432075
 30
172.1138643136936
 70
   192
  0
VERTEX
  5
1329E9
  8
0
 10
0.0
 20
0.0
 30
0.0
 70
   128
 71
     1
 72
     2
 73
     3
  0
VERTEX
  5
1329EA
  8
0
 10
0.0
 20
0.0
 30
0.0
 70
   128
 71
     4
 72
     5
 73
     1
  0
VERTEX
  5
1329EB
  8
0
 10
0.0
 20
0.0
 30
0.0
 70
   128
 71
     6
 72
     4
 73
     1
  0
VERTEX
  5
1329EC
  8
0
 10
0.0
 20
0.0
 30
0.0
 70
   128
 71
     7
 72
     5
 73
     4
  0
VERTEX
  5
1329ED
  8
0
 10
0.0
 20
0.0
 30
0.0
 70
   128
 71
     8
 72
     9
 73
     7
  0
VERTEX
  5
1329EE
  8
0
 10
0.0
 20
0.0
 30
0.0
 70
   128
 71
    10
 72
     8
 73
     7
  0
VERTEX
  5
1329EF
  8
0
 10
0.0
 20
0.0
 30
0.0
 70
   128
 71
     1
 72
     3
 73
     6
  0
VERTEX
  5
1329F0
  8
0
 10
0.0
 20
0.0
 30
0.0
 70
   128
 71
    10
 72
     7
 73
     4
  0
SEQEND
  5
133017
  8
0
  0
POLYLINE
  5
1329F1
  8
0
 66
     1
 10
0.0
 20
0.0
 30
0.0
 70
    64
 71
    10
 72
     8
  0
VERTEX
  5
1329F2
  8
0
 10
-0.0000000000000342
 20
-33.53589838485994
 30
174.1243556529997
 70
   192
  0
VERTEX
  5
1329F3
  8
0
 10
-0.0000000000000385
 20
-36.35046420871994
 30
175.7493459889997
 70
   192
  0
VERTEX
  5
1329F4
  8
0
 10
-0.0000000000000638
 20
-50.35046420871995
 30
151.5006346830997
 70
   192
  0
VERTEX
  5
1329F5
  8
0
 10
-0.0000000000000595
 20
-47.53589838485995
 30
149.8756443469997
 70
   192
  0
VERTEX
  5
1329F6
  8
0
 10
-13.99989759867725
 20
-43.35037552802639
 30
163.6249391362053
 70
   192
  0
VERTEX
  5
1329F7
  8
0
 10
-14.00000000001552
 20
-40.53589838485999
 30
161.9999999999997
 70
   192
  0
VERTEX
  5
1329F8
  8
0
 10
-9.899494936622668
 20
-35.58615091655412
 30
170.5732140997535
 70
   192
  0
VERTEX
  5
1329F9
  8
0
 10
-9.899422527941965
 20
-38.4006752417026
 30
172.1981314986762
 70
   192
  0
VERTEX
  5
1329FA
  8
0
 10
-9.899494936622643
 20
-45.48564585316581
 30
153.4267859002459
 70
   192
  0
VERTEX
  5
1329FB
  8
0
 10
-9.899422527941962
 20
-48.30012776229778
 30
155.0517767659089
 70
   192
  0
VERTEX
  5
1329FC
  8
0
 10
0.0
 20
0.0
 30
0.0
 70
   128
 71
     6
 72
     5
 73
     8
  0
VERTEX
  5
1329FD
  8
0
 10
0.0
 20
0.0
 30
0.0
 70
   128
 71
     7
 72
     6
 73
     8
  0
VERTEX
  5
1329FE
  8
0
 10
0.0
 20
0.0
 30
0.0
 70
   128
 71
     2
 72
     1
 73
     7
  0
VERTEX
  5
1329FF
  8
0
 10
0.0
 20
0.0
 30
0.0
 70
   128
 71
     8
 72
     2
 73
     7
  0
VERTEX
  5
132A00
  8
0
 10
0.0
 20
0.0
 30
0.0
 70
   128
 71
     4
 72
     3
 73
    10
  0
VERTEX
  5
132A01
  8
0
 10
0.0
 20
0.0
 30
0.0
 70
   128
 71
     9
 72
     4
 73
    10
  0
VERTEX
  5
132A02
  8
0
 10
0.0
 20
0.0
 30
0.0
 70
   128
 71
     5
 72
     6
 73
     9
  0
VERTEX
  5
132A03
  8
0
 10
0.0
 20
0.0
 30
0.0
 70
   128
 71
    10
 72
     5
 73
     9
  0
SEQEND
  5
133018
  8
0
  0
POLYLINE
  5
132A04
  8
0
 66
     1
 10
0.0
 20
0.0
 30
0.0
 70
    64
 71
    16
 72
    16
  0
VERTEX
  5
132A05
  8
0
 10
-0.0000000000000376
 20
-37.37497347143994
 30
175.4746884245997
 70
   192
  0
VERTEX
  5
132A06
  8
0
 10
-9.369083491376692
 20
-39.31545825432075
 30
172.1138643136936
 70
   192
  0
VERTEX
  5
132A07
  8
0
 10
-13.24988494050532
 20
-44.00000000000885
 30
163.9999999999848
 70
   192
  0
VERTEX
  5
132A08
  8
0
 10
-9.369083491369384
 20
-48.68454174569371
 30
155.8861356862816
 70
   192
  0
VERTEX
  5
132A09
  8
0
 10
-0.0000000000000628
 20
-50.62485841193995
 30
152.5252145131997
 70
   192
  0
VERTEX
  5
132A0A
  8
0
 10
9.369083491373205
 20
-48.68445768738099
 30
155.8860871551846
 70
   192
  0
VERTEX
  5
132A0B
  8
0
 10
13.24988494050586
 20
-43.99991594169736
 30
163.9999514688878
 70
   192
  0
VERTEX
  5
132A0C
  8
0
 10
9.369083491373196
 20
-39.31537419600931
 30
172.1138157825983
 70
   192
  0
VERTEX
  5
132A0D
  8
0
 10
-0.0000000000000621
 20
-49.49999999999995
 30
154.4737205583997
 70
   192
  0
VERTEX
  5
132A0E
  8
0
 10
-7.778174593034392
 20
-47.88908729652599
 30
157.2639032073663
 70
   192
  0
VERTEX
  5
132A0F
  8
0
 10
-10.99999999997503
 20
-43.99999999999996
 30
163.9999999999997
 70
   192
  0
VERTEX
  5
132A10
  8
0
 10
-7.778174593034375
 20
-40.11091270347394
 30
170.736096792633
 70
   192
  0
VERTEX
  5
132A11
  8
0
 10
-0.0000000000000422
 20
-38.49999999999994
 30
173.5262794415997
 70
   192
  0
VERTEX
  5
132A12
  8
0
 10
7.778174593034287
 20
-40.11091270347392
 30
170.7360967926331
 70
   192
  0
VERTEX
  5
132A13
  8
0
 10
10.99999999997493
 20
-43.99999999999992
 30
163.9999999999997
 70
   192
  0
VERTEX
  5
132A14
  8
0
 10
7.778174593034271
 20
-47.88908729652596
 30
157.2639032073663
 70
   192
  0
VERTEX
  5
132A15
  8
0
 10
0.0
 20
0.0
 30
0.0
 70
   128
 71
    -5
 72
     9
 73
   -10
  0
VERTEX
  5
132A16
  8
0
 10
0.0
 20
0.0
 30
0.0
 70
   128
 71
     4
 72
    -5
 73
   -10
  0
VERTEX
  5
132A17
  8
0
 10
0.0
 20
0.0
 30
0.0
 70
   128
 71
   -11
 72
     3
 73
    -4
  0
VERTEX
  5
132A18
  8
0
 10
0.0
 20
0.0
 30
0.0
 70
   128
 71
    10
 72
   -11
 73
    -4
  0
VERTEX
  5
132A19
  8
0
 10
0.0
 20
0.0
 30
0.0
 70
   128
 71
   -12
 72
     2
 73
    -3
  0
VERTEX
  5
132A1A
  8
0
 10
0.0
 20
0.0
 30
0.0
 70
   128
 71
    11
 72
   -12
 73
    -3
  0
VERTEX
  5
132A1B
  8
0
 10
0.0
 20
0.0
 30
0.0
 70
   128
 71
   -13
 72
     1
 73
    -2
  0
VERTEX
  5
132A1C
  8
0
 10
0.0
 20
0.0
 30
0.0
 70
   128
 71
    12
 72
   -13
 73
    -2
  0
VERTEX
  5
132A1D
  8
0
 10
0.0
 20
0.0
 30
0.0
 70
   128
 71
   -14
 72
     8
 73
    -1
  0
VERTEX
  5
132A1E
  8
0
 10
0.0
 20
0.0
 30
0.0
 70
   128
 71
    13
 72
   -14
 73
    -1
  0
VERTEX
  5
132A1F
  8
0
 10
0.0
 20
0.0
 30
0.0
 70
   128
 71
   -15
 72
     7
 73
    -8
  0
VERTEX
  5
132A20
  8
0
 10
0.0
 20
0.0
 30
0.0
 70
   128
 71
    14
 72
   -15
 73
    -8
  0
VERTEX
  5
132A21
  8
0
 10
0.0
 20
0.0
 30
0.0
 70
   128
 71
   -16
 72
     6
 73
    -7
  0
VERTEX
  5
132A22
  8
0
 10
0.0
 20
0.0
 30
0.0
 70
   128
 71
    15
 72
   -16
 73
    -7
  0
VERTEX
  5
132A23
  8
0
 10
0.0
 20
0.0
 30
0.0
 70
   128
 71
    -9
 72
     5
 73
    -6
  0
VERTEX
  5
132A24
  8
0
 10
0.0
 20
0.0
 30
0.0
 70
   128
 71
    16
 72
    -9
 73
    -6
  0
SEQEND
  5
133019
  8
0
  0
POLYLINE
  5
132A25
  8
0
 66
     1
 10
0.0
 20
0.0
 30
0.0
 70
    64
 71
    10
 72
     8
  0
VERTEX
  5
132A26
  8
0
 10
-0.0000000000000514
 20
-42.57179676971995
 30
150.4737205583997
 70
   192
  0
VERTEX
  5
132A27
  8
0
 10
-0.0000000000000315
 20
-31.57179676971995
 30
169.5262794415997
 70
   192
  0
VERTEX
  5
132A28
  8
0
 10
-0.0000000000000422
 20
-38.49999999999994
 30
173.5262794415997
 70
   192
  0
VERTEX
  5
132A29
  8
0
 10
-0.0000000000000621
 20
-49.49999999999995
 30
154.4737205583997
 70
   192
  0
VERTEX
  5
132A2A
  8
0
 10
10.99999999997493
 20
-43.99999999999992
 30
163.9999999999997
 70
   192
  0
VERTEX
  5
132A2B
  8
0
 10
10.99999999997494
 20
-37.07179676971992
 30
159.9999999999997
 70
   192
  0
VERTEX
  5
132A2C
  8
0
 10
7.778174593034271
 20
-47.88908729652596
 30
157.2639032073663
 70
   192
  0
VERTEX
  5
132A2D
  8
0
 10
7.778174593034283
 20
-40.96088406624596
 30
153.2639032073663
 70
   192
  0
VERTEX
  5
132A2E
  8
0
 10
7.778174593034287
 20
-40.11091270347392
 30
170.7360967926331
 70
   192
  0
VERTEX
  5
132A2F
  8
0
 10
7.778174593034295
 20
-33.1827094731939
 30
166.736096792633
 70
   192
  0
VERTEX
  5
132A30
  8
0
 10
0.0
 20
0.0
 30
0.0
 70
   128
 71
     5
 72
     6
 73
    -8
  0
VERTEX
  5
132A31
  8
0
 10
0.0
 20
0.0
 30
0.0
 70
   128
 71
     7
 72
    -5
 73
     8
  0
VERTEX
  5
132A32
  8
0
 10
0.0
 20
0.0
 30
0.0
 70
   128
 71
     1
 72
     4
 73
    -7
  0
VERTEX
  5
132A33
  8
0
 10
0.0
 20
0.0
 30
0.0
 70
   128
 71
     8
 72
    -1
 73
     7
  0
VERTEX
  5
132A34
  8
0
 10
0.0
 20
0.0
 30
0.0
 70
   128
 71
     3
 72
     2
 73
   -10
  0
VERTEX
  5
132A35
  8
0
 10
0.0
 20
0.0
 30
0.0
 70
   128
 71
     9
 72
    -3
 73
    10
  0
VERTEX
  5
132A36
  8
0
 10
0.0
 20
0.0
 30
0.0
 70
   128
 71
     6
 72
     5
 73
    -9
  0
VERTEX
  5
132A37
  8
0
 10
0.0
 20
0.0
 30
0.0
 70
   128
 71
    10
 72
    -6
 73
     9
  0
SEQEND
  5
13301A
  8
0
  0
POLYLINE
  5
132A38
  8
0
 66
     1
 10
0.0
 20
0.0
 30
0.0
 70
    64
 71
    10
 72
     8
  0
VERTEX
  5
132A39
  8
0
 10
-0.0000000000000315
 20
-31.57179676971995
 30
169.5262794415997
 70
   192
  0
VERTEX
  5
132A3A
  8
0
 10
-0.0000000000000514
 20
-42.57179676971995
 30
150.4737205583997
 70
   192
  0
VERTEX
  5
132A3B
  8
0
 10
-0.0000000000000621
 20
-49.49999999999995
 30
154.4737205583997
 70
   192
  0
VERTEX
  5
132A3C
  8
0
 10
-0.0000000000000422
 20
-38.49999999999994
 30
173.5262794415997
 70
   192
  0
VERTEX
  5
132A3D
  8
0
 10
-10.99999999997503
 20
-43.99999999999996
 30
163.9999999999997
 70
   192
  0
VERTEX
  5
132A3E
  8
0
 10
-10.99999999997502
 20
-37.07179676971997
 30
159.9999999999997
 70
   192
  0
VERTEX
  5
132A3F
  8
0
 10
-7.778174593034367
 20
-33.18270947319395
 30
166.736096792633
 70
   192
  0
VERTEX
  5
132A40
  8
0
 10
-7.778174593034375
 20
-40.11091270347394
 30
170.736096792633
 70
   192
  0
VERTEX
  5
132A41
  8
0
 10
-7.778174593034379
 20
-40.96088406624598
 30
153.2639032073663
 70
   192
  0
VERTEX
  5
132A42
  8
0
 10
-7.778174593034392
 20
-47.88908729652599
 30
157.2639032073663
 70
   192
  0
VERTEX
  5
132A43
  8
0
 10
0.0
 20
0.0
 30
0.0
 70
   128
 71
     1
 72
     4
 73
    -8
  0
VERTEX
  5
132A44
  8
0
 10
0.0
 20
0.0
 30
0.0
 70
   128
 71
     7
 72
    -1
 73
     8
  0
VERTEX
  5
132A45
  8
0
 10
0.0
 20
0.0
 30
0.0
 70
   128
 71
     5
 72
     6
 73
    -7
  0
VERTEX
  5
132A46
  8
0
 10
0.0
 20
0.0
 30
0.0
 70
   128
 71
     8
 72
    -5
 73
     7
  0
VERTEX
  5
132A47
  8
0
 10
0.0
 20
0.0
 30
0.0
 70
   128
 71
     6
 72
     5
 73
   -10
  0
VERTEX
  5
132A48
  8
0
 10
0.0
 20
0.0
 30
0.0
 70
   128
 71
     9
 72
    -6
 73
    10
  0
VERTEX
  5
132A49
  8
0
 10
0.0
 20
0.0
 30
0.0
 70
   128
 71
     3
 72
     2
 73
    -9
  0
VERTEX
  5
132A4A
  8
0
 10
0.0
 20
0.0
 30
0.0
 70
   128
 71
    10
 72
    -3
 73
     9
  0
SEQEND
  5
13301B
  8
0
  0
POLYLINE
  5
132A4B
  8
0
 66
     1
 10
0.0
 20
0.0
 30
0.0
 70
    64
 71
    16
 72
    16
  0
VERTEX
  5
132A4C
  8
0
 10
-0.0000000000000541
 20
-44.07179676971995
 30
147.8756443469997
 70
   192
  0
VERTEX
  5
132A4D
  8
0
 10
-9.897421430285345
 20
-42.02050748486877
 30
151.4285816093976
 70
   192
  0
VERTEX
  5
132A4E
  8
0
 10
-13.99999999999989
 20
-37.07179676972165
 30
159.9999999999997
 70
   192
  0
VERTEX
  5
132A4F
  8
0
 10
-9.897421430285343
 20
-32.12308605458065
 30
168.5714183906018
 70
   192
  0
VERTEX
  5
132A50
  8
0
 10
-0.0000000000000288
 20
-30.07179676971994
 30
172.1243556529997
 70
   192
  0
VERTEX
  5
132A51
  8
0
 10
9.897421430285263
 20
-32.12308605458061
 30
168.5714183906019
 70
   192
  0
VERTEX
  5
132A52
  8
0
 10
13.9999999999998
 20
-37.07179676972159
 30
159.9999999999997
 70
   192
  0
VERTEX
  5
132A53
  8
0
 10
9.897421430285261
 20
-42.02050748486872
 30
151.4285816093976
 70
   192
  0
VERTEX
  5
132A54
  8
0
 10
-0.0000000000000315
 20
-31.57179676971995
 30
169.5262794415997
 70
   192
  0
VERTEX
  5
132A55
  8
0
 10
-7.778174593034367
 20
-33.18270947319395
 30
166.736096792633
 70
   192
  0
VERTEX
  5
132A56
  8
0
 10
-10.99999999997502
 20
-37.07179676971997
 30
159.9999999999997
 70
   192
  0
VERTEX
  5
132A57
  8
0
 10
-7.778174593034379
 20
-40.96088406624598
 30
153.2639032073663
 70
   192
  0
VERTEX
  5
132A58
  8
0
 10
-0.0000000000000514
 20
-42.57179676971995
 30
150.4737205583997
 70
   192
  0
VERTEX
  5
132A59
  8
0
 10
7.778174593034283
 20
-40.96088406624596
 30
153.2639032073663
 70
   192
  0
VERTEX
  5
132A5A
  8
0
 10
10.99999999997494
 20
-37.07179676971992
 30
159.9999999999997
 70
   192
  0
VERTEX
  5
132A5B
  8
0
 10
7.778174593034295
 20
-33.1827094731939
 30
166.736096792633
 70
   192
  0
VERTEX
  5
132A5C
  8
0
 10
0.0
 20
0.0
 30
0.0
 70
   128
 71
    -5
 72
     9
 73
   -10
  0
VERTEX
  5
132A5D
  8
0
 10
0.0
 20
0.0
 30
0.0
 70
   128
 71
     4
 72
    -5
 73
   -10
  0
VERTEX
  5
132A5E
  8
0
 10
0.0
 20
0.0
 30
0.0
 70
   128
 71
   -11
 72
     3
 73
    -4
  0
VERTEX
  5
132A5F
  8
0
 10
0.0
 20
0.0
 30
0.0
 70
   128
 71
    10
 72
   -11
 73
    -4
  0
VERTEX
  5
132A60
  8
0
 10
0.0
 20
0.0
 30
0.0
 70
   128
 71
   -12
 72
     2
 73
    -3
  0
VERTEX
  5
132A61
  8
0
 10
0.0
 20
0.0
 30
0.0
 70
   128
 71
    11
 72
   -12
 73
    -3
  0
VERTEX
  5
132A62
  8
0
 10
0.0
 20
0.0
 30
0.0
 70
   128
 71
   -13
 72
     1
 73
    -2
  0
VERTEX
  5
132A63
  8
0
 10
0.0
 20
0.0
 30
0.0
 70
   128
 71
    12
 72
   -13
 73
    -2
  0
VERTEX
  5
132A64
  8
0
 10
0.0
 20
0.0
 30
0.0
 70
   128
 71
   -14
 72
     8
 73
    -1
  0
VERTEX
  5
132A65
  8
0
 10
0.0
 20
0.0
 30
0.0
 70
   128
 71
    13
 72
   -14
 73
    -1
  0
VERTEX
  5
132A66
  8
0
 10
0.0
 20
0.0
 30
0.0
 70
   128
 71
   -15
 72
     7
 73
    -8
  0
VERTEX
  5
132A67
  8
0
 10
0.0
 20
0.0
 30
0.0
 70
   128
 71
    14
 72
   -15
 73
    -8
  0
VERTEX
  5
132A68
  8
0
 10
0.0
 20
0.0
 30
0.0
 70
   128
 71
   -16
 72
     6
 73
    -7
  0
VERTEX
  5
132A69
  8
0
 10
0.0
 20
0.0
 30
0.0
 70
   128
 71
    15
 72
   -16
 73
    -7
  0
VERTEX
  5
132A6A
  8
0
 10
0.0
 20
0.0
 30
0.0
 70
   128
 71
    -9
 72
     5
 73
    -6
  0
VERTEX
  5
132A6B
  8
0
 10
0.0
 20
0.0
 30
0.0
 70
   128
 71
    16
 72
    -9
 73
    -6
  0
SEQEND
  5
13301C
  8
0
  0
POLYLINE
  5
132A6C
  8
0
 66
     1
 10
0.0
 20
0.0
 30
0.0
 70
    64
 71
    10
 72
     8
  0
VERTEX
  5
132A6D
  8
0
 10
-0.0000000000000541
 20
-44.07179676971995
 30
147.8756443469997
 70
   192
  0
VERTEX
  5
132A6E
  8
0
 10
-0.0000000000000485
 20
-40.42562584219995
 30
145.7705265804997
 70
   192
  0
VERTEX
  5
132A6F
  8
0
 10
-0.0000000000000232
 20
-26.42562584219995
 30
170.0192378864997
 70
   192
  0
VERTEX
  5
132A70
  8
0
 10
-0.0000000000000288
 20
-30.07179676971994
 30
172.1243556529997
 70
   192
  0
VERTEX
  5
132A71
  8
0
 10
14.00000000000016
 20
-33.42562584221314
 30
157.8948822335019
 70
   192
  0
VERTEX
  5
132A72
  8
0
 10
13.9999999999998
 20
-37.07179676972159
 30
159.9999999999997
 70
   192
  0
VERTEX
  5
132A73
  8
0
 10
9.89742143028438
 20
-38.37433655735975
 30
149.3234638428991
 70
   192
  0
VERTEX
  5
132A74
  8
0
 10
9.897421430285261
 20
-42.02050748486872
 30
151.4285816093976
 70
   192
  0
VERTEX
  5
132A75
  8
0
 10
9.897421430284908
 20
-28.47691512707192
 30
166.4663006241024
 70
   192
  0
VERTEX
  5
132A76
  8
0
 10
9.897421430285263
 20
-32.12308605458061
 30
168.5714183906019
 70
   192
  0
VERTEX
  5
132A77
  8
0
 10
0.0
 20
0.0
 30
0.0
 70
   128
 71
     2
 72
     1
 73
    -8
  0
VERTEX
  5
132A78
  8
0
 10
0.0
 20
0.0
 30
0.0
 70
   128
 71
     7
 72
    -2
 73
     8
  0
VERTEX
  5
132A79
  8
0
 10
0.0
 20
0.0
 30
0.0
 70
   128
 71
     6
 72
     5
 73
    -7
  0
VERTEX
  5
132A7A
  8
0
 10
0.0
 20
0.0
 30
0.0
 70
   128
 71
     8
 72
    -6
 73
     7
  0
VERTEX
  5
132A7B
  8
0
 10
0.0
 20
0.0
 30
0.0
 70
   128
 71
     5
 72
     6
 73
   -10
  0
VERTEX
  5
132A7C
  8
0
 10
0.0
 20
0.0
 30
0.0
 70
   128
 71
     9
 72
    -5
 73
    10
  0
VERTEX
  5
132A7D
  8
0
 10
0.0
 20
0.0
 30
0.0
 70
   128
 71
     4
 72
     3
 73
    -9
  0
VERTEX
  5
132A7E
  8
0
 10
0.0
 20
0.0
 30
0.0
 70
   128
 71
    10
 72
    -4
 73
     9
  0
SEQEND
  5
13301D
  8
0
  0
POLYLINE
  5
132A7F
  8
0
 66
     1
 10
0.0
 20
0.0
 30
0.0
 70
    64
 71
    10
 72
     8
  0
VERTEX
  5
132A80
  8
0
 10
-0.0000000000000288
 20
-30.07179676971994
 30
172.1243556529997
 70
   192
  0
VERTEX
  5
132A81
  8
0
 10
-0.0000000000000232
 20
-26.42562584219995
 30
170.0192378864997
 70
   192
  0
VERTEX
  5
132A82
  8
0
 10
-0.0000000000000485
 20
-40.42562584219995
 30
145.7705265804997
 70
   192
  0
VERTEX
  5
132A83
  8
0
 10
-0.0000000000000541
 20
-44.07179676971995
 30
147.8756443469997
 70
   192
  0
VERTEX
  5
132A84
  8
0
 10
-14.00000000000027
 20
-33.42562584221311
 30
157.894882233502
 70
   192
  0
VERTEX
  5
132A85
  8
0
 10
-13.99999999999989
 20
-37.07179676972165
 30
159.9999999999997
 70
   192
  0
VERTEX
  5
132A86
  8
0
 10
-9.897421430284968
 20
-28.47691512707193
 30
166.4663006241024
 70
   192
  0
VERTEX
  5
132A87
  8
0
 10
-9.897421430285343
 20
-32.12308605458065
 30
168.5714183906018
 70
   192
  0
VERTEX
  5
132A88
  8
0
 10
-9.897421430284979
 20
-38.37433655735943
 30
149.3234638428996
 70
   192
  0
VERTEX
  5
132A89
  8
0
 10
-9.897421430285345
 20
-42.02050748486877
 30
151.4285816093976
 70
   192
  0
VERTEX
  5
132A8A
  8
0
 10
0.0
 20
0.0
 30
0.0
 70
   128
 71
     2
 72
     1
 73
    -8
  0
VERTEX
  5
132A8B
  8
0
 10
0.0
 20
0.0
 30
0.0
 70
   128
 71
     7
 72
    -2
 73
     8
  0
VERTEX
  5
132A8C
  8
0
 10
0.0
 20
0.0
 30
0.0
 70
   128
 71
     6
 72
     5
 73
    -7
  0
VERTEX
  5
132A8D
  8
0
 10
0.0
 20
0.0
 30
0.0
 70
   128
 71
     8
 72
    -6
 73
     7
  0
VERTEX
  5
132A8E
  8
0
 10
0.0
 20
0.0
 30
0.0
 70
   128
 71
     5
 72
     6
 73
   -10
  0
VERTEX
  5
132A8F
  8
0
 10
0.0
 20
0.0
 30
0.0
 70
   128
 71
     9
 72
    -5
 73
    10
  0
VERTEX
  5
132A90
  8
0
 10
0.0
 20
0.0
 30
0.0
 70
   128
 71
     4
 72
     3
 73
    -9
  0
VERTEX
  5
132A91
  8
0
 10
0.0
 20
0.0
 30
0.0
 70
   128
 71
    10
 72
    -4
 73
     9
  0
SEQEND
  5
13301E
  8
0
  0
POLYLINE
  5
132A92
  8
0
 66
     1
 10
0.0
 20
0.0
 30
0.0
 70
    64
 71
    16
 72
    15
  0
VERTEX
  5
132A93
  8
0
 10
-14.00000000000024
 20
-8.956369450923571
 30
133.4256258422001
 70
   192
  0
VERTEX
  5
132A94
  8
0
 10
-14.00000000000027
 20
-33.42562584221311
 30
157.894882233502
 70
   192
  0
VERTEX
  5
132A95
  8
0
 10
-9.897421430284979
 20
-38.37433655735943
 30
149.3234638428996
 70
   192
  0
VERTEX
  5
132A96
  8
0
 10
-0.0000000000000485
 20
-40.42562584219995
 30
145.7705265804997
 70
   192
  0
VERTEX
  5
132A97
  8
0
 10
-0.0000000000000075
 20
-26.36486847463032
 30
133.972106209847
 70
   192
  0
VERTEX
  5
132A98
  8
0
 10
0.0000000000000054
 20
-17.18735308175055
 30
118.0761832620973
 70
   192
  0
VERTEX
  5
132A99
  8
0
 10
-0.0000000000000112
 20
-13.99999999999997
 30
99.99999999999983
 70
   192
  0
VERTEX
  5
132A9A
  8
0
 10
-9.89742143028494
 20
-9.89744059780492
 30
99.99999999973065
 70
   192
  0
VERTEX
  5
132A9B
  8
0
 10
-14.00000000000022
 20
-0.0000224984436157
 30
99.99999999969413
 70
   192
  0
VERTEX
  5
132A9C
  8
0
 10
-9.897421430284968
 20
-28.47691512707193
 30
166.4663006241024
 70
   192
  0
VERTEX
  5
132A9D
  8
0
 10
0.0000000000000226
 20
3.167986202058547
 30
140.4256258421915
 70
   192
  0
VERTEX
  5
132A9E
  8
0
 10
0.0000000000000038
 20
-9.68078308569479
 30
157.1704680682099
 70
   192
  0
VERTEX
  5
132A9F
  8
0
 10
-0.0000000000000232
 20
-26.42562584219995
 30
170.0192378864997
 70
   192
  0
VERTEX
  5
132AA0
  8
0
 10
-9.897421430284908
 20
9.89739560091676
 30
99.9999999996369
 70
   192
  0
VERTEX
  5
132AA1
  8
0
 10
0.0000000000000339
 20
14.00000000000003
 30
99.99999999999986
 70
   192
  0
VERTEX
  5
132AA2
  8
0
 10
0.0000000000000334
 20
11.24506030826943
 30
120.9258441186568
 70
   192
  0
VERTEX
  5
132AA3
  8
0
 10
0.0
 20
0.0
 30
0.0
 70
   128
 71
     1
 72
     2
 73
     3
  0
VERTEX
  5
132AA4
  8
0
 10
0.0
 20
0.0
 30
0.0
 70
   128
 71
     3
 72
     4
 73
     5
  0
VERTEX
  5
132AA5
  8
0
 10
0.0
 20
0.0
 30
0.0
 70
   128
 71
     6
 72
     7
 73
     8
  0
VERTEX
  5
132AA6
  8
0
 10
0.0
 20
0.0
 30
0.0
 70
   128
 71
     9
 72
     1
 73
     6
  0
VERTEX
  5
132AA7
  8
0
 10
0.0
 20
0.0
 30
0.0
 70
   128
 71
     8
 72
     9
 73
     6
  0
VERTEX
  5
132AA8
  8
0
 10
0.0
 20
0.0
 30
0.0
 70
   128
 71
    10
 72
    11
 73
    12
  0
VERTEX
  5
132AA9
  8
0
 10
0.0
 20
0.0
 30
0.0
 70
   128
 71
    12
 72
    13
 73
    10
  0
VERTEX
  5
132AAA
  8
0
 10
0.0
 20
0.0
 30
0.0
 70
   128
 71
     2
 72
     1
 73
    11
  0
VERTEX
  5
132AAB
  8
0
 10
0.0
 20
0.0
 30
0.0
 70
   128
 71
    10
 72
     2
 73
    11
  0
VERTEX
  5
132AAC
  8
0
 10
0.0
 20
0.0
 30
0.0
 70
   128
 71
     1
 72
     9
 73
    14
  0
VERTEX
  5
132AAD
  8
0
 10
0.0
 20
0.0
 30
0.0
 70
   128
 71
    14
 72
    15
 73
    16
  0
VERTEX
  5
132AAE
  8
0
 10
0.0
 20
0.0
 30
0.0
 70
   128
 71
    11
 72
     1
 73
    14
  0
VERTEX
  5
132AAF
  8
0
 10
0.0
 20
0.0
 30
0.0
 70
   128
 71
    16
 72
    11
 73
    14
  0
VERTEX
  5
132AB0
  8
0
 10
0.0
 20
0.0
 30
0.0
 70
   128
 71
     1
 72
     3
 73
     5
  0
VERTEX
  5
132AB1
  8
0
 10
0.0
 20
0.0
 30
0.0
 70
   128
 71
     6
 72
     1
 73
     5
  0
SEQEND
  5
13301F
  8
0
  0
POLYLINE
  5
132AB2
  8
0
 66
     1
 10
0.0
 20
0.0
 30
0.0
 70
    64
 71
    16
 72
    15
  0
VERTEX
  5
132AB3
  8
0
 10
14.0000000000002
 20
-8.95636945092367
 30
133.4256258422
 70
   192
  0
VERTEX
  5
132AB4
  8
0
 10
14.00000000000016
 20
-33.42562584221314
 30
157.8948822335019
 70
   192
  0
VERTEX
  5
132AB5
  8
0
 10
9.897421430284908
 20
-28.47691512707192
 30
166.4663006241024
 70
   192
  0
VERTEX
  5
132AB6
  8
0
 10
0.0000000000000226
 20
3.167986202058547
 30
140.4256258421915
 70
   192
  0
VERTEX
  5
132AB7
  8
0
 10
-0.0000000000000232
 20
-26.42562584219995
 30
170.0192378864997
 70
   192
  0
VERTEX
  5
132AB8
  8
0
 10
0.0000000000000038
 20
-9.68078308569479
 30
157.1704680682099
 70
   192
  0
VERTEX
  5
132AB9
  8
0
 10
0.0000000000000334
 20
11.24506030826943
 30
120.9258441186568
 70
   192
  0
VERTEX
  5
132ABA
  8
0
 10
14.00000000000021
 20
-0.0000224984438075
 30
99.99999999969413
 70
   192
  0
VERTEX
  5
132ABB
  8
0
 10
0.0000000000000339
 20
14.00000000000003
 30
99.99999999999986
 70
   192
  0
VERTEX
  5
132ABC
  8
0
 10
9.897421430284979
 20
9.897395600916774
 30
99.99999999963993
 70
   192
  0
VERTEX
  5
132ABD
  8
0
 10
-0.0000000000000485
 20
-40.42562584219995
 30
145.7705265804997
 70
   192
  0
VERTEX
  5
132ABE
  8
0
 10
9.89742143028438
 20
-38.37433655735975
 30
149.3234638428991
 70
   192
  0
VERTEX
  5
132ABF
  8
0
 10
-0.0000000000000075
 20
-26.36486847463032
 30
133.972106209847
 70
   192
  0
VERTEX
  5
132AC0
  8
0
 10
9.89742143028441
 20
-9.897440597805684
 30
99.99999999972766
 70
   192
  0
VERTEX
  5
132AC1
  8
0
 10
-0.0000000000000112
 20
-13.99999999999997
 30
99.99999999999983
 70
   192
  0
VERTEX
  5
132AC2
  8
0
 10
0.0000000000000054
 20
-17.18735308175055
 30
118.0761832620973
 70
   192
  0
VERTEX
  5
132AC3
  8
0
 10
0.0
 20
0.0
 30
0.0
 70
   128
 71
     1
 72
     2
 73
     3
  0
VERTEX
  5
132AC4
  8
0
 10
0.0
 20
0.0
 30
0.0
 70
   128
 71
     4
 72
     1
 73
     3
  0
VERTEX
  5
132AC5
  8
0
 10
0.0
 20
0.0
 30
0.0
 70
   128
 71
     3
 72
     5
 73
     6
  0
VERTEX
  5
132AC6
  8
0
 10
0.0
 20
0.0
 30
0.0
 70
   128
 71
     6
 72
     4
 73
     3
  0
VERTEX
  5
132AC7
  8
0
 10
0.0
 20
0.0
 30
0.0
 70
   128
 71
     1
 72
     4
 73
     7
  0
VERTEX
  5
132AC8
  8
0
 10
0.0
 20
0.0
 30
0.0
 70
   128
 71
     8
 72
     1
 73
     7
  0
VERTEX
  5
132AC9
  8
0
 10
0.0
 20
0.0
 30
0.0
 70
   128
 71
     7
 72
     9
 73
    10
  0
VERTEX
  5
132ACA
  8
0
 10
0.0
 20
0.0
 30
0.0
 70
   128
 71
    10
 72
     8
 73
     7
  0
VERTEX
  5
132ACB
  8
0
 10
0.0
 20
0.0
 30
0.0
 70
   128
 71
    11
 72
    12
 73
     1
  0
VERTEX
  5
132ACC
  8
0
 10
0.0
 20
0.0
 30
0.0
 70
   128
 71
    13
 72
    11
 73
     1
  0
VERTEX
  5
132ACD
  8
0
 10
0.0
 20
0.0
 30
0.0
 70
   128
 71
    12
 72
     2
 73
     1
  0
VERTEX
  5
132ACE
  8
0
 10
0.0
 20
0.0
 30
0.0
 70
   128
 71
     1
 72
     8
 73
    14
  0
VERTEX
  5
132ACF
  8
0
 10
0.0
 20
0.0
 30
0.0
 70
   128
 71
    14
 72
    15
 73
    16
  0
VERTEX
  5
132AD0
  8
0
 10
0.0
 20
0.0
 30
0.0
 70
   128
 71
    14
 72
    16
 73
    13
  0
VERTEX
  5
132AD1
  8
0
 10
0.0
 20
0.0
 30
0.0
 70
   128
 71
     1
 72
    14
 73
    13
  0
SEQEND
  5
133020
  8
0
  0
POLYLINE
  5
132AD2
  8
0
 66
     1
 10
0.0
 20
0.0
 30
0.0
 70
    64
 71
    16
 72
    15
  0
VERTEX
  5
132AD3
  8
0
 10
-15.00000000000021
 20
-8.95636945092823
 30
133.4256258422077
 70
   192
  0
VERTEX
  5
132AD4
  8
0
 10
-15.00000000000024
 20
-33.42563709170499
 30
157.8948627494098
 70
   192
  0
VERTEX
  5
132AD5
  8
0
 10
-10.60438010387877
 20
-28.1234488242356
 30
167.0785222200809
 70
   192
  0
VERTEX
  5
132AD6
  8
0
 10
-0.0000000000000023
 20
4.034011605837484
 30
140.9256258422099
 70
   192
  0
VERTEX
  5
132AD7
  8
0
 10
-0.0000000000000223
 20
-25.92562584219995
 30
170.8852632902997
 70
   192
  0
VERTEX
  5
132AD8
  8
0
 10
-0.0000000000000213
 20
-8.97367630123799
 30
157.8775748461418
 70
   192
  0
VERTEX
  5
132AD9
  8
0
 10
0.0000000000000087
 20
12.21098613335896
 30
121.1846631682104
 70
   192
  0
VERTEX
  5
132ADA
  8
0
 10
-15.0000000000002
 20
-0.0000000000001461
 30
99.99999999999983
 70
   192
  0
VERTEX
  5
132ADB
  8
0
 10
0.0000000000000355
 20
15.00000000000003
 30
99.99999999999986
 70
   192
  0
VERTEX
  5
132ADC
  8
0
 10
-10.60438010387868
 20
10.60438010387911
 30
99.99999999999983
 70
   192
  0
VERTEX
  5
132ADD
  8
0
 10
-0.0000000000000494
 20
-40.92562584219995
 30
144.9045011766997
 70
   192
  0
VERTEX
  5
132ADE
  8
0
 10
-10.60438010387822
 20
-38.72782535917638
 30
148.7112032787815
 70
   192
  0
VERTEX
  5
132ADF
  8
0
 10
-0.0000000000000279
 20
-27.13091245502315
 30
133.3293190453229
 70
   192
  0
VERTEX
  5
132AE0
  8
0
 10
-10.60438010387819
 20
-10.60438010387975
 30
99.99999999999983
 70
   192
  0
VERTEX
  5
132AE1
  8
0
 10
-0.0000000000000128
 20
-14.99999999999997
 30
99.99999999999983
 70
   192
  0
VERTEX
  5
132AE2
  8
0
 10
-0.0000000000000152
 20
-18.12704508562609
 30
117.7341632968966
 70
   192
  0
VERTEX
  5
132AE3
  8
0
 10
0.0
 20
0.0
 30
0.0
 70
   128
 71
     1
 72
     2
 73
     3
  0
VERTEX
  5
132AE4
  8
0
 10
0.0
 20
0.0
 30
0.0
 70
   128
 71
     4
 72
     1
 73
     3
  0
VERTEX
  5
132AE5
  8
0
 10
0.0
 20
0.0
 30
0.0
 70
   128
 71
     3
 72
     5
 73
     6
  0
VERTEX
  5
132AE6
  8
0
 10
0.0
 20
0.0
 30
0.0
 70
   128
 71
     6
 72
     4
 73
     3
  0
VERTEX
  5
132AE7
  8
0
 10
0.0
 20
0.0
 30
0.0
 70
   128
 71
     1
 72
     4
 73
     7
  0
VERTEX
  5
132AE8
  8
0
 10
0.0
 20
0.0
 30
0.0
 70
   128
 71
     8
 72
     1
 73
     7
  0
VERTEX
  5
132AE9
  8
0
 10
0.0
 20
0.0
 30
0.0
 70
   128
 71
     7
 72
     9
 73
    10
  0
VERTEX
  5
132AEA
  8
0
 10
0.0
 20
0.0
 30
0.0
 70
   128
 71
    10
 72
     8
 73
     7
  0
VERTEX
  5
132AEB
  8
0
 10
0.0
 20
0.0
 30
0.0
 70
   128
 71
    11
 72
    12
 73
     1
  0
VERTEX
  5
132AEC
  8
0
 10
0.0
 20
0.0
 30
0.0
 70
   128
 71
    13
 72
    11
 73
     1
  0
VERTEX
  5
132AED
  8
0
 10
0.0
 20
0.0
 30
0.0
 70
   128
 71
    12
 72
     2
 73
     1
  0
VERTEX
  5
132AEE
  8
0
 10
0.0
 20
0.0
 30
0.0
 70
   128
 71
     1
 72
     8
 73
    14
  0
VERTEX
  5
132AEF
  8
0
 10
0.0
 20
0.0
 30
0.0
 70
   128
 71
    14
 72
    15
 73
    16
  0
VERTEX
  5
132AF0
  8
0
 10
0.0
 20
0.0
 30
0.0
 70
   128
 71
    14
 72
    16
 73
    13
  0
VERTEX
  5
132AF1
  8
0
 10
0.0
 20
0.0
 30
0.0
 70
   128
 71
     1
 72
    14
 73
    13
  0
SEQEND
  5
133021
  8
0
  0
POLYLINE
  5
132AF2
  8
0
 66
     1
 10
0.0
 20
0.0
 30
0.0
 70
    64
 71
    10
 72
     8
  0
VERTEX
  5
132AF3
  8
0
 10
-0.0000000000000577
 20
-46.30384757728996
 30
148.0096189431997
 70
   192
  0
VERTEX
  5
132AF4
  8
0
 10
-0.0000000000000494
 20
-40.92562584219995
 30
144.9045011766997
 70
   192
  0
VERTEX
  5
132AF5
  8
0
 10
-0.0000000000000223
 20
-25.92562584219995
 30
170.8852632902997
 70
   192
  0
VERTEX
  5
132AF6
  8
0
 10
-0.0000000000000306
 20
-31.30384757728995
 30
173.9903810567997
 70
   192
  0
VERTEX
  5
132AF7
  8
0
 10
-15.00000000000024
 20
-33.42563709170499
 30
157.8948627494098
 70
   192
  0
VERTEX
  5
132AF8
  8
0
 10
-14.99999999999988
 20
-38.80384757729163
 30
160.9999999999997
 70
   192
  0
VERTEX
  5
132AF9
  8
0
 10
-10.60438010387822
 20
-38.72782535917638
 30
148.7112032787815
 70
   192
  0
VERTEX
  5
132AFA
  8
0
 10
-10.60438010387918
 20
-44.10603762923073
 30
151.8163374386496
 70
   192
  0
VERTEX
  5
132AFB
  8
0
 10
-10.60438010387877
 20
-28.1234488242356
 30
167.0785222200809
 70
   192
  0
VERTEX
  5
132AFC
  8
0
 10
-10.60438010387914
 20
-33.50165752535398
 30
170.1836625613498
 70
   192
  0
VERTEX
  5
132AFD
  8
0
 10
0.0
 20
0.0
 30
0.0
 70
   128
 71
     2
 72
     1
 73
     8
  0
VERTEX
  5
132AFE
  8
0
 10
0.0
 20
0.0
 30
0.0
 70
   128
 71
     7
 72
     2
 73
     8
  0
VERTEX
  5
132AFF
  8
0
 10
0.0
 20
0.0
 30
0.0
 70
   128
 71
     6
 72
     5
 73
     7
  0
VERTEX
  5
132B00
  8
0
 10
0.0
 20
0.0
 30
0.0
 70
   128
 71
     8
 72
     6
 73
     7
  0
VERTEX
  5
132B01
  8
0
 10
0.0
 20
0.0
 30
0.0
 70
   128
 71
     5
 72
     6
 73
    10
  0
VERTEX
  5
132B02
  8
0
 10
0.0
 20
0.0
 30
0.0
 70
   128
 71
     9
 72
     5
 73
    10
  0
VERTEX
  5
132B03
  8
0
 10
0.0
 20
0.0
 30
0.0
 70
   128
 71
     4
 72
     3
 73
     9
  0
VERTEX
  5
132B04
  8
0
 10
0.0
 20
0.0
 30
0.0
 70
   128
 71
    10
 72
     4
 73
     9
  0
SEQEND
  5
133022
  8
0
  0
POLYLINE
  5
132B05
  8
0
 66
     1
 10
0.0
 20
0.0
 30
0.0
 70
    64
 71
    10
 72
     8
  0
VERTEX
  5
132B06
  8
0
 10
-0.0000000000000306
 20
-31.30384757728995
 30
173.9903810567997
 70
   192
  0
VERTEX
  5
132B07
  8
0
 10
-0.0000000000000223
 20
-25.92562584219995
 30
170.8852632902997
 70
   192
  0
VERTEX
  5
132B08
  8
0
 10
-0.0000000000000494
 20
-40.92562584219995
 30
144.9045011766997
 70
   192
  0
VERTEX
  5
132B09
  8
0
 10
-0.0000000000000577
 20
-46.30384757728996
 30
148.0096189431997
 70
   192
  0
VERTEX
  5
132B0A
  8
0
 10
15.00000000000021
 20
-33.42562584219888
 30
157.8948822335011
 70
   192
  0
VERTEX
  5
132B0B
  8
0
 10
14.99999999999979
 20
-38.80384757729161
 30
160.9999999999997
 70
   192
  0
VERTEX
  5
132B0C
  8
0
 10
10.60438010387869
 20
-28.1234357902585
 30
167.0785447948495
 70
   192
  0
VERTEX
  5
132B0D
  8
0
 10
10.60438010387909
 20
-33.50165752535396
 30
170.1836625613497
 70
   192
  0
VERTEX
  5
132B0E
  8
0
 10
10.60438010387869
 20
-38.72781589413945
 30
148.7112196721526
 70
   192
  0
VERTEX
  5
132B0F
  8
0
 10
10.60438010387905
 20
-44.10603762923071
 30
151.8163374386496
 70
   192
  0
VERTEX
  5
132B10
  8
0
 10
0.0
 20
0.0
 30
0.0
 70
   128
 71
     2
 72
     1
 73
    -8
  0
VERTEX
  5
132B11
  8
0
 10
0.0
 20
0.0
 30
0.0
 70
   128
 71
     7
 72
    -2
 73
     8
  0
VERTEX
  5
132B12
  8
0
 10
0.0
 20
0.0
 30
0.0
 70
   128
 71
     6
 72
     5
 73
    -7
  0
VERTEX
  5
132B13
  8
0
 10
0.0
 20
0.0
 30
0.0
 70
   128
 71
     8
 72
    -6
 73
     7
  0
VERTEX
  5
132B14
  8
0
 10
0.0
 20
0.0
 30
0.0
 70
   128
 71
     5
 72
     6
 73
   -10
  0
VERTEX
  5
132B15
  8
0
 10
0.0
 20
0.0
 30
0.0
 70
   128
 71
     9
 72
    -5
 73
    10
  0
VERTEX
  5
132B16
  8
0
 10
0.0
 20
0.0
 30
0.0
 70
   128
 71
     4
 72
     3
 73
    -9
  0
VERTEX
  5
132B17
  8
0
 10
0.0
 20
0.0
 30
0.0
 70
   128
 71
    10
 72
    -4
 73
     9
  0
SEQEND
  5
133023
  8
0
  0
POLYLINE
  5
132B18
  8
0
 66
     1
 10
0.0
 20
0.0
 30
0.0
 70
    64
 71
    16
 72
    15
  0
VERTEX
  5
132B19
  8
0
 10
15.00000000000025
 20
-8.956369450927946
 30
133.4256258422078
 70
   192
  0
VERTEX
  5
132B1A
  8
0
 10
15.00000000000021
 20
-33.42562584219888
 30
157.8948822335011
 70
   192
  0
VERTEX
  5
132B1B
  8
0
 10
10.60438010387869
 20
-38.72781589413945
 30
148.7112196721526
 70
   192
  0
VERTEX
  5
132B1C
  8
0
 10
-0.0000000000000494
 20
-40.92562584219995
 30
144.9045011766997
 70
   192
  0
VERTEX
  5
132B1D
  8
0
 10
-0.0000000000000279
 20
-27.13091245502315
 30
133.3293190453229
 70
   192
  0
VERTEX
  5
132B1E
  8
0
 10
-0.0000000000000152
 20
-18.12704508562609
 30
117.7341632968966
 70
   192
  0
VERTEX
  5
132B1F
  8
0
 10
-0.0000000000000128
 20
-14.99999999999997
 30
99.99999999999983
 70
   192
  0
VERTEX
  5
132B20
  8
0
 10
10.60438010387873
 20
-10.60439903347282
 30
99.99999999973961
 70
   192
  0
VERTEX
  5
132B21
  8
0
 10
15.00000000000026
 20
-0.0000224984435329
 30
99.99999999969403
 70
   192
  0
VERTEX
  5
132B22
  8
0
 10
-0.0000000000000023
 20
4.034011605837484
 30
140.9256258422099
 70
   192
  0
VERTEX
  5
132B23
  8
0
 10
-0.0000000000000213
 20
-8.97367630123799
 30
157.8775748461418
 70
   192
  0
VERTEX
  5
132B24
  8
0
 10
10.60438010387869
 20
-28.1234357902585
 30
167.0785447948495
 70
   192
  0
VERTEX
  5
132B25
  8
0
 10
-0.0000000000000223
 20
-25.92562584219995
 30
170.8852632902997
 70
   192
  0
VERTEX
  5
132B26
  8
0
 10
10.60438010387873
 20
10.60435403658632
 30
99.9999999996309
 70
   192
  0
VERTEX
  5
132B27
  8
0
 10
0.0000000000000355
 20
15.00000000000003
 30
99.99999999999986
 70
   192
  0
VERTEX
  5
132B28
  8
0
 10
0.0000000000000087
 20
12.21098613335896
 30
121.1846631682104
 70
   192
  0
VERTEX
  5
132B29
  8
0
 10
0.0
 20
0.0
 30
0.0
 70
   128
 71
     1
 72
     2
 73
     3
  0
VERTEX
  5
132B2A
  8
0
 10
0.0
 20
0.0
 30
0.0
 70
   128
 71
     3
 72
     4
 73
     5
  0
VERTEX
  5
132B2B
  8
0
 10
0.0
 20
0.0
 30
0.0
 70
   128
 71
     6
 72
     7
 73
     8
  0
VERTEX
  5
132B2C
  8
0
 10
0.0
 20
0.0
 30
0.0
 70
   128
 71
     9
 72
     1
 73
     6
  0
VERTEX
  5
132B2D
  8
0
 10
0.0
 20
0.0
 30
0.0
 70
   128
 71
     8
 72
     9
 73
     6
  0
VERTEX
  5
132B2E
  8
0
 10
0.0
 20
0.0
 30
0.0
 70
   128
 71
     1
 72
    10
 73
    11
  0
VERTEX
  5
132B2F
  8
0
 10
0.0
 20
0.0
 30
0.0
 70
   128
 71
    12
 72
     1
 73
    11
  0
VERTEX
  5
132B30
  8
0
 10
0.0
 20
0.0
 30
0.0
 70
   128
 71
    11
 72
    13
 73
    12
  0
VERTEX
  5
132B31
  8
0
 10
0.0
 20
0.0
 30
0.0
 70
   128
 71
    12
 72
     2
 73
     1
  0
VERTEX
  5
132B32
  8
0
 10
0.0
 20
0.0
 30
0.0
 70
   128
 71
     1
 72
     9
 73
    14
  0
VERTEX
  5
132B33
  8
0
 10
0.0
 20
0.0
 30
0.0
 70
   128
 71
    10
 72
     1
 73
    14
  0
VERTEX
  5
132B34
  8
0
 10
0.0
 20
0.0
 30
0.0
 70
   128
 71
    14
 72
    15
 73
    16
  0
VERTEX
  5
132B35
  8
0
 10
0.0
 20
0.0
 30
0.0
 70
   128
 71
    16
 72
    10
 73
    14
  0
VERTEX
  5
132B36
  8
0
 10
0.0
 20
0.0
 30
0.0
 70
   128
 71
     1
 72
     3
 73
     5
  0
VERTEX
  5
132B37
  8
0
 10
0.0
 20
0.0
 30
0.0
 70
   128
 71
     6
 72
     1
 73
     5
  0
SEQEND
  5
133024
  8
0
  0
POLYLINE
  5
132B38
  8
0
 66
     1
 10
0.0
 20
0.0
 30
0.0
 70
    64
 71
    16
 72
    16
  0
VERTEX
  5
132B39
  8
0
 10
0.0000000000000258
 20
15.00000000000001
 30
14.49999999999998
 70
   192
  0
VERTEX
  5
132B3A
  8
0
 10
10.60438010387875
 20
10.60438010387909
 30
14.49999999999998
 70
   192
  0
VERTEX
  5
132B3B
  8
0
 10
15.00000000000025
 20
0.0000000000000051
 30
14.49999999999997
 70
   192
  0
VERTEX
  5
132B3C
  8
0
 10
10.60438010387869
 20
-10.60438010387907
 30
14.49999999999997
 70
   192
  0
VERTEX
  5
132B3D
  8
0
 10
-0.0000000000000204
 20
-15.00000000000196
 30
14.49999999999997
 70
   192
  0
VERTEX
  5
132B3E
  8
0
 10
-10.60438010387819
 20
-10.60438010387977
 30
14.49999999999996
 70
   192
  0
VERTEX
  5
132B3F
  8
0
 10
-15.00000000000021
 20
-0.0000000000001517
 30
14.49999999999997
 70
   192
  0
VERTEX
  5
132B40
  8
0
 10
-10.60438010387869
 20
10.60438010387908
 30
14.49999999999997
 70
   192
  0
VERTEX
  5
132B41
  8
0
 10
0.0000000000000242
 20
14.00000000000001
 30
14.49999999999998
 70
   192
  0
VERTEX
  5
132B42
  8
0
 10
-9.897421430284915
 20
9.897421430285375
 30
14.49999999999997
 70
   192
  0
VERTEX
  5
132B43
  8
0
 10
-14.00000000000024
 20
-0.0000000000000187
 30
14.49999999999997
 70
   192
  0
VERTEX
  5
132B44
  8
0
 10
-9.89742143028495
 20
-9.897421430285393
 30
14.49999999999996
 70
   192
  0
VERTEX
  5
132B45
  8
0
 10
-0.0000000000000221
 20
-14.00000000000431
 30
14.49999999999996
 70
   192
  0
VERTEX
  5
132B46
  8
0
 10
9.897421430284401
 20
-9.897421430286007
 30
14.49999999999996
 70
   192
  0
VERTEX
  5
132B47
  8
0
 10
14.0000000000002
 20
-0.0000000000001217
 30
14.49999999999997
 70
   192
  0
VERTEX
  5
132B48
  8
0
 10
9.897421430284954
 20
9.897421430285403
 30
14.49999999999998
 70
   192
  0
VERTEX
  5
132B49
  8
0
 10
0.0
 20
0.0
 30
0.0
 70
   128
 71
    -1
 72
     9
 73
   -10
  0
VERTEX
  5
132B4A
  8
0
 10
0.0
 20
0.0
 30
0.0
 70
   128
 71
     8
 72
    -1
 73
   -10
  0
VERTEX
  5
132B4B
  8
0
 10
0.0
 20
0.0
 30
0.0
 70
   128
 71
   -11
 72
     7
 73
    -8
  0
VERTEX
  5
132B4C
  8
0
 10
0.0
 20
0.0
 30
0.0
 70
   128
 71
    10
 72
   -11
 73
    -8
  0
VERTEX
  5
132B4D
  8
0
 10
0.0
 20
0.0
 30
0.0
 70
   128
 71
   -12
 72
     6
 73
    -7
  0
VERTEX
  5
132B4E
  8
0
 10
0.0
 20
0.0
 30
0.0
 70
   128
 71
    11
 72
   -12
 73
    -7
  0
VERTEX
  5
132B4F
  8
0
 10
0.0
 20
0.0
 30
0.0
 70
   128
 71
   -13
 72
     5
 73
    -6
  0
VERTEX
  5
132B50
  8
0
 10
0.0
 20
0.0
 30
0.0
 70
   128
 71
    12
 72
   -13
 73
    -6
  0
VERTEX
  5
132B51
  8
0
 10
0.0
 20
0.0
 30
0.0
 70
   128
 71
   -14
 72
     4
 73
    -5
  0
VERTEX
  5
132B52
  8
0
 10
0.0
 20
0.0
 30
0.0
 70
   128
 71
    13
 72
   -14
 73
    -5
  0
VERTEX
  5
132B53
  8
0
 10
0.0
 20
0.0
 30
0.0
 70
   128
 71
   -15
 72
     3
 73
    -4
  0
VERTEX
  5
132B54
  8
0
 10
0.0
 20
0.0
 30
0.0
 70
   128
 71
    14
 72
   -15
 73
    -4
  0
VERTEX
  5
132B55
  8
0
 10
0.0
 20
0.0
 30
0.0
 70
   128
 71
   -16
 72
     2
 73
    -3
  0
VERTEX
  5
132B56
  8
0
 10
0.0
 20
0.0
 30
0.0
 70
   128
 71
    15
 72
   -16
 73
    -3
  0
VERTEX
  5
132B57
  8
0
 10
0.0
 20
0.0
 30
0.0
 70
   128
 71
    -9
 72
     1
 73
    -2
  0
VERTEX
  5
132B58
  8
0
 10
0.0
 20
0.0
 30
0.0
 70
   128
 71
    16
 72
    -9
 73
    -2
  0
SEQEND
  5
133025
  8
0
  0
ENDBLK
  5
13300C
  8
0
  0
BLOCK
  8
0
  2
*X2
 70
     1
 10
0.0
 20
0.0
 30
0.0
  3
*X2
  1

  0
POLYLINE
  5
132B5A
  8
0
 66
     1
 10
0.0
 20
0.0
 30
0.0
 70
    64
 71
    32
 72
    32
  0
VERTEX
  5
132B5B
  8
0
 10
-0.0000000000000577
 20
-46.30384757729022
 30
148.0096189432333
 70
   192
  0
VERTEX
  5
132B5C
  8
0
 10
-5.521420643428153
 20
-45.77725983525843
 30
148.9216956670753
 70
   192
  0
VERTEX
  5
132B5D
  8
0
 10
-10.60660171779827
 20
-44.10714843618926
 30
151.8144134645629
 70
   192
  0
VERTEX
  5
132B5E
  8
0
 10
-13.9468245159365
 20
-41.5645578990041
 30
156.2183094578112
 70
   192
  0
VERTEX
  5
132B5F
  8
0
 10
-15.00000000000002
 20
-38.80384757728996
 30
160.9999999999998
 70
   192
  0
VERTEX
  5
132B60
  8
0
 10
-13.94682451593646
 20
-36.04313725557582
 30
165.7816905421882
 70
   192
  0
VERTEX
  5
132B61
  8
0
 10
-10.60660171779821
 20
-33.50054671839068
 30
170.1855865354365
 70
   192
  0
VERTEX
  5
132B62
  8
0
 10
-5.521420643428103
 20
-31.83043531932151
 30
173.0783043329241
 70
   192
  0
VERTEX
  5
132B63
  8
0
 10
-0.0000000000000306
 20
-31.30384757728971
 30
173.9903810567661
 70
   192
  0
VERTEX
  5
132B64
  8
0
 10
5.521420643428065
 20
-31.83043531932149
 30
173.0783043329241
 70
   192
  0
VERTEX
  5
132B65
  8
0
 10
10.60660171779818
 20
-33.50054671839067
 30
170.1855865354365
 70
   192
  0
VERTEX
  5
132B66
  8
0
 10
13.94682451593641
 20
-36.04313725557583
 30
165.7816905421882
 70
   192
  0
VERTEX
  5
132B67
  8
0
 10
14.99999999999993
 20
-38.80384757728997
 30
160.9999999999997
 70
   192
  0
VERTEX
  5
132B68
  8
0
 10
13.94682451593637
 20
-41.56455789900409
 30
156.2183094578112
 70
   192
  0
VERTEX
  5
132B69
  8
0
 10
10.60660171779813
 20
-44.10714843618924
 30
151.8144134645628
 70
   192
  0
VERTEX
  5
132B6A
  8
0
 10
5.521420643428016
 20
-45.77725983525843
 30
148.9216956670753
 70
   192
  0
VERTEX
  5
132B6B
  8
0
 10
-0.0000000000000306
 20
-31.67884968253238
 30
173.3408638535979
 70
   192
  0
VERTEX
  5
132B6C
  8
0
 10
-5.245349813429063
 20
-32.17910805674412
 30
172.4743909325514
 70
   192
  0
VERTEX
  5
132B6D
  8
0
 10
-10.07627202027967
 20
-33.76571394701266
 30
169.7263089190184
 70
   192
  0
VERTEX
  5
132B6E
  8
0
 10
-13.24948380081659
 20
-36.18117505043806
 30
165.5426075641795
 70
   192
  0
VERTEX
  5
132B6F
  8
0
 10
-14.25000054924002
 20
-38.80384995715267
 30
161.000001374014
 70
   192
  0
VERTEX
  5
132B70
  8
0
 10
-13.24948380081657
 20
-41.42652486386726
 30
156.4573951838485
 70
   192
  0
VERTEX
  5
132B71
  8
0
 10
-10.07627202027965
 20
-43.84198596729264
 30
152.2736938290096
 70
   192
  0
VERTEX
  5
132B72
  8
0
 10
-5.245349813429064
 20
-45.42859185756114
 30
149.5256118154767
 70
   192
  0
VERTEX
  5
132B73
  8
0
 10
-0.000000000000057
 20
-45.92885023177287
 30
148.6591388944302
 70
   192
  0
VERTEX
  5
132B74
  8
0
 10
5.245349813428945
 20
-45.42859185756113
 30
149.5256118154767
 70
   192
  0
VERTEX
  5
132B75
  8
0
 10
10.07627202027954
 20
-43.84198596729259
 30
152.2736938290096
 70
   192
  0
VERTEX
  5
132B76
  8
0
 10
13.24948380081647
 20
-41.42652486386721
 30
156.4573951838486
 70
   192
  0
VERTEX
  5
132B77
  8
0
 10
14.25000054923993
 20
-38.80384995715263
 30
161.000001374014
 70
   192
  0
VERTEX
  5
132B78
  8
0
 10
13.24948380081651
 20
-36.18117505043801
 30
165.5426075641795
 70
   192
  0
VERTEX
  5
132B79
  8
0
 10
10.0762720202796
 20
-33.76571394701264
 30
169.7263089190184
 70
   192
  0
VERTEX
  5
132B7A
  8
0
 10
5.245349813428994
 20
-32.17910805674412
 30
172.4743909325514
 70
   192
  0
VERTEX
  5
132B7B
  8
0
 10
0.0
 20
0.0
 30
0.0
 70
   128
 71
    -9
 72
    17
 73
   -18
  0
VERTEX
  5
132B7C
  8
0
 10
0.0
 20
0.0
 30
0.0
 70
   128
 71
     8
 72
    -9
 73
   -18
  0
VERTEX
  5
132B7D
  8
0
 10
0.0
 20
0.0
 30
0.0
 70
   128
 71
   -19
 72
     7
 73
    -8
  0
VERTEX
  5
132B7E
  8
0
 10
0.0
 20
0.0
 30
0.0
 70
   128
 71
    18
 72
   -19
 73
    -8
  0
VERTEX
  5
132B7F
  8
0
 10
0.0
 20
0.0
 30
0.0
 70
   128
 71
   -20
 72
     6
 73
    -7
  0
VERTEX
  5
132B80
  8
0
 10
0.0
 20
0.0
 30
0.0
 70
   128
 71
    19
 72
   -20
 73
    -7
  0
VERTEX
  5
132B81
  8
0
 10
0.0
 20
0.0
 30
0.0
 70
   128
 71
   -21
 72
     5
 73
    -6
  0
VERTEX
  5
132B82
  8
0
 10
0.0
 20
0.0
 30
0.0
 70
   128
 71
    20
 72
   -21
 73
    -6
  0
VERTEX
  5
132B83
  8
0
 10
0.0
 20
0.0
 30
0.0
 70
   128
 71
   -22
 72
     4
 73
    -5
  0
VERTEX
  5
132B84
  8
0
 10
0.0
 20
0.0
 30
0.0
 70
   128
 71
    21
 72
   -22
 73
    -5
  0
VERTEX
  5
132B85
  8
0
 10
0.0
 20
0.0
 30
0.0
 70
   128
 71
   -23
 72
     3
 73
    -4
  0
VERTEX
  5
132B86
  8
0
 10
0.0
 20
0.0
 30
0.0
 70
   128
 71
    22
 72
   -23
 73
    -4
  0
VERTEX
  5
132B87
  8
0
 10
0.0
 20
0.0
 30
0.0
 70
   128
 71
   -24
 72
     2
 73
    -3
  0
VERTEX
  5
132B88
  8
0
 10
0.0
 20
0.0
 30
0.0
 70
   128
 71
    23
 72
   -24
 73
    -3
  0
VERTEX
  5
132B89
  8
0
 10
0.0
 20
0.0
 30
0.0
 70
   128
 71
   -25
 72
     1
 73
    -2
  0
VERTEX
  5
132B8A
  8
0
 10
0.0
 20
0.0
 30
0.0
 70
   128
 71
    24
 72
   -25
 73
    -2
  0
VERTEX
  5
132B8B
  8
0
 10
0.0
 20
0.0
 30
0.0
 70
   128
 71
   -26
 72
    16
 73
    -1
  0
VERTEX
  5
132B8C
  8
0
 10
0.0
 20
0.0
 30
0.0
 70
   128
 71
    25
 72
   -26
 73
    -1
  0
VERTEX
  5
132B8D
  8
0
 10
0.0
 20
0.0
 30
0.0
 70
   128
 71
   -27
 72
    15
 73
   -16
  0
VERTEX
  5
132B8E
  8
0
 10
0.0
 20
0.0
 30
0.0
 70
   128
 71
    26
 72
   -27
 73
   -16
  0
VERTEX
  5
132B8F
  8
0
 10
0.0
 20
0.0
 30
0.0
 70
   128
 71
   -28
 72
    14
 73
   -15
  0
VERTEX
  5
132B90
  8
0
 10
0.0
 20
0.0
 30
0.0
 70
   128
 71
    27
 72
   -28
 73
   -15
  0
VERTEX
  5
132B91
  8
0
 10
0.0
 20
0.0
 30
0.0
 70
   128
 71
   -29
 72
    13
 73
   -14
  0
VERTEX
  5
132B92
  8
0
 10
0.0
 20
0.0
 30
0.0
 70
   128
 71
    28
 72
   -29
 73
   -14
  0
VERTEX
  5
132B93
  8
0
 10
0.0
 20
0.0
 30
0.0
 70
   128
 71
   -30
 72
    12
 73
   -13
  0
VERTEX
  5
132B94
  8
0
 10
0.0
 20
0.0
 30
0.0
 70
   128
 71
    29
 72
   -30
 73
   -13
  0
VERTEX
  5
132B95
  8
0
 10
0.0
 20
0.0
 30
0.0
 70
   128
 71
   -31
 72
    11
 73
   -12
  0
VERTEX
  5
132B96
  8
0
 10
0.0
 20
0.0
 30
0.0
 70
   128
 71
    30
 72
   -31
 73
   -12
  0
VERTEX
  5
132B97
  8
0
 10
0.0
 20
0.0
 30
0.0
 70
   128
 71
   -32
 72
    10
 73
   -11
  0
VERTEX
  5
132B98
  8
0
 10
0.0
 20
0.0
 30
0.0
 70
   128
 71
    31
 72
   -32
 73
   -11
  0
VERTEX
  5
132B99
  8
0
 10
0.0
 20
0.0
 30
0.0
 70
   128
 71
   -17
 72
     9
 73
   -10
  0
VERTEX
  5
132B9A
  8
0
 10
0.0
 20
0.0
 30
0.0
 70
   128
 71
    32
 72
   -17
 73
   -10
  0
SEQEND
  5
133028
  8
0
  0
POLYLINE
  5
132B9B
  8
0
 66
     1
 10
0.0
 20
0.0
 30
0.0
 70
    64
 71
    18
 72
    16
  0
VERTEX
  5
132B9C
  8
0
 10
-0.0000000000000911
 20
-67.95448267190093
 30
160.5096189432337
 70
   192
  0
VERTEX
  5
132B9D
  8
0
 10
-0.0000000000000577
 20
-46.30384757729022
 30
148.0096189432333
 70
   192
  0
VERTEX
  5
132B9E
  8
0
 10
-0.0000000000000306
 20
-31.30384757728971
 30
173.9903810567661
 70
   192
  0
VERTEX
  5
132B9F
  8
0
 10
-0.000000000000064
 20
-52.95448267190041
 30
186.4903810567665
 70
   192
  0
VERTEX
  5
132BA0
  8
0
 10
-15.00000000000002
 20
-38.80384757728996
 30
160.9999999999998
 70
   192
  0
VERTEX
  5
132BA1
  8
0
 10
-15.00000000000006
 20
-60.45448267190071
 30
173.5
 70
   192
  0
VERTEX
  5
132BA2
  8
0
 10
-10.60660171779821
 20
-33.50054671839068
 30
170.1855865354365
 70
   192
  0
VERTEX
  5
132BA3
  8
0
 10
-10.60660171779829
 20
-55.15118181300141
 30
182.6855865354369
 70
   192
  0
VERTEX
  5
132BA4
  8
0
 10
-10.60660171779827
 20
-44.10714843618926
 30
151.8144134645629
 70
   192
  0
VERTEX
  5
132BA5
  8
0
 10
-10.60660171779827
 20
-65.75778353079997
 30
164.3144134645633
 70
   192
  0
VERTEX
  5
132BA6
  8
0
 10
-13.94682451593646
 20
-36.04313725557582
 30
165.7816905421882
 70
   192
  0
VERTEX
  5
132BA7
  8
0
 10
-13.94682451593652
 20
-57.69377235018656
 30
178.2816905421885
 70
   192
  0
VERTEX
  5
132BA8
  8
0
 10
-5.521420643428103
 20
-31.83043531932151
 30
173.0783043329241
 70
   192
  0
VERTEX
  5
132BA9
  8
0
 10
-5.521420643428162
 20
-53.48107041393221
 30
185.5783043329245
 70
   192
  0
VERTEX
  5
132BAA
  8
0
 10
-5.521420643428153
 20
-45.77725983525843
 30
148.9216956670753
 70
   192
  0
VERTEX
  5
132BAB
  8
0
 10
-5.521420643428164
 20
-67.42789492986915
 30
161.4216956670757
 70
   192
  0
VERTEX
  5
132BAC
  8
0
 10
-13.9468245159365
 20
-41.5645578990041
 30
156.2183094578112
 70
   192
  0
VERTEX
  5
132BAD
  8
0
 10
-13.9468245159365
 20
-63.21519299361484
 30
168.7183094578116
 70
   192
  0
VERTEX
  5
132BAE
  8
0
 10
0.0
 20
0.0
 30
0.0
 70
   128
 71
     5
 72
     6
 73
   -12
  0
VERTEX
  5
132BAF
  8
0
 10
0.0
 20
0.0
 30
0.0
 70
   128
 71
    11
 72
    -5
 73
    12
  0
VERTEX
  5
132BB0
  8
0
 10
0.0
 20
0.0
 30
0.0
 70
   128
 71
     8
 72
     7
 73
   -11
  0
VERTEX
  5
132BB1
  8
0
 10
0.0
 20
0.0
 30
0.0
 70
   128
 71
    12
 72
    -8
 73
    11
  0
VERTEX
  5
132BB2
  8
0
 10
0.0
 20
0.0
 30
0.0
 70
   128
 71
     7
 72
     8
 73
   -14
  0
VERTEX
  5
132BB3
  8
0
 10
0.0
 20
0.0
 30
0.0
 70
   128
 71
    13
 72
    -7
 73
    14
  0
VERTEX
  5
132BB4
  8
0
 10
0.0
 20
0.0
 30
0.0
 70
   128
 71
     4
 72
     3
 73
   -13
  0
VERTEX
  5
132BB5
  8
0
 10
0.0
 20
0.0
 30
0.0
 70
   128
 71
    14
 72
    -4
 73
    13
  0
VERTEX
  5
132BB6
  8
0
 10
0.0
 20
0.0
 30
0.0
 70
   128
 71
     2
 72
     1
 73
   -16
  0
VERTEX
  5
132BB7
  8
0
 10
0.0
 20
0.0
 30
0.0
 70
   128
 71
    15
 72
    -2
 73
    16
  0
VERTEX
  5
132BB8
  8
0
 10
0.0
 20
0.0
 30
0.0
 70
   128
 71
    10
 72
     9
 73
   -15
  0
VERTEX
  5
132BB9
  8
0
 10
0.0
 20
0.0
 30
0.0
 70
   128
 71
    16
 72
   -10
 73
    15
  0
VERTEX
  5
132BBA
  8
0
 10
0.0
 20
0.0
 30
0.0
 70
   128
 71
     9
 72
    10
 73
   -18
  0
VERTEX
  5
132BBB
  8
0
 10
0.0
 20
0.0
 30
0.0
 70
   128
 71
    17
 72
    -9
 73
    18
  0
VERTEX
  5
132BBC
  8
0
 10
0.0
 20
0.0
 30
0.0
 70
   128
 71
     6
 72
     5
 73
   -17
  0
VERTEX
  5
132BBD
  8
0
 10
0.0
 20
0.0
 30
0.0
 70
   128
 71
    18
 72
    -6
 73
    17
  0
SEQEND
  5
133029
  8
0
  0
POLYLINE
  5
132BBE
  8
0
 66
     1
 10
0.0
 20
0.0
 30
0.0
 70
    64
 71
    22
 72
    20
  0
VERTEX
  5
132BBF
  8
0
 10
-0.0000000000000914
 20
-68.13749535667313
 30
161.1926316747786
 70
   192
  0
VERTEX
  5
132BC0
  8
0
 10
-0.0000000000000911
 20
-67.95448267190093
 30
160.5096189432337
 70
   192
  0
VERTEX
  5
132BC1
  8
0
 10
-0.000000000000064
 20
-52.95448267190041
 30
186.4903810567665
 70
   192
  0
VERTEX
  5
132BC2
  8
0
 10
-0.0000000000000652
 20
-53.63749539091263
 30
186.3073683252216
 70
   192
  0
VERTEX
  5
132BC3
  8
0
 10
-15.00000000000006
 20
-60.45448267190071
 30
173.5
 70
   192
  0
VERTEX
  5
132BC4
  8
0
 10
-14.49999996576006
 20
-60.8874953737929
 30
173.7500000000001
 70
   192
  0
VERTEX
  5
132BC5
  8
0
 10
-10.60660171779829
 20
-55.15118181300141
 30
182.6855865354369
 70
   192
  0
VERTEX
  5
132BC6
  8
0
 10
-10.25304830299365
 20
-55.76097122229594
 30
182.6294002966214
 70
   192
  0
VERTEX
  5
132BC7
  8
0
 10
-10.60660171779827
 20
-65.75778353079997
 30
164.3144134645633
 70
   192
  0
VERTEX
  5
132BC8
  8
0
 10
-10.25304830299367
 20
-66.0140195252899
 30
164.8705997033788
 70
   192
  0
VERTEX
  5
132BC9
  8
0
 10
-13.94682451593652
 20
-57.69377235018656
 30
178.2816905421885
 70
   192
  0
VERTEX
  5
132BCA
  8
0
 10
-13.48193033356934
 20
-58.21880873577103
 30
178.3723008465339
 70
   192
  0
VERTEX
  5
132BCB
  8
0
 10
-0.0000000000000648
 20
-53.45382650500879
 30
186.4907592325941
 70
   192
  0
VERTEX
  5
132BCC
  8
0
 10
-0.0000000000000644
 20
-53.20524005125144
 30
186.5573677812504
 70
   192
  0
VERTEX
  5
132BCD
  8
0
 10
-5.521420643428162
 20
-53.48107041393221
 30
185.5783043329245
 70
   192
  0
VERTEX
  5
132BCE
  8
0
 10
-5.337373276043648
 20
-54.14653020700803
 30
185.425694160923
 70
   192
  0
VERTEX
  5
132BCF
  8
0
 10
-0.0000000000000915
 20
-68.20448209832897
 30
160.9418743000148
 70
   192
  0
VERTEX
  5
132BD0
  8
0
 10
-5.337373276043675
 20
-67.62846054057776
 30
162.0743058390772
 70
   192
  0
VERTEX
  5
132BD1
  8
0
 10
-5.521420643428164
 20
-67.42789492986915
 30
161.4216956670757
 70
   192
  0
VERTEX
  5
132BD2
  8
0
 10
-0.0000000000000914
 20
-68.13787356669586
 30
160.6932878416961
 70
   192
  0
VERTEX
  5
132BD3
  8
0
 10
-13.9468245159365
 20
-63.21519299361484
 30
168.7183094578116
 70
   192
  0
VERTEX
  5
132BD4
  8
0
 10
-13.48193033356935
 20
-63.5561820118148
 30
169.1276991534662
 70
   192
  0
VERTEX
  5
132BD5
  8
0
 10
0.0
 20
0.0
 30
0.0
 70
   128
 71
     5
 72
     6
 73
   -12
  0
VERTEX
  5
132BD6
  8
0
 10
0.0
 20
0.0
 30
0.0
 70
   128
 71
    11
 72
    -5
 73
    12
  0
VERTEX
  5
132BD7
  8
0
 10
0.0
 20
0.0
 30
0.0
 70
   128
 71
     8
 72
     7
 73
   -11
  0
VERTEX
  5
132BD8
  8
0
 10
0.0
 20
0.0
 30
0.0
 70
   128
 71
    12
 72
    -8
 73
    11
  0
VERTEX
  5
132BD9
  8
0
 10
0.0
 20
0.0
 30
0.0
 70
   128
 71
     7
 72
     8
 73
   -16
  0
VERTEX
  5
132BDA
  8
0
 10
0.0
 20
0.0
 30
0.0
 70
   128
 71
    15
 72
    -7
 73
    16
  0
VERTEX
  5
132BDB
  8
0
 10
0.0
 20
0.0
 30
0.0
 70
   128
 71
    16
 72
     4
 73
    13
  0
VERTEX
  5
132BDC
  8
0
 10
0.0
 20
0.0
 30
0.0
 70
   128
 71
    14
 72
    15
 73
    16
  0
VERTEX
  5
132BDD
  8
0
 10
0.0
 20
0.0
 30
0.0
 70
   128
 71
    13
 72
    14
 73
    16
  0
VERTEX
  5
132BDE
  8
0
 10
0.0
 20
0.0
 30
0.0
 70
   128
 71
    14
 72
     3
 73
    15
  0
VERTEX
  5
132BDF
  8
0
 10
0.0
 20
0.0
 30
0.0
 70
   128
 71
    20
 72
     9
 73
    19
  0
VERTEX
  5
132BE0
  8
0
 10
0.0
 20
0.0
 30
0.0
 70
   128
 71
    19
 72
     2
 73
    20
  0
VERTEX
  5
132BE1
  8
0
 10
0.0
 20
0.0
 30
0.0
 70
   128
 71
    17
 72
    10
 73
     9
  0
VERTEX
  5
132BE2
  8
0
 10
0.0
 20
0.0
 30
0.0
 70
   128
 71
    20
 72
    17
 73
     9
  0
VERTEX
  5
132BE3
  8
0
 10
0.0
 20
0.0
 30
0.0
 70
   128
 71
    17
 72
     1
 73
    18
  0
VERTEX
  5
132BE4
  8
0
 10
0.0
 20
0.0
 30
0.0
 70
   128
 71
    18
 72
    10
 73
    17
  0
VERTEX
  5
132BE5
  8
0
 10
0.0
 20
0.0
 30
0.0
 70
   128
 71
     9
 72
    10
 73
   -22
  0
VERTEX
  5
132BE6
  8
0
 10
0.0
 20
0.0
 30
0.0
 70
   128
 71
    21
 72
    -9
 73
    22
  0
VERTEX
  5
132BE7
  8
0
 10
0.0
 20
0.0
 30
0.0
 70
   128
 71
     6
 72
     5
 73
   -21
  0
VERTEX
  5
132BE8
  8
0
 10
0.0
 20
0.0
 30
0.0
 70
   128
 71
    22
 72
    -6
 73
    21
  0
SEQEND
  5
13302A
  8
0
  0
POLYLINE
  5
132BE9
  8
0
 66
     1
 10
0.0
 20
0.0
 30
0.0
 70
    64
 71
    32
 72
    32
  0
VERTEX
  5
132BEA
  8
0
 10
-0.0000000000000652
 20
-53.63749539091263
 30
186.3073683252216
 70
   192
  0
VERTEX
  5
132BEB
  8
0
 10
-5.337373276043648
 20
-54.14653020700803
 30
185.425694160923
 70
   192
  0
VERTEX
  5
132BEC
  8
0
 10
-10.25304830299365
 20
-55.76097122229594
 30
182.6294002966214
 70
   192
  0
VERTEX
  5
132BED
  8
0
 10
-13.48193033356934
 20
-58.21880873577103
 30
178.3723008465339
 70
   192
  0
VERTEX
  5
132BEE
  8
0
 10
-14.49999996576006
 20
-60.8874953737929
 30
173.7500000000001
 70
   192
  0
VERTEX
  5
132BEF
  8
0
 10
-13.48193033356935
 20
-63.5561820118148
 30
169.1276991534662
 70
   192
  0
VERTEX
  5
132BF0
  8
0
 10
-10.25304830299367
 20
-66.0140195252899
 30
164.8705997033788
 70
   192
  0
VERTEX
  5
132BF1
  8
0
 10
-5.337373276043675
 20
-67.62846054057776
 30
162.0743058390772
 70
   192
  0
VERTEX
  5
132BF2
  8
0
 10
-0.0000000000000914
 20
-68.13749535667313
 30
161.1926316747786
 70
   192
  0
VERTEX
  5
132BF3
  8
0
 10
5.337373276043491
 20
-67.62846054057775
 30
162.0743058390772
 70
   192
  0
VERTEX
  5
132BF4
  8
0
 10
10.25304830299349
 20
-66.01401952528987
 30
164.8705997033788
 70
   192
  0
VERTEX
  5
132BF5
  8
0
 10
13.48193033356918
 20
-63.55618201181476
 30
169.1276991534662
 70
   192
  0
VERTEX
  5
132BF6
  8
0
 10
14.4999999657599
 20
-60.88749537379286
 30
173.7500000000001
 70
   192
  0
VERTEX
  5
132BF7
  8
0
 10
13.48193033356919
 20
-58.21880873577098
 30
178.372300846534
 70
   192
  0
VERTEX
  5
132BF8
  8
0
 10
10.25304830299351
 20
-55.76097122229591
 30
182.6294002966214
 70
   192
  0
VERTEX
  5
132BF9
  8
0
 10
5.337373276043518
 20
-54.14653020700801
 30
185.4256941609229
 70
   192
  0
VERTEX
  5
132BFA
  8
0
 10
-0.0000000000000647
 20
-54.51249538190767
 30
184.791823884196
 70
   192
  0
VERTEX
  5
132BFB
  8
0
 10
4.693207540939639
 20
-54.96009496206494
 30
184.0165586699171
 70
   192
  0
VERTEX
  5
132BFC
  8
0
 10
9.015611448652074
 20
-56.37968964946668
 30
181.5577485451826
 70
   192
  0
VERTEX
  5
132BFD
  8
0
 10
11.85480082345545
 20
-58.54089160332297
 30
177.8144369556865
 70
   192
  0
VERTEX
  5
132BFE
  8
0
 10
12.7499999837699
 20
-60.88749537379289
 30
173.7500000000001
 70
   192
  0
VERTEX
  5
132BFF
  8
0
 10
11.85480082345541
 20
-63.23409914426281
 30
169.6855630443136
 70
   192
  0
VERTEX
  5
132C00
  8
0
 10
9.015611448652018
 20
-65.3953010981191
 30
165.9422514548176
 70
   192
  0
VERTEX
  5
132C01
  8
0
 10
4.69320754093959
 20
-66.81489578552086
 30
163.4834413300831
 70
   192
  0
VERTEX
  5
132C02
  8
0
 10
-0.0000000000000898
 20
-67.26249536567809
 30
162.7081761158042
 70
   192
  0
VERTEX
  5
132C03
  8
0
 10
-4.693207540939795
 20
-66.81489578552087
 30
163.4834413300831
 70
   192
  0
VERTEX
  5
132C04
  8
0
 10
-9.01561144865223
 20
-65.39530109811913
 30
165.9422514548177
 70
   192
  0
VERTEX
  5
132C05
  8
0
 10
-11.8548008234556
 20
-63.23409914426283
 30
169.6855630443137
 70
   192
  0
VERTEX
  5
132C06
  8
0
 10
-12.74999998377006
 20
-60.88749537379289
 30
173.7500000000001
 70
   192
  0
VERTEX
  5
132C07
  8
0
 10
-11.85480082345556
 20
-58.54089160332296
 30
177.8144369556865
 70
   192
  0
VERTEX
  5
132C08
  8
0
 10
-9.015611448652175
 20
-56.37968964946668
 30
181.5577485451826
 70
   192
  0
VERTEX
  5
132C09
  8
0
 10
-4.693207540939747
 20
-54.96009496206494
 30
184.0165586699172
 70
   192
  0
VERTEX
  5
132C0A
  8
0
 10
0.0
 20
0.0
 30
0.0
 70
   128
 71
    -1
 72
    17
 73
   -18
  0
VERTEX
  5
132C0B
  8
0
 10
0.0
 20
0.0
 30
0.0
 70
   128
 71
    16
 72
    -1
 73
   -18
  0
VERTEX
  5
132C0C
  8
0
 10
0.0
 20
0.0
 30
0.0
 70
   128
 71
   -19
 72
    15
 73
   -16
  0
VERTEX
  5
132C0D
  8
0
 10
0.0
 20
0.0
 30
0.0
 70
   128
 71
    18
 72
   -19
 73
   -16
  0
VERTEX
  5
132C0E
  8
0
 10
0.0
 20
0.0
 30
0.0
 70
   128
 71
   -20
 72
    14
 73
   -15
  0
VERTEX
  5
132C0F
  8
0
 10
0.0
 20
0.0
 30
0.0
 70
   128
 71
    19
 72
   -20
 73
   -15
  0
VERTEX
  5
132C10
  8
0
 10
0.0
 20
0.0
 30
0.0
 70
   128
 71
   -21
 72
    13
 73
   -14
  0
VERTEX
  5
132C11
  8
0
 10
0.0
 20
0.0
 30
0.0
 70
   128
 71
    20
 72
   -21
 73
   -14
  0
VERTEX
  5
132C12
  8
0
 10
0.0
 20
0.0
 30
0.0
 70
   128
 71
   -22
 72
    12
 73
   -13
  0
VERTEX
  5
132C13
  8
0
 10
0.0
 20
0.0
 30
0.0
 70
   128
 71
    21
 72
   -22
 73
   -13
  0
VERTEX
  5
132C14
  8
0
 10
0.0
 20
0.0
 30
0.0
 70
   128
 71
   -23
 72
    11
 73
   -12
  0
VERTEX
  5
132C15
  8
0
 10
0.0
 20
0.0
 30
0.0
 70
   128
 71
    22
 72
   -23
 73
   -12
  0
VERTEX
  5
132C16
  8
0
 10
0.0
 20
0.0
 30
0.0
 70
   128
 71
   -24
 72
    10
 73
   -11
  0
VERTEX
  5
132C17
  8
0
 10
0.0
 20
0.0
 30
0.0
 70
   128
 71
    23
 72
   -24
 73
   -11
  0
VERTEX
  5
132C18
  8
0
 10
0.0
 20
0.0
 30
0.0
 70
   128
 71
   -25
 72
     9
 73
   -10
  0
VERTEX
  5
132C19
  8
0
 10
0.0
 20
0.0
 30
0.0
 70
   128
 71
    24
 72
   -25
 73
   -10
  0
VERTEX
  5
132C1A
  8
0
 10
0.0
 20
0.0
 30
0.0
 70
   128
 71
   -26
 72
     8
 73
    -9
  0
VERTEX
  5
132C1B
  8
0
 10
0.0
 20
0.0
 30
0.0
 70
   128
 71
    25
 72
   -26
 73
    -9
  0
VERTEX
  5
132C1C
  8
0
 10
0.0
 20
0.0
 30
0.0
 70
   128
 71
   -27
 72
     7
 73
    -8
  0
VERTEX
  5
132C1D
  8
0
 10
0.0
 20
0.0
 30
0.0
 70
   128
 71
    26
 72
   -27
 73
    -8
  0
VERTEX
  5
132C1E
  8
0
 10
0.0
 20
0.0
 30
0.0
 70
   128
 71
   -28
 72
     6
 73
    -7
  0
VERTEX
  5
132C1F
  8
0
 10
0.0
 20
0.0
 30
0.0
 70
   128
 71
    27
 72
   -28
 73
    -7
  0
VERTEX
  5
132C20
  8
0
 10
0.0
 20
0.0
 30
0.0
 70
   128
 71
   -29
 72
     5
 73
    -6
  0
VERTEX
  5
132C21
  8
0
 10
0.0
 20
0.0
 30
0.0
 70
   128
 71
    28
 72
   -29
 73
    -6
  0
VERTEX
  5
132C22
  8
0
 10
0.0
 20
0.0
 30
0.0
 70
   128
 71
   -30
 72
     4
 73
    -5
  0
VERTEX
  5
132C23
  8
0
 10
0.0
 20
0.0
 30
0.0
 70
   128
 71
    29
 72
   -30
 73
    -5
  0
VERTEX
  5
132C24
  8
0
 10
0.0
 20
0.0
 30
0.0
 70
   128
 71
   -31
 72
     3
 73
    -4
  0
VERTEX
  5
132C25
  8
0
 10
0.0
 20
0.0
 30
0.0
 70
   128
 71
    30
 72
   -31
 73
    -4
  0
VERTEX
  5
132C26
  8
0
 10
0.0
 20
0.0
 30
0.0
 70
   128
 71
   -32
 72
     2
 73
    -3
  0
VERTEX
  5
132C27
  8
0
 10
0.0
 20
0.0
 30
0.0
 70
   128
 71
    31
 72
   -32
 73
    -3
  0
VERTEX
  5
132C28
  8
0
 10
0.0
 20
0.0
 30
0.0
 70
   128
 71
   -17
 72
     1
 73
    -2
  0
VERTEX
  5
132C29
  8
0
 10
0.0
 20
0.0
 30
0.0
 70
   128
 71
    32
 72
   -17
 73
    -2
  0
SEQEND
  5
13302B
  8
0
  0
POLYLINE
  5
132C2A
  8
0
 66
     1
 10
0.0
 20
0.0
 30
0.0
 70
    64
 71
    22
 72
    20
  0
VERTEX
  5
132C2B
  8
0
 10
-0.0000000000000665
 20
-54.32948267190046
 30
184.1088111963593
 70
   192
  0
VERTEX
  5
132C2C
  8
0
 10
-0.0000000000000647
 20
-54.51249538190767
 30
184.791823884196
 70
   192
  0
VERTEX
  5
132C2D
  8
0
 10
-0.0000000000000898
 20
-67.26249536567809
 30
162.7081761158042
 70
   192
  0
VERTEX
  5
132C2E
  8
0
 10
-0.0000000000000887
 20
-66.57948267190088
 30
162.8911888036408
 70
   192
  0
VERTEX
  5
132C2F
  8
0
 10
12.7499999837699
 20
-60.88749537379289
 30
173.7500000000001
 70
   192
  0
VERTEX
  5
132C30
  8
0
 10
12.2499999999999
 20
-60.45448267190065
 30
173.5000000000001
 70
   192
  0
VERTEX
  5
132C31
  8
0
 10
9.015611448652018
 20
-65.3953010981191
 30
165.9422514548176
 70
   192
  0
VERTEX
  5
132C32
  8
0
 10
8.662058069535108
 20
-64.78551170666842
 30
165.9984376627267
 70
   192
  0
VERTEX
  5
132C33
  8
0
 10
9.015611448652074
 20
-56.37968964946668
 30
181.5577485451826
 70
   192
  0
VERTEX
  5
132C34
  8
0
 10
8.662058069535124
 20
-56.1234536371329
 30
181.0015623372734
 70
   192
  0
VERTEX
  5
132C35
  8
0
 10
11.85480082345541
 20
-63.23409914426281
 30
169.6855630443136
 70
   192
  0
VERTEX
  5
132C36
  8
0
 10
11.38990668801467
 20
-62.7090627679672
 30
169.5949527238795
 70
   192
  0
VERTEX
  5
132C37
  8
0
 10
-0.0000000000013397
 20
-66.823178819761
 30
162.9581363616175
 70
   192
  0
VERTEX
  5
132C38
  8
0
 10
-0.0000000000013401
 20
-67.08492208397803
 30
162.8880024698994
 70
   192
  0
VERTEX
  5
132C39
  8
0
 10
4.69320754093959
 20
-66.81489578552086
 30
163.4834413300831
 70
   192
  0
VERTEX
  5
132C3A
  8
0
 10
4.509160192132847
 20
-66.14943601590825
 30
163.6360514614452
 70
   192
  0
VERTEX
  5
132C3B
  8
0
 10
4.693207540939639
 20
-54.96009496206494
 30
184.0165586699171
 70
   192
  0
VERTEX
  5
132C3C
  8
0
 10
0.0000000000011841
 20
-54.57944293197401
 30
184.5481277341627
 70
   192
  0
VERTEX
  5
132C3D
  8
0
 10
0.0000000000011842
 20
-54.50930903175967
 30
184.2863844722222
 70
   192
  0
VERTEX
  5
132C3E
  8
0
 10
4.509160192132865
 20
-54.75952932789308
 30
183.363948538555
 70
   192
  0
VERTEX
  5
132C3F
  8
0
 10
11.85480082345545
 20
-58.54089160332297
 30
177.8144369556865
 70
   192
  0
VERTEX
  5
132C40
  8
0
 10
11.38990668801468
 20
-58.19990257583411
 30
177.4050472761207
 70
   192
  0
VERTEX
  5
132C41
  8
0
 10
0.0
 20
0.0
 30
0.0
 70
   128
 71
     5
 72
     6
 73
   -12
  0
VERTEX
  5
132C42
  8
0
 10
0.0
 20
0.0
 30
0.0
 70
   128
 71
    11
 72
    -5
 73
    12
  0
VERTEX
  5
132C43
  8
0
 10
0.0
 20
0.0
 30
0.0
 70
   128
 71
     8
 72
     7
 73
   -11
  0
VERTEX
  5
132C44
  8
0
 10
0.0
 20
0.0
 30
0.0
 70
   128
 71
    12
 72
    -8
 73
    11
  0
VERTEX
  5
132C45
  8
0
 10
0.0
 20
0.0
 30
0.0
 70
   128
 71
     7
 72
     8
 73
   -16
  0
VERTEX
  5
132C46
  8
0
 10
0.0
 20
0.0
 30
0.0
 70
   128
 71
    15
 72
    -7
 73
    16
  0
VERTEX
  5
132C47
  8
0
 10
0.0
 20
0.0
 30
0.0
 70
   128
 71
    16
 72
     4
 73
    13
  0
VERTEX
  5
132C48
  8
0
 10
0.0
 20
0.0
 30
0.0
 70
   128
 71
    14
 72
    15
 73
    16
  0
VERTEX
  5
132C49
  8
0
 10
0.0
 20
0.0
 30
0.0
 70
   128
 71
    13
 72
    14
 73
    16
  0
VERTEX
  5
132C4A
  8
0
 10
0.0
 20
0.0
 30
0.0
 70
   128
 71
    14
 72
     3
 73
    15
  0
VERTEX
  5
132C4B
  8
0
 10
0.0
 20
0.0
 30
0.0
 70
   128
 71
    17
 72
     2
 73
    18
  0
VERTEX
  5
132C4C
  8
0
 10
0.0
 20
0.0
 30
0.0
 70
   128
 71
    19
 72
    20
 73
    17
  0
VERTEX
  5
132C4D
  8
0
 10
0.0
 20
0.0
 30
0.0
 70
   128
 71
    18
 72
    19
 73
    17
  0
VERTEX
  5
132C4E
  8
0
 10
0.0
 20
0.0
 30
0.0
 70
   128
 71
    19
 72
     1
 73
    20
  0
VERTEX
  5
132C4F
  8
0
 10
0.0
 20
0.0
 30
0.0
 70
   128
 71
    10
 72
     9
 73
   -17
  0
VERTEX
  5
132C50
  8
0
 10
0.0
 20
0.0
 30
0.0
 70
   128
 71
    20
 72
   -10
 73
    17
  0
VERTEX
  5
132C51
  8
0
 10
0.0
 20
0.0
 30
0.0
 70
   128
 71
     9
 72
    10
 73
   -22
  0
VERTEX
  5
132C52
  8
0
 10
0.0
 20
0.0
 30
0.0
 70
   128
 71
    21
 72
    -9
 73
    22
  0
VERTEX
  5
132C53
  8
0
 10
0.0
 20
0.0
 30
0.0
 70
   128
 71
     6
 72
     5
 73
   -21
  0
VERTEX
  5
132C54
  8
0
 10
0.0
 20
0.0
 30
0.0
 70
   128
 71
    22
 72
    -6
 73
    21
  0
SEQEND
  5
13302C
  8
0
  0
POLYLINE
  5
132C55
  8
0
 66
     1
 10
0.0
 20
0.0
 30
0.0
 70
    64
 71
    18
 72
    16
  0
VERTEX
  5
132C56
  8
0
 10
-0.0000000000000665
 20
-54.32948267190046
 30
184.1088111963593
 70
   192
  0
VERTEX
  5
132C57
  8
0
 10
-0.0000000000000887
 20
-66.57948267190088
 30
162.8911888036408
 70
   192
  0
VERTEX
  5
132C58
  8
0
 10
-0.0000000000000678
 20
-53.06948637286379
 30
155.0911888036406
 70
   192
  0
VERTEX
  5
132C59
  8
0
 10
-0.0000000000000457
 20
-40.81948637286337
 30
176.3088111963591
 70
   192
  0
VERTEX
  5
132C5A
  8
0
 10
12.24999999999993
 20
-46.94448637286357
 30
165.6999999999998
 70
   192
  0
VERTEX
  5
132C5B
  8
0
 10
12.2499999999999
 20
-60.45448267190065
 30
173.5000000000001
 70
   192
  0
VERTEX
  5
132C5C
  8
0
 10
8.66205806953513
 20
-51.27551540763133
 30
158.1984376627265
 70
   192
  0
VERTEX
  5
132C5D
  8
0
 10
8.662058069535108
 20
-64.78551170666842
 30
165.9984376627267
 70
   192
  0
VERTEX
  5
132C5E
  8
0
 10
8.662058069535144
 20
-42.61345733809581
 30
173.2015623372732
 70
   192
  0
VERTEX
  5
132C5F
  8
0
 10
8.662058069535124
 20
-56.1234536371329
 30
181.0015623372734
 70
   192
  0
VERTEX
  5
132C60
  8
0
 10
11.38990668801469
 20
-49.19906646893012
 30
161.7949527238792
 70
   192
  0
VERTEX
  5
132C61
  8
0
 10
11.38990668801467
 20
-62.7090627679672
 30
169.5949527238795
 70
   192
  0
VERTEX
  5
132C62
  8
0
 10
4.509160192132847
 20
-66.14943601590825
 30
163.6360514614452
 70
   192
  0
VERTEX
  5
132C63
  8
0
 10
4.509160192132867
 20
-52.63943971687116
 30
155.8360514614449
 70
   192
  0
VERTEX
  5
132C64
  8
0
 10
4.509160192132886
 20
-41.249533028856
 30
175.5639485385548
 70
   192
  0
VERTEX
  5
132C65
  8
0
 10
4.509160192132865
 20
-54.75952932789308
 30
183.363948538555
 70
   192
  0
VERTEX
  5
132C66
  8
0
 10
11.3899066880147
 20
-44.68990627679702
 30
169.6050472761205
 70
   192
  0
VERTEX
  5
132C67
  8
0
 10
11.38990668801468
 20
-58.19990257583411
 30
177.4050472761207
 70
   192
  0
VERTEX
  5
132C68
  8
0
 10
0.0
 20
0.0
 30
0.0
 70
   128
 71
     7
 72
     8
 73
   -12
  0
VERTEX
  5
132C69
  8
0
 10
0.0
 20
0.0
 30
0.0
 70
   128
 71
    11
 72
    -7
 73
    12
  0
VERTEX
  5
132C6A
  8
0
 10
0.0
 20
0.0
 30
0.0
 70
   128
 71
     6
 72
     5
 73
   -11
  0
VERTEX
  5
132C6B
  8
0
 10
0.0
 20
0.0
 30
0.0
 70
   128
 71
    12
 72
    -6
 73
    11
  0
VERTEX
  5
132C6C
  8
0
 10
0.0
 20
0.0
 30
0.0
 70
   128
 71
     3
 72
     2
 73
   -13
  0
VERTEX
  5
132C6D
  8
0
 10
0.0
 20
0.0
 30
0.0
 70
   128
 71
    14
 72
    -3
 73
    13
  0
VERTEX
  5
132C6E
  8
0
 10
0.0
 20
0.0
 30
0.0
 70
   128
 71
     8
 72
     7
 73
   -14
  0
VERTEX
  5
132C6F
  8
0
 10
0.0
 20
0.0
 30
0.0
 70
   128
 71
    13
 72
    -8
 73
    14
  0
VERTEX
  5
132C70
  8
0
 10
0.0
 20
0.0
 30
0.0
 70
   128
 71
     9
 72
    10
 73
   -16
  0
VERTEX
  5
132C71
  8
0
 10
0.0
 20
0.0
 30
0.0
 70
   128
 71
    15
 72
    -9
 73
    16
  0
VERTEX
  5
132C72
  8
0
 10
0.0
 20
0.0
 30
0.0
 70
   128
 71
     1
 72
     4
 73
   -15
  0
VERTEX
  5
132C73
  8
0
 10
0.0
 20
0.0
 30
0.0
 70
   128
 71
    16
 72
    -1
 73
    15
  0
VERTEX
  5
132C74
  8
0
 10
0.0
 20
0.0
 30
0.0
 70
   128
 71
     5
 72
     6
 73
   -18
  0
VERTEX
  5
132C75
  8
0
 10
0.0
 20
0.0
 30
0.0
 70
   128
 71
    17
 72
    -5
 73
    18
  0
VERTEX
  5
132C76
  8
0
 10
0.0
 20
0.0
 30
0.0
 70
   128
 71
    10
 72
     9
 73
   -17
  0
VERTEX
  5
132C77
  8
0
 10
0.0
 20
0.0
 30
0.0
 70
   128
 71
    18
 72
   -10
 73
    17
  0
SEQEND
  5
13302D
  8
0
  0
POLYLINE
  5
132C78
  8
0
 66
     1
 10
0.0
 20
0.0
 30
0.0
 70
    64
 71
    18
 72
    16
  0
VERTEX
  5
132C79
  8
0
 10
-0.0000000000000457
 20
-40.81948637286337
 30
176.3088111963591
 70
   192
  0
VERTEX
  5
132C7A
  8
0
 10
-0.0000000000000678
 20
-53.06948637286379
 30
155.0911888036406
 70
   192
  0
VERTEX
  5
132C7B
  8
0
 10
-0.0000000000000676
 20
-52.88647367097158
 30
154.4081761017484
 70
   192
  0
VERTEX
  5
132C7C
  8
0
 10
-0.0000000000000445
 20
-40.13647367097115
 30
176.4918238982513
 70
   192
  0
VERTEX
  5
132C7D
  8
0
 10
12.74999999999992
 20
-46.51147367097133
 30
165.4499999999999
 70
   192
  0
VERTEX
  5
132C7E
  8
0
 10
12.24999999999993
 20
-46.94448637286357
 30
165.6999999999998
 70
   192
  0
VERTEX
  5
132C7F
  8
0
 10
9.015611460128422
 20
-51.01927940103574
 30
157.6422514448786
 70
   192
  0
VERTEX
  5
132C80
  8
0
 10
8.66205806953513
 20
-51.27551540763133
 30
158.1984376627265
 70
   192
  0
VERTEX
  5
132C81
  8
0
 10
9.015611460128403
 20
-42.00366794090695
 30
173.2577485551211
 70
   192
  0
VERTEX
  5
132C82
  8
0
 10
8.662058069535144
 20
-42.61345733809581
 30
173.2015623372732
 70
   192
  0
VERTEX
  5
132C83
  8
0
 10
11.85480083854592
 20
-48.85807744442835
 30
161.3855630391396
 70
   192
  0
VERTEX
  5
132C84
  8
0
 10
11.38990668801469
 20
-49.19906646893012
 30
161.7949527238792
 70
   192
  0
VERTEX
  5
132C85
  8
0
 10
4.509160192132867
 20
-52.63943971687116
 30
155.8360514614449
 70
   192
  0
VERTEX
  5
132C86
  8
0
 10
4.693207546913817
 20
-52.43887409024455
 30
155.1834413170141
 70
   192
  0
VERTEX
  5
132C87
  8
0
 10
4.693207546913813
 20
-40.58407325169816
 30
175.7165586829856
 70
   192
  0
VERTEX
  5
132C88
  8
0
 10
4.509160192132886
 20
-41.249533028856
 30
175.5639485385548
 70
   192
  0
VERTEX
  5
132C89
  8
0
 10
11.8548008385459
 20
-44.16486989751431
 30
169.5144369608601
 70
   192
  0
VERTEX
  5
132C8A
  8
0
 10
11.3899066880147
 20
-44.68990627679702
 30
169.6050472761205
 70
   192
  0
VERTEX
  5
132C8B
  8
0
 10
0.0
 20
0.0
 30
0.0
 70
   128
 71
     7
 72
     8
 73
   -12
  0
VERTEX
  5
132C8C
  8
0
 10
0.0
 20
0.0
 30
0.0
 70
   128
 71
    11
 72
    -7
 73
    12
  0
VERTEX
  5
132C8D
  8
0
 10
0.0
 20
0.0
 30
0.0
 70
   128
 71
     6
 72
     5
 73
   -11
  0
VERTEX
  5
132C8E
  8
0
 10
0.0
 20
0.0
 30
0.0
 70
   128
 71
    12
 72
    -6
 73
    11
  0
VERTEX
  5
132C8F
  8
0
 10
0.0
 20
0.0
 30
0.0
 70
   128
 71
     3
 72
     2
 73
   -13
  0
VERTEX
  5
132C90
  8
0
 10
0.0
 20
0.0
 30
0.0
 70
   128
 71
    14
 72
    -3
 73
    13
  0
VERTEX
  5
132C91
  8
0
 10
0.0
 20
0.0
 30
0.0
 70
   128
 71
     8
 72
     7
 73
   -14
  0
VERTEX
  5
132C92
  8
0
 10
0.0
 20
0.0
 30
0.0
 70
   128
 71
    13
 72
    -8
 73
    14
  0
VERTEX
  5
132C93
  8
0
 10
0.0
 20
0.0
 30
0.0
 70
   128
 71
     9
 72
    10
 73
   -16
  0
VERTEX
  5
132C94
  8
0
 10
0.0
 20
0.0
 30
0.0
 70
   128
 71
    15
 72
    -9
 73
    16
  0
VERTEX
  5
132C95
  8
0
 10
0.0
 20
0.0
 30
0.0
 70
   128
 71
     1
 72
     4
 73
   -15
  0
VERTEX
  5
132C96
  8
0
 10
0.0
 20
0.0
 30
0.0
 70
   128
 71
    16
 72
    -1
 73
    15
  0
VERTEX
  5
132C97
  8
0
 10
0.0
 20
0.0
 30
0.0
 70
   128
 71
     5
 72
     6
 73
   -18
  0
VERTEX
  5
132C98
  8
0
 10
0.0
 20
0.0
 30
0.0
 70
   128
 71
    17
 72
    -5
 73
    18
  0
VERTEX
  5
132C99
  8
0
 10
0.0
 20
0.0
 30
0.0
 70
   128
 71
    10
 72
     9
 73
   -17
  0
VERTEX
  5
132C9A
  8
0
 10
0.0
 20
0.0
 30
0.0
 70
   128
 71
    18
 72
   -10
 73
    17
  0
SEQEND
  5
13302E
  8
0
  0
POLYLINE
  5
132C9B
  8
0
 66
     1
 10
0.0
 20
0.0
 30
0.0
 70
    64
 71
    32
 72
    32
  0
VERTEX
  5
132C9C
  8
0
 10
-0.0000000000000683
 20
-53.2614736709716
 30
153.7586570489101
 70
   192
  0
VERTEX
  5
132C9D
  8
0
 10
-4.969278579085344
 20
-52.787544703143
 30
154.5795261003678
 70
   192
  0
VERTEX
  5
132C9E
  8
0
 10
-9.545941546018444
 20
-51.28444444398075
 30
157.1829721181067
 70
   192
  0
VERTEX
  5
132C9F
  8
0
 10
-12.55214206434285
 20
-48.99611296051411
 30
161.1464785120302
 70
   192
  0
VERTEX
  5
132CA0
  8
0
 10
-13.50000000000004
 20
-46.51147367097138
 30
165.4499999999998
 70
   192
  0
VERTEX
  5
132CA1
  8
0
 10
-12.55214206434284
 20
-44.02683438142866
 30
169.7535214879695
 70
   192
  0
VERTEX
  5
132CA2
  8
0
 10
-9.545941546018426
 20
-41.73850289796202
 30
173.717027881893
 70
   192
  0
VERTEX
  5
132CA3
  8
0
 10
-4.969278579085319
 20
-40.23540263879975
 30
176.3204738996318
 70
   192
  0
VERTEX
  5
132CA4
  8
0
 10
-0.0000000000000439
 20
-39.76147367097114
 30
177.1413429510896
 70
   192
  0
VERTEX
  5
132CA5
  8
0
 10
4.969278579085231
 20
-40.23540263879974
 30
176.3204738996318
 70
   192
  0
VERTEX
  5
132CA6
  8
0
 10
9.545941546018332
 20
-41.738502897962
 30
173.717027881893
 70
   192
  0
VERTEX
  5
132CA7
  8
0
 10
12.55214206434274
 20
-44.02683438142862
 30
169.7535214879695
 70
   192
  0
VERTEX
  5
132CA8
  8
0
 10
13.49999999999992
 20
-46.51147367097135
 30
165.4499999999998
 70
   192
  0
VERTEX
  5
132CA9
  8
0
 10
12.55214206434273
 20
-48.99611296051408
 30
161.1464785120302
 70
   192
  0
VERTEX
  5
132CAA
  8
0
 10
9.545941546018314
 20
-51.28444444398071
 30
157.1829721181067
 70
   192
  0
VERTEX
  5
132CAB
  8
0
 10
4.969278579085207
 20
-52.78754470314298
 30
154.5795261003679
 70
   192
  0
VERTEX
  5
132CAC
  8
0
 10
-0.0000000000000445
 20
-40.13647367097115
 30
176.4918238982513
 70
   192
  0
VERTEX
  5
132CAD
  8
0
 10
-4.69320754691393
 20
-40.58407325169818
 30
175.7165586829856
 70
   192
  0
VERTEX
  5
132CAE
  8
0
 10
-9.015611460128536
 20
-42.00366794090699
 30
173.2577485551211
 70
   192
  0
VERTEX
  5
132CAF
  8
0
 10
-11.85480083854604
 20
-44.16486989751439
 30
169.51443696086
 70
   192
  0
VERTEX
  5
132CB0
  8
0
 10
-12.75000000000004
 20
-46.51147367097141
 30
165.4499999999998
 70
   192
  0
VERTEX
  5
132CB1
  8
0
 10
-11.85480083854602
 20
-48.85807744442842
 30
161.3855630391396
 70
   192
  0
VERTEX
  5
132CB2
  8
0
 10
-9.015611460128515
 20
-51.01927940103578
 30
157.6422514448786
 70
   192
  0
VERTEX
  5
132CB3
  8
0
 10
-4.693207546913924
 20
-52.43887409024457
 30
155.1834413170141
 70
   192
  0
VERTEX
  5
132CB4
  8
0
 10
-0.0000000000000676
 20
-52.88647367097158
 30
154.4081761017484
 70
   192
  0
VERTEX
  5
132CB5
  8
0
 10
4.693207546913817
 20
-52.43887409024455
 30
155.1834413170141
 70
   192
  0
VERTEX
  5
132CB6
  8
0
 10
9.015611460128422
 20
-51.01927940103574
 30
157.6422514448786
 70
   192
  0
VERTEX
  5
132CB7
  8
0
 10
11.85480083854592
 20
-48.85807744442835
 30
161.3855630391396
 70
   192
  0
VERTEX
  5
132CB8
  8
0
 10
12.74999999999992
 20
-46.51147367097133
 30
165.4499999999999
 70
   192
  0
VERTEX
  5
132CB9
  8
0
 10
11.8548008385459
 20
-44.16486989751431
 30
169.5144369608601
 70
   192
  0
VERTEX
  5
132CBA
  8
0
 10
9.015611460128403
 20
-42.00366794090695
 30
173.2577485551211
 70
   192
  0
VERTEX
  5
132CBB
  8
0
 10
4.693207546913813
 20
-40.58407325169816
 30
175.7165586829856
 70
   192
  0
VERTEX
  5
132CBC
  8
0
 10
0.0
 20
0.0
 30
0.0
 70
   128
 71
    -9
 72
    17
 73
   -18
  0
VERTEX
  5
132CBD
  8
0
 10
0.0
 20
0.0
 30
0.0
 70
   128
 71
     8
 72
    -9
 73
   -18
  0
VERTEX
  5
132CBE
  8
0
 10
0.0
 20
0.0
 30
0.0
 70
   128
 71
   -19
 72
     7
 73
    -8
  0
VERTEX
  5
132CBF
  8
0
 10
0.0
 20
0.0
 30
0.0
 70
   128
 71
    18
 72
   -19
 73
    -8
  0
VERTEX
  5
132CC0
  8
0
 10
0.0
 20
0.0
 30
0.0
 70
   128
 71
   -20
 72
     6
 73
    -7
  0
VERTEX
  5
132CC1
  8
0
 10
0.0
 20
0.0
 30
0.0
 70
   128
 71
    19
 72
   -20
 73
    -7
  0
VERTEX
  5
132CC2
  8
0
 10
0.0
 20
0.0
 30
0.0
 70
   128
 71
   -21
 72
     5
 73
    -6
  0
VERTEX
  5
132CC3
  8
0
 10
0.0
 20
0.0
 30
0.0
 70
   128
 71
    20
 72
   -21
 73
    -6
  0
VERTEX
  5
132CC4
  8
0
 10
0.0
 20
0.0
 30
0.0
 70
   128
 71
   -22
 72
     4
 73
    -5
  0
VERTEX
  5
132CC5
  8
0
 10
0.0
 20
0.0
 30
0.0
 70
   128
 71
    21
 72
   -22
 73
    -5
  0
VERTEX
  5
132CC6
  8
0
 10
0.0
 20
0.0
 30
0.0
 70
   128
 71
   -23
 72
     3
 73
    -4
  0
VERTEX
  5
132CC7
  8
0
 10
0.0
 20
0.0
 30
0.0
 70
   128
 71
    22
 72
   -23
 73
    -4
  0
VERTEX
  5
132CC8
  8
0
 10
0.0
 20
0.0
 30
0.0
 70
   128
 71
   -24
 72
     2
 73
    -3
  0
VERTEX
  5
132CC9
  8
0
 10
0.0
 20
0.0
 30
0.0
 70
   128
 71
    23
 72
   -24
 73
    -3
  0
VERTEX
  5
132CCA
  8
0
 10
0.0
 20
0.0
 30
0.0
 70
   128
 71
   -25
 72
     1
 73
    -2
  0
VERTEX
  5
132CCB
  8
0
 10
0.0
 20
0.0
 30
0.0
 70
   128
 71
    24
 72
   -25
 73
    -2
  0
VERTEX
  5
132CCC
  8
0
 10
0.0
 20
0.0
 30
0.0
 70
   128
 71
   -26
 72
    16
 73
    -1
  0
VERTEX
  5
132CCD
  8
0
 10
0.0
 20
0.0
 30
0.0
 70
   128
 71
    25
 72
   -26
 73
    -1
  0
VERTEX
  5
132CCE
  8
0
 10
0.0
 20
0.0
 30
0.0
 70
   128
 71
   -27
 72
    15
 73
   -16
  0
VERTEX
  5
132CCF
  8
0
 10
0.0
 20
0.0
 30
0.0
 70
   128
 71
    26
 72
   -27
 73
   -16
  0
VERTEX
  5
132CD0
  8
0
 10
0.0
 20
0.0
 30
0.0
 70
   128
 71
   -28
 72
    14
 73
   -15
  0
VERTEX
  5
132CD1
  8
0
 10
0.0
 20
0.0
 30
0.0
 70
   128
 71
    27
 72
   -28
 73
   -15
  0
VERTEX
  5
132CD2
  8
0
 10
0.0
 20
0.0
 30
0.0
 70
   128
 71
   -29
 72
    13
 73
   -14
  0
VERTEX
  5
132CD3
  8
0
 10
0.0
 20
0.0
 30
0.0
 70
   128
 71
    28
 72
   -29
 73
   -14
  0
VERTEX
  5
132CD4
  8
0
 10
0.0
 20
0.0
 30
0.0
 70
   128
 71
   -30
 72
    12
 73
   -13
  0
VERTEX
  5
132CD5
  8
0
 10
0.0
 20
0.0
 30
0.0
 70
   128
 71
    29
 72
   -30
 73
   -13
  0
VERTEX
  5
132CD6
  8
0
 10
0.0
 20
0.0
 30
0.0
 70
   128
 71
   -31
 72
    11
 73
   -12
  0
VERTEX
  5
132CD7
  8
0
 10
0.0
 20
0.0
 30
0.0
 70
   128
 71
    30
 72
   -31
 73
   -12
  0
VERTEX
  5
132CD8
  8
0
 10
0.0
 20
0.0
 30
0.0
 70
   128
 71
   -32
 72
    10
 73
   -11
  0
VERTEX
  5
132CD9
  8
0
 10
0.0
 20
0.0
 30
0.0
 70
   128
 71
    31
 72
   -32
 73
   -11
  0
VERTEX
  5
132CDA
  8
0
 10
0.0
 20
0.0
 30
0.0
 70
   128
 71
   -17
 72
     9
 73
   -10
  0
VERTEX
  5
132CDB
  8
0
 10
0.0
 20
0.0
 30
0.0
 70
   128
 71
    32
 72
   -17
 73
   -10
  0
SEQEND
  5
13302F
  8
0
  0
POLYLINE
  5
132CDC
  8
0
 66
     1
 10
0.0
 20
0.0
 30
0.0
 70
    64
 71
    18
 72
    16
  0
VERTEX
  5
132CDD
  8
0
 10
-0.0000000000000683
 20
-53.2614736709716
 30
153.7586570489101
 70
   192
  0
VERTEX
  5
132CDE
  8
0
 10
-0.0000000000000439
 20
-39.76147367097114
 30
177.1413429510896
 70
   192
  0
VERTEX
  5
132CDF
  8
0
 10
-0.000000000000033
 20
-32.70336480838341
 30
173.0663418993047
 70
   192
  0
VERTEX
  5
132CE0
  8
0
 10
-0.0000000000000574
 20
-46.20336480838388
 30
149.6836559971252
 70
   192
  0
VERTEX
  5
132CE1
  8
0
 10
-13.50000000000002
 20
-39.45336480838367
 30
161.3749989482149
 70
   192
  0
VERTEX
  5
132CE2
  8
0
 10
-13.50000000000004
 20
-46.51147367097138
 30
165.4499999999998
 70
   192
  0
VERTEX
  5
132CE3
  8
0
 10
-9.545941546018417
 20
-34.68039403537431
 30
169.6420268301081
 70
   192
  0
VERTEX
  5
132CE4
  8
0
 10
-9.545941546018426
 20
-41.73850289796202
 30
173.717027881893
 70
   192
  0
VERTEX
  5
132CE5
  8
0
 10
-9.545941546018433
 20
-44.22633558139302
 30
153.1079710663218
 70
   192
  0
VERTEX
  5
132CE6
  8
0
 10
-9.545941546018444
 20
-51.28444444398075
 30
157.1829721181067
 70
   192
  0
VERTEX
  5
132CE7
  8
0
 10
-12.55214206434283
 20
-36.96872551884093
 30
165.6785204361846
 70
   192
  0
VERTEX
  5
132CE8
  8
0
 10
-12.55214206434284
 20
-44.02683438142866
 30
169.7535214879695
 70
   192
  0
VERTEX
  5
132CE9
  8
0
 10
-4.969278579085319
 20
-40.23540263879975
 30
176.3204738996318
 70
   192
  0
VERTEX
  5
132CEA
  8
0
 10
-4.96927857908531
 20
-33.17729377621203
 30
172.2454728478469
 70
   192
  0
VERTEX
  5
132CEB
  8
0
 10
-4.969278579085331
 20
-45.72943584055528
 30
150.504525048583
 70
   192
  0
VERTEX
  5
132CEC
  8
0
 10
-4.969278579085344
 20
-52.787544703143
 30
154.5795261003678
 70
   192
  0
VERTEX
  5
132CED
  8
0
 10
-12.55214206434284
 20
-41.9380040979264
 30
157.0714774602453
 70
   192
  0
VERTEX
  5
132CEE
  8
0
 10
-12.55214206434285
 20
-48.99611296051411
 30
161.1464785120302
 70
   192
  0
VERTEX
  5
132CEF
  8
0
 10
0.0
 20
0.0
 30
0.0
 70
   128
 71
     7
 72
     8
 73
   -12
  0
VERTEX
  5
132CF0
  8
0
 10
0.0
 20
0.0
 30
0.0
 70
   128
 71
    11
 72
    -7
 73
    12
  0
VERTEX
  5
132CF1
  8
0
 10
0.0
 20
0.0
 30
0.0
 70
   128
 71
     6
 72
     5
 73
   -11
  0
VERTEX
  5
132CF2
  8
0
 10
0.0
 20
0.0
 30
0.0
 70
   128
 71
    12
 72
    -6
 73
    11
  0
VERTEX
  5
132CF3
  8
0
 10
0.0
 20
0.0
 30
0.0
 70
   128
 71
     3
 72
     2
 73
   -13
  0
VERTEX
  5
132CF4
  8
0
 10
0.0
 20
0.0
 30
0.0
 70
   128
 71
    14
 72
    -3
 73
    13
  0
VERTEX
  5
132CF5
  8
0
 10
0.0
 20
0.0
 30
0.0
 70
   128
 71
     8
 72
     7
 73
   -14
  0
VERTEX
  5
132CF6
  8
0
 10
0.0
 20
0.0
 30
0.0
 70
   128
 71
    13
 72
    -8
 73
    14
  0
VERTEX
  5
132CF7
  8
0
 10
0.0
 20
0.0
 30
0.0
 70
   128
 71
     9
 72
    10
 73
   -16
  0
VERTEX
  5
132CF8
  8
0
 10
0.0
 20
0.0
 30
0.0
 70
   128
 71
    15
 72
    -9
 73
    16
  0
VERTEX
  5
132CF9
  8
0
 10
0.0
 20
0.0
 30
0.0
 70
   128
 71
     1
 72
     4
 73
   -15
  0
VERTEX
  5
132CFA
  8
0
 10
0.0
 20
0.0
 30
0.0
 70
   128
 71
    16
 72
    -1
 73
    15
  0
VERTEX
  5
132CFB
  8
0
 10
0.0
 20
0.0
 30
0.0
 70
   128
 71
     5
 72
     6
 73
   -18
  0
VERTEX
  5
132CFC
  8
0
 10
0.0
 20
0.0
 30
0.0
 70
   128
 71
    17
 72
    -5
 73
    18
  0
VERTEX
  5
132CFD
  8
0
 10
0.0
 20
0.0
 30
0.0
 70
   128
 71
    10
 72
     9
 73
   -17
  0
VERTEX
  5
132CFE
  8
0
 10
0.0
 20
0.0
 30
0.0
 70
   128
 71
    18
 72
   -10
 73
    17
  0
SEQEND
  5
133030
  8
0
  0
POLYLINE
  5
132CFF
  8
0
 66
     1
 10
0.0
 20
0.0
 30
0.0
 70
    64
 71
    18
 72
    16
  0
VERTEX
  5
132D00
  8
0
 10
-0.0000000000000574
 20
-46.20336480838388
 30
149.6836559971252
 70
   192
  0
VERTEX
  5
132D01
  8
0
 10
-0.000000000000033
 20
-32.70336480838341
 30
173.0663418993047
 70
   192
  0
VERTEX
  5
132D02
  8
0
 10
-0.0000000000000306
 20
-31.67884968253238
 30
173.3408638535979
 70
   192
  0
VERTEX
  5
132D03
  8
0
 10
-0.000000000000057
 20
-45.92885023177287
 30
148.6591388944302
 70
   192
  0
VERTEX
  5
132D04
  8
0
 10
-14.25000054924002
 20
-38.80384995715267
 30
161.000001374014
 70
   192
  0
VERTEX
  5
132D05
  8
0
 10
-13.50000000000002
 20
-39.45336480838367
 30
161.3749989482149
 70
   192
  0
VERTEX
  5
132D06
  8
0
 10
-10.07627202027967
 20
-33.76571394701266
 30
169.7263089190184
 70
   192
  0
VERTEX
  5
132D07
  8
0
 10
-9.545941546018417
 20
-34.68039403537431
 30
169.6420268301081
 70
   192
  0
VERTEX
  5
132D08
  8
0
 10
-10.07627202027965
 20
-43.84198596729264
 30
152.2736938290096
 70
   192
  0
VERTEX
  5
132D09
  8
0
 10
-9.545941546018433
 20
-44.22633558139302
 30
153.1079710663218
 70
   192
  0
VERTEX
  5
132D0A
  8
0
 10
-13.24948380081659
 20
-36.18117505043806
 30
165.5426075641795
 70
   192
  0
VERTEX
  5
132D0B
  8
0
 10
-12.55214206434283
 20
-36.96872551884093
 30
165.6785204361846
 70
   192
  0
VERTEX
  5
132D0C
  8
0
 10
-4.96927857908531
 20
-33.17729377621203
 30
172.2454728478469
 70
   192
  0
VERTEX
  5
132D0D
  8
0
 10
-5.245349813429063
 20
-32.17910805674412
 30
172.4743909325514
 70
   192
  0
VERTEX
  5
132D0E
  8
0
 10
-5.245349813429064
 20
-45.42859185756114
 30
149.5256118154767
 70
   192
  0
VERTEX
  5
132D0F
  8
0
 10
-4.969278579085331
 20
-45.72943584055528
 30
150.504525048583
 70
   192
  0
VERTEX
  5
132D10
  8
0
 10
-13.24948380081657
 20
-41.42652486386726
 30
156.4573951838485
 70
   192
  0
VERTEX
  5
132D11
  8
0
 10
-12.55214206434284
 20
-41.9380040979264
 30
157.0714774602453
 70
   192
  0
VERTEX
  5
132D12
  8
0
 10
0.0
 20
0.0
 30
0.0
 70
   128
 71
     7
 72
     8
 73
   -12
  0
VERTEX
  5
132D13
  8
0
 10
0.0
 20
0.0
 30
0.0
 70
   128
 71
    11
 72
    -7
 73
    12
  0
VERTEX
  5
132D14
  8
0
 10
0.0
 20
0.0
 30
0.0
 70
   128
 71
     6
 72
     5
 73
   -11
  0
VERTEX
  5
132D15
  8
0
 10
0.0
 20
0.0
 30
0.0
 70
   128
 71
    12
 72
    -6
 73
    11
  0
VERTEX
  5
132D16
  8
0
 10
0.0
 20
0.0
 30
0.0
 70
   128
 71
     3
 72
     2
 73
   -13
  0
VERTEX
  5
132D17
  8
0
 10
0.0
 20
0.0
 30
0.0
 70
   128
 71
    14
 72
    -3
 73
    13
  0
VERTEX
  5
132D18
  8
0
 10
0.0
 20
0.0
 30
0.0
 70
   128
 71
     8
 72
     7
 73
   -14
  0
VERTEX
  5
132D19
  8
0
 10
0.0
 20
0.0
 30
0.0
 70
   128
 71
    13
 72
    -8
 73
    14
  0
VERTEX
  5
132D1A
  8
0
 10
0.0
 20
0.0
 30
0.0
 70
   128
 71
     9
 72
    10
 73
   -16
  0
VERTEX
  5
132D1B
  8
0
 10
0.0
 20
0.0
 30
0.0
 70
   128
 71
    15
 72
    -9
 73
    16
  0
VERTEX
  5
132D1C
  8
0
 10
0.0
 20
0.0
 30
0.0
 70
   128
 71
     1
 72
     4
 73
   -15
  0
VERTEX
  5
132D1D
  8
0
 10
0.0
 20
0.0
 30
0.0
 70
   128
 71
    16
 72
    -1
 73
    15
  0
VERTEX
  5
132D1E
  8
0
 10
0.0
 20
0.0
 30
0.0
 70
   128
 71
     5
 72
     6
 73
   -18
  0
VERTEX
  5
132D1F
  8
0
 10
0.0
 20
0.0
 30
0.0
 70
   128
 71
    17
 72
    -5
 73
    18
  0
VERTEX
  5
132D20
  8
0
 10
0.0
 20
0.0
 30
0.0
 70
   128
 71
    10
 72
     9
 73
   -17
  0
VERTEX
  5
132D21
  8
0
 10
0.0
 20
0.0
 30
0.0
 70
   128
 71
    18
 72
   -10
 73
    17
  0
SEQEND
  5
133031
  8
0
  0
POLYLINE
  5
132D22
  8
0
 66
     1
 10
0.0
 20
0.0
 30
0.0
 70
    64
 71
    18
 72
    16
  0
VERTEX
  5
132D23
  8
0
 10
-0.000000000000033
 20
-32.70336480838341
 30
173.0663418993047
 70
   192
  0
VERTEX
  5
132D24
  8
0
 10
-0.0000000000000574
 20
-46.20336480838388
 30
149.6836559971252
 70
   192
  0
VERTEX
  5
132D25
  8
0
 10
-0.000000000000057
 20
-45.92885023177287
 30
148.6591388944302
 70
   192
  0
VERTEX
  5
132D26
  8
0
 10
-0.0000000000000306
 20
-31.67884968253238
 30
173.3408638535979
 70
   192
  0
VERTEX
  5
132D27
  8
0
 10
14.25000054923993
 20
-38.80384995715263
 30
161.000001374014
 70
   192
  0
VERTEX
  5
132D28
  8
0
 10
13.49999999999993
 20
-39.45336480838363
 30
161.3749989482149
 70
   192
  0
VERTEX
  5
132D29
  8
0
 10
10.07627202027954
 20
-43.84198596729259
 30
152.2736938290096
 70
   192
  0
VERTEX
  5
132D2A
  8
0
 10
9.545941546018325
 20
-44.226335581393
 30
153.1079710663219
 70
   192
  0
VERTEX
  5
132D2B
  8
0
 10
10.0762720202796
 20
-33.76571394701264
 30
169.7263089190184
 70
   192
  0
VERTEX
  5
132D2C
  8
0
 10
9.545941546018343
 20
-34.68039403537426
 30
169.642026830108
 70
   192
  0
VERTEX
  5
132D2D
  8
0
 10
13.24948380081647
 20
-41.42652486386721
 30
156.4573951838486
 70
   192
  0
VERTEX
  5
132D2E
  8
0
 10
12.55214206434274
 20
-41.93800409792636
 30
157.0714774602453
 70
   192
  0
VERTEX
  5
132D2F
  8
0
 10
4.96927857908522
 20
-45.72943584055526
 30
150.504525048583
 70
   192
  0
VERTEX
  5
132D30
  8
0
 10
5.245349813428945
 20
-45.42859185756113
 30
149.5256118154767
 70
   192
  0
VERTEX
  5
132D31
  8
0
 10
5.245349813428994
 20
-32.17910805674412
 30
172.4743909325514
 70
   192
  0
VERTEX
  5
132D32
  8
0
 10
4.969278579085239
 20
-33.17729377621201
 30
172.2454728478469
 70
   192
  0
VERTEX
  5
132D33
  8
0
 10
13.24948380081651
 20
-36.18117505043801
 30
165.5426075641795
 70
   192
  0
VERTEX
  5
132D34
  8
0
 10
12.55214206434275
 20
-36.9687255188409
 30
165.6785204361846
 70
   192
  0
VERTEX
  5
132D35
  8
0
 10
0.0
 20
0.0
 30
0.0
 70
   128
 71
     7
 72
     8
 73
   -12
  0
VERTEX
  5
132D36
  8
0
 10
0.0
 20
0.0
 30
0.0
 70
   128
 71
    11
 72
    -7
 73
    12
  0
VERTEX
  5
132D37
  8
0
 10
0.0
 20
0.0
 30
0.0
 70
   128
 71
     6
 72
     5
 73
   -11
  0
VERTEX
  5
132D38
  8
0
 10
0.0
 20
0.0
 30
0.0
 70
   128
 71
    12
 72
    -6
 73
    11
  0
VERTEX
  5
132D39
  8
0
 10
0.0
 20
0.0
 30
0.0
 70
   128
 71
     3
 72
     2
 73
   -13
  0
VERTEX
  5
132D3A
  8
0
 10
0.0
 20
0.0
 30
0.0
 70
   128
 71
    14
 72
    -3
 73
    13
  0
VERTEX
  5
132D3B
  8
0
 10
0.0
 20
0.0
 30
0.0
 70
   128
 71
     8
 72
     7
 73
   -14
  0
VERTEX
  5
132D3C
  8
0
 10
0.0
 20
0.0
 30
0.0
 70
   128
 71
    13
 72
    -8
 73
    14
  0
VERTEX
  5
132D3D
  8
0
 10
0.0
 20
0.0
 30
0.0
 70
   128
 71
     9
 72
    10
 73
   -16
  0
VERTEX
  5
132D3E
  8
0
 10
0.0
 20
0.0
 30
0.0
 70
   128
 71
    15
 72
    -9
 73
    16
  0
VERTEX
  5
132D3F
  8
0
 10
0.0
 20
0.0
 30
0.0
 70
   128
 71
     1
 72
     4
 73
   -15
  0
VERTEX
  5
132D40
  8
0
 10
0.0
 20
0.0
 30
0.0
 70
   128
 71
    16
 72
    -1
 73
    15
  0
VERTEX
  5
132D41
  8
0
 10
0.0
 20
0.0
 30
0.0
 70
   128
 71
     5
 72
     6
 73
   -18
  0
VERTEX
  5
132D42
  8
0
 10
0.0
 20
0.0
 30
0.0
 70
   128
 71
    17
 72
    -5
 73
    18
  0
VERTEX
  5
132D43
  8
0
 10
0.0
 20
0.0
 30
0.0
 70
   128
 71
    10
 72
     9
 73
   -17
  0
VERTEX
  5
132D44
  8
0
 10
0.0
 20
0.0
 30
0.0
 70
   128
 71
    18
 72
   -10
 73
    17
  0
SEQEND
  5
133032
  8
0
  0
POLYLINE
  5
132D45
  8
0
 66
     1
 10
0.0
 20
0.0
 30
0.0
 70
    64
 71
    18
 72
    16
  0
VERTEX
  5
132D46
  8
0
 10
-0.0000000000000439
 20
-39.76147367097114
 30
177.1413429510896
 70
   192
  0
VERTEX
  5
132D47
  8
0
 10
-0.0000000000000683
 20
-53.2614736709716
 30
153.7586570489101
 70
   192
  0
VERTEX
  5
132D48
  8
0
 10
-0.0000000000000574
 20
-46.20336480838388
 30
149.6836559971252
 70
   192
  0
VERTEX
  5
132D49
  8
0
 10
-0.000000000000033
 20
-32.70336480838341
 30
173.0663418993047
 70
   192
  0
VERTEX
  5
132D4A
  8
0
 10
13.49999999999993
 20
-39.45336480838363
 30
161.3749989482149
 70
   192
  0
VERTEX
  5
132D4B
  8
0
 10
13.49999999999992
 20
-46.51147367097135
 30
165.4499999999998
 70
   192
  0
VERTEX
  5
132D4C
  8
0
 10
9.545941546018325
 20
-44.226335581393
 30
153.1079710663219
 70
   192
  0
VERTEX
  5
132D4D
  8
0
 10
9.545941546018314
 20
-51.28444444398071
 30
157.1829721181067
 70
   192
  0
VERTEX
  5
132D4E
  8
0
 10
9.545941546018343
 20
-34.68039403537426
 30
169.642026830108
 70
   192
  0
VERTEX
  5
132D4F
  8
0
 10
9.545941546018332
 20
-41.738502897962
 30
173.717027881893
 70
   192
  0
VERTEX
  5
132D50
  8
0
 10
12.55214206434274
 20
-41.93800409792636
 30
157.0714774602453
 70
   192
  0
VERTEX
  5
132D51
  8
0
 10
12.55214206434273
 20
-48.99611296051408
 30
161.1464785120302
 70
   192
  0
VERTEX
  5
132D52
  8
0
 10
4.969278579085207
 20
-52.78754470314298
 30
154.5795261003679
 70
   192
  0
VERTEX
  5
132D53
  8
0
 10
4.96927857908522
 20
-45.72943584055526
 30
150.504525048583
 70
   192
  0
VERTEX
  5
132D54
  8
0
 10
4.969278579085239
 20
-33.17729377621201
 30
172.2454728478469
 70
   192
  0
VERTEX
  5
132D55
  8
0
 10
4.969278579085231
 20
-40.23540263879974
 30
176.3204738996318
 70
   192
  0
VERTEX
  5
132D56
  8
0
 10
12.55214206434275
 20
-36.9687255188409
 30
165.6785204361846
 70
   192
  0
VERTEX
  5
132D57
  8
0
 10
12.55214206434274
 20
-44.02683438142862
 30
169.7535214879695
 70
   192
  0
VERTEX
  5
132D58
  8
0
 10
0.0
 20
0.0
 30
0.0
 70
   128
 71
     7
 72
     8
 73
   -12
  0
VERTEX
  5
132D59
  8
0
 10
0.0
 20
0.0
 30
0.0
 70
   128
 71
    11
 72
    -7
 73
    12
  0
VERTEX
  5
132D5A
  8
0
 10
0.0
 20
0.0
 30
0.0
 70
   128
 71
     6
 72
     5
 73
   -11
  0
VERTEX
  5
132D5B
  8
0
 10
0.0
 20
0.0
 30
0.0
 70
   128
 71
    12
 72
    -6
 73
    11
  0
VERTEX
  5
132D5C
  8
0
 10
0.0
 20
0.0
 30
0.0
 70
   128
 71
     3
 72
     2
 73
   -13
  0
VERTEX
  5
132D5D
  8
0
 10
0.0
 20
0.0
 30
0.0
 70
   128
 71
    14
 72
    -3
 73
    13
  0
VERTEX
  5
132D5E
  8
0
 10
0.0
 20
0.0
 30
0.0
 70
   128
 71
     8
 72
     7
 73
   -14
  0
VERTEX
  5
132D5F
  8
0
 10
0.0
 20
0.0
 30
0.0
 70
   128
 71
    13
 72
    -8
 73
    14
  0
VERTEX
  5
132D60
  8
0
 10
0.0
 20
0.0
 30
0.0
 70
   128
 71
     9
 72
    10
 73
   -16
  0
VERTEX
  5
132D61
  8
0
 10
0.0
 20
0.0
 30
0.0
 70
   128
 71
    15
 72
    -9
 73
    16
  0
VERTEX
  5
132D62
  8
0
 10
0.0
 20
0.0
 30
0.0
 70
   128
 71
     1
 72
     4
 73
   -15
  0
VERTEX
  5
132D63
  8
0
 10
0.0
 20
0.0
 30
0.0
 70
   128
 71
    16
 72
    -1
 73
    15
  0
VERTEX
  5
132D64
  8
0
 10
0.0
 20
0.0
 30
0.0
 70
   128
 71
     5
 72
     6
 73
   -18
  0
VERTEX
  5
132D65
  8
0
 10
0.0
 20
0.0
 30
0.0
 70
   128
 71
    17
 72
    -5
 73
    18
  0
VERTEX
  5
132D66
  8
0
 10
0.0
 20
0.0
 30
0.0
 70
   128
 71
    10
 72
     9
 73
   -17
  0
VERTEX
  5
132D67
  8
0
 10
0.0
 20
0.0
 30
0.0
 70
   128
 71
    18
 72
   -10
 73
    17
  0
SEQEND
  5
133033
  8
0
  0
POLYLINE
  5
132D68
  8
0
 66
     1
 10
0.0
 20
0.0
 30
0.0
 70
    64
 71
    18
 72
    16
  0
VERTEX
  5
132D69
  8
0
 10
-0.0000000000000678
 20
-53.06948637286379
 30
155.0911888036406
 70
   192
  0
VERTEX
  5
132D6A
  8
0
 10
-0.0000000000000457
 20
-40.81948637286337
 30
176.3088111963591
 70
   192
  0
VERTEX
  5
132D6B
  8
0
 10
-0.0000000000000445
 20
-40.13647367097115
 30
176.4918238982513
 70
   192
  0
VERTEX
  5
132D6C
  8
0
 10
-0.0000000000000676
 20
-52.88647367097158
 30
154.4081761017484
 70
   192
  0
VERTEX
  5
132D6D
  8
0
 10
-12.75000000000004
 20
-46.51147367097141
 30
165.4499999999998
 70
   192
  0
VERTEX
  5
132D6E
  8
0
 10
-12.25000000000004
 20
-46.9444863728636
 30
165.6999999999998
 70
   192
  0
VERTEX
  5
132D6F
  8
0
 10
-9.015611460128536
 20
-42.00366794090699
 30
173.2577485551211
 70
   192
  0
VERTEX
  5
132D70
  8
0
 10
-8.662058069535243
 20
-42.61345733809583
 30
173.2015623372732
 70
   192
  0
VERTEX
  5
132D71
  8
0
 10
-9.015611460128515
 20
-51.01927940103578
 30
157.6422514448786
 70
   192
  0
VERTEX
  5
132D72
  8
0
 10
-8.66205806953526
 20
-51.27551540763135
 30
158.1984376627265
 70
   192
  0
VERTEX
  5
132D73
  8
0
 10
-11.85480083854604
 20
-44.16486989751439
 30
169.51443696086
 70
   192
  0
VERTEX
  5
132D74
  8
0
 10
-11.38990668801481
 20
-44.68990627679705
 30
169.6050472761205
 70
   192
  0
VERTEX
  5
132D75
  8
0
 10
-4.509160192132978
 20
-41.24953302885601
 30
175.5639485385548
 70
   192
  0
VERTEX
  5
132D76
  8
0
 10
-4.69320754691393
 20
-40.58407325169818
 30
175.7165586829856
 70
   192
  0
VERTEX
  5
132D77
  8
0
 10
-4.693207546913924
 20
-52.43887409024457
 30
155.1834413170141
 70
   192
  0
VERTEX
  5
132D78
  8
0
 10
-4.509160192133002
 20
-52.63943971687117
 30
155.8360514614449
 70
   192
  0
VERTEX
  5
132D79
  8
0
 10
-11.85480083854602
 20
-48.85807744442842
 30
161.3855630391396
 70
   192
  0
VERTEX
  5
132D7A
  8
0
 10
-11.38990668801481
 20
-49.19906646893015
 30
161.7949527238792
 70
   192
  0
VERTEX
  5
132D7B
  8
0
 10
0.0
 20
0.0
 30
0.0
 70
   128
 71
     7
 72
     8
 73
   -12
  0
VERTEX
  5
132D7C
  8
0
 10
0.0
 20
0.0
 30
0.0
 70
   128
 71
    11
 72
    -7
 73
    12
  0
VERTEX
  5
132D7D
  8
0
 10
0.0
 20
0.0
 30
0.0
 70
   128
 71
     6
 72
     5
 73
   -11
  0
VERTEX
  5
132D7E
  8
0
 10
0.0
 20
0.0
 30
0.0
 70
   128
 71
    12
 72
    -6
 73
    11
  0
VERTEX
  5
132D7F
  8
0
 10
0.0
 20
0.0
 30
0.0
 70
   128
 71
     3
 72
     2
 73
   -13
  0
VERTEX
  5
132D80
  8
0
 10
0.0
 20
0.0
 30
0.0
 70
   128
 71
    14
 72
    -3
 73
    13
  0
VERTEX
  5
132D81
  8
0
 10
0.0
 20
0.0
 30
0.0
 70
   128
 71
     8
 72
     7
 73
   -14
  0
VERTEX
  5
132D82
  8
0
 10
0.0
 20
0.0
 30
0.0
 70
   128
 71
    13
 72
    -8
 73
    14
  0
VERTEX
  5
132D83
  8
0
 10
0.0
 20
0.0
 30
0.0
 70
   128
 71
     9
 72
    10
 73
   -16
  0
VERTEX
  5
132D84
  8
0
 10
0.0
 20
0.0
 30
0.0
 70
   128
 71
    15
 72
    -9
 73
    16
  0
VERTEX
  5
132D85
  8
0
 10
0.0
 20
0.0
 30
0.0
 70
   128
 71
     1
 72
     4
 73
   -15
  0
VERTEX
  5
132D86
  8
0
 10
0.0
 20
0.0
 30
0.0
 70
   128
 71
    16
 72
    -1
 73
    15
  0
VERTEX
  5
132D87
  8
0
 10
0.0
 20
0.0
 30
0.0
 70
   128
 71
     5
 72
     6
 73
   -18
  0
VERTEX
  5
132D88
  8
0
 10
0.0
 20
0.0
 30
0.0
 70
   128
 71
    17
 72
    -5
 73
    18
  0
VERTEX
  5
132D89
  8
0
 10
0.0
 20
0.0
 30
0.0
 70
   128
 71
    10
 72
     9
 73
   -17
  0
VERTEX
  5
132D8A
  8
0
 10
0.0
 20
0.0
 30
0.0
 70
   128
 71
    18
 72
   -10
 73
    17
  0
SEQEND
  5
133034
  8
0
  0
POLYLINE
  5
132D8B
  8
0
 66
     1
 10
0.0
 20
0.0
 30
0.0
 70
    64
 71
    18
 72
    16
  0
VERTEX
  5
132D8C
  8
0
 10
-0.0000000000000887
 20
-66.57948267190088
 30
162.8911888036408
 70
   192
  0
VERTEX
  5
132D8D
  8
0
 10
-0.0000000000000665
 20
-54.32948267190046
 30
184.1088111963593
 70
   192
  0
VERTEX
  5
132D8E
  8
0
 10
-0.0000000000000457
 20
-40.81948637286337
 30
176.3088111963591
 70
   192
  0
VERTEX
  5
132D8F
  8
0
 10
-0.0000000000000678
 20
-53.06948637286379
 30
155.0911888036406
 70
   192
  0
VERTEX
  5
132D90
  8
0
 10
-12.25000000000004
 20
-46.9444863728636
 30
165.6999999999998
 70
   192
  0
VERTEX
  5
132D91
  8
0
 10
-12.25000000000006
 20
-60.45448267190069
 30
173.5000000000001
 70
   192
  0
VERTEX
  5
132D92
  8
0
 10
-8.662058069535243
 20
-42.61345733809583
 30
173.2015623372732
 70
   192
  0
VERTEX
  5
132D93
  8
0
 10
-8.662058069535265
 20
-56.12345363713293
 30
181.0015623372735
 70
   192
  0
VERTEX
  5
132D94
  8
0
 10
-8.66205806953526
 20
-51.27551540763135
 30
158.1984376627265
 70
   192
  0
VERTEX
  5
132D95
  8
0
 10
-8.662058069535279
 20
-64.78551170666844
 30
165.9984376627267
 70
   192
  0
VERTEX
  5
132D96
  8
0
 10
-11.38990668801481
 20
-44.68990627679705
 30
169.6050472761205
 70
   192
  0
VERTEX
  5
132D97
  8
0
 10
-11.38990668801483
 20
-58.19990257583414
 30
177.4050472761207
 70
   192
  0
VERTEX
  5
132D98
  8
0
 10
-4.509160192133002
 20
-54.7595293278931
 30
183.363948538555
 70
   192
  0
VERTEX
  5
132D99
  8
0
 10
-4.509160192132978
 20
-41.24953302885601
 30
175.5639485385548
 70
   192
  0
VERTEX
  5
132D9A
  8
0
 10
-4.509160192133002
 20
-52.63943971687117
 30
155.8360514614449
 70
   192
  0
VERTEX
  5
132D9B
  8
0
 10
-4.50916019213302
 20
-66.14943601590826
 30
163.6360514614452
 70
   192
  0
VERTEX
  5
132D9C
  8
0
 10
-11.38990668801481
 20
-49.19906646893015
 30
161.7949527238792
 70
   192
  0
VERTEX
  5
132D9D
  8
0
 10
-11.38990668801483
 20
-62.70906276796723
 30
169.5949527238795
 70
   192
  0
VERTEX
  5
132D9E
  8
0
 10
0.0
 20
0.0
 30
0.0
 70
   128
 71
     7
 72
     8
 73
   -12
  0
VERTEX
  5
132D9F
  8
0
 10
0.0
 20
0.0
 30
0.0
 70
   128
 71
    11
 72
    -7
 73
    12
  0
VERTEX
  5
132DA0
  8
0
 10
0.0
 20
0.0
 30
0.0
 70
   128
 71
     6
 72
     5
 73
   -11
  0
VERTEX
  5
132DA1
  8
0
 10
0.0
 20
0.0
 30
0.0
 70
   128
 71
    12
 72
    -6
 73
    11
  0
VERTEX
  5
132DA2
  8
0
 10
0.0
 20
0.0
 30
0.0
 70
   128
 71
     3
 72
     2
 73
   -13
  0
VERTEX
  5
132DA3
  8
0
 10
0.0
 20
0.0
 30
0.0
 70
   128
 71
    14
 72
    -3
 73
    13
  0
VERTEX
  5
132DA4
  8
0
 10
0.0
 20
0.0
 30
0.0
 70
   128
 71
     8
 72
     7
 73
   -14
  0
VERTEX
  5
132DA5
  8
0
 10
0.0
 20
0.0
 30
0.0
 70
   128
 71
    13
 72
    -8
 73
    14
  0
VERTEX
  5
132DA6
  8
0
 10
0.0
 20
0.0
 30
0.0
 70
   128
 71
     9
 72
    10
 73
   -16
  0
VERTEX
  5
132DA7
  8
0
 10
0.0
 20
0.0
 30
0.0
 70
   128
 71
    15
 72
    -9
 73
    16
  0
VERTEX
  5
132DA8
  8
0
 10
0.0
 20
0.0
 30
0.0
 70
   128
 71
     1
 72
     4
 73
   -15
  0
VERTEX
  5
132DA9
  8
0
 10
0.0
 20
0.0
 30
0.0
 70
   128
 71
    16
 72
    -1
 73
    15
  0
VERTEX
  5
132DAA
  8
0
 10
0.0
 20
0.0
 30
0.0
 70
   128
 71
     5
 72
     6
 73
   -18
  0
VERTEX
  5
132DAB
  8
0
 10
0.0
 20
0.0
 30
0.0
 70
   128
 71
    17
 72
    -5
 73
    18
  0
VERTEX
  5
132DAC
  8
0
 10
0.0
 20
0.0
 30
0.0
 70
   128
 71
    10
 72
     9
 73
   -17
  0
VERTEX
  5
132DAD
  8
0
 10
0.0
 20
0.0
 30
0.0
 70
   128
 71
    18
 72
   -10
 73
    17
  0
SEQEND
  5
133035
  8
0
  0
POLYLINE
  5
132DAE
  8
0
 66
     1
 10
0.0
 20
0.0
 30
0.0
 70
    64
 71
    22
 72
    20
  0
VERTEX
  5
132DAF
  8
0
 10
-0.0000000000000887
 20
-66.57948267190088
 30
162.8911888036408
 70
   192
  0
VERTEX
  5
132DB0
  8
0
 10
-0.0000000000000918
 20
-67.2624953656781
 30
162.7081761158043
 70
   192
  0
VERTEX
  5
132DB1
  8
0
 10
-0.0000000000000667
 20
-54.51249538190767
 30
184.7918238841959
 70
   192
  0
VERTEX
  5
132DB2
  8
0
 10
-0.0000000000000665
 20
-54.32948267190046
 30
184.1088111963593
 70
   192
  0
VERTEX
  5
132DB3
  8
0
 10
-12.74999998377006
 20
-60.88749537379289
 30
173.7500000000001
 70
   192
  0
VERTEX
  5
132DB4
  8
0
 10
-12.25000000000006
 20
-60.45448267190069
 30
173.5000000000001
 70
   192
  0
VERTEX
  5
132DB5
  8
0
 10
-9.015611448652175
 20
-56.37968964946668
 30
181.5577485451826
 70
   192
  0
VERTEX
  5
132DB6
  8
0
 10
-8.662058069535265
 20
-56.12345363713293
 30
181.0015623372735
 70
   192
  0
VERTEX
  5
132DB7
  8
0
 10
-9.01561144865223
 20
-65.39530109811913
 30
165.9422514548177
 70
   192
  0
VERTEX
  5
132DB8
  8
0
 10
-8.662058069535279
 20
-64.78551170666844
 30
165.9984376627267
 70
   192
  0
VERTEX
  5
132DB9
  8
0
 10
-11.85480082345556
 20
-58.54089160332296
 30
177.8144369556865
 70
   192
  0
VERTEX
  5
132DBA
  8
0
 10
-11.38990668801483
 20
-58.19990257583414
 30
177.4050472761207
 70
   192
  0
VERTEX
  5
132DBB
  8
0
 10
0.0000000000011842
 20
-54.50930903175967
 30
184.2863844722222
 70
   192
  0
VERTEX
  5
132DBC
  8
0
 10
0.0000000000011841
 20
-54.57944293197401
 30
184.5481277341627
 70
   192
  0
VERTEX
  5
132DBD
  8
0
 10
-4.693207540939747
 20
-54.96009496206494
 30
184.0165586699172
 70
   192
  0
VERTEX
  5
132DBE
  8
0
 10
-4.509160192133002
 20
-54.7595293278931
 30
183.363948538555
 70
   192
  0
VERTEX
  5
132DBF
  8
0
 10
-4.693207540939795
 20
-66.81489578552087
 30
163.4834413300831
 70
   192
  0
VERTEX
  5
132DC0
  8
0
 10
-0.0000000000013401
 20
-67.08492208397803
 30
162.8880024698994
 70
   192
  0
VERTEX
  5
132DC1
  8
0
 10
-0.0000000000013397
 20
-66.823178819761
 30
162.9581363616175
 70
   192
  0
VERTEX
  5
132DC2
  8
0
 10
-4.50916019213302
 20
-66.14943601590826
 30
163.6360514614452
 70
   192
  0
VERTEX
  5
132DC3
  8
0
 10
-11.8548008234556
 20
-63.23409914426283
 30
169.6855630443137
 70
   192
  0
VERTEX
  5
132DC4
  8
0
 10
-11.38990668801483
 20
-62.70906276796723
 30
169.5949527238795
 70
   192
  0
VERTEX
  5
132DC5
  8
0
 10
0.0
 20
0.0
 30
0.0
 70
   128
 71
     5
 72
     6
 73
   -12
  0
VERTEX
  5
132DC6
  8
0
 10
0.0
 20
0.0
 30
0.0
 70
   128
 71
    11
 72
    -5
 73
    12
  0
VERTEX
  5
132DC7
  8
0
 10
0.0
 20
0.0
 30
0.0
 70
   128
 71
     8
 72
     7
 73
   -11
  0
VERTEX
  5
132DC8
  8
0
 10
0.0
 20
0.0
 30
0.0
 70
   128
 71
    12
 72
    -8
 73
    11
  0
VERTEX
  5
132DC9
  8
0
 10
0.0
 20
0.0
 30
0.0
 70
   128
 71
     7
 72
     8
 73
   -16
  0
VERTEX
  5
132DCA
  8
0
 10
0.0
 20
0.0
 30
0.0
 70
   128
 71
    15
 72
    -7
 73
    16
  0
VERTEX
  5
132DCB
  8
0
 10
0.0
 20
0.0
 30
0.0
 70
   128
 71
    16
 72
     4
 73
    13
  0
VERTEX
  5
132DCC
  8
0
 10
0.0
 20
0.0
 30
0.0
 70
   128
 71
    14
 72
    15
 73
    16
  0
VERTEX
  5
132DCD
  8
0
 10
0.0
 20
0.0
 30
0.0
 70
   128
 71
    13
 72
    14
 73
    16
  0
VERTEX
  5
132DCE
  8
0
 10
0.0
 20
0.0
 30
0.0
 70
   128
 71
    14
 72
     3
 73
    15
  0
VERTEX
  5
132DCF
  8
0
 10
0.0
 20
0.0
 30
0.0
 70
   128
 71
    17
 72
     2
 73
    18
  0
VERTEX
  5
132DD0
  8
0
 10
0.0
 20
0.0
 30
0.0
 70
   128
 71
    19
 72
    20
 73
    17
  0
VERTEX
  5
132DD1
  8
0
 10
0.0
 20
0.0
 30
0.0
 70
   128
 71
    18
 72
    19
 73
    17
  0
VERTEX
  5
132DD2
  8
0
 10
0.0
 20
0.0
 30
0.0
 70
   128
 71
    19
 72
     1
 73
    20
  0
VERTEX
  5
132DD3
  8
0
 10
0.0
 20
0.0
 30
0.0
 70
   128
 71
    10
 72
     9
 73
   -17
  0
VERTEX
  5
132DD4
  8
0
 10
0.0
 20
0.0
 30
0.0
 70
   128
 71
    20
 72
   -10
 73
    17
  0
VERTEX
  5
132DD5
  8
0
 10
0.0
 20
0.0
 30
0.0
 70
   128
 71
     9
 72
    10
 73
   -22
  0
VERTEX
  5
132DD6
  8
0
 10
0.0
 20
0.0
 30
0.0
 70
   128
 71
    21
 72
    -9
 73
    22
  0
VERTEX
  5
132DD7
  8
0
 10
0.0
 20
0.0
 30
0.0
 70
   128
 71
     6
 72
     5
 73
   -21
  0
VERTEX
  5
132DD8
  8
0
 10
0.0
 20
0.0
 30
0.0
 70
   128
 71
    22
 72
    -6
 73
    21
  0
SEQEND
  5
133036
  8
0
  0
POLYLINE
  5
132DD9
  8
0
 66
     1
 10
0.0
 20
0.0
 30
0.0
 70
    64
 71
    22
 72
    20
  0
VERTEX
  5
132DDA
  8
0
 10
-0.0000000000000652
 20
-53.63749539091263
 30
186.3073683252216
 70
   192
  0
VERTEX
  5
132DDB
  8
0
 10
-0.000000000000064
 20
-52.95448267190041
 30
186.4903810567665
 70
   192
  0
VERTEX
  5
132DDC
  8
0
 10
-0.0000000000000911
 20
-67.95448267190093
 30
160.5096189432337
 70
   192
  0
VERTEX
  5
132DDD
  8
0
 10
-0.0000000000000914
 20
-68.13749535667313
 30
161.1926316747786
 70
   192
  0
VERTEX
  5
132DDE
  8
0
 10
14.9999999999999
 20
-60.45448267190067
 30
173.5
 70
   192
  0
VERTEX
  5
132DDF
  8
0
 10
14.4999999657599
 20
-60.88749537379286
 30
173.7500000000001
 70
   192
  0
VERTEX
  5
132DE0
  8
0
 10
10.60660171779809
 20
-65.75778353079994
 30
164.3144134645633
 70
   192
  0
VERTEX
  5
132DE1
  8
0
 10
10.25304830299349
 20
-66.01401952528987
 30
164.8705997033788
 70
   192
  0
VERTEX
  5
132DE2
  8
0
 10
10.60660171779815
 20
-55.15118181300139
 30
182.6855865354369
 70
   192
  0
VERTEX
  5
132DE3
  8
0
 10
10.25304830299351
 20
-55.76097122229591
 30
182.6294002966214
 70
   192
  0
VERTEX
  5
132DE4
  8
0
 10
13.94682451593634
 20
-63.21519299361481
 30
168.7183094578116
 70
   192
  0
VERTEX
  5
132DE5
  8
0
 10
13.48193033356918
 20
-63.55618201181476
 30
169.1276991534662
 70
   192
  0
VERTEX
  5
132DE6
  8
0
 10
-0.0000000000000915
 20
-68.20448209832897
 30
160.9418743000148
 70
   192
  0
VERTEX
  5
132DE7
  8
0
 10
-0.0000000000000914
 20
-68.13787356669586
 30
160.6932878416961
 70
   192
  0
VERTEX
  5
132DE8
  8
0
 10
5.521420643427985
 20
-67.42789492986914
 30
161.4216956670757
 70
   192
  0
VERTEX
  5
132DE9
  8
0
 10
5.337373276043491
 20
-67.62846054057775
 30
162.0743058390772
 70
   192
  0
VERTEX
  5
132DEA
  8
0
 10
-0.0000000000000648
 20
-53.45382650500879
 30
186.4907592325941
 70
   192
  0
VERTEX
  5
132DEB
  8
0
 10
5.337373276043518
 20
-54.14653020700801
 30
185.4256941609229
 70
   192
  0
VERTEX
  5
132DEC
  8
0
 10
5.521420643428032
 20
-53.48107041393219
 30
185.5783043329245
 70
   192
  0
VERTEX
  5
132DED
  8
0
 10
-0.0000000000000644
 20
-53.20524005125144
 30
186.5573677812504
 70
   192
  0
VERTEX
  5
132DEE
  8
0
 10
13.94682451593637
 20
-57.69377235018653
 30
178.2816905421885
 70
   192
  0
VERTEX
  5
132DEF
  8
0
 10
13.48193033356919
 20
-58.21880873577098
 30
178.372300846534
 70
   192
  0
VERTEX
  5
132DF0
  8
0
 10
0.0
 20
0.0
 30
0.0
 70
   128
 71
     5
 72
     6
 73
   -12
  0
VERTEX
  5
132DF1
  8
0
 10
0.0
 20
0.0
 30
0.0
 70
   128
 71
    11
 72
    -5
 73
    12
  0
VERTEX
  5
132DF2
  8
0
 10
0.0
 20
0.0
 30
0.0
 70
   128
 71
     8
 72
     7
 73
   -11
  0
VERTEX
  5
132DF3
  8
0
 10
0.0
 20
0.0
 30
0.0
 70
   128
 71
    12
 72
    -8
 73
    11
  0
VERTEX
  5
132DF4
  8
0
 10
0.0
 20
0.0
 30
0.0
 70
   128
 71
     7
 72
     8
 73
   -16
  0
VERTEX
  5
132DF5
  8
0
 10
0.0
 20
0.0
 30
0.0
 70
   128
 71
    15
 72
    -7
 73
    16
  0
VERTEX
  5
132DF6
  8
0
 10
0.0
 20
0.0
 30
0.0
 70
   128
 71
    16
 72
     4
 73
    13
  0
VERTEX
  5
132DF7
  8
0
 10
0.0
 20
0.0
 30
0.0
 70
   128
 71
    14
 72
    15
 73
    16
  0
VERTEX
  5
132DF8
  8
0
 10
0.0
 20
0.0
 30
0.0
 70
   128
 71
    13
 72
    14
 73
    16
  0
VERTEX
  5
132DF9
  8
0
 10
0.0
 20
0.0
 30
0.0
 70
   128
 71
    14
 72
     3
 73
    15
  0
VERTEX
  5
132DFA
  8
0
 10
0.0
 20
0.0
 30
0.0
 70
   128
 71
    20
 72
     9
 73
    19
  0
VERTEX
  5
132DFB
  8
0
 10
0.0
 20
0.0
 30
0.0
 70
   128
 71
    19
 72
     2
 73
    20
  0
VERTEX
  5
132DFC
  8
0
 10
0.0
 20
0.0
 30
0.0
 70
   128
 71
    17
 72
    10
 73
     9
  0
VERTEX
  5
132DFD
  8
0
 10
0.0
 20
0.0
 30
0.0
 70
   128
 71
    20
 72
    17
 73
     9
  0
VERTEX
  5
132DFE
  8
0
 10
0.0
 20
0.0
 30
0.0
 70
   128
 71
    17
 72
     1
 73
    18
  0
VERTEX
  5
132DFF
  8
0
 10
0.0
 20
0.0
 30
0.0
 70
   128
 71
    18
 72
    10
 73
    17
  0
VERTEX
  5
132E00
  8
0
 10
0.0
 20
0.0
 30
0.0
 70
   128
 71
     9
 72
    10
 73
   -22
  0
VERTEX
  5
132E01
  8
0
 10
0.0
 20
0.0
 30
0.0
 70
   128
 71
    21
 72
    -9
 73
    22
  0
VERTEX
  5
132E02
  8
0
 10
0.0
 20
0.0
 30
0.0
 70
   128
 71
     6
 72
     5
 73
   -21
  0
VERTEX
  5
132E03
  8
0
 10
0.0
 20
0.0
 30
0.0
 70
   128
 71
    22
 72
    -6
 73
    21
  0
SEQEND
  5
133037
  8
0
  0
POLYLINE
  5
132E04
  8
0
 66
     1
 10
0.0
 20
0.0
 30
0.0
 70
    64
 71
    18
 72
    16
  0
VERTEX
  5
132E05
  8
0
 10
-0.000000000000064
 20
-52.95448267190041
 30
186.4903810567665
 70
   192
  0
VERTEX
  5
132E06
  8
0
 10
-0.0000000000000306
 20
-31.30384757728971
 30
173.9903810567661
 70
   192
  0
VERTEX
  5
132E07
  8
0
 10
-0.0000000000000577
 20
-46.30384757729022
 30
148.0096189432333
 70
   192
  0
VERTEX
  5
132E08
  8
0
 10
-0.0000000000000911
 20
-67.95448267190093
 30
160.5096189432337
 70
   192
  0
VERTEX
  5
132E09
  8
0
 10
14.99999999999993
 20
-38.80384757728997
 30
160.9999999999997
 70
   192
  0
VERTEX
  5
132E0A
  8
0
 10
14.9999999999999
 20
-60.45448267190067
 30
173.5
 70
   192
  0
VERTEX
  5
132E0B
  8
0
 10
10.60660171779813
 20
-44.10714843618924
 30
151.8144134645628
 70
   192
  0
VERTEX
  5
132E0C
  8
0
 10
10.60660171779809
 20
-65.75778353079994
 30
164.3144134645633
 70
   192
  0
VERTEX
  5
132E0D
  8
0
 10
10.60660171779818
 20
-33.50054671839067
 30
170.1855865354365
 70
   192
  0
VERTEX
  5
132E0E
  8
0
 10
10.60660171779815
 20
-55.15118181300139
 30
182.6855865354369
 70
   192
  0
VERTEX
  5
132E0F
  8
0
 10
13.94682451593637
 20
-41.56455789900409
 30
156.2183094578112
 70
   192
  0
VERTEX
  5
132E10
  8
0
 10
13.94682451593634
 20
-63.21519299361481
 30
168.7183094578116
 70
   192
  0
VERTEX
  5
132E11
  8
0
 10
5.521420643428016
 20
-45.77725983525843
 30
148.9216956670753
 70
   192
  0
VERTEX
  5
132E12
  8
0
 10
5.521420643427985
 20
-67.42789492986914
 30
161.4216956670757
 70
   192
  0
VERTEX
  5
132E13
  8
0
 10
5.521420643428065
 20
-31.83043531932149
 30
173.0783043329241
 70
   192
  0
VERTEX
  5
132E14
  8
0
 10
5.521420643428032
 20
-53.48107041393219
 30
185.5783043329245
 70
   192
  0
VERTEX
  5
132E15
  8
0
 10
13.94682451593641
 20
-36.04313725557583
 30
165.7816905421882
 70
   192
  0
VERTEX
  5
132E16
  8
0
 10
13.94682451593637
 20
-57.69377235018653
 30
178.2816905421885
 70
   192
  0
VERTEX
  5
132E17
  8
0
 10
0.0
 20
0.0
 30
0.0
 70
   128
 71
     5
 72
     6
 73
   -12
  0
VERTEX
  5
132E18
  8
0
 10
0.0
 20
0.0
 30
0.0
 70
   128
 71
    11
 72
    -5
 73
    12
  0
VERTEX
  5
132E19
  8
0
 10
0.0
 20
0.0
 30
0.0
 70
   128
 71
     8
 72
     7
 73
   -11
  0
VERTEX
  5
132E1A
  8
0
 10
0.0
 20
0.0
 30
0.0
 70
   128
 71
    12
 72
    -8
 73
    11
  0
VERTEX
  5
132E1B
  8
0
 10
0.0
 20
0.0
 30
0.0
 70
   128
 71
     7
 72
     8
 73
   -14
  0
VERTEX
  5
132E1C
  8
0
 10
0.0
 20
0.0
 30
0.0
 70
   128
 71
    13
 72
    -7
 73
    14
  0
VERTEX
  5
132E1D
  8
0
 10
0.0
 20
0.0
 30
0.0
 70
   128
 71
     4
 72
     3
 73
   -13
  0
VERTEX
  5
132E1E
  8
0
 10
0.0
 20
0.0
 30
0.0
 70
   128
 71
    14
 72
    -4
 73
    13
  0
VERTEX
  5
132E1F
  8
0
 10
0.0
 20
0.0
 30
0.0
 70
   128
 71
     2
 72
     1
 73
   -16
  0
VERTEX
  5
132E20
  8
0
 10
0.0
 20
0.0
 30
0.0
 70
   128
 71
    15
 72
    -2
 73
    16
  0
VERTEX
  5
132E21
  8
0
 10
0.0
 20
0.0
 30
0.0
 70
   128
 71
    10
 72
     9
 73
   -15
  0
VERTEX
  5
132E22
  8
0
 10
0.0
 20
0.0
 30
0.0
 70
   128
 71
    16
 72
   -10
 73
    15
  0
VERTEX
  5
132E23
  8
0
 10
0.0
 20
0.0
 30
0.0
 70
   128
 71
     9
 72
    10
 73
   -18
  0
VERTEX
  5
132E24
  8
0
 10
0.0
 20
0.0
 30
0.0
 70
   128
 71
    17
 72
    -9
 73
    18
  0
VERTEX
  5
132E25
  8
0
 10
0.0
 20
0.0
 30
0.0
 70
   128
 71
     6
 72
     5
 73
   -17
  0
VERTEX
  5
132E26
  8
0
 10
0.0
 20
0.0
 30
0.0
 70
   128
 71
    18
 72
    -6
 73
    17
  0
SEQEND
  5
133038
  8
0
  0
ENDBLK
  5
133027
  8
0
  0
BLOCK
  8
0
  2
*X3
 70
     1
 10
0.0
 20
0.0
 30
0.0
  3
*X3
  1

  0
POLYLINE
  5
132E28
  8
0
 66
     1
 10
0.0
 20
0.0
 30
0.0
 70
    64
 71
    19
 72
    17
  0
VERTEX
  5
132E29
  8
0
 10
14.84788368096184
 20
-5.878141750016639
 30
14.99999999999999
 70
   192
  0
VERTEX
  5
132E2A
  8
0
 10
15.96910142232999
 20
0.0000000000000159
 30
14.99999999999999
 70
   192
  0
VERTEX
  5
132E2B
  8
0
 10
14.71198969179827
 20
-4.780215221645111
 30
14.49999999999998
 70
   192
  0
VERTEX
  5
132E2C
  8
0
 10
9.092509671667068
 20
-12.51476592379845
 30
14.49999999999999
 70
   192
  0
VERTEX
  5
132E2D
  8
0
 10
-0.0000000000036144
 20
-15.46910140431002
 30
14.49999999999999
 70
   192
  0
VERTEX
  5
132E2E
  8
0
 10
-0.00000000000714
 20
-15.53646261878682
 30
14.75064652652435
 70
   192
  0
VERTEX
  5
132E2F
  8
0
 10
5.878141750016643
 20
-14.84788368096185
 30
14.99999999999998
 70
   192
  0
VERTEX
  5
132E30
  8
0
 10
-0.0000000000053287
 20
-15.71910088717556
 30
14.93301240332337
 70
   192
  0
VERTEX
  5
132E31
  8
0
 10
-0.0000000000000108
 20
-15.96910142233
 30
14.99999999999998
 70
   192
  0
VERTEX
  5
132E32
  8
0
 10
11.29185990518527
 20
-11.29185990518528
 30
14.99999999999999
 70
   192
  0
VERTEX
  5
132E33
  8
0
 10
0.0000000000053305
 20
15.71910088717559
 30
14.9330124033234
 70
   192
  0
VERTEX
  5
132E34
  8
0
 10
11.29185990518529
 20
11.2918599051853
 30
15.0
 70
   192
  0
VERTEX
  5
132E35
  8
0
 10
5.878141750016663
 20
14.84788368096186
 30
14.99999999999999
 70
   192
  0
VERTEX
  5
132E36
  8
0
 10
0.0000000000000123
 20
15.96910142233
 30
14.99999999999999
 70
   192
  0
VERTEX
  5
132E37
  8
0
 10
0.0000000000071442
 20
15.53646261878686
 30
14.75064652652442
 70
   192
  0
VERTEX
  5
132E38
  8
0
 10
0.000000000004966
 20
15.46910140431456
 30
14.50000000000009
 70
   192
  0
VERTEX
  5
132E39
  8
0
 10
9.092509671674016
 20
12.51476592379341
 30
14.49999999999998
 70
   192
  0
VERTEX
  5
132E3A
  8
0
 10
14.84788368096184
 20
5.878141750016672
 30
14.99999999999999
 70
   192
  0
VERTEX
  5
132E3B
  8
0
 10
14.71198969180092
 20
4.780215221636951
 30
14.49999999999998
 70
   192
  0
VERTEX
  5
132E3C
  8
0
 10
0.0
 20
0.0
 30
0.0
 70
   128
 71
     1
 72
     2
 73
     3
  0
VERTEX
  5
132E3D
  8
0
 10
0.0
 20
0.0
 30
0.0
 70
   128
 71
     4
 72
     5
 73
     6
  0
VERTEX
  5
132E3E
  8
0
 10
0.0
 20
0.0
 30
0.0
 70
   128
 71
     7
 72
     4
 73
     6
  0
VERTEX
  5
132E3F
  8
0
 10
0.0
 20
0.0
 30
0.0
 70
   128
 71
     6
 72
     8
 73
     7
  0
VERTEX
  5
132E40
  8
0
 10
0.0
 20
0.0
 30
0.0
 70
   128
 71
     8
 72
     9
 73
     7
  0
VERTEX
  5
132E41
  8
0
 10
0.0
 20
0.0
 30
0.0
 70
   128
 71
     7
 72
    10
 73
     4
  0
VERTEX
  5
132E42
  8
0
 10
0.0
 20
0.0
 30
0.0
 70
   128
 71
    11
 72
    12
 73
    13
  0
VERTEX
  5
132E43
  8
0
 10
0.0
 20
0.0
 30
0.0
 70
   128
 71
    13
 72
    14
 73
    11
  0
VERTEX
  5
132E44
  8
0
 10
0.0
 20
0.0
 30
0.0
 70
   128
 71
    11
 72
    15
 73
    12
  0
VERTEX
  5
132E45
  8
0
 10
0.0
 20
0.0
 30
0.0
 70
   128
 71
    15
 72
    16
 73
    17
  0
VERTEX
  5
132E46
  8
0
 10
0.0
 20
0.0
 30
0.0
 70
   128
 71
    18
 72
    12
 73
    19
  0
VERTEX
  5
132E47
  8
0
 10
0.0
 20
0.0
 30
0.0
 70
   128
 71
     2
 72
    18
 73
    19
  0
VERTEX
  5
132E48
  8
0
 10
0.0
 20
0.0
 30
0.0
 70
   128
 71
     3
 72
     2
 73
    19
  0
VERTEX
  5
132E49
  8
0
 10
0.0
 20
0.0
 30
0.0
 70
   128
 71
    10
 72
     1
 73
     3
  0
VERTEX
  5
132E4A
  8
0
 10
0.0
 20
0.0
 30
0.0
 70
   128
 71
     4
 72
    10
 73
     3
  0
VERTEX
  5
132E4B
  8
0
 10
0.0
 20
0.0
 30
0.0
 70
   128
 71
    12
 72
    15
 73
    17
  0
VERTEX
  5
132E4C
  8
0
 10
0.0
 20
0.0
 30
0.0
 70
   128
 71
    17
 72
    19
 73
    12
  0
SEQEND
  5
13303B
  8
0
  0
POLYLINE
  5
132E4D
  8
0
 66
     1
 10
0.0
 20
0.0
 30
0.0
 70
    64
 71
    19
 72
    17
  0
VERTEX
  5
132E4E
  8
0
 10
-14.84788368096184
 20
5.878141750016641
 30
14.99999999999999
 70
   192
  0
VERTEX
  5
132E4F
  8
0
 10
-15.96910142232999
 20
-0.0000000000000126
 30
14.99999999999999
 70
   192
  0
VERTEX
  5
132E50
  8
0
 10
-14.71198969179818
 20
4.78021522164537
 30
14.49999999999999
 70
   192
  0
VERTEX
  5
132E51
  8
0
 10
-9.092509671666416
 20
12.51476592379893
 30
14.5
 70
   192
  0
VERTEX
  5
132E52
  8
0
 10
0.0000000000049649
 20
15.46910140431002
 30
14.50000000000001
 70
   192
  0
VERTEX
  5
132E53
  8
0
 10
0.0000000000071442
 20
15.53646261878686
 30
14.75064652652442
 70
   192
  0
VERTEX
  5
132E54
  8
0
 10
-5.878141750016641
 20
14.84788368096185
 30
14.99999999999999
 70
   192
  0
VERTEX
  5
132E55
  8
0
 10
0.0000000000053305
 20
15.71910088717559
 30
14.9330124033234
 70
   192
  0
VERTEX
  5
132E56
  8
0
 10
0.0000000000000123
 20
15.96910142233
 30
14.99999999999999
 70
   192
  0
VERTEX
  5
132E57
  8
0
 10
-11.29185990518527
 20
11.29185990518528
 30
14.99999999999999
 70
   192
  0
VERTEX
  5
132E58
  8
0
 10
-0.0000000000053287
 20
-15.71910088717556
 30
14.93301240332337
 70
   192
  0
VERTEX
  5
132E59
  8
0
 10
-11.29185990518529
 20
-11.2918599051853
 30
14.99999999999999
 70
   192
  0
VERTEX
  5
132E5A
  8
0
 10
-5.878141750016661
 20
-14.84788368096186
 30
14.99999999999998
 70
   192
  0
VERTEX
  5
132E5B
  8
0
 10
-0.0000000000000108
 20
-15.96910142233
 30
14.99999999999998
 70
   192
  0
VERTEX
  5
132E5C
  8
0
 10
-0.00000000000714
 20
-15.53646261878682
 30
14.75064652652435
 70
   192
  0
VERTEX
  5
132E5D
  8
0
 10
-0.0000000000036151
 20
-15.46910140431001
 30
14.49999999999998
 70
   192
  0
VERTEX
  5
132E5E
  8
0
 10
-9.092509671673355
 20
-12.51476592379388
 30
14.49999999999998
 70
   192
  0
VERTEX
  5
132E5F
  8
0
 10
-14.84788368096184
 20
-5.878141750016669
 30
14.99999999999999
 70
   192
  0
VERTEX
  5
132E60
  8
0
 10
-14.71198969180083
 20
-4.780215221637206
 30
14.49999999999998
 70
   192
  0
VERTEX
  5
132E61
  8
0
 10
0.0
 20
0.0
 30
0.0
 70
   128
 71
     1
 72
     2
 73
     3
  0
VERTEX
  5
132E62
  8
0
 10
0.0
 20
0.0
 30
0.0
 70
   128
 71
     4
 72
     5
 73
     6
  0
VERTEX
  5
132E63
  8
0
 10
0.0
 20
0.0
 30
0.0
 70
   128
 71
     7
 72
     4
 73
     6
  0
VERTEX
  5
132E64
  8
0
 10
0.0
 20
0.0
 30
0.0
 70
   128
 71
     6
 72
     8
 73
     7
  0
VERTEX
  5
132E65
  8
0
 10
0.0
 20
0.0
 30
0.0
 70
   128
 71
     8
 72
     9
 73
     7
  0
VERTEX
  5
132E66
  8
0
 10
0.0
 20
0.0
 30
0.0
 70
   128
 71
     7
 72
    10
 73
     4
  0
VERTEX
  5
132E67
  8
0
 10
0.0
 20
0.0
 30
0.0
 70
   128
 71
    11
 72
    12
 73
    13
  0
VERTEX
  5
132E68
  8
0
 10
0.0
 20
0.0
 30
0.0
 70
   128
 71
    13
 72
    14
 73
    11
  0
VERTEX
  5
132E69
  8
0
 10
0.0
 20
0.0
 30
0.0
 70
   128
 71
    11
 72
    15
 73
    12
  0
VERTEX
  5
132E6A
  8
0
 10
0.0
 20
0.0
 30
0.0
 70
   128
 71
    15
 72
    16
 73
    17
  0
VERTEX
  5
132E6B
  8
0
 10
0.0
 20
0.0
 30
0.0
 70
   128
 71
    18
 72
    12
 73
    19
  0
VERTEX
  5
132E6C
  8
0
 10
0.0
 20
0.0
 30
0.0
 70
   128
 71
     2
 72
    18
 73
    19
  0
VERTEX
  5
132E6D
  8
0
 10
0.0
 20
0.0
 30
0.0
 70
   128
 71
     3
 72
     2
 73
    19
  0
VERTEX
  5
132E6E
  8
0
 10
0.0
 20
0.0
 30
0.0
 70
   128
 71
    10
 72
     1
 73
     3
  0
VERTEX
  5
132E6F
  8
0
 10
0.0
 20
0.0
 30
0.0
 70
   128
 71
     4
 72
    10
 73
     3
  0
VERTEX
  5
132E70
  8
0
 10
0.0
 20
0.0
 30
0.0
 70
   128
 71
    12
 72
    15
 73
    17
  0
VERTEX
  5
132E71
  8
0
 10
0.0
 20
0.0
 30
0.0
 70
   128
 71
    17
 72
    19
 73
    12
  0
SEQEND
  5
13303C
  8
0
  0
POLYLINE
  5
132E72
  8
0
 66
     1
 10
0.0
 20
0.0
 30
0.0
 70
    64
 71
    26
 72
    26
  0
VERTEX
  5
132E73
  8
0
 10
0.000000000000022
 20
29.5
 30
14.5
 70
   192
  0
VERTEX
  5
132E74
  8
0
 10
10.85879393207527
 20
27.42875488134169
 30
14.5
 70
   192
  0
VERTEX
  5
132E75
  8
0
 10
20.85965004500316
 20
20.85965004500314
 30
14.49999999999999
 70
   192
  0
VERTEX
  5
132E76
  8
0
 10
27.42875488134169
 20
10.85879393207523
 30
14.49999999999999
 70
   192
  0
VERTEX
  5
132E77
  8
0
 10
29.49999999999998
 20
-0.0000000000000204
 30
14.49999999999999
 70
   192
  0
VERTEX
  5
132E78
  8
0
 10
27.42875488134165
 20
-10.85879393207526
 30
14.49999999999999
 70
   192
  0
VERTEX
  5
132E79
  8
0
 10
20.85965004500309
 20
-20.85965004500316
 30
14.49999999999998
 70
   192
  0
VERTEX
  5
132E7A
  8
0
 10
10.8587939320752
 20
-27.42875488134169
 30
14.49999999999998
 70
   192
  0
VERTEX
  5
132E7B
  8
0
 10
-0.0000000000000206
 20
-29.5
 30
14.49999999999998
 70
   192
  0
VERTEX
  5
132E7C
  8
0
 10
-10.85879393207527
 20
-27.42875488134169
 30
14.49999999999998
 70
   192
  0
VERTEX
  5
132E7D
  8
0
 10
-20.85965004500316
 20
-20.85965004500314
 30
14.49999999999998
 70
   192
  0
VERTEX
  5
132E7E
  8
0
 10
-27.42875488134169
 20
-10.85879393207523
 30
14.49999999999998
 70
   192
  0
VERTEX
  5
132E7F
  8
0
 10
-29.49999999999998
 20
0.00000000000002
 30
14.49999999999999
 70
   192
  0
VERTEX
  5
132E80
  8
0
 10
-27.42875488134165
 20
10.85879393207526
 30
14.49999999999999
 70
   192
  0
VERTEX
  5
132E81
  8
0
 10
-20.85965004500309
 20
20.85965004500316
 30
14.49999999999999
 70
   192
  0
VERTEX
  5
132E82
  8
0
 10
-10.8587939320752
 20
27.42875488134169
 30
14.49999999999999
 70
   192
  0
VERTEX
  5
132E83
  8
0
 10
0.0000000000049649
 20
15.46910140431002
 30
14.50000000000001
 70
   192
  0
VERTEX
  5
132E84
  8
0
 10
-9.092509671666416
 20
12.51476592379893
 30
14.5
 70
   192
  0
VERTEX
  5
132E85
  8
0
 10
-14.71198969179818
 20
4.78021522164537
 30
14.49999999999999
 70
   192
  0
VERTEX
  5
132E86
  8
0
 10
-14.71198969180083
 20
-4.780215221637206
 30
14.49999999999998
 70
   192
  0
VERTEX
  5
132E87
  8
0
 10
-9.092509671673355
 20
-12.51476592379388
 30
14.49999999999998
 70
   192
  0
VERTEX
  5
132E88
  8
0
 10
-0.0000000000036151
 20
-15.46910140431002
 30
14.49999999999998
 70
   192
  0
VERTEX
  5
132E89
  8
0
 10
9.092509671667068
 20
-12.51476592379845
 30
14.49999999999999
 70
   192
  0
VERTEX
  5
132E8A
  8
0
 10
14.71198969179827
 20
-4.780215221645111
 30
14.49999999999998
 70
   192
  0
VERTEX
  5
132E8B
  8
0
 10
14.71198969180092
 20
4.780215221636951
 30
14.49999999999998
 70
   192
  0
VERTEX
  5
132E8C
  8
0
 10
9.092509671674016
 20
12.51476592379341
 30
14.49999999999998
 70
   192
  0
VERTEX
  5
132E8D
  8
0
 10
0.0
 20
0.0
 30
0.0
 70
   128
 71
    -1
 72
    17
 73
   -18
  0
VERTEX
  5
132E8E
  8
0
 10
0.0
 20
0.0
 30
0.0
 70
   128
 71
    16
 72
    -1
 73
   -18
  0
VERTEX
  5
132E8F
  8
0
 10
0.0
 20
0.0
 30
0.0
 70
   128
 71
    15
 72
   -16
 73
   -18
  0
VERTEX
  5
132E90
  8
0
 10
0.0
 20
0.0
 30
0.0
 70
   128
 71
   -19
 72
    14
 73
   -15
  0
VERTEX
  5
132E91
  8
0
 10
0.0
 20
0.0
 30
0.0
 70
   128
 71
    18
 72
   -19
 73
   -15
  0
VERTEX
  5
132E92
  8
0
 10
0.0
 20
0.0
 30
0.0
 70
   128
 71
    12
 72
    13
 73
   -14
  0
VERTEX
  5
132E93
  8
0
 10
0.0
 20
0.0
 30
0.0
 70
   128
 71
   -20
 72
   -12
 73
   -14
  0
VERTEX
  5
132E94
  8
0
 10
0.0
 20
0.0
 30
0.0
 70
   128
 71
    19
 72
   -20
 73
   -14
  0
VERTEX
  5
132E95
  8
0
 10
0.0
 20
0.0
 30
0.0
 70
   128
 71
   -21
 72
    11
 73
   -12
  0
VERTEX
  5
132E96
  8
0
 10
0.0
 20
0.0
 30
0.0
 70
   128
 71
    20
 72
   -21
 73
   -12
  0
VERTEX
  5
132E97
  8
0
 10
0.0
 20
0.0
 30
0.0
 70
   128
 71
     9
 72
    10
 73
   -11
  0
VERTEX
  5
132E98
  8
0
 10
0.0
 20
0.0
 30
0.0
 70
   128
 71
   -22
 72
    -9
 73
   -11
  0
VERTEX
  5
132E99
  8
0
 10
0.0
 20
0.0
 30
0.0
 70
   128
 71
    21
 72
   -22
 73
   -11
  0
VERTEX
  5
132E9A
  8
0
 10
0.0
 20
0.0
 30
0.0
 70
   128
 71
     7
 72
     8
 73
    -9
  0
VERTEX
  5
132E9B
  8
0
 10
0.0
 20
0.0
 30
0.0
 70
   128
 71
   -23
 72
    -7
 73
    -9
  0
VERTEX
  5
132E9C
  8
0
 10
0.0
 20
0.0
 30
0.0
 70
   128
 71
    22
 72
   -23
 73
    -9
  0
VERTEX
  5
132E9D
  8
0
 10
0.0
 20
0.0
 30
0.0
 70
   128
 71
   -24
 72
     6
 73
    -7
  0
VERTEX
  5
132E9E
  8
0
 10
0.0
 20
0.0
 30
0.0
 70
   128
 71
    23
 72
   -24
 73
    -7
  0
VERTEX
  5
132E9F
  8
0
 10
0.0
 20
0.0
 30
0.0
 70
   128
 71
     4
 72
     5
 73
    -6
  0
VERTEX
  5
132EA0
  8
0
 10
0.0
 20
0.0
 30
0.0
 70
   128
 71
   -25
 72
    -4
 73
    -6
  0
VERTEX
  5
132EA1
  8
0
 10
0.0
 20
0.0
 30
0.0
 70
   128
 71
    24
 72
   -25
 73
    -6
  0
VERTEX
  5
132EA2
  8
0
 10
0.0
 20
0.0
 30
0.0
 70
   128
 71
   -26
 72
     3
 73
    -4
  0
VERTEX
  5
132EA3
  8
0
 10
0.0
 20
0.0
 30
0.0
 70
   128
 71
    25
 72
   -26
 73
    -4
  0
VERTEX
  5
132EA4
  8
0
 10
0.0
 20
0.0
 30
0.0
 70
   128
 71
     1
 72
     2
 73
    -3
  0
VERTEX
  5
132EA5
  8
0
 10
0.0
 20
0.0
 30
0.0
 70
   128
 71
   -17
 72
    -1
 73
    -3
  0
VERTEX
  5
132EA6
  8
0
 10
0.0
 20
0.0
 30
0.0
 70
   128
 71
    26
 72
   -17
 73
    -3
  0
SEQEND
  5
13303D
  8
0
  0
POLYLINE
  5
132EA7
  8
0
 66
     1
 10
0.0
 20
0.0
 30
0.0
 70
    64
 71
    18
 72
    16
  0
VERTEX
  5
132EA8
  8
0
 10
0.000000000000022
 20
29.5
 30
14.5
 70
   192
  0
VERTEX
  5
132EA9
  8
0
 10
-0.0000000000000206
 20
-29.5
 30
14.49999999999998
 70
   192
  0
VERTEX
  5
132EAA
  8
0
 10
-0.0000000000000213
 20
-29.5
 30
-0.0000000000000082
 70
   192
  0
VERTEX
  5
132EAB
  8
0
 10
0.0000000000000312
 20
29.5
 30
0.0000000000000082
 70
   192
  0
VERTEX
  5
132EAC
  8
0
 10
29.49999999999998
 20
0.000000000000061
 30
0.0000000000000019
 70
   192
  0
VERTEX
  5
132EAD
  8
0
 10
29.49999999999998
 20
-0.0000000000000204
 30
14.49999999999999
 70
   192
  0
VERTEX
  5
132EAE
  8
0
 10
20.85965004500313
 20
-20.85965004500311
 30
-0.0000000000000044
 70
   192
  0
VERTEX
  5
132EAF
  8
0
 10
20.85965004500309
 20
-20.85965004500316
 30
14.49999999999998
 70
   192
  0
VERTEX
  5
132EB0
  8
0
 10
10.85879393207522
 20
-27.42875488134167
 30
-0.0000000000000069
 70
   192
  0
VERTEX
  5
132EB1
  8
0
 10
10.8587939320752
 20
-27.42875488134169
 30
14.49999999999998
 70
   192
  0
VERTEX
  5
132EB2
  8
0
 10
27.42875488134167
 20
-10.85879393207519
 30
-0.0000000000000012
 70
   192
  0
VERTEX
  5
132EB3
  8
0
 10
27.42875488134165
 20
-10.85879393207526
 30
14.49999999999999
 70
   192
  0
VERTEX
  5
132EB4
  8
0
 10
20.85965004500313
 20
20.85965004500319
 30
0.0000000000000072
 70
   192
  0
VERTEX
  5
132EB5
  8
0
 10
20.85965004500316
 20
20.85965004500314
 30
14.49999999999999
 70
   192
  0
VERTEX
  5
132EB6
  8
0
 10
27.42875488134166
 20
10.8587939320753
 30
0.0000000000000048
 70
   192
  0
VERTEX
  5
132EB7
  8
0
 10
27.42875488134169
 20
10.85879393207523
 30
14.49999999999999
 70
   192
  0
VERTEX
  5
132EB8
  8
0
 10
10.85879393207525
 20
27.42875488134171
 30
0.0000000000000083
 70
   192
  0
VERTEX
  5
132EB9
  8
0
 10
10.85879393207527
 20
27.42875488134169
 30
14.5
 70
   192
  0
VERTEX
  5
132EBA
  8
0
 10
0.0
 20
0.0
 30
0.0
 70
   128
 71
    10
 72
     8
 73
    -7
  0
VERTEX
  5
132EBB
  8
0
 10
0.0
 20
0.0
 30
0.0
 70
   128
 71
     9
 72
   -10
 73
     7
  0
VERTEX
  5
132EBC
  8
0
 10
0.0
 20
0.0
 30
0.0
 70
   128
 71
     2
 72
    10
 73
    -9
  0
VERTEX
  5
132EBD
  8
0
 10
0.0
 20
0.0
 30
0.0
 70
   128
 71
     3
 72
    -2
 73
     9
  0
VERTEX
  5
132EBE
  8
0
 10
0.0
 20
0.0
 30
0.0
 70
   128
 71
    12
 72
     6
 73
    -5
  0
VERTEX
  5
132EBF
  8
0
 10
0.0
 20
0.0
 30
0.0
 70
   128
 71
    11
 72
   -12
 73
     5
  0
VERTEX
  5
132EC0
  8
0
 10
0.0
 20
0.0
 30
0.0
 70
   128
 71
     8
 72
    12
 73
   -11
  0
VERTEX
  5
132EC1
  8
0
 10
0.0
 20
0.0
 30
0.0
 70
   128
 71
     7
 72
    -8
 73
    11
  0
VERTEX
  5
132EC2
  8
0
 10
0.0
 20
0.0
 30
0.0
 70
   128
 71
    16
 72
    14
 73
   -13
  0
VERTEX
  5
132EC3
  8
0
 10
0.0
 20
0.0
 30
0.0
 70
   128
 71
    15
 72
   -16
 73
    13
  0
VERTEX
  5
132EC4
  8
0
 10
0.0
 20
0.0
 30
0.0
 70
   128
 71
     6
 72
    16
 73
   -15
  0
VERTEX
  5
132EC5
  8
0
 10
0.0
 20
0.0
 30
0.0
 70
   128
 71
     5
 72
    -6
 73
    15
  0
VERTEX
  5
132EC6
  8
0
 10
0.0
 20
0.0
 30
0.0
 70
   128
 71
    18
 72
     1
 73
    -4
  0
VERTEX
  5
132EC7
  8
0
 10
0.0
 20
0.0
 30
0.0
 70
   128
 71
    17
 72
   -18
 73
     4
  0
VERTEX
  5
132EC8
  8
0
 10
0.0
 20
0.0
 30
0.0
 70
   128
 71
    14
 72
    18
 73
   -17
  0
VERTEX
  5
132EC9
  8
0
 10
0.0
 20
0.0
 30
0.0
 70
   128
 71
    13
 72
   -14
 73
    17
  0
SEQEND
  5
13303E
  8
0
  0
POLYLINE
  5
132ECA
  8
0
 66
     1
 10
0.0
 20
0.0
 30
0.0
 70
    64
 71
    18
 72
    16
  0
VERTEX
  5
132ECB
  8
0
 10
-0.0000000000000206
 20
-29.5
 30
14.49999999999998
 70
   192
  0
VERTEX
  5
132ECC
  8
0
 10
0.000000000000022
 20
29.5
 30
14.5
 70
   192
  0
VERTEX
  5
132ECD
  8
0
 10
0.0000000000000312
 20
29.5
 30
0.0000000000000082
 70
   192
  0
VERTEX
  5
132ECE
  8
0
 10
-0.0000000000000213
 20
-29.5
 30
-0.0000000000000082
 70
   192
  0
VERTEX
  5
132ECF
  8
0
 10
-29.49999999999997
 20
0.0000000000000184
 30
-0.0000000000000019
 70
   192
  0
VERTEX
  5
132ED0
  8
0
 10
-29.49999999999998
 20
0.00000000000002
 30
14.49999999999999
 70
   192
  0
VERTEX
  5
132ED1
  8
0
 10
-20.85965004500309
 20
20.85965004500314
 30
0.0000000000000044
 70
   192
  0
VERTEX
  5
132ED2
  8
0
 10
-20.85965004500309
 20
20.85965004500316
 30
14.49999999999999
 70
   192
  0
VERTEX
  5
132ED3
  8
0
 10
-10.8587939320752
 20
27.42875488134169
 30
0.0000000000000069
 70
   192
  0
VERTEX
  5
132ED4
  8
0
 10
-10.8587939320752
 20
27.42875488134169
 30
14.49999999999999
 70
   192
  0
VERTEX
  5
132ED5
  8
0
 10
-27.42875488134165
 20
10.85879393207525
 30
0.0000000000000012
 70
   192
  0
VERTEX
  5
132ED6
  8
0
 10
-27.42875488134165
 20
10.85879393207526
 30
14.49999999999999
 70
   192
  0
VERTEX
  5
132ED7
  8
0
 10
-20.85965004500316
 20
-20.85965004500315
 30
-0.0000000000000072
 70
   192
  0
VERTEX
  5
132ED8
  8
0
 10
-20.85965004500316
 20
-20.85965004500314
 30
14.49999999999998
 70
   192
  0
VERTEX
  5
132ED9
  8
0
 10
-27.42875488134169
 20
-10.85879393207524
 30
-0.0000000000000048
 70
   192
  0
VERTEX
  5
132EDA
  8
0
 10
-27.42875488134169
 20
-10.85879393207523
 30
14.49999999999998
 70
   192
  0
VERTEX
  5
132EDB
  8
0
 10
-10.85879393207527
 20
-27.42875488134169
 30
-0.0000000000000083
 70
   192
  0
VERTEX
  5
132EDC
  8
0
 10
-10.85879393207527
 20
-27.42875488134169
 30
14.49999999999998
 70
   192
  0
VERTEX
  5
132EDD
  8
0
 10
0.0
 20
0.0
 30
0.0
 70
   128
 71
     7
 72
     9
 73
   -10
  0
VERTEX
  5
132EDE
  8
0
 10
0.0
 20
0.0
 30
0.0
 70
   128
 71
     8
 72
    -7
 73
    10
  0
VERTEX
  5
132EDF
  8
0
 10
0.0
 20
0.0
 30
0.0
 70
   128
 71
     9
 72
     3
 73
    -2
  0
VERTEX
  5
132EE0
  8
0
 10
0.0
 20
0.0
 30
0.0
 70
   128
 71
    10
 72
    -9
 73
     2
  0
VERTEX
  5
132EE1
  8
0
 10
0.0
 20
0.0
 30
0.0
 70
   128
 71
     5
 72
    11
 73
   -12
  0
VERTEX
  5
132EE2
  8
0
 10
0.0
 20
0.0
 30
0.0
 70
   128
 71
     6
 72
    -5
 73
    12
  0
VERTEX
  5
132EE3
  8
0
 10
0.0
 20
0.0
 30
0.0
 70
   128
 71
    11
 72
     7
 73
    -8
  0
VERTEX
  5
132EE4
  8
0
 10
0.0
 20
0.0
 30
0.0
 70
   128
 71
    12
 72
   -11
 73
     8
  0
VERTEX
  5
132EE5
  8
0
 10
0.0
 20
0.0
 30
0.0
 70
   128
 71
    13
 72
    15
 73
   -16
  0
VERTEX
  5
132EE6
  8
0
 10
0.0
 20
0.0
 30
0.0
 70
   128
 71
    14
 72
   -13
 73
    16
  0
VERTEX
  5
132EE7
  8
0
 10
0.0
 20
0.0
 30
0.0
 70
   128
 71
    15
 72
     5
 73
    -6
  0
VERTEX
  5
132EE8
  8
0
 10
0.0
 20
0.0
 30
0.0
 70
   128
 71
    16
 72
   -15
 73
     6
  0
VERTEX
  5
132EE9
  8
0
 10
0.0
 20
0.0
 30
0.0
 70
   128
 71
     4
 72
    17
 73
   -18
  0
VERTEX
  5
132EEA
  8
0
 10
0.0
 20
0.0
 30
0.0
 70
   128
 71
     1
 72
    -4
 73
    18
  0
VERTEX
  5
132EEB
  8
0
 10
0.0
 20
0.0
 30
0.0
 70
   128
 71
    17
 72
    13
 73
   -14
  0
VERTEX
  5
132EEC
  8
0
 10
0.0
 20
0.0
 30
0.0
 70
   128
 71
    18
 72
   -17
 73
    14
  0
SEQEND
  5
13303F
  8
0
  0
POLYLINE
  5
132EED
  8
0
 66
     1
 10
0.0
 20
0.0
 30
0.0
 70
    64
 71
    32
 72
    32
  0
VERTEX
  5
132EEE
  8
0
 10
0.0000000000000483
 20
30.0
 30
0.0000000000000083
 70
   192
  0
VERTEX
  5
132EEF
  8
0
 10
11.04284128685622
 20
27.89364903187292
 30
0.0000000000000085
 70
   192
  0
VERTEX
  5
132EF0
  8
0
 10
21.21320343559644
 20
21.21320343559645
 30
0.0000000000000073
 70
   192
  0
VERTEX
  5
132EF1
  8
0
 10
27.8936490318729
 20
11.0428412868562
 30
0.0000000000000049
 70
   192
  0
VERTEX
  5
132EF2
  8
0
 10
29.99999999999998
 20
0.0000000000000098
 30
0.000000000000002
 70
   192
  0
VERTEX
  5
132EF3
  8
0
 10
27.89364903187288
 20
-11.04284128685617
 30
-0.0000000000000013
 70
   192
  0
VERTEX
  5
132EF4
  8
0
 10
21.2132034355964
 20
-21.21320343559642
 30
-0.0000000000000045
 70
   192
  0
VERTEX
  5
132EF5
  8
0
 10
11.04284128685616
 20
-27.89364903187291
 30
-0.000000000000007
 70
   192
  0
VERTEX
  5
132EF6
  8
0
 10
-0.0000000000000216
 20
-30.0
 30
-0.0000000000000083
 70
   192
  0
VERTEX
  5
132EF7
  8
0
 10
-11.04284128685618
 20
-27.89364903187291
 30
-0.0000000000000085
 70
   192
  0
VERTEX
  5
132EF8
  8
0
 10
-21.21320343559642
 20
-21.21320343559643
 30
-0.0000000000000073
 70
   192
  0
VERTEX
  5
132EF9
  8
0
 10
-27.89364903187289
 20
-11.04284128685619
 30
-0.0000000000000049
 70
   192
  0
VERTEX
  5
132EFA
  8
0
 10
-29.99999999999998
 20
-0.0000000000000135
 30
-0.000000000000002
 70
   192
  0
VERTEX
  5
132EFB
  8
0
 10
-27.89364903187288
 20
11.04284128685615
 30
0.0000000000000013
 70
   192
  0
VERTEX
  5
132EFC
  8
0
 10
-21.21320343559638
 20
21.2132034355964
 30
0.0000000000000045
 70
   192
  0
VERTEX
  5
132EFD
  8
0
 10
-11.04284128685613
 20
27.89364903187289
 30
0.000000000000007
 70
   192
  0
VERTEX
  5
132EFE
  8
0
 10
0.0000000000000312
 20
29.5
 30
0.0000000000000082
 70
   192
  0
VERTEX
  5
132EFF
  8
0
 10
-10.8587939320752
 20
27.42875488134169
 30
0.0000000000000069
 70
   192
  0
VERTEX
  5
132F00
  8
0
 10
-20.85965004500309
 20
20.85965004500314
 30
0.0000000000000044
 70
   192
  0
VERTEX
  5
132F01
  8
0
 10
-27.42875488134165
 20
10.85879393207525
 30
0.0000000000000012
 70
   192
  0
VERTEX
  5
132F02
  8
0
 10
-29.49999999999997
 20
0.0000000000000184
 30
-0.0000000000000019
 70
   192
  0
VERTEX
  5
132F03
  8
0
 10
-27.42875488134169
 20
-10.85879393207524
 30
-0.0000000000000048
 70
   192
  0
VERTEX
  5
132F04
  8
0
 10
-20.85965004500316
 20
-20.85965004500315
 30
-0.0000000000000072
 70
   192
  0
VERTEX
  5
132F05
  8
0
 10
-10.85879393207527
 20
-27.42875488134169
 30
-0.0000000000000083
 70
   192
  0
VERTEX
  5
132F06
  8
0
 10
-0.0000000000000213
 20
-29.5
 30
-0.0000000000000082
 70
   192
  0
VERTEX
  5
132F07
  8
0
 10
10.85879393207522
 20
-27.42875488134167
 30
-0.0000000000000069
 70
   192
  0
VERTEX
  5
132F08
  8
0
 10
20.85965004500313
 20
-20.85965004500311
 30
-0.0000000000000044
 70
   192
  0
VERTEX
  5
132F09
  8
0
 10
27.42875488134167
 20
-10.85879393207519
 30
-0.0000000000000012
 70
   192
  0
VERTEX
  5
132F0A
  8
0
 10
29.49999999999998
 20
0.000000000000061
 30
0.0000000000000019
 70
   192
  0
VERTEX
  5
132F0B
  8
0
 10
27.42875488134166
 20
10.8587939320753
 30
0.0000000000000048
 70
   192
  0
VERTEX
  5
132F0C
  8
0
 10
20.85965004500313
 20
20.85965004500319
 30
0.0000000000000072
 70
   192
  0
VERTEX
  5
132F0D
  8
0
 10
10.85879393207525
 20
27.42875488134171
 30
0.0000000000000083
 70
   192
  0
VERTEX
  5
132F0E
  8
0
 10
0.0
 20
0.0
 30
0.0
 70
   128
 71
    -1
 72
    17
 73
   -18
  0
VERTEX
  5
132F0F
  8
0
 10
0.0
 20
0.0
 30
0.0
 70
   128
 71
    16
 72
    -1
 73
   -18
  0
VERTEX
  5
132F10
  8
0
 10
0.0
 20
0.0
 30
0.0
 70
   128
 71
   -19
 72
    15
 73
   -16
  0
VERTEX
  5
132F11
  8
0
 10
0.0
 20
0.0
 30
0.0
 70
   128
 71
    18
 72
   -19
 73
   -16
  0
VERTEX
  5
132F12
  8
0
 10
0.0
 20
0.0
 30
0.0
 70
   128
 71
   -20
 72
    14
 73
   -15
  0
VERTEX
  5
132F13
  8
0
 10
0.0
 20
0.0
 30
0.0
 70
   128
 71
    19
 72
   -20
 73
   -15
  0
VERTEX
  5
132F14
  8
0
 10
0.0
 20
0.0
 30
0.0
 70
   128
 71
   -21
 72
    13
 73
   -14
  0
VERTEX
  5
132F15
  8
0
 10
0.0
 20
0.0
 30
0.0
 70
   128
 71
    20
 72
   -21
 73
   -14
  0
VERTEX
  5
132F16
  8
0
 10
0.0
 20
0.0
 30
0.0
 70
   128
 71
   -22
 72
    12
 73
   -13
  0
VERTEX
  5
132F17
  8
0
 10
0.0
 20
0.0
 30
0.0
 70
   128
 71
    21
 72
   -22
 73
   -13
  0
VERTEX
  5
132F18
  8
0
 10
0.0
 20
0.0
 30
0.0
 70
   128
 71
   -23
 72
    11
 73
   -12
  0
VERTEX
  5
132F19
  8
0
 10
0.0
 20
0.0
 30
0.0
 70
   128
 71
    22
 72
   -23
 73
   -12
  0
VERTEX
  5
132F1A
  8
0
 10
0.0
 20
0.0
 30
0.0
 70
   128
 71
   -24
 72
    10
 73
   -11
  0
VERTEX
  5
132F1B
  8
0
 10
0.0
 20
0.0
 30
0.0
 70
   128
 71
    23
 72
   -24
 73
   -11
  0
VERTEX
  5
132F1C
  8
0
 10
0.0
 20
0.0
 30
0.0
 70
   128
 71
   -25
 72
     9
 73
   -10
  0
VERTEX
  5
132F1D
  8
0
 10
0.0
 20
0.0
 30
0.0
 70
   128
 71
    24
 72
   -25
 73
   -10
  0
VERTEX
  5
132F1E
  8
0
 10
0.0
 20
0.0
 30
0.0
 70
   128
 71
   -26
 72
     8
 73
    -9
  0
VERTEX
  5
132F1F
  8
0
 10
0.0
 20
0.0
 30
0.0
 70
   128
 71
    25
 72
   -26
 73
    -9
  0
VERTEX
  5
132F20
  8
0
 10
0.0
 20
0.0
 30
0.0
 70
   128
 71
   -27
 72
     7
 73
    -8
  0
VERTEX
  5
132F21
  8
0
 10
0.0
 20
0.0
 30
0.0
 70
   128
 71
    26
 72
   -27
 73
    -8
  0
VERTEX
  5
132F22
  8
0
 10
0.0
 20
0.0
 30
0.0
 70
   128
 71
   -28
 72
     6
 73
    -7
  0
VERTEX
  5
132F23
  8
0
 10
0.0
 20
0.0
 30
0.0
 70
   128
 71
    27
 72
   -28
 73
    -7
  0
VERTEX
  5
132F24
  8
0
 10
0.0
 20
0.0
 30
0.0
 70
   128
 71
   -29
 72
     5
 73
    -6
  0
VERTEX
  5
132F25
  8
0
 10
0.0
 20
0.0
 30
0.0
 70
   128
 71
    28
 72
   -29
 73
    -6
  0
VERTEX
  5
132F26
  8
0
 10
0.0
 20
0.0
 30
0.0
 70
   128
 71
   -30
 72
     4
 73
    -5
  0
VERTEX
  5
132F27
  8
0
 10
0.0
 20
0.0
 30
0.0
 70
   128
 71
    29
 72
   -30
 73
    -5
  0
VERTEX
  5
132F28
  8
0
 10
0.0
 20
0.0
 30
0.0
 70
   128
 71
   -31
 72
     3
 73
    -4
  0
VERTEX
  5
132F29
  8
0
 10
0.0
 20
0.0
 30
0.0
 70
   128
 71
    30
 72
   -31
 73
    -4
  0
VERTEX
  5
132F2A
  8
0
 10
0.0
 20
0.0
 30
0.0
 70
   128
 71
   -32
 72
     2
 73
    -3
  0
VERTEX
  5
132F2B
  8
0
 10
0.0
 20
0.0
 30
0.0
 70
   128
 71
    31
 72
   -32
 73
    -3
  0
VERTEX
  5
132F2C
  8
0
 10
0.0
 20
0.0
 30
0.0
 70
   128
 71
   -17
 72
     1
 73
    -2
  0
VERTEX
  5
132F2D
  8
0
 10
0.0
 20
0.0
 30
0.0
 70
   128
 71
    32
 72
   -17
 73
    -2
  0
SEQEND
  5
133040
  8
0
  0
POLYLINE
  5
132F2E
  8
0
 66
     1
 10
0.0
 20
0.0
 30
0.0
 70
    64
 71
    18
 72
    16
  0
VERTEX
  5
132F2F
  8
0
 10
0.0000000000000224
 20
30.0
 30
14.5
 70
   192
  0
VERTEX
  5
132F30
  8
0
 10
0.0000000000000483
 20
30.0
 30
0.0000000000000083
 70
   192
  0
VERTEX
  5
132F31
  8
0
 10
-0.0000000000000216
 20
-30.0
 30
-0.0000000000000083
 70
   192
  0
VERTEX
  5
132F32
  8
0
 10
-0.0000000000000209
 20
-30.0
 30
14.49999999999998
 70
   192
  0
VERTEX
  5
132F33
  8
0
 10
29.99999999999998
 20
0.0000000000000098
 30
0.000000000000002
 70
   192
  0
VERTEX
  5
132F34
  8
0
 10
29.99999999999998
 20
0.0000000000000248
 30
14.49999999999999
 70
   192
  0
VERTEX
  5
132F35
  8
0
 10
21.2132034355964
 20
-21.21320343559642
 30
-0.0000000000000045
 70
   192
  0
VERTEX
  5
132F36
  8
0
 10
21.21320343559641
 20
-21.21320343559642
 30
14.49999999999998
 70
   192
  0
VERTEX
  5
132F37
  8
0
 10
11.04284128685616
 20
-27.89364903187291
 30
-0.000000000000007
 70
   192
  0
VERTEX
  5
132F38
  8
0
 10
11.04284128685616
 20
-27.8936490318729
 30
14.49999999999998
 70
   192
  0
VERTEX
  5
132F39
  8
0
 10
27.89364903187288
 20
-11.04284128685617
 30
-0.0000000000000013
 70
   192
  0
VERTEX
  5
132F3A
  8
0
 10
27.89364903187289
 20
-11.04284128685617
 30
14.49999999999999
 70
   192
  0
VERTEX
  5
132F3B
  8
0
 10
21.21320343559644
 20
21.21320343559645
 30
0.0000000000000073
 70
   192
  0
VERTEX
  5
132F3C
  8
0
 10
21.21320343559643
 20
21.21320343559645
 30
14.49999999999999
 70
   192
  0
VERTEX
  5
132F3D
  8
0
 10
27.8936490318729
 20
11.0428412868562
 30
0.0000000000000049
 70
   192
  0
VERTEX
  5
132F3E
  8
0
 10
27.8936490318729
 20
11.04284128685621
 30
14.5
 70
   192
  0
VERTEX
  5
132F3F
  8
0
 10
11.04284128685622
 20
27.89364903187292
 30
0.0000000000000085
 70
   192
  0
VERTEX
  5
132F40
  8
0
 10
11.04284128685621
 20
27.89364903187292
 30
14.5
 70
   192
  0
VERTEX
  5
132F41
  8
0
 10
0.0
 20
0.0
 30
0.0
 70
   128
 71
     8
 72
    10
 73
    -9
  0
VERTEX
  5
132F42
  8
0
 10
0.0
 20
0.0
 30
0.0
 70
   128
 71
     7
 72
    -8
 73
     9
  0
VERTEX
  5
132F43
  8
0
 10
0.0
 20
0.0
 30
0.0
 70
   128
 71
    10
 72
     4
 73
    -3
  0
VERTEX
  5
132F44
  8
0
 10
0.0
 20
0.0
 30
0.0
 70
   128
 71
     9
 72
   -10
 73
     3
  0
VERTEX
  5
132F45
  8
0
 10
0.0
 20
0.0
 30
0.0
 70
   128
 71
     6
 72
    12
 73
   -11
  0
VERTEX
  5
132F46
  8
0
 10
0.0
 20
0.0
 30
0.0
 70
   128
 71
     5
 72
    -6
 73
    11
  0
VERTEX
  5
132F47
  8
0
 10
0.0
 20
0.0
 30
0.0
 70
   128
 71
    12
 72
     8
 73
    -7
  0
VERTEX
  5
132F48
  8
0
 10
0.0
 20
0.0
 30
0.0
 70
   128
 71
    11
 72
   -12
 73
     7
  0
VERTEX
  5
132F49
  8
0
 10
0.0
 20
0.0
 30
0.0
 70
   128
 71
    14
 72
    16
 73
   -15
  0
VERTEX
  5
132F4A
  8
0
 10
0.0
 20
0.0
 30
0.0
 70
   128
 71
    13
 72
   -14
 73
    15
  0
VERTEX
  5
132F4B
  8
0
 10
0.0
 20
0.0
 30
0.0
 70
   128
 71
    16
 72
     6
 73
    -5
  0
VERTEX
  5
132F4C
  8
0
 10
0.0
 20
0.0
 30
0.0
 70
   128
 71
    15
 72
   -16
 73
     5
  0
VERTEX
  5
132F4D
  8
0
 10
0.0
 20
0.0
 30
0.0
 70
   128
 71
     1
 72
    18
 73
   -17
  0
VERTEX
  5
132F4E
  8
0
 10
0.0
 20
0.0
 30
0.0
 70
   128
 71
     2
 72
    -1
 73
    17
  0
VERTEX
  5
132F4F
  8
0
 10
0.0
 20
0.0
 30
0.0
 70
   128
 71
    18
 72
    14
 73
   -13
  0
VERTEX
  5
132F50
  8
0
 10
0.0
 20
0.0
 30
0.0
 70
   128
 71
    17
 72
   -18
 73
    13
  0
SEQEND
  5
133041
  8
0
  0
POLYLINE
  5
132F51
  8
0
 66
     1
 10
0.0
 20
0.0
 30
0.0
 70
    64
 71
    22
 72
    20
  0
VERTEX
  5
132F52
  8
0
 10
0.000000000000022
 20
29.50000002412
 30
15.0
 70
   192
  0
VERTEX
  5
132F53
  8
0
 10
0.0000000000000224
 20
30.0
 30
14.5
 70
   192
  0
VERTEX
  5
132F54
  8
0
 10
-0.0000000000000209
 20
-30.0
 30
14.49999999999998
 70
   192
  0
VERTEX
  5
132F55
  8
0
 10
-0.0000000000000206
 20
-29.50000002412
 30
14.99999999999998
 70
   192
  0
VERTEX
  5
132F56
  8
0
 10
29.99999999999998
 20
0.0000000000000248
 30
14.49999999999999
 70
   192
  0
VERTEX
  5
132F57
  8
0
 10
29.50000002411998
 20
-0.0000000000004106
 30
14.99999999999999
 70
   192
  0
VERTEX
  5
132F58
  8
0
 10
21.21320343559641
 20
-21.21320343559642
 30
14.49999999999998
 70
   192
  0
VERTEX
  5
132F59
  8
0
 10
20.85965006205837
 20
-20.85965006205874
 30
14.99999999999998
 70
   192
  0
VERTEX
  5
132F5A
  8
0
 10
11.04284128685616
 20
-27.8936490318729
 30
14.49999999999998
 70
   192
  0
VERTEX
  5
132F5B
  8
0
 10
10.85879394095356
 20
-27.42875490376823
 30
14.99999999999998
 70
   192
  0
VERTEX
  5
132F5C
  8
0
 10
27.89364903187289
 20
-11.04284128685617
 30
14.49999999999999
 70
   192
  0
VERTEX
  5
132F5D
  8
0
 10
27.42875490376803
 20
-10.85879394095402
 30
14.99999999999999
 70
   192
  0
VERTEX
  5
132F5E
  8
0
 10
21.21320343559643
 20
21.21320343559645
 30
14.49999999999999
 70
   192
  0
VERTEX
  5
132F5F
  8
0
 10
20.85965006205876
 20
20.85965006205841
 30
14.99999999999999
 70
   192
  0
VERTEX
  5
132F60
  8
0
 10
27.8936490318729
 20
11.04284128685621
 30
14.5
 70
   192
  0
VERTEX
  5
132F61
  8
0
 10
27.42875490376831
 20
10.85879394095337
 30
14.99999999999999
 70
   192
  0
VERTEX
  5
132F62
  8
0
 10
11.04284128685621
 20
27.89364903187292
 30
14.5
 70
   192
  0
VERTEX
  5
132F63
  8
0
 10
10.85879394095382
 20
27.42875490376816
 30
15.0
 70
   192
  0
VERTEX
  5
132F64
  8
0
 10
-0.0000000000000207
 20
-29.74452085275615
 30
14.93613020139333
 70
   192
  0
VERTEX
  5
132F65
  8
0
 10
-0.0000000000000209
 20
-29.93613021318903
 30
14.74452083171721
 70
   192
  0
VERTEX
  5
132F66
  8
0
 10
0.0000000000000222
 20
29.74452085275615
 30
14.93613020139335
 70
   192
  0
VERTEX
  5
132F67
  8
0
 10
0.0000000000000223
 20
29.93613021318904
 30
14.74452083171723
 70
   192
  0
VERTEX
  5
132F68
  8
0
 10
0.0
 20
0.0
 30
0.0
 70
   128
 71
     8
 72
    10
 73
    -9
  0
VERTEX
  5
132F69
  8
0
 10
0.0
 20
0.0
 30
0.0
 70
   128
 71
     7
 72
    -8
 73
     9
  0
VERTEX
  5
132F6A
  8
0
 10
0.0
 20
0.0
 30
0.0
 70
   128
 71
    10
 72
     4
 73
    19
  0
VERTEX
  5
132F6B
  8
0
 10
0.0
 20
0.0
 30
0.0
 70
   128
 71
    10
 72
    19
 73
    20
  0
VERTEX
  5
132F6C
  8
0
 10
0.0
 20
0.0
 30
0.0
 70
   128
 71
     9
 72
    10
 73
    20
  0
VERTEX
  5
132F6D
  8
0
 10
0.0
 20
0.0
 30
0.0
 70
   128
 71
    20
 72
     3
 73
     9
  0
VERTEX
  5
132F6E
  8
0
 10
0.0
 20
0.0
 30
0.0
 70
   128
 71
     6
 72
    12
 73
   -11
  0
VERTEX
  5
132F6F
  8
0
 10
0.0
 20
0.0
 30
0.0
 70
   128
 71
     5
 72
    -6
 73
    11
  0
VERTEX
  5
132F70
  8
0
 10
0.0
 20
0.0
 30
0.0
 70
   128
 71
    12
 72
     8
 73
    -7
  0
VERTEX
  5
132F71
  8
0
 10
0.0
 20
0.0
 30
0.0
 70
   128
 71
    11
 72
   -12
 73
     7
  0
VERTEX
  5
132F72
  8
0
 10
0.0
 20
0.0
 30
0.0
 70
   128
 71
    14
 72
    16
 73
   -15
  0
VERTEX
  5
132F73
  8
0
 10
0.0
 20
0.0
 30
0.0
 70
   128
 71
    13
 72
   -14
 73
    15
  0
VERTEX
  5
132F74
  8
0
 10
0.0
 20
0.0
 30
0.0
 70
   128
 71
    16
 72
     6
 73
    -5
  0
VERTEX
  5
132F75
  8
0
 10
0.0
 20
0.0
 30
0.0
 70
   128
 71
    15
 72
   -16
 73
     5
  0
VERTEX
  5
132F76
  8
0
 10
0.0
 20
0.0
 30
0.0
 70
   128
 71
    17
 72
     2
 73
    22
  0
VERTEX
  5
132F77
  8
0
 10
0.0
 20
0.0
 30
0.0
 70
   128
 71
    21
 72
    18
 73
    17
  0
VERTEX
  5
132F78
  8
0
 10
0.0
 20
0.0
 30
0.0
 70
   128
 71
    22
 72
    21
 73
    17
  0
VERTEX
  5
132F79
  8
0
 10
0.0
 20
0.0
 30
0.0
 70
   128
 71
    21
 72
     1
 73
    18
  0
VERTEX
  5
132F7A
  8
0
 10
0.0
 20
0.0
 30
0.0
 70
   128
 71
    18
 72
    14
 73
   -13
  0
VERTEX
  5
132F7B
  8
0
 10
0.0
 20
0.0
 30
0.0
 70
   128
 71
    17
 72
   -18
 73
    13
  0
SEQEND
  5
133042
  8
0
  0
POLYLINE
  5
132F7C
  8
0
 66
     1
 10
0.0
 20
0.0
 30
0.0
 70
    64
 71
    32
 72
    32
  0
VERTEX
  5
132F7D
  8
0
 10
0.000000000000022
 20
29.50000002412
 30
15.0
 70
   192
  0
VERTEX
  5
132F7E
  8
0
 10
-10.85879394095356
 20
27.42875490376823
 30
14.99999999999999
 70
   192
  0
VERTEX
  5
132F7F
  8
0
 10
-20.85965006205836
 20
20.85965006205874
 30
14.99999999999999
 70
   192
  0
VERTEX
  5
132F80
  8
0
 10
-27.42875490376803
 20
10.85879394095402
 30
14.99999999999999
 70
   192
  0
VERTEX
  5
132F81
  8
0
 10
-29.50000002411998
 20
0.0000000000004139
 30
14.99999999999999
 70
   192
  0
VERTEX
  5
132F82
  8
0
 10
-27.42875490376831
 20
-10.85879394095337
 30
14.99999999999998
 70
   192
  0
VERTEX
  5
132F83
  8
0
 10
-20.85965006205876
 20
-20.85965006205841
 30
14.99999999999998
 70
   192
  0
VERTEX
  5
132F84
  8
0
 10
-10.85879394095382
 20
-27.42875490376816
 30
14.99999999999998
 70
   192
  0
VERTEX
  5
132F85
  8
0
 10
-0.0000000000000206
 20
-29.50000002412
 30
14.99999999999998
 70
   192
  0
VERTEX
  5
132F86
  8
0
 10
10.85879394095356
 20
-27.42875490376823
 30
14.99999999999998
 70
   192
  0
VERTEX
  5
132F87
  8
0
 10
20.85965006205837
 20
-20.85965006205874
 30
14.99999999999998
 70
   192
  0
VERTEX
  5
132F88
  8
0
 10
27.42875490376803
 20
-10.85879394095402
 30
14.99999999999999
 70
   192
  0
VERTEX
  5
132F89
  8
0
 10
29.50000002411998
 20
-0.0000000000004106
 30
14.99999999999999
 70
   192
  0
VERTEX
  5
132F8A
  8
0
 10
27.42875490376831
 20
10.85879394095337
 30
14.99999999999999
 70
   192
  0
VERTEX
  5
132F8B
  8
0
 10
20.85965006205876
 20
20.85965006205841
 30
14.99999999999999
 70
   192
  0
VERTEX
  5
132F8C
  8
0
 10
10.85879394095382
 20
27.42875490376816
 30
15.0
 70
   192
  0
VERTEX
  5
132F8D
  8
0
 10
-0.0000000000000108
 20
-15.96910142233
 30
14.99999999999998
 70
   192
  0
VERTEX
  5
132F8E
  8
0
 10
-5.878141750016661
 20
-14.84788368096186
 30
14.99999999999998
 70
   192
  0
VERTEX
  5
132F8F
  8
0
 10
-11.29185990518529
 20
-11.2918599051853
 30
14.99999999999999
 70
   192
  0
VERTEX
  5
132F90
  8
0
 10
-14.84788368096184
 20
-5.878141750016669
 30
14.99999999999999
 70
   192
  0
VERTEX
  5
132F91
  8
0
 10
-15.96910142232999
 20
-0.0000000000000126
 30
14.99999999999999
 70
   192
  0
VERTEX
  5
132F92
  8
0
 10
-14.84788368096184
 20
5.878141750016641
 30
14.99999999999999
 70
   192
  0
VERTEX
  5
132F93
  8
0
 10
-11.29185990518527
 20
11.29185990518528
 30
14.99999999999999
 70
   192
  0
VERTEX
  5
132F94
  8
0
 10
-5.878141750016641
 20
14.84788368096185
 30
14.99999999999999
 70
   192
  0
VERTEX
  5
132F95
  8
0
 10
0.0000000000000123
 20
15.96910142233
 30
14.99999999999999
 70
   192
  0
VERTEX
  5
132F96
  8
0
 10
5.878141750016663
 20
14.84788368096186
 30
14.99999999999999
 70
   192
  0
VERTEX
  5
132F97
  8
0
 10
11.29185990518529
 20
11.2918599051853
 30
15.0
 70
   192
  0
VERTEX
  5
132F98
  8
0
 10
14.84788368096184
 20
5.878141750016672
 30
14.99999999999999
 70
   192
  0
VERTEX
  5
132F99
  8
0
 10
15.96910142232999
 20
0.0000000000000159
 30
14.99999999999999
 70
   192
  0
VERTEX
  5
132F9A
  8
0
 10
14.84788368096184
 20
-5.878141750016639
 30
14.99999999999999
 70
   192
  0
VERTEX
  5
132F9B
  8
0
 10
11.29185990518527
 20
-11.29185990518528
 30
14.99999999999999
 70
   192
  0
VERTEX
  5
132F9C
  8
0
 10
5.878141750016643
 20
-14.84788368096185
 30
14.99999999999998
 70
   192
  0
VERTEX
  5
132F9D
  8
0
 10
0.0
 20
0.0
 30
0.0
 70
   128
 71
    -9
 72
    17
 73
   -18
  0
VERTEX
  5
132F9E
  8
0
 10
0.0
 20
0.0
 30
0.0
 70
   128
 71
     8
 72
    -9
 73
   -18
  0
VERTEX
  5
132F9F
  8
0
 10
0.0
 20
0.0
 30
0.0
 70
   128
 71
   -19
 72
     7
 73
    -8
  0
VERTEX
  5
132FA0
  8
0
 10
0.0
 20
0.0
 30
0.0
 70
   128
 71
    18
 72
   -19
 73
    -8
  0
VERTEX
  5
132FA1
  8
0
 10
0.0
 20
0.0
 30
0.0
 70
   128
 71
   -20
 72
     6
 73
    -7
  0
VERTEX
  5
132FA2
  8
0
 10
0.0
 20
0.0
 30
0.0
 70
   128
 71
    19
 72
   -20
 73
    -7
  0
VERTEX
  5
132FA3
  8
0
 10
0.0
 20
0.0
 30
0.0
 70
   128
 71
   -21
 72
     5
 73
    -6
  0
VERTEX
  5
132FA4
  8
0
 10
0.0
 20
0.0
 30
0.0
 70
   128
 71
    20
 72
   -21
 73
    -6
  0
VERTEX
  5
132FA5
  8
0
 10
0.0
 20
0.0
 30
0.0
 70
   128
 71
   -22
 72
     4
 73
    -5
  0
VERTEX
  5
132FA6
  8
0
 10
0.0
 20
0.0
 30
0.0
 70
   128
 71
    21
 72
   -22
 73
    -5
  0
VERTEX
  5
132FA7
  8
0
 10
0.0
 20
0.0
 30
0.0
 70
   128
 71
   -23
 72
     3
 73
    -4
  0
VERTEX
  5
132FA8
  8
0
 10
0.0
 20
0.0
 30
0.0
 70
   128
 71
    22
 72
   -23
 73
    -4
  0
VERTEX
  5
132FA9
  8
0
 10
0.0
 20
0.0
 30
0.0
 70
   128
 71
   -24
 72
     2
 73
    -3
  0
VERTEX
  5
132FAA
  8
0
 10
0.0
 20
0.0
 30
0.0
 70
   128
 71
    23
 72
   -24
 73
    -3
  0
VERTEX
  5
132FAB
  8
0
 10
0.0
 20
0.0
 30
0.0
 70
   128
 71
   -25
 72
     1
 73
    -2
  0
VERTEX
  5
132FAC
  8
0
 10
0.0
 20
0.0
 30
0.0
 70
   128
 71
    24
 72
   -25
 73
    -2
  0
VERTEX
  5
132FAD
  8
0
 10
0.0
 20
0.0
 30
0.0
 70
   128
 71
   -26
 72
    16
 73
    -1
  0
VERTEX
  5
132FAE
  8
0
 10
0.0
 20
0.0
 30
0.0
 70
   128
 71
    25
 72
   -26
 73
    -1
  0
VERTEX
  5
132FAF
  8
0
 10
0.0
 20
0.0
 30
0.0
 70
   128
 71
   -27
 72
    15
 73
   -16
  0
VERTEX
  5
132FB0
  8
0
 10
0.0
 20
0.0
 30
0.0
 70
   128
 71
    26
 72
   -27
 73
   -16
  0
VERTEX
  5
132FB1
  8
0
 10
0.0
 20
0.0
 30
0.0
 70
   128
 71
   -28
 72
    14
 73
   -15
  0
VERTEX
  5
132FB2
  8
0
 10
0.0
 20
0.0
 30
0.0
 70
   128
 71
    27
 72
   -28
 73
   -15
  0
VERTEX
  5
132FB3
  8
0
 10
0.0
 20
0.0
 30
0.0
 70
   128
 71
   -29
 72
    13
 73
   -14
  0
VERTEX
  5
132FB4
  8
0
 10
0.0
 20
0.0
 30
0.0
 70
   128
 71
    28
 72
   -29
 73
   -14
  0
VERTEX
  5
132FB5
  8
0
 10
0.0
 20
0.0
 30
0.0
 70
   128
 71
   -30
 72
    12
 73
   -13
  0
VERTEX
  5
132FB6
  8
0
 10
0.0
 20
0.0
 30
0.0
 70
   128
 71
    29
 72
   -30
 73
   -13
  0
VERTEX
  5
132FB7
  8
0
 10
0.0
 20
0.0
 30
0.0
 70
   128
 71
   -31
 72
    11
 73
   -12
  0
VERTEX
  5
132FB8
  8
0
 10
0.0
 20
0.0
 30
0.0
 70
   128
 71
    30
 72
   -31
 73
   -12
  0
VERTEX
  5
132FB9
  8
0
 10
0.0
 20
0.0
 30
0.0
 70
   128
 71
   -32
 72
    10
 73
   -11
  0
VERTEX
  5
132FBA
  8
0
 10
0.0
 20
0.0
 30
0.0
 70
   128
 71
    31
 72
   -32
 73
   -11
  0
VERTEX
  5
132FBB
  8
0
 10
0.0
 20
0.0
 30
0.0
 70
   128
 71
   -17
 72
     9
 73
   -10
  0
VERTEX
  5
132FBC
  8
0
 10
0.0
 20
0.0
 30
0.0
 70
   128
 71
    32
 72
   -17
 73
   -10
  0
SEQEND
  5
133043
  8
0
  0
POLYLINE
  5
132FBD
  8
0
 66
     1
 10
0.0
 20
0.0
 30
0.0
 70
    64
 71
    22
 72
    20
  0
VERTEX
  5
132FBE
  8
0
 10
-0.0000000000000206
 20
-29.50000002412
 30
14.99999999999998
 70
   192
  0
VERTEX
  5
132FBF
  8
0
 10
-0.0000000000000209
 20
-30.0
 30
14.49999999999998
 70
   192
  0
VERTEX
  5
132FC0
  8
0
 10
0.0000000000000224
 20
30.0
 30
14.5
 70
   192
  0
VERTEX
  5
132FC1
  8
0
 10
0.000000000000022
 20
29.50000002412
 30
15.0
 70
   192
  0
VERTEX
  5
132FC2
  8
0
 10
-29.99999999999998
 20
-0.0000000000000215
 30
14.49999999999999
 70
   192
  0
VERTEX
  5
132FC3
  8
0
 10
-29.50000002411998
 20
0.0000000000004139
 30
14.99999999999999
 70
   192
  0
VERTEX
  5
132FC4
  8
0
 10
-21.21320343559641
 20
21.21320343559641
 30
14.49999999999999
 70
   192
  0
VERTEX
  5
132FC5
  8
0
 10
-20.85965006205836
 20
20.85965006205874
 30
14.99999999999999
 70
   192
  0
VERTEX
  5
132FC6
  8
0
 10
-11.04284128685617
 20
27.89364903187291
 30
14.5
 70
   192
  0
VERTEX
  5
132FC7
  8
0
 10
-10.85879394095356
 20
27.42875490376823
 30
14.99999999999999
 70
   192
  0
VERTEX
  5
132FC8
  8
0
 10
-27.89364903187289
 20
11.04284128685617
 30
14.49999999999999
 70
   192
  0
VERTEX
  5
132FC9
  8
0
 10
-27.42875490376803
 20
10.85879394095402
 30
14.99999999999999
 70
   192
  0
VERTEX
  5
132FCA
  8
0
 10
-21.21320343559643
 20
-21.21320343559645
 30
14.49999999999998
 70
   192
  0
VERTEX
  5
132FCB
  8
0
 10
-20.85965006205876
 20
-20.85965006205841
 30
14.99999999999998
 70
   192
  0
VERTEX
  5
132FCC
  8
0
 10
-27.8936490318729
 20
-11.04284128685622
 30
14.49999999999999
 70
   192
  0
VERTEX
  5
132FCD
  8
0
 10
-27.42875490376831
 20
-10.85879394095337
 30
14.99999999999998
 70
   192
  0
VERTEX
  5
132FCE
  8
0
 10
-11.0428412868562
 20
-27.89364903187292
 30
14.49999999999998
 70
   192
  0
VERTEX
  5
132FCF
  8
0
 10
-10.85879394095382
 20
-27.42875490376816
 30
14.99999999999998
 70
   192
  0
VERTEX
  5
132FD0
  8
0
 10
0.0000000000000222
 20
29.74452085275615
 30
14.93613020139335
 70
   192
  0
VERTEX
  5
132FD1
  8
0
 10
0.0000000000000223
 20
29.93613021318904
 30
14.74452083171723
 70
   192
  0
VERTEX
  5
132FD2
  8
0
 10
-0.0000000000000207
 20
-29.74452085275615
 30
14.93613020139333
 70
   192
  0
VERTEX
  5
132FD3
  8
0
 10
-0.0000000000000209
 20
-29.93613021318903
 30
14.74452083171721
 70
   192
  0
VERTEX
  5
132FD4
  8
0
 10
0.0
 20
0.0
 30
0.0
 70
   128
 71
     8
 72
    10
 73
    -9
  0
VERTEX
  5
132FD5
  8
0
 10
0.0
 20
0.0
 30
0.0
 70
   128
 71
     7
 72
    -8
 73
     9
  0
VERTEX
  5
132FD6
  8
0
 10
0.0
 20
0.0
 30
0.0
 70
   128
 71
    10
 72
     4
 73
    19
  0
VERTEX
  5
132FD7
  8
0
 10
0.0
 20
0.0
 30
0.0
 70
   128
 71
    10
 72
    19
 73
    20
  0
VERTEX
  5
132FD8
  8
0
 10
0.0
 20
0.0
 30
0.0
 70
   128
 71
     9
 72
    10
 73
    20
  0
VERTEX
  5
132FD9
  8
0
 10
0.0
 20
0.0
 30
0.0
 70
   128
 71
    20
 72
     3
 73
     9
  0
VERTEX
  5
132FDA
  8
0
 10
0.0
 20
0.0
 30
0.0
 70
   128
 71
     6
 72
    12
 73
   -11
  0
VERTEX
  5
132FDB
  8
0
 10
0.0
 20
0.0
 30
0.0
 70
   128
 71
     5
 72
    -6
 73
    11
  0
VERTEX
  5
132FDC
  8
0
 10
0.0
 20
0.0
 30
0.0
 70
   128
 71
    12
 72
     8
 73
    -7
  0
VERTEX
  5
132FDD
  8
0
 10
0.0
 20
0.0
 30
0.0
 70
   128
 71
    11
 72
   -12
 73
     7
  0
VERTEX
  5
132FDE
  8
0
 10
0.0
 20
0.0
 30
0.0
 70
   128
 71
    14
 72
    16
 73
   -15
  0
VERTEX
  5
132FDF
  8
0
 10
0.0
 20
0.0
 30
0.0
 70
   128
 71
    13
 72
   -14
 73
    15
  0
VERTEX
  5
132FE0
  8
0
 10
0.0
 20
0.0
 30
0.0
 70
   128
 71
    16
 72
     6
 73
    -5
  0
VERTEX
  5
132FE1
  8
0
 10
0.0
 20
0.0
 30
0.0
 70
   128
 71
    15
 72
   -16
 73
     5
  0
VERTEX
  5
132FE2
  8
0
 10
0.0
 20
0.0
 30
0.0
 70
   128
 71
    17
 72
     2
 73
    22
  0
VERTEX
  5
132FE3
  8
0
 10
0.0
 20
0.0
 30
0.0
 70
   128
 71
    21
 72
    18
 73
    17
  0
VERTEX
  5
132FE4
  8
0
 10
0.0
 20
0.0
 30
0.0
 70
   128
 71
    22
 72
    21
 73
    17
  0
VERTEX
  5
132FE5
  8
0
 10
0.0
 20
0.0
 30
0.0
 70
   128
 71
    21
 72
     1
 73
    18
  0
VERTEX
  5
132FE6
  8
0
 10
0.0
 20
0.0
 30
0.0
 70
   128
 71
    18
 72
    14
 73
   -13
  0
VERTEX
  5
132FE7
  8
0
 10
0.0
 20
0.0
 30
0.0
 70
   128
 71
    17
 72
   -18
 73
    13
  0
SEQEND
  5
133044
  8
0
  0
POLYLINE
  5
132FE8
  8
0
 66
     1
 10
0.0
 20
0.0
 30
0.0
 70
    64
 71
    18
 72
    16
  0
VERTEX
  5
132FE9
  8
0
 10
-0.0000000000000209
 20
-30.0
 30
14.49999999999998
 70
   192
  0
VERTEX
  5
132FEA
  8
0
 10
-0.0000000000000216
 20
-30.0
 30
-0.0000000000000083
 70
   192
  0
VERTEX
  5
132FEB
  8
0
 10
0.0000000000000483
 20
30.0
 30
0.0000000000000083
 70
   192
  0
VERTEX
  5
132FEC
  8
0
 10
0.0000000000000224
 20
30.0
 30
14.5
 70
   192
  0
VERTEX
  5
132FED
  8
0
 10
-29.99999999999998
 20
-0.0000000000000135
 30
-0.000000000000002
 70
   192
  0
VERTEX
  5
132FEE
  8
0
 10
-29.99999999999998
 20
-0.0000000000000215
 30
14.49999999999999
 70
   192
  0
VERTEX
  5
132FEF
  8
0
 10
-21.21320343559638
 20
21.2132034355964
 30
0.0000000000000045
 70
   192
  0
VERTEX
  5
132FF0
  8
0
 10
-21.21320343559641
 20
21.21320343559641
 30
14.49999999999999
 70
   192
  0
VERTEX
  5
132FF1
  8
0
 10
-11.04284128685613
 20
27.89364903187289
 30
0.000000000000007
 70
   192
  0
VERTEX
  5
132FF2
  8
0
 10
-11.04284128685617
 20
27.89364903187291
 30
14.5
 70
   192
  0
VERTEX
  5
132FF3
  8
0
 10
-27.89364903187288
 20
11.04284128685615
 30
0.0000000000000013
 70
   192
  0
VERTEX
  5
132FF4
  8
0
 10
-27.89364903187289
 20
11.04284128685617
 30
14.49999999999999
 70
   192
  0
VERTEX
  5
132FF5
  8
0
 10
-21.21320343559642
 20
-21.21320343559643
 30
-0.0000000000000073
 70
   192
  0
VERTEX
  5
132FF6
  8
0
 10
-21.21320343559643
 20
-21.21320343559645
 30
14.49999999999998
 70
   192
  0
VERTEX
  5
132FF7
  8
0
 10
-27.89364903187289
 20
-11.04284128685619
 30
-0.0000000000000049
 70
   192
  0
VERTEX
  5
132FF8
  8
0
 10
-27.8936490318729
 20
-11.04284128685622
 30
14.49999999999999
 70
   192
  0
VERTEX
  5
132FF9
  8
0
 10
-11.04284128685618
 20
-27.89364903187291
 30
-0.0000000000000085
 70
   192
  0
VERTEX
  5
132FFA
  8
0
 10
-11.0428412868562
 20
-27.89364903187292
 30
14.49999999999998
 70
   192
  0
VERTEX
  5
132FFB
  8
0
 10
0.0
 20
0.0
 30
0.0
 70
   128
 71
     8
 72
    10
 73
    -9
  0
VERTEX
  5
132FFC
  8
0
 10
0.0
 20
0.0
 30
0.0
 70
   128
 71
     7
 72
    -8
 73
     9
  0
VERTEX
  5
132FFD
  8
0
 10
0.0
 20
0.0
 30
0.0
 70
   128
 71
    10
 72
     4
 73
    -3
  0
VERTEX
  5
132FFE
  8
0
 10
0.0
 20
0.0
 30
0.0
 70
   128
 71
     9
 72
   -10
 73
     3
  0
VERTEX
  5
132FFF
  8
0
 10
0.0
 20
0.0
 30
0.0
 70
   128
 71
     6
 72
    12
 73
   -11
  0
VERTEX
  5
133000
  8
0
 10
0.0
 20
0.0
 30
0.0
 70
   128
 71
     5
 72
    -6
 73
    11
  0
VERTEX
  5
133001
  8
0
 10
0.0
 20
0.0
 30
0.0
 70
   128
 71
    12
 72
     8
 73
    -7
  0
VERTEX
  5
133002
  8
0
 10
0.0
 20
0.0
 30
0.0
 70
   128
 71
    11
 72
   -12
 73
     7
  0
VERTEX
  5
133003
  8
0
 10
0.0
 20
0.0
 30
0.0
 70
   128
 71
    14
 72
    16
 73
   -15
  0
VERTEX
  5
133004
  8
0
 10
0.0
 20
0.0
 30
0.0
 70
   128
 71
    13
 72
   -14
 73
    15
  0
VERTEX
  5
133005
  8
0
 10
0.0
 20
0.0
 30
0.0
 70
   128
 71
    16
 72
     6
 73
    -5
  0
VERTEX
  5
133006
  8
0
 10
0.0
 20
0.0
 30
0.0
 70
   128
 71
    15
 72
   -16
 73
     5
  0
VERTEX
  5
133007
  8
0
 10
0.0
 20
0.0
 30
0.0
 70
   128
 71
     1
 72
    18
 73
   -17
  0
VERTEX
  5
133008
  8
0
 10
0.0
 20
0.0
 30
0.0
 70
   128
 71
     2
 72
    -1
 73
    17
  0
VERTEX
  5
133009
  8
0
 10
0.0
 20
0.0
 30
0.0
 70
   128
 71
    18
 72
    14
 73
   -13
  0
VERTEX
  5
13300A
  8
0
 10
0.0
 20
0.0
 30
0.0
 70
   128
 71
    17
 72
   -18
 73
    13
  0
SEQEND
  5
133045
  8
0
  0
ENDBLK
  5
13303A
  8
0
  0
ENDSEC
  0
SECTION
  2
ENTITIES
  0
INSERT
  5
1321B6
  8
0
  2
*X1
 10
0.0
 20
0.0
 30
0.0
  0
INSERT
  5
1321B7
  8
0
  2
*X2
 10
0.0
 20
0.0
 30
0.0
  0
INSERT
  5
1321B8
  8
0
  2
*X3
 10
0.0
 20
0.0
 30
0.0
  0
ENDSEC
  0
EOF
