  0
SECTION
  2
HEADER
  9
$ACADVER
  1
AC1009
  9
$DWGCODEPAGE
  3
ansi_1250
  9
$INSBASE
 10
0.0
 20
0.0
 30
0.0
  9
$EXTMIN
 10
-0.0000000000000568
 20
-15.0
 30
-15.00000000000001
  9
$EXTMAX
 10
44.0
 20
15.0
 30
15.00000000000001
  9
$LIMMIN
 10
0.0
 20
0.0
  9
$LIMMAX
 10
420.0
 20
297.0
  9
$ORTHOMODE
 70
     0
  9
$REGENMODE
 70
     1
  9
$FILLMODE
 70
     1
  9
$QTEXTMODE
 70
     0
  9
$MIRRTEXT
 70
     0
  9
$DRAGMODE
 70
     2
  9
$LTSCALE
 40
1.0
  9
$OSMODE
 70
   511
  9
$ATTMODE
 70
     1
  9
$TEXTSIZE
 40
2.5
  9
$TRACEWID
 40
1.0
  9
$TEXTSTYLE
  7
STANDARD
  9
$CLAYER
  8
0
  9
$CELTYPE
  6
BYLAYER
  9
$CECOLOR
 62
   256
  9
$DIMSCALE
 40
1.0
  9
$DIMASZ
 40
2.5
  9
$DIMEXO
 40
0.625
  9
$DIMDLI
 40
3.75
  9
$DIMRND
 40
0.0
  9
$DIMDLE
 40
0.0
  9
$DIMEXE
 40
1.25
  9
$DIMTP
 40
0.0
  9
$DIMTM
 40
0.0
  9
$DIMTXT
 40
2.5
  9
$DIMCEN
 40
-2.5
  9
$DIMTSZ
 40
0.0
  9
$DIMTOL
 70
     0
  9
$DIMLIM
 70
     0
  9
$DIMTIH
 70
     0
  9
$DIMTOH
 70
     0
  9
$DIMSE1
 70
     0
  9
$DIMSE2
 70
     0
  9
$DIMTAD
 70
     1
  9
$DIMZIN
 70
     8
  9
$DIMBLK
  1

  9
$DIMASO
 70
     1
  9
$DIMSHO
 70
     1
  9
$DIMPOST
  1

  9
$DIMAPOST
  1

  9
$DIMALT
 70
     0
  9
$DIMALTD
 70
     3
  9
$DIMALTF
 40
0.03937007874016
  9
$DIMLFAC
 40
1.0
  9
$DIMTOFL
 70
     1
  9
$DIMTVP
 40
0.0
  9
$DIMTIX
 70
     0
  9
$DIMSOXD
 70
     0
  9
$DIMSAH
 70
     0
  9
$DIMBLK1
  1

  9
$DIMBLK2
  1

  9
$DIMSTYLE
  2
ISO-25
  9
$DIMCLRD
 70
     0
  9
$DIMCLRE
 70
     0
  9
$DIMCLRT
 70
     0
  9
$DIMTFAC
 40
1.0
  9
$DIMGAP
 40
0.625
  9
$LUNITS
 70
     2
  9
$LUPREC
 70
     3
  9
$SKETCHINC
 40
1.0
  9
$FILLETRAD
 40
10.0
  9
$AUNITS
 70
     0
  9
$AUPREC
 70
     0
  9
$MENU
  1
.
  9
$ELEVATION
 40
0.0
  9
$PELEVATION
 40
0.0
  9
$THICKNESS
 40
0.0
  9
$LIMCHECK
 70
     0
  9
$CHAMFERA
 40
10.0
  9
$CHAMFERB
 40
10.0
  9
$SKPOLY
 70
     0
  9
$TDCREATE
 40
2455022.720692848
  9
$TDUPDATE
 40
2460528.537779688
  9
$TDINDWG
 40
0.0728685417
  9
$TDUSRTIMER
 40
0.1474250926
  9
$USRTIMER
 70
     1
  9
$ANGBASE
 50
0.0
  9
$ANGDIR
 70
     0
  9
$PDMODE
 70
     0
  9
$PDSIZE
 40
0.0
  9
$PLINEWID
 40
0.0
  9
$COORDS
 70
     1
  9
$SPLFRAME
 70
     0
  9
$SPLINETYPE
 70
     6
  9
$SPLINESEGS
 70
     8
  9
$ATTDIA
 70
     0
  9
$ATTREQ
 70
     1
  9
$HANDLING
 70
     1
  9
$HANDSEED
  5
16BCA1
  9
$SURFTAB1
 70
     6
  9
$SURFTAB2
 70
     6
  9
$SURFTYPE
 70
     6
  9
$SURFU
 70
     6
  9
$SURFV
 70
     6
  9
$UCSNAME
  2

  9
$UCSORG
 10
0.0
 20
0.0
 30
0.0
  9
$UCSXDIR
 10
1.0
 20
0.0
 30
0.0
  9
$UCSYDIR
 10
0.0
 20
1.0
 30
0.0
  9
$PUCSNAME
  2

  9
$PUCSORG
 10
0.0
 20
0.0
 30
0.0
  9
$PUCSXDIR
 10
1.0
 20
0.0
 30
0.0
  9
$PUCSYDIR
 10
0.0
 20
1.0
 30
0.0
  9
$USERI1
 70
     0
  9
$USERI2
 70
     0
  9
$USERI3
 70
     0
  9
$USERI4
 70
     0
  9
$USERI5
 70
     0
  9
$USERR1
 40
0.0
  9
$USERR2
 40
0.0
  9
$USERR3
 40
0.0
  9
$USERR4
 40
0.0
  9
$USERR5
 40
0.0
  9
$WORLDVIEW
 70
     1
  9
$SHADEDGE
 70
     3
  9
$SHADEDIF
 70
    70
  9
$TILEMODE
 70
     1
  9
$MAXACTVP
 70
    64
  9
$PLIMCHECK
 70
     0
  9
$PEXTMIN
 10
1.000000000000000E+20
 20
1.000000000000000E+20
 30
1.000000000000000E+20
  9
$PEXTMAX
 10
-1.000000000000000E+20
 20
-1.000000000000000E+20
 30
-1.000000000000000E+20
  9
$PLIMMIN
 10
0.0
 20
0.0
  9
$PLIMMAX
 10
0.0
 20
0.0
  9
$UNITMODE
 70
     0
  9
$VISRETAIN
 70
     1
  9
$PLINEGEN
 70
     0
  9
$PSLTSCALE
 70
     1
  0
ENDSEC
  0
SECTION
  2
TABLES
  0
TABLE
  2
VPORT
 70
     1
  0
VPORT
  2
*ACTIVE
 70
     0
 10
0.0
 20
0.0
 11
1.0
 21
1.0
 12
-70.88060457179577
 22
-31.2042792900688
 13
0.0
 23
0.0
 14
10.0
 24
10.0
 15
10.0
 25
10.0
 16
0.5773502691896226
 26
0.5773502691896226
 36
0.5773502691896226
 17
5.266928548893244
 27
83.50724084353129
 37
71.60436572219481
 40
55.79937634060084
 41
1.89041095890411
 42
50.0
 43
0.0
 44
0.0
 50
0.0
 51
0.0
 71
    16
 72
  1000
 73
     1
 74
     3
 75
     0
 76
     0
 77
     0
 78
     0
  0
ENDTAB
  0
TABLE
  2
LTYPE
 70
     1
  0
LTYPE
  2
CONTINUOUS
 70
     0
  3
Solid line
 72
    65
 73
     0
 40
0.0
  0
ENDTAB
  0
TABLE
  2
LAYER
 70
     1
  0
LAYER
  2
0
 70
     0
 62
     7
  6
CONTINUOUS
  0
ENDTAB
  0
TABLE
  2
STYLE
 70
     2
  0
STYLE
  2
STANDARD
 70
     0
 40
0.0
 41
1.0
 50
0.0
 71
     0
 42
2.5
  3
arial.ttf
  4

  0
STYLE
  2
ANNOTATIVE
 70
     0
 40
0.0
 41
1.0
 50
0.0
 71
     0
 42
2.5
  3
arial.ttf
  4

  0
ENDTAB
  0
TABLE
  2
VIEW
 70
     0
  0
ENDTAB
  0
TABLE
  2
UCS
 70
     0
  0
ENDTAB
  0
TABLE
  2
APPID
 70
     2
  0
APPID
  2
ACAD
 70
     0
  0
APPID
  2
ACADANNOTATIVE
 70
     0
  0
ENDTAB
  0
TABLE
  2
DIMSTYLE
 70
     2
  0
DIMSTYLE
  2
ISO-25
 70
     0
  3

  4

  5

  6

  7

 40
1.0
 41
2.5
 42
0.625
 43
3.75
 44
1.25
 45
0.0
 46
0.0
 47
0.0
 48
0.0
140
2.5
141
-2.5
142
0.0
143
0.03937007874016
144
1.0
145
0.0
146
1.0
147
0.625
 71
     0
 72
     0
 73
     0
 74
     0
 75
     0
 76
     0
 77
     1
 78
     8
170
     0
171
     3
172
     1
173
     0
174
     0
175
     0
176
     0
177
     0
178
     0
  0
DIMSTYLE
  2
ANNOTATIVE
 70
     0
  3

  4

  5

  6

  7

 40
0.0
 41
2.5
 42
0.625
 43
3.75
 44
1.25
 45
0.0
 46
0.0
 47
0.0
 48
0.0
140
2.5
141
-2.5
142
0.0
143
0.03937007874016
144
1.0
145
0.0
146
1.0
147
0.625
 71
     0
 72
     0
 73
     0
 74
     0
 75
     0
 76
     0
 77
     1
 78
     8
170
     0
171
     3
172
     1
173
     0
174
     0
175
     0
176
     0
177
     0
178
     0
  0
ENDTAB
  0
ENDSEC
  0
SECTION
  2
BLOCKS
  0
BLOCK
  8
0
  2
$MODEL_SPACE
 70
     0
 10
0.0
 20
0.0
 30
0.0
  3
$MODEL_SPACE
  1

  0
ENDBLK
  5
21
  8
0
  0
BLOCK
 67
     1
  8
0
  2
$PAPER_SPACE
 70
     0
 10
0.0
 20
0.0
 30
0.0
  3
$PAPER_SPACE
  1

  0
ENDBLK
  5
1D
 67
     1
  8
0
  0
BLOCK
  8
0
  2
*X1
 70
     1
 10
0.0
 20
0.0
 30
0.0
  3
*X1
  1

  0
POLYLINE
  5
16B9B9
  8
0
 66
     1
 10
0.0
 20
0.0
 30
0.0
 70
    64
 71
    10
 72
     8
  0
VERTEX
  5
16B9BA
  8
0
 10
20.0
 20
0.0
 30
8.0
 70
   192
  0
VERTEX
  5
16B9BB
  8
0
 10
20.0
 20
0.000000000000001
 30
-8.0
 70
   192
  0
VERTEX
  5
16B9BC
  8
0
 10
18.0
 20
0.000000000000001
 30
-8.0
 70
   192
  0
VERTEX
  5
16B9BD
  8
0
 10
18.0
 20
-0.0000000000000009
 30
8.0
 70
   192
  0
VERTEX
  5
16B9BE
  8
0
 10
18.0
 20
8.0
 30
0.0000000000000009
 70
   192
  0
VERTEX
  5
16B9BF
  8
0
 10
20.0
 20
8.0
 30
0.0000000000000009
 70
   192
  0
VERTEX
  5
16B9C0
  8
0
 10
18.0
 20
5.65685424949238
 30
5.656854249492381
 70
   192
  0
VERTEX
  5
16B9C1
  8
0
 10
20.0
 20
5.65685424949238
 30
5.656854249492381
 70
   192
  0
VERTEX
  5
16B9C2
  8
0
 10
18.0
 20
5.656854249492381
 30
-5.65685424949238
 70
   192
  0
VERTEX
  5
16B9C3
  8
0
 10
20.0
 20
5.656854249492381
 30
-5.65685424949238
 70
   192
  0
VERTEX
  5
16B9C4
  8
0
 10
0.0
 20
0.0
 30
0.0
 70
   128
 71
     7
 72
     4
 73
    -1
  0
VERTEX
  5
16B9C5
  8
0
 10
0.0
 20
0.0
 30
0.0
 70
   128
 71
    -7
 72
     1
 73
     8
  0
VERTEX
  5
16B9C6
  8
0
 10
0.0
 20
0.0
 30
0.0
 70
   128
 71
     6
 72
     5
 73
    -7
  0
VERTEX
  5
16B9C7
  8
0
 10
0.0
 20
0.0
 30
0.0
 70
   128
 71
    -6
 72
     7
 73
     8
  0
VERTEX
  5
16B9C8
  8
0
 10
0.0
 20
0.0
 30
0.0
 70
   128
 71
    10
 72
     9
 73
    -5
  0
VERTEX
  5
16B9C9
  8
0
 10
0.0
 20
0.0
 30
0.0
 70
   128
 71
   -10
 72
     5
 73
     6
  0
VERTEX
  5
16B9CA
  8
0
 10
0.0
 20
0.0
 30
0.0
 70
   128
 71
     2
 72
     3
 73
    -9
  0
VERTEX
  5
16B9CB
  8
0
 10
0.0
 20
0.0
 30
0.0
 70
   128
 71
    -2
 72
     9
 73
    10
  0
SEQEND
  5
16BC84
  8
0
  0
POLYLINE
  5
16B9CC
  8
0
 66
     1
 10
0.0
 20
0.0
 30
0.0
 70
    64
 71
    20
 72
    20
  0
VERTEX
  5
16B9CD
  8
0
 10
0.0
 20
-15.0
 30
0.0
 70
   192
  0
VERTEX
  5
16B9CE
  8
0
 10
0.0
 20
-12.13525491562421
 30
-8.816778784387097
 70
   192
  0
VERTEX
  5
16B9CF
  8
0
 10
0.0
 20
-4.635254915624212
 30
-14.2658477444273
 70
   192
  0
VERTEX
  5
16B9D0
  8
0
 10
0.0
 20
4.635254915624211
 30
-14.2658477444273
 70
   192
  0
VERTEX
  5
16B9D1
  8
0
 10
0.0
 20
12.13525491562421
 30
-8.816778784387097
 70
   192
  0
VERTEX
  5
16B9D2
  8
0
 10
0.0
 20
15.0
 30
0.0
 70
   192
  0
VERTEX
  5
16B9D3
  8
0
 10
0.0
 20
12.13525491562421
 30
8.816778784387097
 70
   192
  0
VERTEX
  5
16B9D4
  8
0
 10
0.0
 20
4.635254915624212
 30
14.2658477444273
 70
   192
  0
VERTEX
  5
16B9D5
  8
0
 10
0.0
 20
-4.635254915624211
 30
14.2658477444273
 70
   192
  0
VERTEX
  5
16B9D6
  8
0
 10
0.0
 20
-12.13525491562421
 30
8.816778784387097
 70
   192
  0
VERTEX
  5
16B9D7
  8
0
 10
0.0
 20
13.15
 30
0.0
 70
   192
  0
VERTEX
  5
16B9D8
  8
0
 10
0.0
 20
10.63857347603056
 30
-7.729376067646022
 70
   192
  0
VERTEX
  5
16B9D9
  8
0
 10
0.0
 20
4.063573476030558
 30
-12.50639318928127
 70
   192
  0
VERTEX
  5
16B9DA
  8
0
 10
0.0
 20
-4.063573476030559
 30
-12.50639318928127
 70
   192
  0
VERTEX
  5
16B9DB
  8
0
 10
0.0
 20
-10.63857347603056
 30
-7.729376067646022
 70
   192
  0
VERTEX
  5
16B9DC
  8
0
 10
0.0
 20
-13.15
 30
0.0
 70
   192
  0
VERTEX
  5
16B9DD
  8
0
 10
0.0
 20
-10.63857347603056
 30
7.729376067646022
 70
   192
  0
VERTEX
  5
16B9DE
  8
0
 10
0.0
 20
-4.063573476030558
 30
12.50639318928127
 70
   192
  0
VERTEX
  5
16B9DF
  8
0
 10
0.0
 20
4.063573476030559
 30
12.50639318928127
 70
   192
  0
VERTEX
  5
16B9E0
  8
0
 10
0.0
 20
10.63857347603056
 30
7.729376067646022
 70
   192
  0
VERTEX
  5
16B9E1
  8
0
 10
0.0
 20
0.0
 30
0.0
 70
   128
 71
    12
 72
   -11
 73
    -6
  0
VERTEX
  5
16B9E2
  8
0
 10
0.0
 20
0.0
 30
0.0
 70
   128
 71
   -12
 72
     6
 73
    -5
  0
VERTEX
  5
16B9E3
  8
0
 10
0.0
 20
0.0
 30
0.0
 70
   128
 71
     5
 72
    -4
 73
   -13
  0
VERTEX
  5
16B9E4
  8
0
 10
0.0
 20
0.0
 30
0.0
 70
   128
 71
    -5
 72
    13
 73
   -12
  0
VERTEX
  5
16B9E5
  8
0
 10
0.0
 20
0.0
 30
0.0
 70
   128
 71
     4
 72
    -3
 73
   -14
  0
VERTEX
  5
16B9E6
  8
0
 10
0.0
 20
0.0
 30
0.0
 70
   128
 71
    -4
 72
    14
 73
   -13
  0
VERTEX
  5
16B9E7
  8
0
 10
0.0
 20
0.0
 30
0.0
 70
   128
 71
     3
 72
    -2
 73
   -15
  0
VERTEX
  5
16B9E8
  8
0
 10
0.0
 20
0.0
 30
0.0
 70
   128
 71
    -3
 72
    15
 73
   -14
  0
VERTEX
  5
16B9E9
  8
0
 10
0.0
 20
0.0
 30
0.0
 70
   128
 71
     2
 72
    -1
 73
   -16
  0
VERTEX
  5
16B9EA
  8
0
 10
0.0
 20
0.0
 30
0.0
 70
   128
 71
    -2
 72
    16
 73
   -15
  0
VERTEX
  5
16B9EB
  8
0
 10
0.0
 20
0.0
 30
0.0
 70
   128
 71
     1
 72
   -10
 73
   -17
  0
VERTEX
  5
16B9EC
  8
0
 10
0.0
 20
0.0
 30
0.0
 70
   128
 71
    -1
 72
    17
 73
   -16
  0
VERTEX
  5
16B9ED
  8
0
 10
0.0
 20
0.0
 30
0.0
 70
   128
 71
    10
 72
    -9
 73
   -18
  0
VERTEX
  5
16B9EE
  8
0
 10
0.0
 20
0.0
 30
0.0
 70
   128
 71
   -10
 72
    18
 73
   -17
  0
VERTEX
  5
16B9EF
  8
0
 10
0.0
 20
0.0
 30
0.0
 70
   128
 71
     9
 72
    -8
 73
   -19
  0
VERTEX
  5
16B9F0
  8
0
 10
0.0
 20
0.0
 30
0.0
 70
   128
 71
    -9
 72
    19
 73
   -18
  0
VERTEX
  5
16B9F1
  8
0
 10
0.0
 20
0.0
 30
0.0
 70
   128
 71
     8
 72
    -7
 73
   -20
  0
VERTEX
  5
16B9F2
  8
0
 10
0.0
 20
0.0
 30
0.0
 70
   128
 71
    -8
 72
    20
 73
   -19
  0
VERTEX
  5
16B9F3
  8
0
 10
0.0
 20
0.0
 30
0.0
 70
   128
 71
     7
 72
    -6
 73
   -11
  0
VERTEX
  5
16B9F4
  8
0
 10
0.0
 20
0.0
 30
0.0
 70
   128
 71
    -7
 72
    11
 73
   -20
  0
SEQEND
  5
16BC85
  8
0
  0
POLYLINE
  5
16B9F5
  8
0
 66
     1
 10
0.0
 20
0.0
 30
0.0
 70
    64
 71
    21
 72
    19
  0
VERTEX
  5
16B9F6
  8
0
 10
24.9308720693736
 20
-13.99565026924359
 30
-5.396459352299618
 70
   192
  0
VERTEX
  5
16B9F7
  8
0
 10
23.4
 20
-15.0
 30
0.0
 70
   192
  0
VERTEX
  5
16B9F8
  8
0
 10
0.0
 20
-15.0
 30
0.0
 70
   192
  0
VERTEX
  5
16B9F9
  8
0
 10
0.0
 20
-12.13525491562421
 30
-8.816778784387097
 70
   192
  0
VERTEX
  5
16B9FA
  8
0
 10
0.0
 20
-4.635254915624212
 30
-14.2658477444273
 70
   192
  0
VERTEX
  5
16B9FB
  8
0
 10
44.0
 20
-0.0000000000000009
 30
-15.0
 70
   192
  0
VERTEX
  5
16B9FC
  8
0
 10
44.0
 20
-7.245688373094831
 30
-13.13392553656364
 70
   192
  0
VERTEX
  5
16B9FD
  8
0
 10
0.0
 20
12.13525491562421
 30
-8.816778784387097
 70
   192
  0
VERTEX
  5
16B9FE
  8
0
 10
0.0
 20
15.0
 30
0.0
 70
   192
  0
VERTEX
  5
16B9FF
  8
0
 10
22.59999999999999
 20
15.0
 30
0.0
 70
   192
  0
VERTEX
  5
16BA00
  8
0
 10
24.45608560013105
 20
13.73732622046991
 30
-6.023775254140026
 70
   192
  0
VERTEX
  5
16BA01
  8
0
 10
35.75131254383841
 20
10.66603066332748
 30
-10.54683790948537
 70
   192
  0
VERTEX
  5
16BA02
  8
0
 10
40.81232468587
 20
12.68857754045
 30
-8.0
 70
   192
  0
VERTEX
  5
16BA03
  8
0
 10
44.0
 20
12.68857754045
 30
-8.0
 70
   192
  0
VERTEX
  5
16BA04
  8
0
 10
0.0
 20
4.635254915624211
 30
-14.2658477444273
 70
   192
  0
VERTEX
  5
16BA05
  8
0
 10
44.0
 20
7.245688373094828
 30
-13.13392553656364
 70
   192
  0
VERTEX
  5
16BA06
  8
0
 10
44.0
 20
-12.68857754044966
 30
-7.999999999999786
 70
   192
  0
VERTEX
  5
16BA07
  8
0
 10
34.53440084911909
 20
-11.04158393940528
 30
-10.15300074406908
 70
   192
  0
VERTEX
  5
16BA08
  8
0
 10
39.76569114035
 20
-12.68857754045
 30
-8.0
 70
   192
  0
VERTEX
  5
16BA09
  8
0
 10
29.30961281085078
 20
-11.7816971186292
 30
-9.283943828184468
 70
   192
  0
VERTEX
  5
16BA0A
  8
0
 10
29.91241087091986
 20
11.01648082089567
 30
-10.18023331377223
 70
   192
  0
VERTEX
  5
16BA0B
  8
0
 10
0.0
 20
0.0
 30
0.0
 70
   128
 71
     1
 72
     2
 73
     3
  0
VERTEX
  5
16BA0C
  8
0
 10
0.0
 20
0.0
 30
0.0
 70
   128
 71
     1
 72
     3
 73
     4
  0
VERTEX
  5
16BA0D
  8
0
 10
0.0
 20
0.0
 30
0.0
 70
   128
 71
     5
 72
     6
 73
     7
  0
VERTEX
  5
16BA0E
  8
0
 10
0.0
 20
0.0
 30
0.0
 70
   128
 71
     8
 72
     9
 73
    10
  0
VERTEX
  5
16BA0F
  8
0
 10
0.0
 20
0.0
 30
0.0
 70
   128
 71
     8
 72
    10
 73
    11
  0
VERTEX
  5
16BA10
  8
0
 10
0.0
 20
0.0
 30
0.0
 70
   128
 71
    12
 72
    13
 73
    14
  0
VERTEX
  5
16BA11
  8
0
 10
0.0
 20
0.0
 30
0.0
 70
   128
 71
     5
 72
    15
 73
    16
  0
VERTEX
  5
16BA12
  8
0
 10
0.0
 20
0.0
 30
0.0
 70
   128
 71
     5
 72
    16
 73
     6
  0
VERTEX
  5
16BA13
  8
0
 10
0.0
 20
0.0
 30
0.0
 70
   128
 71
     7
 72
    17
 73
    18
  0
VERTEX
  5
16BA14
  8
0
 10
0.0
 20
0.0
 30
0.0
 70
   128
 71
    17
 72
    19
 73
    18
  0
VERTEX
  5
16BA15
  8
0
 10
0.0
 20
0.0
 30
0.0
 70
   128
 71
    20
 72
     1
 73
     4
  0
VERTEX
  5
16BA16
  8
0
 10
0.0
 20
0.0
 30
0.0
 70
   128
 71
     4
 72
     5
 73
     7
  0
VERTEX
  5
16BA17
  8
0
 10
0.0
 20
0.0
 30
0.0
 70
   128
 71
     4
 72
     7
 73
    20
  0
VERTEX
  5
16BA18
  8
0
 10
0.0
 20
0.0
 30
0.0
 70
   128
 71
     7
 72
    18
 73
    20
  0
VERTEX
  5
16BA19
  8
0
 10
0.0
 20
0.0
 30
0.0
 70
   128
 71
    12
 72
    14
 73
    16
  0
VERTEX
  5
16BA1A
  8
0
 10
0.0
 20
0.0
 30
0.0
 70
   128
 71
    21
 72
    12
 73
    16
  0
VERTEX
  5
16BA1B
  8
0
 10
0.0
 20
0.0
 30
0.0
 70
   128
 71
    21
 72
    16
 73
    15
  0
VERTEX
  5
16BA1C
  8
0
 10
0.0
 20
0.0
 30
0.0
 70
   128
 71
    21
 72
    15
 73
     8
  0
VERTEX
  5
16BA1D
  8
0
 10
0.0
 20
0.0
 30
0.0
 70
   128
 71
     8
 72
    11
 73
    21
  0
SEQEND
  5
16BC86
  8
0
  0
POLYLINE
  5
16BA1E
  8
0
 66
     1
 10
0.0
 20
0.0
 30
0.0
 70
    64
 71
     6
 72
     4
  0
VERTEX
  5
16BA1F
  8
0
 10
44.0
 20
12.68857754045
 30
-8.0
 70
   192
  0
VERTEX
  5
16BA20
  8
0
 10
44.0
 20
-12.68857754045
 30
-8.0
 70
   192
  0
VERTEX
  5
16BA21
  8
0
 10
39.76569114035
 20
-12.68857754045
 30
-8.0
 70
   192
  0
VERTEX
  5
16BA22
  8
0
 10
40.11450066985334
 20
-4.48695991591693
 30
-8.0
 70
   192
  0
VERTEX
  5
16BA23
  8
0
 10
40.46310219760667
 20
3.970679687904179
 30
-8.0
 70
   192
  0
VERTEX
  5
16BA24
  8
0
 10
40.81232468587
 20
12.68857754045
 30
-8.0
 70
   192
  0
VERTEX
  5
16BA25
  8
0
 10
0.0
 20
0.0
 30
0.0
 70
   128
 71
     4
 72
     3
 73
    -2
  0
VERTEX
  5
16BA26
  8
0
 10
0.0
 20
0.0
 30
0.0
 70
   128
 71
     2
 72
    -1
 73
    -5
  0
VERTEX
  5
16BA27
  8
0
 10
0.0
 20
0.0
 30
0.0
 70
   128
 71
    -2
 72
     5
 73
    -4
  0
VERTEX
  5
16BA28
  8
0
 10
0.0
 20
0.0
 30
0.0
 70
   128
 71
     1
 72
     6
 73
    -5
  0
SEQEND
  5
16BC87
  8
0
  0
POLYLINE
  5
16BA29
  8
0
 66
     1
 10
0.0
 20
0.0
 30
0.0
 70
    64
 71
     5
 72
     3
  0
VERTEX
  5
16BA2A
  8
0
 10
44.0
 20
12.68857754044966
 30
7.999999999999786
 70
   192
  0
VERTEX
  5
16BA2B
  8
0
 10
44.0
 20
7.245688373094831
 30
13.13392553656364
 70
   192
  0
VERTEX
  5
16BA2C
  8
0
 10
44.0
 20
0.0000000000000009
 30
15.0
 70
   192
  0
VERTEX
  5
16BA2D
  8
0
 10
44.0
 20
-7.245688373094828
 30
13.13392553656364
 70
   192
  0
VERTEX
  5
16BA2E
  8
0
 10
44.0
 20
-12.68857754044965
 30
7.999999999999785
 70
   192
  0
VERTEX
  5
16BA2F
  8
0
 10
0.0
 20
0.0
 30
0.0
 70
   128
 71
     4
 72
     5
 73
    -1
  0
VERTEX
  5
16BA30
  8
0
 10
0.0
 20
0.0
 30
0.0
 70
   128
 71
     3
 72
    -4
 73
    -1
  0
VERTEX
  5
16BA31
  8
0
 10
0.0
 20
0.0
 30
0.0
 70
   128
 71
     2
 72
    -3
 73
     1
  0
SEQEND
  5
16BC88
  8
0
  0
POLYLINE
  5
16BA32
  8
0
 66
     1
 10
0.0
 20
0.0
 30
0.0
 70
    64
 71
     5
 72
     3
  0
VERTEX
  5
16BA33
  8
0
 10
44.0
 20
-12.68857754044966
 30
-7.999999999999786
 70
   192
  0
VERTEX
  5
16BA34
  8
0
 10
44.0
 20
-7.245688373094831
 30
-13.13392553656364
 70
   192
  0
VERTEX
  5
16BA35
  8
0
 10
44.0
 20
-0.0000000000000009
 30
-15.0
 70
   192
  0
VERTEX
  5
16BA36
  8
0
 10
44.0
 20
7.245688373094828
 30
-13.13392553656364
 70
   192
  0
VERTEX
  5
16BA37
  8
0
 10
44.0
 20
12.68857754044965
 30
-7.999999999999785
 70
   192
  0
VERTEX
  5
16BA38
  8
0
 10
0.0
 20
0.0
 30
0.0
 70
   128
 71
     4
 72
     5
 73
    -1
  0
VERTEX
  5
16BA39
  8
0
 10
0.0
 20
0.0
 30
0.0
 70
   128
 71
     3
 72
    -4
 73
    -1
  0
VERTEX
  5
16BA3A
  8
0
 10
0.0
 20
0.0
 30
0.0
 70
   128
 71
     2
 72
    -3
 73
     1
  0
SEQEND
  5
16BC89
  8
0
  0
POLYLINE
  5
16BA3B
  8
0
 66
     1
 10
0.0
 20
0.0
 30
0.0
 70
    64
 71
     6
 72
     4
  0
VERTEX
  5
16BA3C
  8
0
 10
44.0
 20
-12.68857754045
 30
8.0
 70
   192
  0
VERTEX
  5
16BA3D
  8
0
 10
44.0
 20
12.68857754045
 30
8.0
 70
   192
  0
VERTEX
  5
16BA3E
  8
0
 10
40.81232468587
 20
12.68857754045
 30
8.0
 70
   192
  0
VERTEX
  5
16BA3F
  8
0
 10
40.46310242786834
 20
3.970685356962598
 30
8.0
 70
   192
  0
VERTEX
  5
16BA40
  8
0
 10
40.11450103085417
 20
-4.486951289554844
 30
8.0
 70
   192
  0
VERTEX
  5
16BA41
  8
0
 10
39.76569114035
 20
-12.68857754045
 30
8.0
 70
   192
  0
VERTEX
  5
16BA42
  8
0
 10
0.0
 20
0.0
 30
0.0
 70
   128
 71
     4
 72
     3
 73
    -2
  0
VERTEX
  5
16BA43
  8
0
 10
0.0
 20
0.0
 30
0.0
 70
   128
 71
     2
 72
    -1
 73
    -5
  0
VERTEX
  5
16BA44
  8
0
 10
0.0
 20
0.0
 30
0.0
 70
   128
 71
    -2
 72
     5
 73
    -4
  0
VERTEX
  5
16BA45
  8
0
 10
0.0
 20
0.0
 30
0.0
 70
   128
 71
     1
 72
     6
 73
    -5
  0
SEQEND
  5
16BC8A
  8
0
  0
POLYLINE
  5
16BA46
  8
0
 66
     1
 10
0.0
 20
0.0
 30
0.0
 70
    64
 71
    21
 72
    19
  0
VERTEX
  5
16BA47
  8
0
 10
24.45447072812413
 20
13.73836771357312
 30
6.021399552151617
 70
   192
  0
VERTEX
  5
16BA48
  8
0
 10
22.6
 20
15.0
 30
0.0
 70
   192
  0
VERTEX
  5
16BA49
  8
0
 10
0.0
 20
15.0
 30
0.0
 70
   192
  0
VERTEX
  5
16BA4A
  8
0
 10
0.0
 20
12.13525491562421
 30
8.816778784387097
 70
   192
  0
VERTEX
  5
16BA4B
  8
0
 10
0.0
 20
4.635254915624212
 30
14.2658477444273
 70
   192
  0
VERTEX
  5
16BA4C
  8
0
 10
44.0
 20
0.0000000000000009
 30
15.0
 70
   192
  0
VERTEX
  5
16BA4D
  8
0
 10
44.0
 20
7.245688373094831
 30
13.13392553656364
 70
   192
  0
VERTEX
  5
16BA4E
  8
0
 10
0.0
 20
-12.13525491562421
 30
8.816778784387097
 70
   192
  0
VERTEX
  5
16BA4F
  8
0
 10
0.0
 20
-15.0
 30
0.0
 70
   192
  0
VERTEX
  5
16BA50
  8
0
 10
23.40000000000001
 20
-15.0
 30
0.0
 70
   192
  0
VERTEX
  5
16BA51
  8
0
 10
24.92952862292863
 20
-13.9964890458789
 30
5.394283491678212
 70
   192
  0
VERTEX
  5
16BA52
  8
0
 10
34.52915773866637
 20
-11.04108160491394
 30
10.15354701538487
 70
   192
  0
VERTEX
  5
16BA53
  8
0
 10
39.76569114035
 20
-12.68857754045
 30
8.0
 70
   192
  0
VERTEX
  5
16BA54
  8
0
 10
44.0
 20
-12.68857754045
 30
8.0
 70
   192
  0
VERTEX
  5
16BA55
  8
0
 10
0.0
 20
-4.635254915624211
 30
14.2658477444273
 70
   192
  0
VERTEX
  5
16BA56
  8
0
 10
44.0
 20
-7.245688373094828
 30
13.13392553656364
 70
   192
  0
VERTEX
  5
16BA57
  8
0
 10
44.0
 20
12.68857754044966
 30
7.999999999999786
 70
   192
  0
VERTEX
  5
16BA58
  8
0
 10
35.74476064175668
 20
10.66467925409656
 30
10.54820441626169
 70
   192
  0
VERTEX
  5
16BA59
  8
0
 10
40.81232468587
 20
12.68857754045
 30
8.0
 70
   192
  0
VERTEX
  5
16BA5A
  8
0
 10
29.90878474826635
 20
11.0176205106253
 30
10.17899986658066
 70
   192
  0
VERTEX
  5
16BA5B
  8
0
 10
29.2993438123426
 20
-11.78543964827428
 30
9.279192437754727
 70
   192
  0
VERTEX
  5
16BA5C
  8
0
 10
0.0
 20
0.0
 30
0.0
 70
   128
 71
     1
 72
     2
 73
     3
  0
VERTEX
  5
16BA5D
  8
0
 10
0.0
 20
0.0
 30
0.0
 70
   128
 71
     1
 72
     3
 73
     4
  0
VERTEX
  5
16BA5E
  8
0
 10
0.0
 20
0.0
 30
0.0
 70
   128
 71
     5
 72
     6
 73
     7
  0
VERTEX
  5
16BA5F
  8
0
 10
0.0
 20
0.0
 30
0.0
 70
   128
 71
     8
 72
     9
 73
    10
  0
VERTEX
  5
16BA60
  8
0
 10
0.0
 20
0.0
 30
0.0
 70
   128
 71
     8
 72
    10
 73
    11
  0
VERTEX
  5
16BA61
  8
0
 10
0.0
 20
0.0
 30
0.0
 70
   128
 71
    12
 72
    13
 73
    14
  0
VERTEX
  5
16BA62
  8
0
 10
0.0
 20
0.0
 30
0.0
 70
   128
 71
     5
 72
    15
 73
    16
  0
VERTEX
  5
16BA63
  8
0
 10
0.0
 20
0.0
 30
0.0
 70
   128
 71
     5
 72
    16
 73
     6
  0
VERTEX
  5
16BA64
  8
0
 10
0.0
 20
0.0
 30
0.0
 70
   128
 71
     7
 72
    17
 73
    18
  0
VERTEX
  5
16BA65
  8
0
 10
0.0
 20
0.0
 30
0.0
 70
   128
 71
    17
 72
    19
 73
    18
  0
VERTEX
  5
16BA66
  8
0
 10
0.0
 20
0.0
 30
0.0
 70
   128
 71
    20
 72
     1
 73
     4
  0
VERTEX
  5
16BA67
  8
0
 10
0.0
 20
0.0
 30
0.0
 70
   128
 71
     4
 72
     5
 73
     7
  0
VERTEX
  5
16BA68
  8
0
 10
0.0
 20
0.0
 30
0.0
 70
   128
 71
     4
 72
     7
 73
    20
  0
VERTEX
  5
16BA69
  8
0
 10
0.0
 20
0.0
 30
0.0
 70
   128
 71
     7
 72
    18
 73
    20
  0
VERTEX
  5
16BA6A
  8
0
 10
0.0
 20
0.0
 30
0.0
 70
   128
 71
    12
 72
    14
 73
    16
  0
VERTEX
  5
16BA6B
  8
0
 10
0.0
 20
0.0
 30
0.0
 70
   128
 71
    21
 72
    12
 73
    16
  0
VERTEX
  5
16BA6C
  8
0
 10
0.0
 20
0.0
 30
0.0
 70
   128
 71
    21
 72
    16
 73
    15
  0
VERTEX
  5
16BA6D
  8
0
 10
0.0
 20
0.0
 30
0.0
 70
   128
 71
    21
 72
    15
 73
     8
  0
VERTEX
  5
16BA6E
  8
0
 10
0.0
 20
0.0
 30
0.0
 70
   128
 71
     8
 72
    11
 73
    21
  0
SEQEND
  5
16BC8B
  8
0
  0
POLYLINE
  5
16BA6F
  8
0
 66
     1
 10
0.0
 20
0.0
 30
0.0
 70
    64
 71
    38
 72
    40
  0
VERTEX
  5
16BA70
  8
0
 10
35.74476064175668
 20
10.66467925409656
 30
10.54820441626169
 70
   192
  0
VERTEX
  5
16BA71
  8
0
 10
40.81232468587
 20
12.68857754045
 30
8.0
 70
   192
  0
VERTEX
  5
16BA72
  8
0
 10
40.46310242786834
 20
3.970685356962598
 30
8.0
 70
   192
  0
VERTEX
  5
16BA73
  8
0
 10
40.11450103085417
 20
-4.486951289554844
 30
8.0
 70
   192
  0
VERTEX
  5
16BA74
  8
0
 10
23.4
 20
-15.0
 30
0.0
 70
   192
  0
VERTEX
  5
16BA75
  8
0
 10
23.24
 20
-9.0
 30
0.0
 70
   192
  0
VERTEX
  5
16BA76
  8
0
 10
23.60001174655574
 20
-7.847950515927117
 30
2.808768032221119
 70
   192
  0
VERTEX
  5
16BA77
  8
0
 10
24.92952862292863
 20
-13.9964890458789
 30
5.394283491678212
 70
   192
  0
VERTEX
  5
16BA78
  8
0
 10
23.93593822392647
 20
-4.993740744835813
 30
3.99999510271205
 70
   192
  0
VERTEX
  5
16BA79
  8
0
 10
23.43857264539382
 20
-2.140340341431615
 30
2.796845837216559
 70
   192
  0
VERTEX
  5
16BA7A
  8
0
 10
23.32386697393335
 20
2.155086613361036
 30
2.811844203102524
 70
   192
  0
VERTEX
  5
16BA7B
  8
0
 10
23.02666666667
 20
-1.0
 30
0.0
 70
   192
  0
VERTEX
  5
16BA7C
  8
0
 10
22.97333333333
 20
1.0
 30
0.0
 70
   192
  0
VERTEX
  5
16BA7D
  8
0
 10
23.43916125623783
 20
-2.142228045438591
 30
-2.798774634679141
 70
   192
  0
VERTEX
  5
16BA7E
  8
0
 10
23.32421560642186
 20
2.156470968192324
 30
-2.813244149601927
 70
   192
  0
VERTEX
  5
16BA7F
  8
0
 10
23.93606415405452
 20
-4.998033568753625
 30
-3.999999516644215
 70
   192
  0
VERTEX
  5
16BA80
  8
0
 10
22.6
 20
15.0
 30
0.0
 70
   192
  0
VERTEX
  5
16BA81
  8
0
 10
22.76
 20
9.0
 30
0.0
 70
   192
  0
VERTEX
  5
16BA82
  8
0
 10
23.16348392351478
 20
7.854978238855563
 30
-2.801624395892475
 70
   192
  0
VERTEX
  5
16BA83
  8
0
 10
23.64757161823568
 20
5.004491278756285
 30
-3.99999747855072
 70
   192
  0
VERTEX
  5
16BA84
  8
0
 10
40.46310219760667
 20
3.970679687904179
 30
-8.0
 70
   192
  0
VERTEX
  5
16BA85
  8
0
 10
40.81232468587
 20
12.68857754045
 30
-8.0
 70
   192
  0
VERTEX
  5
16BA86
  8
0
 10
35.75131254383841
 20
10.66603066332748
 30
-10.54683790948537
 70
   192
  0
VERTEX
  5
16BA87
  8
0
 10
39.76569114035
 20
-12.68857754045
 30
8.0
 70
   192
  0
VERTEX
  5
16BA88
  8
0
 10
34.52915773866637
 20
-11.04108160491394
 30
10.15354701538487
 70
   192
  0
VERTEX
  5
16BA89
  8
0
 10
29.2993438123426
 20
-11.78543964827428
 30
9.279192437754727
 70
   192
  0
VERTEX
  5
16BA8A
  8
0
 10
29.90878474826635
 20
11.0176205106253
 30
10.17899986658066
 70
   192
  0
VERTEX
  5
16BA8B
  8
0
 10
24.45447072812413
 20
13.73836771357312
 30
6.021399552151617
 70
   192
  0
VERTEX
  5
16BA8C
  8
0
 10
23.64769110907602
 20
5.000374818629849
 30
3.999999982438397
 70
   192
  0
VERTEX
  5
16BA8D
  8
0
 10
23.16432436051503
 20
7.852211006949885
 30
2.804441543664851
 70
   192
  0
VERTEX
  5
16BA8E
  8
0
 10
24.45608560013105
 20
13.73732622046991
 30
-6.023775254140026
 70
   192
  0
VERTEX
  5
16BA8F
  8
0
 10
29.30961281085078
 20
-11.7816971186292
 30
-9.283943828184468
 70
   192
  0
VERTEX
  5
16BA90
  8
0
 10
24.9308720693736
 20
-13.99565026924359
 30
-5.396459352299618
 70
   192
  0
VERTEX
  5
16BA91
  8
0
 10
23.59937475747986
 20
-7.850399829675251
 30
-2.806282382617623
 70
   192
  0
VERTEX
  5
16BA92
  8
0
 10
34.53440084911909
 20
-11.04158393940528
 30
-10.15300074406908
 70
   192
  0
VERTEX
  5
16BA93
  8
0
 10
29.91241087091986
 20
11.01648082089567
 30
-10.18023331377223
 70
   192
  0
VERTEX
  5
16BA94
  8
0
 10
39.76569114035
 20
-12.68857754045
 30
-8.0
 70
   192
  0
VERTEX
  5
16BA95
  8
0
 10
40.11450066985334
 20
-4.48695991591693
 30
-8.0
 70
   192
  0
VERTEX
  5
16BA96
  8
0
 10
0.0
 20
0.0
 30
0.0
 70
   128
 71
     1
 72
     2
 73
     3
  0
VERTEX
  5
16BA97
  8
0
 10
0.0
 20
0.0
 30
0.0
 70
   128
 71
     3
 72
     4
 73
     1
  0
VERTEX
  5
16BA98
  8
0
 10
0.0
 20
0.0
 30
0.0
 70
   128
 71
     5
 72
     6
 73
     7
  0
VERTEX
  5
16BA99
  8
0
 10
0.0
 20
0.0
 30
0.0
 70
   128
 71
     8
 72
     5
 73
     7
  0
VERTEX
  5
16BA9A
  8
0
 10
0.0
 20
0.0
 30
0.0
 70
   128
 71
     9
 72
    10
 73
    11
  0
VERTEX
  5
16BA9B
  8
0
 10
0.0
 20
0.0
 30
0.0
 70
   128
 71
    12
 72
    13
 73
    11
  0
VERTEX
  5
16BA9C
  8
0
 10
0.0
 20
0.0
 30
0.0
 70
   128
 71
    10
 72
    12
 73
    11
  0
VERTEX
  5
16BA9D
  8
0
 10
0.0
 20
0.0
 30
0.0
 70
   128
 71
    13
 72
    12
 73
    14
  0
VERTEX
  5
16BA9E
  8
0
 10
0.0
 20
0.0
 30
0.0
 70
   128
 71
    15
 72
    13
 73
    14
  0
VERTEX
  5
16BA9F
  8
0
 10
0.0
 20
0.0
 30
0.0
 70
   128
 71
    14
 72
    16
 73
    15
  0
VERTEX
  5
16BAA0
  8
0
 10
0.0
 20
0.0
 30
0.0
 70
   128
 71
    17
 72
    18
 73
    19
  0
VERTEX
  5
16BAA1
  8
0
 10
0.0
 20
0.0
 30
0.0
 70
   128
 71
    20
 72
    15
 73
    16
  0
VERTEX
  5
16BAA2
  8
0
 10
0.0
 20
0.0
 30
0.0
 70
   128
 71
    21
 72
    22
 73
    23
  0
VERTEX
  5
16BAA3
  8
0
 10
0.0
 20
0.0
 30
0.0
 70
   128
 71
     4
 72
    24
 73
    25
  0
VERTEX
  5
16BAA4
  8
0
 10
0.0
 20
0.0
 30
0.0
 70
   128
 71
     1
 72
     4
 73
    25
  0
VERTEX
  5
16BAA5
  8
0
 10
0.0
 20
0.0
 30
0.0
 70
   128
 71
     1
 72
    25
 73
    26
  0
VERTEX
  5
16BAA6
  8
0
 10
0.0
 20
0.0
 30
0.0
 70
   128
 71
    27
 72
     1
 73
    26
  0
VERTEX
  5
16BAA7
  8
0
 10
0.0
 20
0.0
 30
0.0
 70
   128
 71
    27
 72
    26
 73
    28
  0
VERTEX
  5
16BAA8
  8
0
 10
0.0
 20
0.0
 30
0.0
 70
   128
 71
     8
 72
     7
 73
     9
  0
VERTEX
  5
16BAA9
  8
0
 10
0.0
 20
0.0
 30
0.0
 70
   128
 71
    26
 72
     8
 73
     9
  0
VERTEX
  5
16BAAA
  8
0
 10
0.0
 20
0.0
 30
0.0
 70
   128
 71
    29
 72
    26
 73
     9
  0
VERTEX
  5
16BAAB
  8
0
 10
0.0
 20
0.0
 30
0.0
 70
   128
 71
     9
 72
    11
 73
    29
  0
VERTEX
  5
16BAAC
  8
0
 10
0.0
 20
0.0
 30
0.0
 70
   128
 71
    29
 72
    28
 73
    26
  0
VERTEX
  5
16BAAD
  8
0
 10
0.0
 20
0.0
 30
0.0
 70
   128
 71
    28
 72
    29
 73
    30
  0
VERTEX
  5
16BAAE
  8
0
 10
0.0
 20
0.0
 30
0.0
 70
   128
 71
    18
 72
    17
 73
    28
  0
VERTEX
  5
16BAAF
  8
0
 10
0.0
 20
0.0
 30
0.0
 70
   128
 71
    30
 72
    18
 73
    28
  0
VERTEX
  5
16BAB0
  8
0
 10
0.0
 20
0.0
 30
0.0
 70
   128
 71
    31
 72
    17
 73
    19
  0
VERTEX
  5
16BAB1
  8
0
 10
0.0
 20
0.0
 30
0.0
 70
   128
 71
    19
 72
    20
 73
    31
  0
VERTEX
  5
16BAB2
  8
0
 10
0.0
 20
0.0
 30
0.0
 70
   128
 71
    20
 72
    16
 73
    31
  0
VERTEX
  5
16BAB3
  8
0
 10
0.0
 20
0.0
 30
0.0
 70
   128
 71
    32
 72
    31
 73
    16
  0
VERTEX
  5
16BAB4
  8
0
 10
0.0
 20
0.0
 30
0.0
 70
   128
 71
    33
 72
    32
 73
    16
  0
VERTEX
  5
16BAB5
  8
0
 10
0.0
 20
0.0
 30
0.0
 70
   128
 71
    16
 72
    34
 73
    33
  0
VERTEX
  5
16BAB6
  8
0
 10
0.0
 20
0.0
 30
0.0
 70
   128
 71
     6
 72
     5
 73
    33
  0
VERTEX
  5
16BAB7
  8
0
 10
0.0
 20
0.0
 30
0.0
 70
   128
 71
    34
 72
     6
 73
    33
  0
VERTEX
  5
16BAB8
  8
0
 10
0.0
 20
0.0
 30
0.0
 70
   128
 71
    32
 72
    35
 73
    36
  0
VERTEX
  5
16BAB9
  8
0
 10
0.0
 20
0.0
 30
0.0
 70
   128
 71
    31
 72
    32
 73
    36
  0
VERTEX
  5
16BABA
  8
0
 10
0.0
 20
0.0
 30
0.0
 70
   128
 71
    36
 72
    35
 73
    23
  0
VERTEX
  5
16BABB
  8
0
 10
0.0
 20
0.0
 30
0.0
 70
   128
 71
    35
 72
    37
 73
    38
  0
VERTEX
  5
16BABC
  8
0
 10
0.0
 20
0.0
 30
0.0
 70
   128
 71
    21
 72
    23
 73
    35
  0
VERTEX
  5
16BABD
  8
0
 10
0.0
 20
0.0
 30
0.0
 70
   128
 71
    38
 72
    21
 73
    35
  0
SEQEND
  5
16BC8C
  8
0
  0
POLYLINE
  5
16BABE
  8
0
 66
     1
 10
0.0
 20
0.0
 30
0.0
 70
    64
 71
    10
 72
     8
  0
VERTEX
  5
16BABF
  8
0
 10
21.5
 20
1.0
 30
0.0
 70
   192
  0
VERTEX
  5
16BAC0
  8
0
 10
22.97333333333
 20
1.0
 30
0.0
 70
   192
  0
VERTEX
  5
16BAC1
  8
0
 10
23.32421560642186
 20
2.156470968192324
 30
-2.813244149601927
 70
   192
  0
VERTEX
  5
16BAC2
  8
0
 10
21.5
 20
2.17157287525381
 30
-2.82842712474619
 70
   192
  0
VERTEX
  5
16BAC3
  8
0
 10
22.76
 20
9.0
 30
0.0
 70
   192
  0
VERTEX
  5
16BAC4
  8
0
 10
21.5
 20
9.0
 30
0.0
 70
   192
  0
VERTEX
  5
16BAC5
  8
0
 10
21.5
 20
7.828427124746191
 30
-2.828427124746191
 70
   192
  0
VERTEX
  5
16BAC6
  8
0
 10
23.16348392351478
 20
7.854978238855563
 30
-2.801624395892475
 70
   192
  0
VERTEX
  5
16BAC7
  8
0
 10
21.5
 20
5.0
 30
-4.000000000000001
 70
   192
  0
VERTEX
  5
16BAC8
  8
0
 10
23.64757161823568
 20
5.004491278756285
 30
-3.99999747855072
 70
   192
  0
VERTEX
  5
16BAC9
  8
0
 10
0.0
 20
0.0
 30
0.0
 70
   128
 71
     1
 72
     2
 73
     3
  0
VERTEX
  5
16BACA
  8
0
 10
0.0
 20
0.0
 30
0.0
 70
   128
 71
     4
 72
     1
 73
     3
  0
VERTEX
  5
16BACB
  8
0
 10
0.0
 20
0.0
 30
0.0
 70
   128
 71
     5
 72
     6
 73
     7
  0
VERTEX
  5
16BACC
  8
0
 10
0.0
 20
0.0
 30
0.0
 70
   128
 71
     8
 72
     5
 73
     7
  0
VERTEX
  5
16BACD
  8
0
 10
0.0
 20
0.0
 30
0.0
 70
   128
 71
     9
 72
     4
 73
     3
  0
VERTEX
  5
16BACE
  8
0
 10
0.0
 20
0.0
 30
0.0
 70
   128
 71
     7
 72
     9
 73
     3
  0
VERTEX
  5
16BACF
  8
0
 10
0.0
 20
0.0
 30
0.0
 70
   128
 71
     7
 72
     3
 73
    10
  0
VERTEX
  5
16BAD0
  8
0
 10
0.0
 20
0.0
 30
0.0
 70
   128
 71
     8
 72
     7
 73
    10
  0
SEQEND
  5
16BC8D
  8
0
  0
POLYLINE
  5
16BAD1
  8
0
 66
     1
 10
0.0
 20
0.0
 30
0.0
 70
    64
 71
    10
 72
     8
  0
VERTEX
  5
16BAD2
  8
0
 10
21.5
 20
9.0
 30
0.0
 70
   192
  0
VERTEX
  5
16BAD3
  8
0
 10
22.76
 20
9.0
 30
0.0
 70
   192
  0
VERTEX
  5
16BAD4
  8
0
 10
23.16432436051503
 20
7.852211006949885
 30
2.804441543664851
 70
   192
  0
VERTEX
  5
16BAD5
  8
0
 10
21.5
 20
7.828427124746191
 30
2.828427124746191
 70
   192
  0
VERTEX
  5
16BAD6
  8
0
 10
22.97333333333
 20
1.0
 30
0.0
 70
   192
  0
VERTEX
  5
16BAD7
  8
0
 10
21.5
 20
1.0
 30
0.0
 70
   192
  0
VERTEX
  5
16BAD8
  8
0
 10
21.5
 20
2.17157287525381
 30
2.82842712474619
 70
   192
  0
VERTEX
  5
16BAD9
  8
0
 10
23.32386697393335
 20
2.155086613361036
 30
2.811844203102524
 70
   192
  0
VERTEX
  5
16BADA
  8
0
 10
21.5
 20
5.0
 30
4.000000000000001
 70
   192
  0
VERTEX
  5
16BADB
  8
0
 10
23.64769110907602
 20
5.000374818629849
 30
3.999999982438397
 70
   192
  0
VERTEX
  5
16BADC
  8
0
 10
0.0
 20
0.0
 30
0.0
 70
   128
 71
     1
 72
     2
 73
     3
  0
VERTEX
  5
16BADD
  8
0
 10
0.0
 20
0.0
 30
0.0
 70
   128
 71
     4
 72
     1
 73
     3
  0
VERTEX
  5
16BADE
  8
0
 10
0.0
 20
0.0
 30
0.0
 70
   128
 71
     5
 72
     6
 73
     7
  0
VERTEX
  5
16BADF
  8
0
 10
0.0
 20
0.0
 30
0.0
 70
   128
 71
     8
 72
     5
 73
     7
  0
VERTEX
  5
16BAE0
  8
0
 10
0.0
 20
0.0
 30
0.0
 70
   128
 71
     9
 72
     4
 73
     3
  0
VERTEX
  5
16BAE1
  8
0
 10
0.0
 20
0.0
 30
0.0
 70
   128
 71
     9
 72
     3
 73
    10
  0
VERTEX
  5
16BAE2
  8
0
 10
0.0
 20
0.0
 30
0.0
 70
   128
 71
     7
 72
     9
 73
    10
  0
VERTEX
  5
16BAE3
  8
0
 10
0.0
 20
0.0
 30
0.0
 70
   128
 71
     8
 72
     7
 73
    10
  0
SEQEND
  5
16BC8E
  8
0
  0
POLYLINE
  5
16BAE4
  8
0
 66
     1
 10
0.0
 20
0.0
 30
0.0
 70
    64
 71
    10
 72
     8
  0
VERTEX
  5
16BAE5
  8
0
 10
20.0
 20
7.5
 30
0.0
 70
   192
  0
VERTEX
  5
16BAE6
  8
0
 10
20.0
 20
2.5
 30
0.0
 70
   192
  0
VERTEX
  5
16BAE7
  8
0
 10
21.5
 20
1.0
 30
0.0
 70
   192
  0
VERTEX
  5
16BAE8
  8
0
 10
21.5
 20
9.0
 30
0.0
 70
   192
  0
VERTEX
  5
16BAE9
  8
0
 10
21.5
 20
5.0
 30
4.000000000000001
 70
   192
  0
VERTEX
  5
16BAEA
  8
0
 10
20.0
 20
5.0
 30
2.5
 70
   192
  0
VERTEX
  5
16BAEB
  8
0
 10
21.5
 20
7.828427124746191
 30
2.828427124746191
 70
   192
  0
VERTEX
  5
16BAEC
  8
0
 10
20.0
 20
6.767766952966369
 30
1.767766952966369
 70
   192
  0
VERTEX
  5
16BAED
  8
0
 10
21.5
 20
2.17157287525381
 30
2.82842712474619
 70
   192
  0
VERTEX
  5
16BAEE
  8
0
 10
20.0
 20
3.232233047033631
 30
1.767766952966369
 70
   192
  0
VERTEX
  5
16BAEF
  8
0
 10
0.0
 20
0.0
 30
0.0
 70
   128
 71
     8
 72
     1
 73
    -4
  0
VERTEX
  5
16BAF0
  8
0
 10
0.0
 20
0.0
 30
0.0
 70
   128
 71
     7
 72
    -8
 73
     4
  0
VERTEX
  5
16BAF1
  8
0
 10
0.0
 20
0.0
 30
0.0
 70
   128
 71
     6
 72
     8
 73
    -7
  0
VERTEX
  5
16BAF2
  8
0
 10
0.0
 20
0.0
 30
0.0
 70
   128
 71
     5
 72
    -6
 73
     7
  0
VERTEX
  5
16BAF3
  8
0
 10
0.0
 20
0.0
 30
0.0
 70
   128
 71
    10
 72
     6
 73
    -5
  0
VERTEX
  5
16BAF4
  8
0
 10
0.0
 20
0.0
 30
0.0
 70
   128
 71
     9
 72
   -10
 73
     5
  0
VERTEX
  5
16BAF5
  8
0
 10
0.0
 20
0.0
 30
0.0
 70
   128
 71
     2
 72
    10
 73
    -9
  0
VERTEX
  5
16BAF6
  8
0
 10
0.0
 20
0.0
 30
0.0
 70
   128
 71
     3
 72
    -2
 73
     9
  0
SEQEND
  5
16BC8F
  8
0
  0
POLYLINE
  5
16BAF7
  8
0
 66
     1
 10
0.0
 20
0.0
 30
0.0
 70
    64
 71
    10
 72
     8
  0
VERTEX
  5
16BAF8
  8
0
 10
20.0
 20
2.5
 30
0.0
 70
   192
  0
VERTEX
  5
16BAF9
  8
0
 10
20.0
 20
7.5
 30
0.0
 70
   192
  0
VERTEX
  5
16BAFA
  8
0
 10
21.5
 20
9.0
 30
0.0
 70
   192
  0
VERTEX
  5
16BAFB
  8
0
 10
21.5
 20
1.0
 30
0.0
 70
   192
  0
VERTEX
  5
16BAFC
  8
0
 10
21.5
 20
5.0
 30
-4.000000000000001
 70
   192
  0
VERTEX
  5
16BAFD
  8
0
 10
20.0
 20
5.0
 30
-2.5
 70
   192
  0
VERTEX
  5
16BAFE
  8
0
 10
21.5
 20
2.17157287525381
 30
-2.82842712474619
 70
   192
  0
VERTEX
  5
16BAFF
  8
0
 10
20.0
 20
3.232233047033631
 30
-1.767766952966369
 70
   192
  0
VERTEX
  5
16BB00
  8
0
 10
21.5
 20
7.828427124746191
 30
-2.828427124746191
 70
   192
  0
VERTEX
  5
16BB01
  8
0
 10
20.0
 20
6.767766952966369
 30
-1.767766952966369
 70
   192
  0
VERTEX
  5
16BB02
  8
0
 10
0.0
 20
0.0
 30
0.0
 70
   128
 71
     4
 72
     7
 73
    -8
  0
VERTEX
  5
16BB03
  8
0
 10
0.0
 20
0.0
 30
0.0
 70
   128
 71
     1
 72
    -4
 73
     8
  0
VERTEX
  5
16BB04
  8
0
 10
0.0
 20
0.0
 30
0.0
 70
   128
 71
     7
 72
     5
 73
    -6
  0
VERTEX
  5
16BB05
  8
0
 10
0.0
 20
0.0
 30
0.0
 70
   128
 71
     8
 72
    -7
 73
     6
  0
VERTEX
  5
16BB06
  8
0
 10
0.0
 20
0.0
 30
0.0
 70
   128
 71
     5
 72
     9
 73
   -10
  0
VERTEX
  5
16BB07
  8
0
 10
0.0
 20
0.0
 30
0.0
 70
   128
 71
     6
 72
    -5
 73
    10
  0
VERTEX
  5
16BB08
  8
0
 10
0.0
 20
0.0
 30
0.0
 70
   128
 71
     9
 72
     3
 73
    -2
  0
VERTEX
  5
16BB09
  8
0
 10
0.0
 20
0.0
 30
0.0
 70
   128
 71
    10
 72
    -9
 73
     2
  0
SEQEND
  5
16BC90
  8
0
  0
POLYLINE
  5
16BB0A
  8
0
 66
     1
 10
0.0
 20
0.0
 30
0.0
 70
    64
 71
    10
 72
     8
  0
VERTEX
  5
16BB0B
  8
0
 10
18.0
 20
2.5
 30
0.0
 70
   192
  0
VERTEX
  5
16BB0C
  8
0
 10
18.0
 20
7.5
 30
0.0
 70
   192
  0
VERTEX
  5
16BB0D
  8
0
 10
20.0
 20
7.5
 30
0.0
 70
   192
  0
VERTEX
  5
16BB0E
  8
0
 10
20.0
 20
2.5
 30
0.0
 70
   192
  0
VERTEX
  5
16BB0F
  8
0
 10
20.0
 20
5.0
 30
-2.5
 70
   192
  0
VERTEX
  5
16BB10
  8
0
 10
18.0
 20
5.0
 30
-2.5
 70
   192
  0
VERTEX
  5
16BB11
  8
0
 10
20.0
 20
3.232233047033631
 30
-1.767766952966369
 70
   192
  0
VERTEX
  5
16BB12
  8
0
 10
18.0
 20
3.232233047033631
 30
-1.767766952966369
 70
   192
  0
VERTEX
  5
16BB13
  8
0
 10
20.0
 20
6.767766952966369
 30
-1.767766952966369
 70
   192
  0
VERTEX
  5
16BB14
  8
0
 10
18.0
 20
6.767766952966369
 30
-1.767766952966369
 70
   192
  0
VERTEX
  5
16BB15
  8
0
 10
0.0
 20
0.0
 30
0.0
 70
   128
 71
     1
 72
     4
 73
    -7
  0
VERTEX
  5
16BB16
  8
0
 10
0.0
 20
0.0
 30
0.0
 70
   128
 71
     8
 72
    -1
 73
     7
  0
VERTEX
  5
16BB17
  8
0
 10
0.0
 20
0.0
 30
0.0
 70
   128
 71
     7
 72
     5
 73
    -6
  0
VERTEX
  5
16BB18
  8
0
 10
0.0
 20
0.0
 30
0.0
 70
   128
 71
     8
 72
    -7
 73
     6
  0
VERTEX
  5
16BB19
  8
0
 10
0.0
 20
0.0
 30
0.0
 70
   128
 71
     5
 72
     9
 73
   -10
  0
VERTEX
  5
16BB1A
  8
0
 10
0.0
 20
0.0
 30
0.0
 70
   128
 71
     6
 72
    -5
 73
    10
  0
VERTEX
  5
16BB1B
  8
0
 10
0.0
 20
0.0
 30
0.0
 70
   128
 71
     9
 72
     3
 73
    -2
  0
VERTEX
  5
16BB1C
  8
0
 10
0.0
 20
0.0
 30
0.0
 70
   128
 71
    10
 72
    -9
 73
     2
  0
SEQEND
  5
16BC91
  8
0
  0
POLYLINE
  5
16BB1D
  8
0
 66
     1
 10
0.0
 20
0.0
 30
0.0
 70
    64
 71
    24
 72
    26
  0
VERTEX
  5
16BB1E
  8
0
 10
18.0
 20
0.0000000000000013
 30
-8.0
 70
   192
  0
VERTEX
  5
16BB1F
  8
0
 10
18.0
 20
5.656854249492381
 30
-5.65685424949238
 70
   192
  0
VERTEX
  5
16BB20
  8
0
 10
18.0
 20
8.0
 30
0.0000000000000009
 70
   192
  0
VERTEX
  5
16BB21
  8
0
 10
18.0
 20
5.65685424949238
 30
5.656854249492381
 70
   192
  0
VERTEX
  5
16BB22
  8
0
 10
18.0
 20
-0.0000000000000005
 30
8.0
 70
   192
  0
VERTEX
  5
16BB23
  8
0
 10
18.0
 20
-5.656854249492381
 30
5.656854249492381
 70
   192
  0
VERTEX
  5
16BB24
  8
0
 10
18.0
 20
-8.000000000000002
 30
0.0
 70
   192
  0
VERTEX
  5
16BB25
  8
0
 10
18.0
 20
-5.656854249492381
 30
-5.656854249492381
 70
   192
  0
VERTEX
  5
16BB26
  8
0
 10
18.0
 20
7.5
 30
0.0
 70
   192
  0
VERTEX
  5
16BB27
  8
0
 10
18.0
 20
6.767766952966369
 30
-1.767766952966369
 70
   192
  0
VERTEX
  5
16BB28
  8
0
 10
18.0
 20
5.0
 30
-2.5
 70
   192
  0
VERTEX
  5
16BB29
  8
0
 10
18.0
 20
3.232233047033631
 30
-1.767766952966369
 70
   192
  0
VERTEX
  5
16BB2A
  8
0
 10
18.0
 20
2.5
 30
0.0
 70
   192
  0
VERTEX
  5
16BB2B
  8
0
 10
18.0
 20
3.232233047033631
 30
1.767766952966369
 70
   192
  0
VERTEX
  5
16BB2C
  8
0
 10
18.0
 20
5.0
 30
2.5
 70
   192
  0
VERTEX
  5
16BB2D
  8
0
 10
18.0
 20
6.767766952966369
 30
1.767766952966369
 70
   192
  0
VERTEX
  5
16BB2E
  8
0
 10
18.0
 20
-2.5
 30
0.0
 70
   192
  0
VERTEX
  5
16BB2F
  8
0
 10
18.0
 20
-3.232233047033631
 30
-1.767766952966369
 70
   192
  0
VERTEX
  5
16BB30
  8
0
 10
18.0
 20
-5.0
 30
-2.5
 70
   192
  0
VERTEX
  5
16BB31
  8
0
 10
18.0
 20
-6.767766952966369
 30
-1.767766952966369
 70
   192
  0
VERTEX
  5
16BB32
  8
0
 10
18.0
 20
-7.5
 30
0.0
 70
   192
  0
VERTEX
  5
16BB33
  8
0
 10
18.0
 20
-6.767766952966369
 30
1.767766952966369
 70
   192
  0
VERTEX
  5
16BB34
  8
0
 10
18.0
 20
-5.0
 30
2.5
 70
   192
  0
VERTEX
  5
16BB35
  8
0
 10
18.0
 20
-3.232233047033631
 30
1.767766952966369
 70
   192
  0
VERTEX
  5
16BB36
  8
0
 10
0.0
 20
0.0
 30
0.0
 70
   128
 71
    10
 72
    -9
 73
    -3
  0
VERTEX
  5
16BB37
  8
0
 10
0.0
 20
0.0
 30
0.0
 70
   128
 71
   -10
 72
     3
 73
    -2
  0
VERTEX
  5
16BB38
  8
0
 10
0.0
 20
0.0
 30
0.0
 70
   128
 71
    -2
 72
    11
 73
   -10
  0
VERTEX
  5
16BB39
  8
0
 10
0.0
 20
0.0
 30
0.0
 70
   128
 71
     2
 72
    -1
 73
   -12
  0
VERTEX
  5
16BB3A
  8
0
 10
0.0
 20
0.0
 30
0.0
 70
   128
 71
    -2
 72
    12
 73
   -11
  0
VERTEX
  5
16BB3B
  8
0
 10
0.0
 20
0.0
 30
0.0
 70
   128
 71
    18
 72
   -17
 73
   -13
  0
VERTEX
  5
16BB3C
  8
0
 10
0.0
 20
0.0
 30
0.0
 70
   128
 71
   -18
 72
    13
 73
   -12
  0
VERTEX
  5
16BB3D
  8
0
 10
0.0
 20
0.0
 30
0.0
 70
   128
 71
   -12
 72
     1
 73
    -8
  0
VERTEX
  5
16BB3E
  8
0
 10
0.0
 20
0.0
 30
0.0
 70
   128
 71
   -12
 72
    -8
 73
   -19
  0
VERTEX
  5
16BB3F
  8
0
 10
0.0
 20
0.0
 30
0.0
 70
   128
 71
   -12
 72
    19
 73
   -18
  0
VERTEX
  5
16BB40
  8
0
 10
0.0
 20
0.0
 30
0.0
 70
   128
 71
    -8
 72
    20
 73
   -19
  0
VERTEX
  5
16BB41
  8
0
 10
0.0
 20
0.0
 30
0.0
 70
   128
 71
     8
 72
    -7
 73
   -20
  0
VERTEX
  5
16BB42
  8
0
 10
0.0
 20
0.0
 30
0.0
 70
   128
 71
    -7
 72
    21
 73
   -20
  0
VERTEX
  5
16BB43
  8
0
 10
0.0
 20
0.0
 30
0.0
 70
   128
 71
    -7
 72
    22
 73
   -21
  0
VERTEX
  5
16BB44
  8
0
 10
0.0
 20
0.0
 30
0.0
 70
   128
 71
   -22
 72
     7
 73
    -6
  0
VERTEX
  5
16BB45
  8
0
 10
0.0
 20
0.0
 30
0.0
 70
   128
 71
    -6
 72
    23
 73
   -22
  0
VERTEX
  5
16BB46
  8
0
 10
0.0
 20
0.0
 30
0.0
 70
   128
 71
     6
 72
    -5
 73
   -14
  0
VERTEX
  5
16BB47
  8
0
 10
0.0
 20
0.0
 30
0.0
 70
   128
 71
    -6
 72
   -14
 73
   -24
  0
VERTEX
  5
16BB48
  8
0
 10
0.0
 20
0.0
 30
0.0
 70
   128
 71
    -6
 72
    24
 73
   -23
  0
VERTEX
  5
16BB49
  8
0
 10
0.0
 20
0.0
 30
0.0
 70
   128
 71
    14
 72
   -13
 73
   -17
  0
VERTEX
  5
16BB4A
  8
0
 10
0.0
 20
0.0
 30
0.0
 70
   128
 71
   -14
 72
    17
 73
   -24
  0
VERTEX
  5
16BB4B
  8
0
 10
0.0
 20
0.0
 30
0.0
 70
   128
 71
     5
 72
    -4
 73
   -15
  0
VERTEX
  5
16BB4C
  8
0
 10
0.0
 20
0.0
 30
0.0
 70
   128
 71
    -5
 72
    15
 73
   -14
  0
VERTEX
  5
16BB4D
  8
0
 10
0.0
 20
0.0
 30
0.0
 70
   128
 71
    -4
 72
    16
 73
   -15
  0
VERTEX
  5
16BB4E
  8
0
 10
0.0
 20
0.0
 30
0.0
 70
   128
 71
     4
 72
    -3
 73
   -16
  0
VERTEX
  5
16BB4F
  8
0
 10
0.0
 20
0.0
 30
0.0
 70
   128
 71
    -3
 72
     9
 73
   -16
  0
SEQEND
  5
16BC92
  8
0
  0
POLYLINE
  5
16BB50
  8
0
 66
     1
 10
0.0
 20
0.0
 30
0.0
 70
    64
 71
    10
 72
     8
  0
VERTEX
  5
16BB51
  8
0
 10
20.0
 20
9.199999999999998
 30
0.0
 70
   192
  0
VERTEX
  5
16BB52
  8
0
 10
20.0
 20
-9.199999999999832
 30
-0.0000000000000006
 70
   192
  0
VERTEX
  5
16BB53
  8
0
 10
20.5
 20
-9.5
 30
0.0
 70
   192
  0
VERTEX
  5
16BB54
  8
0
 10
20.5
 20
9.500000000000002
 30
0.0
 70
   192
  0
VERTEX
  5
16BB55
  8
0
 10
20.5
 20
0.0
 30
9.500000000000002
 70
   192
  0
VERTEX
  5
16BB56
  8
0
 10
20.0
 20
0.0
 30
9.199999999999834
 70
   192
  0
VERTEX
  5
16BB57
  8
0
 10
20.5
 20
6.717514421272203
 30
6.717514421272203
 70
   192
  0
VERTEX
  5
16BB58
  8
0
 10
20.0
 20
6.50538238691612
 30
6.50538238691612
 70
   192
  0
VERTEX
  5
16BB59
  8
0
 10
20.5
 20
-6.717514421272202
 30
6.717514421272202
 70
   192
  0
VERTEX
  5
16BB5A
  8
0
 10
20.0
 20
-6.505382386916119
 30
6.505382386916119
 70
   192
  0
VERTEX
  5
16BB5B
  8
0
 10
0.0
 20
0.0
 30
0.0
 70
   128
 71
     7
 72
     4
 73
    -1
  0
VERTEX
  5
16BB5C
  8
0
 10
0.0
 20
0.0
 30
0.0
 70
   128
 71
    -7
 72
     1
 73
     8
  0
VERTEX
  5
16BB5D
  8
0
 10
0.0
 20
0.0
 30
0.0
 70
   128
 71
     6
 72
     5
 73
    -7
  0
VERTEX
  5
16BB5E
  8
0
 10
0.0
 20
0.0
 30
0.0
 70
   128
 71
    -6
 72
     7
 73
     8
  0
VERTEX
  5
16BB5F
  8
0
 10
0.0
 20
0.0
 30
0.0
 70
   128
 71
    10
 72
     9
 73
    -5
  0
VERTEX
  5
16BB60
  8
0
 10
0.0
 20
0.0
 30
0.0
 70
   128
 71
   -10
 72
     5
 73
     6
  0
VERTEX
  5
16BB61
  8
0
 10
0.0
 20
0.0
 30
0.0
 70
   128
 71
     2
 72
     3
 73
    -9
  0
VERTEX
  5
16BB62
  8
0
 10
0.0
 20
0.0
 30
0.0
 70
   128
 71
    -2
 72
     9
 73
    10
  0
SEQEND
  5
16BC93
  8
0
  0
POLYLINE
  5
16BB63
  8
0
 66
     1
 10
0.0
 20
0.0
 30
0.0
 70
    64
 71
    10
 72
     8
  0
VERTEX
  5
16BB64
  8
0
 10
20.0
 20
-9.199999999999998
 30
0.0
 70
   192
  0
VERTEX
  5
16BB65
  8
0
 10
20.0
 20
9.199999999999832
 30
-0.0000000000000006
 70
   192
  0
VERTEX
  5
16BB66
  8
0
 10
20.5
 20
9.5
 30
0.0
 70
   192
  0
VERTEX
  5
16BB67
  8
0
 10
20.5
 20
-9.5
 30
0.0
 70
   192
  0
VERTEX
  5
16BB68
  8
0
 10
20.5
 20
0.0
 30
-9.500000000000002
 70
   192
  0
VERTEX
  5
16BB69
  8
0
 10
20.0
 20
0.0
 30
-9.199999999999834
 70
   192
  0
VERTEX
  5
16BB6A
  8
0
 10
20.5
 20
-6.717514421272202
 30
-6.717514421272202
 70
   192
  0
VERTEX
  5
16BB6B
  8
0
 10
20.0
 20
-6.50538238691612
 30
-6.50538238691612
 70
   192
  0
VERTEX
  5
16BB6C
  8
0
 10
20.5
 20
6.717514421272203
 30
-6.717514421272203
 70
   192
  0
VERTEX
  5
16BB6D
  8
0
 10
20.0
 20
6.505382386916119
 30
-6.505382386916119
 70
   192
  0
VERTEX
  5
16BB6E
  8
0
 10
0.0
 20
0.0
 30
0.0
 70
   128
 71
     7
 72
     4
 73
    -1
  0
VERTEX
  5
16BB6F
  8
0
 10
0.0
 20
0.0
 30
0.0
 70
   128
 71
    -7
 72
     1
 73
     8
  0
VERTEX
  5
16BB70
  8
0
 10
0.0
 20
0.0
 30
0.0
 70
   128
 71
     6
 72
     5
 73
    -7
  0
VERTEX
  5
16BB71
  8
0
 10
0.0
 20
0.0
 30
0.0
 70
   128
 71
    -6
 72
     7
 73
     8
  0
VERTEX
  5
16BB72
  8
0
 10
0.0
 20
0.0
 30
0.0
 70
   128
 71
    10
 72
     9
 73
    -5
  0
VERTEX
  5
16BB73
  8
0
 10
0.0
 20
0.0
 30
0.0
 70
   128
 71
   -10
 72
     5
 73
     6
  0
VERTEX
  5
16BB74
  8
0
 10
0.0
 20
0.0
 30
0.0
 70
   128
 71
     2
 72
     3
 73
    -9
  0
VERTEX
  5
16BB75
  8
0
 10
0.0
 20
0.0
 30
0.0
 70
   128
 71
    -2
 72
     9
 73
    10
  0
SEQEND
  5
16BC94
  8
0
  0
POLYLINE
  5
16BB76
  8
0
 66
     1
 10
0.0
 20
0.0
 30
0.0
 70
    64
 71
    18
 72
    18
  0
VERTEX
  5
16BB77
  8
0
 10
20.5
 20
13.15
 30
0.0
 70
   192
  0
VERTEX
  5
16BB78
  8
0
 10
20.5
 20
10.63857347603056
 30
7.729376067646022
 70
   192
  0
VERTEX
  5
16BB79
  8
0
 10
20.5
 20
4.063573476030558
 30
12.50639318928127
 70
   192
  0
VERTEX
  5
16BB7A
  8
0
 10
20.5
 20
-4.063573476030559
 30
12.50639318928127
 70
   192
  0
VERTEX
  5
16BB7B
  8
0
 10
20.5
 20
-10.63857347603056
 30
7.729376067646022
 70
   192
  0
VERTEX
  5
16BB7C
  8
0
 10
20.5
 20
-13.15
 30
0.0
 70
   192
  0
VERTEX
  5
16BB7D
  8
0
 10
20.5
 20
-10.63857347603056
 30
-7.729376067646022
 70
   192
  0
VERTEX
  5
16BB7E
  8
0
 10
20.5
 20
-4.063573476030559
 30
-12.50639318928127
 70
   192
  0
VERTEX
  5
16BB7F
  8
0
 10
20.5
 20
4.063573476030558
 30
-12.50639318928127
 70
   192
  0
VERTEX
  5
16BB80
  8
0
 10
20.5
 20
10.63857347603056
 30
-7.729376067646022
 70
   192
  0
VERTEX
  5
16BB81
  8
0
 10
20.5
 20
9.500000000000002
 30
0.0
 70
   192
  0
VERTEX
  5
16BB82
  8
0
 10
20.5
 20
6.717514421272203
 30
-6.717514421272203
 70
   192
  0
VERTEX
  5
16BB83
  8
0
 10
20.5
 20
0.0
 30
-9.500000000000002
 70
   192
  0
VERTEX
  5
16BB84
  8
0
 10
20.5
 20
-6.717514421272202
 30
-6.717514421272202
 70
   192
  0
VERTEX
  5
16BB85
  8
0
 10
20.5
 20
-9.5
 30
0.0
 70
   192
  0
VERTEX
  5
16BB86
  8
0
 10
20.5
 20
-6.717514421272202
 30
6.717514421272202
 70
   192
  0
VERTEX
  5
16BB87
  8
0
 10
20.5
 20
0.0
 30
9.500000000000002
 70
   192
  0
VERTEX
  5
16BB88
  8
0
 10
20.5
 20
6.717514421272203
 30
6.717514421272203
 70
   192
  0
VERTEX
  5
16BB89
  8
0
 10
0.0
 20
0.0
 30
0.0
 70
   128
 71
    12
 72
   -11
 73
    -1
  0
VERTEX
  5
16BB8A
  8
0
 10
0.0
 20
0.0
 30
0.0
 70
   128
 71
   -12
 72
     1
 73
   -10
  0
VERTEX
  5
16BB8B
  8
0
 10
0.0
 20
0.0
 30
0.0
 70
   128
 71
    10
 72
    -9
 73
   -13
  0
VERTEX
  5
16BB8C
  8
0
 10
0.0
 20
0.0
 30
0.0
 70
   128
 71
   -10
 72
    13
 73
   -12
  0
VERTEX
  5
16BB8D
  8
0
 10
0.0
 20
0.0
 30
0.0
 70
   128
 71
     9
 72
     8
 73
    -7
  0
VERTEX
  5
16BB8E
  8
0
 10
0.0
 20
0.0
 30
0.0
 70
   128
 71
    -9
 72
    -7
 73
   -14
  0
VERTEX
  5
16BB8F
  8
0
 10
0.0
 20
0.0
 30
0.0
 70
   128
 71
    -9
 72
    14
 73
   -13
  0
VERTEX
  5
16BB90
  8
0
 10
0.0
 20
0.0
 30
0.0
 70
   128
 71
     7
 72
    -6
 73
   -15
  0
VERTEX
  5
16BB91
  8
0
 10
0.0
 20
0.0
 30
0.0
 70
   128
 71
    -7
 72
    15
 73
   -14
  0
VERTEX
  5
16BB92
  8
0
 10
0.0
 20
0.0
 30
0.0
 70
   128
 71
     6
 72
    -5
 73
   -16
  0
VERTEX
  5
16BB93
  8
0
 10
0.0
 20
0.0
 30
0.0
 70
   128
 71
    -6
 72
    16
 73
   -15
  0
VERTEX
  5
16BB94
  8
0
 10
0.0
 20
0.0
 30
0.0
 70
   128
 71
     5
 72
     4
 73
    -3
  0
VERTEX
  5
16BB95
  8
0
 10
0.0
 20
0.0
 30
0.0
 70
   128
 71
    -5
 72
    -3
 73
   -17
  0
VERTEX
  5
16BB96
  8
0
 10
0.0
 20
0.0
 30
0.0
 70
   128
 71
    -5
 72
    17
 73
   -16
  0
VERTEX
  5
16BB97
  8
0
 10
0.0
 20
0.0
 30
0.0
 70
   128
 71
     3
 72
    -2
 73
   -18
  0
VERTEX
  5
16BB98
  8
0
 10
0.0
 20
0.0
 30
0.0
 70
   128
 71
    -3
 72
    18
 73
   -17
  0
VERTEX
  5
16BB99
  8
0
 10
0.0
 20
0.0
 30
0.0
 70
   128
 71
     2
 72
    -1
 73
   -11
  0
VERTEX
  5
16BB9A
  8
0
 10
0.0
 20
0.0
 30
0.0
 70
   128
 71
    -2
 72
    11
 73
   -18
  0
SEQEND
  5
16BC95
  8
0
  0
POLYLINE
  5
16BB9B
  8
0
 66
     1
 10
0.0
 20
0.0
 30
0.0
 70
    64
 71
    12
 72
    10
  0
VERTEX
  5
16BB9C
  8
0
 10
0.0
 20
13.15
 30
0.0
 70
   192
  0
VERTEX
  5
16BB9D
  8
0
 10
20.5
 20
13.15
 30
0.0
 70
   192
  0
VERTEX
  5
16BB9E
  8
0
 10
20.5
 20
10.63857347603056
 30
7.729376067646022
 70
   192
  0
VERTEX
  5
16BB9F
  8
0
 10
0.0
 20
10.63857347603056
 30
7.729376067646022
 70
   192
  0
VERTEX
  5
16BBA0
  8
0
 10
20.5
 20
-13.15
 30
0.0
 70
   192
  0
VERTEX
  5
16BBA1
  8
0
 10
0.0
 20
-13.15
 30
0.0
 70
   192
  0
VERTEX
  5
16BBA2
  8
0
 10
0.0
 20
-10.63857347603056
 30
7.729376067646022
 70
   192
  0
VERTEX
  5
16BBA3
  8
0
 10
20.5
 20
-10.63857347603056
 30
7.729376067646022
 70
   192
  0
VERTEX
  5
16BBA4
  8
0
 10
0.0
 20
-4.063573476030558
 30
12.50639318928127
 70
   192
  0
VERTEX
  5
16BBA5
  8
0
 10
0.0
 20
4.063573476030559
 30
12.50639318928127
 70
   192
  0
VERTEX
  5
16BBA6
  8
0
 10
20.5
 20
4.063573476030558
 30
12.50639318928127
 70
   192
  0
VERTEX
  5
16BBA7
  8
0
 10
20.5
 20
-4.063573476030559
 30
12.50639318928127
 70
   192
  0
VERTEX
  5
16BBA8
  8
0
 10
0.0
 20
0.0
 30
0.0
 70
   128
 71
     1
 72
     2
 73
    -3
  0
VERTEX
  5
16BBA9
  8
0
 10
0.0
 20
0.0
 30
0.0
 70
   128
 71
     4
 72
    -1
 73
     3
  0
VERTEX
  5
16BBAA
  8
0
 10
0.0
 20
0.0
 30
0.0
 70
   128
 71
     5
 72
     6
 73
    -7
  0
VERTEX
  5
16BBAB
  8
0
 10
0.0
 20
0.0
 30
0.0
 70
   128
 71
     8
 72
    -5
 73
     7
  0
VERTEX
  5
16BBAC
  8
0
 10
0.0
 20
0.0
 30
0.0
 70
   128
 71
     9
 72
    10
 73
   -11
  0
VERTEX
  5
16BBAD
  8
0
 10
0.0
 20
0.0
 30
0.0
 70
   128
 71
    12
 72
    -9
 73
    11
  0
VERTEX
  5
16BBAE
  8
0
 10
0.0
 20
0.0
 30
0.0
 70
   128
 71
    10
 72
     4
 73
    -3
  0
VERTEX
  5
16BBAF
  8
0
 10
0.0
 20
0.0
 30
0.0
 70
   128
 71
    11
 72
   -10
 73
     3
  0
VERTEX
  5
16BBB0
  8
0
 10
0.0
 20
0.0
 30
0.0
 70
   128
 71
     7
 72
     9
 73
   -12
  0
VERTEX
  5
16BBB1
  8
0
 10
0.0
 20
0.0
 30
0.0
 70
   128
 71
     8
 72
    -7
 73
    12
  0
SEQEND
  5
16BC96
  8
0
  0
POLYLINE
  5
16BBB2
  8
0
 66
     1
 10
0.0
 20
0.0
 30
0.0
 70
    64
 71
    12
 72
    10
  0
VERTEX
  5
16BBB3
  8
0
 10
0.0
 20
-13.15
 30
0.0
 70
   192
  0
VERTEX
  5
16BBB4
  8
0
 10
20.5
 20
-13.15
 30
0.0
 70
   192
  0
VERTEX
  5
16BBB5
  8
0
 10
20.5
 20
-10.63857347603056
 30
-7.729376067646022
 70
   192
  0
VERTEX
  5
16BBB6
  8
0
 10
0.0
 20
-10.63857347603056
 30
-7.729376067646022
 70
   192
  0
VERTEX
  5
16BBB7
  8
0
 10
20.5
 20
13.15
 30
0.0
 70
   192
  0
VERTEX
  5
16BBB8
  8
0
 10
0.0
 20
13.15
 30
0.0
 70
   192
  0
VERTEX
  5
16BBB9
  8
0
 10
0.0
 20
10.63857347603056
 30
-7.729376067646022
 70
   192
  0
VERTEX
  5
16BBBA
  8
0
 10
20.5
 20
10.63857347603056
 30
-7.729376067646022
 70
   192
  0
VERTEX
  5
16BBBB
  8
0
 10
0.0
 20
4.063573476030558
 30
-12.50639318928127
 70
   192
  0
VERTEX
  5
16BBBC
  8
0
 10
0.0
 20
-4.063573476030559
 30
-12.50639318928127
 70
   192
  0
VERTEX
  5
16BBBD
  8
0
 10
20.5
 20
-4.063573476030559
 30
-12.50639318928127
 70
   192
  0
VERTEX
  5
16BBBE
  8
0
 10
20.5
 20
4.063573476030558
 30
-12.50639318928127
 70
   192
  0
VERTEX
  5
16BBBF
  8
0
 10
0.0
 20
0.0
 30
0.0
 70
   128
 71
     1
 72
     2
 73
    -3
  0
VERTEX
  5
16BBC0
  8
0
 10
0.0
 20
0.0
 30
0.0
 70
   128
 71
     4
 72
    -1
 73
     3
  0
VERTEX
  5
16BBC1
  8
0
 10
0.0
 20
0.0
 30
0.0
 70
   128
 71
     5
 72
     6
 73
    -7
  0
VERTEX
  5
16BBC2
  8
0
 10
0.0
 20
0.0
 30
0.0
 70
   128
 71
     8
 72
    -5
 73
     7
  0
VERTEX
  5
16BBC3
  8
0
 10
0.0
 20
0.0
 30
0.0
 70
   128
 71
     9
 72
    10
 73
   -11
  0
VERTEX
  5
16BBC4
  8
0
 10
0.0
 20
0.0
 30
0.0
 70
   128
 71
    12
 72
    -9
 73
    11
  0
VERTEX
  5
16BBC5
  8
0
 10
0.0
 20
0.0
 30
0.0
 70
   128
 71
    10
 72
     4
 73
    -3
  0
VERTEX
  5
16BBC6
  8
0
 10
0.0
 20
0.0
 30
0.0
 70
   128
 71
    11
 72
   -10
 73
     3
  0
VERTEX
  5
16BBC7
  8
0
 10
0.0
 20
0.0
 30
0.0
 70
   128
 71
     7
 72
     9
 73
   -12
  0
VERTEX
  5
16BBC8
  8
0
 10
0.0
 20
0.0
 30
0.0
 70
   128
 71
     8
 72
    -7
 73
    12
  0
SEQEND
  5
16BC97
  8
0
  0
POLYLINE
  5
16BBC9
  8
0
 66
     1
 10
0.0
 20
0.0
 30
0.0
 70
    64
 71
    10
 72
     8
  0
VERTEX
  5
16BBCA
  8
0
 10
18.0
 20
7.5
 30
0.0
 70
   192
  0
VERTEX
  5
16BBCB
  8
0
 10
18.0
 20
2.5
 30
0.0
 70
   192
  0
VERTEX
  5
16BBCC
  8
0
 10
20.0
 20
2.5
 30
0.0
 70
   192
  0
VERTEX
  5
16BBCD
  8
0
 10
20.0
 20
7.5
 30
0.0
 70
   192
  0
VERTEX
  5
16BBCE
  8
0
 10
20.0
 20
5.0
 30
2.5
 70
   192
  0
VERTEX
  5
16BBCF
  8
0
 10
18.0
 20
5.0
 30
2.5
 70
   192
  0
VERTEX
  5
16BBD0
  8
0
 10
20.0
 20
6.767766952966369
 30
1.767766952966369
 70
   192
  0
VERTEX
  5
16BBD1
  8
0
 10
18.0
 20
6.767766952966369
 30
1.767766952966369
 70
   192
  0
VERTEX
  5
16BBD2
  8
0
 10
20.0
 20
3.232233047033631
 30
1.767766952966369
 70
   192
  0
VERTEX
  5
16BBD3
  8
0
 10
18.0
 20
3.232233047033631
 30
1.767766952966369
 70
   192
  0
VERTEX
  5
16BBD4
  8
0
 10
0.0
 20
0.0
 30
0.0
 70
   128
 71
     1
 72
     4
 73
    -7
  0
VERTEX
  5
16BBD5
  8
0
 10
0.0
 20
0.0
 30
0.0
 70
   128
 71
     8
 72
    -1
 73
     7
  0
VERTEX
  5
16BBD6
  8
0
 10
0.0
 20
0.0
 30
0.0
 70
   128
 71
     7
 72
     5
 73
    -6
  0
VERTEX
  5
16BBD7
  8
0
 10
0.0
 20
0.0
 30
0.0
 70
   128
 71
     8
 72
    -7
 73
     6
  0
VERTEX
  5
16BBD8
  8
0
 10
0.0
 20
0.0
 30
0.0
 70
   128
 71
     5
 72
     9
 73
   -10
  0
VERTEX
  5
16BBD9
  8
0
 10
0.0
 20
0.0
 30
0.0
 70
   128
 71
     6
 72
    -5
 73
    10
  0
VERTEX
  5
16BBDA
  8
0
 10
0.0
 20
0.0
 30
0.0
 70
   128
 71
     9
 72
     3
 73
    -2
  0
VERTEX
  5
16BBDB
  8
0
 10
0.0
 20
0.0
 30
0.0
 70
   128
 71
    10
 72
    -9
 73
     2
  0
SEQEND
  5
16BC98
  8
0
  0
POLYLINE
  5
16BBDC
  8
0
 66
     1
 10
0.0
 20
0.0
 30
0.0
 70
    64
 71
    10
 72
     8
  0
VERTEX
  5
16BBDD
  8
0
 10
20.0
 20
-2.5
 30
0.0
 70
   192
  0
VERTEX
  5
16BBDE
  8
0
 10
20.0
 20
-7.5
 30
0.0
 70
   192
  0
VERTEX
  5
16BBDF
  8
0
 10
18.0
 20
-7.5
 30
0.0
 70
   192
  0
VERTEX
  5
16BBE0
  8
0
 10
18.0
 20
-2.5
 30
0.0
 70
   192
  0
VERTEX
  5
16BBE1
  8
0
 10
18.0
 20
-5.0
 30
-2.5
 70
   192
  0
VERTEX
  5
16BBE2
  8
0
 10
20.0
 20
-5.0
 30
-2.5
 70
   192
  0
VERTEX
  5
16BBE3
  8
0
 10
18.0
 20
-3.232233047033631
 30
-1.767766952966369
 70
   192
  0
VERTEX
  5
16BBE4
  8
0
 10
20.0
 20
-3.232233047033631
 30
-1.767766952966369
 70
   192
  0
VERTEX
  5
16BBE5
  8
0
 10
18.0
 20
-6.767766952966369
 30
-1.767766952966369
 70
   192
  0
VERTEX
  5
16BBE6
  8
0
 10
20.0
 20
-6.767766952966369
 30
-1.767766952966369
 70
   192
  0
VERTEX
  5
16BBE7
  8
0
 10
0.0
 20
0.0
 30
0.0
 70
   128
 71
     4
 72
     7
 73
    -8
  0
VERTEX
  5
16BBE8
  8
0
 10
0.0
 20
0.0
 30
0.0
 70
   128
 71
     1
 72
    -4
 73
     8
  0
VERTEX
  5
16BBE9
  8
0
 10
0.0
 20
0.0
 30
0.0
 70
   128
 71
     7
 72
     5
 73
    -6
  0
VERTEX
  5
16BBEA
  8
0
 10
0.0
 20
0.0
 30
0.0
 70
   128
 71
     8
 72
    -7
 73
     6
  0
VERTEX
  5
16BBEB
  8
0
 10
0.0
 20
0.0
 30
0.0
 70
   128
 71
     5
 72
     9
 73
   -10
  0
VERTEX
  5
16BBEC
  8
0
 10
0.0
 20
0.0
 30
0.0
 70
   128
 71
     6
 72
    -5
 73
    10
  0
VERTEX
  5
16BBED
  8
0
 10
0.0
 20
0.0
 30
0.0
 70
   128
 71
     9
 72
     3
 73
    -2
  0
VERTEX
  5
16BBEE
  8
0
 10
0.0
 20
0.0
 30
0.0
 70
   128
 71
    10
 72
    -9
 73
     2
  0
SEQEND
  5
16BC99
  8
0
  0
POLYLINE
  5
16BBEF
  8
0
 66
     1
 10
0.0
 20
0.0
 30
0.0
 70
    64
 71
    10
 72
     8
  0
VERTEX
  5
16BBF0
  8
0
 10
20.0
 20
-7.5
 30
0.0
 70
   192
  0
VERTEX
  5
16BBF1
  8
0
 10
20.0
 20
-2.5
 30
0.0
 70
   192
  0
VERTEX
  5
16BBF2
  8
0
 10
18.0
 20
-2.5
 30
0.0
 70
   192
  0
VERTEX
  5
16BBF3
  8
0
 10
18.0
 20
-7.5
 30
0.0
 70
   192
  0
VERTEX
  5
16BBF4
  8
0
 10
18.0
 20
-5.0
 30
2.5
 70
   192
  0
VERTEX
  5
16BBF5
  8
0
 10
20.0
 20
-5.0
 30
2.5
 70
   192
  0
VERTEX
  5
16BBF6
  8
0
 10
18.0
 20
-6.767766952966369
 30
1.767766952966369
 70
   192
  0
VERTEX
  5
16BBF7
  8
0
 10
20.0
 20
-6.767766952966369
 30
1.767766952966369
 70
   192
  0
VERTEX
  5
16BBF8
  8
0
 10
18.0
 20
-3.232233047033631
 30
1.767766952966369
 70
   192
  0
VERTEX
  5
16BBF9
  8
0
 10
20.0
 20
-3.232233047033631
 30
1.767766952966369
 70
   192
  0
VERTEX
  5
16BBFA
  8
0
 10
0.0
 20
0.0
 30
0.0
 70
   128
 71
     8
 72
     1
 73
    -4
  0
VERTEX
  5
16BBFB
  8
0
 10
0.0
 20
0.0
 30
0.0
 70
   128
 71
     7
 72
    -8
 73
     4
  0
VERTEX
  5
16BBFC
  8
0
 10
0.0
 20
0.0
 30
0.0
 70
   128
 71
     6
 72
     8
 73
    -7
  0
VERTEX
  5
16BBFD
  8
0
 10
0.0
 20
0.0
 30
0.0
 70
   128
 71
     5
 72
    -6
 73
     7
  0
VERTEX
  5
16BBFE
  8
0
 10
0.0
 20
0.0
 30
0.0
 70
   128
 71
    10
 72
     6
 73
    -5
  0
VERTEX
  5
16BBFF
  8
0
 10
0.0
 20
0.0
 30
0.0
 70
   128
 71
     9
 72
   -10
 73
     5
  0
VERTEX
  5
16BC00
  8
0
 10
0.0
 20
0.0
 30
0.0
 70
   128
 71
     2
 72
    10
 73
    -9
  0
VERTEX
  5
16BC01
  8
0
 10
0.0
 20
0.0
 30
0.0
 70
   128
 71
     3
 72
    -2
 73
     9
  0
SEQEND
  5
16BC9A
  8
0
  0
POLYLINE
  5
16BC02
  8
0
 66
     1
 10
0.0
 20
0.0
 30
0.0
 70
    64
 71
    10
 72
     8
  0
VERTEX
  5
16BC03
  8
0
 10
20.0
 20
-2.5
 30
0.0
 70
   192
  0
VERTEX
  5
16BC04
  8
0
 10
20.0
 20
-7.5
 30
0.0
 70
   192
  0
VERTEX
  5
16BC05
  8
0
 10
21.5
 20
-9.0
 30
0.0
 70
   192
  0
VERTEX
  5
16BC06
  8
0
 10
21.5
 20
-1.0
 30
0.0
 70
   192
  0
VERTEX
  5
16BC07
  8
0
 10
21.5
 20
-5.0
 30
4.000000000000001
 70
   192
  0
VERTEX
  5
16BC08
  8
0
 10
20.0
 20
-5.0
 30
2.5
 70
   192
  0
VERTEX
  5
16BC09
  8
0
 10
21.5
 20
-2.17157287525381
 30
2.82842712474619
 70
   192
  0
VERTEX
  5
16BC0A
  8
0
 10
20.0
 20
-3.232233047033631
 30
1.767766952966369
 70
   192
  0
VERTEX
  5
16BC0B
  8
0
 10
21.5
 20
-7.828427124746191
 30
2.828427124746191
 70
   192
  0
VERTEX
  5
16BC0C
  8
0
 10
20.0
 20
-6.767766952966369
 30
1.767766952966369
 70
   192
  0
VERTEX
  5
16BC0D
  8
0
 10
0.0
 20
0.0
 30
0.0
 70
   128
 71
     4
 72
     7
 73
    -8
  0
VERTEX
  5
16BC0E
  8
0
 10
0.0
 20
0.0
 30
0.0
 70
   128
 71
     1
 72
    -4
 73
     8
  0
VERTEX
  5
16BC0F
  8
0
 10
0.0
 20
0.0
 30
0.0
 70
   128
 71
     7
 72
     5
 73
    -6
  0
VERTEX
  5
16BC10
  8
0
 10
0.0
 20
0.0
 30
0.0
 70
   128
 71
     8
 72
    -7
 73
     6
  0
VERTEX
  5
16BC11
  8
0
 10
0.0
 20
0.0
 30
0.0
 70
   128
 71
     5
 72
     9
 73
   -10
  0
VERTEX
  5
16BC12
  8
0
 10
0.0
 20
0.0
 30
0.0
 70
   128
 71
     6
 72
    -5
 73
    10
  0
VERTEX
  5
16BC13
  8
0
 10
0.0
 20
0.0
 30
0.0
 70
   128
 71
     9
 72
     3
 73
    -2
  0
VERTEX
  5
16BC14
  8
0
 10
0.0
 20
0.0
 30
0.0
 70
   128
 71
    10
 72
    -9
 73
     2
  0
SEQEND
  5
16BC9B
  8
0
  0
POLYLINE
  5
16BC15
  8
0
 66
     1
 10
0.0
 20
0.0
 30
0.0
 70
    64
 71
    10
 72
     8
  0
VERTEX
  5
16BC16
  8
0
 10
20.0
 20
-7.5
 30
0.0
 70
   192
  0
VERTEX
  5
16BC17
  8
0
 10
20.0
 20
-2.5
 30
0.0
 70
   192
  0
VERTEX
  5
16BC18
  8
0
 10
21.5
 20
-1.0
 30
0.0
 70
   192
  0
VERTEX
  5
16BC19
  8
0
 10
21.5
 20
-9.0
 30
0.0
 70
   192
  0
VERTEX
  5
16BC1A
  8
0
 10
21.5
 20
-5.0
 30
-4.000000000000001
 70
   192
  0
VERTEX
  5
16BC1B
  8
0
 10
20.0
 20
-5.0
 30
-2.5
 70
   192
  0
VERTEX
  5
16BC1C
  8
0
 10
21.5
 20
-7.828427124746191
 30
-2.828427124746191
 70
   192
  0
VERTEX
  5
16BC1D
  8
0
 10
20.0
 20
-6.767766952966369
 30
-1.767766952966369
 70
   192
  0
VERTEX
  5
16BC1E
  8
0
 10
21.5
 20
-2.17157287525381
 30
-2.82842712474619
 70
   192
  0
VERTEX
  5
16BC1F
  8
0
 10
20.0
 20
-3.232233047033631
 30
-1.767766952966369
 70
   192
  0
VERTEX
  5
16BC20
  8
0
 10
0.0
 20
0.0
 30
0.0
 70
   128
 71
     8
 72
     1
 73
    -4
  0
VERTEX
  5
16BC21
  8
0
 10
0.0
 20
0.0
 30
0.0
 70
   128
 71
     7
 72
    -8
 73
     4
  0
VERTEX
  5
16BC22
  8
0
 10
0.0
 20
0.0
 30
0.0
 70
   128
 71
     6
 72
     8
 73
    -7
  0
VERTEX
  5
16BC23
  8
0
 10
0.0
 20
0.0
 30
0.0
 70
   128
 71
     5
 72
    -6
 73
     7
  0
VERTEX
  5
16BC24
  8
0
 10
0.0
 20
0.0
 30
0.0
 70
   128
 71
    10
 72
     6
 73
    -5
  0
VERTEX
  5
16BC25
  8
0
 10
0.0
 20
0.0
 30
0.0
 70
   128
 71
     9
 72
   -10
 73
     5
  0
VERTEX
  5
16BC26
  8
0
 10
0.0
 20
0.0
 30
0.0
 70
   128
 71
     2
 72
    10
 73
    -9
  0
VERTEX
  5
16BC27
  8
0
 10
0.0
 20
0.0
 30
0.0
 70
   128
 71
     3
 72
    -2
 73
     9
  0
SEQEND
  5
16BC9C
  8
0
  0
POLYLINE
  5
16BC28
  8
0
 66
     1
 10
0.0
 20
0.0
 30
0.0
 70
    64
 71
    10
 72
     8
  0
VERTEX
  5
16BC29
  8
0
 10
23.02666666667
 20
-1.0
 30
0.0
 70
   192
  0
VERTEX
  5
16BC2A
  8
0
 10
21.5
 20
-1.0
 30
0.0
 70
   192
  0
VERTEX
  5
16BC2B
  8
0
 10
21.5
 20
-2.17157287525381
 30
-2.82842712474619
 70
   192
  0
VERTEX
  5
16BC2C
  8
0
 10
23.43916125623783
 20
-2.142228045438591
 30
-2.798774634679141
 70
   192
  0
VERTEX
  5
16BC2D
  8
0
 10
21.5
 20
-9.0
 30
0.0
 70
   192
  0
VERTEX
  5
16BC2E
  8
0
 10
23.24
 20
-9.0
 30
0.0
 70
   192
  0
VERTEX
  5
16BC2F
  8
0
 10
23.59937475747986
 20
-7.850399829675251
 30
-2.806282382617623
 70
   192
  0
VERTEX
  5
16BC30
  8
0
 10
21.5
 20
-7.828427124746191
 30
-2.828427124746191
 70
   192
  0
VERTEX
  5
16BC31
  8
0
 10
23.93606415405452
 20
-4.998033568753625
 30
-3.999999516644215
 70
   192
  0
VERTEX
  5
16BC32
  8
0
 10
21.5
 20
-5.0
 30
-4.000000000000001
 70
   192
  0
VERTEX
  5
16BC33
  8
0
 10
0.0
 20
0.0
 30
0.0
 70
   128
 71
     1
 72
     2
 73
     3
  0
VERTEX
  5
16BC34
  8
0
 10
0.0
 20
0.0
 30
0.0
 70
   128
 71
     4
 72
     1
 73
     3
  0
VERTEX
  5
16BC35
  8
0
 10
0.0
 20
0.0
 30
0.0
 70
   128
 71
     5
 72
     6
 73
     7
  0
VERTEX
  5
16BC36
  8
0
 10
0.0
 20
0.0
 30
0.0
 70
   128
 71
     8
 72
     5
 73
     7
  0
VERTEX
  5
16BC37
  8
0
 10
0.0
 20
0.0
 30
0.0
 70
   128
 71
     9
 72
     4
 73
     3
  0
VERTEX
  5
16BC38
  8
0
 10
0.0
 20
0.0
 30
0.0
 70
   128
 71
     9
 72
     3
 73
    10
  0
VERTEX
  5
16BC39
  8
0
 10
0.0
 20
0.0
 30
0.0
 70
   128
 71
     8
 72
     7
 73
     9
  0
VERTEX
  5
16BC3A
  8
0
 10
0.0
 20
0.0
 30
0.0
 70
   128
 71
    10
 72
     8
 73
     9
  0
SEQEND
  5
16BC9D
  8
0
  0
POLYLINE
  5
16BC3B
  8
0
 66
     1
 10
0.0
 20
0.0
 30
0.0
 70
    64
 71
    10
 72
     8
  0
VERTEX
  5
16BC3C
  8
0
 10
23.24
 20
-9.0
 30
0.0
 70
   192
  0
VERTEX
  5
16BC3D
  8
0
 10
21.5
 20
-9.0
 30
0.0
 70
   192
  0
VERTEX
  5
16BC3E
  8
0
 10
21.5
 20
-7.828427124746191
 30
2.828427124746191
 70
   192
  0
VERTEX
  5
16BC3F
  8
0
 10
23.60001174655574
 20
-7.847950515927117
 30
2.808768032221119
 70
   192
  0
VERTEX
  5
16BC40
  8
0
 10
21.5
 20
-1.0
 30
0.0
 70
   192
  0
VERTEX
  5
16BC41
  8
0
 10
23.02666666667
 20
-1.0
 30
0.0
 70
   192
  0
VERTEX
  5
16BC42
  8
0
 10
23.43857264539382
 20
-2.140340341431615
 30
2.796845837216559
 70
   192
  0
VERTEX
  5
16BC43
  8
0
 10
21.5
 20
-2.17157287525381
 30
2.82842712474619
 70
   192
  0
VERTEX
  5
16BC44
  8
0
 10
21.5
 20
-5.0
 30
4.000000000000001
 70
   192
  0
VERTEX
  5
16BC45
  8
0
 10
23.93593822392647
 20
-4.993740744835813
 30
3.99999510271205
 70
   192
  0
VERTEX
  5
16BC46
  8
0
 10
0.0
 20
0.0
 30
0.0
 70
   128
 71
     1
 72
     2
 73
     3
  0
VERTEX
  5
16BC47
  8
0
 10
0.0
 20
0.0
 30
0.0
 70
   128
 71
     4
 72
     1
 73
     3
  0
VERTEX
  5
16BC48
  8
0
 10
0.0
 20
0.0
 30
0.0
 70
   128
 71
     5
 72
     6
 73
     7
  0
VERTEX
  5
16BC49
  8
0
 10
0.0
 20
0.0
 30
0.0
 70
   128
 71
     8
 72
     5
 73
     7
  0
VERTEX
  5
16BC4A
  8
0
 10
0.0
 20
0.0
 30
0.0
 70
   128
 71
     4
 72
     3
 73
     9
  0
VERTEX
  5
16BC4B
  8
0
 10
0.0
 20
0.0
 30
0.0
 70
   128
 71
    10
 72
     4
 73
     9
  0
VERTEX
  5
16BC4C
  8
0
 10
0.0
 20
0.0
 30
0.0
 70
   128
 71
     9
 72
     8
 73
    10
  0
VERTEX
  5
16BC4D
  8
0
 10
0.0
 20
0.0
 30
0.0
 70
   128
 71
     8
 72
     7
 73
    10
  0
SEQEND
  5
16BC9E
  8
0
  0
POLYLINE
  5
16BC4E
  8
0
 66
     1
 10
0.0
 20
0.0
 30
0.0
 70
    64
 71
    16
 72
    16
  0
VERTEX
  5
16BC4F
  8
0
 10
20.0
 20
-9.199999999999834
 30
0.0
 70
   192
  0
VERTEX
  5
16BC50
  8
0
 10
20.0
 20
-6.50538238691612
 30
-6.50538238691612
 70
   192
  0
VERTEX
  5
16BC51
  8
0
 10
20.0
 20
0.0
 30
-9.199999999999834
 70
   192
  0
VERTEX
  5
16BC52
  8
0
 10
20.0
 20
6.505382386916119
 30
-6.505382386916119
 70
   192
  0
VERTEX
  5
16BC53
  8
0
 10
20.0
 20
9.199999999999834
 30
0.0
 70
   192
  0
VERTEX
  5
16BC54
  8
0
 10
20.0
 20
6.50538238691612
 30
6.50538238691612
 70
   192
  0
VERTEX
  5
16BC55
  8
0
 10
20.0
 20
0.0
 30
9.199999999999834
 70
   192
  0
VERTEX
  5
16BC56
  8
0
 10
20.0
 20
-6.505382386916119
 30
6.505382386916119
 70
   192
  0
VERTEX
  5
16BC57
  8
0
 10
20.0
 20
-0.0000000000000009
 30
8.0
 70
   192
  0
VERTEX
  5
16BC58
  8
0
 10
20.0
 20
5.65685424949238
 30
5.656854249492381
 70
   192
  0
VERTEX
  5
16BC59
  8
0
 10
20.0
 20
8.0
 30
0.0000000000000009
 70
   192
  0
VERTEX
  5
16BC5A
  8
0
 10
20.0
 20
5.656854249492381
 30
-5.65685424949238
 70
   192
  0
VERTEX
  5
16BC5B
  8
0
 10
20.0
 20
-0.0000000000000009
 30
-8.0
 70
   192
  0
VERTEX
  5
16BC5C
  8
0
 10
20.0
 20
-5.656854249492381
 30
-5.65685424949238
 70
   192
  0
VERTEX
  5
16BC5D
  8
0
 10
20.0
 20
-8.0
 30
0.0000000000000009
 70
   192
  0
VERTEX
  5
16BC5E
  8
0
 10
20.0
 20
-5.65685424949238
 30
5.656854249492381
 70
   192
  0
VERTEX
  5
16BC5F
  8
0
 10
0.0
 20
0.0
 30
0.0
 70
   128
 71
    10
 72
    -9
 73
    -7
  0
VERTEX
  5
16BC60
  8
0
 10
0.0
 20
0.0
 30
0.0
 70
   128
 71
   -10
 72
     7
 73
    -6
  0
VERTEX
  5
16BC61
  8
0
 10
0.0
 20
0.0
 30
0.0
 70
   128
 71
     6
 72
    -5
 73
   -11
  0
VERTEX
  5
16BC62
  8
0
 10
0.0
 20
0.0
 30
0.0
 70
   128
 71
    -6
 72
    11
 73
   -10
  0
VERTEX
  5
16BC63
  8
0
 10
0.0
 20
0.0
 30
0.0
 70
   128
 71
     5
 72
    -4
 73
   -12
  0
VERTEX
  5
16BC64
  8
0
 10
0.0
 20
0.0
 30
0.0
 70
   128
 71
    -5
 72
    12
 73
   -11
  0
VERTEX
  5
16BC65
  8
0
 10
0.0
 20
0.0
 30
0.0
 70
   128
 71
     4
 72
    -3
 73
   -13
  0
VERTEX
  5
16BC66
  8
0
 10
0.0
 20
0.0
 30
0.0
 70
   128
 71
    -4
 72
    13
 73
   -12
  0
VERTEX
  5
16BC67
  8
0
 10
0.0
 20
0.0
 30
0.0
 70
   128
 71
     3
 72
    -2
 73
   -14
  0
VERTEX
  5
16BC68
  8
0
 10
0.0
 20
0.0
 30
0.0
 70
   128
 71
    -3
 72
    14
 73
   -13
  0
VERTEX
  5
16BC69
  8
0
 10
0.0
 20
0.0
 30
0.0
 70
   128
 71
     2
 72
    -1
 73
   -15
  0
VERTEX
  5
16BC6A
  8
0
 10
0.0
 20
0.0
 30
0.0
 70
   128
 71
    -2
 72
    15
 73
   -14
  0
VERTEX
  5
16BC6B
  8
0
 10
0.0
 20
0.0
 30
0.0
 70
   128
 71
     1
 72
    -8
 73
   -16
  0
VERTEX
  5
16BC6C
  8
0
 10
0.0
 20
0.0
 30
0.0
 70
   128
 71
    -1
 72
    16
 73
   -15
  0
VERTEX
  5
16BC6D
  8
0
 10
0.0
 20
0.0
 30
0.0
 70
   128
 71
     8
 72
    -7
 73
    -9
  0
VERTEX
  5
16BC6E
  8
0
 10
0.0
 20
0.0
 30
0.0
 70
   128
 71
    -8
 72
     9
 73
   -16
  0
SEQEND
  5
16BC9F
  8
0
  0
POLYLINE
  5
16BC6F
  8
0
 66
     1
 10
0.0
 20
0.0
 30
0.0
 70
    64
 71
    10
 72
     8
  0
VERTEX
  5
16BC70
  8
0
 10
20.0
 20
0.000000000000001
 30
-8.0
 70
   192
  0
VERTEX
  5
16BC71
  8
0
 10
20.0
 20
0.000000000000001
 30
8.0
 70
   192
  0
VERTEX
  5
16BC72
  8
0
 10
18.0
 20
0.0
 30
8.0
 70
   192
  0
VERTEX
  5
16BC73
  8
0
 10
18.0
 20
0.0
 30
-8.000000000000002
 70
   192
  0
VERTEX
  5
16BC74
  8
0
 10
18.0
 20
-8.000000000000002
 30
0.0
 70
   192
  0
VERTEX
  5
16BC75
  8
0
 10
20.0
 20
-8.0
 30
0.0000000000000009
 70
   192
  0
VERTEX
  5
16BC76
  8
0
 10
18.0
 20
-5.656854249492381
 30
-5.656854249492381
 70
   192
  0
VERTEX
  5
16BC77
  8
0
 10
20.0
 20
-5.656854249492381
 30
-5.65685424949238
 70
   192
  0
VERTEX
  5
16BC78
  8
0
 10
18.0
 20
-5.656854249492381
 30
5.656854249492381
 70
   192
  0
VERTEX
  5
16BC79
  8
0
 10
20.0
 20
-5.65685424949238
 30
5.656854249492381
 70
   192
  0
VERTEX
  5
16BC7A
  8
0
 10
0.0
 20
0.0
 30
0.0
 70
   128
 71
     8
 72
     7
 73
    -4
  0
VERTEX
  5
16BC7B
  8
0
 10
0.0
 20
0.0
 30
0.0
 70
   128
 71
    -8
 72
     4
 73
     1
  0
VERTEX
  5
16BC7C
  8
0
 10
0.0
 20
0.0
 30
0.0
 70
   128
 71
     6
 72
     5
 73
    -7
  0
VERTEX
  5
16BC7D
  8
0
 10
0.0
 20
0.0
 30
0.0
 70
   128
 71
    -6
 72
     7
 73
     8
  0
VERTEX
  5
16BC7E
  8
0
 10
0.0
 20
0.0
 30
0.0
 70
   128
 71
    10
 72
     9
 73
    -5
  0
VERTEX
  5
16BC7F
  8
0
 10
0.0
 20
0.0
 30
0.0
 70
   128
 71
   -10
 72
     5
 73
     6
  0
VERTEX
  5
16BC80
  8
0
 10
0.0
 20
0.0
 30
0.0
 70
   128
 71
     2
 72
     3
 73
    -9
  0
VERTEX
  5
16BC81
  8
0
 10
0.0
 20
0.0
 30
0.0
 70
   128
 71
    -2
 72
     9
 73
    10
  0
SEQEND
  5
16BCA0
  8
0
  0
ENDBLK
  5
16BC83
  8
0
  0
ENDSEC
  0
SECTION
  2
ENTITIES
  0
INSERT
  5
16B6C7
  8
0
  2
*X1
 10
0.0
 20
0.0
 30
0.0
  0
ENDSEC
  0
EOF
