  0
SECTION
  2
HEADER
  9
$ACADVER
  1
AC1009
  9
$DWGCODEPAGE
  3
ansi_1250
  9
$INSBASE
 10
0.0
 20
0.0
 30
0.0
  9
$EXTMIN
 10
-25.0
 20
0.0
 30
-25.0
  9
$EXTMAX
 10
28.90000000000001
 20
42.0
 30
25.00000000000002
  9
$LIMMIN
 10
0.0
 20
0.0
  9
$LIMMAX
 10
420.0
 20
297.0
  9
$ORTHOMODE
 70
     0
  9
$REGENMODE
 70
     1
  9
$FILLMODE
 70
     1
  9
$QTEXTMODE
 70
     0
  9
$MIRRTEXT
 70
     0
  9
$DRAGMODE
 70
     2
  9
$LTSCALE
 40
1.0
  9
$OSMODE
 70
   511
  9
$ATTMODE
 70
     1
  9
$TEXTSIZE
 40
2.5
  9
$TRACEWID
 40
1.0
  9
$TEXTSTYLE
  7
STANDARD
  9
$CLAYER
  8
0
  9
$CELTYPE
  6
BYLAYER
  9
$CECOLOR
 62
   256
  9
$DIMSCALE
 40
1.0
  9
$DIMASZ
 40
2.5
  9
$DIMEXO
 40
0.625
  9
$DIMDLI
 40
3.75
  9
$DIMRND
 40
0.0
  9
$DIMDLE
 40
0.0
  9
$DIMEXE
 40
1.25
  9
$DIMTP
 40
0.0
  9
$DIMTM
 40
0.0
  9
$DIMTXT
 40
2.5
  9
$DIMCEN
 40
-2.5
  9
$DIMTSZ
 40
0.0
  9
$DIMTOL
 70
     0
  9
$DIMLIM
 70
     0
  9
$DIMTIH
 70
     0
  9
$DIMTOH
 70
     0
  9
$DIMSE1
 70
     0
  9
$DIMSE2
 70
     0
  9
$DIMTAD
 70
     1
  9
$DIMZIN
 70
     8
  9
$DIMBLK
  1

  9
$DIMASO
 70
     1
  9
$DIMSHO
 70
     1
  9
$DIMPOST
  1

  9
$DIMAPOST
  1

  9
$DIMALT
 70
     0
  9
$DIMALTD
 70
     3
  9
$DIMALTF
 40
0.03937007874016
  9
$DIMLFAC
 40
1.0
  9
$DIMTOFL
 70
     1
  9
$DIMTVP
 40
0.0
  9
$DIMTIX
 70
     0
  9
$DIMSOXD
 70
     0
  9
$DIMSAH
 70
     0
  9
$DIMBLK1
  1

  9
$DIMBLK2
  1

  9
$DIMSTYLE
  2
ISO-25
  9
$DIMCLRD
 70
     0
  9
$DIMCLRE
 70
     0
  9
$DIMCLRT
 70
     0
  9
$DIMTFAC
 40
1.0
  9
$DIMGAP
 40
0.625
  9
$LUNITS
 70
     2
  9
$LUPREC
 70
     3
  9
$SKETCHINC
 40
1.0
  9
$FILLETRAD
 40
10.0
  9
$AUNITS
 70
     0
  9
$AUPREC
 70
     0
  9
$MENU
  1
.
  9
$ELEVATION
 40
0.0
  9
$PELEVATION
 40
0.0
  9
$THICKNESS
 40
0.0
  9
$LIMCHECK
 70
     0
  9
$CHAMFERA
 40
10.0
  9
$CHAMFERB
 40
10.0
  9
$SKPOLY
 70
     0
  9
$TDCREATE
 40
2455022.720692848
  9
$TDUPDATE
 40
2460528.538658762
  9
$TDINDWG
 40
0.0737474421
  9
$TDUSRTIMER
 40
0.1483039931
  9
$USRTIMER
 70
     1
  9
$ANGBASE
 50
0.0
  9
$ANGDIR
 70
     0
  9
$PDMODE
 70
     0
  9
$PDSIZE
 40
0.0
  9
$PLINEWID
 40
0.0
  9
$COORDS
 70
     1
  9
$SPLFRAME
 70
     0
  9
$SPLINETYPE
 70
     6
  9
$SPLINESEGS
 70
     8
  9
$ATTDIA
 70
     0
  9
$ATTREQ
 70
     1
  9
$HANDLING
 70
     1
  9
$HANDSEED
  5
16D555
  9
$SURFTAB1
 70
     6
  9
$SURFTAB2
 70
     6
  9
$SURFTYPE
 70
     6
  9
$SURFU
 70
     6
  9
$SURFV
 70
     6
  9
$UCSNAME
  2

  9
$UCSORG
 10
0.0
 20
0.0
 30
0.0
  9
$UCSXDIR
 10
1.0
 20
0.0
 30
0.0
  9
$UCSYDIR
 10
0.0
 20
1.0
 30
0.0
  9
$PUCSNAME
  2

  9
$PUCSORG
 10
0.0
 20
0.0
 30
0.0
  9
$PUCSXDIR
 10
1.0
 20
0.0
 30
0.0
  9
$PUCSYDIR
 10
0.0
 20
1.0
 30
0.0
  9
$USERI1
 70
     0
  9
$USERI2
 70
     0
  9
$USERI3
 70
     0
  9
$USERI4
 70
     0
  9
$USERI5
 70
     0
  9
$USERR1
 40
0.0
  9
$USERR2
 40
0.0
  9
$USERR3
 40
0.0
  9
$USERR4
 40
0.0
  9
$USERR5
 40
0.0
  9
$WORLDVIEW
 70
     1
  9
$SHADEDGE
 70
     3
  9
$SHADEDIF
 70
    70
  9
$TILEMODE
 70
     1
  9
$MAXACTVP
 70
    64
  9
$PLIMCHECK
 70
     0
  9
$PEXTMIN
 10
1.000000000000000E+20
 20
1.000000000000000E+20
 30
1.000000000000000E+20
  9
$PEXTMAX
 10
-1.000000000000000E+20
 20
-1.000000000000000E+20
 30
-1.000000000000000E+20
  9
$PLIMMIN
 10
0.0
 20
0.0
  9
$PLIMMAX
 10
0.0
 20
0.0
  9
$UNITMODE
 70
     0
  9
$VISRETAIN
 70
     1
  9
$PLINEGEN
 70
     0
  9
$PSLTSCALE
 70
     1
  0
ENDSEC
  0
SECTION
  2
TABLES
  0
TABLE
  2
VPORT
 70
     1
  0
VPORT
  2
*ACTIVE
 70
     0
 10
0.0
 20
0.0
 11
1.0
 21
1.0
 12
-41.85387120408795
 22
-31.59211516600953
 13
0.0
 23
0.0
 14
10.0
 24
10.0
 15
10.0
 25
10.0
 16
0.5773502691896226
 26
0.5773502691896226
 36
0.5773502691896226
 17
5.26692854889294
 27
83.50724084353091
 37
71.60436572219456
 40
81.57535690390819
 41
1.89041095890411
 42
50.0
 43
0.0
 44
0.0
 50
0.0
 51
0.0
 71
    16
 72
  1000
 73
     1
 74
     3
 75
     0
 76
     0
 77
     0
 78
     0
  0
ENDTAB
  0
TABLE
  2
LTYPE
 70
     1
  0
LTYPE
  2
CONTINUOUS
 70
     0
  3
Solid line
 72
    65
 73
     0
 40
0.0
  0
ENDTAB
  0
TABLE
  2
LAYER
 70
     1
  0
LAYER
  2
0
 70
     0
 62
     7
  6
CONTINUOUS
  0
ENDTAB
  0
TABLE
  2
STYLE
 70
     2
  0
STYLE
  2
STANDARD
 70
     0
 40
0.0
 41
1.0
 50
0.0
 71
     0
 42
2.5
  3
arial.ttf
  4

  0
STYLE
  2
ANNOTATIVE
 70
     0
 40
0.0
 41
1.0
 50
0.0
 71
     0
 42
2.5
  3
arial.ttf
  4

  0
ENDTAB
  0
TABLE
  2
VIEW
 70
     0
  0
ENDTAB
  0
TABLE
  2
UCS
 70
     0
  0
ENDTAB
  0
TABLE
  2
APPID
 70
     2
  0
APPID
  2
ACAD
 70
     0
  0
APPID
  2
ACADANNOTATIVE
 70
     0
  0
ENDTAB
  0
TABLE
  2
DIMSTYLE
 70
     2
  0
DIMSTYLE
  2
ISO-25
 70
     0
  3

  4

  5

  6

  7

 40
1.0
 41
2.5
 42
0.625
 43
3.75
 44
1.25
 45
0.0
 46
0.0
 47
0.0
 48
0.0
140
2.5
141
-2.5
142
0.0
143
0.03937007874016
144
1.0
145
0.0
146
1.0
147
0.625
 71
     0
 72
     0
 73
     0
 74
     0
 75
     0
 76
     0
 77
     1
 78
     8
170
     0
171
     3
172
     1
173
     0
174
     0
175
     0
176
     0
177
     0
178
     0
  0
DIMSTYLE
  2
ANNOTATIVE
 70
     0
  3

  4

  5

  6

  7

 40
0.0
 41
2.5
 42
0.625
 43
3.75
 44
1.25
 45
0.0
 46
0.0
 47
0.0
 48
0.0
140
2.5
141
-2.5
142
0.0
143
0.03937007874016
144
1.0
145
0.0
146
1.0
147
0.625
 71
     0
 72
     0
 73
     0
 74
     0
 75
     0
 76
     0
 77
     1
 78
     8
170
     0
171
     3
172
     1
173
     0
174
     0
175
     0
176
     0
177
     0
178
     0
  0
ENDTAB
  0
ENDSEC
  0
SECTION
  2
BLOCKS
  0
BLOCK
  8
0
  2
$MODEL_SPACE
 70
     0
 10
0.0
 20
0.0
 30
0.0
  3
$MODEL_SPACE
  1

  0
ENDBLK
  5
21
  8
0
  0
BLOCK
 67
     1
  8
0
  2
$PAPER_SPACE
 70
     0
 10
0.0
 20
0.0
 30
0.0
  3
$PAPER_SPACE
  1

  0
ENDBLK
  5
1D
 67
     1
  8
0
  0
BLOCK
  8
0
  2
*X1
 70
     1
 10
0.0
 20
0.0
 30
0.0
  3
*X1
  1

  0
POLYLINE
  5
16D4A7
  8
0
 66
     1
 10
0.0
 20
0.0
 30
0.0
 70
    64
 71
    10
 72
     8
  0
VERTEX
  5
16D4A8
  8
0
 10
28.9
 20
30.5
 30
9.149999999999997
 70
   192
  0
VERTEX
  5
16D4A9
  8
0
 10
28.9
 20
30.5
 30
-9.149999999999997
 70
   192
  0
VERTEX
  5
16D4AA
  8
0
 10
14.0
 20
30.5
 30
-9.149999999999997
 70
   192
  0
VERTEX
  5
16D4AB
  8
0
 10
14.0
 20
30.5
 30
9.149999999999997
 70
   192
  0
VERTEX
  5
16D4AC
  8
0
 10
14.0
 20
39.65
 30
-0.0000000000000008
 70
   192
  0
VERTEX
  5
16D4AD
  8
0
 10
28.9
 20
39.65
 30
0.0000000000000002
 70
   192
  0
VERTEX
  5
16D4AE
  8
0
 10
14.0
 20
36.97002704785691
 30
6.470027047856907
 70
   192
  0
VERTEX
  5
16D4AF
  8
0
 10
28.9
 20
36.97002704785691
 30
6.470027047856909
 70
   192
  0
VERTEX
  5
16D4B0
  8
0
 10
14.0
 20
36.97002704785691
 30
-6.470027047856909
 70
   192
  0
VERTEX
  5
16D4B1
  8
0
 10
28.9
 20
36.97002704785691
 30
-6.470027047856908
 70
   192
  0
VERTEX
  5
16D4B2
  8
0
 10
0.0
 20
0.0
 30
0.0
 70
   128
 71
     7
 72
     4
 73
    -1
  0
VERTEX
  5
16D4B3
  8
0
 10
0.0
 20
0.0
 30
0.0
 70
   128
 71
    -7
 72
     1
 73
     8
  0
VERTEX
  5
16D4B4
  8
0
 10
0.0
 20
0.0
 30
0.0
 70
   128
 71
     6
 72
     5
 73
    -7
  0
VERTEX
  5
16D4B5
  8
0
 10
0.0
 20
0.0
 30
0.0
 70
   128
 71
    -6
 72
     7
 73
     8
  0
VERTEX
  5
16D4B6
  8
0
 10
0.0
 20
0.0
 30
0.0
 70
   128
 71
    10
 72
     9
 73
    -5
  0
VERTEX
  5
16D4B7
  8
0
 10
0.0
 20
0.0
 30
0.0
 70
   128
 71
   -10
 72
     5
 73
     6
  0
VERTEX
  5
16D4B8
  8
0
 10
0.0
 20
0.0
 30
0.0
 70
   128
 71
     2
 72
     3
 73
    -9
  0
VERTEX
  5
16D4B9
  8
0
 10
0.0
 20
0.0
 30
0.0
 70
   128
 71
    -2
 72
     9
 73
    10
  0
SEQEND
  5
16D547
  8
0
  0
POLYLINE
  5
16D4BA
  8
0
 66
     1
 10
0.0
 20
0.0
 30
0.0
 70
    64
 71
     4
 72
     2
  0
VERTEX
  5
16D4BB
  8
0
 10
-25.0
 20
0.0
 30
-25.0
 70
   192
  0
VERTEX
  5
16D4BC
  8
0
 10
-25.0
 20
6.0
 30
-25.0
 70
   192
  0
VERTEX
  5
16D4BD
  8
0
 10
-25.0
 20
6.0
 30
25.00000000000001
 70
   192
  0
VERTEX
  5
16D4BE
  8
0
 10
-25.0
 20
0.0
 30
25.00000000000001
 70
   192
  0
VERTEX
  5
16D4BF
  8
0
 10
0.0
 20
0.0
 30
0.0
 70
   128
 71
     1
 72
     4
 73
    -3
  0
VERTEX
  5
16D4C0
  8
0
 10
0.0
 20
0.0
 30
0.0
 70
   128
 71
    -1
 72
     3
 73
     2
  0
SEQEND
  5
16D548
  8
0
  0
POLYLINE
  5
16D4C1
  8
0
 66
     1
 10
0.0
 20
0.0
 30
0.0
 70
    64
 71
     4
 72
     2
  0
VERTEX
  5
16D4C2
  8
0
 10
-25.0
 20
0.0
 30
25.00000000000001
 70
   192
  0
VERTEX
  5
16D4C3
  8
0
 10
-25.0
 20
6.0
 30
25.00000000000001
 70
   192
  0
VERTEX
  5
16D4C4
  8
0
 10
25.0
 20
6.0
 30
25.0
 70
   192
  0
VERTEX
  5
16D4C5
  8
0
 10
25.0
 20
0.0
 30
25.0
 70
   192
  0
VERTEX
  5
16D4C6
  8
0
 10
0.0
 20
0.0
 30
0.0
 70
   128
 71
     1
 72
     4
 73
    -3
  0
VERTEX
  5
16D4C7
  8
0
 10
0.0
 20
0.0
 30
0.0
 70
   128
 71
    -1
 72
     3
 73
     2
  0
SEQEND
  5
16D549
  8
0
  0
POLYLINE
  5
16D4C8
  8
0
 66
     1
 10
0.0
 20
0.0
 30
0.0
 70
    64
 71
     4
 72
     2
  0
VERTEX
  5
16D4C9
  8
0
 10
25.0
 20
0.0
 30
25.0
 70
   192
  0
VERTEX
  5
16D4CA
  8
0
 10
25.0
 20
6.0
 30
25.0
 70
   192
  0
VERTEX
  5
16D4CB
  8
0
 10
25.0
 20
6.0
 30
-25.0
 70
   192
  0
VERTEX
  5
16D4CC
  8
0
 10
25.0
 20
0.0
 30
-25.0
 70
   192
  0
VERTEX
  5
16D4CD
  8
0
 10
0.0
 20
0.0
 30
0.0
 70
   128
 71
     1
 72
     4
 73
    -3
  0
VERTEX
  5
16D4CE
  8
0
 10
0.0
 20
0.0
 30
0.0
 70
   128
 71
    -1
 72
     3
 73
     2
  0
SEQEND
  5
16D54A
  8
0
  0
POLYLINE
  5
16D4CF
  8
0
 66
     1
 10
0.0
 20
0.0
 30
0.0
 70
    64
 71
     4
 72
     2
  0
VERTEX
  5
16D4D0
  8
0
 10
25.0
 20
0.0
 30
-25.0
 70
   192
  0
VERTEX
  5
16D4D1
  8
0
 10
25.0
 20
6.0
 30
-25.0
 70
   192
  0
VERTEX
  5
16D4D2
  8
0
 10
-25.0
 20
6.0
 30
-25.0
 70
   192
  0
VERTEX
  5
16D4D3
  8
0
 10
-25.0
 20
0.0
 30
-25.0
 70
   192
  0
VERTEX
  5
16D4D4
  8
0
 10
0.0
 20
0.0
 30
0.0
 70
   128
 71
     1
 72
     4
 73
    -3
  0
VERTEX
  5
16D4D5
  8
0
 10
0.0
 20
0.0
 30
0.0
 70
   128
 71
    -1
 72
     3
 73
     2
  0
SEQEND
  5
16D54B
  8
0
  0
POLYLINE
  5
16D4D6
  8
0
 66
     1
 10
0.0
 20
0.0
 30
0.0
 70
    64
 71
     8
 72
     8
  0
VERTEX
  5
16D4D7
  8
0
 10
-25.0
 20
6.0
 30
-25.0
 70
   192
  0
VERTEX
  5
16D4D8
  8
0
 10
-25.0
 20
6.0
 30
25.00000000000001
 70
   192
  0
VERTEX
  5
16D4D9
  8
0
 10
25.0
 20
6.0
 30
25.0
 70
   192
  0
VERTEX
  5
16D4DA
  8
0
 10
25.0
 20
6.0
 30
-25.0
 70
   192
  0
VERTEX
  5
16D4DB
  8
0
 10
14.0
 20
6.0
 30
-14.0
 70
   192
  0
VERTEX
  5
16D4DC
  8
0
 10
14.0
 20
6.0
 30
14.0
 70
   192
  0
VERTEX
  5
16D4DD
  8
0
 10
-14.0
 20
6.0
 30
14.0
 70
   192
  0
VERTEX
  5
16D4DE
  8
0
 10
-14.0
 20
6.0
 30
-14.0
 70
   192
  0
VERTEX
  5
16D4DF
  8
0
 10
0.0
 20
0.0
 30
0.0
 70
   128
 71
    -4
 72
     5
 73
    -6
  0
VERTEX
  5
16D4E0
  8
0
 10
0.0
 20
0.0
 30
0.0
 70
   128
 71
     3
 72
    -4
 73
    -6
  0
VERTEX
  5
16D4E1
  8
0
 10
0.0
 20
0.0
 30
0.0
 70
   128
 71
    -7
 72
     2
 73
    -3
  0
VERTEX
  5
16D4E2
  8
0
 10
0.0
 20
0.0
 30
0.0
 70
   128
 71
     6
 72
    -7
 73
    -3
  0
VERTEX
  5
16D4E3
  8
0
 10
0.0
 20
0.0
 30
0.0
 70
   128
 71
    -8
 72
     1
 73
    -2
  0
VERTEX
  5
16D4E4
  8
0
 10
0.0
 20
0.0
 30
0.0
 70
   128
 71
     7
 72
    -8
 73
    -2
  0
VERTEX
  5
16D4E5
  8
0
 10
0.0
 20
0.0
 30
0.0
 70
   128
 71
    -5
 72
     4
 73
    -1
  0
VERTEX
  5
16D4E6
  8
0
 10
0.0
 20
0.0
 30
0.0
 70
   128
 71
     8
 72
    -5
 73
    -1
  0
SEQEND
  5
16D54C
  8
0
  0
POLYLINE
  5
16D4E7
  8
0
 66
     1
 10
0.0
 20
0.0
 30
0.0
 70
    64
 71
     4
 72
     2
  0
VERTEX
  5
16D4E8
  8
0
 10
-25.0
 20
0.0
 30
25.00000000000001
 70
   192
  0
VERTEX
  5
16D4E9
  8
0
 10
25.0
 20
0.0
 30
25.0
 70
   192
  0
VERTEX
  5
16D4EA
  8
0
 10
25.0
 20
0.0
 30
-25.0
 70
   192
  0
VERTEX
  5
16D4EB
  8
0
 10
-25.0
 20
0.0
 30
-25.0
 70
   192
  0
VERTEX
  5
16D4EC
  8
0
 10
0.0
 20
0.0
 30
0.0
 70
   128
 71
     1
 72
     4
 73
    -3
  0
VERTEX
  5
16D4ED
  8
0
 10
0.0
 20
0.0
 30
0.0
 70
   128
 71
    -1
 72
     3
 73
     2
  0
SEQEND
  5
16D54D
  8
0
  0
POLYLINE
  5
16D4EE
  8
0
 66
     1
 10
0.0
 20
0.0
 30
0.0
 70
    64
 71
    12
 72
    12
  0
VERTEX
  5
16D4EF
  8
0
 10
14.0
 20
6.0
 30
14.0
 70
   192
  0
VERTEX
  5
16D4F0
  8
0
 10
14.0
 20
41.99999999999999
 30
14.0
 70
   192
  0
VERTEX
  5
16D4F1
  8
0
 10
14.0
 20
41.99999999999999
 30
-14.0
 70
   192
  0
VERTEX
  5
16D4F2
  8
0
 10
14.0
 20
6.0
 30
-14.0
 70
   192
  0
VERTEX
  5
16D4F3
  8
0
 10
14.0
 20
30.5
 30
-9.149999999999997
 70
   192
  0
VERTEX
  5
16D4F4
  8
0
 10
14.0
 20
36.97002704785691
 30
-6.470027047856909
 70
   192
  0
VERTEX
  5
16D4F5
  8
0
 10
14.0
 20
39.65
 30
-0.0000000000000008
 70
   192
  0
VERTEX
  5
16D4F6
  8
0
 10
14.0
 20
36.97002704785691
 30
6.470027047856907
 70
   192
  0
VERTEX
  5
16D4F7
  8
0
 10
14.0
 20
30.5
 30
9.149999999999997
 70
   192
  0
VERTEX
  5
16D4F8
  8
0
 10
14.0
 20
24.02997295214309
 30
6.470027047856908
 70
   192
  0
VERTEX
  5
16D4F9
  8
0
 10
14.0
 20
21.35
 30
0.0000000000000002
 70
   192
  0
VERTEX
  5
16D4FA
  8
0
 10
14.0
 20
24.02997295214309
 30
-6.470027047856909
 70
   192
  0
VERTEX
  5
16D4FB
  8
0
 10
0.0
 20
0.0
 30
0.0
 70
   128
 71
     6
 72
    -5
 73
    -3
  0
VERTEX
  5
16D4FC
  8
0
 10
0.0
 20
0.0
 30
0.0
 70
   128
 71
    -3
 72
     7
 73
    -6
  0
VERTEX
  5
16D4FD
  8
0
 10
0.0
 20
0.0
 30
0.0
 70
   128
 71
    -7
 72
     3
 73
    -2
  0
VERTEX
  5
16D4FE
  8
0
 10
0.0
 20
0.0
 30
0.0
 70
   128
 71
    -2
 72
     8
 73
    -7
  0
VERTEX
  5
16D4FF
  8
0
 10
0.0
 20
0.0
 30
0.0
 70
   128
 71
    -2
 72
     9
 73
    -8
  0
VERTEX
  5
16D500
  8
0
 10
0.0
 20
0.0
 30
0.0
 70
   128
 71
    -2
 72
    10
 73
    -9
  0
VERTEX
  5
16D501
  8
0
 10
0.0
 20
0.0
 30
0.0
 70
   128
 71
   -10
 72
     2
 73
    -1
  0
VERTEX
  5
16D502
  8
0
 10
0.0
 20
0.0
 30
0.0
 70
   128
 71
     1
 72
    -4
 73
   -11
  0
VERTEX
  5
16D503
  8
0
 10
0.0
 20
0.0
 30
0.0
 70
   128
 71
    -1
 72
    11
 73
   -10
  0
VERTEX
  5
16D504
  8
0
 10
0.0
 20
0.0
 30
0.0
 70
   128
 71
    -4
 72
    12
 73
   -11
  0
VERTEX
  5
16D505
  8
0
 10
0.0
 20
0.0
 30
0.0
 70
   128
 71
    -4
 72
     5
 73
   -12
  0
VERTEX
  5
16D506
  8
0
 10
0.0
 20
0.0
 30
0.0
 70
   128
 71
     4
 72
    -3
 73
    -5
  0
SEQEND
  5
16D54E
  8
0
  0
POLYLINE
  5
16D507
  8
0
 66
     1
 10
0.0
 20
0.0
 30
0.0
 70
    64
 71
     4
 72
     2
  0
VERTEX
  5
16D508
  8
0
 10
14.0
 20
6.0
 30
-14.0
 70
   192
  0
VERTEX
  5
16D509
  8
0
 10
14.0
 20
41.99999999999999
 30
-14.0
 70
   192
  0
VERTEX
  5
16D50A
  8
0
 10
-14.0
 20
41.99999999999999
 30
-14.0
 70
   192
  0
VERTEX
  5
16D50B
  8
0
 10
-14.0
 20
6.0
 30
-14.0
 70
   192
  0
VERTEX
  5
16D50C
  8
0
 10
0.0
 20
0.0
 30
0.0
 70
   128
 71
     1
 72
     4
 73
    -3
  0
VERTEX
  5
16D50D
  8
0
 10
0.0
 20
0.0
 30
0.0
 70
   128
 71
    -1
 72
     3
 73
     2
  0
SEQEND
  5
16D54F
  8
0
  0
POLYLINE
  5
16D50E
  8
0
 66
     1
 10
0.0
 20
0.0
 30
0.0
 70
    64
 71
     4
 72
     2
  0
VERTEX
  5
16D50F
  8
0
 10
-14.0
 20
6.0
 30
-14.0
 70
   192
  0
VERTEX
  5
16D510
  8
0
 10
-14.0
 20
41.99999999999999
 30
-14.0
 70
   192
  0
VERTEX
  5
16D511
  8
0
 10
-14.0
 20
41.99999999999999
 30
14.0
 70
   192
  0
VERTEX
  5
16D512
  8
0
 10
-14.0
 20
6.0
 30
14.0
 70
   192
  0
VERTEX
  5
16D513
  8
0
 10
0.0
 20
0.0
 30
0.0
 70
   128
 71
     1
 72
     4
 73
    -3
  0
VERTEX
  5
16D514
  8
0
 10
0.0
 20
0.0
 30
0.0
 70
   128
 71
    -1
 72
     3
 73
     2
  0
SEQEND
  5
16D550
  8
0
  0
POLYLINE
  5
16D515
  8
0
 66
     1
 10
0.0
 20
0.0
 30
0.0
 70
    64
 71
     4
 72
     2
  0
VERTEX
  5
16D516
  8
0
 10
-14.0
 20
6.0
 30
14.0
 70
   192
  0
VERTEX
  5
16D517
  8
0
 10
-14.0
 20
41.99999999999999
 30
14.0
 70
   192
  0
VERTEX
  5
16D518
  8
0
 10
14.0
 20
41.99999999999999
 30
14.0
 70
   192
  0
VERTEX
  5
16D519
  8
0
 10
14.0
 20
6.0
 30
14.0
 70
   192
  0
VERTEX
  5
16D51A
  8
0
 10
0.0
 20
0.0
 30
0.0
 70
   128
 71
     1
 72
     4
 73
    -3
  0
VERTEX
  5
16D51B
  8
0
 10
0.0
 20
0.0
 30
0.0
 70
   128
 71
    -1
 72
     3
 73
     2
  0
SEQEND
  5
16D551
  8
0
  0
POLYLINE
  5
16D51C
  8
0
 66
     1
 10
0.0
 20
0.0
 30
0.0
 70
    64
 71
     4
 72
     2
  0
VERTEX
  5
16D51D
  8
0
 10
14.0
 20
41.99999999999999
 30
14.0
 70
   192
  0
VERTEX
  5
16D51E
  8
0
 10
-14.0
 20
41.99999999999999
 30
14.0
 70
   192
  0
VERTEX
  5
16D51F
  8
0
 10
-14.0
 20
41.99999999999999
 30
-14.0
 70
   192
  0
VERTEX
  5
16D520
  8
0
 10
14.0
 20
41.99999999999999
 30
-14.0
 70
   192
  0
VERTEX
  5
16D521
  8
0
 10
0.0
 20
0.0
 30
0.0
 70
   128
 71
     1
 72
     4
 73
    -3
  0
VERTEX
  5
16D522
  8
0
 10
0.0
 20
0.0
 30
0.0
 70
   128
 71
    -1
 72
     3
 73
     2
  0
SEQEND
  5
16D552
  8
0
  0
POLYLINE
  5
16D523
  8
0
 66
     1
 10
0.0
 20
0.0
 30
0.0
 70
    64
 71
    10
 72
     8
  0
VERTEX
  5
16D524
  8
0
 10
28.9
 20
30.5
 30
-9.149999999999997
 70
   192
  0
VERTEX
  5
16D525
  8
0
 10
28.9
 20
30.5
 30
9.149999999999997
 70
   192
  0
VERTEX
  5
16D526
  8
0
 10
14.0
 20
30.5
 30
9.149999999999997
 70
   192
  0
VERTEX
  5
16D527
  8
0
 10
14.0
 20
30.5
 30
-9.149999999999999
 70
   192
  0
VERTEX
  5
16D528
  8
0
 10
14.0
 20
21.35
 30
0.0000000000000002
 70
   192
  0
VERTEX
  5
16D529
  8
0
 10
28.9
 20
21.35
 30
0.0000000000000012
 70
   192
  0
VERTEX
  5
16D52A
  8
0
 10
14.0
 20
24.02997295214309
 30
-6.470027047856909
 70
   192
  0
VERTEX
  5
16D52B
  8
0
 10
28.9
 20
24.02997295214309
 30
-6.470027047856907
 70
   192
  0
VERTEX
  5
16D52C
  8
0
 10
14.0
 20
24.02997295214309
 30
6.470027047856908
 70
   192
  0
VERTEX
  5
16D52D
  8
0
 10
28.9
 20
24.02997295214309
 30
6.470027047856909
 70
   192
  0
VERTEX
  5
16D52E
  8
0
 10
0.0
 20
0.0
 30
0.0
 70
   128
 71
     8
 72
     7
 73
    -4
  0
VERTEX
  5
16D52F
  8
0
 10
0.0
 20
0.0
 30
0.0
 70
   128
 71
    -8
 72
     4
 73
     1
  0
VERTEX
  5
16D530
  8
0
 10
0.0
 20
0.0
 30
0.0
 70
   128
 71
     6
 72
     5
 73
    -7
  0
VERTEX
  5
16D531
  8
0
 10
0.0
 20
0.0
 30
0.0
 70
   128
 71
    -6
 72
     7
 73
     8
  0
VERTEX
  5
16D532
  8
0
 10
0.0
 20
0.0
 30
0.0
 70
   128
 71
    10
 72
     9
 73
    -5
  0
VERTEX
  5
16D533
  8
0
 10
0.0
 20
0.0
 30
0.0
 70
   128
 71
   -10
 72
     5
 73
     6
  0
VERTEX
  5
16D534
  8
0
 10
0.0
 20
0.0
 30
0.0
 70
   128
 71
     2
 72
     3
 73
    -9
  0
VERTEX
  5
16D535
  8
0
 10
0.0
 20
0.0
 30
0.0
 70
   128
 71
    -2
 72
     9
 73
    10
  0
SEQEND
  5
16D553
  8
0
  0
POLYLINE
  5
16D536
  8
0
 66
     1
 10
0.0
 20
0.0
 30
0.0
 70
    64
 71
     8
 72
     6
  0
VERTEX
  5
16D537
  8
0
 10
28.9
 20
30.5
 30
9.149999999999997
 70
   192
  0
VERTEX
  5
16D538
  8
0
 10
28.9
 20
24.02997295214309
 30
6.470027047856909
 70
   192
  0
VERTEX
  5
16D539
  8
0
 10
28.9
 20
21.35
 30
0.0000000000000012
 70
   192
  0
VERTEX
  5
16D53A
  8
0
 10
28.9
 20
24.02997295214309
 30
-6.470027047856907
 70
   192
  0
VERTEX
  5
16D53B
  8
0
 10
28.9
 20
30.5
 30
-9.149999999999997
 70
   192
  0
VERTEX
  5
16D53C
  8
0
 10
28.9
 20
36.97002704785691
 30
-6.470027047856908
 70
   192
  0
VERTEX
  5
16D53D
  8
0
 10
28.9
 20
39.65
 30
0.0000000000000002
 70
   192
  0
VERTEX
  5
16D53E
  8
0
 10
28.9
 20
36.97002704785691
 30
6.470027047856909
 70
   192
  0
VERTEX
  5
16D53F
  8
0
 10
0.0
 20
0.0
 30
0.0
 70
   128
 71
     7
 72
     8
 73
    -1
  0
VERTEX
  5
16D540
  8
0
 10
0.0
 20
0.0
 30
0.0
 70
   128
 71
     6
 72
    -7
 73
    -1
  0
VERTEX
  5
16D541
  8
0
 10
0.0
 20
0.0
 30
0.0
 70
   128
 71
     5
 72
    -6
 73
    -1
  0
VERTEX
  5
16D542
  8
0
 10
0.0
 20
0.0
 30
0.0
 70
   128
 71
     4
 72
    -5
 73
    -1
  0
VERTEX
  5
16D543
  8
0
 10
0.0
 20
0.0
 30
0.0
 70
   128
 71
     3
 72
    -4
 73
    -1
  0
VERTEX
  5
16D544
  8
0
 10
0.0
 20
0.0
 30
0.0
 70
   128
 71
     2
 72
    -3
 73
     1
  0
SEQEND
  5
16D554
  8
0
  0
ENDBLK
  5
16D546
  8
0
  0
ENDSEC
  0
SECTION
  2
ENTITIES
  0
INSERT
  5
16D3EF
  8
0
  2
*X1
 10
0.0
 20
0.0
 30
0.0
  0
ENDSEC
  0
EOF
