  0
SECTION
  2
HEADER
  9
$ACADVER
  1
AC1009
  9
$DWGCODEPAGE
  3
ansi_1250
  9
$INSBASE
 10
0.0
 20
0.0
 30
0.0
  9
$EXTMIN
 10
-29.80820409578283
 20
-28.86162709575024
 30
-51.29269072695519
  9
$EXTMAX
 10
30.23860212225401
 20
28.68305395389812
 30
8.753588340166196
  9
$LIMMIN
 10
0.0
 20
0.0
  9
$LIMMAX
 10
420.0
 20
297.0
  9
$ORTHOMODE
 70
     0
  9
$REGENMODE
 70
     1
  9
$FILLMODE
 70
     1
  9
$QTEXTMODE
 70
     0
  9
$MIRRTEXT
 70
     0
  9
$DRAGMODE
 70
     2
  9
$LTSCALE
 40
1.0
  9
$OSMODE
 70
   511
  9
$ATTMODE
 70
     1
  9
$TEXTSIZE
 40
2.5
  9
$TRACEWID
 40
1.0
  9
$TEXTSTYLE
  7
STANDARD
  9
$CLAYER
  8
0
  9
$CELTYPE
  6
BYLAYER
  9
$CECOLOR
 62
   256
  9
$DIMSCALE
 40
1.0
  9
$DIMASZ
 40
2.5
  9
$DIMEXO
 40
0.625
  9
$DIMDLI
 40
3.75
  9
$DIMRND
 40
0.0
  9
$DIMDLE
 40
0.0
  9
$DIMEXE
 40
1.25
  9
$DIMTP
 40
0.0
  9
$DIMTM
 40
0.0
  9
$DIMTXT
 40
2.5
  9
$DIMCEN
 40
-2.5
  9
$DIMTSZ
 40
0.0
  9
$DIMTOL
 70
     0
  9
$DIMLIM
 70
     0
  9
$DIMTIH
 70
     0
  9
$DIMTOH
 70
     0
  9
$DIMSE1
 70
     0
  9
$DIMSE2
 70
     0
  9
$DIMTAD
 70
     1
  9
$DIMZIN
 70
     8
  9
$DIMBLK
  1

  9
$DIMASO
 70
     1
  9
$DIMSHO
 70
     1
  9
$DIMPOST
  1

  9
$DIMAPOST
  1

  9
$DIMALT
 70
     0
  9
$DIMALTD
 70
     3
  9
$DIMALTF
 40
0.03937007874016
  9
$DIMLFAC
 40
1.0
  9
$DIMTOFL
 70
     1
  9
$DIMTVP
 40
0.0
  9
$DIMTIX
 70
     0
  9
$DIMSOXD
 70
     0
  9
$DIMSAH
 70
     0
  9
$DIMBLK1
  1

  9
$DIMBLK2
  1

  9
$DIMSTYLE
  2
ISO-25
  9
$DIMCLRD
 70
     0
  9
$DIMCLRE
 70
     0
  9
$DIMCLRT
 70
     0
  9
$DIMTFAC
 40
1.0
  9
$DIMGAP
 40
0.625
  9
$LUNITS
 70
     2
  9
$LUPREC
 70
     3
  9
$SKETCHINC
 40
1.0
  9
$FILLETRAD
 40
10.0
  9
$AUNITS
 70
     0
  9
$AUPREC
 70
     0
  9
$MENU
  1
.
  9
$ELEVATION
 40
0.0
  9
$PELEVATION
 40
0.0
  9
$THICKNESS
 40
0.0
  9
$LIMCHECK
 70
     0
  9
$CHAMFERA
 40
10.0
  9
$CHAMFERB
 40
10.0
  9
$SKPOLY
 70
     0
  9
$TDCREATE
 40
2455022.720692848
  9
$TDUPDATE
 40
2460462.499834989
  9
$TDINDWG
 40
0.0002081713
  9
$TDUSRTIMER
 40
0.0013031481
  9
$USRTIMER
 70
     1
  9
$ANGBASE
 50
0.0
  9
$ANGDIR
 70
     0
  9
$PDMODE
 70
     0
  9
$PDSIZE
 40
0.0
  9
$PLINEWID
 40
0.0
  9
$COORDS
 70
     1
  9
$SPLFRAME
 70
     0
  9
$SPLINETYPE
 70
     6
  9
$SPLINESEGS
 70
     8
  9
$ATTDIA
 70
     0
  9
$ATTREQ
 70
     1
  9
$HANDLING
 70
     1
  9
$HANDSEED
  5
FEB
  9
$SURFTAB1
 70
     6
  9
$SURFTAB2
 70
     6
  9
$SURFTYPE
 70
     6
  9
$SURFU
 70
     6
  9
$SURFV
 70
     6
  9
$UCSNAME
  2

  9
$UCSORG
 10
0.0
 20
0.0
 30
0.0
  9
$UCSXDIR
 10
1.0
 20
0.0
 30
0.0
  9
$UCSYDIR
 10
0.0
 20
1.0
 30
0.0
  9
$PUCSNAME
  2

  9
$PUCSORG
 10
0.0
 20
0.0
 30
0.0
  9
$PUCSXDIR
 10
1.0
 20
0.0
 30
0.0
  9
$PUCSYDIR
 10
0.0
 20
1.0
 30
0.0
  9
$USERI1
 70
     0
  9
$USERI2
 70
     0
  9
$USERI3
 70
     0
  9
$USERI4
 70
     0
  9
$USERI5
 70
     0
  9
$USERR1
 40
0.0
  9
$USERR2
 40
0.0
  9
$USERR3
 40
0.0
  9
$USERR4
 40
0.0
  9
$USERR5
 40
0.0
  9
$WORLDVIEW
 70
     1
  9
$SHADEDGE
 70
     3
  9
$SHADEDIF
 70
    70
  9
$TILEMODE
 70
     1
  9
$MAXACTVP
 70
    64
  9
$PLIMCHECK
 70
     0
  9
$PEXTMIN
 10
1.000000000000000E+20
 20
1.000000000000000E+20
 30
1.000000000000000E+20
  9
$PEXTMAX
 10
-1.000000000000000E+20
 20
-1.000000000000000E+20
 30
-1.000000000000000E+20
  9
$PLIMMIN
 10
0.0
 20
0.0
  9
$PLIMMAX
 10
0.0
 20
0.0
  9
$UNITMODE
 70
     0
  9
$VISRETAIN
 70
     1
  9
$PLINEGEN
 70
     0
  9
$PSLTSCALE
 70
     1
  0
ENDSEC
  0
SECTION
  2
TABLES
  0
TABLE
  2
VPORT
 70
     1
  0
VPORT
  2
*ACTIVE
 70
     0
 10
0.0
 20
0.0
 11
1.0
 21
1.0
 12
-95.0990237827813
 22
-72.19906894725425
 13
0.0
 23
0.0
 14
10.0
 24
10.0
 15
10.0
 25
10.0
 16
0.5773502691896226
 26
0.5773502691896226
 36
0.5773502691896226
 17
-134.1869158878504
 27
0.0000000000000036
 37
0.0000000000000142
 40
98.97575913861431
 41
1.89041095890411
 42
50.0
 43
0.0
 44
0.0
 50
0.0
 51
0.0
 71
    16
 72
  1000
 73
     1
 74
     3
 75
     0
 76
     0
 77
     0
 78
     0
  0
ENDTAB
  0
TABLE
  2
LTYPE
 70
     1
  0
LTYPE
  2
CONTINUOUS
 70
     0
  3
Solid line
 72
    65
 73
     0
 40
0.0
  0
ENDTAB
  0
TABLE
  2
LAYER
 70
     1
  0
LAYER
  2
0
 70
     0
 62
     7
  6
CONTINUOUS
  0
ENDTAB
  0
TABLE
  2
STYLE
 70
     2
  0
STYLE
  2
STANDARD
 70
     0
 40
0.0
 41
1.0
 50
0.0
 71
     0
 42
2.5
  3
arial.ttf
  4

  0
STYLE
  2
ANNOTATIVE
 70
     0
 40
0.0
 41
1.0
 50
0.0
 71
     0
 42
2.5
  3
arial.ttf
  4

  0
ENDTAB
  0
TABLE
  2
VIEW
 70
     0
  0
ENDTAB
  0
TABLE
  2
UCS
 70
     0
  0
ENDTAB
  0
TABLE
  2
APPID
 70
     2
  0
APPID
  2
ACAD
 70
     0
  0
APPID
  2
ACADANNOTATIVE
 70
     0
  0
ENDTAB
  0
TABLE
  2
DIMSTYLE
 70
     2
  0
DIMSTYLE
  2
ISO-25
 70
     0
  3

  4

  5

  6

  7

 40
1.0
 41
2.5
 42
0.625
 43
3.75
 44
1.25
 45
0.0
 46
0.0
 47
0.0
 48
0.0
140
2.5
141
-2.5
142
0.0
143
0.03937007874016
144
1.0
145
0.0
146
1.0
147
0.625
 71
     0
 72
     0
 73
     0
 74
     0
 75
     0
 76
     0
 77
     1
 78
     8
170
     0
171
     3
172
     1
173
     0
174
     0
175
     0
176
     0
177
     0
178
     0
  0
DIMSTYLE
  2
ANNOTATIVE
 70
     0
  3

  4

  5

  6

  7

 40
0.0
 41
2.5
 42
0.625
 43
3.75
 44
1.25
 45
0.0
 46
0.0
 47
0.0
 48
0.0
140
2.5
141
-2.5
142
0.0
143
0.03937007874016
144
1.0
145
0.0
146
1.0
147
0.625
 71
     0
 72
     0
 73
     0
 74
     0
 75
     0
 76
     0
 77
     1
 78
     8
170
     0
171
     3
172
     1
173
     0
174
     0
175
     0
176
     0
177
     0
178
     0
  0
ENDTAB
  0
ENDSEC
  0
SECTION
  2
BLOCKS
  0
BLOCK
  8
0
  2
$MODEL_SPACE
 70
     0
 10
0.0
 20
0.0
 30
0.0
  3
$MODEL_SPACE
  1

  0
ENDBLK
  5
21
  8
0
  0
BLOCK
 67
     1
  8
0
  2
$PAPER_SPACE
 70
     0
 10
0.0
 20
0.0
 30
0.0
  3
$PAPER_SPACE
  1

  0
ENDBLK
  5
1D
 67
     1
  8
0
  0
BLOCK
  8
0
  2
*X1
 70
     1
 10
0.0
 20
0.0
 30
0.0
  3
*X1
  1

  0
POLYLINE
  5
85F
  8
0
 66
     1
 10
0.0
 20
0.0
 30
0.0
 70
    64
 71
    12
 72
    10
  0
VERTEX
  5
860
  8
0
 10
0.0985340066557878
 20
-11.38179937653771
 30
-8.892104897351661
 70
   192
  0
VERTEX
  5
861
  8
0
 10
0.1842631382509685
 20
-21.38103785231967
 30
-8.803333165152447
 70
   192
  0
VERTEX
  5
862
  8
0
 10
-7.162782515549615
 20
-21.46521641338218
 30
-11.18996748751028
 70
   192
  0
VERTEX
  5
863
  8
0
 10
-7.24851164714479
 20
-11.46597793760022
 30
-11.27873921970949
 70
   192
  0
VERTEX
  5
864
  8
0
 10
0.1842631382509705
 20
-21.60297533859757
 30
-33.80234802078596
 70
   192
  0
VERTEX
  5
865
  8
0
 10
0.098534006655795
 20
-11.60373686281562
 30
-33.89111975298517
 70
   192
  0
VERTEX
  5
866
  8
0
 10
-7.248511647144785
 20
-11.6455291356879
 30
-31.50336708054878
 70
   192
  0
VERTEX
  5
867
  8
0
 10
-7.162782515549609
 20
-21.64476761146986
 30
-31.41459534834956
 70
   192
  0
VERTEX
  5
868
  8
0
 10
-11.78923557809074
 20
-11.62897189259987
 30
-25.25326777746046
 70
   192
  0
VERTEX
  5
869
  8
0
 10
-11.78923557809074
 20
-11.56038943765114
 30
-17.52814734443793
 70
   192
  0
VERTEX
  5
86A
  8
0
 10
-11.70350644649556
 20
-21.55962791343309
 30
-17.43937561223872
 70
   192
  0
VERTEX
  5
86B
  8
0
 10
-11.70350644649556
 20
-21.62821036838182
 30
-25.16449604526125
 70
   192
  0
VERTEX
  5
86C
  8
0
 10
0.0
 20
0.0
 30
0.0
 70
   128
 71
     1
 72
     2
 73
    -3
  0
VERTEX
  5
86D
  8
0
 10
0.0
 20
0.0
 30
0.0
 70
   128
 71
     4
 72
    -1
 73
     3
  0
VERTEX
  5
86E
  8
0
 10
0.0
 20
0.0
 30
0.0
 70
   128
 71
     5
 72
     6
 73
    -7
  0
VERTEX
  5
86F
  8
0
 10
0.0
 20
0.0
 30
0.0
 70
   128
 71
     8
 72
    -5
 73
     7
  0
VERTEX
  5
870
  8
0
 10
0.0
 20
0.0
 30
0.0
 70
   128
 71
     9
 72
    10
 73
   -11
  0
VERTEX
  5
871
  8
0
 10
0.0
 20
0.0
 30
0.0
 70
   128
 71
    12
 72
    -9
 73
    11
  0
VERTEX
  5
872
  8
0
 10
0.0
 20
0.0
 30
0.0
 70
   128
 71
    10
 72
     4
 73
    -3
  0
VERTEX
  5
873
  8
0
 10
0.0
 20
0.0
 30
0.0
 70
   128
 71
    11
 72
   -10
 73
     3
  0
VERTEX
  5
874
  8
0
 10
0.0
 20
0.0
 30
0.0
 70
   128
 71
     7
 72
     9
 73
   -12
  0
VERTEX
  5
875
  8
0
 10
0.0
 20
0.0
 30
0.0
 70
   128
 71
     8
 72
    -7
 73
    12
  0
SEQEND
  5
FB3
  8
0
  0
POLYLINE
  5
876
  8
0
 66
     1
 10
0.0
 20
0.0
 30
0.0
 70
    64
 71
    20
 72
    20
  0
VERTEX
  5
877
  8
0
 10
0.4373133958460757
 20
-21.61854136018488
 30
-35.80008014125724
 70
   192
  0
VERTEX
  5
878
  8
0
 10
8.910260029793601
 20
-21.52000293387529
 30
-32.88326348912562
 70
   192
  0
VERTEX
  5
879
  8
0
 10
14.05017243689777
 20
-21.41077085785108
 30
-25.54311889475973
 70
   192
  0
VERTEX
  5
87A
  8
0
 10
13.89377877684208
 20
-21.33256807249178
 30
-16.58333211086855
 70
   192
  0
VERTEX
  5
87B
  8
0
 10
8.500816112142799
 20
-21.31526538378973
 30
-9.426237156946389
 70
   192
  0
VERTEX
  5
87C
  8
0
 10
-0.068787119344142
 20
-21.36547183073236
 30
-6.805601044681159
 70
   192
  0
VERTEX
  5
87D
  8
0
 10
-8.541733753291668
 20
-21.46401025704195
 30
-9.722417696812787
 70
   192
  0
VERTEX
  5
87E
  8
0
 10
-13.68164616039584
 20
-21.57324233306615
 30
-17.06256229117867
 70
   192
  0
VERTEX
  5
87F
  8
0
 10
-13.52525250034014
 20
-21.65144511842546
 30
-26.02234907506985
 70
   192
  0
VERTEX
  5
880
  8
0
 10
-8.132289835640865
 20
-21.66874780712751
 30
-33.17944402899202
 70
   192
  0
VERTEX
  5
881
  8
0
 10
0.1842631382509665
 20
-21.38103785231966
 30
-8.803333165152445
 70
   192
  0
VERTEX
  5
882
  8
0
 10
7.531308792051546
 20
-21.33924557944738
 30
-11.19108583758884
 70
   192
  0
VERTEX
  5
883
  8
0
 10
12.0720327229975
 20
-21.35580282253542
 30
-17.44118514067716
 70
   192
  0
VERTEX
  5
884
  8
0
 10
12.0720327229975
 20
-21.42438527748415
 30
-25.16630557369968
 70
   192
  0
VERTEX
  5
885
  8
0
 10
7.531308792051544
 20
-21.51879677753506
 30
-31.41571369842812
 70
   192
  0
VERTEX
  5
886
  8
0
 10
0.184263138250966
 20
-21.60297533859757
 30
-33.80234802078596
 70
   192
  0
VERTEX
  5
887
  8
0
 10
-7.162782515549609
 20
-21.64476761146986
 30
-31.41459534834956
 70
   192
  0
VERTEX
  5
888
  8
0
 10
-11.70350644649556
 20
-21.62821036838182
 30
-25.16449604526125
 70
   192
  0
VERTEX
  5
889
  8
0
 10
-11.70350644649556
 20
-21.55962791343309
 30
-17.43937561223872
 70
   192
  0
VERTEX
  5
88A
  8
0
 10
-7.162782515549615
 20
-21.46521641338218
 30
-11.18996748751028
 70
   192
  0
VERTEX
  5
88B
  8
0
 10
0.0
 20
0.0
 30
0.0
 70
   128
 71
    -6
 72
    11
 73
   -12
  0
VERTEX
  5
88C
  8
0
 10
0.0
 20
0.0
 30
0.0
 70
   128
 71
     5
 72
    -6
 73
   -12
  0
VERTEX
  5
88D
  8
0
 10
0.0
 20
0.0
 30
0.0
 70
   128
 71
   -13
 72
     4
 73
    -5
  0
VERTEX
  5
88E
  8
0
 10
0.0
 20
0.0
 30
0.0
 70
   128
 71
    12
 72
   -13
 73
    -5
  0
VERTEX
  5
88F
  8
0
 10
0.0
 20
0.0
 30
0.0
 70
   128
 71
   -14
 72
     3
 73
    -4
  0
VERTEX
  5
890
  8
0
 10
0.0
 20
0.0
 30
0.0
 70
   128
 71
    13
 72
   -14
 73
    -4
  0
VERTEX
  5
891
  8
0
 10
0.0
 20
0.0
 30
0.0
 70
   128
 71
   -15
 72
     2
 73
    -3
  0
VERTEX
  5
892
  8
0
 10
0.0
 20
0.0
 30
0.0
 70
   128
 71
    14
 72
   -15
 73
    -3
  0
VERTEX
  5
893
  8
0
 10
0.0
 20
0.0
 30
0.0
 70
   128
 71
   -16
 72
     1
 73
    -2
  0
VERTEX
  5
894
  8
0
 10
0.0
 20
0.0
 30
0.0
 70
   128
 71
    15
 72
   -16
 73
    -2
  0
VERTEX
  5
895
  8
0
 10
0.0
 20
0.0
 30
0.0
 70
   128
 71
   -17
 72
    10
 73
    -1
  0
VERTEX
  5
896
  8
0
 10
0.0
 20
0.0
 30
0.0
 70
   128
 71
    16
 72
   -17
 73
    -1
  0
VERTEX
  5
897
  8
0
 10
0.0
 20
0.0
 30
0.0
 70
   128
 71
   -18
 72
     9
 73
   -10
  0
VERTEX
  5
898
  8
0
 10
0.0
 20
0.0
 30
0.0
 70
   128
 71
    17
 72
   -18
 73
   -10
  0
VERTEX
  5
899
  8
0
 10
0.0
 20
0.0
 30
0.0
 70
   128
 71
   -19
 72
     8
 73
    -9
  0
VERTEX
  5
89A
  8
0
 10
0.0
 20
0.0
 30
0.0
 70
   128
 71
    18
 72
   -19
 73
    -9
  0
VERTEX
  5
89B
  8
0
 10
0.0
 20
0.0
 30
0.0
 70
   128
 71
   -20
 72
     7
 73
    -8
  0
VERTEX
  5
89C
  8
0
 10
0.0
 20
0.0
 30
0.0
 70
   128
 71
    19
 72
   -20
 73
    -8
  0
VERTEX
  5
89D
  8
0
 10
0.0
 20
0.0
 30
0.0
 70
   128
 71
   -11
 72
     6
 73
    -7
  0
VERTEX
  5
89E
  8
0
 10
0.0
 20
0.0
 30
0.0
 70
   128
 71
    20
 72
   -11
 73
    -7
  0
SEQEND
  5
FB4
  8
0
  0
POLYLINE
  5
89F
  8
0
 66
     1
 10
0.0
 20
0.0
 30
0.0
 70
    64
 71
    20
 72
    20
  0
VERTEX
  5
8A0
  8
0
 10
0.3341325223477892
 20
-11.61057634890456
 30
-34.88904224943659
 70
   192
  0
VERTEX
  5
8A1
  8
0
 10
8.222738009126516
 20
-11.51883367613357
 30
-32.17338536641748
 70
   192
  0
VERTEX
  5
8A2
  8
0
 10
13.00817369849936
 20
-11.41713484673172
 30
-25.33945764062856
 70
   192
  0
VERTEX
  5
8A3
  8
0
 10
12.86256580810268
 20
-11.34432535691444
 30
-16.9975871866609
 70
   192
  0
VERTEX
  5
8A4
  8
0
 10
7.841531603037839
 20
-11.32821595708839
 30
-10.33408498818166
 70
   192
  0
VERTEX
  5
8A5
  8
0
 10
-0.1370645090362066
 20
-11.37495989044876
 30
-7.894182400900238
 70
   192
  0
VERTEX
  5
8A6
  8
0
 10
-8.025669995814935
 20
-11.46670256321976
 30
-10.60983928391934
 70
   192
  0
VERTEX
  5
8A7
  8
0
 10
-12.81110568518778
 20
-11.56840139262161
 30
-17.44376700970826
 70
   192
  0
VERTEX
  5
8A8
  8
0
 10
-12.6654977947911
 20
-11.64121088243889
 30
-25.78563746367591
 70
   192
  0
VERTEX
  5
8A9
  8
0
 10
-7.644463589726256
 20
-11.65732028226494
 30
-32.44913966215516
 70
   192
  0
VERTEX
  5
8AA
  8
0
 10
0.098534006655795
 20
-11.60373686281562
 30
-33.89111975298517
 70
   192
  0
VERTEX
  5
8AB
  8
0
 10
-7.248511647144785
 20
-11.6455291356879
 30
-31.50336708054878
 70
   192
  0
VERTEX
  5
8AC
  8
0
 10
-11.78923557809074
 20
-11.62897189259987
 30
-25.25326777746046
 70
   192
  0
VERTEX
  5
8AD
  8
0
 10
-11.78923557809074
 20
-11.56038943765114
 30
-17.52814734443793
 70
   192
  0
VERTEX
  5
8AE
  8
0
 10
-7.24851164714479
 20
-11.46597793760022
 30
-11.27873921970949
 70
   192
  0
VERTEX
  5
8AF
  8
0
 10
0.0985340066557911
 20
-11.38179937653771
 30
-8.892104897351658
 70
   192
  0
VERTEX
  5
8B0
  8
0
 10
7.445579660456371
 20
-11.34000710366542
 30
-11.27985756978805
 70
   192
  0
VERTEX
  5
8B1
  8
0
 10
11.98630359140232
 20
-11.35656434675346
 30
-17.52995687287637
 70
   192
  0
VERTEX
  5
8B2
  8
0
 10
11.98630359140232
 20
-11.42514680170219
 30
-25.25507730589889
 70
   192
  0
VERTEX
  5
8B3
  8
0
 10
7.445579660456369
 20
-11.5195583017531
 30
-31.50448543062733
 70
   192
  0
VERTEX
  5
8B4
  8
0
 10
0.0
 20
0.0
 30
0.0
 70
   128
 71
    12
 72
   -11
 73
    -1
  0
VERTEX
  5
8B5
  8
0
 10
0.0
 20
0.0
 30
0.0
 70
   128
 71
   -12
 72
     1
 73
   -10
  0
VERTEX
  5
8B6
  8
0
 10
0.0
 20
0.0
 30
0.0
 70
   128
 71
    10
 72
    -9
 73
   -13
  0
VERTEX
  5
8B7
  8
0
 10
0.0
 20
0.0
 30
0.0
 70
   128
 71
   -10
 72
    13
 73
   -12
  0
VERTEX
  5
8B8
  8
0
 10
0.0
 20
0.0
 30
0.0
 70
   128
 71
     9
 72
    -8
 73
   -14
  0
VERTEX
  5
8B9
  8
0
 10
0.0
 20
0.0
 30
0.0
 70
   128
 71
    -9
 72
    14
 73
   -13
  0
VERTEX
  5
8BA
  8
0
 10
0.0
 20
0.0
 30
0.0
 70
   128
 71
     8
 72
    -7
 73
   -15
  0
VERTEX
  5
8BB
  8
0
 10
0.0
 20
0.0
 30
0.0
 70
   128
 71
    -8
 72
    15
 73
   -14
  0
VERTEX
  5
8BC
  8
0
 10
0.0
 20
0.0
 30
0.0
 70
   128
 71
     7
 72
    -6
 73
   -16
  0
VERTEX
  5
8BD
  8
0
 10
0.0
 20
0.0
 30
0.0
 70
   128
 71
    -7
 72
    16
 73
   -15
  0
VERTEX
  5
8BE
  8
0
 10
0.0
 20
0.0
 30
0.0
 70
   128
 71
     6
 72
    -5
 73
   -17
  0
VERTEX
  5
8BF
  8
0
 10
0.0
 20
0.0
 30
0.0
 70
   128
 71
    -6
 72
    17
 73
   -16
  0
VERTEX
  5
8C0
  8
0
 10
0.0
 20
0.0
 30
0.0
 70
   128
 71
     5
 72
    -4
 73
   -18
  0
VERTEX
  5
8C1
  8
0
 10
0.0
 20
0.0
 30
0.0
 70
   128
 71
    -5
 72
    18
 73
   -17
  0
VERTEX
  5
8C2
  8
0
 10
0.0
 20
0.0
 30
0.0
 70
   128
 71
     4
 72
    -3
 73
   -19
  0
VERTEX
  5
8C3
  8
0
 10
0.0
 20
0.0
 30
0.0
 70
   128
 71
    -4
 72
    19
 73
   -18
  0
VERTEX
  5
8C4
  8
0
 10
0.0
 20
0.0
 30
0.0
 70
   128
 71
     3
 72
    -2
 73
   -20
  0
VERTEX
  5
8C5
  8
0
 10
0.0
 20
0.0
 30
0.0
 70
   128
 71
    -3
 72
    20
 73
   -19
  0
VERTEX
  5
8C6
  8
0
 10
0.0
 20
0.0
 30
0.0
 70
   128
 71
     2
 72
    -1
 73
   -11
  0
VERTEX
  5
8C7
  8
0
 10
0.0
 20
0.0
 30
0.0
 70
   128
 71
    -2
 72
    11
 73
   -20
  0
SEQEND
  5
FB5
  8
0
  0
POLYLINE
  5
8C8
  8
0
 66
     1
 10
0.0
 20
0.0
 30
0.0
 70
    64
 71
    20
 72
    20
  0
VERTEX
  5
8C9
  8
0
 10
0.0040753657063635
 20
26.88649178285598
 30
-35.23081341840354
 70
   192
  0
VERTEX
  5
8CA
  8
0
 10
0.3341325223477892
 20
-11.61057634890456
 30
-34.88904224943659
 70
   192
  0
VERTEX
  5
8CB
  8
0
 10
8.222738009126516
 20
-11.51883367613357
 30
-32.17338536641748
 70
   192
  0
VERTEX
  5
8CC
  8
0
 10
7.892680852485091
 20
26.97823445562697
 30
-32.51515653538443
 70
   192
  0
VERTEX
  5
8CD
  8
0
 10
13.32343787159859
 20
20.37276155686617
 30
-21.41940396147378
 70
   192
  0
VERTEX
  5
8CE
  8
0
 10
12.22333286797231
 20
18.24250959724626
 30
-16.26896315786232
 70
   192
  0
VERTEX
  5
8CF
  8
0
 10
12.53250865146126
 20
27.1527427748461
 30
-17.33935835562786
 70
   192
  0
VERTEX
  5
8D0
  8
0
 10
-0.1370645090362066
 20
-11.37495989044876
 30
-7.894182400900238
 70
   192
  0
VERTEX
  5
8D1
  8
0
 10
-0.4671216656776322
 20
27.12210824131176
 30
-8.235953569867192
 70
   192
  0
VERTEX
  5
8D2
  8
0
 10
7.511474446396413
 20
27.16885217467215
 30
-10.67585615714861
 70
   192
  0
VERTEX
  5
8D3
  8
0
 10
7.841531603037839
 20
-11.32821595708839
 30
-10.33408498818166
 70
   192
  0
VERTEX
  5
8D4
  8
0
 10
12.67811654185794
 20
27.07993328502882
 30
-25.68122880959551
 70
   192
  0
VERTEX
  5
8D5
  8
0
 10
13.00817369849936
 20
-11.41713484673172
 30
-25.33945764062856
 70
   192
  0
VERTEX
  5
8D6
  8
0
 10
12.50818683921829
 20
7.943308969443251
 30
-26.47242878727003
 70
   192
  0
VERTEX
  5
8D7
  8
0
 10
11.40091186252021
 20
13.04147313215287
 30
-28.65984876878272
 70
   192
  0
VERTEX
  5
8D8
  8
0
 10
12.42093387014982
 20
18.19760111173822
 30
-26.56176629975685
 70
   192
  0
VERTEX
  5
8D9
  8
0
 10
11.1478616049251
 20
13.16800789687913
 30
-14.16260922049469
 70
   192
  0
VERTEX
  5
8DA
  8
0
 10
12.31131668686964
 20
8.074209432584919
 30
-16.18054176778989
 70
   192
  0
VERTEX
  5
8DB
  8
0
 10
13.44779205069571
 20
5.873889897244652
 30
-21.29320226855472
 70
   192
  0
VERTEX
  5
8DC
  8
0
 10
12.86256580810268
 20
-11.34432535691444
 30
-16.9975871866609
 70
   192
  0
VERTEX
  5
8DD
  8
0
 10
0.0
 20
0.0
 30
0.0
 70
   128
 71
     1
 72
     2
 73
    -3
  0
VERTEX
  5
8DE
  8
0
 10
0.0
 20
0.0
 30
0.0
 70
   128
 71
     4
 72
    -1
 73
     3
  0
VERTEX
  5
8DF
  8
0
 10
0.0
 20
0.0
 30
0.0
 70
   128
 71
     5
 72
     6
 73
     7
  0
VERTEX
  5
8E0
  8
0
 10
0.0
 20
0.0
 30
0.0
 70
   128
 71
     8
 72
     9
 73
   -10
  0
VERTEX
  5
8E1
  8
0
 10
0.0
 20
0.0
 30
0.0
 70
   128
 71
    11
 72
    -8
 73
    10
  0
VERTEX
  5
8E2
  8
0
 10
0.0
 20
0.0
 30
0.0
 70
   128
 71
     5
 72
     7
 73
    12
  0
VERTEX
  5
8E3
  8
0
 10
0.0
 20
0.0
 30
0.0
 70
   128
 71
    13
 72
    14
 73
    15
  0
VERTEX
  5
8E4
  8
0
 10
0.0
 20
0.0
 30
0.0
 70
   128
 71
     3
 72
    13
 73
    15
  0
VERTEX
  5
8E5
  8
0
 10
0.0
 20
0.0
 30
0.0
 70
   128
 71
     4
 72
     3
 73
    15
  0
VERTEX
  5
8E6
  8
0
 10
0.0
 20
0.0
 30
0.0
 70
   128
 71
     4
 72
    15
 73
    16
  0
VERTEX
  5
8E7
  8
0
 10
0.0
 20
0.0
 30
0.0
 70
   128
 71
    17
 72
    18
 73
    11
  0
VERTEX
  5
8E8
  8
0
 10
0.0
 20
0.0
 30
0.0
 70
   128
 71
    19
 72
    20
 73
    11
  0
VERTEX
  5
8E9
  8
0
 10
0.0
 20
0.0
 30
0.0
 70
   128
 71
    18
 72
    19
 73
    11
  0
VERTEX
  5
8EA
  8
0
 10
0.0
 20
0.0
 30
0.0
 70
   128
 71
     7
 72
     6
 73
    17
  0
VERTEX
  5
8EB
  8
0
 10
0.0
 20
0.0
 30
0.0
 70
   128
 71
    10
 72
     7
 73
    17
  0
VERTEX
  5
8EC
  8
0
 10
0.0
 20
0.0
 30
0.0
 70
   128
 71
    17
 72
    11
 73
    10
  0
VERTEX
  5
8ED
  8
0
 10
0.0
 20
0.0
 30
0.0
 70
   128
 71
    19
 72
    14
 73
    13
  0
VERTEX
  5
8EE
  8
0
 10
0.0
 20
0.0
 30
0.0
 70
   128
 71
    20
 72
    19
 73
    13
  0
VERTEX
  5
8EF
  8
0
 10
0.0
 20
0.0
 30
0.0
 70
   128
 71
    12
 72
     4
 73
    16
  0
VERTEX
  5
8F0
  8
0
 10
0.0
 20
0.0
 30
0.0
 70
   128
 71
     5
 72
    12
 73
    16
  0
SEQEND
  5
FB6
  8
0
  0
POLYLINE
  5
8F1
  8
0
 66
     1
 10
0.0
 20
0.0
 30
0.0
 70
    64
 71
    10
 72
     8
  0
VERTEX
  5
8F2
  8
0
 10
12.91519957682693
 20
13.05468961301462
 30
-28.63353213445994
 70
   192
  0
VERTEX
  5
8F3
  8
0
 10
11.40091186252021
 20
13.04147313215287
 30
-28.65984876878272
 70
   192
  0
VERTEX
  5
8F4
  8
0
 10
12.50818683921829
 20
7.943308969443251
 30
-26.47242878727003
 70
   192
  0
VERTEX
  5
8F5
  8
0
 10
13.86919114771445
 20
8.048830353656744
 30
-26.54227747210476
 70
   192
  0
VERTEX
  5
8F6
  8
0
 10
14.74986232638943
 20
5.889715655495575
 30
-21.61895453902107
 70
   192
  0
VERTEX
  5
8F7
  8
0
 10
13.44779205069571
 20
5.873889897244652
 30
-21.29320226855472
 70
   192
  0
VERTEX
  5
8F8
  8
0
 10
12.31131668686964
 20
8.074209432584919
 30
-16.18054176778989
 70
   192
  0
VERTEX
  5
8F9
  8
0
 10
13.77204228974336
 20
7.923993986537951
 30
-16.31782385047833
 70
   192
  0
VERTEX
  5
8FA
  8
0
 10
11.1478616049251
 20
13.16800789687913
 30
-14.16260922049469
 70
   192
  0
VERTEX
  5
8FB
  8
0
 10
12.66214931923182
 20
13.18122437774088
 30
-14.1362925861719
 70
   192
  0
VERTEX
  5
8FC
  8
0
 10
0.0
 20
0.0
 30
0.0
 70
   128
 71
     1
 72
     2
 73
     3
  0
VERTEX
  5
8FD
  8
0
 10
0.0
 20
0.0
 30
0.0
 70
   128
 71
     4
 72
     1
 73
     3
  0
VERTEX
  5
8FE
  8
0
 10
0.0
 20
0.0
 30
0.0
 70
   128
 71
     5
 72
     4
 73
     3
  0
VERTEX
  5
8FF
  8
0
 10
0.0
 20
0.0
 30
0.0
 70
   128
 71
     6
 72
     5
 73
     3
  0
VERTEX
  5
900
  8
0
 10
0.0
 20
0.0
 30
0.0
 70
   128
 71
     5
 72
     6
 73
     7
  0
VERTEX
  5
901
  8
0
 10
0.0
 20
0.0
 30
0.0
 70
   128
 71
     8
 72
     5
 73
     7
  0
VERTEX
  5
902
  8
0
 10
0.0
 20
0.0
 30
0.0
 70
   128
 71
     9
 72
    10
 73
     8
  0
VERTEX
  5
903
  8
0
 10
0.0
 20
0.0
 30
0.0
 70
   128
 71
     7
 72
     9
 73
     8
  0
SEQEND
  5
FB7
  8
0
  0
POLYLINE
  5
904
  8
0
 66
     1
 10
0.0
 20
0.0
 30
0.0
 70
    64
 71
    10
 72
     8
  0
VERTEX
  5
905
  8
0
 10
12.66214931923182
 20
13.18122437774088
 30
-14.1362925861719
 70
   192
  0
VERTEX
  5
906
  8
0
 10
11.1478616049251
 20
13.16800789687913
 30
-14.16260922049469
 70
   192
  0
VERTEX
  5
907
  8
0
 10
12.22333286797231
 20
18.24250959724626
 30
-16.26896315786232
 70
   192
  0
VERTEX
  5
908
  8
0
 10
11.40091186252021
 20
13.04147313215287
 30
-28.65984876878272
 70
   192
  0
VERTEX
  5
909
  8
0
 10
12.91519957682693
 20
13.05468961301462
 30
-28.63353213445994
 70
   192
  0
VERTEX
  5
90A
  8
0
 10
13.78215660420134
 20
18.11025131018386
 30
-26.63376305872382
 70
   192
  0
VERTEX
  5
90B
  8
0
 10
13.32343787159859
 20
20.37276155686617
 30
-21.41940396147378
 70
   192
  0
VERTEX
  5
90C
  8
0
 10
13.67852367918238
 20
18.40801520163703
 30
-16.40132302287203
 70
   192
  0
VERTEX
  5
90D
  8
0
 10
14.62576337428162
 20
20.37454472316763
 30
-21.72727439066429
 70
   192
  0
VERTEX
  5
90E
  8
0
 10
12.42093387014982
 20
18.19760111173822
 30
-26.56176629975685
 70
   192
  0
VERTEX
  5
90F
  8
0
 10
0.0
 20
0.0
 30
0.0
 70
   128
 71
     1
 72
     2
 73
     3
  0
VERTEX
  5
910
  8
0
 10
0.0
 20
0.0
 30
0.0
 70
   128
 71
     4
 72
     5
 73
     6
  0
VERTEX
  5
911
  8
0
 10
0.0
 20
0.0
 30
0.0
 70
   128
 71
     7
 72
     8
 73
     3
  0
VERTEX
  5
912
  8
0
 10
0.0
 20
0.0
 30
0.0
 70
   128
 71
     8
 72
     1
 73
     3
  0
VERTEX
  5
913
  8
0
 10
0.0
 20
0.0
 30
0.0
 70
   128
 71
     9
 72
     8
 73
     7
  0
VERTEX
  5
914
  8
0
 10
0.0
 20
0.0
 30
0.0
 70
   128
 71
     7
 72
    10
 73
     9
  0
VERTEX
  5
915
  8
0
 10
0.0
 20
0.0
 30
0.0
 70
   128
 71
     4
 72
     6
 73
    10
  0
VERTEX
  5
916
  8
0
 10
0.0
 20
0.0
 30
0.0
 70
   128
 71
     6
 72
     9
 73
    10
  0
SEQEND
  5
FB8
  8
0
  0
POLYLINE
  5
917
  8
0
 66
     1
 10
0.0
 20
0.0
 30
0.0
 70
    64
 71
    20
 72
    20
  0
VERTEX
  5
918
  8
0
 10
12.91519957682693
 20
13.05468961301462
 30
-28.63353213445994
 70
   192
  0
VERTEX
  5
919
  8
0
 10
13.26322909690207
 20
5.638599533750709
 30
-28.01216465114387
 70
   192
  0
VERTEX
  5
91A
  8
0
 10
11.6577834923934
 20
9.154653096588623
 30
-30.59195139799538
 70
   192
  0
VERTEX
  5
91B
  8
0
 10
10.97108106664501
 20
13.03929818299632
 30
-31.41782235485622
 70
   192
  0
VERTEX
  5
91C
  8
0
 10
11.61143858543038
 20
16.96008117039453
 30
-30.63440637609017
 70
   192
  0
VERTEX
  5
91D
  8
0
 10
13.15433538235281
 20
20.52036723959747
 30
-28.10568910031339
 70
   192
  0
VERTEX
  5
91E
  8
0
 10
12.66214931923182
 20
13.18122437774088
 30
-14.1362925861719
 70
   192
  0
VERTEX
  5
91F
  8
0
 10
12.90350261686587
 20
20.60487844267136
 30
-14.75014817326578
 70
   192
  0
VERTEX
  5
920
  8
0
 10
11.27050251224996
 20
17.0608748867669
 30
-12.2250882355684
 70
   192
  0
VERTEX
  5
921
  8
0
 10
10.62249461627649
 20
13.1616943157781
 30
-11.42123497974927
 70
   192
  0
VERTEX
  5
922
  8
0
 10
11.35907684328264
 20
9.25003980956897
 30
-12.18199282220806
 70
   192
  0
VERTEX
  5
923
  8
0
 10
13.051212896644
 20
5.718474783592691
 30
-14.65602988205446
 70
   192
  0
VERTEX
  5
924
  8
0
 10
13.86919114771445
 20
8.048830353656744
 30
-26.54227747210476
 70
   192
  0
VERTEX
  5
925
  8
0
 10
13.78215660420134
 20
18.11025131018386
 30
-26.63376305872382
 70
   192
  0
VERTEX
  5
926
  8
0
 10
14.62576337428162
 20
20.37454472316763
 30
-21.72727439066429
 70
   192
  0
VERTEX
  5
927
  8
0
 10
14.59997060798307
 20
23.13375242940689
 30
-21.44071590527628
 70
   192
  0
VERTEX
  5
928
  8
0
 10
13.67852367918238
 20
18.40801520163703
 30
-16.40132302287203
 70
   192
  0
VERTEX
  5
929
  8
0
 10
14.77142887117343
 20
3.135275477842978
 30
-21.26317244087786
 70
   192
  0
VERTEX
  5
92A
  8
0
 10
14.74986232638943
 20
5.889715655495575
 30
-21.61895453902107
 70
   192
  0
VERTEX
  5
92B
  8
0
 10
13.77204228974336
 20
7.923993986537951
 30
-16.31782385047833
 70
   192
  0
VERTEX
  5
92C
  8
0
 10
0.0
 20
0.0
 30
0.0
 70
   128
 71
     1
 72
     2
 73
     3
  0
VERTEX
  5
92D
  8
0
 10
0.0
 20
0.0
 30
0.0
 70
   128
 71
     1
 72
     3
 73
     4
  0
VERTEX
  5
92E
  8
0
 10
0.0
 20
0.0
 30
0.0
 70
   128
 71
     4
 72
     5
 73
     6
  0
VERTEX
  5
92F
  8
0
 10
0.0
 20
0.0
 30
0.0
 70
   128
 71
     7
 72
     8
 73
     9
  0
VERTEX
  5
930
  8
0
 10
0.0
 20
0.0
 30
0.0
 70
   128
 71
     7
 72
     9
 73
    10
  0
VERTEX
  5
931
  8
0
 10
0.0
 20
0.0
 30
0.0
 70
   128
 71
    10
 72
    11
 73
    12
  0
VERTEX
  5
932
  8
0
 10
0.0
 20
0.0
 30
0.0
 70
   128
 71
     2
 72
     1
 73
    13
  0
VERTEX
  5
933
  8
0
 10
0.0
 20
0.0
 30
0.0
 70
   128
 71
    14
 72
     1
 73
     4
  0
VERTEX
  5
934
  8
0
 10
0.0
 20
0.0
 30
0.0
 70
   128
 71
    14
 72
     4
 73
     6
  0
VERTEX
  5
935
  8
0
 10
0.0
 20
0.0
 30
0.0
 70
   128
 71
     6
 72
    15
 73
    14
  0
VERTEX
  5
936
  8
0
 10
0.0
 20
0.0
 30
0.0
 70
   128
 71
    15
 72
     6
 73
    16
  0
VERTEX
  5
937
  8
0
 10
0.0
 20
0.0
 30
0.0
 70
   128
 71
    16
 72
    17
 73
    15
  0
VERTEX
  5
938
  8
0
 10
0.0
 20
0.0
 30
0.0
 70
   128
 71
    18
 72
     2
 73
    13
  0
VERTEX
  5
939
  8
0
 10
0.0
 20
0.0
 30
0.0
 70
   128
 71
    18
 72
    13
 73
    19
  0
VERTEX
  5
93A
  8
0
 10
0.0
 20
0.0
 30
0.0
 70
   128
 71
    17
 72
    16
 73
     8
  0
VERTEX
  5
93B
  8
0
 10
0.0
 20
0.0
 30
0.0
 70
   128
 71
     8
 72
     7
 73
    17
  0
VERTEX
  5
93C
  8
0
 10
0.0
 20
0.0
 30
0.0
 70
   128
 71
    20
 72
    10
 73
    12
  0
VERTEX
  5
93D
  8
0
 10
0.0
 20
0.0
 30
0.0
 70
   128
 71
    12
 72
    18
 73
    19
  0
VERTEX
  5
93E
  8
0
 10
0.0
 20
0.0
 30
0.0
 70
   128
 71
    12
 72
    19
 73
    20
  0
VERTEX
  5
93F
  8
0
 10
0.0
 20
0.0
 30
0.0
 70
   128
 71
    20
 72
     7
 73
    10
  0
SEQEND
  5
FB9
  8
0
  0
POLYLINE
  5
940
  8
0
 66
     1
 10
0.0
 20
0.0
 30
0.0
 70
    64
 71
    12
 72
    10
  0
VERTEX
  5
941
  8
0
 10
-8.724843493961092
 20
-21.16345386818055
 30
-9.485485892306563
 70
   192
  0
VERTEX
  5
942
  8
0
 10
-0.0765945158629308
 20
-21.06287671580939
 30
-6.508321309441177
 70
   192
  0
VERTEX
  5
943
  8
0
 10
-0.50009642594176
 20
28.33336135455349
 30
-6.94685366650525
 70
   192
  0
VERTEX
  5
944
  8
0
 10
-9.14834540404126
 20
28.23278420218232
 30
-9.924018249370658
 70
   192
  0
VERTEX
  5
945
  8
0
 10
-8.73043023292182
 20
28.02381070278464
 30
-33.8663623677329
 70
   192
  0
VERTEX
  5
946
  8
0
 10
0.0164751343889869
 20
28.07505590380194
 30
-36.54121853749327
 70
   192
  0
VERTEX
  5
947
  8
0
 10
0.4399770444620504
 20
-21.321182166561
 30
-36.1026861804293
 70
   192
  0
VERTEX
  5
948
  8
0
 10
-8.306928322841653
 20
-21.37242736757823
 30
-33.4278300106688
 70
   192
  0
VERTEX
  5
949
  8
0
 10
-13.97109891638466
 20
-21.27494591819147
 30
-16.97749554724554
 70
   192
  0
VERTEX
  5
94A
  8
0
 10
-14.39460082646482
 20
28.12129215217139
 30
-17.41602790430963
 70
   192
  0
VERTEX
  5
94B
  8
0
 10
-14.23497143551143
 20
28.04147137814949
 30
-26.56118958717787
 70
   192
  0
VERTEX
  5
94C
  8
0
 10
-13.81146952543126
 20
-21.35476669221338
 30
-26.12265723011378
 70
   192
  0
VERTEX
  5
94D
  8
0
 10
0.0
 20
0.0
 30
0.0
 70
   128
 71
     1
 72
     2
 73
    -3
  0
VERTEX
  5
94E
  8
0
 10
0.0
 20
0.0
 30
0.0
 70
   128
 71
    -1
 72
     3
 73
     4
  0
VERTEX
  5
94F
  8
0
 10
0.0
 20
0.0
 30
0.0
 70
   128
 71
     5
 72
     6
 73
    -7
  0
VERTEX
  5
950
  8
0
 10
0.0
 20
0.0
 30
0.0
 70
   128
 71
    -5
 72
     7
 73
     8
  0
VERTEX
  5
951
  8
0
 10
0.0
 20
0.0
 30
0.0
 70
   128
 71
     9
 72
    10
 73
   -11
  0
VERTEX
  5
952
  8
0
 10
0.0
 20
0.0
 30
0.0
 70
   128
 71
    -9
 72
    11
 73
    12
  0
VERTEX
  5
953
  8
0
 10
0.0
 20
0.0
 30
0.0
 70
   128
 71
     1
 72
     4
 73
   -10
  0
VERTEX
  5
954
  8
0
 10
0.0
 20
0.0
 30
0.0
 70
   128
 71
    -1
 72
    10
 73
     9
  0
VERTEX
  5
955
  8
0
 10
0.0
 20
0.0
 30
0.0
 70
   128
 71
    12
 72
    11
 73
    -5
  0
VERTEX
  5
956
  8
0
 10
0.0
 20
0.0
 30
0.0
 70
   128
 71
   -12
 72
     5
 73
     8
  0
SEQEND
  5
FBA
  8
0
  0
POLYLINE
  5
957
  8
0
 66
     1
 10
0.0
 20
0.0
 30
0.0
 70
    64
 71
    12
 72
    10
  0
VERTEX
  5
958
  8
0
 10
18.79917661084717
 20
23.17040248292517
 30
-21.36773838074158
 70
   192
  0
VERTEX
  5
959
  8
0
 10
14.59997060798307
 20
23.13375242940689
 30
-21.44071590527628
 70
   192
  0
VERTEX
  5
95A
  8
0
 10
13.15433538235281
 20
20.52036723959747
 30
-28.10568910031339
 70
   192
  0
VERTEX
  5
95B
  8
0
 10
18.94768854257823
 20
20.1799874157985
 30
-28.4114593927583
 70
   192
  0
VERTEX
  5
95C
  8
0
 10
14.77142887117343
 20
3.135275477842978
 30
-21.26317244087786
 70
   192
  0
VERTEX
  5
95D
  8
0
 10
18.97063487403752
 20
3.171925531361246
 30
-21.19019491634316
 70
   192
  0
VERTEX
  5
95E
  8
0
 10
19.0689278431706
 20
6.038928749944774
 30
-28.28591720512683
 70
   192
  0
VERTEX
  5
95F
  8
0
 10
13.26322909690207
 20
5.638599533750709
 30
-28.01216465114387
 70
   192
  0
VERTEX
  5
960
  8
0
 10
19.05942316147345
 20
13.08389865215958
 30
-31.27706288874102
 70
   192
  0
VERTEX
  5
961
  8
0
 10
11.61143858543038
 20
16.96008117039453
 30
-30.63440637609017
 70
   192
  0
VERTEX
  5
962
  8
0
 10
10.97108106664501
 20
13.03929818299632
 30
-31.41782235485622
 70
   192
  0
VERTEX
  5
963
  8
0
 10
11.6577834923934
 20
9.154653096588623
 30
-30.59195139799538
 70
   192
  0
VERTEX
  5
964
  8
0
 10
0.0
 20
0.0
 30
0.0
 70
   128
 71
     1
 72
     2
 73
     3
  0
VERTEX
  5
965
  8
0
 10
0.0
 20
0.0
 30
0.0
 70
   128
 71
     4
 72
     1
 73
     3
  0
VERTEX
  5
966
  8
0
 10
0.0
 20
0.0
 30
0.0
 70
   128
 71
     5
 72
     6
 73
     7
  0
VERTEX
  5
967
  8
0
 10
0.0
 20
0.0
 30
0.0
 70
   128
 71
     8
 72
     5
 73
     7
  0
VERTEX
  5
968
  8
0
 10
0.0
 20
0.0
 30
0.0
 70
   128
 71
     9
 72
     4
 73
     3
  0
VERTEX
  5
969
  8
0
 10
0.0
 20
0.0
 30
0.0
 70
   128
 71
    10
 72
    11
 73
     3
  0
VERTEX
  5
96A
  8
0
 10
0.0
 20
0.0
 30
0.0
 70
   128
 71
     9
 72
     3
 73
    11
  0
VERTEX
  5
96B
  8
0
 10
0.0
 20
0.0
 30
0.0
 70
   128
 71
     7
 72
     9
 73
    11
  0
VERTEX
  5
96C
  8
0
 10
0.0
 20
0.0
 30
0.0
 70
   128
 71
     7
 72
    11
 73
    12
  0
VERTEX
  5
96D
  8
0
 10
0.0
 20
0.0
 30
0.0
 70
   128
 71
     8
 72
     7
 73
    12
  0
SEQEND
  5
FBB
  8
0
  0
POLYLINE
  5
96E
  8
0
 66
     1
 10
0.0
 20
0.0
 30
0.0
 70
    64
 71
    12
 72
    10
  0
VERTEX
  5
96F
  8
0
 10
18.97063487403752
 20
3.171925531361252
 30
-21.19019491634316
 70
   192
  0
VERTEX
  5
970
  8
0
 10
14.77142887117343
 20
3.135275477842978
 30
-21.26317244087786
 70
   192
  0
VERTEX
  5
971
  8
0
 10
13.051212896644
 20
5.718474783592691
 30
-14.65602988205446
 70
   192
  0
VERTEX
  5
972
  8
0
 10
18.82212294230646
 20
6.162340598487924
 30
-14.14647390432645
 70
   192
  0
VERTEX
  5
973
  8
0
 10
14.59997060798307
 20
23.13375242940689
 30
-21.44071590527628
 70
   192
  0
VERTEX
  5
974
  8
0
 10
18.79917661084717
 20
23.17040248292516
 30
-21.36773838074158
 70
   192
  0
VERTEX
  5
975
  8
0
 10
18.70088364171409
 20
20.30339926434165
 30
-14.27201609195792
 70
   192
  0
VERTEX
  5
976
  8
0
 10
12.90350261686587
 20
20.60487844267136
 30
-14.75014817326578
 70
   192
  0
VERTEX
  5
977
  8
0
 10
18.71038832341124
 20
13.25842936212684
 30
-11.28087040834373
 70
   192
  0
VERTEX
  5
978
  8
0
 10
11.35907684328264
 20
9.25003980956897
 30
-12.18199282220806
 70
   192
  0
VERTEX
  5
979
  8
0
 10
10.62249461627649
 20
13.1616943157781
 30
-11.42123497974927
 70
   192
  0
VERTEX
  5
97A
  8
0
 10
11.27050251224996
 20
17.0608748867669
 30
-12.2250882355684
 70
   192
  0
VERTEX
  5
97B
  8
0
 10
0.0
 20
0.0
 30
0.0
 70
   128
 71
     1
 72
     2
 73
     3
  0
VERTEX
  5
97C
  8
0
 10
0.0
 20
0.0
 30
0.0
 70
   128
 71
     4
 72
     1
 73
     3
  0
VERTEX
  5
97D
  8
0
 10
0.0
 20
0.0
 30
0.0
 70
   128
 71
     5
 72
     6
 73
     7
  0
VERTEX
  5
97E
  8
0
 10
0.0
 20
0.0
 30
0.0
 70
   128
 71
     8
 72
     5
 73
     7
  0
VERTEX
  5
97F
  8
0
 10
0.0
 20
0.0
 30
0.0
 70
   128
 71
     9
 72
     4
 73
     3
  0
VERTEX
  5
980
  8
0
 10
0.0
 20
0.0
 30
0.0
 70
   128
 71
    10
 72
    11
 73
     3
  0
VERTEX
  5
981
  8
0
 10
0.0
 20
0.0
 30
0.0
 70
   128
 71
     9
 72
     3
 73
    11
  0
VERTEX
  5
982
  8
0
 10
0.0
 20
0.0
 30
0.0
 70
   128
 71
     7
 72
     9
 73
    11
  0
VERTEX
  5
983
  8
0
 10
0.0
 20
0.0
 30
0.0
 70
   128
 71
     7
 72
    11
 73
    12
  0
VERTEX
  5
984
  8
0
 10
0.0
 20
0.0
 30
0.0
 70
   128
 71
     8
 72
     7
 73
    12
  0
SEQEND
  5
FBC
  8
0
  0
POLYLINE
  5
985
  8
0
 66
     1
 10
0.0
 20
0.0
 30
0.0
 70
    64
 71
    17
 72
    17
  0
VERTEX
  5
986
  8
0
 10
18.97063487403752
 20
3.171925531361252
 30
-21.19019491634316
 70
   192
  0
VERTEX
  5
987
  8
0
 10
18.82212294230646
 20
6.162340598487924
 30
-14.14647390432645
 70
   192
  0
VERTEX
  5
988
  8
0
 10
18.71038832341124
 20
13.25842936212684
 30
-11.28087040834373
 70
   192
  0
VERTEX
  5
989
  8
0
 10
18.70088364171409
 20
20.30339926434165
 30
-14.27201609195792
 70
   192
  0
VERTEX
  5
98A
  8
0
 10
18.79917661084717
 20
23.17040248292517
 30
-21.36773838074158
 70
   192
  0
VERTEX
  5
98B
  8
0
 10
18.94768854257823
 20
20.1799874157985
 30
-28.4114593927583
 70
   192
  0
VERTEX
  5
98C
  8
0
 10
19.05942316147345
 20
13.08389865215958
 30
-31.27706288874102
 70
   192
  0
VERTEX
  5
98D
  8
0
 10
19.0689278431706
 20
6.038928749944774
 30
-28.28591720512683
 70
   192
  0
VERTEX
  5
98E
  8
0
 10
18.94920259113873
 20
5.671735150306745
 30
-21.21238784939297
 70
   192
  0
VERTEX
  5
98F
  8
0
 10
19.02292231798854
 20
7.821987564244388
 30
-26.53417956598071
 70
   192
  0
VERTEX
  5
990
  8
0
 10
19.01579380671568
 20
13.10571499090549
 30
-28.77753882869136
 70
   192
  0
VERTEX
  5
991
  8
0
 10
18.93199284254426
 20
18.42778156363467
 30
-26.62833620670432
 70
   192
  0
VERTEX
  5
992
  8
0
 10
18.82060889374596
 20
20.67059286397968
 30
-21.34554544769178
 70
   192
  0
VERTEX
  5
993
  8
0
 10
18.75595442528125
 20
19.27679936695138
 30
-16.92527988777713
 70
   192
  0
VERTEX
  5
994
  8
0
 10
18.740554977078
 20
15.55086068538956
 30
-14.16797469410437
 70
   192
  0
VERTEX
  5
995
  8
0
 10
18.78029261494187
 20
10.91595875565285
 30
-14.12682673329988
 70
   192
  0
VERTEX
  5
996
  8
0
 10
18.8599889118415
 20
7.142468580378206
 30
-16.81755312782324
 70
   192
  0
VERTEX
  5
997
  8
0
 10
0.0
 20
0.0
 30
0.0
 70
   128
 71
    -1
 72
     9
 73
   -10
  0
VERTEX
  5
998
  8
0
 10
0.0
 20
0.0
 30
0.0
 70
   128
 71
     8
 72
    -1
 73
   -10
  0
VERTEX
  5
999
  8
0
 10
0.0
 20
0.0
 30
0.0
 70
   128
 71
   -11
 72
     7
 73
    -8
  0
VERTEX
  5
99A
  8
0
 10
0.0
 20
0.0
 30
0.0
 70
   128
 71
    10
 72
   -11
 73
    -8
  0
VERTEX
  5
99B
  8
0
 10
0.0
 20
0.0
 30
0.0
 70
   128
 71
   -12
 72
     6
 73
    -7
  0
VERTEX
  5
99C
  8
0
 10
0.0
 20
0.0
 30
0.0
 70
   128
 71
    11
 72
   -12
 73
    -7
  0
VERTEX
  5
99D
  8
0
 10
0.0
 20
0.0
 30
0.0
 70
   128
 71
   -13
 72
     5
 73
    -6
  0
VERTEX
  5
99E
  8
0
 10
0.0
 20
0.0
 30
0.0
 70
   128
 71
    12
 72
   -13
 73
    -6
  0
VERTEX
  5
99F
  8
0
 10
0.0
 20
0.0
 30
0.0
 70
   128
 71
   -14
 72
     4
 73
    -5
  0
VERTEX
  5
9A0
  8
0
 10
0.0
 20
0.0
 30
0.0
 70
   128
 71
    13
 72
   -14
 73
    -5
  0
VERTEX
  5
9A1
  8
0
 10
0.0
 20
0.0
 30
0.0
 70
   128
 71
   -15
 72
     3
 73
    -4
  0
VERTEX
  5
9A2
  8
0
 10
0.0
 20
0.0
 30
0.0
 70
   128
 71
    14
 72
   -15
 73
    -4
  0
VERTEX
  5
9A3
  8
0
 10
0.0
 20
0.0
 30
0.0
 70
   128
 71
    15
 72
   -16
 73
    -3
  0
VERTEX
  5
9A4
  8
0
 10
0.0
 20
0.0
 30
0.0
 70
   128
 71
   -17
 72
     2
 73
    -3
  0
VERTEX
  5
9A5
  8
0
 10
0.0
 20
0.0
 30
0.0
 70
   128
 71
    16
 72
   -17
 73
    -3
  0
VERTEX
  5
9A6
  8
0
 10
0.0
 20
0.0
 30
0.0
 70
   128
 71
    -9
 72
     1
 73
    -2
  0
VERTEX
  5
9A7
  8
0
 10
0.0
 20
0.0
 30
0.0
 70
   128
 71
    17
 72
    -9
 73
    -2
  0
SEQEND
  5
FBD
  8
0
  0
POLYLINE
  5
9A8
  8
0
 66
     1
 10
0.0
 20
0.0
 30
0.0
 70
    64
 71
    13
 72
    11
  0
VERTEX
  5
9A9
  8
0
 10
18.8599889118415
 20
7.142468580378206
 30
-16.81755312782324
 70
   192
  0
VERTEX
  5
9AA
  8
0
 10
29.55796610961433
 20
7.235838954817601
 30
-16.63163419627056
 70
   192
  0
VERTEX
  5
9AB
  8
0
 10
29.64717978891156
 20
5.76510552474614
 30
-21.02646891784029
 70
   192
  0
VERTEX
  5
9AC
  8
0
 10
18.94920259113873
 20
5.671735150306738
 30
-21.21238784939297
 70
   192
  0
VERTEX
  5
9AD
  8
0
 10
29.6471797889271
 20
5.765105525475898
 30
-21.02646891910154
 70
   192
  0
VERTEX
  5
9AE
  8
0
 10
18.82060889374596
 20
20.67059286397968
 30
-21.34554544769178
 70
   192
  0
VERTEX
  5
9AF
  8
0
 10
29.51858609150324
 20
20.76396323768931
 30
-21.15962651487785
 70
   192
  0
VERTEX
  5
9B0
  8
0
 10
29.45393162305407
 20
19.37016974139078
 30
-16.73936095622445
 70
   192
  0
VERTEX
  5
9B1
  8
0
 10
18.75595442528125
 20
19.27679936695138
 30
-16.92527988777713
 70
   192
  0
VERTEX
  5
9B2
  8
0
 10
29.43853217485083
 20
15.64423105982895
 30
-13.98205576255169
 70
   192
  0
VERTEX
  5
9B3
  8
0
 10
29.4782698127147
 20
11.00932913009224
 30
-13.9409078017472
 70
   192
  0
VERTEX
  5
9B4
  8
0
 10
18.78029261494187
 20
10.91595875565285
 30
-14.12682673329988
 70
   192
  0
VERTEX
  5
9B5
  8
0
 10
18.740554977078
 20
15.55086068538956
 30
-14.16797469410437
 70
   192
  0
VERTEX
  5
9B6
  8
0
 10
0.0
 20
0.0
 30
0.0
 70
   128
 71
     1
 72
     2
 73
    -3
  0
VERTEX
  5
9B7
  8
0
 10
0.0
 20
0.0
 30
0.0
 70
   128
 71
     4
 72
    -1
 73
     3
  0
VERTEX
  5
9B8
  8
0
 10
0.0
 20
0.0
 30
0.0
 70
   128
 71
     3
 72
     5
 73
     4
  0
VERTEX
  5
9B9
  8
0
 10
0.0
 20
0.0
 30
0.0
 70
   128
 71
     6
 72
     7
 73
    -8
  0
VERTEX
  5
9BA
  8
0
 10
0.0
 20
0.0
 30
0.0
 70
   128
 71
     9
 72
    -6
 73
     8
  0
VERTEX
  5
9BB
  8
0
 10
0.0
 20
0.0
 30
0.0
 70
   128
 71
    10
 72
    11
 73
   -12
  0
VERTEX
  5
9BC
  8
0
 10
0.0
 20
0.0
 30
0.0
 70
   128
 71
    13
 72
   -10
 73
    12
  0
VERTEX
  5
9BD
  8
0
 10
0.0
 20
0.0
 30
0.0
 70
   128
 71
    11
 72
     2
 73
    -1
  0
VERTEX
  5
9BE
  8
0
 10
0.0
 20
0.0
 30
0.0
 70
   128
 71
    12
 72
   -11
 73
     1
  0
VERTEX
  5
9BF
  8
0
 10
0.0
 20
0.0
 30
0.0
 70
   128
 71
     8
 72
    10
 73
   -13
  0
VERTEX
  5
9C0
  8
0
 10
0.0
 20
0.0
 30
0.0
 70
   128
 71
     9
 72
    -8
 73
    13
  0
SEQEND
  5
FBE
  8
0
  0
POLYLINE
  5
9C1
  8
0
 66
     1
 10
0.0
 20
0.0
 30
0.0
 70
    64
 71
    11
 72
     9
  0
VERTEX
  5
9C2
  8
0
 10
29.51858609149838
 20
20.76396323842856
 30
-21.15962651488439
 70
   192
  0
VERTEX
  5
9C3
  8
0
 10
29.81595750345945
 20
21.06655825367329
 30
-21.15707698604135
 70
   192
  0
VERTEX
  5
9C4
  8
0
 10
29.739288987566
 20
18.83029574316297
 30
-15.62241360252991
 70
   192
  0
VERTEX
  5
9C5
  8
0
 10
29.45393162305407
 20
19.37016974139078
 30
-16.73936095622445
 70
   192
  0
VERTEX
  5
9C6
  8
0
 10
29.74670263928977
 20
13.33521921943542
 30
-13.28931996931085
 70
   192
  0
VERTEX
  5
9C7
  8
0
 10
29.83385564202804
 20
7.800269983797074
 30
-15.52449069617737
 70
   192
  0
VERTEX
  5
9C8
  8
0
 10
29.4782698127147
 20
11.00932913009224
 30
-13.9409078017472
 70
   192
  0
VERTEX
  5
9C9
  8
0
 10
29.94969494877827
 20
5.467746231438272
 30
-21.01859308555041
 70
   192
  0
VERTEX
  5
9CA
  8
0
 10
29.64717978893345
 20
5.765105524735183
 30
-21.02646891909497
 70
   192
  0
VERTEX
  5
9CB
  8
0
 10
29.55796610961433
 20
7.235838954817601
 30
-16.63163419627056
 70
   192
  0
VERTEX
  5
9CC
  8
0
 10
29.43853217485083
 20
15.64423105982895
 30
-13.98205576255169
 70
   192
  0
VERTEX
  5
9CD
  8
0
 10
0.0
 20
0.0
 30
0.0
 70
   128
 71
     1
 72
     2
 73
     3
  0
VERTEX
  5
9CE
  8
0
 10
0.0
 20
0.0
 30
0.0
 70
   128
 71
     4
 72
     1
 73
     3
  0
VERTEX
  5
9CF
  8
0
 10
0.0
 20
0.0
 30
0.0
 70
   128
 71
     5
 72
     6
 73
     7
  0
VERTEX
  5
9D0
  8
0
 10
0.0
 20
0.0
 30
0.0
 70
   128
 71
     8
 72
     9
 73
    10
  0
VERTEX
  5
9D1
  8
0
 10
0.0
 20
0.0
 30
0.0
 70
   128
 71
     5
 72
     7
 73
    11
  0
VERTEX
  5
9D2
  8
0
 10
0.0
 20
0.0
 30
0.0
 70
   128
 71
     5
 72
    11
 73
     4
  0
VERTEX
  5
9D3
  8
0
 10
0.0
 20
0.0
 30
0.0
 70
   128
 71
     3
 72
     5
 73
     4
  0
VERTEX
  5
9D4
  8
0
 10
0.0
 20
0.0
 30
0.0
 70
   128
 71
     6
 72
     8
 73
    10
  0
VERTEX
  5
9D5
  8
0
 10
0.0
 20
0.0
 30
0.0
 70
   128
 71
    10
 72
     7
 73
     6
  0
SEQEND
  5
FBF
  8
0
  0
POLYLINE
  5
9D6
  8
0
 66
     1
 10
0.0
 20
0.0
 30
0.0
 70
    64
 71
    11
 72
     9
  0
VERTEX
  5
9D7
  8
0
 10
29.64717978893492
 20
5.765105524736676
 30
-21.02646891909495
 70
   192
  0
VERTEX
  5
9D8
  8
0
 10
29.94969494880864
 20
5.467746231423082
 30
-21.01859308729023
 70
   192
  0
VERTEX
  5
9D9
  8
0
 10
30.01693559598158
 20
6.917291468347704
 30
-25.61566926786165
 70
   192
  0
VERTEX
  5
9DA
  8
0
 10
29.72089951576137
 20
7.915357938683782
 30
-26.34826063442803
 70
   192
  0
VERTEX
  5
9DB
  8
0
 10
29.71377100448851
 20
13.19908536534489
 30
-28.59161989713868
 70
   192
  0
VERTEX
  5
9DC
  8
0
 10
30.03295102211296
 20
10.79226769717201
 30
-28.48326666928132
 70
   192
  0
VERTEX
  5
9DD
  8
0
 10
29.99162387873453
 20
15.61256570409819
 30
-28.52606054851798
 70
   192
  0
VERTEX
  5
9DE
  8
0
 10
29.90873972995892
 20
19.53699548638382
 30
-25.72770509821368
 70
   192
  0
VERTEX
  5
9DF
  8
0
 10
29.62997004031709
 20
18.52115193807407
 30
-26.44241727515164
 70
   192
  0
VERTEX
  5
9E0
  8
0
 10
29.8159575034898
 20
21.06655825365813
 30
-21.15707698778115
 70
   192
  0
VERTEX
  5
9E1
  8
0
 10
29.51858609149689
 20
20.76396323843003
 30
-21.15962651488443
 70
   192
  0
VERTEX
  5
9E2
  8
0
 10
0.0
 20
0.0
 30
0.0
 70
   128
 71
     1
 72
     2
 73
     3
  0
VERTEX
  5
9E3
  8
0
 10
0.0
 20
0.0
 30
0.0
 70
   128
 71
     4
 72
     1
 73
     3
  0
VERTEX
  5
9E4
  8
0
 10
0.0
 20
0.0
 30
0.0
 70
   128
 71
     5
 72
     4
 73
     6
  0
VERTEX
  5
9E5
  8
0
 10
0.0
 20
0.0
 30
0.0
 70
   128
 71
     7
 72
     5
 73
     6
  0
VERTEX
  5
9E6
  8
0
 10
0.0
 20
0.0
 30
0.0
 70
   128
 71
     6
 72
     4
 73
     3
  0
VERTEX
  5
9E7
  8
0
 10
0.0
 20
0.0
 30
0.0
 70
   128
 71
     5
 72
     7
 73
     8
  0
VERTEX
  5
9E8
  8
0
 10
0.0
 20
0.0
 30
0.0
 70
   128
 71
     9
 72
     5
 73
     8
  0
VERTEX
  5
9E9
  8
0
 10
0.0
 20
0.0
 30
0.0
 70
   128
 71
    10
 72
    11
 73
     9
  0
VERTEX
  5
9EA
  8
0
 10
0.0
 20
0.0
 30
0.0
 70
   128
 71
     8
 72
    10
 73
     9
  0
SEQEND
  5
FC0
  8
0
  0
POLYLINE
  5
9EB
  8
0
 66
     1
 10
0.0
 20
0.0
 30
0.0
 70
    64
 71
    11
 72
     9
  0
VERTEX
  5
9EC
  8
0
 10
29.51858609151879
 20
20.76396323841907
 30
-21.1596265161391
 70
   192
  0
VERTEX
  5
9ED
  8
0
 10
29.51858609150324
 20
20.76396323768931
 30
-21.15962651487785
 70
   192
  0
VERTEX
  5
9EE
  8
0
 10
18.82060889374597
 20
20.67059286397968
 30
-21.34554544769178
 70
   192
  0
VERTEX
  5
9EF
  8
0
 10
19.01579380671568
 20
13.10571499090549
 30
-28.77753882869136
 70
   192
  0
VERTEX
  5
9F0
  8
0
 10
29.71377100448851
 20
13.19908536534489
 30
-28.59161989713868
 70
   192
  0
VERTEX
  5
9F1
  8
0
 10
29.62997004031709
 20
18.52115193807407
 30
-26.44241727515164
 70
   192
  0
VERTEX
  5
9F2
  8
0
 10
18.93199284254426
 20
18.42778156363467
 30
-26.62833620670432
 70
   192
  0
VERTEX
  5
9F3
  8
0
 10
19.02292231798854
 20
7.821987564244388
 30
-26.53417956598071
 70
   192
  0
VERTEX
  5
9F4
  8
0
 10
29.72089951576137
 20
7.915357938683782
 30
-26.34826063442803
 70
   192
  0
VERTEX
  5
9F5
  8
0
 10
18.94920259113873
 20
5.671735150306745
 30
-21.21238784939297
 70
   192
  0
VERTEX
  5
9F6
  8
0
 10
29.6471797889271
 20
5.765105525475898
 30
-21.02646891910154
 70
   192
  0
VERTEX
  5
9F7
  8
0
 10
0.0
 20
0.0
 30
0.0
 70
   128
 71
     1
 72
     2
 73
     3
  0
VERTEX
  5
9F8
  8
0
 10
0.0
 20
0.0
 30
0.0
 70
   128
 71
     4
 72
     5
 73
    -6
  0
VERTEX
  5
9F9
  8
0
 10
0.0
 20
0.0
 30
0.0
 70
   128
 71
     7
 72
    -4
 73
     6
  0
VERTEX
  5
9FA
  8
0
 10
0.0
 20
0.0
 30
0.0
 70
   128
 71
     4
 72
     8
 73
    -9
  0
VERTEX
  5
9FB
  8
0
 10
0.0
 20
0.0
 30
0.0
 70
   128
 71
     5
 72
    -4
 73
     9
  0
VERTEX
  5
9FC
  8
0
 10
0.0
 20
0.0
 30
0.0
 70
   128
 71
     8
 72
    10
 73
   -11
  0
VERTEX
  5
9FD
  8
0
 10
0.0
 20
0.0
 30
0.0
 70
   128
 71
     9
 72
    -8
 73
    11
  0
VERTEX
  5
9FE
  8
0
 10
0.0
 20
0.0
 30
0.0
 70
   128
 71
     6
 72
     1
 73
    -3
  0
VERTEX
  5
9FF
  8
0
 10
0.0
 20
0.0
 30
0.0
 70
   128
 71
     7
 72
    -6
 73
     3
  0
SEQEND
  5
FC1
  8
0
  0
POLYLINE
  5
A00
  8
0
 66
     1
 10
0.0
 20
0.0
 30
0.0
 70
    64
 71
    17
 72
    17
  0
VERTEX
  5
A01
  8
0
 10
29.96083973588565
 20
4.167845229586622
 30
-21.00705276036449
 70
   192
  0
VERTEX
  5
A02
  8
0
 10
29.82569387801038
 20
6.889122940671903
 30
-14.59726663942929
 70
   192
  0
VERTEX
  5
A03
  8
0
 10
29.72401537481572
 20
13.34656371558331
 30
-11.98956745808503
 70
   192
  0
VERTEX
  5
A04
  8
0
 10
29.71536611447132
 20
19.75748632659878
 30
-14.71151003017395
 70
   192
  0
VERTEX
  5
A05
  8
0
 10
29.80481271638243
 20
22.36645925550978
 30
-21.16861731296709
 70
   192
  0
VERTEX
  5
A06
  8
0
 10
29.93995857425769
 20
19.6451815444245
 30
-27.57840343390229
 70
   192
  0
VERTEX
  5
A07
  8
0
 10
30.04163707745235
 20
13.18774076951309
 30
-30.18610261524656
 70
   192
  0
VERTEX
  5
A08
  8
0
 10
30.05028633779675
 20
6.776818158497617
 30
-27.46416004315763
 70
   192
  0
VERTEX
  5
A09
  8
0
 10
29.94969494877827
 20
5.467746231438272
 30
-21.01859308555041
 70
   192
  0
VERTEX
  5
A0A
  8
0
 10
30.01693559598158
 20
6.917291468347704
 30
-25.61566926786165
 70
   192
  0
VERTEX
  5
A0B
  8
0
 10
30.03295102211296
 20
10.79226769717201
 30
-28.48326666928132
 70
   192
  0
VERTEX
  5
A0C
  8
0
 10
29.99162387873453
 20
15.61256570409819
 30
-28.52606054851798
 70
   192
  0
VERTEX
  5
A0D
  8
0
 10
29.90873972995892
 20
19.53699548638382
 30
-25.72770509821368
 70
   192
  0
VERTEX
  5
A0E
  8
0
 10
29.8159575034898
 20
21.06655825365813
 30
-21.15707698778115
 70
   192
  0
VERTEX
  5
A0F
  8
0
 10
29.739288987566
 20
18.83029574316297
 30
-15.62241360252991
 70
   192
  0
VERTEX
  5
A10
  8
0
 10
29.74670263928977
 20
13.33521921943542
 30
-13.28931996931085
 70
   192
  0
VERTEX
  5
A11
  8
0
 10
29.83385564202804
 20
7.800269983797074
 30
-15.52449069617737
 70
   192
  0
VERTEX
  5
A12
  8
0
 10
0.0
 20
0.0
 30
0.0
 70
   128
 71
    10
 72
    -9
 73
    -1
  0
VERTEX
  5
A13
  8
0
 10
0.0
 20
0.0
 30
0.0
 70
   128
 71
   -10
 72
     1
 73
    -8
  0
VERTEX
  5
A14
  8
0
 10
0.0
 20
0.0
 30
0.0
 70
   128
 71
    -8
 72
    11
 73
   -10
  0
VERTEX
  5
A15
  8
0
 10
0.0
 20
0.0
 30
0.0
 70
   128
 71
     8
 72
    -7
 73
   -11
  0
VERTEX
  5
A16
  8
0
 10
0.0
 20
0.0
 30
0.0
 70
   128
 71
    -7
 72
    12
 73
   -11
  0
VERTEX
  5
A17
  8
0
 10
0.0
 20
0.0
 30
0.0
 70
   128
 71
   -12
 72
     7
 73
    -6
  0
VERTEX
  5
A18
  8
0
 10
0.0
 20
0.0
 30
0.0
 70
   128
 71
    -6
 72
    13
 73
   -12
  0
VERTEX
  5
A19
  8
0
 10
0.0
 20
0.0
 30
0.0
 70
   128
 71
     6
 72
    -5
 73
   -14
  0
VERTEX
  5
A1A
  8
0
 10
0.0
 20
0.0
 30
0.0
 70
   128
 71
    -6
 72
    14
 73
   -13
  0
VERTEX
  5
A1B
  8
0
 10
0.0
 20
0.0
 30
0.0
 70
   128
 71
     5
 72
    -4
 73
   -15
  0
VERTEX
  5
A1C
  8
0
 10
0.0
 20
0.0
 30
0.0
 70
   128
 71
    -5
 72
    15
 73
   -14
  0
VERTEX
  5
A1D
  8
0
 10
0.0
 20
0.0
 30
0.0
 70
   128
 71
     4
 72
    -3
 73
   -16
  0
VERTEX
  5
A1E
  8
0
 10
0.0
 20
0.0
 30
0.0
 70
   128
 71
    -4
 72
    16
 73
   -15
  0
VERTEX
  5
A1F
  8
0
 10
0.0
 20
0.0
 30
0.0
 70
   128
 71
     3
 72
    -2
 73
   -17
  0
VERTEX
  5
A20
  8
0
 10
0.0
 20
0.0
 30
0.0
 70
   128
 71
    -3
 72
    17
 73
   -16
  0
VERTEX
  5
A21
  8
0
 10
0.0
 20
0.0
 30
0.0
 70
   128
 71
     2
 72
    -1
 73
    -9
  0
VERTEX
  5
A22
  8
0
 10
0.0
 20
0.0
 30
0.0
 70
   128
 71
    -2
 72
     9
 73
   -17
  0
SEQEND
  5
FC2
  8
0
  0
POLYLINE
  5
A23
  8
0
 66
     1
 10
0.0
 20
0.0
 30
0.0
 70
    64
 71
    11
 72
     9
  0
VERTEX
  5
A24
  8
0
 10
28.77135408800161
 20
2.957465168630415
 30
-21.01725087379623
 70
   192
  0
VERTEX
  5
A25
  8
0
 10
29.96083973584126
 20
4.167845229608806
 30
-21.00705275782176
 70
   192
  0
VERTEX
  5
A26
  8
0
 10
29.82569387801038
 20
6.889122940671903
 30
-14.59726663942929
 70
   192
  0
VERTEX
  5
A27
  8
0
 10
28.61838679831861
 20
6.037592687770888
 30
-13.76221823141901
 70
   192
  0
VERTEX
  5
A28
  8
0
 10
28.50330014085654
 20
13.34656411431897
 30
-10.81064663055681
 70
   192
  0
VERTEX
  5
A29
  8
0
 10
29.72401537481572
 20
13.34656371558331
 30
-11.98956745808503
 70
   192
  0
VERTEX
  5
A2A
  8
0
 10
29.80481271638243
 20
22.36645925550978
 30
-21.16861731296708
 70
   192
  0
VERTEX
  5
A2B
  8
0
 10
29.80481271642681
 20
22.36645925548758
 30
-21.16861731550981
 70
   192
  0
VERTEX
  5
A2C
  8
0
 10
28.59475207695331
 20
23.55589642872249
 30
-21.20012064428514
 70
   192
  0
VERTEX
  5
A2D
  8
0
 10
29.71536611447132
 20
19.75748632659878
 30
-14.71151003017395
 70
   192
  0
VERTEX
  5
A2E
  8
0
 10
28.49351031870848
 20
20.60288311360022
 30
-13.89152668467943
 70
   192
  0
VERTEX
  5
A2F
  8
0
 10
0.0
 20
0.0
 30
0.0
 70
   128
 71
     1
 72
     2
 73
    -3
  0
VERTEX
  5
A30
  8
0
 10
0.0
 20
0.0
 30
0.0
 70
   128
 71
    -1
 72
     3
 73
     4
  0
VERTEX
  5
A31
  8
0
 10
0.0
 20
0.0
 30
0.0
 70
   128
 71
     5
 72
     4
 73
    -3
  0
VERTEX
  5
A32
  8
0
 10
0.0
 20
0.0
 30
0.0
 70
   128
 71
    -5
 72
     3
 73
     6
  0
VERTEX
  5
A33
  8
0
 10
0.0
 20
0.0
 30
0.0
 70
   128
 71
     7
 72
     8
 73
     9
  0
VERTEX
  5
A34
  8
0
 10
0.0
 20
0.0
 30
0.0
 70
   128
 71
     5
 72
     6
 73
   -10
  0
VERTEX
  5
A35
  8
0
 10
0.0
 20
0.0
 30
0.0
 70
   128
 71
    -5
 72
    10
 73
    11
  0
VERTEX
  5
A36
  8
0
 10
0.0
 20
0.0
 30
0.0
 70
   128
 71
    11
 72
    10
 73
    -7
  0
VERTEX
  5
A37
  8
0
 10
0.0
 20
0.0
 30
0.0
 70
   128
 71
   -11
 72
     7
 73
     9
  0
SEQEND
  5
FC3
  8
0
  0
POLYLINE
  5
A38
  8
0
 66
     1
 10
0.0
 20
0.0
 30
0.0
 70
    64
 71
    11
 72
     9
  0
VERTEX
  5
A39
  8
0
 10
28.59475207691555
 20
23.55589642874125
 30
-21.2001206421266
 70
   192
  0
VERTEX
  5
A3A
  8
0
 10
29.80481271642681
 20
22.36645925548758
 30
-21.16861731550981
 70
   192
  0
VERTEX
  5
A3B
  8
0
 10
29.93995857425769
 20
19.6451815444245
 30
-27.57840343390229
 70
   192
  0
VERTEX
  5
A3C
  8
0
 10
28.74771936659855
 20
20.47576890960078
 30
-28.45515328450382
 70
   192
  0
VERTEX
  5
A3D
  8
0
 10
28.86280602406062
 20
13.1667974830527
 30
-31.40672488536602
 70
   192
  0
VERTEX
  5
A3E
  8
0
 10
30.04163707745235
 20
13.18774076951309
 30
-30.18610261524656
 70
   192
  0
VERTEX
  5
A3F
  8
0
 10
29.96083973588565
 20
4.16784522958662
 30
-21.0070527603645
 70
   192
  0
VERTEX
  5
A40
  8
0
 10
29.96083973584126
 20
4.167845229608806
 30
-21.00705275782176
 70
   192
  0
VERTEX
  5
A41
  8
0
 10
28.77135408796394
 20
2.957465168649258
 30
-21.0172508716377
 70
   192
  0
VERTEX
  5
A42
  8
0
 10
30.05028633779675
 20
6.776818158497617
 30
-27.46416004315763
 70
   192
  0
VERTEX
  5
A43
  8
0
 10
28.87259584620868
 20
5.910478483771449
 30
-28.3258448312434
 70
   192
  0
VERTEX
  5
A44
  8
0
 10
0.0
 20
0.0
 30
0.0
 70
   128
 71
     1
 72
     2
 73
    -3
  0
VERTEX
  5
A45
  8
0
 10
0.0
 20
0.0
 30
0.0
 70
   128
 71
    -1
 72
     3
 73
     4
  0
VERTEX
  5
A46
  8
0
 10
0.0
 20
0.0
 30
0.0
 70
   128
 71
     5
 72
     4
 73
    -3
  0
VERTEX
  5
A47
  8
0
 10
0.0
 20
0.0
 30
0.0
 70
   128
 71
    -5
 72
     3
 73
     6
  0
VERTEX
  5
A48
  8
0
 10
0.0
 20
0.0
 30
0.0
 70
   128
 71
     7
 72
     8
 73
     9
  0
VERTEX
  5
A49
  8
0
 10
0.0
 20
0.0
 30
0.0
 70
   128
 71
     5
 72
     6
 73
   -10
  0
VERTEX
  5
A4A
  8
0
 10
0.0
 20
0.0
 30
0.0
 70
   128
 71
    -5
 72
    10
 73
    11
  0
VERTEX
  5
A4B
  8
0
 10
0.0
 20
0.0
 30
0.0
 70
   128
 71
    11
 72
    10
 73
    -7
  0
VERTEX
  5
A4C
  8
0
 10
0.0
 20
0.0
 30
0.0
 70
   128
 71
   -11
 72
     7
 73
     9
  0
SEQEND
  5
FC4
  8
0
  0
POLYLINE
  5
A4D
  8
0
 66
     1
 10
0.0
 20
0.0
 30
0.0
 70
    64
 71
    11
 72
     9
  0
VERTEX
  5
A4E
  8
0
 10
22.79584854915084
 20
23.50528445007317
 30
-21.3008991283888
 70
   192
  0
VERTEX
  5
A4F
  8
0
 10
28.5947520769552
 20
23.55589642849242
 30
-21.2001206442831
 70
   192
  0
VERTEX
  5
A50
  8
0
 10
28.74771936659855
 20
20.47576890960078
 30
-28.45515328450382
 70
   192
  0
VERTEX
  5
A51
  8
0
 10
22.94881583883384
 20
20.42515693093269
 30
-28.55593177076602
 70
   192
  0
VERTEX
  5
A52
  8
0
 10
23.06390249629591
 20
13.11618550438461
 30
-31.50750337162822
 70
   192
  0
VERTEX
  5
A53
  8
0
 10
28.86280602406062
 20
13.1667974830527
 30
-31.40672488536602
 70
   192
  0
VERTEX
  5
A54
  8
0
 10
28.77135408800161
 20
2.957465168630421
 30
-21.01725087379623
 70
   192
  0
VERTEX
  5
A55
  8
0
 10
28.77135408796196
 20
2.957465168879239
 30
-21.01725087163974
 70
   192
  0
VERTEX
  5
A56
  8
0
 10
22.97245056023689
 20
2.906853189963433
 30
-21.11802936005844
 70
   192
  0
VERTEX
  5
A57
  8
0
 10
28.87259584620868
 20
5.910478483771449
 30
-28.3258448312434
 70
   192
  0
VERTEX
  5
A58
  8
0
 10
23.07369231844397
 20
5.85986650510336
 30
-28.4266233175056
 70
   192
  0
VERTEX
  5
A59
  8
0
 10
0.0
 20
0.0
 30
0.0
 70
   128
 71
     1
 72
     2
 73
    -3
  0
VERTEX
  5
A5A
  8
0
 10
0.0
 20
0.0
 30
0.0
 70
   128
 71
    -1
 72
     3
 73
     4
  0
VERTEX
  5
A5B
  8
0
 10
0.0
 20
0.0
 30
0.0
 70
   128
 71
     5
 72
     4
 73
    -3
  0
VERTEX
  5
A5C
  8
0
 10
0.0
 20
0.0
 30
0.0
 70
   128
 71
    -5
 72
     3
 73
     6
  0
VERTEX
  5
A5D
  8
0
 10
0.0
 20
0.0
 30
0.0
 70
   128
 71
     7
 72
     8
 73
     9
  0
VERTEX
  5
A5E
  8
0
 10
0.0
 20
0.0
 30
0.0
 70
   128
 71
     5
 72
     6
 73
   -10
  0
VERTEX
  5
A5F
  8
0
 10
0.0
 20
0.0
 30
0.0
 70
   128
 71
    -5
 72
    10
 73
    11
  0
VERTEX
  5
A60
  8
0
 10
0.0
 20
0.0
 30
0.0
 70
   128
 71
    11
 72
    10
 73
    -7
  0
VERTEX
  5
A61
  8
0
 10
0.0
 20
0.0
 30
0.0
 70
   128
 71
   -11
 72
     7
 73
     9
  0
SEQEND
  5
FC5
  8
0
  0
POLYLINE
  5
A62
  8
0
 66
     1
 10
0.0
 20
0.0
 30
0.0
 70
    64
 71
    11
 72
     9
  0
VERTEX
  5
A63
  8
0
 10
22.9724505602369
 20
2.906853189962328
 30
-21.11802936005843
 70
   192
  0
VERTEX
  5
A64
  8
0
 10
28.77135408796196
 20
2.957465168879239
 30
-21.01725087163974
 70
   192
  0
VERTEX
  5
A65
  8
0
 10
28.61838679831861
 20
6.037592687770888
 30
-13.76221823141901
 70
   192
  0
VERTEX
  5
A66
  8
0
 10
22.8194832705539
 20
5.986980709102801
 30
-13.86299671768121
 70
   192
  0
VERTEX
  5
A67
  8
0
 10
22.70439661309183
 20
13.29595213565089
 30
-10.91142511681901
 70
   192
  0
VERTEX
  5
A68
  8
0
 10
28.50330014085654
 20
13.34656411431897
 30
-10.81064663055681
 70
   192
  0
VERTEX
  5
A69
  8
0
 10
28.59475207691555
 20
23.55589642874125
 30
-21.2001206421266
 70
   192
  0
VERTEX
  5
A6A
  8
0
 10
28.5947520769552
 20
23.55589642849242
 30
-21.2001206442831
 70
   192
  0
VERTEX
  5
A6B
  8
0
 10
22.79584854915085
 20
23.50528445007208
 30
-21.30089912838879
 70
   192
  0
VERTEX
  5
A6C
  8
0
 10
28.49351031870848
 20
20.60288311360022
 30
-13.89152668467943
 70
   192
  0
VERTEX
  5
A6D
  8
0
 10
22.69460679094377
 20
20.55227113493214
 30
-13.99230517094163
 70
   192
  0
VERTEX
  5
A6E
  8
0
 10
0.0
 20
0.0
 30
0.0
 70
   128
 71
     1
 72
     2
 73
    -3
  0
VERTEX
  5
A6F
  8
0
 10
0.0
 20
0.0
 30
0.0
 70
   128
 71
    -1
 72
     3
 73
     4
  0
VERTEX
  5
A70
  8
0
 10
0.0
 20
0.0
 30
0.0
 70
   128
 71
     5
 72
     4
 73
    -3
  0
VERTEX
  5
A71
  8
0
 10
0.0
 20
0.0
 30
0.0
 70
   128
 71
    -5
 72
     3
 73
     6
  0
VERTEX
  5
A72
  8
0
 10
0.0
 20
0.0
 30
0.0
 70
   128
 71
     7
 72
     8
 73
     9
  0
VERTEX
  5
A73
  8
0
 10
0.0
 20
0.0
 30
0.0
 70
   128
 71
     5
 72
     6
 73
   -10
  0
VERTEX
  5
A74
  8
0
 10
0.0
 20
0.0
 30
0.0
 70
   128
 71
    -5
 72
    10
 73
    11
  0
VERTEX
  5
A75
  8
0
 10
0.0
 20
0.0
 30
0.0
 70
   128
 71
    11
 72
    10
 73
    -7
  0
VERTEX
  5
A76
  8
0
 10
0.0
 20
0.0
 30
0.0
 70
   128
 71
   -11
 72
     7
 73
     9
  0
SEQEND
  5
FC6
  8
0
  0
POLYLINE
  5
A77
  8
0
 66
     1
 10
0.0
 20
0.0
 30
0.0
 70
    64
 71
    16
 72
    16
  0
VERTEX
  5
A78
  8
0
 10
22.9724505602369
 20
2.906853189962328
 30
-21.11802936005843
 70
   192
  0
VERTEX
  5
A79
  8
0
 10
22.8194832705539
 20
5.986980709102801
 30
-13.86299671768121
 70
   192
  0
VERTEX
  5
A7A
  8
0
 10
22.70439661309183
 20
13.29595213565089
 30
-10.91142511681901
 70
   192
  0
VERTEX
  5
A7B
  8
0
 10
22.69460679094377
 20
20.55227113493214
 30
-13.99230517094163
 70
   192
  0
VERTEX
  5
A7C
  8
0
 10
22.79584854915084
 20
23.50528445007317
 30
-21.3008991283888
 70
   192
  0
VERTEX
  5
A7D
  8
0
 10
22.94881583883384
 20
20.42515693093269
 30
-28.55593177076602
 70
   192
  0
VERTEX
  5
A7E
  8
0
 10
23.06390249629591
 20
13.11618550438461
 30
-31.50750337162822
 70
   192
  0
VERTEX
  5
A7F
  8
0
 10
23.07369231844397
 20
5.85986650510336
 30
-28.4266233175056
 70
   192
  0
VERTEX
  5
A80
  8
0
 10
22.96130577312953
 20
4.206754191813983
 30
-21.12956968524433
 70
   192
  0
VERTEX
  5
A81
  8
0
 10
23.0497694453493
 20
6.787057088539156
 30
-27.51571974514962
 70
   192
  0
VERTEX
  5
A82
  8
0
 10
23.04121523182187
 20
13.12753000053248
 30
-30.2077508604024
 70
   192
  0
VERTEX
  5
A83
  8
0
 10
22.94065407481617
 20
19.5140098878075
 30
-27.62870771401795
 70
   192
  0
VERTEX
  5
A84
  8
0
 10
22.80699333625821
 20
22.20538344822151
 30
-21.28935880320291
 70
   192
  0
VERTEX
  5
A85
  8
0
 10
22.71852966403844
 20
19.62508055149634
 30
-14.90320874329761
 70
   192
  0
VERTEX
  5
A86
  8
0
 10
22.72708387756587
 20
13.28460763950301
 30
-12.21117762804483
 70
   192
  0
VERTEX
  5
A87
  8
0
 10
22.82764503457157
 20
6.89812775222799
 30
-14.79022077442928
 70
   192
  0
VERTEX
  5
A88
  8
0
 10
0.0
 20
0.0
 30
0.0
 70
   128
 71
    -1
 72
     9
 73
   -10
  0
VERTEX
  5
A89
  8
0
 10
0.0
 20
0.0
 30
0.0
 70
   128
 71
     8
 72
    -1
 73
   -10
  0
VERTEX
  5
A8A
  8
0
 10
0.0
 20
0.0
 30
0.0
 70
   128
 71
   -11
 72
     7
 73
    -8
  0
VERTEX
  5
A8B
  8
0
 10
0.0
 20
0.0
 30
0.0
 70
   128
 71
    10
 72
   -11
 73
    -8
  0
VERTEX
  5
A8C
  8
0
 10
0.0
 20
0.0
 30
0.0
 70
   128
 71
   -12
 72
     6
 73
    -7
  0
VERTEX
  5
A8D
  8
0
 10
0.0
 20
0.0
 30
0.0
 70
   128
 71
    11
 72
   -12
 73
    -7
  0
VERTEX
  5
A8E
  8
0
 10
0.0
 20
0.0
 30
0.0
 70
   128
 71
   -13
 72
     5
 73
    -6
  0
VERTEX
  5
A8F
  8
0
 10
0.0
 20
0.0
 30
0.0
 70
   128
 71
    12
 72
   -13
 73
    -6
  0
VERTEX
  5
A90
  8
0
 10
0.0
 20
0.0
 30
0.0
 70
   128
 71
   -14
 72
     4
 73
    -5
  0
VERTEX
  5
A91
  8
0
 10
0.0
 20
0.0
 30
0.0
 70
   128
 71
    13
 72
   -14
 73
    -5
  0
VERTEX
  5
A92
  8
0
 10
0.0
 20
0.0
 30
0.0
 70
   128
 71
   -15
 72
     3
 73
    -4
  0
VERTEX
  5
A93
  8
0
 10
0.0
 20
0.0
 30
0.0
 70
   128
 71
    14
 72
   -15
 73
    -4
  0
VERTEX
  5
A94
  8
0
 10
0.0
 20
0.0
 30
0.0
 70
   128
 71
   -16
 72
     2
 73
    -3
  0
VERTEX
  5
A95
  8
0
 10
0.0
 20
0.0
 30
0.0
 70
   128
 71
    15
 72
   -16
 73
    -3
  0
VERTEX
  5
A96
  8
0
 10
0.0
 20
0.0
 30
0.0
 70
   128
 71
    -9
 72
     1
 73
    -2
  0
VERTEX
  5
A97
  8
0
 10
0.0
 20
0.0
 30
0.0
 70
   128
 71
    16
 72
    -9
 73
    -2
  0
SEQEND
  5
FC7
  8
0
  0
POLYLINE
  5
A98
  8
0
 66
     1
 10
0.0
 20
0.0
 30
0.0
 70
    64
 71
    10
 72
     8
  0
VERTEX
  5
A99
  8
0
 10
22.96130577312953
 20
4.206754191813984
 30
-21.12956968524433
 70
   192
  0
VERTEX
  5
A9A
  8
0
 10
22.80699333625821
 20
22.20538344822151
 30
-21.2893588032029
 70
   192
  0
VERTEX
  5
A9B
  8
0
 10
20.80737143013246
 20
22.18793104178424
 30
-21.32411000536228
 70
   192
  0
VERTEX
  5
A9C
  8
0
 10
20.96168386700377
 20
4.189301785376719
 30
-21.16432088740371
 70
   192
  0
VERTEX
  5
A9D
  8
0
 10
20.72746197144011
 20
13.26715523306575
 30
-12.24592883020421
 70
   192
  0
VERTEX
  5
A9E
  8
0
 10
22.72708387756587
 20
13.28460763950301
 30
-12.21117762804483
 70
   192
  0
VERTEX
  5
A9F
  8
0
 10
20.82802312844581
 20
6.880675345790725
 30
-14.82497197658866
 70
   192
  0
VERTEX
  5
AA0
  8
0
 10
22.82764503457157
 20
6.89812775222799
 30
-14.79022077442928
 70
   192
  0
VERTEX
  5
AA1
  8
0
 10
20.71890775791269
 20
19.60762814505907
 30
-14.93795994545699
 70
   192
  0
VERTEX
  5
AA2
  8
0
 10
22.71852966403844
 20
19.62508055149634
 30
-14.90320874329761
 70
   192
  0
VERTEX
  5
AA3
  8
0
 10
0.0
 20
0.0
 30
0.0
 70
   128
 71
     4
 72
     1
 73
    -8
  0
VERTEX
  5
AA4
  8
0
 10
0.0
 20
0.0
 30
0.0
 70
   128
 71
    -4
 72
     8
 73
     7
  0
VERTEX
  5
AA5
  8
0
 10
0.0
 20
0.0
 30
0.0
 70
   128
 71
     7
 72
     8
 73
    -6
  0
VERTEX
  5
AA6
  8
0
 10
0.0
 20
0.0
 30
0.0
 70
   128
 71
    -7
 72
     6
 73
     5
  0
VERTEX
  5
AA7
  8
0
 10
0.0
 20
0.0
 30
0.0
 70
   128
 71
     5
 72
     6
 73
   -10
  0
VERTEX
  5
AA8
  8
0
 10
0.0
 20
0.0
 30
0.0
 70
   128
 71
    -5
 72
    10
 73
     9
  0
VERTEX
  5
AA9
  8
0
 10
0.0
 20
0.0
 30
0.0
 70
   128
 71
    10
 72
     2
 73
    -3
  0
VERTEX
  5
AAA
  8
0
 10
0.0
 20
0.0
 30
0.0
 70
   128
 71
   -10
 72
     3
 73
     9
  0
SEQEND
  5
FC8
  8
0
  0
POLYLINE
  5
AAB
  8
0
 66
     1
 10
0.0
 20
0.0
 30
0.0
 70
    64
 71
    10
 72
     8
  0
VERTEX
  5
AAC
  8
0
 10
22.80699333625821
 20
22.20538344822151
 30
-21.28935880320291
 70
   192
  0
VERTEX
  5
AAD
  8
0
 10
22.96130577312953
 20
4.206754191813983
 30
-21.12956968524433
 70
   192
  0
VERTEX
  5
AAE
  8
0
 10
20.96168386700377
 20
4.189301785376713
 30
-21.16432088740371
 70
   192
  0
VERTEX
  5
AAF
  8
0
 10
20.80737143013246
 20
22.18793104178425
 30
-21.32411000536228
 70
   192
  0
VERTEX
  5
AB0
  8
0
 10
21.04159332569611
 20
13.11007759409522
 30
-30.24250206256178
 70
   192
  0
VERTEX
  5
AB1
  8
0
 10
23.04121523182187
 20
13.12753000053248
 30
-30.2077508604024
 70
   192
  0
VERTEX
  5
AB2
  8
0
 10
20.94103216869042
 20
19.49655748137024
 30
-27.66345891617733
 70
   192
  0
VERTEX
  5
AB3
  8
0
 10
22.94065407481617
 20
19.5140098878075
 30
-27.62870771401795
 70
   192
  0
VERTEX
  5
AB4
  8
0
 10
21.05014753922354
 20
6.76960468210189
 30
-27.55047094730901
 70
   192
  0
VERTEX
  5
AB5
  8
0
 10
23.0497694453493
 20
6.787057088539156
 30
-27.51571974514962
 70
   192
  0
VERTEX
  5
AB6
  8
0
 10
0.0
 20
0.0
 30
0.0
 70
   128
 71
     7
 72
     4
 73
    -1
  0
VERTEX
  5
AB7
  8
0
 10
0.0
 20
0.0
 30
0.0
 70
   128
 71
    -7
 72
     1
 73
     8
  0
VERTEX
  5
AB8
  8
0
 10
0.0
 20
0.0
 30
0.0
 70
   128
 71
     6
 72
     5
 73
    -7
  0
VERTEX
  5
AB9
  8
0
 10
0.0
 20
0.0
 30
0.0
 70
   128
 71
    -6
 72
     7
 73
     8
  0
VERTEX
  5
ABA
  8
0
 10
0.0
 20
0.0
 30
0.0
 70
   128
 71
    10
 72
     9
 73
    -5
  0
VERTEX
  5
ABB
  8
0
 10
0.0
 20
0.0
 30
0.0
 70
   128
 71
   -10
 72
     5
 73
     6
  0
VERTEX
  5
ABC
  8
0
 10
0.0
 20
0.0
 30
0.0
 70
   128
 71
     2
 72
     3
 73
    -9
  0
VERTEX
  5
ABD
  8
0
 10
0.0
 20
0.0
 30
0.0
 70
   128
 71
    -2
 72
     9
 73
    10
  0
SEQEND
  5
FC9
  8
0
  0
POLYLINE
  5
ABE
  8
0
 66
     1
 10
0.0
 20
0.0
 30
0.0
 70
    64
 71
    16
 72
    16
  0
VERTEX
  5
ABF
  8
0
 10
20.98268750424459
 20
1.739488358810139
 30
-21.1425718130149
 70
   192
  0
VERTEX
  5
AC0
  8
0
 10
20.81264134241252
 20
5.163513610670179
 30
-13.07751125425576
 70
   192
  0
VERTEX
  5
AC1
  8
0
 10
20.68470520377749
 20
13.28853524503674
 30
-9.796395251355543
 70
   192
  0
VERTEX
  5
AC2
  8
0
 10
20.67382234323426
 20
21.35502578307269
 30
-13.2212570590938
 70
   192
  0
VERTEX
  5
AC3
  8
0
 10
20.78636779289164
 20
24.63774446835082
 30
-21.34585907975109
 70
   192
  0
VERTEX
  5
AC4
  8
0
 10
20.95641395472371
 20
21.21371921649079
 30
-29.41091963851023
 70
   192
  0
VERTEX
  5
AC5
  8
0
 10
21.08435009335873
 20
13.08869758212423
 30
-32.69203564141045
 70
   192
  0
VERTEX
  5
AC6
  8
0
 10
21.09523295390196
 20
5.022207044088272
 30
-29.26717383367219
 70
   192
  0
VERTEX
  5
AC7
  8
0
 10
20.96168386700377
 20
4.189301785376719
 30
-21.16432088740371
 70
   192
  0
VERTEX
  5
AC8
  8
0
 10
21.05014753922354
 20
6.76960468210189
 30
-27.55047094730901
 70
   192
  0
VERTEX
  5
AC9
  8
0
 10
21.04159332569611
 20
13.11007759409522
 30
-30.24250206256178
 70
   192
  0
VERTEX
  5
ACA
  8
0
 10
20.94103216869042
 20
19.49655748137024
 30
-27.66345891617733
 70
   192
  0
VERTEX
  5
ACB
  8
0
 10
20.80737143013246
 20
22.18793104178425
 30
-21.32411000536228
 70
   192
  0
VERTEX
  5
ACC
  8
0
 10
20.71890775791269
 20
19.60762814505907
 30
-14.93795994545699
 70
   192
  0
VERTEX
  5
ACD
  8
0
 10
20.72746197144011
 20
13.26715523306575
 30
-12.24592883020421
 70
   192
  0
VERTEX
  5
ACE
  8
0
 10
20.82802312844581
 20
6.880675345790725
 30
-14.82497197658866
 70
   192
  0
VERTEX
  5
ACF
  8
0
 10
0.0
 20
0.0
 30
0.0
 70
   128
 71
    10
 72
    -9
 73
    -1
  0
VERTEX
  5
AD0
  8
0
 10
0.0
 20
0.0
 30
0.0
 70
   128
 71
   -10
 72
     1
 73
    -8
  0
VERTEX
  5
AD1
  8
0
 10
0.0
 20
0.0
 30
0.0
 70
   128
 71
     8
 72
    -7
 73
   -11
  0
VERTEX
  5
AD2
  8
0
 10
0.0
 20
0.0
 30
0.0
 70
   128
 71
    -8
 72
    11
 73
   -10
  0
VERTEX
  5
AD3
  8
0
 10
0.0
 20
0.0
 30
0.0
 70
   128
 71
     7
 72
    -6
 73
   -12
  0
VERTEX
  5
AD4
  8
0
 10
0.0
 20
0.0
 30
0.0
 70
   128
 71
    -7
 72
    12
 73
   -11
  0
VERTEX
  5
AD5
  8
0
 10
0.0
 20
0.0
 30
0.0
 70
   128
 71
     6
 72
    -5
 73
   -13
  0
VERTEX
  5
AD6
  8
0
 10
0.0
 20
0.0
 30
0.0
 70
   128
 71
    -6
 72
    13
 73
   -12
  0
VERTEX
  5
AD7
  8
0
 10
0.0
 20
0.0
 30
0.0
 70
   128
 71
     5
 72
    -4
 73
   -14
  0
VERTEX
  5
AD8
  8
0
 10
0.0
 20
0.0
 30
0.0
 70
   128
 71
    -5
 72
    14
 73
   -13
  0
VERTEX
  5
AD9
  8
0
 10
0.0
 20
0.0
 30
0.0
 70
   128
 71
     4
 72
    -3
 73
   -15
  0
VERTEX
  5
ADA
  8
0
 10
0.0
 20
0.0
 30
0.0
 70
   128
 71
    -4
 72
    15
 73
   -14
  0
VERTEX
  5
ADB
  8
0
 10
0.0
 20
0.0
 30
0.0
 70
   128
 71
     3
 72
    -2
 73
   -16
  0
VERTEX
  5
ADC
  8
0
 10
0.0
 20
0.0
 30
0.0
 70
   128
 71
    -3
 72
    16
 73
   -15
  0
VERTEX
  5
ADD
  8
0
 10
0.0
 20
0.0
 30
0.0
 70
   128
 71
     2
 72
    -1
 73
    -9
  0
VERTEX
  5
ADE
  8
0
 10
0.0
 20
0.0
 30
0.0
 70
   128
 71
    -2
 72
     9
 73
   -16
  0
SEQEND
  5
FCA
  8
0
  0
POLYLINE
  5
ADF
  8
0
 66
     1
 10
0.0
 20
0.0
 30
0.0
 70
    64
 71
    12
 72
    10
  0
VERTEX
  5
AE0
  8
0
 10
13.28669901259338
 20
3.904435261231776
 30
-14.58399589723528
 70
   192
  0
VERTEX
  5
AE1
  8
0
 10
15.0838028725777
 20
1.688004763534071
 30
-21.24508786826818
 70
   192
  0
VERTEX
  5
AE2
  8
0
 10
20.98268750424458
 20
1.739488358811526
 30
-21.14257181301491
 70
   192
  0
VERTEX
  5
AE3
  8
0
 10
20.81264134241252
 20
5.163513610670179
 30
-13.07751125425576
 70
   192
  0
VERTEX
  5
AE4
  8
0
 10
10.66334295861543
 20
18.61742495941838
 30
-11.3867350821663
 70
   192
  0
VERTEX
  5
AE5
  8
0
 10
20.68470520377749
 20
13.28853524503674
 30
-9.796395251355543
 70
   192
  0
VERTEX
  5
AE6
  8
0
 10
20.67382234323426
 20
21.35502578307269
 30
-13.2212570590938
 70
   192
  0
VERTEX
  5
AE7
  8
0
 10
20.78636779289164
 20
24.63774446835082
 30
-21.34585907975109
 70
   192
  0
VERTEX
  5
AE8
  8
0
 10
14.88748317844236
 20
24.58625886496721
 30
-21.44837511723203
 70
   192
  0
VERTEX
  5
AE9
  8
0
 10
13.17007469593172
 20
22.51467755320093
 30
-14.82809152892701
 70
   192
  0
VERTEX
  5
AEA
  8
0
 10
10.67538859745766
 20
7.913605923125383
 30
-11.21250905302543
 70
   192
  0
VERTEX
  5
AEB
  8
0
 10
9.170633243791746
 20
13.25061401882883
 30
-9.997214154966297
 70
   192
  0
VERTEX
  5
AEC
  8
0
 10
0.0
 20
0.0
 30
0.0
 70
   128
 71
     1
 72
     2
 73
     3
  0
VERTEX
  5
AED
  8
0
 10
0.0
 20
0.0
 30
0.0
 70
   128
 71
     1
 72
     3
 73
     4
  0
VERTEX
  5
AEE
  8
0
 10
0.0
 20
0.0
 30
0.0
 70
   128
 71
     5
 72
     6
 73
     7
  0
VERTEX
  5
AEF
  8
0
 10
0.0
 20
0.0
 30
0.0
 70
   128
 71
     7
 72
     8
 73
     9
  0
VERTEX
  5
AF0
  8
0
 10
0.0
 20
0.0
 30
0.0
 70
   128
 71
     7
 72
     9
 73
    10
  0
VERTEX
  5
AF1
  8
0
 10
0.0
 20
0.0
 30
0.0
 70
   128
 71
    11
 72
     1
 73
     4
  0
VERTEX
  5
AF2
  8
0
 10
0.0
 20
0.0
 30
0.0
 70
   128
 71
    11
 72
     4
 73
     6
  0
VERTEX
  5
AF3
  8
0
 10
0.0
 20
0.0
 30
0.0
 70
   128
 71
    11
 72
     6
 73
     5
  0
VERTEX
  5
AF4
  8
0
 10
0.0
 20
0.0
 30
0.0
 70
   128
 71
    11
 72
     5
 73
    12
  0
VERTEX
  5
AF5
  8
0
 10
0.0
 20
0.0
 30
0.0
 70
   128
 71
     5
 72
     7
 73
    10
  0
SEQEND
  5
FCB
  8
0
  0
POLYLINE
  5
AF6
  8
0
 66
     1
 10
0.0
 20
0.0
 30
0.0
 70
    64
 71
    20
 72
    18
  0
VERTEX
  5
AF7
  8
0
 10
12.23082487028875
 20
4.79086463109489
 30
-13.2613710343367
 70
   192
  0
VERTEX
  5
AF8
  8
0
 10
13.02118069581559
 20
3.659269542740149
 30
-14.54751957336014
 70
   192
  0
VERTEX
  5
AF9
  8
0
 10
14.78643033634641
 20
1.385408734683971
 30
-21.24763740740414
 70
   192
  0
VERTEX
  5
AFA
  8
0
 10
14.78642924321771
 20
1.385408725082534
 30
-21.24763743223488
 70
   192
  0
VERTEX
  5
AFB
  8
0
 10
14.82532762448121
 20
1.535749695904024
 30
-21.24827066911323
 70
   192
  0
VERTEX
  5
AFC
  8
0
 10
14.93417413333566
 20
1.646508258596668
 30
-21.24733746931087
 70
   192
  0
VERTEX
  5
AFD
  8
0
 10
15.08380286073483
 20
1.688006160733424
 30
-21.24508788789015
 70
   192
  0
VERTEX
  5
AFE
  8
0
 10
13.28669901259338
 20
3.904435261231776
 30
-14.58399589723528
 70
   192
  0
VERTEX
  5
AFF
  8
0
 10
14.62643605646065
 20
24.7339796113838
 30
-21.45422103653813
 70
   192
  0
VERTEX
  5
B00
  8
0
 10
14.58496577458834
 20
24.88361914322991
 30
-21.45625099139857
 70
   192
  0
VERTEX
  5
B01
  8
0
 10
12.8995783577654
 20
22.75736627478454
 30
-14.79646735473068
 70
   192
  0
VERTEX
  5
B02
  8
0
 10
13.17007469593172
 20
22.51467755320093
 30
-14.82809152892701
 70
   192
  0
VERTEX
  5
B03
  8
0
 10
14.88748317844236
 20
24.58625886496721
 30
-21.44837511723203
 70
   192
  0
VERTEX
  5
B04
  8
0
 10
14.73716533068309
 20
24.62513746936331
 30
-21.45133825368303
 70
   192
  0
VERTEX
  5
B05
  8
0
 10
10.4428312502461
 20
18.75823663798938
 30
-11.33375481149763
 70
   192
  0
VERTEX
  5
B06
  8
0
 10
8.981063842100088
 20
13.25128717257382
 30
-9.933962280636933
 70
   192
  0
VERTEX
  5
B07
  8
0
 10
9.170633243791746
 20
13.25061401882883
 30
-9.997214154966297
 70
   192
  0
VERTEX
  5
B08
  8
0
 10
10.66334295861543
 20
18.61742495941838
 30
-11.3867350821663
 70
   192
  0
VERTEX
  5
B09
  8
0
 10
10.67538859745766
 20
7.913605923125383
 30
-11.21250905302543
 70
   192
  0
VERTEX
  5
B0A
  8
0
 10
10.45866836663919
 20
7.774140086985174
 30
-11.15639989482404
 70
   192
  0
VERTEX
  5
B0B
  8
0
 10
0.0
 20
0.0
 30
0.0
 70
   128
 71
     1
 72
     2
 73
     3
  0
VERTEX
  5
B0C
  8
0
 10
0.0
 20
0.0
 30
0.0
 70
   128
 71
     1
 72
     3
 73
     4
  0
VERTEX
  5
B0D
  8
0
 10
0.0
 20
0.0
 30
0.0
 70
   128
 71
     1
 72
     4
 73
     5
  0
VERTEX
  5
B0E
  8
0
 10
0.0
 20
0.0
 30
0.0
 70
   128
 71
     6
 72
     7
 73
     8
  0
VERTEX
  5
B0F
  8
0
 10
0.0
 20
0.0
 30
0.0
 70
   128
 71
     9
 72
    10
 73
    11
  0
VERTEX
  5
B10
  8
0
 10
0.0
 20
0.0
 30
0.0
 70
   128
 71
    12
 72
    13
 73
    14
  0
VERTEX
  5
B11
  8
0
 10
0.0
 20
0.0
 30
0.0
 70
   128
 71
    15
 72
    16
 73
    17
  0
VERTEX
  5
B12
  8
0
 10
0.0
 20
0.0
 30
0.0
 70
   128
 71
    15
 72
    17
 73
    18
  0
VERTEX
  5
B13
  8
0
 10
0.0
 20
0.0
 30
0.0
 70
   128
 71
    17
 72
    16
 73
    19
  0
VERTEX
  5
B14
  8
0
 10
0.0
 20
0.0
 30
0.0
 70
   128
 71
     5
 72
     6
 73
     8
  0
VERTEX
  5
B15
  8
0
 10
0.0
 20
0.0
 30
0.0
 70
   128
 71
     5
 72
     8
 73
    19
  0
VERTEX
  5
B16
  8
0
 10
0.0
 20
0.0
 30
0.0
 70
   128
 71
     5
 72
    19
 73
    16
  0
VERTEX
  5
B17
  8
0
 10
0.0
 20
0.0
 30
0.0
 70
   128
 71
     5
 72
    16
 73
    20
  0
VERTEX
  5
B18
  8
0
 10
0.0
 20
0.0
 30
0.0
 70
   128
 71
    20
 72
     1
 73
     5
  0
VERTEX
  5
B19
  8
0
 10
0.0
 20
0.0
 30
0.0
 70
   128
 71
    12
 72
    15
 73
    18
  0
VERTEX
  5
B1A
  8
0
 10
0.0
 20
0.0
 30
0.0
 70
   128
 71
    12
 72
    14
 73
     9
  0
VERTEX
  5
B1B
  8
0
 10
0.0
 20
0.0
 30
0.0
 70
   128
 71
    12
 72
     9
 73
    11
  0
VERTEX
  5
B1C
  8
0
 10
0.0
 20
0.0
 30
0.0
 70
   128
 71
    12
 72
    11
 73
    15
  0
SEQEND
  5
FCC
  8
0
  0
POLYLINE
  5
B1D
  8
0
 66
     1
 10
0.0
 20
0.0
 30
0.0
 70
    64
 71
    26
 72
    26
  0
VERTEX
  5
B1E
  8
0
 10
9.088226022567316
 20
-21.22060501418977
 30
-33.12552159756379
 70
   192
  0
VERTEX
  5
B1F
  8
0
 10
0.4399770444691538
 20
-21.32118216656093
 30
-36.10268618042917
 70
   192
  0
VERTEX
  5
B20
  8
0
 10
0.0164751343876475
 20
28.07505590380193
 30
-36.54121853749329
 70
   192
  0
VERTEX
  5
B21
  8
0
 10
8.664724112487148
 20
28.1756330561731
 30
-33.56405395462789
 70
   192
  0
VERTEX
  5
B22
  8
0
 10
9.38413195289782
 20
12.92144561389905
 30
-32.9611983133376
 70
   192
  0
VERTEX
  5
B23
  8
0
 10
13.29989402590036
 20
3.479209468439181
 30
-27.95583649937004
 70
   192
  0
VERTEX
  5
B24
  8
0
 10
14.78643033634641
 20
1.385408734683971
 30
-21.24763740740414
 70
   192
  0
VERTEX
  5
B25
  8
0
 10
14.33448144499088
 20
-21.10911296417884
 30
-25.63351194262482
 70
   192
  0
VERTEX
  5
B26
  8
0
 10
12.8995783577654
 20
22.75736627478454
 30
-14.79646735473068
 70
   192
  0
VERTEX
  5
B27
  8
0
 10
14.58496687629865
 20
24.88361915278411
 30
-21.45625097813968
 70
   192
  0
VERTEX
  5
B28
  8
0
 10
13.75135014395732
 20
28.36694588020593
 30
-16.92688261682067
 70
   192
  0
VERTEX
  5
B29
  8
0
 10
8.981063842100088
 20
13.25128717257382
 30
-9.933962280636933
 70
   192
  0
VERTEX
  5
B2A
  8
0
 10
8.246808941367709
 20
28.38460655557078
 30
-9.621709836265644
 70
   192
  0
VERTEX
  5
B2B
  8
0
 10
8.670310851447876
 20
-21.01163151479209
 30
-9.18317747920155
 70
   192
  0
VERTEX
  5
B2C
  8
0
 10
-0.5000964259430977
 20
28.33336135455348
 30
-6.946853666505271
 70
   192
  0
VERTEX
  5
B2D
  8
0
 10
-0.0765945158558231
 20
-21.06287671580934
 30
-6.508321309441055
 70
   192
  0
VERTEX
  5
B2E
  8
0
 10
14.17485205403748
 20
-21.02929219015694
 30
-16.48835025975658
 70
   192
  0
VERTEX
  5
B2F
  8
0
 10
13.91097953491071
 20
28.28712510618402
 30
-26.07204429968891
 70
   192
  0
VERTEX
  5
B30
  8
0
 10
10.89750346306676
 20
7.430172699134016
 30
-31.50401032520339
 70
   192
  0
VERTEX
  5
B31
  8
0
 10
12.33932994375359
 20
21.38956432042751
 30
-29.57169307384285
 70
   192
  0
VERTEX
  5
B32
  8
0
 10
10.7272910701364
 20
18.43353594554331
 30
-31.68469857406073
 70
   192
  0
VERTEX
  5
B33
  8
0
 10
13.09670144723911
 20
22.58622291211522
 30
-28.20644048551179
 70
   192
  0
VERTEX
  5
B34
  8
0
 10
12.23082487028875
 20
4.79086463109489
 30
-13.2613710343367
 70
   192
  0
VERTEX
  5
B35
  8
0
 10
10.45866836663919
 20
7.774140086985174
 30
-11.15639989482404
 70
   192
  0
VERTEX
  5
B36
  8
0
 10
13.02118069581559
 20
3.659269542740149
 30
-14.54751957336014
 70
   192
  0
VERTEX
  5
B37
  8
0
 10
10.4428312502461
 20
18.75823663798938
 30
-11.33375481149763
 70
   192
  0
VERTEX
  5
B38
  8
0
 10
0.0
 20
0.0
 30
0.0
 70
   128
 71
     1
 72
     2
 73
    -3
  0
VERTEX
  5
B39
  8
0
 10
0.0
 20
0.0
 30
0.0
 70
   128
 71
    -1
 72
     3
 73
     4
  0
VERTEX
  5
B3A
  8
0
 10
0.0
 20
0.0
 30
0.0
 70
   128
 71
     1
 72
     4
 73
     5
  0
VERTEX
  5
B3B
  8
0
 10
0.0
 20
0.0
 30
0.0
 70
   128
 71
     6
 72
     7
 73
     8
  0
VERTEX
  5
B3C
  8
0
 10
0.0
 20
0.0
 30
0.0
 70
   128
 71
     9
 72
    10
 73
    11
  0
VERTEX
  5
B3D
  8
0
 10
0.0
 20
0.0
 30
0.0
 70
   128
 71
    12
 72
    13
 73
    14
  0
VERTEX
  5
B3E
  8
0
 10
0.0
 20
0.0
 30
0.0
 70
   128
 71
    13
 72
    15
 73
   -16
  0
VERTEX
  5
B3F
  8
0
 10
0.0
 20
0.0
 30
0.0
 70
   128
 71
   -13
 72
    16
 73
    14
  0
VERTEX
  5
B40
  8
0
 10
0.0
 20
0.0
 30
0.0
 70
   128
 71
     8
 72
     7
 73
    17
  0
VERTEX
  5
B41
  8
0
 10
0.0
 20
0.0
 30
0.0
 70
   128
 71
    18
 72
    11
 73
    10
  0
VERTEX
  5
B42
  8
0
 10
0.0
 20
0.0
 30
0.0
 70
   128
 71
    19
 72
     6
 73
     8
  0
VERTEX
  5
B43
  8
0
 10
0.0
 20
0.0
 30
0.0
 70
   128
 71
    19
 72
     8
 73
     1
  0
VERTEX
  5
B44
  8
0
 10
0.0
 20
0.0
 30
0.0
 70
   128
 71
     4
 72
    20
 73
    21
  0
VERTEX
  5
B45
  8
0
 10
0.0
 20
0.0
 30
0.0
 70
   128
 71
     4
 72
    22
 73
    20
  0
VERTEX
  5
B46
  8
0
 10
0.0
 20
0.0
 30
0.0
 70
   128
 71
     4
 72
    18
 73
    10
  0
VERTEX
  5
B47
  8
0
 10
0.0
 20
0.0
 30
0.0
 70
   128
 71
     4
 72
    10
 73
    22
  0
VERTEX
  5
B48
  8
0
 10
0.0
 20
0.0
 30
0.0
 70
   128
 71
    14
 72
    23
 73
    24
  0
VERTEX
  5
B49
  8
0
 10
0.0
 20
0.0
 30
0.0
 70
   128
 71
    14
 72
    25
 73
    23
  0
VERTEX
  5
B4A
  8
0
 10
0.0
 20
0.0
 30
0.0
 70
   128
 71
    14
 72
    17
 73
     7
  0
VERTEX
  5
B4B
  8
0
 10
0.0
 20
0.0
 30
0.0
 70
   128
 71
    14
 72
     7
 73
    25
  0
VERTEX
  5
B4C
  8
0
 10
0.0
 20
0.0
 30
0.0
 70
   128
 71
    26
 72
     9
 73
    11
  0
VERTEX
  5
B4D
  8
0
 10
0.0
 20
0.0
 30
0.0
 70
   128
 71
    26
 72
    11
 73
    13
  0
VERTEX
  5
B4E
  8
0
 10
0.0
 20
0.0
 30
0.0
 70
   128
 71
     1
 72
     5
 73
    19
  0
VERTEX
  5
B4F
  8
0
 10
0.0
 20
0.0
 30
0.0
 70
   128
 71
     5
 72
     4
 73
    21
  0
VERTEX
  5
B50
  8
0
 10
0.0
 20
0.0
 30
0.0
 70
   128
 71
    24
 72
    12
 73
    14
  0
VERTEX
  5
B51
  8
0
 10
0.0
 20
0.0
 30
0.0
 70
   128
 71
    26
 72
    13
 73
    12
  0
SEQEND
  5
FCD
  8
0
  0
POLYLINE
  5
B52
  8
0
 66
     1
 10
0.0
 20
0.0
 30
0.0
 70
    64
 71
    25
 72
    32
  0
VERTEX
  5
B53
  8
0
 10
10.33599117880314
 20
-21.28881161761235
 30
-10.79121954113475
 70
   192
  0
VERTEX
  5
B54
  8
0
 10
-0.068787119344131
 20
-21.36547183073236
 30
-6.805601044681161
 70
   192
  0
VERTEX
  5
B55
  8
0
 10
8.500816112142799
 20
-21.31526538378973
 30
-9.426237156946389
 70
   192
  0
VERTEX
  5
B56
  8
0
 10
14.05017243689777
 20
-21.41077085785108
 30
-25.54311889475973
 70
   192
  0
VERTEX
  5
B57
  8
0
 10
10.69669172945376
 20
-21.46917562809377
 30
-31.45574024811775
 70
   192
  0
VERTEX
  5
B58
  8
0
 10
14.79610951158581
 20
-21.34164043554941
 30
-21.04910229128818
 70
   192
  0
VERTEX
  5
B59
  8
0
 10
14.89286060466838
 20
-21.27576426726178
 30
-21.04798847486002
 70
   192
  0
VERTEX
  5
B5A
  8
0
 10
10.40304020218201
 20
-21.22258363685795
 30
-10.72179355769121
 70
   192
  0
VERTEX
  5
B5B
  8
0
 10
0.439586591357861
 20
-21.57966102239196
 30
-35.95040837956952
 70
   192
  0
VERTEX
  5
B5C
  8
0
 10
10.76614283100595
 20
-21.40414877789503
 30
-31.52392923105771
 70
   192
  0
VERTEX
  5
B5D
  8
0
 10
14.95704576003948
 20
-21.17787719337835
 30
-21.04772249648365
 70
   192
  0
VERTEX
  5
B5E
  8
0
 10
10.44737906907512
 20
-21.12446148939968
 30
-10.67588284860519
 70
   192
  0
VERTEX
  5
B5F
  8
0
 10
-0.0746071518665736
 20
-21.21321603316705
 30
-6.547174460659339
 70
   192
  0
VERTEX
  5
B60
  8
0
 10
10.81208671522107
 20
-21.3068292002154
 30
-31.56996990276713
 70
   192
  0
VERTEX
  5
B61
  8
0
 10
14.17485205403748
 20
-21.02929219015694
 30
-16.48835025975658
 70
   192
  0
VERTEX
  5
B62
  8
0
 10
0.4399770444691536
 20
-21.32118216656093
 30
-36.10268618042917
 70
   192
  0
VERTEX
  5
B63
  8
0
 10
9.088226022567316
 20
-21.22060501418977
 30
-33.12552159756379
 70
   192
  0
VERTEX
  5
B64
  8
0
 10
-0.0717494464032789
 20
-21.32397353228992
 30
-6.655986395787484
 70
   192
  0
VERTEX
  5
B65
  8
0
 10
0.440561554420663
 20
-21.47082000347674
 30
-36.06116987724504
 70
   192
  0
VERTEX
  5
B66
  8
0
 10
8.670310851447876
 20
-21.01163151479209
 30
-9.18317747920155
 70
   192
  0
VERTEX
  5
B67
  8
0
 10
-0.0765945158629308
 20
-21.06287671580939
 30
-6.508321309441177
 70
   192
  0
VERTEX
  5
B68
  8
0
 10
8.910260029793601
 20
-21.52000293387529
 30
-32.88326348912562
 70
   192
  0
VERTEX
  5
B69
  8
0
 10
0.4373133958460757
 20
-21.61854136018488
 30
-35.80008014125724
 70
   192
  0
VERTEX
  5
B6A
  8
0
 10
13.89377877684208
 20
-21.33256807249178
 30
-16.58333211086855
 70
   192
  0
VERTEX
  5
B6B
  8
0
 10
14.33448144499088
 20
-21.10911296417884
 30
-25.63351194262482
 70
   192
  0
VERTEX
  5
B6C
  8
0
 10
0.0
 20
0.0
 30
0.0
 70
   128
 71
     1
 72
     2
 73
     3
  0
VERTEX
  5
B6D
  8
0
 10
0.0
 20
0.0
 30
0.0
 70
   128
 71
     4
 72
     5
 73
     6
  0
VERTEX
  5
B6E
  8
0
 10
0.0
 20
0.0
 30
0.0
 70
   128
 71
     7
 72
     8
 73
    -1
  0
VERTEX
  5
B6F
  8
0
 10
0.0
 20
0.0
 30
0.0
 70
   128
 71
    -7
 72
     1
 73
     6
  0
VERTEX
  5
B70
  8
0
 10
0.0
 20
0.0
 30
0.0
 70
   128
 71
     9
 72
    10
 73
     5
  0
VERTEX
  5
B71
  8
0
 10
0.0
 20
0.0
 30
0.0
 70
   128
 71
    10
 72
     7
 73
    -6
  0
VERTEX
  5
B72
  8
0
 10
0.0
 20
0.0
 30
0.0
 70
   128
 71
   -10
 72
     6
 73
     5
  0
VERTEX
  5
B73
  8
0
 10
0.0
 20
0.0
 30
0.0
 70
   128
 71
    11
 72
    12
 73
    -8
  0
VERTEX
  5
B74
  8
0
 10
0.0
 20
0.0
 30
0.0
 70
   128
 71
   -11
 72
     8
 73
     7
  0
VERTEX
  5
B75
  8
0
 10
0.0
 20
0.0
 30
0.0
 70
   128
 71
    13
 72
     8
 73
    12
  0
VERTEX
  5
B76
  8
0
 10
0.0
 20
0.0
 30
0.0
 70
   128
 71
    14
 72
    11
 73
    -7
  0
VERTEX
  5
B77
  8
0
 10
0.0
 20
0.0
 30
0.0
 70
   128
 71
   -14
 72
     7
 73
    10
  0
VERTEX
  5
B78
  8
0
 10
0.0
 20
0.0
 30
0.0
 70
   128
 71
    15
 72
    12
 73
    11
  0
VERTEX
  5
B79
  8
0
 10
0.0
 20
0.0
 30
0.0
 70
   128
 71
    14
 72
    16
 73
    17
  0
VERTEX
  5
B7A
  8
0
 10
0.0
 20
0.0
 30
0.0
 70
   128
 71
     1
 72
     8
 73
    13
  0
VERTEX
  5
B7B
  8
0
 10
0.0
 20
0.0
 30
0.0
 70
   128
 71
     1
 72
    13
 73
    18
  0
VERTEX
  5
B7C
  8
0
 10
0.0
 20
0.0
 30
0.0
 70
   128
 71
    19
 72
    14
 73
    10
  0
VERTEX
  5
B7D
  8
0
 10
0.0
 20
0.0
 30
0.0
 70
   128
 71
    19
 72
    10
 73
     9
  0
VERTEX
  5
B7E
  8
0
 10
0.0
 20
0.0
 30
0.0
 70
   128
 71
    12
 72
    20
 73
    21
  0
VERTEX
  5
B7F
  8
0
 10
0.0
 20
0.0
 30
0.0
 70
   128
 71
    12
 72
    21
 73
    13
  0
VERTEX
  5
B80
  8
0
 10
0.0
 20
0.0
 30
0.0
 70
   128
 71
    19
 72
    16
 73
    14
  0
VERTEX
  5
B81
  8
0
 10
0.0
 20
0.0
 30
0.0
 70
   128
 71
     1
 72
    18
 73
     2
  0
VERTEX
  5
B82
  8
0
 10
0.0
 20
0.0
 30
0.0
 70
   128
 71
     9
 72
     5
 73
    22
  0
VERTEX
  5
B83
  8
0
 10
0.0
 20
0.0
 30
0.0
 70
   128
 71
     9
 72
    22
 73
    23
  0
VERTEX
  5
B84
  8
0
 10
0.0
 20
0.0
 30
0.0
 70
   128
 71
     4
 72
     6
 73
    24
  0
VERTEX
  5
B85
  8
0
 10
0.0
 20
0.0
 30
0.0
 70
   128
 71
    24
 72
     6
 73
     1
  0
VERTEX
  5
B86
  8
0
 10
0.0
 20
0.0
 30
0.0
 70
   128
 71
    24
 72
     1
 73
     3
  0
VERTEX
  5
B87
  8
0
 10
0.0
 20
0.0
 30
0.0
 70
   128
 71
    22
 72
     5
 73
     4
  0
VERTEX
  5
B88
  8
0
 10
0.0
 20
0.0
 30
0.0
 70
   128
 71
    25
 72
    15
 73
    11
  0
VERTEX
  5
B89
  8
0
 10
0.0
 20
0.0
 30
0.0
 70
   128
 71
    15
 72
    20
 73
    12
  0
VERTEX
  5
B8A
  8
0
 10
0.0
 20
0.0
 30
0.0
 70
   128
 71
    17
 72
    25
 73
    11
  0
VERTEX
  5
B8B
  8
0
 10
0.0
 20
0.0
 30
0.0
 70
   128
 71
    17
 72
    11
 73
    14
  0
SEQEND
  5
FCE
  8
0
  0
POLYLINE
  5
B8C
  8
0
 66
     1
 10
0.0
 20
0.0
 30
0.0
 70
    64
 71
    25
 72
    32
  0
VERTEX
  5
B8D
  8
0
 10
-9.967856446795667
 20
-21.64953277086643
 30
-31.81486708554894
 70
   192
  0
VERTEX
  5
B8E
  8
0
 10
0.4373133958460756
 20
-21.61854136018488
 30
-35.80008014125724
 70
   192
  0
VERTEX
  5
B8F
  8
0
 10
-8.132289835640865
 20
-21.66874780712751
 30
-33.17944402899202
 70
   192
  0
VERTEX
  5
B90
  8
0
 10
-13.68164616039584
 20
-21.57324233306615
 30
-17.06256229117867
 70
   192
  0
VERTEX
  5
B91
  8
0
 10
-10.32855699744628
 20
-21.46916876038501
 30
-11.15034637856593
 70
   192
  0
VERTEX
  5
B92
  8
0
 10
-14.42797477957834
 20
-21.59670395292937
 30
-21.55698433539551
 70
   192
  0
VERTEX
  5
B93
  8
0
 10
-14.52584089704438
 20
-21.53252637508415
 30
-21.55925274938139
 70
   192
  0
VERTEX
  5
B94
  8
0
 10
-10.03602049455801
 20
-21.58570700548798
 30
-31.8854476665502
 70
   192
  0
VERTEX
  5
B95
  8
0
 10
-0.0717494464032789
 20
-21.32397353228992
 30
-6.655986395787484
 70
   192
  0
VERTEX
  5
B96
  8
0
 10
-10.39912312338195
 20
-21.4041418644509
 30
-11.08331199318369
 70
   192
  0
VERTEX
  5
B97
  8
0
 10
-14.59169480433331
 20
-21.43577426304892
 30
-21.5612467051162
 70
   192
  0
VERTEX
  5
B98
  8
0
 10
-10.08202811336894
 20
-21.4891899670276
 30
-31.93308635299467
 70
   192
  0
VERTEX
  5
B99
  8
0
 10
0.440561554420663
 20
-21.47082000347674
 30
-36.06116987724504
 70
   192
  0
VERTEX
  5
B9A
  8
0
 10
-10.4467357595149
 20
-21.30682225621187
 30
-11.03899929883272
 70
   192
  0
VERTEX
  5
B9B
  8
0
 10
-13.81146952543126
 20
-21.35476669221338
 30
-26.12265723011378
 70
   192
  0
VERTEX
  5
B9C
  8
0
 10
-0.0765945158629195
 20
-21.06287671580939
 30
-6.50832130944118
 70
   192
  0
VERTEX
  5
B9D
  8
0
 10
-8.724843493961092
 20
-21.16345386818055
 30
-9.485485892306563
 70
   192
  0
VERTEX
  5
B9E
  8
0
 10
0.439586591357861
 20
-21.57966102239196
 30
-35.95040837956952
 70
   192
  0
VERTEX
  5
B9F
  8
0
 10
-0.0746071518665736
 20
-21.21321603316705
 30
-6.547174460659339
 70
   192
  0
VERTEX
  5
BA0
  8
0
 10
-8.306928322841653
 20
-21.37242736757823
 30
-33.4278300106688
 70
   192
  0
VERTEX
  5
BA1
  8
0
 10
0.4399770444691538
 20
-21.32118216656093
 30
-36.10268618042917
 70
   192
  0
VERTEX
  5
BA2
  8
0
 10
-8.541733753291668
 20
-21.46401025704195
 30
-9.722417696812787
 70
   192
  0
VERTEX
  5
BA3
  8
0
 10
-0.0687871193441421
 20
-21.36547183073236
 30
-6.805601044681159
 70
   192
  0
VERTEX
  5
BA4
  8
0
 10
-13.52525250034014
 20
-21.65144511842546
 30
-26.02234907506985
 70
   192
  0
VERTEX
  5
BA5
  8
0
 10
-13.97109891638466
 20
-21.27494591819147
 30
-16.97749554724554
 70
   192
  0
VERTEX
  5
BA6
  8
0
 10
0.0
 20
0.0
 30
0.0
 70
   128
 71
     1
 72
     2
 73
     3
  0
VERTEX
  5
BA7
  8
0
 10
0.0
 20
0.0
 30
0.0
 70
   128
 71
     4
 72
     5
 73
     6
  0
VERTEX
  5
BA8
  8
0
 10
0.0
 20
0.0
 30
0.0
 70
   128
 71
     7
 72
     8
 73
    -1
  0
VERTEX
  5
BA9
  8
0
 10
0.0
 20
0.0
 30
0.0
 70
   128
 71
    -7
 72
     1
 73
     6
  0
VERTEX
  5
BAA
  8
0
 10
0.0
 20
0.0
 30
0.0
 70
   128
 71
     9
 72
    10
 73
     5
  0
VERTEX
  5
BAB
  8
0
 10
0.0
 20
0.0
 30
0.0
 70
   128
 71
    10
 72
     7
 73
    -6
  0
VERTEX
  5
BAC
  8
0
 10
0.0
 20
0.0
 30
0.0
 70
   128
 71
   -10
 72
     6
 73
     5
  0
VERTEX
  5
BAD
  8
0
 10
0.0
 20
0.0
 30
0.0
 70
   128
 71
    11
 72
    12
 73
    -8
  0
VERTEX
  5
BAE
  8
0
 10
0.0
 20
0.0
 30
0.0
 70
   128
 71
   -11
 72
     8
 73
     7
  0
VERTEX
  5
BAF
  8
0
 10
0.0
 20
0.0
 30
0.0
 70
   128
 71
    13
 72
     8
 73
    12
  0
VERTEX
  5
BB0
  8
0
 10
0.0
 20
0.0
 30
0.0
 70
   128
 71
    14
 72
    11
 73
    -7
  0
VERTEX
  5
BB1
  8
0
 10
0.0
 20
0.0
 30
0.0
 70
   128
 71
   -14
 72
     7
 73
    10
  0
VERTEX
  5
BB2
  8
0
 10
0.0
 20
0.0
 30
0.0
 70
   128
 71
    15
 72
    12
 73
    11
  0
VERTEX
  5
BB3
  8
0
 10
0.0
 20
0.0
 30
0.0
 70
   128
 71
    14
 72
    16
 73
    17
  0
VERTEX
  5
BB4
  8
0
 10
0.0
 20
0.0
 30
0.0
 70
   128
 71
     1
 72
     8
 73
    13
  0
VERTEX
  5
BB5
  8
0
 10
0.0
 20
0.0
 30
0.0
 70
   128
 71
     1
 72
    13
 73
    18
  0
VERTEX
  5
BB6
  8
0
 10
0.0
 20
0.0
 30
0.0
 70
   128
 71
     9
 72
    19
 73
    14
  0
VERTEX
  5
BB7
  8
0
 10
0.0
 20
0.0
 30
0.0
 70
   128
 71
     9
 72
    14
 73
    10
  0
VERTEX
  5
BB8
  8
0
 10
0.0
 20
0.0
 30
0.0
 70
   128
 71
    12
 72
    20
 73
    21
  0
VERTEX
  5
BB9
  8
0
 10
0.0
 20
0.0
 30
0.0
 70
   128
 71
    12
 72
    21
 73
    13
  0
VERTEX
  5
BBA
  8
0
 10
0.0
 20
0.0
 30
0.0
 70
   128
 71
    16
 72
    14
 73
    19
  0
VERTEX
  5
BBB
  8
0
 10
0.0
 20
0.0
 30
0.0
 70
   128
 71
     1
 72
    18
 73
     2
  0
VERTEX
  5
BBC
  8
0
 10
0.0
 20
0.0
 30
0.0
 70
   128
 71
     9
 72
     5
 73
    22
  0
VERTEX
  5
BBD
  8
0
 10
0.0
 20
0.0
 30
0.0
 70
   128
 71
     9
 72
    22
 73
    23
  0
VERTEX
  5
BBE
  8
0
 10
0.0
 20
0.0
 30
0.0
 70
   128
 71
     4
 72
     6
 73
    24
  0
VERTEX
  5
BBF
  8
0
 10
0.0
 20
0.0
 30
0.0
 70
   128
 71
    24
 72
     6
 73
     1
  0
VERTEX
  5
BC0
  8
0
 10
0.0
 20
0.0
 30
0.0
 70
   128
 71
    24
 72
     1
 73
     3
  0
VERTEX
  5
BC1
  8
0
 10
0.0
 20
0.0
 30
0.0
 70
   128
 71
    22
 72
     5
 73
     4
  0
VERTEX
  5
BC2
  8
0
 10
0.0
 20
0.0
 30
0.0
 70
   128
 71
    25
 72
    15
 73
    11
  0
VERTEX
  5
BC3
  8
0
 10
0.0
 20
0.0
 30
0.0
 70
   128
 71
    15
 72
    20
 73
    12
  0
VERTEX
  5
BC4
  8
0
 10
0.0
 20
0.0
 30
0.0
 70
   128
 71
    17
 72
    25
 73
    11
  0
VERTEX
  5
BC5
  8
0
 10
0.0
 20
0.0
 30
0.0
 70
   128
 71
    17
 72
    11
 73
    14
  0
SEQEND
  5
FCF
  8
0
  0
POLYLINE
  5
BC6
  8
0
 66
     1
 10
0.0
 20
0.0
 30
0.0
 70
    64
 71
    25
 72
    32
  0
VERTEX
  5
BC7
  8
0
 10
10.02190873189899
 20
28.50136915502015
 30
-11.11645349394364
 70
   192
  0
VERTEX
  5
BC8
  8
0
 10
-0.5000964259208753
 20
28.33336135455367
 30
-6.946853666504888
 70
   192
  0
VERTEX
  5
BC9
  8
0
 10
8.246808941367709
 20
28.38460655557078
 30
-9.621709836265644
 70
   192
  0
VERTEX
  5
BCA
  8
0
 10
13.91097953491071
 20
28.28712510618402
 30
-26.07204429968891
 70
   192
  0
VERTEX
  5
BCB
  8
0
 10
10.3866163780294
 20
28.31900144420422
 30
-32.0105405481137
 70
   192
  0
VERTEX
  5
BCC
  8
0
 10
14.53157542285956
 20
28.44795345104137
 30
-21.48829314182934
 70
   192
  0
VERTEX
  5
BCD
  8
0
 10
14.46572151557064
 20
28.5447055630766
 30
-21.49028709756411
 70
   192
  0
VERTEX
  5
BCE
  8
0
 10
9.975901113088046
 20
28.59788619348053
 30
-11.16409218038809
 70
   192
  0
VERTEX
  5
BCF
  8
0
 10
0.0144877703704756
 20
28.2253952211594
 30
-36.50236538627549
 70
   192
  0
VERTEX
  5
BD0
  8
0
 10
10.3390037418965
 20
28.41632105244325
 30
-31.96622785376267
 70
   192
  0
VERTEX
  5
BD1
  8
0
 10
14.36785539810459
 20
28.60888314092182
 30
-21.49255551154991
 70
   192
  0
VERTEX
  5
BD2
  8
0
 10
9.90773706532567
 20
28.66171195885898
 30
-11.23467276138933
 70
   192
  0
VERTEX
  5
BD3
  8
0
 10
-0.4997059728098079
 20
28.59184021038469
 30
-7.099131467364544
 70
   192
  0
VERTEX
  5
BD4
  8
0
 10
10.26843761596091
 20
28.48134794837736
 30
-31.89919346838035
 70
   192
  0
VERTEX
  5
BD5
  8
0
 10
13.4651331188662
 20
28.66362430641801
 30
-17.02719077186459
 70
   192
  0
VERTEX
  5
BD6
  8
0
 10
0.0086677378484231
 20
28.37765101872472
 30
-36.24393880225366
 70
   192
  0
VERTEX
  5
BD7
  8
0
 10
8.481614371817724
 20
28.4761894450345
 30
-33.32712215012166
 70
   192
  0
VERTEX
  5
BD8
  8
0
 10
-0.500680935872445
 20
28.48299919146947
 30
-6.988369969689024
 70
   192
  0
VERTEX
  5
BD9
  8
0
 10
0.0116300649073457
 20
28.33615272028228
 30
-36.39355345114734
 70
   192
  0
VERTEX
  5
BDA
  8
0
 10
8.07217045416692
 20
28.68092699512006
 30
-9.870095817942435
 70
   192
  0
VERTEX
  5
BDB
  8
0
 10
-0.4974327773200193
 20
28.63072054817743
 30
-7.249459705677205
 70
   192
  0
VERTEX
  5
BDC
  8
0
 10
8.664724112487148
 20
28.1756330561731
 30
-33.56405395462789
 70
   192
  0
VERTEX
  5
BDD
  8
0
 10
0.0164751343889869
 20
28.07505590380194
 30
-36.54121853749327
 70
   192
  0
VERTEX
  5
BDE
  8
0
 10
13.75135014395732
 20
28.36694588020593
 30
-16.92688261682067
 70
   192
  0
VERTEX
  5
BDF
  8
0
 10
13.62152677892189
 20
28.58542152105871
 30
-25.98697755575578
 70
   192
  0
VERTEX
  5
BE0
  8
0
 10
0.0
 20
0.0
 30
0.0
 70
   128
 71
     1
 72
     2
 73
     3
  0
VERTEX
  5
BE1
  8
0
 10
0.0
 20
0.0
 30
0.0
 70
   128
 71
     4
 72
     5
 73
     6
  0
VERTEX
  5
BE2
  8
0
 10
0.0
 20
0.0
 30
0.0
 70
   128
 71
     7
 72
     8
 73
    -1
  0
VERTEX
  5
BE3
  8
0
 10
0.0
 20
0.0
 30
0.0
 70
   128
 71
    -7
 72
     1
 73
     6
  0
VERTEX
  5
BE4
  8
0
 10
0.0
 20
0.0
 30
0.0
 70
   128
 71
     9
 72
    10
 73
     5
  0
VERTEX
  5
BE5
  8
0
 10
0.0
 20
0.0
 30
0.0
 70
   128
 71
    10
 72
     7
 73
    -6
  0
VERTEX
  5
BE6
  8
0
 10
0.0
 20
0.0
 30
0.0
 70
   128
 71
   -10
 72
     6
 73
     5
  0
VERTEX
  5
BE7
  8
0
 10
0.0
 20
0.0
 30
0.0
 70
   128
 71
    11
 72
    12
 73
    -8
  0
VERTEX
  5
BE8
  8
0
 10
0.0
 20
0.0
 30
0.0
 70
   128
 71
   -11
 72
     8
 73
     7
  0
VERTEX
  5
BE9
  8
0
 10
0.0
 20
0.0
 30
0.0
 70
   128
 71
    13
 72
     8
 73
    12
  0
VERTEX
  5
BEA
  8
0
 10
0.0
 20
0.0
 30
0.0
 70
   128
 71
    14
 72
    11
 73
    -7
  0
VERTEX
  5
BEB
  8
0
 10
0.0
 20
0.0
 30
0.0
 70
   128
 71
   -14
 72
     7
 73
    10
  0
VERTEX
  5
BEC
  8
0
 10
0.0
 20
0.0
 30
0.0
 70
   128
 71
    15
 72
    12
 73
    11
  0
VERTEX
  5
BED
  8
0
 10
0.0
 20
0.0
 30
0.0
 70
   128
 71
    14
 72
    16
 73
    17
  0
VERTEX
  5
BEE
  8
0
 10
0.0
 20
0.0
 30
0.0
 70
   128
 71
     1
 72
     8
 73
    13
  0
VERTEX
  5
BEF
  8
0
 10
0.0
 20
0.0
 30
0.0
 70
   128
 71
     1
 72
    13
 73
    18
  0
VERTEX
  5
BF0
  8
0
 10
0.0
 20
0.0
 30
0.0
 70
   128
 71
    19
 72
    14
 73
    10
  0
VERTEX
  5
BF1
  8
0
 10
0.0
 20
0.0
 30
0.0
 70
   128
 71
    19
 72
    10
 73
     9
  0
VERTEX
  5
BF2
  8
0
 10
0.0
 20
0.0
 30
0.0
 70
   128
 71
    13
 72
    12
 73
    20
  0
VERTEX
  5
BF3
  8
0
 10
0.0
 20
0.0
 30
0.0
 70
   128
 71
    13
 72
    20
 73
    21
  0
VERTEX
  5
BF4
  8
0
 10
0.0
 20
0.0
 30
0.0
 70
   128
 71
    19
 72
    16
 73
    14
  0
VERTEX
  5
BF5
  8
0
 10
0.0
 20
0.0
 30
0.0
 70
   128
 71
     1
 72
    18
 73
     2
  0
VERTEX
  5
BF6
  8
0
 10
0.0
 20
0.0
 30
0.0
 70
   128
 71
     9
 72
     5
 73
    22
  0
VERTEX
  5
BF7
  8
0
 10
0.0
 20
0.0
 30
0.0
 70
   128
 71
     9
 72
    22
 73
    23
  0
VERTEX
  5
BF8
  8
0
 10
0.0
 20
0.0
 30
0.0
 70
   128
 71
     4
 72
     6
 73
    24
  0
VERTEX
  5
BF9
  8
0
 10
0.0
 20
0.0
 30
0.0
 70
   128
 71
    24
 72
     6
 73
     1
  0
VERTEX
  5
BFA
  8
0
 10
0.0
 20
0.0
 30
0.0
 70
   128
 71
    24
 72
     1
 73
     3
  0
VERTEX
  5
BFB
  8
0
 10
0.0
 20
0.0
 30
0.0
 70
   128
 71
    22
 72
     5
 73
     4
  0
VERTEX
  5
BFC
  8
0
 10
0.0
 20
0.0
 30
0.0
 70
   128
 71
    25
 72
    15
 73
    11
  0
VERTEX
  5
BFD
  8
0
 10
0.0
 20
0.0
 30
0.0
 70
   128
 71
    15
 72
    20
 73
    12
  0
VERTEX
  5
BFE
  8
0
 10
0.0
 20
0.0
 30
0.0
 70
   128
 71
    17
 72
    25
 73
    11
  0
VERTEX
  5
BFF
  8
0
 10
0.0
 20
0.0
 30
0.0
 70
   128
 71
    17
 72
    11
 73
    14
  0
SEQEND
  5
FD0
  8
0
  0
POLYLINE
  5
C00
  8
0
 66
     1
 10
0.0
 20
0.0
 30
0.0
 70
    64
 71
    25
 72
    32
  0
VERTEX
  5
C01
  8
0
 10
-10.50749845055305
 20
28.13664067739223
 30
-32.3736569983254
 70
   192
  0
VERTEX
  5
C02
  8
0
 10
0.0164751343667612
 20
28.07505590380174
 30
-36.54121853749366
 70
   192
  0
VERTEX
  5
C03
  8
0
 10
-8.73043023292182
 20
28.02381070278464
 30
-33.8663623677329
 70
   192
  0
VERTEX
  5
C04
  8
0
 10
-14.39460082646482
 20
28.12129215217139
 30
-17.41602790430963
 70
   192
  0
VERTEX
  5
C05
  8
0
 10
-10.87220609668346
 20
28.31900838820815
 30
-11.47956994415534
 70
   192
  0
VERTEX
  5
C06
  8
0
 10
-15.01716514151363
 20
28.190056381371
 30
-22.0018173504397
 70
   192
  0
VERTEX
  5
C07
  8
0
 10
-14.95297998614252
 20
28.28794345525442
 30
-22.00155137206338
 70
   192
  0
VERTEX
  5
C08
  8
0
 10
-10.46315958365993
 20
28.2347628248505
 30
-32.3277462892394
 70
   192
  0
VERTEX
  5
C09
  8
0
 10
-0.500680935872445
 20
28.48299919146947
 30
-6.988369969689024
 70
   192
  0
VERTEX
  5
C0A
  8
0
 10
-10.82626221246839
 20
28.41632796588778
 30
-11.52561061586481
 70
   192
  0
VERTEX
  5
C0B
  8
0
 10
-14.85622889305995
 20
28.35381962354205
 30
-22.0004375556353
 70
   192
  0
VERTEX
  5
C0C
  8
0
 10
-10.39611056028103
 20
28.3009908056049
 30
-32.25832030579588
 70
   192
  0
VERTEX
  5
C0D
  8
0
 10
0.0116300649073457
 20
28.33615272028228
 30
-36.39355345114734
 70
   192
  0
VERTEX
  5
C0E
  8
0
 10
-10.75681111091627
 20
28.48135481608652
 30
-11.59379959880485
 70
   192
  0
VERTEX
  5
C0F
  8
0
 10
-13.95389815831602
 20
28.34474726048433
 30
-26.4662077360659
 70
   192
  0
VERTEX
  5
C10
  8
0
 10
-0.4974327772982477
 20
28.63072054817762
 30
-7.24945970567683
 70
   192
  0
VERTEX
  5
C11
  8
0
 10
-8.970379411267546
 20
28.53218212186784
 30
-10.16627635780883
 70
   192
  0
VERTEX
  5
C12
  8
0
 10
0.0144877703704756
 20
28.2253952211594
 30
-36.50236538627549
 70
   192
  0
VERTEX
  5
C13
  8
0
 10
-0.4997059728098079
 20
28.59184021038469
 30
-7.099131467364544
 70
   192
  0
VERTEX
  5
C14
  8
0
 10
-8.560935493616743
 20
28.32744457178228
 30
-33.62330268998806
 70
   192
  0
VERTEX
  5
C15
  8
0
 10
0.0086677378701981
 20
28.37765101872491
 30
-36.24393880225329
 70
   192
  0
VERTEX
  5
C16
  8
0
 10
-9.14834540404126
 20
28.23278420218232
 30
-9.924018249370658
 70
   192
  0
VERTEX
  5
C17
  8
0
 10
-0.5000964259430977
 20
28.33336135455348
 30
-6.946853666505271
 70
   192
  0
VERTEX
  5
C18
  8
0
 10
-14.23497143551143
 20
28.04147137814949
 30
-26.56118958717787
 70
   192
  0
VERTEX
  5
C19
  8
0
 10
-14.11029181837172
 20
28.42295004584363
 30
-17.50642095217472
 70
   192
  0
VERTEX
  5
C1A
  8
0
 10
0.0
 20
0.0
 30
0.0
 70
   128
 71
     1
 72
     2
 73
     3
  0
VERTEX
  5
C1B
  8
0
 10
0.0
 20
0.0
 30
0.0
 70
   128
 71
     4
 72
     5
 73
     6
  0
VERTEX
  5
C1C
  8
0
 10
0.0
 20
0.0
 30
0.0
 70
   128
 71
     7
 72
     8
 73
    -1
  0
VERTEX
  5
C1D
  8
0
 10
0.0
 20
0.0
 30
0.0
 70
   128
 71
    -7
 72
     1
 73
     6
  0
VERTEX
  5
C1E
  8
0
 10
0.0
 20
0.0
 30
0.0
 70
   128
 71
     9
 72
    10
 73
     5
  0
VERTEX
  5
C1F
  8
0
 10
0.0
 20
0.0
 30
0.0
 70
   128
 71
    10
 72
     7
 73
    -6
  0
VERTEX
  5
C20
  8
0
 10
0.0
 20
0.0
 30
0.0
 70
   128
 71
   -10
 72
     6
 73
     5
  0
VERTEX
  5
C21
  8
0
 10
0.0
 20
0.0
 30
0.0
 70
   128
 71
    11
 72
    12
 73
    -8
  0
VERTEX
  5
C22
  8
0
 10
0.0
 20
0.0
 30
0.0
 70
   128
 71
   -11
 72
     8
 73
     7
  0
VERTEX
  5
C23
  8
0
 10
0.0
 20
0.0
 30
0.0
 70
   128
 71
    13
 72
     8
 73
    12
  0
VERTEX
  5
C24
  8
0
 10
0.0
 20
0.0
 30
0.0
 70
   128
 71
    14
 72
    11
 73
    -7
  0
VERTEX
  5
C25
  8
0
 10
0.0
 20
0.0
 30
0.0
 70
   128
 71
   -14
 72
     7
 73
    10
  0
VERTEX
  5
C26
  8
0
 10
0.0
 20
0.0
 30
0.0
 70
   128
 71
    15
 72
    12
 73
    11
  0
VERTEX
  5
C27
  8
0
 10
0.0
 20
0.0
 30
0.0
 70
   128
 71
    14
 72
    16
 73
    17
  0
VERTEX
  5
C28
  8
0
 10
0.0
 20
0.0
 30
0.0
 70
   128
 71
     1
 72
     8
 73
    13
  0
VERTEX
  5
C29
  8
0
 10
0.0
 20
0.0
 30
0.0
 70
   128
 71
     1
 72
    13
 73
    18
  0
VERTEX
  5
C2A
  8
0
 10
0.0
 20
0.0
 30
0.0
 70
   128
 71
    19
 72
    14
 73
    10
  0
VERTEX
  5
C2B
  8
0
 10
0.0
 20
0.0
 30
0.0
 70
   128
 71
    19
 72
    10
 73
     9
  0
VERTEX
  5
C2C
  8
0
 10
0.0
 20
0.0
 30
0.0
 70
   128
 71
    13
 72
    12
 73
    20
  0
VERTEX
  5
C2D
  8
0
 10
0.0
 20
0.0
 30
0.0
 70
   128
 71
    13
 72
    20
 73
    21
  0
VERTEX
  5
C2E
  8
0
 10
0.0
 20
0.0
 30
0.0
 70
   128
 71
    16
 72
    14
 73
    19
  0
VERTEX
  5
C2F
  8
0
 10
0.0
 20
0.0
 30
0.0
 70
   128
 71
     1
 72
    18
 73
     2
  0
VERTEX
  5
C30
  8
0
 10
0.0
 20
0.0
 30
0.0
 70
   128
 71
     9
 72
     5
 73
    22
  0
VERTEX
  5
C31
  8
0
 10
0.0
 20
0.0
 30
0.0
 70
   128
 71
     9
 72
    22
 73
    23
  0
VERTEX
  5
C32
  8
0
 10
0.0
 20
0.0
 30
0.0
 70
   128
 71
     4
 72
     6
 73
    24
  0
VERTEX
  5
C33
  8
0
 10
0.0
 20
0.0
 30
0.0
 70
   128
 71
    24
 72
     6
 73
     1
  0
VERTEX
  5
C34
  8
0
 10
0.0
 20
0.0
 30
0.0
 70
   128
 71
    24
 72
     1
 73
     3
  0
VERTEX
  5
C35
  8
0
 10
0.0
 20
0.0
 30
0.0
 70
   128
 71
    22
 72
     5
 73
     4
  0
VERTEX
  5
C36
  8
0
 10
0.0
 20
0.0
 30
0.0
 70
   128
 71
    25
 72
    15
 73
    11
  0
VERTEX
  5
C37
  8
0
 10
0.0
 20
0.0
 30
0.0
 70
   128
 71
    15
 72
    20
 73
    12
  0
VERTEX
  5
C38
  8
0
 10
0.0
 20
0.0
 30
0.0
 70
   128
 71
    17
 72
    25
 73
    11
  0
VERTEX
  5
C39
  8
0
 10
0.0
 20
0.0
 30
0.0
 70
   128
 71
    17
 72
    11
 73
    14
  0
SEQEND
  5
FD1
  8
0
  0
POLYLINE
  5
C3A
  8
0
 66
     1
 10
0.0
 20
0.0
 30
0.0
 70
    64
 71
    10
 72
     8
  0
VERTEX
  5
C3B
  8
0
 10
-0.4974327773200196
 20
28.63072054817743
 30
-7.249459705677205
 70
   192
  0
VERTEX
  5
C3C
  8
0
 10
-8.970379411267546
 20
28.53218212186784
 30
-10.16627635780883
 70
   192
  0
VERTEX
  5
C3D
  8
0
 10
-14.11029181837172
 20
28.42295004584363
 30
-17.50642095217472
 70
   192
  0
VERTEX
  5
C3E
  8
0
 10
-13.95389815831602
 20
28.34474726048433
 30
-26.4662077360659
 70
   192
  0
VERTEX
  5
C3F
  8
0
 10
-8.560935493616743
 20
28.32744457178228
 30
-33.62330268998806
 70
   192
  0
VERTEX
  5
C40
  8
0
 10
0.0086677378701983
 20
28.37765101872491
 30
-36.24393880225329
 70
   192
  0
VERTEX
  5
C41
  8
0
 10
8.481614371817724
 20
28.4761894450345
 30
-33.32712215012166
 70
   192
  0
VERTEX
  5
C42
  8
0
 10
13.62152677892189
 20
28.58542152105871
 30
-25.98697755575578
 70
   192
  0
VERTEX
  5
C43
  8
0
 10
13.4651331188662
 20
28.66362430641801
 30
-17.02719077186459
 70
   192
  0
VERTEX
  5
C44
  8
0
 10
8.07217045416692
 20
28.68092699512006
 30
-9.870095817942435
 70
   192
  0
VERTEX
  5
C45
  8
0
 10
0.0
 20
0.0
 30
0.0
 70
   128
 71
     1
 72
    10
 73
    -9
  0
VERTEX
  5
C46
  8
0
 10
0.0
 20
0.0
 30
0.0
 70
   128
 71
    -1
 72
     9
 73
    -8
  0
VERTEX
  5
C47
  8
0
 10
0.0
 20
0.0
 30
0.0
 70
   128
 71
    -1
 72
     8
 73
    -7
  0
VERTEX
  5
C48
  8
0
 10
0.0
 20
0.0
 30
0.0
 70
   128
 71
    -1
 72
     7
 73
    -6
  0
VERTEX
  5
C49
  8
0
 10
0.0
 20
0.0
 30
0.0
 70
   128
 71
    -1
 72
     6
 73
    -5
  0
VERTEX
  5
C4A
  8
0
 10
0.0
 20
0.0
 30
0.0
 70
   128
 71
    -1
 72
     5
 73
    -4
  0
VERTEX
  5
C4B
  8
0
 10
0.0
 20
0.0
 30
0.0
 70
   128
 71
    -1
 72
     4
 73
    -3
  0
VERTEX
  5
C4C
  8
0
 10
0.0
 20
0.0
 30
0.0
 70
   128
 71
    -1
 72
     3
 73
     2
  0
SEQEND
  5
FD2
  8
0
  0
POLYLINE
  5
C4D
  8
0
 66
     1
 10
0.0
 20
0.0
 30
0.0
 70
    64
 71
    20
 72
    18
  0
VERTEX
  5
C4E
  8
0
 10
12.33932994375359
 20
21.38956432042751
 30
-29.57169307384285
 70
   192
  0
VERTEX
  5
C4F
  8
0
 10
13.09670144723911
 20
22.58622291211522
 30
-28.20644048551179
 70
   192
  0
VERTEX
  5
C50
  8
0
 10
14.58496687629865
 20
24.88361915278411
 30
-21.45625097813968
 70
   192
  0
VERTEX
  5
C51
  8
0
 10
14.58496577458834
 20
24.88361914322991
 30
-21.45625099139857
 70
   192
  0
VERTEX
  5
C52
  8
0
 10
14.62643605646065
 20
24.7339796113838
 30
-21.45422103653813
 70
   192
  0
VERTEX
  5
C53
  8
0
 10
14.73716533068309
 20
24.62513746936331
 30
-21.45133825368303
 70
   192
  0
VERTEX
  5
C54
  8
0
 10
14.88748319038514
 20
24.58625745848081
 30
-21.44837509746036
 70
   192
  0
VERTEX
  5
C55
  8
0
 10
13.36509985423648
 20
22.34559357210712
 30
-28.16072161536906
 70
   192
  0
VERTEX
  5
C56
  8
0
 10
14.82532762448121
 20
1.535749695904024
 30
-21.24827066911323
 70
   192
  0
VERTEX
  5
C57
  8
0
 10
14.78642924321771
 20
1.385408725082534
 30
-21.24763743223488
 70
   192
  0
VERTEX
  5
C58
  8
0
 10
13.29989402590036
 20
3.479209468439181
 30
-27.95583649937004
 70
   192
  0
VERTEX
  5
C59
  8
0
 10
13.56492065472908
 20
3.726694545838468
 30
-27.91494511951815
 70
   192
  0
VERTEX
  5
C5A
  8
0
 10
15.0838028725777
 20
1.688004763534071
 30
-21.24508786826818
 70
   192
  0
VERTEX
  5
C5B
  8
0
 10
14.93417413333566
 20
1.646508258596668
 30
-21.24733746931087
 70
   192
  0
VERTEX
  5
C5C
  8
0
 10
10.89750346306676
 20
7.430172699134016
 30
-31.50401032520339
 70
   192
  0
VERTEX
  5
C5D
  8
0
 10
9.38413195289782
 20
12.92144561389905
 30
-32.9611983133376
 70
   192
  0
VERTEX
  5
C5E
  8
0
 10
9.571348577935696
 20
12.92541376341754
 30
-32.89139839382521
 70
   192
  0
VERTEX
  5
C5F
  8
0
 10
11.11364888547089
 20
7.575056359765635
 30
-31.44348486341501
 70
   192
  0
VERTEX
  5
C60
  8
0
 10
10.94442799310632
 20
18.29760780032674
 30
-31.62108631469139
 70
   192
  0
VERTEX
  5
C61
  8
0
 10
10.7272910701364
 20
18.43353594554331
 30
-31.68469857406073
 70
   192
  0
VERTEX
  5
C62
  8
0
 10
0.0
 20
0.0
 30
0.0
 70
   128
 71
     1
 72
     2
 73
     3
  0
VERTEX
  5
C63
  8
0
 10
0.0
 20
0.0
 30
0.0
 70
   128
 71
     1
 72
     3
 73
     4
  0
VERTEX
  5
C64
  8
0
 10
0.0
 20
0.0
 30
0.0
 70
   128
 71
     1
 72
     4
 73
     5
  0
VERTEX
  5
C65
  8
0
 10
0.0
 20
0.0
 30
0.0
 70
   128
 71
     6
 72
     7
 73
     8
  0
VERTEX
  5
C66
  8
0
 10
0.0
 20
0.0
 30
0.0
 70
   128
 71
     9
 72
    10
 73
    11
  0
VERTEX
  5
C67
  8
0
 10
0.0
 20
0.0
 30
0.0
 70
   128
 71
    12
 72
    13
 73
    14
  0
VERTEX
  5
C68
  8
0
 10
0.0
 20
0.0
 30
0.0
 70
   128
 71
    15
 72
    16
 73
    17
  0
VERTEX
  5
C69
  8
0
 10
0.0
 20
0.0
 30
0.0
 70
   128
 71
    15
 72
    17
 73
    18
  0
VERTEX
  5
C6A
  8
0
 10
0.0
 20
0.0
 30
0.0
 70
   128
 71
    17
 72
    16
 73
    19
  0
VERTEX
  5
C6B
  8
0
 10
0.0
 20
0.0
 30
0.0
 70
   128
 71
     5
 72
     6
 73
     8
  0
VERTEX
  5
C6C
  8
0
 10
0.0
 20
0.0
 30
0.0
 70
   128
 71
     5
 72
     8
 73
    19
  0
VERTEX
  5
C6D
  8
0
 10
0.0
 20
0.0
 30
0.0
 70
   128
 71
     5
 72
    19
 73
    16
  0
VERTEX
  5
C6E
  8
0
 10
0.0
 20
0.0
 30
0.0
 70
   128
 71
     5
 72
    16
 73
    20
  0
VERTEX
  5
C6F
  8
0
 10
0.0
 20
0.0
 30
0.0
 70
   128
 71
    20
 72
     1
 73
     5
  0
VERTEX
  5
C70
  8
0
 10
0.0
 20
0.0
 30
0.0
 70
   128
 71
    12
 72
    15
 73
    18
  0
VERTEX
  5
C71
  8
0
 10
0.0
 20
0.0
 30
0.0
 70
   128
 71
    12
 72
    14
 73
     9
  0
VERTEX
  5
C72
  8
0
 10
0.0
 20
0.0
 30
0.0
 70
   128
 71
    12
 72
     9
 73
    11
  0
VERTEX
  5
C73
  8
0
 10
0.0
 20
0.0
 30
0.0
 70
   128
 71
    12
 72
    11
 73
    15
  0
SEQEND
  5
FD3
  8
0
  0
POLYLINE
  5
C74
  8
0
 66
     1
 10
0.0
 20
0.0
 30
0.0
 70
    64
 71
    12
 72
    10
  0
VERTEX
  5
C75
  8
0
 10
13.36509985423648
 20
22.34559357210712
 30
-28.16072161536906
 70
   192
  0
VERTEX
  5
C76
  8
0
 10
14.88748317844236
 20
24.58625886496721
 30
-21.44837511723203
 70
   192
  0
VERTEX
  5
C77
  8
0
 10
20.78636779289162
 20
24.63774446835296
 30
-21.34585907975111
 70
   192
  0
VERTEX
  5
C78
  8
0
 10
20.95641395472371
 20
21.21371921649079
 30
-29.41091963851023
 70
   192
  0
VERTEX
  5
C79
  8
0
 10
11.11364888547089
 20
7.575056359765635
 30
-31.44348486341501
 70
   192
  0
VERTEX
  5
C7A
  8
0
 10
21.08435009335873
 20
13.08869758212423
 30
-32.69203564141045
 70
   192
  0
VERTEX
  5
C7B
  8
0
 10
21.09523295390196
 20
5.022207044088272
 30
-29.26717383367219
 70
   192
  0
VERTEX
  5
C7C
  8
0
 10
20.98268750424459
 20
1.739488358810139
 30
-21.1425718130149
 70
   192
  0
VERTEX
  5
C7D
  8
0
 10
15.0838028725777
 20
1.688004763534071
 30
-21.24508786826818
 70
   192
  0
VERTEX
  5
C7E
  8
0
 10
13.56492065472908
 20
3.726694545838468
 30
-27.91494511951815
 70
   192
  0
VERTEX
  5
C7F
  8
0
 10
10.94442799310632
 20
18.29760780032674
 30
-31.62108631469139
 70
   192
  0
VERTEX
  5
C80
  8
0
 10
9.571348577935696
 20
12.92541376341754
 30
-32.89139839382521
 70
   192
  0
VERTEX
  5
C81
  8
0
 10
0.0
 20
0.0
 30
0.0
 70
   128
 71
     1
 72
     2
 73
     3
  0
VERTEX
  5
C82
  8
0
 10
0.0
 20
0.0
 30
0.0
 70
   128
 71
     1
 72
     3
 73
     4
  0
VERTEX
  5
C83
  8
0
 10
0.0
 20
0.0
 30
0.0
 70
   128
 71
     5
 72
     6
 73
     7
  0
VERTEX
  5
C84
  8
0
 10
0.0
 20
0.0
 30
0.0
 70
   128
 71
     7
 72
     8
 73
     9
  0
VERTEX
  5
C85
  8
0
 10
0.0
 20
0.0
 30
0.0
 70
   128
 71
     7
 72
     9
 73
    10
  0
VERTEX
  5
C86
  8
0
 10
0.0
 20
0.0
 30
0.0
 70
   128
 71
    11
 72
     1
 73
     4
  0
VERTEX
  5
C87
  8
0
 10
0.0
 20
0.0
 30
0.0
 70
   128
 71
    11
 72
     4
 73
     6
  0
VERTEX
  5
C88
  8
0
 10
0.0
 20
0.0
 30
0.0
 70
   128
 71
    11
 72
     6
 73
     5
  0
VERTEX
  5
C89
  8
0
 10
0.0
 20
0.0
 30
0.0
 70
   128
 71
    11
 72
     5
 73
    12
  0
VERTEX
  5
C8A
  8
0
 10
0.0
 20
0.0
 30
0.0
 70
   128
 71
     5
 72
     7
 73
    10
  0
SEQEND
  5
FD4
  8
0
  0
POLYLINE
  5
C8B
  8
0
 66
     1
 10
0.0
 20
0.0
 30
0.0
 70
    64
 71
    12
 72
    10
  0
VERTEX
  5
C8C
  8
0
 10
-0.4671216656776322
 20
27.12210824131177
 30
-8.235953569867196
 70
   192
  0
VERTEX
  5
C8D
  8
0
 10
-0.1370645090362066
 20
-11.37495989044877
 30
-7.894182400900236
 70
   192
  0
VERTEX
  5
C8E
  8
0
 10
-8.025669995814935
 20
-11.46670256321976
 30
-10.60983928391934
 70
   192
  0
VERTEX
  5
C8F
  8
0
 10
-8.35572715245636
 20
27.03036556854078
 30
-10.9516104528863
 70
   192
  0
VERTEX
  5
C90
  8
0
 10
0.3341325223477892
 20
-11.61057634890456
 30
-34.88904224943659
 70
   192
  0
VERTEX
  5
C91
  8
0
 10
0.0040753657063635
 20
26.88649178285598
 30
-35.23081341840354
 70
   192
  0
VERTEX
  5
C92
  8
0
 10
-7.974520746367682
 20
26.8397478494956
 30
-32.79091083112212
 70
   192
  0
VERTEX
  5
C93
  8
0
 10
-7.644463589726256
 20
-11.65732028226494
 30
-32.44913966215516
 70
   192
  0
VERTEX
  5
C94
  8
0
 10
-12.99555495143253
 20
26.85585724932165
 30
-26.12740863264287
 70
   192
  0
VERTEX
  5
C95
  8
0
 10
-13.14116284182921
 20
26.92866673913893
 30
-17.78553817867522
 70
   192
  0
VERTEX
  5
C96
  8
0
 10
-12.81110568518778
 20
-11.56840139262161
 30
-17.44376700970826
 70
   192
  0
VERTEX
  5
C97
  8
0
 10
-12.6654977947911
 20
-11.64121088243889
 30
-25.78563746367591
 70
   192
  0
VERTEX
  5
C98
  8
0
 10
0.0
 20
0.0
 30
0.0
 70
   128
 71
     1
 72
     2
 73
    -3
  0
VERTEX
  5
C99
  8
0
 10
0.0
 20
0.0
 30
0.0
 70
   128
 71
     4
 72
    -1
 73
     3
  0
VERTEX
  5
C9A
  8
0
 10
0.0
 20
0.0
 30
0.0
 70
   128
 71
     5
 72
     6
 73
    -7
  0
VERTEX
  5
C9B
  8
0
 10
0.0
 20
0.0
 30
0.0
 70
   128
 71
     8
 72
    -5
 73
     7
  0
VERTEX
  5
C9C
  8
0
 10
0.0
 20
0.0
 30
0.0
 70
   128
 71
     9
 72
    10
 73
   -11
  0
VERTEX
  5
C9D
  8
0
 10
0.0
 20
0.0
 30
0.0
 70
   128
 71
    12
 72
    -9
 73
    11
  0
VERTEX
  5
C9E
  8
0
 10
0.0
 20
0.0
 30
0.0
 70
   128
 71
    10
 72
     4
 73
    -3
  0
VERTEX
  5
C9F
  8
0
 10
0.0
 20
0.0
 30
0.0
 70
   128
 71
    11
 72
   -10
 73
     3
  0
VERTEX
  5
CA0
  8
0
 10
0.0
 20
0.0
 30
0.0
 70
   128
 71
     7
 72
     9
 73
   -12
  0
VERTEX
  5
CA1
  8
0
 10
0.0
 20
0.0
 30
0.0
 70
   128
 71
     8
 72
    -7
 73
    12
  0
SEQEND
  5
FD5
  8
0
  0
POLYLINE
  5
CA2
  8
0
 66
     1
 10
0.0
 20
0.0
 30
0.0
 70
    64
 71
    10
 72
     8
  0
VERTEX
  5
CA3
  8
0
 10
0.0040753657063635
 20
26.88649178285598
 30
-35.23081341840354
 70
   192
  0
VERTEX
  5
CA4
  8
0
 10
7.892680852485091
 20
26.97823445562697
 30
-32.51515653538443
 70
   192
  0
VERTEX
  5
CA5
  8
0
 10
12.67811654185794
 20
27.07993328502882
 30
-25.68122880959551
 70
   192
  0
VERTEX
  5
CA6
  8
0
 10
12.53250865146126
 20
27.1527427748461
 30
-17.33935835562786
 70
   192
  0
VERTEX
  5
CA7
  8
0
 10
7.511474446396413
 20
27.16885217467215
 30
-10.67585615714861
 70
   192
  0
VERTEX
  5
CA8
  8
0
 10
-0.4671216656776322
 20
27.12210824131177
 30
-8.235953569867196
 70
   192
  0
VERTEX
  5
CA9
  8
0
 10
-8.35572715245636
 20
27.03036556854078
 30
-10.9516104528863
 70
   192
  0
VERTEX
  5
CAA
  8
0
 10
-13.14116284182921
 20
26.92866673913893
 30
-17.78553817867522
 70
   192
  0
VERTEX
  5
CAB
  8
0
 10
-12.99555495143253
 20
26.85585724932165
 30
-26.12740863264287
 70
   192
  0
VERTEX
  5
CAC
  8
0
 10
-7.974520746367682
 20
26.8397478494956
 30
-32.79091083112212
 70
   192
  0
VERTEX
  5
CAD
  8
0
 10
0.0
 20
0.0
 30
0.0
 70
   128
 71
     9
 72
    10
 73
    -1
  0
VERTEX
  5
CAE
  8
0
 10
0.0
 20
0.0
 30
0.0
 70
   128
 71
     8
 72
    -9
 73
    -1
  0
VERTEX
  5
CAF
  8
0
 10
0.0
 20
0.0
 30
0.0
 70
   128
 71
     7
 72
    -8
 73
    -1
  0
VERTEX
  5
CB0
  8
0
 10
0.0
 20
0.0
 30
0.0
 70
   128
 71
     6
 72
    -7
 73
    -1
  0
VERTEX
  5
CB1
  8
0
 10
0.0
 20
0.0
 30
0.0
 70
   128
 71
     5
 72
    -6
 73
    -1
  0
VERTEX
  5
CB2
  8
0
 10
0.0
 20
0.0
 30
0.0
 70
   128
 71
     4
 72
    -5
 73
    -1
  0
VERTEX
  5
CB3
  8
0
 10
0.0
 20
0.0
 30
0.0
 70
   128
 71
     3
 72
    -4
 73
    -1
  0
VERTEX
  5
CB4
  8
0
 10
0.0
 20
0.0
 30
0.0
 70
   128
 71
     2
 72
    -3
 73
     1
  0
SEQEND
  5
FD6
  8
0
  0
POLYLINE
  5
CB5
  8
0
 66
     1
 10
0.0
 20
0.0
 30
0.0
 70
    64
 71
    12
 72
    10
  0
VERTEX
  5
CB6
  8
0
 10
0.0985340066557906
 20
-11.60373686281562
 30
-33.89111975298516
 70
   192
  0
VERTEX
  5
CB7
  8
0
 10
0.1842631382509668
 20
-21.60297533859757
 30
-33.80234802078596
 70
   192
  0
VERTEX
  5
CB8
  8
0
 10
7.531308792051544
 20
-21.51879677753506
 30
-31.41571369842812
 70
   192
  0
VERTEX
  5
CB9
  8
0
 10
7.445579660456369
 20
-11.5195583017531
 30
-31.50448543062733
 70
   192
  0
VERTEX
  5
CBA
  8
0
 10
0.1842631382509685
 20
-21.38103785231967
 30
-8.803333165152447
 70
   192
  0
VERTEX
  5
CBB
  8
0
 10
0.0985340066557929
 20
-11.38179937653771
 30
-8.892104897351656
 70
   192
  0
VERTEX
  5
CBC
  8
0
 10
7.445579660456371
 20
-11.34000710366542
 30
-11.27985756978805
 70
   192
  0
VERTEX
  5
CBD
  8
0
 10
7.531308792051546
 20
-21.33924557944738
 30
-11.19108583758884
 70
   192
  0
VERTEX
  5
CBE
  8
0
 10
11.98630359140232
 20
-11.35656434675346
 30
-17.52995687287637
 70
   192
  0
VERTEX
  5
CBF
  8
0
 10
11.98630359140232
 20
-11.42514680170219
 30
-25.25507730589889
 70
   192
  0
VERTEX
  5
CC0
  8
0
 10
12.0720327229975
 20
-21.42438527748415
 30
-25.16630557369968
 70
   192
  0
VERTEX
  5
CC1
  8
0
 10
12.0720327229975
 20
-21.35580282253542
 30
-17.44118514067716
 70
   192
  0
VERTEX
  5
CC2
  8
0
 10
0.0
 20
0.0
 30
0.0
 70
   128
 71
     1
 72
     2
 73
    -3
  0
VERTEX
  5
CC3
  8
0
 10
0.0
 20
0.0
 30
0.0
 70
   128
 71
     4
 72
    -1
 73
     3
  0
VERTEX
  5
CC4
  8
0
 10
0.0
 20
0.0
 30
0.0
 70
   128
 71
     5
 72
     6
 73
    -7
  0
VERTEX
  5
CC5
  8
0
 10
0.0
 20
0.0
 30
0.0
 70
   128
 71
     8
 72
    -5
 73
     7
  0
VERTEX
  5
CC6
  8
0
 10
0.0
 20
0.0
 30
0.0
 70
   128
 71
     9
 72
    10
 73
   -11
  0
VERTEX
  5
CC7
  8
0
 10
0.0
 20
0.0
 30
0.0
 70
   128
 71
    12
 72
    -9
 73
    11
  0
VERTEX
  5
CC8
  8
0
 10
0.0
 20
0.0
 30
0.0
 70
   128
 71
    10
 72
     4
 73
    -3
  0
VERTEX
  5
CC9
  8
0
 10
0.0
 20
0.0
 30
0.0
 70
   128
 71
    11
 72
   -10
 73
     3
  0
VERTEX
  5
CCA
  8
0
 10
0.0
 20
0.0
 30
0.0
 70
   128
 71
     7
 72
     9
 73
   -12
  0
VERTEX
  5
CCB
  8
0
 10
0.0
 20
0.0
 30
0.0
 70
   128
 71
     8
 72
    -7
 73
    12
  0
SEQEND
  5
FD7
  8
0
  0
ENDBLK
  5
FB2
  8
0
  0
BLOCK
  8
0
  2
*X2
 70
     1
 10
0.0
 20
0.0
 30
0.0
  3
*X2
  1

  0
POLYLINE
  5
CCD
  8
0
 66
     1
 10
0.0
 20
0.0
 30
0.0
 70
    64
 71
    18
 72
    16
  0
VERTEX
  5
CCE
  8
0
 10
29.54254550507463
 20
19.92204399806305
 30
-27.87065338549807
 70
   192
  0
VERTEX
  5
CCF
  8
0
 10
23.00615421021203
 20
16.7646930343212
 30
-30.01692179821757
 70
   192
  0
VERTEX
  5
CD0
  8
0
 10
22.94379321482297
 20
19.86445105824024
 30
-27.98533235122877
 70
   192
  0
VERTEX
  5
CD1
  8
0
 10
29.60490650044159
 20
16.82228597464109
 30
-29.90224283146438
 70
   192
  0
VERTEX
  5
CD2
  8
0
 10
29.64869339298844
 20
13.18075967402631
 30
-30.59297670528638
 70
   192
  0
VERTEX
  5
CD3
  8
0
 10
23.04994110277342
 20
13.1231667327833
 30
-30.70765567241233
 70
   192
  0
VERTEX
  5
CD4
  8
0
 10
29.40145916996298
 20
22.76293831321884
 30
-21.17911842666868
 70
   192
  0
VERTEX
  5
CD5
  8
0
 10
22.87235201285037
 20
21.95053074477522
 30
-24.92217840834578
 70
   192
  0
VERTEX
  5
CD6
  8
0
 10
22.80270687967846
 20
22.7053453720106
 30
-21.2937973898129
 70
   192
  0
VERTEX
  5
CD7
  8
0
 10
29.47110430312334
 20
22.00812368485119
 30
-24.80749944396864
 70
   192
  0
VERTEX
  5
CD8
  8
0
 10
29.30808084922955
 20
20.03928525699489
 30
-14.4381822497627
 70
   192
  0
VERTEX
  5
CD9
  8
0
 10
22.74546065549795
 20
22.01398125536146
 30
-17.65257741434591
 70
   192
  0
VERTEX
  5
CDA
  8
0
 10
22.70932855900203
 20
19.98169231435628
 30
-14.5528612154684
 70
   192
  0
VERTEX
  5
CDB
  8
0
 10
29.34421294575133
 20
22.0715741977233
 30
-17.53789844998907
 70
   192
  0
VERTEX
  5
CDC
  8
0
 10
29.2985636645577
 20
16.97546905967741
 30
-12.35187351872531
 70
   192
  0
VERTEX
  5
CDD
  8
0
 10
22.69981137434392
 20
16.91787611751799
 30
-12.46655248546216
 70
   192
  0
VERTEX
  5
CDE
  8
0
 10
22.71835800661432
 20
13.28897090725219
 30
-11.7112728160349
 70
   192
  0
VERTEX
  5
CDF
  8
0
 10
29.31711029682933
 20
13.34656384849519
 30
-11.59659384890895
 70
   192
  0
VERTEX
  5
CE0
  8
0
 10
0.0
 20
0.0
 30
0.0
 70
   128
 71
    -1
 72
     2
 73
     3
  0
VERTEX
  5
CE1
  8
0
 10
0.0
 20
0.0
 30
0.0
 70
   128
 71
     4
 72
     5
 73
    -6
  0
VERTEX
  5
CE2
  8
0
 10
0.0
 20
0.0
 30
0.0
 70
   128
 71
    -4
 72
     6
 73
     2
  0
VERTEX
  5
CE3
  8
0
 10
0.0
 20
0.0
 30
0.0
 70
   128
 71
    -7
 72
     8
 73
     9
  0
VERTEX
  5
CE4
  8
0
 10
0.0
 20
0.0
 30
0.0
 70
   128
 71
   -10
 72
     3
 73
     8
  0
VERTEX
  5
CE5
  8
0
 10
0.0
 20
0.0
 30
0.0
 70
   128
 71
   -11
 72
    12
 73
    13
  0
VERTEX
  5
CE6
  8
0
 10
0.0
 20
0.0
 30
0.0
 70
   128
 71
   -14
 72
     9
 73
    12
  0
VERTEX
  5
CE7
  8
0
 10
0.0
 20
0.0
 30
0.0
 70
   128
 71
   -15
 72
    13
 73
    16
  0
VERTEX
  5
CE8
  8
0
 10
0.0
 20
0.0
 30
0.0
 70
   128
 71
    14
 72
     7
 73
    -9
  0
VERTEX
  5
CE9
  8
0
 10
0.0
 20
0.0
 30
0.0
 70
   128
 71
    15
 72
    11
 73
   -13
  0
VERTEX
  5
CEA
  8
0
 10
0.0
 20
0.0
 30
0.0
 70
   128
 71
    10
 72
     1
 73
    -3
  0
VERTEX
  5
CEB
  8
0
 10
0.0
 20
0.0
 30
0.0
 70
   128
 71
     1
 72
     4
 73
    -2
  0
VERTEX
  5
CEC
  8
0
 10
0.0
 20
0.0
 30
0.0
 70
   128
 71
     7
 72
    10
 73
    -8
  0
VERTEX
  5
CED
  8
0
 10
0.0
 20
0.0
 30
0.0
 70
   128
 71
    11
 72
    14
 73
   -12
  0
VERTEX
  5
CEE
  8
0
 10
0.0
 20
0.0
 30
0.0
 70
   128
 71
    17
 72
    18
 73
   -15
  0
VERTEX
  5
CEF
  8
0
 10
0.0
 20
0.0
 30
0.0
 70
   128
 71
   -17
 72
    15
 73
    16
  0
SEQEND
  5
FDA
  8
0
  0
POLYLINE
  5
CF0
  8
0
 66
     1
 10
0.0
 20
0.0
 30
0.0
 70
    64
 71
    18
 72
    16
  0
VERTEX
  5
CF1
  8
0
 10
29.42325818474315
 20
6.605279524458449
 30
-14.31891716869726
 70
   192
  0
VERTEX
  5
CF2
  8
0
 10
22.7621448991757
 20
9.647444605714302
 30
-12.40200669022967
 70
   192
  0
VERTEX
  5
CF3
  8
0
 10
22.82450589456478
 20
6.547686581795247
 30
-14.43359613721847
 70
   192
  0
VERTEX
  5
CF4
  8
0
 10
29.36089718937619
 20
9.705037547880396
 30
-12.28732772273095
 70
   192
  0
VERTEX
  5
CF5
  8
0
 10
29.31711029682933
 20
13.34656384849519
 30
-11.59659384890895
 70
   192
  0
VERTEX
  5
CF6
  8
0
 10
22.71835800661432
 20
13.28897090725219
 30
-11.7112728160349
 70
   192
  0
VERTEX
  5
CF7
  8
0
 10
29.5643445198548
 20
3.764385209302638
 30
-21.01045212752665
 70
   192
  0
VERTEX
  5
CF8
  8
0
 10
22.89594709653738
 20
4.461606895260278
 30
-17.49675008010147
 70
   192
  0
VERTEX
  5
CF9
  8
0
 10
22.96559222970929
 20
3.706792268024897
 30
-21.12513109863436
 70
   192
  0
VERTEX
  5
CFA
  8
0
 10
29.49469938669444
 20
4.51919983767029
 30
-17.38207111022667
 70
   192
  0
VERTEX
  5
CFB
  8
0
 10
29.65772284058824
 20
6.488038265526596
 30
-27.75138830443263
 70
   192
  0
VERTEX
  5
CFC
  8
0
 10
23.02283845388979
 20
4.398156384674055
 30
-24.76635107410134
 70
   192
  0
VERTEX
  5
CFD
  8
0
 10
23.05897055038572
 20
6.430445325679237
 30
-27.86606727297884
 70
   192
  0
VERTEX
  5
CFE
  8
0
 10
29.62159074406644
 20
4.455749324798179
 30
-24.65167210420624
 70
   192
  0
VERTEX
  5
CFF
  8
0
 10
29.66724002526008
 20
9.55185446284408
 30
-29.83769703547002
 70
   192
  0
VERTEX
  5
D00
  8
0
 10
23.06848773504383
 20
9.494261522517544
 30
-29.95237600298508
 70
   192
  0
VERTEX
  5
D01
  8
0
 10
23.04994110277342
 20
13.1231667327833
 30
-30.70765567241233
 70
   192
  0
VERTEX
  5
D02
  8
0
 10
29.64869339298844
 20
13.18075967402631
 30
-30.59297670528638
 70
   192
  0
VERTEX
  5
D03
  8
0
 10
0.0
 20
0.0
 30
0.0
 70
   128
 71
    -1
 72
     2
 73
     3
  0
VERTEX
  5
D04
  8
0
 10
0.0
 20
0.0
 30
0.0
 70
   128
 71
     4
 72
     5
 73
    -6
  0
VERTEX
  5
D05
  8
0
 10
0.0
 20
0.0
 30
0.0
 70
   128
 71
    -4
 72
     6
 73
     2
  0
VERTEX
  5
D06
  8
0
 10
0.0
 20
0.0
 30
0.0
 70
   128
 71
    -7
 72
     8
 73
     9
  0
VERTEX
  5
D07
  8
0
 10
0.0
 20
0.0
 30
0.0
 70
   128
 71
   -10
 72
     3
 73
     8
  0
VERTEX
  5
D08
  8
0
 10
0.0
 20
0.0
 30
0.0
 70
   128
 71
   -11
 72
    12
 73
    13
  0
VERTEX
  5
D09
  8
0
 10
0.0
 20
0.0
 30
0.0
 70
   128
 71
   -14
 72
     9
 73
    12
  0
VERTEX
  5
D0A
  8
0
 10
0.0
 20
0.0
 30
0.0
 70
   128
 71
   -15
 72
    13
 73
    16
  0
VERTEX
  5
D0B
  8
0
 10
0.0
 20
0.0
 30
0.0
 70
   128
 71
    14
 72
     7
 73
    -9
  0
VERTEX
  5
D0C
  8
0
 10
0.0
 20
0.0
 30
0.0
 70
   128
 71
    15
 72
    11
 73
   -13
  0
VERTEX
  5
D0D
  8
0
 10
0.0
 20
0.0
 30
0.0
 70
   128
 71
    10
 72
     1
 73
    -3
  0
VERTEX
  5
D0E
  8
0
 10
0.0
 20
0.0
 30
0.0
 70
   128
 71
     1
 72
     4
 73
    -2
  0
VERTEX
  5
D0F
  8
0
 10
0.0
 20
0.0
 30
0.0
 70
   128
 71
     7
 72
    10
 73
    -8
  0
VERTEX
  5
D10
  8
0
 10
0.0
 20
0.0
 30
0.0
 70
   128
 71
    11
 72
    14
 73
   -12
  0
VERTEX
  5
D11
  8
0
 10
0.0
 20
0.0
 30
0.0
 70
   128
 71
    17
 72
    18
 73
   -15
  0
VERTEX
  5
D12
  8
0
 10
0.0
 20
0.0
 30
0.0
 70
   128
 71
   -17
 72
    15
 73
    16
  0
SEQEND
  5
FDB
  8
0
  0
ENDBLK
  5
FD9
  8
0
  0
BLOCK
  8
0
  2
*X3
 70
     1
 10
0.0
 20
0.0
 30
0.0
  3
*X3
  1

  0
POLYLINE
  5
D14
  8
0
 66
     1
 10
0.0
 20
0.0
 30
0.0
 70
    64
 71
    10
 72
     8
  0
VERTEX
  5
D15
  8
0
 10
0.1842631382509643
 20
-21.38103785231967
 30
-8.803333165152454
 70
   192
  0
VERTEX
  5
D16
  8
0
 10
0.1842631382509691
 20
-21.60297533859758
 30
-33.80234802078597
 70
   192
  0
VERTEX
  5
D17
  8
0
 10
0.1868350121988243
 20
-21.90295249287103
 30
-33.79968486881999
 70
   192
  0
VERTEX
  5
D18
  8
0
 10
0.1868350121988238
 20
-21.68101500659312
 30
-8.800670013186476
 70
   192
  0
VERTEX
  5
D19
  8
0
 10
-12.31270563661078
 20
-21.8991409414475
 30
-21.29922611560488
 70
   192
  0
VERTEX
  5
D1A
  8
0
 10
-12.31527751055864
 20
-21.59916378717404
 30
-21.30188926757086
 70
   192
  0
VERTEX
  5
D1B
  8
0
 10
-8.65167494229135
 20
-21.78928857587366
 30
-12.4610182886621
 70
   192
  0
VERTEX
  5
D1C
  8
0
 10
-8.654246816239205
 20
-21.4893114216002
 30
-12.46368144062807
 70
   192
  0
VERTEX
  5
D1D
  8
0
 10
-8.651674942291349
 20
-21.94622207742026
 30
-30.13799121606379
 70
   192
  0
VERTEX
  5
D1E
  8
0
 10
-8.654246816239205
 20
-21.6462449231468
 30
-30.14065436802977
 70
   192
  0
VERTEX
  5
D1F
  8
0
 10
0.0
 20
0.0
 30
0.0
 70
   128
 71
     8
 72
     1
 73
    -4
  0
VERTEX
  5
D20
  8
0
 10
0.0
 20
0.0
 30
0.0
 70
   128
 71
     7
 72
    -8
 73
     4
  0
VERTEX
  5
D21
  8
0
 10
0.0
 20
0.0
 30
0.0
 70
   128
 71
     6
 72
     8
 73
    -7
  0
VERTEX
  5
D22
  8
0
 10
0.0
 20
0.0
 30
0.0
 70
   128
 71
     5
 72
    -6
 73
     7
  0
VERTEX
  5
D23
  8
0
 10
0.0
 20
0.0
 30
0.0
 70
   128
 71
    10
 72
     6
 73
    -5
  0
VERTEX
  5
D24
  8
0
 10
0.0
 20
0.0
 30
0.0
 70
   128
 71
     9
 72
   -10
 73
     5
  0
VERTEX
  5
D25
  8
0
 10
0.0
 20
0.0
 30
0.0
 70
   128
 71
     2
 72
    10
 73
    -9
  0
VERTEX
  5
D26
  8
0
 10
0.0
 20
0.0
 30
0.0
 70
   128
 71
     3
 72
    -2
 73
     9
  0
SEQEND
  5
FDE
  8
0
  0
POLYLINE
  5
D27
  8
0
 66
     1
 10
0.0
 20
0.0
 30
0.0
 70
    64
 71
    14
 72
    12
  0
VERTEX
  5
D28
  8
0
 10
-15.20630032042714
 20
-28.39564453392726
 30
4.474481603856036
 70
   192
  0
VERTEX
  5
D29
  8
0
 10
-15.26202425596401
 20
-21.89613952466899
 30
4.41677997792655
 70
   192
  0
VERTEX
  5
D2A
  8
0
 10
-26.04907706374752
 20
-22.08778389674999
 30
-6.752689004292336
 70
   192
  0
VERTEX
  5
D2B
  8
0
 10
-25.99335312821066
 20
-28.58728890600826
 30
-6.694987378362851
 70
   192
  0
VERTEX
  5
D2C
  8
0
 10
-25.46980087111732
 20
-28.84908497095915
 30
-36.6892760989588
 70
   192
  0
VERTEX
  5
D2D
  8
0
 10
-25.52552480665419
 20
-22.34957996170088
 30
-36.74697772488828
 70
   192
  0
VERTEX
  5
D2E
  8
0
 10
-14.35520514626099
 20
-22.34958361038552
 30
-47.53485202303572
 70
   192
  0
VERTEX
  5
D2F
  8
0
 10
-14.29948121072412
 20
-28.84908861964379
 30
-47.47715039710623
 70
   192
  0
VERTEX
  5
D30
  8
0
 10
0.7121018519240542
 20
-22.25376458419861
 30
-51.29269072695519
 70
   192
  0
VERTEX
  5
D31
  8
0
 10
0.7678257874609182
 20
-28.75326959345688
 30
-51.23498910102569
 70
   192
  0
VERTEX
  5
D32
  8
0
 10
-29.75005506151884
 20
-28.75325962506506
 30
-21.76196841282044
 70
   192
  0
VERTEX
  5
D33
  8
0
 10
-29.80577899705571
 20
-22.25375461580678
 30
-21.81967003874993
 70
   192
  0
VERTEX
  5
D34
  8
0
 10
-0.2792787267257558
 20
-28.22967746355511
 30
8.753588340166193
 70
   192
  0
VERTEX
  5
D35
  8
0
 10
-0.3350026622626031
 20
-21.73017245429683
 30
8.6958867142367
 70
   192
  0
VERTEX
  5
D36
  8
0
 10
0.0
 20
0.0
 30
0.0
 70
   128
 71
     1
 72
     2
 73
    -3
  0
VERTEX
  5
D37
  8
0
 10
0.0
 20
0.0
 30
0.0
 70
   128
 71
    -1
 72
     3
 73
     4
  0
VERTEX
  5
D38
  8
0
 10
0.0
 20
0.0
 30
0.0
 70
   128
 71
     5
 72
     6
 73
    -7
  0
VERTEX
  5
D39
  8
0
 10
0.0
 20
0.0
 30
0.0
 70
   128
 71
    -5
 72
     7
 73
     8
  0
VERTEX
  5
D3A
  8
0
 10
0.0
 20
0.0
 30
0.0
 70
   128
 71
     8
 72
     7
 73
    -9
  0
VERTEX
  5
D3B
  8
0
 10
0.0
 20
0.0
 30
0.0
 70
   128
 71
    -8
 72
     9
 73
    10
  0
VERTEX
  5
D3C
  8
0
 10
0.0
 20
0.0
 30
0.0
 70
   128
 71
    11
 72
    12
 73
    -6
  0
VERTEX
  5
D3D
  8
0
 10
0.0
 20
0.0
 30
0.0
 70
   128
 71
   -11
 72
     6
 73
     5
  0
VERTEX
  5
D3E
  8
0
 10
0.0
 20
0.0
 30
0.0
 70
   128
 71
     4
 72
     3
 73
   -12
  0
VERTEX
  5
D3F
  8
0
 10
0.0
 20
0.0
 30
0.0
 70
   128
 71
    -4
 72
    12
 73
    11
  0
VERTEX
  5
D40
  8
0
 10
0.0
 20
0.0
 30
0.0
 70
   128
 71
    13
 72
    14
 73
    -2
  0
VERTEX
  5
D41
  8
0
 10
0.0
 20
0.0
 30
0.0
 70
   128
 71
   -13
 72
     2
 73
     1
  0
SEQEND
  5
FDF
  8
0
  0
POLYLINE
  5
D42
  8
0
 66
     1
 10
0.0
 20
0.0
 30
0.0
 70
    64
 71
    14
 72
    12
  0
VERTEX
  5
D43
  8
0
 10
15.69484738116231
 20
-28.58730252308473
 30
-46.95588236471555
 70
   192
  0
VERTEX
  5
D44
  8
0
 10
15.63912344562544
 20
-22.08779751382646
 30
-47.01358399064504
 70
   192
  0
VERTEX
  5
D45
  8
0
 10
26.42617625340896
 20
-21.89615314174545
 30
-35.84411500842616
 70
   192
  0
VERTEX
  5
D46
  8
0
 10
26.48190018894583
 20
-28.39565815100372
 30
-35.78641338249668
 70
   192
  0
VERTEX
  5
D47
  8
0
 10
25.95834793185251
 20
-28.13386208605283
 30
-5.792124661900728
 70
   192
  0
VERTEX
  5
D48
  8
0
 10
25.90262399631564
 20
-21.63435707679456
 30
-5.849826287830214
 70
   192
  0
VERTEX
  5
D49
  8
0
 10
14.73230433592245
 20
-21.63435342810992
 30
4.938048010317234
 70
   192
  0
VERTEX
  5
D4A
  8
0
 10
14.78802827145932
 20
-28.13385843736819
 30
4.995749636246719
 70
   192
  0
VERTEX
  5
D4B
  8
0
 10
-0.3350026622625866
 20
-21.73017245429683
 30
8.695886714236707
 70
   192
  0
VERTEX
  5
D4C
  8
0
 10
-0.2792787267257391
 20
-28.22967746355511
 30
8.753588340166186
 70
   192
  0
VERTEX
  5
D4D
  8
0
 10
30.23860212225402
 20
-28.22968743194693
 30
-20.71943234803908
 70
   192
  0
VERTEX
  5
D4E
  8
0
 10
30.18287818671716
 20
-21.73018242268866
 30
-20.77713397396856
 70
   192
  0
VERTEX
  5
D4F
  8
0
 10
0.7678257874609185
 20
-28.75326959345688
 30
-51.2349891010257
 70
   192
  0
VERTEX
  5
D50
  8
0
 10
0.7121018519240542
 20
-22.25376458419861
 30
-51.29269072695518
 70
   192
  0
VERTEX
  5
D51
  8
0
 10
0.0
 20
0.0
 30
0.0
 70
   128
 71
     1
 72
     2
 73
    -3
  0
VERTEX
  5
D52
  8
0
 10
0.0
 20
0.0
 30
0.0
 70
   128
 71
    -1
 72
     3
 73
     4
  0
VERTEX
  5
D53
  8
0
 10
0.0
 20
0.0
 30
0.0
 70
   128
 71
     5
 72
     6
 73
    -7
  0
VERTEX
  5
D54
  8
0
 10
0.0
 20
0.0
 30
0.0
 70
   128
 71
    -5
 72
     7
 73
     8
  0
VERTEX
  5
D55
  8
0
 10
0.0
 20
0.0
 30
0.0
 70
   128
 71
     8
 72
     7
 73
    -9
  0
VERTEX
  5
D56
  8
0
 10
0.0
 20
0.0
 30
0.0
 70
   128
 71
    -8
 72
     9
 73
    10
  0
VERTEX
  5
D57
  8
0
 10
0.0
 20
0.0
 30
0.0
 70
   128
 71
    11
 72
    12
 73
    -6
  0
VERTEX
  5
D58
  8
0
 10
0.0
 20
0.0
 30
0.0
 70
   128
 71
   -11
 72
     6
 73
     5
  0
VERTEX
  5
D59
  8
0
 10
0.0
 20
0.0
 30
0.0
 70
   128
 71
     4
 72
     3
 73
   -12
  0
VERTEX
  5
D5A
  8
0
 10
0.0
 20
0.0
 30
0.0
 70
   128
 71
    -4
 72
    12
 73
    11
  0
VERTEX
  5
D5B
  8
0
 10
0.0
 20
0.0
 30
0.0
 70
   128
 71
    13
 72
    14
 73
    -2
  0
VERTEX
  5
D5C
  8
0
 10
0.0
 20
0.0
 30
0.0
 70
   128
 71
   -13
 72
     2
 73
     1
  0
SEQEND
  5
FE0
  8
0
  0
POLYLINE
  5
D5D
  8
0
 66
     1
 10
0.0
 20
0.0
 30
0.0
 70
    64
 71
    24
 72
    24
  0
VERTEX
  5
D5E
  8
0
 10
0.7678257874609185
 20
-28.75326959345688
 30
-51.2349891010257
 70
   192
  0
VERTEX
  5
D5F
  8
0
 10
15.69484738116231
 20
-28.58730252308473
 30
-46.95588236471555
 70
   192
  0
VERTEX
  5
D60
  8
0
 10
26.48190018894583
 20
-28.39565815100372
 30
-35.78641338249668
 70
   192
  0
VERTEX
  5
D61
  8
0
 10
30.23860212225402
 20
-28.22968743194693
 30
-20.71943234803908
 70
   192
  0
VERTEX
  5
D62
  8
0
 10
25.95834793185251
 20
-28.13386208605283
 30
-5.792124661900728
 70
   192
  0
VERTEX
  5
D63
  8
0
 10
14.78802827145932
 20
-28.13385843736819
 30
4.995749636246719
 70
   192
  0
VERTEX
  5
D64
  8
0
 10
-0.2792787267257225
 20
-28.22967746355511
 30
8.753588340166193
 70
   192
  0
VERTEX
  5
D65
  8
0
 10
-15.20630032042714
 20
-28.39564453392726
 30
4.474481603856036
 70
   192
  0
VERTEX
  5
D66
  8
0
 10
-25.99335312821066
 20
-28.58728890600826
 30
-6.694987378362851
 70
   192
  0
VERTEX
  5
D67
  8
0
 10
-29.75005506151884
 20
-28.75325962506506
 30
-21.76196841282044
 70
   192
  0
VERTEX
  5
D68
  8
0
 10
-25.46980087111732
 20
-28.84908497095915
 30
-36.6892760989588
 70
   192
  0
VERTEX
  5
D69
  8
0
 10
-14.29948121072412
 20
-28.84908861964379
 30
-47.47715039710623
 70
   192
  0
VERTEX
  5
D6A
  8
0
 10
-0.2740432041547894
 20
-28.23229542420462
 30
8.453645452960224
 70
   192
  0
VERTEX
  5
D6B
  8
0
 10
14.64259072404839
 20
-28.13743458827957
 30
4.733385136079947
 70
   192
  0
VERTEX
  5
D6C
  8
0
 10
25.70120718783766
 20
-28.13743820047737
 30
-5.946610419086023
 70
   192
  0
VERTEX
  5
D6D
  8
0
 10
29.93865883633515
 20
-28.23230529291252
 30
-20.72464502836299
 70
   192
  0
VERTEX
  5
D6E
  8
0
 10
26.21952392236005
 20
-28.39661630477874
 30
-35.640956252476
 70
   192
  0
VERTEX
  5
D6F
  8
0
 10
15.54034164265436
 20
-28.58634423313894
 30
-46.69873054487269
 70
   192
  0
VERTEX
  5
D70
  8
0
 10
0.762590264889985
 20
-28.75065163280737
 30
-50.93504621381973
 70
   192
  0
VERTEX
  5
D71
  8
0
 10
-14.1540436633132
 20
-28.84551246873241
 30
-47.21478589693946
 70
   192
  0
VERTEX
  5
D72
  8
0
 10
-25.21266012710247
 20
-28.84550885653462
 30
-36.5347903417735
 70
   192
  0
VERTEX
  5
D73
  8
0
 10
-29.45011177559998
 20
-28.75064176409947
 30
-21.75675573249654
 70
   192
  0
VERTEX
  5
D74
  8
0
 10
-25.73097686162487
 20
-28.58633075223324
 30
-6.840444508383524
 70
   192
  0
VERTEX
  5
D75
  8
0
 10
-15.05179458191919
 20
-28.39660282387304
 30
4.217329784013172
 70
   192
  0
VERTEX
  5
D76
  8
0
 10
0.0
 20
0.0
 30
0.0
 70
   128
 71
    -7
 72
    13
 73
   -14
  0
VERTEX
  5
D77
  8
0
 10
0.0
 20
0.0
 30
0.0
 70
   128
 71
     6
 72
    -7
 73
   -14
  0
VERTEX
  5
D78
  8
0
 10
0.0
 20
0.0
 30
0.0
 70
   128
 71
   -15
 72
     5
 73
    -6
  0
VERTEX
  5
D79
  8
0
 10
0.0
 20
0.0
 30
0.0
 70
   128
 71
    14
 72
   -15
 73
    -6
  0
VERTEX
  5
D7A
  8
0
 10
0.0
 20
0.0
 30
0.0
 70
   128
 71
   -16
 72
     4
 73
    -5
  0
VERTEX
  5
D7B
  8
0
 10
0.0
 20
0.0
 30
0.0
 70
   128
 71
    15
 72
   -16
 73
    -5
  0
VERTEX
  5
D7C
  8
0
 10
0.0
 20
0.0
 30
0.0
 70
   128
 71
   -17
 72
     3
 73
    -4
  0
VERTEX
  5
D7D
  8
0
 10
0.0
 20
0.0
 30
0.0
 70
   128
 71
    16
 72
   -17
 73
    -4
  0
VERTEX
  5
D7E
  8
0
 10
0.0
 20
0.0
 30
0.0
 70
   128
 71
   -18
 72
     2
 73
    -3
  0
VERTEX
  5
D7F
  8
0
 10
0.0
 20
0.0
 30
0.0
 70
   128
 71
    17
 72
   -18
 73
    -3
  0
VERTEX
  5
D80
  8
0
 10
0.0
 20
0.0
 30
0.0
 70
   128
 71
   -19
 72
     1
 73
    -2
  0
VERTEX
  5
D81
  8
0
 10
0.0
 20
0.0
 30
0.0
 70
   128
 71
    18
 72
   -19
 73
    -2
  0
VERTEX
  5
D82
  8
0
 10
0.0
 20
0.0
 30
0.0
 70
   128
 71
   -20
 72
    12
 73
    -1
  0
VERTEX
  5
D83
  8
0
 10
0.0
 20
0.0
 30
0.0
 70
   128
 71
    19
 72
   -20
 73
    -1
  0
VERTEX
  5
D84
  8
0
 10
0.0
 20
0.0
 30
0.0
 70
   128
 71
   -21
 72
    11
 73
   -12
  0
VERTEX
  5
D85
  8
0
 10
0.0
 20
0.0
 30
0.0
 70
   128
 71
    20
 72
   -21
 73
   -12
  0
VERTEX
  5
D86
  8
0
 10
0.0
 20
0.0
 30
0.0
 70
   128
 71
   -22
 72
    10
 73
   -11
  0
VERTEX
  5
D87
  8
0
 10
0.0
 20
0.0
 30
0.0
 70
   128
 71
    21
 72
   -22
 73
   -11
  0
VERTEX
  5
D88
  8
0
 10
0.0
 20
0.0
 30
0.0
 70
   128
 71
   -23
 72
     9
 73
   -10
  0
VERTEX
  5
D89
  8
0
 10
0.0
 20
0.0
 30
0.0
 70
   128
 71
    22
 72
   -23
 73
   -10
  0
VERTEX
  5
D8A
  8
0
 10
0.0
 20
0.0
 30
0.0
 70
   128
 71
   -24
 72
     8
 73
    -9
  0
VERTEX
  5
D8B
  8
0
 10
0.0
 20
0.0
 30
0.0
 70
   128
 71
    23
 72
   -24
 73
    -9
  0
VERTEX
  5
D8C
  8
0
 10
0.0
 20
0.0
 30
0.0
 70
   128
 71
   -13
 72
     7
 73
    -8
  0
VERTEX
  5
D8D
  8
0
 10
0.0
 20
0.0
 30
0.0
 70
   128
 71
    24
 72
   -13
 73
    -8
  0
SEQEND
  5
FE1
  8
0
  0
POLYLINE
  5
D8E
  8
0
 66
     1
 10
0.0
 20
0.0
 30
0.0
 70
    64
 71
    14
 72
    12
  0
VERTEX
  5
D8F
  8
0
 10
-25.78670079716174
 20
-22.08682574297497
 30
-6.89814613431301
 70
   192
  0
VERTEX
  5
D90
  8
0
 10
-15.10751851745606
 20
-21.89709781461477
 30
4.159628158083686
 70
   192
  0
VERTEX
  5
D91
  8
0
 10
-15.05179458191919
 20
-28.39660282387304
 30
4.217329784013172
 70
   192
  0
VERTEX
  5
D92
  8
0
 10
-25.73097686162487
 20
-28.58633075223324
 30
-6.840444508383524
 70
   192
  0
VERTEX
  5
D93
  8
0
 10
-14.20976759885007
 20
-22.34600745947414
 30
-47.27248752286895
 70
   192
  0
VERTEX
  5
D94
  8
0
 10
-25.26838406263934
 20
-22.34600384727635
 30
-36.59249196770298
 70
   192
  0
VERTEX
  5
D95
  8
0
 10
-25.21266012710247
 20
-28.84550885653462
 30
-36.5347903417735
 70
   192
  0
VERTEX
  5
D96
  8
0
 10
-14.1540436633132
 20
-28.84551246873241
 30
-47.21478589693946
 70
   192
  0
VERTEX
  5
D97
  8
0
 10
0.706866329353121
 20
-22.2511466235491
 30
-50.99274783974921
 70
   192
  0
VERTEX
  5
D98
  8
0
 10
0.762590264889985
 20
-28.75065163280737
 30
-50.93504621381973
 70
   192
  0
VERTEX
  5
D99
  8
0
 10
-29.50583571113684
 20
-22.25113675484119
 30
-21.81445735842602
 70
   192
  0
VERTEX
  5
D9A
  8
0
 10
-29.45011177559998
 20
-28.75064176409947
 30
-21.75675573249654
 70
   192
  0
VERTEX
  5
D9B
  8
0
 10
-0.3297671396916864
 20
-21.73279041494634
 30
8.395943827030738
 70
   192
  0
VERTEX
  5
D9C
  8
0
 10
-0.2740432041548059
 20
-28.23229542420462
 30
8.453645452960224
 70
   192
  0
VERTEX
  5
D9D
  8
0
 10
0.0
 20
0.0
 30
0.0
 70
   128
 71
     1
 72
     2
 73
    -3
  0
VERTEX
  5
D9E
  8
0
 10
0.0
 20
0.0
 30
0.0
 70
   128
 71
     4
 72
    -1
 73
     3
  0
VERTEX
  5
D9F
  8
0
 10
0.0
 20
0.0
 30
0.0
 70
   128
 71
     5
 72
     6
 73
    -7
  0
VERTEX
  5
DA0
  8
0
 10
0.0
 20
0.0
 30
0.0
 70
   128
 71
     8
 72
    -5
 73
     7
  0
VERTEX
  5
DA1
  8
0
 10
0.0
 20
0.0
 30
0.0
 70
   128
 71
     9
 72
     5
 73
    -8
  0
VERTEX
  5
DA2
  8
0
 10
0.0
 20
0.0
 30
0.0
 70
   128
 71
    10
 72
    -9
 73
     8
  0
VERTEX
  5
DA3
  8
0
 10
0.0
 20
0.0
 30
0.0
 70
   128
 71
     6
 72
    11
 73
   -12
  0
VERTEX
  5
DA4
  8
0
 10
0.0
 20
0.0
 30
0.0
 70
   128
 71
     7
 72
    -6
 73
    12
  0
VERTEX
  5
DA5
  8
0
 10
0.0
 20
0.0
 30
0.0
 70
   128
 71
    11
 72
     1
 73
    -4
  0
VERTEX
  5
DA6
  8
0
 10
0.0
 20
0.0
 30
0.0
 70
   128
 71
    12
 72
   -11
 73
     4
  0
VERTEX
  5
DA7
  8
0
 10
0.0
 20
0.0
 30
0.0
 70
   128
 71
     2
 72
    13
 73
   -14
  0
VERTEX
  5
DA8
  8
0
 10
0.0
 20
0.0
 30
0.0
 70
   128
 71
     3
 72
    -2
 73
    14
  0
SEQEND
  5
FE2
  8
0
  0
POLYLINE
  5
DA9
  8
0
 66
     1
 10
0.0
 20
0.0
 30
0.0
 70
    64
 71
    14
 72
    12
  0
VERTEX
  5
DAA
  8
0
 10
26.16379998682318
 20
-21.89711129552047
 30
-35.69865787840548
 70
   192
  0
VERTEX
  5
DAB
  8
0
 10
15.4846177071175
 20
-22.08683922388067
 30
-46.75643217080218
 70
   192
  0
VERTEX
  5
DAC
  8
0
 10
15.54034164265436
 20
-28.58634423313894
 30
-46.69873054487269
 70
   192
  0
VERTEX
  5
DAD
  8
0
 10
26.21952392236005
 20
-28.39661630477874
 30
-35.640956252476
 70
   192
  0
VERTEX
  5
DAE
  8
0
 10
14.58686678851153
 20
-21.6379295790213
 30
4.675683510150462
 70
   192
  0
VERTEX
  5
DAF
  8
0
 10
25.6454832523008
 20
-21.63793319121909
 30
-6.004312045015509
 70
   192
  0
VERTEX
  5
DB0
  8
0
 10
25.70120718783766
 20
-28.13743820047737
 30
-5.946610419086023
 70
   192
  0
VERTEX
  5
DB1
  8
0
 10
14.64259072404839
 20
-28.13743458827957
 30
4.733385136079947
 70
   192
  0
VERTEX
  5
DB2
  8
0
 10
-0.3297671396916699
 20
-21.73279041494634
 30
8.395943827030738
 70
   192
  0
VERTEX
  5
DB3
  8
0
 10
-0.2740432041547894
 20
-28.23229542420462
 30
8.453645452960224
 70
   192
  0
VERTEX
  5
DB4
  8
0
 10
29.88293490079829
 20
-21.73280028365425
 30
-20.78234665429247
 70
   192
  0
VERTEX
  5
DB5
  8
0
 10
29.93865883633515
 20
-28.23230529291252
 30
-20.72464502836299
 70
   192
  0
VERTEX
  5
DB6
  8
0
 10
0.7068663293531212
 20
-22.2511466235491
 30
-50.99274783974921
 70
   192
  0
VERTEX
  5
DB7
  8
0
 10
0.762590264889985
 20
-28.75065163280737
 30
-50.93504621381973
 70
   192
  0
VERTEX
  5
DB8
  8
0
 10
0.0
 20
0.0
 30
0.0
 70
   128
 71
     1
 72
     2
 73
    -3
  0
VERTEX
  5
DB9
  8
0
 10
0.0
 20
0.0
 30
0.0
 70
   128
 71
     4
 72
    -1
 73
     3
  0
VERTEX
  5
DBA
  8
0
 10
0.0
 20
0.0
 30
0.0
 70
   128
 71
     5
 72
     6
 73
    -7
  0
VERTEX
  5
DBB
  8
0
 10
0.0
 20
0.0
 30
0.0
 70
   128
 71
     8
 72
    -5
 73
     7
  0
VERTEX
  5
DBC
  8
0
 10
0.0
 20
0.0
 30
0.0
 70
   128
 71
     9
 72
     5
 73
    -8
  0
VERTEX
  5
DBD
  8
0
 10
0.0
 20
0.0
 30
0.0
 70
   128
 71
    10
 72
    -9
 73
     8
  0
VERTEX
  5
DBE
  8
0
 10
0.0
 20
0.0
 30
0.0
 70
   128
 71
     6
 72
    11
 73
   -12
  0
VERTEX
  5
DBF
  8
0
 10
0.0
 20
0.0
 30
0.0
 70
   128
 71
     7
 72
    -6
 73
    12
  0
VERTEX
  5
DC0
  8
0
 10
0.0
 20
0.0
 30
0.0
 70
   128
 71
    11
 72
     1
 73
    -4
  0
VERTEX
  5
DC1
  8
0
 10
0.0
 20
0.0
 30
0.0
 70
   128
 71
    12
 72
   -11
 73
     4
  0
VERTEX
  5
DC2
  8
0
 10
0.0
 20
0.0
 30
0.0
 70
   128
 71
     2
 72
    13
 73
   -14
  0
VERTEX
  5
DC3
  8
0
 10
0.0
 20
0.0
 30
0.0
 70
   128
 71
     3
 72
    -2
 73
    14
  0
SEQEND
  5
FE3
  8
0
  0
POLYLINE
  5
DC4
  8
0
 66
     1
 10
0.0
 20
0.0
 30
0.0
 70
    64
 71
    39
 72
    58
  0
VERTEX
  5
DC5
  8
0
 10
11.06700107671014
 20
-21.57698250508034
 30
6.318238963318347
 70
   192
  0
VERTEX
  5
DC6
  8
0
 10
20.8079142320929
 20
-21.54909932906094
 30
0.0519480450951662
 70
   192
  0
VERTEX
  5
DC7
  8
0
 10
14.58686678851153
 20
-21.6379295790213
 30
4.675683510150462
 70
   192
  0
VERTEX
  5
DC8
  8
0
 10
29.86705754300216
 20
-21.65640227416894
 30
-20.78329061149138
 70
   192
  0
VERTEX
  5
DC9
  8
0
 10
29.88293490079829
 20
-21.73280028365425
 30
-20.78234665429247
 70
   192
  0
VERTEX
  5
DCA
  8
0
 10
27.409616144731
 20
-21.57698784324884
 30
-9.464843564027458
 70
   192
  0
VERTEX
  5
DCB
  8
0
 10
27.80611525078135
 20
-21.77525249460726
 30
-32.1802621362982
 70
   192
  0
VERTEX
  5
DCC
  8
0
 10
21.54054904957076
 20
-21.915444635882
 30
-41.92067253760021
 70
   192
  0
VERTEX
  5
DCD
  8
0
 10
26.16379998682318
 20
-21.89711129552047
 30
-35.69865787840548
 70
   192
  0
VERTEX
  5
DCE
  8
0
 10
11.05055591318776
 20
-21.51259708945584
 30
6.277327934845811
 70
   192
  0
VERTEX
  5
DCF
  8
0
 10
20.77724248621895
 20
-21.48475463675402
 30
0.020188920798855
 70
   192
  0
VERTEX
  5
DD0
  8
0
 10
27.36930262765732
 20
-21.51260241982796
 30
-9.482703435000172
 70
   192
  0
VERTEX
  5
DD1
  8
0
 10
29.82315493814288
 20
-21.59190086614545
 30
-20.78461991531459
 70
   192
  0
VERTEX
  5
DD2
  8
0
 10
27.76522264763077
 20
-21.71057750609685
 30
-32.16494618814454
 70
   192
  0
VERTEX
  5
DD3
  8
0
 10
21.50880729214879
 20
-21.85056489705598
 30
-41.89113074136623
 70
   192
  0
VERTEX
  5
DD4
  8
0
 10
12.02423459600568
 20
-22.05563571532901
 30
-48.52163262883936
 70
   192
  0
VERTEX
  5
DD5
  8
0
 10
12.00639139502266
 20
-21.99055122773818
 30
-48.48245014483417
 70
   192
  0
VERTEX
  5
DD6
  8
0
 10
0.7055414200222238
 20
-22.15092041197733
 30
-50.96684573893711
 70
   192
  0
VERTEX
  5
DD7
  8
0
 10
11.0264047998099
 20
-21.46998563245179
 30
6.216577421648807
 70
   192
  0
VERTEX
  5
DD8
  8
0
 10
20.73179978771071
 20
-21.44220412650172
 30
-0.0268647998686582
 70
   192
  0
VERTEX
  5
DD9
  8
0
 10
-0.3295068376174748
 20
-21.56047117772566
 30
8.294425293124302
 70
   192
  0
VERTEX
  5
DDA
  8
0
 10
27.30942999880928
 20
-21.4699909511558
 30
-9.508955453046836
 70
   192
  0
VERTEX
  5
DDB
  8
0
 10
29.75791085983218
 20
-21.54911581424864
 30
-20.78613219130517
 70
   192
  0
VERTEX
  5
DDC
  8
0
 10
27.70448335522295
 20
-21.66753267264303
 30
-32.14154708410554
 70
   192
  0
VERTEX
  5
DDD
  8
0
 10
21.46176320819168
 20
-21.80721363309991
 30
-41.8464411511114
 70
   192
  0
VERTEX
  5
DDE
  8
0
 10
11.98014797072482
 20
-21.94689353560079
 30
-48.42333224570491
 70
   192
  0
VERTEX
  5
DDF
  8
0
 10
25.47234150699233
 20
-21.44033249798648
 30
-6.109077984449686
 70
   192
  0
VERTEX
  5
DE0
  8
0
 10
29.68125812755381
 20
-21.53456075478234
 30
-20.78759720915239
 70
   192
  0
VERTEX
  5
DE1
  8
0
 10
15.37989929881363
 20
-21.88621559440117
 30
-46.58677305888425
 70
   192
  0
VERTEX
  5
DE2
  8
0
 10
-0.3301568129926761
 20
-21.63303185700248
 30
8.368266291574647
 70
   192
  0
VERTEX
  5
DE3
  8
0
 10
0.7036362830466939
 20
-22.07708207922874
 30
-50.89430444885168
 70
   192
  0
VERTEX
  5
DE4
  8
0
 10
-0.3279913739429512
 20
-21.53455095253038
 30
8.19420646758278
 70
   192
  0
VERTEX
  5
DE5
  8
0
 10
0.7016613983405954
 20
-22.04941654693379
 30
-50.79456134958923
 70
   192
  0
VERTEX
  5
DE6
  8
0
 10
-0.3297671396916534
 20
-21.73279041494634
 30
8.395943827030738
 70
   192
  0
VERTEX
  5
DE7
  8
0
 10
0.7068663293531212
 20
-22.2511466235491
 30
-50.99274783974921
 70
   192
  0
VERTEX
  5
DE8
  8
0
 10
25.6454832523008
 20
-21.63793319121909
 30
-6.004312045015509
 70
   192
  0
VERTEX
  5
DE9
  8
0
 10
15.4846177071175
 20
-22.08683922388067
 30
-46.75643217080218
 70
   192
  0
VERTEX
  5
DEA
  8
0
 10
14.48819384093902
 20
-21.44032891011324
 30
4.498998408728638
 70
   192
  0
VERTEX
  5
DEB
  8
0
 10
25.9871678931341
 20
-21.69776529518818
 30
-35.60346189303569
 70
   192
  0
VERTEX
  5
DEC
  8
0
 10
0.0
 20
0.0
 30
0.0
 70
   128
 71
     1
 72
     2
 73
     3
  0
VERTEX
  5
DED
  8
0
 10
0.0
 20
0.0
 30
0.0
 70
   128
 71
     4
 72
     5
 73
     6
  0
VERTEX
  5
DEE
  8
0
 10
0.0
 20
0.0
 30
0.0
 70
   128
 71
     7
 72
     8
 73
     9
  0
VERTEX
  5
DEF
  8
0
 10
0.0
 20
0.0
 30
0.0
 70
   128
 71
     1
 72
    10
 73
   -11
  0
VERTEX
  5
DF0
  8
0
 10
0.0
 20
0.0
 30
0.0
 70
   128
 71
     2
 72
    -1
 73
    11
  0
VERTEX
  5
DF1
  8
0
 10
0.0
 20
0.0
 30
0.0
 70
   128
 71
     6
 72
    12
 73
   -13
  0
VERTEX
  5
DF2
  8
0
 10
0.0
 20
0.0
 30
0.0
 70
   128
 71
     4
 72
    -6
 73
    13
  0
VERTEX
  5
DF3
  8
0
 10
0.0
 20
0.0
 30
0.0
 70
   128
 71
     2
 72
    11
 73
   -12
  0
VERTEX
  5
DF4
  8
0
 10
0.0
 20
0.0
 30
0.0
 70
   128
 71
     6
 72
    -2
 73
    12
  0
VERTEX
  5
DF5
  8
0
 10
0.0
 20
0.0
 30
0.0
 70
   128
 71
     7
 72
    14
 73
   -15
  0
VERTEX
  5
DF6
  8
0
 10
0.0
 20
0.0
 30
0.0
 70
   128
 71
     8
 72
    -7
 73
    15
  0
VERTEX
  5
DF7
  8
0
 10
0.0
 20
0.0
 30
0.0
 70
   128
 71
     4
 72
    13
 73
   -14
  0
VERTEX
  5
DF8
  8
0
 10
0.0
 20
0.0
 30
0.0
 70
   128
 71
     7
 72
    -4
 73
    14
  0
VERTEX
  5
DF9
  8
0
 10
0.0
 20
0.0
 30
0.0
 70
   128
 71
    16
 72
    17
 73
    18
  0
VERTEX
  5
DFA
  8
0
 10
0.0
 20
0.0
 30
0.0
 70
   128
 71
     8
 72
    15
 73
   -17
  0
VERTEX
  5
DFB
  8
0
 10
0.0
 20
0.0
 30
0.0
 70
   128
 71
    16
 72
    -8
 73
    17
  0
VERTEX
  5
DFC
  8
0
 10
0.0
 20
0.0
 30
0.0
 70
   128
 71
    10
 72
    19
 73
   -20
  0
VERTEX
  5
DFD
  8
0
 10
0.0
 20
0.0
 30
0.0
 70
   128
 71
    11
 72
   -10
 73
    20
  0
VERTEX
  5
DFE
  8
0
 10
0.0
 20
0.0
 30
0.0
 70
   128
 71
    19
 72
    10
 73
    21
  0
VERTEX
  5
DFF
  8
0
 10
0.0
 20
0.0
 30
0.0
 70
   128
 71
    12
 72
    22
 73
   -23
  0
VERTEX
  5
E00
  8
0
 10
0.0
 20
0.0
 30
0.0
 70
   128
 71
    13
 72
   -12
 73
    23
  0
VERTEX
  5
E01
  8
0
 10
0.0
 20
0.0
 30
0.0
 70
   128
 71
    11
 72
    20
 73
   -22
  0
VERTEX
  5
E02
  8
0
 10
0.0
 20
0.0
 30
0.0
 70
   128
 71
    12
 72
   -11
 73
    22
  0
VERTEX
  5
E03
  8
0
 10
0.0
 20
0.0
 30
0.0
 70
   128
 71
    14
 72
    24
 73
   -25
  0
VERTEX
  5
E04
  8
0
 10
0.0
 20
0.0
 30
0.0
 70
   128
 71
    15
 72
   -14
 73
    25
  0
VERTEX
  5
E05
  8
0
 10
0.0
 20
0.0
 30
0.0
 70
   128
 71
    13
 72
    23
 73
   -24
  0
VERTEX
  5
E06
  8
0
 10
0.0
 20
0.0
 30
0.0
 70
   128
 71
    14
 72
   -13
 73
    24
  0
VERTEX
  5
E07
  8
0
 10
0.0
 20
0.0
 30
0.0
 70
   128
 71
    15
 72
    25
 73
   -26
  0
VERTEX
  5
E08
  8
0
 10
0.0
 20
0.0
 30
0.0
 70
   128
 71
    17
 72
   -15
 73
    26
  0
VERTEX
  5
E09
  8
0
 10
0.0
 20
0.0
 30
0.0
 70
   128
 71
    22
 72
    20
 73
    27
  0
VERTEX
  5
E0A
  8
0
 10
0.0
 20
0.0
 30
0.0
 70
   128
 71
    23
 72
    28
 73
    24
  0
VERTEX
  5
E0B
  8
0
 10
0.0
 20
0.0
 30
0.0
 70
   128
 71
    26
 72
    25
 73
    29
  0
VERTEX
  5
E0C
  8
0
 10
0.0
 20
0.0
 30
0.0
 70
   128
 71
    21
 72
    10
 73
     1
  0
VERTEX
  5
E0D
  8
0
 10
0.0
 20
0.0
 30
0.0
 70
   128
 71
    30
 72
    21
 73
     1
  0
VERTEX
  5
E0E
  8
0
 10
0.0
 20
0.0
 30
0.0
 70
   128
 71
    26
 72
    31
 73
    18
  0
VERTEX
  5
E0F
  8
0
 10
0.0
 20
0.0
 30
0.0
 70
   128
 71
    17
 72
    26
 73
    18
  0
VERTEX
  5
E10
  8
0
 10
0.0
 20
0.0
 30
0.0
 70
   128
 71
    21
 72
    32
 73
    19
  0
VERTEX
  5
E11
  8
0
 10
0.0
 20
0.0
 30
0.0
 70
   128
 71
    31
 72
    26
 73
    33
  0
VERTEX
  5
E12
  8
0
 10
0.0
 20
0.0
 30
0.0
 70
   128
 71
    30
 72
     1
 73
    34
  0
VERTEX
  5
E13
  8
0
 10
0.0
 20
0.0
 30
0.0
 70
   128
 71
    35
 72
    16
 73
    18
  0
VERTEX
  5
E14
  8
0
 10
0.0
 20
0.0
 30
0.0
 70
   128
 71
     2
 72
     6
 73
    36
  0
VERTEX
  5
E15
  8
0
 10
0.0
 20
0.0
 30
0.0
 70
   128
 71
     3
 72
     2
 73
    36
  0
VERTEX
  5
E16
  8
0
 10
0.0
 20
0.0
 30
0.0
 70
   128
 71
    34
 72
     1
 73
     3
  0
VERTEX
  5
E17
  8
0
 10
0.0
 20
0.0
 30
0.0
 70
   128
 71
    36
 72
     6
 73
     5
  0
VERTEX
  5
E18
  8
0
 10
0.0
 20
0.0
 30
0.0
 70
   128
 71
     8
 72
    16
 73
    37
  0
VERTEX
  5
E19
  8
0
 10
0.0
 20
0.0
 30
0.0
 70
   128
 71
     9
 72
     8
 73
    37
  0
VERTEX
  5
E1A
  8
0
 10
0.0
 20
0.0
 30
0.0
 70
   128
 71
     4
 72
     7
 73
     9
  0
VERTEX
  5
E1B
  8
0
 10
0.0
 20
0.0
 30
0.0
 70
   128
 71
     5
 72
     4
 73
     9
  0
VERTEX
  5
E1C
  8
0
 10
0.0
 20
0.0
 30
0.0
 70
   128
 71
    37
 72
    16
 73
    35
  0
VERTEX
  5
E1D
  8
0
 10
0.0
 20
0.0
 30
0.0
 70
   128
 71
    19
 72
    38
 73
    27
  0
VERTEX
  5
E1E
  8
0
 10
0.0
 20
0.0
 30
0.0
 70
   128
 71
    20
 72
    19
 73
    27
  0
VERTEX
  5
E1F
  8
0
 10
0.0
 20
0.0
 30
0.0
 70
   128
 71
    19
 72
    32
 73
    38
  0
VERTEX
  5
E20
  8
0
 10
0.0
 20
0.0
 30
0.0
 70
   128
 71
    27
 72
    28
 73
    23
  0
VERTEX
  5
E21
  8
0
 10
0.0
 20
0.0
 30
0.0
 70
   128
 71
    22
 72
    27
 73
    23
  0
VERTEX
  5
E22
  8
0
 10
0.0
 20
0.0
 30
0.0
 70
   128
 71
    24
 72
    39
 73
    29
  0
VERTEX
  5
E23
  8
0
 10
0.0
 20
0.0
 30
0.0
 70
   128
 71
    25
 72
    24
 73
    29
  0
VERTEX
  5
E24
  8
0
 10
0.0
 20
0.0
 30
0.0
 70
   128
 71
    24
 72
    28
 73
    39
  0
VERTEX
  5
E25
  8
0
 10
0.0
 20
0.0
 30
0.0
 70
   128
 71
    26
 72
    29
 73
    33
  0
SEQEND
  5
FE4
  8
0
  0
POLYLINE
  5
E26
  8
0
 66
     1
 10
0.0
 20
0.0
 30
0.0
 70
    64
 71
    39
 72
    58
  0
VERTEX
  5
E27
  8
0
 10
-10.69121417178199
 20
-22.25389281737713
 30
-48.91640183488383
 70
   192
  0
VERTEX
  5
E28
  8
0
 10
-20.43212732716475
 20
-22.28177599339653
 30
-42.65011091666065
 70
   192
  0
VERTEX
  5
E29
  8
0
 10
-14.20976759885007
 20
-22.34600745947414
 30
-47.27248752286895
 70
   192
  0
VERTEX
  5
E2A
  8
0
 10
-29.49127063807401
 20
-22.17447304828853
 30
-21.8148722600741
 70
   192
  0
VERTEX
  5
E2B
  8
0
 10
-29.50583571113684
 20
-22.25113675484119
 30
-21.81445735842602
 70
   192
  0
VERTEX
  5
E2C
  8
0
 10
-27.03382923980285
 20
-22.25388747920863
 30
-33.13331930753802
 70
   192
  0
VERTEX
  5
E2D
  8
0
 10
-27.43032834585319
 20
-22.0556228278502
 30
-10.41790073526728
 70
   192
  0
VERTEX
  5
E2E
  8
0
 10
-21.16476214464261
 20
-21.91543068657547
 30
-0.6774903339652667
 70
   192
  0
VERTEX
  5
E2F
  8
0
 10
-25.78670079716174
 20
-22.08682574297497
 30
-6.89814613431301
 70
   192
  0
VERTEX
  5
E30
  8
0
 10
-10.67588150953815
 20
-22.18851877572252
 30
-48.87664279131693
 70
   192
  0
VERTEX
  5
E31
  8
0
 10
-20.40256808256934
 20
-22.21636122842434
 30
-42.61950377726997
 70
   192
  0
VERTEX
  5
E32
  8
0
 10
-26.99462822400772
 20
-22.1885134453504
 30
-33.11661142147094
 70
   192
  0
VERTEX
  5
E33
  8
0
 10
-29.44848053449327
 20
-22.10921499903291
 30
-21.81469494115652
 70
   192
  0
VERTEX
  5
E34
  8
0
 10
-27.39054824398116
 20
-21.99053835908151
 30
-10.43436866832657
 70
   192
  0
VERTEX
  5
E35
  8
0
 10
-21.13413288849919
 20
-21.85055096812238
 30
-0.7081841151048813
 70
   192
  0
VERTEX
  5
E36
  8
0
 10
-11.64844769107753
 20
-21.77523960712846
 30
5.923469757273875
 70
   192
  0
VERTEX
  5
E37
  8
0
 10
-11.63171699137306
 20
-21.71056463744019
 30
5.883135288363064
 70
   192
  0
VERTEX
  5
E38
  8
0
 10
-0.3301568129926761
 20
-21.63303185700248
 30
8.368266291574647
 70
   192
  0
VERTEX
  5
E39
  8
0
 10
-10.65247374574928
 20
-22.14442773530467
 30
-48.81666200982507
 70
   192
  0
VERTEX
  5
E3A
  8
0
 10
-20.35786873365009
 20
-22.17220924125474
 30
-42.5732197883076
 70
   192
  0
VERTEX
  5
E3B
  8
0
 10
0.7036362830466939
 20
-22.07708207922874
 30
-50.89430444885168
 70
   192
  0
VERTEX
  5
E3C
  8
0
 10
-26.93549894474866
 20
-22.14442241660067
 30
-33.09112913512942
 70
   192
  0
VERTEX
  5
E3D
  8
0
 10
-29.38397980577156
 20
-22.06529755350782
 30
-21.81395239687108
 70
   192
  0
VERTEX
  5
E3E
  8
0
 10
-27.33055230116234
 20
-21.94688069511344
 30
-10.45853750407072
 70
   192
  0
VERTEX
  5
E3F
  8
0
 10
-21.08783215413106
 20
-21.80719973465655
 30
-0.7536434370648593
 70
   192
  0
VERTEX
  5
E40
  8
0
 10
-11.6062169166642
 20
-21.66751983215568
 30
5.823247657528654
 70
   192
  0
VERTEX
  5
E41
  8
0
 10
-25.09867148259468
 20
-22.14363500147769
 30
-36.49127689755678
 70
   192
  0
VERTEX
  5
E42
  8
0
 10
-29.30758810315617
 20
-22.04940674468183
 30
-21.81275767285407
 70
   192
  0
VERTEX
  5
E43
  8
0
 10
-15.006229274416
 20
-21.69775190506299
 30
3.986418176877799
 70
   192
  0
VERTEX
  5
E44
  8
0
 10
0.7055414200222238
 20
-22.15092041197733
 30
-50.96684573893711
 70
   192
  0
VERTEX
  5
E45
  8
0
 10
-0.3295068376174748
 20
-21.56047117772566
 30
8.294425293124302
 70
   192
  0
VERTEX
  5
E46
  8
0
 10
0.7016613983405953
 20
-22.04941654693379
 30
-50.79456134958923
 70
   192
  0
VERTEX
  5
E47
  8
0
 10
-0.3279913739429676
 20
-21.53455095253038
 30
8.194206467582784
 70
   192
  0
VERTEX
  5
E48
  8
0
 10
-25.26838406263934
 20
-22.34600384727635
 30
-36.59249196770298
 70
   192
  0
VERTEX
  5
E49
  8
0
 10
0.706866329353121
 20
-22.2511466235491
 30
-50.99274783974921
 70
   192
  0
VERTEX
  5
E4A
  8
0
 10
-15.10751851745606
 20
-21.89709781461477
 30
4.159628158083686
 70
   192
  0
VERTEX
  5
E4B
  8
0
 10
-0.3297671396916699
 20
-21.73279041494634
 30
8.395943827030738
 70
   192
  0
VERTEX
  5
E4C
  8
0
 10
-14.11452381654136
 20
-22.14363858935092
 30
-47.09935329073509
 70
   192
  0
VERTEX
  5
E4D
  8
0
 10
-25.61349786873646
 20
-21.88620220427599
 30
-6.996892988970772
 70
   192
  0
VERTEX
  5
E4E
  8
0
 10
0.0
 20
0.0
 30
0.0
 70
   128
 71
     1
 72
     2
 73
     3
  0
VERTEX
  5
E4F
  8
0
 10
0.0
 20
0.0
 30
0.0
 70
   128
 71
     4
 72
     5
 73
     6
  0
VERTEX
  5
E50
  8
0
 10
0.0
 20
0.0
 30
0.0
 70
   128
 71
     7
 72
     8
 73
     9
  0
VERTEX
  5
E51
  8
0
 10
0.0
 20
0.0
 30
0.0
 70
   128
 71
     1
 72
    10
 73
   -11
  0
VERTEX
  5
E52
  8
0
 10
0.0
 20
0.0
 30
0.0
 70
   128
 71
     2
 72
    -1
 73
    11
  0
VERTEX
  5
E53
  8
0
 10
0.0
 20
0.0
 30
0.0
 70
   128
 71
     6
 72
    12
 73
   -13
  0
VERTEX
  5
E54
  8
0
 10
0.0
 20
0.0
 30
0.0
 70
   128
 71
     4
 72
    -6
 73
    13
  0
VERTEX
  5
E55
  8
0
 10
0.0
 20
0.0
 30
0.0
 70
   128
 71
     2
 72
    11
 73
   -12
  0
VERTEX
  5
E56
  8
0
 10
0.0
 20
0.0
 30
0.0
 70
   128
 71
     6
 72
    -2
 73
    12
  0
VERTEX
  5
E57
  8
0
 10
0.0
 20
0.0
 30
0.0
 70
   128
 71
     7
 72
    14
 73
   -15
  0
VERTEX
  5
E58
  8
0
 10
0.0
 20
0.0
 30
0.0
 70
   128
 71
     8
 72
    -7
 73
    15
  0
VERTEX
  5
E59
  8
0
 10
0.0
 20
0.0
 30
0.0
 70
   128
 71
     4
 72
    13
 73
   -14
  0
VERTEX
  5
E5A
  8
0
 10
0.0
 20
0.0
 30
0.0
 70
   128
 71
     7
 72
    -4
 73
    14
  0
VERTEX
  5
E5B
  8
0
 10
0.0
 20
0.0
 30
0.0
 70
   128
 71
    16
 72
    17
 73
    18
  0
VERTEX
  5
E5C
  8
0
 10
0.0
 20
0.0
 30
0.0
 70
   128
 71
     8
 72
    15
 73
   -17
  0
VERTEX
  5
E5D
  8
0
 10
0.0
 20
0.0
 30
0.0
 70
   128
 71
    16
 72
    -8
 73
    17
  0
VERTEX
  5
E5E
  8
0
 10
0.0
 20
0.0
 30
0.0
 70
   128
 71
    10
 72
    19
 73
   -20
  0
VERTEX
  5
E5F
  8
0
 10
0.0
 20
0.0
 30
0.0
 70
   128
 71
    11
 72
   -10
 73
    20
  0
VERTEX
  5
E60
  8
0
 10
0.0
 20
0.0
 30
0.0
 70
   128
 71
    19
 72
    10
 73
    21
  0
VERTEX
  5
E61
  8
0
 10
0.0
 20
0.0
 30
0.0
 70
   128
 71
    12
 72
    22
 73
   -23
  0
VERTEX
  5
E62
  8
0
 10
0.0
 20
0.0
 30
0.0
 70
   128
 71
    13
 72
   -12
 73
    23
  0
VERTEX
  5
E63
  8
0
 10
0.0
 20
0.0
 30
0.0
 70
   128
 71
    11
 72
    20
 73
   -22
  0
VERTEX
  5
E64
  8
0
 10
0.0
 20
0.0
 30
0.0
 70
   128
 71
    12
 72
   -11
 73
    22
  0
VERTEX
  5
E65
  8
0
 10
0.0
 20
0.0
 30
0.0
 70
   128
 71
    14
 72
    24
 73
   -25
  0
VERTEX
  5
E66
  8
0
 10
0.0
 20
0.0
 30
0.0
 70
   128
 71
    15
 72
   -14
 73
    25
  0
VERTEX
  5
E67
  8
0
 10
0.0
 20
0.0
 30
0.0
 70
   128
 71
    13
 72
    23
 73
   -24
  0
VERTEX
  5
E68
  8
0
 10
0.0
 20
0.0
 30
0.0
 70
   128
 71
    14
 72
   -13
 73
    24
  0
VERTEX
  5
E69
  8
0
 10
0.0
 20
0.0
 30
0.0
 70
   128
 71
    15
 72
    25
 73
   -26
  0
VERTEX
  5
E6A
  8
0
 10
0.0
 20
0.0
 30
0.0
 70
   128
 71
    17
 72
   -15
 73
    26
  0
VERTEX
  5
E6B
  8
0
 10
0.0
 20
0.0
 30
0.0
 70
   128
 71
    22
 72
    20
 73
    27
  0
VERTEX
  5
E6C
  8
0
 10
0.0
 20
0.0
 30
0.0
 70
   128
 71
    23
 72
    28
 73
    24
  0
VERTEX
  5
E6D
  8
0
 10
0.0
 20
0.0
 30
0.0
 70
   128
 71
    26
 72
    25
 73
    29
  0
VERTEX
  5
E6E
  8
0
 10
0.0
 20
0.0
 30
0.0
 70
   128
 71
    10
 72
     1
 73
    30
  0
VERTEX
  5
E6F
  8
0
 10
0.0
 20
0.0
 30
0.0
 70
   128
 71
    21
 72
    10
 73
    30
  0
VERTEX
  5
E70
  8
0
 10
0.0
 20
0.0
 30
0.0
 70
   128
 71
    17
 72
    26
 73
    31
  0
VERTEX
  5
E71
  8
0
 10
0.0
 20
0.0
 30
0.0
 70
   128
 71
    18
 72
    17
 73
    31
  0
VERTEX
  5
E72
  8
0
 10
0.0
 20
0.0
 30
0.0
 70
   128
 71
    21
 72
    32
 73
    19
  0
VERTEX
  5
E73
  8
0
 10
0.0
 20
0.0
 30
0.0
 70
   128
 71
    31
 72
    26
 73
    33
  0
VERTEX
  5
E74
  8
0
 10
0.0
 20
0.0
 30
0.0
 70
   128
 71
     2
 72
     6
 73
    34
  0
VERTEX
  5
E75
  8
0
 10
0.0
 20
0.0
 30
0.0
 70
   128
 71
     3
 72
     2
 73
    34
  0
VERTEX
  5
E76
  8
0
 10
0.0
 20
0.0
 30
0.0
 70
   128
 71
    30
 72
     1
 73
     3
  0
VERTEX
  5
E77
  8
0
 10
0.0
 20
0.0
 30
0.0
 70
   128
 71
    35
 72
    30
 73
     3
  0
VERTEX
  5
E78
  8
0
 10
0.0
 20
0.0
 30
0.0
 70
   128
 71
    34
 72
     6
 73
     5
  0
VERTEX
  5
E79
  8
0
 10
0.0
 20
0.0
 30
0.0
 70
   128
 71
     8
 72
    16
 73
    36
  0
VERTEX
  5
E7A
  8
0
 10
0.0
 20
0.0
 30
0.0
 70
   128
 71
     9
 72
     8
 73
    36
  0
VERTEX
  5
E7B
  8
0
 10
0.0
 20
0.0
 30
0.0
 70
   128
 71
     4
 72
     7
 73
     9
  0
VERTEX
  5
E7C
  8
0
 10
0.0
 20
0.0
 30
0.0
 70
   128
 71
     5
 72
     4
 73
     9
  0
VERTEX
  5
E7D
  8
0
 10
0.0
 20
0.0
 30
0.0
 70
   128
 71
    16
 72
    18
 73
    37
  0
VERTEX
  5
E7E
  8
0
 10
0.0
 20
0.0
 30
0.0
 70
   128
 71
    36
 72
    16
 73
    37
  0
VERTEX
  5
E7F
  8
0
 10
0.0
 20
0.0
 30
0.0
 70
   128
 71
    19
 72
    38
 73
    27
  0
VERTEX
  5
E80
  8
0
 10
0.0
 20
0.0
 30
0.0
 70
   128
 71
    20
 72
    19
 73
    27
  0
VERTEX
  5
E81
  8
0
 10
0.0
 20
0.0
 30
0.0
 70
   128
 71
    19
 72
    32
 73
    38
  0
VERTEX
  5
E82
  8
0
 10
0.0
 20
0.0
 30
0.0
 70
   128
 71
    27
 72
    28
 73
    23
  0
VERTEX
  5
E83
  8
0
 10
0.0
 20
0.0
 30
0.0
 70
   128
 71
    22
 72
    27
 73
    23
  0
VERTEX
  5
E84
  8
0
 10
0.0
 20
0.0
 30
0.0
 70
   128
 71
    24
 72
    39
 73
    29
  0
VERTEX
  5
E85
  8
0
 10
0.0
 20
0.0
 30
0.0
 70
   128
 71
    25
 72
    24
 73
    29
  0
VERTEX
  5
E86
  8
0
 10
0.0
 20
0.0
 30
0.0
 70
   128
 71
    24
 72
    28
 73
    39
  0
VERTEX
  5
E87
  8
0
 10
0.0
 20
0.0
 30
0.0
 70
   128
 71
    26
 72
    29
 73
    33
  0
SEQEND
  5
FE5
  8
0
  0
POLYLINE
  5
E88
  8
0
 66
     1
 10
0.0
 20
0.0
 30
0.0
 70
    64
 71
    20
 72
    20
  0
VERTEX
  5
E89
  8
0
 10
0.7016613983405954
 20
-22.04941654693379
 30
-50.79456134958923
 70
   192
  0
VERTEX
  5
E8A
  8
0
 10
15.37989929881363
 20
-21.88621559440117
 30
-46.58677305888425
 70
   192
  0
VERTEX
  5
E8B
  8
0
 10
25.9871678931341
 20
-21.69776529518818
 30
-35.60346189303569
 70
   192
  0
VERTEX
  5
E8C
  8
0
 10
29.68125812755381
 20
-21.53456075478234
 30
-20.78759720915239
 70
   192
  0
VERTEX
  5
E8D
  8
0
 10
25.47234150699233
 20
-21.44033249798648
 30
-6.109077984449686
 70
   192
  0
VERTEX
  5
E8E
  8
0
 10
14.48819384093902
 20
-21.44032891011324
 30
4.498998408728638
 70
   192
  0
VERTEX
  5
E8F
  8
0
 10
-0.3279913739429348
 20
-21.53455095253038
 30
8.194206467582784
 70
   192
  0
VERTEX
  5
E90
  8
0
 10
-15.006229274416
 20
-21.69775190506299
 30
3.986418176877799
 70
   192
  0
VERTEX
  5
E91
  8
0
 10
-25.61349786873646
 20
-21.88620220427599
 30
-6.996892988970772
 70
   192
  0
VERTEX
  5
E92
  8
0
 10
-29.30758810315617
 20
-22.04940674468183
 30
-21.81275767285407
 70
   192
  0
VERTEX
  5
E93
  8
0
 10
-25.09867148259468
 20
-22.14363500147769
 30
-36.49127689755678
 70
   192
  0
VERTEX
  5
E94
  8
0
 10
-14.11452381654136
 20
-22.14363858935092
 30
-47.09935329073509
 70
   192
  0
VERTEX
  5
E95
  8
0
 10
0.1868350121988221
 20
-21.68101500659312
 30
-8.800670013186473
 70
   192
  0
VERTEX
  5
E96
  8
0
 10
9.025344966688994
 20
-21.6377454220439
 30
-12.46236366594267
 70
   192
  0
VERTEX
  5
E97
  8
0
 10
12.68637566100843
 20
-21.68482655801666
 30
-21.30112876640159
 70
   192
  0
VERTEX
  5
E98
  8
0
 10
9.025344966688994
 20
-21.7946789235905
 30
-30.13933659334437
 70
   192
  0
VERTEX
  5
E99
  8
0
 10
0.1868350121988233
 20
-21.90295249287103
 30
-33.79968486881999
 70
   192
  0
VERTEX
  5
E9A
  8
0
 10
-8.651674942291349
 20
-21.94622207742026
 30
-30.13799121606379
 70
   192
  0
VERTEX
  5
E9B
  8
0
 10
-12.31270563661078
 20
-21.8991409414475
 30
-21.29922611560488
 70
   192
  0
VERTEX
  5
E9C
  8
0
 10
-8.65167494229135
 20
-21.78928857587366
 30
-12.4610182886621
 70
   192
  0
VERTEX
  5
E9D
  8
0
 10
0.0
 20
0.0
 30
0.0
 70
   128
 71
    -7
 72
    13
 73
   -14
  0
VERTEX
  5
E9E
  8
0
 10
0.0
 20
0.0
 30
0.0
 70
   128
 71
     6
 72
    -7
 73
   -14
  0
VERTEX
  5
E9F
  8
0
 10
0.0
 20
0.0
 30
0.0
 70
   128
 71
     5
 72
    -6
 73
   -14
  0
VERTEX
  5
EA0
  8
0
 10
0.0
 20
0.0
 30
0.0
 70
   128
 71
   -15
 72
     4
 73
    -5
  0
VERTEX
  5
EA1
  8
0
 10
0.0
 20
0.0
 30
0.0
 70
   128
 71
    14
 72
   -15
 73
    -5
  0
VERTEX
  5
EA2
  8
0
 10
0.0
 20
0.0
 30
0.0
 70
   128
 71
     2
 72
     3
 73
    -4
  0
VERTEX
  5
EA3
  8
0
 10
0.0
 20
0.0
 30
0.0
 70
   128
 71
   -16
 72
    -2
 73
    -4
  0
VERTEX
  5
EA4
  8
0
 10
0.0
 20
0.0
 30
0.0
 70
   128
 71
    15
 72
   -16
 73
    -4
  0
VERTEX
  5
EA5
  8
0
 10
0.0
 20
0.0
 30
0.0
 70
   128
 71
   -17
 72
     1
 73
    -2
  0
VERTEX
  5
EA6
  8
0
 10
0.0
 20
0.0
 30
0.0
 70
   128
 71
    16
 72
   -17
 73
    -2
  0
VERTEX
  5
EA7
  8
0
 10
0.0
 20
0.0
 30
0.0
 70
   128
 71
    11
 72
    12
 73
    -1
  0
VERTEX
  5
EA8
  8
0
 10
0.0
 20
0.0
 30
0.0
 70
   128
 71
   -18
 72
   -11
 73
    -1
  0
VERTEX
  5
EA9
  8
0
 10
0.0
 20
0.0
 30
0.0
 70
   128
 71
    17
 72
   -18
 73
    -1
  0
VERTEX
  5
EAA
  8
0
 10
0.0
 20
0.0
 30
0.0
 70
   128
 71
   -19
 72
    10
 73
   -11
  0
VERTEX
  5
EAB
  8
0
 10
0.0
 20
0.0
 30
0.0
 70
   128
 71
    18
 72
   -19
 73
   -11
  0
VERTEX
  5
EAC
  8
0
 10
0.0
 20
0.0
 30
0.0
 70
   128
 71
     8
 72
     9
 73
   -10
  0
VERTEX
  5
EAD
  8
0
 10
0.0
 20
0.0
 30
0.0
 70
   128
 71
   -20
 72
    -8
 73
   -10
  0
VERTEX
  5
EAE
  8
0
 10
0.0
 20
0.0
 30
0.0
 70
   128
 71
    19
 72
   -20
 73
   -10
  0
VERTEX
  5
EAF
  8
0
 10
0.0
 20
0.0
 30
0.0
 70
   128
 71
   -13
 72
     7
 73
    -8
  0
VERTEX
  5
EB0
  8
0
 10
0.0
 20
0.0
 30
0.0
 70
   128
 71
    20
 72
   -13
 73
    -8
  0
SEQEND
  5
FE6
  8
0
  0
POLYLINE
  5
EB1
  8
0
 66
     1
 10
0.0
 20
0.0
 30
0.0
 70
    64
 71
    20
 72
    20
  0
VERTEX
  5
EB2
  8
0
 10
-0.3305632478908229
 20
-21.23457379825692
 30
8.191543315616808
 70
   192
  0
VERTEX
  5
EB3
  8
0
 10
-15.00880114836385
 20
-21.39777475078953
 30
3.983755024911823
 70
   192
  0
VERTEX
  5
EB4
  8
0
 10
-25.61606974268431
 20
-21.58622505000253
 30
-6.999556140936748
 70
   192
  0
VERTEX
  5
EB5
  8
0
 10
-29.31015997710402
 20
-21.74942959040837
 30
-21.81542082482004
 70
   192
  0
VERTEX
  5
EB6
  8
0
 10
-25.10124335654253
 20
-21.84365784720423
 30
-36.49394004952276
 70
   192
  0
VERTEX
  5
EB7
  8
0
 10
-14.11709569048922
 20
-21.84366143507746
 30
-47.10201644270106
 70
   192
  0
VERTEX
  5
EB8
  8
0
 10
0.6990895243927401
 20
-21.74943939266033
 30
-50.79722450155521
 70
   192
  0
VERTEX
  5
EB9
  8
0
 10
15.37732742486577
 20
-21.58623844012771
 30
-46.58943621085023
 70
   192
  0
VERTEX
  5
EBA
  8
0
 10
25.98459601918624
 20
-21.39778814091472
 30
-35.60612504500167
 70
   192
  0
VERTEX
  5
EBB
  8
0
 10
29.67868625360596
 20
-21.23458360050888
 30
-20.79026036111837
 70
   192
  0
VERTEX
  5
EBC
  8
0
 10
25.46976963304447
 20
-21.14035534371302
 30
-6.111741136415662
 70
   192
  0
VERTEX
  5
EBD
  8
0
 10
14.48562196699116
 20
-21.14035175583978
 30
4.496335256762662
 70
   192
  0
VERTEX
  5
EBE
  8
0
 10
0.1842631382509691
 20
-21.60297533859758
 30
-33.80234802078597
 70
   192
  0
VERTEX
  5
EBF
  8
0
 10
-8.654246816239205
 20
-21.6462449231468
 30
-30.14065436802977
 70
   192
  0
VERTEX
  5
EC0
  8
0
 10
-12.31527751055864
 20
-21.59916378717404
 30
-21.30188926757086
 70
   192
  0
VERTEX
  5
EC1
  8
0
 10
-8.654246816239205
 20
-21.4893114216002
 30
-12.46368144062807
 70
   192
  0
VERTEX
  5
EC2
  8
0
 10
0.1842631382509669
 20
-21.38103785231967
 30
-8.803333165152448
 70
   192
  0
VERTEX
  5
EC3
  8
0
 10
9.02277309274114
 20
-21.33776826777044
 30
-12.46502681790865
 70
   192
  0
VERTEX
  5
EC4
  8
0
 10
12.68380378706057
 20
-21.38484940374321
 30
-21.30379191836756
 70
   192
  0
VERTEX
  5
EC5
  8
0
 10
9.022773092741138
 20
-21.49470176931705
 30
-30.14199974531035
 70
   192
  0
VERTEX
  5
EC6
  8
0
 10
0.0
 20
0.0
 30
0.0
 70
   128
 71
    14
 72
   -13
 73
    -7
  0
VERTEX
  5
EC7
  8
0
 10
0.0
 20
0.0
 30
0.0
 70
   128
 71
   -14
 72
     7
 73
    -6
  0
VERTEX
  5
EC8
  8
0
 10
0.0
 20
0.0
 30
0.0
 70
   128
 71
   -14
 72
     6
 73
    -5
  0
VERTEX
  5
EC9
  8
0
 10
0.0
 20
0.0
 30
0.0
 70
   128
 71
     5
 72
    -4
 73
   -15
  0
VERTEX
  5
ECA
  8
0
 10
0.0
 20
0.0
 30
0.0
 70
   128
 71
    -5
 72
    15
 73
   -14
  0
VERTEX
  5
ECB
  8
0
 10
0.0
 20
0.0
 30
0.0
 70
   128
 71
     4
 72
     3
 73
    -2
  0
VERTEX
  5
ECC
  8
0
 10
0.0
 20
0.0
 30
0.0
 70
   128
 71
    -4
 72
    -2
 73
   -16
  0
VERTEX
  5
ECD
  8
0
 10
0.0
 20
0.0
 30
0.0
 70
   128
 71
    -4
 72
    16
 73
   -15
  0
VERTEX
  5
ECE
  8
0
 10
0.0
 20
0.0
 30
0.0
 70
   128
 71
     2
 72
    -1
 73
   -17
  0
VERTEX
  5
ECF
  8
0
 10
0.0
 20
0.0
 30
0.0
 70
   128
 71
    -2
 72
    17
 73
   -16
  0
VERTEX
  5
ED0
  8
0
 10
0.0
 20
0.0
 30
0.0
 70
   128
 71
     1
 72
    12
 73
   -11
  0
VERTEX
  5
ED1
  8
0
 10
0.0
 20
0.0
 30
0.0
 70
   128
 71
    -1
 72
   -11
 73
   -18
  0
VERTEX
  5
ED2
  8
0
 10
0.0
 20
0.0
 30
0.0
 70
   128
 71
    -1
 72
    18
 73
   -17
  0
VERTEX
  5
ED3
  8
0
 10
0.0
 20
0.0
 30
0.0
 70
   128
 71
    11
 72
   -10
 73
   -19
  0
VERTEX
  5
ED4
  8
0
 10
0.0
 20
0.0
 30
0.0
 70
   128
 71
   -11
 72
    19
 73
   -18
  0
VERTEX
  5
ED5
  8
0
 10
0.0
 20
0.0
 30
0.0
 70
   128
 71
    10
 72
     9
 73
    -8
  0
VERTEX
  5
ED6
  8
0
 10
0.0
 20
0.0
 30
0.0
 70
   128
 71
   -10
 72
    -8
 73
   -20
  0
VERTEX
  5
ED7
  8
0
 10
0.0
 20
0.0
 30
0.0
 70
   128
 71
   -10
 72
    20
 73
   -19
  0
VERTEX
  5
ED8
  8
0
 10
0.0
 20
0.0
 30
0.0
 70
   128
 71
     8
 72
    -7
 73
   -13
  0
VERTEX
  5
ED9
  8
0
 10
0.0
 20
0.0
 30
0.0
 70
   128
 71
    -8
 72
    13
 73
   -20
  0
SEQEND
  5
FE7
  8
0
  0
POLYLINE
  5
EDA
  8
0
 66
     1
 10
0.0
 20
0.0
 30
0.0
 70
    64
 71
    39
 72
    58
  0
VERTEX
  5
EDB
  8
0
 10
-14.35520514626099
 20
-22.34958361038552
 30
-47.53485202303572
 70
   192
  0
VERTEX
  5
EDC
  8
0
 10
-20.6256386652407
 20
-22.17040017167454
 30
-42.85048254232608
 70
   192
  0
VERTEX
  5
EDD
  8
0
 10
-10.79377555301232
 20
-22.14225665315796
 30
-49.17528120818065
 70
   192
  0
VERTEX
  5
EDE
  8
0
 10
-27.28898002527808
 20
-22.1422512651475
 30
-33.24483357739383
 70
   192
  0
VERTEX
  5
EDF
  8
0
 10
-29.80577899705571
 20
-22.25375461580678
 30
-21.81967003874993
 70
   192
  0
VERTEX
  5
EE0
  8
0
 10
-29.76936631439861
 20
-22.06209534942512
 30
-21.82070729287013
 70
   192
  0
VERTEX
  5
EE1
  8
0
 10
-26.04907706374752
 20
-22.08778389674999
 30
-6.752689004292336
 70
   192
  0
VERTEX
  5
EE2
  8
0
 10
-21.36511402261152
 20
-21.80063433442533
 30
-0.4859676916292983
 70
   192
  0
VERTEX
  5
EE3
  8
0
 10
-27.68918120484139
 20
-21.94213543606093
 30
-10.31732335561108
 70
   192
  0
VERTEX
  5
EE4
  8
0
 10
-20.55174055375219
 20
-22.00686325924408
 30
-42.77396469384937
 70
   192
  0
VERTEX
  5
EE5
  8
0
 10
-10.75544389740272
 20
-21.97882154902144
 30
-49.07588359926339
 70
   192
  0
VERTEX
  5
EE6
  8
0
 10
-29.66239105544676
 20
-21.89895022628608
 30
-21.82026399557619
 70
   192
  0
VERTEX
  5
EE7
  8
0
 10
-27.19097748579026
 20
-21.97881618050193
 30
-33.20306386222612
 70
   192
  0
VERTEX
  5
EE8
  8
0
 10
-21.28854088225298
 20
-21.63843503829261
 30
-0.562702144478326
 70
   192
  0
VERTEX
  5
EE9
  8
0
 10
-27.58973095016132
 20
-21.77942426413919
 30
-10.35849318825929
 70
   192
  0
VERTEX
  5
EEA
  8
0
 10
-0.3359768455151188
 20
-21.48077605943717
 30
8.62669287559647
 70
   192
  0
VERTEX
  5
EEB
  8
0
 10
-11.71811991913059
 20
-21.49744688031095
 30
6.075788748417988
 70
   192
  0
VERTEX
  5
EEC
  8
0
 10
-11.75994666839176
 20
-21.65913430453164
 30
6.176624920695012
 70
   192
  0
VERTEX
  5
EED
  8
0
 10
-20.43999218145407
 20
-21.89648329132009
 30
-42.65825472144347
 70
   192
  0
VERTEX
  5
EEE
  8
0
 10
-10.69692448793055
 20
-21.86859394797683
 30
-48.92593164553375
 70
   192
  0
VERTEX
  5
EEF
  8
0
 10
0.7040267361579865
 20
-21.81860322339772
 30
-51.04658224971134
 70
   192
  0
VERTEX
  5
EF0
  8
0
 10
-29.50113923364247
 20
-21.78915661247336
 30
-21.81840763486259
 70
   192
  0
VERTEX
  5
EF1
  8
0
 10
-27.04315428764259
 20
-21.8685886086276
 30
-33.13935814637233
 70
   192
  0
VERTEX
  5
EF2
  8
0
 10
-21.17278904633266
 20
-21.53005695462805
 30
-0.676350449378269
 70
   192
  0
VERTEX
  5
EF3
  8
0
 10
-27.43974109311425
 20
-21.67028010421901
 30
-10.41891527761967
 70
   192
  0
VERTEX
  5
EF4
  8
0
 10
-11.65436973235843
 20
-21.38983486709968
 30
5.926069671331966
 70
   192
  0
VERTEX
  5
EF5
  8
0
 10
-25.10124335654253
 20
-21.84365784720423
 30
-36.49394004952276
 70
   192
  0
VERTEX
  5
EF6
  8
0
 10
-29.31015997710402
 20
-21.74942959040837
 30
-21.81542082482004
 70
   192
  0
VERTEX
  5
EF7
  8
0
 10
-15.00880114836385
 20
-21.39777475078953
 30
3.983755024911823
 70
   192
  0
VERTEX
  5
EF8
  8
0
 10
0.7087895785968111
 20
-22.00319905526918
 30
-51.22793547492491
 70
   192
  0
VERTEX
  5
EF9
  8
0
 10
-0.3343519070771155
 20
-21.29937436124513
 30
8.442090379470608
 70
   192
  0
VERTEX
  5
EFA
  8
0
 10
0.69908952439274
 20
-21.74943939266033
 30
-50.79722450155521
 70
   192
  0
VERTEX
  5
EFB
  8
0
 10
-0.3305632478908065
 20
-21.23457379825692
 30
8.191543315616805
 70
   192
  0
VERTEX
  5
EFC
  8
0
 10
0.7121018519240543
 20
-22.25376458419861
 30
-51.29269072695517
 70
   192
  0
VERTEX
  5
EFD
  8
0
 10
-25.52552480665419
 20
-22.34957996170088
 30
-36.74697772488828
 70
   192
  0
VERTEX
  5
EFE
  8
0
 10
-15.26202425596401
 20
-21.89613952466899
 30
4.41677997792655
 70
   192
  0
VERTEX
  5
EFF
  8
0
 10
-0.3350026622626199
 20
-21.73017245429683
 30
8.695886714236707
 70
   192
  0
VERTEX
  5
F00
  8
0
 10
-14.11709569048922
 20
-21.84366143507746
 30
-47.10201644270106
 70
   192
  0
VERTEX
  5
F01
  8
0
 10
-25.61606974268431
 20
-21.58622505000253
 30
-6.999556140936748
 70
   192
  0
VERTEX
  5
F02
  8
0
 10
0.0
 20
0.0
 30
0.0
 70
   128
 71
     1
 72
     2
 73
     3
  0
VERTEX
  5
F03
  8
0
 10
0.0
 20
0.0
 30
0.0
 70
   128
 71
     4
 72
     5
 73
     6
  0
VERTEX
  5
F04
  8
0
 10
0.0
 20
0.0
 30
0.0
 70
   128
 71
     7
 72
     8
 73
     9
  0
VERTEX
  5
F05
  8
0
 10
0.0
 20
0.0
 30
0.0
 70
   128
 71
    10
 72
    11
 73
    -3
  0
VERTEX
  5
F06
  8
0
 10
0.0
 20
0.0
 30
0.0
 70
   128
 71
   -10
 72
     3
 73
     2
  0
VERTEX
  5
F07
  8
0
 10
0.0
 20
0.0
 30
0.0
 70
   128
 71
    12
 72
    13
 73
    -4
  0
VERTEX
  5
F08
  8
0
 10
0.0
 20
0.0
 30
0.0
 70
   128
 71
   -12
 72
     4
 73
     6
  0
VERTEX
  5
F09
  8
0
 10
0.0
 20
0.0
 30
0.0
 70
   128
 71
    13
 72
    10
 73
    -2
  0
VERTEX
  5
F0A
  8
0
 10
0.0
 20
0.0
 30
0.0
 70
   128
 71
   -13
 72
     2
 73
     4
  0
VERTEX
  5
F0B
  8
0
 10
0.0
 20
0.0
 30
0.0
 70
   128
 71
    14
 72
    15
 73
    -9
  0
VERTEX
  5
F0C
  8
0
 10
0.0
 20
0.0
 30
0.0
 70
   128
 71
   -14
 72
     9
 73
     8
  0
VERTEX
  5
F0D
  8
0
 10
0.0
 20
0.0
 30
0.0
 70
   128
 71
    15
 72
    12
 73
    -6
  0
VERTEX
  5
F0E
  8
0
 10
0.0
 20
0.0
 30
0.0
 70
   128
 71
   -15
 72
     6
 73
     9
  0
VERTEX
  5
F0F
  8
0
 10
0.0
 20
0.0
 30
0.0
 70
   128
 71
    16
 72
    17
 73
    18
  0
VERTEX
  5
F10
  8
0
 10
0.0
 20
0.0
 30
0.0
 70
   128
 71
    17
 72
    14
 73
    -8
  0
VERTEX
  5
F11
  8
0
 10
0.0
 20
0.0
 30
0.0
 70
   128
 71
   -17
 72
     8
 73
    18
  0
VERTEX
  5
F12
  8
0
 10
0.0
 20
0.0
 30
0.0
 70
   128
 71
    19
 72
    20
 73
   -11
  0
VERTEX
  5
F13
  8
0
 10
0.0
 20
0.0
 30
0.0
 70
   128
 71
   -19
 72
    11
 73
    10
  0
VERTEX
  5
F14
  8
0
 10
0.0
 20
0.0
 30
0.0
 70
   128
 71
    21
 72
    11
 73
    20
  0
VERTEX
  5
F15
  8
0
 10
0.0
 20
0.0
 30
0.0
 70
   128
 71
    22
 72
    23
 73
   -13
  0
VERTEX
  5
F16
  8
0
 10
0.0
 20
0.0
 30
0.0
 70
   128
 71
   -22
 72
    13
 73
    12
  0
VERTEX
  5
F17
  8
0
 10
0.0
 20
0.0
 30
0.0
 70
   128
 71
    23
 72
    19
 73
   -10
  0
VERTEX
  5
F18
  8
0
 10
0.0
 20
0.0
 30
0.0
 70
   128
 71
   -23
 72
    10
 73
    13
  0
VERTEX
  5
F19
  8
0
 10
0.0
 20
0.0
 30
0.0
 70
   128
 71
    24
 72
    25
 73
   -15
  0
VERTEX
  5
F1A
  8
0
 10
0.0
 20
0.0
 30
0.0
 70
   128
 71
   -24
 72
    15
 73
    14
  0
VERTEX
  5
F1B
  8
0
 10
0.0
 20
0.0
 30
0.0
 70
   128
 71
    25
 72
    22
 73
   -12
  0
VERTEX
  5
F1C
  8
0
 10
0.0
 20
0.0
 30
0.0
 70
   128
 71
   -25
 72
    12
 73
    15
  0
VERTEX
  5
F1D
  8
0
 10
0.0
 20
0.0
 30
0.0
 70
   128
 71
    26
 72
    24
 73
   -14
  0
VERTEX
  5
F1E
  8
0
 10
0.0
 20
0.0
 30
0.0
 70
   128
 71
   -26
 72
    14
 73
    17
  0
VERTEX
  5
F1F
  8
0
 10
0.0
 20
0.0
 30
0.0
 70
   128
 71
    27
 72
    19
 73
    23
  0
VERTEX
  5
F20
  8
0
 10
0.0
 20
0.0
 30
0.0
 70
   128
 71
    25
 72
    28
 73
    22
  0
VERTEX
  5
F21
  8
0
 10
0.0
 20
0.0
 30
0.0
 70
   128
 71
    29
 72
    24
 73
    26
  0
VERTEX
  5
F22
  8
0
 10
0.0
 20
0.0
 30
0.0
 70
   128
 71
    30
 72
     3
 73
    11
  0
VERTEX
  5
F23
  8
0
 10
0.0
 20
0.0
 30
0.0
 70
   128
 71
    30
 72
    11
 73
    21
  0
VERTEX
  5
F24
  8
0
 10
0.0
 20
0.0
 30
0.0
 70
   128
 71
    31
 72
    26
 73
    17
  0
VERTEX
  5
F25
  8
0
 10
0.0
 20
0.0
 30
0.0
 70
   128
 71
    31
 72
    17
 73
    16
  0
VERTEX
  5
F26
  8
0
 10
0.0
 20
0.0
 30
0.0
 70
   128
 71
    20
 72
    32
 73
    21
  0
VERTEX
  5
F27
  8
0
 10
0.0
 20
0.0
 30
0.0
 70
   128
 71
    33
 72
    26
 73
    31
  0
VERTEX
  5
F28
  8
0
 10
0.0
 20
0.0
 30
0.0
 70
   128
 71
     3
 72
    30
 73
    34
  0
VERTEX
  5
F29
  8
0
 10
0.0
 20
0.0
 30
0.0
 70
   128
 71
    35
 72
     4
 73
     2
  0
VERTEX
  5
F2A
  8
0
 10
0.0
 20
0.0
 30
0.0
 70
   128
 71
    35
 72
     2
 73
     1
  0
VERTEX
  5
F2B
  8
0
 10
0.0
 20
0.0
 30
0.0
 70
   128
 71
     1
 72
     3
 73
    34
  0
VERTEX
  5
F2C
  8
0
 10
0.0
 20
0.0
 30
0.0
 70
   128
 71
     5
 72
     4
 73
    35
  0
VERTEX
  5
F2D
  8
0
 10
0.0
 20
0.0
 30
0.0
 70
   128
 71
    36
 72
    18
 73
     8
  0
VERTEX
  5
F2E
  8
0
 10
0.0
 20
0.0
 30
0.0
 70
   128
 71
    36
 72
     8
 73
     7
  0
VERTEX
  5
F2F
  8
0
 10
0.0
 20
0.0
 30
0.0
 70
   128
 71
     7
 72
     9
 73
     6
  0
VERTEX
  5
F30
  8
0
 10
0.0
 20
0.0
 30
0.0
 70
   128
 71
     7
 72
     6
 73
     5
  0
VERTEX
  5
F31
  8
0
 10
0.0
 20
0.0
 30
0.0
 70
   128
 71
    37
 72
    16
 73
    18
  0
VERTEX
  5
F32
  8
0
 10
0.0
 20
0.0
 30
0.0
 70
   128
 71
    37
 72
    18
 73
    36
  0
VERTEX
  5
F33
  8
0
 10
0.0
 20
0.0
 30
0.0
 70
   128
 71
    27
 72
    38
 73
    20
  0
VERTEX
  5
F34
  8
0
 10
0.0
 20
0.0
 30
0.0
 70
   128
 71
    27
 72
    20
 73
    19
  0
VERTEX
  5
F35
  8
0
 10
0.0
 20
0.0
 30
0.0
 70
   128
 71
    38
 72
    32
 73
    20
  0
VERTEX
  5
F36
  8
0
 10
0.0
 20
0.0
 30
0.0
 70
   128
 71
    22
 72
    28
 73
    27
  0
VERTEX
  5
F37
  8
0
 10
0.0
 20
0.0
 30
0.0
 70
   128
 71
    22
 72
    27
 73
    23
  0
VERTEX
  5
F38
  8
0
 10
0.0
 20
0.0
 30
0.0
 70
   128
 71
    29
 72
    39
 73
    25
  0
VERTEX
  5
F39
  8
0
 10
0.0
 20
0.0
 30
0.0
 70
   128
 71
    29
 72
    25
 73
    24
  0
VERTEX
  5
F3A
  8
0
 10
0.0
 20
0.0
 30
0.0
 70
   128
 71
    39
 72
    28
 73
    25
  0
VERTEX
  5
F3B
  8
0
 10
0.0
 20
0.0
 30
0.0
 70
   128
 71
    33
 72
    29
 73
    26
  0
SEQEND
  5
FE8
  8
0
  0
POLYLINE
  5
F3C
  8
0
 66
     1
 10
0.0
 20
0.0
 30
0.0
 70
    64
 71
    39
 72
    58
  0
VERTEX
  5
F3D
  8
0
 10
14.73230433592245
 20
-21.63435342810992
 30
4.938048010317234
 70
   192
  0
VERTEX
  5
F3E
  8
0
 10
20.9994571430689
 20
-21.43088257672597
 30
0.250281382490094
 70
   192
  0
VERTEX
  5
F3F
  8
0
 10
11.16759403084052
 20
-21.45902609524254
 30
6.575080048344674
 70
   192
  0
VERTEX
  5
F40
  8
0
 10
27.66279850310628
 20
-21.45903148325301
 30
-9.355367582442156
 70
   192
  0
VERTEX
  5
F41
  8
0
 10
30.18287818671716
 20
-21.73018242268866
 30
-20.77713397396856
 70
   192
  0
VERTEX
  5
F42
  8
0
 10
30.1431847922268
 20
-21.53918739897539
 30
-20.77949386696585
 70
   192
  0
VERTEX
  5
F43
  8
0
 10
26.42617625340896
 20
-21.89615314174545
 30
-35.84411500842616
 70
   192
  0
VERTEX
  5
F44
  8
0
 10
21.73893250043972
 20
-21.80064841397518
 30
-42.11423346820668
 70
   192
  0
VERTEX
  5
F45
  8
0
 10
28.06299968266958
 20
-21.65914731233957
 30
-32.2828778042249
 70
   192
  0
VERTEX
  5
F46
  8
0
 10
20.92277777838403
 20
-21.27002084595866
 30
0.1708835717493145
 70
   192
  0
VERTEX
  5
F47
  8
0
 10
11.12648112203455
 20
-21.29806255618131
 30
6.472802477163341
 70
   192
  0
VERTEX
  5
F48
  8
0
 10
30.0334282800786
 20
-21.37793387891667
 30
-20.78281712652387
 70
   192
  0
VERTEX
  5
F49
  8
0
 10
27.56201471042209
 20
-21.29806792470081
 30
-9.400017259873938
 70
   192
  0
VERTEX
  5
F4A
  8
0
 10
21.65957810688481
 20
-21.63844906691013
 30
-42.04037897762173
 70
   192
  0
VERTEX
  5
F4B
  8
0
 10
27.96076817479315
 20
-21.49745984106355
 30
-32.24458793384076
 70
   192
  0
VERTEX
  5
F4C
  8
0
 10
0.7087895785968111
 20
-22.00319905526918
 30
-51.22793547492491
 70
   192
  0
VERTEX
  5
F4D
  8
0
 10
12.08915714376242
 20
-21.77943722489179
 30
-48.67886987051804
 70
   192
  0
VERTEX
  5
F4E
  8
0
 10
12.13376514621995
 20
-21.94214844386887
 30
-48.77682608053099
 70
   192
  0
VERTEX
  5
F4F
  8
0
 10
20.80917103211344
 20
-21.16364457032791
 30
0.053249270080542
 70
   192
  0
VERTEX
  5
F50
  8
0
 10
11.06610333858993
 20
-21.19153391367118
 30
6.320926194170834
 70
   192
  0
VERTEX
  5
F51
  8
0
 10
-0.3343519070771155
 20
-21.29937436124513
 30
8.442090379470608
 70
   192
  0
VERTEX
  5
F52
  8
0
 10
29.87031808430185
 20
-21.27097124917464
 30
-20.78659781650033
 70
   192
  0
VERTEX
  5
F53
  8
0
 10
27.41233313830197
 20
-21.1915392530204
 30
-9.465647304990595
 70
   192
  0
VERTEX
  5
F54
  8
0
 10
21.54196789699203
 20
-21.53007090701995
 30
-41.92865500198466
 70
   192
  0
VERTEX
  5
F55
  8
0
 10
27.80891994377362
 20
-21.38984775742899
 30
-32.18609017374325
 70
   192
  0
VERTEX
  5
F56
  8
0
 10
12.02354858301781
 20
-21.67029299454832
 30
-48.53107512269489
 70
   192
  0
VERTEX
  5
F57
  8
0
 10
25.46976963304447
 20
-21.14035534371302
 30
-6.111741136415662
 70
   192
  0
VERTEX
  5
F58
  8
0
 10
29.67868625360596
 20
-21.23458360050888
 30
-20.79026036111837
 70
   192
  0
VERTEX
  5
F59
  8
0
 10
15.37732742486577
 20
-21.58623844012771
 30
-46.58943621085023
 70
   192
  0
VERTEX
  5
F5A
  8
0
 10
-0.3359768455151188
 20
-21.48077605943717
 30
8.62669287559647
 70
   192
  0
VERTEX
  5
F5B
  8
0
 10
0.7040267361579865
 20
-21.81860322339772
 30
-51.04658224971134
 70
   192
  0
VERTEX
  5
F5C
  8
0
 10
-0.3305632478907901
 20
-21.23457379825692
 30
8.191543315616808
 70
   192
  0
VERTEX
  5
F5D
  8
0
 10
0.6990895243927401
 20
-21.74943939266032
 30
-50.79722450155521
 70
   192
  0
VERTEX
  5
F5E
  8
0
 10
25.90262399631564
 20
-21.63435707679456
 30
-5.849826287830214
 70
   192
  0
VERTEX
  5
F5F
  8
0
 10
-0.3350026622626032
 20
-21.73017245429683
 30
8.695886714236698
 70
   192
  0
VERTEX
  5
F60
  8
0
 10
15.63912344562544
 20
-22.08779751382646
 30
-47.01358399064504
 70
   192
  0
VERTEX
  5
F61
  8
0
 10
0.7121018519240543
 20
-22.25376458419861
 30
-51.29269072695519
 70
   192
  0
VERTEX
  5
F62
  8
0
 10
14.48562196699116
 20
-21.14035175583978
 30
4.496335256762662
 70
   192
  0
VERTEX
  5
F63
  8
0
 10
25.98459601918624
 20
-21.39778814091472
 30
-35.60612504500167
 70
   192
  0
VERTEX
  5
F64
  8
0
 10
0.0
 20
0.0
 30
0.0
 70
   128
 71
     1
 72
     2
 73
     3
  0
VERTEX
  5
F65
  8
0
 10
0.0
 20
0.0
 30
0.0
 70
   128
 71
     4
 72
     5
 73
     6
  0
VERTEX
  5
F66
  8
0
 10
0.0
 20
0.0
 30
0.0
 70
   128
 71
     7
 72
     8
 73
     9
  0
VERTEX
  5
F67
  8
0
 10
0.0
 20
0.0
 30
0.0
 70
   128
 71
    10
 72
    11
 73
    -3
  0
VERTEX
  5
F68
  8
0
 10
0.0
 20
0.0
 30
0.0
 70
   128
 71
   -10
 72
     3
 73
     2
  0
VERTEX
  5
F69
  8
0
 10
0.0
 20
0.0
 30
0.0
 70
   128
 71
    12
 72
    13
 73
    -4
  0
VERTEX
  5
F6A
  8
0
 10
0.0
 20
0.0
 30
0.0
 70
   128
 71
   -12
 72
     4
 73
     6
  0
VERTEX
  5
F6B
  8
0
 10
0.0
 20
0.0
 30
0.0
 70
   128
 71
    13
 72
    10
 73
    -2
  0
VERTEX
  5
F6C
  8
0
 10
0.0
 20
0.0
 30
0.0
 70
   128
 71
   -13
 72
     2
 73
     4
  0
VERTEX
  5
F6D
  8
0
 10
0.0
 20
0.0
 30
0.0
 70
   128
 71
    14
 72
    15
 73
    -9
  0
VERTEX
  5
F6E
  8
0
 10
0.0
 20
0.0
 30
0.0
 70
   128
 71
   -14
 72
     9
 73
     8
  0
VERTEX
  5
F6F
  8
0
 10
0.0
 20
0.0
 30
0.0
 70
   128
 71
    15
 72
    12
 73
    -6
  0
VERTEX
  5
F70
  8
0
 10
0.0
 20
0.0
 30
0.0
 70
   128
 71
   -15
 72
     6
 73
     9
  0
VERTEX
  5
F71
  8
0
 10
0.0
 20
0.0
 30
0.0
 70
   128
 71
    16
 72
    17
 73
    18
  0
VERTEX
  5
F72
  8
0
 10
0.0
 20
0.0
 30
0.0
 70
   128
 71
    17
 72
    14
 73
    -8
  0
VERTEX
  5
F73
  8
0
 10
0.0
 20
0.0
 30
0.0
 70
   128
 71
   -17
 72
     8
 73
    18
  0
VERTEX
  5
F74
  8
0
 10
0.0
 20
0.0
 30
0.0
 70
   128
 71
    19
 72
    20
 73
   -11
  0
VERTEX
  5
F75
  8
0
 10
0.0
 20
0.0
 30
0.0
 70
   128
 71
   -19
 72
    11
 73
    10
  0
VERTEX
  5
F76
  8
0
 10
0.0
 20
0.0
 30
0.0
 70
   128
 71
    21
 72
    11
 73
    20
  0
VERTEX
  5
F77
  8
0
 10
0.0
 20
0.0
 30
0.0
 70
   128
 71
    22
 72
    23
 73
   -13
  0
VERTEX
  5
F78
  8
0
 10
0.0
 20
0.0
 30
0.0
 70
   128
 71
   -22
 72
    13
 73
    12
  0
VERTEX
  5
F79
  8
0
 10
0.0
 20
0.0
 30
0.0
 70
   128
 71
    23
 72
    19
 73
   -10
  0
VERTEX
  5
F7A
  8
0
 10
0.0
 20
0.0
 30
0.0
 70
   128
 71
   -23
 72
    10
 73
    13
  0
VERTEX
  5
F7B
  8
0
 10
0.0
 20
0.0
 30
0.0
 70
   128
 71
    24
 72
    25
 73
   -15
  0
VERTEX
  5
F7C
  8
0
 10
0.0
 20
0.0
 30
0.0
 70
   128
 71
   -24
 72
    15
 73
    14
  0
VERTEX
  5
F7D
  8
0
 10
0.0
 20
0.0
 30
0.0
 70
   128
 71
    25
 72
    22
 73
   -12
  0
VERTEX
  5
F7E
  8
0
 10
0.0
 20
0.0
 30
0.0
 70
   128
 71
   -25
 72
    12
 73
    15
  0
VERTEX
  5
F7F
  8
0
 10
0.0
 20
0.0
 30
0.0
 70
   128
 71
    26
 72
    24
 73
   -14
  0
VERTEX
  5
F80
  8
0
 10
0.0
 20
0.0
 30
0.0
 70
   128
 71
   -26
 72
    14
 73
    17
  0
VERTEX
  5
F81
  8
0
 10
0.0
 20
0.0
 30
0.0
 70
   128
 71
    27
 72
    19
 73
    23
  0
VERTEX
  5
F82
  8
0
 10
0.0
 20
0.0
 30
0.0
 70
   128
 71
    25
 72
    28
 73
    22
  0
VERTEX
  5
F83
  8
0
 10
0.0
 20
0.0
 30
0.0
 70
   128
 71
    29
 72
    24
 73
    26
  0
VERTEX
  5
F84
  8
0
 10
0.0
 20
0.0
 30
0.0
 70
   128
 71
     3
 72
    11
 73
    21
  0
VERTEX
  5
F85
  8
0
 10
0.0
 20
0.0
 30
0.0
 70
   128
 71
     3
 72
    21
 73
    30
  0
VERTEX
  5
F86
  8
0
 10
0.0
 20
0.0
 30
0.0
 70
   128
 71
    16
 72
    31
 73
    26
  0
VERTEX
  5
F87
  8
0
 10
0.0
 20
0.0
 30
0.0
 70
   128
 71
    16
 72
    26
 73
    17
  0
VERTEX
  5
F88
  8
0
 10
0.0
 20
0.0
 30
0.0
 70
   128
 71
    20
 72
    32
 73
    21
  0
VERTEX
  5
F89
  8
0
 10
0.0
 20
0.0
 30
0.0
 70
   128
 71
    31
 72
    33
 73
    26
  0
VERTEX
  5
F8A
  8
0
 10
0.0
 20
0.0
 30
0.0
 70
   128
 71
    34
 72
     4
 73
     2
  0
VERTEX
  5
F8B
  8
0
 10
0.0
 20
0.0
 30
0.0
 70
   128
 71
    34
 72
     2
 73
     1
  0
VERTEX
  5
F8C
  8
0
 10
0.0
 20
0.0
 30
0.0
 70
   128
 71
     1
 72
     3
 73
    30
  0
VERTEX
  5
F8D
  8
0
 10
0.0
 20
0.0
 30
0.0
 70
   128
 71
     1
 72
    30
 73
    35
  0
VERTEX
  5
F8E
  8
0
 10
0.0
 20
0.0
 30
0.0
 70
   128
 71
     5
 72
     4
 73
    34
  0
VERTEX
  5
F8F
  8
0
 10
0.0
 20
0.0
 30
0.0
 70
   128
 71
    36
 72
    18
 73
     8
  0
VERTEX
  5
F90
  8
0
 10
0.0
 20
0.0
 30
0.0
 70
   128
 71
    36
 72
     8
 73
     7
  0
VERTEX
  5
F91
  8
0
 10
0.0
 20
0.0
 30
0.0
 70
   128
 71
     7
 72
     9
 73
     6
  0
VERTEX
  5
F92
  8
0
 10
0.0
 20
0.0
 30
0.0
 70
   128
 71
     7
 72
     6
 73
     5
  0
VERTEX
  5
F93
  8
0
 10
0.0
 20
0.0
 30
0.0
 70
   128
 71
    37
 72
    16
 73
    18
  0
VERTEX
  5
F94
  8
0
 10
0.0
 20
0.0
 30
0.0
 70
   128
 71
    37
 72
    18
 73
    36
  0
VERTEX
  5
F95
  8
0
 10
0.0
 20
0.0
 30
0.0
 70
   128
 71
    27
 72
    38
 73
    20
  0
VERTEX
  5
F96
  8
0
 10
0.0
 20
0.0
 30
0.0
 70
   128
 71
    27
 72
    20
 73
    19
  0
VERTEX
  5
F97
  8
0
 10
0.0
 20
0.0
 30
0.0
 70
   128
 71
    38
 72
    32
 73
    20
  0
VERTEX
  5
F98
  8
0
 10
0.0
 20
0.0
 30
0.0
 70
   128
 71
    22
 72
    28
 73
    27
  0
VERTEX
  5
F99
  8
0
 10
0.0
 20
0.0
 30
0.0
 70
   128
 71
    22
 72
    27
 73
    23
  0
VERTEX
  5
F9A
  8
0
 10
0.0
 20
0.0
 30
0.0
 70
   128
 71
    29
 72
    39
 73
    25
  0
VERTEX
  5
F9B
  8
0
 10
0.0
 20
0.0
 30
0.0
 70
   128
 71
    29
 72
    25
 73
    24
  0
VERTEX
  5
F9C
  8
0
 10
0.0
 20
0.0
 30
0.0
 70
   128
 71
    39
 72
    28
 73
    25
  0
VERTEX
  5
F9D
  8
0
 10
0.0
 20
0.0
 30
0.0
 70
   128
 71
    33
 72
    29
 73
    26
  0
SEQEND
  5
FE9
  8
0
  0
POLYLINE
  5
F9E
  8
0
 66
     1
 10
0.0
 20
0.0
 30
0.0
 70
    64
 71
    10
 72
     8
  0
VERTEX
  5
F9F
  8
0
 10
0.184263138250968
 20
-21.60297533859758
 30
-33.80234802078596
 70
   192
  0
VERTEX
  5
FA0
  8
0
 10
0.1842631382509687
 20
-21.38103785231968
 30
-8.803333165152452
 70
   192
  0
VERTEX
  5
FA1
  8
0
 10
0.1868350121988238
 20
-21.68101500659312
 30
-8.800670013186476
 70
   192
  0
VERTEX
  5
FA2
  8
0
 10
0.186835012198822
 20
-21.90295249287103
 30
-33.79968486881999
 70
   192
  0
VERTEX
  5
FA3
  8
0
 10
12.68637566100843
 20
-21.68482655801666
 30
-21.30112876640159
 70
   192
  0
VERTEX
  5
FA4
  8
0
 10
12.68380378706057
 20
-21.38484940374321
 30
-21.30379191836756
 70
   192
  0
VERTEX
  5
FA5
  8
0
 10
9.025344966688994
 20
-21.7946789235905
 30
-30.13933659334437
 70
   192
  0
VERTEX
  5
FA6
  8
0
 10
9.022773092741138
 20
-21.49470176931705
 30
-30.14199974531035
 70
   192
  0
VERTEX
  5
FA7
  8
0
 10
9.025344966688994
 20
-21.6377454220439
 30
-12.46236366594267
 70
   192
  0
VERTEX
  5
FA8
  8
0
 10
9.02277309274114
 20
-21.33776826777044
 30
-12.46502681790865
 70
   192
  0
VERTEX
  5
FA9
  8
0
 10
0.0
 20
0.0
 30
0.0
 70
   128
 71
     8
 72
     1
 73
    -4
  0
VERTEX
  5
FAA
  8
0
 10
0.0
 20
0.0
 30
0.0
 70
   128
 71
     7
 72
    -8
 73
     4
  0
VERTEX
  5
FAB
  8
0
 10
0.0
 20
0.0
 30
0.0
 70
   128
 71
     6
 72
     8
 73
    -7
  0
VERTEX
  5
FAC
  8
0
 10
0.0
 20
0.0
 30
0.0
 70
   128
 71
     5
 72
    -6
 73
     7
  0
VERTEX
  5
FAD
  8
0
 10
0.0
 20
0.0
 30
0.0
 70
   128
 71
    10
 72
     6
 73
    -5
  0
VERTEX
  5
FAE
  8
0
 10
0.0
 20
0.0
 30
0.0
 70
   128
 71
     9
 72
   -10
 73
     5
  0
VERTEX
  5
FAF
  8
0
 10
0.0
 20
0.0
 30
0.0
 70
   128
 71
     3
 72
     2
 73
   -10
  0
VERTEX
  5
FB0
  8
0
 10
0.0
 20
0.0
 30
0.0
 70
   128
 71
     9
 72
    -3
 73
    10
  0
SEQEND
  5
FEA
  8
0
  0
ENDBLK
  5
FDD
  8
0
  0
ENDSEC
  0
SECTION
  2
ENTITIES
  0
INSERT
  5
BF
  8
0
  2
*X1
 10
0.0
 20
0.0
 30
0.0
  0
INSERT
  5
C0
  8
0
  2
*X2
 10
0.0
 20
0.0
 30
0.0
  0
INSERT
  5
C1
  8
0
  2
*X3
 10
0.0
 20
0.0
 30
0.0
  0
ENDSEC
  0
EOF
