  0
SECTION
  2
HEADER
  9
$ACADVER
  1
AC1009
  9
$DWGCODEPAGE
  3
ansi_1250
  9
$INSBASE
 10
0.0
 20
0.0
 30
0.0
  9
$EXTMIN
 10
-500.0
 20
-299.9999999999999
 30
-28.0
  9
$EXTMAX
 10
500.0
 20
300.0000000000001
 30
5.0
  9
$LIMMIN
 10
0.0
 20
0.0
  9
$LIMMAX
 10
420.0
 20
297.0
  9
$ORTHOMODE
 70
     0
  9
$REGENMODE
 70
     1
  9
$FILLMODE
 70
     1
  9
$QTEXTMODE
 70
     0
  9
$MIRRTEXT
 70
     0
  9
$DRAGMODE
 70
     2
  9
$LTSCALE
 40
1.0
  9
$OSMODE
 70
   511
  9
$ATTMODE
 70
     1
  9
$TEXTSIZE
 40
2.5
  9
$TRACEWID
 40
1.0
  9
$TEXTSTYLE
  7
STANDARD
  9
$CLAYER
  8
0
  9
$CELTYPE
  6
BYLAYER
  9
$CECOLOR
 62
   256
  9
$DIMSCALE
 40
1.0
  9
$DIMASZ
 40
2.5
  9
$DIMEXO
 40
0.625
  9
$DIMDLI
 40
3.75
  9
$DIMRND
 40
0.0
  9
$DIMDLE
 40
0.0
  9
$DIMEXE
 40
1.25
  9
$DIMTP
 40
0.0
  9
$DIMTM
 40
0.0
  9
$DIMTXT
 40
2.5
  9
$DIMCEN
 40
-2.5
  9
$DIMTSZ
 40
0.0
  9
$DIMTOL
 70
     0
  9
$DIMLIM
 70
     0
  9
$DIMTIH
 70
     0
  9
$DIMTOH
 70
     0
  9
$DIMSE1
 70
     0
  9
$DIMSE2
 70
     0
  9
$DIMTAD
 70
     1
  9
$DIMZIN
 70
     8
  9
$DIMBLK
  1

  9
$DIMASO
 70
     1
  9
$DIMSHO
 70
     1
  9
$DIMPOST
  1

  9
$DIMAPOST
  1

  9
$DIMALT
 70
     0
  9
$DIMALTD
 70
     3
  9
$DIMALTF
 40
0.03937007874016
  9
$DIMLFAC
 40
1.0
  9
$DIMTOFL
 70
     1
  9
$DIMTVP
 40
0.0
  9
$DIMTIX
 70
     0
  9
$DIMSOXD
 70
     0
  9
$DIMSAH
 70
     0
  9
$DIMBLK1
  1

  9
$DIMBLK2
  1

  9
$DIMSTYLE
  2
ISO-25
  9
$DIMCLRD
 70
     0
  9
$DIMCLRE
 70
     0
  9
$DIMCLRT
 70
     0
  9
$DIMTFAC
 40
1.0
  9
$DIMGAP
 40
0.625
  9
$LUNITS
 70
     2
  9
$LUPREC
 70
     3
  9
$SKETCHINC
 40
1.0
  9
$FILLETRAD
 40
10.0
  9
$AUNITS
 70
     0
  9
$AUPREC
 70
     0
  9
$MENU
  1
.
  9
$ELEVATION
 40
0.0
  9
$PELEVATION
 40
0.0
  9
$THICKNESS
 40
0.0
  9
$LIMCHECK
 70
     0
  9
$CHAMFERA
 40
10.0
  9
$CHAMFERB
 40
10.0
  9
$SKPOLY
 70
     0
  9
$TDCREATE
 40
2455022.679026181
  9
$TDUPDATE
 40
2460367.408895047
  9
$TDINDWG
 40
0.0788177894
  9
$TDUSRTIMER
 40
0.0788177894
  9
$USRTIMER
 70
     1
  9
$ANGBASE
 50
0.0
  9
$ANGDIR
 70
     0
  9
$PDMODE
 70
     0
  9
$PDSIZE
 40
0.0
  9
$PLINEWID
 40
0.0
  9
$COORDS
 70
     1
  9
$SPLFRAME
 70
     0
  9
$SPLINETYPE
 70
     6
  9
$SPLINESEGS
 70
     8
  9
$ATTDIA
 70
     0
  9
$ATTREQ
 70
     1
  9
$HANDLING
 70
     1
  9
$HANDSEED
  5
B09
  9
$SURFTAB1
 70
     6
  9
$SURFTAB2
 70
     6
  9
$SURFTYPE
 70
     6
  9
$SURFU
 70
     6
  9
$SURFV
 70
     6
  9
$UCSNAME
  2

  9
$UCSORG
 10
0.0
 20
0.0
 30
0.0
  9
$UCSXDIR
 10
1.0
 20
0.0
 30
0.0
  9
$UCSYDIR
 10
0.0
 20
1.0
 30
0.0
  9
$PUCSNAME
  2

  9
$PUCSORG
 10
0.0
 20
0.0
 30
0.0
  9
$PUCSXDIR
 10
1.0
 20
0.0
 30
0.0
  9
$PUCSYDIR
 10
0.0
 20
1.0
 30
0.0
  9
$USERI1
 70
     0
  9
$USERI2
 70
     0
  9
$USERI3
 70
     0
  9
$USERI4
 70
     0
  9
$USERI5
 70
     0
  9
$USERR1
 40
0.0
  9
$USERR2
 40
0.0
  9
$USERR3
 40
0.0
  9
$USERR4
 40
0.0
  9
$USERR5
 40
0.0
  9
$WORLDVIEW
 70
     1
  9
$SHADEDGE
 70
     3
  9
$SHADEDIF
 70
    70
  9
$TILEMODE
 70
     1
  9
$MAXACTVP
 70
    64
  9
$PLIMCHECK
 70
     0
  9
$PEXTMIN
 10
1.000000000000000E+20
 20
1.000000000000000E+20
 30
1.000000000000000E+20
  9
$PEXTMAX
 10
-1.000000000000000E+20
 20
-1.000000000000000E+20
 30
-1.000000000000000E+20
  9
$PLIMMIN
 10
0.0
 20
0.0
  9
$PLIMMAX
 10
0.0
 20
0.0
  9
$UNITMODE
 70
     0
  9
$VISRETAIN
 70
     1
  9
$PLINEGEN
 70
     0
  9
$PSLTSCALE
 70
     1
  0
ENDSEC
  0
SECTION
  2
TABLES
  0
TABLE
  2
VPORT
 70
     1
  0
VPORT
  2
*ACTIVE
 70
     0
 10
0.0
 20
0.0
 11
1.0
 21
1.0
 12
0.0
 22
0.0
 13
0.0
 23
0.0
 14
10.0
 24
10.0
 15
10.0
 25
10.0
 16
0.0
 26
0.0
 36
-1.0
 17
-0.0000000000000013
 27
0.0000000000000284
 37
0.0000000000000178
 40
612.0
 41
1.820143884892087
 42
50.0
 43
0.0
 44
0.0
 50
0.0
 51
0.0
 71
    16
 72
  1000
 73
     1
 74
     3
 75
     0
 76
     0
 77
     0
 78
     0
  0
ENDTAB
  0
TABLE
  2
LTYPE
 70
     1
  0
LTYPE
  2
CONTINUOUS
 70
     0
  3
Solid line
 72
    65
 73
     0
 40
0.0
  0
ENDTAB
  0
TABLE
  2
LAYER
 70
     1
  0
LAYER
  2
0
 70
     0
 62
     7
  6
CONTINUOUS
  0
ENDTAB
  0
TABLE
  2
STYLE
 70
     2
  0
STYLE
  2
STANDARD
 70
     0
 40
0.0
 41
1.0
 50
0.0
 71
     0
 42
2.5
  3
arial.ttf
  4

  0
STYLE
  2
ANNOTATIVE
 70
     0
 40
0.0
 41
1.0
 50
0.0
 71
     0
 42
2.5
  3
arial.ttf
  4

  0
ENDTAB
  0
TABLE
  2
VIEW
 70
     0
  0
ENDTAB
  0
TABLE
  2
UCS
 70
     0
  0
ENDTAB
  0
TABLE
  2
APPID
 70
     2
  0
APPID
  2
ACAD
 70
     0
  0
APPID
  2
ACADANNOTATIVE
 70
     0
  0
ENDTAB
  0
TABLE
  2
DIMSTYLE
 70
     2
  0
DIMSTYLE
  2
ISO-25
 70
     0
  3

  4

  5

  6

  7

 40
1.0
 41
2.5
 42
0.625
 43
3.75
 44
1.25
 45
0.0
 46
0.0
 47
0.0
 48
0.0
140
2.5
141
-2.5
142
0.0
143
0.03937007874016
144
1.0
145
0.0
146
1.0
147
0.625
 71
     0
 72
     0
 73
     0
 74
     0
 75
     0
 76
     0
 77
     1
 78
     8
170
     0
171
     3
172
     1
173
     0
174
     0
175
     0
176
     0
177
     0
178
     0
  0
DIMSTYLE
  2
ANNOTATIVE
 70
     0
  3

  4

  5

  6

  7

 40
0.0
 41
2.5
 42
0.625
 43
3.75
 44
1.25
 45
0.0
 46
0.0
 47
0.0
 48
0.0
140
2.5
141
-2.5
142
0.0
143
0.03937007874016
144
1.0
145
0.0
146
1.0
147
0.625
 71
     0
 72
     0
 73
     0
 74
     0
 75
     0
 76
     0
 77
     1
 78
     8
170
     0
171
     3
172
     1
173
     0
174
     0
175
     0
176
     0
177
     0
178
     0
  0
ENDTAB
  0
ENDSEC
  0
SECTION
  2
BLOCKS
  0
BLOCK
  8
0
  2
$MODEL_SPACE
 70
     0
 10
0.0
 20
0.0
 30
0.0
  3
$MODEL_SPACE
  1

  0
ENDBLK
  5
21
  8
0
  0
BLOCK
 67
     1
  8
0
  2
$PAPER_SPACE
 70
     0
 10
0.0
 20
0.0
 30
0.0
  3
$PAPER_SPACE
  1

  0
ENDBLK
  5
1D
 67
     1
  8
0
  0
BLOCK
  8
0
  2
*X1
 70
     1
 10
0.0
 20
0.0
 30
0.0
  3
*X1
  1

  0
POLYLINE
  5
5EF
  8
0
 66
     1
 10
0.0
 20
0.0
 30
0.0
 70
    64
 71
    10
 72
     8
  0
VERTEX
  5
5F0
  8
0
 10
-455.9999999999999
 20
-259.9999999999999
 30
-10.0
 70
   192
  0
VERTEX
  5
5F1
  8
0
 10
-463.9999999999999
 20
-259.9999999999999
 30
-10.0
 70
   192
  0
VERTEX
  5
5F2
  8
0
 10
-463.9999999999999
 20
-259.9999999999999
 30
-25.0
 70
   192
  0
VERTEX
  5
5F3
  8
0
 10
-455.9999999999999
 20
-259.9999999999999
 30
-25.0
 70
   192
  0
VERTEX
  5
5F4
  8
0
 10
-459.9999999999999
 20
-263.9999999999999
 30
-25.0
 70
   192
  0
VERTEX
  5
5F5
  8
0
 10
-459.9999999999999
 20
-263.9999999999999
 30
-10.0
 70
   192
  0
VERTEX
  5
5F6
  8
0
 10
-457.1715728752537
 20
-262.8284271247462
 30
-25.0
 70
   192
  0
VERTEX
  5
5F7
  8
0
 10
-457.1715728752537
 20
-262.8284271247462
 30
-10.0
 70
   192
  0
VERTEX
  5
5F8
  8
0
 10
-462.8284271247462
 20
-262.8284271247462
 30
-25.0
 70
   192
  0
VERTEX
  5
5F9
  8
0
 10
-462.8284271247462
 20
-262.8284271247462
 30
-10.0
 70
   192
  0
VERTEX
  5
5FA
  8
0
 10
0.0
 20
0.0
 30
0.0
 70
   128
 71
     8
 72
     1
 73
    -4
  0
VERTEX
  5
5FB
  8
0
 10
0.0
 20
0.0
 30
0.0
 70
   128
 71
     7
 72
    -8
 73
     4
  0
VERTEX
  5
5FC
  8
0
 10
0.0
 20
0.0
 30
0.0
 70
   128
 71
     6
 72
     8
 73
    -7
  0
VERTEX
  5
5FD
  8
0
 10
0.0
 20
0.0
 30
0.0
 70
   128
 71
     5
 72
    -6
 73
     7
  0
VERTEX
  5
5FE
  8
0
 10
0.0
 20
0.0
 30
0.0
 70
   128
 71
    10
 72
     6
 73
    -5
  0
VERTEX
  5
5FF
  8
0
 10
0.0
 20
0.0
 30
0.0
 70
   128
 71
     9
 72
   -10
 73
     5
  0
VERTEX
  5
600
  8
0
 10
0.0
 20
0.0
 30
0.0
 70
   128
 71
     2
 72
    10
 73
    -9
  0
VERTEX
  5
601
  8
0
 10
0.0
 20
0.0
 30
0.0
 70
   128
 71
     3
 72
    -2
 73
     9
  0
SEQEND
  5
AA3
  8
0
  0
POLYLINE
  5
602
  8
0
 66
     1
 10
0.0
 20
0.0
 30
0.0
 70
    64
 71
    10
 72
     8
  0
VERTEX
  5
603
  8
0
 10
-451.0
 20
260.0
 30
-10.0
 70
   192
  0
VERTEX
  5
604
  8
0
 10
-459.0
 20
260.0
 30
-10.0
 70
   192
  0
VERTEX
  5
605
  8
0
 10
-459.0
 20
260.0
 30
-25.0
 70
   192
  0
VERTEX
  5
606
  8
0
 10
-451.0
 20
260.0
 30
-25.0
 70
   192
  0
VERTEX
  5
607
  8
0
 10
-455.0
 20
256.0
 30
-25.0
 70
   192
  0
VERTEX
  5
608
  8
0
 10
-455.0
 20
256.0
 30
-10.0
 70
   192
  0
VERTEX
  5
609
  8
0
 10
-452.1715728752538
 20
257.1715728752538
 30
-25.0
 70
   192
  0
VERTEX
  5
60A
  8
0
 10
-452.1715728752538
 20
257.1715728752538
 30
-10.0
 70
   192
  0
VERTEX
  5
60B
  8
0
 10
-457.8284271247462
 20
257.1715728752538
 30
-25.0
 70
   192
  0
VERTEX
  5
60C
  8
0
 10
-457.8284271247462
 20
257.1715728752538
 30
-10.0
 70
   192
  0
VERTEX
  5
60D
  8
0
 10
0.0
 20
0.0
 30
0.0
 70
   128
 71
     8
 72
     1
 73
    -4
  0
VERTEX
  5
60E
  8
0
 10
0.0
 20
0.0
 30
0.0
 70
   128
 71
     7
 72
    -8
 73
     4
  0
VERTEX
  5
60F
  8
0
 10
0.0
 20
0.0
 30
0.0
 70
   128
 71
     6
 72
     8
 73
    -7
  0
VERTEX
  5
610
  8
0
 10
0.0
 20
0.0
 30
0.0
 70
   128
 71
     5
 72
    -6
 73
     7
  0
VERTEX
  5
611
  8
0
 10
0.0
 20
0.0
 30
0.0
 70
   128
 71
    10
 72
     6
 73
    -5
  0
VERTEX
  5
612
  8
0
 10
0.0
 20
0.0
 30
0.0
 70
   128
 71
     9
 72
   -10
 73
     5
  0
VERTEX
  5
613
  8
0
 10
0.0
 20
0.0
 30
0.0
 70
   128
 71
     2
 72
    10
 73
    -9
  0
VERTEX
  5
614
  8
0
 10
0.0
 20
0.0
 30
0.0
 70
   128
 71
     3
 72
    -2
 73
     9
  0
SEQEND
  5
AA4
  8
0
  0
POLYLINE
  5
615
  8
0
 66
     1
 10
0.0
 20
0.0
 30
0.0
 70
    64
 71
    10
 72
     8
  0
VERTEX
  5
616
  8
0
 10
439.9999999999999
 20
225.0
 30
-10.0
 70
   192
  0
VERTEX
  5
617
  8
0
 10
410.0000000000001
 20
225.0
 30
-10.0
 70
   192
  0
VERTEX
  5
618
  8
0
 10
410.0000000000001
 20
225.0
 30
-25.0
 70
   192
  0
VERTEX
  5
619
  8
0
 10
439.9999999999999
 20
225.0
 30
-25.0
 70
   192
  0
VERTEX
  5
61A
  8
0
 10
425.0
 20
210.0
 30
-25.0
 70
   192
  0
VERTEX
  5
61B
  8
0
 10
425.0
 20
210.0
 30
-10.0
 70
   192
  0
VERTEX
  5
61C
  8
0
 10
435.6066017177982
 20
214.3933982822018
 30
-25.0
 70
   192
  0
VERTEX
  5
61D
  8
0
 10
435.6066017177982
 20
214.3933982822018
 30
-10.0
 70
   192
  0
VERTEX
  5
61E
  8
0
 10
414.3933982822018
 20
214.3933982822018
 30
-25.0
 70
   192
  0
VERTEX
  5
61F
  8
0
 10
414.3933982822018
 20
214.3933982822018
 30
-10.0
 70
   192
  0
VERTEX
  5
620
  8
0
 10
0.0
 20
0.0
 30
0.0
 70
   128
 71
     8
 72
     1
 73
    -4
  0
VERTEX
  5
621
  8
0
 10
0.0
 20
0.0
 30
0.0
 70
   128
 71
     7
 72
    -8
 73
     4
  0
VERTEX
  5
622
  8
0
 10
0.0
 20
0.0
 30
0.0
 70
   128
 71
     6
 72
     8
 73
    -7
  0
VERTEX
  5
623
  8
0
 10
0.0
 20
0.0
 30
0.0
 70
   128
 71
     5
 72
    -6
 73
     7
  0
VERTEX
  5
624
  8
0
 10
0.0
 20
0.0
 30
0.0
 70
   128
 71
    10
 72
     6
 73
    -5
  0
VERTEX
  5
625
  8
0
 10
0.0
 20
0.0
 30
0.0
 70
   128
 71
     9
 72
   -10
 73
     5
  0
VERTEX
  5
626
  8
0
 10
0.0
 20
0.0
 30
0.0
 70
   128
 71
     2
 72
    10
 73
    -9
  0
VERTEX
  5
627
  8
0
 10
0.0
 20
0.0
 30
0.0
 70
   128
 71
     3
 72
    -2
 73
     9
  0
SEQEND
  5
AA5
  8
0
  0
POLYLINE
  5
628
  8
0
 66
     1
 10
0.0
 20
0.0
 30
0.0
 70
    64
 71
    10
 72
     8
  0
VERTEX
  5
629
  8
0
 10
439.9999999999952
 20
-225.0
 30
-10.0
 70
   192
  0
VERTEX
  5
62A
  8
0
 10
409.9999999999953
 20
-225.0
 30
-10.0
 70
   192
  0
VERTEX
  5
62B
  8
0
 10
409.9999999999953
 20
-225.0
 30
-25.0
 70
   192
  0
VERTEX
  5
62C
  8
0
 10
439.9999999999952
 20
-225.0
 30
-25.0
 70
   192
  0
VERTEX
  5
62D
  8
0
 10
424.9999999999953
 20
-240.0
 30
-25.0
 70
   192
  0
VERTEX
  5
62E
  8
0
 10
424.9999999999953
 20
-240.0
 30
-10.0
 70
   192
  0
VERTEX
  5
62F
  8
0
 10
435.6066017177935
 20
-235.6066017177982
 30
-25.0
 70
   192
  0
VERTEX
  5
630
  8
0
 10
435.6066017177935
 20
-235.6066017177982
 30
-10.0
 70
   192
  0
VERTEX
  5
631
  8
0
 10
414.3933982821971
 20
-235.6066017177982
 30
-25.0
 70
   192
  0
VERTEX
  5
632
  8
0
 10
414.3933982821971
 20
-235.6066017177982
 30
-10.0
 70
   192
  0
VERTEX
  5
633
  8
0
 10
0.0
 20
0.0
 30
0.0
 70
   128
 71
     8
 72
     1
 73
    -4
  0
VERTEX
  5
634
  8
0
 10
0.0
 20
0.0
 30
0.0
 70
   128
 71
     7
 72
    -8
 73
     4
  0
VERTEX
  5
635
  8
0
 10
0.0
 20
0.0
 30
0.0
 70
   128
 71
     6
 72
     8
 73
    -7
  0
VERTEX
  5
636
  8
0
 10
0.0
 20
0.0
 30
0.0
 70
   128
 71
     5
 72
    -6
 73
     7
  0
VERTEX
  5
637
  8
0
 10
0.0
 20
0.0
 30
0.0
 70
   128
 71
    10
 72
     6
 73
    -5
  0
VERTEX
  5
638
  8
0
 10
0.0
 20
0.0
 30
0.0
 70
   128
 71
     9
 72
   -10
 73
     5
  0
VERTEX
  5
639
  8
0
 10
0.0
 20
0.0
 30
0.0
 70
   128
 71
     2
 72
    10
 73
    -9
  0
VERTEX
  5
63A
  8
0
 10
0.0
 20
0.0
 30
0.0
 70
   128
 71
     3
 72
    -2
 73
     9
  0
SEQEND
  5
AA6
  8
0
  0
POLYLINE
  5
63B
  8
0
 66
     1
 10
0.0
 20
0.0
 30
0.0
 70
    64
 71
    10
 72
     8
  0
VERTEX
  5
63C
  8
0
 10
-410.0000000000001
 20
225.0
 30
-10.0
 70
   192
  0
VERTEX
  5
63D
  8
0
 10
-439.9999999999999
 20
225.0
 30
-10.0
 70
   192
  0
VERTEX
  5
63E
  8
0
 10
-439.9999999999999
 20
225.0
 30
-25.0
 70
   192
  0
VERTEX
  5
63F
  8
0
 10
-410.0000000000001
 20
225.0
 30
-25.0
 70
   192
  0
VERTEX
  5
640
  8
0
 10
-425.0
 20
210.0
 30
-25.0
 70
   192
  0
VERTEX
  5
641
  8
0
 10
-425.0
 20
210.0
 30
-10.0
 70
   192
  0
VERTEX
  5
642
  8
0
 10
-414.3933982822018
 20
214.3933982822018
 30
-25.0
 70
   192
  0
VERTEX
  5
643
  8
0
 10
-414.3933982822018
 20
214.3933982822018
 30
-10.0
 70
   192
  0
VERTEX
  5
644
  8
0
 10
-435.6066017177982
 20
214.3933982822018
 30
-25.0
 70
   192
  0
VERTEX
  5
645
  8
0
 10
-435.6066017177982
 20
214.3933982822018
 30
-10.0
 70
   192
  0
VERTEX
  5
646
  8
0
 10
0.0
 20
0.0
 30
0.0
 70
   128
 71
     8
 72
     1
 73
    -4
  0
VERTEX
  5
647
  8
0
 10
0.0
 20
0.0
 30
0.0
 70
   128
 71
     7
 72
    -8
 73
     4
  0
VERTEX
  5
648
  8
0
 10
0.0
 20
0.0
 30
0.0
 70
   128
 71
     6
 72
     8
 73
    -7
  0
VERTEX
  5
649
  8
0
 10
0.0
 20
0.0
 30
0.0
 70
   128
 71
     5
 72
    -6
 73
     7
  0
VERTEX
  5
64A
  8
0
 10
0.0
 20
0.0
 30
0.0
 70
   128
 71
    10
 72
     6
 73
    -5
  0
VERTEX
  5
64B
  8
0
 10
0.0
 20
0.0
 30
0.0
 70
   128
 71
     9
 72
   -10
 73
     5
  0
VERTEX
  5
64C
  8
0
 10
0.0
 20
0.0
 30
0.0
 70
   128
 71
     2
 72
    10
 73
    -9
  0
VERTEX
  5
64D
  8
0
 10
0.0
 20
0.0
 30
0.0
 70
   128
 71
     3
 72
    -2
 73
     9
  0
SEQEND
  5
AA7
  8
0
  0
POLYLINE
  5
64E
  8
0
 66
     1
 10
0.0
 20
0.0
 30
0.0
 70
    64
 71
    10
 72
     8
  0
VERTEX
  5
64F
  8
0
 10
463.9999999999946
 20
-259.9999999999999
 30
-10.0
 70
   192
  0
VERTEX
  5
650
  8
0
 10
455.9999999999946
 20
-259.9999999999999
 30
-10.0
 70
   192
  0
VERTEX
  5
651
  8
0
 10
455.9999999999946
 20
-259.9999999999999
 30
-25.0
 70
   192
  0
VERTEX
  5
652
  8
0
 10
463.9999999999946
 20
-259.9999999999999
 30
-25.0
 70
   192
  0
VERTEX
  5
653
  8
0
 10
459.9999999999946
 20
-263.9999999999999
 30
-25.0
 70
   192
  0
VERTEX
  5
654
  8
0
 10
459.9999999999946
 20
-263.9999999999999
 30
-10.0
 70
   192
  0
VERTEX
  5
655
  8
0
 10
462.8284271247408
 20
-262.8284271247462
 30
-25.0
 70
   192
  0
VERTEX
  5
656
  8
0
 10
462.8284271247408
 20
-262.8284271247462
 30
-10.0
 70
   192
  0
VERTEX
  5
657
  8
0
 10
457.1715728752484
 20
-262.8284271247462
 30
-25.0
 70
   192
  0
VERTEX
  5
658
  8
0
 10
457.1715728752484
 20
-262.8284271247462
 30
-10.0
 70
   192
  0
VERTEX
  5
659
  8
0
 10
0.0
 20
0.0
 30
0.0
 70
   128
 71
     8
 72
     1
 73
    -4
  0
VERTEX
  5
65A
  8
0
 10
0.0
 20
0.0
 30
0.0
 70
   128
 71
     7
 72
    -8
 73
     4
  0
VERTEX
  5
65B
  8
0
 10
0.0
 20
0.0
 30
0.0
 70
   128
 71
     6
 72
     8
 73
    -7
  0
VERTEX
  5
65C
  8
0
 10
0.0
 20
0.0
 30
0.0
 70
   128
 71
     5
 72
    -6
 73
     7
  0
VERTEX
  5
65D
  8
0
 10
0.0
 20
0.0
 30
0.0
 70
   128
 71
    10
 72
     6
 73
    -5
  0
VERTEX
  5
65E
  8
0
 10
0.0
 20
0.0
 30
0.0
 70
   128
 71
     9
 72
   -10
 73
     5
  0
VERTEX
  5
65F
  8
0
 10
0.0
 20
0.0
 30
0.0
 70
   128
 71
     2
 72
    10
 73
    -9
  0
VERTEX
  5
660
  8
0
 10
0.0
 20
0.0
 30
0.0
 70
   128
 71
     3
 72
    -2
 73
     9
  0
SEQEND
  5
AA8
  8
0
  0
POLYLINE
  5
661
  8
0
 66
     1
 10
0.0
 20
0.0
 30
0.0
 70
    64
 71
    10
 72
     8
  0
VERTEX
  5
662
  8
0
 10
464.0000000000001
 20
260.0
 30
-10.0
 70
   192
  0
VERTEX
  5
663
  8
0
 10
456.0000000000001
 20
260.0
 30
-10.0
 70
   192
  0
VERTEX
  5
664
  8
0
 10
456.0000000000001
 20
260.0
 30
-25.0
 70
   192
  0
VERTEX
  5
665
  8
0
 10
464.0000000000001
 20
260.0
 30
-25.0
 70
   192
  0
VERTEX
  5
666
  8
0
 10
460.0000000000001
 20
256.0
 30
-25.0
 70
   192
  0
VERTEX
  5
667
  8
0
 10
460.0000000000001
 20
256.0
 30
-10.0
 70
   192
  0
VERTEX
  5
668
  8
0
 10
462.8284271247463
 20
257.1715728752538
 30
-25.0
 70
   192
  0
VERTEX
  5
669
  8
0
 10
462.8284271247463
 20
257.1715728752538
 30
-10.0
 70
   192
  0
VERTEX
  5
66A
  8
0
 10
457.1715728752538
 20
257.1715728752538
 30
-25.0
 70
   192
  0
VERTEX
  5
66B
  8
0
 10
457.1715728752538
 20
257.1715728752538
 30
-10.0
 70
   192
  0
VERTEX
  5
66C
  8
0
 10
0.0
 20
0.0
 30
0.0
 70
   128
 71
     8
 72
     1
 73
    -4
  0
VERTEX
  5
66D
  8
0
 10
0.0
 20
0.0
 30
0.0
 70
   128
 71
     7
 72
    -8
 73
     4
  0
VERTEX
  5
66E
  8
0
 10
0.0
 20
0.0
 30
0.0
 70
   128
 71
     6
 72
     8
 73
    -7
  0
VERTEX
  5
66F
  8
0
 10
0.0
 20
0.0
 30
0.0
 70
   128
 71
     5
 72
    -6
 73
     7
  0
VERTEX
  5
670
  8
0
 10
0.0
 20
0.0
 30
0.0
 70
   128
 71
    10
 72
     6
 73
    -5
  0
VERTEX
  5
671
  8
0
 10
0.0
 20
0.0
 30
0.0
 70
   128
 71
     9
 72
   -10
 73
     5
  0
VERTEX
  5
672
  8
0
 10
0.0
 20
0.0
 30
0.0
 70
   128
 71
     2
 72
    10
 73
    -9
  0
VERTEX
  5
673
  8
0
 10
0.0
 20
0.0
 30
0.0
 70
   128
 71
     3
 72
    -2
 73
     9
  0
SEQEND
  5
AA9
  8
0
  0
POLYLINE
  5
674
  8
0
 66
     1
 10
0.0
 20
0.0
 30
0.0
 70
    64
 71
     8
 72
     8
  0
VERTEX
  5
675
  8
0
 10
-500.0
 20
-299.9999999999999
 30
0.0
 70
   192
  0
VERTEX
  5
676
  8
0
 10
500.0
 20
-299.9999999999999
 30
0.0
 70
   192
  0
VERTEX
  5
677
  8
0
 10
500.0
 20
300.0
 30
0.0
 70
   192
  0
VERTEX
  5
678
  8
0
 10
-499.9999999999999
 20
300.0
 30
0.0
 70
   192
  0
VERTEX
  5
679
  8
0
 10
449.9999999999999
 20
-250.0
 30
0.0
 70
   192
  0
VERTEX
  5
67A
  8
0
 10
-450.0
 20
-250.0
 30
0.0
 70
   192
  0
VERTEX
  5
67B
  8
0
 10
-450.0
 20
250.0
 30
0.0
 70
   192
  0
VERTEX
  5
67C
  8
0
 10
450.0
 20
250.0
 30
0.0
 70
   192
  0
VERTEX
  5
67D
  8
0
 10
0.0
 20
0.0
 30
0.0
 70
   128
 71
    -2
 72
     5
 73
    -6
  0
VERTEX
  5
67E
  8
0
 10
0.0
 20
0.0
 30
0.0
 70
   128
 71
     1
 72
    -2
 73
    -6
  0
VERTEX
  5
67F
  8
0
 10
0.0
 20
0.0
 30
0.0
 70
   128
 71
    -7
 72
     4
 73
    -1
  0
VERTEX
  5
680
  8
0
 10
0.0
 20
0.0
 30
0.0
 70
   128
 71
     6
 72
    -7
 73
    -1
  0
VERTEX
  5
681
  8
0
 10
0.0
 20
0.0
 30
0.0
 70
   128
 71
    -8
 72
     3
 73
    -4
  0
VERTEX
  5
682
  8
0
 10
0.0
 20
0.0
 30
0.0
 70
   128
 71
     7
 72
    -8
 73
    -4
  0
VERTEX
  5
683
  8
0
 10
0.0
 20
0.0
 30
0.0
 70
   128
 71
    -5
 72
     2
 73
    -3
  0
VERTEX
  5
684
  8
0
 10
0.0
 20
0.0
 30
0.0
 70
   128
 71
     8
 72
    -5
 73
    -3
  0
SEQEND
  5
AAA
  8
0
  0
POLYLINE
  5
685
  8
0
 66
     1
 10
0.0
 20
0.0
 30
0.0
 70
    64
 71
     4
 72
     2
  0
VERTEX
  5
686
  8
0
 10
500.0
 20
-299.9999999999999
 30
0.0
 70
   192
  0
VERTEX
  5
687
  8
0
 10
-500.0
 20
-299.9999999999999
 30
0.0
 70
   192
  0
VERTEX
  5
688
  8
0
 10
-500.0
 20
-299.9999999999999
 30
-25.0
 70
   192
  0
VERTEX
  5
689
  8
0
 10
500.0
 20
-299.9999999999999
 30
-25.0
 70
   192
  0
VERTEX
  5
68A
  8
0
 10
0.0
 20
0.0
 30
0.0
 70
   128
 71
     3
 72
     4
 73
    -1
  0
VERTEX
  5
68B
  8
0
 10
0.0
 20
0.0
 30
0.0
 70
   128
 71
     2
 72
    -3
 73
     1
  0
SEQEND
  5
AAB
  8
0
  0
POLYLINE
  5
68C
  8
0
 66
     1
 10
0.0
 20
0.0
 30
0.0
 70
    64
 71
     4
 72
     2
  0
VERTEX
  5
68D
  8
0
 10
-500.0
 20
-299.9999999999999
 30
0.0
 70
   192
  0
VERTEX
  5
68E
  8
0
 10
-500.0
 20
-299.9999999999999
 30
-25.0
 70
   192
  0
VERTEX
  5
68F
  8
0
 10
-499.9999999999999
 20
300.0
 30
-25.0
 70
   192
  0
VERTEX
  5
690
  8
0
 10
-499.9999999999999
 20
300.0
 30
0.0
 70
   192
  0
VERTEX
  5
691
  8
0
 10
0.0
 20
0.0
 30
0.0
 70
   128
 71
     1
 72
     4
 73
    -3
  0
VERTEX
  5
692
  8
0
 10
0.0
 20
0.0
 30
0.0
 70
   128
 71
    -1
 72
     3
 73
     2
  0
SEQEND
  5
AAC
  8
0
  0
POLYLINE
  5
693
  8
0
 66
     1
 10
0.0
 20
0.0
 30
0.0
 70
    64
 71
     4
 72
     2
  0
VERTEX
  5
694
  8
0
 10
-499.9999999999999
 20
300.0
 30
0.0
 70
   192
  0
VERTEX
  5
695
  8
0
 10
-499.9999999999999
 20
300.0
 30
-25.0
 70
   192
  0
VERTEX
  5
696
  8
0
 10
500.0
 20
300.0
 30
-25.0
 70
   192
  0
VERTEX
  5
697
  8
0
 10
500.0
 20
300.0
 30
0.0
 70
   192
  0
VERTEX
  5
698
  8
0
 10
0.0
 20
0.0
 30
0.0
 70
   128
 71
     1
 72
     4
 73
    -3
  0
VERTEX
  5
699
  8
0
 10
0.0
 20
0.0
 30
0.0
 70
   128
 71
    -1
 72
     3
 73
     2
  0
SEQEND
  5
AAD
  8
0
  0
POLYLINE
  5
69A
  8
0
 66
     1
 10
0.0
 20
0.0
 30
0.0
 70
    64
 71
     4
 72
     2
  0
VERTEX
  5
69B
  8
0
 10
500.0
 20
300.0
 30
0.0
 70
   192
  0
VERTEX
  5
69C
  8
0
 10
500.0
 20
-299.9999999999999
 30
0.0
 70
   192
  0
VERTEX
  5
69D
  8
0
 10
500.0
 20
-299.9999999999999
 30
-25.0
 70
   192
  0
VERTEX
  5
69E
  8
0
 10
500.0
 20
300.0
 30
-25.0
 70
   192
  0
VERTEX
  5
69F
  8
0
 10
0.0
 20
0.0
 30
0.0
 70
   128
 71
     3
 72
     4
 73
    -1
  0
VERTEX
  5
6A0
  8
0
 10
0.0
 20
0.0
 30
0.0
 70
   128
 71
     2
 72
    -3
 73
     1
  0
SEQEND
  5
AAE
  8
0
  0
POLYLINE
  5
6A1
  8
0
 66
     1
 10
0.0
 20
0.0
 30
0.0
 70
    64
 71
    60
 72
    72
  0
VERTEX
  5
6A2
  8
0
 10
500.0
 20
-299.9999999999999
 30
-25.0
 70
   192
  0
VERTEX
  5
6A3
  8
0
 10
500.0
 20
300.0
 30
-25.0
 70
   192
  0
VERTEX
  5
6A4
  8
0
 10
-499.9999999999999
 20
300.0
 30
-25.0
 70
   192
  0
VERTEX
  5
6A5
  8
0
 10
-500.0
 20
-299.9999999999999
 30
-25.0
 70
   192
  0
VERTEX
  5
6A6
  8
0
 10
-451.0
 20
260.0
 30
-25.0
 70
   192
  0
VERTEX
  5
6A7
  8
0
 10
-452.1715728752538
 20
257.1715728752538
 30
-25.0
 70
   192
  0
VERTEX
  5
6A8
  8
0
 10
-455.0
 20
256.0
 30
-25.0
 70
   192
  0
VERTEX
  5
6A9
  8
0
 10
-457.8284271247462
 20
257.1715728752538
 30
-25.0
 70
   192
  0
VERTEX
  5
6AA
  8
0
 10
-459.0
 20
260.0
 30
-25.0
 70
   192
  0
VERTEX
  5
6AB
  8
0
 10
-457.8284271247462
 20
262.8284271247462
 30
-25.0
 70
   192
  0
VERTEX
  5
6AC
  8
0
 10
-455.0
 20
264.0
 30
-25.0
 70
   192
  0
VERTEX
  5
6AD
  8
0
 10
-452.1715728752538
 20
262.8284271247462
 30
-25.0
 70
   192
  0
VERTEX
  5
6AE
  8
0
 10
439.9999999999999
 20
225.0
 30
-25.0
 70
   192
  0
VERTEX
  5
6AF
  8
0
 10
435.6066017177982
 20
214.3933982822018
 30
-25.0
 70
   192
  0
VERTEX
  5
6B0
  8
0
 10
425.0
 20
210.0
 30
-25.0
 70
   192
  0
VERTEX
  5
6B1
  8
0
 10
414.3933982822018
 20
214.3933982822018
 30
-25.0
 70
   192
  0
VERTEX
  5
6B2
  8
0
 10
410.0000000000001
 20
225.0
 30
-25.0
 70
   192
  0
VERTEX
  5
6B3
  8
0
 10
414.3933982822018
 20
235.6066017177982
 30
-25.0
 70
   192
  0
VERTEX
  5
6B4
  8
0
 10
425.0
 20
239.9999999999999
 30
-25.0
 70
   192
  0
VERTEX
  5
6B5
  8
0
 10
435.6066017177982
 20
235.6066017177982
 30
-25.0
 70
   192
  0
VERTEX
  5
6B6
  8
0
 10
439.9999999999952
 20
-225.0
 30
-25.0
 70
   192
  0
VERTEX
  5
6B7
  8
0
 10
435.6066017177935
 20
-235.6066017177982
 30
-25.0
 70
   192
  0
VERTEX
  5
6B8
  8
0
 10
424.9999999999953
 20
-240.0
 30
-25.0
 70
   192
  0
VERTEX
  5
6B9
  8
0
 10
414.3933982821971
 20
-235.6066017177982
 30
-25.0
 70
   192
  0
VERTEX
  5
6BA
  8
0
 10
409.9999999999953
 20
-225.0
 30
-25.0
 70
   192
  0
VERTEX
  5
6BB
  8
0
 10
414.3933982821971
 20
-214.3933982822018
 30
-25.0
 70
   192
  0
VERTEX
  5
6BC
  8
0
 10
424.9999999999953
 20
-210.0000000000001
 30
-25.0
 70
   192
  0
VERTEX
  5
6BD
  8
0
 10
435.6066017177935
 20
-214.3933982822018
 30
-25.0
 70
   192
  0
VERTEX
  5
6BE
  8
0
 10
-410.0000000000001
 20
225.0
 30
-25.0
 70
   192
  0
VERTEX
  5
6BF
  8
0
 10
-414.3933982822018
 20
214.3933982822018
 30
-25.0
 70
   192
  0
VERTEX
  5
6C0
  8
0
 10
-425.0
 20
210.0
 30
-25.0
 70
   192
  0
VERTEX
  5
6C1
  8
0
 10
-435.6066017177982
 20
214.3933982822018
 30
-25.0
 70
   192
  0
VERTEX
  5
6C2
  8
0
 10
-439.9999999999999
 20
225.0
 30
-25.0
 70
   192
  0
VERTEX
  5
6C3
  8
0
 10
-435.6066017177982
 20
235.6066017177982
 30
-25.0
 70
   192
  0
VERTEX
  5
6C4
  8
0
 10
-425.0
 20
239.9999999999999
 30
-25.0
 70
   192
  0
VERTEX
  5
6C5
  8
0
 10
-414.3933982822018
 20
235.6066017177982
 30
-25.0
 70
   192
  0
VERTEX
  5
6C6
  8
0
 10
463.9999999999946
 20
-259.9999999999999
 30
-25.0
 70
   192
  0
VERTEX
  5
6C7
  8
0
 10
462.8284271247408
 20
-262.8284271247462
 30
-25.0
 70
   192
  0
VERTEX
  5
6C8
  8
0
 10
459.9999999999946
 20
-263.9999999999999
 30
-25.0
 70
   192
  0
VERTEX
  5
6C9
  8
0
 10
457.1715728752484
 20
-262.8284271247462
 30
-25.0
 70
   192
  0
VERTEX
  5
6CA
  8
0
 10
455.9999999999946
 20
-259.9999999999999
 30
-25.0
 70
   192
  0
VERTEX
  5
6CB
  8
0
 10
457.1715728752484
 20
-257.1715728752537
 30
-25.0
 70
   192
  0
VERTEX
  5
6CC
  8
0
 10
459.9999999999946
 20
-255.9999999999999
 30
-25.0
 70
   192
  0
VERTEX
  5
6CD
  8
0
 10
462.8284271247408
 20
-257.1715728752537
 30
-25.0
 70
   192
  0
VERTEX
  5
6CE
  8
0
 10
464.0000000000001
 20
260.0
 30
-25.0
 70
   192
  0
VERTEX
  5
6CF
  8
0
 10
462.8284271247463
 20
257.1715728752538
 30
-25.0
 70
   192
  0
VERTEX
  5
6D0
  8
0
 10
460.0000000000001
 20
256.0
 30
-25.0
 70
   192
  0
VERTEX
  5
6D1
  8
0
 10
457.1715728752538
 20
257.1715728752538
 30
-25.0
 70
   192
  0
VERTEX
  5
6D2
  8
0
 10
456.0000000000001
 20
260.0
 30
-25.0
 70
   192
  0
VERTEX
  5
6D3
  8
0
 10
457.1715728752538
 20
262.8284271247462
 30
-25.0
 70
   192
  0
VERTEX
  5
6D4
  8
0
 10
460.0000000000001
 20
264.0
 30
-25.0
 70
   192
  0
VERTEX
  5
6D5
  8
0
 10
462.8284271247463
 20
262.8284271247462
 30
-25.0
 70
   192
  0
VERTEX
  5
6D6
  8
0
 10
-455.9999999999999
 20
-259.9999999999999
 30
-25.0
 70
   192
  0
VERTEX
  5
6D7
  8
0
 10
-457.1715728752537
 20
-262.8284271247462
 30
-25.0
 70
   192
  0
VERTEX
  5
6D8
  8
0
 10
-459.9999999999999
 20
-263.9999999999999
 30
-25.0
 70
   192
  0
VERTEX
  5
6D9
  8
0
 10
-462.8284271247462
 20
-262.8284271247462
 30
-25.0
 70
   192
  0
VERTEX
  5
6DA
  8
0
 10
-463.9999999999999
 20
-259.9999999999999
 30
-25.0
 70
   192
  0
VERTEX
  5
6DB
  8
0
 10
-462.8284271247462
 20
-257.1715728752537
 30
-25.0
 70
   192
  0
VERTEX
  5
6DC
  8
0
 10
-459.9999999999999
 20
-255.9999999999999
 30
-25.0
 70
   192
  0
VERTEX
  5
6DD
  8
0
 10
-457.1715728752537
 20
-257.1715728752537
 30
-25.0
 70
   192
  0
VERTEX
  5
6DE
  8
0
 10
0.0
 20
0.0
 30
0.0
 70
   128
 71
    38
 72
   -37
 73
    -1
  0
VERTEX
  5
6DF
  8
0
 10
0.0
 20
0.0
 30
0.0
 70
   128
 71
    -1
 72
    39
 73
   -38
  0
VERTEX
  5
6E0
  8
0
 10
0.0
 20
0.0
 30
0.0
 70
   128
 71
    -1
 72
    40
 73
   -39
  0
VERTEX
  5
6E1
  8
0
 10
0.0
 20
0.0
 30
0.0
 70
   128
 71
    50
 72
   -49
 73
    -5
  0
VERTEX
  5
6E2
  8
0
 10
0.0
 20
0.0
 30
0.0
 70
   128
 71
   -12
 72
     3
 73
    -2
  0
VERTEX
  5
6E3
  8
0
 10
0.0
 20
0.0
 30
0.0
 70
   128
 71
   -12
 72
    -2
 73
   -50
  0
VERTEX
  5
6E4
  8
0
 10
0.0
 20
0.0
 30
0.0
 70
   128
 71
   -50
 72
     5
 73
   -12
  0
VERTEX
  5
6E5
  8
0
 10
0.0
 20
0.0
 30
0.0
 70
   128
 71
    -2
 72
    51
 73
   -50
  0
VERTEX
  5
6E6
  8
0
 10
0.0
 20
0.0
 30
0.0
 70
   128
 71
    -2
 72
    52
 73
   -51
  0
VERTEX
  5
6E7
  8
0
 10
0.0
 20
0.0
 30
0.0
 70
   128
 71
    -2
 72
    45
 73
   -52
  0
VERTEX
  5
6E8
  8
0
 10
0.0
 20
0.0
 30
0.0
 70
   128
 71
    -2
 72
    46
 73
   -45
  0
VERTEX
  5
6E9
  8
0
 10
0.0
 20
0.0
 30
0.0
 70
   128
 71
    -2
 72
   -13
 73
   -46
  0
VERTEX
  5
6EA
  8
0
 10
0.0
 20
0.0
 30
0.0
 70
   128
 71
   -13
 72
    47
 73
   -46
  0
VERTEX
  5
6EB
  8
0
 10
0.0
 20
0.0
 30
0.0
 70
   128
 71
    13
 72
   -20
 73
   -48
  0
VERTEX
  5
6EC
  8
0
 10
0.0
 20
0.0
 30
0.0
 70
   128
 71
   -13
 72
    48
 73
   -47
  0
VERTEX
  5
6ED
  8
0
 10
0.0
 20
0.0
 30
0.0
 70
   128
 71
    18
 72
   -17
 73
   -29
  0
VERTEX
  5
6EE
  8
0
 10
0.0
 20
0.0
 30
0.0
 70
   128
 71
    35
 72
   -34
 73
    -6
  0
VERTEX
  5
6EF
  8
0
 10
0.0
 20
0.0
 30
0.0
 70
   128
 71
   -35
 72
     6
 73
    -5
  0
VERTEX
  5
6F0
  8
0
 10
0.0
 20
0.0
 30
0.0
 70
   128
 71
    -5
 72
    36
 73
   -35
  0
VERTEX
  5
6F1
  8
0
 10
0.0
 20
0.0
 30
0.0
 70
   128
 71
   -36
 72
    -5
 73
   -49
  0
VERTEX
  5
6F2
  8
0
 10
0.0
 20
0.0
 30
0.0
 70
   128
 71
   -36
 72
   -49
 73
   -18
  0
VERTEX
  5
6F3
  8
0
 10
0.0
 20
0.0
 30
0.0
 70
   128
 71
   -18
 72
    29
 73
   -36
  0
VERTEX
  5
6F4
  8
0
 10
0.0
 20
0.0
 30
0.0
 70
   128
 71
   -49
 72
    19
 73
   -18
  0
VERTEX
  5
6F5
  8
0
 10
0.0
 20
0.0
 30
0.0
 70
   128
 71
    49
 72
   -48
 73
   -20
  0
VERTEX
  5
6F6
  8
0
 10
0.0
 20
0.0
 30
0.0
 70
   128
 71
   -49
 72
    20
 73
   -19
  0
VERTEX
  5
6F7
  8
0
 10
0.0
 20
0.0
 30
0.0
 70
   128
 71
   -34
 72
     7
 73
    -6
  0
VERTEX
  5
6F8
  8
0
 10
0.0
 20
0.0
 30
0.0
 70
   128
 71
   -34
 72
     8
 73
    -7
  0
VERTEX
  5
6F9
  8
0
 10
0.0
 20
0.0
 30
0.0
 70
   128
 71
    14
 72
   -13
 73
    -2
  0
VERTEX
  5
6FA
  8
0
 10
0.0
 20
0.0
 30
0.0
 70
   128
 71
   -14
 72
     2
 73
    -1
  0
VERTEX
  5
6FB
  8
0
 10
0.0
 20
0.0
 30
0.0
 70
   128
 71
   -14
 72
    -1
 73
   -21
  0
VERTEX
  5
6FC
  8
0
 10
0.0
 20
0.0
 30
0.0
 70
   128
 71
   -21
 72
    15
 73
   -14
  0
VERTEX
  5
6FD
  8
0
 10
0.0
 20
0.0
 30
0.0
 70
   128
 71
   -21
 72
    16
 73
   -15
  0
VERTEX
  5
6FE
  8
0
 10
0.0
 20
0.0
 30
0.0
 70
   128
 71
    43
 72
   -42
 73
   -22
  0
VERTEX
  5
6FF
  8
0
 10
0.0
 20
0.0
 30
0.0
 70
   128
 71
   -43
 72
    22
 73
   -21
  0
VERTEX
  5
700
  8
0
 10
0.0
 20
0.0
 30
0.0
 70
   128
 71
   -21
 72
    44
 73
   -43
  0
VERTEX
  5
701
  8
0
 10
0.0
 20
0.0
 30
0.0
 70
   128
 71
   -44
 72
   -21
 73
    -1
  0
VERTEX
  5
702
  8
0
 10
0.0
 20
0.0
 30
0.0
 70
   128
 71
    -1
 72
    37
 73
   -44
  0
VERTEX
  5
703
  8
0
 10
0.0
 20
0.0
 30
0.0
 70
   128
 71
    42
 72
   -41
 73
   -23
  0
VERTEX
  5
704
  8
0
 10
0.0
 20
0.0
 30
0.0
 70
   128
 71
   -42
 72
    23
 73
   -22
  0
VERTEX
  5
705
  8
0
 10
0.0
 20
0.0
 30
0.0
 70
   128
 71
   -41
 72
    24
 73
   -23
  0
VERTEX
  5
706
  8
0
 10
0.0
 20
0.0
 30
0.0
 70
   128
 71
   -24
 72
   -41
 73
   -53
  0
VERTEX
  5
707
  8
0
 10
0.0
 20
0.0
 30
0.0
 70
   128
 71
   -53
 72
    25
 73
   -24
  0
VERTEX
  5
708
  8
0
 10
0.0
 20
0.0
 30
0.0
 70
   128
 71
   -53
 72
    30
 73
   -29
  0
VERTEX
  5
709
  8
0
 10
0.0
 20
0.0
 30
0.0
 70
   128
 71
   -53
 72
   -29
 73
   -17
  0
VERTEX
  5
70A
  8
0
 10
0.0
 20
0.0
 30
0.0
 70
   128
 71
   -53
 72
   -17
 73
   -26
  0
VERTEX
  5
70B
  8
0
 10
0.0
 20
0.0
 30
0.0
 70
   128
 71
   -53
 72
    26
 73
   -25
  0
VERTEX
  5
70C
  8
0
 10
0.0
 20
0.0
 30
0.0
 70
   128
 71
    17
 72
   -16
 73
   -27
  0
VERTEX
  5
70D
  8
0
 10
0.0
 20
0.0
 30
0.0
 70
   128
 71
   -17
 72
    27
 73
   -26
  0
VERTEX
  5
70E
  8
0
 10
0.0
 20
0.0
 30
0.0
 70
   128
 71
   -16
 72
    28
 73
   -27
  0
VERTEX
  5
70F
  8
0
 10
0.0
 20
0.0
 30
0.0
 70
   128
 71
   -16
 72
    21
 73
   -28
  0
VERTEX
  5
710
  8
0
 10
0.0
 20
0.0
 30
0.0
 70
   128
 71
   -53
 72
    31
 73
   -30
  0
VERTEX
  5
711
  8
0
 10
0.0
 20
0.0
 30
0.0
 70
   128
 71
   -53
 72
    32
 73
   -31
  0
VERTEX
  5
712
  8
0
 10
0.0
 20
0.0
 30
0.0
 70
   128
 71
    54
 72
   -53
 73
   -41
  0
VERTEX
  5
713
  8
0
 10
0.0
 20
0.0
 30
0.0
 70
   128
 71
   -40
 72
     1
 73
    -4
  0
VERTEX
  5
714
  8
0
 10
0.0
 20
0.0
 30
0.0
 70
   128
 71
   -40
 72
    -4
 73
   -54
  0
VERTEX
  5
715
  8
0
 10
0.0
 20
0.0
 30
0.0
 70
   128
 71
   -54
 72
    41
 73
   -40
  0
VERTEX
  5
716
  8
0
 10
0.0
 20
0.0
 30
0.0
 70
   128
 71
    -4
 72
    55
 73
   -54
  0
VERTEX
  5
717
  8
0
 10
0.0
 20
0.0
 30
0.0
 70
   128
 71
    -4
 72
    56
 73
   -55
  0
VERTEX
  5
718
  8
0
 10
0.0
 20
0.0
 30
0.0
 70
   128
 71
    -4
 72
    57
 73
   -56
  0
VERTEX
  5
719
  8
0
 10
0.0
 20
0.0
 30
0.0
 70
   128
 71
    -4
 72
    58
 73
   -57
  0
VERTEX
  5
71A
  8
0
 10
0.0
 20
0.0
 30
0.0
 70
   128
 71
   -58
 72
     4
 73
    -3
  0
VERTEX
  5
71B
  8
0
 10
0.0
 20
0.0
 30
0.0
 70
   128
 71
   -58
 72
    -3
 73
   -32
  0
VERTEX
  5
71C
  8
0
 10
0.0
 20
0.0
 30
0.0
 70
   128
 71
   -32
 72
    59
 73
   -58
  0
VERTEX
  5
71D
  8
0
 10
0.0
 20
0.0
 30
0.0
 70
   128
 71
   -32
 72
    60
 73
   -59
  0
VERTEX
  5
71E
  8
0
 10
0.0
 20
0.0
 30
0.0
 70
   128
 71
   -32
 72
    53
 73
   -60
  0
VERTEX
  5
71F
  8
0
 10
0.0
 20
0.0
 30
0.0
 70
   128
 71
    -3
 72
    33
 73
   -32
  0
VERTEX
  5
720
  8
0
 10
0.0
 20
0.0
 30
0.0
 70
   128
 71
    -8
 72
    34
 73
   -33
  0
VERTEX
  5
721
  8
0
 10
0.0
 20
0.0
 30
0.0
 70
   128
 71
   -33
 72
    -3
 73
    -8
  0
VERTEX
  5
722
  8
0
 10
0.0
 20
0.0
 30
0.0
 70
   128
 71
    -3
 72
     9
 73
    -8
  0
VERTEX
  5
723
  8
0
 10
0.0
 20
0.0
 30
0.0
 70
   128
 71
    -3
 72
    10
 73
    -9
  0
VERTEX
  5
724
  8
0
 10
0.0
 20
0.0
 30
0.0
 70
   128
 71
    -3
 72
    11
 73
   -10
  0
VERTEX
  5
725
  8
0
 10
0.0
 20
0.0
 30
0.0
 70
   128
 71
    -3
 72
    12
 73
   -11
  0
SEQEND
  5
AAF
  8
0
  0
POLYLINE
  5
726
  8
0
 66
     1
 10
0.0
 20
0.0
 30
0.0
 70
    64
 71
     4
 72
     2
  0
VERTEX
  5
727
  8
0
 10
-450.0
 20
250.0
 30
0.0
 70
   192
  0
VERTEX
  5
728
  8
0
 10
-450.0
 20
-250.0
 30
0.0
 70
   192
  0
VERTEX
  5
729
  8
0
 10
-450.0
 20
-250.0
 30
5.0
 70
   192
  0
VERTEX
  5
72A
  8
0
 10
-450.0
 20
250.0
 30
5.0
 70
   192
  0
VERTEX
  5
72B
  8
0
 10
0.0
 20
0.0
 30
0.0
 70
   128
 71
     3
 72
     4
 73
    -1
  0
VERTEX
  5
72C
  8
0
 10
0.0
 20
0.0
 30
0.0
 70
   128
 71
     2
 72
    -3
 73
     1
  0
SEQEND
  5
AB0
  8
0
  0
POLYLINE
  5
72D
  8
0
 66
     1
 10
0.0
 20
0.0
 30
0.0
 70
    64
 71
     4
 72
     2
  0
VERTEX
  5
72E
  8
0
 10
-450.0
 20
-250.0
 30
0.0
 70
   192
  0
VERTEX
  5
72F
  8
0
 10
-450.0
 20
-250.0
 30
5.0
 70
   192
  0
VERTEX
  5
730
  8
0
 10
449.9999999999999
 20
-250.0
 30
5.0
 70
   192
  0
VERTEX
  5
731
  8
0
 10
449.9999999999999
 20
-250.0
 30
0.0
 70
   192
  0
VERTEX
  5
732
  8
0
 10
0.0
 20
0.0
 30
0.0
 70
   128
 71
     1
 72
     4
 73
    -3
  0
VERTEX
  5
733
  8
0
 10
0.0
 20
0.0
 30
0.0
 70
   128
 71
    -1
 72
     3
 73
     2
  0
SEQEND
  5
AB1
  8
0
  0
POLYLINE
  5
734
  8
0
 66
     1
 10
0.0
 20
0.0
 30
0.0
 70
    64
 71
     4
 72
     2
  0
VERTEX
  5
735
  8
0
 10
449.9999999999999
 20
-250.0
 30
0.0
 70
   192
  0
VERTEX
  5
736
  8
0
 10
449.9999999999999
 20
-250.0
 30
5.0
 70
   192
  0
VERTEX
  5
737
  8
0
 10
450.0
 20
250.0
 30
5.0
 70
   192
  0
VERTEX
  5
738
  8
0
 10
449.9999999999999
 20
250.0
 30
0.0
 70
   192
  0
VERTEX
  5
739
  8
0
 10
0.0
 20
0.0
 30
0.0
 70
   128
 71
     1
 72
     4
 73
    -3
  0
VERTEX
  5
73A
  8
0
 10
0.0
 20
0.0
 30
0.0
 70
   128
 71
    -1
 72
     3
 73
     2
  0
SEQEND
  5
AB2
  8
0
  0
POLYLINE
  5
73B
  8
0
 66
     1
 10
0.0
 20
0.0
 30
0.0
 70
    64
 71
     4
 72
     2
  0
VERTEX
  5
73C
  8
0
 10
450.0
 20
250.0
 30
0.0
 70
   192
  0
VERTEX
  5
73D
  8
0
 10
-450.0
 20
250.0
 30
0.0
 70
   192
  0
VERTEX
  5
73E
  8
0
 10
-450.0
 20
250.0
 30
5.0
 70
   192
  0
VERTEX
  5
73F
  8
0
 10
450.0
 20
250.0
 30
5.0
 70
   192
  0
VERTEX
  5
740
  8
0
 10
0.0
 20
0.0
 30
0.0
 70
   128
 71
     3
 72
     4
 73
    -1
  0
VERTEX
  5
741
  8
0
 10
0.0
 20
0.0
 30
0.0
 70
   128
 71
     2
 72
    -3
 73
     1
  0
SEQEND
  5
AB3
  8
0
  0
POLYLINE
  5
742
  8
0
 66
     1
 10
0.0
 20
0.0
 30
0.0
 70
    64
 71
     4
 72
     2
  0
VERTEX
  5
743
  8
0
 10
-450.0
 20
250.0
 30
5.0
 70
   192
  0
VERTEX
  5
744
  8
0
 10
-450.0
 20
-250.0
 30
5.0
 70
   192
  0
VERTEX
  5
745
  8
0
 10
449.9999999999999
 20
-250.0
 30
5.0
 70
   192
  0
VERTEX
  5
746
  8
0
 10
449.9999999999999
 20
250.0
 30
5.0
 70
   192
  0
VERTEX
  5
747
  8
0
 10
0.0
 20
0.0
 30
0.0
 70
   128
 71
     3
 72
     4
 73
    -1
  0
VERTEX
  5
748
  8
0
 10
0.0
 20
0.0
 30
0.0
 70
   128
 71
     2
 72
    -3
 73
     1
  0
SEQEND
  5
AB4
  8
0
  0
POLYLINE
  5
749
  8
0
 66
     1
 10
0.0
 20
0.0
 30
0.0
 70
    64
 71
    10
 72
     8
  0
VERTEX
  5
74A
  8
0
 10
456.0000000000001
 20
260.0
 30
-10.0
 70
   192
  0
VERTEX
  5
74B
  8
0
 10
464.0000000000001
 20
260.0
 30
-10.0
 70
   192
  0
VERTEX
  5
74C
  8
0
 10
464.0000000000001
 20
260.0
 30
-25.0
 70
   192
  0
VERTEX
  5
74D
  8
0
 10
456.0000000000001
 20
260.0
 30
-25.0
 70
   192
  0
VERTEX
  5
74E
  8
0
 10
460.0000000000001
 20
264.0
 30
-25.0
 70
   192
  0
VERTEX
  5
74F
  8
0
 10
460.0000000000001
 20
264.0
 30
-10.0
 70
   192
  0
VERTEX
  5
750
  8
0
 10
457.1715728752538
 20
262.8284271247462
 30
-25.0
 70
   192
  0
VERTEX
  5
751
  8
0
 10
457.1715728752538
 20
262.8284271247462
 30
-10.0
 70
   192
  0
VERTEX
  5
752
  8
0
 10
462.8284271247463
 20
262.8284271247462
 30
-25.0
 70
   192
  0
VERTEX
  5
753
  8
0
 10
462.8284271247463
 20
262.8284271247462
 30
-10.0
 70
   192
  0
VERTEX
  5
754
  8
0
 10
0.0
 20
0.0
 30
0.0
 70
   128
 71
     8
 72
     1
 73
    -4
  0
VERTEX
  5
755
  8
0
 10
0.0
 20
0.0
 30
0.0
 70
   128
 71
     7
 72
    -8
 73
     4
  0
VERTEX
  5
756
  8
0
 10
0.0
 20
0.0
 30
0.0
 70
   128
 71
     6
 72
     8
 73
    -7
  0
VERTEX
  5
757
  8
0
 10
0.0
 20
0.0
 30
0.0
 70
   128
 71
     5
 72
    -6
 73
     7
  0
VERTEX
  5
758
  8
0
 10
0.0
 20
0.0
 30
0.0
 70
   128
 71
    10
 72
     6
 73
    -5
  0
VERTEX
  5
759
  8
0
 10
0.0
 20
0.0
 30
0.0
 70
   128
 71
     9
 72
   -10
 73
     5
  0
VERTEX
  5
75A
  8
0
 10
0.0
 20
0.0
 30
0.0
 70
   128
 71
     3
 72
     2
 73
   -10
  0
VERTEX
  5
75B
  8
0
 10
0.0
 20
0.0
 30
0.0
 70
   128
 71
     9
 72
    -3
 73
    10
  0
SEQEND
  5
AB5
  8
0
  0
POLYLINE
  5
75C
  8
0
 66
     1
 10
0.0
 20
0.0
 30
0.0
 70
    64
 71
     8
 72
     6
  0
VERTEX
  5
75D
  8
0
 10
456.0000000000001
 20
260.0
 30
-10.0
 70
   192
  0
VERTEX
  5
75E
  8
0
 10
457.1715728752538
 20
262.8284271247462
 30
-10.0
 70
   192
  0
VERTEX
  5
75F
  8
0
 10
460.0000000000001
 20
264.0
 30
-10.0
 70
   192
  0
VERTEX
  5
760
  8
0
 10
462.8284271247463
 20
262.8284271247462
 30
-10.0
 70
   192
  0
VERTEX
  5
761
  8
0
 10
464.0000000000001
 20
260.0
 30
-10.0
 70
   192
  0
VERTEX
  5
762
  8
0
 10
462.8284271247463
 20
257.1715728752538
 30
-10.0
 70
   192
  0
VERTEX
  5
763
  8
0
 10
460.0000000000001
 20
256.0
 30
-10.0
 70
   192
  0
VERTEX
  5
764
  8
0
 10
457.1715728752538
 20
257.1715728752538
 30
-10.0
 70
   192
  0
VERTEX
  5
765
  8
0
 10
0.0
 20
0.0
 30
0.0
 70
   128
 71
     7
 72
     8
 73
    -1
  0
VERTEX
  5
766
  8
0
 10
0.0
 20
0.0
 30
0.0
 70
   128
 71
     6
 72
    -7
 73
    -1
  0
VERTEX
  5
767
  8
0
 10
0.0
 20
0.0
 30
0.0
 70
   128
 71
     5
 72
    -6
 73
    -1
  0
VERTEX
  5
768
  8
0
 10
0.0
 20
0.0
 30
0.0
 70
   128
 71
     4
 72
    -5
 73
    -1
  0
VERTEX
  5
769
  8
0
 10
0.0
 20
0.0
 30
0.0
 70
   128
 71
     3
 72
    -4
 73
    -1
  0
VERTEX
  5
76A
  8
0
 10
0.0
 20
0.0
 30
0.0
 70
   128
 71
     2
 72
    -3
 73
     1
  0
SEQEND
  5
AB6
  8
0
  0
POLYLINE
  5
76B
  8
0
 66
     1
 10
0.0
 20
0.0
 30
0.0
 70
    64
 71
    10
 72
     8
  0
VERTEX
  5
76C
  8
0
 10
455.9999999999946
 20
-259.9999999999999
 30
-10.0
 70
   192
  0
VERTEX
  5
76D
  8
0
 10
463.9999999999946
 20
-259.9999999999999
 30
-10.0
 70
   192
  0
VERTEX
  5
76E
  8
0
 10
463.9999999999946
 20
-259.9999999999999
 30
-25.0
 70
   192
  0
VERTEX
  5
76F
  8
0
 10
455.9999999999946
 20
-259.9999999999999
 30
-25.0
 70
   192
  0
VERTEX
  5
770
  8
0
 10
459.9999999999946
 20
-255.9999999999999
 30
-25.0
 70
   192
  0
VERTEX
  5
771
  8
0
 10
459.9999999999946
 20
-255.9999999999999
 30
-10.0
 70
   192
  0
VERTEX
  5
772
  8
0
 10
457.1715728752484
 20
-257.1715728752537
 30
-25.0
 70
   192
  0
VERTEX
  5
773
  8
0
 10
457.1715728752484
 20
-257.1715728752537
 30
-10.0
 70
   192
  0
VERTEX
  5
774
  8
0
 10
462.8284271247408
 20
-257.1715728752537
 30
-25.0
 70
   192
  0
VERTEX
  5
775
  8
0
 10
462.8284271247408
 20
-257.1715728752537
 30
-10.0
 70
   192
  0
VERTEX
  5
776
  8
0
 10
0.0
 20
0.0
 30
0.0
 70
   128
 71
     8
 72
     1
 73
    -4
  0
VERTEX
  5
777
  8
0
 10
0.0
 20
0.0
 30
0.0
 70
   128
 71
     7
 72
    -8
 73
     4
  0
VERTEX
  5
778
  8
0
 10
0.0
 20
0.0
 30
0.0
 70
   128
 71
     6
 72
     8
 73
    -7
  0
VERTEX
  5
779
  8
0
 10
0.0
 20
0.0
 30
0.0
 70
   128
 71
     5
 72
    -6
 73
     7
  0
VERTEX
  5
77A
  8
0
 10
0.0
 20
0.0
 30
0.0
 70
   128
 71
    10
 72
     6
 73
    -5
  0
VERTEX
  5
77B
  8
0
 10
0.0
 20
0.0
 30
0.0
 70
   128
 71
     9
 72
   -10
 73
     5
  0
VERTEX
  5
77C
  8
0
 10
0.0
 20
0.0
 30
0.0
 70
   128
 71
     3
 72
     2
 73
   -10
  0
VERTEX
  5
77D
  8
0
 10
0.0
 20
0.0
 30
0.0
 70
   128
 71
     9
 72
    -3
 73
    10
  0
SEQEND
  5
AB7
  8
0
  0
POLYLINE
  5
77E
  8
0
 66
     1
 10
0.0
 20
0.0
 30
0.0
 70
    64
 71
     8
 72
     6
  0
VERTEX
  5
77F
  8
0
 10
455.9999999999946
 20
-259.9999999999999
 30
-10.0
 70
   192
  0
VERTEX
  5
780
  8
0
 10
457.1715728752484
 20
-257.1715728752537
 30
-10.0
 70
   192
  0
VERTEX
  5
781
  8
0
 10
459.9999999999946
 20
-255.9999999999999
 30
-10.0
 70
   192
  0
VERTEX
  5
782
  8
0
 10
462.8284271247408
 20
-257.1715728752537
 30
-10.0
 70
   192
  0
VERTEX
  5
783
  8
0
 10
463.9999999999946
 20
-259.9999999999999
 30
-10.0
 70
   192
  0
VERTEX
  5
784
  8
0
 10
462.8284271247408
 20
-262.8284271247462
 30
-10.0
 70
   192
  0
VERTEX
  5
785
  8
0
 10
459.9999999999946
 20
-263.9999999999999
 30
-10.0
 70
   192
  0
VERTEX
  5
786
  8
0
 10
457.1715728752484
 20
-262.8284271247462
 30
-10.0
 70
   192
  0
VERTEX
  5
787
  8
0
 10
0.0
 20
0.0
 30
0.0
 70
   128
 71
     7
 72
     8
 73
    -1
  0
VERTEX
  5
788
  8
0
 10
0.0
 20
0.0
 30
0.0
 70
   128
 71
     6
 72
    -7
 73
    -1
  0
VERTEX
  5
789
  8
0
 10
0.0
 20
0.0
 30
0.0
 70
   128
 71
     5
 72
    -6
 73
    -1
  0
VERTEX
  5
78A
  8
0
 10
0.0
 20
0.0
 30
0.0
 70
   128
 71
     4
 72
    -5
 73
    -1
  0
VERTEX
  5
78B
  8
0
 10
0.0
 20
0.0
 30
0.0
 70
   128
 71
     3
 72
    -4
 73
    -1
  0
VERTEX
  5
78C
  8
0
 10
0.0
 20
0.0
 30
0.0
 70
   128
 71
     2
 72
    -3
 73
     1
  0
SEQEND
  5
AB8
  8
0
  0
POLYLINE
  5
78D
  8
0
 66
     1
 10
0.0
 20
0.0
 30
0.0
 70
    64
 71
    10
 72
     8
  0
VERTEX
  5
78E
  8
0
 10
-439.9999999999999
 20
225.0
 30
-10.0
 70
   192
  0
VERTEX
  5
78F
  8
0
 10
-410.0000000000001
 20
225.0
 30
-10.0
 70
   192
  0
VERTEX
  5
790
  8
0
 10
-410.0000000000001
 20
225.0
 30
-25.0
 70
   192
  0
VERTEX
  5
791
  8
0
 10
-439.9999999999999
 20
225.0
 30
-25.0
 70
   192
  0
VERTEX
  5
792
  8
0
 10
-425.0
 20
239.9999999999999
 30
-25.0
 70
   192
  0
VERTEX
  5
793
  8
0
 10
-425.0
 20
239.9999999999999
 30
-10.0
 70
   192
  0
VERTEX
  5
794
  8
0
 10
-435.6066017177982
 20
235.6066017177982
 30
-25.0
 70
   192
  0
VERTEX
  5
795
  8
0
 10
-435.6066017177982
 20
235.6066017177982
 30
-10.0
 70
   192
  0
VERTEX
  5
796
  8
0
 10
-414.3933982822018
 20
235.6066017177982
 30
-25.0
 70
   192
  0
VERTEX
  5
797
  8
0
 10
-414.3933982822018
 20
235.6066017177982
 30
-10.0
 70
   192
  0
VERTEX
  5
798
  8
0
 10
0.0
 20
0.0
 30
0.0
 70
   128
 71
     8
 72
     1
 73
    -4
  0
VERTEX
  5
799
  8
0
 10
0.0
 20
0.0
 30
0.0
 70
   128
 71
     7
 72
    -8
 73
     4
  0
VERTEX
  5
79A
  8
0
 10
0.0
 20
0.0
 30
0.0
 70
   128
 71
     6
 72
     8
 73
    -7
  0
VERTEX
  5
79B
  8
0
 10
0.0
 20
0.0
 30
0.0
 70
   128
 71
     5
 72
    -6
 73
     7
  0
VERTEX
  5
79C
  8
0
 10
0.0
 20
0.0
 30
0.0
 70
   128
 71
    10
 72
     6
 73
    -5
  0
VERTEX
  5
79D
  8
0
 10
0.0
 20
0.0
 30
0.0
 70
   128
 71
     9
 72
   -10
 73
     5
  0
VERTEX
  5
79E
  8
0
 10
0.0
 20
0.0
 30
0.0
 70
   128
 71
     3
 72
     2
 73
   -10
  0
VERTEX
  5
79F
  8
0
 10
0.0
 20
0.0
 30
0.0
 70
   128
 71
     9
 72
    -3
 73
    10
  0
SEQEND
  5
AB9
  8
0
  0
POLYLINE
  5
7A0
  8
0
 66
     1
 10
0.0
 20
0.0
 30
0.0
 70
    64
 71
     8
 72
     6
  0
VERTEX
  5
7A1
  8
0
 10
-439.9999999999999
 20
225.0
 30
-10.0
 70
   192
  0
VERTEX
  5
7A2
  8
0
 10
-435.6066017177982
 20
235.6066017177982
 30
-10.0
 70
   192
  0
VERTEX
  5
7A3
  8
0
 10
-425.0
 20
239.9999999999999
 30
-10.0
 70
   192
  0
VERTEX
  5
7A4
  8
0
 10
-414.3933982822018
 20
235.6066017177982
 30
-10.0
 70
   192
  0
VERTEX
  5
7A5
  8
0
 10
-410.0000000000001
 20
225.0
 30
-10.0
 70
   192
  0
VERTEX
  5
7A6
  8
0
 10
-414.3933982822018
 20
214.3933982822018
 30
-10.0
 70
   192
  0
VERTEX
  5
7A7
  8
0
 10
-425.0
 20
210.0
 30
-10.0
 70
   192
  0
VERTEX
  5
7A8
  8
0
 10
-435.6066017177982
 20
214.3933982822018
 30
-10.0
 70
   192
  0
VERTEX
  5
7A9
  8
0
 10
0.0
 20
0.0
 30
0.0
 70
   128
 71
     7
 72
     8
 73
    -1
  0
VERTEX
  5
7AA
  8
0
 10
0.0
 20
0.0
 30
0.0
 70
   128
 71
     6
 72
    -7
 73
    -1
  0
VERTEX
  5
7AB
  8
0
 10
0.0
 20
0.0
 30
0.0
 70
   128
 71
     5
 72
    -6
 73
    -1
  0
VERTEX
  5
7AC
  8
0
 10
0.0
 20
0.0
 30
0.0
 70
   128
 71
     4
 72
    -5
 73
    -1
  0
VERTEX
  5
7AD
  8
0
 10
0.0
 20
0.0
 30
0.0
 70
   128
 71
     3
 72
    -4
 73
    -1
  0
VERTEX
  5
7AE
  8
0
 10
0.0
 20
0.0
 30
0.0
 70
   128
 71
     2
 72
    -3
 73
     1
  0
SEQEND
  5
ABA
  8
0
  0
POLYLINE
  5
7AF
  8
0
 66
     1
 10
0.0
 20
0.0
 30
0.0
 70
    64
 71
    10
 72
     8
  0
VERTEX
  5
7B0
  8
0
 10
409.9999999999953
 20
-225.0
 30
-10.0
 70
   192
  0
VERTEX
  5
7B1
  8
0
 10
439.9999999999952
 20
-225.0
 30
-10.0
 70
   192
  0
VERTEX
  5
7B2
  8
0
 10
439.9999999999952
 20
-225.0
 30
-25.0
 70
   192
  0
VERTEX
  5
7B3
  8
0
 10
409.9999999999953
 20
-225.0
 30
-25.0
 70
   192
  0
VERTEX
  5
7B4
  8
0
 10
424.9999999999953
 20
-210.0000000000001
 30
-25.0
 70
   192
  0
VERTEX
  5
7B5
  8
0
 10
424.9999999999953
 20
-210.0000000000001
 30
-10.0
 70
   192
  0
VERTEX
  5
7B6
  8
0
 10
414.3933982821971
 20
-214.3933982822018
 30
-25.0
 70
   192
  0
VERTEX
  5
7B7
  8
0
 10
414.3933982821971
 20
-214.3933982822018
 30
-10.0
 70
   192
  0
VERTEX
  5
7B8
  8
0
 10
435.6066017177935
 20
-214.3933982822018
 30
-25.0
 70
   192
  0
VERTEX
  5
7B9
  8
0
 10
435.6066017177935
 20
-214.3933982822018
 30
-10.0
 70
   192
  0
VERTEX
  5
7BA
  8
0
 10
0.0
 20
0.0
 30
0.0
 70
   128
 71
     8
 72
     1
 73
    -4
  0
VERTEX
  5
7BB
  8
0
 10
0.0
 20
0.0
 30
0.0
 70
   128
 71
     7
 72
    -8
 73
     4
  0
VERTEX
  5
7BC
  8
0
 10
0.0
 20
0.0
 30
0.0
 70
   128
 71
     6
 72
     8
 73
    -7
  0
VERTEX
  5
7BD
  8
0
 10
0.0
 20
0.0
 30
0.0
 70
   128
 71
     5
 72
    -6
 73
     7
  0
VERTEX
  5
7BE
  8
0
 10
0.0
 20
0.0
 30
0.0
 70
   128
 71
    10
 72
     6
 73
    -5
  0
VERTEX
  5
7BF
  8
0
 10
0.0
 20
0.0
 30
0.0
 70
   128
 71
     9
 72
   -10
 73
     5
  0
VERTEX
  5
7C0
  8
0
 10
0.0
 20
0.0
 30
0.0
 70
   128
 71
     3
 72
     2
 73
   -10
  0
VERTEX
  5
7C1
  8
0
 10
0.0
 20
0.0
 30
0.0
 70
   128
 71
     9
 72
    -3
 73
    10
  0
SEQEND
  5
ABB
  8
0
  0
POLYLINE
  5
7C2
  8
0
 66
     1
 10
0.0
 20
0.0
 30
0.0
 70
    64
 71
     8
 72
     6
  0
VERTEX
  5
7C3
  8
0
 10
409.9999999999953
 20
-225.0
 30
-10.0
 70
   192
  0
VERTEX
  5
7C4
  8
0
 10
414.3933982821971
 20
-214.3933982822018
 30
-10.0
 70
   192
  0
VERTEX
  5
7C5
  8
0
 10
424.9999999999953
 20
-210.0000000000001
 30
-10.0
 70
   192
  0
VERTEX
  5
7C6
  8
0
 10
435.6066017177935
 20
-214.3933982822018
 30
-10.0
 70
   192
  0
VERTEX
  5
7C7
  8
0
 10
439.9999999999952
 20
-225.0
 30
-10.0
 70
   192
  0
VERTEX
  5
7C8
  8
0
 10
435.6066017177935
 20
-235.6066017177982
 30
-10.0
 70
   192
  0
VERTEX
  5
7C9
  8
0
 10
424.9999999999953
 20
-240.0
 30
-10.0
 70
   192
  0
VERTEX
  5
7CA
  8
0
 10
414.3933982821971
 20
-235.6066017177982
 30
-10.0
 70
   192
  0
VERTEX
  5
7CB
  8
0
 10
0.0
 20
0.0
 30
0.0
 70
   128
 71
     7
 72
     8
 73
    -1
  0
VERTEX
  5
7CC
  8
0
 10
0.0
 20
0.0
 30
0.0
 70
   128
 71
     6
 72
    -7
 73
    -1
  0
VERTEX
  5
7CD
  8
0
 10
0.0
 20
0.0
 30
0.0
 70
   128
 71
     5
 72
    -6
 73
    -1
  0
VERTEX
  5
7CE
  8
0
 10
0.0
 20
0.0
 30
0.0
 70
   128
 71
     4
 72
    -5
 73
    -1
  0
VERTEX
  5
7CF
  8
0
 10
0.0
 20
0.0
 30
0.0
 70
   128
 71
     3
 72
    -4
 73
    -1
  0
VERTEX
  5
7D0
  8
0
 10
0.0
 20
0.0
 30
0.0
 70
   128
 71
     2
 72
    -3
 73
     1
  0
SEQEND
  5
ABC
  8
0
  0
POLYLINE
  5
7D1
  8
0
 66
     1
 10
0.0
 20
0.0
 30
0.0
 70
    64
 71
    10
 72
     8
  0
VERTEX
  5
7D2
  8
0
 10
410.0000000000001
 20
225.0
 30
-10.0
 70
   192
  0
VERTEX
  5
7D3
  8
0
 10
439.9999999999999
 20
225.0
 30
-10.0
 70
   192
  0
VERTEX
  5
7D4
  8
0
 10
439.9999999999999
 20
225.0
 30
-25.0
 70
   192
  0
VERTEX
  5
7D5
  8
0
 10
410.0000000000001
 20
225.0
 30
-25.0
 70
   192
  0
VERTEX
  5
7D6
  8
0
 10
425.0
 20
239.9999999999999
 30
-25.0
 70
   192
  0
VERTEX
  5
7D7
  8
0
 10
425.0
 20
239.9999999999999
 30
-10.0
 70
   192
  0
VERTEX
  5
7D8
  8
0
 10
414.3933982822018
 20
235.6066017177982
 30
-25.0
 70
   192
  0
VERTEX
  5
7D9
  8
0
 10
414.3933982822018
 20
235.6066017177982
 30
-10.0
 70
   192
  0
VERTEX
  5
7DA
  8
0
 10
435.6066017177982
 20
235.6066017177982
 30
-25.0
 70
   192
  0
VERTEX
  5
7DB
  8
0
 10
435.6066017177982
 20
235.6066017177982
 30
-10.0
 70
   192
  0
VERTEX
  5
7DC
  8
0
 10
0.0
 20
0.0
 30
0.0
 70
   128
 71
     8
 72
     1
 73
    -4
  0
VERTEX
  5
7DD
  8
0
 10
0.0
 20
0.0
 30
0.0
 70
   128
 71
     7
 72
    -8
 73
     4
  0
VERTEX
  5
7DE
  8
0
 10
0.0
 20
0.0
 30
0.0
 70
   128
 71
     6
 72
     8
 73
    -7
  0
VERTEX
  5
7DF
  8
0
 10
0.0
 20
0.0
 30
0.0
 70
   128
 71
     5
 72
    -6
 73
     7
  0
VERTEX
  5
7E0
  8
0
 10
0.0
 20
0.0
 30
0.0
 70
   128
 71
    10
 72
     6
 73
    -5
  0
VERTEX
  5
7E1
  8
0
 10
0.0
 20
0.0
 30
0.0
 70
   128
 71
     9
 72
   -10
 73
     5
  0
VERTEX
  5
7E2
  8
0
 10
0.0
 20
0.0
 30
0.0
 70
   128
 71
     3
 72
     2
 73
   -10
  0
VERTEX
  5
7E3
  8
0
 10
0.0
 20
0.0
 30
0.0
 70
   128
 71
     9
 72
    -3
 73
    10
  0
SEQEND
  5
ABD
  8
0
  0
POLYLINE
  5
7E4
  8
0
 66
     1
 10
0.0
 20
0.0
 30
0.0
 70
    64
 71
     8
 72
     6
  0
VERTEX
  5
7E5
  8
0
 10
410.0000000000001
 20
225.0
 30
-10.0
 70
   192
  0
VERTEX
  5
7E6
  8
0
 10
414.3933982822018
 20
235.6066017177982
 30
-10.0
 70
   192
  0
VERTEX
  5
7E7
  8
0
 10
425.0
 20
239.9999999999999
 30
-10.0
 70
   192
  0
VERTEX
  5
7E8
  8
0
 10
435.6066017177982
 20
235.6066017177982
 30
-10.0
 70
   192
  0
VERTEX
  5
7E9
  8
0
 10
439.9999999999999
 20
225.0
 30
-10.0
 70
   192
  0
VERTEX
  5
7EA
  8
0
 10
435.6066017177982
 20
214.3933982822018
 30
-10.0
 70
   192
  0
VERTEX
  5
7EB
  8
0
 10
425.0
 20
210.0
 30
-10.0
 70
   192
  0
VERTEX
  5
7EC
  8
0
 10
414.3933982822018
 20
214.3933982822018
 30
-10.0
 70
   192
  0
VERTEX
  5
7ED
  8
0
 10
0.0
 20
0.0
 30
0.0
 70
   128
 71
     7
 72
     8
 73
    -1
  0
VERTEX
  5
7EE
  8
0
 10
0.0
 20
0.0
 30
0.0
 70
   128
 71
     6
 72
    -7
 73
    -1
  0
VERTEX
  5
7EF
  8
0
 10
0.0
 20
0.0
 30
0.0
 70
   128
 71
     5
 72
    -6
 73
    -1
  0
VERTEX
  5
7F0
  8
0
 10
0.0
 20
0.0
 30
0.0
 70
   128
 71
     4
 72
    -5
 73
    -1
  0
VERTEX
  5
7F1
  8
0
 10
0.0
 20
0.0
 30
0.0
 70
   128
 71
     3
 72
    -4
 73
    -1
  0
VERTEX
  5
7F2
  8
0
 10
0.0
 20
0.0
 30
0.0
 70
   128
 71
     2
 72
    -3
 73
     1
  0
SEQEND
  5
ABE
  8
0
  0
POLYLINE
  5
7F3
  8
0
 66
     1
 10
0.0
 20
0.0
 30
0.0
 70
    64
 71
    10
 72
     8
  0
VERTEX
  5
7F4
  8
0
 10
-459.0
 20
260.0
 30
-10.0
 70
   192
  0
VERTEX
  5
7F5
  8
0
 10
-451.0
 20
260.0
 30
-10.0
 70
   192
  0
VERTEX
  5
7F6
  8
0
 10
-451.0
 20
260.0
 30
-25.0
 70
   192
  0
VERTEX
  5
7F7
  8
0
 10
-459.0
 20
260.0
 30
-25.0
 70
   192
  0
VERTEX
  5
7F8
  8
0
 10
-455.0
 20
264.0
 30
-25.0
 70
   192
  0
VERTEX
  5
7F9
  8
0
 10
-455.0
 20
264.0
 30
-10.0
 70
   192
  0
VERTEX
  5
7FA
  8
0
 10
-457.8284271247462
 20
262.8284271247462
 30
-25.0
 70
   192
  0
VERTEX
  5
7FB
  8
0
 10
-457.8284271247462
 20
262.8284271247462
 30
-10.0
 70
   192
  0
VERTEX
  5
7FC
  8
0
 10
-452.1715728752538
 20
262.8284271247462
 30
-25.0
 70
   192
  0
VERTEX
  5
7FD
  8
0
 10
-452.1715728752538
 20
262.8284271247462
 30
-10.0
 70
   192
  0
VERTEX
  5
7FE
  8
0
 10
0.0
 20
0.0
 30
0.0
 70
   128
 71
     8
 72
     1
 73
    -4
  0
VERTEX
  5
7FF
  8
0
 10
0.0
 20
0.0
 30
0.0
 70
   128
 71
     7
 72
    -8
 73
     4
  0
VERTEX
  5
800
  8
0
 10
0.0
 20
0.0
 30
0.0
 70
   128
 71
     6
 72
     8
 73
    -7
  0
VERTEX
  5
801
  8
0
 10
0.0
 20
0.0
 30
0.0
 70
   128
 71
     5
 72
    -6
 73
     7
  0
VERTEX
  5
802
  8
0
 10
0.0
 20
0.0
 30
0.0
 70
   128
 71
    10
 72
     6
 73
    -5
  0
VERTEX
  5
803
  8
0
 10
0.0
 20
0.0
 30
0.0
 70
   128
 71
     9
 72
   -10
 73
     5
  0
VERTEX
  5
804
  8
0
 10
0.0
 20
0.0
 30
0.0
 70
   128
 71
     3
 72
     2
 73
   -10
  0
VERTEX
  5
805
  8
0
 10
0.0
 20
0.0
 30
0.0
 70
   128
 71
     9
 72
    -3
 73
    10
  0
SEQEND
  5
ABF
  8
0
  0
POLYLINE
  5
806
  8
0
 66
     1
 10
0.0
 20
0.0
 30
0.0
 70
    64
 71
     8
 72
     6
  0
VERTEX
  5
807
  8
0
 10
-459.0
 20
260.0
 30
-10.0
 70
   192
  0
VERTEX
  5
808
  8
0
 10
-457.8284271247462
 20
262.8284271247462
 30
-10.0
 70
   192
  0
VERTEX
  5
809
  8
0
 10
-455.0
 20
264.0
 30
-10.0
 70
   192
  0
VERTEX
  5
80A
  8
0
 10
-452.1715728752538
 20
262.8284271247462
 30
-10.0
 70
   192
  0
VERTEX
  5
80B
  8
0
 10
-451.0
 20
260.0
 30
-10.0
 70
   192
  0
VERTEX
  5
80C
  8
0
 10
-452.1715728752538
 20
257.1715728752538
 30
-10.0
 70
   192
  0
VERTEX
  5
80D
  8
0
 10
-455.0
 20
256.0
 30
-10.0
 70
   192
  0
VERTEX
  5
80E
  8
0
 10
-457.8284271247462
 20
257.1715728752538
 30
-10.0
 70
   192
  0
VERTEX
  5
80F
  8
0
 10
0.0
 20
0.0
 30
0.0
 70
   128
 71
     7
 72
     8
 73
    -1
  0
VERTEX
  5
810
  8
0
 10
0.0
 20
0.0
 30
0.0
 70
   128
 71
     6
 72
    -7
 73
    -1
  0
VERTEX
  5
811
  8
0
 10
0.0
 20
0.0
 30
0.0
 70
   128
 71
     5
 72
    -6
 73
    -1
  0
VERTEX
  5
812
  8
0
 10
0.0
 20
0.0
 30
0.0
 70
   128
 71
     4
 72
    -5
 73
    -1
  0
VERTEX
  5
813
  8
0
 10
0.0
 20
0.0
 30
0.0
 70
   128
 71
     3
 72
    -4
 73
    -1
  0
VERTEX
  5
814
  8
0
 10
0.0
 20
0.0
 30
0.0
 70
   128
 71
     2
 72
    -3
 73
     1
  0
SEQEND
  5
AC0
  8
0
  0
POLYLINE
  5
815
  8
0
 66
     1
 10
0.0
 20
0.0
 30
0.0
 70
    64
 71
    10
 72
     8
  0
VERTEX
  5
816
  8
0
 10
-463.9999999999999
 20
-259.9999999999999
 30
-10.0
 70
   192
  0
VERTEX
  5
817
  8
0
 10
-455.9999999999999
 20
-259.9999999999999
 30
-10.0
 70
   192
  0
VERTEX
  5
818
  8
0
 10
-455.9999999999999
 20
-259.9999999999999
 30
-25.0
 70
   192
  0
VERTEX
  5
819
  8
0
 10
-463.9999999999999
 20
-259.9999999999999
 30
-25.0
 70
   192
  0
VERTEX
  5
81A
  8
0
 10
-459.9999999999999
 20
-255.9999999999999
 30
-25.0
 70
   192
  0
VERTEX
  5
81B
  8
0
 10
-459.9999999999999
 20
-255.9999999999999
 30
-10.0
 70
   192
  0
VERTEX
  5
81C
  8
0
 10
-462.8284271247462
 20
-257.1715728752537
 30
-25.0
 70
   192
  0
VERTEX
  5
81D
  8
0
 10
-462.8284271247462
 20
-257.1715728752537
 30
-10.0
 70
   192
  0
VERTEX
  5
81E
  8
0
 10
-457.1715728752537
 20
-257.1715728752537
 30
-25.0
 70
   192
  0
VERTEX
  5
81F
  8
0
 10
-457.1715728752537
 20
-257.1715728752537
 30
-10.0
 70
   192
  0
VERTEX
  5
820
  8
0
 10
0.0
 20
0.0
 30
0.0
 70
   128
 71
     8
 72
     1
 73
    -4
  0
VERTEX
  5
821
  8
0
 10
0.0
 20
0.0
 30
0.0
 70
   128
 71
     7
 72
    -8
 73
     4
  0
VERTEX
  5
822
  8
0
 10
0.0
 20
0.0
 30
0.0
 70
   128
 71
     6
 72
     8
 73
    -7
  0
VERTEX
  5
823
  8
0
 10
0.0
 20
0.0
 30
0.0
 70
   128
 71
     5
 72
    -6
 73
     7
  0
VERTEX
  5
824
  8
0
 10
0.0
 20
0.0
 30
0.0
 70
   128
 71
    10
 72
     6
 73
    -5
  0
VERTEX
  5
825
  8
0
 10
0.0
 20
0.0
 30
0.0
 70
   128
 71
     9
 72
   -10
 73
     5
  0
VERTEX
  5
826
  8
0
 10
0.0
 20
0.0
 30
0.0
 70
   128
 71
     3
 72
     2
 73
   -10
  0
VERTEX
  5
827
  8
0
 10
0.0
 20
0.0
 30
0.0
 70
   128
 71
     9
 72
    -3
 73
    10
  0
SEQEND
  5
AC1
  8
0
  0
POLYLINE
  5
828
  8
0
 66
     1
 10
0.0
 20
0.0
 30
0.0
 70
    64
 71
     8
 72
     6
  0
VERTEX
  5
829
  8
0
 10
-463.9999999999999
 20
-259.9999999999999
 30
-10.0
 70
   192
  0
VERTEX
  5
82A
  8
0
 10
-462.8284271247462
 20
-257.1715728752537
 30
-10.0
 70
   192
  0
VERTEX
  5
82B
  8
0
 10
-459.9999999999999
 20
-255.9999999999999
 30
-10.0
 70
   192
  0
VERTEX
  5
82C
  8
0
 10
-457.1715728752537
 20
-257.1715728752537
 30
-10.0
 70
   192
  0
VERTEX
  5
82D
  8
0
 10
-455.9999999999999
 20
-259.9999999999999
 30
-10.0
 70
   192
  0
VERTEX
  5
82E
  8
0
 10
-457.1715728752537
 20
-262.8284271247462
 30
-10.0
 70
   192
  0
VERTEX
  5
82F
  8
0
 10
-459.9999999999999
 20
-263.9999999999999
 30
-10.0
 70
   192
  0
VERTEX
  5
830
  8
0
 10
-462.8284271247462
 20
-262.8284271247462
 30
-10.0
 70
   192
  0
VERTEX
  5
831
  8
0
 10
0.0
 20
0.0
 30
0.0
 70
   128
 71
     7
 72
     8
 73
    -1
  0
VERTEX
  5
832
  8
0
 10
0.0
 20
0.0
 30
0.0
 70
   128
 71
     6
 72
    -7
 73
    -1
  0
VERTEX
  5
833
  8
0
 10
0.0
 20
0.0
 30
0.0
 70
   128
 71
     5
 72
    -6
 73
    -1
  0
VERTEX
  5
834
  8
0
 10
0.0
 20
0.0
 30
0.0
 70
   128
 71
     4
 72
    -5
 73
    -1
  0
VERTEX
  5
835
  8
0
 10
0.0
 20
0.0
 30
0.0
 70
   128
 71
     3
 72
    -4
 73
    -1
  0
VERTEX
  5
836
  8
0
 10
0.0
 20
0.0
 30
0.0
 70
   128
 71
     2
 72
    -3
 73
     1
  0
SEQEND
  5
AC2
  8
0
  0
ENDBLK
  5
AA2
  8
0
  0
BLOCK
  8
0
  2
*X2
 70
     1
 10
0.0
 20
0.0
 30
0.0
  3
*X2
  1

  0
POLYLINE
  5
838
  8
0
 66
     1
 10
0.0
 20
0.0
 30
0.0
 70
    64
 71
     4
 72
     2
  0
VERTEX
  5
839
  8
0
 10
424.9999999999953
 20
-210.0000000000001
 30
-25.0
 70
   192
  0
VERTEX
  5
83A
  8
0
 10
424.9999999999953
 20
-210.0000000000001
 30
-23.0
 70
   192
  0
VERTEX
  5
83B
  8
0
 10
424.9999999999953
 20
-240.0
 30
-23.0
 70
   192
  0
VERTEX
  5
83C
  8
0
 10
424.9999999999953
 20
-240.0
 30
-25.0
 70
   192
  0
VERTEX
  5
83D
  8
0
 10
0.0
 20
0.0
 30
0.0
 70
   128
 71
     1
 72
     4
 73
    -3
  0
VERTEX
  5
83E
  8
0
 10
0.0
 20
0.0
 30
0.0
 70
   128
 71
    -1
 72
     3
 73
     2
  0
SEQEND
  5
AC5
  8
0
  0
POLYLINE
  5
83F
  8
0
 66
     1
 10
0.0
 20
0.0
 30
0.0
 70
    64
 71
    16
 72
    14
  0
VERTEX
  5
840
  8
0
 10
439.6239186827226
 20
-221.6621859906553
 30
-25.0
 70
   192
  0
VERTEX
  5
841
  8
0
 10
439.6239186827226
 20
-221.6621859906553
 30
-23.0
 70
   192
  0
VERTEX
  5
842
  8
0
 10
439.6239186827226
 20
-228.3378140093447
 30
-23.0
 70
   192
  0
VERTEX
  5
843
  8
0
 10
439.6239186827226
 20
-228.3378140093447
 30
-25.0
 70
   192
  0
VERTEX
  5
844
  8
0
 10
431.5082560867586
 20
-211.4854669814638
 30
-25.0
 70
   192
  0
VERTEX
  5
845
  8
0
 10
431.5082560867586
 20
-211.4854669814638
 30
-23.0
 70
   192
  0
VERTEX
  5
846
  8
0
 10
436.7274722370157
 20
-215.6476529721191
 30
-23.0
 70
   192
  0
VERTEX
  5
847
  8
0
 10
436.7274722370157
 20
-215.6476529721191
 30
-25.0
 70
   192
  0
VERTEX
  5
848
  8
0
 10
436.7274722370157
 20
-234.352347027881
 30
-25.0
 70
   192
  0
VERTEX
  5
849
  8
0
 10
436.7274722370157
 20
-234.352347027881
 30
-23.0
 70
   192
  0
VERTEX
  5
84A
  8
0
 10
431.5082560867586
 20
-238.5145330185363
 30
-23.0
 70
   192
  0
VERTEX
  5
84B
  8
0
 10
431.5082560867586
 20
-238.5145330185363
 30
-25.0
 70
   192
  0
VERTEX
  5
84C
  8
0
 10
424.9999999999953
 20
-240.0
 30
-23.0
 70
   192
  0
VERTEX
  5
84D
  8
0
 10
424.9999999999953
 20
-240.0
 30
-25.0
 70
   192
  0
VERTEX
  5
84E
  8
0
 10
424.9999999999953
 20
-210.0000000000001
 30
-25.0
 70
   192
  0
VERTEX
  5
84F
  8
0
 10
424.9999999999953
 20
-210.0000000000001
 30
-23.0
 70
   192
  0
VERTEX
  5
850
  8
0
 10
0.0
 20
0.0
 30
0.0
 70
   128
 71
     1
 72
     2
 73
    -3
  0
VERTEX
  5
851
  8
0
 10
0.0
 20
0.0
 30
0.0
 70
   128
 71
    -1
 72
     3
 73
     4
  0
VERTEX
  5
852
  8
0
 10
0.0
 20
0.0
 30
0.0
 70
   128
 71
     5
 72
     6
 73
    -7
  0
VERTEX
  5
853
  8
0
 10
0.0
 20
0.0
 30
0.0
 70
   128
 71
    -5
 72
     7
 73
     8
  0
VERTEX
  5
854
  8
0
 10
0.0
 20
0.0
 30
0.0
 70
   128
 71
     9
 72
    10
 73
   -11
  0
VERTEX
  5
855
  8
0
 10
0.0
 20
0.0
 30
0.0
 70
   128
 71
    -9
 72
    11
 73
    12
  0
VERTEX
  5
856
  8
0
 10
0.0
 20
0.0
 30
0.0
 70
   128
 71
    12
 72
    11
 73
   -13
  0
VERTEX
  5
857
  8
0
 10
0.0
 20
0.0
 30
0.0
 70
   128
 71
   -12
 72
    13
 73
    14
  0
VERTEX
  5
858
  8
0
 10
0.0
 20
0.0
 30
0.0
 70
   128
 71
     4
 72
     3
 73
   -10
  0
VERTEX
  5
859
  8
0
 10
0.0
 20
0.0
 30
0.0
 70
   128
 71
    -4
 72
    10
 73
     9
  0
VERTEX
  5
85A
  8
0
 10
0.0
 20
0.0
 30
0.0
 70
   128
 71
     8
 72
     7
 73
    -2
  0
VERTEX
  5
85B
  8
0
 10
0.0
 20
0.0
 30
0.0
 70
   128
 71
    -8
 72
     2
 73
     1
  0
VERTEX
  5
85C
  8
0
 10
0.0
 20
0.0
 30
0.0
 70
   128
 71
    15
 72
    16
 73
    -6
  0
VERTEX
  5
85D
  8
0
 10
0.0
 20
0.0
 30
0.0
 70
   128
 71
   -15
 72
     6
 73
     5
  0
SEQEND
  5
AC6
  8
0
  0
POLYLINE
  5
85E
  8
0
 66
     1
 10
0.0
 20
0.0
 30
0.0
 70
    64
 71
     8
 72
     6
  0
VERTEX
  5
85F
  8
0
 10
424.9999999999953
 20
-210.0000000000001
 30
-23.0
 70
   192
  0
VERTEX
  5
860
  8
0
 10
431.5082560867586
 20
-211.4854669814638
 30
-23.0
 70
   192
  0
VERTEX
  5
861
  8
0
 10
436.7274722370157
 20
-215.6476529721191
 30
-23.0
 70
   192
  0
VERTEX
  5
862
  8
0
 10
439.6239186827226
 20
-221.6621859906553
 30
-23.0
 70
   192
  0
VERTEX
  5
863
  8
0
 10
439.6239186827226
 20
-228.3378140093447
 30
-23.0
 70
   192
  0
VERTEX
  5
864
  8
0
 10
436.7274722370157
 20
-234.352347027881
 30
-23.0
 70
   192
  0
VERTEX
  5
865
  8
0
 10
431.5082560867586
 20
-238.5145330185363
 30
-23.0
 70
   192
  0
VERTEX
  5
866
  8
0
 10
424.9999999999953
 20
-240.0
 30
-23.0
 70
   192
  0
VERTEX
  5
867
  8
0
 10
0.0
 20
0.0
 30
0.0
 70
   128
 71
     1
 72
     8
 73
    -7
  0
VERTEX
  5
868
  8
0
 10
0.0
 20
0.0
 30
0.0
 70
   128
 71
    -1
 72
     7
 73
    -6
  0
VERTEX
  5
869
  8
0
 10
0.0
 20
0.0
 30
0.0
 70
   128
 71
    -1
 72
     6
 73
    -5
  0
VERTEX
  5
86A
  8
0
 10
0.0
 20
0.0
 30
0.0
 70
   128
 71
    -1
 72
     5
 73
    -4
  0
VERTEX
  5
86B
  8
0
 10
0.0
 20
0.0
 30
0.0
 70
   128
 71
    -1
 72
     4
 73
    -3
  0
VERTEX
  5
86C
  8
0
 10
0.0
 20
0.0
 30
0.0
 70
   128
 71
    -1
 72
     3
 73
     2
  0
SEQEND
  5
AC7
  8
0
  0
POLYLINE
  5
86D
  8
0
 66
     1
 10
0.0
 20
0.0
 30
0.0
 70
    64
 71
     8
 72
     6
  0
VERTEX
  5
86E
  8
0
 10
424.9999999999953
 20
-240.0
 30
-25.0
 70
   192
  0
VERTEX
  5
86F
  8
0
 10
424.9999999999953
 20
-210.0000000000001
 30
-25.0
 70
   192
  0
VERTEX
  5
870
  8
0
 10
431.5082560867586
 20
-211.4854669814638
 30
-25.0
 70
   192
  0
VERTEX
  5
871
  8
0
 10
436.7274722370157
 20
-215.6476529721191
 30
-25.0
 70
   192
  0
VERTEX
  5
872
  8
0
 10
439.6239186827226
 20
-221.6621859906553
 30
-25.0
 70
   192
  0
VERTEX
  5
873
  8
0
 10
439.6239186827226
 20
-228.3378140093447
 30
-25.0
 70
   192
  0
VERTEX
  5
874
  8
0
 10
436.7274722370157
 20
-234.352347027881
 30
-25.0
 70
   192
  0
VERTEX
  5
875
  8
0
 10
431.5082560867586
 20
-238.5145330185363
 30
-25.0
 70
   192
  0
VERTEX
  5
876
  8
0
 10
0.0
 20
0.0
 30
0.0
 70
   128
 71
     7
 72
     8
 73
    -1
  0
VERTEX
  5
877
  8
0
 10
0.0
 20
0.0
 30
0.0
 70
   128
 71
     6
 72
    -7
 73
    -1
  0
VERTEX
  5
878
  8
0
 10
0.0
 20
0.0
 30
0.0
 70
   128
 71
     5
 72
    -6
 73
    -1
  0
VERTEX
  5
879
  8
0
 10
0.0
 20
0.0
 30
0.0
 70
   128
 71
     4
 72
    -5
 73
    -1
  0
VERTEX
  5
87A
  8
0
 10
0.0
 20
0.0
 30
0.0
 70
   128
 71
     3
 72
    -4
 73
    -1
  0
VERTEX
  5
87B
  8
0
 10
0.0
 20
0.0
 30
0.0
 70
   128
 71
     2
 72
    -3
 73
     1
  0
SEQEND
  5
AC8
  8
0
  0
ENDBLK
  5
AC4
  8
0
  0
BLOCK
  8
0
  2
*X3
 70
     1
 10
0.0
 20
0.0
 30
0.0
  3
*X3
  1

  0
POLYLINE
  5
87D
  8
0
 66
     1
 10
0.0
 20
0.0
 30
0.0
 70
    64
 71
     4
 72
     2
  0
VERTEX
  5
87E
  8
0
 10
410.0000000000001
 20
225.0
 30
-25.0
 70
   192
  0
VERTEX
  5
87F
  8
0
 10
439.9999999999999
 20
225.0
 30
-25.0
 70
   192
  0
VERTEX
  5
880
  8
0
 10
439.9999999999999
 20
225.0
 30
-23.0
 70
   192
  0
VERTEX
  5
881
  8
0
 10
410.0000000000001
 20
225.0
 30
-23.0
 70
   192
  0
VERTEX
  5
882
  8
0
 10
0.0
 20
0.0
 30
0.0
 70
   128
 71
     3
 72
     4
 73
    -1
  0
VERTEX
  5
883
  8
0
 10
0.0
 20
0.0
 30
0.0
 70
   128
 71
     2
 72
    -3
 73
     1
  0
SEQEND
  5
ACB
  8
0
  0
POLYLINE
  5
884
  8
0
 66
     1
 10
0.0
 20
0.0
 30
0.0
 70
    64
 71
    16
 72
    14
  0
VERTEX
  5
885
  8
0
 10
421.6621859906553
 20
239.6239186827273
 30
-25.0
 70
   192
  0
VERTEX
  5
886
  8
0
 10
421.6621859906553
 20
239.6239186827273
 30
-23.0
 70
   192
  0
VERTEX
  5
887
  8
0
 10
428.3378140093447
 20
239.6239186827273
 30
-23.0
 70
   192
  0
VERTEX
  5
888
  8
0
 10
428.3378140093447
 20
239.6239186827273
 30
-25.0
 70
   192
  0
VERTEX
  5
889
  8
0
 10
411.4854669814637
 20
231.5082560867633
 30
-25.0
 70
   192
  0
VERTEX
  5
88A
  8
0
 10
411.4854669814637
 20
231.5082560867633
 30
-23.0
 70
   192
  0
VERTEX
  5
88B
  8
0
 10
415.647652972119
 20
236.7274722370204
 30
-23.0
 70
   192
  0
VERTEX
  5
88C
  8
0
 10
415.647652972119
 20
236.7274722370204
 30
-25.0
 70
   192
  0
VERTEX
  5
88D
  8
0
 10
434.352347027881
 20
236.7274722370204
 30
-25.0
 70
   192
  0
VERTEX
  5
88E
  8
0
 10
434.352347027881
 20
236.7274722370204
 30
-23.0
 70
   192
  0
VERTEX
  5
88F
  8
0
 10
438.5145330185363
 20
231.5082560867633
 30
-23.0
 70
   192
  0
VERTEX
  5
890
  8
0
 10
438.5145330185363
 20
231.5082560867633
 30
-25.0
 70
   192
  0
VERTEX
  5
891
  8
0
 10
439.9999999999999
 20
225.0
 30
-23.0
 70
   192
  0
VERTEX
  5
892
  8
0
 10
439.9999999999999
 20
225.0
 30
-25.0
 70
   192
  0
VERTEX
  5
893
  8
0
 10
410.0000000000001
 20
225.0
 30
-25.0
 70
   192
  0
VERTEX
  5
894
  8
0
 10
410.0000000000001
 20
225.0
 30
-23.0
 70
   192
  0
VERTEX
  5
895
  8
0
 10
0.0
 20
0.0
 30
0.0
 70
   128
 71
     1
 72
     2
 73
    -3
  0
VERTEX
  5
896
  8
0
 10
0.0
 20
0.0
 30
0.0
 70
   128
 71
    -1
 72
     3
 73
     4
  0
VERTEX
  5
897
  8
0
 10
0.0
 20
0.0
 30
0.0
 70
   128
 71
     5
 72
     6
 73
    -7
  0
VERTEX
  5
898
  8
0
 10
0.0
 20
0.0
 30
0.0
 70
   128
 71
    -5
 72
     7
 73
     8
  0
VERTEX
  5
899
  8
0
 10
0.0
 20
0.0
 30
0.0
 70
   128
 71
     9
 72
    10
 73
   -11
  0
VERTEX
  5
89A
  8
0
 10
0.0
 20
0.0
 30
0.0
 70
   128
 71
    -9
 72
    11
 73
    12
  0
VERTEX
  5
89B
  8
0
 10
0.0
 20
0.0
 30
0.0
 70
   128
 71
    12
 72
    11
 73
   -13
  0
VERTEX
  5
89C
  8
0
 10
0.0
 20
0.0
 30
0.0
 70
   128
 71
   -12
 72
    13
 73
    14
  0
VERTEX
  5
89D
  8
0
 10
0.0
 20
0.0
 30
0.0
 70
   128
 71
     4
 72
     3
 73
   -10
  0
VERTEX
  5
89E
  8
0
 10
0.0
 20
0.0
 30
0.0
 70
   128
 71
    -4
 72
    10
 73
     9
  0
VERTEX
  5
89F
  8
0
 10
0.0
 20
0.0
 30
0.0
 70
   128
 71
     8
 72
     7
 73
    -2
  0
VERTEX
  5
8A0
  8
0
 10
0.0
 20
0.0
 30
0.0
 70
   128
 71
    -8
 72
     2
 73
     1
  0
VERTEX
  5
8A1
  8
0
 10
0.0
 20
0.0
 30
0.0
 70
   128
 71
    15
 72
    16
 73
    -6
  0
VERTEX
  5
8A2
  8
0
 10
0.0
 20
0.0
 30
0.0
 70
   128
 71
   -15
 72
     6
 73
     5
  0
SEQEND
  5
ACC
  8
0
  0
POLYLINE
  5
8A3
  8
0
 66
     1
 10
0.0
 20
0.0
 30
0.0
 70
    64
 71
     8
 72
     6
  0
VERTEX
  5
8A4
  8
0
 10
410.0000000000001
 20
225.0
 30
-23.0
 70
   192
  0
VERTEX
  5
8A5
  8
0
 10
411.4854669814637
 20
231.5082560867633
 30
-23.0
 70
   192
  0
VERTEX
  5
8A6
  8
0
 10
415.647652972119
 20
236.7274722370204
 30
-23.0
 70
   192
  0
VERTEX
  5
8A7
  8
0
 10
421.6621859906553
 20
239.6239186827273
 30
-23.0
 70
   192
  0
VERTEX
  5
8A8
  8
0
 10
428.3378140093447
 20
239.6239186827273
 30
-23.0
 70
   192
  0
VERTEX
  5
8A9
  8
0
 10
434.352347027881
 20
236.7274722370204
 30
-23.0
 70
   192
  0
VERTEX
  5
8AA
  8
0
 10
438.5145330185363
 20
231.5082560867633
 30
-23.0
 70
   192
  0
VERTEX
  5
8AB
  8
0
 10
439.9999999999999
 20
225.0
 30
-23.0
 70
   192
  0
VERTEX
  5
8AC
  8
0
 10
0.0
 20
0.0
 30
0.0
 70
   128
 71
     1
 72
     8
 73
    -7
  0
VERTEX
  5
8AD
  8
0
 10
0.0
 20
0.0
 30
0.0
 70
   128
 71
    -1
 72
     7
 73
    -6
  0
VERTEX
  5
8AE
  8
0
 10
0.0
 20
0.0
 30
0.0
 70
   128
 71
    -1
 72
     6
 73
    -5
  0
VERTEX
  5
8AF
  8
0
 10
0.0
 20
0.0
 30
0.0
 70
   128
 71
    -1
 72
     5
 73
    -4
  0
VERTEX
  5
8B0
  8
0
 10
0.0
 20
0.0
 30
0.0
 70
   128
 71
    -1
 72
     4
 73
    -3
  0
VERTEX
  5
8B1
  8
0
 10
0.0
 20
0.0
 30
0.0
 70
   128
 71
    -1
 72
     3
 73
     2
  0
SEQEND
  5
ACD
  8
0
  0
POLYLINE
  5
8B2
  8
0
 66
     1
 10
0.0
 20
0.0
 30
0.0
 70
    64
 71
     8
 72
     6
  0
VERTEX
  5
8B3
  8
0
 10
439.9999999999999
 20
225.0
 30
-25.0
 70
   192
  0
VERTEX
  5
8B4
  8
0
 10
410.0000000000001
 20
225.0
 30
-25.0
 70
   192
  0
VERTEX
  5
8B5
  8
0
 10
411.4854669814637
 20
231.5082560867633
 30
-25.0
 70
   192
  0
VERTEX
  5
8B6
  8
0
 10
415.647652972119
 20
236.7274722370204
 30
-25.0
 70
   192
  0
VERTEX
  5
8B7
  8
0
 10
421.6621859906553
 20
239.6239186827273
 30
-25.0
 70
   192
  0
VERTEX
  5
8B8
  8
0
 10
428.3378140093447
 20
239.6239186827273
 30
-25.0
 70
   192
  0
VERTEX
  5
8B9
  8
0
 10
434.352347027881
 20
236.7274722370204
 30
-25.0
 70
   192
  0
VERTEX
  5
8BA
  8
0
 10
438.5145330185363
 20
231.5082560867633
 30
-25.0
 70
   192
  0
VERTEX
  5
8BB
  8
0
 10
0.0
 20
0.0
 30
0.0
 70
   128
 71
     7
 72
     8
 73
    -1
  0
VERTEX
  5
8BC
  8
0
 10
0.0
 20
0.0
 30
0.0
 70
   128
 71
     6
 72
    -7
 73
    -1
  0
VERTEX
  5
8BD
  8
0
 10
0.0
 20
0.0
 30
0.0
 70
   128
 71
     5
 72
    -6
 73
    -1
  0
VERTEX
  5
8BE
  8
0
 10
0.0
 20
0.0
 30
0.0
 70
   128
 71
     4
 72
    -5
 73
    -1
  0
VERTEX
  5
8BF
  8
0
 10
0.0
 20
0.0
 30
0.0
 70
   128
 71
     3
 72
    -4
 73
    -1
  0
VERTEX
  5
8C0
  8
0
 10
0.0
 20
0.0
 30
0.0
 70
   128
 71
     2
 72
    -3
 73
     1
  0
SEQEND
  5
ACE
  8
0
  0
ENDBLK
  5
ACA
  8
0
  0
BLOCK
  8
0
  2
*X4
 70
     1
 10
0.0
 20
0.0
 30
0.0
  3
*X4
  1

  0
POLYLINE
  5
8C2
  8
0
 66
     1
 10
0.0
 20
0.0
 30
0.0
 70
    64
 71
     4
 72
     2
  0
VERTEX
  5
8C3
  8
0
 10
-439.9999999999999
 20
225.0
 30
-25.0
 70
   192
  0
VERTEX
  5
8C4
  8
0
 10
-410.0000000000001
 20
225.0
 30
-25.0
 70
   192
  0
VERTEX
  5
8C5
  8
0
 10
-410.0000000000001
 20
225.0
 30
-23.0
 70
   192
  0
VERTEX
  5
8C6
  8
0
 10
-439.9999999999999
 20
225.0
 30
-23.0
 70
   192
  0
VERTEX
  5
8C7
  8
0
 10
0.0
 20
0.0
 30
0.0
 70
   128
 71
     3
 72
     4
 73
    -1
  0
VERTEX
  5
8C8
  8
0
 10
0.0
 20
0.0
 30
0.0
 70
   128
 71
     2
 72
    -3
 73
     1
  0
SEQEND
  5
AD1
  8
0
  0
POLYLINE
  5
8C9
  8
0
 66
     1
 10
0.0
 20
0.0
 30
0.0
 70
    64
 71
    16
 72
    14
  0
VERTEX
  5
8CA
  8
0
 10
-428.3378140093447
 20
239.6239186827273
 30
-25.0
 70
   192
  0
VERTEX
  5
8CB
  8
0
 10
-428.3378140093447
 20
239.6239186827273
 30
-23.0
 70
   192
  0
VERTEX
  5
8CC
  8
0
 10
-421.6621859906553
 20
239.6239186827273
 30
-23.0
 70
   192
  0
VERTEX
  5
8CD
  8
0
 10
-421.6621859906553
 20
239.6239186827273
 30
-25.0
 70
   192
  0
VERTEX
  5
8CE
  8
0
 10
-438.5145330185363
 20
231.5082560867633
 30
-25.0
 70
   192
  0
VERTEX
  5
8CF
  8
0
 10
-438.5145330185363
 20
231.5082560867633
 30
-23.0
 70
   192
  0
VERTEX
  5
8D0
  8
0
 10
-434.352347027881
 20
236.7274722370204
 30
-23.0
 70
   192
  0
VERTEX
  5
8D1
  8
0
 10
-434.352347027881
 20
236.7274722370204
 30
-25.0
 70
   192
  0
VERTEX
  5
8D2
  8
0
 10
-415.647652972119
 20
236.7274722370204
 30
-25.0
 70
   192
  0
VERTEX
  5
8D3
  8
0
 10
-415.647652972119
 20
236.7274722370204
 30
-23.0
 70
   192
  0
VERTEX
  5
8D4
  8
0
 10
-411.4854669814637
 20
231.5082560867633
 30
-23.0
 70
   192
  0
VERTEX
  5
8D5
  8
0
 10
-411.4854669814637
 20
231.5082560867633
 30
-25.0
 70
   192
  0
VERTEX
  5
8D6
  8
0
 10
-410.0000000000001
 20
225.0
 30
-23.0
 70
   192
  0
VERTEX
  5
8D7
  8
0
 10
-410.0000000000001
 20
225.0
 30
-25.0
 70
   192
  0
VERTEX
  5
8D8
  8
0
 10
-439.9999999999999
 20
225.0
 30
-25.0
 70
   192
  0
VERTEX
  5
8D9
  8
0
 10
-439.9999999999999
 20
225.0
 30
-23.0
 70
   192
  0
VERTEX
  5
8DA
  8
0
 10
0.0
 20
0.0
 30
0.0
 70
   128
 71
     1
 72
     2
 73
    -3
  0
VERTEX
  5
8DB
  8
0
 10
0.0
 20
0.0
 30
0.0
 70
   128
 71
    -1
 72
     3
 73
     4
  0
VERTEX
  5
8DC
  8
0
 10
0.0
 20
0.0
 30
0.0
 70
   128
 71
     5
 72
     6
 73
    -7
  0
VERTEX
  5
8DD
  8
0
 10
0.0
 20
0.0
 30
0.0
 70
   128
 71
    -5
 72
     7
 73
     8
  0
VERTEX
  5
8DE
  8
0
 10
0.0
 20
0.0
 30
0.0
 70
   128
 71
     9
 72
    10
 73
   -11
  0
VERTEX
  5
8DF
  8
0
 10
0.0
 20
0.0
 30
0.0
 70
   128
 71
    -9
 72
    11
 73
    12
  0
VERTEX
  5
8E0
  8
0
 10
0.0
 20
0.0
 30
0.0
 70
   128
 71
    12
 72
    11
 73
   -13
  0
VERTEX
  5
8E1
  8
0
 10
0.0
 20
0.0
 30
0.0
 70
   128
 71
   -12
 72
    13
 73
    14
  0
VERTEX
  5
8E2
  8
0
 10
0.0
 20
0.0
 30
0.0
 70
   128
 71
     4
 72
     3
 73
   -10
  0
VERTEX
  5
8E3
  8
0
 10
0.0
 20
0.0
 30
0.0
 70
   128
 71
    -4
 72
    10
 73
     9
  0
VERTEX
  5
8E4
  8
0
 10
0.0
 20
0.0
 30
0.0
 70
   128
 71
     8
 72
     7
 73
    -2
  0
VERTEX
  5
8E5
  8
0
 10
0.0
 20
0.0
 30
0.0
 70
   128
 71
    -8
 72
     2
 73
     1
  0
VERTEX
  5
8E6
  8
0
 10
0.0
 20
0.0
 30
0.0
 70
   128
 71
    15
 72
    16
 73
    -6
  0
VERTEX
  5
8E7
  8
0
 10
0.0
 20
0.0
 30
0.0
 70
   128
 71
   -15
 72
     6
 73
     5
  0
SEQEND
  5
AD2
  8
0
  0
POLYLINE
  5
8E8
  8
0
 66
     1
 10
0.0
 20
0.0
 30
0.0
 70
    64
 71
     8
 72
     6
  0
VERTEX
  5
8E9
  8
0
 10
-439.9999999999999
 20
225.0
 30
-23.0
 70
   192
  0
VERTEX
  5
8EA
  8
0
 10
-438.5145330185363
 20
231.5082560867633
 30
-23.0
 70
   192
  0
VERTEX
  5
8EB
  8
0
 10
-434.352347027881
 20
236.7274722370204
 30
-23.0
 70
   192
  0
VERTEX
  5
8EC
  8
0
 10
-428.3378140093447
 20
239.6239186827273
 30
-23.0
 70
   192
  0
VERTEX
  5
8ED
  8
0
 10
-421.6621859906553
 20
239.6239186827273
 30
-23.0
 70
   192
  0
VERTEX
  5
8EE
  8
0
 10
-415.647652972119
 20
236.7274722370204
 30
-23.0
 70
   192
  0
VERTEX
  5
8EF
  8
0
 10
-411.4854669814637
 20
231.5082560867633
 30
-23.0
 70
   192
  0
VERTEX
  5
8F0
  8
0
 10
-410.0000000000001
 20
225.0
 30
-23.0
 70
   192
  0
VERTEX
  5
8F1
  8
0
 10
0.0
 20
0.0
 30
0.0
 70
   128
 71
     1
 72
     8
 73
    -7
  0
VERTEX
  5
8F2
  8
0
 10
0.0
 20
0.0
 30
0.0
 70
   128
 71
    -1
 72
     7
 73
    -6
  0
VERTEX
  5
8F3
  8
0
 10
0.0
 20
0.0
 30
0.0
 70
   128
 71
    -1
 72
     6
 73
    -5
  0
VERTEX
  5
8F4
  8
0
 10
0.0
 20
0.0
 30
0.0
 70
   128
 71
    -1
 72
     5
 73
    -4
  0
VERTEX
  5
8F5
  8
0
 10
0.0
 20
0.0
 30
0.0
 70
   128
 71
    -1
 72
     4
 73
    -3
  0
VERTEX
  5
8F6
  8
0
 10
0.0
 20
0.0
 30
0.0
 70
   128
 71
    -1
 72
     3
 73
     2
  0
SEQEND
  5
AD3
  8
0
  0
POLYLINE
  5
8F7
  8
0
 66
     1
 10
0.0
 20
0.0
 30
0.0
 70
    64
 71
     8
 72
     6
  0
VERTEX
  5
8F8
  8
0
 10
-410.0000000000001
 20
225.0
 30
-25.0
 70
   192
  0
VERTEX
  5
8F9
  8
0
 10
-439.9999999999999
 20
225.0
 30
-25.0
 70
   192
  0
VERTEX
  5
8FA
  8
0
 10
-438.5145330185363
 20
231.5082560867633
 30
-25.0
 70
   192
  0
VERTEX
  5
8FB
  8
0
 10
-434.352347027881
 20
236.7274722370204
 30
-25.0
 70
   192
  0
VERTEX
  5
8FC
  8
0
 10
-428.3378140093447
 20
239.6239186827273
 30
-25.0
 70
   192
  0
VERTEX
  5
8FD
  8
0
 10
-421.6621859906553
 20
239.6239186827273
 30
-25.0
 70
   192
  0
VERTEX
  5
8FE
  8
0
 10
-415.647652972119
 20
236.7274722370204
 30
-25.0
 70
   192
  0
VERTEX
  5
8FF
  8
0
 10
-411.4854669814637
 20
231.5082560867633
 30
-25.0
 70
   192
  0
VERTEX
  5
900
  8
0
 10
0.0
 20
0.0
 30
0.0
 70
   128
 71
     7
 72
     8
 73
    -1
  0
VERTEX
  5
901
  8
0
 10
0.0
 20
0.0
 30
0.0
 70
   128
 71
     6
 72
    -7
 73
    -1
  0
VERTEX
  5
902
  8
0
 10
0.0
 20
0.0
 30
0.0
 70
   128
 71
     5
 72
    -6
 73
    -1
  0
VERTEX
  5
903
  8
0
 10
0.0
 20
0.0
 30
0.0
 70
   128
 71
     4
 72
    -5
 73
    -1
  0
VERTEX
  5
904
  8
0
 10
0.0
 20
0.0
 30
0.0
 70
   128
 71
     3
 72
    -4
 73
    -1
  0
VERTEX
  5
905
  8
0
 10
0.0
 20
0.0
 30
0.0
 70
   128
 71
     2
 72
    -3
 73
     1
  0
SEQEND
  5
AD4
  8
0
  0
ENDBLK
  5
AD0
  8
0
  0
BLOCK
  8
0
  2
*X5
 70
     1
 10
0.0
 20
0.0
 30
0.0
  3
*X5
  1

  0
POLYLINE
  5
907
  8
0
 66
     1
 10
0.0
 20
0.0
 30
0.0
 70
    64
 71
     4
 72
     2
  0
VERTEX
  5
908
  8
0
 10
344.9999999999999
 20
150.0
 30
-25.0
 70
   192
  0
VERTEX
  5
909
  8
0
 10
344.9999999999999
 20
150.0
 30
-23.0
 70
   192
  0
VERTEX
  5
90A
  8
0
 10
-345.0000000000001
 20
150.0
 30
-23.0
 70
   192
  0
VERTEX
  5
90B
  8
0
 10
-345.0000000000001
 20
150.0
 30
-25.0
 70
   192
  0
VERTEX
  5
90C
  8
0
 10
0.0
 20
0.0
 30
0.0
 70
   128
 71
     1
 72
     4
 73
    -3
  0
VERTEX
  5
90D
  8
0
 10
0.0
 20
0.0
 30
0.0
 70
   128
 71
    -1
 72
     3
 73
     2
  0
SEQEND
  5
AD7
  8
0
  0
POLYLINE
  5
90E
  8
0
 66
     1
 10
0.0
 20
0.0
 30
0.0
 70
    64
 71
     8
 72
     6
  0
VERTEX
  5
90F
  8
0
 10
-353.6602540378445
 20
145.0
 30
-25.0
 70
   192
  0
VERTEX
  5
910
  8
0
 10
-353.6602540378445
 20
145.0
 30
-23.0
 70
   192
  0
VERTEX
  5
911
  8
0
 10
-350.0000000000001
 20
148.6602540378444
 30
-23.0
 70
   192
  0
VERTEX
  5
912
  8
0
 10
-350.0000000000001
 20
148.6602540378444
 30
-25.0
 70
   192
  0
VERTEX
  5
913
  8
0
 10
-355.0000000000001
 20
139.9999999999999
 30
-25.0
 70
   192
  0
VERTEX
  5
914
  8
0
 10
-355.0000000000001
 20
139.9999999999999
 30
-23.0
 70
   192
  0
VERTEX
  5
915
  8
0
 10
-345.0000000000001
 20
150.0
 30
-23.0
 70
   192
  0
VERTEX
  5
916
  8
0
 10
-345.0000000000001
 20
150.0
 30
-25.0
 70
   192
  0
VERTEX
  5
917
  8
0
 10
0.0
 20
0.0
 30
0.0
 70
   128
 71
     1
 72
     2
 73
    -3
  0
VERTEX
  5
918
  8
0
 10
0.0
 20
0.0
 30
0.0
 70
   128
 71
    -1
 72
     3
 73
     4
  0
VERTEX
  5
919
  8
0
 10
0.0
 20
0.0
 30
0.0
 70
   128
 71
     5
 72
     6
 73
    -2
  0
VERTEX
  5
91A
  8
0
 10
0.0
 20
0.0
 30
0.0
 70
   128
 71
    -5
 72
     2
 73
     1
  0
VERTEX
  5
91B
  8
0
 10
0.0
 20
0.0
 30
0.0
 70
   128
 71
     4
 72
     3
 73
    -7
  0
VERTEX
  5
91C
  8
0
 10
0.0
 20
0.0
 30
0.0
 70
   128
 71
    -4
 72
     7
 73
     8
  0
SEQEND
  5
AD8
  8
0
  0
POLYLINE
  5
91D
  8
0
 66
     1
 10
0.0
 20
0.0
 30
0.0
 70
    64
 71
     4
 72
     2
  0
VERTEX
  5
91E
  8
0
 10
-355.0000000000001
 20
139.9999999999999
 30
-25.0
 70
   192
  0
VERTEX
  5
91F
  8
0
 10
-355.0000000000001
 20
139.9999999999999
 30
-23.0
 70
   192
  0
VERTEX
  5
920
  8
0
 10
-355.0000000000001
 20
-139.9999999999999
 30
-23.0
 70
   192
  0
VERTEX
  5
921
  8
0
 10
-355.0000000000001
 20
-139.9999999999999
 30
-25.0
 70
   192
  0
VERTEX
  5
922
  8
0
 10
0.0
 20
0.0
 30
0.0
 70
   128
 71
     1
 72
     4
 73
    -3
  0
VERTEX
  5
923
  8
0
 10
0.0
 20
0.0
 30
0.0
 70
   128
 71
    -1
 72
     3
 73
     2
  0
SEQEND
  5
AD9
  8
0
  0
POLYLINE
  5
924
  8
0
 66
     1
 10
0.0
 20
0.0
 30
0.0
 70
    64
 71
     8
 72
     6
  0
VERTEX
  5
925
  8
0
 10
-350.0000000000001
 20
-148.6602540378444
 30
-25.0
 70
   192
  0
VERTEX
  5
926
  8
0
 10
-350.0000000000001
 20
-148.6602540378444
 30
-23.0
 70
   192
  0
VERTEX
  5
927
  8
0
 10
-353.6602540378445
 20
-145.0
 30
-23.0
 70
   192
  0
VERTEX
  5
928
  8
0
 10
-353.6602540378445
 20
-145.0
 30
-25.0
 70
   192
  0
VERTEX
  5
929
  8
0
 10
-345.0000000000001
 20
-150.0
 30
-25.0
 70
   192
  0
VERTEX
  5
92A
  8
0
 10
-345.0000000000001
 20
-150.0
 30
-23.0
 70
   192
  0
VERTEX
  5
92B
  8
0
 10
-355.0000000000001
 20
-139.9999999999999
 30
-23.0
 70
   192
  0
VERTEX
  5
92C
  8
0
 10
-355.0000000000001
 20
-139.9999999999999
 30
-25.0
 70
   192
  0
VERTEX
  5
92D
  8
0
 10
0.0
 20
0.0
 30
0.0
 70
   128
 71
     1
 72
     2
 73
    -3
  0
VERTEX
  5
92E
  8
0
 10
0.0
 20
0.0
 30
0.0
 70
   128
 71
    -1
 72
     3
 73
     4
  0
VERTEX
  5
92F
  8
0
 10
0.0
 20
0.0
 30
0.0
 70
   128
 71
     5
 72
     6
 73
    -2
  0
VERTEX
  5
930
  8
0
 10
0.0
 20
0.0
 30
0.0
 70
   128
 71
    -5
 72
     2
 73
     1
  0
VERTEX
  5
931
  8
0
 10
0.0
 20
0.0
 30
0.0
 70
   128
 71
     4
 72
     3
 73
    -7
  0
VERTEX
  5
932
  8
0
 10
0.0
 20
0.0
 30
0.0
 70
   128
 71
    -4
 72
     7
 73
     8
  0
SEQEND
  5
ADA
  8
0
  0
POLYLINE
  5
933
  8
0
 66
     1
 10
0.0
 20
0.0
 30
0.0
 70
    64
 71
     4
 72
     2
  0
VERTEX
  5
934
  8
0
 10
-345.0000000000001
 20
-150.0
 30
-25.0
 70
   192
  0
VERTEX
  5
935
  8
0
 10
344.9999999999999
 20
-150.0
 30
-25.0
 70
   192
  0
VERTEX
  5
936
  8
0
 10
344.9999999999999
 20
-150.0
 30
-23.0
 70
   192
  0
VERTEX
  5
937
  8
0
 10
-345.0000000000001
 20
-150.0
 30
-23.0
 70
   192
  0
VERTEX
  5
938
  8
0
 10
0.0
 20
0.0
 30
0.0
 70
   128
 71
     3
 72
     4
 73
    -1
  0
VERTEX
  5
939
  8
0
 10
0.0
 20
0.0
 30
0.0
 70
   128
 71
     2
 72
    -3
 73
     1
  0
SEQEND
  5
ADB
  8
0
  0
POLYLINE
  5
93A
  8
0
 66
     1
 10
0.0
 20
0.0
 30
0.0
 70
    64
 71
     8
 72
     6
  0
VERTEX
  5
93B
  8
0
 10
353.6602540378444
 20
-145.0
 30
-25.0
 70
   192
  0
VERTEX
  5
93C
  8
0
 10
353.6602540378444
 20
-145.0
 30
-23.0
 70
   192
  0
VERTEX
  5
93D
  8
0
 10
350.0
 20
-148.6602540378444
 30
-23.0
 70
   192
  0
VERTEX
  5
93E
  8
0
 10
350.0
 20
-148.6602540378444
 30
-25.0
 70
   192
  0
VERTEX
  5
93F
  8
0
 10
355.0
 20
-139.9999999999999
 30
-25.0
 70
   192
  0
VERTEX
  5
940
  8
0
 10
355.0
 20
-139.9999999999999
 30
-23.0
 70
   192
  0
VERTEX
  5
941
  8
0
 10
344.9999999999999
 20
-150.0
 30
-23.0
 70
   192
  0
VERTEX
  5
942
  8
0
 10
344.9999999999999
 20
-150.0
 30
-25.0
 70
   192
  0
VERTEX
  5
943
  8
0
 10
0.0
 20
0.0
 30
0.0
 70
   128
 71
     1
 72
     2
 73
    -3
  0
VERTEX
  5
944
  8
0
 10
0.0
 20
0.0
 30
0.0
 70
   128
 71
    -1
 72
     3
 73
     4
  0
VERTEX
  5
945
  8
0
 10
0.0
 20
0.0
 30
0.0
 70
   128
 71
     5
 72
     6
 73
    -2
  0
VERTEX
  5
946
  8
0
 10
0.0
 20
0.0
 30
0.0
 70
   128
 71
    -5
 72
     2
 73
     1
  0
VERTEX
  5
947
  8
0
 10
0.0
 20
0.0
 30
0.0
 70
   128
 71
     4
 72
     3
 73
    -7
  0
VERTEX
  5
948
  8
0
 10
0.0
 20
0.0
 30
0.0
 70
   128
 71
    -4
 72
     7
 73
     8
  0
SEQEND
  5
ADC
  8
0
  0
POLYLINE
  5
949
  8
0
 66
     1
 10
0.0
 20
0.0
 30
0.0
 70
    64
 71
     4
 72
     2
  0
VERTEX
  5
94A
  8
0
 10
355.0
 20
-139.9999999999999
 30
-25.0
 70
   192
  0
VERTEX
  5
94B
  8
0
 10
355.0
 20
139.9999999999999
 30
-25.0
 70
   192
  0
VERTEX
  5
94C
  8
0
 10
355.0
 20
139.9999999999999
 30
-23.0
 70
   192
  0
VERTEX
  5
94D
  8
0
 10
355.0
 20
-139.9999999999999
 30
-23.0
 70
   192
  0
VERTEX
  5
94E
  8
0
 10
0.0
 20
0.0
 30
0.0
 70
   128
 71
     3
 72
     4
 73
    -1
  0
VERTEX
  5
94F
  8
0
 10
0.0
 20
0.0
 30
0.0
 70
   128
 71
     2
 72
    -3
 73
     1
  0
SEQEND
  5
ADD
  8
0
  0
POLYLINE
  5
950
  8
0
 66
     1
 10
0.0
 20
0.0
 30
0.0
 70
    64
 71
     8
 72
     6
  0
VERTEX
  5
951
  8
0
 10
350.0
 20
148.6602540378444
 30
-25.0
 70
   192
  0
VERTEX
  5
952
  8
0
 10
350.0
 20
148.6602540378444
 30
-23.0
 70
   192
  0
VERTEX
  5
953
  8
0
 10
353.6602540378444
 20
145.0
 30
-23.0
 70
   192
  0
VERTEX
  5
954
  8
0
 10
353.6602540378444
 20
145.0
 30
-25.0
 70
   192
  0
VERTEX
  5
955
  8
0
 10
344.9999999999999
 20
150.0
 30
-25.0
 70
   192
  0
VERTEX
  5
956
  8
0
 10
344.9999999999999
 20
150.0
 30
-23.0
 70
   192
  0
VERTEX
  5
957
  8
0
 10
355.0
 20
139.9999999999999
 30
-23.0
 70
   192
  0
VERTEX
  5
958
  8
0
 10
355.0
 20
139.9999999999999
 30
-25.0
 70
   192
  0
VERTEX
  5
959
  8
0
 10
0.0
 20
0.0
 30
0.0
 70
   128
 71
     1
 72
     2
 73
    -3
  0
VERTEX
  5
95A
  8
0
 10
0.0
 20
0.0
 30
0.0
 70
   128
 71
    -1
 72
     3
 73
     4
  0
VERTEX
  5
95B
  8
0
 10
0.0
 20
0.0
 30
0.0
 70
   128
 71
     5
 72
     6
 73
    -2
  0
VERTEX
  5
95C
  8
0
 10
0.0
 20
0.0
 30
0.0
 70
   128
 71
    -5
 72
     2
 73
     1
  0
VERTEX
  5
95D
  8
0
 10
0.0
 20
0.0
 30
0.0
 70
   128
 71
     4
 72
     3
 73
    -7
  0
VERTEX
  5
95E
  8
0
 10
0.0
 20
0.0
 30
0.0
 70
   128
 71
    -4
 72
     7
 73
     8
  0
SEQEND
  5
ADE
  8
0
  0
POLYLINE
  5
95F
  8
0
 66
     1
 10
0.0
 20
0.0
 30
0.0
 70
    64
 71
    16
 72
    14
  0
VERTEX
  5
960
  8
0
 10
344.9999999999999
 20
150.0
 30
-23.0
 70
   192
  0
VERTEX
  5
961
  8
0
 10
350.0
 20
148.6602540378444
 30
-23.0
 70
   192
  0
VERTEX
  5
962
  8
0
 10
353.6602540378444
 20
145.0
 30
-23.0
 70
   192
  0
VERTEX
  5
963
  8
0
 10
355.0
 20
139.9999999999999
 30
-23.0
 70
   192
  0
VERTEX
  5
964
  8
0
 10
355.0
 20
-139.9999999999999
 30
-23.0
 70
   192
  0
VERTEX
  5
965
  8
0
 10
353.6602540378444
 20
-145.0
 30
-23.0
 70
   192
  0
VERTEX
  5
966
  8
0
 10
350.0
 20
-148.6602540378444
 30
-23.0
 70
   192
  0
VERTEX
  5
967
  8
0
 10
344.9999999999999
 20
-150.0
 30
-23.0
 70
   192
  0
VERTEX
  5
968
  8
0
 10
-345.0000000000001
 20
-150.0
 30
-23.0
 70
   192
  0
VERTEX
  5
969
  8
0
 10
-350.0000000000001
 20
-148.6602540378444
 30
-23.0
 70
   192
  0
VERTEX
  5
96A
  8
0
 10
-353.6602540378445
 20
-145.0
 30
-23.0
 70
   192
  0
VERTEX
  5
96B
  8
0
 10
-355.0000000000001
 20
-139.9999999999999
 30
-23.0
 70
   192
  0
VERTEX
  5
96C
  8
0
 10
-355.0000000000001
 20
139.9999999999999
 30
-23.0
 70
   192
  0
VERTEX
  5
96D
  8
0
 10
-353.6602540378445
 20
145.0
 30
-23.0
 70
   192
  0
VERTEX
  5
96E
  8
0
 10
-350.0000000000001
 20
148.6602540378444
 30
-23.0
 70
   192
  0
VERTEX
  5
96F
  8
0
 10
-345.0000000000001
 20
150.0
 30
-23.0
 70
   192
  0
VERTEX
  5
970
  8
0
 10
0.0
 20
0.0
 30
0.0
 70
   128
 71
     1
 72
    16
 73
   -15
  0
VERTEX
  5
971
  8
0
 10
0.0
 20
0.0
 30
0.0
 70
   128
 71
    -1
 72
    15
 73
   -14
  0
VERTEX
  5
972
  8
0
 10
0.0
 20
0.0
 30
0.0
 70
   128
 71
    -1
 72
    14
 73
   -13
  0
VERTEX
  5
973
  8
0
 10
0.0
 20
0.0
 30
0.0
 70
   128
 71
    -1
 72
    13
 73
   -12
  0
VERTEX
  5
974
  8
0
 10
0.0
 20
0.0
 30
0.0
 70
   128
 71
    -1
 72
    12
 73
   -11
  0
VERTEX
  5
975
  8
0
 10
0.0
 20
0.0
 30
0.0
 70
   128
 71
    -1
 72
    11
 73
   -10
  0
VERTEX
  5
976
  8
0
 10
0.0
 20
0.0
 30
0.0
 70
   128
 71
    -1
 72
    10
 73
    -9
  0
VERTEX
  5
977
  8
0
 10
0.0
 20
0.0
 30
0.0
 70
   128
 71
    -1
 72
     9
 73
    -8
  0
VERTEX
  5
978
  8
0
 10
0.0
 20
0.0
 30
0.0
 70
   128
 71
    -1
 72
     8
 73
    -7
  0
VERTEX
  5
979
  8
0
 10
0.0
 20
0.0
 30
0.0
 70
   128
 71
    -1
 72
     7
 73
    -6
  0
VERTEX
  5
97A
  8
0
 10
0.0
 20
0.0
 30
0.0
 70
   128
 71
    -1
 72
     6
 73
    -5
  0
VERTEX
  5
97B
  8
0
 10
0.0
 20
0.0
 30
0.0
 70
   128
 71
    -1
 72
     5
 73
    -4
  0
VERTEX
  5
97C
  8
0
 10
0.0
 20
0.0
 30
0.0
 70
   128
 71
    -1
 72
     4
 73
    -3
  0
VERTEX
  5
97D
  8
0
 10
0.0
 20
0.0
 30
0.0
 70
   128
 71
    -1
 72
     3
 73
     2
  0
SEQEND
  5
ADF
  8
0
  0
POLYLINE
  5
97E
  8
0
 66
     1
 10
0.0
 20
0.0
 30
0.0
 70
    64
 71
    16
 72
    14
  0
VERTEX
  5
97F
  8
0
 10
-345.0000000000001
 20
150.0
 30
-25.0
 70
   192
  0
VERTEX
  5
980
  8
0
 10
344.9999999999999
 20
150.0
 30
-25.0
 70
   192
  0
VERTEX
  5
981
  8
0
 10
350.0
 20
148.6602540378444
 30
-25.0
 70
   192
  0
VERTEX
  5
982
  8
0
 10
353.6602540378444
 20
145.0
 30
-25.0
 70
   192
  0
VERTEX
  5
983
  8
0
 10
355.0
 20
139.9999999999999
 30
-25.0
 70
   192
  0
VERTEX
  5
984
  8
0
 10
355.0
 20
-139.9999999999999
 30
-25.0
 70
   192
  0
VERTEX
  5
985
  8
0
 10
353.6602540378444
 20
-145.0
 30
-25.0
 70
   192
  0
VERTEX
  5
986
  8
0
 10
350.0
 20
-148.6602540378444
 30
-25.0
 70
   192
  0
VERTEX
  5
987
  8
0
 10
344.9999999999999
 20
-150.0
 30
-25.0
 70
   192
  0
VERTEX
  5
988
  8
0
 10
-345.0000000000001
 20
-150.0
 30
-25.0
 70
   192
  0
VERTEX
  5
989
  8
0
 10
-350.0000000000001
 20
-148.6602540378444
 30
-25.0
 70
   192
  0
VERTEX
  5
98A
  8
0
 10
-353.6602540378445
 20
-145.0
 30
-25.0
 70
   192
  0
VERTEX
  5
98B
  8
0
 10
-355.0000000000001
 20
-139.9999999999999
 30
-25.0
 70
   192
  0
VERTEX
  5
98C
  8
0
 10
-355.0000000000001
 20
139.9999999999999
 30
-25.0
 70
   192
  0
VERTEX
  5
98D
  8
0
 10
-353.6602540378445
 20
145.0
 30
-25.0
 70
   192
  0
VERTEX
  5
98E
  8
0
 10
-350.0000000000001
 20
148.6602540378444
 30
-25.0
 70
   192
  0
VERTEX
  5
98F
  8
0
 10
0.0
 20
0.0
 30
0.0
 70
   128
 71
    15
 72
    16
 73
    -1
  0
VERTEX
  5
990
  8
0
 10
0.0
 20
0.0
 30
0.0
 70
   128
 71
    14
 72
   -15
 73
    -1
  0
VERTEX
  5
991
  8
0
 10
0.0
 20
0.0
 30
0.0
 70
   128
 71
    13
 72
   -14
 73
    -1
  0
VERTEX
  5
992
  8
0
 10
0.0
 20
0.0
 30
0.0
 70
   128
 71
    12
 72
   -13
 73
    -1
  0
VERTEX
  5
993
  8
0
 10
0.0
 20
0.0
 30
0.0
 70
   128
 71
    11
 72
   -12
 73
    -1
  0
VERTEX
  5
994
  8
0
 10
0.0
 20
0.0
 30
0.0
 70
   128
 71
    10
 72
   -11
 73
    -1
  0
VERTEX
  5
995
  8
0
 10
0.0
 20
0.0
 30
0.0
 70
   128
 71
     9
 72
   -10
 73
    -1
  0
VERTEX
  5
996
  8
0
 10
0.0
 20
0.0
 30
0.0
 70
   128
 71
     8
 72
    -9
 73
    -1
  0
VERTEX
  5
997
  8
0
 10
0.0
 20
0.0
 30
0.0
 70
   128
 71
     7
 72
    -8
 73
    -1
  0
VERTEX
  5
998
  8
0
 10
0.0
 20
0.0
 30
0.0
 70
   128
 71
     6
 72
    -7
 73
    -1
  0
VERTEX
  5
999
  8
0
 10
0.0
 20
0.0
 30
0.0
 70
   128
 71
     5
 72
    -6
 73
    -1
  0
VERTEX
  5
99A
  8
0
 10
0.0
 20
0.0
 30
0.0
 70
   128
 71
     4
 72
    -5
 73
    -1
  0
VERTEX
  5
99B
  8
0
 10
0.0
 20
0.0
 30
0.0
 70
   128
 71
     3
 72
    -4
 73
    -1
  0
VERTEX
  5
99C
  8
0
 10
0.0
 20
0.0
 30
0.0
 70
   128
 71
     2
 72
    -3
 73
     1
  0
SEQEND
  5
AE0
  8
0
  0
ENDBLK
  5
AD6
  8
0
  0
BLOCK
  8
0
  2
*X6
 70
     1
 10
0.0
 20
0.0
 30
0.0
  3
*X6
  1

  0
POLYLINE
  5
99E
  8
0
 66
     1
 10
0.0
 20
0.0
 30
0.0
 70
    64
 71
     4
 72
     2
  0
VERTEX
  5
99F
  8
0
 10
-450.6698729810778
 20
252.5000000000001
 30
-25.0
 70
   192
  0
VERTEX
  5
9A0
  8
0
 10
-450.6698729810778
 20
252.5000000000001
 30
-28.0
 70
   192
  0
VERTEX
  5
9A1
  8
0
 10
-459.3301270189222
 20
252.5000000000001
 30
-28.0
 70
   192
  0
VERTEX
  5
9A2
  8
0
 10
-459.3301270189222
 20
252.5000000000001
 30
-25.0
 70
   192
  0
VERTEX
  5
9A3
  8
0
 10
0.0
 20
0.0
 30
0.0
 70
   128
 71
     1
 72
     4
 73
    -3
  0
VERTEX
  5
9A4
  8
0
 10
0.0
 20
0.0
 30
0.0
 70
   128
 71
    -1
 72
     3
 73
     2
  0
SEQEND
  5
AE3
  8
0
  0
POLYLINE
  5
9A5
  8
0
 66
     1
 10
0.0
 20
0.0
 30
0.0
 70
    64
 71
     4
 72
     2
  0
VERTEX
  5
9A6
  8
0
 10
-459.3301270189222
 20
252.5000000000001
 30
-25.0
 70
   192
  0
VERTEX
  5
9A7
  8
0
 10
-459.3301270189221
 20
252.5000000000001
 30
-28.0
 70
   192
  0
VERTEX
  5
9A8
  8
0
 10
-463.6602540378444
 20
260.0
 30
-28.0
 70
   192
  0
VERTEX
  5
9A9
  8
0
 10
-463.6602540378443
 20
260.0
 30
-25.0
 70
   192
  0
VERTEX
  5
9AA
  8
0
 10
0.0
 20
0.0
 30
0.0
 70
   128
 71
     1
 72
     4
 73
    -3
  0
VERTEX
  5
9AB
  8
0
 10
0.0
 20
0.0
 30
0.0
 70
   128
 71
    -1
 72
     3
 73
     2
  0
SEQEND
  5
AE4
  8
0
  0
POLYLINE
  5
9AC
  8
0
 66
     1
 10
0.0
 20
0.0
 30
0.0
 70
    64
 71
     4
 72
     2
  0
VERTEX
  5
9AD
  8
0
 10
-463.6602540378444
 20
260.0
 30
-25.0
 70
   192
  0
VERTEX
  5
9AE
  8
0
 10
-463.6602540378444
 20
260.0
 30
-28.0
 70
   192
  0
VERTEX
  5
9AF
  8
0
 10
-459.3301270189221
 20
267.5000000000002
 30
-28.0
 70
   192
  0
VERTEX
  5
9B0
  8
0
 10
-459.3301270189221
 20
267.5000000000002
 30
-25.0
 70
   192
  0
VERTEX
  5
9B1
  8
0
 10
0.0
 20
0.0
 30
0.0
 70
   128
 71
     1
 72
     4
 73
    -3
  0
VERTEX
  5
9B2
  8
0
 10
0.0
 20
0.0
 30
0.0
 70
   128
 71
    -1
 72
     3
 73
     2
  0
SEQEND
  5
AE5
  8
0
  0
POLYLINE
  5
9B3
  8
0
 66
     1
 10
0.0
 20
0.0
 30
0.0
 70
    64
 71
     4
 72
     2
  0
VERTEX
  5
9B4
  8
0
 10
-459.3301270189221
 20
267.5000000000002
 30
-25.0
 70
   192
  0
VERTEX
  5
9B5
  8
0
 10
-459.3301270189221
 20
267.5000000000002
 30
-28.0
 70
   192
  0
VERTEX
  5
9B6
  8
0
 10
-450.6698729810778
 20
267.5000000000002
 30
-28.0
 70
   192
  0
VERTEX
  5
9B7
  8
0
 10
-450.6698729810778
 20
267.5000000000002
 30
-25.0
 70
   192
  0
VERTEX
  5
9B8
  8
0
 10
0.0
 20
0.0
 30
0.0
 70
   128
 71
     1
 72
     4
 73
    -3
  0
VERTEX
  5
9B9
  8
0
 10
0.0
 20
0.0
 30
0.0
 70
   128
 71
    -1
 72
     3
 73
     2
  0
SEQEND
  5
AE6
  8
0
  0
POLYLINE
  5
9BA
  8
0
 66
     1
 10
0.0
 20
0.0
 30
0.0
 70
    64
 71
     4
 72
     2
  0
VERTEX
  5
9BB
  8
0
 10
-450.6698729810778
 20
267.5000000000002
 30
-25.0
 70
   192
  0
VERTEX
  5
9BC
  8
0
 10
-450.6698729810778
 20
267.5000000000001
 30
-28.0
 70
   192
  0
VERTEX
  5
9BD
  8
0
 10
-446.3397459621556
 20
260.0000000000002
 30
-28.0
 70
   192
  0
VERTEX
  5
9BE
  8
0
 10
-446.3397459621556
 20
260.0000000000002
 30
-25.0
 70
   192
  0
VERTEX
  5
9BF
  8
0
 10
0.0
 20
0.0
 30
0.0
 70
   128
 71
     1
 72
     4
 73
    -3
  0
VERTEX
  5
9C0
  8
0
 10
0.0
 20
0.0
 30
0.0
 70
   128
 71
    -1
 72
     3
 73
     2
  0
SEQEND
  5
AE7
  8
0
  0
POLYLINE
  5
9C1
  8
0
 66
     1
 10
0.0
 20
0.0
 30
0.0
 70
    64
 71
     4
 72
     2
  0
VERTEX
  5
9C2
  8
0
 10
-446.3397459621556
 20
260.0000000000002
 30
-25.0
 70
   192
  0
VERTEX
  5
9C3
  8
0
 10
-446.3397459621556
 20
260.0000000000002
 30
-28.0
 70
   192
  0
VERTEX
  5
9C4
  8
0
 10
-450.6698729810778
 20
252.5000000000001
 30
-28.0
 70
   192
  0
VERTEX
  5
9C5
  8
0
 10
-450.6698729810779
 20
252.5000000000001
 30
-25.0
 70
   192
  0
VERTEX
  5
9C6
  8
0
 10
0.0
 20
0.0
 30
0.0
 70
   128
 71
     1
 72
     4
 73
    -3
  0
VERTEX
  5
9C7
  8
0
 10
0.0
 20
0.0
 30
0.0
 70
   128
 71
    -1
 72
     3
 73
     2
  0
SEQEND
  5
AE8
  8
0
  0
POLYLINE
  5
9C8
  8
0
 66
     1
 10
0.0
 20
0.0
 30
0.0
 70
    64
 71
     6
 72
     4
  0
VERTEX
  5
9C9
  8
0
 10
-450.6698729810778
 20
252.5000000000001
 30
-28.0
 70
   192
  0
VERTEX
  5
9CA
  8
0
 10
-459.3301270189222
 20
252.5000000000001
 30
-28.0
 70
   192
  0
VERTEX
  5
9CB
  8
0
 10
-463.6602540378443
 20
260.0
 30
-28.0
 70
   192
  0
VERTEX
  5
9CC
  8
0
 10
-459.3301270189221
 20
267.5000000000002
 30
-28.0
 70
   192
  0
VERTEX
  5
9CD
  8
0
 10
-450.6698729810778
 20
267.5000000000002
 30
-28.0
 70
   192
  0
VERTEX
  5
9CE
  8
0
 10
-446.3397459621556
 20
260.0000000000002
 30
-28.0
 70
   192
  0
VERTEX
  5
9CF
  8
0
 10
0.0
 20
0.0
 30
0.0
 70
   128
 71
     5
 72
     6
 73
    -1
  0
VERTEX
  5
9D0
  8
0
 10
0.0
 20
0.0
 30
0.0
 70
   128
 71
     4
 72
    -5
 73
    -1
  0
VERTEX
  5
9D1
  8
0
 10
0.0
 20
0.0
 30
0.0
 70
   128
 71
     3
 72
    -4
 73
    -1
  0
VERTEX
  5
9D2
  8
0
 10
0.0
 20
0.0
 30
0.0
 70
   128
 71
     2
 72
    -3
 73
     1
  0
SEQEND
  5
AE9
  8
0
  0
POLYLINE
  5
9D3
  8
0
 66
     1
 10
0.0
 20
0.0
 30
0.0
 70
    64
 71
     6
 72
     4
  0
VERTEX
  5
9D4
  8
0
 10
-459.3301270189221
 20
252.5000000000001
 30
-25.0
 70
   192
  0
VERTEX
  5
9D5
  8
0
 10
-463.6602540378444
 20
260.0
 30
-25.0
 70
   192
  0
VERTEX
  5
9D6
  8
0
 10
-459.3301270189221
 20
267.5000000000002
 30
-25.0
 70
   192
  0
VERTEX
  5
9D7
  8
0
 10
-450.6698729810778
 20
267.5000000000001
 30
-25.0
 70
   192
  0
VERTEX
  5
9D8
  8
0
 10
-446.3397459621556
 20
260.0000000000002
 30
-25.0
 70
   192
  0
VERTEX
  5
9D9
  8
0
 10
-450.6698729810778
 20
252.5000000000001
 30
-25.0
 70
   192
  0
VERTEX
  5
9DA
  8
0
 10
0.0
 20
0.0
 30
0.0
 70
   128
 71
     1
 72
     6
 73
    -5
  0
VERTEX
  5
9DB
  8
0
 10
0.0
 20
0.0
 30
0.0
 70
   128
 71
    -1
 72
     5
 73
    -4
  0
VERTEX
  5
9DC
  8
0
 10
0.0
 20
0.0
 30
0.0
 70
   128
 71
    -1
 72
     4
 73
    -3
  0
VERTEX
  5
9DD
  8
0
 10
0.0
 20
0.0
 30
0.0
 70
   128
 71
    -1
 72
     3
 73
     2
  0
SEQEND
  5
AEA
  8
0
  0
ENDBLK
  5
AE2
  8
0
  0
BLOCK
  8
0
  2
*X7
 70
     1
 10
0.0
 20
0.0
 30
0.0
  3
*X7
  1

  0
POLYLINE
  5
9DF
  8
0
 66
     1
 10
0.0
 20
0.0
 30
0.0
 70
    64
 71
     4
 72
     2
  0
VERTEX
  5
9E0
  8
0
 10
-455.6698729810777
 20
-267.4999999999999
 30
-25.0
 70
   192
  0
VERTEX
  5
9E1
  8
0
 10
-455.6698729810777
 20
-267.5000000000001
 30
-28.0
 70
   192
  0
VERTEX
  5
9E2
  8
0
 10
-464.3301270189222
 20
-267.5000000000001
 30
-28.0
 70
   192
  0
VERTEX
  5
9E3
  8
0
 10
-464.3301270189222
 20
-267.5000000000001
 30
-25.0
 70
   192
  0
VERTEX
  5
9E4
  8
0
 10
0.0
 20
0.0
 30
0.0
 70
   128
 71
     1
 72
     4
 73
    -3
  0
VERTEX
  5
9E5
  8
0
 10
0.0
 20
0.0
 30
0.0
 70
   128
 71
    -1
 72
     3
 73
     2
  0
SEQEND
  5
AED
  8
0
  0
POLYLINE
  5
9E6
  8
0
 66
     1
 10
0.0
 20
0.0
 30
0.0
 70
    64
 71
     4
 72
     2
  0
VERTEX
  5
9E7
  8
0
 10
-464.3301270189222
 20
-267.5000000000001
 30
-25.0
 70
   192
  0
VERTEX
  5
9E8
  8
0
 10
-464.3301270189223
 20
-267.5000000000001
 30
-28.0
 70
   192
  0
VERTEX
  5
9E9
  8
0
 10
-468.6602540378444
 20
-260.0000000000001
 30
-28.0
 70
   192
  0
VERTEX
  5
9EA
  8
0
 10
-468.6602540378445
 20
-260.0000000000002
 30
-25.0
 70
   192
  0
VERTEX
  5
9EB
  8
0
 10
0.0
 20
0.0
 30
0.0
 70
   128
 71
     1
 72
     4
 73
    -3
  0
VERTEX
  5
9EC
  8
0
 10
0.0
 20
0.0
 30
0.0
 70
   128
 71
    -1
 72
     3
 73
     2
  0
SEQEND
  5
AEE
  8
0
  0
POLYLINE
  5
9ED
  8
0
 66
     1
 10
0.0
 20
0.0
 30
0.0
 70
    64
 71
     4
 72
     2
  0
VERTEX
  5
9EE
  8
0
 10
-468.6602540378444
 20
-260.0000000000001
 30
-25.0
 70
   192
  0
VERTEX
  5
9EF
  8
0
 10
-468.6602540378444
 20
-260.0000000000001
 30
-28.0
 70
   192
  0
VERTEX
  5
9F0
  8
0
 10
-464.3301270189222
 20
-252.5
 30
-28.0
 70
   192
  0
VERTEX
  5
9F1
  8
0
 10
-464.3301270189222
 20
-252.5
 30
-25.0
 70
   192
  0
VERTEX
  5
9F2
  8
0
 10
0.0
 20
0.0
 30
0.0
 70
   128
 71
     1
 72
     4
 73
    -3
  0
VERTEX
  5
9F3
  8
0
 10
0.0
 20
0.0
 30
0.0
 70
   128
 71
    -1
 72
     3
 73
     2
  0
SEQEND
  5
AEF
  8
0
  0
POLYLINE
  5
9F4
  8
0
 66
     1
 10
0.0
 20
0.0
 30
0.0
 70
    64
 71
     4
 72
     2
  0
VERTEX
  5
9F5
  8
0
 10
-464.3301270189222
 20
-252.5
 30
-25.0
 70
   192
  0
VERTEX
  5
9F6
  8
0
 10
-464.3301270189222
 20
-252.5
 30
-28.0
 70
   192
  0
VERTEX
  5
9F7
  8
0
 10
-455.6698729810777
 20
-252.5
 30
-28.0
 70
   192
  0
VERTEX
  5
9F8
  8
0
 10
-455.6698729810777
 20
-252.5
 30
-25.0
 70
   192
  0
VERTEX
  5
9F9
  8
0
 10
0.0
 20
0.0
 30
0.0
 70
   128
 71
     1
 72
     4
 73
    -3
  0
VERTEX
  5
9FA
  8
0
 10
0.0
 20
0.0
 30
0.0
 70
   128
 71
    -1
 72
     3
 73
     2
  0
SEQEND
  5
AF0
  8
0
  0
POLYLINE
  5
9FB
  8
0
 66
     1
 10
0.0
 20
0.0
 30
0.0
 70
    64
 71
     4
 72
     2
  0
VERTEX
  5
9FC
  8
0
 10
-455.6698729810777
 20
-252.5
 30
-25.0
 70
   192
  0
VERTEX
  5
9FD
  8
0
 10
-455.6698729810778
 20
-252.5000000000001
 30
-28.0
 70
   192
  0
VERTEX
  5
9FE
  8
0
 10
-451.3397459621556
 20
-260.0
 30
-28.0
 70
   192
  0
VERTEX
  5
9FF
  8
0
 10
-451.3397459621556
 20
-260.0
 30
-25.0
 70
   192
  0
VERTEX
  5
A00
  8
0
 10
0.0
 20
0.0
 30
0.0
 70
   128
 71
     1
 72
     4
 73
    -3
  0
VERTEX
  5
A01
  8
0
 10
0.0
 20
0.0
 30
0.0
 70
   128
 71
    -1
 72
     3
 73
     2
  0
SEQEND
  5
AF1
  8
0
  0
POLYLINE
  5
A02
  8
0
 66
     1
 10
0.0
 20
0.0
 30
0.0
 70
    64
 71
     4
 72
     2
  0
VERTEX
  5
A03
  8
0
 10
-451.3397459621556
 20
-260.0
 30
-25.0
 70
   192
  0
VERTEX
  5
A04
  8
0
 10
-451.3397459621555
 20
-260.0000000000001
 30
-28.0
 70
   192
  0
VERTEX
  5
A05
  8
0
 10
-455.6698729810777
 20
-267.4999999999999
 30
-28.0
 70
   192
  0
VERTEX
  5
A06
  8
0
 10
-455.6698729810777
 20
-267.4999999999999
 30
-25.0
 70
   192
  0
VERTEX
  5
A07
  8
0
 10
0.0
 20
0.0
 30
0.0
 70
   128
 71
     1
 72
     4
 73
    -3
  0
VERTEX
  5
A08
  8
0
 10
0.0
 20
0.0
 30
0.0
 70
   128
 71
    -1
 72
     3
 73
     2
  0
SEQEND
  5
AF2
  8
0
  0
POLYLINE
  5
A09
  8
0
 66
     1
 10
0.0
 20
0.0
 30
0.0
 70
    64
 71
     6
 72
     4
  0
VERTEX
  5
A0A
  8
0
 10
-455.6698729810777
 20
-267.5000000000001
 30
-28.0
 70
   192
  0
VERTEX
  5
A0B
  8
0
 10
-464.3301270189222
 20
-267.5000000000001
 30
-28.0
 70
   192
  0
VERTEX
  5
A0C
  8
0
 10
-468.6602540378445
 20
-260.0000000000002
 30
-28.0
 70
   192
  0
VERTEX
  5
A0D
  8
0
 10
-464.3301270189222
 20
-252.5
 30
-28.0
 70
   192
  0
VERTEX
  5
A0E
  8
0
 10
-455.6698729810777
 20
-252.5
 30
-28.0
 70
   192
  0
VERTEX
  5
A0F
  8
0
 10
-451.3397459621556
 20
-260.0
 30
-28.0
 70
   192
  0
VERTEX
  5
A10
  8
0
 10
0.0
 20
0.0
 30
0.0
 70
   128
 71
     5
 72
     6
 73
    -1
  0
VERTEX
  5
A11
  8
0
 10
0.0
 20
0.0
 30
0.0
 70
   128
 71
     4
 72
    -5
 73
    -1
  0
VERTEX
  5
A12
  8
0
 10
0.0
 20
0.0
 30
0.0
 70
   128
 71
     3
 72
    -4
 73
    -1
  0
VERTEX
  5
A13
  8
0
 10
0.0
 20
0.0
 30
0.0
 70
   128
 71
     2
 72
    -3
 73
     1
  0
SEQEND
  5
AF3
  8
0
  0
POLYLINE
  5
A14
  8
0
 66
     1
 10
0.0
 20
0.0
 30
0.0
 70
    64
 71
     6
 72
     4
  0
VERTEX
  5
A15
  8
0
 10
-464.3301270189223
 20
-267.5000000000001
 30
-25.0
 70
   192
  0
VERTEX
  5
A16
  8
0
 10
-468.6602540378444
 20
-260.0000000000001
 30
-25.0
 70
   192
  0
VERTEX
  5
A17
  8
0
 10
-464.3301270189222
 20
-252.5
 30
-25.0
 70
   192
  0
VERTEX
  5
A18
  8
0
 10
-455.6698729810778
 20
-252.5000000000001
 30
-25.0
 70
   192
  0
VERTEX
  5
A19
  8
0
 10
-451.3397459621555
 20
-260.0000000000001
 30
-25.0
 70
   192
  0
VERTEX
  5
A1A
  8
0
 10
-455.6698729810777
 20
-267.5000000000001
 30
-25.0
 70
   192
  0
VERTEX
  5
A1B
  8
0
 10
0.0
 20
0.0
 30
0.0
 70
   128
 71
     1
 72
     6
 73
    -5
  0
VERTEX
  5
A1C
  8
0
 10
0.0
 20
0.0
 30
0.0
 70
   128
 71
    -1
 72
     5
 73
    -4
  0
VERTEX
  5
A1D
  8
0
 10
0.0
 20
0.0
 30
0.0
 70
   128
 71
    -1
 72
     4
 73
    -3
  0
VERTEX
  5
A1E
  8
0
 10
0.0
 20
0.0
 30
0.0
 70
   128
 71
    -1
 72
     3
 73
     2
  0
SEQEND
  5
AF4
  8
0
  0
ENDBLK
  5
AEC
  8
0
  0
BLOCK
  8
0
  2
*X8
 70
     1
 10
0.0
 20
0.0
 30
0.0
  3
*X8
  1

  0
POLYLINE
  5
A20
  8
0
 66
     1
 10
0.0
 20
0.0
 30
0.0
 70
    64
 71
     4
 72
     2
  0
VERTEX
  5
A21
  8
0
 10
464.3301270189168
 20
-267.4999999999998
 30
-25.0
 70
   192
  0
VERTEX
  5
A22
  8
0
 10
464.3301270189169
 20
-267.4999999999998
 30
-28.0
 70
   192
  0
VERTEX
  5
A23
  8
0
 10
455.6698729810724
 20
-267.4999999999998
 30
-28.0
 70
   192
  0
VERTEX
  5
A24
  8
0
 10
455.6698729810725
 20
-267.4999999999998
 30
-25.0
 70
   192
  0
VERTEX
  5
A25
  8
0
 10
0.0
 20
0.0
 30
0.0
 70
   128
 71
     1
 72
     4
 73
    -3
  0
VERTEX
  5
A26
  8
0
 10
0.0
 20
0.0
 30
0.0
 70
   128
 71
    -1
 72
     3
 73
     2
  0
SEQEND
  5
AF7
  8
0
  0
POLYLINE
  5
A27
  8
0
 66
     1
 10
0.0
 20
0.0
 30
0.0
 70
    64
 71
     4
 72
     2
  0
VERTEX
  5
A28
  8
0
 10
455.6698729810724
 20
-267.4999999999998
 30
-25.0
 70
   192
  0
VERTEX
  5
A29
  8
0
 10
455.6698729810723
 20
-267.4999999999999
 30
-28.0
 70
   192
  0
VERTEX
  5
A2A
  8
0
 10
451.3397459621503
 20
-259.9999999999999
 30
-28.0
 70
   192
  0
VERTEX
  5
A2B
  8
0
 10
451.3397459621502
 20
-260.0
 30
-25.0
 70
   192
  0
VERTEX
  5
A2C
  8
0
 10
0.0
 20
0.0
 30
0.0
 70
   128
 71
     1
 72
     4
 73
    -3
  0
VERTEX
  5
A2D
  8
0
 10
0.0
 20
0.0
 30
0.0
 70
   128
 71
    -1
 72
     3
 73
     2
  0
SEQEND
  5
AF8
  8
0
  0
POLYLINE
  5
A2E
  8
0
 66
     1
 10
0.0
 20
0.0
 30
0.0
 70
    64
 71
     4
 72
     2
  0
VERTEX
  5
A2F
  8
0
 10
451.3397459621503
 20
-259.9999999999999
 30
-25.0
 70
   192
  0
VERTEX
  5
A30
  8
0
 10
451.3397459621503
 20
-259.9999999999999
 30
-28.0
 70
   192
  0
VERTEX
  5
A31
  8
0
 10
455.6698729810726
 20
-252.4999999999997
 30
-28.0
 70
   192
  0
VERTEX
  5
A32
  8
0
 10
455.6698729810726
 20
-252.4999999999997
 30
-25.0
 70
   192
  0
VERTEX
  5
A33
  8
0
 10
0.0
 20
0.0
 30
0.0
 70
   128
 71
     1
 72
     4
 73
    -3
  0
VERTEX
  5
A34
  8
0
 10
0.0
 20
0.0
 30
0.0
 70
   128
 71
    -1
 72
     3
 73
     2
  0
SEQEND
  5
AF9
  8
0
  0
POLYLINE
  5
A35
  8
0
 66
     1
 10
0.0
 20
0.0
 30
0.0
 70
    64
 71
     4
 72
     2
  0
VERTEX
  5
A36
  8
0
 10
455.6698729810726
 20
-252.4999999999997
 30
-25.0
 70
   192
  0
VERTEX
  5
A37
  8
0
 10
455.6698729810727
 20
-252.4999999999997
 30
-28.0
 70
   192
  0
VERTEX
  5
A38
  8
0
 10
464.3301270189168
 20
-252.4999999999997
 30
-28.0
 70
   192
  0
VERTEX
  5
A39
  8
0
 10
464.3301270189168
 20
-252.4999999999997
 30
-25.0
 70
   192
  0
VERTEX
  5
A3A
  8
0
 10
0.0
 20
0.0
 30
0.0
 70
   128
 71
     1
 72
     4
 73
    -3
  0
VERTEX
  5
A3B
  8
0
 10
0.0
 20
0.0
 30
0.0
 70
   128
 71
    -1
 72
     3
 73
     2
  0
SEQEND
  5
AFA
  8
0
  0
POLYLINE
  5
A3C
  8
0
 66
     1
 10
0.0
 20
0.0
 30
0.0
 70
    64
 71
     4
 72
     2
  0
VERTEX
  5
A3D
  8
0
 10
464.3301270189168
 20
-252.4999999999997
 30
-25.0
 70
   192
  0
VERTEX
  5
A3E
  8
0
 10
464.3301270189168
 20
-252.4999999999997
 30
-28.0
 70
   192
  0
VERTEX
  5
A3F
  8
0
 10
468.660254037839
 20
-259.9999999999997
 30
-28.0
 70
   192
  0
VERTEX
  5
A40
  8
0
 10
468.660254037839
 20
-259.9999999999997
 30
-25.0
 70
   192
  0
VERTEX
  5
A41
  8
0
 10
0.0
 20
0.0
 30
0.0
 70
   128
 71
     1
 72
     4
 73
    -3
  0
VERTEX
  5
A42
  8
0
 10
0.0
 20
0.0
 30
0.0
 70
   128
 71
    -1
 72
     3
 73
     2
  0
SEQEND
  5
AFB
  8
0
  0
POLYLINE
  5
A43
  8
0
 66
     1
 10
0.0
 20
0.0
 30
0.0
 70
    64
 71
     4
 72
     2
  0
VERTEX
  5
A44
  8
0
 10
468.660254037839
 20
-259.9999999999997
 30
-25.0
 70
   192
  0
VERTEX
  5
A45
  8
0
 10
468.6602540378391
 20
-259.9999999999998
 30
-28.0
 70
   192
  0
VERTEX
  5
A46
  8
0
 10
464.3301270189168
 20
-267.4999999999998
 30
-28.0
 70
   192
  0
VERTEX
  5
A47
  8
0
 10
464.3301270189168
 20
-267.4999999999998
 30
-25.0
 70
   192
  0
VERTEX
  5
A48
  8
0
 10
0.0
 20
0.0
 30
0.0
 70
   128
 71
     1
 72
     4
 73
    -3
  0
VERTEX
  5
A49
  8
0
 10
0.0
 20
0.0
 30
0.0
 70
   128
 71
    -1
 72
     3
 73
     2
  0
SEQEND
  5
AFC
  8
0
  0
POLYLINE
  5
A4A
  8
0
 66
     1
 10
0.0
 20
0.0
 30
0.0
 70
    64
 71
     6
 72
     4
  0
VERTEX
  5
A4B
  8
0
 10
464.3301270189169
 20
-267.4999999999998
 30
-28.0
 70
   192
  0
VERTEX
  5
A4C
  8
0
 10
455.6698729810725
 20
-267.4999999999998
 30
-28.0
 70
   192
  0
VERTEX
  5
A4D
  8
0
 10
451.3397459621502
 20
-260.0
 30
-28.0
 70
   192
  0
VERTEX
  5
A4E
  8
0
 10
455.6698729810726
 20
-252.4999999999997
 30
-28.0
 70
   192
  0
VERTEX
  5
A4F
  8
0
 10
464.3301270189168
 20
-252.4999999999997
 30
-28.0
 70
   192
  0
VERTEX
  5
A50
  8
0
 10
468.660254037839
 20
-259.9999999999997
 30
-28.0
 70
   192
  0
VERTEX
  5
A51
  8
0
 10
0.0
 20
0.0
 30
0.0
 70
   128
 71
     5
 72
     6
 73
    -1
  0
VERTEX
  5
A52
  8
0
 10
0.0
 20
0.0
 30
0.0
 70
   128
 71
     4
 72
    -5
 73
    -1
  0
VERTEX
  5
A53
  8
0
 10
0.0
 20
0.0
 30
0.0
 70
   128
 71
     3
 72
    -4
 73
    -1
  0
VERTEX
  5
A54
  8
0
 10
0.0
 20
0.0
 30
0.0
 70
   128
 71
     2
 72
    -3
 73
     1
  0
SEQEND
  5
AFD
  8
0
  0
POLYLINE
  5
A55
  8
0
 66
     1
 10
0.0
 20
0.0
 30
0.0
 70
    64
 71
     6
 72
     4
  0
VERTEX
  5
A56
  8
0
 10
455.6698729810723
 20
-267.4999999999999
 30
-25.0
 70
   192
  0
VERTEX
  5
A57
  8
0
 10
451.3397459621503
 20
-259.9999999999999
 30
-25.0
 70
   192
  0
VERTEX
  5
A58
  8
0
 10
455.6698729810727
 20
-252.4999999999997
 30
-25.0
 70
   192
  0
VERTEX
  5
A59
  8
0
 10
464.3301270189168
 20
-252.4999999999997
 30
-25.0
 70
   192
  0
VERTEX
  5
A5A
  8
0
 10
468.6602540378391
 20
-259.9999999999998
 30
-25.0
 70
   192
  0
VERTEX
  5
A5B
  8
0
 10
464.3301270189169
 20
-267.4999999999998
 30
-25.0
 70
   192
  0
VERTEX
  5
A5C
  8
0
 10
0.0
 20
0.0
 30
0.0
 70
   128
 71
     1
 72
     6
 73
    -5
  0
VERTEX
  5
A5D
  8
0
 10
0.0
 20
0.0
 30
0.0
 70
   128
 71
    -1
 72
     5
 73
    -4
  0
VERTEX
  5
A5E
  8
0
 10
0.0
 20
0.0
 30
0.0
 70
   128
 71
    -1
 72
     4
 73
    -3
  0
VERTEX
  5
A5F
  8
0
 10
0.0
 20
0.0
 30
0.0
 70
   128
 71
    -1
 72
     3
 73
     2
  0
SEQEND
  5
AFE
  8
0
  0
ENDBLK
  5
AF6
  8
0
  0
BLOCK
  8
0
  2
*X9
 70
     1
 10
0.0
 20
0.0
 30
0.0
  3
*X9
  1

  0
POLYLINE
  5
A61
  8
0
 66
     1
 10
0.0
 20
0.0
 30
0.0
 70
    64
 71
     4
 72
     2
  0
VERTEX
  5
A62
  8
0
 10
464.3301270189223
 20
252.5
 30
-25.0
 70
   192
  0
VERTEX
  5
A63
  8
0
 10
464.3301270189223
 20
252.5
 30
-28.0
 70
   192
  0
VERTEX
  5
A64
  8
0
 10
455.6698729810777
 20
252.5
 30
-28.0
 70
   192
  0
VERTEX
  5
A65
  8
0
 10
455.6698729810777
 20
252.5
 30
-25.0
 70
   192
  0
VERTEX
  5
A66
  8
0
 10
0.0
 20
0.0
 30
0.0
 70
   128
 71
     1
 72
     4
 73
    -3
  0
VERTEX
  5
A67
  8
0
 10
0.0
 20
0.0
 30
0.0
 70
   128
 71
    -1
 72
     3
 73
     2
  0
SEQEND
  5
B01
  8
0
  0
POLYLINE
  5
A68
  8
0
 66
     1
 10
0.0
 20
0.0
 30
0.0
 70
    64
 71
     4
 72
     2
  0
VERTEX
  5
A69
  8
0
 10
455.6698729810777
 20
252.5
 30
-25.0
 70
   192
  0
VERTEX
  5
A6A
  8
0
 10
455.6698729810777
 20
252.5
 30
-28.0
 70
   192
  0
VERTEX
  5
A6B
  8
0
 10
451.3397459621556
 20
260.0000000000001
 30
-28.0
 70
   192
  0
VERTEX
  5
A6C
  8
0
 10
451.3397459621556
 20
260.0000000000001
 30
-25.0
 70
   192
  0
VERTEX
  5
A6D
  8
0
 10
0.0
 20
0.0
 30
0.0
 70
   128
 71
     1
 72
     4
 73
    -3
  0
VERTEX
  5
A6E
  8
0
 10
0.0
 20
0.0
 30
0.0
 70
   128
 71
    -1
 72
     3
 73
     2
  0
SEQEND
  5
B02
  8
0
  0
POLYLINE
  5
A6F
  8
0
 66
     1
 10
0.0
 20
0.0
 30
0.0
 70
    64
 71
     4
 72
     2
  0
VERTEX
  5
A70
  8
0
 10
451.3397459621556
 20
260.0000000000001
 30
-25.0
 70
   192
  0
VERTEX
  5
A71
  8
0
 10
451.3397459621555
 20
260.0000000000001
 30
-28.0
 70
   192
  0
VERTEX
  5
A72
  8
0
 10
455.6698729810778
 20
267.5
 30
-28.0
 70
   192
  0
VERTEX
  5
A73
  8
0
 10
455.6698729810777
 20
267.5
 30
-25.0
 70
   192
  0
VERTEX
  5
A74
  8
0
 10
0.0
 20
0.0
 30
0.0
 70
   128
 71
     1
 72
     4
 73
    -3
  0
VERTEX
  5
A75
  8
0
 10
0.0
 20
0.0
 30
0.0
 70
   128
 71
    -1
 72
     3
 73
     2
  0
SEQEND
  5
B03
  8
0
  0
POLYLINE
  5
A76
  8
0
 66
     1
 10
0.0
 20
0.0
 30
0.0
 70
    64
 71
     4
 72
     2
  0
VERTEX
  5
A77
  8
0
 10
455.6698729810778
 20
267.5
 30
-25.0
 70
   192
  0
VERTEX
  5
A78
  8
0
 10
455.6698729810778
 20
267.5000000000001
 30
-28.0
 70
   192
  0
VERTEX
  5
A79
  8
0
 10
464.3301270189224
 20
267.4999999999999
 30
-28.0
 70
   192
  0
VERTEX
  5
A7A
  8
0
 10
464.3301270189224
 20
267.5
 30
-25.0
 70
   192
  0
VERTEX
  5
A7B
  8
0
 10
0.0
 20
0.0
 30
0.0
 70
   128
 71
     1
 72
     4
 73
    -3
  0
VERTEX
  5
A7C
  8
0
 10
0.0
 20
0.0
 30
0.0
 70
   128
 71
    -1
 72
     3
 73
     2
  0
SEQEND
  5
B04
  8
0
  0
POLYLINE
  5
A7D
  8
0
 66
     1
 10
0.0
 20
0.0
 30
0.0
 70
    64
 71
     4
 72
     2
  0
VERTEX
  5
A7E
  8
0
 10
464.3301270189224
 20
267.4999999999999
 30
-25.0
 70
   192
  0
VERTEX
  5
A7F
  8
0
 10
464.3301270189223
 20
267.4999999999999
 30
-28.0
 70
   192
  0
VERTEX
  5
A80
  8
0
 10
468.6602540378443
 20
259.9999999999999
 30
-28.0
 70
   192
  0
VERTEX
  5
A81
  8
0
 10
468.6602540378443
 20
259.9999999999999
 30
-25.0
 70
   192
  0
VERTEX
  5
A82
  8
0
 10
0.0
 20
0.0
 30
0.0
 70
   128
 71
     1
 72
     4
 73
    -3
  0
VERTEX
  5
A83
  8
0
 10
0.0
 20
0.0
 30
0.0
 70
   128
 71
    -1
 72
     3
 73
     2
  0
SEQEND
  5
B05
  8
0
  0
POLYLINE
  5
A84
  8
0
 66
     1
 10
0.0
 20
0.0
 30
0.0
 70
    64
 71
     4
 72
     2
  0
VERTEX
  5
A85
  8
0
 10
468.6602540378443
 20
259.9999999999999
 30
-25.0
 70
   192
  0
VERTEX
  5
A86
  8
0
 10
468.6602540378443
 20
259.9999999999999
 30
-28.0
 70
   192
  0
VERTEX
  5
A87
  8
0
 10
464.3301270189223
 20
252.5
 30
-28.0
 70
   192
  0
VERTEX
  5
A88
  8
0
 10
464.3301270189223
 20
252.5000000000001
 30
-25.0
 70
   192
  0
VERTEX
  5
A89
  8
0
 10
0.0
 20
0.0
 30
0.0
 70
   128
 71
     1
 72
     4
 73
    -3
  0
VERTEX
  5
A8A
  8
0
 10
0.0
 20
0.0
 30
0.0
 70
   128
 71
    -1
 72
     3
 73
     2
  0
SEQEND
  5
B06
  8
0
  0
POLYLINE
  5
A8B
  8
0
 66
     1
 10
0.0
 20
0.0
 30
0.0
 70
    64
 71
     6
 72
     4
  0
VERTEX
  5
A8C
  8
0
 10
464.3301270189223
 20
252.5
 30
-28.0
 70
   192
  0
VERTEX
  5
A8D
  8
0
 10
455.6698729810777
 20
252.5
 30
-28.0
 70
   192
  0
VERTEX
  5
A8E
  8
0
 10
451.3397459621556
 20
260.0000000000001
 30
-28.0
 70
   192
  0
VERTEX
  5
A8F
  8
0
 10
455.6698729810777
 20
267.5
 30
-28.0
 70
   192
  0
VERTEX
  5
A90
  8
0
 10
464.3301270189224
 20
267.5
 30
-28.0
 70
   192
  0
VERTEX
  5
A91
  8
0
 10
468.6602540378443
 20
259.9999999999999
 30
-28.0
 70
   192
  0
VERTEX
  5
A92
  8
0
 10
0.0
 20
0.0
 30
0.0
 70
   128
 71
     5
 72
     6
 73
    -1
  0
VERTEX
  5
A93
  8
0
 10
0.0
 20
0.0
 30
0.0
 70
   128
 71
     4
 72
    -5
 73
    -1
  0
VERTEX
  5
A94
  8
0
 10
0.0
 20
0.0
 30
0.0
 70
   128
 71
     3
 72
    -4
 73
    -1
  0
VERTEX
  5
A95
  8
0
 10
0.0
 20
0.0
 30
0.0
 70
   128
 71
     2
 72
    -3
 73
     1
  0
SEQEND
  5
B07
  8
0
  0
POLYLINE
  5
A96
  8
0
 66
     1
 10
0.0
 20
0.0
 30
0.0
 70
    64
 71
     6
 72
     4
  0
VERTEX
  5
A97
  8
0
 10
455.6698729810777
 20
252.5
 30
-25.0
 70
   192
  0
VERTEX
  5
A98
  8
0
 10
451.3397459621555
 20
260.0000000000001
 30
-25.0
 70
   192
  0
VERTEX
  5
A99
  8
0
 10
455.6698729810778
 20
267.5000000000001
 30
-25.0
 70
   192
  0
VERTEX
  5
A9A
  8
0
 10
464.3301270189223
 20
267.4999999999999
 30
-25.0
 70
   192
  0
VERTEX
  5
A9B
  8
0
 10
468.6602540378443
 20
259.9999999999999
 30
-25.0
 70
   192
  0
VERTEX
  5
A9C
  8
0
 10
464.3301270189223
 20
252.5
 30
-25.0
 70
   192
  0
VERTEX
  5
A9D
  8
0
 10
0.0
 20
0.0
 30
0.0
 70
   128
 71
     1
 72
     6
 73
    -5
  0
VERTEX
  5
A9E
  8
0
 10
0.0
 20
0.0
 30
0.0
 70
   128
 71
    -1
 72
     5
 73
    -4
  0
VERTEX
  5
A9F
  8
0
 10
0.0
 20
0.0
 30
0.0
 70
   128
 71
    -1
 72
     4
 73
    -3
  0
VERTEX
  5
AA0
  8
0
 10
0.0
 20
0.0
 30
0.0
 70
   128
 71
    -1
 72
     3
 73
     2
  0
SEQEND
  5
B08
  8
0
  0
ENDBLK
  5
B00
  8
0
  0
ENDSEC
  0
SECTION
  2
ENTITIES
  0
INSERT
  5
BD
  8
0
  2
*X1
 10
0.0
 20
0.0
 30
0.0
  0
INSERT
  5
BE
  8
0
  2
*X2
 10
0.0
 20
0.0
 30
0.0
  0
INSERT
  5
BF
  8
0
  2
*X3
 10
0.0
 20
0.0
 30
0.0
  0
INSERT
  5
C0
  8
0
  2
*X4
 10
0.0
 20
0.0
 30
0.0
  0
INSERT
  5
C1
  8
0
  2
*X5
 10
0.0
 20
0.0
 30
0.0
  0
INSERT
  5
C2
  8
0
  2
*X6
 10
0.0
 20
0.0
 30
0.0
  0
INSERT
  5
C3
  8
0
  2
*X7
 10
0.0
 20
0.0
 30
0.0
  0
INSERT
  5
C4
  8
0
  2
*X8
 10
0.0
 20
0.0
 30
0.0
  0
INSERT
  5
C5
  8
0
  2
*X9
 10
0.0
 20
0.0
 30
0.0
  0
ENDSEC
  0
EOF
