  0
SECTION
  2
HEADER
  9
$ACADVER
  1
AC1009
  9
$DWGCODEPAGE
  3
ansi_1250
  9
$INSBASE
 10
0.0
 20
0.0
 30
0.0
  9
$EXTMIN
 10
18.54729729729729
 20
18.54729729729729
 30
-127.7611630375846
  9
$EXTMAX
 10
407.5472972972971
 20
567.547297297298
 30
0.0000000000000142
  9
$LIMMIN
 10
0.0
 20
0.0
  9
$LIMMAX
 10
420.0
 20
297.0
  9
$ORTHOMODE
 70
     0
  9
$REGENMODE
 70
     1
  9
$FILLMODE
 70
     1
  9
$QTEXTMODE
 70
     0
  9
$MIRRTEXT
 70
     0
  9
$DRAGMODE
 70
     2
  9
$LTSCALE
 40
1.0
  9
$OSMODE
 70
   511
  9
$ATTMODE
 70
     1
  9
$TEXTSIZE
 40
2.5
  9
$TRACEWID
 40
1.0
  9
$TEXTSTYLE
  7
STANDARD
  9
$CLAYER
  8
0
  9
$CELTYPE
  6
BYLAYER
  9
$CECOLOR
 62
   256
  9
$DIMSCALE
 40
1.0
  9
$DIMASZ
 40
2.5
  9
$DIMEXO
 40
0.625
  9
$DIMDLI
 40
3.75
  9
$DIMRND
 40
0.0
  9
$DIMDLE
 40
0.0
  9
$DIMEXE
 40
1.25
  9
$DIMTP
 40
0.0
  9
$DIMTM
 40
0.0
  9
$DIMTXT
 40
2.5
  9
$DIMCEN
 40
-2.5
  9
$DIMTSZ
 40
0.0
  9
$DIMTOL
 70
     0
  9
$DIMLIM
 70
     0
  9
$DIMTIH
 70
     0
  9
$DIMTOH
 70
     0
  9
$DIMSE1
 70
     0
  9
$DIMSE2
 70
     0
  9
$DIMTAD
 70
     1
  9
$DIMZIN
 70
     8
  9
$DIMBLK
  1

  9
$DIMASO
 70
     1
  9
$DIMSHO
 70
     1
  9
$DIMPOST
  1

  9
$DIMAPOST
  1

  9
$DIMALT
 70
     0
  9
$DIMALTD
 70
     3
  9
$DIMALTF
 40
0.03937007874016
  9
$DIMLFAC
 40
1.0
  9
$DIMTOFL
 70
     1
  9
$DIMTVP
 40
0.0
  9
$DIMTIX
 70
     0
  9
$DIMSOXD
 70
     0
  9
$DIMSAH
 70
     0
  9
$DIMBLK1
  1

  9
$DIMBLK2
  1

  9
$DIMSTYLE
  2
ISO-25
  9
$DIMCLRD
 70
     0
  9
$DIMCLRE
 70
     0
  9
$DIMCLRT
 70
     0
  9
$DIMTFAC
 40
1.0
  9
$DIMGAP
 40
0.625
  9
$LUNITS
 70
     2
  9
$LUPREC
 70
     3
  9
$SKETCHINC
 40
1.0
  9
$FILLETRAD
 40
10.0
  9
$AUNITS
 70
     0
  9
$AUPREC
 70
     0
  9
$MENU
  1
.
  9
$ELEVATION
 40
0.0
  9
$PELEVATION
 40
0.0
  9
$THICKNESS
 40
0.0
  9
$LIMCHECK
 70
     0
  9
$CHAMFERA
 40
10.0
  9
$CHAMFERB
 40
10.0
  9
$SKPOLY
 70
     0
  9
$TDCREATE
 40
2455022.679026181
  9
$TDUPDATE
 40
2460332.719312118
  9
$TDINDWG
 40
0.0016470833
  9
$TDUSRTIMER
 40
0.0016470833
  9
$USRTIMER
 70
     1
  9
$ANGBASE
 50
0.0
  9
$ANGDIR
 70
     0
  9
$PDMODE
 70
     0
  9
$PDSIZE
 40
0.0
  9
$PLINEWID
 40
0.0
  9
$COORDS
 70
     1
  9
$SPLFRAME
 70
     0
  9
$SPLINETYPE
 70
     6
  9
$SPLINESEGS
 70
     8
  9
$ATTDIA
 70
     0
  9
$ATTREQ
 70
     1
  9
$HANDLING
 70
     1
  9
$HANDSEED
  5
9ED
  9
$SURFTAB1
 70
     6
  9
$SURFTAB2
 70
     6
  9
$SURFTYPE
 70
     6
  9
$SURFU
 70
     6
  9
$SURFV
 70
     6
  9
$UCSNAME
  2

  9
$UCSORG
 10
0.0
 20
0.0
 30
0.0
  9
$UCSXDIR
 10
1.0
 20
0.0
 30
0.0
  9
$UCSYDIR
 10
0.0
 20
1.0
 30
0.0
  9
$PUCSNAME
  2

  9
$PUCSORG
 10
0.0
 20
0.0
 30
0.0
  9
$PUCSXDIR
 10
1.0
 20
0.0
 30
0.0
  9
$PUCSYDIR
 10
0.0
 20
1.0
 30
0.0
  9
$USERI1
 70
     0
  9
$USERI2
 70
     0
  9
$USERI3
 70
     0
  9
$USERI4
 70
     0
  9
$USERI5
 70
     0
  9
$USERR1
 40
0.0
  9
$USERR2
 40
0.0
  9
$USERR3
 40
0.0
  9
$USERR4
 40
0.0
  9
$USERR5
 40
0.0
  9
$WORLDVIEW
 70
     1
  9
$SHADEDGE
 70
     3
  9
$SHADEDIF
 70
    70
  9
$TILEMODE
 70
     1
  9
$MAXACTVP
 70
    64
  9
$PLIMCHECK
 70
     0
  9
$PEXTMIN
 10
1.000000000000000E+20
 20
1.000000000000000E+20
 30
1.000000000000000E+20
  9
$PEXTMAX
 10
-1.000000000000000E+20
 20
-1.000000000000000E+20
 30
-1.000000000000000E+20
  9
$PLIMMIN
 10
0.0
 20
0.0
  9
$PLIMMAX
 10
0.0
 20
0.0
  9
$UNITMODE
 70
     0
  9
$VISRETAIN
 70
     1
  9
$PLINEGEN
 70
     0
  9
$PSLTSCALE
 70
     1
  0
ENDSEC
  0
SECTION
  2
TABLES
  0
TABLE
  2
VPORT
 70
     1
  0
VPORT
  2
*ACTIVE
 70
     0
 10
0.0
 20
0.0
 11
1.0
 21
1.0
 12
218.6639463963247
 22
326.3187661016949
 13
0.0
 23
0.0
 14
10.0
 24
10.0
 15
10.0
 25
10.0
 16
0.0
 26
0.0
 36
1.0
 17
-134.1869158878504
 27
0.0
 37
0.0
 40
616.32
 41
2.056497175141243
 42
50.0
 43
0.0
 44
0.0
 50
0.0
 51
0.0
 71
    16
 72
  1000
 73
     1
 74
     3
 75
     0
 76
     0
 77
     0
 78
     0
  0
ENDTAB
  0
TABLE
  2
LTYPE
 70
     1
  0
LTYPE
  2
CONTINUOUS
 70
     0
  3
Solid line
 72
    65
 73
     0
 40
0.0
  0
ENDTAB
  0
TABLE
  2
LAYER
 70
     1
  0
LAYER
  2
0
 70
     0
 62
     7
  6
CONTINUOUS
  0
ENDTAB
  0
TABLE
  2
STYLE
 70
     2
  0
STYLE
  2
STANDARD
 70
     0
 40
0.0
 41
1.0
 50
0.0
 71
     0
 42
2.5
  3
arial.ttf
  4

  0
STYLE
  2
ANNOTATIVE
 70
     0
 40
0.0
 41
1.0
 50
0.0
 71
     0
 42
2.5
  3
arial.ttf
  4

  0
ENDTAB
  0
TABLE
  2
VIEW
 70
     0
  0
ENDTAB
  0
TABLE
  2
UCS
 70
     0
  0
ENDTAB
  0
TABLE
  2
APPID
 70
     2
  0
APPID
  2
ACAD
 70
     0
  0
APPID
  2
ACADANNOTATIVE
 70
     0
  0
ENDTAB
  0
TABLE
  2
DIMSTYLE
 70
     2
  0
DIMSTYLE
  2
ISO-25
 70
     0
  3

  4

  5

  6

  7

 40
1.0
 41
2.5
 42
0.625
 43
3.75
 44
1.25
 45
0.0
 46
0.0
 47
0.0
 48
0.0
140
2.5
141
-2.5
142
0.0
143
0.03937007874016
144
1.0
145
0.0
146
1.0
147
0.625
 71
     0
 72
     0
 73
     0
 74
     0
 75
     0
 76
     0
 77
     1
 78
     8
170
     0
171
     3
172
     1
173
     0
174
     0
175
     0
176
     0
177
     0
178
     0
  0
DIMSTYLE
  2
ANNOTATIVE
 70
     0
  3

  4

  5

  6

  7

 40
0.0
 41
2.5
 42
0.625
 43
3.75
 44
1.25
 45
0.0
 46
0.0
 47
0.0
 48
0.0
140
2.5
141
-2.5
142
0.0
143
0.03937007874016
144
1.0
145
0.0
146
1.0
147
0.625
 71
     0
 72
     0
 73
     0
 74
     0
 75
     0
 76
     0
 77
     1
 78
     8
170
     0
171
     3
172
     1
173
     0
174
     0
175
     0
176
     0
177
     0
178
     0
  0
ENDTAB
  0
ENDSEC
  0
SECTION
  2
BLOCKS
  0
BLOCK
  8
0
  2
$MODEL_SPACE
 70
     0
 10
0.0
 20
0.0
 30
0.0
  3
$MODEL_SPACE
  1

  0
ENDBLK
  5
21
  8
0
  0
BLOCK
 67
     1
  8
0
  2
$PAPER_SPACE
 70
     0
 10
0.0
 20
0.0
 30
0.0
  3
$PAPER_SPACE
  1

  0
ENDBLK
  5
1D
 67
     1
  8
0
  0
BLOCK
  8
0
  2
*X1
 70
     1
 10
0.0
 20
0.0
 30
0.0
  3
*X1
  1

  0
POLYLINE
  5
C5
  8
0
 66
     1
 10
0.0
 20
0.0
 30
0.0
 70
    64
 71
     9
 72
     7
  0
VERTEX
  5
C6
  8
0
 10
207.2181210532991
 20
312.6686573073317
 30
-112.761163037528
 70
   192
  0
VERTEX
  5
C7
  8
0
 10
218.547297297297
 20
330.005771854546
 30
-100.7611629726123
 70
   192
  0
VERTEX
  5
C8
  8
0
 10
192.4137093155557
 20
319.1808852790382
 30
-100.7611629726123
 70
   192
  0
VERTEX
  5
C9
  8
0
 10
229.876473541256
 20
312.6686573072678
 30
-112.761163037528
 70
   192
  0
VERTEX
  5
CA
  8
0
 10
244.6808852790383
 20
319.1808852790383
 30
-100.7611629726123
 70
   192
  0
VERTEX
  5
CB
  8
0
 10
241.20472874351
 20
293.047297297297
 30
-112.761163037528
 70
   192
  0
VERTEX
  5
CC
  8
0
 10
255.505771854546
 20
293.0472972972973
 30
-100.7611630051097
 70
   192
  0
VERTEX
  5
CD
  8
0
 10
181.5888227400482
 20
293.0472972972972
 30
-100.7611630051097
 70
   192
  0
VERTEX
  5
CE
  8
0
 10
195.8898658510845
 20
293.047297297297
 30
-112.761163037528
 70
   192
  0
VERTEX
  5
CF
  8
0
 10
0.0
 20
0.0
 30
0.0
 70
   128
 71
     1
 72
     2
 73
     3
  0
VERTEX
  5
D0
  8
0
 10
0.0
 20
0.0
 30
0.0
 70
   128
 71
     4
 72
     5
 73
     2
  0
VERTEX
  5
D1
  8
0
 10
0.0
 20
0.0
 30
0.0
 70
   128
 71
     4
 72
     2
 73
     1
  0
VERTEX
  5
D2
  8
0
 10
0.0
 20
0.0
 30
0.0
 70
   128
 71
     6
 72
     7
 73
     5
  0
VERTEX
  5
D3
  8
0
 10
0.0
 20
0.0
 30
0.0
 70
   128
 71
     6
 72
     5
 73
     4
  0
VERTEX
  5
D4
  8
0
 10
0.0
 20
0.0
 30
0.0
 70
   128
 71
     1
 72
     3
 73
     8
  0
VERTEX
  5
D5
  8
0
 10
0.0
 20
0.0
 30
0.0
 70
   128
 71
     1
 72
     8
 73
     9
  0
SEQEND
  5
984
  8
0
  0
POLYLINE
  5
D6
  8
0
 66
     1
 10
0.0
 20
0.0
 30
0.0
 70
    64
 71
    10
 72
     8
  0
VERTEX
  5
D7
  8
0
 10
51.04729729729729
 20
293.047297297297
 30
-20.0
 70
   192
  0
VERTEX
  5
D8
  8
0
 10
86.04729729729729
 20
293.047297297297
 30
-20.0
 70
   192
  0
VERTEX
  5
D9
  8
0
 10
86.04729729729729
 20
293.047297297297
 30
-10.0
 70
   192
  0
VERTEX
  5
DA
  8
0
 10
51.04729729729729
 20
293.047297297297
 30
-10.0
 70
   192
  0
VERTEX
  5
DB
  8
0
 10
68.54729729729729
 20
275.547297297297
 30
-10.0
 70
   192
  0
VERTEX
  5
DC
  8
0
 10
68.54729729729729
 20
275.547297297297
 30
-20.0
 70
   192
  0
VERTEX
  5
DD
  8
0
 10
56.17292862653271
 20
280.6729286265324
 30
-10.0
 70
   192
  0
VERTEX
  5
DE
  8
0
 10
56.17292862653271
 20
280.6729286265324
 30
-20.0
 70
   192
  0
VERTEX
  5
DF
  8
0
 10
80.92166596806187
 20
280.6729286265324
 30
-10.0
 70
   192
  0
VERTEX
  5
E0
  8
0
 10
80.92166596806187
 20
280.6729286265324
 30
-20.0
 70
   192
  0
VERTEX
  5
E1
  8
0
 10
0.0
 20
0.0
 30
0.0
 70
   128
 71
     8
 72
     1
 73
    -4
  0
VERTEX
  5
E2
  8
0
 10
0.0
 20
0.0
 30
0.0
 70
   128
 71
     7
 72
    -8
 73
     4
  0
VERTEX
  5
E3
  8
0
 10
0.0
 20
0.0
 30
0.0
 70
   128
 71
     6
 72
     8
 73
    -7
  0
VERTEX
  5
E4
  8
0
 10
0.0
 20
0.0
 30
0.0
 70
   128
 71
     5
 72
    -6
 73
     7
  0
VERTEX
  5
E5
  8
0
 10
0.0
 20
0.0
 30
0.0
 70
   128
 71
    10
 72
     6
 73
    -5
  0
VERTEX
  5
E6
  8
0
 10
0.0
 20
0.0
 30
0.0
 70
   128
 71
     9
 72
   -10
 73
     5
  0
VERTEX
  5
E7
  8
0
 10
0.0
 20
0.0
 30
0.0
 70
   128
 71
     2
 72
    10
 73
    -9
  0
VERTEX
  5
E8
  8
0
 10
0.0
 20
0.0
 30
0.0
 70
   128
 71
     3
 72
    -2
 73
     9
  0
SEQEND
  5
985
  8
0
  0
POLYLINE
  5
E9
  8
0
 66
     1
 10
0.0
 20
0.0
 30
0.0
 70
    64
 71
    14
 72
    12
  0
VERTEX
  5
EA
  8
0
 10
254.3675105900899
 20
257.2270840038705
 30
-115.1428040618244
 70
   192
  0
VERTEX
  5
EB
  8
0
 10
269.2047287435222
 20
293.047297297297
 30
-115.142804046125
 70
   192
  0
VERTEX
  5
EC
  8
0
 10
269.8183466968667
 20
293.0474567436393
 30
-112.7428764199663
 70
   192
  0
VERTEX
  5
ED
  8
0
 10
271.6592005589862
 20
293.0474567436394
 30
-110.839283791157
 70
   192
  0
VERTEX
  5
EE
  8
0
 10
257.7894686447725
 20
253.8148612880853
 30
-110.1456104886647
 70
   192
  0
VERTEX
  5
EF
  8
0
 10
274.0372243193072
 20
293.0472972972973
 30
-110.1456105447208
 70
   192
  0
VERTEX
  5
F0
  8
0
 10
179.3101122336735
 20
253.8098783627671
 30
-110.1456105617085
 70
   192
  0
VERTEX
  5
F1
  8
0
 10
163.0573702523345
 20
293.047297297308
 30
-110.1456105439505
 70
   192
  0
VERTEX
  5
F2
  8
0
 10
165.4353940237331
 20
293.0471656536816
 30
-110.8392837907655
 70
   192
  0
VERTEX
  5
F3
  8
0
 10
167.276247894604
 20
293.0471656534361
 30
-112.7428764198684
 70
   192
  0
VERTEX
  5
F4
  8
0
 10
182.7270840047695
 20
257.2270840036065
 30
-115.1428040618244
 70
   192
  0
VERTEX
  5
F5
  8
0
 10
167.8898658510933
 20
293.0472972966634
 30
-115.1428040461251
 70
   192
  0
VERTEX
  5
F6
  8
0
 10
218.5472972972975
 20
242.389865851085
 30
-115.1428040618244
 70
   192
  0
VERTEX
  5
F7
  8
0
 10
218.5460950997381
 20
237.5573687902767
 30
-110.1456104550052
 70
   192
  0
VERTEX
  5
F8
  8
0
 10
0.0
 20
0.0
 30
0.0
 70
   128
 71
     1
 72
     2
 73
     3
  0
VERTEX
  5
F9
  8
0
 10
0.0
 20
0.0
 30
0.0
 70
   128
 71
     4
 72
     5
 73
     1
  0
VERTEX
  5
FA
  8
0
 10
0.0
 20
0.0
 30
0.0
 70
   128
 71
     3
 72
     4
 73
     1
  0
VERTEX
  5
FB
  8
0
 10
0.0
 20
0.0
 30
0.0
 70
   128
 71
     4
 72
     6
 73
     5
  0
VERTEX
  5
FC
  8
0
 10
0.0
 20
0.0
 30
0.0
 70
   128
 71
     7
 72
     8
 73
     9
  0
VERTEX
  5
FD
  8
0
 10
0.0
 20
0.0
 30
0.0
 70
   128
 71
    10
 72
    11
 73
     7
  0
VERTEX
  5
FE
  8
0
 10
0.0
 20
0.0
 30
0.0
 70
   128
 71
     9
 72
    10
 73
     7
  0
VERTEX
  5
FF
  8
0
 10
0.0
 20
0.0
 30
0.0
 70
   128
 71
    10
 72
    12
 73
    11
  0
VERTEX
  5
100
  8
0
 10
0.0
 20
0.0
 30
0.0
 70
   128
 71
    13
 72
     1
 73
     5
  0
VERTEX
  5
101
  8
0
 10
0.0
 20
0.0
 30
0.0
 70
   128
 71
    14
 72
    13
 73
     5
  0
VERTEX
  5
102
  8
0
 10
0.0
 20
0.0
 30
0.0
 70
   128
 71
    11
 72
    13
 73
     7
  0
VERTEX
  5
103
  8
0
 10
0.0
 20
0.0
 30
0.0
 70
   128
 71
     7
 72
    13
 73
    14
  0
SEQEND
  5
986
  8
0
  0
POLYLINE
  5
104
  8
0
 66
     1
 10
0.0
 20
0.0
 30
0.0
 70
    64
 71
    19
 72
    17
  0
VERTEX
  5
105
  8
0
 10
356.8789673191628
 20
293.047297297297
 30
-107.368780016313
 70
   192
  0
VERTEX
  5
106
  8
0
 10
274.0372243176834
 20
293.047297297297
 30
-110.1456104962777
 70
   192
  0
VERTEX
  5
107
  8
0
 10
257.7909188873073
 20
332.2782844815754
 30
-110.1456104422488
 70
   192
  0
VERTEX
  5
108
  8
0
 10
356.9592087407202
 20
365.0172959870548
 30
-106.7740503039881
 70
   192
  0
VERTEX
  5
109
  8
0
 10
356.8789673231525
 20
293.0472968863794
 30
-107.368780135338
 70
   192
  0
VERTEX
  5
10A
  8
0
 10
283.0597188879343
 20
517.881555553019
 30
-104.1644537232738
 70
   192
  0
VERTEX
  5
10B
  8
0
 10
357.705263596644
 20
508.3914134341591
 30
-103.411356972944
 70
   192
  0
VERTEX
  5
10C
  8
0
 10
357.2406638228344
 20
436.7821225261737
 30
-105.3128659347252
 70
   192
  0
VERTEX
  5
10D
  8
0
 10
348.048610123289
 20
518.066018866999
 30
-103.303136941426
 70
   192
  0
VERTEX
  5
10E
  8
0
 10
352.90432404783
 20
516.7715722755713
 30
-103.258042802448
 70
   192
  0
VERTEX
  5
10F
  8
0
 10
356.4391547851076
 20
513.2209972320629
 30
-103.2975478407444
 70
   192
  0
VERTEX
  5
110
  8
0
 10
154.196888388346
 20
368.3085725614332
 30
-108.687955351272
 70
   192
  0
VERTEX
  5
111
  8
0
 10
153.6658535470068
 20
443.1379323574885
 30
-106.5276667114941
 70
   192
  0
VERTEX
  5
112
  8
0
 10
218.016032403935
 20
517.8208409304092
 30
-104.4696987219472
 70
   192
  0
VERTEX
  5
113
  8
0
 10
152.972452044894
 20
517.8829254014819
 30
-104.155196732435
 70
   192
  0
VERTEX
  5
114
  8
0
 10
218.5535726290714
 20
348.5372249279561
 30
-110.145610467896
 70
   192
  0
VERTEX
  5
115
  8
0
 10
154.3415099562224
 20
293.047297297297
 30
-109.8534574618205
 70
   192
  0
VERTEX
  5
116
  8
0
 10
179.3126663022879
 20
332.2872743215626
 30
-110.1456104891882
 70
   192
  0
VERTEX
  5
117
  8
0
 10
163.0573702523345
 20
293.047297297308
 30
-110.1456105439505
 70
   192
  0
VERTEX
  5
118
  8
0
 10
0.0
 20
0.0
 30
0.0
 70
   128
 71
     1
 72
     2
 73
     3
  0
VERTEX
  5
119
  8
0
 10
0.0
 20
0.0
 30
0.0
 70
   128
 71
     4
 72
     5
 73
     1
  0
VERTEX
  5
11A
  8
0
 10
0.0
 20
0.0
 30
0.0
 70
   128
 71
     6
 72
     7
 73
     8
  0
VERTEX
  5
11B
  8
0
 10
0.0
 20
0.0
 30
0.0
 70
   128
 71
     6
 72
     9
 73
     7
  0
VERTEX
  5
11C
  8
0
 10
0.0
 20
0.0
 30
0.0
 70
   128
 71
     9
 72
    10
 73
    11
  0
VERTEX
  5
11D
  8
0
 10
0.0
 20
0.0
 30
0.0
 70
   128
 71
    11
 72
     7
 73
     9
  0
VERTEX
  5
11E
  8
0
 10
0.0
 20
0.0
 30
0.0
 70
   128
 71
    12
 72
    13
 73
    14
  0
VERTEX
  5
11F
  8
0
 10
0.0
 20
0.0
 30
0.0
 70
   128
 71
    13
 72
    15
 73
    14
  0
VERTEX
  5
120
  8
0
 10
0.0
 20
0.0
 30
0.0
 70
   128
 71
     1
 72
     3
 73
    16
  0
VERTEX
  5
121
  8
0
 10
0.0
 20
0.0
 30
0.0
 70
   128
 71
    16
 72
     4
 73
     1
  0
VERTEX
  5
122
  8
0
 10
0.0
 20
0.0
 30
0.0
 70
   128
 71
    14
 72
     6
 73
     8
  0
VERTEX
  5
123
  8
0
 10
0.0
 20
0.0
 30
0.0
 70
   128
 71
    12
 72
     8
 73
     4
  0
VERTEX
  5
124
  8
0
 10
0.0
 20
0.0
 30
0.0
 70
   128
 71
    12
 72
    14
 73
     8
  0
VERTEX
  5
125
  8
0
 10
0.0
 20
0.0
 30
0.0
 70
   128
 71
    12
 72
     4
 73
    16
  0
VERTEX
  5
126
  8
0
 10
0.0
 20
0.0
 30
0.0
 70
   128
 71
    17
 72
    12
 73
    16
  0
VERTEX
  5
127
  8
0
 10
0.0
 20
0.0
 30
0.0
 70
   128
 71
    16
 72
    18
 73
    17
  0
VERTEX
  5
128
  8
0
 10
0.0
 20
0.0
 30
0.0
 70
   128
 71
    18
 72
    19
 73
    17
  0
SEQEND
  5
987
  8
0
  0
POLYLINE
  5
129
  8
0
 66
     1
 10
0.0
 20
0.0
 30
0.0
 70
    64
 71
     8
 72
     6
  0
VERTEX
  5
12A
  8
0
 10
241.20472874351
 20
293.047297297297
 30
-127.761163037528
 70
   192
  0
VERTEX
  5
12B
  8
0
 10
241.20472874351
 20
293.047297297297
 30
-112.761163037528
 70
   192
  0
VERTEX
  5
12C
  8
0
 10
229.876473541256
 20
312.6686573072678
 30
-112.761163037528
 70
   192
  0
VERTEX
  5
12D
  8
0
 10
229.876473541256
 20
312.6686573072678
 30
-127.761163037528
 70
   192
  0
VERTEX
  5
12E
  8
0
 10
195.8898658510845
 20
293.047297297297
 30
-112.761163037528
 70
   192
  0
VERTEX
  5
12F
  8
0
 10
195.8898658510845
 20
293.047297297297
 30
-127.761163037528
 70
   192
  0
VERTEX
  5
130
  8
0
 10
207.2181210532991
 20
312.6686573073318
 30
-127.761163037528
 70
   192
  0
VERTEX
  5
131
  8
0
 10
207.2181210532991
 20
312.6686573073317
 30
-112.761163037528
 70
   192
  0
VERTEX
  5
132
  8
0
 10
0.0
 20
0.0
 30
0.0
 70
   128
 71
     1
 72
     2
 73
    -3
  0
VERTEX
  5
133
  8
0
 10
0.0
 20
0.0
 30
0.0
 70
   128
 71
     4
 72
    -1
 73
     3
  0
VERTEX
  5
134
  8
0
 10
0.0
 20
0.0
 30
0.0
 70
   128
 71
     5
 72
     6
 73
    -7
  0
VERTEX
  5
135
  8
0
 10
0.0
 20
0.0
 30
0.0
 70
   128
 71
     8
 72
    -5
 73
     7
  0
VERTEX
  5
136
  8
0
 10
0.0
 20
0.0
 30
0.0
 70
   128
 71
     7
 72
    -4
 73
     8
  0
VERTEX
  5
137
  8
0
 10
0.0
 20
0.0
 30
0.0
 70
   128
 71
    -8
 72
     4
 73
     3
  0
SEQEND
  5
988
  8
0
  0
POLYLINE
  5
138
  8
0
 66
     1
 10
0.0
 20
0.0
 30
0.0
 70
    64
 71
    19
 72
    17
  0
VERTEX
  5
139
  8
0
 10
192.4137093155558
 20
266.9137093155556
 30
-100.7611629726123
 70
   192
  0
VERTEX
  5
13A
  8
0
 10
181.5888227400482
 20
293.0472972972972
 30
-100.7611630051097
 70
   192
  0
VERTEX
  5
13B
  8
0
 10
154.676516560387
 20
293.047297297297
 30
-99.85907050837612
 70
   192
  0
VERTEX
  5
13C
  8
0
 10
153.8059667247759
 20
145.2923203654141
 30
-96.59271714000565
 70
   192
  0
VERTEX
  5
13D
  8
0
 10
218.0195462720619
 20
68.61132844536385
 30
-94.47696339551882
 70
   192
  0
VERTEX
  5
13E
  8
0
 10
218.5472972972971
 20
256.088822740048
 30
-100.7611629726123
 70
   192
  0
VERTEX
  5
13F
  8
0
 10
153.066251604272
 20
68.5332785353504
 30
-94.16080985410949
 70
   192
  0
VERTEX
  5
140
  8
0
 10
352.7236908786619
 20
69.60766405514565
 30
-93.26372304374402
 70
   192
  0
VERTEX
  5
141
  8
0
 10
356.2397629290872
 20
73.1273543134665
 30
-93.302687319028
 70
   192
  0
VERTEX
  5
142
  8
0
 10
357.523437585586
 20
77.9845532060564
 30
-93.4169700946186
 70
   192
  0
VERTEX
  5
143
  8
0
 10
347.881505847959
 20
68.3189325555165
 30
-93.30875006310059
 70
   192
  0
VERTEX
  5
144
  8
0
 10
357.0054067058485
 20
150.5678665568811
 30
-95.34053208649814
 70
   192
  0
VERTEX
  5
145
  8
0
 10
282.3778068790687
 20
68.57098154302966
 30
-94.17734171022684
 70
   192
  0
VERTEX
  5
146
  8
0
 10
356.65774670316
 20
221.9241235987441
 30
-96.79278230564572
 70
   192
  0
VERTEX
  5
147
  8
0
 10
356.5439584786322
 20
293.0472998255858
 30
-97.37439325699734
 70
   192
  0
VERTEX
  5
148
  8
0
 10
356.5439584746422
 20
293.047297297297
 30
-97.37439313796463
 70
   192
  0
VERTEX
  5
149
  8
0
 10
154.3893190329171
 20
220.3762154171143
 30
-98.75060512374522
 70
   192
  0
VERTEX
  5
14A
  8
0
 10
255.505771854546
 20
293.0472972972973
 30
-100.7611630051097
 70
   192
  0
VERTEX
  5
14B
  8
0
 10
244.6808852790384
 20
266.9137093155559
 30
-100.7611629726123
 70
   192
  0
VERTEX
  5
14C
  8
0
 10
0.0
 20
0.0
 30
0.0
 70
   128
 71
     1
 72
     2
 73
     3
  0
VERTEX
  5
14D
  8
0
 10
0.0
 20
0.0
 30
0.0
 70
   128
 71
     4
 72
     5
 73
     6
  0
VERTEX
  5
14E
  8
0
 10
0.0
 20
0.0
 30
0.0
 70
   128
 71
     4
 72
     7
 73
     5
  0
VERTEX
  5
14F
  8
0
 10
0.0
 20
0.0
 30
0.0
 70
   128
 71
     8
 72
     9
 73
    10
  0
VERTEX
  5
150
  8
0
 10
0.0
 20
0.0
 30
0.0
 70
   128
 71
    11
 72
     8
 73
    10
  0
VERTEX
  5
151
  8
0
 10
0.0
 20
0.0
 30
0.0
 70
   128
 71
    11
 72
    10
 73
    12
  0
VERTEX
  5
152
  8
0
 10
0.0
 20
0.0
 30
0.0
 70
   128
 71
    13
 72
    11
 73
    12
  0
VERTEX
  5
153
  8
0
 10
0.0
 20
0.0
 30
0.0
 70
   128
 71
    14
 72
    15
 73
    16
  0
VERTEX
  5
154
  8
0
 10
0.0
 20
0.0
 30
0.0
 70
   128
 71
     4
 72
     6
 73
     1
  0
VERTEX
  5
155
  8
0
 10
0.0
 20
0.0
 30
0.0
 70
   128
 71
    17
 72
     4
 73
     1
  0
VERTEX
  5
156
  8
0
 10
0.0
 20
0.0
 30
0.0
 70
   128
 71
    16
 72
    18
 73
    19
  0
VERTEX
  5
157
  8
0
 10
0.0
 20
0.0
 30
0.0
 70
   128
 71
    14
 72
    16
 73
    19
  0
VERTEX
  5
158
  8
0
 10
0.0
 20
0.0
 30
0.0
 70
   128
 71
    17
 72
     1
 73
     3
  0
VERTEX
  5
159
  8
0
 10
0.0
 20
0.0
 30
0.0
 70
   128
 71
    19
 72
     6
 73
     5
  0
VERTEX
  5
15A
  8
0
 10
0.0
 20
0.0
 30
0.0
 70
   128
 71
    13
 72
    12
 73
     5
  0
VERTEX
  5
15B
  8
0
 10
0.0
 20
0.0
 30
0.0
 70
   128
 71
    19
 72
     5
 73
    12
  0
VERTEX
  5
15C
  8
0
 10
0.0
 20
0.0
 30
0.0
 70
   128
 71
    14
 72
    19
 73
    12
  0
SEQEND
  5
989
  8
0
  0
POLYLINE
  5
15D
  8
0
 66
     1
 10
0.0
 20
0.0
 30
0.0
 70
    64
 71
    10
 72
     8
  0
VERTEX
  5
15E
  8
0
 10
269.2047289451871
 20
293.0472972973074
 30
-127.7611630375048
 70
   192
  0
VERTEX
  5
15F
  8
0
 10
269.2047287435222
 20
293.047297297297
 30
-115.142804046125
 70
   192
  0
VERTEX
  5
160
  8
0
 10
254.3675105900899
 20
257.2270840038705
 30
-115.1428040618244
 70
   192
  0
VERTEX
  5
161
  8
0
 10
254.3926117347241
 20
257.2522024201509
 30
-127.7611630375281
 70
   192
  0
VERTEX
  5
162
  8
0
 10
182.7270840047695
 20
257.2270840036065
 30
-115.1428040618244
 70
   192
  0
VERTEX
  5
163
  8
0
 10
167.8898658510933
 20
293.0472972966634
 30
-115.1428040461251
 70
   192
  0
VERTEX
  5
164
  8
0
 10
167.8898658510846
 20
293.0472972966629
 30
-127.7611630375045
 70
   192
  0
VERTEX
  5
165
  8
0
 10
218.5901402711067
 20
242.3898838725346
 30
-127.761163037528
 70
   192
  0
VERTEX
  5
166
  8
0
 10
218.5472972972975
 20
242.389865851085
 30
-115.1428040618244
 70
   192
  0
VERTEX
  5
167
  8
0
 10
182.7527616038597
 20
257.2014247604271
 30
-127.761163037528
 70
   192
  0
VERTEX
  5
168
  8
0
 10
0.0
 20
0.0
 30
0.0
 70
   128
 71
     1
 72
     2
 73
     3
  0
VERTEX
  5
169
  8
0
 10
0.0
 20
0.0
 30
0.0
 70
   128
 71
     4
 72
     1
 73
     3
  0
VERTEX
  5
16A
  8
0
 10
0.0
 20
0.0
 30
0.0
 70
   128
 71
     5
 72
     6
 73
     7
  0
VERTEX
  5
16B
  8
0
 10
0.0
 20
0.0
 30
0.0
 70
   128
 71
     8
 72
     9
 73
     5
  0
VERTEX
  5
16C
  8
0
 10
0.0
 20
0.0
 30
0.0
 70
   128
 71
    10
 72
     8
 73
     5
  0
VERTEX
  5
16D
  8
0
 10
0.0
 20
0.0
 30
0.0
 70
   128
 71
     4
 72
     3
 73
     9
  0
VERTEX
  5
16E
  8
0
 10
0.0
 20
0.0
 30
0.0
 70
   128
 71
     8
 72
     4
 73
     9
  0
VERTEX
  5
16F
  8
0
 10
0.0
 20
0.0
 30
0.0
 70
   128
 71
     7
 72
    10
 73
     5
  0
SEQEND
  5
98A
  8
0
  0
POLYLINE
  5
170
  8
0
 66
     1
 10
0.0
 20
0.0
 30
0.0
 70
    64
 71
    10
 72
     8
  0
VERTEX
  5
171
  8
0
 10
167.8898658510846
 20
293.0472972966629
 30
-127.7611630375045
 70
   192
  0
VERTEX
  5
172
  8
0
 10
167.8898658510933
 20
293.0472972966634
 30
-115.1428040461251
 70
   192
  0
VERTEX
  5
173
  8
0
 10
182.727084005194
 20
328.867510591413
 30
-115.1428040618244
 70
   192
  0
VERTEX
  5
174
  8
0
 10
182.7333656912287
 20
328.8737912948541
 30
-127.761163037528
 70
   192
  0
VERTEX
  5
175
  8
0
 10
218.5472972960275
 20
343.70472874351
 30
-115.1428040618244
 70
   192
  0
VERTEX
  5
176
  8
0
 10
218.5295601554254
 20
343.7047258144337
 30
-127.761163037528
 70
   192
  0
VERTEX
  5
177
  8
0
 10
254.367510589508
 20
328.867510591306
 30
-115.1428040618244
 70
   192
  0
VERTEX
  5
178
  8
0
 10
269.2047287435222
 20
293.047297297297
 30
-115.142804046125
 70
   192
  0
VERTEX
  5
179
  8
0
 10
269.2047289451871
 20
293.0472972973074
 30
-127.7611630375048
 70
   192
  0
VERTEX
  5
17A
  8
0
 10
254.3587512582738
 20
328.8762681789056
 30
-127.761163037528
 70
   192
  0
VERTEX
  5
17B
  8
0
 10
0.0
 20
0.0
 30
0.0
 70
   128
 71
     1
 72
     2
 73
     3
  0
VERTEX
  5
17C
  8
0
 10
0.0
 20
0.0
 30
0.0
 70
   128
 71
     4
 72
     3
 73
     5
  0
VERTEX
  5
17D
  8
0
 10
0.0
 20
0.0
 30
0.0
 70
   128
 71
     6
 72
     4
 73
     5
  0
VERTEX
  5
17E
  8
0
 10
0.0
 20
0.0
 30
0.0
 70
   128
 71
     7
 72
     8
 73
     9
  0
VERTEX
  5
17F
  8
0
 10
0.0
 20
0.0
 30
0.0
 70
   128
 71
     6
 72
     5
 73
     7
  0
VERTEX
  5
180
  8
0
 10
0.0
 20
0.0
 30
0.0
 70
   128
 71
    10
 72
     6
 73
     7
  0
VERTEX
  5
181
  8
0
 10
0.0
 20
0.0
 30
0.0
 70
   128
 71
     4
 72
     1
 73
     3
  0
VERTEX
  5
182
  8
0
 10
0.0
 20
0.0
 30
0.0
 70
   128
 71
     9
 72
    10
 73
     7
  0
SEQEND
  5
98B
  8
0
  0
POLYLINE
  5
183
  8
0
 66
     1
 10
0.0
 20
0.0
 30
0.0
 70
    64
 71
    14
 72
    14
  0
VERTEX
  5
184
  8
0
 10
269.2047289451871
 20
293.0472972973074
 30
-127.7611630375048
 70
   192
  0
VERTEX
  5
185
  8
0
 10
254.3587512582738
 20
328.8762681789056
 30
-127.761163037528
 70
   192
  0
VERTEX
  5
186
  8
0
 10
218.5295601554254
 20
343.7047258144337
 30
-127.761163037528
 70
   192
  0
VERTEX
  5
187
  8
0
 10
182.7333656912287
 20
328.8737912948541
 30
-127.761163037528
 70
   192
  0
VERTEX
  5
188
  8
0
 10
167.8898658510846
 20
293.0472972966629
 30
-127.7611630375045
 70
   192
  0
VERTEX
  5
189
  8
0
 10
182.7527616038597
 20
257.2014247604271
 30
-127.761163037528
 70
   192
  0
VERTEX
  5
18A
  8
0
 10
218.5901402711067
 20
242.3898838725346
 30
-127.761163037528
 70
   192
  0
VERTEX
  5
18B
  8
0
 10
254.3926117347241
 20
257.2522024201509
 30
-127.7611630375281
 70
   192
  0
VERTEX
  5
18C
  8
0
 10
195.8898658510845
 20
293.047297297297
 30
-127.761163037528
 70
   192
  0
VERTEX
  5
18D
  8
0
 10
207.2181210532991
 20
312.6686573073318
 30
-127.761163037528
 70
   192
  0
VERTEX
  5
18E
  8
0
 10
229.876473541256
 20
312.6686573072678
 30
-127.761163037528
 70
   192
  0
VERTEX
  5
18F
  8
0
 10
241.20472874351
 20
293.047297297297
 30
-127.761163037528
 70
   192
  0
VERTEX
  5
190
  8
0
 10
229.8764735414615
 20
273.4259372873584
 30
-127.761163037528
 70
   192
  0
VERTEX
  5
191
  8
0
 10
207.2181210529657
 20
273.4259372874753
 30
-127.761163037528
 70
   192
  0
VERTEX
  5
192
  8
0
 10
0.0
 20
0.0
 30
0.0
 70
   128
 71
    10
 72
    -9
 73
    -5
  0
VERTEX
  5
193
  8
0
 10
0.0
 20
0.0
 30
0.0
 70
   128
 71
   -10
 72
     5
 73
    -4
  0
VERTEX
  5
194
  8
0
 10
0.0
 20
0.0
 30
0.0
 70
   128
 71
     4
 72
     3
 73
    -2
  0
VERTEX
  5
195
  8
0
 10
0.0
 20
0.0
 30
0.0
 70
   128
 71
    -4
 72
    -2
 73
   -11
  0
VERTEX
  5
196
  8
0
 10
0.0
 20
0.0
 30
0.0
 70
   128
 71
    -4
 72
    11
 73
   -10
  0
VERTEX
  5
197
  8
0
 10
0.0
 20
0.0
 30
0.0
 70
   128
 71
     2
 72
    -1
 73
   -12
  0
VERTEX
  5
198
  8
0
 10
0.0
 20
0.0
 30
0.0
 70
   128
 71
    -2
 72
    12
 73
   -11
  0
VERTEX
  5
199
  8
0
 10
0.0
 20
0.0
 30
0.0
 70
   128
 71
     1
 72
    -8
 73
   -13
  0
VERTEX
  5
19A
  8
0
 10
0.0
 20
0.0
 30
0.0
 70
   128
 71
    -1
 72
    13
 73
   -12
  0
VERTEX
  5
19B
  8
0
 10
0.0
 20
0.0
 30
0.0
 70
   128
 71
     8
 72
     7
 73
    -6
  0
VERTEX
  5
19C
  8
0
 10
0.0
 20
0.0
 30
0.0
 70
   128
 71
    -8
 72
    -6
 73
   -14
  0
VERTEX
  5
19D
  8
0
 10
0.0
 20
0.0
 30
0.0
 70
   128
 71
    -8
 72
    14
 73
   -13
  0
VERTEX
  5
19E
  8
0
 10
0.0
 20
0.0
 30
0.0
 70
   128
 71
     6
 72
    -5
 73
    -9
  0
VERTEX
  5
19F
  8
0
 10
0.0
 20
0.0
 30
0.0
 70
   128
 71
    -6
 72
     9
 73
   -14
  0
SEQEND
  5
98C
  8
0
  0
POLYLINE
  5
1A0
  8
0
 66
     1
 10
0.0
 20
0.0
 30
0.0
 70
    64
 71
    46
 72
    46
  0
VERTEX
  5
1A1
  8
0
 10
347.547297297297
 20
18.5472972972975
 30
-45.0
 70
   192
  0
VERTEX
  5
1A2
  8
0
 10
78.54729729729735
 20
18.54729729729736
 30
-45.0
 70
   192
  0
VERTEX
  5
1A3
  8
0
 10
48.54729729729729
 20
26.58577307023109
 30
-45.0
 70
   192
  0
VERTEX
  5
1A4
  8
0
 10
26.585773070231
 20
48.54729729729739
 30
-45.0
 70
   192
  0
VERTEX
  5
1A5
  8
0
 10
18.54729729729731
 20
78.5472972972974
 30
-45.0
 70
   192
  0
VERTEX
  5
1A6
  8
0
 10
18.5472972972973
 20
507.547297297297
 30
-45.0
 70
   192
  0
VERTEX
  5
1A7
  8
0
 10
26.58577307023099
 20
537.547297297297
 30
-45.0
 70
   192
  0
VERTEX
  5
1A8
  8
0
 10
48.54729729729731
 20
559.5088215243633
 30
-45.0
 70
   192
  0
VERTEX
  5
1A9
  8
0
 10
78.5472972972973
 20
567.547297297297
 30
-45.0
 70
   192
  0
VERTEX
  5
1AA
  8
0
 10
347.547297297297
 20
567.5472972972973
 30
-45.0
 70
   192
  0
VERTEX
  5
1AB
  8
0
 10
377.5472972972973
 20
559.5088215243642
 30
-45.0
 70
   192
  0
VERTEX
  5
1AC
  8
0
 10
399.5088215243637
 20
537.5472972972974
 30
-45.0
 70
   192
  0
VERTEX
  5
1AD
  8
0
 10
407.547297297297
 20
507.547297297297
 30
-45.0
 70
   192
  0
VERTEX
  5
1AE
  8
0
 10
407.547297297297
 20
78.54729729729746
 30
-45.0
 70
   192
  0
VERTEX
  5
1AF
  8
0
 10
399.5088215243633
 20
48.5472972972975
 30
-45.0
 70
   192
  0
VERTEX
  5
1B0
  8
0
 10
377.547297297297
 20
26.58577307023118
 30
-45.0
 70
   192
  0
VERTEX
  5
1B1
  8
0
 10
138.425994748969
 20
557.940533209199
 30
-45.0
 70
   192
  0
VERTEX
  5
1B2
  8
0
 10
132.3632781916785
 20
557.0120715093472
 30
-45.0
 70
   192
  0
VERTEX
  5
1B3
  8
0
 10
126.9017644770138
 20
554.2266864097918
 30
-44.99999999999999
 70
   192
  0
VERTEX
  5
1B4
  8
0
 10
122.76907392776
 20
549.955466021102
 30
-45.0
 70
   192
  0
VERTEX
  5
1B5
  8
0
 10
123.4971236347723
 20
553.4892199940003
 30
-45.00000000000001
 70
   192
  0
VERTEX
  5
1B6
  8
0
 10
121.4466933421394
 20
556.4573778656734
 30
-45.0
 70
   192
  0
VERTEX
  5
1B7
  8
0
 10
117.907059180142
 20
557.5472972972971
 30
-45.0
 70
   192
  0
VERTEX
  5
1B8
  8
0
 10
78.54729729729735
 20
557.5472972972976
 30
-45.0
 70
   192
  0
VERTEX
  5
1B9
  8
0
 10
53.5472972972973
 20
550.8485674865188
 30
-45.0
 70
   192
  0
VERTEX
  5
1BA
  8
0
 10
35.24602710807539
 20
532.547297297297
 30
-45.0
 70
   192
  0
VERTEX
  5
1BB
  8
0
 10
28.54729729729731
 20
507.547297297297
 30
-45.0
 70
   192
  0
VERTEX
  5
1BC
  8
0
 10
28.5472972972973
 20
78.5472972972974
 30
-45.0
 70
   192
  0
VERTEX
  5
1BD
  8
0
 10
35.24602710807537
 20
53.5472972972974
 30
-45.0
 70
   192
  0
VERTEX
  5
1BE
  8
0
 10
53.5472972972973
 20
35.24602710807547
 30
-45.0
 70
   192
  0
VERTEX
  5
1BF
  8
0
 10
78.5472972972973
 20
28.5472972972974
 30
-45.0
 70
   192
  0
VERTEX
  5
1C0
  8
0
 10
117.907059180141
 20
28.54729729729738
 30
-45.0
 70
   192
  0
VERTEX
  5
1C1
  8
0
 10
121.439118289583
 20
29.63065519273878
 30
-45.0
 70
   192
  0
VERTEX
  5
1C2
  8
0
 10
123.4890708762717
 20
32.59454202188826
 30
-45.0
 70
   192
  0
VERTEX
  5
1C3
  8
0
 10
122.76907392776
 20
36.1391285734931
 30
-45.0
 70
   192
  0
VERTEX
  5
1C4
  8
0
 10
126.9017644770134
 20
31.86790818480271
 30
-45.0
 70
   192
  0
VERTEX
  5
1C5
  8
0
 10
132.3632781916783
 20
29.08252308524721
 30
-44.99999999999999
 70
   192
  0
VERTEX
  5
1C6
  8
0
 10
138.425994748969
 20
28.1540613853954
 30
-45.0
 70
   192
  0
VERTEX
  5
1C7
  8
0
 10
347.547297297297
 20
28.1540613853956
 30
-45.0
 70
   192
  0
VERTEX
  5
1C8
  8
0
 10
372.743915253248
 20
34.90547481868818
 30
-45.0
 70
   192
  0
VERTEX
  5
1C9
  8
0
 10
391.1891197759064
 20
53.35067934134659
 30
-45.0
 70
   192
  0
VERTEX
  5
1CA
  8
0
 10
397.940533209199
 20
78.5472972972976
 30
-45.0
 70
   192
  0
VERTEX
  5
1CB
  8
0
 10
397.940533209199
 20
507.547297297298
 30
-45.0
 70
   192
  0
VERTEX
  5
1CC
  8
0
 10
391.1891197759063
 20
532.7439152532489
 30
-45.0
 70
   192
  0
VERTEX
  5
1CD
  8
0
 10
372.743915253248
 20
551.1891197759073
 30
-45.0
 70
   192
  0
VERTEX
  5
1CE
  8
0
 10
347.547297297297
 20
557.9405332091999
 30
-45.0
 70
   192
  0
VERTEX
  5
1CF
  8
0
 10
0.0
 20
0.0
 30
0.0
 70
   128
 71
    34
 72
    35
 73
   -36
  0
VERTEX
  5
1D0
  8
0
 10
0.0
 20
0.0
 30
0.0
 70
   128
 71
    19
 72
    20
 73
   -21
  0
VERTEX
  5
1D1
  8
0
 10
0.0
 20
0.0
 30
0.0
 70
   128
 71
   -22
 72
    17
 73
   -18
  0
VERTEX
  5
1D2
  8
0
 10
0.0
 20
0.0
 30
0.0
 70
   128
 71
   -19
 72
    21
 73
   -22
  0
VERTEX
  5
1D3
  8
0
 10
0.0
 20
0.0
 30
0.0
 70
   128
 71
    18
 72
   -19
 73
   -22
  0
VERTEX
  5
1D4
  8
0
 10
0.0
 20
0.0
 30
0.0
 70
   128
 71
    22
 72
   -23
 73
   -17
  0
VERTEX
  5
1D5
  8
0
 10
0.0
 20
0.0
 30
0.0
 70
   128
 71
    -9
 72
   -17
 73
   -23
  0
VERTEX
  5
1D6
  8
0
 10
0.0
 20
0.0
 30
0.0
 70
   128
 71
    23
 72
   -24
 73
    -9
  0
VERTEX
  5
1D7
  8
0
 10
0.0
 20
0.0
 30
0.0
 70
   128
 71
   -25
 72
     8
 73
    -9
  0
VERTEX
  5
1D8
  8
0
 10
0.0
 20
0.0
 30
0.0
 70
   128
 71
    24
 72
   -25
 73
    -9
  0
VERTEX
  5
1D9
  8
0
 10
0.0
 20
0.0
 30
0.0
 70
   128
 71
   -26
 72
     7
 73
    -8
  0
VERTEX
  5
1DA
  8
0
 10
0.0
 20
0.0
 30
0.0
 70
   128
 71
    25
 72
   -26
 73
    -8
  0
VERTEX
  5
1DB
  8
0
 10
0.0
 20
0.0
 30
0.0
 70
   128
 71
    26
 72
   -27
 73
    -7
  0
VERTEX
  5
1DC
  8
0
 10
0.0
 20
0.0
 30
0.0
 70
   128
 71
     6
 72
    -7
 73
   -27
  0
VERTEX
  5
1DD
  8
0
 10
0.0
 20
0.0
 30
0.0
 70
   128
 71
   -28
 72
     5
 73
    -6
  0
VERTEX
  5
1DE
  8
0
 10
0.0
 20
0.0
 30
0.0
 70
   128
 71
    27
 72
   -28
 73
    -6
  0
VERTEX
  5
1DF
  8
0
 10
0.0
 20
0.0
 30
0.0
 70
   128
 71
   -28
 72
     4
 73
    -5
  0
VERTEX
  5
1E0
  8
0
 10
0.0
 20
0.0
 30
0.0
 70
   128
 71
    28
 72
   -29
 73
    -4
  0
VERTEX
  5
1E1
  8
0
 10
0.0
 20
0.0
 30
0.0
 70
   128
 71
   -30
 72
     3
 73
    -4
  0
VERTEX
  5
1E2
  8
0
 10
0.0
 20
0.0
 30
0.0
 70
   128
 71
    29
 72
   -30
 73
    -4
  0
VERTEX
  5
1E3
  8
0
 10
0.0
 20
0.0
 30
0.0
 70
   128
 71
   -31
 72
     2
 73
    -3
  0
VERTEX
  5
1E4
  8
0
 10
0.0
 20
0.0
 30
0.0
 70
   128
 71
    30
 72
   -31
 73
    -3
  0
VERTEX
  5
1E5
  8
0
 10
0.0
 20
0.0
 30
0.0
 70
   128
 71
    31
 72
   -32
 73
    -2
  0
VERTEX
  5
1E6
  8
0
 10
0.0
 20
0.0
 30
0.0
 70
   128
 71
   -32
 72
   -37
 73
    -2
  0
VERTEX
  5
1E7
  8
0
 10
0.0
 20
0.0
 30
0.0
 70
   128
 71
    32
 72
   -33
 73
   -37
  0
VERTEX
  5
1E8
  8
0
 10
0.0
 20
0.0
 30
0.0
 70
   128
 71
   -34
 72
    36
 73
   -37
  0
VERTEX
  5
1E9
  8
0
 10
0.0
 20
0.0
 30
0.0
 70
   128
 71
    33
 72
   -34
 73
   -37
  0
VERTEX
  5
1EA
  8
0
 10
0.0
 20
0.0
 30
0.0
 70
   128
 71
    37
 72
   -38
 73
    -2
  0
VERTEX
  5
1EB
  8
0
 10
0.0
 20
0.0
 30
0.0
 70
   128
 71
   -39
 72
     1
 73
    -2
  0
VERTEX
  5
1EC
  8
0
 10
0.0
 20
0.0
 30
0.0
 70
   128
 71
    38
 72
   -39
 73
    -2
  0
VERTEX
  5
1ED
  8
0
 10
0.0
 20
0.0
 30
0.0
 70
   128
 71
   -39
 72
    16
 73
    -1
  0
VERTEX
  5
1EE
  8
0
 10
0.0
 20
0.0
 30
0.0
 70
   128
 71
    39
 72
   -40
 73
   -16
  0
VERTEX
  5
1EF
  8
0
 10
0.0
 20
0.0
 30
0.0
 70
   128
 71
   -41
 72
    15
 73
   -16
  0
VERTEX
  5
1F0
  8
0
 10
0.0
 20
0.0
 30
0.0
 70
   128
 71
    40
 72
   -41
 73
   -16
  0
VERTEX
  5
1F1
  8
0
 10
0.0
 20
0.0
 30
0.0
 70
   128
 71
    41
 72
   -42
 73
   -15
  0
VERTEX
  5
1F2
  8
0
 10
0.0
 20
0.0
 30
0.0
 70
   128
 71
    14
 72
   -15
 73
   -42
  0
VERTEX
  5
1F3
  8
0
 10
0.0
 20
0.0
 30
0.0
 70
   128
 71
   -43
 72
    13
 73
   -14
  0
VERTEX
  5
1F4
  8
0
 10
0.0
 20
0.0
 30
0.0
 70
   128
 71
    42
 72
   -43
 73
   -14
  0
VERTEX
  5
1F5
  8
0
 10
0.0
 20
0.0
 30
0.0
 70
   128
 71
   -43
 72
    12
 73
   -13
  0
VERTEX
  5
1F6
  8
0
 10
0.0
 20
0.0
 30
0.0
 70
   128
 71
    43
 72
   -44
 73
   -12
  0
VERTEX
  5
1F7
  8
0
 10
0.0
 20
0.0
 30
0.0
 70
   128
 71
   -45
 72
    11
 73
   -12
  0
VERTEX
  5
1F8
  8
0
 10
0.0
 20
0.0
 30
0.0
 70
   128
 71
    44
 72
   -45
 73
   -12
  0
VERTEX
  5
1F9
  8
0
 10
0.0
 20
0.0
 30
0.0
 70
   128
 71
    45
 72
   -46
 73
   -11
  0
VERTEX
  5
1FA
  8
0
 10
0.0
 20
0.0
 30
0.0
 70
   128
 71
    10
 72
   -11
 73
   -46
  0
VERTEX
  5
1FB
  8
0
 10
0.0
 20
0.0
 30
0.0
 70
   128
 71
   -17
 72
     9
 73
   -10
  0
VERTEX
  5
1FC
  8
0
 10
0.0
 20
0.0
 30
0.0
 70
   128
 71
    46
 72
   -17
 73
   -10
  0
SEQEND
  5
98D
  8
0
  0
POLYLINE
  5
1FD
  8
0
 66
     1
 10
0.0
 20
0.0
 30
0.0
 70
    64
 71
     8
 72
     6
  0
VERTEX
  5
1FE
  8
0
 10
33.77393026759379
 20
533.3972128044229
 30
-8.61803398874989
 70
   192
  0
VERTEX
  5
1FF
  8
0
 10
52.69738179017207
 20
552.3206643270008
 30
-8.61803398874989
 70
   192
  0
VERTEX
  5
200
  8
0
 10
51.52181128558719
 20
554.3568121688213
 30
-1.38196601125011
 70
   192
  0
VERTEX
  5
201
  8
0
 10
31.7377824257734
 20
534.5727833090077
 30
-1.38196601125011
 70
   192
  0
VERTEX
  5
202
  8
0
 10
78.5472972972971
 20
559.2471283115484
 30
-8.618033988750042
 70
   192
  0
VERTEX
  5
203
  8
0
 10
78.5472972972971
 20
561.5982693207184
 30
-1.38196601125016
 70
   192
  0
VERTEX
  5
204
  8
0
 10
26.84746628304647
 20
507.547297297298
 30
-8.61803398874991
 70
   192
  0
VERTEX
  5
205
  8
0
 10
24.49632527387672
 20
507.547297297298
 30
-1.38196601125011
 70
   192
  0
VERTEX
  5
206
  8
0
 10
0.0
 20
0.0
 30
0.0
 70
   128
 71
     1
 72
     2
 73
    -3
  0
VERTEX
  5
207
  8
0
 10
0.0
 20
0.0
 30
0.0
 70
   128
 71
     4
 72
    -1
 73
     3
  0
VERTEX
  5
208
  8
0
 10
0.0
 20
0.0
 30
0.0
 70
   128
 71
     2
 72
     5
 73
    -6
  0
VERTEX
  5
209
  8
0
 10
0.0
 20
0.0
 30
0.0
 70
   128
 71
     3
 72
    -2
 73
     6
  0
VERTEX
  5
20A
  8
0
 10
0.0
 20
0.0
 30
0.0
 70
   128
 71
     7
 72
     1
 73
    -4
  0
VERTEX
  5
20B
  8
0
 10
0.0
 20
0.0
 30
0.0
 70
   128
 71
     8
 72
    -7
 73
     4
  0
SEQEND
  5
98E
  8
0
  0
POLYLINE
  5
20C
  8
0
 66
     1
 10
0.0
 20
0.0
 30
0.0
 70
    64
 71
    24
 72
    24
  0
VERTEX
  5
20D
  8
0
 10
78.5472972972974
 20
28.74957931563718
 30
-10.0
 70
   192
  0
VERTEX
  5
20E
  8
0
 10
120.76568148097
 20
28.7495793156372
 30
-10.0
 70
   192
  0
VERTEX
  5
20F
  8
0
 10
118.7827123774398
 20
31.14071078790356
 30
-10.0
 70
   192
  0
VERTEX
  5
210
  8
0
 10
117.5163372753244
 20
34.07480320150114
 30
-10.0
 70
   192
  0
VERTEX
  5
211
  8
0
 10
117.094212241286
 20
37.2560873991575
 30
-10.0
 70
   192
  0
VERTEX
  5
212
  8
0
 10
117.094212241286
 20
548.838507195437
 30
-10.0
 70
   192
  0
VERTEX
  5
213
  8
0
 10
117.516337275325
 20
552.0197913930937
 30
-10.0
 70
   192
  0
VERTEX
  5
214
  8
0
 10
118.7827123774407
 20
554.9538838066912
 30
-9.999999999999996
 70
   192
  0
VERTEX
  5
215
  8
0
 10
120.765681480971
 20
557.3450152789579
 30
-10.0
 70
   192
  0
VERTEX
  5
216
  8
0
 10
78.5472972972971
 20
557.3450152789579
 30
-10.0
 70
   192
  0
VERTEX
  5
217
  8
0
 10
53.64843830646728
 20
550.6733861199081
 30
-10.0
 70
   192
  0
VERTEX
  5
218
  8
0
 10
35.42120847468657
 20
532.4461562881277
 30
-10.0
 70
   192
  0
VERTEX
  5
219
  8
0
 10
28.74957931563691
 20
507.547297297298
 30
-10.0
 70
   192
  0
VERTEX
  5
21A
  8
0
 10
28.749579315637
 20
78.5472972972974
 30
-10.0
 70
   192
  0
VERTEX
  5
21B
  8
0
 10
35.42120847468644
 20
53.64843830646727
 30
-10.0
 70
   192
  0
VERTEX
  5
21C
  8
0
 10
53.64843830646724
 20
35.42120847468649
 30
-10.0
 70
   192
  0
VERTEX
  5
21D
  8
0
 10
86.04729729729729
 20
293.047297297297
 30
-10.0
 70
   192
  0
VERTEX
  5
21E
  8
0
 10
80.92166596806187
 20
280.6729286265324
 30
-10.0
 70
   192
  0
VERTEX
  5
21F
  8
0
 10
68.54729729729729
 20
275.547297297297
 30
-10.0
 70
   192
  0
VERTEX
  5
220
  8
0
 10
56.17292862653271
 20
280.6729286265324
 30
-10.0
 70
   192
  0
VERTEX
  5
221
  8
0
 10
51.04729729729729
 20
293.047297297297
 30
-10.0
 70
   192
  0
VERTEX
  5
222
  8
0
 10
56.17292862653271
 20
305.4216659680616
 30
-10.0
 70
   192
  0
VERTEX
  5
223
  8
0
 10
68.54729729729729
 20
310.547297297297
 30
-10.0
 70
   192
  0
VERTEX
  5
224
  8
0
 10
80.92166596806187
 20
305.4216659680616
 30
-10.0
 70
   192
  0
VERTEX
  5
225
  8
0
 10
0.0
 20
0.0
 30
0.0
 70
   128
 71
     1
 72
     2
 73
    -3
  0
VERTEX
  5
226
  8
0
 10
0.0
 20
0.0
 30
0.0
 70
   128
 71
     3
 72
    -4
 73
    -1
  0
VERTEX
  5
227
  8
0
 10
0.0
 20
0.0
 30
0.0
 70
   128
 71
     4
 72
    -5
 73
    -1
  0
VERTEX
  5
228
  8
0
 10
0.0
 20
0.0
 30
0.0
 70
   128
 71
    -5
 72
    17
 73
   -18
  0
VERTEX
  5
229
  8
0
 10
0.0
 20
0.0
 30
0.0
 70
   128
 71
    16
 72
    -1
 73
    -5
  0
VERTEX
  5
22A
  8
0
 10
0.0
 20
0.0
 30
0.0
 70
   128
 71
   -19
 72
   -16
 73
    -5
  0
VERTEX
  5
22B
  8
0
 10
0.0
 20
0.0
 30
0.0
 70
   128
 71
    18
 72
   -19
 73
    -5
  0
VERTEX
  5
22C
  8
0
 10
0.0
 20
0.0
 30
0.0
 70
   128
 71
    14
 72
    15
 73
   -16
  0
VERTEX
  5
22D
  8
0
 10
0.0
 20
0.0
 30
0.0
 70
   128
 71
   -20
 72
   -14
 73
   -16
  0
VERTEX
  5
22E
  8
0
 10
0.0
 20
0.0
 30
0.0
 70
   128
 71
    19
 72
   -20
 73
   -16
  0
VERTEX
  5
22F
  8
0
 10
0.0
 20
0.0
 30
0.0
 70
   128
 71
    20
 72
   -21
 73
   -14
  0
VERTEX
  5
230
  8
0
 10
0.0
 20
0.0
 30
0.0
 70
   128
 71
    13
 72
   -14
 73
   -21
  0
VERTEX
  5
231
  8
0
 10
0.0
 20
0.0
 30
0.0
 70
   128
 71
    21
 72
   -22
 73
   -13
  0
VERTEX
  5
232
  8
0
 10
0.0
 20
0.0
 30
0.0
 70
   128
 71
    11
 72
    12
 73
   -13
  0
VERTEX
  5
233
  8
0
 10
0.0
 20
0.0
 30
0.0
 70
   128
 71
   -23
 72
   -11
 73
   -13
  0
VERTEX
  5
234
  8
0
 10
0.0
 20
0.0
 30
0.0
 70
   128
 71
    22
 72
   -23
 73
   -13
  0
VERTEX
  5
235
  8
0
 10
0.0
 20
0.0
 30
0.0
 70
   128
 71
    23
 72
   -24
 73
   -11
  0
VERTEX
  5
236
  8
0
 10
0.0
 20
0.0
 30
0.0
 70
   128
 71
    24
 72
   -17
 73
   -11
  0
VERTEX
  5
237
  8
0
 10
0.0
 20
0.0
 30
0.0
 70
   128
 71
    10
 72
   -11
 73
   -17
  0
VERTEX
  5
238
  8
0
 10
0.0
 20
0.0
 30
0.0
 70
   128
 71
    -6
 72
   -10
 73
   -17
  0
VERTEX
  5
239
  8
0
 10
0.0
 20
0.0
 30
0.0
 70
   128
 71
   -17
 72
     5
 73
    -6
  0
VERTEX
  5
23A
  8
0
 10
0.0
 20
0.0
 30
0.0
 70
   128
 71
     6
 72
    -7
 73
   -10
  0
VERTEX
  5
23B
  8
0
 10
0.0
 20
0.0
 30
0.0
 70
   128
 71
     7
 72
    -8
 73
   -10
  0
VERTEX
  5
23C
  8
0
 10
0.0
 20
0.0
 30
0.0
 70
   128
 71
     8
 72
     9
 73
   -10
  0
SEQEND
  5
98F
  8
0
  0
POLYLINE
  5
23D
  8
0
 66
     1
 10
0.0
 20
0.0
 30
0.0
 70
    64
 71
    11
 72
     9
  0
VERTEX
  5
23E
  8
0
 10
125.6594829860771
 20
27.54473260297176
 30
-9.905832422893754
 70
   192
  0
VERTEX
  5
23F
  8
0
 10
127.608834483669
 20
26.8474662830468
 30
-8.618033988749911
 70
   192
  0
VERTEX
  5
240
  8
0
 10
150.9093912753504
 20
50.14802307472839
 30
-80.32977403352518
 70
   192
  0
VERTEX
  5
241
  8
0
 10
121.98563975034
 20
30.0970874396175
 30
-11.1657795993845
 70
   192
  0
VERTEX
  5
242
  8
0
 10
146.3984349240223
 20
51.70557173259735
 30
-81.28939436413582
 70
   192
  0
VERTEX
  5
243
  8
0
 10
142.9563747702674
 20
55.14763188635224
 30
-81.2893943641358
 70
   192
  0
VERTEX
  5
244
  8
0
 10
123.7375848046797
 20
28.68697048568125
 30
-10.83545864326593
 70
   192
  0
VERTEX
  5
245
  8
0
 10
141.3988261123985
 20
59.65858823767994
 30
-80.32977403352527
 70
   192
  0
VERTEX
  5
246
  8
0
 10
118.996325273876
 20
37.2560873991575
 30
-11.3819660112501
 70
   192
  0
VERTEX
  5
247
  8
0
 10
119.3354403063783
 20
34.46948330784404
 30
-11.25909183112777
 70
   192
  0
VERTEX
  5
248
  8
0
 10
120.3760072862277
 20
32.03927507760422
 30
-11.18694719327278
 70
   192
  0
VERTEX
  5
249
  8
0
 10
0.0
 20
0.0
 30
0.0
 70
   128
 71
     1
 72
     2
 73
     3
  0
VERTEX
  5
24A
  8
0
 10
0.0
 20
0.0
 30
0.0
 70
   128
 71
     4
 72
     5
 73
     6
  0
VERTEX
  5
24B
  8
0
 10
0.0
 20
0.0
 30
0.0
 70
   128
 71
     5
 72
     4
 73
     7
  0
VERTEX
  5
24C
  8
0
 10
0.0
 20
0.0
 30
0.0
 70
   128
 71
     3
 72
     5
 73
     7
  0
VERTEX
  5
24D
  8
0
 10
0.0
 20
0.0
 30
0.0
 70
   128
 71
     8
 72
     9
 73
    10
  0
VERTEX
  5
24E
  8
0
 10
0.0
 20
0.0
 30
0.0
 70
   128
 71
     6
 72
     8
 73
    10
  0
VERTEX
  5
24F
  8
0
 10
0.0
 20
0.0
 30
0.0
 70
   128
 71
    11
 72
     6
 73
    10
  0
VERTEX
  5
250
  8
0
 10
0.0
 20
0.0
 30
0.0
 70
   128
 71
     4
 72
     6
 73
    11
  0
VERTEX
  5
251
  8
0
 10
0.0
 20
0.0
 30
0.0
 70
   128
 71
     1
 72
     3
 73
     7
  0
SEQEND
  5
990
  8
0
  0
POLYLINE
  5
252
  8
0
 66
     1
 10
0.0
 20
0.0
 30
0.0
 70
    64
 71
    12
 72
    10
  0
VERTEX
  5
253
  8
0
 10
376.1809158893721
 20
78.5472972972975
 30
-79.60853622546642
 70
   192
  0
VERTEX
  5
254
  8
0
 10
372.1040483771639
 20
78.30844694211781
 30
-86.71773957553016
 70
   192
  0
VERTEX
  5
255
  8
0
 10
365.5158471709736
 20
78.10973459523336
 30
-91.59367935641077
 70
   192
  0
VERTEX
  5
256
  8
0
 10
357.523437585586
 20
77.98455320605642
 30
-93.41697009461859
 70
   192
  0
VERTEX
  5
257
  8
0
 10
356.2397629290872
 20
73.1273543134665
 30
-93.302687319028
 70
   192
  0
VERTEX
  5
258
  8
0
 10
352.7236908786619
 20
69.60766405514565
 30
-93.26372304374402
 70
   192
  0
VERTEX
  5
259
  8
0
 10
347.881505847959
 20
68.3189325555165
 30
-93.30875006310059
 70
   192
  0
VERTEX
  5
25A
  8
0
 10
347.8064000295517
 20
60.41258091149989
 30
-91.42805705428353
 70
   192
  0
VERTEX
  5
25B
  8
0
 10
347.6885079011007
 20
53.90772049887845
 30
-86.55712943681931
 70
   192
  0
VERTEX
  5
25C
  8
0
 10
347.5472972972971
 20
49.87851588545522
 30
-79.5003161939484
 70
   192
  0
VERTEX
  5
25D
  8
0
 10
361.3186183582637
 20
53.38758194296306
 30
-79.45920844212186
 70
   192
  0
VERTEX
  5
25E
  8
0
 10
372.0434372810658
 20
63.65010450871848
 30
-79.49528178596543
 70
   192
  0
VERTEX
  5
25F
  8
0
 10
0.0
 20
0.0
 30
0.0
 70
   128
 71
     6
 72
     7
 73
     8
  0
VERTEX
  5
260
  8
0
 10
0.0
 20
0.0
 30
0.0
 70
   128
 71
     9
 72
    11
 73
     6
  0
VERTEX
  5
261
  8
0
 10
0.0
 20
0.0
 30
0.0
 70
   128
 71
     8
 72
     9
 73
     6
  0
VERTEX
  5
262
  8
0
 10
0.0
 20
0.0
 30
0.0
 70
   128
 71
     9
 72
    10
 73
    11
  0
VERTEX
  5
263
  8
0
 10
0.0
 20
0.0
 30
0.0
 70
   128
 71
    12
 72
     5
 73
     6
  0
VERTEX
  5
264
  8
0
 10
0.0
 20
0.0
 30
0.0
 70
   128
 71
    11
 72
    12
 73
     6
  0
VERTEX
  5
265
  8
0
 10
0.0
 20
0.0
 30
0.0
 70
   128
 71
    12
 72
     1
 73
     2
  0
VERTEX
  5
266
  8
0
 10
0.0
 20
0.0
 30
0.0
 70
   128
 71
     3
 72
     5
 73
    12
  0
VERTEX
  5
267
  8
0
 10
0.0
 20
0.0
 30
0.0
 70
   128
 71
     2
 72
     3
 73
    12
  0
VERTEX
  5
268
  8
0
 10
0.0
 20
0.0
 30
0.0
 70
   128
 71
     3
 72
     4
 73
     5
  0
SEQEND
  5
991
  8
0
  0
POLYLINE
  5
269
  8
0
 66
     1
 10
0.0
 20
0.0
 30
0.0
 70
    64
 71
    12
 72
    10
  0
VERTEX
  5
26A
  8
0
 10
347.547297297297
 20
536.2160787091401
 30
-79.50031619394845
 70
   192
  0
VERTEX
  5
26B
  8
0
 10
347.6885079011006
 20
532.1868740957167
 30
-86.55712943681952
 70
   192
  0
VERTEX
  5
26C
  8
0
 10
347.8064000295517
 20
525.682013683095
 30
-91.42805705428377
 70
   192
  0
VERTEX
  5
26D
  8
0
 10
347.8815058479585
 20
517.775662039078
 30
-93.30875006310063
 70
   192
  0
VERTEX
  5
26E
  8
0
 10
352.7369050582308
 20
516.4774764406419
 30
-93.26376675402231
 70
   192
  0
VERTEX
  5
26F
  8
0
 10
356.2483889629888
 20
512.954797349411
 30
-93.30288741657627
 70
   192
  0
VERTEX
  5
270
  8
0
 10
357.523437585586
 20
508.110041388539
 30
-93.4169700946186
 70
   192
  0
VERTEX
  5
271
  8
0
 10
365.5158471709735
 20
507.9848599993621
 30
-91.59367935641077
 70
   192
  0
VERTEX
  5
272
  8
0
 10
372.1040483771638
 20
507.7861476524777
 30
-86.7177395755302
 70
   192
  0
VERTEX
  5
273
  8
0
 10
376.1809158893721
 20
507.547297297298
 30
-79.60853622546651
 70
   192
  0
VERTEX
  5
274
  8
0
 10
372.0434372810795
 20
522.4444900858548
 30
-79.49528178596526
 70
   192
  0
VERTEX
  5
275
  8
0
 10
361.3186183582867
 20
532.7070126516201
 30
-79.4592084421217
 70
   192
  0
VERTEX
  5
276
  8
0
 10
0.0
 20
0.0
 30
0.0
 70
   128
 71
     6
 72
     7
 73
     8
  0
VERTEX
  5
277
  8
0
 10
0.0
 20
0.0
 30
0.0
 70
   128
 71
     9
 72
    11
 73
     6
  0
VERTEX
  5
278
  8
0
 10
0.0
 20
0.0
 30
0.0
 70
   128
 71
     8
 72
     9
 73
     6
  0
VERTEX
  5
279
  8
0
 10
0.0
 20
0.0
 30
0.0
 70
   128
 71
     9
 72
    10
 73
    11
  0
VERTEX
  5
27A
  8
0
 10
0.0
 20
0.0
 30
0.0
 70
   128
 71
    12
 72
     5
 73
     6
  0
VERTEX
  5
27B
  8
0
 10
0.0
 20
0.0
 30
0.0
 70
   128
 71
    11
 72
    12
 73
     6
  0
VERTEX
  5
27C
  8
0
 10
0.0
 20
0.0
 30
0.0
 70
   128
 71
    12
 72
     1
 73
     2
  0
VERTEX
  5
27D
  8
0
 10
0.0
 20
0.0
 30
0.0
 70
   128
 71
     3
 72
     5
 73
    12
  0
VERTEX
  5
27E
  8
0
 10
0.0
 20
0.0
 30
0.0
 70
   128
 71
     2
 72
     3
 73
    12
  0
VERTEX
  5
27F
  8
0
 10
0.0
 20
0.0
 30
0.0
 70
   128
 71
     3
 72
     4
 73
     5
  0
SEQEND
  5
992
  8
0
  0
POLYLINE
  5
280
  8
0
 66
     1
 10
0.0
 20
0.0
 30
0.0
 70
    64
 71
     8
 72
     6
  0
VERTEX
  5
281
  8
0
 10
26.585773070231
 20
48.54729729729738
 30
-2.0
 70
   192
  0
VERTEX
  5
282
  8
0
 10
26.585773070231
 20
48.54729729729739
 30
-45.0
 70
   192
  0
VERTEX
  5
283
  8
0
 10
48.54729729729729
 20
26.58577307023109
 30
-45.0
 70
   192
  0
VERTEX
  5
284
  8
0
 10
48.5472972972973
 20
26.58577307023109
 30
-2.0
 70
   192
  0
VERTEX
  5
285
  8
0
 10
18.54729729729731
 20
78.54729729729739
 30
-2.0
 70
   192
  0
VERTEX
  5
286
  8
0
 10
18.5472972972973
 20
78.5472972972974
 30
-45.0
 70
   192
  0
VERTEX
  5
287
  8
0
 10
78.5472972972973
 20
18.5472972972974
 30
-45.0
 70
   192
  0
VERTEX
  5
288
  8
0
 10
78.5472972972973
 20
18.5472972972973
 30
-2.0
 70
   192
  0
VERTEX
  5
289
  8
0
 10
0.0
 20
0.0
 30
0.0
 70
   128
 71
     1
 72
     2
 73
    -3
  0
VERTEX
  5
28A
  8
0
 10
0.0
 20
0.0
 30
0.0
 70
   128
 71
    -1
 72
     3
 73
     4
  0
VERTEX
  5
28B
  8
0
 10
0.0
 20
0.0
 30
0.0
 70
   128
 71
     5
 72
     6
 73
    -2
  0
VERTEX
  5
28C
  8
0
 10
0.0
 20
0.0
 30
0.0
 70
   128
 71
    -5
 72
     2
 73
     1
  0
VERTEX
  5
28D
  8
0
 10
0.0
 20
0.0
 30
0.0
 70
   128
 71
     4
 72
     3
 73
    -7
  0
VERTEX
  5
28E
  8
0
 10
0.0
 20
0.0
 30
0.0
 70
   128
 71
    -4
 72
     7
 73
     8
  0
SEQEND
  5
993
  8
0
  0
POLYLINE
  5
28F
  8
0
 66
     1
 10
0.0
 20
0.0
 30
0.0
 70
    64
 71
     4
 72
     2
  0
VERTEX
  5
290
  8
0
 10
347.547297297297
 20
18.5472972972975
 30
-45.0
 70
   192
  0
VERTEX
  5
291
  8
0
 10
78.5472972972973
 20
18.5472972972973
 30
-45.0
 70
   192
  0
VERTEX
  5
292
  8
0
 10
78.54729729729735
 20
18.54729729729736
 30
-2.0
 70
   192
  0
VERTEX
  5
293
  8
0
 10
347.547297297297
 20
18.5472972972975
 30
-2.0
 70
   192
  0
VERTEX
  5
294
  8
0
 10
0.0
 20
0.0
 30
0.0
 70
   128
 71
     1
 72
     4
 73
    -3
  0
VERTEX
  5
295
  8
0
 10
0.0
 20
0.0
 30
0.0
 70
   128
 71
    -1
 72
     3
 73
     2
  0
SEQEND
  5
994
  8
0
  0
POLYLINE
  5
296
  8
0
 66
     1
 10
0.0
 20
0.0
 30
0.0
 70
    64
 71
     8
 72
     6
  0
VERTEX
  5
297
  8
0
 10
377.5472972972971
 20
26.5857730702312
 30
-2.0
 70
   192
  0
VERTEX
  5
298
  8
0
 10
377.547297297297
 20
26.58577307023118
 30
-45.0
 70
   192
  0
VERTEX
  5
299
  8
0
 10
399.5088215243633
 20
48.5472972972975
 30
-45.0
 70
   192
  0
VERTEX
  5
29A
  8
0
 10
399.5088215243633
 20
48.54729729729752
 30
-2.0
 70
   192
  0
VERTEX
  5
29B
  8
0
 10
347.547297297297
 20
18.5472972972975
 30
-2.0
 70
   192
  0
VERTEX
  5
29C
  8
0
 10
347.547297297297
 20
18.5472972972975
 30
-45.0
 70
   192
  0
VERTEX
  5
29D
  8
0
 10
407.547297297297
 20
78.5472972972975
 30
-45.0
 70
   192
  0
VERTEX
  5
29E
  8
0
 10
407.547297297297
 20
78.5472972972975
 30
-2.0
 70
   192
  0
VERTEX
  5
29F
  8
0
 10
0.0
 20
0.0
 30
0.0
 70
   128
 71
     1
 72
     2
 73
    -3
  0
VERTEX
  5
2A0
  8
0
 10
0.0
 20
0.0
 30
0.0
 70
   128
 71
    -1
 72
     3
 73
     4
  0
VERTEX
  5
2A1
  8
0
 10
0.0
 20
0.0
 30
0.0
 70
   128
 71
     5
 72
     6
 73
    -2
  0
VERTEX
  5
2A2
  8
0
 10
0.0
 20
0.0
 30
0.0
 70
   128
 71
    -5
 72
     2
 73
     1
  0
VERTEX
  5
2A3
  8
0
 10
0.0
 20
0.0
 30
0.0
 70
   128
 71
     4
 72
     3
 73
    -7
  0
VERTEX
  5
2A4
  8
0
 10
0.0
 20
0.0
 30
0.0
 70
   128
 71
    -4
 72
     7
 73
     8
  0
SEQEND
  5
995
  8
0
  0
POLYLINE
  5
2A5
  8
0
 66
     1
 10
0.0
 20
0.0
 30
0.0
 70
    64
 71
     9
 72
     7
  0
VERTEX
  5
2A6
  8
0
 10
192.4137093155558
 20
266.9137093155556
 30
-100.7611629726123
 70
   192
  0
VERTEX
  5
2A7
  8
0
 10
195.8898658510845
 20
293.047297297297
 30
-112.761163037528
 70
   192
  0
VERTEX
  5
2A8
  8
0
 10
181.5888227400482
 20
293.0472972972972
 30
-100.7611630051097
 70
   192
  0
VERTEX
  5
2A9
  8
0
 10
229.8764735414615
 20
273.4259372873584
 30
-112.761163037528
 70
   192
  0
VERTEX
  5
2AA
  8
0
 10
218.5472972972971
 20
256.088822740048
 30
-100.7611629726123
 70
   192
  0
VERTEX
  5
2AB
  8
0
 10
244.6808852790384
 20
266.9137093155559
 30
-100.7611629726123
 70
   192
  0
VERTEX
  5
2AC
  8
0
 10
207.2181210529658
 20
273.4259372874753
 30
-112.761163037528
 70
   192
  0
VERTEX
  5
2AD
  8
0
 10
255.505771854546
 20
293.0472972972973
 30
-100.7611630051097
 70
   192
  0
VERTEX
  5
2AE
  8
0
 10
241.20472874351
 20
293.047297297297
 30
-112.761163037528
 70
   192
  0
VERTEX
  5
2AF
  8
0
 10
0.0
 20
0.0
 30
0.0
 70
   128
 71
     1
 72
     2
 73
     3
  0
VERTEX
  5
2B0
  8
0
 10
0.0
 20
0.0
 30
0.0
 70
   128
 71
     4
 72
     5
 73
     6
  0
VERTEX
  5
2B1
  8
0
 10
0.0
 20
0.0
 30
0.0
 70
   128
 71
     7
 72
     1
 73
     5
  0
VERTEX
  5
2B2
  8
0
 10
0.0
 20
0.0
 30
0.0
 70
   128
 71
     7
 72
     5
 73
     4
  0
VERTEX
  5
2B3
  8
0
 10
0.0
 20
0.0
 30
0.0
 70
   128
 71
     2
 72
     1
 73
     7
  0
VERTEX
  5
2B4
  8
0
 10
0.0
 20
0.0
 30
0.0
 70
   128
 71
     4
 72
     6
 73
     8
  0
VERTEX
  5
2B5
  8
0
 10
0.0
 20
0.0
 30
0.0
 70
   128
 71
     4
 72
     8
 73
     9
  0
SEQEND
  5
996
  8
0
  0
POLYLINE
  5
2B6
  8
0
 66
     1
 10
0.0
 20
0.0
 30
0.0
 70
    64
 71
    15
 72
    13
  0
VERTEX
  5
2B7
  8
0
 10
376.1809158893721
 20
507.547297297298
 30
-79.60853622546651
 70
   192
  0
VERTEX
  5
2B8
  8
0
 10
372.1040483771638
 20
507.7861476524777
 30
-86.7177395755302
 70
   192
  0
VERTEX
  5
2B9
  8
0
 10
365.5158471709735
 20
507.9848599993621
 30
-91.59367935641077
 70
   192
  0
VERTEX
  5
2BA
  8
0
 10
357.523437585586
 20
508.1100413885391
 30
-93.41697009461859
 70
   192
  0
VERTEX
  5
2BB
  8
0
 10
357.0057184059965
 20
435.5279541776971
 30
-95.34049720381914
 70
   192
  0
VERTEX
  5
2BC
  8
0
 10
356.657987483427
 20
364.1698496032521
 30
-96.79280199153584
 70
   192
  0
VERTEX
  5
2BD
  8
0
 10
356.5439584786322
 20
293.0472998255858
 30
-97.37439325699734
 70
   192
  0
VERTEX
  5
2BE
  8
0
 10
356.65774670316
 20
221.9241235987441
 30
-96.79278230564572
 70
   192
  0
VERTEX
  5
2BF
  8
0
 10
357.0054067058485
 20
150.5678665568811
 30
-95.34053208649814
 70
   192
  0
VERTEX
  5
2C0
  8
0
 10
357.523437585586
 20
77.9845532060564
 30
-93.4169700946186
 70
   192
  0
VERTEX
  5
2C1
  8
0
 10
365.5158471709736
 20
78.10973459523336
 30
-91.59367935641077
 70
   192
  0
VERTEX
  5
2C2
  8
0
 10
372.1040483771639
 20
78.30844694211781
 30
-86.71773957553016
 70
   192
  0
VERTEX
  5
2C3
  8
0
 10
376.1809158893721
 20
78.5472972972975
 30
-79.60853622546642
 70
   192
  0
VERTEX
  5
2C4
  8
0
 10
375.0883796816979
 20
221.5204416743933
 30
-82.97101692559441
 70
   192
  0
VERTEX
  5
2C5
  8
0
 10
375.088234522684
 20
364.5432769269328
 30
-82.97146367910196
 70
   192
  0
VERTEX
  5
2C6
  8
0
 10
0.0
 20
0.0
 30
0.0
 70
   128
 71
    11
 72
     8
 73
     9
  0
VERTEX
  5
2C7
  8
0
 10
0.0
 20
0.0
 30
0.0
 70
   128
 71
     9
 72
    10
 73
    11
  0
VERTEX
  5
2C8
  8
0
 10
0.0
 20
0.0
 30
0.0
 70
   128
 71
    12
 72
    14
 73
     8
  0
VERTEX
  5
2C9
  8
0
 10
0.0
 20
0.0
 30
0.0
 70
   128
 71
    11
 72
    12
 73
     8
  0
VERTEX
  5
2CA
  8
0
 10
0.0
 20
0.0
 30
0.0
 70
   128
 71
    12
 72
    13
 73
    14
  0
VERTEX
  5
2CB
  8
0
 10
0.0
 20
0.0
 30
0.0
 70
   128
 71
    15
 72
     6
 73
     7
  0
VERTEX
  5
2CC
  8
0
 10
0.0
 20
0.0
 30
0.0
 70
   128
 71
     8
 72
    14
 73
    15
  0
VERTEX
  5
2CD
  8
0
 10
0.0
 20
0.0
 30
0.0
 70
   128
 71
     7
 72
     8
 73
    15
  0
VERTEX
  5
2CE
  8
0
 10
0.0
 20
0.0
 30
0.0
 70
   128
 71
    15
 72
     1
 73
     2
  0
VERTEX
  5
2CF
  8
0
 10
0.0
 20
0.0
 30
0.0
 70
   128
 71
     3
 72
     5
 73
    15
  0
VERTEX
  5
2D0
  8
0
 10
0.0
 20
0.0
 30
0.0
 70
   128
 71
     2
 72
     3
 73
    15
  0
VERTEX
  5
2D1
  8
0
 10
0.0
 20
0.0
 30
0.0
 70
   128
 71
     3
 72
     4
 73
     5
  0
VERTEX
  5
2D2
  8
0
 10
0.0
 20
0.0
 30
0.0
 70
   128
 71
     5
 72
     6
 73
    15
  0
SEQEND
  5
997
  8
0
  0
POLYLINE
  5
2D3
  8
0
 66
     1
 10
0.0
 20
0.0
 30
0.0
 70
    64
 71
     8
 72
     6
  0
VERTEX
  5
2D4
  8
0
 10
52.6973817901721
 20
33.77393026759383
 30
-8.61803398874989
 70
   192
  0
VERTEX
  5
2D5
  8
0
 10
33.77393026759378
 20
52.69738179017212
 30
-8.61803398874989
 70
   192
  0
VERTEX
  5
2D6
  8
0
 10
31.73778242577327
 20
51.52181128558718
 30
-1.3819660112501
 70
   192
  0
VERTEX
  5
2D7
  8
0
 10
51.52181128558716
 20
31.73778242577333
 30
-1.3819660112501
 70
   192
  0
VERTEX
  5
2D8
  8
0
 10
26.84746628304667
 20
78.5472972972974
 30
-8.618033988749898
 70
   192
  0
VERTEX
  5
2D9
  8
0
 10
24.49632527387679
 20
78.5472972972974
 30
-1.381966011250114
 70
   192
  0
VERTEX
  5
2DA
  8
0
 10
78.5472972972974
 20
26.84746628304678
 30
-8.618033988749898
 70
   192
  0
VERTEX
  5
2DB
  8
0
 10
78.54729729729739
 20
24.496325273877
 30
-1.3819660112501
 70
   192
  0
VERTEX
  5
2DC
  8
0
 10
0.0
 20
0.0
 30
0.0
 70
   128
 71
     1
 72
     2
 73
    -3
  0
VERTEX
  5
2DD
  8
0
 10
0.0
 20
0.0
 30
0.0
 70
   128
 71
     4
 72
    -1
 73
     3
  0
VERTEX
  5
2DE
  8
0
 10
0.0
 20
0.0
 30
0.0
 70
   128
 71
     2
 72
     5
 73
    -6
  0
VERTEX
  5
2DF
  8
0
 10
0.0
 20
0.0
 30
0.0
 70
   128
 71
     3
 72
    -2
 73
     6
  0
VERTEX
  5
2E0
  8
0
 10
0.0
 20
0.0
 30
0.0
 70
   128
 71
     7
 72
     1
 73
    -4
  0
VERTEX
  5
2E1
  8
0
 10
0.0
 20
0.0
 30
0.0
 70
   128
 71
     8
 72
    -7
 73
     4
  0
SEQEND
  5
998
  8
0
  0
POLYLINE
  5
2E2
  8
0
 66
     1
 10
0.0
 20
0.0
 30
0.0
 70
    64
 71
     4
 72
     2
  0
VERTEX
  5
2E3
  8
0
 10
407.547297297297
 20
507.547297297297
 30
-45.0
 70
   192
  0
VERTEX
  5
2E4
  8
0
 10
407.547297297297
 20
78.5472972972975
 30
-45.0
 70
   192
  0
VERTEX
  5
2E5
  8
0
 10
407.547297297297
 20
78.54729729729746
 30
-2.0
 70
   192
  0
VERTEX
  5
2E6
  8
0
 10
407.547297297297
 20
507.547297297297
 30
-2.0
 70
   192
  0
VERTEX
  5
2E7
  8
0
 10
0.0
 20
0.0
 30
0.0
 70
   128
 71
     1
 72
     4
 73
    -3
  0
VERTEX
  5
2E8
  8
0
 10
0.0
 20
0.0
 30
0.0
 70
   128
 71
    -1
 72
     3
 73
     2
  0
SEQEND
  5
999
  8
0
  0
POLYLINE
  5
2E9
  8
0
 66
     1
 10
0.0
 20
0.0
 30
0.0
 70
    64
 71
    12
 72
    10
  0
VERTEX
  5
2EA
  8
0
 10
347.547297297297
 20
536.21607870914
 30
-79.50031619394841
 70
   192
  0
VERTEX
  5
2EB
  8
0
 10
282.0036464950601
 20
535.9338477396554
 30
-80.3689338024124
 70
   192
  0
VERTEX
  5
2EC
  8
0
 10
216.4577603180789
 20
535.8371643358015
 30
-80.6664947227719
 70
   192
  0
VERTEX
  5
2ED
  8
0
 10
150.90939127535
 20
535.946571519866
 30
-80.3297740335253
 70
   192
  0
VERTEX
  5
2EE
  8
0
 10
152.0276457541453
 20
531.863745557719
 30
-87.45484052188596
 70
   192
  0
VERTEX
  5
2EF
  8
0
 10
152.7822866911747
 20
525.340669082229
 30
-92.3087396328556
 70
   192
  0
VERTEX
  5
2F0
  8
0
 10
153.066251604273
 20
517.5613160592441
 30
-94.1608098541096
 70
   192
  0
VERTEX
  5
2F1
  8
0
 10
218.0225067381865
 20
517.4830866639928
 30
-94.47695948931295
 70
   192
  0
VERTEX
  5
2F2
  8
0
 10
282.3791062427592
 20
517.5241141999568
 30
-94.17731363767727
 70
   192
  0
VERTEX
  5
2F3
  8
0
 10
347.881505847959
 20
517.775662039078
 30
-93.30875006310059
 70
   192
  0
VERTEX
  5
2F4
  8
0
 10
347.8064000295517
 20
525.682013683095
 30
-91.42805705428377
 70
   192
  0
VERTEX
  5
2F5
  8
0
 10
347.6885079011006
 20
532.1868740957167
 30
-86.55712943681952
 70
   192
  0
VERTEX
  5
2F6
  8
0
 10
0.0
 20
0.0
 30
0.0
 70
   128
 71
     6
 72
     7
 73
     8
  0
VERTEX
  5
2F7
  8
0
 10
0.0
 20
0.0
 30
0.0
 70
   128
 71
     9
 72
    11
 73
     6
  0
VERTEX
  5
2F8
  8
0
 10
0.0
 20
0.0
 30
0.0
 70
   128
 71
     8
 72
     9
 73
     6
  0
VERTEX
  5
2F9
  8
0
 10
0.0
 20
0.0
 30
0.0
 70
   128
 71
     9
 72
    10
 73
    11
  0
VERTEX
  5
2FA
  8
0
 10
0.0
 20
0.0
 30
0.0
 70
   128
 71
    12
 72
     5
 73
     6
  0
VERTEX
  5
2FB
  8
0
 10
0.0
 20
0.0
 30
0.0
 70
   128
 71
    11
 72
    12
 73
     6
  0
VERTEX
  5
2FC
  8
0
 10
0.0
 20
0.0
 30
0.0
 70
   128
 71
    12
 72
     1
 73
     2
  0
VERTEX
  5
2FD
  8
0
 10
0.0
 20
0.0
 30
0.0
 70
   128
 71
     3
 72
     5
 73
    12
  0
VERTEX
  5
2FE
  8
0
 10
0.0
 20
0.0
 30
0.0
 70
   128
 71
     2
 72
     3
 73
    12
  0
VERTEX
  5
2FF
  8
0
 10
0.0
 20
0.0
 30
0.0
 70
   128
 71
     3
 72
     4
 73
     5
  0
SEQEND
  5
99A
  8
0
  0
POLYLINE
  5
300
  8
0
 66
     1
 10
0.0
 20
0.0
 30
0.0
 70
    64
 71
     8
 72
     6
  0
VERTEX
  5
301
  8
0
 10
347.547297297297
 20
536.21607870914
 30
-79.50031619394841
 70
   192
  0
VERTEX
  5
302
  8
0
 10
282.0036464950601
 20
535.9338477396554
 30
-80.3689338024124
 70
   192
  0
VERTEX
  5
303
  8
0
 10
216.4577603180789
 20
535.8371643358015
 30
-80.6664947227719
 70
   192
  0
VERTEX
  5
304
  8
0
 10
150.9093912753508
 20
535.9465715198662
 30
-80.32977403352511
 70
   192
  0
VERTEX
  5
305
  8
0
 10
127.608834483669
 20
559.247128311548
 30
-8.61803398874994
 70
   192
  0
VERTEX
  5
306
  8
0
 10
78.5472972972971
 20
559.2471283115484
 30
-8.618033988750042
 70
   192
  0
VERTEX
  5
307
  8
0
 10
78.5472972972971
 20
561.598269320718
 30
-1.38196601125006
 70
   192
  0
VERTEX
  5
308
  8
0
 10
347.547297297297
 20
561.5982693207184
 30
-1.381966011250197
 70
   192
  0
VERTEX
  5
309
  8
0
 10
0.0
 20
0.0
 30
0.0
 70
   128
 71
     2
 72
     1
 73
    -8
  0
VERTEX
  5
30A
  8
0
 10
0.0
 20
0.0
 30
0.0
 70
   128
 71
    -8
 72
    -5
 73
    -3
  0
VERTEX
  5
30B
  8
0
 10
0.0
 20
0.0
 30
0.0
 70
   128
 71
    -8
 72
     3
 73
    -2
  0
VERTEX
  5
30C
  8
0
 10
0.0
 20
0.0
 30
0.0
 70
   128
 71
     5
 72
     4
 73
    -3
  0
VERTEX
  5
30D
  8
0
 10
0.0
 20
0.0
 30
0.0
 70
   128
 71
     8
 72
    -7
 73
    -5
  0
VERTEX
  5
30E
  8
0
 10
0.0
 20
0.0
 30
0.0
 70
   128
 71
     7
 72
     6
 73
    -5
  0
SEQEND
  5
99B
  8
0
  0
POLYLINE
  5
30F
  8
0
 66
     1
 10
0.0
 20
0.0
 30
0.0
 70
    64
 71
    11
 72
     9
  0
VERTEX
  5
310
  8
0
 10
150.9093912753508
 20
535.9465715198662
 30
-80.32977403352511
 70
   192
  0
VERTEX
  5
311
  8
0
 10
127.6088344836693
 20
559.2471283115477
 30
-8.618033988749787
 70
   192
  0
VERTEX
  5
312
  8
0
 10
125.6597326465439
 20
558.5499853840447
 30
-9.905691280513885
 70
   192
  0
VERTEX
  5
313
  8
0
 10
121.985639750341
 20
555.997507154977
 30
-11.1657795993845
 70
   192
  0
VERTEX
  5
314
  8
0
 10
146.3984349240228
 20
534.3890228619972
 30
-81.28939436413586
 70
   192
  0
VERTEX
  5
315
  8
0
 10
123.7377456654169
 20
557.4077124815772
 30
-10.83543819127232
 70
   192
  0
VERTEX
  5
316
  8
0
 10
119.3354403063793
 20
551.6251112867504
 30
-11.25909183112771
 70
   192
  0
VERTEX
  5
317
  8
0
 10
118.996325273877
 20
548.838507195437
 30
-11.3819660112501
 70
   192
  0
VERTEX
  5
318
  8
0
 10
141.3988261123993
 20
526.4360063569146
 30
-80.32977403352508
 70
   192
  0
VERTEX
  5
319
  8
0
 10
120.3760072862286
 20
554.0553195169905
 30
-11.18694719327282
 70
   192
  0
VERTEX
  5
31A
  8
0
 10
142.9563747702682
 20
530.9469627082424
 30
-81.28939436413576
 70
   192
  0
VERTEX
  5
31B
  8
0
 10
0.0
 20
0.0
 30
0.0
 70
   128
 71
     1
 72
     2
 73
     3
  0
VERTEX
  5
31C
  8
0
 10
0.0
 20
0.0
 30
0.0
 70
   128
 71
     4
 72
     5
 73
     1
  0
VERTEX
  5
31D
  8
0
 10
0.0
 20
0.0
 30
0.0
 70
   128
 71
     6
 72
     4
 73
     1
  0
VERTEX
  5
31E
  8
0
 10
0.0
 20
0.0
 30
0.0
 70
   128
 71
     7
 72
     8
 73
     9
  0
VERTEX
  5
31F
  8
0
 10
0.0
 20
0.0
 30
0.0
 70
   128
 71
    10
 72
     7
 73
     9
  0
VERTEX
  5
320
  8
0
 10
0.0
 20
0.0
 30
0.0
 70
   128
 71
    10
 72
     9
 73
    11
  0
VERTEX
  5
321
  8
0
 10
0.0
 20
0.0
 30
0.0
 70
   128
 71
     5
 72
     4
 73
    10
  0
VERTEX
  5
322
  8
0
 10
0.0
 20
0.0
 30
0.0
 70
   128
 71
    11
 72
     5
 73
    10
  0
VERTEX
  5
323
  8
0
 10
0.0
 20
0.0
 30
0.0
 70
   128
 71
     1
 72
     3
 73
     6
  0
SEQEND
  5
99C
  8
0
  0
POLYLINE
  5
324
  8
0
 66
     1
 10
0.0
 20
0.0
 30
0.0
 70
    64
 71
     8
 72
     6
  0
VERTEX
  5
325
  8
0
 10
372.0434372810795
 20
522.4444900858548
 30
-79.49528178596526
 70
   192
  0
VERTEX
  5
326
  8
0
 10
376.1809158893722
 20
507.547297297298
 30
-79.60853622546655
 70
   192
  0
VERTEX
  5
327
  8
0
 10
401.5982693207175
 20
507.547297297298
 30
-1.381966011249949
 70
   192
  0
VERTEX
  5
328
  8
0
 10
394.3568121688211
 20
534.5727833090082
 30
-1.3819660112501
 70
   192
  0
VERTEX
  5
329
  8
0
 10
361.3186183582867
 20
532.7070126516201
 30
-79.4592084421217
 70
   192
  0
VERTEX
  5
32A
  8
0
 10
374.5727833090072
 20
554.356812168822
 30
-1.3819660112501
 70
   192
  0
VERTEX
  5
32B
  8
0
 10
347.547297297297
 20
536.2160787091402
 30
-79.50031619394849
 70
   192
  0
VERTEX
  5
32C
  8
0
 10
347.547297297297
 20
561.5982693207184
 30
-1.3819660112501
 70
   192
  0
VERTEX
  5
32D
  8
0
 10
0.0
 20
0.0
 30
0.0
 70
   128
 71
     1
 72
     2
 73
     3
  0
VERTEX
  5
32E
  8
0
 10
0.0
 20
0.0
 30
0.0
 70
   128
 71
     4
 72
     1
 73
     3
  0
VERTEX
  5
32F
  8
0
 10
0.0
 20
0.0
 30
0.0
 70
   128
 71
     5
 72
     1
 73
     4
  0
VERTEX
  5
330
  8
0
 10
0.0
 20
0.0
 30
0.0
 70
   128
 71
     6
 72
     5
 73
     4
  0
VERTEX
  5
331
  8
0
 10
0.0
 20
0.0
 30
0.0
 70
   128
 71
     7
 72
     5
 73
     6
  0
VERTEX
  5
332
  8
0
 10
0.0
 20
0.0
 30
0.0
 70
   128
 71
     8
 72
     7
 73
     6
  0
SEQEND
  5
99D
  8
0
  0
POLYLINE
  5
333
  8
0
 66
     1
 10
0.0
 20
0.0
 30
0.0
 70
    64
 71
    12
 72
    10
  0
VERTEX
  5
334
  8
0
 10
27.26328966468208
 20
507.547297297298
 30
-9.33826121271768
 70
   192
  0
VERTEX
  5
335
  8
0
 10
27.93610602948523
 20
507.547297297298
 30
-9.82709091528517
 70
   192
  0
VERTEX
  5
336
  8
0
 10
78.5472972972971
 20
558.8313049299127
 30
-9.338261212717752
 70
   192
  0
VERTEX
  5
337
  8
0
 10
78.5472972972971
 20
558.1584885651096
 30
-9.827090915285211
 70
   192
  0
VERTEX
  5
338
  8
0
 10
28.7495793156368
 20
507.547297297298
 30
-10.0
 70
   192
  0
VERTEX
  5
339
  8
0
 10
35.42120847468657
 20
532.4461562881277
 30
-10.0
 70
   192
  0
VERTEX
  5
33A
  8
0
 10
53.64843830646728
 20
550.6733861199081
 30
-10.0
 70
   192
  0
VERTEX
  5
33B
  8
0
 10
78.5472972972971
 20
557.3450152789574
 30
-10.0
 70
   192
  0
VERTEX
  5
33C
  8
0
 10
26.84746628304659
 20
507.547297297298
 30
-8.61803398874987
 70
   192
  0
VERTEX
  5
33D
  8
0
 10
33.77393026759379
 20
533.3972128044229
 30
-8.61803398874989
 70
   192
  0
VERTEX
  5
33E
  8
0
 10
78.5472972972971
 20
559.2471283115482
 30
-8.618033988749962
 70
   192
  0
VERTEX
  5
33F
  8
0
 10
52.69738179017207
 20
552.3206643270008
 30
-8.61803398874989
 70
   192
  0
VERTEX
  5
340
  8
0
 10
0.0
 20
0.0
 30
0.0
 70
   128
 71
     1
 72
    -2
 73
     3
  0
VERTEX
  5
341
  8
0
 10
0.0
 20
0.0
 30
0.0
 70
   128
 71
    -3
 72
     2
 73
     4
  0
VERTEX
  5
342
  8
0
 10
0.0
 20
0.0
 30
0.0
 70
   128
 71
     2
 72
     5
 73
     6
  0
VERTEX
  5
343
  8
0
 10
0.0
 20
0.0
 30
0.0
 70
   128
 71
     6
 72
     7
 73
     2
  0
VERTEX
  5
344
  8
0
 10
0.0
 20
0.0
 30
0.0
 70
   128
 71
     2
 72
     7
 73
     8
  0
VERTEX
  5
345
  8
0
 10
0.0
 20
0.0
 30
0.0
 70
   128
 71
     4
 72
     2
 73
     8
  0
VERTEX
  5
346
  8
0
 10
0.0
 20
0.0
 30
0.0
 70
   128
 71
     9
 72
     1
 73
    10
  0
VERTEX
  5
347
  8
0
 10
0.0
 20
0.0
 30
0.0
 70
   128
 71
     3
 72
    11
 73
    12
  0
VERTEX
  5
348
  8
0
 10
0.0
 20
0.0
 30
0.0
 70
   128
 71
    10
 72
     1
 73
    -3
  0
VERTEX
  5
349
  8
0
 10
0.0
 20
0.0
 30
0.0
 70
   128
 71
    12
 72
   -10
 73
     3
  0
SEQEND
  5
99E
  8
0
  0
POLYLINE
  5
34A
  8
0
 66
     1
 10
0.0
 20
0.0
 30
0.0
 70
    64
 71
    19
 72
    17
  0
VERTEX
  5
34B
  8
0
 10
255.505771854546
 20
293.0472972972973
 30
-100.7611630051097
 70
   192
  0
VERTEX
  5
34C
  8
0
 10
356.5439584746422
 20
293.047297297297
 30
-97.37439313796463
 70
   192
  0
VERTEX
  5
34D
  8
0
 10
356.5439584786322
 20
293.0472998255858
 30
-97.37439325699734
 70
   192
  0
VERTEX
  5
34E
  8
0
 10
356.657987483427
 20
364.1698496032521
 30
-96.79280199153584
 70
   192
  0
VERTEX
  5
34F
  8
0
 10
244.6808852790383
 20
319.1808852790383
 30
-100.7611629726123
 70
   192
  0
VERTEX
  5
350
  8
0
 10
218.547297297297
 20
330.005771854546
 30
-100.7611629726123
 70
   192
  0
VERTEX
  5
351
  8
0
 10
357.0057184059965
 20
435.5279541776971
 30
-95.34049720381914
 70
   192
  0
VERTEX
  5
352
  8
0
 10
282.3791062427592
 20
517.5241141999568
 30
-94.17731363767727
 70
   192
  0
VERTEX
  5
353
  8
0
 10
357.523437585586
 20
508.110041388539
 30
-93.4169700946186
 70
   192
  0
VERTEX
  5
354
  8
0
 10
347.881505847959
 20
517.775662039078
 30
-93.30875006310059
 70
   192
  0
VERTEX
  5
355
  8
0
 10
356.2483889629888
 20
512.954797349411
 30
-93.30288741657627
 70
   192
  0
VERTEX
  5
356
  8
0
 10
352.7369050582308
 20
516.4774764406419
 30
-93.26376675402231
 70
   192
  0
VERTEX
  5
357
  8
0
 10
218.0225067381865
 20
517.4830866639928
 30
-94.47695948931295
 70
   192
  0
VERTEX
  5
358
  8
0
 10
153.066251604273
 20
517.5613160592441
 30
-94.1608098541096
 70
   192
  0
VERTEX
  5
359
  8
0
 10
153.805325225608
 20
440.8035027891721
 30
-96.59267658716328
 70
   192
  0
VERTEX
  5
35A
  8
0
 10
154.3888250521685
 20
365.7166492178903
 30
-98.75063762560055
 70
   192
  0
VERTEX
  5
35B
  8
0
 10
192.4137093155557
 20
319.1808852790382
 30
-100.7611629726123
 70
   192
  0
VERTEX
  5
35C
  8
0
 10
154.676516560387
 20
293.047297297297
 30
-99.85907050837612
 70
   192
  0
VERTEX
  5
35D
  8
0
 10
181.5888227411363
 20
293.047297297297
 30
-100.7611629726488
 70
   192
  0
VERTEX
  5
35E
  8
0
 10
0.0
 20
0.0
 30
0.0
 70
   128
 71
     1
 72
     2
 73
     3
  0
VERTEX
  5
35F
  8
0
 10
0.0
 20
0.0
 30
0.0
 70
   128
 71
     4
 72
     5
 73
     1
  0
VERTEX
  5
360
  8
0
 10
0.0
 20
0.0
 30
0.0
 70
   128
 71
     3
 72
     4
 73
     1
  0
VERTEX
  5
361
  8
0
 10
0.0
 20
0.0
 30
0.0
 70
   128
 71
     6
 72
     5
 73
     7
  0
VERTEX
  5
362
  8
0
 10
0.0
 20
0.0
 30
0.0
 70
   128
 71
     8
 72
     6
 73
     7
  0
VERTEX
  5
363
  8
0
 10
0.0
 20
0.0
 30
0.0
 70
   128
 71
     9
 72
    10
 73
     8
  0
VERTEX
  5
364
  8
0
 10
0.0
 20
0.0
 30
0.0
 70
   128
 71
     7
 72
     9
 73
     8
  0
VERTEX
  5
365
  8
0
 10
0.0
 20
0.0
 30
0.0
 70
   128
 71
    11
 72
    12
 73
    10
  0
VERTEX
  5
366
  8
0
 10
0.0
 20
0.0
 30
0.0
 70
   128
 71
     9
 72
    11
 73
    10
  0
VERTEX
  5
367
  8
0
 10
0.0
 20
0.0
 30
0.0
 70
   128
 71
    13
 72
    14
 73
    15
  0
VERTEX
  5
368
  8
0
 10
0.0
 20
0.0
 30
0.0
 70
   128
 71
    16
 72
    17
 73
     6
  0
VERTEX
  5
369
  8
0
 10
0.0
 20
0.0
 30
0.0
 70
   128
 71
    15
 72
    16
 73
     6
  0
VERTEX
  5
36A
  8
0
 10
0.0
 20
0.0
 30
0.0
 70
   128
 71
    18
 72
    19
 73
    17
  0
VERTEX
  5
36B
  8
0
 10
0.0
 20
0.0
 30
0.0
 70
   128
 71
     7
 72
     5
 73
     4
  0
VERTEX
  5
36C
  8
0
 10
0.0
 20
0.0
 30
0.0
 70
   128
 71
    15
 72
     6
 73
     8
  0
VERTEX
  5
36D
  8
0
 10
0.0
 20
0.0
 30
0.0
 70
   128
 71
    13
 72
    15
 73
     8
  0
VERTEX
  5
36E
  8
0
 10
0.0
 20
0.0
 30
0.0
 70
   128
 71
    18
 72
    17
 73
    16
  0
SEQEND
  5
99F
  8
0
  0
POLYLINE
  5
36F
  8
0
 66
     1
 10
0.0
 20
0.0
 30
0.0
 70
    64
 71
    15
 72
    13
  0
VERTEX
  5
370
  8
0
 10
153.066251604273
 20
517.5613160592443
 30
-94.16080985410954
 70
   192
  0
VERTEX
  5
371
  8
0
 10
149.0353469416727
 20
517.4903752277185
 30
-93.27268348045416
 70
   192
  0
VERTEX
  5
372
  8
0
 10
145.7073741026671
 20
517.3767154850007
 30
-90.83266878749447
 70
   192
  0
VERTEX
  5
373
  8
0
 10
143.6494860007014
 20
517.239706717007
 30
-87.25659291953336
 70
   192
  0
VERTEX
  5
374
  8
0
 10
145.1222578078201
 20
367.7999498224938
 30
-91.78931846431922
 70
   192
  0
VERTEX
  5
375
  8
0
 10
145.1222783676695
 20
218.2971032175015
 30
-91.78938174103062
 70
   192
  0
VERTEX
  5
376
  8
0
 10
143.649486000701
 20
68.85488787758801
 30
-87.2565929195335
 70
   192
  0
VERTEX
  5
377
  8
0
 10
145.7073741026663
 20
68.71787910959436
 30
-90.83266878749461
 70
   192
  0
VERTEX
  5
378
  8
0
 10
149.0353469416718
 20
68.60421936687646
 30
-93.27268348045419
 70
   192
  0
VERTEX
  5
379
  8
0
 10
153.066251604272
 20
68.5332785353506
 30
-94.16080985410954
 70
   192
  0
VERTEX
  5
37A
  8
0
 10
153.8059667247759
 20
145.2923203654141
 30
-96.59271714000565
 70
   192
  0
VERTEX
  5
37B
  8
0
 10
154.3893190329171
 20
220.3762154171143
 30
-98.75060512374522
 70
   192
  0
VERTEX
  5
37C
  8
0
 10
154.6765165585078
 20
293.0472973012962
 30
-99.85907056443783
 70
   192
  0
VERTEX
  5
37D
  8
0
 10
154.3888250521685
 20
365.7166492178903
 30
-98.75063762560055
 70
   192
  0
VERTEX
  5
37E
  8
0
 10
153.805325225608
 20
440.8035027891721
 30
-96.59267658716328
 70
   192
  0
VERTEX
  5
37F
  8
0
 10
0.0
 20
0.0
 30
0.0
 70
   128
 71
     6
 72
     7
 73
     8
  0
VERTEX
  5
380
  8
0
 10
0.0
 20
0.0
 30
0.0
 70
   128
 71
     9
 72
    11
 73
     6
  0
VERTEX
  5
381
  8
0
 10
0.0
 20
0.0
 30
0.0
 70
   128
 71
     8
 72
     9
 73
     6
  0
VERTEX
  5
382
  8
0
 10
0.0
 20
0.0
 30
0.0
 70
   128
 71
     9
 72
    10
 73
    11
  0
VERTEX
  5
383
  8
0
 10
0.0
 20
0.0
 30
0.0
 70
   128
 71
    11
 72
    12
 73
     6
  0
VERTEX
  5
384
  8
0
 10
0.0
 20
0.0
 30
0.0
 70
   128
 71
    12
 72
    13
 73
     6
  0
VERTEX
  5
385
  8
0
 10
0.0
 20
0.0
 30
0.0
 70
   128
 71
    14
 72
     5
 73
     6
  0
VERTEX
  5
386
  8
0
 10
0.0
 20
0.0
 30
0.0
 70
   128
 71
    13
 72
    14
 73
     6
  0
VERTEX
  5
387
  8
0
 10
0.0
 20
0.0
 30
0.0
 70
   128
 71
    14
 72
    15
 73
     5
  0
VERTEX
  5
388
  8
0
 10
0.0
 20
0.0
 30
0.0
 70
   128
 71
    15
 72
     1
 73
     2
  0
VERTEX
  5
389
  8
0
 10
0.0
 20
0.0
 30
0.0
 70
   128
 71
     3
 72
     5
 73
    15
  0
VERTEX
  5
38A
  8
0
 10
0.0
 20
0.0
 30
0.0
 70
   128
 71
     2
 72
     3
 73
    15
  0
VERTEX
  5
38B
  8
0
 10
0.0
 20
0.0
 30
0.0
 70
   128
 71
     3
 72
     4
 73
     5
  0
SEQEND
  5
9A0
  8
0
  0
POLYLINE
  5
38C
  8
0
 66
     1
 10
0.0
 20
0.0
 30
0.0
 70
    64
 71
     8
 72
     6
  0
VERTEX
  5
38D
  8
0
 10
27.93610602948523
 20
507.547297297298
 30
-9.82709091528517
 70
   192
  0
VERTEX
  5
38E
  8
0
 10
27.26328966468208
 20
507.547297297298
 30
-9.33826121271768
 70
   192
  0
VERTEX
  5
38F
  8
0
 10
27.26328966468227
 20
78.5472972972974
 30
-9.338261212717676
 70
   192
  0
VERTEX
  5
390
  8
0
 10
27.93610602948543
 20
78.5472972972974
 30
-9.82709091528517
 70
   192
  0
VERTEX
  5
391
  8
0
 10
26.84746628304659
 20
507.547297297298
 30
-8.61803398874987
 70
   192
  0
VERTEX
  5
392
  8
0
 10
26.84746628304678
 20
78.5472972972974
 30
-8.618033988749863
 70
   192
  0
VERTEX
  5
393
  8
0
 10
28.74957931563684
 20
507.547297297298
 30
-10.0
 70
   192
  0
VERTEX
  5
394
  8
0
 10
28.749579315637
 20
78.5472972972974
 30
-10.0
 70
   192
  0
VERTEX
  5
395
  8
0
 10
0.0
 20
0.0
 30
0.0
 70
   128
 71
     1
 72
     2
 73
    -3
  0
VERTEX
  5
396
  8
0
 10
0.0
 20
0.0
 30
0.0
 70
   128
 71
     4
 72
    -1
 73
     3
  0
VERTEX
  5
397
  8
0
 10
0.0
 20
0.0
 30
0.0
 70
   128
 71
     2
 72
     5
 73
    -6
  0
VERTEX
  5
398
  8
0
 10
0.0
 20
0.0
 30
0.0
 70
   128
 71
     3
 72
    -2
 73
     6
  0
VERTEX
  5
399
  8
0
 10
0.0
 20
0.0
 30
0.0
 70
   128
 71
     7
 72
     1
 73
    -4
  0
VERTEX
  5
39A
  8
0
 10
0.0
 20
0.0
 30
0.0
 70
   128
 71
     8
 72
    -7
 73
     4
  0
SEQEND
  5
9A1
  8
0
  0
POLYLINE
  5
39B
  8
0
 66
     1
 10
0.0
 20
0.0
 30
0.0
 70
    64
 71
     4
 72
     2
  0
VERTEX
  5
39C
  8
0
 10
18.5472972972973
 20
78.5472972972974
 30
-45.0
 70
   192
  0
VERTEX
  5
39D
  8
0
 10
18.5472972972973
 20
507.547297297297
 30
-45.0
 70
   192
  0
VERTEX
  5
39E
  8
0
 10
18.5472972972973
 20
507.547297297297
 30
-2.0
 70
   192
  0
VERTEX
  5
39F
  8
0
 10
18.5472972972973
 20
78.5472972972974
 30
-2.0
 70
   192
  0
VERTEX
  5
3A0
  8
0
 10
0.0
 20
0.0
 30
0.0
 70
   128
 71
     1
 72
     4
 73
    -3
  0
VERTEX
  5
3A1
  8
0
 10
0.0
 20
0.0
 30
0.0
 70
   128
 71
    -1
 72
     3
 73
     2
  0
SEQEND
  5
9A2
  8
0
  0
POLYLINE
  5
3A2
  8
0
 66
     1
 10
0.0
 20
0.0
 30
0.0
 70
    64
 71
    12
 72
    10
  0
VERTEX
  5
3A3
  8
0
 10
153.066251604272
 20
68.5332785353506
 30
-94.16080985410954
 70
   192
  0
VERTEX
  5
3A4
  8
0
 10
149.0353469416718
 20
68.60421936687646
 30
-93.27268348045419
 70
   192
  0
VERTEX
  5
3A5
  8
0
 10
145.7073741026663
 20
68.71787910959436
 30
-90.83266878749461
 70
   192
  0
VERTEX
  5
3A6
  8
0
 10
143.6494860007005
 20
68.85488787758804
 30
-87.25659291953365
 70
   192
  0
VERTEX
  5
3A7
  8
0
 10
143.3270777294043
 20
64.83601149978097
 30
-86.264322290716
 70
   192
  0
VERTEX
  5
3A8
  8
0
 10
142.527487717367
 20
61.61973082661072
 30
-83.80343727417971
 70
   192
  0
VERTEX
  5
3A9
  8
0
 10
141.398826112399
 20
59.65858823768
 30
-80.3297740335253
 70
   192
  0
VERTEX
  5
3AA
  8
0
 10
142.9563747702674
 20
55.14763188635224
 30
-81.2893943641358
 70
   192
  0
VERTEX
  5
3AB
  8
0
 10
146.3984349240223
 20
51.70557173259735
 30
-81.28939436413582
 70
   192
  0
VERTEX
  5
3AC
  8
0
 10
150.90939127535
 20
50.14802307472836
 30
-80.32977403352528
 70
   192
  0
VERTEX
  5
3AD
  8
0
 10
152.025777815517
 20
54.2201885594656
 30
-87.44295398941486
 70
   192
  0
VERTEX
  5
3AE
  8
0
 10
152.7808694604057
 20
60.73488587163268
 30
-92.29987590824979
 70
   192
  0
VERTEX
  5
3AF
  8
0
 10
0.0
 20
0.0
 30
0.0
 70
   128
 71
     6
 72
     7
 73
     8
  0
VERTEX
  5
3B0
  8
0
 10
0.0
 20
0.0
 30
0.0
 70
   128
 71
     9
 72
    11
 73
     6
  0
VERTEX
  5
3B1
  8
0
 10
0.0
 20
0.0
 30
0.0
 70
   128
 71
     8
 72
     9
 73
     6
  0
VERTEX
  5
3B2
  8
0
 10
0.0
 20
0.0
 30
0.0
 70
   128
 71
     9
 72
    10
 73
    11
  0
VERTEX
  5
3B3
  8
0
 10
0.0
 20
0.0
 30
0.0
 70
   128
 71
    12
 72
     5
 73
     6
  0
VERTEX
  5
3B4
  8
0
 10
0.0
 20
0.0
 30
0.0
 70
   128
 71
    11
 72
    12
 73
     6
  0
VERTEX
  5
3B5
  8
0
 10
0.0
 20
0.0
 30
0.0
 70
   128
 71
    12
 72
     1
 73
     2
  0
VERTEX
  5
3B6
  8
0
 10
0.0
 20
0.0
 30
0.0
 70
   128
 71
     3
 72
     5
 73
    12
  0
VERTEX
  5
3B7
  8
0
 10
0.0
 20
0.0
 30
0.0
 70
   128
 71
     2
 72
     3
 73
    12
  0
VERTEX
  5
3B8
  8
0
 10
0.0
 20
0.0
 30
0.0
 70
   128
 71
     3
 72
     4
 73
     5
  0
SEQEND
  5
9A3
  8
0
  0
POLYLINE
  5
3B9
  8
0
 66
     1
 10
0.0
 20
0.0
 30
0.0
 70
    64
 71
    12
 72
    10
  0
VERTEX
  5
3BA
  8
0
 10
78.5472972972974
 20
27.26328966468231
 30
-9.338261212717715
 70
   192
  0
VERTEX
  5
3BB
  8
0
 10
78.5472972972974
 20
27.9361060294855
 30
-9.8270909152852
 70
   192
  0
VERTEX
  5
3BC
  8
0
 10
27.26328966468227
 20
78.5472972972974
 30
-9.338261212717676
 70
   192
  0
VERTEX
  5
3BD
  8
0
 10
27.93610602948543
 20
78.5472972972974
 30
-9.82709091528517
 70
   192
  0
VERTEX
  5
3BE
  8
0
 10
78.5472972972974
 20
28.7495793156371
 30
-10.0
 70
   192
  0
VERTEX
  5
3BF
  8
0
 10
53.64843830646724
 20
35.42120847468649
 30
-10.0
 70
   192
  0
VERTEX
  5
3C0
  8
0
 10
35.42120847468644
 20
53.64843830646727
 30
-10.0
 70
   192
  0
VERTEX
  5
3C1
  8
0
 10
28.7495793156371
 20
78.54729729729739
 30
-10.0
 70
   192
  0
VERTEX
  5
3C2
  8
0
 10
78.5472972972974
 20
26.84746628304679
 30
-8.618033988749891
 70
   192
  0
VERTEX
  5
3C3
  8
0
 10
52.6973817901721
 20
33.77393026759383
 30
-8.61803398874989
 70
   192
  0
VERTEX
  5
3C4
  8
0
 10
26.84746628304678
 20
78.5472972972974
 30
-8.618033988749863
 70
   192
  0
VERTEX
  5
3C5
  8
0
 10
33.77393026759378
 20
52.69738179017212
 30
-8.61803398874989
 70
   192
  0
VERTEX
  5
3C6
  8
0
 10
0.0
 20
0.0
 30
0.0
 70
   128
 71
     1
 72
    -2
 73
     3
  0
VERTEX
  5
3C7
  8
0
 10
0.0
 20
0.0
 30
0.0
 70
   128
 71
    -3
 72
     2
 73
     4
  0
VERTEX
  5
3C8
  8
0
 10
0.0
 20
0.0
 30
0.0
 70
   128
 71
     2
 72
     5
 73
     6
  0
VERTEX
  5
3C9
  8
0
 10
0.0
 20
0.0
 30
0.0
 70
   128
 71
     6
 72
     7
 73
     2
  0
VERTEX
  5
3CA
  8
0
 10
0.0
 20
0.0
 30
0.0
 70
   128
 71
     2
 72
     7
 73
     8
  0
VERTEX
  5
3CB
  8
0
 10
0.0
 20
0.0
 30
0.0
 70
   128
 71
     4
 72
     2
 73
     8
  0
VERTEX
  5
3CC
  8
0
 10
0.0
 20
0.0
 30
0.0
 70
   128
 71
     9
 72
     1
 73
    10
  0
VERTEX
  5
3CD
  8
0
 10
0.0
 20
0.0
 30
0.0
 70
   128
 71
     3
 72
    11
 73
    12
  0
VERTEX
  5
3CE
  8
0
 10
0.0
 20
0.0
 30
0.0
 70
   128
 71
    10
 72
     1
 73
    -3
  0
VERTEX
  5
3CF
  8
0
 10
0.0
 20
0.0
 30
0.0
 70
   128
 71
    12
 72
   -10
 73
     3
  0
SEQEND
  5
9A4
  8
0
  0
POLYLINE
  5
3D0
  8
0
 66
     1
 10
0.0
 20
0.0
 30
0.0
 70
    64
 71
    32
 72
    32
  0
VERTEX
  5
3D1
  8
0
 10
405.547297297297
 20
78.5472972972975
 30
0.0
 70
   192
  0
VERTEX
  5
3D2
  8
0
 10
397.7767707167944
 20
49.54729729729749
 30
0.0
 70
   192
  0
VERTEX
  5
3D3
  8
0
 10
376.547297297297
 20
28.31782387780007
 30
0.0
 70
   192
  0
VERTEX
  5
3D4
  8
0
 10
347.547297297297
 20
20.54729729729748
 30
0.0
 70
   192
  0
VERTEX
  5
3D5
  8
0
 10
78.5472972972973
 20
20.5472972972974
 30
0.0
 70
   192
  0
VERTEX
  5
3D6
  8
0
 10
49.5472972972973
 20
28.31782387779997
 30
0.0
 70
   192
  0
VERTEX
  5
3D7
  8
0
 10
28.31782387779986
 20
49.5472972972974
 30
0.0
 70
   192
  0
VERTEX
  5
3D8
  8
0
 10
20.5472972972973
 20
78.5472972972974
 30
0.0
 70
   192
  0
VERTEX
  5
3D9
  8
0
 10
20.54729729729731
 20
507.547297297297
 30
0.0
 70
   192
  0
VERTEX
  5
3DA
  8
0
 10
28.31782387779988
 20
536.547297297297
 30
0.0
 70
   192
  0
VERTEX
  5
3DB
  8
0
 10
49.5472972972973
 20
557.7767707167944
 30
0.0
 70
   192
  0
VERTEX
  5
3DC
  8
0
 10
78.54729729729729
 20
565.5472972972971
 30
0.0
 70
   192
  0
VERTEX
  5
3DD
  8
0
 10
347.547297297297
 20
565.547297297298
 30
0.0
 70
   192
  0
VERTEX
  5
3DE
  8
0
 10
376.5472972972973
 20
557.7767707167952
 30
0.0
 70
   192
  0
VERTEX
  5
3DF
  8
0
 10
397.7767707167948
 20
536.5472972972974
 30
0.0
 70
   192
  0
VERTEX
  5
3E0
  8
0
 10
405.547297297297
 20
507.547297297297
 30
0.0
 70
   192
  0
VERTEX
  5
3E1
  8
0
 10
22.59421224128659
 20
78.54729729729739
 30
0.0
 70
   192
  0
VERTEX
  5
3E2
  8
0
 10
30.09050421868061
 20
50.57075476929201
 30
0.0
 70
   192
  0
VERTEX
  5
3E3
  8
0
 10
50.57075476929202
 20
30.09050421868066
 30
0.0
 70
   192
  0
VERTEX
  5
3E4
  8
0
 10
78.5472972972974
 20
22.5942122412866
 30
0.0
 70
   192
  0
VERTEX
  5
3E5
  8
0
 10
347.547297297297
 20
22.5942122412868
 30
0.0
 70
   192
  0
VERTEX
  5
3E6
  8
0
 10
375.5238398253024
 20
30.0905042186808
 30
0.0
 70
   192
  0
VERTEX
  5
3E7
  8
0
 10
396.0040903759137
 20
50.57075476929217
 30
0.0
 70
   192
  0
VERTEX
  5
3E8
  8
0
 10
403.500382353308
 20
78.5472972972975
 30
0.0
 70
   192
  0
VERTEX
  5
3E9
  8
0
 10
403.5003823533077
 20
507.547297297298
 30
0.0
 70
   192
  0
VERTEX
  5
3EA
  8
0
 10
396.0040903759137
 20
535.5238398253033
 30
0.0
 70
   192
  0
VERTEX
  5
3EB
  8
0
 10
375.5238398253023
 20
556.0040903759146
 30
0.0
 70
   192
  0
VERTEX
  5
3EC
  8
0
 10
347.547297297297
 20
563.500382353308
 30
0.0
 70
   192
  0
VERTEX
  5
3ED
  8
0
 10
78.54729729729709
 20
563.5003823533079
 30
0.0
 70
   192
  0
VERTEX
  5
3EE
  8
0
 10
50.57075476929198
 20
556.0040903759141
 30
0.0
 70
   192
  0
VERTEX
  5
3EF
  8
0
 10
30.09050421868065
 20
535.523839825303
 30
0.0
 70
   192
  0
VERTEX
  5
3F0
  8
0
 10
22.5942122412864
 20
507.547297297298
 30
0.0
 70
   192
  0
VERTEX
  5
3F1
  8
0
 10
0.0
 20
0.0
 30
0.0
 70
   128
 71
    18
 72
   -17
 73
    -8
  0
VERTEX
  5
3F2
  8
0
 10
0.0
 20
0.0
 30
0.0
 70
   128
 71
   -18
 72
     8
 73
    -7
  0
VERTEX
  5
3F3
  8
0
 10
0.0
 20
0.0
 30
0.0
 70
   128
 71
     7
 72
    -6
 73
   -19
  0
VERTEX
  5
3F4
  8
0
 10
0.0
 20
0.0
 30
0.0
 70
   128
 71
    -7
 72
    19
 73
   -18
  0
VERTEX
  5
3F5
  8
0
 10
0.0
 20
0.0
 30
0.0
 70
   128
 71
     6
 72
    -5
 73
   -20
  0
VERTEX
  5
3F6
  8
0
 10
0.0
 20
0.0
 30
0.0
 70
   128
 71
    -6
 72
    20
 73
   -19
  0
VERTEX
  5
3F7
  8
0
 10
0.0
 20
0.0
 30
0.0
 70
   128
 71
     5
 72
    -4
 73
   -21
  0
VERTEX
  5
3F8
  8
0
 10
0.0
 20
0.0
 30
0.0
 70
   128
 71
    -5
 72
    21
 73
   -20
  0
VERTEX
  5
3F9
  8
0
 10
0.0
 20
0.0
 30
0.0
 70
   128
 71
     4
 72
    -3
 73
   -22
  0
VERTEX
  5
3FA
  8
0
 10
0.0
 20
0.0
 30
0.0
 70
   128
 71
    -4
 72
    22
 73
   -21
  0
VERTEX
  5
3FB
  8
0
 10
0.0
 20
0.0
 30
0.0
 70
   128
 71
     3
 72
    -2
 73
   -23
  0
VERTEX
  5
3FC
  8
0
 10
0.0
 20
0.0
 30
0.0
 70
   128
 71
    -3
 72
    23
 73
   -22
  0
VERTEX
  5
3FD
  8
0
 10
0.0
 20
0.0
 30
0.0
 70
   128
 71
     2
 72
    -1
 73
   -24
  0
VERTEX
  5
3FE
  8
0
 10
0.0
 20
0.0
 30
0.0
 70
   128
 71
    -2
 72
    24
 73
   -23
  0
VERTEX
  5
3FF
  8
0
 10
0.0
 20
0.0
 30
0.0
 70
   128
 71
     1
 72
   -16
 73
   -25
  0
VERTEX
  5
400
  8
0
 10
0.0
 20
0.0
 30
0.0
 70
   128
 71
    -1
 72
    25
 73
   -24
  0
VERTEX
  5
401
  8
0
 10
0.0
 20
0.0
 30
0.0
 70
   128
 71
    16
 72
   -15
 73
   -26
  0
VERTEX
  5
402
  8
0
 10
0.0
 20
0.0
 30
0.0
 70
   128
 71
   -16
 72
    26
 73
   -25
  0
VERTEX
  5
403
  8
0
 10
0.0
 20
0.0
 30
0.0
 70
   128
 71
    15
 72
   -14
 73
   -27
  0
VERTEX
  5
404
  8
0
 10
0.0
 20
0.0
 30
0.0
 70
   128
 71
   -15
 72
    27
 73
   -26
  0
VERTEX
  5
405
  8
0
 10
0.0
 20
0.0
 30
0.0
 70
   128
 71
    14
 72
   -13
 73
   -28
  0
VERTEX
  5
406
  8
0
 10
0.0
 20
0.0
 30
0.0
 70
   128
 71
   -14
 72
    28
 73
   -27
  0
VERTEX
  5
407
  8
0
 10
0.0
 20
0.0
 30
0.0
 70
   128
 71
    13
 72
   -12
 73
   -29
  0
VERTEX
  5
408
  8
0
 10
0.0
 20
0.0
 30
0.0
 70
   128
 71
   -13
 72
    29
 73
   -28
  0
VERTEX
  5
409
  8
0
 10
0.0
 20
0.0
 30
0.0
 70
   128
 71
    12
 72
   -11
 73
   -30
  0
VERTEX
  5
40A
  8
0
 10
0.0
 20
0.0
 30
0.0
 70
   128
 71
   -12
 72
    30
 73
   -29
  0
VERTEX
  5
40B
  8
0
 10
0.0
 20
0.0
 30
0.0
 70
   128
 71
    11
 72
   -10
 73
   -31
  0
VERTEX
  5
40C
  8
0
 10
0.0
 20
0.0
 30
0.0
 70
   128
 71
   -11
 72
    31
 73
   -30
  0
VERTEX
  5
40D
  8
0
 10
0.0
 20
0.0
 30
0.0
 70
   128
 71
    10
 72
    -9
 73
   -32
  0
VERTEX
  5
40E
  8
0
 10
0.0
 20
0.0
 30
0.0
 70
   128
 71
   -10
 72
    32
 73
   -31
  0
VERTEX
  5
40F
  8
0
 10
0.0
 20
0.0
 30
0.0
 70
   128
 71
     9
 72
    -8
 73
   -17
  0
VERTEX
  5
410
  8
0
 10
0.0
 20
0.0
 30
0.0
 70
   128
 71
    -9
 72
    17
 73
   -32
  0
SEQEND
  5
9A5
  8
0
  0
POLYLINE
  5
411
  8
0
 66
     1
 10
0.0
 20
0.0
 30
0.0
 70
    64
 71
     8
 72
     6
  0
VERTEX
  5
412
  8
0
 10
195.8898658510845
 20
293.047297297297
 30
-127.761163037528
 70
   192
  0
VERTEX
  5
413
  8
0
 10
195.8898658510845
 20
293.047297297297
 30
-112.761163037528
 70
   192
  0
VERTEX
  5
414
  8
0
 10
207.2181210529658
 20
273.4259372874753
 30
-112.761163037528
 70
   192
  0
VERTEX
  5
415
  8
0
 10
207.2181210529657
 20
273.4259372874753
 30
-127.761163037528
 70
   192
  0
VERTEX
  5
416
  8
0
 10
241.20472874351
 20
293.047297297297
 30
-112.761163037528
 70
   192
  0
VERTEX
  5
417
  8
0
 10
241.20472874351
 20
293.047297297297
 30
-127.761163037528
 70
   192
  0
VERTEX
  5
418
  8
0
 10
229.8764735414615
 20
273.4259372873584
 30
-127.761163037528
 70
   192
  0
VERTEX
  5
419
  8
0
 10
229.8764735414615
 20
273.4259372873584
 30
-112.761163037528
 70
   192
  0
VERTEX
  5
41A
  8
0
 10
0.0
 20
0.0
 30
0.0
 70
   128
 71
     1
 72
     2
 73
    -3
  0
VERTEX
  5
41B
  8
0
 10
0.0
 20
0.0
 30
0.0
 70
   128
 71
     4
 72
    -1
 73
     3
  0
VERTEX
  5
41C
  8
0
 10
0.0
 20
0.0
 30
0.0
 70
   128
 71
     5
 72
     6
 73
    -7
  0
VERTEX
  5
41D
  8
0
 10
0.0
 20
0.0
 30
0.0
 70
   128
 71
     8
 72
    -5
 73
     7
  0
VERTEX
  5
41E
  8
0
 10
0.0
 20
0.0
 30
0.0
 70
   128
 71
     7
 72
    -4
 73
     8
  0
VERTEX
  5
41F
  8
0
 10
0.0
 20
0.0
 30
0.0
 70
   128
 71
    -8
 72
     4
 73
     3
  0
SEQEND
  5
9A6
  8
0
  0
POLYLINE
  5
420
  8
0
 66
     1
 10
0.0
 20
0.0
 30
0.0
 70
    64
 71
     8
 72
     6
  0
VERTEX
  5
421
  8
0
 10
78.5472972972974
 20
26.8474662830468
 30
-8.618033988749911
 70
   192
  0
VERTEX
  5
422
  8
0
 10
127.6088344836689
 20
26.84746628304689
 30
-8.618033988749916
 70
   192
  0
VERTEX
  5
423
  8
0
 10
150.90939127535
 20
50.1480230747284
 30
-80.3297740335253
 70
   192
  0
VERTEX
  5
424
  8
0
 10
216.4577603180789
 20
50.25743025879375
 30
-80.6664947227719
 70
   192
  0
VERTEX
  5
425
  8
0
 10
282.0036464950601
 20
50.16074685493985
 30
-80.3689338024124
 70
   192
  0
VERTEX
  5
426
  8
0
 10
347.547297297297
 20
49.87851588545519
 30
-79.50031619394844
 70
   192
  0
VERTEX
  5
427
  8
0
 10
347.547297297297
 20
24.4963252738771
 30
-1.38196601125011
 70
   192
  0
VERTEX
  5
428
  8
0
 10
78.5472972972974
 20
24.49632527387689
 30
-1.381966011250113
 70
   192
  0
VERTEX
  5
429
  8
0
 10
0.0
 20
0.0
 30
0.0
 70
   128
 71
     2
 72
     1
 73
    -8
  0
VERTEX
  5
42A
  8
0
 10
0.0
 20
0.0
 30
0.0
 70
   128
 71
    -2
 72
     8
 73
    -7
  0
VERTEX
  5
42B
  8
0
 10
0.0
 20
0.0
 30
0.0
 70
   128
 71
    -7
 72
     4
 73
    -3
  0
VERTEX
  5
42C
  8
0
 10
0.0
 20
0.0
 30
0.0
 70
   128
 71
    -7
 72
     3
 73
    -2
  0
VERTEX
  5
42D
  8
0
 10
0.0
 20
0.0
 30
0.0
 70
   128
 71
    -7
 72
     5
 73
    -4
  0
VERTEX
  5
42E
  8
0
 10
0.0
 20
0.0
 30
0.0
 70
   128
 71
     7
 72
     6
 73
    -5
  0
SEQEND
  5
9A7
  8
0
  0
POLYLINE
  5
42F
  8
0
 66
     1
 10
0.0
 20
0.0
 30
0.0
 70
    64
 71
     4
 72
     2
  0
VERTEX
  5
430
  8
0
 10
78.5472972972973
 20
567.547297297297
 30
-45.0
 70
   192
  0
VERTEX
  5
431
  8
0
 10
347.547297297297
 20
567.5472972972979
 30
-45.0
 70
   192
  0
VERTEX
  5
432
  8
0
 10
347.547297297297
 20
567.5472972972973
 30
-2.0
 70
   192
  0
VERTEX
  5
433
  8
0
 10
78.5472972972973
 20
567.547297297297
 30
-2.0
 70
   192
  0
VERTEX
  5
434
  8
0
 10
0.0
 20
0.0
 30
0.0
 70
   128
 71
     1
 72
     4
 73
    -3
  0
VERTEX
  5
435
  8
0
 10
0.0
 20
0.0
 30
0.0
 70
   128
 71
    -1
 72
     3
 73
     2
  0
SEQEND
  5
9A8
  8
0
  0
POLYLINE
  5
436
  8
0
 66
     1
 10
0.0
 20
0.0
 30
0.0
 70
    64
 71
     8
 72
     6
  0
VERTEX
  5
437
  8
0
 10
361.3186183582637
 20
53.38758194296306
 30
-79.45920844212186
 70
   192
  0
VERTEX
  5
438
  8
0
 10
347.547297297297
 20
49.87851588545519
 30
-79.50031619394844
 70
   192
  0
VERTEX
  5
439
  8
0
 10
347.547297297297
 20
24.49632527387709
 30
-1.381966011250113
 70
   192
  0
VERTEX
  5
43A
  8
0
 10
374.5727833090072
 20
31.73778242577345
 30
-1.3819660112501
 70
   192
  0
VERTEX
  5
43B
  8
0
 10
372.0434372810658
 20
63.65010450871848
 30
-79.49528178596543
 70
   192
  0
VERTEX
  5
43C
  8
0
 10
394.356812168821
 20
51.52181128558728
 30
-1.3819660112501
 70
   192
  0
VERTEX
  5
43D
  8
0
 10
376.1809158893722
 20
78.5472972972975
 30
-79.60853622546647
 70
   192
  0
VERTEX
  5
43E
  8
0
 10
401.5982693207174
 20
78.54729729729749
 30
-1.3819660112501
 70
   192
  0
VERTEX
  5
43F
  8
0
 10
0.0
 20
0.0
 30
0.0
 70
   128
 71
     1
 72
     2
 73
     3
  0
VERTEX
  5
440
  8
0
 10
0.0
 20
0.0
 30
0.0
 70
   128
 71
     4
 72
     1
 73
     3
  0
VERTEX
  5
441
  8
0
 10
0.0
 20
0.0
 30
0.0
 70
   128
 71
     5
 72
     1
 73
     4
  0
VERTEX
  5
442
  8
0
 10
0.0
 20
0.0
 30
0.0
 70
   128
 71
     6
 72
     5
 73
     4
  0
VERTEX
  5
443
  8
0
 10
0.0
 20
0.0
 30
0.0
 70
   128
 71
     7
 72
     5
 73
     6
  0
VERTEX
  5
444
  8
0
 10
0.0
 20
0.0
 30
0.0
 70
   128
 71
     8
 72
     7
 73
     6
  0
SEQEND
  5
9A9
  8
0
  0
POLYLINE
  5
445
  8
0
 66
     1
 10
0.0
 20
0.0
 30
0.0
 70
    64
 71
    12
 72
    10
  0
VERTEX
  5
446
  8
0
 10
347.881505847959
 20
68.3189325555165
 30
-93.30875006310059
 70
   192
  0
VERTEX
  5
447
  8
0
 10
282.3778068790687
 20
68.57098154302966
 30
-94.17734171022684
 70
   192
  0
VERTEX
  5
448
  8
0
 10
218.0195462720619
 20
68.61132844536385
 30
-94.47696339551882
 70
   192
  0
VERTEX
  5
449
  8
0
 10
153.066251604272
 20
68.5332785353504
 30
-94.16080985410949
 70
   192
  0
VERTEX
  5
44A
  8
0
 10
152.7808694604057
 20
60.73488587163268
 30
-92.29987590824979
 70
   192
  0
VERTEX
  5
44B
  8
0
 10
152.025777815517
 20
54.2201885594656
 30
-87.44295398941486
 70
   192
  0
VERTEX
  5
44C
  8
0
 10
150.90939127535
 20
50.1480230747284
 30
-80.3297740335253
 70
   192
  0
VERTEX
  5
44D
  8
0
 10
216.4577603180789
 20
50.25743025879375
 30
-80.6664947227719
 70
   192
  0
VERTEX
  5
44E
  8
0
 10
282.0036464950601
 20
50.16074685493985
 30
-80.3689338024124
 70
   192
  0
VERTEX
  5
44F
  8
0
 10
347.547297297297
 20
49.8785158854552
 30
-79.50031619394841
 70
   192
  0
VERTEX
  5
450
  8
0
 10
347.6885079011007
 20
53.90772049887845
 30
-86.55712943681931
 70
   192
  0
VERTEX
  5
451
  8
0
 10
347.8064000295517
 20
60.41258091149989
 30
-91.42805705428353
 70
   192
  0
VERTEX
  5
452
  8
0
 10
0.0
 20
0.0
 30
0.0
 70
   128
 71
     6
 72
     7
 73
     8
  0
VERTEX
  5
453
  8
0
 10
0.0
 20
0.0
 30
0.0
 70
   128
 71
     9
 72
    11
 73
     6
  0
VERTEX
  5
454
  8
0
 10
0.0
 20
0.0
 30
0.0
 70
   128
 71
     8
 72
     9
 73
     6
  0
VERTEX
  5
455
  8
0
 10
0.0
 20
0.0
 30
0.0
 70
   128
 71
     9
 72
    10
 73
    11
  0
VERTEX
  5
456
  8
0
 10
0.0
 20
0.0
 30
0.0
 70
   128
 71
    12
 72
     5
 73
     6
  0
VERTEX
  5
457
  8
0
 10
0.0
 20
0.0
 30
0.0
 70
   128
 71
    11
 72
    12
 73
     6
  0
VERTEX
  5
458
  8
0
 10
0.0
 20
0.0
 30
0.0
 70
   128
 71
    12
 72
     1
 73
     2
  0
VERTEX
  5
459
  8
0
 10
0.0
 20
0.0
 30
0.0
 70
   128
 71
     3
 72
     5
 73
    12
  0
VERTEX
  5
45A
  8
0
 10
0.0
 20
0.0
 30
0.0
 70
   128
 71
     2
 72
     3
 73
    12
  0
VERTEX
  5
45B
  8
0
 10
0.0
 20
0.0
 30
0.0
 70
   128
 71
     3
 72
     4
 73
     5
  0
SEQEND
  5
9AA
  8
0
  0
POLYLINE
  5
45C
  8
0
 66
     1
 10
0.0
 20
0.0
 30
0.0
 70
    64
 71
     6
 72
     4
  0
VERTEX
  5
45D
  8
0
 10
376.180915889372
 20
78.5472972972975
 30
-79.60853622546641
 70
   192
  0
VERTEX
  5
45E
  8
0
 10
375.0883796816979
 20
221.5204416743933
 30
-82.97101692559441
 70
   192
  0
VERTEX
  5
45F
  8
0
 10
375.088234522684
 20
364.5432769269328
 30
-82.97146367910196
 70
   192
  0
VERTEX
  5
460
  8
0
 10
376.1809158893722
 20
507.547297297298
 30
-79.60853622546655
 70
   192
  0
VERTEX
  5
461
  8
0
 10
401.598269320718
 20
507.547297297298
 30
-1.38196601125011
 70
   192
  0
VERTEX
  5
462
  8
0
 10
401.5982693207175
 20
78.5472972972975
 30
-1.381966011249937
 70
   192
  0
VERTEX
  5
463
  8
0
 10
0.0
 20
0.0
 30
0.0
 70
   128
 71
     2
 72
     1
 73
    -6
  0
VERTEX
  5
464
  8
0
 10
0.0
 20
0.0
 30
0.0
 70
   128
 71
     6
 72
    -5
 73
    -3
  0
VERTEX
  5
465
  8
0
 10
0.0
 20
0.0
 30
0.0
 70
   128
 71
    -6
 72
     3
 73
    -2
  0
VERTEX
  5
466
  8
0
 10
0.0
 20
0.0
 30
0.0
 70
   128
 71
     5
 72
     4
 73
    -3
  0
SEQEND
  5
9AB
  8
0
  0
POLYLINE
  5
467
  8
0
 66
     1
 10
0.0
 20
0.0
 30
0.0
 70
    64
 71
     8
 72
     6
  0
VERTEX
  5
468
  8
0
 10
122.406331870076
 20
28.08465130856604
 30
-9.886223169459932
 70
   192
  0
VERTEX
  5
469
  8
0
 10
78.5472972972974
 20
27.9361060294855
 30
-9.8270909152852
 70
   192
  0
VERTEX
  5
46A
  8
0
 10
78.5472972972974
 20
27.26328966468231
 30
-9.338261212717715
 70
   192
  0
VERTEX
  5
46B
  8
0
 10
124.6873828709756
 20
27.37492666962417
 30
-9.452664975756976
 70
   192
  0
VERTEX
  5
46C
  8
0
 10
78.5472972972974
 20
26.8474662830468
 30
-8.618033988749911
 70
   192
  0
VERTEX
  5
46D
  8
0
 10
127.608834483669
 20
26.84746628304683
 30
-8.618033988749911
 70
   192
  0
VERTEX
  5
46E
  8
0
 10
78.5472972972974
 20
28.74957931563718
 30
-10.0
 70
   192
  0
VERTEX
  5
46F
  8
0
 10
120.76568148097
 20
28.7495793156372
 30
-10.0
 70
   192
  0
VERTEX
  5
470
  8
0
 10
0.0
 20
0.0
 30
0.0
 70
   128
 71
     1
 72
     2
 73
     3
  0
VERTEX
  5
471
  8
0
 10
0.0
 20
0.0
 30
0.0
 70
   128
 71
     4
 72
     3
 73
     5
  0
VERTEX
  5
472
  8
0
 10
0.0
 20
0.0
 30
0.0
 70
   128
 71
     4
 72
     5
 73
     6
  0
VERTEX
  5
473
  8
0
 10
0.0
 20
0.0
 30
0.0
 70
   128
 71
     1
 72
     3
 73
     4
  0
VERTEX
  5
474
  8
0
 10
0.0
 20
0.0
 30
0.0
 70
   128
 71
     7
 72
     2
 73
     1
  0
VERTEX
  5
475
  8
0
 10
0.0
 20
0.0
 30
0.0
 70
   128
 71
     8
 72
     7
 73
     1
  0
SEQEND
  5
9AC
  8
0
  0
POLYLINE
  5
476
  8
0
 66
     1
 10
0.0
 20
0.0
 30
0.0
 70
    64
 71
    12
 72
    10
  0
VERTEX
  5
477
  8
0
 10
150.90939127535
 20
535.9465715198664
 30
-80.32977403352554
 70
   192
  0
VERTEX
  5
478
  8
0
 10
146.3984349240228
 20
534.3890228619972
 30
-81.28939436413586
 70
   192
  0
VERTEX
  5
479
  8
0
 10
142.9563747702682
 20
530.9469627082424
 30
-81.28939436413576
 70
   192
  0
VERTEX
  5
47A
  8
0
 10
141.3988261123995
 20
526.436006356915
 30
-80.32977403352525
 70
   192
  0
VERTEX
  5
47B
  8
0
 10
142.5288836868218
 20
524.4715071253394
 30
-83.80773362638547
 70
   192
  0
VERTEX
  5
47C
  8
0
 10
143.330507117667
 20
521.2419463791498
 30
-86.27487686251325
 70
   192
  0
VERTEX
  5
47D
  8
0
 10
143.649486000701
 20
517.239706717007
 30
-87.2565929195335
 70
   192
  0
VERTEX
  5
47E
  8
0
 10
145.7073741026671
 20
517.3767154850007
 30
-90.83266878749447
 70
   192
  0
VERTEX
  5
47F
  8
0
 10
149.0353469416727
 20
517.4903752277185
 30
-93.27268348045416
 70
   192
  0
VERTEX
  5
480
  8
0
 10
153.066251604273
 20
517.5613160592443
 30
-94.16080985410954
 70
   192
  0
VERTEX
  5
481
  8
0
 10
152.7822866911747
 20
525.340669082229
 30
-92.3087396328556
 70
   192
  0
VERTEX
  5
482
  8
0
 10
152.0276457541453
 20
531.863745557719
 30
-87.45484052188596
 70
   192
  0
VERTEX
  5
483
  8
0
 10
0.0
 20
0.0
 30
0.0
 70
   128
 71
     6
 72
     7
 73
     8
  0
VERTEX
  5
484
  8
0
 10
0.0
 20
0.0
 30
0.0
 70
   128
 71
     9
 72
    11
 73
     6
  0
VERTEX
  5
485
  8
0
 10
0.0
 20
0.0
 30
0.0
 70
   128
 71
     8
 72
     9
 73
     6
  0
VERTEX
  5
486
  8
0
 10
0.0
 20
0.0
 30
0.0
 70
   128
 71
     9
 72
    10
 73
    11
  0
VERTEX
  5
487
  8
0
 10
0.0
 20
0.0
 30
0.0
 70
   128
 71
    12
 72
     5
 73
     6
  0
VERTEX
  5
488
  8
0
 10
0.0
 20
0.0
 30
0.0
 70
   128
 71
    11
 72
    12
 73
     6
  0
VERTEX
  5
489
  8
0
 10
0.0
 20
0.0
 30
0.0
 70
   128
 71
    12
 72
     1
 73
     2
  0
VERTEX
  5
48A
  8
0
 10
0.0
 20
0.0
 30
0.0
 70
   128
 71
     3
 72
     5
 73
    12
  0
VERTEX
  5
48B
  8
0
 10
0.0
 20
0.0
 30
0.0
 70
   128
 71
     2
 72
     3
 73
    12
  0
VERTEX
  5
48C
  8
0
 10
0.0
 20
0.0
 30
0.0
 70
   128
 71
     3
 72
     4
 73
     5
  0
SEQEND
  5
9AD
  8
0
  0
POLYLINE
  5
48D
  8
0
 66
     1
 10
0.0
 20
0.0
 30
0.0
 70
    64
 71
     8
 72
     6
  0
VERTEX
  5
48E
  8
0
 10
48.5472972972973
 20
559.5088215243633
 30
-2.0
 70
   192
  0
VERTEX
  5
48F
  8
0
 10
48.54729729729731
 20
559.5088215243633
 30
-45.0
 70
   192
  0
VERTEX
  5
490
  8
0
 10
26.58577307023099
 20
537.547297297297
 30
-45.0
 70
   192
  0
VERTEX
  5
491
  8
0
 10
26.58577307023099
 20
537.547297297297
 30
-2.0
 70
   192
  0
VERTEX
  5
492
  8
0
 10
78.5472972972973
 20
567.547297297297
 30
-2.0
 70
   192
  0
VERTEX
  5
493
  8
0
 10
78.5472972972973
 20
567.547297297297
 30
-45.0
 70
   192
  0
VERTEX
  5
494
  8
0
 10
18.54729729729731
 20
507.547297297297
 30
-45.0
 70
   192
  0
VERTEX
  5
495
  8
0
 10
18.5472972972973
 20
507.547297297297
 30
-2.0
 70
   192
  0
VERTEX
  5
496
  8
0
 10
0.0
 20
0.0
 30
0.0
 70
   128
 71
     1
 72
     2
 73
    -3
  0
VERTEX
  5
497
  8
0
 10
0.0
 20
0.0
 30
0.0
 70
   128
 71
    -1
 72
     3
 73
     4
  0
VERTEX
  5
498
  8
0
 10
0.0
 20
0.0
 30
0.0
 70
   128
 71
     5
 72
     6
 73
    -2
  0
VERTEX
  5
499
  8
0
 10
0.0
 20
0.0
 30
0.0
 70
   128
 71
    -5
 72
     2
 73
     1
  0
VERTEX
  5
49A
  8
0
 10
0.0
 20
0.0
 30
0.0
 70
   128
 71
     4
 72
     3
 73
    -7
  0
VERTEX
  5
49B
  8
0
 10
0.0
 20
0.0
 30
0.0
 70
   128
 71
    -4
 72
     7
 73
     8
  0
SEQEND
  5
9AE
  8
0
  0
POLYLINE
  5
49C
  8
0
 66
     1
 10
0.0
 20
0.0
 30
0.0
 70
    64
 71
     8
 72
     6
  0
VERTEX
  5
49D
  8
0
 10
399.5088215243637
 20
537.5472972972974
 30
-2.0
 70
   192
  0
VERTEX
  5
49E
  8
0
 10
399.5088215243637
 20
537.5472972972974
 30
-45.0
 70
   192
  0
VERTEX
  5
49F
  8
0
 10
377.5472972972973
 20
559.5088215243642
 30
-45.0
 70
   192
  0
VERTEX
  5
4A0
  8
0
 10
377.5472972972973
 20
559.5088215243641
 30
-2.0
 70
   192
  0
VERTEX
  5
4A1
  8
0
 10
407.547297297297
 20
507.547297297297
 30
-2.0
 70
   192
  0
VERTEX
  5
4A2
  8
0
 10
407.547297297297
 20
507.547297297297
 30
-45.0
 70
   192
  0
VERTEX
  5
4A3
  8
0
 10
347.547297297297
 20
567.547297297298
 30
-45.0
 70
   192
  0
VERTEX
  5
4A4
  8
0
 10
347.547297297297
 20
567.5472972972979
 30
-2.0
 70
   192
  0
VERTEX
  5
4A5
  8
0
 10
0.0
 20
0.0
 30
0.0
 70
   128
 71
     1
 72
     2
 73
    -3
  0
VERTEX
  5
4A6
  8
0
 10
0.0
 20
0.0
 30
0.0
 70
   128
 71
    -1
 72
     3
 73
     4
  0
VERTEX
  5
4A7
  8
0
 10
0.0
 20
0.0
 30
0.0
 70
   128
 71
     5
 72
     6
 73
    -2
  0
VERTEX
  5
4A8
  8
0
 10
0.0
 20
0.0
 30
0.0
 70
   128
 71
    -5
 72
     2
 73
     1
  0
VERTEX
  5
4A9
  8
0
 10
0.0
 20
0.0
 30
0.0
 70
   128
 71
     4
 72
     3
 73
    -7
  0
VERTEX
  5
4AA
  8
0
 10
0.0
 20
0.0
 30
0.0
 70
   128
 71
    -4
 72
     7
 73
     8
  0
SEQEND
  5
9AF
  8
0
  0
POLYLINE
  5
4AB
  8
0
 66
     1
 10
0.0
 20
0.0
 30
0.0
 70
    64
 71
     4
 72
     2
  0
VERTEX
  5
4AC
  8
0
 10
26.8474662830466
 20
507.547297297298
 30
-8.61803398874989
 70
   192
  0
VERTEX
  5
4AD
  8
0
 10
26.84746628304667
 20
78.5472972972974
 30
-8.618033988749898
 70
   192
  0
VERTEX
  5
4AE
  8
0
 10
24.4963252738768
 20
78.5472972972974
 30
-1.38196601125011
 70
   192
  0
VERTEX
  5
4AF
  8
0
 10
24.49632527387659
 20
507.547297297298
 30
-1.381966011250124
 70
   192
  0
VERTEX
  5
4B0
  8
0
 10
0.0
 20
0.0
 30
0.0
 70
   128
 71
     1
 72
     4
 73
    -3
  0
VERTEX
  5
4B1
  8
0
 10
0.0
 20
0.0
 30
0.0
 70
   128
 71
    -1
 72
     3
 73
     2
  0
SEQEND
  5
9B0
  8
0
  0
POLYLINE
  5
4B2
  8
0
 66
     1
 10
0.0
 20
0.0
 30
0.0
 70
    64
 71
     8
 72
     6
  0
VERTEX
  5
4B3
  8
0
 10
78.5472972972971
 20
558.8313049299127
 30
-9.338261212717752
 70
   192
  0
VERTEX
  5
4B4
  8
0
 10
124.687382866337
 20
558.7196679234474
 30
-9.452664977199513
 70
   192
  0
VERTEX
  5
4B5
  8
0
 10
78.54729729729712
 20
559.247128311548
 30
-8.61803398874994
 70
   192
  0
VERTEX
  5
4B6
  8
0
 10
127.608834483669
 20
559.247128311548
 30
-8.61803398874995
 70
   192
  0
VERTEX
  5
4B7
  8
0
 10
122.4063318654377
 20
558.0099432840498
 30
-9.886223170158459
 70
   192
  0
VERTEX
  5
4B8
  8
0
 10
78.5472972972971
 20
558.1584885651096
 30
-9.827090915285211
 70
   192
  0
VERTEX
  5
4B9
  8
0
 10
120.765681480971
 20
557.3450152789579
 30
-10.0
 70
   192
  0
VERTEX
  5
4BA
  8
0
 10
78.5472972972971
 20
557.3450152789579
 30
-10.0
 70
   192
  0
VERTEX
  5
4BB
  8
0
 10
0.0
 20
0.0
 30
0.0
 70
   128
 71
     1
 72
     2
 73
     3
  0
VERTEX
  5
4BC
  8
0
 10
0.0
 20
0.0
 30
0.0
 70
   128
 71
     2
 72
     4
 73
     3
  0
VERTEX
  5
4BD
  8
0
 10
0.0
 20
0.0
 30
0.0
 70
   128
 71
     5
 72
     2
 73
     1
  0
VERTEX
  5
4BE
  8
0
 10
0.0
 20
0.0
 30
0.0
 70
   128
 71
     6
 72
     5
 73
     1
  0
VERTEX
  5
4BF
  8
0
 10
0.0
 20
0.0
 30
0.0
 70
   128
 71
     7
 72
     5
 73
     6
  0
VERTEX
  5
4C0
  8
0
 10
0.0
 20
0.0
 30
0.0
 70
   128
 71
     8
 72
     7
 73
     6
  0
SEQEND
  5
9B1
  8
0
  0
POLYLINE
  5
4C1
  8
0
 66
     1
 10
0.0
 20
0.0
 30
0.0
 70
    64
 71
    12
 72
    10
  0
VERTEX
  5
4C2
  8
0
 10
141.398826112399
 20
526.436006356915
 30
-80.3297740335253
 70
   192
  0
VERTEX
  5
4C3
  8
0
 10
142.5288836868218
 20
524.4715071253394
 30
-83.80773362638547
 70
   192
  0
VERTEX
  5
4C4
  8
0
 10
143.330507117667
 20
521.2419463791498
 30
-86.27487686251325
 70
   192
  0
VERTEX
  5
4C5
  8
0
 10
143.649486000701
 20
517.239706717007
 30
-87.2565929195335
 70
   192
  0
VERTEX
  5
4C6
  8
0
 10
145.1222578078201
 20
367.7999498224938
 30
-91.78931846431922
 70
   192
  0
VERTEX
  5
4C7
  8
0
 10
145.1222783676695
 20
218.2971032175015
 30
-91.78938174103062
 70
   192
  0
VERTEX
  5
4C8
  8
0
 10
143.649486000701
 20
68.85488787758801
 30
-87.2565929195335
 70
   192
  0
VERTEX
  5
4C9
  8
0
 10
143.3270777294043
 20
64.83601149978097
 30
-86.264322290716
 70
   192
  0
VERTEX
  5
4CA
  8
0
 10
142.527487717367
 20
61.61973082661072
 30
-83.80343727417971
 70
   192
  0
VERTEX
  5
4CB
  8
0
 10
141.3988261123989
 20
59.65858823767989
 30
-80.32977403352537
 70
   192
  0
VERTEX
  5
4CC
  8
0
 10
118.9963252738764
 20
37.25608739915754
 30
-11.3819660112501
 70
   192
  0
VERTEX
  5
4CD
  8
0
 10
118.996325273877
 20
548.8385071954369
 30
-11.38196601125007
 70
   192
  0
VERTEX
  5
4CE
  8
0
 10
0.0
 20
0.0
 30
0.0
 70
   128
 71
     5
 72
     4
 73
    -3
  0
VERTEX
  5
4CF
  8
0
 10
0.0
 20
0.0
 30
0.0
 70
   128
 71
    -5
 72
     3
 73
    -2
  0
VERTEX
  5
4D0
  8
0
 10
0.0
 20
0.0
 30
0.0
 70
   128
 71
    -5
 72
     2
 73
    -1
  0
VERTEX
  5
4D1
  8
0
 10
0.0
 20
0.0
 30
0.0
 70
   128
 71
    -5
 72
     1
 73
   -12
  0
VERTEX
  5
4D2
  8
0
 10
0.0
 20
0.0
 30
0.0
 70
   128
 71
    12
 72
   -11
 73
    -6
  0
VERTEX
  5
4D3
  8
0
 10
0.0
 20
0.0
 30
0.0
 70
   128
 71
   -12
 72
     6
 73
    -5
  0
VERTEX
  5
4D4
  8
0
 10
0.0
 20
0.0
 30
0.0
 70
   128
 71
    11
 72
    10
 73
    -9
  0
VERTEX
  5
4D5
  8
0
 10
0.0
 20
0.0
 30
0.0
 70
   128
 71
   -11
 72
     9
 73
    -8
  0
VERTEX
  5
4D6
  8
0
 10
0.0
 20
0.0
 30
0.0
 70
   128
 71
   -11
 72
     8
 73
    -7
  0
VERTEX
  5
4D7
  8
0
 10
0.0
 20
0.0
 30
0.0
 70
   128
 71
   -11
 72
     7
 73
    -6
  0
SEQEND
  5
9B2
  8
0
  0
POLYLINE
  5
4D8
  8
0
 66
     1
 10
0.0
 20
0.0
 30
0.0
 70
    64
 71
    24
 72
    24
  0
VERTEX
  5
4D9
  8
0
 10
33.5472972972973
 20
507.547297297297
 30
-20.0
 70
   192
  0
VERTEX
  5
4DA
  8
0
 10
33.54729729729731
 20
78.5472972972974
 30
-20.0
 70
   192
  0
VERTEX
  5
4DB
  8
0
 10
39.57615412699757
 20
56.04729729729739
 30
-20.0
 70
   192
  0
VERTEX
  5
4DC
  8
0
 10
56.04729729729732
 20
39.57615412699766
 30
-20.0
 70
   192
  0
VERTEX
  5
4DD
  8
0
 10
78.54729729729729
 20
33.54729729729723
 30
-20.0
 70
   192
  0
VERTEX
  5
4DE
  8
0
 10
108.528530873445
 20
33.5472972972974
 30
-20.0
 70
   192
  0
VERTEX
  5
4DF
  8
0
 10
108.0414554792547
 20
35.7084907383833
 30
-20.0
 70
   192
  0
VERTEX
  5
4E0
  8
0
 10
107.7472334027258
 20
37.92592508498031
 30
-20.0
 70
   192
  0
VERTEX
  5
4E1
  8
0
 10
107.649159377216
 20
40.1747692469248
 30
-20.0
 70
   192
  0
VERTEX
  5
4E2
  8
0
 10
107.649159377217
 20
545.91982534767
 30
-20.0
 70
   192
  0
VERTEX
  5
4E3
  8
0
 10
107.7472334027262
 20
548.1686695096146
 30
-20.0
 70
   192
  0
VERTEX
  5
4E4
  8
0
 10
108.0414554792551
 20
550.3861038562113
 30
-20.0
 70
   192
  0
VERTEX
  5
4E5
  8
0
 10
108.528530873446
 20
552.5472972972972
 30
-20.0
 70
   192
  0
VERTEX
  5
4E6
  8
0
 10
78.54729729729729
 20
552.547297297297
 30
-20.0
 70
   192
  0
VERTEX
  5
4E7
  8
0
 10
56.04729729729728
 20
546.5184404675966
 30
-20.0
 70
   192
  0
VERTEX
  5
4E8
  8
0
 10
39.57615412699756
 20
530.047297297297
 30
-20.0
 70
   192
  0
VERTEX
  5
4E9
  8
0
 10
51.04729729729729
 20
293.047297297297
 30
-20.0
 70
   192
  0
VERTEX
  5
4EA
  8
0
 10
56.17292862653271
 20
305.4216659680616
 30
-20.0
 70
   192
  0
VERTEX
  5
4EB
  8
0
 10
68.54729729729729
 20
310.547297297297
 30
-20.0
 70
   192
  0
VERTEX
  5
4EC
  8
0
 10
80.92166596806187
 20
305.4216659680616
 30
-20.0
 70
   192
  0
VERTEX
  5
4ED
  8
0
 10
86.04729729729729
 20
293.047297297297
 30
-20.0
 70
   192
  0
VERTEX
  5
4EE
  8
0
 10
80.92166596806187
 20
280.6729286265324
 30
-20.0
 70
   192
  0
VERTEX
  5
4EF
  8
0
 10
68.54729729729729
 20
275.547297297297
 30
-20.0
 70
   192
  0
VERTEX
  5
4F0
  8
0
 10
56.17292862653271
 20
280.6729286265324
 30
-20.0
 70
   192
  0
VERTEX
  5
4F1
  8
0
 10
0.0
 20
0.0
 30
0.0
 70
   128
 71
     7
 72
     6
 73
    -5
  0
VERTEX
  5
4F2
  8
0
 10
0.0
 20
0.0
 30
0.0
 70
   128
 71
    -5
 72
     8
 73
    -7
  0
VERTEX
  5
4F3
  8
0
 10
0.0
 20
0.0
 30
0.0
 70
   128
 71
     5
 72
    -4
 73
    -9
  0
VERTEX
  5
4F4
  8
0
 10
0.0
 20
0.0
 30
0.0
 70
   128
 71
    -5
 72
     9
 73
    -8
  0
VERTEX
  5
4F5
  8
0
 10
0.0
 20
0.0
 30
0.0
 70
   128
 71
   -17
 72
     2
 73
    -1
  0
VERTEX
  5
4F6
  8
0
 10
0.0
 20
0.0
 30
0.0
 70
   128
 71
    -1
 72
    18
 73
   -17
  0
VERTEX
  5
4F7
  8
0
 10
0.0
 20
0.0
 30
0.0
 70
   128
 71
     1
 72
    16
 73
   -15
  0
VERTEX
  5
4F8
  8
0
 10
0.0
 20
0.0
 30
0.0
 70
   128
 71
    -1
 72
   -15
 73
   -19
  0
VERTEX
  5
4F9
  8
0
 10
0.0
 20
0.0
 30
0.0
 70
   128
 71
    -1
 72
    19
 73
   -18
  0
VERTEX
  5
4FA
  8
0
 10
0.0
 20
0.0
 30
0.0
 70
   128
 71
   -15
 72
    20
 73
   -19
  0
VERTEX
  5
4FB
  8
0
 10
0.0
 20
0.0
 30
0.0
 70
   128
 71
   -15
 72
    21
 73
   -20
  0
VERTEX
  5
4FC
  8
0
 10
0.0
 20
0.0
 30
0.0
 70
   128
 71
   -21
 72
    15
 73
   -14
  0
VERTEX
  5
4FD
  8
0
 10
0.0
 20
0.0
 30
0.0
 70
   128
 71
   -21
 72
   -14
 73
   -10
  0
VERTEX
  5
4FE
  8
0
 10
0.0
 20
0.0
 30
0.0
 70
   128
 71
    10
 72
    -9
 73
   -21
  0
VERTEX
  5
4FF
  8
0
 10
0.0
 20
0.0
 30
0.0
 70
   128
 71
    -9
 72
    22
 73
   -21
  0
VERTEX
  5
500
  8
0
 10
0.0
 20
0.0
 30
0.0
 70
   128
 71
    -9
 72
    -4
 73
   -23
  0
VERTEX
  5
501
  8
0
 10
0.0
 20
0.0
 30
0.0
 70
   128
 71
    -9
 72
    23
 73
   -22
  0
VERTEX
  5
502
  8
0
 10
0.0
 20
0.0
 30
0.0
 70
   128
 71
     4
 72
     3
 73
    -2
  0
VERTEX
  5
503
  8
0
 10
0.0
 20
0.0
 30
0.0
 70
   128
 71
    -4
 72
    -2
 73
   -24
  0
VERTEX
  5
504
  8
0
 10
0.0
 20
0.0
 30
0.0
 70
   128
 71
    -4
 72
    24
 73
   -23
  0
VERTEX
  5
505
  8
0
 10
0.0
 20
0.0
 30
0.0
 70
   128
 71
    -2
 72
    17
 73
   -24
  0
VERTEX
  5
506
  8
0
 10
0.0
 20
0.0
 30
0.0
 70
   128
 71
   -14
 72
    11
 73
   -10
  0
VERTEX
  5
507
  8
0
 10
0.0
 20
0.0
 30
0.0
 70
   128
 71
   -14
 72
    12
 73
   -11
  0
VERTEX
  5
508
  8
0
 10
0.0
 20
0.0
 30
0.0
 70
   128
 71
    14
 72
    13
 73
   -12
  0
SEQEND
  5
9B3
  8
0
  0
POLYLINE
  5
509
  8
0
 66
     1
 10
0.0
 20
0.0
 30
0.0
 70
    64
 71
    14
 72
    12
  0
VERTEX
  5
50A
  8
0
 10
112.6528947770009
 20
36.49633196063774
 30
-23.23447803238926
 70
   192
  0
VERTEX
  5
50B
  8
0
 10
112.4480931080167
 20
38.30076692966945
 30
-23.33728268419863
 70
   192
  0
VERTEX
  5
50C
  8
0
 10
112.404441958692
 20
40.1747692469248
 30
-23.4549150281253
 70
   192
  0
VERTEX
  5
50D
  8
0
 10
116.258938316973
 20
35.25997076010821
 30
-31.015519055017
 70
   192
  0
VERTEX
  5
50E
  8
0
 10
113.007729386963
 20
34.77258191851111
 30
-23.1465010726971
 70
   192
  0
VERTEX
  5
50F
  8
0
 10
131.8882609494467
 20
59.65858823767989
 30
-83.41994397727493
 70
   192
  0
VERTEX
  5
510
  8
0
 10
135.0033582651849
 20
50.63667553502459
 30
-85.3391846384958
 70
   192
  0
VERTEX
  5
511
  8
0
 10
122.76907392776
 20
36.1391285734931
 30
-45.0
 70
   192
  0
VERTEX
  5
512
  8
0
 10
119.4980438660961
 20
35.71269541340487
 30
-38.25511843802792
 70
   192
  0
VERTEX
  5
513
  8
0
 10
141.8874785726946
 20
43.75255522751482
 30
-85.33918463849581
 70
   192
  0
VERTEX
  5
514
  8
0
 10
150.90939127535
 20
40.63745791177685
 30
-83.41994397727474
 70
   192
  0
VERTEX
  5
515
  8
0
 10
138.4259947489683
 20
28.15406138539542
 30
-45.00000000000021
 70
   192
  0
VERTEX
  5
516
  8
0
 10
132.3632781916783
 20
29.08252308524721
 30
-44.99999999999999
 70
   192
  0
VERTEX
  5
517
  8
0
 10
126.9017644770134
 20
31.86790818480271
 30
-45.0
 70
   192
  0
VERTEX
  5
518
  8
0
 10
0.0
 20
0.0
 30
0.0
 70
   128
 71
     1
 72
     2
 73
     3
  0
VERTEX
  5
519
  8
0
 10
0.0
 20
0.0
 30
0.0
 70
   128
 71
     1
 72
     3
 73
     4
  0
VERTEX
  5
51A
  8
0
 10
0.0
 20
0.0
 30
0.0
 70
   128
 71
     4
 72
     5
 73
     1
  0
VERTEX
  5
51B
  8
0
 10
0.0
 20
0.0
 30
0.0
 70
   128
 71
     3
 72
     6
 73
     7
  0
VERTEX
  5
51C
  8
0
 10
0.0
 20
0.0
 30
0.0
 70
   128
 71
     3
 72
     7
 73
     8
  0
VERTEX
  5
51D
  8
0
 10
0.0
 20
0.0
 30
0.0
 70
   128
 71
     3
 72
     8
 73
     9
  0
VERTEX
  5
51E
  8
0
 10
0.0
 20
0.0
 30
0.0
 70
   128
 71
    10
 72
    11
 73
    12
  0
VERTEX
  5
51F
  8
0
 10
0.0
 20
0.0
 30
0.0
 70
   128
 71
    10
 72
    12
 73
    13
  0
VERTEX
  5
520
  8
0
 10
0.0
 20
0.0
 30
0.0
 70
   128
 71
     4
 72
     3
 73
     9
  0
VERTEX
  5
521
  8
0
 10
0.0
 20
0.0
 30
0.0
 70
   128
 71
    14
 72
     8
 73
     7
  0
VERTEX
  5
522
  8
0
 10
0.0
 20
0.0
 30
0.0
 70
   128
 71
    14
 72
     7
 73
    10
  0
VERTEX
  5
523
  8
0
 10
0.0
 20
0.0
 30
0.0
 70
   128
 71
    14
 72
    10
 73
    13
  0
SEQEND
  5
9B4
  8
0
  0
POLYLINE
  5
524
  8
0
 66
     1
 10
0.0
 20
0.0
 30
0.0
 70
    64
 71
    12
 72
    10
  0
VERTEX
  5
525
  8
0
 10
357.705263596644
 20
77.70318116043588
 30
-103.4113569729442
 70
   192
  0
VERTEX
  5
526
  8
0
 10
369.6938779747256
 20
77.8909532442013
 30
-100.6764208656325
 70
   192
  0
VERTEX
  5
527
  8
0
 10
379.5761797840112
 20
78.18902176452796
 30
-93.36251119431157
 70
   192
  0
VERTEX
  5
528
  8
0
 10
385.6914810523237
 20
78.5472972972975
 30
-82.6987061692158
 70
   192
  0
VERTEX
  5
529
  8
0
 10
380.5695447402476
 20
59.38275696522377
 30
-82.58451317687269
 70
   192
  0
VERTEX
  5
52A
  8
0
 10
366.5922297029499
 20
45.4399166318945
 30
-82.54540035835002
 70
   192
  0
VERTEX
  5
52B
  8
0
 10
347.547297297297
 20
40.3679507225037
 30
-82.5904861376979
 70
   192
  0
VERTEX
  5
52C
  8
0
 10
347.7591132030025
 20
46.41175764263858
 30
-93.17570600200426
 70
   192
  0
VERTEX
  5
52D
  8
0
 10
347.9359513956791
 20
56.16904826157076
 30
-100.4820974282006
 70
   192
  0
VERTEX
  5
52E
  8
0
 10
348.0486101232892
 20
68.0285757275957
 30
-103.3031369414261
 70
   192
  0
VERTEX
  5
52F
  8
0
 10
352.8826208668517
 20
69.31016185127804
 30
-103.2580481054242
 70
   192
  0
VERTEX
  5
530
  8
0
 10
356.4264168461416
 20
72.85200990562592
 30
-103.2971609157828
 70
   192
  0
VERTEX
  5
531
  8
0
 10
0.0
 20
0.0
 30
0.0
 70
   128
 71
     6
 72
     7
 73
     8
  0
VERTEX
  5
532
  8
0
 10
0.0
 20
0.0
 30
0.0
 70
   128
 71
     9
 72
    11
 73
     6
  0
VERTEX
  5
533
  8
0
 10
0.0
 20
0.0
 30
0.0
 70
   128
 71
     8
 72
     9
 73
     6
  0
VERTEX
  5
534
  8
0
 10
0.0
 20
0.0
 30
0.0
 70
   128
 71
     9
 72
    10
 73
    11
  0
VERTEX
  5
535
  8
0
 10
0.0
 20
0.0
 30
0.0
 70
   128
 71
    12
 72
     5
 73
     6
  0
VERTEX
  5
536
  8
0
 10
0.0
 20
0.0
 30
0.0
 70
   128
 71
    11
 72
    12
 73
     6
  0
VERTEX
  5
537
  8
0
 10
0.0
 20
0.0
 30
0.0
 70
   128
 71
    12
 72
     1
 73
     2
  0
VERTEX
  5
538
  8
0
 10
0.0
 20
0.0
 30
0.0
 70
   128
 71
     3
 72
     5
 73
    12
  0
VERTEX
  5
539
  8
0
 10
0.0
 20
0.0
 30
0.0
 70
   128
 71
     2
 72
     3
 73
    12
  0
VERTEX
  5
53A
  8
0
 10
0.0
 20
0.0
 30
0.0
 70
   128
 71
     3
 72
     4
 73
     5
  0
SEQEND
  5
9B5
  8
0
  0
POLYLINE
  5
53B
  8
0
 66
     1
 10
0.0
 20
0.0
 30
0.0
 70
    64
 71
    12
 72
    10
  0
VERTEX
  5
53C
  8
0
 10
348.0486101232891
 20
518.066018866999
 30
-103.3031369414262
 70
   192
  0
VERTEX
  5
53D
  8
0
 10
347.935951395679
 20
529.9255463330242
 30
-100.4820974282008
 70
   192
  0
VERTEX
  5
53E
  8
0
 10
347.7591132030025
 20
539.6828369519566
 30
-93.17570600200453
 70
   192
  0
VERTEX
  5
53F
  8
0
 10
347.547297297297
 20
545.7266438720916
 30
-82.59048613769812
 70
   192
  0
VERTEX
  5
540
  8
0
 10
366.6776862992024
 20
540.6040362267405
 30
-82.54539550662794
 70
   192
  0
VERTEX
  5
541
  8
0
 10
380.6199746443103
 20
526.6267968656133
 30
-82.58490055389868
 70
   192
  0
VERTEX
  5
542
  8
0
 10
385.691481052324
 20
507.547297297298
 30
-82.6987061692159
 70
   192
  0
VERTEX
  5
543
  8
0
 10
379.5761797840112
 20
507.9055728300675
 30
-93.36251119431157
 70
   192
  0
VERTEX
  5
544
  8
0
 10
369.6938779747256
 20
508.2036413503942
 30
-100.6764208656325
 70
   192
  0
VERTEX
  5
545
  8
0
 10
357.705263596644
 20
508.3914134341596
 30
-103.4113569729442
 70
   192
  0
VERTEX
  5
546
  8
0
 10
356.4391547851076
 20
513.2209972320629
 30
-103.2975478407444
 70
   192
  0
VERTEX
  5
547
  8
0
 10
352.90432404783
 20
516.7715722755713
 30
-103.258042802448
 70
   192
  0
VERTEX
  5
548
  8
0
 10
0.0
 20
0.0
 30
0.0
 70
   128
 71
     6
 72
     7
 73
     8
  0
VERTEX
  5
549
  8
0
 10
0.0
 20
0.0
 30
0.0
 70
   128
 71
     9
 72
    11
 73
     6
  0
VERTEX
  5
54A
  8
0
 10
0.0
 20
0.0
 30
0.0
 70
   128
 71
     8
 72
     9
 73
     6
  0
VERTEX
  5
54B
  8
0
 10
0.0
 20
0.0
 30
0.0
 70
   128
 71
     9
 72
    10
 73
    11
  0
VERTEX
  5
54C
  8
0
 10
0.0
 20
0.0
 30
0.0
 70
   128
 71
    12
 72
     5
 73
     6
  0
VERTEX
  5
54D
  8
0
 10
0.0
 20
0.0
 30
0.0
 70
   128
 71
    11
 72
    12
 73
     6
  0
VERTEX
  5
54E
  8
0
 10
0.0
 20
0.0
 30
0.0
 70
   128
 71
    12
 72
     1
 73
     2
  0
VERTEX
  5
54F
  8
0
 10
0.0
 20
0.0
 30
0.0
 70
   128
 71
     3
 72
     5
 73
    12
  0
VERTEX
  5
550
  8
0
 10
0.0
 20
0.0
 30
0.0
 70
   128
 71
     2
 72
     3
 73
    12
  0
VERTEX
  5
551
  8
0
 10
0.0
 20
0.0
 30
0.0
 70
   128
 71
     3
 72
     4
 73
     5
  0
SEQEND
  5
9B6
  8
0
  0
POLYLINE
  5
552
  8
0
 66
     1
 10
0.0
 20
0.0
 30
0.0
 70
    64
 71
     8
 72
     6
  0
VERTEX
  5
553
  8
0
 10
53.5472972972973
 20
35.24602710807547
 30
-45.0
 70
   192
  0
VERTEX
  5
554
  8
0
 10
35.24602710807537
 20
53.5472972972974
 30
-45.0
 70
   192
  0
VERTEX
  5
555
  8
0
 10
35.24602710807537
 20
53.54729729729742
 30
-25.0
 70
   192
  0
VERTEX
  5
556
  8
0
 10
53.54729729729728
 20
35.24602710807548
 30
-25.0
 70
   192
  0
VERTEX
  5
557
  8
0
 10
28.5472972972973
 20
78.5472972972974
 30
-45.0
 70
   192
  0
VERTEX
  5
558
  8
0
 10
28.5472972972973
 20
78.5472972972974
 30
-25.0
 70
   192
  0
VERTEX
  5
559
  8
0
 10
78.5472972972973
 20
28.5472972972973
 30
-45.0
 70
   192
  0
VERTEX
  5
55A
  8
0
 10
78.54729729729729
 20
28.5472972972974
 30
-25.0
 70
   192
  0
VERTEX
  5
55B
  8
0
 10
0.0
 20
0.0
 30
0.0
 70
   128
 71
     1
 72
     2
 73
    -3
  0
VERTEX
  5
55C
  8
0
 10
0.0
 20
0.0
 30
0.0
 70
   128
 71
     4
 72
    -1
 73
     3
  0
VERTEX
  5
55D
  8
0
 10
0.0
 20
0.0
 30
0.0
 70
   128
 71
     2
 72
     5
 73
    -6
  0
VERTEX
  5
55E
  8
0
 10
0.0
 20
0.0
 30
0.0
 70
   128
 71
     3
 72
    -2
 73
     6
  0
VERTEX
  5
55F
  8
0
 10
0.0
 20
0.0
 30
0.0
 70
   128
 71
     7
 72
     1
 73
    -4
  0
VERTEX
  5
560
  8
0
 10
0.0
 20
0.0
 30
0.0
 70
   128
 71
     8
 72
    -7
 73
     4
  0
SEQEND
  5
9B7
  8
0
  0
POLYLINE
  5
561
  8
0
 66
     1
 10
0.0
 20
0.0
 30
0.0
 70
    64
 71
     6
 72
     4
  0
VERTEX
  5
562
  8
0
 10
78.5472972972973
 20
28.5472972972973
 30
-45.0
 70
   192
  0
VERTEX
  5
563
  8
0
 10
78.5472972972973
 20
28.5472972972973
 30
-25.0
 70
   192
  0
VERTEX
  5
564
  8
0
 10
108.528530873445
 20
28.54729729729737
 30
-25.0
 70
   192
  0
VERTEX
  5
565
  8
0
 10
111.544640551975
 20
28.54729729729736
 30
-31.99143721947261
 70
   192
  0
VERTEX
  5
566
  8
0
 10
114.6846689026751
 20
28.54729729729739
 30
-38.68764423194862
 70
   192
  0
VERTEX
  5
567
  8
0
 10
117.907059180141
 20
28.5472972972974
 30
-45.0
 70
   192
  0
VERTEX
  5
568
  8
0
 10
0.0
 20
0.0
 30
0.0
 70
   128
 71
     2
 72
     3
 73
    -4
  0
VERTEX
  5
569
  8
0
 10
0.0
 20
0.0
 30
0.0
 70
   128
 71
     1
 72
    -2
 73
    -4
  0
VERTEX
  5
56A
  8
0
 10
0.0
 20
0.0
 30
0.0
 70
   128
 71
     4
 72
    -5
 73
    -1
  0
VERTEX
  5
56B
  8
0
 10
0.0
 20
0.0
 30
0.0
 70
   128
 71
     5
 72
     6
 73
    -1
  0
SEQEND
  5
9B8
  8
0
  0
POLYLINE
  5
56C
  8
0
 66
     1
 10
0.0
 20
0.0
 30
0.0
 70
    64
 71
    15
 72
    13
  0
VERTEX
  5
56D
  8
0
 10
357.705263596644
 20
508.3914134341596
 30
-103.4113569729442
 70
   192
  0
VERTEX
  5
56E
  8
0
 10
369.6938779747256
 20
508.2036413503942
 30
-100.6764208656325
 70
   192
  0
VERTEX
  5
56F
  8
0
 10
379.5761797840112
 20
507.9055728300675
 30
-93.36251119431157
 70
   192
  0
VERTEX
  5
570
  8
0
 10
385.6914810523237
 20
507.547297297298
 30
-82.6987061692158
 70
   192
  0
VERTEX
  5
571
  8
0
 10
384.5987996856352
 20
364.5432769269328
 30
-86.06163362285143
 70
   192
  0
VERTEX
  5
572
  8
0
 10
384.5989448446495
 20
221.5204416743933
 30
-86.06118686934383
 70
   192
  0
VERTEX
  5
573
  8
0
 10
385.691481052324
 20
78.5472972972975
 30
-82.6987061692159
 70
   192
  0
VERTEX
  5
574
  8
0
 10
379.5761797840112
 20
78.18902176452796
 30
-93.36251119431157
 70
   192
  0
VERTEX
  5
575
  8
0
 10
369.6938779747256
 20
77.8909532442013
 30
-100.6764208656325
 70
   192
  0
VERTEX
  5
576
  8
0
 10
357.705263596644
 20
77.70318116043588
 30
-103.4113569729442
 70
   192
  0
VERTEX
  5
577
  8
0
 10
357.2406539733444
 20
149.314336770477
 30
-105.3129068416448
 70
   192
  0
VERTEX
  5
578
  8
0
 10
356.9592077472218
 20
221.0765839718342
 30
-106.774071777826
 70
   192
  0
VERTEX
  5
579
  8
0
 10
356.8789673231525
 20
293.0472968863794
 30
-107.368780135338
 70
   192
  0
VERTEX
  5
57A
  8
0
 10
356.9592087407202
 20
365.0172959870548
 30
-106.7740503039881
 70
   192
  0
VERTEX
  5
57B
  8
0
 10
357.2406638228344
 20
436.7821225261737
 30
-105.3128659347252
 70
   192
  0
VERTEX
  5
57C
  8
0
 10
0.0
 20
0.0
 30
0.0
 70
   128
 71
     6
 72
     7
 73
     8
  0
VERTEX
  5
57D
  8
0
 10
0.0
 20
0.0
 30
0.0
 70
   128
 71
     9
 72
    11
 73
     6
  0
VERTEX
  5
57E
  8
0
 10
0.0
 20
0.0
 30
0.0
 70
   128
 71
     8
 72
     9
 73
     6
  0
VERTEX
  5
57F
  8
0
 10
0.0
 20
0.0
 30
0.0
 70
   128
 71
     9
 72
    10
 73
    11
  0
VERTEX
  5
580
  8
0
 10
0.0
 20
0.0
 30
0.0
 70
   128
 71
    11
 72
    12
 73
     6
  0
VERTEX
  5
581
  8
0
 10
0.0
 20
0.0
 30
0.0
 70
   128
 71
    13
 72
     5
 73
     6
  0
VERTEX
  5
582
  8
0
 10
0.0
 20
0.0
 30
0.0
 70
   128
 71
    12
 72
    13
 73
     6
  0
VERTEX
  5
583
  8
0
 10
0.0
 20
0.0
 30
0.0
 70
   128
 71
    13
 72
    14
 73
     5
  0
VERTEX
  5
584
  8
0
 10
0.0
 20
0.0
 30
0.0
 70
   128
 71
    15
 72
     4
 73
     5
  0
VERTEX
  5
585
  8
0
 10
0.0
 20
0.0
 30
0.0
 70
   128
 71
    14
 72
    15
 73
     5
  0
VERTEX
  5
586
  8
0
 10
0.0
 20
0.0
 30
0.0
 70
   128
 71
    15
 72
     1
 73
     2
  0
VERTEX
  5
587
  8
0
 10
0.0
 20
0.0
 30
0.0
 70
   128
 71
     2
 72
     3
 73
    15
  0
VERTEX
  5
588
  8
0
 10
0.0
 20
0.0
 30
0.0
 70
   128
 71
     3
 72
     4
 73
    15
  0
SEQEND
  5
9B9
  8
0
  0
POLYLINE
  5
589
  8
0
 66
     1
 10
0.0
 20
0.0
 30
0.0
 70
    64
 71
    12
 72
    10
  0
VERTEX
  5
58A
  8
0
 10
150.90939127535
 20
545.457136682818
 30
-83.4199439772748
 70
   192
  0
VERTEX
  5
58B
  8
0
 10
216.4582196549516
 20
545.347729471905
 30
-83.7566647491502
 70
   192
  0
VERTEX
  5
58C
  8
0
 10
282.00409002627
 20
545.4444141975088
 30
-83.45909976086308
 70
   192
  0
VERTEX
  5
58D
  8
0
 10
347.547297297297
 20
545.7266438720909
 30
-82.5904861376979
 70
   192
  0
VERTEX
  5
58E
  8
0
 10
347.7591132030025
 20
539.6828369519566
 30
-93.17570600200453
 70
   192
  0
VERTEX
  5
58F
  8
0
 10
347.935951395679
 20
529.9255463330242
 30
-100.4820974282008
 70
   192
  0
VERTEX
  5
590
  8
0
 10
348.0486101232891
 20
518.066018866999
 30
-103.3031369414262
 70
   192
  0
VERTEX
  5
591
  8
0
 10
283.0597188879343
 20
517.881555553019
 30
-104.1644537232738
 70
   192
  0
VERTEX
  5
592
  8
0
 10
218.016032403935
 20
517.8208409304092
 30
-104.4696987219472
 70
   192
  0
VERTEX
  5
593
  8
0
 10
152.9724520448941
 20
517.8829254014821
 30
-104.155196732435
 70
   192
  0
VERTEX
  5
594
  8
0
 10
152.6960183852447
 20
529.8976976258741
 30
-101.2164701407624
 70
   192
  0
VERTEX
  5
595
  8
0
 10
151.9601594753158
 20
539.571579670773
 30
-93.82938384782452
 70
   192
  0
VERTEX
  5
596
  8
0
 10
0.0
 20
0.0
 30
0.0
 70
   128
 71
     6
 72
     7
 73
     8
  0
VERTEX
  5
597
  8
0
 10
0.0
 20
0.0
 30
0.0
 70
   128
 71
     9
 72
    11
 73
     6
  0
VERTEX
  5
598
  8
0
 10
0.0
 20
0.0
 30
0.0
 70
   128
 71
     8
 72
     9
 73
     6
  0
VERTEX
  5
599
  8
0
 10
0.0
 20
0.0
 30
0.0
 70
   128
 71
     9
 72
    10
 73
    11
  0
VERTEX
  5
59A
  8
0
 10
0.0
 20
0.0
 30
0.0
 70
   128
 71
    12
 72
     5
 73
     6
  0
VERTEX
  5
59B
  8
0
 10
0.0
 20
0.0
 30
0.0
 70
   128
 71
    11
 72
    12
 73
     6
  0
VERTEX
  5
59C
  8
0
 10
0.0
 20
0.0
 30
0.0
 70
   128
 71
    12
 72
     1
 73
     2
  0
VERTEX
  5
59D
  8
0
 10
0.0
 20
0.0
 30
0.0
 70
   128
 71
     3
 72
     5
 73
    12
  0
VERTEX
  5
59E
  8
0
 10
0.0
 20
0.0
 30
0.0
 70
   128
 71
     2
 72
     3
 73
    12
  0
VERTEX
  5
59F
  8
0
 10
0.0
 20
0.0
 30
0.0
 70
   128
 71
     3
 72
     4
 73
     5
  0
SEQEND
  5
9BA
  8
0
  0
POLYLINE
  5
5A0
  8
0
 66
     1
 10
0.0
 20
0.0
 30
0.0
 70
    64
 71
     6
 72
     4
  0
VERTEX
  5
5A1
  8
0
 10
150.9093912753507
 20
545.4571366828183
 30
-83.41994397727468
 70
   192
  0
VERTEX
  5
5A2
  8
0
 10
138.4259947489694
 20
557.9405332091997
 30
-45.00000000000009
 70
   192
  0
VERTEX
  5
5A3
  8
0
 10
347.547297297297
 20
557.940533209199
 30
-45.0
 70
   192
  0
VERTEX
  5
5A4
  8
0
 10
347.547297297297
 20
545.7266438720912
 30
-82.59048613769802
 70
   192
  0
VERTEX
  5
5A5
  8
0
 10
282.00409002627
 20
545.4444141975088
 30
-83.45909976086308
 70
   192
  0
VERTEX
  5
5A6
  8
0
 10
216.4582196549516
 20
545.347729471905
 30
-83.7566647491502
 70
   192
  0
VERTEX
  5
5A7
  8
0
 10
0.0
 20
0.0
 30
0.0
 70
   128
 71
     3
 72
     4
 73
    -5
  0
VERTEX
  5
5A8
  8
0
 10
0.0
 20
0.0
 30
0.0
 70
   128
 71
    -6
 72
     2
 73
    -3
  0
VERTEX
  5
5A9
  8
0
 10
0.0
 20
0.0
 30
0.0
 70
   128
 71
     5
 72
    -6
 73
    -3
  0
VERTEX
  5
5AA
  8
0
 10
0.0
 20
0.0
 30
0.0
 70
   128
 71
     6
 72
     1
 73
    -2
  0
SEQEND
  5
9BB
  8
0
  0
POLYLINE
  5
5AB
  8
0
 66
     1
 10
0.0
 20
0.0
 30
0.0
 70
    64
 71
    14
 72
    12
  0
VERTEX
  5
5AC
  8
0
 10
112.6528947770018
 20
549.5982626339577
 30
-23.23447803238895
 70
   192
  0
VERTEX
  5
5AD
  8
0
 10
113.007729386964
 20
551.3220126760839
 30
-23.1465010726971
 70
   192
  0
VERTEX
  5
5AE
  8
0
 10
116.2590151464529
 20
550.8347392767984
 30
-31.01548450161675
 70
   192
  0
VERTEX
  5
5AF
  8
0
 10
119.4979790648346
 20
550.3818236252177
 30
-38.25508257607544
 70
   192
  0
VERTEX
  5
5B0
  8
0
 10
122.76907392776
 20
549.955466021102
 30
-45.0
 70
   192
  0
VERTEX
  5
5B1
  8
0
 10
135.0033582651858
 20
535.45791905957
 30
-85.33918463849577
 70
   192
  0
VERTEX
  5
5B2
  8
0
 10
131.888260949448
 20
526.436006356915
 30
-83.41994397727473
 70
   192
  0
VERTEX
  5
5B3
  8
0
 10
141.8874785726951
 20
542.3420393670797
 30
-85.33918463849587
 70
   192
  0
VERTEX
  5
5B4
  8
0
 10
138.425994748969
 20
557.940533209199
 30
-45.0
 70
   192
  0
VERTEX
  5
5B5
  8
0
 10
150.9093912753507
 20
545.4571366828183
 30
-83.41994397727468
 70
   192
  0
VERTEX
  5
5B6
  8
0
 10
112.4480931080174
 20
547.793827664926
 30
-23.33728268419835
 70
   192
  0
VERTEX
  5
5B7
  8
0
 10
112.4044419586927
 20
545.9198253476704
 30
-23.45491502812523
 70
   192
  0
VERTEX
  5
5B8
  8
0
 10
126.9017644770138
 20
554.2266864097918
 30
-44.99999999999999
 70
   192
  0
VERTEX
  5
5B9
  8
0
 10
132.3632781916785
 20
557.0120715093472
 30
-45.0
 70
   192
  0
VERTEX
  5
5BA
  8
0
 10
0.0
 20
0.0
 30
0.0
 70
   128
 71
     1
 72
     2
 73
     3
  0
VERTEX
  5
5BB
  8
0
 10
0.0
 20
0.0
 30
0.0
 70
   128
 71
     4
 72
     5
 73
     6
  0
VERTEX
  5
5BC
  8
0
 10
0.0
 20
0.0
 30
0.0
 70
   128
 71
     7
 72
     4
 73
     6
  0
VERTEX
  5
5BD
  8
0
 10
0.0
 20
0.0
 30
0.0
 70
   128
 71
     8
 72
     9
 73
    10
  0
VERTEX
  5
5BE
  8
0
 10
0.0
 20
0.0
 30
0.0
 70
   128
 71
    11
 72
     1
 73
     3
  0
VERTEX
  5
5BF
  8
0
 10
0.0
 20
0.0
 30
0.0
 70
   128
 71
    11
 72
     3
 73
     4
  0
VERTEX
  5
5C0
  8
0
 10
0.0
 20
0.0
 30
0.0
 70
   128
 71
     4
 72
     7
 73
    12
  0
VERTEX
  5
5C1
  8
0
 10
0.0
 20
0.0
 30
0.0
 70
   128
 71
     4
 72
    12
 73
    11
  0
VERTEX
  5
5C2
  8
0
 10
0.0
 20
0.0
 30
0.0
 70
   128
 71
     6
 72
     5
 73
    13
  0
VERTEX
  5
5C3
  8
0
 10
0.0
 20
0.0
 30
0.0
 70
   128
 71
     6
 72
    13
 73
     8
  0
VERTEX
  5
5C4
  8
0
 10
0.0
 20
0.0
 30
0.0
 70
   128
 71
     8
 72
    13
 73
    14
  0
VERTEX
  5
5C5
  8
0
 10
0.0
 20
0.0
 30
0.0
 70
   128
 71
     8
 72
    14
 73
     9
  0
SEQEND
  5
9BC
  8
0
  0
POLYLINE
  5
5C6
  8
0
 66
     1
 10
0.0
 20
0.0
 30
0.0
 70
    64
 71
     8
 72
     6
  0
VERTEX
  5
5C7
  8
0
 10
397.9405332091989
 20
507.547297297298
 30
-45.0
 70
   192
  0
VERTEX
  5
5C8
  8
0
 10
385.6914810523241
 20
507.547297297298
 30
-82.69870616921595
 70
   192
  0
VERTEX
  5
5C9
  8
0
 10
380.6199746443103
 20
526.6267968656133
 30
-82.58490055389868
 70
   192
  0
VERTEX
  5
5CA
  8
0
 10
391.1891197759063
 20
532.7439152532489
 30
-45.0
 70
   192
  0
VERTEX
  5
5CB
  8
0
 10
366.6776862992024
 20
540.6040362267405
 30
-82.54539550662794
 70
   192
  0
VERTEX
  5
5CC
  8
0
 10
372.743915253248
 20
551.1891197759073
 30
-45.0
 70
   192
  0
VERTEX
  5
5CD
  8
0
 10
347.547297297297
 20
545.7266438720908
 30
-82.59048613769788
 70
   192
  0
VERTEX
  5
5CE
  8
0
 10
347.547297297297
 20
557.9405332091993
 30
-45.00000000000011
 70
   192
  0
VERTEX
  5
5CF
  8
0
 10
0.0
 20
0.0
 30
0.0
 70
   128
 71
     1
 72
     2
 73
     3
  0
VERTEX
  5
5D0
  8
0
 10
0.0
 20
0.0
 30
0.0
 70
   128
 71
     1
 72
     3
 73
     4
  0
VERTEX
  5
5D1
  8
0
 10
0.0
 20
0.0
 30
0.0
 70
   128
 71
     4
 72
     3
 73
     5
  0
VERTEX
  5
5D2
  8
0
 10
0.0
 20
0.0
 30
0.0
 70
   128
 71
     4
 72
     5
 73
     6
  0
VERTEX
  5
5D3
  8
0
 10
0.0
 20
0.0
 30
0.0
 70
   128
 71
     6
 72
     5
 73
     7
  0
VERTEX
  5
5D4
  8
0
 10
0.0
 20
0.0
 30
0.0
 70
   128
 71
     6
 72
     7
 73
     8
  0
SEQEND
  5
9BD
  8
0
  0
POLYLINE
  5
5D5
  8
0
 66
     1
 10
0.0
 20
0.0
 30
0.0
 70
    64
 71
    19
 72
    17
  0
VERTEX
  5
5D6
  8
0
 10
218.0160324037532
 20
68.2737533265004
 30
-104.4696987106141
 70
   192
  0
VERTEX
  5
5D7
  8
0
 10
152.972452044894
 20
68.2116691931131
 30
-104.155196732435
 70
   192
  0
VERTEX
  5
5D8
  8
0
 10
153.665853035758
 20
142.9565779745183
 30
-106.5276644863234
 70
   192
  0
VERTEX
  5
5D9
  8
0
 10
357.2406539733444
 20
149.314336770477
 30
-105.3129068416448
 70
   192
  0
VERTEX
  5
5DA
  8
0
 10
357.705263596644
 20
77.7031811604358
 30
-103.411356972944
 70
   192
  0
VERTEX
  5
5DB
  8
0
 10
283.05971888694
 20
68.21303870661204
 30
-104.164453712444
 70
   192
  0
VERTEX
  5
5DC
  8
0
 10
348.048610123289
 20
68.0285757275957
 30
-103.303136941426
 70
   192
  0
VERTEX
  5
5DD
  8
0
 10
356.4264168461416
 20
72.85200990562592
 30
-103.2971609157828
 70
   192
  0
VERTEX
  5
5DE
  8
0
 10
352.8826208668517
 20
69.31016185127804
 30
-103.2580481054242
 70
   192
  0
VERTEX
  5
5DF
  8
0
 10
257.7894686447725
 20
253.8148612880853
 30
-110.1456104886647
 70
   192
  0
VERTEX
  5
5E0
  8
0
 10
274.0372243193072
 20
293.0472972972973
 30
-110.1456105447208
 70
   192
  0
VERTEX
  5
5E1
  8
0
 10
356.8789673231525
 20
293.0472968863794
 30
-107.368780135338
 70
   192
  0
VERTEX
  5
5E2
  8
0
 10
356.8789673191628
 20
293.047297297297
 30
-107.368780016313
 70
   192
  0
VERTEX
  5
5E3
  8
0
 10
154.3415099543432
 20
293.0472972972836
 30
-109.8534575178826
 70
   192
  0
VERTEX
  5
5E4
  8
0
 10
163.0573702539582
 20
293.047297297297
 30
-110.1456104955083
 70
   192
  0
VERTEX
  5
5E5
  8
0
 10
179.3101122336735
 20
253.8098783627671
 30
-110.1456105617085
 70
   192
  0
VERTEX
  5
5E6
  8
0
 10
218.5460950997381
 20
237.5573687902767
 30
-110.1456104550052
 70
   192
  0
VERTEX
  5
5E7
  8
0
 10
356.9592077472218
 20
221.0765839718342
 30
-106.774071777826
 70
   192
  0
VERTEX
  5
5E8
  8
0
 10
154.1968876887785
 20
217.785891758656
 30
-108.6879524071421
 70
   192
  0
VERTEX
  5
5E9
  8
0
 10
0.0
 20
0.0
 30
0.0
 70
   128
 71
     1
 72
     2
 73
     3
  0
VERTEX
  5
5EA
  8
0
 10
0.0
 20
0.0
 30
0.0
 70
   128
 71
     4
 72
     5
 73
     6
  0
VERTEX
  5
5EB
  8
0
 10
0.0
 20
0.0
 30
0.0
 70
   128
 71
     5
 72
     7
 73
     6
  0
VERTEX
  5
5EC
  8
0
 10
0.0
 20
0.0
 30
0.0
 70
   128
 71
     5
 72
     8
 73
     7
  0
VERTEX
  5
5ED
  8
0
 10
0.0
 20
0.0
 30
0.0
 70
   128
 71
     8
 72
     9
 73
     7
  0
VERTEX
  5
5EE
  8
0
 10
0.0
 20
0.0
 30
0.0
 70
   128
 71
    10
 72
    11
 73
    12
  0
VERTEX
  5
5EF
  8
0
 10
0.0
 20
0.0
 30
0.0
 70
   128
 71
    11
 72
    13
 73
    12
  0
VERTEX
  5
5F0
  8
0
 10
0.0
 20
0.0
 30
0.0
 70
   128
 71
    14
 72
    15
 73
    16
  0
VERTEX
  5
5F1
  8
0
 10
0.0
 20
0.0
 30
0.0
 70
   128
 71
    14
 72
    16
 73
    17
  0
VERTEX
  5
5F2
  8
0
 10
0.0
 20
0.0
 30
0.0
 70
   128
 71
     4
 72
     6
 73
     1
  0
VERTEX
  5
5F3
  8
0
 10
0.0
 20
0.0
 30
0.0
 70
   128
 71
     4
 72
     1
 73
     3
  0
VERTEX
  5
5F4
  8
0
 10
0.0
 20
0.0
 30
0.0
 70
   128
 71
    18
 72
     4
 73
     3
  0
VERTEX
  5
5F5
  8
0
 10
0.0
 20
0.0
 30
0.0
 70
   128
 71
    14
 72
    17
 73
    10
  0
VERTEX
  5
5F6
  8
0
 10
0.0
 20
0.0
 30
0.0
 70
   128
 71
    10
 72
    19
 73
    14
  0
VERTEX
  5
5F7
  8
0
 10
0.0
 20
0.0
 30
0.0
 70
   128
 71
    10
 72
    12
 73
    19
  0
VERTEX
  5
5F8
  8
0
 10
0.0
 20
0.0
 30
0.0
 70
   128
 71
    12
 72
    18
 73
     3
  0
VERTEX
  5
5F9
  8
0
 10
0.0
 20
0.0
 30
0.0
 70
   128
 71
     3
 72
    19
 73
    12
  0
SEQEND
  5
9BE
  8
0
  0
POLYLINE
  5
5FA
  8
0
 66
     1
 10
0.0
 20
0.0
 30
0.0
 70
    64
 71
    15
 72
    13
  0
VERTEX
  5
5FB
  8
0
 10
134.13892083775
 20
517.239706717007
 30
-90.34676286328302
 70
   192
  0
VERTEX
  5
5FC
  8
0
 10
138.2546970416816
 20
517.5137242529943
 30
-97.49891459920535
 70
   192
  0
VERTEX
  5
5FD
  8
0
 10
144.9106427196931
 20
517.7410437384299
 30
-102.3789439851246
 70
   192
  0
VERTEX
  5
5FE
  8
0
 10
152.972452044894
 20
517.8829254014814
 30
-104.1551967324351
 70
   192
  0
VERTEX
  5
5FF
  8
0
 10
153.6658535470068
 20
443.1379323574885
 30
-106.5276667114941
 70
   192
  0
VERTEX
  5
600
  8
0
 10
154.196888388346
 20
368.3085725614332
 30
-108.687955351272
 70
   192
  0
VERTEX
  5
601
  8
0
 10
154.3415099543432
 20
293.0472972972836
 30
-109.8534575178826
 70
   192
  0
VERTEX
  5
602
  8
0
 10
154.1968876887785
 20
217.785891758656
 30
-108.6879524071421
 70
   192
  0
VERTEX
  5
603
  8
0
 10
153.665853035758
 20
142.9565779745183
 30
-106.5276644863234
 70
   192
  0
VERTEX
  5
604
  8
0
 10
152.972452044894
 20
68.21166919311308
 30
-104.155196732435
 70
   192
  0
VERTEX
  5
605
  8
0
 10
144.9106427196927
 20
68.35355085616501
 30
-102.3789439851249
 70
   192
  0
VERTEX
  5
606
  8
0
 10
138.2546970416808
 20
68.58087034160081
 30
-97.4989145992056
 70
   192
  0
VERTEX
  5
607
  8
0
 10
134.138920837749
 20
68.8548878775882
 30
-90.34676286328303
 70
   192
  0
VERTEX
  5
608
  8
0
 10
135.6117132047183
 20
218.2971032175013
 30
-94.87955168478004
 70
   192
  0
VERTEX
  5
609
  8
0
 10
135.6116926448685
 20
367.7999498224938
 30
-94.87948840806865
 70
   192
  0
VERTEX
  5
60A
  8
0
 10
0.0
 20
0.0
 30
0.0
 70
   128
 71
    11
 72
     8
 73
     9
  0
VERTEX
  5
60B
  8
0
 10
0.0
 20
0.0
 30
0.0
 70
   128
 71
     9
 72
    10
 73
    11
  0
VERTEX
  5
60C
  8
0
 10
0.0
 20
0.0
 30
0.0
 70
   128
 71
    12
 72
    14
 73
     8
  0
VERTEX
  5
60D
  8
0
 10
0.0
 20
0.0
 30
0.0
 70
   128
 71
    11
 72
    12
 73
     8
  0
VERTEX
  5
60E
  8
0
 10
0.0
 20
0.0
 30
0.0
 70
   128
 71
    12
 72
    13
 73
    14
  0
VERTEX
  5
60F
  8
0
 10
0.0
 20
0.0
 30
0.0
 70
   128
 71
    15
 72
     6
 73
     7
  0
VERTEX
  5
610
  8
0
 10
0.0
 20
0.0
 30
0.0
 70
   128
 71
    14
 72
    15
 73
     7
  0
VERTEX
  5
611
  8
0
 10
0.0
 20
0.0
 30
0.0
 70
   128
 71
     7
 72
     8
 73
    14
  0
VERTEX
  5
612
  8
0
 10
0.0
 20
0.0
 30
0.0
 70
   128
 71
    15
 72
     1
 73
     2
  0
VERTEX
  5
613
  8
0
 10
0.0
 20
0.0
 30
0.0
 70
   128
 71
     3
 72
     5
 73
    15
  0
VERTEX
  5
614
  8
0
 10
0.0
 20
0.0
 30
0.0
 70
   128
 71
     2
 72
     3
 73
    15
  0
VERTEX
  5
615
  8
0
 10
0.0
 20
0.0
 30
0.0
 70
   128
 71
     3
 72
     4
 73
     5
  0
VERTEX
  5
616
  8
0
 10
0.0
 20
0.0
 30
0.0
 70
   128
 71
     5
 72
     6
 73
    15
  0
SEQEND
  5
9BF
  8
0
  0
POLYLINE
  5
617
  8
0
 66
     1
 10
0.0
 20
0.0
 30
0.0
 70
    64
 71
     4
 72
     2
  0
VERTEX
  5
618
  8
0
 10
28.5472972972973
 20
507.547297297297
 30
-45.0
 70
   192
  0
VERTEX
  5
619
  8
0
 10
28.5472972972973
 20
507.547297297297
 30
-25.0
 70
   192
  0
VERTEX
  5
61A
  8
0
 10
28.5472972972973
 20
78.5472972972974
 30
-25.0
 70
   192
  0
VERTEX
  5
61B
  8
0
 10
28.5472972972973
 20
78.5472972972974
 30
-45.0
 70
   192
  0
VERTEX
  5
61C
  8
0
 10
0.0
 20
0.0
 30
0.0
 70
   128
 71
     3
 72
     4
 73
    -1
  0
VERTEX
  5
61D
  8
0
 10
0.0
 20
0.0
 30
0.0
 70
   128
 71
     2
 72
    -3
 73
     1
  0
SEQEND
  5
9C0
  8
0
  0
POLYLINE
  5
61E
  8
0
 66
     1
 10
0.0
 20
0.0
 30
0.0
 70
    64
 71
    12
 72
    10
  0
VERTEX
  5
61F
  8
0
 10
134.138920837749
 20
68.8548878775882
 30
-90.34676286328303
 70
   192
  0
VERTEX
  5
620
  8
0
 10
138.2546970416808
 20
68.58087034160081
 30
-97.4989145992056
 70
   192
  0
VERTEX
  5
621
  8
0
 10
144.9106427196927
 20
68.35355085616501
 30
-102.3789439851249
 70
   192
  0
VERTEX
  5
622
  8
0
 10
152.972452044894
 20
68.21166919311328
 30
-104.1551967324351
 70
   192
  0
VERTEX
  5
623
  8
0
 10
152.6947014574394
 20
56.17139722736897
 30
-101.2030959489762
 70
   192
  0
VERTEX
  5
624
  8
0
 10
151.9588313998338
 20
46.50935735175802
 30
-93.81622737712809
 70
   192
  0
VERTEX
  5
625
  8
0
 10
150.90939127535
 20
40.6374579117768
 30
-83.4199439772748
 70
   192
  0
VERTEX
  5
626
  8
0
 10
141.8874785726946
 20
43.75255522751482
 30
-85.33918463849581
 70
   192
  0
VERTEX
  5
627
  8
0
 10
135.0033582651849
 20
50.63667553502459
 30
-85.3391846384958
 70
   192
  0
VERTEX
  5
628
  8
0
 10
131.8882609494469
 20
59.65858823767997
 30
-83.41994397727473
 70
   192
  0
VERTEX
  5
629
  8
0
 10
133.016922554416
 20
61.61973082661073
 30
-86.89360721792914
 70
   192
  0
VERTEX
  5
62A
  8
0
 10
133.816512566453
 20
64.83601149978091
 30
-89.35449223446541
 70
   192
  0
VERTEX
  5
62B
  8
0
 10
0.0
 20
0.0
 30
0.0
 70
   128
 71
     6
 72
     7
 73
     8
  0
VERTEX
  5
62C
  8
0
 10
0.0
 20
0.0
 30
0.0
 70
   128
 71
     9
 72
    11
 73
     6
  0
VERTEX
  5
62D
  8
0
 10
0.0
 20
0.0
 30
0.0
 70
   128
 71
     8
 72
     9
 73
     6
  0
VERTEX
  5
62E
  8
0
 10
0.0
 20
0.0
 30
0.0
 70
   128
 71
     9
 72
    10
 73
    11
  0
VERTEX
  5
62F
  8
0
 10
0.0
 20
0.0
 30
0.0
 70
   128
 71
    12
 72
     5
 73
     6
  0
VERTEX
  5
630
  8
0
 10
0.0
 20
0.0
 30
0.0
 70
   128
 71
    11
 72
    12
 73
     6
  0
VERTEX
  5
631
  8
0
 10
0.0
 20
0.0
 30
0.0
 70
   128
 71
    12
 72
     1
 73
     2
  0
VERTEX
  5
632
  8
0
 10
0.0
 20
0.0
 30
0.0
 70
   128
 71
     3
 72
     5
 73
    12
  0
VERTEX
  5
633
  8
0
 10
0.0
 20
0.0
 30
0.0
 70
   128
 71
     2
 72
     3
 73
    12
  0
VERTEX
  5
634
  8
0
 10
0.0
 20
0.0
 30
0.0
 70
   128
 71
     3
 72
     4
 73
     5
  0
SEQEND
  5
9C1
  8
0
  0
POLYLINE
  5
635
  8
0
 66
     1
 10
0.0
 20
0.0
 30
0.0
 70
    64
 71
     6
 72
     4
  0
VERTEX
  5
636
  8
0
 10
347.547297297297
 20
40.36795072250359
 30
-82.59048613769795
 70
   192
  0
VERTEX
  5
637
  8
0
 10
347.547297297297
 20
28.15406138539553
 30
-45.00000000000002
 70
   192
  0
VERTEX
  5
638
  8
0
 10
138.425994748969
 20
28.15406138539548
 30
-45.0
 70
   192
  0
VERTEX
  5
639
  8
0
 10
150.9093912753497
 20
40.63745791177678
 30
-83.4199439772749
 70
   192
  0
VERTEX
  5
63A
  8
0
 10
216.4582196549516
 20
40.74686512268998
 30
-83.7566647491502
 70
   192
  0
VERTEX
  5
63B
  8
0
 10
282.00409002627
 20
40.65018039708624
 30
-83.45909976086311
 70
   192
  0
VERTEX
  5
63C
  8
0
 10
0.0
 20
0.0
 30
0.0
 70
   128
 71
     3
 72
     4
 73
    -5
  0
VERTEX
  5
63D
  8
0
 10
0.0
 20
0.0
 30
0.0
 70
   128
 71
    -6
 72
     2
 73
    -3
  0
VERTEX
  5
63E
  8
0
 10
0.0
 20
0.0
 30
0.0
 70
   128
 71
     5
 72
    -6
 73
    -3
  0
VERTEX
  5
63F
  8
0
 10
0.0
 20
0.0
 30
0.0
 70
   128
 71
     6
 72
     1
 73
    -2
  0
SEQEND
  5
9C2
  8
0
  0
POLYLINE
  5
640
  8
0
 66
     1
 10
0.0
 20
0.0
 30
0.0
 70
    64
 71
     6
 72
     4
  0
VERTEX
  5
641
  8
0
 10
78.54729729729735
 20
557.5472972972976
 30
-45.0
 70
   192
  0
VERTEX
  5
642
  8
0
 10
117.907059180142
 20
557.5472972972976
 30
-45.0
 70
   192
  0
VERTEX
  5
643
  8
0
 10
114.6846689026758
 20
557.5472972972971
 30
-38.6876442319497
 70
   192
  0
VERTEX
  5
644
  8
0
 10
111.5446405519756
 20
557.5472972972971
 30
-31.99143721947363
 70
   192
  0
VERTEX
  5
645
  8
0
 10
108.528530873446
 20
557.5472972972971
 30
-25.0
 70
   192
  0
VERTEX
  5
646
  8
0
 10
78.5472972972973
 20
557.5472972972971
 30
-25.0
 70
   192
  0
VERTEX
  5
647
  8
0
 10
0.0
 20
0.0
 30
0.0
 70
   128
 71
     1
 72
     2
 73
    -3
  0
VERTEX
  5
648
  8
0
 10
0.0
 20
0.0
 30
0.0
 70
   128
 71
     3
 72
    -4
 73
    -1
  0
VERTEX
  5
649
  8
0
 10
0.0
 20
0.0
 30
0.0
 70
   128
 71
     5
 72
     6
 73
    -1
  0
VERTEX
  5
64A
  8
0
 10
0.0
 20
0.0
 30
0.0
 70
   128
 71
     4
 72
    -5
 73
    -1
  0
SEQEND
  5
9C3
  8
0
  0
POLYLINE
  5
64B
  8
0
 66
     1
 10
0.0
 20
0.0
 30
0.0
 70
    64
 71
     8
 72
     6
  0
VERTEX
  5
64C
  8
0
 10
347.547297297297
 20
28.15406138539558
 30
-45.0
 70
   192
  0
VERTEX
  5
64D
  8
0
 10
347.547297297297
 20
40.36795072250359
 30
-82.59048613769795
 70
   192
  0
VERTEX
  5
64E
  8
0
 10
366.5922297029499
 20
45.4399166318945
 30
-82.54540035835002
 70
   192
  0
VERTEX
  5
64F
  8
0
 10
372.743915253248
 20
34.90547481868818
 30
-45.0
 70
   192
  0
VERTEX
  5
650
  8
0
 10
380.5695447402476
 20
59.38275696522377
 30
-82.58451317687269
 70
   192
  0
VERTEX
  5
651
  8
0
 10
391.1891197759064
 20
53.35067934134659
 30
-45.0
 70
   192
  0
VERTEX
  5
652
  8
0
 10
385.691481052324
 20
78.54729729729749
 30
-82.6987061692159
 70
   192
  0
VERTEX
  5
653
  8
0
 10
397.9405332091993
 20
78.5472972972976
 30
-45.00000000000011
 70
   192
  0
VERTEX
  5
654
  8
0
 10
0.0
 20
0.0
 30
0.0
 70
   128
 71
     1
 72
     2
 73
     3
  0
VERTEX
  5
655
  8
0
 10
0.0
 20
0.0
 30
0.0
 70
   128
 71
     1
 72
     3
 73
     4
  0
VERTEX
  5
656
  8
0
 10
0.0
 20
0.0
 30
0.0
 70
   128
 71
     4
 72
     3
 73
     5
  0
VERTEX
  5
657
  8
0
 10
0.0
 20
0.0
 30
0.0
 70
   128
 71
     4
 72
     5
 73
     6
  0
VERTEX
  5
658
  8
0
 10
0.0
 20
0.0
 30
0.0
 70
   128
 71
     6
 72
     5
 73
     7
  0
VERTEX
  5
659
  8
0
 10
0.0
 20
0.0
 30
0.0
 70
   128
 71
     6
 72
     7
 73
     8
  0
SEQEND
  5
9C4
  8
0
  0
POLYLINE
  5
65A
  8
0
 66
     1
 10
0.0
 20
0.0
 30
0.0
 70
    64
 71
    12
 72
    10
  0
VERTEX
  5
65B
  8
0
 10
152.972452044894
 20
68.2116691931131
 30
-104.155196732435
 70
   192
  0
VERTEX
  5
65C
  8
0
 10
218.0160324037532
 20
68.2737533265004
 30
-104.4696987106141
 70
   192
  0
VERTEX
  5
65D
  8
0
 10
283.05971888694
 20
68.21303870661204
 30
-104.164453712444
 70
   192
  0
VERTEX
  5
65E
  8
0
 10
348.048610123289
 20
68.0285757275957
 30
-103.303136941426
 70
   192
  0
VERTEX
  5
65F
  8
0
 10
347.9359513956791
 20
56.16904826157076
 30
-100.4820974282006
 70
   192
  0
VERTEX
  5
660
  8
0
 10
347.7591132030025
 20
46.41175764263858
 30
-93.17570600200426
 70
   192
  0
VERTEX
  5
661
  8
0
 10
347.5472972972971
 20
40.36795072250369
 30
-82.5904861376979
 70
   192
  0
VERTEX
  5
662
  8
0
 10
282.00409002627
 20
40.65018039708624
 30
-83.45909976086311
 70
   192
  0
VERTEX
  5
663
  8
0
 10
216.4582196549516
 20
40.74686512268998
 30
-83.7566647491502
 70
   192
  0
VERTEX
  5
664
  8
0
 10
150.90939127535
 20
40.6374579117768
 30
-83.4199439772748
 70
   192
  0
VERTEX
  5
665
  8
0
 10
151.9588313998338
 20
46.50935735175802
 30
-93.81622737712809
 70
   192
  0
VERTEX
  5
666
  8
0
 10
152.6947014574394
 20
56.17139722736897
 30
-101.2030959489762
 70
   192
  0
VERTEX
  5
667
  8
0
 10
0.0
 20
0.0
 30
0.0
 70
   128
 71
     6
 72
     7
 73
     8
  0
VERTEX
  5
668
  8
0
 10
0.0
 20
0.0
 30
0.0
 70
   128
 71
     9
 72
    11
 73
     6
  0
VERTEX
  5
669
  8
0
 10
0.0
 20
0.0
 30
0.0
 70
   128
 71
     8
 72
     9
 73
     6
  0
VERTEX
  5
66A
  8
0
 10
0.0
 20
0.0
 30
0.0
 70
   128
 71
     9
 72
    10
 73
    11
  0
VERTEX
  5
66B
  8
0
 10
0.0
 20
0.0
 30
0.0
 70
   128
 71
    12
 72
     5
 73
     6
  0
VERTEX
  5
66C
  8
0
 10
0.0
 20
0.0
 30
0.0
 70
   128
 71
    11
 72
    12
 73
     6
  0
VERTEX
  5
66D
  8
0
 10
0.0
 20
0.0
 30
0.0
 70
   128
 71
    12
 72
     1
 73
     2
  0
VERTEX
  5
66E
  8
0
 10
0.0
 20
0.0
 30
0.0
 70
   128
 71
     3
 72
     5
 73
    12
  0
VERTEX
  5
66F
  8
0
 10
0.0
 20
0.0
 30
0.0
 70
   128
 71
     2
 72
     3
 73
    12
  0
VERTEX
  5
670
  8
0
 10
0.0
 20
0.0
 30
0.0
 70
   128
 71
     3
 72
     4
 73
     5
  0
SEQEND
  5
9C5
  8
0
  0
POLYLINE
  5
671
  8
0
 66
     1
 10
0.0
 20
0.0
 30
0.0
 70
    64
 71
     6
 72
     4
  0
VERTEX
  5
672
  8
0
 10
385.6914810523241
 20
507.547297297298
 30
-82.69870616921595
 70
   192
  0
VERTEX
  5
673
  8
0
 10
397.9405332091993
 20
507.547297297298
 30
-45.00000000000011
 70
   192
  0
VERTEX
  5
674
  8
0
 10
397.940533209199
 20
78.5472972972976
 30
-45.0
 70
   192
  0
VERTEX
  5
675
  8
0
 10
385.6914810523241
 20
78.5472972972976
 30
-82.69870616921595
 70
   192
  0
VERTEX
  5
676
  8
0
 10
384.5989448446495
 20
221.5204416743933
 30
-86.06118686934383
 70
   192
  0
VERTEX
  5
677
  8
0
 10
384.5987996856352
 20
364.5432769269328
 30
-86.06163362285143
 70
   192
  0
VERTEX
  5
678
  8
0
 10
0.0
 20
0.0
 30
0.0
 70
   128
 71
     3
 72
     4
 73
    -5
  0
VERTEX
  5
679
  8
0
 10
0.0
 20
0.0
 30
0.0
 70
   128
 71
    -6
 72
     2
 73
    -3
  0
VERTEX
  5
67A
  8
0
 10
0.0
 20
0.0
 30
0.0
 70
   128
 71
     5
 72
    -6
 73
    -3
  0
VERTEX
  5
67B
  8
0
 10
0.0
 20
0.0
 30
0.0
 70
   128
 71
     6
 72
     1
 73
    -2
  0
SEQEND
  5
9C6
  8
0
  0
POLYLINE
  5
67C
  8
0
 66
     1
 10
0.0
 20
0.0
 30
0.0
 70
    64
 71
    12
 72
    10
  0
VERTEX
  5
67D
  8
0
 10
131.888260949448
 20
526.436006356915
 30
-83.41994397727473
 70
   192
  0
VERTEX
  5
67E
  8
0
 10
135.0033582651858
 20
535.45791905957
 30
-85.33918463849577
 70
   192
  0
VERTEX
  5
67F
  8
0
 10
141.8874785726951
 20
542.3420393670797
 30
-85.33918463849587
 70
   192
  0
VERTEX
  5
680
  8
0
 10
150.9093912753501
 20
545.4571366828179
 30
-83.41994397727503
 70
   192
  0
VERTEX
  5
681
  8
0
 10
151.9601594753158
 20
539.571579670773
 30
-93.82938384782452
 70
   192
  0
VERTEX
  5
682
  8
0
 10
152.6960183852447
 20
529.8976976258741
 30
-101.2164701407624
 70
   192
  0
VERTEX
  5
683
  8
0
 10
152.972452044894
 20
517.882925401482
 30
-104.155196732435
 70
   192
  0
VERTEX
  5
684
  8
0
 10
144.9106427196931
 20
517.7410437384299
 30
-102.3789439851246
 70
   192
  0
VERTEX
  5
685
  8
0
 10
138.2546970416816
 20
517.5137242529943
 30
-97.49891459920535
 70
   192
  0
VERTEX
  5
686
  8
0
 10
134.13892083775
 20
517.239706717007
 30
-90.34676286328302
 70
   192
  0
VERTEX
  5
687
  8
0
 10
133.8199419547159
 20
521.24194637915
 30
-89.3650468062627
 70
   192
  0
VERTEX
  5
688
  8
0
 10
133.0183185238699
 20
524.4715071253394
 30
-86.89790357013497
 70
   192
  0
VERTEX
  5
689
  8
0
 10
0.0
 20
0.0
 30
0.0
 70
   128
 71
     6
 72
     7
 73
     8
  0
VERTEX
  5
68A
  8
0
 10
0.0
 20
0.0
 30
0.0
 70
   128
 71
     9
 72
    11
 73
     6
  0
VERTEX
  5
68B
  8
0
 10
0.0
 20
0.0
 30
0.0
 70
   128
 71
     8
 72
     9
 73
     6
  0
VERTEX
  5
68C
  8
0
 10
0.0
 20
0.0
 30
0.0
 70
   128
 71
     9
 72
    10
 73
    11
  0
VERTEX
  5
68D
  8
0
 10
0.0
 20
0.0
 30
0.0
 70
   128
 71
    12
 72
     5
 73
     6
  0
VERTEX
  5
68E
  8
0
 10
0.0
 20
0.0
 30
0.0
 70
   128
 71
    11
 72
    12
 73
     6
  0
VERTEX
  5
68F
  8
0
 10
0.0
 20
0.0
 30
0.0
 70
   128
 71
    12
 72
     1
 73
     2
  0
VERTEX
  5
690
  8
0
 10
0.0
 20
0.0
 30
0.0
 70
   128
 71
     3
 72
     5
 73
    12
  0
VERTEX
  5
691
  8
0
 10
0.0
 20
0.0
 30
0.0
 70
   128
 71
     2
 72
     3
 73
    12
  0
VERTEX
  5
692
  8
0
 10
0.0
 20
0.0
 30
0.0
 70
   128
 71
     3
 72
     4
 73
     5
  0
SEQEND
  5
9C7
  8
0
  0
POLYLINE
  5
693
  8
0
 66
     1
 10
0.0
 20
0.0
 30
0.0
 70
    64
 71
     8
 72
     6
  0
VERTEX
  5
694
  8
0
 10
35.24602710807539
 20
532.547297297297
 30
-45.0
 70
   192
  0
VERTEX
  5
695
  8
0
 10
53.5472972972973
 20
550.8485674865188
 30
-45.0
 70
   192
  0
VERTEX
  5
696
  8
0
 10
53.54729729729732
 20
550.8485674865188
 30
-25.0
 70
   192
  0
VERTEX
  5
697
  8
0
 10
35.24602710807538
 20
532.547297297297
 30
-25.0
 70
   192
  0
VERTEX
  5
698
  8
0
 10
78.5472972972973
 20
557.5472972972971
 30
-45.0
 70
   192
  0
VERTEX
  5
699
  8
0
 10
78.5472972972973
 20
557.5472972972971
 30
-25.0
 70
   192
  0
VERTEX
  5
69A
  8
0
 10
28.5472972972973
 20
507.547297297297
 30
-45.0
 70
   192
  0
VERTEX
  5
69B
  8
0
 10
28.54729729729731
 20
507.547297297297
 30
-25.0
 70
   192
  0
VERTEX
  5
69C
  8
0
 10
0.0
 20
0.0
 30
0.0
 70
   128
 71
     1
 72
     2
 73
    -3
  0
VERTEX
  5
69D
  8
0
 10
0.0
 20
0.0
 30
0.0
 70
   128
 71
     4
 72
    -1
 73
     3
  0
VERTEX
  5
69E
  8
0
 10
0.0
 20
0.0
 30
0.0
 70
   128
 71
     2
 72
     5
 73
    -6
  0
VERTEX
  5
69F
  8
0
 10
0.0
 20
0.0
 30
0.0
 70
   128
 71
     3
 72
    -2
 73
     6
  0
VERTEX
  5
6A0
  8
0
 10
0.0
 20
0.0
 30
0.0
 70
   128
 71
     7
 72
     1
 73
    -4
  0
VERTEX
  5
6A1
  8
0
 10
0.0
 20
0.0
 30
0.0
 70
   128
 71
     8
 72
    -7
 73
     4
  0
SEQEND
  5
9C8
  8
0
  0
POLYLINE
  5
6A2
  8
0
 66
     1
 10
0.0
 20
0.0
 30
0.0
 70
    64
 71
    12
 72
    10
  0
VERTEX
  5
6A3
  8
0
 10
131.8882609494467
 20
59.65858823767989
 30
-83.41994397727493
 70
   192
  0
VERTEX
  5
6A4
  8
0
 10
112.4044419586916
 20
40.17476924692481
 30
-23.45491502812538
 70
   192
  0
VERTEX
  5
6A5
  8
0
 10
112.404441958692
 20
545.91982534767
 30
-23.4549150281253
 70
   192
  0
VERTEX
  5
6A6
  8
0
 10
131.8882609494478
 20
526.4360063569153
 30
-83.41994397727498
 70
   192
  0
VERTEX
  5
6A7
  8
0
 10
133.0183185238699
 20
524.4715071253394
 30
-86.89790357013497
 70
   192
  0
VERTEX
  5
6A8
  8
0
 10
133.8199419547159
 20
521.24194637915
 30
-89.3650468062627
 70
   192
  0
VERTEX
  5
6A9
  8
0
 10
134.13892083775
 20
517.239706717007
 30
-90.346762863283
 70
   192
  0
VERTEX
  5
6AA
  8
0
 10
135.6116926448685
 20
367.7999498224938
 30
-94.87948840806865
 70
   192
  0
VERTEX
  5
6AB
  8
0
 10
135.6117132047183
 20
218.2971032175013
 30
-94.87955168478004
 70
   192
  0
VERTEX
  5
6AC
  8
0
 10
134.138920837749
 20
68.85488787758801
 30
-90.346762863283
 70
   192
  0
VERTEX
  5
6AD
  8
0
 10
133.816512566453
 20
64.83601149978091
 30
-89.35449223446541
 70
   192
  0
VERTEX
  5
6AE
  8
0
 10
133.016922554416
 20
61.61973082661073
 30
-86.89360721792914
 70
   192
  0
VERTEX
  5
6AF
  8
0
 10
0.0
 20
0.0
 30
0.0
 70
   128
 71
     6
 72
     7
 73
    -8
  0
VERTEX
  5
6B0
  8
0
 10
0.0
 20
0.0
 30
0.0
 70
   128
 71
     5
 72
    -6
 73
    -8
  0
VERTEX
  5
6B1
  8
0
 10
0.0
 20
0.0
 30
0.0
 70
   128
 71
     4
 72
    -5
 73
    -8
  0
VERTEX
  5
6B2
  8
0
 10
0.0
 20
0.0
 30
0.0
 70
   128
 71
     3
 72
    -4
 73
    -8
  0
VERTEX
  5
6B3
  8
0
 10
0.0
 20
0.0
 30
0.0
 70
   128
 71
    -9
 72
     2
 73
    -3
  0
VERTEX
  5
6B4
  8
0
 10
0.0
 20
0.0
 30
0.0
 70
   128
 71
     8
 72
    -9
 73
    -3
  0
VERTEX
  5
6B5
  8
0
 10
0.0
 20
0.0
 30
0.0
 70
   128
 71
    12
 72
     1
 73
    -2
  0
VERTEX
  5
6B6
  8
0
 10
0.0
 20
0.0
 30
0.0
 70
   128
 71
    11
 72
   -12
 73
    -2
  0
VERTEX
  5
6B7
  8
0
 10
0.0
 20
0.0
 30
0.0
 70
   128
 71
    10
 72
   -11
 73
    -2
  0
VERTEX
  5
6B8
  8
0
 10
0.0
 20
0.0
 30
0.0
 70
   128
 71
     9
 72
   -10
 73
    -2
  0
SEQEND
  5
9C9
  8
0
  0
POLYLINE
  5
6B9
  8
0
 66
     1
 10
0.0
 20
0.0
 30
0.0
 70
    64
 71
    14
 72
    12
  0
VERTEX
  5
6BA
  8
0
 10
182.727084005194
 20
328.867510591413
 30
-115.1428040618244
 70
   192
  0
VERTEX
  5
6BB
  8
0
 10
167.8898658510933
 20
293.0472972966634
 30
-115.1428040461251
 70
   192
  0
VERTEX
  5
6BC
  8
0
 10
167.276247894604
 20
293.0471656534361
 30
-112.7428764198684
 70
   192
  0
VERTEX
  5
6BD
  8
0
 10
165.4353940237331
 20
293.0471656536816
 30
-110.8392837907655
 70
   192
  0
VERTEX
  5
6BE
  8
0
 10
163.0573702523345
 20
293.047297297308
 30
-110.1456105439505
 70
   192
  0
VERTEX
  5
6BF
  8
0
 10
179.3126663022879
 20
332.2872743215626
 30
-110.1456104891882
 70
   192
  0
VERTEX
  5
6C0
  8
0
 10
257.7909188873073
 20
332.2782844815754
 30
-110.1456104422488
 70
   192
  0
VERTEX
  5
6C1
  8
0
 10
274.0372243193072
 20
293.0472972972973
 30
-110.1456105447208
 70
   192
  0
VERTEX
  5
6C2
  8
0
 10
271.6592005589862
 20
293.0474567436394
 30
-110.839283791157
 70
   192
  0
VERTEX
  5
6C3
  8
0
 10
269.8183466968667
 20
293.0474567436393
 30
-112.7428764199663
 70
   192
  0
VERTEX
  5
6C4
  8
0
 10
254.367510589508
 20
328.867510591306
 30
-115.1428040618244
 70
   192
  0
VERTEX
  5
6C5
  8
0
 10
269.2047287435222
 20
293.047297297297
 30
-115.142804046125
 70
   192
  0
VERTEX
  5
6C6
  8
0
 10
218.5535726290714
 20
348.5372249279561
 30
-110.145610467896
 70
   192
  0
VERTEX
  5
6C7
  8
0
 10
218.5472972960275
 20
343.70472874351
 30
-115.1428040618244
 70
   192
  0
VERTEX
  5
6C8
  8
0
 10
0.0
 20
0.0
 30
0.0
 70
   128
 71
     1
 72
     2
 73
     3
  0
VERTEX
  5
6C9
  8
0
 10
0.0
 20
0.0
 30
0.0
 70
   128
 71
     4
 72
     5
 73
     6
  0
VERTEX
  5
6CA
  8
0
 10
0.0
 20
0.0
 30
0.0
 70
   128
 71
     7
 72
     8
 73
     9
  0
VERTEX
  5
6CB
  8
0
 10
0.0
 20
0.0
 30
0.0
 70
   128
 71
    10
 72
    11
 73
     7
  0
VERTEX
  5
6CC
  8
0
 10
0.0
 20
0.0
 30
0.0
 70
   128
 71
     9
 72
    10
 73
     7
  0
VERTEX
  5
6CD
  8
0
 10
0.0
 20
0.0
 30
0.0
 70
   128
 71
    10
 72
    12
 73
    11
  0
VERTEX
  5
6CE
  8
0
 10
0.0
 20
0.0
 30
0.0
 70
   128
 71
     3
 72
     4
 73
    13
  0
VERTEX
  5
6CF
  8
0
 10
0.0
 20
0.0
 30
0.0
 70
   128
 71
     1
 72
     3
 73
    13
  0
VERTEX
  5
6D0
  8
0
 10
0.0
 20
0.0
 30
0.0
 70
   128
 71
    14
 72
     1
 73
    13
  0
VERTEX
  5
6D1
  8
0
 10
0.0
 20
0.0
 30
0.0
 70
   128
 71
    13
 72
     4
 73
     6
  0
VERTEX
  5
6D2
  8
0
 10
0.0
 20
0.0
 30
0.0
 70
   128
 71
    11
 72
    14
 73
    13
  0
VERTEX
  5
6D3
  8
0
 10
0.0
 20
0.0
 30
0.0
 70
   128
 71
     7
 72
    11
 73
    13
  0
SEQEND
  5
9CA
  8
0
  0
POLYLINE
  5
6D4
  8
0
 66
     1
 10
0.0
 20
0.0
 30
0.0
 70
    64
 71
    12
 72
    10
  0
VERTEX
  5
6D5
  8
0
 10
107.649159377217
 20
545.91982534767
 30
-20.0
 70
   192
  0
VERTEX
  5
6D6
  8
0
 10
107.7472334027262
 20
548.1686695096146
 30
-20.0
 70
   192
  0
VERTEX
  5
6D7
  8
0
 10
108.0414554792551
 20
550.3861038562113
 30
-20.0
 70
   192
  0
VERTEX
  5
6D8
  8
0
 10
108.528530873446
 20
552.5472972972971
 30
-20.0
 70
   192
  0
VERTEX
  5
6D9
  8
0
 10
110.3933373407113
 20
552.0371795431979
 30
-20.38889636674706
 70
   192
  0
VERTEX
  5
6DA
  8
0
 10
111.9680572240542
 20
551.6064149655717
 30
-21.49508931336061
 70
   192
  0
VERTEX
  5
6DB
  8
0
 10
113.0077293869642
 20
551.3220126760833
 30
-23.14650107269697
 70
   192
  0
VERTEX
  5
6DC
  8
0
 10
112.6528947770018
 20
549.5982626339577
 30
-23.23447803238895
 70
   192
  0
VERTEX
  5
6DD
  8
0
 10
112.4480931080174
 20
547.793827664926
 30
-23.33728268419835
 70
   192
  0
VERTEX
  5
6DE
  8
0
 10
112.404441958692
 20
545.91982534767
 30
-23.4549150281253
 70
   192
  0
VERTEX
  5
6DF
  8
0
 10
111.3648835046039
 20
545.91982534767
 30
-21.65434696820561
 70
   192
  0
VERTEX
  5
6E0
  8
0
 10
109.6828425925959
 20
545.91982534767
 30
-20.43227271178697
 70
   192
  0
VERTEX
  5
6E1
  8
0
 10
0.0
 20
0.0
 30
0.0
 70
   128
 71
     6
 72
     7
 73
     8
  0
VERTEX
  5
6E2
  8
0
 10
0.0
 20
0.0
 30
0.0
 70
   128
 71
     9
 72
    11
 73
     6
  0
VERTEX
  5
6E3
  8
0
 10
0.0
 20
0.0
 30
0.0
 70
   128
 71
     8
 72
     9
 73
     6
  0
VERTEX
  5
6E4
  8
0
 10
0.0
 20
0.0
 30
0.0
 70
   128
 71
     9
 72
    10
 73
    11
  0
VERTEX
  5
6E5
  8
0
 10
0.0
 20
0.0
 30
0.0
 70
   128
 71
    12
 72
     5
 73
     6
  0
VERTEX
  5
6E6
  8
0
 10
0.0
 20
0.0
 30
0.0
 70
   128
 71
    11
 72
    12
 73
     6
  0
VERTEX
  5
6E7
  8
0
 10
0.0
 20
0.0
 30
0.0
 70
   128
 71
    12
 72
     1
 73
     2
  0
VERTEX
  5
6E8
  8
0
 10
0.0
 20
0.0
 30
0.0
 70
   128
 71
     3
 72
     5
 73
    12
  0
VERTEX
  5
6E9
  8
0
 10
0.0
 20
0.0
 30
0.0
 70
   128
 71
     2
 72
     3
 73
    12
  0
VERTEX
  5
6EA
  8
0
 10
0.0
 20
0.0
 30
0.0
 70
   128
 71
     3
 72
     4
 73
     5
  0
SEQEND
  5
9CB
  8
0
  0
POLYLINE
  5
6EB
  8
0
 66
     1
 10
0.0
 20
0.0
 30
0.0
 70
    64
 71
     8
 72
     6
  0
VERTEX
  5
6EC
  8
0
 10
111.364883504603
 20
40.1747692469248
 30
-21.65434696820576
 70
   192
  0
VERTEX
  5
6ED
  8
0
 10
109.682842592595
 20
40.1747692469248
 30
-20.43227271178701
 70
   192
  0
VERTEX
  5
6EE
  8
0
 10
109.6828425925959
 20
545.91982534767
 30
-20.43227271178697
 70
   192
  0
VERTEX
  5
6EF
  8
0
 10
111.3648835046039
 20
545.91982534767
 30
-21.65434696820561
 70
   192
  0
VERTEX
  5
6F0
  8
0
 10
107.649159377216
 20
40.1747692469248
 30
-20.0
 70
   192
  0
VERTEX
  5
6F1
  8
0
 10
107.649159377217
 20
545.91982534767
 30
-20.0
 70
   192
  0
VERTEX
  5
6F2
  8
0
 10
112.4044419586914
 20
40.17476924692482
 30
-23.4549150281253
 70
   192
  0
VERTEX
  5
6F3
  8
0
 10
112.4044419586927
 20
545.91982534767
 30
-23.45491502812507
 70
   192
  0
VERTEX
  5
6F4
  8
0
 10
0.0
 20
0.0
 30
0.0
 70
   128
 71
     1
 72
     2
 73
    -3
  0
VERTEX
  5
6F5
  8
0
 10
0.0
 20
0.0
 30
0.0
 70
   128
 71
     4
 72
    -1
 73
     3
  0
VERTEX
  5
6F6
  8
0
 10
0.0
 20
0.0
 30
0.0
 70
   128
 71
     2
 72
     5
 73
    -6
  0
VERTEX
  5
6F7
  8
0
 10
0.0
 20
0.0
 30
0.0
 70
   128
 71
     3
 72
    -2
 73
     6
  0
VERTEX
  5
6F8
  8
0
 10
0.0
 20
0.0
 30
0.0
 70
   128
 71
     7
 72
     1
 73
    -4
  0
VERTEX
  5
6F9
  8
0
 10
0.0
 20
0.0
 30
0.0
 70
   128
 71
     8
 72
    -7
 73
     4
  0
SEQEND
  5
9CC
  8
0
  0
POLYLINE
  5
6FA
  8
0
 66
     1
 10
0.0
 20
0.0
 30
0.0
 70
    64
 71
    12
 72
    10
  0
VERTEX
  5
6FB
  8
0
 10
112.404441958692
 20
40.1747692469248
 30
-23.4549150281253
 70
   192
  0
VERTEX
  5
6FC
  8
0
 10
112.4480931080167
 20
38.30076692966945
 30
-23.33728268419863
 70
   192
  0
VERTEX
  5
6FD
  8
0
 10
112.6528947770009
 20
36.49633196063774
 30
-23.23447803238926
 70
   192
  0
VERTEX
  5
6FE
  8
0
 10
113.007729386963
 20
34.77258191851111
 30
-23.1465010726971
 70
   192
  0
VERTEX
  5
6FF
  8
0
 10
111.9680572240532
 20
34.48817962902266
 30
-21.49508931336064
 70
   192
  0
VERTEX
  5
700
  8
0
 10
110.3933373407103
 20
34.05741505139645
 30
-20.38889636674707
 70
   192
  0
VERTEX
  5
701
  8
0
 10
108.528530873445
 20
33.54729729729731
 30
-19.99999999999999
 70
   192
  0
VERTEX
  5
702
  8
0
 10
108.0414554792547
 20
35.7084907383833
 30
-20.0
 70
   192
  0
VERTEX
  5
703
  8
0
 10
107.7472334027258
 20
37.92592508498031
 30
-20.0
 70
   192
  0
VERTEX
  5
704
  8
0
 10
107.649159377216
 20
40.1747692469248
 30
-20.0
 70
   192
  0
VERTEX
  5
705
  8
0
 10
109.682842592595
 20
40.1747692469248
 30
-20.43227271178701
 70
   192
  0
VERTEX
  5
706
  8
0
 10
111.364883504603
 20
40.1747692469248
 30
-21.65434696820576
 70
   192
  0
VERTEX
  5
707
  8
0
 10
0.0
 20
0.0
 30
0.0
 70
   128
 71
     6
 72
     7
 73
     8
  0
VERTEX
  5
708
  8
0
 10
0.0
 20
0.0
 30
0.0
 70
   128
 71
     9
 72
    11
 73
     6
  0
VERTEX
  5
709
  8
0
 10
0.0
 20
0.0
 30
0.0
 70
   128
 71
     8
 72
     9
 73
     6
  0
VERTEX
  5
70A
  8
0
 10
0.0
 20
0.0
 30
0.0
 70
   128
 71
     9
 72
    10
 73
    11
  0
VERTEX
  5
70B
  8
0
 10
0.0
 20
0.0
 30
0.0
 70
   128
 71
    12
 72
     5
 73
     6
  0
VERTEX
  5
70C
  8
0
 10
0.0
 20
0.0
 30
0.0
 70
   128
 71
    11
 72
    12
 73
     6
  0
VERTEX
  5
70D
  8
0
 10
0.0
 20
0.0
 30
0.0
 70
   128
 71
    12
 72
     1
 73
     2
  0
VERTEX
  5
70E
  8
0
 10
0.0
 20
0.0
 30
0.0
 70
   128
 71
     3
 72
     5
 73
    12
  0
VERTEX
  5
70F
  8
0
 10
0.0
 20
0.0
 30
0.0
 70
   128
 71
     2
 72
     3
 73
    12
  0
VERTEX
  5
710
  8
0
 10
0.0
 20
0.0
 30
0.0
 70
   128
 71
     3
 72
     4
 73
     5
  0
SEQEND
  5
9CD
  8
0
  0
POLYLINE
  5
711
  8
0
 66
     1
 10
0.0
 20
0.0
 30
0.0
 70
    64
 71
    12
 72
    10
  0
VERTEX
  5
712
  8
0
 10
108.528530873445
 20
28.5472972972973
 30
-25.00000000000001
 70
   192
  0
VERTEX
  5
713
  8
0
 10
111.1605247857793
 20
29.43798844447394
 30
-23.91087705122773
 70
   192
  0
VERTEX
  5
714
  8
0
 10
112.8548012272581
 20
31.7927295981403
 30
-23.2097829699188
 70
   192
  0
VERTEX
  5
715
  8
0
 10
113.0077293869632
 20
34.77258191851116
 30
-23.14650107269714
 70
   192
  0
VERTEX
  5
716
  8
0
 10
116.258938316973
 20
35.25997076010821
 30
-31.015519055017
 70
   192
  0
VERTEX
  5
717
  8
0
 10
119.4980438660961
 20
35.71269541340487
 30
-38.25511843802792
 70
   192
  0
VERTEX
  5
718
  8
0
 10
122.76907392776
 20
36.1391285734931
 30
-45.0
 70
   192
  0
VERTEX
  5
719
  8
0
 10
123.4890708762717
 20
32.59454202188826
 30
-45.0
 70
   192
  0
VERTEX
  5
71A
  8
0
 10
121.439118289583
 20
29.63065519273878
 30
-45.0
 70
   192
  0
VERTEX
  5
71B
  8
0
 10
117.907059180141
 20
28.5472972972974
 30
-45.0
 70
   192
  0
VERTEX
  5
71C
  8
0
 10
114.6846689026751
 20
28.54729729729739
 30
-38.68764423194862
 70
   192
  0
VERTEX
  5
71D
  8
0
 10
111.544640551975
 20
28.54729729729736
 30
-31.99143721947261
 70
   192
  0
VERTEX
  5
71E
  8
0
 10
0.0
 20
0.0
 30
0.0
 70
   128
 71
     7
 72
     8
 73
     9
  0
VERTEX
  5
71F
  8
0
 10
0.0
 20
0.0
 30
0.0
 70
   128
 71
     6
 72
     7
 73
     9
  0
VERTEX
  5
720
  8
0
 10
0.0
 20
0.0
 30
0.0
 70
   128
 71
    11
 72
     6
 73
     9
  0
VERTEX
  5
721
  8
0
 10
0.0
 20
0.0
 30
0.0
 70
   128
 71
     9
 72
    10
 73
    11
  0
VERTEX
  5
722
  8
0
 10
0.0
 20
0.0
 30
0.0
 70
   128
 71
    12
 72
     5
 73
     6
  0
VERTEX
  5
723
  8
0
 10
0.0
 20
0.0
 30
0.0
 70
   128
 71
    11
 72
    12
 73
     6
  0
VERTEX
  5
724
  8
0
 10
0.0
 20
0.0
 30
0.0
 70
   128
 71
    12
 72
     1
 73
     2
  0
VERTEX
  5
725
  8
0
 10
0.0
 20
0.0
 30
0.0
 70
   128
 71
     3
 72
     5
 73
    12
  0
VERTEX
  5
726
  8
0
 10
0.0
 20
0.0
 30
0.0
 70
   128
 71
     2
 72
     3
 73
    12
  0
VERTEX
  5
727
  8
0
 10
0.0
 20
0.0
 30
0.0
 70
   128
 71
     3
 72
     4
 73
     5
  0
SEQEND
  5
9CE
  8
0
  0
POLYLINE
  5
728
  8
0
 66
     1
 10
0.0
 20
0.0
 30
0.0
 70
    64
 71
     9
 72
     7
  0
VERTEX
  5
729
  8
0
 10
110.3933373407103
 20
34.05741505139645
 30
-20.38889636674707
 70
   192
  0
VERTEX
  5
72A
  8
0
 10
111.9680572240532
 20
34.48817962902266
 30
-21.49508931336064
 70
   192
  0
VERTEX
  5
72B
  8
0
 10
108.528530873445
 20
33.5472972972974
 30
-20.0
 70
   192
  0
VERTEX
  5
72C
  8
0
 10
111.1605247857793
 20
29.43798844447394
 30
-23.91087705122773
 70
   192
  0
VERTEX
  5
72D
  8
0
 10
108.528530873445
 20
28.5472972972973
 30
-25.00000000000001
 70
   192
  0
VERTEX
  5
72E
  8
0
 10
108.528530873445
 20
29.21717027837521
 30
-22.5
 70
   192
  0
VERTEX
  5
72F
  8
0
 10
108.528530873445
 20
31.0472972972974
 30
-20.66987298107781
 70
   192
  0
VERTEX
  5
730
  8
0
 10
112.8548012272581
 20
31.7927295981403
 30
-23.2097829699188
 70
   192
  0
VERTEX
  5
731
  8
0
 10
113.0077293869632
 20
34.77258191851107
 30
-23.14650107269702
 70
   192
  0
VERTEX
  5
732
  8
0
 10
0.0
 20
0.0
 30
0.0
 70
   128
 71
     1
 72
     2
 73
     3
  0
VERTEX
  5
733
  8
0
 10
0.0
 20
0.0
 30
0.0
 70
   128
 71
     4
 72
     5
 73
     6
  0
VERTEX
  5
734
  8
0
 10
0.0
 20
0.0
 30
0.0
 70
   128
 71
     7
 72
     3
 73
     4
  0
VERTEX
  5
735
  8
0
 10
0.0
 20
0.0
 30
0.0
 70
   128
 71
     6
 72
     7
 73
     4
  0
VERTEX
  5
736
  8
0
 10
0.0
 20
0.0
 30
0.0
 70
   128
 71
     3
 72
     8
 73
     4
  0
VERTEX
  5
737
  8
0
 10
0.0
 20
0.0
 30
0.0
 70
   128
 71
     2
 72
     9
 73
     8
  0
VERTEX
  5
738
  8
0
 10
0.0
 20
0.0
 30
0.0
 70
   128
 71
     3
 72
     2
 73
     8
  0
SEQEND
  5
9CF
  8
0
  0
POLYLINE
  5
739
  8
0
 66
     1
 10
0.0
 20
0.0
 30
0.0
 70
    64
 71
     8
 72
     6
  0
VERTEX
  5
73A
  8
0
 10
108.528530873445
 20
31.0472972972974
 30
-20.66987298107781
 70
   192
  0
VERTEX
  5
73B
  8
0
 10
108.528530873445
 20
29.21717027837521
 30
-22.5
 70
   192
  0
VERTEX
  5
73C
  8
0
 10
78.5472972972973
 20
29.21717027837501
 30
-22.5
 70
   192
  0
VERTEX
  5
73D
  8
0
 10
78.5472972972973
 20
31.0472972972972
 30
-20.66987298107781
 70
   192
  0
VERTEX
  5
73E
  8
0
 10
108.528530873445
 20
28.5472972972974
 30
-25.0
 70
   192
  0
VERTEX
  5
73F
  8
0
 10
78.54729729729735
 20
28.54729729729736
 30
-25.0
 70
   192
  0
VERTEX
  5
740
  8
0
 10
108.528530873445
 20
33.5472972972974
 30
-20.0
 70
   192
  0
VERTEX
  5
741
  8
0
 10
78.5472972972973
 20
33.5472972972972
 30
-20.0
 70
   192
  0
VERTEX
  5
742
  8
0
 10
0.0
 20
0.0
 30
0.0
 70
   128
 71
     1
 72
     2
 73
    -3
  0
VERTEX
  5
743
  8
0
 10
0.0
 20
0.0
 30
0.0
 70
   128
 71
     4
 72
    -1
 73
     3
  0
VERTEX
  5
744
  8
0
 10
0.0
 20
0.0
 30
0.0
 70
   128
 71
     2
 72
     5
 73
    -6
  0
VERTEX
  5
745
  8
0
 10
0.0
 20
0.0
 30
0.0
 70
   128
 71
     3
 72
    -2
 73
     6
  0
VERTEX
  5
746
  8
0
 10
0.0
 20
0.0
 30
0.0
 70
   128
 71
     7
 72
     1
 73
    -4
  0
VERTEX
  5
747
  8
0
 10
0.0
 20
0.0
 30
0.0
 70
   128
 71
     8
 72
    -7
 73
     4
  0
SEQEND
  5
9D0
  8
0
  0
POLYLINE
  5
748
  8
0
 66
     1
 10
0.0
 20
0.0
 30
0.0
 70
    64
 71
    12
 72
    10
  0
VERTEX
  5
749
  8
0
 10
78.5472972972973
 20
31.0472972972972
 30
-20.66987298107781
 70
   192
  0
VERTEX
  5
74A
  8
0
 10
78.5472972972973
 20
29.21717027837501
 30
-22.5
 70
   192
  0
VERTEX
  5
74B
  8
0
 10
31.0472972972973
 20
78.5472972972974
 30
-20.66987298107781
 70
   192
  0
VERTEX
  5
74C
  8
0
 10
29.21717027837511
 20
78.5472972972974
 30
-22.5
 70
   192
  0
VERTEX
  5
74D
  8
0
 10
78.5472972972973
 20
28.5472972972972
 30
-25.0
 70
   192
  0
VERTEX
  5
74E
  8
0
 10
53.54729729729728
 20
35.24602710807548
 30
-25.0
 70
   192
  0
VERTEX
  5
74F
  8
0
 10
35.24602710807537
 20
53.54729729729742
 30
-25.0
 70
   192
  0
VERTEX
  5
750
  8
0
 10
28.54729729729731
 20
78.5472972972974
 30
-25.0
 70
   192
  0
VERTEX
  5
751
  8
0
 10
78.5472972972973
 20
33.5472972972972
 30
-20.0
 70
   192
  0
VERTEX
  5
752
  8
0
 10
56.04729729729732
 20
39.57615412699766
 30
-20.0
 70
   192
  0
VERTEX
  5
753
  8
0
 10
33.5472972972973
 20
78.5472972972974
 30
-20.0
 70
   192
  0
VERTEX
  5
754
  8
0
 10
39.57615412699757
 20
56.04729729729739
 30
-20.0
 70
   192
  0
VERTEX
  5
755
  8
0
 10
0.0
 20
0.0
 30
0.0
 70
   128
 71
     1
 72
    -2
 73
     3
  0
VERTEX
  5
756
  8
0
 10
0.0
 20
0.0
 30
0.0
 70
   128
 71
    -3
 72
     2
 73
     4
  0
VERTEX
  5
757
  8
0
 10
0.0
 20
0.0
 30
0.0
 70
   128
 71
     2
 72
     5
 73
     6
  0
VERTEX
  5
758
  8
0
 10
0.0
 20
0.0
 30
0.0
 70
   128
 71
     6
 72
     7
 73
     2
  0
VERTEX
  5
759
  8
0
 10
0.0
 20
0.0
 30
0.0
 70
   128
 71
     2
 72
     7
 73
     8
  0
VERTEX
  5
75A
  8
0
 10
0.0
 20
0.0
 30
0.0
 70
   128
 71
     4
 72
     2
 73
     8
  0
VERTEX
  5
75B
  8
0
 10
0.0
 20
0.0
 30
0.0
 70
   128
 71
     9
 72
     1
 73
    10
  0
VERTEX
  5
75C
  8
0
 10
0.0
 20
0.0
 30
0.0
 70
   128
 71
     3
 72
    11
 73
    12
  0
VERTEX
  5
75D
  8
0
 10
0.0
 20
0.0
 30
0.0
 70
   128
 71
    10
 72
     1
 73
    -3
  0
VERTEX
  5
75E
  8
0
 10
0.0
 20
0.0
 30
0.0
 70
   128
 71
    12
 72
   -10
 73
     3
  0
SEQEND
  5
9D1
  8
0
  0
POLYLINE
  5
75F
  8
0
 66
     1
 10
0.0
 20
0.0
 30
0.0
 70
    64
 71
     8
 72
     6
  0
VERTEX
  5
760
  8
0
 10
31.0472972972973
 20
78.5472972972974
 30
-20.66987298107781
 70
   192
  0
VERTEX
  5
761
  8
0
 10
29.21717027837511
 20
78.5472972972974
 30
-22.5
 70
   192
  0
VERTEX
  5
762
  8
0
 10
29.21717027837511
 20
507.547297297297
 30
-22.5
 70
   192
  0
VERTEX
  5
763
  8
0
 10
31.0472972972973
 20
507.547297297297
 30
-20.66987298107781
 70
   192
  0
VERTEX
  5
764
  8
0
 10
28.5472972972973
 20
78.5472972972974
 30
-25.0
 70
   192
  0
VERTEX
  5
765
  8
0
 10
28.5472972972973
 20
507.547297297297
 30
-25.0
 70
   192
  0
VERTEX
  5
766
  8
0
 10
33.5472972972973
 20
78.5472972972974
 30
-20.0
 70
   192
  0
VERTEX
  5
767
  8
0
 10
33.5472972972973
 20
507.547297297297
 30
-20.0
 70
   192
  0
VERTEX
  5
768
  8
0
 10
0.0
 20
0.0
 30
0.0
 70
   128
 71
     1
 72
     2
 73
    -3
  0
VERTEX
  5
769
  8
0
 10
0.0
 20
0.0
 30
0.0
 70
   128
 71
     4
 72
    -1
 73
     3
  0
VERTEX
  5
76A
  8
0
 10
0.0
 20
0.0
 30
0.0
 70
   128
 71
     2
 72
     5
 73
    -6
  0
VERTEX
  5
76B
  8
0
 10
0.0
 20
0.0
 30
0.0
 70
   128
 71
     3
 72
    -2
 73
     6
  0
VERTEX
  5
76C
  8
0
 10
0.0
 20
0.0
 30
0.0
 70
   128
 71
     7
 72
     1
 73
    -4
  0
VERTEX
  5
76D
  8
0
 10
0.0
 20
0.0
 30
0.0
 70
   128
 71
     8
 72
    -7
 73
     4
  0
SEQEND
  5
9D2
  8
0
  0
POLYLINE
  5
76E
  8
0
 66
     1
 10
0.0
 20
0.0
 30
0.0
 70
    64
 71
    12
 72
    10
  0
VERTEX
  5
76F
  8
0
 10
31.0472972972973
 20
507.547297297297
 30
-20.66987298107781
 70
   192
  0
VERTEX
  5
770
  8
0
 10
29.21717027837511
 20
507.547297297297
 30
-22.5
 70
   192
  0
VERTEX
  5
771
  8
0
 10
78.5472972972973
 20
555.0472972972971
 30
-20.66987298107781
 70
   192
  0
VERTEX
  5
772
  8
0
 10
78.5472972972973
 20
556.8774243162193
 30
-22.5
 70
   192
  0
VERTEX
  5
773
  8
0
 10
28.5472972972973
 20
507.547297297297
 30
-25.0
 70
   192
  0
VERTEX
  5
774
  8
0
 10
35.24602710807538
 20
532.547297297297
 30
-25.0
 70
   192
  0
VERTEX
  5
775
  8
0
 10
53.54729729729732
 20
550.8485674865188
 30
-25.0
 70
   192
  0
VERTEX
  5
776
  8
0
 10
78.5472972972973
 20
557.547297297297
 30
-25.0
 70
   192
  0
VERTEX
  5
777
  8
0
 10
33.5472972972973
 20
507.547297297297
 30
-20.0
 70
   192
  0
VERTEX
  5
778
  8
0
 10
39.57615412699756
 20
530.047297297297
 30
-20.0
 70
   192
  0
VERTEX
  5
779
  8
0
 10
78.5472972972973
 20
552.5472972972971
 30
-20.0
 70
   192
  0
VERTEX
  5
77A
  8
0
 10
56.04729729729728
 20
546.5184404675966
 30
-20.0
 70
   192
  0
VERTEX
  5
77B
  8
0
 10
0.0
 20
0.0
 30
0.0
 70
   128
 71
     1
 72
    -2
 73
     3
  0
VERTEX
  5
77C
  8
0
 10
0.0
 20
0.0
 30
0.0
 70
   128
 71
    -3
 72
     2
 73
     4
  0
VERTEX
  5
77D
  8
0
 10
0.0
 20
0.0
 30
0.0
 70
   128
 71
     2
 72
     5
 73
     6
  0
VERTEX
  5
77E
  8
0
 10
0.0
 20
0.0
 30
0.0
 70
   128
 71
     6
 72
     7
 73
     2
  0
VERTEX
  5
77F
  8
0
 10
0.0
 20
0.0
 30
0.0
 70
   128
 71
     2
 72
     7
 73
     8
  0
VERTEX
  5
780
  8
0
 10
0.0
 20
0.0
 30
0.0
 70
   128
 71
     4
 72
     2
 73
     8
  0
VERTEX
  5
781
  8
0
 10
0.0
 20
0.0
 30
0.0
 70
   128
 71
     9
 72
     1
 73
    10
  0
VERTEX
  5
782
  8
0
 10
0.0
 20
0.0
 30
0.0
 70
   128
 71
     3
 72
    11
 73
    12
  0
VERTEX
  5
783
  8
0
 10
0.0
 20
0.0
 30
0.0
 70
   128
 71
    10
 72
     1
 73
    -3
  0
VERTEX
  5
784
  8
0
 10
0.0
 20
0.0
 30
0.0
 70
   128
 71
    12
 72
   -10
 73
     3
  0
SEQEND
  5
9D3
  8
0
  0
POLYLINE
  5
785
  8
0
 66
     1
 10
0.0
 20
0.0
 30
0.0
 70
    64
 71
     8
 72
     6
  0
VERTEX
  5
786
  8
0
 10
78.5472972972973
 20
555.0472972972971
 30
-20.66987298107781
 70
   192
  0
VERTEX
  5
787
  8
0
 10
78.5472972972973
 20
556.8774243162193
 30
-22.5
 70
   192
  0
VERTEX
  5
788
  8
0
 10
108.528530873446
 20
556.8774243162193
 30
-22.5
 70
   192
  0
VERTEX
  5
789
  8
0
 10
108.528530873446
 20
555.0472972972971
 30
-20.6698729810778
 70
   192
  0
VERTEX
  5
78A
  8
0
 10
78.5472972972973
 20
557.5472972972971
 30
-25.0
 70
   192
  0
VERTEX
  5
78B
  8
0
 10
108.528530873446
 20
557.5472972972971
 30
-25.0
 70
   192
  0
VERTEX
  5
78C
  8
0
 10
78.5472972972973
 20
552.5472972972972
 30
-20.0
 70
   192
  0
VERTEX
  5
78D
  8
0
 10
108.528530873446
 20
552.5472972972971
 30
-20.0
 70
   192
  0
VERTEX
  5
78E
  8
0
 10
0.0
 20
0.0
 30
0.0
 70
   128
 71
     1
 72
     2
 73
    -3
  0
VERTEX
  5
78F
  8
0
 10
0.0
 20
0.0
 30
0.0
 70
   128
 71
     4
 72
    -1
 73
     3
  0
VERTEX
  5
790
  8
0
 10
0.0
 20
0.0
 30
0.0
 70
   128
 71
     2
 72
     5
 73
    -6
  0
VERTEX
  5
791
  8
0
 10
0.0
 20
0.0
 30
0.0
 70
   128
 71
     3
 72
    -2
 73
     6
  0
VERTEX
  5
792
  8
0
 10
0.0
 20
0.0
 30
0.0
 70
   128
 71
     7
 72
     1
 73
    -4
  0
VERTEX
  5
793
  8
0
 10
0.0
 20
0.0
 30
0.0
 70
   128
 71
     8
 72
    -7
 73
     4
  0
SEQEND
  5
9D4
  8
0
  0
POLYLINE
  5
794
  8
0
 66
     1
 10
0.0
 20
0.0
 30
0.0
 70
    64
 71
     9
 72
     7
  0
VERTEX
  5
795
  8
0
 10
108.528530873446
 20
552.5472972972971
 30
-20.0
 70
   192
  0
VERTEX
  5
796
  8
0
 10
108.528530873446
 20
555.0472972972971
 30
-20.6698729810778
 70
   192
  0
VERTEX
  5
797
  8
0
 10
108.528530873446
 20
556.8774243162193
 30
-22.5
 70
   192
  0
VERTEX
  5
798
  8
0
 10
112.854801227259
 20
554.3018649964545
 30
-23.20978296991884
 70
   192
  0
VERTEX
  5
799
  8
0
 10
113.0077293869642
 20
551.3220126760833
 30
-23.14650107269697
 70
   192
  0
VERTEX
  5
79A
  8
0
 10
111.9680572240542
 20
551.6064149655717
 30
-21.49508931336061
 70
   192
  0
VERTEX
  5
79B
  8
0
 10
110.3933373407113
 20
552.0371795431979
 30
-20.38889636674706
 70
   192
  0
VERTEX
  5
79C
  8
0
 10
111.1605247857802
 20
556.6566061501205
 30
-23.91087705122777
 70
   192
  0
VERTEX
  5
79D
  8
0
 10
108.528530873446
 20
557.5472972972971
 30
-25.0
 70
   192
  0
VERTEX
  5
79E
  8
0
 10
0.0
 20
0.0
 30
0.0
 70
   128
 71
     1
 72
     2
 73
     3
  0
VERTEX
  5
79F
  8
0
 10
0.0
 20
0.0
 30
0.0
 70
   128
 71
     4
 72
     5
 73
     6
  0
VERTEX
  5
7A0
  8
0
 10
0.0
 20
0.0
 30
0.0
 70
   128
 71
     7
 72
     1
 73
     4
  0
VERTEX
  5
7A1
  8
0
 10
0.0
 20
0.0
 30
0.0
 70
   128
 71
     6
 72
     7
 73
     4
  0
VERTEX
  5
7A2
  8
0
 10
0.0
 20
0.0
 30
0.0
 70
   128
 71
     1
 72
     8
 73
     4
  0
VERTEX
  5
7A3
  8
0
 10
0.0
 20
0.0
 30
0.0
 70
   128
 71
     3
 72
     9
 73
     8
  0
VERTEX
  5
7A4
  8
0
 10
0.0
 20
0.0
 30
0.0
 70
   128
 71
     1
 72
     3
 73
     8
  0
SEQEND
  5
9D5
  8
0
  0
POLYLINE
  5
7A5
  8
0
 66
     1
 10
0.0
 20
0.0
 30
0.0
 70
    64
 71
    12
 72
    10
  0
VERTEX
  5
7A6
  8
0
 10
113.0077293869644
 20
551.3220126760838
 30
-23.14650107269708
 70
   192
  0
VERTEX
  5
7A7
  8
0
 10
112.854801227259
 20
554.3018649964545
 30
-23.20978296991884
 70
   192
  0
VERTEX
  5
7A8
  8
0
 10
111.1605247857802
 20
556.6566061501205
 30
-23.91087705122777
 70
   192
  0
VERTEX
  5
7A9
  8
0
 10
108.528530873446
 20
557.5472972972971
 30
-24.99999999999998
 70
   192
  0
VERTEX
  5
7AA
  8
0
 10
111.5446405519756
 20
557.5472972972971
 30
-31.99143721947363
 70
   192
  0
VERTEX
  5
7AB
  8
0
 10
114.6846689026758
 20
557.5472972972971
 30
-38.6876442319497
 70
   192
  0
VERTEX
  5
7AC
  8
0
 10
117.907059180142
 20
557.5472972972971
 30
-45.0
 70
   192
  0
VERTEX
  5
7AD
  8
0
 10
121.4466933421394
 20
556.4573778656734
 30
-45.0
 70
   192
  0
VERTEX
  5
7AE
  8
0
 10
123.4971236347723
 20
553.4892199940003
 30
-45.00000000000001
 70
   192
  0
VERTEX
  5
7AF
  8
0
 10
122.76907392776
 20
549.955466021102
 30
-45.0
 70
   192
  0
VERTEX
  5
7B0
  8
0
 10
119.4979790648346
 20
550.3818236252177
 30
-38.25508257607544
 70
   192
  0
VERTEX
  5
7B1
  8
0
 10
116.2590151464529
 20
550.8347392767984
 30
-31.01548450161675
 70
   192
  0
VERTEX
  5
7B2
  8
0
 10
0.0
 20
0.0
 30
0.0
 70
   128
 71
     6
 72
     7
 73
     8
  0
VERTEX
  5
7B3
  8
0
 10
0.0
 20
0.0
 30
0.0
 70
   128
 71
    10
 72
    11
 73
     6
  0
VERTEX
  5
7B4
  8
0
 10
0.0
 20
0.0
 30
0.0
 70
   128
 71
     9
 72
    10
 73
     6
  0
VERTEX
  5
7B5
  8
0
 10
0.0
 20
0.0
 30
0.0
 70
   128
 71
     8
 72
     9
 73
     6
  0
VERTEX
  5
7B6
  8
0
 10
0.0
 20
0.0
 30
0.0
 70
   128
 71
    12
 72
     5
 73
     6
  0
VERTEX
  5
7B7
  8
0
 10
0.0
 20
0.0
 30
0.0
 70
   128
 71
    11
 72
    12
 73
     6
  0
VERTEX
  5
7B8
  8
0
 10
0.0
 20
0.0
 30
0.0
 70
   128
 71
    12
 72
     1
 73
     2
  0
VERTEX
  5
7B9
  8
0
 10
0.0
 20
0.0
 30
0.0
 70
   128
 71
     3
 72
     5
 73
    12
  0
VERTEX
  5
7BA
  8
0
 10
0.0
 20
0.0
 30
0.0
 70
   128
 71
     2
 72
     3
 73
    12
  0
VERTEX
  5
7BB
  8
0
 10
0.0
 20
0.0
 30
0.0
 70
   128
 71
     3
 72
     4
 73
     5
  0
SEQEND
  5
9D6
  8
0
  0
POLYLINE
  5
7BC
  8
0
 66
     1
 10
0.0
 20
0.0
 30
0.0
 70
    64
 71
    10
 72
     8
  0
VERTEX
  5
7BD
  8
0
 10
86.04729729729729
 20
293.047297297297
 30
-20.0
 70
   192
  0
VERTEX
  5
7BE
  8
0
 10
51.04729729729729
 20
293.047297297297
 30
-20.0
 70
   192
  0
VERTEX
  5
7BF
  8
0
 10
51.04729729729729
 20
293.047297297297
 30
-10.0
 70
   192
  0
VERTEX
  5
7C0
  8
0
 10
86.04729729729729
 20
293.047297297297
 30
-10.0
 70
   192
  0
VERTEX
  5
7C1
  8
0
 10
68.54729729729729
 20
310.547297297297
 30
-10.0
 70
   192
  0
VERTEX
  5
7C2
  8
0
 10
68.54729729729729
 20
310.547297297297
 30
-20.0
 70
   192
  0
VERTEX
  5
7C3
  8
0
 10
80.92166596806187
 20
305.4216659680616
 30
-10.0
 70
   192
  0
VERTEX
  5
7C4
  8
0
 10
80.92166596806187
 20
305.4216659680616
 30
-20.0
 70
   192
  0
VERTEX
  5
7C5
  8
0
 10
56.17292862653271
 20
305.4216659680616
 30
-10.0
 70
   192
  0
VERTEX
  5
7C6
  8
0
 10
56.17292862653271
 20
305.4216659680616
 30
-20.0
 70
   192
  0
VERTEX
  5
7C7
  8
0
 10
0.0
 20
0.0
 30
0.0
 70
   128
 71
     8
 72
     1
 73
    -4
  0
VERTEX
  5
7C8
  8
0
 10
0.0
 20
0.0
 30
0.0
 70
   128
 71
     7
 72
    -8
 73
     4
  0
VERTEX
  5
7C9
  8
0
 10
0.0
 20
0.0
 30
0.0
 70
   128
 71
     6
 72
     8
 73
    -7
  0
VERTEX
  5
7CA
  8
0
 10
0.0
 20
0.0
 30
0.0
 70
   128
 71
     5
 72
    -6
 73
     7
  0
VERTEX
  5
7CB
  8
0
 10
0.0
 20
0.0
 30
0.0
 70
   128
 71
    10
 72
     6
 73
    -5
  0
VERTEX
  5
7CC
  8
0
 10
0.0
 20
0.0
 30
0.0
 70
   128
 71
     9
 72
   -10
 73
     5
  0
VERTEX
  5
7CD
  8
0
 10
0.0
 20
0.0
 30
0.0
 70
   128
 71
     3
 72
     2
 73
   -10
  0
VERTEX
  5
7CE
  8
0
 10
0.0
 20
0.0
 30
0.0
 70
   128
 71
     9
 72
    -3
 73
    10
  0
SEQEND
  5
9D7
  8
0
  0
POLYLINE
  5
7CF
  8
0
 66
     1
 10
0.0
 20
0.0
 30
0.0
 70
    64
 71
    15
 72
    16
  0
VERTEX
  5
7D0
  8
0
 10
49.5472972972973
 20
28.31782387779997
 30
0.0
 70
   192
  0
VERTEX
  5
7D1
  8
0
 10
28.31782387779986
 20
49.5472972972974
 30
0.0
 70
   192
  0
VERTEX
  5
7D2
  8
0
 10
36.99390788833135
 20
36.99390788833145
 30
-0.1522409349774265
 70
   192
  0
VERTEX
  5
7D3
  8
0
 10
78.5472972972973
 20
20.5472972972973
 30
0.0
 70
   192
  0
VERTEX
  5
7D4
  8
0
 10
36.22854102360117
 20
36.22854102360127
 30
-1.234633135269821
 70
   192
  0
VERTEX
  5
7D5
  8
0
 10
18.5472972972973
 20
78.5472972972974
 30
-2.0
 70
   192
  0
VERTEX
  5
7D6
  8
0
 10
26.585773070231
 20
48.54729729729738
 30
-2.0
 70
   192
  0
VERTEX
  5
7D7
  8
0
 10
78.5472972972973
 20
18.8152464897285
 30
-1.000000000000027
 70
   192
  0
VERTEX
  5
7D8
  8
0
 10
36.53510398847754
 20
36.53510398847764
 30
-0.5857864376269051
 70
   192
  0
VERTEX
  5
7D9
  8
0
 10
19.5472972972973
 20
78.5472972972974
 30
-0.2679491924311233
 70
   192
  0
VERTEX
  5
7DA
  8
0
 10
18.81524648972842
 20
78.5472972972974
 30
-0.9999999999999998
 70
   192
  0
VERTEX
  5
7DB
  8
0
 10
78.5472972972973
 20
19.54729729729734
 30
-0.2679491924311543
 70
   192
  0
VERTEX
  5
7DC
  8
0
 10
20.54729729729731
 20
78.5472972972974
 30
0.0
 70
   192
  0
VERTEX
  5
7DD
  8
0
 10
48.5472972972973
 20
26.58577307023109
 30
-2.0
 70
   192
  0
VERTEX
  5
7DE
  8
0
 10
78.54729729729732
 20
18.5472972972974
 30
-2.0
 70
   192
  0
VERTEX
  5
7DF
  8
0
 10
0.0
 20
0.0
 30
0.0
 70
   128
 71
     1
 72
     2
 73
     3
  0
VERTEX
  5
7E0
  8
0
 10
0.0
 20
0.0
 30
0.0
 70
   128
 71
     3
 72
     4
 73
     1
  0
VERTEX
  5
7E1
  8
0
 10
0.0
 20
0.0
 30
0.0
 70
   128
 71
     5
 72
     6
 73
     7
  0
VERTEX
  5
7E2
  8
0
 10
0.0
 20
0.0
 30
0.0
 70
   128
 71
     8
 72
     9
 73
     5
  0
VERTEX
  5
7E3
  8
0
 10
0.0
 20
0.0
 30
0.0
 70
   128
 71
    10
 72
     9
 73
     3
  0
VERTEX
  5
7E4
  8
0
 10
0.0
 20
0.0
 30
0.0
 70
   128
 71
     5
 72
     9
 73
    10
  0
VERTEX
  5
7E5
  8
0
 10
0.0
 20
0.0
 30
0.0
 70
   128
 71
     5
 72
    10
 73
    11
  0
VERTEX
  5
7E6
  8
0
 10
0.0
 20
0.0
 30
0.0
 70
   128
 71
    12
 72
     3
 73
     9
  0
VERTEX
  5
7E7
  8
0
 10
0.0
 20
0.0
 30
0.0
 70
   128
 71
    12
 72
     9
 73
     8
  0
VERTEX
  5
7E8
  8
0
 10
0.0
 20
0.0
 30
0.0
 70
   128
 71
     3
 72
     2
 73
    13
  0
VERTEX
  5
7E9
  8
0
 10
0.0
 20
0.0
 30
0.0
 70
   128
 71
     3
 72
    13
 73
    10
  0
VERTEX
  5
7EA
  8
0
 10
0.0
 20
0.0
 30
0.0
 70
   128
 71
     4
 72
     3
 73
    12
  0
VERTEX
  5
7EB
  8
0
 10
0.0
 20
0.0
 30
0.0
 70
   128
 71
     5
 72
    11
 73
     6
  0
VERTEX
  5
7EC
  8
0
 10
0.0
 20
0.0
 30
0.0
 70
   128
 71
     8
 72
     5
 73
    14
  0
VERTEX
  5
7ED
  8
0
 10
0.0
 20
0.0
 30
0.0
 70
   128
 71
     8
 72
    14
 73
    15
  0
VERTEX
  5
7EE
  8
0
 10
0.0
 20
0.0
 30
0.0
 70
   128
 71
    14
 72
     5
 73
     7
  0
SEQEND
  5
9D8
  8
0
  0
POLYLINE
  5
7EF
  8
0
 66
     1
 10
0.0
 20
0.0
 30
0.0
 70
    64
 71
     8
 72
     6
  0
VERTEX
  5
7F0
  8
0
 10
18.81524648972842
 20
507.547297297297
 30
-0.9999999999999998
 70
   192
  0
VERTEX
  5
7F1
  8
0
 10
18.81524648972842
 20
78.5472972972974
 30
-0.9999999999999998
 70
   192
  0
VERTEX
  5
7F2
  8
0
 10
19.5472972972973
 20
78.5472972972974
 30
-0.2679491924311233
 70
   192
  0
VERTEX
  5
7F3
  8
0
 10
19.5472972972973
 20
507.547297297297
 30
-0.2679491924311233
 70
   192
  0
VERTEX
  5
7F4
  8
0
 10
18.5472972972973
 20
507.547297297297
 30
-2.0
 70
   192
  0
VERTEX
  5
7F5
  8
0
 10
18.5472972972973
 20
78.5472972972974
 30
-2.0
 70
   192
  0
VERTEX
  5
7F6
  8
0
 10
20.5472972972973
 20
78.5472972972974
 30
0.0
 70
   192
  0
VERTEX
  5
7F7
  8
0
 10
20.5472972972973
 20
507.547297297297
 30
0.0
 70
   192
  0
VERTEX
  5
7F8
  8
0
 10
0.0
 20
0.0
 30
0.0
 70
   128
 71
     1
 72
     2
 73
    -3
  0
VERTEX
  5
7F9
  8
0
 10
0.0
 20
0.0
 30
0.0
 70
   128
 71
    -1
 72
     3
 73
     4
  0
VERTEX
  5
7FA
  8
0
 10
0.0
 20
0.0
 30
0.0
 70
   128
 71
     5
 72
     6
 73
    -2
  0
VERTEX
  5
7FB
  8
0
 10
0.0
 20
0.0
 30
0.0
 70
   128
 71
    -5
 72
     2
 73
     1
  0
VERTEX
  5
7FC
  8
0
 10
0.0
 20
0.0
 30
0.0
 70
   128
 71
     4
 72
     3
 73
    -7
  0
VERTEX
  5
7FD
  8
0
 10
0.0
 20
0.0
 30
0.0
 70
   128
 71
    -4
 72
     7
 73
     8
  0
SEQEND
  5
9D9
  8
0
  0
POLYLINE
  5
7FE
  8
0
 66
     1
 10
0.0
 20
0.0
 30
0.0
 70
    64
 71
     8
 72
     6
  0
VERTEX
  5
7FF
  8
0
 10
78.5472972972973
 20
18.8152464897285
 30
-1.000000000000027
 70
   192
  0
VERTEX
  5
800
  8
0
 10
347.547297297297
 20
18.81524648972862
 30
-0.9999999999999991
 70
   192
  0
VERTEX
  5
801
  8
0
 10
347.547297297297
 20
19.5472972972975
 30
-0.2679491924311224
 70
   192
  0
VERTEX
  5
802
  8
0
 10
78.5472972972973
 20
19.54729729729734
 30
-0.2679491924311543
 70
   192
  0
VERTEX
  5
803
  8
0
 10
78.5472972972973
 20
18.5472972972974
 30
-2.0
 70
   192
  0
VERTEX
  5
804
  8
0
 10
347.547297297297
 20
18.5472972972975
 30
-2.0
 70
   192
  0
VERTEX
  5
805
  8
0
 10
347.547297297297
 20
20.5472972972975
 30
0.0
 70
   192
  0
VERTEX
  5
806
  8
0
 10
78.5472972972973
 20
20.54729729729734
 30
0.0
 70
   192
  0
VERTEX
  5
807
  8
0
 10
0.0
 20
0.0
 30
0.0
 70
   128
 71
     1
 72
     2
 73
    -3
  0
VERTEX
  5
808
  8
0
 10
0.0
 20
0.0
 30
0.0
 70
   128
 71
    -1
 72
     3
 73
     4
  0
VERTEX
  5
809
  8
0
 10
0.0
 20
0.0
 30
0.0
 70
   128
 71
     5
 72
     6
 73
    -2
  0
VERTEX
  5
80A
  8
0
 10
0.0
 20
0.0
 30
0.0
 70
   128
 71
    -5
 72
     2
 73
     1
  0
VERTEX
  5
80B
  8
0
 10
0.0
 20
0.0
 30
0.0
 70
   128
 71
     4
 72
     3
 73
    -7
  0
VERTEX
  5
80C
  8
0
 10
0.0
 20
0.0
 30
0.0
 70
   128
 71
    -4
 72
     7
 73
     8
  0
SEQEND
  5
9DA
  8
0
  0
POLYLINE
  5
80D
  8
0
 66
     1
 10
0.0
 20
0.0
 30
0.0
 70
    64
 71
    15
 72
    16
  0
VERTEX
  5
80E
  8
0
 10
28.31782387779988
 20
536.547297297297
 30
0.0
 70
   192
  0
VERTEX
  5
80F
  8
0
 10
49.5472972972973
 20
557.7767707167944
 30
0.0
 70
   192
  0
VERTEX
  5
810
  8
0
 10
36.99390788833136
 20
549.1006867062629
 30
-0.152240934977423
 70
   192
  0
VERTEX
  5
811
  8
0
 10
20.5472972972973
 20
507.547297297297
 30
0.0
 70
   192
  0
VERTEX
  5
812
  8
0
 10
36.22854102360117
 20
549.8660535709931
 30
-1.234633135269818
 70
   192
  0
VERTEX
  5
813
  8
0
 10
78.5472972972973
 20
567.547297297297
 30
-2.0
 70
   192
  0
VERTEX
  5
814
  8
0
 10
48.5472972972973
 20
559.5088215243633
 30
-2.0
 70
   192
  0
VERTEX
  5
815
  8
0
 10
18.81524648972842
 20
507.547297297297
 30
-0.9999999999999998
 70
   192
  0
VERTEX
  5
816
  8
0
 10
36.53510398847755
 20
549.5594906061167
 30
-0.5857864376269006
 70
   192
  0
VERTEX
  5
817
  8
0
 10
78.5472972972973
 20
566.547297297297
 30
-0.267949192431123
 70
   192
  0
VERTEX
  5
818
  8
0
 10
78.5472972972973
 20
567.2793481048658
 30
-1.0
 70
   192
  0
VERTEX
  5
819
  8
0
 10
19.5472972972973
 20
507.547297297297
 30
-0.2679491924311233
 70
   192
  0
VERTEX
  5
81A
  8
0
 10
78.54729729729732
 20
565.547297297297
 30
0.0
 70
   192
  0
VERTEX
  5
81B
  8
0
 10
26.58577307023099
 20
537.547297297297
 30
-2.0
 70
   192
  0
VERTEX
  5
81C
  8
0
 10
18.54729729729731
 20
507.547297297297
 30
-2.0
 70
   192
  0
VERTEX
  5
81D
  8
0
 10
0.0
 20
0.0
 30
0.0
 70
   128
 71
     1
 72
     2
 73
     3
  0
VERTEX
  5
81E
  8
0
 10
0.0
 20
0.0
 30
0.0
 70
   128
 71
     3
 72
     4
 73
     1
  0
VERTEX
  5
81F
  8
0
 10
0.0
 20
0.0
 30
0.0
 70
   128
 71
     5
 72
     6
 73
     7
  0
VERTEX
  5
820
  8
0
 10
0.0
 20
0.0
 30
0.0
 70
   128
 71
     8
 72
     9
 73
     5
  0
VERTEX
  5
821
  8
0
 10
0.0
 20
0.0
 30
0.0
 70
   128
 71
    10
 72
     9
 73
     3
  0
VERTEX
  5
822
  8
0
 10
0.0
 20
0.0
 30
0.0
 70
   128
 71
     5
 72
     9
 73
    10
  0
VERTEX
  5
823
  8
0
 10
0.0
 20
0.0
 30
0.0
 70
   128
 71
     5
 72
    10
 73
    11
  0
VERTEX
  5
824
  8
0
 10
0.0
 20
0.0
 30
0.0
 70
   128
 71
    12
 72
     3
 73
     9
  0
VERTEX
  5
825
  8
0
 10
0.0
 20
0.0
 30
0.0
 70
   128
 71
    12
 72
     9
 73
     8
  0
VERTEX
  5
826
  8
0
 10
0.0
 20
0.0
 30
0.0
 70
   128
 71
     3
 72
     2
 73
    13
  0
VERTEX
  5
827
  8
0
 10
0.0
 20
0.0
 30
0.0
 70
   128
 71
     3
 72
    13
 73
    10
  0
VERTEX
  5
828
  8
0
 10
0.0
 20
0.0
 30
0.0
 70
   128
 71
     4
 72
     3
 73
    12
  0
VERTEX
  5
829
  8
0
 10
0.0
 20
0.0
 30
0.0
 70
   128
 71
     5
 72
    11
 73
     6
  0
VERTEX
  5
82A
  8
0
 10
0.0
 20
0.0
 30
0.0
 70
   128
 71
     8
 72
     5
 73
    14
  0
VERTEX
  5
82B
  8
0
 10
0.0
 20
0.0
 30
0.0
 70
   128
 71
     8
 72
    14
 73
    15
  0
VERTEX
  5
82C
  8
0
 10
0.0
 20
0.0
 30
0.0
 70
   128
 71
    14
 72
     5
 73
     7
  0
SEQEND
  5
9DB
  8
0
  0
POLYLINE
  5
82D
  8
0
 66
     1
 10
0.0
 20
0.0
 30
0.0
 70
    64
 71
    15
 72
    16
  0
VERTEX
  5
82E
  8
0
 10
389.1006867062629
 20
36.99390788833155
 30
-0.1522409349774245
 70
   192
  0
VERTEX
  5
82F
  8
0
 10
397.7767707167944
 20
49.54729729729749
 30
0.0
 70
   192
  0
VERTEX
  5
830
  8
0
 10
376.547297297297
 20
28.31782387780007
 30
0.0
 70
   192
  0
VERTEX
  5
831
  8
0
 10
405.547297297297
 20
78.5472972972975
 30
0.0
 70
   192
  0
VERTEX
  5
832
  8
0
 10
389.8660535709931
 20
36.22854102360137
 30
-1.234633135269819
 70
   192
  0
VERTEX
  5
833
  8
0
 10
347.547297297297
 20
18.5472972972975
 30
-2.0
 70
   192
  0
VERTEX
  5
834
  8
0
 10
377.5472972972971
 20
26.5857730702312
 30
-2.0
 70
   192
  0
VERTEX
  5
835
  8
0
 10
407.2793481048659
 20
78.5472972972975
 30
-0.9999999999999998
 70
   192
  0
VERTEX
  5
836
  8
0
 10
389.5594906061168
 20
36.53510398847774
 30
-0.5857864376269024
 70
   192
  0
VERTEX
  5
837
  8
0
 10
347.547297297297
 20
19.5472972972975
 30
-0.2679491924311224
 70
   192
  0
VERTEX
  5
838
  8
0
 10
347.547297297297
 20
18.81524648972862
 30
-0.9999999999999991
 70
   192
  0
VERTEX
  5
839
  8
0
 10
406.547297297297
 20
78.5472972972975
 30
-0.2679491924311226
 70
   192
  0
VERTEX
  5
83A
  8
0
 10
347.547297297297
 20
20.54729729729751
 30
0.0
 70
   192
  0
VERTEX
  5
83B
  8
0
 10
399.5088215243633
 20
48.54729729729752
 30
-2.0
 70
   192
  0
VERTEX
  5
83C
  8
0
 10
407.547297297297
 20
78.54729729729752
 30
-2.0
 70
   192
  0
VERTEX
  5
83D
  8
0
 10
0.0
 20
0.0
 30
0.0
 70
   128
 71
     1
 72
     2
 73
     3
  0
VERTEX
  5
83E
  8
0
 10
0.0
 20
0.0
 30
0.0
 70
   128
 71
     1
 72
     4
 73
     2
  0
VERTEX
  5
83F
  8
0
 10
0.0
 20
0.0
 30
0.0
 70
   128
 71
     5
 72
     6
 73
     7
  0
VERTEX
  5
840
  8
0
 10
0.0
 20
0.0
 30
0.0
 70
   128
 71
     8
 72
     9
 73
     5
  0
VERTEX
  5
841
  8
0
 10
0.0
 20
0.0
 30
0.0
 70
   128
 71
    10
 72
     9
 73
     1
  0
VERTEX
  5
842
  8
0
 10
0.0
 20
0.0
 30
0.0
 70
   128
 71
     5
 72
     9
 73
    10
  0
VERTEX
  5
843
  8
0
 10
0.0
 20
0.0
 30
0.0
 70
   128
 71
     5
 72
    10
 73
    11
  0
VERTEX
  5
844
  8
0
 10
0.0
 20
0.0
 30
0.0
 70
   128
 71
    12
 72
     1
 73
     9
  0
VERTEX
  5
845
  8
0
 10
0.0
 20
0.0
 30
0.0
 70
   128
 71
    12
 72
     9
 73
     8
  0
VERTEX
  5
846
  8
0
 10
0.0
 20
0.0
 30
0.0
 70
   128
 71
     1
 72
     3
 73
    13
  0
VERTEX
  5
847
  8
0
 10
0.0
 20
0.0
 30
0.0
 70
   128
 71
     1
 72
    13
 73
    10
  0
VERTEX
  5
848
  8
0
 10
0.0
 20
0.0
 30
0.0
 70
   128
 71
     4
 72
     1
 73
    12
  0
VERTEX
  5
849
  8
0
 10
0.0
 20
0.0
 30
0.0
 70
   128
 71
     5
 72
    11
 73
     6
  0
VERTEX
  5
84A
  8
0
 10
0.0
 20
0.0
 30
0.0
 70
   128
 71
     8
 72
     5
 73
    14
  0
VERTEX
  5
84B
  8
0
 10
0.0
 20
0.0
 30
0.0
 70
   128
 71
     8
 72
    14
 73
    15
  0
VERTEX
  5
84C
  8
0
 10
0.0
 20
0.0
 30
0.0
 70
   128
 71
    14
 72
     5
 73
     7
  0
SEQEND
  5
9DC
  8
0
  0
POLYLINE
  5
84D
  8
0
 66
     1
 10
0.0
 20
0.0
 30
0.0
 70
    64
 71
     8
 72
     6
  0
VERTEX
  5
84E
  8
0
 10
347.547297297297
 20
567.2793481048667
 30
-1.0
 70
   192
  0
VERTEX
  5
84F
  8
0
 10
78.5472972972973
 20
567.2793481048658
 30
-1.0
 70
   192
  0
VERTEX
  5
850
  8
0
 10
78.5472972972973
 20
566.547297297297
 30
-0.267949192431123
 70
   192
  0
VERTEX
  5
851
  8
0
 10
347.547297297297
 20
566.5472972972979
 30
-0.267949192431123
 70
   192
  0
VERTEX
  5
852
  8
0
 10
347.547297297297
 20
567.5472972972979
 30
-2.0
 70
   192
  0
VERTEX
  5
853
  8
0
 10
78.5472972972973
 20
567.547297297297
 30
-2.0
 70
   192
  0
VERTEX
  5
854
  8
0
 10
78.5472972972973
 20
565.547297297297
 30
0.0
 70
   192
  0
VERTEX
  5
855
  8
0
 10
347.5472972972971
 20
565.5472972972974
 30
0.0
 70
   192
  0
VERTEX
  5
856
  8
0
 10
0.0
 20
0.0
 30
0.0
 70
   128
 71
     1
 72
     2
 73
    -3
  0
VERTEX
  5
857
  8
0
 10
0.0
 20
0.0
 30
0.0
 70
   128
 71
    -1
 72
     3
 73
     4
  0
VERTEX
  5
858
  8
0
 10
0.0
 20
0.0
 30
0.0
 70
   128
 71
     5
 72
     6
 73
    -2
  0
VERTEX
  5
859
  8
0
 10
0.0
 20
0.0
 30
0.0
 70
   128
 71
    -5
 72
     2
 73
     1
  0
VERTEX
  5
85A
  8
0
 10
0.0
 20
0.0
 30
0.0
 70
   128
 71
     4
 72
     3
 73
    -7
  0
VERTEX
  5
85B
  8
0
 10
0.0
 20
0.0
 30
0.0
 70
   128
 71
    -4
 72
     7
 73
     8
  0
SEQEND
  5
9DD
  8
0
  0
POLYLINE
  5
85C
  8
0
 66
     1
 10
0.0
 20
0.0
 30
0.0
 70
    64
 71
     8
 72
     6
  0
VERTEX
  5
85D
  8
0
 10
407.2793481048659
 20
78.5472972972975
 30
-0.9999999999999998
 70
   192
  0
VERTEX
  5
85E
  8
0
 10
407.2793481048659
 20
507.547297297297
 30
-0.9999999999999998
 70
   192
  0
VERTEX
  5
85F
  8
0
 10
406.547297297297
 20
507.547297297297
 30
-0.2679491924311226
 70
   192
  0
VERTEX
  5
860
  8
0
 10
406.547297297297
 20
78.5472972972975
 30
-0.2679491924311226
 70
   192
  0
VERTEX
  5
861
  8
0
 10
407.547297297297
 20
78.5472972972975
 30
-2.0
 70
   192
  0
VERTEX
  5
862
  8
0
 10
407.547297297297
 20
507.547297297297
 30
-2.0
 70
   192
  0
VERTEX
  5
863
  8
0
 10
405.547297297297
 20
507.547297297297
 30
0.0
 70
   192
  0
VERTEX
  5
864
  8
0
 10
405.547297297297
 20
78.5472972972975
 30
0.0
 70
   192
  0
VERTEX
  5
865
  8
0
 10
0.0
 20
0.0
 30
0.0
 70
   128
 71
     1
 72
     2
 73
    -3
  0
VERTEX
  5
866
  8
0
 10
0.0
 20
0.0
 30
0.0
 70
   128
 71
    -1
 72
     3
 73
     4
  0
VERTEX
  5
867
  8
0
 10
0.0
 20
0.0
 30
0.0
 70
   128
 71
     5
 72
     6
 73
    -2
  0
VERTEX
  5
868
  8
0
 10
0.0
 20
0.0
 30
0.0
 70
   128
 71
    -5
 72
     2
 73
     1
  0
VERTEX
  5
869
  8
0
 10
0.0
 20
0.0
 30
0.0
 70
   128
 71
     4
 72
     3
 73
    -7
  0
VERTEX
  5
86A
  8
0
 10
0.0
 20
0.0
 30
0.0
 70
   128
 71
    -4
 72
     7
 73
     8
  0
SEQEND
  5
9DE
  8
0
  0
POLYLINE
  5
86B
  8
0
 66
     1
 10
0.0
 20
0.0
 30
0.0
 70
    64
 71
    15
 72
    16
  0
VERTEX
  5
86C
  8
0
 10
376.5472972972973
 20
557.7767707167952
 30
0.0
 70
   192
  0
VERTEX
  5
86D
  8
0
 10
397.7767707167948
 20
536.5472972972974
 30
0.0
 70
   192
  0
VERTEX
  5
86E
  8
0
 10
389.1006867062633
 20
549.1006867062636
 30
-0.1522409349773939
 70
   192
  0
VERTEX
  5
86F
  8
0
 10
347.547297297297
 20
565.5472972972979
 30
0.0
 70
   192
  0
VERTEX
  5
870
  8
0
 10
389.8660535709935
 20
549.8660535709937
 30
-1.234633135269794
 70
   192
  0
VERTEX
  5
871
  8
0
 10
407.547297297297
 20
507.547297297297
 30
-2.0
 70
   192
  0
VERTEX
  5
872
  8
0
 10
399.5088215243637
 20
537.5472972972974
 30
-2.0
 70
   192
  0
VERTEX
  5
873
  8
0
 10
347.547297297297
 20
567.2793481048667
 30
-1.0
 70
   192
  0
VERTEX
  5
874
  8
0
 10
389.5594906061171
 20
549.5594906061174
 30
-0.5857864376268647
 70
   192
  0
VERTEX
  5
875
  8
0
 10
406.547297297297
 20
507.547297297297
 30
-0.2679491924311226
 70
   192
  0
VERTEX
  5
876
  8
0
 10
407.2793481048659
 20
507.547297297297
 30
-0.9999999999999998
 70
   192
  0
VERTEX
  5
877
  8
0
 10
347.547297297297
 20
566.5472972972979
 30
-0.267949192431123
 70
   192
  0
VERTEX
  5
878
  8
0
 10
405.547297297297
 20
507.547297297297
 30
0.0
 70
   192
  0
VERTEX
  5
879
  8
0
 10
377.5472972972973
 20
559.5088215243641
 30
-2.0
 70
   192
  0
VERTEX
  5
87A
  8
0
 10
347.547297297297
 20
567.547297297298
 30
-2.0
 70
   192
  0
VERTEX
  5
87B
  8
0
 10
0.0
 20
0.0
 30
0.0
 70
   128
 71
     1
 72
     2
 73
     3
  0
VERTEX
  5
87C
  8
0
 10
0.0
 20
0.0
 30
0.0
 70
   128
 71
     3
 72
     4
 73
     1
  0
VERTEX
  5
87D
  8
0
 10
0.0
 20
0.0
 30
0.0
 70
   128
 71
     5
 72
     6
 73
     7
  0
VERTEX
  5
87E
  8
0
 10
0.0
 20
0.0
 30
0.0
 70
   128
 71
     8
 72
     9
 73
     5
  0
VERTEX
  5
87F
  8
0
 10
0.0
 20
0.0
 30
0.0
 70
   128
 71
    10
 72
     9
 73
     3
  0
VERTEX
  5
880
  8
0
 10
0.0
 20
0.0
 30
0.0
 70
   128
 71
    11
 72
     5
 73
     9
  0
VERTEX
  5
881
  8
0
 10
0.0
 20
0.0
 30
0.0
 70
   128
 71
    11
 72
     9
 73
    10
  0
VERTEX
  5
882
  8
0
 10
0.0
 20
0.0
 30
0.0
 70
   128
 71
    12
 72
     3
 73
     9
  0
VERTEX
  5
883
  8
0
 10
0.0
 20
0.0
 30
0.0
 70
   128
 71
    12
 72
     9
 73
     8
  0
VERTEX
  5
884
  8
0
 10
0.0
 20
0.0
 30
0.0
 70
   128
 71
     3
 72
     2
 73
    13
  0
VERTEX
  5
885
  8
0
 10
0.0
 20
0.0
 30
0.0
 70
   128
 71
     3
 72
    13
 73
    10
  0
VERTEX
  5
886
  8
0
 10
0.0
 20
0.0
 30
0.0
 70
   128
 71
     4
 72
     3
 73
    12
  0
VERTEX
  5
887
  8
0
 10
0.0
 20
0.0
 30
0.0
 70
   128
 71
     5
 72
    11
 73
     6
  0
VERTEX
  5
888
  8
0
 10
0.0
 20
0.0
 30
0.0
 70
   128
 71
     8
 72
     5
 73
    14
  0
VERTEX
  5
889
  8
0
 10
0.0
 20
0.0
 30
0.0
 70
   128
 71
     8
 72
    14
 73
    15
  0
VERTEX
  5
88A
  8
0
 10
0.0
 20
0.0
 30
0.0
 70
   128
 71
    14
 72
     5
 73
     7
  0
SEQEND
  5
9DF
  8
0
  0
POLYLINE
  5
88B
  8
0
 66
     1
 10
0.0
 20
0.0
 30
0.0
 70
    64
 71
    12
 72
    10
  0
VERTEX
  5
88C
  8
0
 10
402.6869090671564
 20
78.5472972972975
 30
-0.1729090847147836
 70
   192
  0
VERTEX
  5
88D
  8
0
 10
347.547297297297
 20
24.08050189224153
 30
-0.6617387872823242
 70
   192
  0
VERTEX
  5
88E
  8
0
 10
347.547297297297
 20
23.40768552743837
 30
-0.1729090847148296
 70
   192
  0
VERTEX
  5
88F
  8
0
 10
402.0140927023533
 20
78.5472972972975
 30
-0.6617387872822289
 70
   192
  0
VERTEX
  5
890
  8
0
 10
374.5727833090072
 20
31.73778242577345
 30
-1.3819660112501
 70
   192
  0
VERTEX
  5
891
  8
0
 10
347.547297297297
 20
24.4963252738771
 30
-1.3819660112501
 70
   192
  0
VERTEX
  5
892
  8
0
 10
394.356812168821
 20
51.52181128558728
 30
-1.3819660112501
 70
   192
  0
VERTEX
  5
893
  8
0
 10
401.5982693207177
 20
78.5472972972975
 30
-1.381966011250001
 70
   192
  0
VERTEX
  5
894
  8
0
 10
375.5238398253024
 20
30.0905042186808
 30
0.0
 70
   192
  0
VERTEX
  5
895
  8
0
 10
347.547297297297
 20
22.5942122412868
 30
0.0
 70
   192
  0
VERTEX
  5
896
  8
0
 10
396.0040903759137
 20
50.57075476929217
 30
0.0
 70
   192
  0
VERTEX
  5
897
  8
0
 10
403.5003823533077
 20
78.5472972972975
 30
0.0
 70
   192
  0
VERTEX
  5
898
  8
0
 10
0.0
 20
0.0
 30
0.0
 70
   128
 71
    -1
 72
     2
 73
     3
  0
VERTEX
  5
899
  8
0
 10
0.0
 20
0.0
 30
0.0
 70
   128
 71
     4
 72
    -2
 73
     1
  0
VERTEX
  5
89A
  8
0
 10
0.0
 20
0.0
 30
0.0
 70
   128
 71
     5
 72
     6
 73
     2
  0
VERTEX
  5
89B
  8
0
 10
0.0
 20
0.0
 30
0.0
 70
   128
 71
     2
 72
     7
 73
     5
  0
VERTEX
  5
89C
  8
0
 10
0.0
 20
0.0
 30
0.0
 70
   128
 71
     8
 72
     7
 73
     2
  0
VERTEX
  5
89D
  8
0
 10
0.0
 20
0.0
 30
0.0
 70
   128
 71
     8
 72
     2
 73
     4
  0
VERTEX
  5
89E
  8
0
 10
0.0
 20
0.0
 30
0.0
 70
   128
 71
     9
 72
     3
 73
    10
  0
VERTEX
  5
89F
  8
0
 10
0.0
 20
0.0
 30
0.0
 70
   128
 71
    11
 72
    12
 73
     1
  0
VERTEX
  5
8A0
  8
0
 10
0.0
 20
0.0
 30
0.0
 70
   128
 71
     1
 72
     3
 73
    -9
  0
VERTEX
  5
8A1
  8
0
 10
0.0
 20
0.0
 30
0.0
 70
   128
 71
    -1
 72
     9
 73
    11
  0
SEQEND
  5
9E0
  8
0
  0
POLYLINE
  5
8A2
  8
0
 66
     1
 10
0.0
 20
0.0
 30
0.0
 70
    64
 71
     8
 72
     6
  0
VERTEX
  5
8A3
  8
0
 10
402.0140927023533
 20
507.547297297298
 30
-0.6617387872822342
 70
   192
  0
VERTEX
  5
8A4
  8
0
 10
402.0140927023533
 20
78.5472972972975
 30
-0.6617387872822289
 70
   192
  0
VERTEX
  5
8A5
  8
0
 10
402.6869090671564
 20
78.5472972972975
 30
-0.1729090847147836
 70
   192
  0
VERTEX
  5
8A6
  8
0
 10
402.6869090671564
 20
507.547297297298
 30
-0.1729090847147852
 70
   192
  0
VERTEX
  5
8A7
  8
0
 10
401.5982693207177
 20
507.547297297298
 30
-1.381966011250011
 70
   192
  0
VERTEX
  5
8A8
  8
0
 10
401.598269320718
 20
78.54729729729746
 30
-1.38196601125011
 70
   192
  0
VERTEX
  5
8A9
  8
0
 10
403.500382353308
 20
78.5472972972975
 30
0.0
 70
   192
  0
VERTEX
  5
8AA
  8
0
 10
403.500382353308
 20
507.547297297298
 30
0.0
 70
   192
  0
VERTEX
  5
8AB
  8
0
 10
0.0
 20
0.0
 30
0.0
 70
   128
 71
     1
 72
     2
 73
    -3
  0
VERTEX
  5
8AC
  8
0
 10
0.0
 20
0.0
 30
0.0
 70
   128
 71
    -1
 72
     3
 73
     4
  0
VERTEX
  5
8AD
  8
0
 10
0.0
 20
0.0
 30
0.0
 70
   128
 71
     5
 72
     6
 73
    -2
  0
VERTEX
  5
8AE
  8
0
 10
0.0
 20
0.0
 30
0.0
 70
   128
 71
    -5
 72
     2
 73
     1
  0
VERTEX
  5
8AF
  8
0
 10
0.0
 20
0.0
 30
0.0
 70
   128
 71
     4
 72
     3
 73
    -7
  0
VERTEX
  5
8B0
  8
0
 10
0.0
 20
0.0
 30
0.0
 70
   128
 71
    -4
 72
     7
 73
     8
  0
SEQEND
  5
9E1
  8
0
  0
POLYLINE
  5
8B1
  8
0
 66
     1
 10
0.0
 20
0.0
 30
0.0
 70
    64
 71
     8
 72
     6
  0
VERTEX
  5
8B2
  8
0
 10
347.547297297297
 20
24.08050189224153
 30
-0.6617387872823242
 70
   192
  0
VERTEX
  5
8B3
  8
0
 10
78.5472972972974
 20
24.08050189224139
 30
-0.6617387872822844
 70
   192
  0
VERTEX
  5
8B4
  8
0
 10
78.5472972972974
 20
23.4076855274382
 30
-0.1729090847147985
 70
   192
  0
VERTEX
  5
8B5
  8
0
 10
347.547297297297
 20
23.40768552743837
 30
-0.1729090847148296
 70
   192
  0
VERTEX
  5
8B6
  8
0
 10
347.547297297297
 20
24.49632527387702
 30
-1.381966011250136
 70
   192
  0
VERTEX
  5
8B7
  8
0
 10
78.54729729729746
 20
24.49632527387695
 30
-1.38196601125011
 70
   192
  0
VERTEX
  5
8B8
  8
0
 10
78.5472972972974
 20
22.5942122412866
 30
0.0
 70
   192
  0
VERTEX
  5
8B9
  8
0
 10
347.547297297297
 20
22.59421224128675
 30
0.0
 70
   192
  0
VERTEX
  5
8BA
  8
0
 10
0.0
 20
0.0
 30
0.0
 70
   128
 71
     1
 72
     2
 73
    -3
  0
VERTEX
  5
8BB
  8
0
 10
0.0
 20
0.0
 30
0.0
 70
   128
 71
    -1
 72
     3
 73
     4
  0
VERTEX
  5
8BC
  8
0
 10
0.0
 20
0.0
 30
0.0
 70
   128
 71
     5
 72
     6
 73
    -2
  0
VERTEX
  5
8BD
  8
0
 10
0.0
 20
0.0
 30
0.0
 70
   128
 71
    -5
 72
     2
 73
     1
  0
VERTEX
  5
8BE
  8
0
 10
0.0
 20
0.0
 30
0.0
 70
   128
 71
     4
 72
     3
 73
    -7
  0
VERTEX
  5
8BF
  8
0
 10
0.0
 20
0.0
 30
0.0
 70
   128
 71
    -4
 72
     7
 73
     8
  0
SEQEND
  5
9E2
  8
0
  0
POLYLINE
  5
8C0
  8
0
 66
     1
 10
0.0
 20
0.0
 30
0.0
 70
    64
 71
    12
 72
    10
  0
VERTEX
  5
8C1
  8
0
 10
347.547297297297
 20
562.6869090671565
 30
-0.1729090847147845
 70
   192
  0
VERTEX
  5
8C2
  8
0
 10
402.0140927023533
 20
507.547297297298
 30
-0.6617387872822342
 70
   192
  0
VERTEX
  5
8C3
  8
0
 10
402.6869090671564
 20
507.547297297298
 30
-0.1729090847147852
 70
   192
  0
VERTEX
  5
8C4
  8
0
 10
347.547297297297
 20
562.0140927023533
 30
-0.6617387872822342
 70
   192
  0
VERTEX
  5
8C5
  8
0
 10
394.3568121688211
 20
534.5727833090082
 30
-1.3819660112501
 70
   192
  0
VERTEX
  5
8C6
  8
0
 10
401.5982693207174
 20
507.547297297298
 30
-1.3819660112501
 70
   192
  0
VERTEX
  5
8C7
  8
0
 10
374.5727833090072
 20
554.356812168822
 30
-1.3819660112501
 70
   192
  0
VERTEX
  5
8C8
  8
0
 10
347.547297297297
 20
561.5982693207178
 30
-1.381966011250009
 70
   192
  0
VERTEX
  5
8C9
  8
0
 10
396.0040903759137
 20
535.5238398253033
 30
0.0
 70
   192
  0
VERTEX
  5
8CA
  8
0
 10
403.500382353308
 20
507.547297297298
 30
0.0
 70
   192
  0
VERTEX
  5
8CB
  8
0
 10
375.5238398253023
 20
556.0040903759146
 30
0.0
 70
   192
  0
VERTEX
  5
8CC
  8
0
 10
347.547297297297
 20
563.5003823533086
 30
0.0
 70
   192
  0
VERTEX
  5
8CD
  8
0
 10
0.0
 20
0.0
 30
0.0
 70
   128
 71
    -1
 72
     2
 73
     3
  0
VERTEX
  5
8CE
  8
0
 10
0.0
 20
0.0
 30
0.0
 70
   128
 71
     4
 72
    -2
 73
     1
  0
VERTEX
  5
8CF
  8
0
 10
0.0
 20
0.0
 30
0.0
 70
   128
 71
     5
 72
     6
 73
     2
  0
VERTEX
  5
8D0
  8
0
 10
0.0
 20
0.0
 30
0.0
 70
   128
 71
     2
 72
     7
 73
     5
  0
VERTEX
  5
8D1
  8
0
 10
0.0
 20
0.0
 30
0.0
 70
   128
 71
     8
 72
     7
 73
     2
  0
VERTEX
  5
8D2
  8
0
 10
0.0
 20
0.0
 30
0.0
 70
   128
 71
     8
 72
     2
 73
     4
  0
VERTEX
  5
8D3
  8
0
 10
0.0
 20
0.0
 30
0.0
 70
   128
 71
     9
 72
     3
 73
    10
  0
VERTEX
  5
8D4
  8
0
 10
0.0
 20
0.0
 30
0.0
 70
   128
 71
    11
 72
    12
 73
     1
  0
VERTEX
  5
8D5
  8
0
 10
0.0
 20
0.0
 30
0.0
 70
   128
 71
     1
 72
     3
 73
    -9
  0
VERTEX
  5
8D6
  8
0
 10
0.0
 20
0.0
 30
0.0
 70
   128
 71
    -1
 72
     9
 73
    11
  0
SEQEND
  5
9E3
  8
0
  0
POLYLINE
  5
8D7
  8
0
 66
     1
 10
0.0
 20
0.0
 30
0.0
 70
    64
 71
    12
 72
    10
  0
VERTEX
  5
8D8
  8
0
 10
78.5472972972974
 20
23.4076855274382
 30
-0.1729090847147985
 70
   192
  0
VERTEX
  5
8D9
  8
0
 10
24.08050189224135
 20
78.5472972972974
 30
-0.661738787282244
 70
   192
  0
VERTEX
  5
8DA
  8
0
 10
23.40768552743813
 20
78.5472972972974
 30
-0.1729090847147663
 70
   192
  0
VERTEX
  5
8DB
  8
0
 10
78.5472972972974
 20
24.08050189224139
 30
-0.6617387872822844
 70
   192
  0
VERTEX
  5
8DC
  8
0
 10
31.73778242577327
 20
51.52181128558718
 30
-1.3819660112501
 70
   192
  0
VERTEX
  5
8DD
  8
0
 10
24.49632527387691
 20
78.5472972972974
 30
-1.3819660112501
 70
   192
  0
VERTEX
  5
8DE
  8
0
 10
51.52181128558716
 20
31.73778242577333
 30
-1.3819660112501
 70
   192
  0
VERTEX
  5
8DF
  8
0
 10
78.5472972972974
 20
24.49632527387691
 30
-1.381966011250107
 70
   192
  0
VERTEX
  5
8E0
  8
0
 10
30.09050421868061
 20
50.57075476929201
 30
0.0
 70
   192
  0
VERTEX
  5
8E1
  8
0
 10
22.5942122412865
 20
78.5472972972974
 30
0.0
 70
   192
  0
VERTEX
  5
8E2
  8
0
 10
50.57075476929202
 20
30.09050421868066
 30
0.0
 70
   192
  0
VERTEX
  5
8E3
  8
0
 10
78.54729729729742
 20
22.59421224128671
 30
0.0
 70
   192
  0
VERTEX
  5
8E4
  8
0
 10
0.0
 20
0.0
 30
0.0
 70
   128
 71
    -1
 72
     2
 73
     3
  0
VERTEX
  5
8E5
  8
0
 10
0.0
 20
0.0
 30
0.0
 70
   128
 71
     4
 72
    -2
 73
     1
  0
VERTEX
  5
8E6
  8
0
 10
0.0
 20
0.0
 30
0.0
 70
   128
 71
     5
 72
     6
 73
     2
  0
VERTEX
  5
8E7
  8
0
 10
0.0
 20
0.0
 30
0.0
 70
   128
 71
     2
 72
     7
 73
     5
  0
VERTEX
  5
8E8
  8
0
 10
0.0
 20
0.0
 30
0.0
 70
   128
 71
     8
 72
     7
 73
     2
  0
VERTEX
  5
8E9
  8
0
 10
0.0
 20
0.0
 30
0.0
 70
   128
 71
     8
 72
     2
 73
     4
  0
VERTEX
  5
8EA
  8
0
 10
0.0
 20
0.0
 30
0.0
 70
   128
 71
     9
 72
     3
 73
    10
  0
VERTEX
  5
8EB
  8
0
 10
0.0
 20
0.0
 30
0.0
 70
   128
 71
    11
 72
    12
 73
     1
  0
VERTEX
  5
8EC
  8
0
 10
0.0
 20
0.0
 30
0.0
 70
   128
 71
     1
 72
     3
 73
    -9
  0
VERTEX
  5
8ED
  8
0
 10
0.0
 20
0.0
 30
0.0
 70
   128
 71
    -1
 72
     9
 73
    11
  0
SEQEND
  5
9E4
  8
0
  0
POLYLINE
  5
8EE
  8
0
 66
     1
 10
0.0
 20
0.0
 30
0.0
 70
    64
 71
     8
 72
     6
  0
VERTEX
  5
8EF
  8
0
 10
78.5472972972971
 20
562.0140927023533
 30
-0.6617387872821929
 70
   192
  0
VERTEX
  5
8F0
  8
0
 10
347.547297297297
 20
562.0140927023533
 30
-0.6617387872822342
 70
   192
  0
VERTEX
  5
8F1
  8
0
 10
347.547297297297
 20
562.6869090671565
 30
-0.1729090847147845
 70
   192
  0
VERTEX
  5
8F2
  8
0
 10
78.5472972972971
 20
562.6869090671565
 30
-0.1729090847147445
 70
   192
  0
VERTEX
  5
8F3
  8
0
 10
78.5472972972971
 20
561.5982693207178
 30
-1.381966011249967
 70
   192
  0
VERTEX
  5
8F4
  8
0
 10
347.547297297297
 20
561.598269320718
 30
-1.38196601125006
 70
   192
  0
VERTEX
  5
8F5
  8
0
 10
347.547297297297
 20
563.500382353308
 30
0.0
 70
   192
  0
VERTEX
  5
8F6
  8
0
 10
78.54729729729712
 20
563.500382353308
 30
0.0
 70
   192
  0
VERTEX
  5
8F7
  8
0
 10
0.0
 20
0.0
 30
0.0
 70
   128
 71
     1
 72
     2
 73
    -3
  0
VERTEX
  5
8F8
  8
0
 10
0.0
 20
0.0
 30
0.0
 70
   128
 71
    -1
 72
     3
 73
     4
  0
VERTEX
  5
8F9
  8
0
 10
0.0
 20
0.0
 30
0.0
 70
   128
 71
     5
 72
     6
 73
    -2
  0
VERTEX
  5
8FA
  8
0
 10
0.0
 20
0.0
 30
0.0
 70
   128
 71
    -5
 72
     2
 73
     1
  0
VERTEX
  5
8FB
  8
0
 10
0.0
 20
0.0
 30
0.0
 70
   128
 71
     4
 72
     3
 73
    -7
  0
VERTEX
  5
8FC
  8
0
 10
0.0
 20
0.0
 30
0.0
 70
   128
 71
    -4
 72
     7
 73
     8
  0
SEQEND
  5
9E5
  8
0
  0
POLYLINE
  5
8FD
  8
0
 66
     1
 10
0.0
 20
0.0
 30
0.0
 70
    64
 71
     8
 72
     6
  0
VERTEX
  5
8FE
  8
0
 10
24.08050189224135
 20
78.5472972972974
 30
-0.661738787282244
 70
   192
  0
VERTEX
  5
8FF
  8
0
 10
24.08050189224118
 20
507.547297297298
 30
-0.6617387872822729
 70
   192
  0
VERTEX
  5
900
  8
0
 10
23.407685527438
 20
507.547297297298
 30
-0.1729090847147954
 70
   192
  0
VERTEX
  5
901
  8
0
 10
23.40768552743813
 20
78.5472972972974
 30
-0.1729090847147663
 70
   192
  0
VERTEX
  5
902
  8
0
 10
24.4963252738769
 20
78.5472972972974
 30
-1.381966011250078
 70
   192
  0
VERTEX
  5
903
  8
0
 10
24.49632527387664
 20
507.547297297298
 30
-1.38196601125011
 70
   192
  0
VERTEX
  5
904
  8
0
 10
22.5942122412864
 20
507.547297297298
 30
0.0
 70
   192
  0
VERTEX
  5
905
  8
0
 10
22.59421224128656
 20
78.5472972972974
 30
0.0
 70
   192
  0
VERTEX
  5
906
  8
0
 10
0.0
 20
0.0
 30
0.0
 70
   128
 71
     1
 72
     2
 73
    -3
  0
VERTEX
  5
907
  8
0
 10
0.0
 20
0.0
 30
0.0
 70
   128
 71
    -1
 72
     3
 73
     4
  0
VERTEX
  5
908
  8
0
 10
0.0
 20
0.0
 30
0.0
 70
   128
 71
     5
 72
     6
 73
    -2
  0
VERTEX
  5
909
  8
0
 10
0.0
 20
0.0
 30
0.0
 70
   128
 71
    -5
 72
     2
 73
     1
  0
VERTEX
  5
90A
  8
0
 10
0.0
 20
0.0
 30
0.0
 70
   128
 71
     4
 72
     3
 73
    -7
  0
VERTEX
  5
90B
  8
0
 10
0.0
 20
0.0
 30
0.0
 70
   128
 71
    -4
 72
     7
 73
     8
  0
SEQEND
  5
9E6
  8
0
  0
POLYLINE
  5
90C
  8
0
 66
     1
 10
0.0
 20
0.0
 30
0.0
 70
    64
 71
    12
 72
    10
  0
VERTEX
  5
90D
  8
0
 10
23.407685527438
 20
507.547297297298
 30
-0.1729090847147954
 70
   192
  0
VERTEX
  5
90E
  8
0
 10
78.5472972972971
 20
562.0140927023533
 30
-0.6617387872821929
 70
   192
  0
VERTEX
  5
90F
  8
0
 10
78.5472972972971
 20
562.6869090671565
 30
-0.1729090847147445
 70
   192
  0
VERTEX
  5
910
  8
0
 10
24.08050189224118
 20
507.547297297298
 30
-0.6617387872822729
 70
   192
  0
VERTEX
  5
911
  8
0
 10
51.52181128558719
 20
554.3568121688213
 30
-1.38196601125011
 70
   192
  0
VERTEX
  5
912
  8
0
 10
78.5472972972971
 20
561.5982693207176
 30
-1.38196601125011
 70
   192
  0
VERTEX
  5
913
  8
0
 10
31.7377824257734
 20
534.5727833090077
 30
-1.38196601125011
 70
   192
  0
VERTEX
  5
914
  8
0
 10
24.4963252738767
 20
507.547297297298
 30
-1.381966011250085
 70
   192
  0
VERTEX
  5
915
  8
0
 10
50.57075476929198
 20
556.0040903759141
 30
0.0
 70
   192
  0
VERTEX
  5
916
  8
0
 10
78.5472972972971
 20
563.500382353308
 30
0.00000000000004
 70
   192
  0
VERTEX
  5
917
  8
0
 10
30.09050421868065
 20
535.523839825303
 30
0.0
 70
   192
  0
VERTEX
  5
918
  8
0
 10
22.59421224128631
 20
507.547297297298
 30
0.0
 70
   192
  0
VERTEX
  5
919
  8
0
 10
0.0
 20
0.0
 30
0.0
 70
   128
 71
    -1
 72
     2
 73
     3
  0
VERTEX
  5
91A
  8
0
 10
0.0
 20
0.0
 30
0.0
 70
   128
 71
     1
 72
     4
 73
    -2
  0
VERTEX
  5
91B
  8
0
 10
0.0
 20
0.0
 30
0.0
 70
   128
 71
     5
 72
     6
 73
     2
  0
VERTEX
  5
91C
  8
0
 10
0.0
 20
0.0
 30
0.0
 70
   128
 71
    -2
 72
     7
 73
     5
  0
VERTEX
  5
91D
  8
0
 10
0.0
 20
0.0
 30
0.0
 70
   128
 71
     4
 72
     8
 73
     7
  0
VERTEX
  5
91E
  8
0
 10
0.0
 20
0.0
 30
0.0
 70
   128
 71
     4
 72
    -7
 73
     2
  0
VERTEX
  5
91F
  8
0
 10
0.0
 20
0.0
 30
0.0
 70
   128
 71
     9
 72
     3
 73
    10
  0
VERTEX
  5
920
  8
0
 10
0.0
 20
0.0
 30
0.0
 70
   128
 71
    11
 72
    12
 73
     1
  0
VERTEX
  5
921
  8
0
 10
0.0
 20
0.0
 30
0.0
 70
   128
 71
     1
 72
     3
 73
    -9
  0
VERTEX
  5
922
  8
0
 10
0.0
 20
0.0
 30
0.0
 70
   128
 71
    -1
 72
     9
 73
    11
  0
SEQEND
  5
9E7
  8
0
  0
POLYLINE
  5
923
  8
0
 66
     1
 10
0.0
 20
0.0
 30
0.0
 70
    64
 71
     9
 72
     7
  0
VERTEX
  5
924
  8
0
 10
121.985639750341
 20
555.997507154977
 30
-11.1657795993845
 70
   192
  0
VERTEX
  5
925
  8
0
 10
123.7377456654169
 20
557.4077124815772
 30
-10.83543819127232
 70
   192
  0
VERTEX
  5
926
  8
0
 10
125.6597326465439
 20
558.5499853840447
 30
-9.905691280513885
 70
   192
  0
VERTEX
  5
927
  8
0
 10
127.608834483669
 20
559.247128311548
 30
-8.61803398874995
 70
   192
  0
VERTEX
  5
928
  8
0
 10
124.687382866337
 20
558.7196679234474
 30
-9.452664977199513
 70
   192
  0
VERTEX
  5
929
  8
0
 10
122.4063318654377
 20
558.0099432840498
 30
-9.886223170158459
 70
   192
  0
VERTEX
  5
92A
  8
0
 10
120.765681480971
 20
557.3450152789579
 30
-10.0
 70
   192
  0
VERTEX
  5
92B
  8
0
 10
121.263789858755
 20
556.7948283565534
 30
-10.14280254297061
 70
   192
  0
VERTEX
  5
92C
  8
0
 10
121.6907670935165
 20
556.3232095257773
 30
-10.55081760560361
 70
   192
  0
VERTEX
  5
92D
  8
0
 10
0.0
 20
0.0
 30
0.0
 70
   128
 71
     8
 72
     4
 73
     5
  0
VERTEX
  5
92E
  8
0
 10
0.0
 20
0.0
 30
0.0
 70
   128
 71
     5
 72
     6
 73
     8
  0
VERTEX
  5
92F
  8
0
 10
0.0
 20
0.0
 30
0.0
 70
   128
 71
     6
 72
     7
 73
     8
  0
VERTEX
  5
930
  8
0
 10
0.0
 20
0.0
 30
0.0
 70
   128
 71
     8
 72
     9
 73
     4
  0
VERTEX
  5
931
  8
0
 10
0.0
 20
0.0
 30
0.0
 70
   128
 71
     9
 72
     1
 73
     2
  0
VERTEX
  5
932
  8
0
 10
0.0
 20
0.0
 30
0.0
 70
   128
 71
     2
 72
     3
 73
     9
  0
VERTEX
  5
933
  8
0
 10
0.0
 20
0.0
 30
0.0
 70
   128
 71
     3
 72
     4
 73
     9
  0
SEQEND
  5
9E8
  8
0
  0
POLYLINE
  5
934
  8
0
 66
     1
 10
0.0
 20
0.0
 30
0.0
 70
    64
 71
    12
 72
    10
  0
VERTEX
  5
935
  8
0
 10
121.9856397503409
 20
555.9975071549775
 30
-11.16577959938468
 70
   192
  0
VERTEX
  5
936
  8
0
 10
121.6907670935165
 20
556.3232095257773
 30
-10.55081760560361
 70
   192
  0
VERTEX
  5
937
  8
0
 10
121.263789858755
 20
556.7948283565534
 30
-10.14280254297061
 70
   192
  0
VERTEX
  5
938
  8
0
 10
120.765681480971
 20
557.3450152789579
 30
-9.99999999999998
 70
   192
  0
VERTEX
  5
939
  8
0
 10
118.7827123774407
 20
554.9538838066912
 30
-9.999999999999996
 70
   192
  0
VERTEX
  5
93A
  8
0
 10
117.516337275325
 20
552.0197913930937
 30
-10.0
 70
   192
  0
VERTEX
  5
93B
  8
0
 10
117.094212241286
 20
548.838507195437
 30
-10.0
 70
   192
  0
VERTEX
  5
93C
  8
0
 10
117.9076855274377
 20
548.838507195437
 30
-10.17290908471483
 70
   192
  0
VERTEX
  5
93D
  8
0
 10
118.5805018922409
 20
548.838507195437
 30
-10.66173878728239
 70
   192
  0
VERTEX
  5
93E
  8
0
 10
118.9963252738764
 20
548.838507195437
 30
-11.38196601125031
 70
   192
  0
VERTEX
  5
93F
  8
0
 10
119.3354403063793
 20
551.6251112867504
 30
-11.25909183112771
 70
   192
  0
VERTEX
  5
940
  8
0
 10
120.3760072862286
 20
554.0553195169905
 30
-11.18694719327282
 70
   192
  0
VERTEX
  5
941
  8
0
 10
0.0
 20
0.0
 30
0.0
 70
   128
 71
     6
 72
     7
 73
     8
  0
VERTEX
  5
942
  8
0
 10
0.0
 20
0.0
 30
0.0
 70
   128
 71
     9
 72
    11
 73
     6
  0
VERTEX
  5
943
  8
0
 10
0.0
 20
0.0
 30
0.0
 70
   128
 71
     8
 72
     9
 73
     6
  0
VERTEX
  5
944
  8
0
 10
0.0
 20
0.0
 30
0.0
 70
   128
 71
     9
 72
    10
 73
    11
  0
VERTEX
  5
945
  8
0
 10
0.0
 20
0.0
 30
0.0
 70
   128
 71
    12
 72
     5
 73
     6
  0
VERTEX
  5
946
  8
0
 10
0.0
 20
0.0
 30
0.0
 70
   128
 71
    11
 72
    12
 73
     6
  0
VERTEX
  5
947
  8
0
 10
0.0
 20
0.0
 30
0.0
 70
   128
 71
    12
 72
     1
 73
     2
  0
VERTEX
  5
948
  8
0
 10
0.0
 20
0.0
 30
0.0
 70
   128
 71
     3
 72
     5
 73
    12
  0
VERTEX
  5
949
  8
0
 10
0.0
 20
0.0
 30
0.0
 70
   128
 71
     2
 72
     3
 73
    12
  0
VERTEX
  5
94A
  8
0
 10
0.0
 20
0.0
 30
0.0
 70
   128
 71
     3
 72
     4
 73
     5
  0
SEQEND
  5
9E9
  8
0
  0
POLYLINE
  5
94B
  8
0
 66
     1
 10
0.0
 20
0.0
 30
0.0
 70
    64
 71
     8
 72
     6
  0
VERTEX
  5
94C
  8
0
 10
118.5805018922407
 20
37.2560873991575
 30
-10.66173878728224
 70
   192
  0
VERTEX
  5
94D
  8
0
 10
118.5805018922409
 20
548.838507195437
 30
-10.66173878728239
 70
   192
  0
VERTEX
  5
94E
  8
0
 10
117.9076855274377
 20
548.838507195437
 30
-10.17290908471483
 70
   192
  0
VERTEX
  5
94F
  8
0
 10
117.9076855274376
 20
37.2560873991575
 30
-10.17290908471479
 70
   192
  0
VERTEX
  5
950
  8
0
 10
118.9963252738763
 20
37.2560873991575
 30
-11.38196601125001
 70
   192
  0
VERTEX
  5
951
  8
0
 10
118.996325273877
 20
548.838507195437
 30
-11.3819660112501
 70
   192
  0
VERTEX
  5
952
  8
0
 10
117.094212241286
 20
548.838507195437
 30
-10.0
 70
   192
  0
VERTEX
  5
953
  8
0
 10
117.0942122412854
 20
37.25608739915742
 30
-10.0
 70
   192
  0
VERTEX
  5
954
  8
0
 10
0.0
 20
0.0
 30
0.0
 70
   128
 71
     1
 72
     2
 73
    -3
  0
VERTEX
  5
955
  8
0
 10
0.0
 20
0.0
 30
0.0
 70
   128
 71
    -1
 72
     3
 73
     4
  0
VERTEX
  5
956
  8
0
 10
0.0
 20
0.0
 30
0.0
 70
   128
 71
     5
 72
     6
 73
    -2
  0
VERTEX
  5
957
  8
0
 10
0.0
 20
0.0
 30
0.0
 70
   128
 71
    -5
 72
     2
 73
     1
  0
VERTEX
  5
958
  8
0
 10
0.0
 20
0.0
 30
0.0
 70
   128
 71
     4
 72
     3
 73
    -7
  0
VERTEX
  5
959
  8
0
 10
0.0
 20
0.0
 30
0.0
 70
   128
 71
    -4
 72
     7
 73
     8
  0
SEQEND
  5
9EA
  8
0
  0
POLYLINE
  5
95A
  8
0
 66
     1
 10
0.0
 20
0.0
 30
0.0
 70
    64
 71
    12
 72
    10
  0
VERTEX
  5
95B
  8
0
 10
118.9963252738763
 20
37.2560873991575
 30
-11.38196601125001
 70
   192
  0
VERTEX
  5
95C
  8
0
 10
118.5805018922407
 20
37.2560873991575
 30
-10.66173878728224
 70
   192
  0
VERTEX
  5
95D
  8
0
 10
117.9076855274376
 20
37.2560873991575
 30
-10.17290908471479
 70
   192
  0
VERTEX
  5
95E
  8
0
 10
117.094212241286
 20
37.2560873991575
 30
-10.0
 70
   192
  0
VERTEX
  5
95F
  8
0
 10
117.5163372753244
 20
34.07480320150114
 30
-10.0
 70
   192
  0
VERTEX
  5
960
  8
0
 10
118.7827123774398
 20
31.14071078790356
 30
-10.0
 70
   192
  0
VERTEX
  5
961
  8
0
 10
120.76568148097
 20
28.7495793156372
 30
-10.0
 70
   192
  0
VERTEX
  5
962
  8
0
 10
121.263789858754
 20
29.29976623804174
 30
-10.1428025429706
 70
   192
  0
VERTEX
  5
963
  8
0
 10
121.6907670935154
 20
29.77138506881773
 30
-10.55081760560354
 70
   192
  0
VERTEX
  5
964
  8
0
 10
121.9856397503399
 20
30.09708743961754
 30
-11.16577959938452
 70
   192
  0
VERTEX
  5
965
  8
0
 10
120.3760072862277
 20
32.03927507760422
 30
-11.18694719327278
 70
   192
  0
VERTEX
  5
966
  8
0
 10
119.3354403063783
 20
34.46948330784404
 30
-11.25909183112777
 70
   192
  0
VERTEX
  5
967
  8
0
 10
0.0
 20
0.0
 30
0.0
 70
   128
 71
     6
 72
     7
 73
     8
  0
VERTEX
  5
968
  8
0
 10
0.0
 20
0.0
 30
0.0
 70
   128
 71
     9
 72
    11
 73
     6
  0
VERTEX
  5
969
  8
0
 10
0.0
 20
0.0
 30
0.0
 70
   128
 71
     8
 72
     9
 73
     6
  0
VERTEX
  5
96A
  8
0
 10
0.0
 20
0.0
 30
0.0
 70
   128
 71
     9
 72
    10
 73
    11
  0
VERTEX
  5
96B
  8
0
 10
0.0
 20
0.0
 30
0.0
 70
   128
 71
    12
 72
     5
 73
     6
  0
VERTEX
  5
96C
  8
0
 10
0.0
 20
0.0
 30
0.0
 70
   128
 71
    11
 72
    12
 73
     6
  0
VERTEX
  5
96D
  8
0
 10
0.0
 20
0.0
 30
0.0
 70
   128
 71
    12
 72
     1
 73
     2
  0
VERTEX
  5
96E
  8
0
 10
0.0
 20
0.0
 30
0.0
 70
   128
 71
     3
 72
     5
 73
    12
  0
VERTEX
  5
96F
  8
0
 10
0.0
 20
0.0
 30
0.0
 70
   128
 71
     2
 72
     3
 73
    12
  0
VERTEX
  5
970
  8
0
 10
0.0
 20
0.0
 30
0.0
 70
   128
 71
     3
 72
     4
 73
     5
  0
SEQEND
  5
9EB
  8
0
  0
POLYLINE
  5
971
  8
0
 66
     1
 10
0.0
 20
0.0
 30
0.0
 70
    64
 71
     9
 72
     7
  0
VERTEX
  5
972
  8
0
 10
120.76568148097
 20
28.7495793156372
 30
-10.0
 70
   192
  0
VERTEX
  5
973
  8
0
 10
122.406331870076
 20
28.08465130856604
 30
-9.886223169459932
 70
   192
  0
VERTEX
  5
974
  8
0
 10
124.6873828709756
 20
27.37492666962417
 30
-9.452664975756976
 70
   192
  0
VERTEX
  5
975
  8
0
 10
127.608834483669
 20
26.8474662830468
 30
-8.618033988749911
 70
   192
  0
VERTEX
  5
976
  8
0
 10
125.6594829860771
 20
27.54473260297176
 30
-9.905832422893754
 70
   192
  0
VERTEX
  5
977
  8
0
 10
123.7375848046797
 20
28.68697048568125
 30
-10.83545864326593
 70
   192
  0
VERTEX
  5
978
  8
0
 10
121.98563975034
 20
30.0970874396175
 30
-11.1657795993845
 70
   192
  0
VERTEX
  5
979
  8
0
 10
121.6907670935154
 20
29.77138506881773
 30
-10.55081760560354
 70
   192
  0
VERTEX
  5
97A
  8
0
 10
121.263789858754
 20
29.29976623804174
 30
-10.1428025429706
 70
   192
  0
VERTEX
  5
97B
  8
0
 10
0.0
 20
0.0
 30
0.0
 70
   128
 71
     8
 72
     4
 73
     5
  0
VERTEX
  5
97C
  8
0
 10
0.0
 20
0.0
 30
0.0
 70
   128
 71
     5
 72
     6
 73
     8
  0
VERTEX
  5
97D
  8
0
 10
0.0
 20
0.0
 30
0.0
 70
   128
 71
     6
 72
     7
 73
     8
  0
VERTEX
  5
97E
  8
0
 10
0.0
 20
0.0
 30
0.0
 70
   128
 71
     8
 72
     9
 73
     4
  0
VERTEX
  5
97F
  8
0
 10
0.0
 20
0.0
 30
0.0
 70
   128
 71
     9
 72
     1
 73
     2
  0
VERTEX
  5
980
  8
0
 10
0.0
 20
0.0
 30
0.0
 70
   128
 71
     2
 72
     3
 73
     9
  0
VERTEX
  5
981
  8
0
 10
0.0
 20
0.0
 30
0.0
 70
   128
 71
     3
 72
     4
 73
     9
  0
SEQEND
  5
9EC
  8
0
  0
ENDBLK
  5
983
  8
0
  0
ENDSEC
  0
SECTION
  2
ENTITIES
  0
INSERT
  5
BD
  8
0
  2
*X1
 10
0.0
 20
0.0
 30
0.0
  0
ENDSEC
  0
EOF
