  0
SECTION
  2
HEADER
  9
$ACADVER
  1
AC1009
  9
$DWGCODEPAGE
  3
ansi_1250
  9
$INSBASE
 10
0.0
 20
0.0
 30
0.0
  9
$EXTMIN
 10
18.547297297297
 20
18.5472972972973
 30
-128.054082898501
  9
$EXTMAX
 10
407.5472972972971
 20
767.547297297298
 30
0.0
  9
$LIMMIN
 10
0.0
 20
0.0
  9
$LIMMAX
 10
12.0
 20
9.0
  9
$ORTHOMODE
 70
     0
  9
$REGENMODE
 70
     1
  9
$FILLMODE
 70
     1
  9
$QTEXTMODE
 70
     0
  9
$MIRRTEXT
 70
     0
  9
$DRAGMODE
 70
     2
  9
$LTSCALE
 40
1.0
  9
$OSMODE
 70
   511
  9
$ATTMODE
 70
     1
  9
$TEXTSIZE
 40
0.2
  9
$TRACEWID
 40
0.05
  9
$TEXTSTYLE
  7
STANDARD
  9
$CLAYER
  8
0
  9
$CELTYPE
  6
BYLAYER
  9
$CECOLOR
 62
   256
  9
$DIMSCALE
 40
1.0
  9
$DIMASZ
 40
0.18
  9
$DIMEXO
 40
0.0625
  9
$DIMDLI
 40
0.38
  9
$DIMRND
 40
0.0
  9
$DIMDLE
 40
0.0
  9
$DIMEXE
 40
0.18
  9
$DIMTP
 40
0.0
  9
$DIMTM
 40
0.0
  9
$DIMTXT
 40
0.18
  9
$DIMCEN
 40
-0.09
  9
$DIMTSZ
 40
0.0
  9
$DIMTOL
 70
     0
  9
$DIMLIM
 70
     0
  9
$DIMTIH
 70
     1
  9
$DIMTOH
 70
     1
  9
$DIMSE1
 70
     0
  9
$DIMSE2
 70
     0
  9
$DIMTAD
 70
     0
  9
$DIMZIN
 70
     0
  9
$DIMBLK
  1

  9
$DIMASO
 70
     1
  9
$DIMSHO
 70
     1
  9
$DIMPOST
  1

  9
$DIMAPOST
  1

  9
$DIMALT
 70
     0
  9
$DIMALTD
 70
     2
  9
$DIMALTF
 40
25.4
  9
$DIMLFAC
 40
1.0
  9
$DIMTOFL
 70
     0
  9
$DIMTVP
 40
0.0
  9
$DIMTIX
 70
     0
  9
$DIMSOXD
 70
     0
  9
$DIMSAH
 70
     0
  9
$DIMBLK1
  1

  9
$DIMBLK2
  1

  9
$DIMSTYLE
  2
STANDARD
  9
$DIMCLRD
 70
     0
  9
$DIMCLRE
 70
     0
  9
$DIMCLRT
 70
     0
  9
$DIMTFAC
 40
1.0
  9
$DIMGAP
 40
0.09
  9
$LUNITS
 70
     2
  9
$LUPREC
 70
     4
  9
$SKETCHINC
 40
0.1
  9
$FILLETRAD
 40
0.0
  9
$AUNITS
 70
     0
  9
$AUPREC
 70
     0
  9
$MENU
  1
.
  9
$ELEVATION
 40
0.0
  9
$PELEVATION
 40
0.0
  9
$THICKNESS
 40
0.0
  9
$LIMCHECK
 70
     0
  9
$CHAMFERA
 40
0.0
  9
$CHAMFERB
 40
0.0
  9
$SKPOLY
 70
     0
  9
$TDCREATE
 40
2452643.105050938
  9
$TDUPDATE
 40
2460332.720381459
  9
$TDINDWG
 40
0.0007089815
  9
$TDUSRTIMER
 40
0.0007089815
  9
$USRTIMER
 70
     1
  9
$ANGBASE
 50
0.0
  9
$ANGDIR
 70
     0
  9
$PDMODE
 70
     0
  9
$PDSIZE
 40
0.0
  9
$PLINEWID
 40
0.0
  9
$COORDS
 70
     1
  9
$SPLFRAME
 70
     0
  9
$SPLINETYPE
 70
     6
  9
$SPLINESEGS
 70
     8
  9
$ATTDIA
 70
     0
  9
$ATTREQ
 70
     1
  9
$HANDLING
 70
     1
  9
$HANDSEED
  5
A38
  9
$SURFTAB1
 70
     6
  9
$SURFTAB2
 70
     6
  9
$SURFTYPE
 70
     6
  9
$SURFU
 70
     6
  9
$SURFV
 70
     6
  9
$UCSNAME
  2

  9
$UCSORG
 10
0.0
 20
0.0
 30
0.0
  9
$UCSXDIR
 10
1.0
 20
0.0
 30
0.0
  9
$UCSYDIR
 10
0.0
 20
1.0
 30
0.0
  9
$PUCSNAME
  2

  9
$PUCSORG
 10
0.0
 20
0.0
 30
0.0
  9
$PUCSXDIR
 10
1.0
 20
0.0
 30
0.0
  9
$PUCSYDIR
 10
0.0
 20
1.0
 30
0.0
  9
$USERI1
 70
     0
  9
$USERI2
 70
     0
  9
$USERI3
 70
     0
  9
$USERI4
 70
     0
  9
$USERI5
 70
     0
  9
$USERR1
 40
0.0
  9
$USERR2
 40
0.0
  9
$USERR3
 40
0.0
  9
$USERR4
 40
0.0
  9
$USERR5
 40
0.0
  9
$WORLDVIEW
 70
     1
  9
$SHADEDGE
 70
     3
  9
$SHADEDIF
 70
    70
  9
$TILEMODE
 70
     1
  9
$MAXACTVP
 70
    64
  9
$PLIMCHECK
 70
     0
  9
$PEXTMIN
 10
0.0
 20
0.0
 30
0.0
  9
$PEXTMAX
 10
0.0
 20
0.0
 30
0.0
  9
$PLIMMIN
 10
0.0
 20
0.0
  9
$PLIMMAX
 10
0.0
 20
0.0
  9
$UNITMODE
 70
     0
  9
$VISRETAIN
 70
     1
  9
$PLINEGEN
 70
     0
  9
$PSLTSCALE
 70
     1
  0
ENDSEC
  0
SECTION
  2
TABLES
  0
TABLE
  2
VPORT
 70
     1
  0
VPORT
  2
*ACTIVE
 70
     0
 10
0.0
 20
0.0
 11
1.0
 21
1.0
 12
108.5291382289188
 22
-112.8942259261993
 13
0.0
 23
0.0
 14
0.5
 24
0.5
 15
0.5
 25
0.5
 16
0.0
 26
-1.0
 36
0.0
 17
-27.66959356597974
 27
-19.53870295786191
 37
0.0
 40
790.2811147252748
 41
2.056497175141243
 42
50.0
 43
0.0
 44
0.0
 50
0.0
 51
0.0
 71
    16
 72
  1000
 73
     1
 74
     3
 75
     0
 76
     0
 77
     0
 78
     0
  0
ENDTAB
  0
TABLE
  2
LTYPE
 70
     1
  0
LTYPE
  2
CONTINUOUS
 70
     0
  3
Solid line
 72
    65
 73
     0
 40
0.0
  0
ENDTAB
  0
TABLE
  2
LAYER
 70
     1
  0
LAYER
  2
0
 70
     0
 62
     7
  6
CONTINUOUS
  0
ENDTAB
  0
TABLE
  2
STYLE
 70
     2
  0
STYLE
  2
STANDARD
 70
     0
 40
0.0
 41
1.0
 50
0.0
 71
     0
 42
0.2
  3
arial.ttf
  4

  0
STYLE
  2
ANNOTATIVE
 70
     0
 40
0.0
 41
1.0
 50
0.0
 71
     0
 42
0.2
  3
arial.ttf
  4

  0
ENDTAB
  0
TABLE
  2
VIEW
 70
     0
  0
ENDTAB
  0
TABLE
  2
UCS
 70
     0
  0
ENDTAB
  0
TABLE
  2
APPID
 70
     2
  0
APPID
  2
ACAD
 70
     0
  0
APPID
  2
ACADANNOTATIVE
 70
     0
  0
ENDTAB
  0
TABLE
  2
DIMSTYLE
 70
     2
  0
DIMSTYLE
  2
STANDARD
 70
     0
  3

  4

  5

  6

  7

 40
1.0
 41
0.18
 42
0.0625
 43
0.38
 44
0.18
 45
0.0
 46
0.0
 47
0.0
 48
0.0
140
0.18
141
-0.09
142
0.0
143
25.4
144
1.0
145
0.0
146
1.0
147
0.09
 71
     0
 72
     0
 73
     1
 74
     1
 75
     0
 76
     0
 77
     0
 78
     0
170
     0
171
     2
172
     0
173
     0
174
     0
175
     0
176
     0
177
     0
178
     0
  0
DIMSTYLE
  2
ANNOTATIVE
 70
     0
  3

  4

  5

  6

  7

 40
0.0
 41
0.18
 42
0.0625
 43
0.38
 44
0.18
 45
0.0
 46
0.0
 47
0.0
 48
0.0
140
0.18
141
-0.09
142
0.0
143
25.4
144
1.0
145
0.0
146
1.0
147
0.09
 71
     0
 72
     0
 73
     1
 74
     1
 75
     0
 76
     0
 77
     0
 78
     0
170
     0
171
     2
172
     0
173
     0
174
     0
175
     0
176
     0
177
     0
178
     0
  0
ENDTAB
  0
ENDSEC
  0
SECTION
  2
BLOCKS
  0
BLOCK
  8
0
  2
$MODEL_SPACE
 70
     0
 10
0.0
 20
0.0
 30
0.0
  3
$MODEL_SPACE
  1

  0
ENDBLK
  5
21
  8
0
  0
BLOCK
 67
     1
  8
0
  2
$PAPER_SPACE
 70
     0
 10
0.0
 20
0.0
 30
0.0
  3
$PAPER_SPACE
  1

  0
ENDBLK
  5
5B
 67
     1
  8
0
  0
BLOCK
  8
0
  2
*X1
 70
     1
 10
0.0
 20
0.0
 30
0.0
  3
*X1
  1

  0
POLYLINE
  5
132
  8
0
 66
     1
 10
0.0
 20
0.0
 30
0.0
 70
    64
 71
     9
 72
     7
  0
VERTEX
  5
133
  8
0
 10
207.2094576089252
 20
412.6836628256214
 30
-113.054082898501
 70
   192
  0
VERTEX
  5
134
  8
0
 10
218.547297297297
 20
430.023098791204
 30
-101.0540828331678
 70
   192
  0
VERTEX
  5
135
  8
0
 10
192.4014573211477
 20
419.1931372734463
 30
-101.0540828331678
 70
   192
  0
VERTEX
  5
136
  8
0
 10
229.8851369855906
 20
412.6836628256553
 30
-113.054082898501
 70
   192
  0
VERTEX
  5
137
  8
0
 10
244.6931372734463
 20
419.1931372734464
 30
-101.0540828331678
 70
   192
  0
VERTEX
  5
138
  8
0
 10
241.222055679934
 20
393.0472972972971
 30
-113.054082898501
 70
   192
  0
VERTEX
  5
139
  8
0
 10
255.5230987911342
 20
393.0472972972973
 30
-101.0540828658344
 70
   192
  0
VERTEX
  5
13A
  8
0
 10
181.57149580346
 20
393.0472972972972
 30
-101.0540828658344
 70
   192
  0
VERTEX
  5
13B
  8
0
 10
195.87253891466
 20
393.0472972972976
 30
-113.054082898501
 70
   192
  0
VERTEX
  5
13C
  8
0
 10
0.0
 20
0.0
 30
0.0
 70
   128
 71
     1
 72
     2
 73
     3
  0
VERTEX
  5
13D
  8
0
 10
0.0
 20
0.0
 30
0.0
 70
   128
 71
     4
 72
     5
 73
     2
  0
VERTEX
  5
13E
  8
0
 10
0.0
 20
0.0
 30
0.0
 70
   128
 71
     4
 72
     2
 73
     1
  0
VERTEX
  5
13F
  8
0
 10
0.0
 20
0.0
 30
0.0
 70
   128
 71
     6
 72
     7
 73
     5
  0
VERTEX
  5
140
  8
0
 10
0.0
 20
0.0
 30
0.0
 70
   128
 71
     6
 72
     5
 73
     4
  0
VERTEX
  5
141
  8
0
 10
0.0
 20
0.0
 30
0.0
 70
   128
 71
     1
 72
     3
 73
     8
  0
VERTEX
  5
142
  8
0
 10
0.0
 20
0.0
 30
0.0
 70
   128
 71
     1
 72
     8
 73
     9
  0
SEQEND
  5
9CF
  8
0
  0
POLYLINE
  5
143
  8
0
 66
     1
 10
0.0
 20
0.0
 30
0.0
 70
    64
 71
    14
 72
    12
  0
VERTEX
  5
144
  8
0
 10
257.828849382738
 20
432.3209117913855
 30
-110.5822677788217
 70
   192
  0
VERTEX
  5
145
  8
0
 10
274.0941872226639
 20
393.047297296117
 30
-110.5822678600116
 70
   192
  0
VERTEX
  5
146
  8
0
 10
271.7001356021728
 20
393.0471366219584
 30
-111.2632353200753
 70
   192
  0
VERTEX
  5
147
  8
0
 10
269.8415756599724
 20
393.0471366216422
 30
-113.1699491325114
 70
   192
  0
VERTEX
  5
148
  8
0
 10
269.2220556799465
 20
393.0472972952882
 30
-115.580632614127
 70
   192
  0
VERTEX
  5
149
  8
0
 10
254.379762583855
 20
428.879762585444
 30
-115.5806326287816
 70
   192
  0
VERTEX
  5
14A
  8
0
 10
182.714832009469
 20
428.879762584174
 30
-115.5806326287816
 70
   192
  0
VERTEX
  5
14B
  8
0
 10
167.8725389146693
 20
393.0472972972975
 30
-115.5806326141271
 70
   192
  0
VERTEX
  5
14C
  8
0
 10
167.2530196404499
 20
393.0474302379731
 30
-113.1699491505741
 70
   192
  0
VERTEX
  5
14D
  8
0
 10
165.3944618163574
 20
393.0474302389875
 30
-111.2632353923258
 70
   192
  0
VERTEX
  5
14E
  8
0
 10
179.2653226037168
 20
432.3204884092718
 30
-110.5822678027146
 70
   192
  0
VERTEX
  5
14F
  8
0
 10
163.0004129244766
 20
393.0472972999567
 30
-110.5822680020627
 70
   192
  0
VERTEX
  5
150
  8
0
 10
218.5469160493214
 20
448.594188405331
 30
-110.5822677847175
 70
   192
  0
VERTEX
  5
151
  8
0
 10
218.547297299836
 20
443.722055679934
 30
-115.5806326287816
 70
   192
  0
VERTEX
  5
152
  8
0
 10
0.0
 20
0.0
 30
0.0
 70
   128
 71
     1
 72
     2
 73
     3
  0
VERTEX
  5
153
  8
0
 10
0.0
 20
0.0
 30
0.0
 70
   128
 71
     4
 72
     5
 73
     6
  0
VERTEX
  5
154
  8
0
 10
0.0
 20
0.0
 30
0.0
 70
   128
 71
     7
 72
     8
 73
     9
  0
VERTEX
  5
155
  8
0
 10
0.0
 20
0.0
 30
0.0
 70
   128
 71
    10
 72
    11
 73
     7
  0
VERTEX
  5
156
  8
0
 10
0.0
 20
0.0
 30
0.0
 70
   128
 71
     9
 72
    10
 73
     7
  0
VERTEX
  5
157
  8
0
 10
0.0
 20
0.0
 30
0.0
 70
   128
 71
    10
 72
    12
 73
    11
  0
VERTEX
  5
158
  8
0
 10
0.0
 20
0.0
 30
0.0
 70
   128
 71
     3
 72
     4
 73
     6
  0
VERTEX
  5
159
  8
0
 10
0.0
 20
0.0
 30
0.0
 70
   128
 71
     1
 72
     3
 73
     6
  0
VERTEX
  5
15A
  8
0
 10
0.0
 20
0.0
 30
0.0
 70
   128
 71
    13
 72
     1
 73
     6
  0
VERTEX
  5
15B
  8
0
 10
0.0
 20
0.0
 30
0.0
 70
   128
 71
    14
 72
    13
 73
     6
  0
VERTEX
  5
15C
  8
0
 10
0.0
 20
0.0
 30
0.0
 70
   128
 71
    11
 72
    13
 73
     7
  0
VERTEX
  5
15D
  8
0
 10
0.0
 20
0.0
 30
0.0
 70
   128
 71
     7
 72
    13
 73
    14
  0
SEQEND
  5
9D0
  8
0
  0
POLYLINE
  5
15E
  8
0
 66
     1
 10
0.0
 20
0.0
 30
0.0
 70
    64
 71
    10
 72
     8
  0
VERTEX
  5
15F
  8
0
 10
269.2220556799465
 20
393.0472972952882
 30
-115.580632614127
 70
   192
  0
VERTEX
  5
160
  8
0
 10
269.2220555313783
 20
393.0472972952836
 30
-128.054082898501
 70
   192
  0
VERTEX
  5
161
  8
0
 10
167.8725389146603
 20
393.0472972972977
 30
-128.054082898501
 70
   192
  0
VERTEX
  5
162
  8
0
 10
167.8725389146693
 20
393.0472972972975
 30
-115.5806326141271
 70
   192
  0
VERTEX
  5
163
  8
0
 10
218.547297297297
 20
342.372538914661
 30
-128.054082898501
 70
   192
  0
VERTEX
  5
164
  8
0
 10
218.547297297297
 20
342.372538914661
 30
-115.5806326287816
 70
   192
  0
VERTEX
  5
165
  8
0
 10
254.37976258502
 20
357.214832010316
 30
-128.054082898501
 70
   192
  0
VERTEX
  5
166
  8
0
 10
254.37976258502
 20
357.214832010316
 30
-115.5806326287816
 70
   192
  0
VERTEX
  5
167
  8
0
 10
182.7148320097855
 20
357.214832010105
 30
-128.054082898501
 70
   192
  0
VERTEX
  5
168
  8
0
 10
182.7148320097855
 20
357.214832010105
 30
-115.5806326287816
 70
   192
  0
VERTEX
  5
169
  8
0
 10
0.0
 20
0.0
 30
0.0
 70
   128
 71
     1
 72
     8
 73
     7
  0
VERTEX
  5
16A
  8
0
 10
0.0
 20
0.0
 30
0.0
 70
   128
 71
     2
 72
     1
 73
     7
  0
VERTEX
  5
16B
  8
0
 10
0.0
 20
0.0
 30
0.0
 70
   128
 71
     8
 72
     6
 73
    -5
  0
VERTEX
  5
16C
  8
0
 10
0.0
 20
0.0
 30
0.0
 70
   128
 71
     7
 72
    -8
 73
     5
  0
VERTEX
  5
16D
  8
0
 10
0.0
 20
0.0
 30
0.0
 70
   128
 71
     6
 72
    10
 73
    -9
  0
VERTEX
  5
16E
  8
0
 10
0.0
 20
0.0
 30
0.0
 70
   128
 71
     5
 72
    -6
 73
     9
  0
VERTEX
  5
16F
  8
0
 10
0.0
 20
0.0
 30
0.0
 70
   128
 71
    10
 72
     4
 73
    -3
  0
VERTEX
  5
170
  8
0
 10
0.0
 20
0.0
 30
0.0
 70
   128
 71
     9
 72
   -10
 73
     3
  0
SEQEND
  5
9D1
  8
0
  0
POLYLINE
  5
171
  8
0
 66
     1
 10
0.0
 20
0.0
 30
0.0
 70
    64
 71
     8
 72
     6
  0
VERTEX
  5
172
  8
0
 10
241.222055679934
 20
393.0472972972971
 30
-128.054082898501
 70
   192
  0
VERTEX
  5
173
  8
0
 10
241.222055679934
 20
393.0472972972971
 30
-113.054082898501
 70
   192
  0
VERTEX
  5
174
  8
0
 10
229.8851369855906
 20
412.6836628256553
 30
-113.054082898501
 70
   192
  0
VERTEX
  5
175
  8
0
 10
229.8851369855906
 20
412.6836628256553
 30
-128.054082898501
 70
   192
  0
VERTEX
  5
176
  8
0
 10
195.87253891466
 20
393.0472972972976
 30
-113.054082898501
 70
   192
  0
VERTEX
  5
177
  8
0
 10
195.87253891466
 20
393.0472972972975
 30
-128.054082898501
 70
   192
  0
VERTEX
  5
178
  8
0
 10
207.2094576089252
 20
412.6836628256214
 30
-128.054082898501
 70
   192
  0
VERTEX
  5
179
  8
0
 10
207.2094576089252
 20
412.6836628256214
 30
-113.054082898501
 70
   192
  0
VERTEX
  5
17A
  8
0
 10
0.0
 20
0.0
 30
0.0
 70
   128
 71
     1
 72
     2
 73
    -3
  0
VERTEX
  5
17B
  8
0
 10
0.0
 20
0.0
 30
0.0
 70
   128
 71
     4
 72
    -1
 73
     3
  0
VERTEX
  5
17C
  8
0
 10
0.0
 20
0.0
 30
0.0
 70
   128
 71
     5
 72
     6
 73
    -7
  0
VERTEX
  5
17D
  8
0
 10
0.0
 20
0.0
 30
0.0
 70
   128
 71
     8
 72
    -5
 73
     7
  0
VERTEX
  5
17E
  8
0
 10
0.0
 20
0.0
 30
0.0
 70
   128
 71
     7
 72
    -4
 73
     8
  0
VERTEX
  5
17F
  8
0
 10
0.0
 20
0.0
 30
0.0
 70
   128
 71
    -8
 72
     4
 73
     3
  0
SEQEND
  5
9D2
  8
0
  0
POLYLINE
  5
180
  8
0
 66
     1
 10
0.0
 20
0.0
 30
0.0
 70
    64
 71
    10
 72
     8
  0
VERTEX
  5
181
  8
0
 10
51.04729729729719
 20
393.0472972972971
 30
-20.0
 70
   192
  0
VERTEX
  5
182
  8
0
 10
86.04729729729719
 20
393.0472972972971
 30
-20.0
 70
   192
  0
VERTEX
  5
183
  8
0
 10
86.04729729729719
 20
393.0472972972971
 30
-10.0
 70
   192
  0
VERTEX
  5
184
  8
0
 10
51.04729729729719
 20
393.0472972972971
 30
-10.0
 70
   192
  0
VERTEX
  5
185
  8
0
 10
68.54729729729719
 20
375.5472972972971
 30
-10.0
 70
   192
  0
VERTEX
  5
186
  8
0
 10
68.54729729729719
 20
375.5472972972971
 30
-20.0
 70
   192
  0
VERTEX
  5
187
  8
0
 10
56.17292862653261
 20
380.6729286265325
 30
-10.0
 70
   192
  0
VERTEX
  5
188
  8
0
 10
56.17292862653261
 20
380.6729286265325
 30
-20.0
 70
   192
  0
VERTEX
  5
189
  8
0
 10
80.92166596806177
 20
380.6729286265325
 30
-10.0
 70
   192
  0
VERTEX
  5
18A
  8
0
 10
80.92166596806177
 20
380.6729286265325
 30
-20.0
 70
   192
  0
VERTEX
  5
18B
  8
0
 10
0.0
 20
0.0
 30
0.0
 70
   128
 71
     8
 72
     1
 73
    -4
  0
VERTEX
  5
18C
  8
0
 10
0.0
 20
0.0
 30
0.0
 70
   128
 71
     7
 72
    -8
 73
     4
  0
VERTEX
  5
18D
  8
0
 10
0.0
 20
0.0
 30
0.0
 70
   128
 71
     6
 72
     8
 73
    -7
  0
VERTEX
  5
18E
  8
0
 10
0.0
 20
0.0
 30
0.0
 70
   128
 71
     5
 72
    -6
 73
     7
  0
VERTEX
  5
18F
  8
0
 10
0.0
 20
0.0
 30
0.0
 70
   128
 71
    10
 72
     6
 73
    -5
  0
VERTEX
  5
190
  8
0
 10
0.0
 20
0.0
 30
0.0
 70
   128
 71
     9
 72
   -10
 73
     5
  0
VERTEX
  5
191
  8
0
 10
0.0
 20
0.0
 30
0.0
 70
   128
 71
     2
 72
    10
 73
    -9
  0
VERTEX
  5
192
  8
0
 10
0.0
 20
0.0
 30
0.0
 70
   128
 71
     3
 72
    -2
 73
     9
  0
SEQEND
  5
9D3
  8
0
  0
POLYLINE
  5
193
  8
0
 66
     1
 10
0.0
 20
0.0
 30
0.0
 70
    64
 71
    19
 72
    17
  0
VERTEX
  5
194
  8
0
 10
192.4014573211477
 20
366.9014573211477
 30
-101.0540828331678
 70
   192
  0
VERTEX
  5
195
  8
0
 10
181.57149580346
 20
393.0472972972972
 30
-101.0540828658344
 70
   192
  0
VERTEX
  5
196
  8
0
 10
154.9217960956041
 20
393.0472972972971
 30
-100.372328620249
 70
   192
  0
VERTEX
  5
197
  8
0
 10
154.5332423483578
 20
285.1203544795267
 30
-98.78988211768882
 70
   192
  0
VERTEX
  5
198
  8
0
 10
153.7616443331051
 20
177.3912339184191
 30
-96.23950627870684
 70
   192
  0
VERTEX
  5
199
  8
0
 10
218.547297297297
 20
356.0714958033901
 30
-101.0540828331678
 70
   192
  0
VERTEX
  5
19A
  8
0
 10
217.8550604281234
 20
68.51357082328374
 30
-93.69774263018816
 70
   192
  0
VERTEX
  5
19B
  8
0
 10
152.903140386476
 20
68.4681963210819
 30
-93.52848502534529
 70
   192
  0
VERTEX
  5
19C
  8
0
 10
352.6091651506612
 20
69.64523151928407
 30
-93.04403251892779
 70
   192
  0
VERTEX
  5
19D
  8
0
 10
356.1468301454834
 20
73.19032359581645
 30
-93.09236808514964
 70
   192
  0
VERTEX
  5
19E
  8
0
 10
357.440185318779
 20
78.0793059105173
 30
-93.1938221141821
 70
   192
  0
VERTEX
  5
19F
  8
0
 10
347.736379199231
 20
68.34207824855271
 30
-93.06005713981808
 70
   192
  0
VERTEX
  5
1A0
  8
0
 10
356.7396976798789
 20
183.5626467143555
 30
-95.57992437431066
 70
   192
  0
VERTEX
  5
1A1
  8
0
 10
282.7292630647753
 20
68.47048641293992
 30
-93.53587763033786
 70
   192
  0
VERTEX
  5
1A2
  8
0
 10
356.2205678324501
 20
288.4505610971055
 30
-97.57686268627506
 70
   192
  0
VERTEX
  5
1A3
  8
0
 10
356.026730976519
 20
393.0472989587595
 30
-98.48299301957749
 70
   192
  0
VERTEX
  5
1A4
  8
0
 10
356.0267309734473
 20
393.0472972972971
 30
-98.48299289950288
 70
   192
  0
VERTEX
  5
1A5
  8
0
 10
255.5230987911342
 20
393.0472972972973
 30
-101.0540828658344
 70
   192
  0
VERTEX
  5
1A6
  8
0
 10
244.6931372734463
 20
366.9014573211477
 30
-101.0540828331678
 70
   192
  0
VERTEX
  5
1A7
  8
0
 10
0.0
 20
0.0
 30
0.0
 70
   128
 71
     1
 72
     2
 73
     3
  0
VERTEX
  5
1A8
  8
0
 10
0.0
 20
0.0
 30
0.0
 70
   128
 71
     4
 72
     5
 73
     6
  0
VERTEX
  5
1A9
  8
0
 10
0.0
 20
0.0
 30
0.0
 70
   128
 71
     5
 72
     7
 73
     6
  0
VERTEX
  5
1AA
  8
0
 10
0.0
 20
0.0
 30
0.0
 70
   128
 71
     5
 72
     8
 73
     7
  0
VERTEX
  5
1AB
  8
0
 10
0.0
 20
0.0
 30
0.0
 70
   128
 71
     9
 72
    10
 73
    11
  0
VERTEX
  5
1AC
  8
0
 10
0.0
 20
0.0
 30
0.0
 70
   128
 71
    12
 72
     9
 73
    11
  0
VERTEX
  5
1AD
  8
0
 10
0.0
 20
0.0
 30
0.0
 70
   128
 71
    12
 72
    11
 73
    13
  0
VERTEX
  5
1AE
  8
0
 10
0.0
 20
0.0
 30
0.0
 70
   128
 71
    14
 72
    12
 73
    13
  0
VERTEX
  5
1AF
  8
0
 10
0.0
 20
0.0
 30
0.0
 70
   128
 71
    15
 72
    16
 73
    17
  0
VERTEX
  5
1B0
  8
0
 10
0.0
 20
0.0
 30
0.0
 70
   128
 71
     4
 72
     6
 73
     1
  0
VERTEX
  5
1B1
  8
0
 10
0.0
 20
0.0
 30
0.0
 70
   128
 71
    17
 72
    18
 73
    19
  0
VERTEX
  5
1B2
  8
0
 10
0.0
 20
0.0
 30
0.0
 70
   128
 71
    15
 72
    17
 73
    19
  0
VERTEX
  5
1B3
  8
0
 10
0.0
 20
0.0
 30
0.0
 70
   128
 71
     4
 72
     1
 73
     3
  0
VERTEX
  5
1B4
  8
0
 10
0.0
 20
0.0
 30
0.0
 70
   128
 71
     7
 72
    14
 73
    13
  0
VERTEX
  5
1B5
  8
0
 10
0.0
 20
0.0
 30
0.0
 70
   128
 71
    19
 72
     6
 73
     7
  0
VERTEX
  5
1B6
  8
0
 10
0.0
 20
0.0
 30
0.0
 70
   128
 71
    19
 72
     7
 73
    13
  0
VERTEX
  5
1B7
  8
0
 10
0.0
 20
0.0
 30
0.0
 70
   128
 71
    15
 72
    19
 73
    13
  0
SEQEND
  5
9D4
  8
0
  0
POLYLINE
  5
1B8
  8
0
 66
     1
 10
0.0
 20
0.0
 30
0.0
 70
    64
 71
    19
 72
    17
  0
VERTEX
  5
1B9
  8
0
 10
356.2824678879898
 20
393.047297297297
 30
-108.47972241656
 70
   192
  0
VERTEX
  5
1BA
  8
0
 10
356.2824678879899
 20
393.0472938936681
 30
-108.4797224165607
 70
   192
  0
VERTEX
  5
1BB
  8
0
 10
274.0941872214152
 20
393.0472972972971
 30
-110.5822678111983
 70
   192
  0
VERTEX
  5
1BC
  8
0
 10
257.828849382738
 20
432.3209117913855
 30
-110.5822677788217
 70
   192
  0
VERTEX
  5
1BD
  8
0
 10
356.4224387265853
 20
498.3614959942798
 30
-107.5655513934718
 70
   192
  0
VERTEX
  5
1BE
  8
0
 10
282.8473768400355
 20
717.8758859117303
 30
-103.5262700839364
 70
   192
  0
VERTEX
  5
1BF
  8
0
 10
357.54337147905
 20
708.2492843774679
 30
-103.19055151093
 70
   192
  0
VERTEX
  5
1C0
  8
0
 10
356.8833948641626
 20
603.3670669195262
 30
-105.5671104257797
 70
   192
  0
VERTEX
  5
1C1
  8
0
 10
347.830920150198
 20
717.9901365825269
 30
-103.056786536566
 70
   192
  0
VERTEX
  5
1C2
  8
0
 10
352.7153792847739
 20
716.682842673621
 30
-103.040746449926
 70
   192
  0
VERTEX
  5
1C3
  8
0
 10
356.2688508986249
 20
713.1099316618872
 30
-103.0895738048913
 70
   192
  0
VERTEX
  5
1C4
  8
0
 10
154.4008692609997
 20
501.614297991553
 30
-108.7792969973199
 70
   192
  0
VERTEX
  5
1C5
  8
0
 10
153.6831427008826
 20
609.7662928391309
 30
-106.2182871427641
 70
   192
  0
VERTEX
  5
1C6
  8
0
 10
217.8493897818543
 20
717.837776888243
 30
-103.6878119035609
 70
   192
  0
VERTEX
  5
1C7
  8
0
 10
218.5469160493214
 20
448.594188405331
 30
-110.5822677847175
 70
   192
  0
VERTEX
  5
1C8
  8
0
 10
152.852445530959
 20
717.8770601968689
 30
-103.525214422093
 70
   192
  0
VERTEX
  5
1C9
  8
0
 10
179.2653226037168
 20
432.3204884092718
 30
-110.5822678027146
 70
   192
  0
VERTEX
  5
1CA
  8
0
 10
163.0004129244766
 20
393.0472972999567
 30
-110.5822680020627
 70
   192
  0
VERTEX
  5
1CB
  8
0
 10
154.6660569610943
 20
393.0472972972971
 30
-110.3690579601425
 70
   192
  0
VERTEX
  5
1CC
  8
0
 10
0.0
 20
0.0
 30
0.0
 70
   128
 71
     1
 72
     2
 73
     3
  0
VERTEX
  5
1CD
  8
0
 10
0.0
 20
0.0
 30
0.0
 70
   128
 71
     1
 72
     3
 73
     4
  0
VERTEX
  5
1CE
  8
0
 10
0.0
 20
0.0
 30
0.0
 70
   128
 71
     4
 72
     5
 73
     1
  0
VERTEX
  5
1CF
  8
0
 10
0.0
 20
0.0
 30
0.0
 70
   128
 71
     6
 72
     7
 73
     8
  0
VERTEX
  5
1D0
  8
0
 10
0.0
 20
0.0
 30
0.0
 70
   128
 71
     6
 72
     9
 73
     7
  0
VERTEX
  5
1D1
  8
0
 10
0.0
 20
0.0
 30
0.0
 70
   128
 71
     9
 72
    10
 73
    11
  0
VERTEX
  5
1D2
  8
0
 10
0.0
 20
0.0
 30
0.0
 70
   128
 71
    11
 72
     7
 73
     9
  0
VERTEX
  5
1D3
  8
0
 10
0.0
 20
0.0
 30
0.0
 70
   128
 71
    12
 72
    13
 73
    14
  0
VERTEX
  5
1D4
  8
0
 10
0.0
 20
0.0
 30
0.0
 70
   128
 71
    14
 72
    15
 73
    12
  0
VERTEX
  5
1D5
  8
0
 10
0.0
 20
0.0
 30
0.0
 70
   128
 71
    13
 72
    16
 73
    14
  0
VERTEX
  5
1D6
  8
0
 10
0.0
 20
0.0
 30
0.0
 70
   128
 71
    17
 72
    18
 73
    19
  0
VERTEX
  5
1D7
  8
0
 10
0.0
 20
0.0
 30
0.0
 70
   128
 71
    14
 72
     6
 73
     8
  0
VERTEX
  5
1D8
  8
0
 10
0.0
 20
0.0
 30
0.0
 70
   128
 71
     5
 72
     4
 73
    15
  0
VERTEX
  5
1D9
  8
0
 10
0.0
 20
0.0
 30
0.0
 70
   128
 71
    15
 72
     8
 73
     5
  0
VERTEX
  5
1DA
  8
0
 10
0.0
 20
0.0
 30
0.0
 70
   128
 71
    15
 72
    14
 73
     8
  0
VERTEX
  5
1DB
  8
0
 10
0.0
 20
0.0
 30
0.0
 70
   128
 71
    19
 72
    12
 73
    15
  0
VERTEX
  5
1DC
  8
0
 10
0.0
 20
0.0
 30
0.0
 70
   128
 71
    15
 72
    17
 73
    19
  0
SEQEND
  5
9D5
  8
0
  0
POLYLINE
  5
1DD
  8
0
 66
     1
 10
0.0
 20
0.0
 30
0.0
 70
    64
 71
    19
 72
    17
  0
VERTEX
  5
1DE
  8
0
 10
217.8493897818682
 20
68.25681770177891
 30
-103.6878119034489
 70
   192
  0
VERTEX
  5
1DF
  8
0
 10
152.852445530958
 20
68.2175343977258
 30
-103.525214422093
 70
   192
  0
VERTEX
  5
1E0
  8
0
 10
153.6831425713768
 20
176.3282697607932
 30
-106.2182865008041
 70
   192
  0
VERTEX
  5
1E1
  8
0
 10
356.8833894364475
 20
182.728670017868
 30
-105.5671313116148
 70
   192
  0
VERTEX
  5
1E2
  8
0
 10
357.54337147905
 20
77.8453102171272
 30
-103.19055151093
 70
   192
  0
VERTEX
  5
1E3
  8
0
 10
282.847376840011
 20
68.2187086786297
 30
-103.5262700838345
 70
   192
  0
VERTEX
  5
1E4
  8
0
 10
356.256163093694
 20
72.96315444475044
 30
-103.0891965370289
 70
   192
  0
VERTEX
  5
1E5
  8
0
 10
347.830920150198
 20
68.1044580120683
 30
-103.056786536566
 70
   192
  0
VERTEX
  5
1E6
  8
0
 10
352.6937401380535
 20
69.39890684823555
 30
-103.0406550828967
 70
   192
  0
VERTEX
  5
1E7
  8
0
 10
257.8303032699433
 20
353.7751383326715
 30
-110.5822678053494
 70
   192
  0
VERTEX
  5
1E8
  8
0
 10
274.0941872226639
 20
393.047297296117
 30
-110.5822678600116
 70
   192
  0
VERTEX
  5
1E9
  8
0
 10
356.2824678879899
 20
393.0472938936681
 30
-108.4797224165607
 70
   192
  0
VERTEX
  5
1EA
  8
0
 10
356.2824678849125
 20
393.0472972972971
 30
-108.4797222962664
 70
   192
  0
VERTEX
  5
1EB
  8
0
 10
154.6660569596577
 20
393.0472972972616
 30
-110.3690580162998
 70
   192
  0
VERTEX
  5
1EC
  8
0
 10
163.0004129257255
 20
393.0472972972971
 30
-110.5822679532439
 70
   192
  0
VERTEX
  5
1ED
  8
0
 10
179.271480092209
 20
353.7679525979474
 30
-110.5822678572253
 70
   192
  0
VERTEX
  5
1EE
  8
0
 10
218.5476476415583
 20
337.5004059106606
 30
-110.5822677803313
 70
   192
  0
VERTEX
  5
1EF
  8
0
 10
154.4008690506429
 20
284.480242884344
 30
-108.7792961008709
 70
   192
  0
VERTEX
  5
1F0
  8
0
 10
356.4224352901414
 20
287.7340974363041
 30
-107.5655657634769
 70
   192
  0
VERTEX
  5
1F1
  8
0
 10
0.0
 20
0.0
 30
0.0
 70
   128
 71
     1
 72
     2
 73
     3
  0
VERTEX
  5
1F2
  8
0
 10
0.0
 20
0.0
 30
0.0
 70
   128
 71
     4
 72
     5
 73
     6
  0
VERTEX
  5
1F3
  8
0
 10
0.0
 20
0.0
 30
0.0
 70
   128
 71
     5
 72
     7
 73
     8
  0
VERTEX
  5
1F4
  8
0
 10
0.0
 20
0.0
 30
0.0
 70
   128
 71
     8
 72
     6
 73
     5
  0
VERTEX
  5
1F5
  8
0
 10
0.0
 20
0.0
 30
0.0
 70
   128
 71
     7
 72
     9
 73
     8
  0
VERTEX
  5
1F6
  8
0
 10
0.0
 20
0.0
 30
0.0
 70
   128
 71
    10
 72
    11
 73
    12
  0
VERTEX
  5
1F7
  8
0
 10
0.0
 20
0.0
 30
0.0
 70
   128
 71
    11
 72
    13
 73
    12
  0
VERTEX
  5
1F8
  8
0
 10
0.0
 20
0.0
 30
0.0
 70
   128
 71
    14
 72
    15
 73
    16
  0
VERTEX
  5
1F9
  8
0
 10
0.0
 20
0.0
 30
0.0
 70
   128
 71
     4
 72
     1
 73
     3
  0
VERTEX
  5
1FA
  8
0
 10
0.0
 20
0.0
 30
0.0
 70
   128
 71
     4
 72
     6
 73
     1
  0
VERTEX
  5
1FB
  8
0
 10
0.0
 20
0.0
 30
0.0
 70
   128
 71
    14
 72
    16
 73
    17
  0
VERTEX
  5
1FC
  8
0
 10
0.0
 20
0.0
 30
0.0
 70
   128
 71
    17
 72
    18
 73
    14
  0
VERTEX
  5
1FD
  8
0
 10
0.0
 20
0.0
 30
0.0
 70
   128
 71
    19
 72
     3
 73
    18
  0
VERTEX
  5
1FE
  8
0
 10
0.0
 20
0.0
 30
0.0
 70
   128
 71
    19
 72
     4
 73
     3
  0
VERTEX
  5
1FF
  8
0
 10
0.0
 20
0.0
 30
0.0
 70
   128
 71
    18
 72
    17
 73
    10
  0
VERTEX
  5
200
  8
0
 10
0.0
 20
0.0
 30
0.0
 70
   128
 71
    10
 72
    12
 73
    18
  0
VERTEX
  5
201
  8
0
 10
0.0
 20
0.0
 30
0.0
 70
   128
 71
    12
 72
    19
 73
    18
  0
SEQEND
  5
9D6
  8
0
  0
POLYLINE
  5
202
  8
0
 66
     1
 10
0.0
 20
0.0
 30
0.0
 70
    64
 71
    46
 72
    46
  0
VERTEX
  5
203
  8
0
 10
347.547297297297
 20
18.5472972972975
 30
-45.0
 70
   192
  0
VERTEX
  5
204
  8
0
 10
78.54729729729735
 20
18.54729729729736
 30
-45.0
 70
   192
  0
VERTEX
  5
205
  8
0
 10
48.54729729729729
 20
26.58577307023109
 30
-45.0
 70
   192
  0
VERTEX
  5
206
  8
0
 10
26.585773070231
 20
48.54729729729739
 30
-45.0
 70
   192
  0
VERTEX
  5
207
  8
0
 10
18.54729729729731
 20
78.5472972972974
 30
-45.0
 70
   192
  0
VERTEX
  5
208
  8
0
 10
18.54729729729705
 20
707.547297297298
 30
-45.0
 70
   192
  0
VERTEX
  5
209
  8
0
 10
26.58577307023075
 20
737.547297297298
 30
-45.0
 70
   192
  0
VERTEX
  5
20A
  8
0
 10
48.54729729729709
 20
759.5088215243643
 30
-45.0
 70
   192
  0
VERTEX
  5
20B
  8
0
 10
78.5472972972971
 20
767.547297297298
 30
-45.0
 70
   192
  0
VERTEX
  5
20C
  8
0
 10
347.547297297297
 20
767.547297297298
 30
-45.0
 70
   192
  0
VERTEX
  5
20D
  8
0
 10
377.547297297297
 20
759.5088215243643
 30
-45.0
 70
   192
  0
VERTEX
  5
20E
  8
0
 10
399.5088215243633
 20
737.547297297298
 30
-45.0
 70
   192
  0
VERTEX
  5
20F
  8
0
 10
407.547297297297
 20
707.547297297298
 30
-45.0
 70
   192
  0
VERTEX
  5
210
  8
0
 10
407.547297297297
 20
78.54729729729752
 30
-45.0
 70
   192
  0
VERTEX
  5
211
  8
0
 10
399.5088215243633
 20
48.5472972972975
 30
-45.0
 70
   192
  0
VERTEX
  5
212
  8
0
 10
377.547297297297
 20
26.58577307023118
 30
-45.0
 70
   192
  0
VERTEX
  5
213
  8
0
 10
138.425994748969
 20
757.9405332092
 30
-45.0
 70
   192
  0
VERTEX
  5
214
  8
0
 10
132.3632781916784
 20
757.0120715093478
 30
-44.99999999999999
 70
   192
  0
VERTEX
  5
215
  8
0
 10
126.9017644770136
 20
754.2266864097924
 30
-44.99999999999999
 70
   192
  0
VERTEX
  5
216
  8
0
 10
122.76907392776
 20
749.955466021102
 30
-45.0
 70
   192
  0
VERTEX
  5
217
  8
0
 10
123.497123634771
 20
753.4892199940059
 30
-45.0
 70
   192
  0
VERTEX
  5
218
  8
0
 10
121.4466933420929
 20
756.4573778657367
 30
-44.99999999999999
 70
   192
  0
VERTEX
  5
219
  8
0
 10
117.907059180142
 20
757.547297297298
 30
-45.0
 70
   192
  0
VERTEX
  5
21A
  8
0
 10
78.54729729729712
 20
757.547297297298
 30
-45.0
 70
   192
  0
VERTEX
  5
21B
  8
0
 10
53.54729729729706
 20
750.84856748652
 30
-45.0
 70
   192
  0
VERTEX
  5
21C
  8
0
 10
35.24602710807509
 20
732.547297297298
 30
-45.0
 70
   192
  0
VERTEX
  5
21D
  8
0
 10
28.54729729729699
 20
707.547297297298
 30
-45.0
 70
   192
  0
VERTEX
  5
21E
  8
0
 10
28.54729729729727
 20
78.5472972972974
 30
-45.0
 70
   192
  0
VERTEX
  5
21F
  8
0
 10
35.24602710807537
 20
53.5472972972974
 30
-45.0
 70
   192
  0
VERTEX
  5
220
  8
0
 10
53.5472972972973
 20
35.24602710807547
 30
-45.0
 70
   192
  0
VERTEX
  5
221
  8
0
 10
78.5472972972973
 20
28.5472972972974
 30
-45.0
 70
   192
  0
VERTEX
  5
222
  8
0
 10
117.907059180141
 20
28.54729729729738
 30
-45.0
 70
   192
  0
VERTEX
  5
223
  8
0
 10
121.4391182895704
 20
29.6306551927312
 30
-45.0
 70
   192
  0
VERTEX
  5
224
  8
0
 10
123.4890708762724
 20
32.59454202190953
 30
-45.00000000000001
 70
   192
  0
VERTEX
  5
225
  8
0
 10
122.76907392776
 20
36.1391285734931
 30
-45.0
 70
   192
  0
VERTEX
  5
226
  8
0
 10
126.9017644770133
 20
31.86790818480287
 30
-44.99999999999999
 70
   192
  0
VERTEX
  5
227
  8
0
 10
132.3632781916778
 20
29.08252308524742
 30
-44.99999999999999
 70
   192
  0
VERTEX
  5
228
  8
0
 10
138.425994748968
 20
28.1540613853955
 30
-45.0
 70
   192
  0
VERTEX
  5
229
  8
0
 10
347.547297297297
 20
28.1540613853956
 30
-45.0
 70
   192
  0
VERTEX
  5
22A
  8
0
 10
372.743915253248
 20
34.9054748186882
 30
-45.0
 70
   192
  0
VERTEX
  5
22B
  8
0
 10
391.1891197759064
 20
53.35067934134665
 30
-45.0
 70
   192
  0
VERTEX
  5
22C
  8
0
 10
397.9405332091989
 20
78.54729729729769
 30
-45.0
 70
   192
  0
VERTEX
  5
22D
  8
0
 10
397.940533209199
 20
707.547297297298
 30
-45.0
 70
   192
  0
VERTEX
  5
22E
  8
0
 10
391.1891197759063
 20
732.7439152532489
 30
-45.0
 70
   192
  0
VERTEX
  5
22F
  8
0
 10
372.743915253248
 20
751.1891197759073
 30
-45.0
 70
   192
  0
VERTEX
  5
230
  8
0
 10
347.547297297297
 20
757.9405332091999
 30
-45.0
 70
   192
  0
VERTEX
  5
231
  8
0
 10
0.0
 20
0.0
 30
0.0
 70
   128
 71
    34
 72
    35
 73
   -36
  0
VERTEX
  5
232
  8
0
 10
0.0
 20
0.0
 30
0.0
 70
   128
 71
    19
 72
    20
 73
   -21
  0
VERTEX
  5
233
  8
0
 10
0.0
 20
0.0
 30
0.0
 70
   128
 71
   -22
 72
    17
 73
   -18
  0
VERTEX
  5
234
  8
0
 10
0.0
 20
0.0
 30
0.0
 70
   128
 71
   -19
 72
    21
 73
   -22
  0
VERTEX
  5
235
  8
0
 10
0.0
 20
0.0
 30
0.0
 70
   128
 71
    18
 72
   -19
 73
   -22
  0
VERTEX
  5
236
  8
0
 10
0.0
 20
0.0
 30
0.0
 70
   128
 71
    22
 72
   -23
 73
   -17
  0
VERTEX
  5
237
  8
0
 10
0.0
 20
0.0
 30
0.0
 70
   128
 71
    -9
 72
   -17
 73
   -23
  0
VERTEX
  5
238
  8
0
 10
0.0
 20
0.0
 30
0.0
 70
   128
 71
    23
 72
   -24
 73
    -9
  0
VERTEX
  5
239
  8
0
 10
0.0
 20
0.0
 30
0.0
 70
   128
 71
   -25
 72
     8
 73
    -9
  0
VERTEX
  5
23A
  8
0
 10
0.0
 20
0.0
 30
0.0
 70
   128
 71
    24
 72
   -25
 73
    -9
  0
VERTEX
  5
23B
  8
0
 10
0.0
 20
0.0
 30
0.0
 70
   128
 71
   -26
 72
     7
 73
    -8
  0
VERTEX
  5
23C
  8
0
 10
0.0
 20
0.0
 30
0.0
 70
   128
 71
    25
 72
   -26
 73
    -8
  0
VERTEX
  5
23D
  8
0
 10
0.0
 20
0.0
 30
0.0
 70
   128
 71
    26
 72
   -27
 73
    -7
  0
VERTEX
  5
23E
  8
0
 10
0.0
 20
0.0
 30
0.0
 70
   128
 71
     6
 72
    -7
 73
   -27
  0
VERTEX
  5
23F
  8
0
 10
0.0
 20
0.0
 30
0.0
 70
   128
 71
   -28
 72
     5
 73
    -6
  0
VERTEX
  5
240
  8
0
 10
0.0
 20
0.0
 30
0.0
 70
   128
 71
    27
 72
   -28
 73
    -6
  0
VERTEX
  5
241
  8
0
 10
0.0
 20
0.0
 30
0.0
 70
   128
 71
   -28
 72
     4
 73
    -5
  0
VERTEX
  5
242
  8
0
 10
0.0
 20
0.0
 30
0.0
 70
   128
 71
    28
 72
   -29
 73
    -4
  0
VERTEX
  5
243
  8
0
 10
0.0
 20
0.0
 30
0.0
 70
   128
 71
   -30
 72
     3
 73
    -4
  0
VERTEX
  5
244
  8
0
 10
0.0
 20
0.0
 30
0.0
 70
   128
 71
    29
 72
   -30
 73
    -4
  0
VERTEX
  5
245
  8
0
 10
0.0
 20
0.0
 30
0.0
 70
   128
 71
   -31
 72
     2
 73
    -3
  0
VERTEX
  5
246
  8
0
 10
0.0
 20
0.0
 30
0.0
 70
   128
 71
    30
 72
   -31
 73
    -3
  0
VERTEX
  5
247
  8
0
 10
0.0
 20
0.0
 30
0.0
 70
   128
 71
    31
 72
   -32
 73
    -2
  0
VERTEX
  5
248
  8
0
 10
0.0
 20
0.0
 30
0.0
 70
   128
 71
   -32
 72
   -37
 73
    -2
  0
VERTEX
  5
249
  8
0
 10
0.0
 20
0.0
 30
0.0
 70
   128
 71
    32
 72
   -33
 73
   -37
  0
VERTEX
  5
24A
  8
0
 10
0.0
 20
0.0
 30
0.0
 70
   128
 71
   -34
 72
    36
 73
   -37
  0
VERTEX
  5
24B
  8
0
 10
0.0
 20
0.0
 30
0.0
 70
   128
 71
    33
 72
   -34
 73
   -37
  0
VERTEX
  5
24C
  8
0
 10
0.0
 20
0.0
 30
0.0
 70
   128
 71
    37
 72
   -38
 73
    -2
  0
VERTEX
  5
24D
  8
0
 10
0.0
 20
0.0
 30
0.0
 70
   128
 71
   -39
 72
     1
 73
    -2
  0
VERTEX
  5
24E
  8
0
 10
0.0
 20
0.0
 30
0.0
 70
   128
 71
    38
 72
   -39
 73
    -2
  0
VERTEX
  5
24F
  8
0
 10
0.0
 20
0.0
 30
0.0
 70
   128
 71
   -39
 72
    16
 73
    -1
  0
VERTEX
  5
250
  8
0
 10
0.0
 20
0.0
 30
0.0
 70
   128
 71
    39
 72
   -40
 73
   -16
  0
VERTEX
  5
251
  8
0
 10
0.0
 20
0.0
 30
0.0
 70
   128
 71
   -41
 72
    15
 73
   -16
  0
VERTEX
  5
252
  8
0
 10
0.0
 20
0.0
 30
0.0
 70
   128
 71
    40
 72
   -41
 73
   -16
  0
VERTEX
  5
253
  8
0
 10
0.0
 20
0.0
 30
0.0
 70
   128
 71
    41
 72
   -42
 73
   -15
  0
VERTEX
  5
254
  8
0
 10
0.0
 20
0.0
 30
0.0
 70
   128
 71
    14
 72
   -15
 73
   -42
  0
VERTEX
  5
255
  8
0
 10
0.0
 20
0.0
 30
0.0
 70
   128
 71
   -43
 72
    13
 73
   -14
  0
VERTEX
  5
256
  8
0
 10
0.0
 20
0.0
 30
0.0
 70
   128
 71
    42
 72
   -43
 73
   -14
  0
VERTEX
  5
257
  8
0
 10
0.0
 20
0.0
 30
0.0
 70
   128
 71
   -43
 72
    12
 73
   -13
  0
VERTEX
  5
258
  8
0
 10
0.0
 20
0.0
 30
0.0
 70
   128
 71
    43
 72
   -44
 73
   -12
  0
VERTEX
  5
259
  8
0
 10
0.0
 20
0.0
 30
0.0
 70
   128
 71
   -45
 72
    11
 73
   -12
  0
VERTEX
  5
25A
  8
0
 10
0.0
 20
0.0
 30
0.0
 70
   128
 71
    44
 72
   -45
 73
   -12
  0
VERTEX
  5
25B
  8
0
 10
0.0
 20
0.0
 30
0.0
 70
   128
 71
    45
 72
   -46
 73
   -11
  0
VERTEX
  5
25C
  8
0
 10
0.0
 20
0.0
 30
0.0
 70
   128
 71
    10
 72
   -11
 73
   -46
  0
VERTEX
  5
25D
  8
0
 10
0.0
 20
0.0
 30
0.0
 70
   128
 71
   -17
 72
     9
 73
   -10
  0
VERTEX
  5
25E
  8
0
 10
0.0
 20
0.0
 30
0.0
 70
   128
 71
    46
 72
   -17
 73
   -10
  0
SEQEND
  5
9D7
  8
0
  0
POLYLINE
  5
25F
  8
0
 66
     1
 10
0.0
 20
0.0
 30
0.0
 70
    64
 71
     8
 72
     6
  0
VERTEX
  5
260
  8
0
 10
33.77393026759347
 20
733.3972128044232
 30
-8.61803398874989
 70
   192
  0
VERTEX
  5
261
  8
0
 10
52.69738179017174
 20
752.3206643270015
 30
-8.61803398874989
 70
   192
  0
VERTEX
  5
262
  8
0
 10
51.52181128558681
 20
754.356812168822
 30
-1.3819660112501
 70
   192
  0
VERTEX
  5
263
  8
0
 10
31.73778242577296
 20
734.5727833090082
 30
-1.3819660112501
 70
   192
  0
VERTEX
  5
264
  8
0
 10
78.547297297297
 20
759.2471283115484
 30
-8.618033988750039
 70
   192
  0
VERTEX
  5
265
  8
0
 10
78.547297297297
 20
761.5982693207184
 30
-1.381966011250163
 70
   192
  0
VERTEX
  5
266
  8
0
 10
26.84746628304648
 20
707.547297297298
 30
-8.618033988749898
 70
   192
  0
VERTEX
  5
267
  8
0
 10
24.4963252738766
 20
707.547297297298
 30
-1.3819660112501
 70
   192
  0
VERTEX
  5
268
  8
0
 10
0.0
 20
0.0
 30
0.0
 70
   128
 71
     1
 72
     2
 73
    -3
  0
VERTEX
  5
269
  8
0
 10
0.0
 20
0.0
 30
0.0
 70
   128
 71
     4
 72
    -1
 73
     3
  0
VERTEX
  5
26A
  8
0
 10
0.0
 20
0.0
 30
0.0
 70
   128
 71
     2
 72
     5
 73
    -6
  0
VERTEX
  5
26B
  8
0
 10
0.0
 20
0.0
 30
0.0
 70
   128
 71
     3
 72
    -2
 73
     6
  0
VERTEX
  5
26C
  8
0
 10
0.0
 20
0.0
 30
0.0
 70
   128
 71
     7
 72
     1
 73
    -4
  0
VERTEX
  5
26D
  8
0
 10
0.0
 20
0.0
 30
0.0
 70
   128
 71
     8
 72
    -7
 73
     4
  0
SEQEND
  5
9D8
  8
0
  0
POLYLINE
  5
26E
  8
0
 66
     1
 10
0.0
 20
0.0
 30
0.0
 70
    64
 71
    24
 72
    24
  0
VERTEX
  5
26F
  8
0
 10
78.5472972972974
 20
28.74957931563718
 30
-10.0
 70
   192
  0
VERTEX
  5
270
  8
0
 10
120.76568148097
 20
28.7495793156372
 30
-10.0
 70
   192
  0
VERTEX
  5
271
  8
0
 10
118.7827123774398
 20
31.14071078790359
 30
-9.999999999999998
 70
   192
  0
VERTEX
  5
272
  8
0
 10
117.5163372753244
 20
34.0748032015012
 30
-9.999999999999998
 70
   192
  0
VERTEX
  5
273
  8
0
 10
117.094212241286
 20
37.25608739915759
 30
-10.0
 70
   192
  0
VERTEX
  5
274
  8
0
 10
117.0942122412859
 20
748.8385071954369
 30
-10.0
 70
   192
  0
VERTEX
  5
275
  8
0
 10
117.516337275325
 20
752.0197913930933
 30
-10.0
 70
   192
  0
VERTEX
  5
276
  8
0
 10
118.7827123774407
 20
754.9538838066912
 30
-10.0
 70
   192
  0
VERTEX
  5
277
  8
0
 10
120.765681480971
 20
757.3450152789579
 30
-10.0
 70
   192
  0
VERTEX
  5
278
  8
0
 10
78.547297297297
 20
757.3450152789579
 30
-10.0
 70
   192
  0
VERTEX
  5
279
  8
0
 10
53.64843830646692
 20
750.6733861199089
 30
-10.0
 70
   192
  0
VERTEX
  5
27A
  8
0
 10
35.42120847468615
 20
732.4461562881281
 30
-10.0
 70
   192
  0
VERTEX
  5
27B
  8
0
 10
28.74957931563682
 20
707.547297297298
 30
-10.0
 70
   192
  0
VERTEX
  5
27C
  8
0
 10
28.749579315637
 20
78.5472972972974
 30
-10.0
 70
   192
  0
VERTEX
  5
27D
  8
0
 10
35.42120847468644
 20
53.64843830646727
 30
-10.0
 70
   192
  0
VERTEX
  5
27E
  8
0
 10
53.64843830646724
 20
35.42120847468649
 30
-10.0
 70
   192
  0
VERTEX
  5
27F
  8
0
 10
86.04729729729719
 20
393.0472972972971
 30
-10.0
 70
   192
  0
VERTEX
  5
280
  8
0
 10
80.92166596806177
 20
380.6729286265325
 30
-10.0
 70
   192
  0
VERTEX
  5
281
  8
0
 10
68.54729729729719
 20
375.5472972972971
 30
-10.0
 70
   192
  0
VERTEX
  5
282
  8
0
 10
56.17292862653261
 20
380.6729286265325
 30
-10.0
 70
   192
  0
VERTEX
  5
283
  8
0
 10
51.04729729729719
 20
393.0472972972971
 30
-10.0
 70
   192
  0
VERTEX
  5
284
  8
0
 10
56.17292862653261
 20
405.4216659680616
 30
-10.0
 70
   192
  0
VERTEX
  5
285
  8
0
 10
68.54729729729719
 20
410.5472972972971
 30
-10.0
 70
   192
  0
VERTEX
  5
286
  8
0
 10
80.92166596806177
 20
405.4216659680616
 30
-10.0
 70
   192
  0
VERTEX
  5
287
  8
0
 10
0.0
 20
0.0
 30
0.0
 70
   128
 71
     1
 72
     2
 73
    -3
  0
VERTEX
  5
288
  8
0
 10
0.0
 20
0.0
 30
0.0
 70
   128
 71
     3
 72
    -4
 73
    -1
  0
VERTEX
  5
289
  8
0
 10
0.0
 20
0.0
 30
0.0
 70
   128
 71
     4
 72
    -5
 73
    -1
  0
VERTEX
  5
28A
  8
0
 10
0.0
 20
0.0
 30
0.0
 70
   128
 71
    -5
 72
    17
 73
   -18
  0
VERTEX
  5
28B
  8
0
 10
0.0
 20
0.0
 30
0.0
 70
   128
 71
    16
 72
    -1
 73
    -5
  0
VERTEX
  5
28C
  8
0
 10
0.0
 20
0.0
 30
0.0
 70
   128
 71
   -19
 72
   -16
 73
    -5
  0
VERTEX
  5
28D
  8
0
 10
0.0
 20
0.0
 30
0.0
 70
   128
 71
    18
 72
   -19
 73
    -5
  0
VERTEX
  5
28E
  8
0
 10
0.0
 20
0.0
 30
0.0
 70
   128
 71
    14
 72
    15
 73
   -16
  0
VERTEX
  5
28F
  8
0
 10
0.0
 20
0.0
 30
0.0
 70
   128
 71
   -20
 72
   -14
 73
   -16
  0
VERTEX
  5
290
  8
0
 10
0.0
 20
0.0
 30
0.0
 70
   128
 71
    19
 72
   -20
 73
   -16
  0
VERTEX
  5
291
  8
0
 10
0.0
 20
0.0
 30
0.0
 70
   128
 71
    20
 72
   -21
 73
   -14
  0
VERTEX
  5
292
  8
0
 10
0.0
 20
0.0
 30
0.0
 70
   128
 71
    13
 72
   -14
 73
   -21
  0
VERTEX
  5
293
  8
0
 10
0.0
 20
0.0
 30
0.0
 70
   128
 71
    21
 72
   -22
 73
   -13
  0
VERTEX
  5
294
  8
0
 10
0.0
 20
0.0
 30
0.0
 70
   128
 71
    11
 72
    12
 73
   -13
  0
VERTEX
  5
295
  8
0
 10
0.0
 20
0.0
 30
0.0
 70
   128
 71
   -23
 72
   -11
 73
   -13
  0
VERTEX
  5
296
  8
0
 10
0.0
 20
0.0
 30
0.0
 70
   128
 71
    22
 72
   -23
 73
   -13
  0
VERTEX
  5
297
  8
0
 10
0.0
 20
0.0
 30
0.0
 70
   128
 71
    23
 72
   -24
 73
   -11
  0
VERTEX
  5
298
  8
0
 10
0.0
 20
0.0
 30
0.0
 70
   128
 71
    24
 72
   -17
 73
   -11
  0
VERTEX
  5
299
  8
0
 10
0.0
 20
0.0
 30
0.0
 70
   128
 71
    10
 72
   -11
 73
   -17
  0
VERTEX
  5
29A
  8
0
 10
0.0
 20
0.0
 30
0.0
 70
   128
 71
    -6
 72
   -10
 73
   -17
  0
VERTEX
  5
29B
  8
0
 10
0.0
 20
0.0
 30
0.0
 70
   128
 71
   -17
 72
     5
 73
    -6
  0
VERTEX
  5
29C
  8
0
 10
0.0
 20
0.0
 30
0.0
 70
   128
 71
     6
 72
    -7
 73
   -10
  0
VERTEX
  5
29D
  8
0
 10
0.0
 20
0.0
 30
0.0
 70
   128
 71
     7
 72
    -8
 73
   -10
  0
VERTEX
  5
29E
  8
0
 10
0.0
 20
0.0
 30
0.0
 70
   128
 71
     8
 72
     9
 73
   -10
  0
SEQEND
  5
9D9
  8
0
  0
POLYLINE
  5
29F
  8
0
 66
     1
 10
0.0
 20
0.0
 30
0.0
 70
    64
 71
    11
 72
     9
  0
VERTEX
  5
2A0
  8
0
 10
125.659482986688
 20
27.54473260300536
 30
-9.905832423342009
 70
   192
  0
VERTEX
  5
2A1
  8
0
 10
127.608834483668
 20
26.8474662830468
 30
-8.618033988749911
 70
   192
  0
VERTEX
  5
2A2
  8
0
 10
150.705875207524
 20
49.94450700690305
 30
-79.7034159820285
 70
   192
  0
VERTEX
  5
2A3
  8
0
 10
121.98563975034
 20
30.0970874396175
 30
-11.1657795993845
 70
   192
  0
VERTEX
  5
2A4
  8
0
 10
146.1949188561964
 20
51.50205566477203
 30
-80.663036312639
 70
   192
  0
VERTEX
  5
2A5
  8
0
 10
142.7528587024415
 20
54.94411581852688
 30
-80.66303631263901
 70
   192
  0
VERTEX
  5
2A6
  8
0
 10
123.7375848050595
 20
28.68697048557826
 30
-10.83545864346282
 70
   192
  0
VERTEX
  5
2A7
  8
0
 10
141.1953100445725
 20
59.45507216985454
 30
-79.70341598202849
 70
   192
  0
VERTEX
  5
2A8
  8
0
 10
118.996325273876
 20
37.25608739915759
 30
-11.3819660112501
 70
   192
  0
VERTEX
  5
2A9
  8
0
 10
119.3354403063787
 20
34.46948330784416
 30
-11.25909183112759
 70
   192
  0
VERTEX
  5
2AA
  8
0
 10
120.376007286228
 20
32.0392750776044
 30
-11.18694719327258
 70
   192
  0
VERTEX
  5
2AB
  8
0
 10
0.0
 20
0.0
 30
0.0
 70
   128
 71
     1
 72
     2
 73
     3
  0
VERTEX
  5
2AC
  8
0
 10
0.0
 20
0.0
 30
0.0
 70
   128
 71
     4
 72
     5
 73
     6
  0
VERTEX
  5
2AD
  8
0
 10
0.0
 20
0.0
 30
0.0
 70
   128
 71
     5
 72
     4
 73
     7
  0
VERTEX
  5
2AE
  8
0
 10
0.0
 20
0.0
 30
0.0
 70
   128
 71
     3
 72
     5
 73
     7
  0
VERTEX
  5
2AF
  8
0
 10
0.0
 20
0.0
 30
0.0
 70
   128
 71
     8
 72
     9
 73
    10
  0
VERTEX
  5
2B0
  8
0
 10
0.0
 20
0.0
 30
0.0
 70
   128
 71
     6
 72
     8
 73
    10
  0
VERTEX
  5
2B1
  8
0
 10
0.0
 20
0.0
 30
0.0
 70
   128
 71
    11
 72
     6
 73
    10
  0
VERTEX
  5
2B2
  8
0
 10
0.0
 20
0.0
 30
0.0
 70
   128
 71
     4
 72
     6
 73
    11
  0
VERTEX
  5
2B3
  8
0
 10
0.0
 20
0.0
 30
0.0
 70
   128
 71
     1
 72
     3
 73
     7
  0
SEQEND
  5
9DA
  8
0
  0
POLYLINE
  5
2B4
  8
0
 66
     1
 10
0.0
 20
0.0
 30
0.0
 70
    64
 71
    12
 72
    10
  0
VERTEX
  5
2B5
  8
0
 10
376.254943324139
 20
78.5472972972975
 30
-79.38070320818521
 70
   192
  0
VERTEX
  5
2B6
  8
0
 10
372.143015865616
 20
78.348013463879
 30
-86.52987778345074
 70
   192
  0
VERTEX
  5
2B7
  8
0
 10
365.4943487199406
 20
78.1826369569445
 30
-91.41109017127124
 70
   192
  0
VERTEX
  5
2B8
  8
0
 10
357.440185318779
 20
78.07930591051735
 30
-93.19382211418207
 70
   192
  0
VERTEX
  5
2B9
  8
0
 10
356.1468301454834
 20
73.19032359581645
 30
-93.09236808514964
 70
   192
  0
VERTEX
  5
2BA
  8
0
 10
352.6091651506612
 20
69.64523151928407
 30
-93.04403251892779
 70
   192
  0
VERTEX
  5
2BB
  8
0
 10
347.736379199231
 20
68.34207824855271
 30
-93.06005713981808
 70
   192
  0
VERTEX
  5
2BC
  8
0
 10
347.6940931050911
 20
60.39410552615715
 30
-91.2057254051488
 70
   192
  0
VERTEX
  5
2BD
  8
0
 10
347.6273616171431
 20
53.84882111474172
 30
-86.33074811555032
 70
   192
  0
VERTEX
  5
2BE
  8
0
 10
347.5472972972971
 20
49.79618839561853
 30
-79.24693823382123
 70
   192
  0
VERTEX
  5
2BF
  8
0
 10
360.9495192499589
 20
53.10593835196696
 30
-79.23302432508521
 70
   192
  0
VERTEX
  5
2C0
  8
0
 10
371.8623607425383
 20
63.22329307334901
 30
-79.27761264987839
 70
   192
  0
VERTEX
  5
2C1
  8
0
 10
0.0
 20
0.0
 30
0.0
 70
   128
 71
     6
 72
     7
 73
     8
  0
VERTEX
  5
2C2
  8
0
 10
0.0
 20
0.0
 30
0.0
 70
   128
 71
     9
 72
    11
 73
     6
  0
VERTEX
  5
2C3
  8
0
 10
0.0
 20
0.0
 30
0.0
 70
   128
 71
     8
 72
     9
 73
     6
  0
VERTEX
  5
2C4
  8
0
 10
0.0
 20
0.0
 30
0.0
 70
   128
 71
     9
 72
    10
 73
    11
  0
VERTEX
  5
2C5
  8
0
 10
0.0
 20
0.0
 30
0.0
 70
   128
 71
    12
 72
     5
 73
     6
  0
VERTEX
  5
2C6
  8
0
 10
0.0
 20
0.0
 30
0.0
 70
   128
 71
    11
 72
    12
 73
     6
  0
VERTEX
  5
2C7
  8
0
 10
0.0
 20
0.0
 30
0.0
 70
   128
 71
    12
 72
     1
 73
     2
  0
VERTEX
  5
2C8
  8
0
 10
0.0
 20
0.0
 30
0.0
 70
   128
 71
     3
 72
     5
 73
    12
  0
VERTEX
  5
2C9
  8
0
 10
0.0
 20
0.0
 30
0.0
 70
   128
 71
     2
 72
     3
 73
    12
  0
VERTEX
  5
2CA
  8
0
 10
0.0
 20
0.0
 30
0.0
 70
   128
 71
     3
 72
     4
 73
     5
  0
SEQEND
  5
9DB
  8
0
  0
POLYLINE
  5
2CB
  8
0
 66
     1
 10
0.0
 20
0.0
 30
0.0
 70
    64
 71
    12
 72
    10
  0
VERTEX
  5
2CC
  8
0
 10
347.547297297297
 20
736.298406198977
 30
-79.24693823382154
 70
   192
  0
VERTEX
  5
2CD
  8
0
 10
347.627361617143
 20
732.2457734798536
 30
-86.33074811555072
 70
   192
  0
VERTEX
  5
2CE
  8
0
 10
347.694093105091
 20
725.7004890684378
 30
-91.20572540514911
 70
   192
  0
VERTEX
  5
2CF
  8
0
 10
347.7363791992306
 20
717.752516346042
 30
-93.06005713981807
 70
   192
  0
VERTEX
  5
2D0
  8
0
 10
352.6228799645575
 20
716.4396298850351
 30
-93.04412817312928
 70
   192
  0
VERTEX
  5
2D1
  8
0
 10
356.1557194722614
 20
712.8915747449337
 30
-93.09257658804931
 70
   192
  0
VERTEX
  5
2D2
  8
0
 10
357.440185318779
 20
708.0152886840781
 30
-93.1938221141821
 70
   192
  0
VERTEX
  5
2D3
  8
0
 10
365.4943487199406
 20
707.9119576376511
 30
-91.41109017127124
 70
   192
  0
VERTEX
  5
2D4
  8
0
 10
372.143015865616
 20
707.7465811307165
 30
-86.52987778345074
 70
   192
  0
VERTEX
  5
2D5
  8
0
 10
376.254943324139
 20
707.547297297298
 30
-79.38070320818521
 70
   192
  0
VERTEX
  5
2D6
  8
0
 10
371.8623607425273
 20
722.8713015212638
 30
-79.27761264987836
 70
   192
  0
VERTEX
  5
2D7
  8
0
 10
360.949519249941
 20
732.9886562426381
 30
-79.23302432508527
 70
   192
  0
VERTEX
  5
2D8
  8
0
 10
0.0
 20
0.0
 30
0.0
 70
   128
 71
     6
 72
     7
 73
     8
  0
VERTEX
  5
2D9
  8
0
 10
0.0
 20
0.0
 30
0.0
 70
   128
 71
     9
 72
    11
 73
     6
  0
VERTEX
  5
2DA
  8
0
 10
0.0
 20
0.0
 30
0.0
 70
   128
 71
     8
 72
     9
 73
     6
  0
VERTEX
  5
2DB
  8
0
 10
0.0
 20
0.0
 30
0.0
 70
   128
 71
     9
 72
    10
 73
    11
  0
VERTEX
  5
2DC
  8
0
 10
0.0
 20
0.0
 30
0.0
 70
   128
 71
    12
 72
     5
 73
     6
  0
VERTEX
  5
2DD
  8
0
 10
0.0
 20
0.0
 30
0.0
 70
   128
 71
    11
 72
    12
 73
     6
  0
VERTEX
  5
2DE
  8
0
 10
0.0
 20
0.0
 30
0.0
 70
   128
 71
    12
 72
     1
 73
     2
  0
VERTEX
  5
2DF
  8
0
 10
0.0
 20
0.0
 30
0.0
 70
   128
 71
     3
 72
     5
 73
    12
  0
VERTEX
  5
2E0
  8
0
 10
0.0
 20
0.0
 30
0.0
 70
   128
 71
     2
 72
     3
 73
    12
  0
VERTEX
  5
2E1
  8
0
 10
0.0
 20
0.0
 30
0.0
 70
   128
 71
     3
 72
     4
 73
     5
  0
SEQEND
  5
9DC
  8
0
  0
POLYLINE
  5
2E2
  8
0
 66
     1
 10
0.0
 20
0.0
 30
0.0
 70
    64
 71
     8
 72
     6
  0
VERTEX
  5
2E3
  8
0
 10
26.585773070231
 20
48.54729729729738
 30
-2.0
 70
   192
  0
VERTEX
  5
2E4
  8
0
 10
26.585773070231
 20
48.54729729729739
 30
-45.0
 70
   192
  0
VERTEX
  5
2E5
  8
0
 10
48.54729729729729
 20
26.58577307023109
 30
-45.0
 70
   192
  0
VERTEX
  5
2E6
  8
0
 10
48.5472972972973
 20
26.58577307023109
 30
-2.0
 70
   192
  0
VERTEX
  5
2E7
  8
0
 10
18.54729729729731
 20
78.54729729729739
 30
-2.0
 70
   192
  0
VERTEX
  5
2E8
  8
0
 10
18.5472972972973
 20
78.5472972972974
 30
-45.0
 70
   192
  0
VERTEX
  5
2E9
  8
0
 10
78.5472972972973
 20
18.5472972972974
 30
-45.0
 70
   192
  0
VERTEX
  5
2EA
  8
0
 10
78.5472972972973
 20
18.5472972972973
 30
-2.0
 70
   192
  0
VERTEX
  5
2EB
  8
0
 10
0.0
 20
0.0
 30
0.0
 70
   128
 71
     1
 72
     2
 73
    -3
  0
VERTEX
  5
2EC
  8
0
 10
0.0
 20
0.0
 30
0.0
 70
   128
 71
    -1
 72
     3
 73
     4
  0
VERTEX
  5
2ED
  8
0
 10
0.0
 20
0.0
 30
0.0
 70
   128
 71
     5
 72
     6
 73
    -2
  0
VERTEX
  5
2EE
  8
0
 10
0.0
 20
0.0
 30
0.0
 70
   128
 71
    -5
 72
     2
 73
     1
  0
VERTEX
  5
2EF
  8
0
 10
0.0
 20
0.0
 30
0.0
 70
   128
 71
     4
 72
     3
 73
    -7
  0
VERTEX
  5
2F0
  8
0
 10
0.0
 20
0.0
 30
0.0
 70
   128
 71
    -4
 72
     7
 73
     8
  0
SEQEND
  5
9DD
  8
0
  0
POLYLINE
  5
2F1
  8
0
 66
     1
 10
0.0
 20
0.0
 30
0.0
 70
    64
 71
     4
 72
     2
  0
VERTEX
  5
2F2
  8
0
 10
347.547297297297
 20
18.5472972972975
 30
-45.0
 70
   192
  0
VERTEX
  5
2F3
  8
0
 10
78.5472972972973
 20
18.5472972972973
 30
-45.0
 70
   192
  0
VERTEX
  5
2F4
  8
0
 10
78.54729729729735
 20
18.54729729729736
 30
-2.0
 70
   192
  0
VERTEX
  5
2F5
  8
0
 10
347.547297297297
 20
18.5472972972975
 30
-2.0
 70
   192
  0
VERTEX
  5
2F6
  8
0
 10
0.0
 20
0.0
 30
0.0
 70
   128
 71
     1
 72
     4
 73
    -3
  0
VERTEX
  5
2F7
  8
0
 10
0.0
 20
0.0
 30
0.0
 70
   128
 71
    -1
 72
     3
 73
     2
  0
SEQEND
  5
9DE
  8
0
  0
POLYLINE
  5
2F8
  8
0
 66
     1
 10
0.0
 20
0.0
 30
0.0
 70
    64
 71
     8
 72
     6
  0
VERTEX
  5
2F9
  8
0
 10
377.5472972972971
 20
26.5857730702312
 30
-2.0
 70
   192
  0
VERTEX
  5
2FA
  8
0
 10
377.547297297297
 20
26.58577307023118
 30
-45.0
 70
   192
  0
VERTEX
  5
2FB
  8
0
 10
399.5088215243633
 20
48.5472972972975
 30
-45.0
 70
   192
  0
VERTEX
  5
2FC
  8
0
 10
399.5088215243633
 20
48.54729729729752
 30
-2.0
 70
   192
  0
VERTEX
  5
2FD
  8
0
 10
347.547297297297
 20
18.5472972972975
 30
-2.0
 70
   192
  0
VERTEX
  5
2FE
  8
0
 10
347.547297297297
 20
18.5472972972975
 30
-45.0
 70
   192
  0
VERTEX
  5
2FF
  8
0
 10
407.547297297297
 20
78.5472972972975
 30
-45.0
 70
   192
  0
VERTEX
  5
300
  8
0
 10
407.547297297297
 20
78.5472972972975
 30
-2.0
 70
   192
  0
VERTEX
  5
301
  8
0
 10
0.0
 20
0.0
 30
0.0
 70
   128
 71
     1
 72
     2
 73
    -3
  0
VERTEX
  5
302
  8
0
 10
0.0
 20
0.0
 30
0.0
 70
   128
 71
    -1
 72
     3
 73
     4
  0
VERTEX
  5
303
  8
0
 10
0.0
 20
0.0
 30
0.0
 70
   128
 71
     5
 72
     6
 73
    -2
  0
VERTEX
  5
304
  8
0
 10
0.0
 20
0.0
 30
0.0
 70
   128
 71
    -5
 72
     2
 73
     1
  0
VERTEX
  5
305
  8
0
 10
0.0
 20
0.0
 30
0.0
 70
   128
 71
     4
 72
     3
 73
    -7
  0
VERTEX
  5
306
  8
0
 10
0.0
 20
0.0
 30
0.0
 70
   128
 71
    -4
 72
     7
 73
     8
  0
SEQEND
  5
9DF
  8
0
  0
POLYLINE
  5
307
  8
0
 66
     1
 10
0.0
 20
0.0
 30
0.0
 70
    64
 71
    15
 72
    13
  0
VERTEX
  5
308
  8
0
 10
376.254943324139
 20
707.547297297298
 30
-79.38070320818521
 70
   192
  0
VERTEX
  5
309
  8
0
 10
372.143015865616
 20
707.7465811307165
 30
-86.52987778345074
 70
   192
  0
VERTEX
  5
30A
  8
0
 10
365.4943487199406
 20
707.9119576376511
 30
-91.41109017127124
 70
   192
  0
VERTEX
  5
30B
  8
0
 10
357.440185318779
 20
708.0152886840782
 30
-93.19382211418207
 70
   192
  0
VERTEX
  5
30C
  8
0
 10
356.739651637052
 20
602.5327769517838
 30
-95.57990716353557
 70
   192
  0
VERTEX
  5
30D
  8
0
 10
356.220652241705
 20
497.6437126251327
 30
-97.57686540121813
 70
   192
  0
VERTEX
  5
30E
  8
0
 10
356.026730976519
 20
393.0472989587595
 30
-98.48299301957749
 70
   192
  0
VERTEX
  5
30F
  8
0
 10
356.2205678324501
 20
288.4505610971055
 30
-97.57686268627506
 70
   192
  0
VERTEX
  5
310
  8
0
 10
356.7396976798789
 20
183.5626467143555
 30
-95.57992437431066
 70
   192
  0
VERTEX
  5
311
  8
0
 10
357.440185318779
 20
78.0793059105173
 30
-93.1938221141821
 70
   192
  0
VERTEX
  5
312
  8
0
 10
365.4943487199406
 20
78.1826369569445
 30
-91.41109017127124
 70
   192
  0
VERTEX
  5
313
  8
0
 10
372.143015865616
 20
78.348013463879
 30
-86.52987778345074
 70
   192
  0
VERTEX
  5
314
  8
0
 10
376.254943324139
 20
78.5472972972975
 30
-79.38070320818521
 70
   192
  0
VERTEX
  5
315
  8
0
 10
374.8330578388641
 20
288.185876714613
 30
-83.75681675796619
 70
   192
  0
VERTEX
  5
316
  8
0
 10
374.8329259596286
 20
497.8804622034195
 30
-83.75722264051745
 70
   192
  0
VERTEX
  5
317
  8
0
 10
0.0
 20
0.0
 30
0.0
 70
   128
 71
    11
 72
     8
 73
     9
  0
VERTEX
  5
318
  8
0
 10
0.0
 20
0.0
 30
0.0
 70
   128
 71
     9
 72
    10
 73
    11
  0
VERTEX
  5
319
  8
0
 10
0.0
 20
0.0
 30
0.0
 70
   128
 71
    12
 72
    14
 73
     8
  0
VERTEX
  5
31A
  8
0
 10
0.0
 20
0.0
 30
0.0
 70
   128
 71
    11
 72
    12
 73
     8
  0
VERTEX
  5
31B
  8
0
 10
0.0
 20
0.0
 30
0.0
 70
   128
 71
    12
 72
    13
 73
    14
  0
VERTEX
  5
31C
  8
0
 10
0.0
 20
0.0
 30
0.0
 70
   128
 71
    15
 72
     6
 73
     7
  0
VERTEX
  5
31D
  8
0
 10
0.0
 20
0.0
 30
0.0
 70
   128
 71
     8
 72
    14
 73
    15
  0
VERTEX
  5
31E
  8
0
 10
0.0
 20
0.0
 30
0.0
 70
   128
 71
     7
 72
     8
 73
    15
  0
VERTEX
  5
31F
  8
0
 10
0.0
 20
0.0
 30
0.0
 70
   128
 71
    15
 72
     1
 73
     2
  0
VERTEX
  5
320
  8
0
 10
0.0
 20
0.0
 30
0.0
 70
   128
 71
     3
 72
     5
 73
    15
  0
VERTEX
  5
321
  8
0
 10
0.0
 20
0.0
 30
0.0
 70
   128
 71
     2
 72
     3
 73
    15
  0
VERTEX
  5
322
  8
0
 10
0.0
 20
0.0
 30
0.0
 70
   128
 71
     3
 72
     4
 73
     5
  0
VERTEX
  5
323
  8
0
 10
0.0
 20
0.0
 30
0.0
 70
   128
 71
     5
 72
     6
 73
    15
  0
SEQEND
  5
9E0
  8
0
  0
POLYLINE
  5
324
  8
0
 66
     1
 10
0.0
 20
0.0
 30
0.0
 70
    64
 71
     8
 72
     6
  0
VERTEX
  5
325
  8
0
 10
52.6973817901721
 20
33.77393026759383
 30
-8.61803398874989
 70
   192
  0
VERTEX
  5
326
  8
0
 10
33.77393026759378
 20
52.69738179017212
 30
-8.61803398874989
 70
   192
  0
VERTEX
  5
327
  8
0
 10
31.73778242577327
 20
51.52181128558718
 30
-1.3819660112501
 70
   192
  0
VERTEX
  5
328
  8
0
 10
51.52181128558716
 20
31.73778242577333
 30
-1.3819660112501
 70
   192
  0
VERTEX
  5
329
  8
0
 10
26.84746628304667
 20
78.5472972972974
 30
-8.618033988749898
 70
   192
  0
VERTEX
  5
32A
  8
0
 10
24.49632527387679
 20
78.5472972972974
 30
-1.381966011250114
 70
   192
  0
VERTEX
  5
32B
  8
0
 10
78.5472972972974
 20
26.84746628304678
 30
-8.618033988749898
 70
   192
  0
VERTEX
  5
32C
  8
0
 10
78.54729729729739
 20
24.496325273877
 30
-1.3819660112501
 70
   192
  0
VERTEX
  5
32D
  8
0
 10
0.0
 20
0.0
 30
0.0
 70
   128
 71
     1
 72
     2
 73
    -3
  0
VERTEX
  5
32E
  8
0
 10
0.0
 20
0.0
 30
0.0
 70
   128
 71
     4
 72
    -1
 73
     3
  0
VERTEX
  5
32F
  8
0
 10
0.0
 20
0.0
 30
0.0
 70
   128
 71
     2
 72
     5
 73
    -6
  0
VERTEX
  5
330
  8
0
 10
0.0
 20
0.0
 30
0.0
 70
   128
 71
     3
 72
    -2
 73
     6
  0
VERTEX
  5
331
  8
0
 10
0.0
 20
0.0
 30
0.0
 70
   128
 71
     7
 72
     1
 73
    -4
  0
VERTEX
  5
332
  8
0
 10
0.0
 20
0.0
 30
0.0
 70
   128
 71
     8
 72
    -7
 73
     4
  0
SEQEND
  5
9E1
  8
0
  0
POLYLINE
  5
333
  8
0
 66
     1
 10
0.0
 20
0.0
 30
0.0
 70
    64
 71
     4
 72
     2
  0
VERTEX
  5
334
  8
0
 10
407.547297297297
 20
707.547297297298
 30
-45.0
 70
   192
  0
VERTEX
  5
335
  8
0
 10
407.547297297297
 20
78.5472972972975
 30
-45.0
 70
   192
  0
VERTEX
  5
336
  8
0
 10
407.547297297297
 20
78.54729729729752
 30
-2.0
 70
   192
  0
VERTEX
  5
337
  8
0
 10
407.547297297297
 20
707.547297297298
 30
-2.0
 70
   192
  0
VERTEX
  5
338
  8
0
 10
0.0
 20
0.0
 30
0.0
 70
   128
 71
     1
 72
     4
 73
    -3
  0
VERTEX
  5
339
  8
0
 10
0.0
 20
0.0
 30
0.0
 70
   128
 71
    -1
 72
     3
 73
     2
  0
SEQEND
  5
9E2
  8
0
  0
POLYLINE
  5
33A
  8
0
 66
     1
 10
0.0
 20
0.0
 30
0.0
 70
    64
 71
    12
 72
    10
  0
VERTEX
  5
33B
  8
0
 10
347.547297297297
 20
736.298406198976
 30
-79.2469382338212
 70
   192
  0
VERTEX
  5
33C
  8
0
 10
281.9341829251513
 20
736.1446116696904
 30
-79.72026912471232
 70
   192
  0
VERTEX
  5
33D
  8
0
 10
216.3203878960887
 20
736.0933147714125
 30
-79.87814474405093
 70
   192
  0
VERTEX
  5
33E
  8
0
 10
150.705875207525
 20
736.1500875876919
 30
-79.7034159820285
 70
   192
  0
VERTEX
  5
33F
  8
0
 10
151.8467288704505
 20
732.0376900053718
 30
-86.85835046230346
 70
   192
  0
VERTEX
  5
340
  8
0
 10
152.6157962717672
 20
725.4630802544766
 30
-91.71244434878547
 70
   192
  0
VERTEX
  5
341
  8
0
 10
152.903140386477
 20
717.626398273513
 30
-93.52848502534529
 70
   192
  0
VERTEX
  5
342
  8
0
 10
217.8554044024012
 20
717.5809349724237
 30
-93.69774236002166
 70
   192
  0
VERTEX
  5
343
  8
0
 10
282.7296525517534
 20
717.6241741466467
 30
-93.5358761197817
 70
   192
  0
VERTEX
  5
344
  8
0
 10
347.736379199231
 20
717.752516346042
 30
-93.06005713981808
 70
   192
  0
VERTEX
  5
345
  8
0
 10
347.694093105091
 20
725.7004890684378
 30
-91.20572540514911
 70
   192
  0
VERTEX
  5
346
  8
0
 10
347.627361617143
 20
732.2457734798536
 30
-86.33074811555072
 70
   192
  0
VERTEX
  5
347
  8
0
 10
0.0
 20
0.0
 30
0.0
 70
   128
 71
     6
 72
     7
 73
     8
  0
VERTEX
  5
348
  8
0
 10
0.0
 20
0.0
 30
0.0
 70
   128
 71
     9
 72
    11
 73
     6
  0
VERTEX
  5
349
  8
0
 10
0.0
 20
0.0
 30
0.0
 70
   128
 71
     8
 72
     9
 73
     6
  0
VERTEX
  5
34A
  8
0
 10
0.0
 20
0.0
 30
0.0
 70
   128
 71
     9
 72
    10
 73
    11
  0
VERTEX
  5
34B
  8
0
 10
0.0
 20
0.0
 30
0.0
 70
   128
 71
    12
 72
     5
 73
     6
  0
VERTEX
  5
34C
  8
0
 10
0.0
 20
0.0
 30
0.0
 70
   128
 71
    11
 72
    12
 73
     6
  0
VERTEX
  5
34D
  8
0
 10
0.0
 20
0.0
 30
0.0
 70
   128
 71
    12
 72
     1
 73
     2
  0
VERTEX
  5
34E
  8
0
 10
0.0
 20
0.0
 30
0.0
 70
   128
 71
     3
 72
     5
 73
    12
  0
VERTEX
  5
34F
  8
0
 10
0.0
 20
0.0
 30
0.0
 70
   128
 71
     2
 72
     3
 73
    12
  0
VERTEX
  5
350
  8
0
 10
0.0
 20
0.0
 30
0.0
 70
   128
 71
     3
 72
     4
 73
     5
  0
SEQEND
  5
9E3
  8
0
  0
POLYLINE
  5
351
  8
0
 66
     1
 10
0.0
 20
0.0
 30
0.0
 70
    64
 71
     8
 72
     6
  0
VERTEX
  5
352
  8
0
 10
347.547297297297
 20
736.298406198976
 30
-79.2469382338212
 70
   192
  0
VERTEX
  5
353
  8
0
 10
281.9341829251513
 20
736.1446116696904
 30
-79.72026912471232
 70
   192
  0
VERTEX
  5
354
  8
0
 10
216.3203878960887
 20
736.0933147714125
 30
-79.87814474405093
 70
   192
  0
VERTEX
  5
355
  8
0
 10
150.7058752075254
 20
736.1500875876916
 30
-79.70341598202828
 70
   192
  0
VERTEX
  5
356
  8
0
 10
127.608834483669
 20
759.2471283115481
 30
-8.618033988749911
 70
   192
  0
VERTEX
  5
357
  8
0
 10
78.547297297297
 20
759.2471283115484
 30
-8.618033988750039
 70
   192
  0
VERTEX
  5
358
  8
0
 10
78.547297297297
 20
761.598269320718
 30
-1.38196601125006
 70
   192
  0
VERTEX
  5
359
  8
0
 10
347.547297297297
 20
761.5982693207184
 30
-1.381966011250194
 70
   192
  0
VERTEX
  5
35A
  8
0
 10
0.0
 20
0.0
 30
0.0
 70
   128
 71
     2
 72
     1
 73
    -8
  0
VERTEX
  5
35B
  8
0
 10
0.0
 20
0.0
 30
0.0
 70
   128
 71
    -8
 72
    -5
 73
    -3
  0
VERTEX
  5
35C
  8
0
 10
0.0
 20
0.0
 30
0.0
 70
   128
 71
    -8
 72
     3
 73
    -2
  0
VERTEX
  5
35D
  8
0
 10
0.0
 20
0.0
 30
0.0
 70
   128
 71
     5
 72
     4
 73
    -3
  0
VERTEX
  5
35E
  8
0
 10
0.0
 20
0.0
 30
0.0
 70
   128
 71
     8
 72
    -7
 73
    -5
  0
VERTEX
  5
35F
  8
0
 10
0.0
 20
0.0
 30
0.0
 70
   128
 71
     7
 72
     6
 73
    -5
  0
SEQEND
  5
9E4
  8
0
  0
POLYLINE
  5
360
  8
0
 66
     1
 10
0.0
 20
0.0
 30
0.0
 70
    64
 71
    11
 72
     9
  0
VERTEX
  5
361
  8
0
 10
150.7058752075254
 20
736.1500875876916
 30
-79.70341598202828
 70
   192
  0
VERTEX
  5
362
  8
0
 10
127.6088344836693
 20
759.2471283115477
 30
-8.61803398874973
 70
   192
  0
VERTEX
  5
363
  8
0
 10
125.6597326487
 20
758.5499853843867
 30
-9.905691280955716
 70
   192
  0
VERTEX
  5
364
  8
0
 10
121.985639750341
 20
755.997507154977
 30
-11.1657795993845
 70
   192
  0
VERTEX
  5
365
  8
0
 10
146.1949188561995
 20
734.5925389298206
 30
-80.66303631264569
 70
   192
  0
VERTEX
  5
366
  8
0
 10
123.7377456664658
 20
757.4077124819414
 30
-10.83543819165765
 70
   192
  0
VERTEX
  5
367
  8
0
 10
119.3354403063791
 20
751.6251112867507
 30
-11.2590918311278
 70
   192
  0
VERTEX
  5
368
  8
0
 10
118.996325273877
 20
748.8385071954369
 30
-11.3819660112501
 70
   192
  0
VERTEX
  5
369
  8
0
 10
141.1953100445762
 20
726.639522424738
 30
-79.7034159820351
 70
   192
  0
VERTEX
  5
36A
  8
0
 10
120.3760072862284
 20
754.0553195169906
 30
-11.1869471932729
 70
   192
  0
VERTEX
  5
36B
  8
0
 10
142.7528587024445
 20
731.1504787760658
 30
-80.66303631264572
 70
   192
  0
VERTEX
  5
36C
  8
0
 10
0.0
 20
0.0
 30
0.0
 70
   128
 71
     1
 72
     2
 73
     3
  0
VERTEX
  5
36D
  8
0
 10
0.0
 20
0.0
 30
0.0
 70
   128
 71
     4
 72
     5
 73
     1
  0
VERTEX
  5
36E
  8
0
 10
0.0
 20
0.0
 30
0.0
 70
   128
 71
     6
 72
     4
 73
     1
  0
VERTEX
  5
36F
  8
0
 10
0.0
 20
0.0
 30
0.0
 70
   128
 71
     7
 72
     8
 73
     9
  0
VERTEX
  5
370
  8
0
 10
0.0
 20
0.0
 30
0.0
 70
   128
 71
    10
 72
     7
 73
     9
  0
VERTEX
  5
371
  8
0
 10
0.0
 20
0.0
 30
0.0
 70
   128
 71
    10
 72
     9
 73
    11
  0
VERTEX
  5
372
  8
0
 10
0.0
 20
0.0
 30
0.0
 70
   128
 71
     5
 72
     4
 73
    10
  0
VERTEX
  5
373
  8
0
 10
0.0
 20
0.0
 30
0.0
 70
   128
 71
    11
 72
     5
 73
    10
  0
VERTEX
  5
374
  8
0
 10
0.0
 20
0.0
 30
0.0
 70
   128
 71
     1
 72
     3
 73
     6
  0
SEQEND
  5
9E5
  8
0
  0
POLYLINE
  5
375
  8
0
 66
     1
 10
0.0
 20
0.0
 30
0.0
 70
    64
 71
     8
 72
     6
  0
VERTEX
  5
376
  8
0
 10
371.8623607425273
 20
722.8713015212638
 30
-79.27761264987836
 70
   192
  0
VERTEX
  5
377
  8
0
 10
376.254943324139
 20
707.547297297298
 30
-79.38070320818522
 70
   192
  0
VERTEX
  5
378
  8
0
 10
401.5982693207175
 20
707.547297297298
 30
-1.381966011249949
 70
   192
  0
VERTEX
  5
379
  8
0
 10
394.3568121688211
 20
734.5727833090082
 30
-1.3819660112501
 70
   192
  0
VERTEX
  5
37A
  8
0
 10
360.949519249941
 20
732.9886562426381
 30
-79.23302432508527
 70
   192
  0
VERTEX
  5
37B
  8
0
 10
374.5727833090072
 20
754.356812168822
 30
-1.3819660112501
 70
   192
  0
VERTEX
  5
37C
  8
0
 10
347.547297297297
 20
736.2984061989769
 30
-79.24693823382148
 70
   192
  0
VERTEX
  5
37D
  8
0
 10
347.547297297297
 20
761.5982693207184
 30
-1.3819660112501
 70
   192
  0
VERTEX
  5
37E
  8
0
 10
0.0
 20
0.0
 30
0.0
 70
   128
 71
     1
 72
     2
 73
     3
  0
VERTEX
  5
37F
  8
0
 10
0.0
 20
0.0
 30
0.0
 70
   128
 71
     4
 72
     1
 73
     3
  0
VERTEX
  5
380
  8
0
 10
0.0
 20
0.0
 30
0.0
 70
   128
 71
     5
 72
     1
 73
     4
  0
VERTEX
  5
381
  8
0
 10
0.0
 20
0.0
 30
0.0
 70
   128
 71
     6
 72
     5
 73
     4
  0
VERTEX
  5
382
  8
0
 10
0.0
 20
0.0
 30
0.0
 70
   128
 71
     7
 72
     5
 73
     6
  0
VERTEX
  5
383
  8
0
 10
0.0
 20
0.0
 30
0.0
 70
   128
 71
     8
 72
     7
 73
     6
  0
SEQEND
  5
9E6
  8
0
  0
POLYLINE
  5
384
  8
0
 66
     1
 10
0.0
 20
0.0
 30
0.0
 70
    64
 71
    12
 72
    10
  0
VERTEX
  5
385
  8
0
 10
27.26328966468201
 20
707.547297297298
 30
-9.338261212717715
 70
   192
  0
VERTEX
  5
386
  8
0
 10
27.9361060294852
 20
707.547297297298
 30
-9.8270909152852
 70
   192
  0
VERTEX
  5
387
  8
0
 10
78.547297297297
 20
758.8313049299127
 30
-9.33826121271775
 70
   192
  0
VERTEX
  5
388
  8
0
 10
78.547297297297
 20
758.1584885651096
 30
-9.827090915285211
 70
   192
  0
VERTEX
  5
389
  8
0
 10
28.7495793156368
 20
707.547297297298
 30
-10.0
 70
   192
  0
VERTEX
  5
38A
  8
0
 10
35.42120847468615
 20
732.4461562881281
 30
-10.0
 70
   192
  0
VERTEX
  5
38B
  8
0
 10
53.64843830646692
 20
750.6733861199089
 30
-10.0
 70
   192
  0
VERTEX
  5
38C
  8
0
 10
78.547297297297
 20
757.3450152789582
 30
-10.0
 70
   192
  0
VERTEX
  5
38D
  8
0
 10
26.84746628304649
 20
707.547297297298
 30
-8.618033988749891
 70
   192
  0
VERTEX
  5
38E
  8
0
 10
33.77393026759347
 20
733.3972128044232
 30
-8.61803398874989
 70
   192
  0
VERTEX
  5
38F
  8
0
 10
78.547297297297
 20
759.2471283115482
 30
-8.618033988749959
 70
   192
  0
VERTEX
  5
390
  8
0
 10
52.69738179017174
 20
752.3206643270015
 30
-8.61803398874989
 70
   192
  0
VERTEX
  5
391
  8
0
 10
0.0
 20
0.0
 30
0.0
 70
   128
 71
     1
 72
    -2
 73
     3
  0
VERTEX
  5
392
  8
0
 10
0.0
 20
0.0
 30
0.0
 70
   128
 71
    -3
 72
     2
 73
     4
  0
VERTEX
  5
393
  8
0
 10
0.0
 20
0.0
 30
0.0
 70
   128
 71
     2
 72
     5
 73
     6
  0
VERTEX
  5
394
  8
0
 10
0.0
 20
0.0
 30
0.0
 70
   128
 71
     6
 72
     7
 73
     2
  0
VERTEX
  5
395
  8
0
 10
0.0
 20
0.0
 30
0.0
 70
   128
 71
     2
 72
     7
 73
     8
  0
VERTEX
  5
396
  8
0
 10
0.0
 20
0.0
 30
0.0
 70
   128
 71
     4
 72
     2
 73
     8
  0
VERTEX
  5
397
  8
0
 10
0.0
 20
0.0
 30
0.0
 70
   128
 71
     9
 72
     1
 73
    10
  0
VERTEX
  5
398
  8
0
 10
0.0
 20
0.0
 30
0.0
 70
   128
 71
     3
 72
    11
 73
    12
  0
VERTEX
  5
399
  8
0
 10
0.0
 20
0.0
 30
0.0
 70
   128
 71
    10
 72
     1
 73
    -3
  0
VERTEX
  5
39A
  8
0
 10
0.0
 20
0.0
 30
0.0
 70
   128
 71
    12
 72
   -10
 73
     3
  0
SEQEND
  5
9E7
  8
0
  0
POLYLINE
  5
39B
  8
0
 66
     1
 10
0.0
 20
0.0
 30
0.0
 70
    64
 71
    19
 72
    17
  0
VERTEX
  5
39C
  8
0
 10
255.5230987911342
 20
393.0472972972973
 30
-101.0540828658344
 70
   192
  0
VERTEX
  5
39D
  8
0
 10
356.0267309734473
 20
393.0472972972971
 30
-98.48299289950288
 70
   192
  0
VERTEX
  5
39E
  8
0
 10
356.026730976519
 20
393.0472989587595
 30
-98.48299301957749
 70
   192
  0
VERTEX
  5
39F
  8
0
 10
356.220652241705
 20
497.6437126251327
 30
-97.57686540121813
 70
   192
  0
VERTEX
  5
3A0
  8
0
 10
244.6931372734463
 20
419.1931372734464
 30
-101.0540828331678
 70
   192
  0
VERTEX
  5
3A1
  8
0
 10
218.547297297297
 20
430.023098791204
 30
-101.0540828331678
 70
   192
  0
VERTEX
  5
3A2
  8
0
 10
356.739651637052
 20
602.5327769517838
 30
-95.57990716353557
 70
   192
  0
VERTEX
  5
3A3
  8
0
 10
282.7296525517534
 20
717.6241741466467
 30
-93.5358761197817
 70
   192
  0
VERTEX
  5
3A4
  8
0
 10
357.440185318779
 20
708.0152886840781
 30
-93.1938221141821
 70
   192
  0
VERTEX
  5
3A5
  8
0
 10
347.736379199231
 20
717.752516346042
 30
-93.06005713981808
 70
   192
  0
VERTEX
  5
3A6
  8
0
 10
356.1557194722614
 20
712.8915747449337
 30
-93.09257658804931
 70
   192
  0
VERTEX
  5
3A7
  8
0
 10
352.6228799645575
 20
716.4396298850351
 30
-93.04412817312928
 70
   192
  0
VERTEX
  5
3A8
  8
0
 10
217.8554044024012
 20
717.5809349724237
 30
-93.69774236002166
 70
   192
  0
VERTEX
  5
3A9
  8
0
 10
152.903140386477
 20
717.626398273513
 30
-93.52848502534529
 70
   192
  0
VERTEX
  5
3AA
  8
0
 10
153.7615990970305
 20
608.7038297020996
 30
-96.23949456483383
 70
   192
  0
VERTEX
  5
3AB
  8
0
 10
154.5332097912489
 20
500.9745251113262
 30
-98.78987550934279
 70
   192
  0
VERTEX
  5
3AC
  8
0
 10
192.4014573211477
 20
419.1931372734463
 30
-101.0540828331678
 70
   192
  0
VERTEX
  5
3AD
  8
0
 10
154.9217960956041
 20
393.0472972972971
 30
-100.372328620249
 70
   192
  0
VERTEX
  5
3AE
  8
0
 10
181.5714958042951
 20
393.0472972972971
 30
-101.0540828331909
 70
   192
  0
VERTEX
  5
3AF
  8
0
 10
0.0
 20
0.0
 30
0.0
 70
   128
 71
     1
 72
     2
 73
     3
  0
VERTEX
  5
3B0
  8
0
 10
0.0
 20
0.0
 30
0.0
 70
   128
 71
     4
 72
     5
 73
     1
  0
VERTEX
  5
3B1
  8
0
 10
0.0
 20
0.0
 30
0.0
 70
   128
 71
     3
 72
     4
 73
     1
  0
VERTEX
  5
3B2
  8
0
 10
0.0
 20
0.0
 30
0.0
 70
   128
 71
     6
 72
     5
 73
     7
  0
VERTEX
  5
3B3
  8
0
 10
0.0
 20
0.0
 30
0.0
 70
   128
 71
     7
 72
     8
 73
     6
  0
VERTEX
  5
3B4
  8
0
 10
0.0
 20
0.0
 30
0.0
 70
   128
 71
     9
 72
    10
 73
     8
  0
VERTEX
  5
3B5
  8
0
 10
0.0
 20
0.0
 30
0.0
 70
   128
 71
     7
 72
     9
 73
     8
  0
VERTEX
  5
3B6
  8
0
 10
0.0
 20
0.0
 30
0.0
 70
   128
 71
    11
 72
    12
 73
    10
  0
VERTEX
  5
3B7
  8
0
 10
0.0
 20
0.0
 30
0.0
 70
   128
 71
     9
 72
    11
 73
    10
  0
VERTEX
  5
3B8
  8
0
 10
0.0
 20
0.0
 30
0.0
 70
   128
 71
    13
 72
    14
 73
    15
  0
VERTEX
  5
3B9
  8
0
 10
0.0
 20
0.0
 30
0.0
 70
   128
 71
    15
 72
    16
 73
     6
  0
VERTEX
  5
3BA
  8
0
 10
0.0
 20
0.0
 30
0.0
 70
   128
 71
    16
 72
    17
 73
     6
  0
VERTEX
  5
3BB
  8
0
 10
0.0
 20
0.0
 30
0.0
 70
   128
 71
    18
 72
    19
 73
    17
  0
VERTEX
  5
3BC
  8
0
 10
0.0
 20
0.0
 30
0.0
 70
   128
 71
     7
 72
     5
 73
     4
  0
VERTEX
  5
3BD
  8
0
 10
0.0
 20
0.0
 30
0.0
 70
   128
 71
    15
 72
     6
 73
     8
  0
VERTEX
  5
3BE
  8
0
 10
0.0
 20
0.0
 30
0.0
 70
   128
 71
    13
 72
    15
 73
     8
  0
VERTEX
  5
3BF
  8
0
 10
0.0
 20
0.0
 30
0.0
 70
   128
 71
    18
 72
    17
 73
    16
  0
SEQEND
  5
9E8
  8
0
  0
POLYLINE
  5
3C0
  8
0
 66
     1
 10
0.0
 20
0.0
 30
0.0
 70
    64
 71
    15
 72
    13
  0
VERTEX
  5
3C1
  8
0
 10
152.903140386477
 20
717.6263982735131
 30
-93.52848502534528
 70
   192
  0
VERTEX
  5
3C2
  8
0
 10
148.8554411758392
 20
717.5713337658348
 30
-92.65123520418017
 70
   192
  0
VERTEX
  5
3C3
  8
0
 10
145.5108816418616
 20
717.4827116496407
 30
-90.20940476519831
 70
   192
  0
VERTEX
  5
3C4
  8
0
 10
143.4432700790444
 20
717.375736350157
 30
-86.62192557234678
 70
   192
  0
VERTEX
  5
3C5
  8
0
 10
145.1504181377931
 20
501.1738432846157
 30
-91.87598704827991
 70
   192
  0
VERTEX
  5
3C6
  8
0
 10
145.1504316277649
 20
284.9226207037133
 30
-91.87602856614366
 70
   192
  0
VERTEX
  5
3C7
  8
0
 10
143.443270079044
 20
68.7188582444383
 30
-86.62192557234691
 70
   192
  0
VERTEX
  5
3C8
  8
0
 10
145.5108816418607
 20
68.61188294495452
 30
-90.20940476519847
 70
   192
  0
VERTEX
  5
3C9
  8
0
 10
148.8554411758383
 20
68.52326082876043
 30
-92.65123520418021
 70
   192
  0
VERTEX
  5
3CA
  8
0
 10
152.903140386476
 20
68.46819632108203
 30
-93.52848502534528
 70
   192
  0
VERTEX
  5
3CB
  8
0
 10
153.7616443331051
 20
177.3912339184191
 30
-96.23950627870684
 70
   192
  0
VERTEX
  5
3CC
  8
0
 10
154.5332423483578
 20
285.1203544795267
 30
-98.78988211768882
 70
   192
  0
VERTEX
  5
3CD
  8
0
 10
154.9217960941674
 20
393.0472972963329
 30
-100.3723286764084
 70
   192
  0
VERTEX
  5
3CE
  8
0
 10
154.5332097912489
 20
500.9745251113262
 30
-98.78987550934279
 70
   192
  0
VERTEX
  5
3CF
  8
0
 10
153.7615990970305
 20
608.7038297020996
 30
-96.23949456483383
 70
   192
  0
VERTEX
  5
3D0
  8
0
 10
0.0
 20
0.0
 30
0.0
 70
   128
 71
     6
 72
     7
 73
     8
  0
VERTEX
  5
3D1
  8
0
 10
0.0
 20
0.0
 30
0.0
 70
   128
 71
     9
 72
    11
 73
     6
  0
VERTEX
  5
3D2
  8
0
 10
0.0
 20
0.0
 30
0.0
 70
   128
 71
     8
 72
     9
 73
     6
  0
VERTEX
  5
3D3
  8
0
 10
0.0
 20
0.0
 30
0.0
 70
   128
 71
     9
 72
    10
 73
    11
  0
VERTEX
  5
3D4
  8
0
 10
0.0
 20
0.0
 30
0.0
 70
   128
 71
    11
 72
    12
 73
     6
  0
VERTEX
  5
3D5
  8
0
 10
0.0
 20
0.0
 30
0.0
 70
   128
 71
    12
 72
    13
 73
     6
  0
VERTEX
  5
3D6
  8
0
 10
0.0
 20
0.0
 30
0.0
 70
   128
 71
    14
 72
     5
 73
     6
  0
VERTEX
  5
3D7
  8
0
 10
0.0
 20
0.0
 30
0.0
 70
   128
 71
    13
 72
    14
 73
     6
  0
VERTEX
  5
3D8
  8
0
 10
0.0
 20
0.0
 30
0.0
 70
   128
 71
    14
 72
    15
 73
     5
  0
VERTEX
  5
3D9
  8
0
 10
0.0
 20
0.0
 30
0.0
 70
   128
 71
    15
 72
     1
 73
     2
  0
VERTEX
  5
3DA
  8
0
 10
0.0
 20
0.0
 30
0.0
 70
   128
 71
     3
 72
     5
 73
    15
  0
VERTEX
  5
3DB
  8
0
 10
0.0
 20
0.0
 30
0.0
 70
   128
 71
     2
 72
     3
 73
    15
  0
VERTEX
  5
3DC
  8
0
 10
0.0
 20
0.0
 30
0.0
 70
   128
 71
     3
 72
     4
 73
     5
  0
SEQEND
  5
9E9
  8
0
  0
POLYLINE
  5
3DD
  8
0
 66
     1
 10
0.0
 20
0.0
 30
0.0
 70
    64
 71
     8
 72
     6
  0
VERTEX
  5
3DE
  8
0
 10
27.9361060294852
 20
707.547297297298
 30
-9.8270909152852
 70
   192
  0
VERTEX
  5
3DF
  8
0
 10
27.26328966468201
 20
707.547297297298
 30
-9.338261212717715
 70
   192
  0
VERTEX
  5
3E0
  8
0
 10
27.26328966468227
 20
78.5472972972974
 30
-9.338261212717676
 70
   192
  0
VERTEX
  5
3E1
  8
0
 10
27.93610602948543
 20
78.5472972972974
 30
-9.82709091528517
 70
   192
  0
VERTEX
  5
3E2
  8
0
 10
26.84746628304649
 20
707.547297297298
 30
-8.618033988749891
 70
   192
  0
VERTEX
  5
3E3
  8
0
 10
26.84746628304678
 20
78.5472972972974
 30
-8.618033988749863
 70
   192
  0
VERTEX
  5
3E4
  8
0
 10
28.74957931563678
 20
707.547297297298
 30
-10.0
 70
   192
  0
VERTEX
  5
3E5
  8
0
 10
28.749579315637
 20
78.5472972972974
 30
-10.0
 70
   192
  0
VERTEX
  5
3E6
  8
0
 10
0.0
 20
0.0
 30
0.0
 70
   128
 71
     1
 72
     2
 73
    -3
  0
VERTEX
  5
3E7
  8
0
 10
0.0
 20
0.0
 30
0.0
 70
   128
 71
     4
 72
    -1
 73
     3
  0
VERTEX
  5
3E8
  8
0
 10
0.0
 20
0.0
 30
0.0
 70
   128
 71
     2
 72
     5
 73
    -6
  0
VERTEX
  5
3E9
  8
0
 10
0.0
 20
0.0
 30
0.0
 70
   128
 71
     3
 72
    -2
 73
     6
  0
VERTEX
  5
3EA
  8
0
 10
0.0
 20
0.0
 30
0.0
 70
   128
 71
     7
 72
     1
 73
    -4
  0
VERTEX
  5
3EB
  8
0
 10
0.0
 20
0.0
 30
0.0
 70
   128
 71
     8
 72
    -7
 73
     4
  0
SEQEND
  5
9EA
  8
0
  0
POLYLINE
  5
3EC
  8
0
 66
     1
 10
0.0
 20
0.0
 30
0.0
 70
    64
 71
     4
 72
     2
  0
VERTEX
  5
3ED
  8
0
 10
18.5472972972973
 20
78.5472972972974
 30
-45.0
 70
   192
  0
VERTEX
  5
3EE
  8
0
 10
18.547297297297
 20
707.547297297298
 30
-45.0
 70
   192
  0
VERTEX
  5
3EF
  8
0
 10
18.54729729729705
 20
707.547297297298
 30
-2.0
 70
   192
  0
VERTEX
  5
3F0
  8
0
 10
18.5472972972973
 20
78.5472972972974
 30
-2.0
 70
   192
  0
VERTEX
  5
3F1
  8
0
 10
0.0
 20
0.0
 30
0.0
 70
   128
 71
     1
 72
     4
 73
    -3
  0
VERTEX
  5
3F2
  8
0
 10
0.0
 20
0.0
 30
0.0
 70
   128
 71
    -1
 72
     3
 73
     2
  0
SEQEND
  5
9EB
  8
0
  0
POLYLINE
  5
3F3
  8
0
 66
     1
 10
0.0
 20
0.0
 30
0.0
 70
    64
 71
    12
 72
    10
  0
VERTEX
  5
3F4
  8
0
 10
152.903140386476
 20
68.46819632108203
 30
-93.52848502534528
 70
   192
  0
VERTEX
  5
3F5
  8
0
 10
148.8554411758383
 20
68.52326082876043
 30
-92.65123520418021
 70
   192
  0
VERTEX
  5
3F6
  8
0
 10
145.5108816418607
 20
68.61188294495452
 30
-90.20940476519847
 70
   192
  0
VERTEX
  5
3F7
  8
0
 10
143.4432700790435
 20
68.71885824443828
 30
-86.62192557234707
 70
   192
  0
VERTEX
  5
3F8
  8
0
 10
143.1276200116484
 20
64.6741409420217
 30
-85.65045455641591
 70
   192
  0
VERTEX
  5
3F9
  8
0
 10
142.328369348756
 20
61.43078376126326
 30
-83.19061394915552
 70
   192
  0
VERTEX
  5
3FA
  8
0
 10
141.195310044573
 20
59.4550721698546
 30
-79.7034159820285
 70
   192
  0
VERTEX
  5
3FB
  8
0
 10
142.7528587024415
 20
54.94411581852688
 30
-80.66303631263901
 70
   192
  0
VERTEX
  5
3FC
  8
0
 10
146.1949188561964
 20
51.50205566477203
 30
-80.663036312639
 70
   192
  0
VERTEX
  5
3FD
  8
0
 10
150.705875207524
 20
49.94450700690307
 30
-79.70341598202847
 70
   192
  0
VERTEX
  5
3FE
  8
0
 10
151.8449010889115
 20
54.0466433867941
 30
-86.84697648542755
 70
   192
  0
VERTEX
  5
3FF
  8
0
 10
152.6143909858753
 20
60.61280000237478
 30
-91.70384275491715
 70
   192
  0
VERTEX
  5
400
  8
0
 10
0.0
 20
0.0
 30
0.0
 70
   128
 71
     6
 72
     7
 73
     8
  0
VERTEX
  5
401
  8
0
 10
0.0
 20
0.0
 30
0.0
 70
   128
 71
     9
 72
    11
 73
     6
  0
VERTEX
  5
402
  8
0
 10
0.0
 20
0.0
 30
0.0
 70
   128
 71
     8
 72
     9
 73
     6
  0
VERTEX
  5
403
  8
0
 10
0.0
 20
0.0
 30
0.0
 70
   128
 71
     9
 72
    10
 73
    11
  0
VERTEX
  5
404
  8
0
 10
0.0
 20
0.0
 30
0.0
 70
   128
 71
    12
 72
     5
 73
     6
  0
VERTEX
  5
405
  8
0
 10
0.0
 20
0.0
 30
0.0
 70
   128
 71
    11
 72
    12
 73
     6
  0
VERTEX
  5
406
  8
0
 10
0.0
 20
0.0
 30
0.0
 70
   128
 71
    12
 72
     1
 73
     2
  0
VERTEX
  5
407
  8
0
 10
0.0
 20
0.0
 30
0.0
 70
   128
 71
     3
 72
     5
 73
    12
  0
VERTEX
  5
408
  8
0
 10
0.0
 20
0.0
 30
0.0
 70
   128
 71
     2
 72
     3
 73
    12
  0
VERTEX
  5
409
  8
0
 10
0.0
 20
0.0
 30
0.0
 70
   128
 71
     3
 72
     4
 73
     5
  0
SEQEND
  5
9EC
  8
0
  0
POLYLINE
  5
40A
  8
0
 66
     1
 10
0.0
 20
0.0
 30
0.0
 70
    64
 71
    12
 72
    10
  0
VERTEX
  5
40B
  8
0
 10
78.5472972972974
 20
27.26328966468231
 30
-9.338261212717715
 70
   192
  0
VERTEX
  5
40C
  8
0
 10
78.5472972972974
 20
27.9361060294855
 30
-9.8270909152852
 70
   192
  0
VERTEX
  5
40D
  8
0
 10
27.26328966468227
 20
78.5472972972974
 30
-9.338261212717676
 70
   192
  0
VERTEX
  5
40E
  8
0
 10
27.93610602948543
 20
78.5472972972974
 30
-9.82709091528517
 70
   192
  0
VERTEX
  5
40F
  8
0
 10
78.5472972972974
 20
28.7495793156371
 30
-10.0
 70
   192
  0
VERTEX
  5
410
  8
0
 10
53.64843830646724
 20
35.42120847468649
 30
-10.0
 70
   192
  0
VERTEX
  5
411
  8
0
 10
35.42120847468644
 20
53.64843830646727
 30
-10.0
 70
   192
  0
VERTEX
  5
412
  8
0
 10
28.7495793156371
 20
78.54729729729739
 30
-10.0
 70
   192
  0
VERTEX
  5
413
  8
0
 10
78.5472972972974
 20
26.84746628304679
 30
-8.618033988749891
 70
   192
  0
VERTEX
  5
414
  8
0
 10
52.6973817901721
 20
33.77393026759383
 30
-8.61803398874989
 70
   192
  0
VERTEX
  5
415
  8
0
 10
26.84746628304678
 20
78.5472972972974
 30
-8.618033988749863
 70
   192
  0
VERTEX
  5
416
  8
0
 10
33.77393026759378
 20
52.69738179017212
 30
-8.61803398874989
 70
   192
  0
VERTEX
  5
417
  8
0
 10
0.0
 20
0.0
 30
0.0
 70
   128
 71
     1
 72
    -2
 73
     3
  0
VERTEX
  5
418
  8
0
 10
0.0
 20
0.0
 30
0.0
 70
   128
 71
    -3
 72
     2
 73
     4
  0
VERTEX
  5
419
  8
0
 10
0.0
 20
0.0
 30
0.0
 70
   128
 71
     2
 72
     5
 73
     6
  0
VERTEX
  5
41A
  8
0
 10
0.0
 20
0.0
 30
0.0
 70
   128
 71
     6
 72
     7
 73
     2
  0
VERTEX
  5
41B
  8
0
 10
0.0
 20
0.0
 30
0.0
 70
   128
 71
     2
 72
     7
 73
     8
  0
VERTEX
  5
41C
  8
0
 10
0.0
 20
0.0
 30
0.0
 70
   128
 71
     4
 72
     2
 73
     8
  0
VERTEX
  5
41D
  8
0
 10
0.0
 20
0.0
 30
0.0
 70
   128
 71
     9
 72
     1
 73
    10
  0
VERTEX
  5
41E
  8
0
 10
0.0
 20
0.0
 30
0.0
 70
   128
 71
     3
 72
    11
 73
    12
  0
VERTEX
  5
41F
  8
0
 10
0.0
 20
0.0
 30
0.0
 70
   128
 71
    10
 72
     1
 73
    -3
  0
VERTEX
  5
420
  8
0
 10
0.0
 20
0.0
 30
0.0
 70
   128
 71
    12
 72
   -10
 73
     3
  0
SEQEND
  5
9ED
  8
0
  0
POLYLINE
  5
421
  8
0
 66
     1
 10
0.0
 20
0.0
 30
0.0
 70
    64
 71
    32
 72
    32
  0
VERTEX
  5
422
  8
0
 10
405.547297297297
 20
78.5472972972975
 30
0.0
 70
   192
  0
VERTEX
  5
423
  8
0
 10
397.7767707167944
 20
49.54729729729749
 30
0.0
 70
   192
  0
VERTEX
  5
424
  8
0
 10
376.547297297297
 20
28.31782387780007
 30
0.0
 70
   192
  0
VERTEX
  5
425
  8
0
 10
347.547297297297
 20
20.54729729729748
 30
0.0
 70
   192
  0
VERTEX
  5
426
  8
0
 10
78.5472972972973
 20
20.5472972972974
 30
0.0
 70
   192
  0
VERTEX
  5
427
  8
0
 10
49.5472972972973
 20
28.31782387779997
 30
0.0
 70
   192
  0
VERTEX
  5
428
  8
0
 10
28.31782387779986
 20
49.5472972972974
 30
0.0
 70
   192
  0
VERTEX
  5
429
  8
0
 10
20.54729729729727
 20
78.5472972972974
 30
0.0
 70
   192
  0
VERTEX
  5
42A
  8
0
 10
20.54729729729699
 20
707.547297297298
 30
0.0
 70
   192
  0
VERTEX
  5
42B
  8
0
 10
28.31782387779958
 20
736.547297297298
 30
0.0
 70
   192
  0
VERTEX
  5
42C
  8
0
 10
49.54729729729708
 20
757.7767707167955
 30
0.0
 70
   192
  0
VERTEX
  5
42D
  8
0
 10
78.5472972972971
 20
765.547297297298
 30
0.0
 70
   192
  0
VERTEX
  5
42E
  8
0
 10
347.547297297297
 20
765.547297297298
 30
0.0
 70
   192
  0
VERTEX
  5
42F
  8
0
 10
376.547297297297
 20
757.7767707167955
 30
0.0
 70
   192
  0
VERTEX
  5
430
  8
0
 10
397.7767707167944
 20
736.547297297298
 30
0.0
 70
   192
  0
VERTEX
  5
431
  8
0
 10
405.547297297297
 20
707.547297297298
 30
0.0
 70
   192
  0
VERTEX
  5
432
  8
0
 10
22.59421224128659
 20
78.54729729729739
 30
0.0
 70
   192
  0
VERTEX
  5
433
  8
0
 10
30.09050421868061
 20
50.57075476929201
 30
0.0
 70
   192
  0
VERTEX
  5
434
  8
0
 10
50.57075476929202
 20
30.09050421868066
 30
0.0
 70
   192
  0
VERTEX
  5
435
  8
0
 10
78.5472972972974
 20
22.5942122412866
 30
0.0
 70
   192
  0
VERTEX
  5
436
  8
0
 10
347.547297297297
 20
22.5942122412868
 30
0.0
 70
   192
  0
VERTEX
  5
437
  8
0
 10
375.5238398253024
 20
30.0905042186808
 30
0.0
 70
   192
  0
VERTEX
  5
438
  8
0
 10
396.0040903759137
 20
50.57075476929217
 30
0.0
 70
   192
  0
VERTEX
  5
439
  8
0
 10
403.500382353308
 20
78.5472972972975
 30
0.0
 70
   192
  0
VERTEX
  5
43A
  8
0
 10
403.5003823533077
 20
707.547297297298
 30
0.0
 70
   192
  0
VERTEX
  5
43B
  8
0
 10
396.0040903759137
 20
735.5238398253033
 30
0.0
 70
   192
  0
VERTEX
  5
43C
  8
0
 10
375.5238398253023
 20
756.0040903759146
 30
0.0
 70
   192
  0
VERTEX
  5
43D
  8
0
 10
347.547297297297
 20
763.500382353308
 30
0.0
 70
   192
  0
VERTEX
  5
43E
  8
0
 10
78.547297297297
 20
763.5003823533086
 30
0.0
 70
   192
  0
VERTEX
  5
43F
  8
0
 10
50.57075476929165
 20
756.0040903759146
 30
0.0
 70
   192
  0
VERTEX
  5
440
  8
0
 10
30.09050421868029
 20
735.5238398253033
 30
0.0
 70
   192
  0
VERTEX
  5
441
  8
0
 10
22.5942122412863
 20
707.547297297298
 30
0.0
 70
   192
  0
VERTEX
  5
442
  8
0
 10
0.0
 20
0.0
 30
0.0
 70
   128
 71
    18
 72
   -17
 73
    -8
  0
VERTEX
  5
443
  8
0
 10
0.0
 20
0.0
 30
0.0
 70
   128
 71
   -18
 72
     8
 73
    -7
  0
VERTEX
  5
444
  8
0
 10
0.0
 20
0.0
 30
0.0
 70
   128
 71
     7
 72
    -6
 73
   -19
  0
VERTEX
  5
445
  8
0
 10
0.0
 20
0.0
 30
0.0
 70
   128
 71
    -7
 72
    19
 73
   -18
  0
VERTEX
  5
446
  8
0
 10
0.0
 20
0.0
 30
0.0
 70
   128
 71
     6
 72
    -5
 73
   -20
  0
VERTEX
  5
447
  8
0
 10
0.0
 20
0.0
 30
0.0
 70
   128
 71
    -6
 72
    20
 73
   -19
  0
VERTEX
  5
448
  8
0
 10
0.0
 20
0.0
 30
0.0
 70
   128
 71
     5
 72
    -4
 73
   -21
  0
VERTEX
  5
449
  8
0
 10
0.0
 20
0.0
 30
0.0
 70
   128
 71
    -5
 72
    21
 73
   -20
  0
VERTEX
  5
44A
  8
0
 10
0.0
 20
0.0
 30
0.0
 70
   128
 71
     4
 72
    -3
 73
   -22
  0
VERTEX
  5
44B
  8
0
 10
0.0
 20
0.0
 30
0.0
 70
   128
 71
    -4
 72
    22
 73
   -21
  0
VERTEX
  5
44C
  8
0
 10
0.0
 20
0.0
 30
0.0
 70
   128
 71
     3
 72
    -2
 73
   -23
  0
VERTEX
  5
44D
  8
0
 10
0.0
 20
0.0
 30
0.0
 70
   128
 71
    -3
 72
    23
 73
   -22
  0
VERTEX
  5
44E
  8
0
 10
0.0
 20
0.0
 30
0.0
 70
   128
 71
     2
 72
    -1
 73
   -24
  0
VERTEX
  5
44F
  8
0
 10
0.0
 20
0.0
 30
0.0
 70
   128
 71
    -2
 72
    24
 73
   -23
  0
VERTEX
  5
450
  8
0
 10
0.0
 20
0.0
 30
0.0
 70
   128
 71
     1
 72
   -16
 73
   -25
  0
VERTEX
  5
451
  8
0
 10
0.0
 20
0.0
 30
0.0
 70
   128
 71
    -1
 72
    25
 73
   -24
  0
VERTEX
  5
452
  8
0
 10
0.0
 20
0.0
 30
0.0
 70
   128
 71
    16
 72
   -15
 73
   -26
  0
VERTEX
  5
453
  8
0
 10
0.0
 20
0.0
 30
0.0
 70
   128
 71
   -16
 72
    26
 73
   -25
  0
VERTEX
  5
454
  8
0
 10
0.0
 20
0.0
 30
0.0
 70
   128
 71
    15
 72
   -14
 73
   -27
  0
VERTEX
  5
455
  8
0
 10
0.0
 20
0.0
 30
0.0
 70
   128
 71
   -15
 72
    27
 73
   -26
  0
VERTEX
  5
456
  8
0
 10
0.0
 20
0.0
 30
0.0
 70
   128
 71
    14
 72
   -13
 73
   -28
  0
VERTEX
  5
457
  8
0
 10
0.0
 20
0.0
 30
0.0
 70
   128
 71
   -14
 72
    28
 73
   -27
  0
VERTEX
  5
458
  8
0
 10
0.0
 20
0.0
 30
0.0
 70
   128
 71
    13
 72
   -12
 73
   -29
  0
VERTEX
  5
459
  8
0
 10
0.0
 20
0.0
 30
0.0
 70
   128
 71
   -13
 72
    29
 73
   -28
  0
VERTEX
  5
45A
  8
0
 10
0.0
 20
0.0
 30
0.0
 70
   128
 71
    12
 72
   -11
 73
   -30
  0
VERTEX
  5
45B
  8
0
 10
0.0
 20
0.0
 30
0.0
 70
   128
 71
   -12
 72
    30
 73
   -29
  0
VERTEX
  5
45C
  8
0
 10
0.0
 20
0.0
 30
0.0
 70
   128
 71
    11
 72
   -10
 73
   -31
  0
VERTEX
  5
45D
  8
0
 10
0.0
 20
0.0
 30
0.0
 70
   128
 71
   -11
 72
    31
 73
   -30
  0
VERTEX
  5
45E
  8
0
 10
0.0
 20
0.0
 30
0.0
 70
   128
 71
    10
 72
    -9
 73
   -32
  0
VERTEX
  5
45F
  8
0
 10
0.0
 20
0.0
 30
0.0
 70
   128
 71
   -10
 72
    32
 73
   -31
  0
VERTEX
  5
460
  8
0
 10
0.0
 20
0.0
 30
0.0
 70
   128
 71
     9
 72
    -8
 73
   -17
  0
VERTEX
  5
461
  8
0
 10
0.0
 20
0.0
 30
0.0
 70
   128
 71
    -9
 72
    17
 73
   -32
  0
SEQEND
  5
9EE
  8
0
  0
POLYLINE
  5
462
  8
0
 66
     1
 10
0.0
 20
0.0
 30
0.0
 70
    64
 71
     8
 72
     6
  0
VERTEX
  5
463
  8
0
 10
78.5472972972974
 20
26.8474662830468
 30
-8.618033988749911
 70
   192
  0
VERTEX
  5
464
  8
0
 10
127.6088344836679
 20
26.84746628304689
 30
-8.618033988749925
 70
   192
  0
VERTEX
  5
465
  8
0
 10
150.705875207524
 20
49.944507006903
 30
-79.7034159820285
 70
   192
  0
VERTEX
  5
466
  8
0
 10
216.3203878960884
 20
50.00127982318251
 30
-79.87814474405093
 70
   192
  0
VERTEX
  5
467
  8
0
 10
281.9341829251513
 20
49.94998292490451
 30
-79.72026912471233
 70
   192
  0
VERTEX
  5
468
  8
0
 10
347.547297297297
 20
49.79618839561854
 30
-79.24693823382123
 70
   192
  0
VERTEX
  5
469
  8
0
 10
347.547297297297
 20
24.4963252738771
 30
-1.38196601125011
 70
   192
  0
VERTEX
  5
46A
  8
0
 10
78.5472972972974
 20
24.49632527387689
 30
-1.381966011250113
 70
   192
  0
VERTEX
  5
46B
  8
0
 10
0.0
 20
0.0
 30
0.0
 70
   128
 71
     2
 72
     1
 73
    -8
  0
VERTEX
  5
46C
  8
0
 10
0.0
 20
0.0
 30
0.0
 70
   128
 71
    -2
 72
     8
 73
    -7
  0
VERTEX
  5
46D
  8
0
 10
0.0
 20
0.0
 30
0.0
 70
   128
 71
    -7
 72
     4
 73
    -3
  0
VERTEX
  5
46E
  8
0
 10
0.0
 20
0.0
 30
0.0
 70
   128
 71
    -7
 72
     3
 73
    -2
  0
VERTEX
  5
46F
  8
0
 10
0.0
 20
0.0
 30
0.0
 70
   128
 71
    -7
 72
     5
 73
    -4
  0
VERTEX
  5
470
  8
0
 10
0.0
 20
0.0
 30
0.0
 70
   128
 71
     7
 72
     6
 73
    -5
  0
SEQEND
  5
9EF
  8
0
  0
POLYLINE
  5
471
  8
0
 66
     1
 10
0.0
 20
0.0
 30
0.0
 70
    64
 71
     4
 72
     2
  0
VERTEX
  5
472
  8
0
 10
78.5472972972971
 20
767.547297297298
 30
-45.0
 70
   192
  0
VERTEX
  5
473
  8
0
 10
347.547297297297
 20
767.547297297298
 30
-45.0
 70
   192
  0
VERTEX
  5
474
  8
0
 10
347.547297297297
 20
767.547297297298
 30
-2.0
 70
   192
  0
VERTEX
  5
475
  8
0
 10
78.5472972972971
 20
767.547297297298
 30
-2.0
 70
   192
  0
VERTEX
  5
476
  8
0
 10
0.0
 20
0.0
 30
0.0
 70
   128
 71
     1
 72
     4
 73
    -3
  0
VERTEX
  5
477
  8
0
 10
0.0
 20
0.0
 30
0.0
 70
   128
 71
    -1
 72
     3
 73
     2
  0
SEQEND
  5
9F0
  8
0
  0
POLYLINE
  5
478
  8
0
 66
     1
 10
0.0
 20
0.0
 30
0.0
 70
    64
 71
     8
 72
     6
  0
VERTEX
  5
479
  8
0
 10
360.9495192499589
 20
53.10593835196696
 30
-79.23302432508521
 70
   192
  0
VERTEX
  5
47A
  8
0
 10
347.547297297297
 20
49.79618839561854
 30
-79.24693823382123
 70
   192
  0
VERTEX
  5
47B
  8
0
 10
347.547297297297
 20
24.49632527387709
 30
-1.381966011250113
 70
   192
  0
VERTEX
  5
47C
  8
0
 10
374.5727833090072
 20
31.73778242577345
 30
-1.3819660112501
 70
   192
  0
VERTEX
  5
47D
  8
0
 10
371.8623607425383
 20
63.22329307334901
 30
-79.27761264987839
 70
   192
  0
VERTEX
  5
47E
  8
0
 10
394.356812168821
 20
51.52181128558728
 30
-1.3819660112501
 70
   192
  0
VERTEX
  5
47F
  8
0
 10
376.254943324139
 20
78.5472972972975
 30
-79.38070320818521
 70
   192
  0
VERTEX
  5
480
  8
0
 10
401.5982693207174
 20
78.54729729729749
 30
-1.3819660112501
 70
   192
  0
VERTEX
  5
481
  8
0
 10
0.0
 20
0.0
 30
0.0
 70
   128
 71
     1
 72
     2
 73
     3
  0
VERTEX
  5
482
  8
0
 10
0.0
 20
0.0
 30
0.0
 70
   128
 71
     4
 72
     1
 73
     3
  0
VERTEX
  5
483
  8
0
 10
0.0
 20
0.0
 30
0.0
 70
   128
 71
     5
 72
     1
 73
     4
  0
VERTEX
  5
484
  8
0
 10
0.0
 20
0.0
 30
0.0
 70
   128
 71
     6
 72
     5
 73
     4
  0
VERTEX
  5
485
  8
0
 10
0.0
 20
0.0
 30
0.0
 70
   128
 71
     7
 72
     5
 73
     6
  0
VERTEX
  5
486
  8
0
 10
0.0
 20
0.0
 30
0.0
 70
   128
 71
     8
 72
     7
 73
     6
  0
SEQEND
  5
9F1
  8
0
  0
POLYLINE
  5
487
  8
0
 66
     1
 10
0.0
 20
0.0
 30
0.0
 70
    64
 71
    12
 72
    10
  0
VERTEX
  5
488
  8
0
 10
347.736379199231
 20
68.34207824855271
 30
-93.06005713981808
 70
   192
  0
VERTEX
  5
489
  8
0
 10
282.7292630647753
 20
68.47048641293992
 30
-93.53587763033786
 70
   192
  0
VERTEX
  5
48A
  8
0
 10
217.8550604281234
 20
68.51357082328374
 30
-93.69774263018816
 70
   192
  0
VERTEX
  5
48B
  8
0
 10
152.903140386476
 20
68.4681963210819
 30
-93.52848502534529
 70
   192
  0
VERTEX
  5
48C
  8
0
 10
152.6143909858753
 20
60.61280000237478
 30
-91.70384275491715
 70
   192
  0
VERTEX
  5
48D
  8
0
 10
151.8449010889115
 20
54.0466433867941
 30
-86.84697648542755
 70
   192
  0
VERTEX
  5
48E
  8
0
 10
150.705875207524
 20
49.944507006903
 30
-79.7034159820285
 70
   192
  0
VERTEX
  5
48F
  8
0
 10
216.3203878960884
 20
50.00127982318251
 30
-79.87814474405093
 70
   192
  0
VERTEX
  5
490
  8
0
 10
281.9341829251513
 20
49.94998292490451
 30
-79.72026912471233
 70
   192
  0
VERTEX
  5
491
  8
0
 10
347.547297297297
 20
49.79618839561861
 30
-79.2469382338212
 70
   192
  0
VERTEX
  5
492
  8
0
 10
347.6273616171431
 20
53.84882111474172
 30
-86.33074811555032
 70
   192
  0
VERTEX
  5
493
  8
0
 10
347.6940931050911
 20
60.39410552615715
 30
-91.2057254051488
 70
   192
  0
VERTEX
  5
494
  8
0
 10
0.0
 20
0.0
 30
0.0
 70
   128
 71
     6
 72
     7
 73
     8
  0
VERTEX
  5
495
  8
0
 10
0.0
 20
0.0
 30
0.0
 70
   128
 71
     9
 72
    11
 73
     6
  0
VERTEX
  5
496
  8
0
 10
0.0
 20
0.0
 30
0.0
 70
   128
 71
     8
 72
     9
 73
     6
  0
VERTEX
  5
497
  8
0
 10
0.0
 20
0.0
 30
0.0
 70
   128
 71
     9
 72
    10
 73
    11
  0
VERTEX
  5
498
  8
0
 10
0.0
 20
0.0
 30
0.0
 70
   128
 71
    12
 72
     5
 73
     6
  0
VERTEX
  5
499
  8
0
 10
0.0
 20
0.0
 30
0.0
 70
   128
 71
    11
 72
    12
 73
     6
  0
VERTEX
  5
49A
  8
0
 10
0.0
 20
0.0
 30
0.0
 70
   128
 71
    12
 72
     1
 73
     2
  0
VERTEX
  5
49B
  8
0
 10
0.0
 20
0.0
 30
0.0
 70
   128
 71
     3
 72
     5
 73
    12
  0
VERTEX
  5
49C
  8
0
 10
0.0
 20
0.0
 30
0.0
 70
   128
 71
     2
 72
     3
 73
    12
  0
VERTEX
  5
49D
  8
0
 10
0.0
 20
0.0
 30
0.0
 70
   128
 71
     3
 72
     4
 73
     5
  0
SEQEND
  5
9F2
  8
0
  0
POLYLINE
  5
49E
  8
0
 66
     1
 10
0.0
 20
0.0
 30
0.0
 70
    64
 71
     6
 72
     4
  0
VERTEX
  5
49F
  8
0
 10
376.254943324139
 20
78.5472972972975
 30
-79.3807032081852
 70
   192
  0
VERTEX
  5
4A0
  8
0
 10
374.8330578388641
 20
288.185876714613
 30
-83.75681675796619
 70
   192
  0
VERTEX
  5
4A1
  8
0
 10
374.8329259596286
 20
497.8804622034195
 30
-83.75722264051745
 70
   192
  0
VERTEX
  5
4A2
  8
0
 10
376.254943324139
 20
707.547297297298
 30
-79.38070320818522
 70
   192
  0
VERTEX
  5
4A3
  8
0
 10
401.598269320718
 20
707.547297297298
 30
-1.38196601125011
 70
   192
  0
VERTEX
  5
4A4
  8
0
 10
401.5982693207175
 20
78.5472972972975
 30
-1.381966011249937
 70
   192
  0
VERTEX
  5
4A5
  8
0
 10
0.0
 20
0.0
 30
0.0
 70
   128
 71
     2
 72
     1
 73
    -6
  0
VERTEX
  5
4A6
  8
0
 10
0.0
 20
0.0
 30
0.0
 70
   128
 71
     6
 72
    -5
 73
    -3
  0
VERTEX
  5
4A7
  8
0
 10
0.0
 20
0.0
 30
0.0
 70
   128
 71
    -6
 72
     3
 73
    -2
  0
VERTEX
  5
4A8
  8
0
 10
0.0
 20
0.0
 30
0.0
 70
   128
 71
     5
 72
     4
 73
    -3
  0
SEQEND
  5
9F3
  8
0
  0
POLYLINE
  5
4A9
  8
0
 66
     1
 10
0.0
 20
0.0
 30
0.0
 70
    64
 71
     8
 72
     6
  0
VERTEX
  5
4AA
  8
0
 10
122.4063318636009
 20
28.08465131132859
 30
-9.886223170434869
 70
   192
  0
VERTEX
  5
4AB
  8
0
 10
78.5472972972974
 20
27.9361060294855
 30
-9.8270909152852
 70
   192
  0
VERTEX
  5
4AC
  8
0
 10
78.5472972972974
 20
27.26328966468231
 30
-9.338261212717715
 70
   192
  0
VERTEX
  5
4AD
  8
0
 10
124.6873828645003
 20
27.37492667175067
 30
-9.452664977770281
 70
   192
  0
VERTEX
  5
4AE
  8
0
 10
78.5472972972974
 20
26.8474662830468
 30
-8.618033988749911
 70
   192
  0
VERTEX
  5
4AF
  8
0
 10
127.608834483668
 20
26.84746628304683
 30
-8.618033988749911
 70
   192
  0
VERTEX
  5
4B0
  8
0
 10
78.5472972972974
 20
28.74957931563718
 30
-10.0
 70
   192
  0
VERTEX
  5
4B1
  8
0
 10
120.76568148097
 20
28.7495793156372
 30
-10.0
 70
   192
  0
VERTEX
  5
4B2
  8
0
 10
0.0
 20
0.0
 30
0.0
 70
   128
 71
     1
 72
     2
 73
     3
  0
VERTEX
  5
4B3
  8
0
 10
0.0
 20
0.0
 30
0.0
 70
   128
 71
     4
 72
     3
 73
     5
  0
VERTEX
  5
4B4
  8
0
 10
0.0
 20
0.0
 30
0.0
 70
   128
 71
     4
 72
     5
 73
     6
  0
VERTEX
  5
4B5
  8
0
 10
0.0
 20
0.0
 30
0.0
 70
   128
 71
     1
 72
     3
 73
     4
  0
VERTEX
  5
4B6
  8
0
 10
0.0
 20
0.0
 30
0.0
 70
   128
 71
     7
 72
     2
 73
     1
  0
VERTEX
  5
4B7
  8
0
 10
0.0
 20
0.0
 30
0.0
 70
   128
 71
     8
 72
     7
 73
     1
  0
SEQEND
  5
9F4
  8
0
  0
POLYLINE
  5
4B8
  8
0
 66
     1
 10
0.0
 20
0.0
 30
0.0
 70
    64
 71
    12
 72
    10
  0
VERTEX
  5
4B9
  8
0
 10
150.7058752075272
 20
736.1500875876897
 30
-79.70341598203511
 70
   192
  0
VERTEX
  5
4BA
  8
0
 10
146.1949188561995
 20
734.5925389298206
 30
-80.66303631264569
 70
   192
  0
VERTEX
  5
4BB
  8
0
 10
142.7528587024445
 20
731.1504787760658
 30
-80.66303631264572
 70
   192
  0
VERTEX
  5
4BC
  8
0
 10
141.1953100445755
 20
726.6395224247381
 30
-79.7034159820352
 70
   192
  0
VERTEX
  5
4BD
  8
0
 10
142.329693843695
 20
724.6606933694765
 30
-83.19469032542206
 70
   192
  0
VERTEX
  5
4BE
  8
0
 10
143.1310025285598
 20
721.4039315307531
 30
-85.66086487302674
 70
   192
  0
VERTEX
  5
4BF
  8
0
 10
143.443270079044
 20
717.375736350157
 30
-86.62192557234691
 70
   192
  0
VERTEX
  5
4C0
  8
0
 10
145.5108816418616
 20
717.4827116496407
 30
-90.20940476519831
 70
   192
  0
VERTEX
  5
4C1
  8
0
 10
148.8554411758392
 20
717.5713337658348
 30
-92.65123520418017
 70
   192
  0
VERTEX
  5
4C2
  8
0
 10
152.903140386477
 20
717.6263982735131
 30
-93.52848502534528
 70
   192
  0
VERTEX
  5
4C3
  8
0
 10
152.6157962717672
 20
725.4630802544766
 30
-91.71244434878547
 70
   192
  0
VERTEX
  5
4C4
  8
0
 10
151.8467288704505
 20
732.0376900053718
 30
-86.85835046230346
 70
   192
  0
VERTEX
  5
4C5
  8
0
 10
0.0
 20
0.0
 30
0.0
 70
   128
 71
     6
 72
     7
 73
     8
  0
VERTEX
  5
4C6
  8
0
 10
0.0
 20
0.0
 30
0.0
 70
   128
 71
     9
 72
    11
 73
     6
  0
VERTEX
  5
4C7
  8
0
 10
0.0
 20
0.0
 30
0.0
 70
   128
 71
     8
 72
     9
 73
     6
  0
VERTEX
  5
4C8
  8
0
 10
0.0
 20
0.0
 30
0.0
 70
   128
 71
     9
 72
    10
 73
    11
  0
VERTEX
  5
4C9
  8
0
 10
0.0
 20
0.0
 30
0.0
 70
   128
 71
    12
 72
     5
 73
     6
  0
VERTEX
  5
4CA
  8
0
 10
0.0
 20
0.0
 30
0.0
 70
   128
 71
    11
 72
    12
 73
     6
  0
VERTEX
  5
4CB
  8
0
 10
0.0
 20
0.0
 30
0.0
 70
   128
 71
    12
 72
     1
 73
     2
  0
VERTEX
  5
4CC
  8
0
 10
0.0
 20
0.0
 30
0.0
 70
   128
 71
     3
 72
     5
 73
    12
  0
VERTEX
  5
4CD
  8
0
 10
0.0
 20
0.0
 30
0.0
 70
   128
 71
     2
 72
     3
 73
    12
  0
VERTEX
  5
4CE
  8
0
 10
0.0
 20
0.0
 30
0.0
 70
   128
 71
     3
 72
     4
 73
     5
  0
SEQEND
  5
9F5
  8
0
  0
POLYLINE
  5
4CF
  8
0
 66
     1
 10
0.0
 20
0.0
 30
0.0
 70
    64
 71
     8
 72
     6
  0
VERTEX
  5
4D0
  8
0
 10
48.54729729729706
 20
759.5088215243643
 30
-2.0
 70
   192
  0
VERTEX
  5
4D1
  8
0
 10
48.54729729729709
 20
759.5088215243643
 30
-45.0
 70
   192
  0
VERTEX
  5
4D2
  8
0
 10
26.58577307023075
 20
737.547297297298
 30
-45.0
 70
   192
  0
VERTEX
  5
4D3
  8
0
 10
26.5857730702307
 20
737.547297297298
 30
-2.0
 70
   192
  0
VERTEX
  5
4D4
  8
0
 10
78.54729729729712
 20
767.547297297298
 30
-2.0
 70
   192
  0
VERTEX
  5
4D5
  8
0
 10
78.5472972972971
 20
767.547297297298
 30
-45.0
 70
   192
  0
VERTEX
  5
4D6
  8
0
 10
18.54729729729705
 20
707.547297297298
 30
-45.0
 70
   192
  0
VERTEX
  5
4D7
  8
0
 10
18.547297297297
 20
707.547297297298
 30
-2.0
 70
   192
  0
VERTEX
  5
4D8
  8
0
 10
0.0
 20
0.0
 30
0.0
 70
   128
 71
     1
 72
     2
 73
    -3
  0
VERTEX
  5
4D9
  8
0
 10
0.0
 20
0.0
 30
0.0
 70
   128
 71
    -1
 72
     3
 73
     4
  0
VERTEX
  5
4DA
  8
0
 10
0.0
 20
0.0
 30
0.0
 70
   128
 71
     5
 72
     6
 73
    -2
  0
VERTEX
  5
4DB
  8
0
 10
0.0
 20
0.0
 30
0.0
 70
   128
 71
    -5
 72
     2
 73
     1
  0
VERTEX
  5
4DC
  8
0
 10
0.0
 20
0.0
 30
0.0
 70
   128
 71
     4
 72
     3
 73
    -7
  0
VERTEX
  5
4DD
  8
0
 10
0.0
 20
0.0
 30
0.0
 70
   128
 71
    -4
 72
     7
 73
     8
  0
SEQEND
  5
9F6
  8
0
  0
POLYLINE
  5
4DE
  8
0
 66
     1
 10
0.0
 20
0.0
 30
0.0
 70
    64
 71
     8
 72
     6
  0
VERTEX
  5
4DF
  8
0
 10
399.5088215243633
 20
737.547297297298
 30
-2.0
 70
   192
  0
VERTEX
  5
4E0
  8
0
 10
399.5088215243633
 20
737.547297297298
 30
-45.0
 70
   192
  0
VERTEX
  5
4E1
  8
0
 10
377.547297297297
 20
759.5088215243643
 30
-45.0
 70
   192
  0
VERTEX
  5
4E2
  8
0
 10
377.547297297297
 20
759.5088215243643
 30
-2.0
 70
   192
  0
VERTEX
  5
4E3
  8
0
 10
407.547297297297
 20
707.547297297298
 30
-2.0
 70
   192
  0
VERTEX
  5
4E4
  8
0
 10
407.547297297297
 20
707.547297297298
 30
-45.0
 70
   192
  0
VERTEX
  5
4E5
  8
0
 10
347.547297297297
 20
767.547297297298
 30
-45.0
 70
   192
  0
VERTEX
  5
4E6
  8
0
 10
347.547297297297
 20
767.547297297298
 30
-2.0
 70
   192
  0
VERTEX
  5
4E7
  8
0
 10
0.0
 20
0.0
 30
0.0
 70
   128
 71
     1
 72
     2
 73
    -3
  0
VERTEX
  5
4E8
  8
0
 10
0.0
 20
0.0
 30
0.0
 70
   128
 71
    -1
 72
     3
 73
     4
  0
VERTEX
  5
4E9
  8
0
 10
0.0
 20
0.0
 30
0.0
 70
   128
 71
     5
 72
     6
 73
    -2
  0
VERTEX
  5
4EA
  8
0
 10
0.0
 20
0.0
 30
0.0
 70
   128
 71
    -5
 72
     2
 73
     1
  0
VERTEX
  5
4EB
  8
0
 10
0.0
 20
0.0
 30
0.0
 70
   128
 71
     4
 72
     3
 73
    -7
  0
VERTEX
  5
4EC
  8
0
 10
0.0
 20
0.0
 30
0.0
 70
   128
 71
    -4
 72
     7
 73
     8
  0
SEQEND
  5
9F7
  8
0
  0
POLYLINE
  5
4ED
  8
0
 66
     1
 10
0.0
 20
0.0
 30
0.0
 70
    64
 71
     4
 72
     2
  0
VERTEX
  5
4EE
  8
0
 10
26.8474662830465
 20
707.547297297298
 30
-8.61803398874989
 70
   192
  0
VERTEX
  5
4EF
  8
0
 10
26.84746628304667
 20
78.5472972972974
 30
-8.618033988749898
 70
   192
  0
VERTEX
  5
4F0
  8
0
 10
24.4963252738768
 20
78.5472972972974
 30
-1.38196601125011
 70
   192
  0
VERTEX
  5
4F1
  8
0
 10
24.49632527387659
 20
707.547297297298
 30
-1.381966011250104
 70
   192
  0
VERTEX
  5
4F2
  8
0
 10
0.0
 20
0.0
 30
0.0
 70
   128
 71
     1
 72
     4
 73
    -3
  0
VERTEX
  5
4F3
  8
0
 10
0.0
 20
0.0
 30
0.0
 70
   128
 71
    -1
 72
     3
 73
     2
  0
SEQEND
  5
9F8
  8
0
  0
POLYLINE
  5
4F4
  8
0
 66
     1
 10
0.0
 20
0.0
 30
0.0
 70
    64
 71
     8
 72
     6
  0
VERTEX
  5
4F5
  8
0
 10
78.547297297297
 20
758.8313049299127
 30
-9.33826121271775
 70
   192
  0
VERTEX
  5
4F6
  8
0
 10
124.6873828581171
 20
758.719667920748
 30
-9.452664979755374
 70
   192
  0
VERTEX
  5
4F7
  8
0
 10
78.547297297297
 20
759.2471283115481
 30
-8.618033988749911
 70
   192
  0
VERTEX
  5
4F8
  8
0
 10
127.608834483669
 20
759.2471283115481
 30
-8.61803398874992
 70
   192
  0
VERTEX
  5
4F9
  8
0
 10
122.4063318572178
 20
758.0099432805429
 30
-9.886223171396125
 70
   192
  0
VERTEX
  5
4FA
  8
0
 10
78.547297297297
 20
758.1584885651096
 30
-9.827090915285211
 70
   192
  0
VERTEX
  5
4FB
  8
0
 10
120.765681480971
 20
757.3450152789579
 30
-10.0
 70
   192
  0
VERTEX
  5
4FC
  8
0
 10
78.547297297297
 20
757.3450152789579
 30
-10.0
 70
   192
  0
VERTEX
  5
4FD
  8
0
 10
0.0
 20
0.0
 30
0.0
 70
   128
 71
     1
 72
     2
 73
     3
  0
VERTEX
  5
4FE
  8
0
 10
0.0
 20
0.0
 30
0.0
 70
   128
 71
     2
 72
     4
 73
     3
  0
VERTEX
  5
4FF
  8
0
 10
0.0
 20
0.0
 30
0.0
 70
   128
 71
     5
 72
     2
 73
     1
  0
VERTEX
  5
500
  8
0
 10
0.0
 20
0.0
 30
0.0
 70
   128
 71
     6
 72
     5
 73
     1
  0
VERTEX
  5
501
  8
0
 10
0.0
 20
0.0
 30
0.0
 70
   128
 71
     7
 72
     5
 73
     6
  0
VERTEX
  5
502
  8
0
 10
0.0
 20
0.0
 30
0.0
 70
   128
 71
     8
 72
     7
 73
     6
  0
SEQEND
  5
9F9
  8
0
  0
POLYLINE
  5
503
  8
0
 66
     1
 10
0.0
 20
0.0
 30
0.0
 70
    64
 71
    12
 72
    10
  0
VERTEX
  5
504
  8
0
 10
141.195310044576
 20
726.6395224247381
 30
-79.7034159820352
 70
   192
  0
VERTEX
  5
505
  8
0
 10
142.329693843695
 20
724.6606933694765
 30
-83.19469032542206
 70
   192
  0
VERTEX
  5
506
  8
0
 10
143.1310025285598
 20
721.4039315307531
 30
-85.66086487302674
 70
   192
  0
VERTEX
  5
507
  8
0
 10
143.443270079044
 20
717.375736350157
 30
-86.62192557234691
 70
   192
  0
VERTEX
  5
508
  8
0
 10
145.1504181377931
 20
501.1738432846157
 30
-91.87598704827991
 70
   192
  0
VERTEX
  5
509
  8
0
 10
145.1504316277649
 20
284.9226207037133
 30
-91.87602856614366
 70
   192
  0
VERTEX
  5
50A
  8
0
 10
143.443270079044
 20
68.7188582444383
 30
-86.62192557234691
 70
   192
  0
VERTEX
  5
50B
  8
0
 10
143.1276200116484
 20
64.6741409420217
 30
-85.65045455641591
 70
   192
  0
VERTEX
  5
50C
  8
0
 10
142.328369348756
 20
61.43078376126326
 30
-83.19061394915552
 70
   192
  0
VERTEX
  5
50D
  8
0
 10
141.1953100445726
 20
59.45507216985466
 30
-79.70341598202863
 70
   192
  0
VERTEX
  5
50E
  8
0
 10
118.9963252738761
 20
37.25608739915754
 30
-11.3819660112501
 70
   192
  0
VERTEX
  5
50F
  8
0
 10
118.996325273877
 20
748.838507195437
 30
-11.38196601125013
 70
   192
  0
VERTEX
  5
510
  8
0
 10
0.0
 20
0.0
 30
0.0
 70
   128
 71
     5
 72
     4
 73
    -3
  0
VERTEX
  5
511
  8
0
 10
0.0
 20
0.0
 30
0.0
 70
   128
 71
    -5
 72
     3
 73
    -2
  0
VERTEX
  5
512
  8
0
 10
0.0
 20
0.0
 30
0.0
 70
   128
 71
    -5
 72
     2
 73
    -1
  0
VERTEX
  5
513
  8
0
 10
0.0
 20
0.0
 30
0.0
 70
   128
 71
    -5
 72
     1
 73
   -12
  0
VERTEX
  5
514
  8
0
 10
0.0
 20
0.0
 30
0.0
 70
   128
 71
    12
 72
   -11
 73
    -6
  0
VERTEX
  5
515
  8
0
 10
0.0
 20
0.0
 30
0.0
 70
   128
 71
   -12
 72
     6
 73
    -5
  0
VERTEX
  5
516
  8
0
 10
0.0
 20
0.0
 30
0.0
 70
   128
 71
    11
 72
    10
 73
    -9
  0
VERTEX
  5
517
  8
0
 10
0.0
 20
0.0
 30
0.0
 70
   128
 71
   -11
 72
     9
 73
    -8
  0
VERTEX
  5
518
  8
0
 10
0.0
 20
0.0
 30
0.0
 70
   128
 71
   -11
 72
     8
 73
    -7
  0
VERTEX
  5
519
  8
0
 10
0.0
 20
0.0
 30
0.0
 70
   128
 71
   -11
 72
     7
 73
    -6
  0
SEQEND
  5
9FA
  8
0
  0
POLYLINE
  5
51A
  8
0
 66
     1
 10
0.0
 20
0.0
 30
0.0
 70
    64
 71
    24
 72
    24
  0
VERTEX
  5
51B
  8
0
 10
33.54729729729703
 20
707.547297297298
 30
-20.0
 70
   192
  0
VERTEX
  5
51C
  8
0
 10
33.54729729729731
 20
78.5472972972974
 30
-20.0
 70
   192
  0
VERTEX
  5
51D
  8
0
 10
39.57615412699757
 20
56.04729729729739
 30
-20.0
 70
   192
  0
VERTEX
  5
51E
  8
0
 10
56.04729729729732
 20
39.57615412699766
 30
-20.0
 70
   192
  0
VERTEX
  5
51F
  8
0
 10
78.5472972972973
 20
33.54729729729723
 30
-20.0
 70
   192
  0
VERTEX
  5
520
  8
0
 10
108.528530873445
 20
33.5472972972973
 30
-20.0
 70
   192
  0
VERTEX
  5
521
  8
0
 10
108.0414554792548
 20
35.70849073838329
 30
-20.0
 70
   192
  0
VERTEX
  5
522
  8
0
 10
107.7472334027258
 20
37.92592508498036
 30
-20.0
 70
   192
  0
VERTEX
  5
523
  8
0
 10
107.649159377216
 20
40.1747692469249
 30
-20.0
 70
   192
  0
VERTEX
  5
524
  8
0
 10
107.649159377217
 20
745.91982534767
 30
-20.0
 70
   192
  0
VERTEX
  5
525
  8
0
 10
107.7472334027262
 20
748.1686695096149
 30
-20.0
 70
   192
  0
VERTEX
  5
526
  8
0
 10
108.0414554792552
 20
750.3861038562121
 30
-20.0
 70
   192
  0
VERTEX
  5
527
  8
0
 10
108.528530873446
 20
752.547297297298
 30
-20.0
 70
   192
  0
VERTEX
  5
528
  8
0
 10
78.54729729729706
 20
752.547297297298
 30
-20.0
 70
   192
  0
VERTEX
  5
529
  8
0
 10
56.04729729729705
 20
746.5184404675978
 30
-20.0
 70
   192
  0
VERTEX
  5
52A
  8
0
 10
39.57615412699728
 20
730.047297297298
 30
-20.0
 70
   192
  0
VERTEX
  5
52B
  8
0
 10
51.04729729729719
 20
393.0472972972971
 30
-20.0
 70
   192
  0
VERTEX
  5
52C
  8
0
 10
56.17292862653261
 20
405.4216659680616
 30
-20.0
 70
   192
  0
VERTEX
  5
52D
  8
0
 10
68.54729729729719
 20
410.5472972972971
 30
-20.0
 70
   192
  0
VERTEX
  5
52E
  8
0
 10
80.92166596806177
 20
405.4216659680616
 30
-20.0
 70
   192
  0
VERTEX
  5
52F
  8
0
 10
86.04729729729719
 20
393.0472972972971
 30
-20.0
 70
   192
  0
VERTEX
  5
530
  8
0
 10
80.92166596806177
 20
380.6729286265325
 30
-20.0
 70
   192
  0
VERTEX
  5
531
  8
0
 10
68.54729729729719
 20
375.5472972972971
 30
-20.0
 70
   192
  0
VERTEX
  5
532
  8
0
 10
56.17292862653261
 20
380.6729286265325
 30
-20.0
 70
   192
  0
VERTEX
  5
533
  8
0
 10
0.0
 20
0.0
 30
0.0
 70
   128
 71
     7
 72
     6
 73
    -5
  0
VERTEX
  5
534
  8
0
 10
0.0
 20
0.0
 30
0.0
 70
   128
 71
    -5
 72
     8
 73
    -7
  0
VERTEX
  5
535
  8
0
 10
0.0
 20
0.0
 30
0.0
 70
   128
 71
     5
 72
    -4
 73
    -9
  0
VERTEX
  5
536
  8
0
 10
0.0
 20
0.0
 30
0.0
 70
   128
 71
    -5
 72
     9
 73
    -8
  0
VERTEX
  5
537
  8
0
 10
0.0
 20
0.0
 30
0.0
 70
   128
 71
   -17
 72
     2
 73
    -1
  0
VERTEX
  5
538
  8
0
 10
0.0
 20
0.0
 30
0.0
 70
   128
 71
    -1
 72
    18
 73
   -17
  0
VERTEX
  5
539
  8
0
 10
0.0
 20
0.0
 30
0.0
 70
   128
 71
     1
 72
    16
 73
   -15
  0
VERTEX
  5
53A
  8
0
 10
0.0
 20
0.0
 30
0.0
 70
   128
 71
    -1
 72
   -15
 73
   -19
  0
VERTEX
  5
53B
  8
0
 10
0.0
 20
0.0
 30
0.0
 70
   128
 71
    -1
 72
    19
 73
   -18
  0
VERTEX
  5
53C
  8
0
 10
0.0
 20
0.0
 30
0.0
 70
   128
 71
   -15
 72
    20
 73
   -19
  0
VERTEX
  5
53D
  8
0
 10
0.0
 20
0.0
 30
0.0
 70
   128
 71
   -15
 72
    21
 73
   -20
  0
VERTEX
  5
53E
  8
0
 10
0.0
 20
0.0
 30
0.0
 70
   128
 71
   -21
 72
    15
 73
   -14
  0
VERTEX
  5
53F
  8
0
 10
0.0
 20
0.0
 30
0.0
 70
   128
 71
   -21
 72
   -14
 73
   -10
  0
VERTEX
  5
540
  8
0
 10
0.0
 20
0.0
 30
0.0
 70
   128
 71
    10
 72
    -9
 73
   -21
  0
VERTEX
  5
541
  8
0
 10
0.0
 20
0.0
 30
0.0
 70
   128
 71
    -9
 72
    22
 73
   -21
  0
VERTEX
  5
542
  8
0
 10
0.0
 20
0.0
 30
0.0
 70
   128
 71
    -9
 72
    -4
 73
   -23
  0
VERTEX
  5
543
  8
0
 10
0.0
 20
0.0
 30
0.0
 70
   128
 71
    -9
 72
    23
 73
   -22
  0
VERTEX
  5
544
  8
0
 10
0.0
 20
0.0
 30
0.0
 70
   128
 71
     4
 72
     3
 73
    -2
  0
VERTEX
  5
545
  8
0
 10
0.0
 20
0.0
 30
0.0
 70
   128
 71
    -4
 72
    -2
 73
   -24
  0
VERTEX
  5
546
  8
0
 10
0.0
 20
0.0
 30
0.0
 70
   128
 71
    -4
 72
    24
 73
   -23
  0
VERTEX
  5
547
  8
0
 10
0.0
 20
0.0
 30
0.0
 70
   128
 71
    -2
 72
    17
 73
   -24
  0
VERTEX
  5
548
  8
0
 10
0.0
 20
0.0
 30
0.0
 70
   128
 71
   -14
 72
    11
 73
   -10
  0
VERTEX
  5
549
  8
0
 10
0.0
 20
0.0
 30
0.0
 70
   128
 71
   -14
 72
    12
 73
   -11
  0
VERTEX
  5
54A
  8
0
 10
0.0
 20
0.0
 30
0.0
 70
   128
 71
    14
 72
    13
 73
   -12
  0
SEQEND
  5
9FB
  8
0
  0
POLYLINE
  5
54B
  8
0
 66
     1
 10
0.0
 20
0.0
 30
0.0
 70
    64
 71
    14
 72
    12
  0
VERTEX
  5
54C
  8
0
 10
112.6528947770012
 20
36.4963319606378
 30
-23.23447803238923
 70
   192
  0
VERTEX
  5
54D
  8
0
 10
112.448093108017
 20
38.30076692966953
 30
-23.33728268419861
 70
   192
  0
VERTEX
  5
54E
  8
0
 10
112.404441958692
 20
40.1747692469249
 30
-23.4549150281253
 70
   192
  0
VERTEX
  5
54F
  8
0
 10
116.2589383152625
 20
35.25997075982208
 30
-31.01551905099825
 70
   192
  0
VERTEX
  5
550
  8
0
 10
113.007729386963
 20
34.77258191851111
 30
-23.1465010726971
 70
   192
  0
VERTEX
  5
551
  8
0
 10
131.6847448816216
 20
59.45507216985464
 30
-82.79358592577776
 70
   192
  0
VERTEX
  5
552
  8
0
 10
134.7998421973589
 20
50.43315946719923
 30
-84.712826586999
 70
   192
  0
VERTEX
  5
553
  8
0
 10
122.76907392776
 20
36.1391285734931
 30
-45.0
 70
   192
  0
VERTEX
  5
554
  8
0
 10
119.4980438647958
 20
35.7126954132752
 30
-38.2551184352839
 70
   192
  0
VERTEX
  5
555
  8
0
 10
141.6839625048686
 20
43.5490391596895
 30
-84.71282658699899
 70
   192
  0
VERTEX
  5
556
  8
0
 10
150.705875207524
 20
40.43394184395154
 30
-82.79358592577793
 70
   192
  0
VERTEX
  5
557
  8
0
 10
138.4259947489686
 20
28.15406138539561
 30
-44.99999999999974
 70
   192
  0
VERTEX
  5
558
  8
0
 10
132.3632781916778
 20
29.08252308524742
 30
-44.99999999999999
 70
   192
  0
VERTEX
  5
559
  8
0
 10
126.9017644770133
 20
31.86790818480287
 30
-44.99999999999999
 70
   192
  0
VERTEX
  5
55A
  8
0
 10
0.0
 20
0.0
 30
0.0
 70
   128
 71
     1
 72
     2
 73
     3
  0
VERTEX
  5
55B
  8
0
 10
0.0
 20
0.0
 30
0.0
 70
   128
 71
     1
 72
     3
 73
     4
  0
VERTEX
  5
55C
  8
0
 10
0.0
 20
0.0
 30
0.0
 70
   128
 71
     4
 72
     5
 73
     1
  0
VERTEX
  5
55D
  8
0
 10
0.0
 20
0.0
 30
0.0
 70
   128
 71
     3
 72
     6
 73
     7
  0
VERTEX
  5
55E
  8
0
 10
0.0
 20
0.0
 30
0.0
 70
   128
 71
     3
 72
     7
 73
     8
  0
VERTEX
  5
55F
  8
0
 10
0.0
 20
0.0
 30
0.0
 70
   128
 71
     3
 72
     8
 73
     9
  0
VERTEX
  5
560
  8
0
 10
0.0
 20
0.0
 30
0.0
 70
   128
 71
    10
 72
    11
 73
    12
  0
VERTEX
  5
561
  8
0
 10
0.0
 20
0.0
 30
0.0
 70
   128
 71
    10
 72
    12
 73
    13
  0
VERTEX
  5
562
  8
0
 10
0.0
 20
0.0
 30
0.0
 70
   128
 71
     4
 72
     3
 73
     9
  0
VERTEX
  5
563
  8
0
 10
0.0
 20
0.0
 30
0.0
 70
   128
 71
    14
 72
     8
 73
     7
  0
VERTEX
  5
564
  8
0
 10
0.0
 20
0.0
 30
0.0
 70
   128
 71
    14
 72
     7
 73
    10
  0
VERTEX
  5
565
  8
0
 10
0.0
 20
0.0
 30
0.0
 70
   128
 71
    14
 72
    10
 73
    13
  0
SEQEND
  5
9FC
  8
0
  0
POLYLINE
  5
566
  8
0
 66
     1
 10
0.0
 20
0.0
 30
0.0
 70
    64
 71
    12
 72
    10
  0
VERTEX
  5
567
  8
0
 10
357.54337147905
 20
77.84531021712726
 30
-103.19055151093
 70
   192
  0
VERTEX
  5
568
  8
0
 10
369.6246165807926
 20
78.000306786768
 30
-100.5164535965638
 70
   192
  0
VERTEX
  5
569
  8
0
 10
379.5976172993059
 20
78.24837154716974
 30
-93.19463501483304
 70
   192
  0
VERTEX
  5
56A
  8
0
 10
385.7655084870906
 20
78.5472972972975
 30
-82.47087315193458
 70
   192
  0
VERTEX
  5
56B
  8
0
 10
380.6280046501228
 20
59.34434377719467
 30
-82.36952156730503
 70
   192
  0
VERTEX
  5
56C
  8
0
 10
366.6220770600113
 20
45.37297789749994
 30
-82.32098010191416
 70
   192
  0
VERTEX
  5
56D
  8
0
 10
347.547297297297
 20
40.28562323266701
 30
-82.3371081775707
 70
   192
  0
VERTEX
  5
56E
  8
0
 10
347.6673937770661
 20
46.36457231135178
 30
-92.96282300016433
 70
   192
  0
VERTEX
  5
56F
  8
0
 10
347.7674910089881
 20
56.18249892847496
 30
-100.2752889345621
 70
   192
  0
VERTEX
  5
570
  8
0
 10
347.8309201501975
 20
68.10445801206829
 30
-103.0567865365659
 70
   192
  0
VERTEX
  5
571
  8
0
 10
352.6937401380535
 20
69.39890684823555
 30
-103.0406550828967
 70
   192
  0
VERTEX
  5
572
  8
0
 10
356.256163093694
 20
72.96315444475044
 30
-103.0891965370289
 70
   192
  0
VERTEX
  5
573
  8
0
 10
0.0
 20
0.0
 30
0.0
 70
   128
 71
     6
 72
     7
 73
     8
  0
VERTEX
  5
574
  8
0
 10
0.0
 20
0.0
 30
0.0
 70
   128
 71
     9
 72
    11
 73
     6
  0
VERTEX
  5
575
  8
0
 10
0.0
 20
0.0
 30
0.0
 70
   128
 71
     8
 72
     9
 73
     6
  0
VERTEX
  5
576
  8
0
 10
0.0
 20
0.0
 30
0.0
 70
   128
 71
     9
 72
    10
 73
    11
  0
VERTEX
  5
577
  8
0
 10
0.0
 20
0.0
 30
0.0
 70
   128
 71
    12
 72
     5
 73
     6
  0
VERTEX
  5
578
  8
0
 10
0.0
 20
0.0
 30
0.0
 70
   128
 71
    11
 72
    12
 73
     6
  0
VERTEX
  5
579
  8
0
 10
0.0
 20
0.0
 30
0.0
 70
   128
 71
    12
 72
     1
 73
     2
  0
VERTEX
  5
57A
  8
0
 10
0.0
 20
0.0
 30
0.0
 70
   128
 71
     3
 72
     5
 73
    12
  0
VERTEX
  5
57B
  8
0
 10
0.0
 20
0.0
 30
0.0
 70
   128
 71
     2
 72
     3
 73
    12
  0
VERTEX
  5
57C
  8
0
 10
0.0
 20
0.0
 30
0.0
 70
   128
 71
     3
 72
     4
 73
     5
  0
SEQEND
  5
9FD
  8
0
  0
POLYLINE
  5
57D
  8
0
 66
     1
 10
0.0
 20
0.0
 30
0.0
 70
    64
 71
    12
 72
    10
  0
VERTEX
  5
57E
  8
0
 10
347.8309201501974
 20
717.9901365825269
 30
-103.0567865365659
 70
   192
  0
VERTEX
  5
57F
  8
0
 10
347.767491008988
 20
729.9120956661203
 30
-100.2752889345622
 70
   192
  0
VERTEX
  5
580
  8
0
 10
347.667393777066
 20
739.7300222832437
 30
-92.96282300016453
 70
   192
  0
VERTEX
  5
581
  8
0
 10
347.547297297297
 20
745.8089713619286
 30
-82.33710817757088
 70
   192
  0
VERTEX
  5
582
  8
0
 10
366.706981518923
 20
740.6712828611326
 30
-82.32107194324573
 70
   192
  0
VERTEX
  5
583
  8
0
 10
380.6780847758776
 20
726.6658614095373
 30
-82.36989931065061
 70
   192
  0
VERTEX
  5
584
  8
0
 10
385.765508487091
 20
707.5472972972981
 30
-82.47087315193471
 70
   192
  0
VERTEX
  5
585
  8
0
 10
379.5976172993059
 20
707.8462230474258
 30
-93.19463501483304
 70
   192
  0
VERTEX
  5
586
  8
0
 10
369.6246165807926
 20
708.0942878078275
 30
-100.5164535965638
 70
   192
  0
VERTEX
  5
587
  8
0
 10
357.54337147905
 20
708.2492843774684
 30
-103.19055151093
 70
   192
  0
VERTEX
  5
588
  8
0
 10
356.2688508986249
 20
713.1099316618872
 30
-103.0895738048913
 70
   192
  0
VERTEX
  5
589
  8
0
 10
352.7153792847739
 20
716.682842673621
 30
-103.040746449926
 70
   192
  0
VERTEX
  5
58A
  8
0
 10
0.0
 20
0.0
 30
0.0
 70
   128
 71
     6
 72
     7
 73
     8
  0
VERTEX
  5
58B
  8
0
 10
0.0
 20
0.0
 30
0.0
 70
   128
 71
     9
 72
    11
 73
     6
  0
VERTEX
  5
58C
  8
0
 10
0.0
 20
0.0
 30
0.0
 70
   128
 71
     8
 72
     9
 73
     6
  0
VERTEX
  5
58D
  8
0
 10
0.0
 20
0.0
 30
0.0
 70
   128
 71
     9
 72
    10
 73
    11
  0
VERTEX
  5
58E
  8
0
 10
0.0
 20
0.0
 30
0.0
 70
   128
 71
    12
 72
     5
 73
     6
  0
VERTEX
  5
58F
  8
0
 10
0.0
 20
0.0
 30
0.0
 70
   128
 71
    11
 72
    12
 73
     6
  0
VERTEX
  5
590
  8
0
 10
0.0
 20
0.0
 30
0.0
 70
   128
 71
    12
 72
     1
 73
     2
  0
VERTEX
  5
591
  8
0
 10
0.0
 20
0.0
 30
0.0
 70
   128
 71
     3
 72
     5
 73
    12
  0
VERTEX
  5
592
  8
0
 10
0.0
 20
0.0
 30
0.0
 70
   128
 71
     2
 72
     3
 73
    12
  0
VERTEX
  5
593
  8
0
 10
0.0
 20
0.0
 30
0.0
 70
   128
 71
     3
 72
     4
 73
     5
  0
SEQEND
  5
9FE
  8
0
  0
POLYLINE
  5
594
  8
0
 66
     1
 10
0.0
 20
0.0
 30
0.0
 70
    64
 71
     8
 72
     6
  0
VERTEX
  5
595
  8
0
 10
53.5472972972973
 20
35.24602710807547
 30
-45.0
 70
   192
  0
VERTEX
  5
596
  8
0
 10
35.24602710807537
 20
53.5472972972974
 30
-45.0
 70
   192
  0
VERTEX
  5
597
  8
0
 10
35.24602710807537
 20
53.54729729729742
 30
-25.0
 70
   192
  0
VERTEX
  5
598
  8
0
 10
53.54729729729728
 20
35.24602710807548
 30
-25.0
 70
   192
  0
VERTEX
  5
599
  8
0
 10
28.5472972972973
 20
78.5472972972974
 30
-45.0
 70
   192
  0
VERTEX
  5
59A
  8
0
 10
28.5472972972973
 20
78.5472972972974
 30
-25.0
 70
   192
  0
VERTEX
  5
59B
  8
0
 10
78.5472972972973
 20
28.5472972972973
 30
-45.0
 70
   192
  0
VERTEX
  5
59C
  8
0
 10
78.54729729729729
 20
28.5472972972974
 30
-25.0
 70
   192
  0
VERTEX
  5
59D
  8
0
 10
0.0
 20
0.0
 30
0.0
 70
   128
 71
     1
 72
     2
 73
    -3
  0
VERTEX
  5
59E
  8
0
 10
0.0
 20
0.0
 30
0.0
 70
   128
 71
     4
 72
    -1
 73
     3
  0
VERTEX
  5
59F
  8
0
 10
0.0
 20
0.0
 30
0.0
 70
   128
 71
     2
 72
     5
 73
    -6
  0
VERTEX
  5
5A0
  8
0
 10
0.0
 20
0.0
 30
0.0
 70
   128
 71
     3
 72
    -2
 73
     6
  0
VERTEX
  5
5A1
  8
0
 10
0.0
 20
0.0
 30
0.0
 70
   128
 71
     7
 72
     1
 73
    -4
  0
VERTEX
  5
5A2
  8
0
 10
0.0
 20
0.0
 30
0.0
 70
   128
 71
     8
 72
    -7
 73
     4
  0
SEQEND
  5
9FF
  8
0
  0
POLYLINE
  5
5A3
  8
0
 66
     1
 10
0.0
 20
0.0
 30
0.0
 70
    64
 71
     6
 72
     4
  0
VERTEX
  5
5A4
  8
0
 10
78.5472972972973
 20
28.5472972972973
 30
-45.0
 70
   192
  0
VERTEX
  5
5A5
  8
0
 10
78.5472972972973
 20
28.5472972972973
 30
-25.0
 70
   192
  0
VERTEX
  5
5A6
  8
0
 10
108.528530873445
 20
28.54729729729737
 30
-25.0
 70
   192
  0
VERTEX
  5
5A7
  8
0
 10
111.5446405519748
 20
28.5472972972973
 30
-31.99143721947331
 70
   192
  0
VERTEX
  5
5A8
  8
0
 10
114.6846689026749
 20
28.54729729729733
 30
-38.68764423194932
 70
   192
  0
VERTEX
  5
5A9
  8
0
 10
117.907059180141
 20
28.5472972972974
 30
-45.0
 70
   192
  0
VERTEX
  5
5AA
  8
0
 10
0.0
 20
0.0
 30
0.0
 70
   128
 71
     2
 72
     3
 73
    -4
  0
VERTEX
  5
5AB
  8
0
 10
0.0
 20
0.0
 30
0.0
 70
   128
 71
     1
 72
    -2
 73
    -4
  0
VERTEX
  5
5AC
  8
0
 10
0.0
 20
0.0
 30
0.0
 70
   128
 71
     4
 72
    -5
 73
    -1
  0
VERTEX
  5
5AD
  8
0
 10
0.0
 20
0.0
 30
0.0
 70
   128
 71
     5
 72
     6
 73
    -1
  0
SEQEND
  5
A00
  8
0
  0
POLYLINE
  5
5AE
  8
0
 66
     1
 10
0.0
 20
0.0
 30
0.0
 70
    64
 71
    16
 72
    14
  0
VERTEX
  5
5AF
  8
0
 10
357.54337147905
 20
708.2492843774684
 30
-103.19055151093
 70
   192
  0
VERTEX
  5
5B0
  8
0
 10
369.6246165807926
 20
708.0942878078275
 30
-100.5164535965638
 70
   192
  0
VERTEX
  5
5B1
  8
0
 10
379.5976172993059
 20
707.8462230474258
 30
-93.19463501483304
 70
   192
  0
VERTEX
  5
5B2
  8
0
 10
385.7655084870906
 20
707.547297297298
 30
-82.47087315193458
 70
   192
  0
VERTEX
  5
5B3
  8
0
 10
384.3434911225797
 20
497.8804622034195
 30
-86.84739258426688
 70
   192
  0
VERTEX
  5
5B4
  8
0
 10
384.343623001815
 20
288.185876714613
 30
-86.84698670171565
 70
   192
  0
VERTEX
  5
5B5
  8
0
 10
385.765508487091
 20
78.5472972972975
 30
-82.4708731519347
 70
   192
  0
VERTEX
  5
5B6
  8
0
 10
379.5976172993059
 20
78.24837154716974
 30
-93.19463501483304
 70
   192
  0
VERTEX
  5
5B7
  8
0
 10
369.6246165807926
 20
78.000306786768
 30
-100.5164535965638
 70
   192
  0
VERTEX
  5
5B8
  8
0
 10
357.54337147905
 20
77.84531021712726
 30
-103.19055151093
 70
   192
  0
VERTEX
  5
5B9
  8
0
 10
356.8833894364475
 20
182.728670017868
 30
-105.5671313116148
 70
   192
  0
VERTEX
  5
5BA
  8
0
 10
356.4224352901414
 20
287.7340974363041
 30
-107.5655657634769
 70
   192
  0
VERTEX
  5
5BB
  8
0
 10
356.2824678879899
 20
393.0472938936681
 30
-108.4797224165607
 70
   192
  0
VERTEX
  5
5BC
  8
0
 10
356.2824678879898
 20
393.047297297297
 30
-108.47972241656
 70
   192
  0
VERTEX
  5
5BD
  8
0
 10
356.4224387265853
 20
498.3614959942798
 30
-107.5655513934718
 70
   192
  0
VERTEX
  5
5BE
  8
0
 10
356.8833948641626
 20
603.3670669195262
 30
-105.5671104257797
 70
   192
  0
VERTEX
  5
5BF
  8
0
 10
0.0
 20
0.0
 30
0.0
 70
   128
 71
     6
 72
     7
 73
     8
  0
VERTEX
  5
5C0
  8
0
 10
0.0
 20
0.0
 30
0.0
 70
   128
 71
     9
 72
    11
 73
     6
  0
VERTEX
  5
5C1
  8
0
 10
0.0
 20
0.0
 30
0.0
 70
   128
 71
     8
 72
     9
 73
     6
  0
VERTEX
  5
5C2
  8
0
 10
0.0
 20
0.0
 30
0.0
 70
   128
 71
     9
 72
    10
 73
    11
  0
VERTEX
  5
5C3
  8
0
 10
0.0
 20
0.0
 30
0.0
 70
   128
 71
    11
 72
    12
 73
     6
  0
VERTEX
  5
5C4
  8
0
 10
0.0
 20
0.0
 30
0.0
 70
   128
 71
    13
 72
     5
 73
     6
  0
VERTEX
  5
5C5
  8
0
 10
0.0
 20
0.0
 30
0.0
 70
   128
 71
    12
 72
    13
 73
     6
  0
VERTEX
  5
5C6
  8
0
 10
0.0
 20
0.0
 30
0.0
 70
   128
 71
    13
 72
    14
 73
     5
  0
VERTEX
  5
5C7
  8
0
 10
0.0
 20
0.0
 30
0.0
 70
   128
 71
    14
 72
    15
 73
     5
  0
VERTEX
  5
5C8
  8
0
 10
0.0
 20
0.0
 30
0.0
 70
   128
 71
    15
 72
    16
 73
     5
  0
VERTEX
  5
5C9
  8
0
 10
0.0
 20
0.0
 30
0.0
 70
   128
 71
    16
 72
     1
 73
     2
  0
VERTEX
  5
5CA
  8
0
 10
0.0
 20
0.0
 30
0.0
 70
   128
 71
     3
 72
     5
 73
    16
  0
VERTEX
  5
5CB
  8
0
 10
0.0
 20
0.0
 30
0.0
 70
   128
 71
     2
 72
     3
 73
    16
  0
VERTEX
  5
5CC
  8
0
 10
0.0
 20
0.0
 30
0.0
 70
   128
 71
     3
 72
     4
 73
     5
  0
SEQEND
  5
A01
  8
0
  0
POLYLINE
  5
5CD
  8
0
 66
     1
 10
0.0
 20
0.0
 30
0.0
 70
    64
 71
    12
 72
    10
  0
VERTEX
  5
5CE
  8
0
 10
150.705875207525
 20
745.660652750644
 30
-82.793585925778
 70
   192
  0
VERTEX
  5
5CF
  8
0
 10
216.320520658646
 20
745.6038799119775
 30
-82.96831475669968
 70
   192
  0
VERTEX
  5
5D0
  8
0
 10
281.9343133644073
 20
745.6551770198199
 30
-82.81043849238783
 70
   192
  0
VERTEX
  5
5D1
  8
0
 10
347.547297297297
 20
745.808971361928
 30
-82.3371081775707
 70
   192
  0
VERTEX
  5
5D2
  8
0
 10
347.667393777066
 20
739.7300222832437
 30
-92.96282300016453
 70
   192
  0
VERTEX
  5
5D3
  8
0
 10
347.767491008988
 20
729.9120956661203
 30
-100.2752889345622
 70
   192
  0
VERTEX
  5
5D4
  8
0
 10
347.8309201501974
 20
717.9901365825269
 30
-103.0567865365659
 70
   192
  0
VERTEX
  5
5D5
  8
0
 10
282.8473768400355
 20
717.8758859117303
 30
-103.5262700839364
 70
   192
  0
VERTEX
  5
5D6
  8
0
 10
217.8493897818543
 20
717.837776888243
 30
-103.6878119035609
 70
   192
  0
VERTEX
  5
5D7
  8
0
 10
152.852445530959
 20
717.8770601968689
 30
-103.525214422093
 70
   192
  0
VERTEX
  5
5D8
  8
0
 10
152.5629579291905
 20
729.971893882876
 30
-100.6448351116157
 70
   192
  0
VERTEX
  5
5D9
  8
0
 10
151.7971691486747
 20
739.728673491791
 30
-93.25353504515971
 70
   192
  0
VERTEX
  5
5DA
  8
0
 10
0.0
 20
0.0
 30
0.0
 70
   128
 71
     6
 72
     7
 73
     8
  0
VERTEX
  5
5DB
  8
0
 10
0.0
 20
0.0
 30
0.0
 70
   128
 71
     9
 72
    11
 73
     6
  0
VERTEX
  5
5DC
  8
0
 10
0.0
 20
0.0
 30
0.0
 70
   128
 71
     8
 72
     9
 73
     6
  0
VERTEX
  5
5DD
  8
0
 10
0.0
 20
0.0
 30
0.0
 70
   128
 71
     9
 72
    10
 73
    11
  0
VERTEX
  5
5DE
  8
0
 10
0.0
 20
0.0
 30
0.0
 70
   128
 71
    12
 72
     5
 73
     6
  0
VERTEX
  5
5DF
  8
0
 10
0.0
 20
0.0
 30
0.0
 70
   128
 71
    11
 72
    12
 73
     6
  0
VERTEX
  5
5E0
  8
0
 10
0.0
 20
0.0
 30
0.0
 70
   128
 71
    12
 72
     1
 73
     2
  0
VERTEX
  5
5E1
  8
0
 10
0.0
 20
0.0
 30
0.0
 70
   128
 71
     3
 72
     5
 73
    12
  0
VERTEX
  5
5E2
  8
0
 10
0.0
 20
0.0
 30
0.0
 70
   128
 71
     2
 72
     3
 73
    12
  0
VERTEX
  5
5E3
  8
0
 10
0.0
 20
0.0
 30
0.0
 70
   128
 71
     3
 72
     4
 73
     5
  0
SEQEND
  5
A02
  8
0
  0
POLYLINE
  5
5E4
  8
0
 66
     1
 10
0.0
 20
0.0
 30
0.0
 70
    64
 71
     6
 72
     4
  0
VERTEX
  5
5E5
  8
0
 10
150.7058752075251
 20
745.6606527506439
 30
-82.79358592577792
 70
   192
  0
VERTEX
  5
5E6
  8
0
 10
138.4259947489691
 20
757.9405332091999
 30
-44.99999999999991
 70
   192
  0
VERTEX
  5
5E7
  8
0
 10
347.547297297297
 20
757.9405332092
 30
-45.0
 70
   192
  0
VERTEX
  5
5E8
  8
0
 10
347.547297297297
 20
745.8089713619279
 30
-82.33710817757066
 70
   192
  0
VERTEX
  5
5E9
  8
0
 10
281.9343133644073
 20
745.6551770198199
 30
-82.81043849238783
 70
   192
  0
VERTEX
  5
5EA
  8
0
 10
216.320520658646
 20
745.6038799119775
 30
-82.96831475669968
 70
   192
  0
VERTEX
  5
5EB
  8
0
 10
0.0
 20
0.0
 30
0.0
 70
   128
 71
     3
 72
     4
 73
    -5
  0
VERTEX
  5
5EC
  8
0
 10
0.0
 20
0.0
 30
0.0
 70
   128
 71
    -6
 72
     2
 73
    -3
  0
VERTEX
  5
5ED
  8
0
 10
0.0
 20
0.0
 30
0.0
 70
   128
 71
     5
 72
    -6
 73
    -3
  0
VERTEX
  5
5EE
  8
0
 10
0.0
 20
0.0
 30
0.0
 70
   128
 71
     6
 72
     1
 73
    -2
  0
SEQEND
  5
A03
  8
0
  0
POLYLINE
  5
5EF
  8
0
 66
     1
 10
0.0
 20
0.0
 30
0.0
 70
    64
 71
    14
 72
    12
  0
VERTEX
  5
5F0
  8
0
 10
112.6528947770017
 20
749.5982626339577
 30
-23.23447803238901
 70
   192
  0
VERTEX
  5
5F1
  8
0
 10
113.007729386964
 20
751.322012676084
 30
-23.1465010726971
 70
   192
  0
VERTEX
  5
5F2
  8
0
 10
116.2590151629043
 20
750.8347392740677
 30
-31.0154845401722
 70
   192
  0
VERTEX
  5
5F3
  8
0
 10
119.4979790772861
 20
750.3818236239576
 30
-38.25508260239776
 70
   192
  0
VERTEX
  5
5F4
  8
0
 10
122.76907392776
 20
749.955466021102
 30
-45.0
 70
   192
  0
VERTEX
  5
5F5
  8
0
 10
134.79984219736
 20
735.6614351273955
 30
-84.71282658699911
 70
   192
  0
VERTEX
  5
5F6
  8
0
 10
131.684744881622
 20
726.6395224247402
 30
-82.79358592577806
 70
   192
  0
VERTEX
  5
5F7
  8
0
 10
141.6839625048698
 20
742.5455554349053
 30
-84.7128265869991
 70
   192
  0
VERTEX
  5
5F8
  8
0
 10
138.425994748969
 20
757.9405332092
 30
-45.0
 70
   192
  0
VERTEX
  5
5F9
  8
0
 10
150.7058752075251
 20
745.6606527506439
 30
-82.79358592577792
 70
   192
  0
VERTEX
  5
5FA
  8
0
 10
112.4480931080172
 20
747.793827664926
 30
-23.3372826841984
 70
   192
  0
VERTEX
  5
5FB
  8
0
 10
112.4044419586924
 20
745.9198253476695
 30
-23.45491502812504
 70
   192
  0
VERTEX
  5
5FC
  8
0
 10
126.9017644770136
 20
754.2266864097924
 30
-44.99999999999999
 70
   192
  0
VERTEX
  5
5FD
  8
0
 10
132.3632781916784
 20
757.0120715093478
 30
-44.99999999999999
 70
   192
  0
VERTEX
  5
5FE
  8
0
 10
0.0
 20
0.0
 30
0.0
 70
   128
 71
     1
 72
     2
 73
     3
  0
VERTEX
  5
5FF
  8
0
 10
0.0
 20
0.0
 30
0.0
 70
   128
 71
     4
 72
     5
 73
     6
  0
VERTEX
  5
600
  8
0
 10
0.0
 20
0.0
 30
0.0
 70
   128
 71
     7
 72
     4
 73
     6
  0
VERTEX
  5
601
  8
0
 10
0.0
 20
0.0
 30
0.0
 70
   128
 71
     8
 72
     9
 73
    10
  0
VERTEX
  5
602
  8
0
 10
0.0
 20
0.0
 30
0.0
 70
   128
 71
    11
 72
     1
 73
     3
  0
VERTEX
  5
603
  8
0
 10
0.0
 20
0.0
 30
0.0
 70
   128
 71
    11
 72
     3
 73
     4
  0
VERTEX
  5
604
  8
0
 10
0.0
 20
0.0
 30
0.0
 70
   128
 71
     4
 72
     7
 73
    12
  0
VERTEX
  5
605
  8
0
 10
0.0
 20
0.0
 30
0.0
 70
   128
 71
     4
 72
    12
 73
    11
  0
VERTEX
  5
606
  8
0
 10
0.0
 20
0.0
 30
0.0
 70
   128
 71
     6
 72
     5
 73
    13
  0
VERTEX
  5
607
  8
0
 10
0.0
 20
0.0
 30
0.0
 70
   128
 71
     6
 72
    13
 73
     8
  0
VERTEX
  5
608
  8
0
 10
0.0
 20
0.0
 30
0.0
 70
   128
 71
     8
 72
    13
 73
    14
  0
VERTEX
  5
609
  8
0
 10
0.0
 20
0.0
 30
0.0
 70
   128
 71
     8
 72
    14
 73
     9
  0
SEQEND
  5
A04
  8
0
  0
POLYLINE
  5
60A
  8
0
 66
     1
 10
0.0
 20
0.0
 30
0.0
 70
    64
 71
     8
 72
     6
  0
VERTEX
  5
60B
  8
0
 10
397.9405332091989
 20
707.547297297298
 30
-45.0
 70
   192
  0
VERTEX
  5
60C
  8
0
 10
385.765508487091
 20
707.547297297298
 30
-82.4708731519347
 70
   192
  0
VERTEX
  5
60D
  8
0
 10
380.6780847758776
 20
726.6658614095373
 30
-82.36989931065061
 70
   192
  0
VERTEX
  5
60E
  8
0
 10
391.1891197759063
 20
732.7439152532489
 30
-45.0
 70
   192
  0
VERTEX
  5
60F
  8
0
 10
366.706981518923
 20
740.6712828611326
 30
-82.32107194324573
 70
   192
  0
VERTEX
  5
610
  8
0
 10
372.743915253248
 20
751.1891197759073
 30
-45.0
 70
   192
  0
VERTEX
  5
611
  8
0
 10
347.547297297297
 20
745.808971361928
 30
-82.33710817757068
 70
   192
  0
VERTEX
  5
612
  8
0
 10
347.547297297297
 20
757.9405332091993
 30
-44.99999999999979
 70
   192
  0
VERTEX
  5
613
  8
0
 10
0.0
 20
0.0
 30
0.0
 70
   128
 71
     1
 72
     2
 73
     3
  0
VERTEX
  5
614
  8
0
 10
0.0
 20
0.0
 30
0.0
 70
   128
 71
     1
 72
     3
 73
     4
  0
VERTEX
  5
615
  8
0
 10
0.0
 20
0.0
 30
0.0
 70
   128
 71
     4
 72
     3
 73
     5
  0
VERTEX
  5
616
  8
0
 10
0.0
 20
0.0
 30
0.0
 70
   128
 71
     4
 72
     5
 73
     6
  0
VERTEX
  5
617
  8
0
 10
0.0
 20
0.0
 30
0.0
 70
   128
 71
     6
 72
     5
 73
     7
  0
VERTEX
  5
618
  8
0
 10
0.0
 20
0.0
 30
0.0
 70
   128
 71
     6
 72
     7
 73
     8
  0
SEQEND
  5
A05
  8
0
  0
POLYLINE
  5
619
  8
0
 66
     1
 10
0.0
 20
0.0
 30
0.0
 70
    64
 71
    15
 72
    13
  0
VERTEX
  5
61A
  8
0
 10
133.9327049160929
 20
717.375736350157
 30
-89.71209551609644
 70
   192
  0
VERTEX
  5
61B
  8
0
 10
138.0679280417276
 20
717.5896869491245
 30
-96.88705390179962
 70
   192
  0
VERTEX
  5
61C
  8
0
 10
144.7570471096832
 20
717.7669311815125
 30
-101.7707147797632
 70
   192
  0
VERTEX
  5
61D
  8
0
 10
152.852445530959
 20
717.8770601968691
 30
-103.5252144220932
 70
   192
  0
VERTEX
  5
61E
  8
0
 10
153.6831427008826
 20
609.7662928391309
 30
-106.2182871427641
 70
   192
  0
VERTEX
  5
61F
  8
0
 10
154.4008692609997
 20
501.614297991553
 30
-108.7792969973199
 70
   192
  0
VERTEX
  5
620
  8
0
 10
154.6660569596577
 20
393.0472972972616
 30
-110.3690580162998
 70
   192
  0
VERTEX
  5
621
  8
0
 10
154.4008690506429
 20
284.480242884344
 30
-108.7792961008709
 70
   192
  0
VERTEX
  5
622
  8
0
 10
153.6831425713768
 20
176.3282697607932
 30
-106.2182865008041
 70
   192
  0
VERTEX
  5
623
  8
0
 10
152.852445530958
 20
68.2175343977258
 30
-103.525214422093
 70
   192
  0
VERTEX
  5
624
  8
0
 10
144.7570471096822
 20
68.32766341308273
 30
-101.7707147797632
 70
   192
  0
VERTEX
  5
625
  8
0
 10
138.0679280417266
 20
68.50490764547094
 30
-96.88705390179962
 70
   192
  0
VERTEX
  5
626
  8
0
 10
133.932704916092
 20
68.71885824443848
 30
-89.71209551609644
 70
   192
  0
VERTEX
  5
627
  8
0
 10
135.6398664648131
 20
284.9226207037127
 30
-94.96619850989316
 70
   192
  0
VERTEX
  5
628
  8
0
 10
135.6398529748418
 20
501.1738432846151
 30
-94.96615699202931
 70
   192
  0
VERTEX
  5
629
  8
0
 10
0.0
 20
0.0
 30
0.0
 70
   128
 71
    11
 72
     8
 73
     9
  0
VERTEX
  5
62A
  8
0
 10
0.0
 20
0.0
 30
0.0
 70
   128
 71
     9
 72
    10
 73
    11
  0
VERTEX
  5
62B
  8
0
 10
0.0
 20
0.0
 30
0.0
 70
   128
 71
    12
 72
    14
 73
     8
  0
VERTEX
  5
62C
  8
0
 10
0.0
 20
0.0
 30
0.0
 70
   128
 71
    11
 72
    12
 73
     8
  0
VERTEX
  5
62D
  8
0
 10
0.0
 20
0.0
 30
0.0
 70
   128
 71
    12
 72
    13
 73
    14
  0
VERTEX
  5
62E
  8
0
 10
0.0
 20
0.0
 30
0.0
 70
   128
 71
    15
 72
     6
 73
     7
  0
VERTEX
  5
62F
  8
0
 10
0.0
 20
0.0
 30
0.0
 70
   128
 71
    14
 72
    15
 73
     7
  0
VERTEX
  5
630
  8
0
 10
0.0
 20
0.0
 30
0.0
 70
   128
 71
     7
 72
     8
 73
    14
  0
VERTEX
  5
631
  8
0
 10
0.0
 20
0.0
 30
0.0
 70
   128
 71
    15
 72
     1
 73
     2
  0
VERTEX
  5
632
  8
0
 10
0.0
 20
0.0
 30
0.0
 70
   128
 71
     3
 72
     5
 73
    15
  0
VERTEX
  5
633
  8
0
 10
0.0
 20
0.0
 30
0.0
 70
   128
 71
     2
 72
     3
 73
    15
  0
VERTEX
  5
634
  8
0
 10
0.0
 20
0.0
 30
0.0
 70
   128
 71
     3
 72
     4
 73
     5
  0
VERTEX
  5
635
  8
0
 10
0.0
 20
0.0
 30
0.0
 70
   128
 71
     5
 72
     6
 73
    15
  0
SEQEND
  5
A06
  8
0
  0
POLYLINE
  5
636
  8
0
 66
     1
 10
0.0
 20
0.0
 30
0.0
 70
    64
 71
     4
 72
     2
  0
VERTEX
  5
637
  8
0
 10
28.547297297297
 20
707.547297297298
 30
-45.0
 70
   192
  0
VERTEX
  5
638
  8
0
 10
28.547297297297
 20
707.547297297298
 30
-25.0
 70
   192
  0
VERTEX
  5
639
  8
0
 10
28.5472972972973
 20
78.5472972972974
 30
-25.0
 70
   192
  0
VERTEX
  5
63A
  8
0
 10
28.5472972972973
 20
78.5472972972974
 30
-45.0
 70
   192
  0
VERTEX
  5
63B
  8
0
 10
0.0
 20
0.0
 30
0.0
 70
   128
 71
     3
 72
     4
 73
    -1
  0
VERTEX
  5
63C
  8
0
 10
0.0
 20
0.0
 30
0.0
 70
   128
 71
     2
 72
    -3
 73
     1
  0
SEQEND
  5
A07
  8
0
  0
POLYLINE
  5
63D
  8
0
 66
     1
 10
0.0
 20
0.0
 30
0.0
 70
    64
 71
    12
 72
    10
  0
VERTEX
  5
63E
  8
0
 10
133.932704916092
 20
68.71885824443848
 30
-89.71209551609644
 70
   192
  0
VERTEX
  5
63F
  8
0
 10
138.0679280417266
 20
68.50490764547094
 30
-96.88705390179962
 70
   192
  0
VERTEX
  5
640
  8
0
 10
144.7570471096822
 20
68.32766341308273
 30
-101.7707147797632
 70
   192
  0
VERTEX
  5
641
  8
0
 10
152.852445530958
 20
68.21753439772596
 30
-103.5252144220932
 70
   192
  0
VERTEX
  5
642
  8
0
 10
152.5616005271537
 20
56.09750148692762
 30
-100.6316555552175
 70
   192
  0
VERTEX
  5
643
  8
0
 10
151.795953860664
 20
46.3537335594505
 30
-93.2418943830423
 70
   192
  0
VERTEX
  5
644
  8
0
 10
150.705875207524
 20
40.4339418439515
 30
-82.793585925778
 70
   192
  0
VERTEX
  5
645
  8
0
 10
141.6839625048686
 20
43.5490391596895
 30
-84.71282658699899
 70
   192
  0
VERTEX
  5
646
  8
0
 10
134.7998421973589
 20
50.43315946719923
 30
-84.712826586999
 70
   192
  0
VERTEX
  5
647
  8
0
 10
131.684744881621
 20
59.45507216985458
 30
-82.79358592577796
 70
   192
  0
VERTEX
  5
648
  8
0
 10
132.8178041858042
 20
61.43078376126317
 30
-86.280783892905
 70
   192
  0
VERTEX
  5
649
  8
0
 10
133.6170548486965
 20
64.67414094202161
 30
-88.74062450016532
 70
   192
  0
VERTEX
  5
64A
  8
0
 10
0.0
 20
0.0
 30
0.0
 70
   128
 71
     6
 72
     7
 73
     8
  0
VERTEX
  5
64B
  8
0
 10
0.0
 20
0.0
 30
0.0
 70
   128
 71
     9
 72
    11
 73
     6
  0
VERTEX
  5
64C
  8
0
 10
0.0
 20
0.0
 30
0.0
 70
   128
 71
     8
 72
     9
 73
     6
  0
VERTEX
  5
64D
  8
0
 10
0.0
 20
0.0
 30
0.0
 70
   128
 71
     9
 72
    10
 73
    11
  0
VERTEX
  5
64E
  8
0
 10
0.0
 20
0.0
 30
0.0
 70
   128
 71
    12
 72
     5
 73
     6
  0
VERTEX
  5
64F
  8
0
 10
0.0
 20
0.0
 30
0.0
 70
   128
 71
    11
 72
    12
 73
     6
  0
VERTEX
  5
650
  8
0
 10
0.0
 20
0.0
 30
0.0
 70
   128
 71
    12
 72
     1
 73
     2
  0
VERTEX
  5
651
  8
0
 10
0.0
 20
0.0
 30
0.0
 70
   128
 71
     3
 72
     5
 73
    12
  0
VERTEX
  5
652
  8
0
 10
0.0
 20
0.0
 30
0.0
 70
   128
 71
     2
 72
     3
 73
    12
  0
VERTEX
  5
653
  8
0
 10
0.0
 20
0.0
 30
0.0
 70
   128
 71
     3
 72
     4
 73
     5
  0
SEQEND
  5
A08
  8
0
  0
POLYLINE
  5
654
  8
0
 66
     1
 10
0.0
 20
0.0
 30
0.0
 70
    64
 71
     6
 72
     4
  0
VERTEX
  5
655
  8
0
 10
347.547297297297
 20
40.28562323266695
 30
-82.33710817757073
 70
   192
  0
VERTEX
  5
656
  8
0
 10
347.547297297297
 20
28.15406138539553
 30
-45.00000000000002
 70
   192
  0
VERTEX
  5
657
  8
0
 10
138.425994748968
 20
28.15406138539548
 30
-45.0
 70
   192
  0
VERTEX
  5
658
  8
0
 10
150.7058752075246
 20
40.43394184395163
 30
-82.79358592577776
 70
   192
  0
VERTEX
  5
659
  8
0
 10
216.3205206586455
 20
40.49071468261777
 30
-82.96831475669967
 70
   192
  0
VERTEX
  5
65A
  8
0
 10
281.9343133644068
 20
40.43941757477522
 30
-82.81043849238785
 70
   192
  0
VERTEX
  5
65B
  8
0
 10
0.0
 20
0.0
 30
0.0
 70
   128
 71
     3
 72
     4
 73
    -5
  0
VERTEX
  5
65C
  8
0
 10
0.0
 20
0.0
 30
0.0
 70
   128
 71
    -6
 72
     2
 73
    -3
  0
VERTEX
  5
65D
  8
0
 10
0.0
 20
0.0
 30
0.0
 70
   128
 71
     5
 72
    -6
 73
    -3
  0
VERTEX
  5
65E
  8
0
 10
0.0
 20
0.0
 30
0.0
 70
   128
 71
     6
 72
     1
 73
    -2
  0
SEQEND
  5
A09
  8
0
  0
POLYLINE
  5
65F
  8
0
 66
     1
 10
0.0
 20
0.0
 30
0.0
 70
    64
 71
     6
 72
     4
  0
VERTEX
  5
660
  8
0
 10
78.54729729729712
 20
757.547297297298
 30
-45.0
 70
   192
  0
VERTEX
  5
661
  8
0
 10
117.907059180142
 20
757.547297297298
 30
-45.0
 70
   192
  0
VERTEX
  5
662
  8
0
 10
114.6846689026758
 20
757.5472972972979
 30
-38.68764423194947
 70
   192
  0
VERTEX
  5
663
  8
0
 10
111.5446405519756
 20
757.5472972972979
 30
-31.99143721947341
 70
   192
  0
VERTEX
  5
664
  8
0
 10
108.528530873446
 20
757.547297297298
 30
-25.0
 70
   192
  0
VERTEX
  5
665
  8
0
 10
78.5472972972971
 20
757.547297297298
 30
-25.0
 70
   192
  0
VERTEX
  5
666
  8
0
 10
0.0
 20
0.0
 30
0.0
 70
   128
 71
     1
 72
     2
 73
    -3
  0
VERTEX
  5
667
  8
0
 10
0.0
 20
0.0
 30
0.0
 70
   128
 71
     3
 72
    -4
 73
    -1
  0
VERTEX
  5
668
  8
0
 10
0.0
 20
0.0
 30
0.0
 70
   128
 71
     5
 72
     6
 73
    -1
  0
VERTEX
  5
669
  8
0
 10
0.0
 20
0.0
 30
0.0
 70
   128
 71
     4
 72
    -5
 73
    -1
  0
SEQEND
  5
A0A
  8
0
  0
POLYLINE
  5
66A
  8
0
 66
     1
 10
0.0
 20
0.0
 30
0.0
 70
    64
 71
     8
 72
     6
  0
VERTEX
  5
66B
  8
0
 10
347.547297297297
 20
28.15406138539558
 30
-45.0
 70
   192
  0
VERTEX
  5
66C
  8
0
 10
347.547297297297
 20
40.28562323266695
 30
-82.33710817757073
 70
   192
  0
VERTEX
  5
66D
  8
0
 10
366.6220770600113
 20
45.37297789749994
 30
-82.32098010191416
 70
   192
  0
VERTEX
  5
66E
  8
0
 10
372.743915253248
 20
34.9054748186882
 30
-45.0
 70
   192
  0
VERTEX
  5
66F
  8
0
 10
380.6280046501228
 20
59.34434377719467
 30
-82.36952156730503
 70
   192
  0
VERTEX
  5
670
  8
0
 10
391.1891197759064
 20
53.35067934134665
 30
-45.0
 70
   192
  0
VERTEX
  5
671
  8
0
 10
385.765508487091
 20
78.5472972972975
 30
-82.4708731519347
 70
   192
  0
VERTEX
  5
672
  8
0
 10
397.9405332091993
 20
78.5472972972977
 30
-45.00000000000011
 70
   192
  0
VERTEX
  5
673
  8
0
 10
0.0
 20
0.0
 30
0.0
 70
   128
 71
     1
 72
     2
 73
     3
  0
VERTEX
  5
674
  8
0
 10
0.0
 20
0.0
 30
0.0
 70
   128
 71
     1
 72
     3
 73
     4
  0
VERTEX
  5
675
  8
0
 10
0.0
 20
0.0
 30
0.0
 70
   128
 71
     4
 72
     3
 73
     5
  0
VERTEX
  5
676
  8
0
 10
0.0
 20
0.0
 30
0.0
 70
   128
 71
     4
 72
     5
 73
     6
  0
VERTEX
  5
677
  8
0
 10
0.0
 20
0.0
 30
0.0
 70
   128
 71
     6
 72
     5
 73
     7
  0
VERTEX
  5
678
  8
0
 10
0.0
 20
0.0
 30
0.0
 70
   128
 71
     6
 72
     7
 73
     8
  0
SEQEND
  5
A0B
  8
0
  0
POLYLINE
  5
679
  8
0
 66
     1
 10
0.0
 20
0.0
 30
0.0
 70
    64
 71
    12
 72
    10
  0
VERTEX
  5
67A
  8
0
 10
152.852445530958
 20
68.2175343977258
 30
-103.525214422093
 70
   192
  0
VERTEX
  5
67B
  8
0
 10
217.8493897818682
 20
68.25681770177891
 30
-103.6878119034489
 70
   192
  0
VERTEX
  5
67C
  8
0
 10
282.847376840011
 20
68.2187086786297
 30
-103.5262700838345
 70
   192
  0
VERTEX
  5
67D
  8
0
 10
347.830920150198
 20
68.1044580120683
 30
-103.056786536566
 70
   192
  0
VERTEX
  5
67E
  8
0
 10
347.7674910089881
 20
56.18249892847496
 30
-100.2752889345621
 70
   192
  0
VERTEX
  5
67F
  8
0
 10
347.6673937770661
 20
46.36457231135178
 30
-92.96282300016433
 70
   192
  0
VERTEX
  5
680
  8
0
 10
347.5472972972971
 20
40.28562323266701
 30
-82.3371081775707
 70
   192
  0
VERTEX
  5
681
  8
0
 10
281.9343133644068
 20
40.43941757477522
 30
-82.81043849238785
 70
   192
  0
VERTEX
  5
682
  8
0
 10
216.3205206586455
 20
40.49071468261777
 30
-82.96831475669967
 70
   192
  0
VERTEX
  5
683
  8
0
 10
150.705875207524
 20
40.4339418439515
 30
-82.793585925778
 70
   192
  0
VERTEX
  5
684
  8
0
 10
151.795953860664
 20
46.3537335594505
 30
-93.2418943830423
 70
   192
  0
VERTEX
  5
685
  8
0
 10
152.5616005271537
 20
56.09750148692762
 30
-100.6316555552175
 70
   192
  0
VERTEX
  5
686
  8
0
 10
0.0
 20
0.0
 30
0.0
 70
   128
 71
     6
 72
     7
 73
     8
  0
VERTEX
  5
687
  8
0
 10
0.0
 20
0.0
 30
0.0
 70
   128
 71
     9
 72
    11
 73
     6
  0
VERTEX
  5
688
  8
0
 10
0.0
 20
0.0
 30
0.0
 70
   128
 71
     8
 72
     9
 73
     6
  0
VERTEX
  5
689
  8
0
 10
0.0
 20
0.0
 30
0.0
 70
   128
 71
     9
 72
    10
 73
    11
  0
VERTEX
  5
68A
  8
0
 10
0.0
 20
0.0
 30
0.0
 70
   128
 71
    12
 72
     5
 73
     6
  0
VERTEX
  5
68B
  8
0
 10
0.0
 20
0.0
 30
0.0
 70
   128
 71
    11
 72
    12
 73
     6
  0
VERTEX
  5
68C
  8
0
 10
0.0
 20
0.0
 30
0.0
 70
   128
 71
    12
 72
     1
 73
     2
  0
VERTEX
  5
68D
  8
0
 10
0.0
 20
0.0
 30
0.0
 70
   128
 71
     3
 72
     5
 73
    12
  0
VERTEX
  5
68E
  8
0
 10
0.0
 20
0.0
 30
0.0
 70
   128
 71
     2
 72
     3
 73
    12
  0
VERTEX
  5
68F
  8
0
 10
0.0
 20
0.0
 30
0.0
 70
   128
 71
     3
 72
     4
 73
     5
  0
SEQEND
  5
A0C
  8
0
  0
POLYLINE
  5
690
  8
0
 66
     1
 10
0.0
 20
0.0
 30
0.0
 70
    64
 71
     6
 72
     4
  0
VERTEX
  5
691
  8
0
 10
385.765508487091
 20
707.547297297298
 30
-82.4708731519347
 70
   192
  0
VERTEX
  5
692
  8
0
 10
397.9405332091993
 20
707.547297297298
 30
-45.00000000000011
 70
   192
  0
VERTEX
  5
693
  8
0
 10
397.940533209199
 20
78.5472972972977
 30
-45.0
 70
   192
  0
VERTEX
  5
694
  8
0
 10
385.765508487091
 20
78.5472972972977
 30
-82.4708731519347
 70
   192
  0
VERTEX
  5
695
  8
0
 10
384.343623001815
 20
288.185876714613
 30
-86.84698670171565
 70
   192
  0
VERTEX
  5
696
  8
0
 10
384.3434911225797
 20
497.8804622034195
 30
-86.84739258426688
 70
   192
  0
VERTEX
  5
697
  8
0
 10
0.0
 20
0.0
 30
0.0
 70
   128
 71
     3
 72
     4
 73
    -5
  0
VERTEX
  5
698
  8
0
 10
0.0
 20
0.0
 30
0.0
 70
   128
 71
    -6
 72
     2
 73
    -3
  0
VERTEX
  5
699
  8
0
 10
0.0
 20
0.0
 30
0.0
 70
   128
 71
     5
 72
    -6
 73
    -3
  0
VERTEX
  5
69A
  8
0
 10
0.0
 20
0.0
 30
0.0
 70
   128
 71
     6
 72
     1
 73
    -2
  0
SEQEND
  5
A0D
  8
0
  0
POLYLINE
  5
69B
  8
0
 66
     1
 10
0.0
 20
0.0
 30
0.0
 70
    64
 71
    12
 72
    10
  0
VERTEX
  5
69C
  8
0
 10
131.684744881622
 20
726.6395224247402
 30
-82.79358592577806
 70
   192
  0
VERTEX
  5
69D
  8
0
 10
134.79984219736
 20
735.6614351273955
 30
-84.71282658699911
 70
   192
  0
VERTEX
  5
69E
  8
0
 10
141.6839625048698
 20
742.5455554349053
 30
-84.7128265869991
 70
   192
  0
VERTEX
  5
69F
  8
0
 10
150.7058752075251
 20
745.6606527506432
 30
-82.79358592577803
 70
   192
  0
VERTEX
  5
6A0
  8
0
 10
151.7971691486747
 20
739.728673491791
 30
-93.25353504515971
 70
   192
  0
VERTEX
  5
6A1
  8
0
 10
152.5629579291905
 20
729.971893882876
 30
-100.6448351116157
 70
   192
  0
VERTEX
  5
6A2
  8
0
 10
152.852445530959
 20
717.8770601968689
 30
-103.525214422093
 70
   192
  0
VERTEX
  5
6A3
  8
0
 10
144.7570471096832
 20
717.7669311815125
 30
-101.7707147797632
 70
   192
  0
VERTEX
  5
6A4
  8
0
 10
138.0679280417276
 20
717.5896869491245
 30
-96.88705390179962
 70
   192
  0
VERTEX
  5
6A5
  8
0
 10
133.9327049160929
 20
717.375736350157
 30
-89.71209551609644
 70
   192
  0
VERTEX
  5
6A6
  8
0
 10
133.6204373656085
 20
721.4039315307531
 30
-88.75103481677624
 70
   192
  0
VERTEX
  5
6A7
  8
0
 10
132.8191286807432
 20
724.6606933694765
 30
-86.28486026917156
 70
   192
  0
VERTEX
  5
6A8
  8
0
 10
0.0
 20
0.0
 30
0.0
 70
   128
 71
     6
 72
     7
 73
     8
  0
VERTEX
  5
6A9
  8
0
 10
0.0
 20
0.0
 30
0.0
 70
   128
 71
     9
 72
    11
 73
     6
  0
VERTEX
  5
6AA
  8
0
 10
0.0
 20
0.0
 30
0.0
 70
   128
 71
     8
 72
     9
 73
     6
  0
VERTEX
  5
6AB
  8
0
 10
0.0
 20
0.0
 30
0.0
 70
   128
 71
     9
 72
    10
 73
    11
  0
VERTEX
  5
6AC
  8
0
 10
0.0
 20
0.0
 30
0.0
 70
   128
 71
    12
 72
     5
 73
     6
  0
VERTEX
  5
6AD
  8
0
 10
0.0
 20
0.0
 30
0.0
 70
   128
 71
    11
 72
    12
 73
     6
  0
VERTEX
  5
6AE
  8
0
 10
0.0
 20
0.0
 30
0.0
 70
   128
 71
    12
 72
     1
 73
     2
  0
VERTEX
  5
6AF
  8
0
 10
0.0
 20
0.0
 30
0.0
 70
   128
 71
     3
 72
     5
 73
    12
  0
VERTEX
  5
6B0
  8
0
 10
0.0
 20
0.0
 30
0.0
 70
   128
 71
     2
 72
     3
 73
    12
  0
VERTEX
  5
6B1
  8
0
 10
0.0
 20
0.0
 30
0.0
 70
   128
 71
     3
 72
     4
 73
     5
  0
SEQEND
  5
A0E
  8
0
  0
POLYLINE
  5
6B2
  8
0
 66
     1
 10
0.0
 20
0.0
 30
0.0
 70
    64
 71
     8
 72
     6
  0
VERTEX
  5
6B3
  8
0
 10
35.24602710807509
 20
732.547297297298
 30
-45.0
 70
   192
  0
VERTEX
  5
6B4
  8
0
 10
53.54729729729706
 20
750.84856748652
 30
-45.0
 70
   192
  0
VERTEX
  5
6B5
  8
0
 10
53.54729729729706
 20
750.84856748652
 30
-25.0
 70
   192
  0
VERTEX
  5
6B6
  8
0
 10
35.24602710807508
 20
732.547297297298
 30
-25.0
 70
   192
  0
VERTEX
  5
6B7
  8
0
 10
78.5472972972971
 20
757.547297297297
 30
-45.0
 70
   192
  0
VERTEX
  5
6B8
  8
0
 10
78.5472972972971
 20
757.547297297297
 30
-25.0
 70
   192
  0
VERTEX
  5
6B9
  8
0
 10
28.547297297297
 20
707.547297297298
 30
-45.0
 70
   192
  0
VERTEX
  5
6BA
  8
0
 10
28.54729729729698
 20
707.547297297298
 30
-25.0
 70
   192
  0
VERTEX
  5
6BB
  8
0
 10
0.0
 20
0.0
 30
0.0
 70
   128
 71
     1
 72
     2
 73
    -3
  0
VERTEX
  5
6BC
  8
0
 10
0.0
 20
0.0
 30
0.0
 70
   128
 71
     4
 72
    -1
 73
     3
  0
VERTEX
  5
6BD
  8
0
 10
0.0
 20
0.0
 30
0.0
 70
   128
 71
     2
 72
     5
 73
    -6
  0
VERTEX
  5
6BE
  8
0
 10
0.0
 20
0.0
 30
0.0
 70
   128
 71
     3
 72
    -2
 73
     6
  0
VERTEX
  5
6BF
  8
0
 10
0.0
 20
0.0
 30
0.0
 70
   128
 71
     7
 72
     1
 73
    -4
  0
VERTEX
  5
6C0
  8
0
 10
0.0
 20
0.0
 30
0.0
 70
   128
 71
     8
 72
    -7
 73
     4
  0
SEQEND
  5
A0F
  8
0
  0
POLYLINE
  5
6C1
  8
0
 66
     1
 10
0.0
 20
0.0
 30
0.0
 70
    64
 71
    12
 72
    10
  0
VERTEX
  5
6C2
  8
0
 10
131.6847448816216
 20
59.45507216985464
 30
-82.79358592577776
 70
   192
  0
VERTEX
  5
6C3
  8
0
 10
112.404441958692
 20
40.17476924692499
 30
-23.45491502812524
 70
   192
  0
VERTEX
  5
6C4
  8
0
 10
112.404441958692
 20
745.91982534767
 30
-23.4549150281253
 70
   192
  0
VERTEX
  5
6C5
  8
0
 10
131.6847448816243
 20
726.6395224247377
 30
-82.7935859257845
 70
   192
  0
VERTEX
  5
6C6
  8
0
 10
132.8191286807432
 20
724.6606933694765
 30
-86.28486026917156
 70
   192
  0
VERTEX
  5
6C7
  8
0
 10
133.6204373656085
 20
721.4039315307531
 30
-88.75103481677624
 70
   192
  0
VERTEX
  5
6C8
  8
0
 10
133.932704916093
 20
717.375736350157
 30
-89.71209551609641
 70
   192
  0
VERTEX
  5
6C9
  8
0
 10
135.6398529748418
 20
501.1738432846151
 30
-94.96615699202931
 70
   192
  0
VERTEX
  5
6CA
  8
0
 10
135.6398664648131
 20
284.9226207037127
 30
-94.96619850989316
 70
   192
  0
VERTEX
  5
6CB
  8
0
 10
133.932704916092
 20
68.7188582444382
 30
-89.71209551609641
 70
   192
  0
VERTEX
  5
6CC
  8
0
 10
133.6170548486965
 20
64.67414094202161
 30
-88.74062450016532
 70
   192
  0
VERTEX
  5
6CD
  8
0
 10
132.8178041858042
 20
61.43078376126317
 30
-86.280783892905
 70
   192
  0
VERTEX
  5
6CE
  8
0
 10
0.0
 20
0.0
 30
0.0
 70
   128
 71
     6
 72
     7
 73
    -8
  0
VERTEX
  5
6CF
  8
0
 10
0.0
 20
0.0
 30
0.0
 70
   128
 71
     5
 72
    -6
 73
    -8
  0
VERTEX
  5
6D0
  8
0
 10
0.0
 20
0.0
 30
0.0
 70
   128
 71
     4
 72
    -5
 73
    -8
  0
VERTEX
  5
6D1
  8
0
 10
0.0
 20
0.0
 30
0.0
 70
   128
 71
     3
 72
    -4
 73
    -8
  0
VERTEX
  5
6D2
  8
0
 10
0.0
 20
0.0
 30
0.0
 70
   128
 71
    -9
 72
     2
 73
    -3
  0
VERTEX
  5
6D3
  8
0
 10
0.0
 20
0.0
 30
0.0
 70
   128
 71
     8
 72
    -9
 73
    -3
  0
VERTEX
  5
6D4
  8
0
 10
0.0
 20
0.0
 30
0.0
 70
   128
 71
    12
 72
     1
 73
    -2
  0
VERTEX
  5
6D5
  8
0
 10
0.0
 20
0.0
 30
0.0
 70
   128
 71
    11
 72
   -12
 73
    -2
  0
VERTEX
  5
6D6
  8
0
 10
0.0
 20
0.0
 30
0.0
 70
   128
 71
    10
 72
   -11
 73
    -2
  0
VERTEX
  5
6D7
  8
0
 10
0.0
 20
0.0
 30
0.0
 70
   128
 71
     9
 72
   -10
 73
    -2
  0
SEQEND
  5
A10
  8
0
  0
POLYLINE
  5
6D8
  8
0
 66
     1
 10
0.0
 20
0.0
 30
0.0
 70
    64
 71
    12
 72
    10
  0
VERTEX
  5
6D9
  8
0
 10
107.649159377217
 20
745.91982534767
 30
-20.0
 70
   192
  0
VERTEX
  5
6DA
  8
0
 10
107.7472334027262
 20
748.1686695096149
 30
-20.0
 70
   192
  0
VERTEX
  5
6DB
  8
0
 10
108.0414554792552
 20
750.3861038562121
 30
-20.0
 70
   192
  0
VERTEX
  5
6DC
  8
0
 10
108.528530873446
 20
752.547297297298
 30
-20.0
 70
   192
  0
VERTEX
  5
6DD
  8
0
 10
110.3933373407113
 20
752.0371795431988
 30
-20.38889636674707
 70
   192
  0
VERTEX
  5
6DE
  8
0
 10
111.9680572240542
 20
751.6064149655726
 30
-21.49508931336065
 70
   192
  0
VERTEX
  5
6DF
  8
0
 10
113.0077293869642
 20
751.3220126760842
 30
-23.14650107269704
 70
   192
  0
VERTEX
  5
6E0
  8
0
 10
112.6528947770017
 20
749.5982626339577
 30
-23.23447803238901
 70
   192
  0
VERTEX
  5
6E1
  8
0
 10
112.4480931080172
 20
747.793827664926
 30
-23.3372826841984
 70
   192
  0
VERTEX
  5
6E2
  8
0
 10
112.404441958692
 20
745.91982534767
 30
-23.4549150281253
 70
   192
  0
VERTEX
  5
6E3
  8
0
 10
111.3648835046039
 20
745.91982534767
 30
-21.65434696820561
 70
   192
  0
VERTEX
  5
6E4
  8
0
 10
109.6828425925959
 20
745.91982534767
 30
-20.43227271178697
 70
   192
  0
VERTEX
  5
6E5
  8
0
 10
0.0
 20
0.0
 30
0.0
 70
   128
 71
     6
 72
     7
 73
     8
  0
VERTEX
  5
6E6
  8
0
 10
0.0
 20
0.0
 30
0.0
 70
   128
 71
     9
 72
    11
 73
     6
  0
VERTEX
  5
6E7
  8
0
 10
0.0
 20
0.0
 30
0.0
 70
   128
 71
     8
 72
     9
 73
     6
  0
VERTEX
  5
6E8
  8
0
 10
0.0
 20
0.0
 30
0.0
 70
   128
 71
     9
 72
    10
 73
    11
  0
VERTEX
  5
6E9
  8
0
 10
0.0
 20
0.0
 30
0.0
 70
   128
 71
    12
 72
     5
 73
     6
  0
VERTEX
  5
6EA
  8
0
 10
0.0
 20
0.0
 30
0.0
 70
   128
 71
    11
 72
    12
 73
     6
  0
VERTEX
  5
6EB
  8
0
 10
0.0
 20
0.0
 30
0.0
 70
   128
 71
    12
 72
     1
 73
     2
  0
VERTEX
  5
6EC
  8
0
 10
0.0
 20
0.0
 30
0.0
 70
   128
 71
     3
 72
     5
 73
    12
  0
VERTEX
  5
6ED
  8
0
 10
0.0
 20
0.0
 30
0.0
 70
   128
 71
     2
 72
     3
 73
    12
  0
VERTEX
  5
6EE
  8
0
 10
0.0
 20
0.0
 30
0.0
 70
   128
 71
     3
 72
     4
 73
     5
  0
SEQEND
  5
A11
  8
0
  0
POLYLINE
  5
6EF
  8
0
 66
     1
 10
0.0
 20
0.0
 30
0.0
 70
    64
 71
     8
 72
     6
  0
VERTEX
  5
6F0
  8
0
 10
111.364883504603
 20
40.1747692469249
 30
-21.65434696820576
 70
   192
  0
VERTEX
  5
6F1
  8
0
 10
109.682842592595
 20
40.1747692469249
 30
-20.43227271178701
 70
   192
  0
VERTEX
  5
6F2
  8
0
 10
109.6828425925959
 20
745.91982534767
 30
-20.43227271178697
 70
   192
  0
VERTEX
  5
6F3
  8
0
 10
111.3648835046039
 20
745.91982534767
 30
-21.65434696820561
 70
   192
  0
VERTEX
  5
6F4
  8
0
 10
107.649159377216
 20
40.1747692469249
 30
-20.0
 70
   192
  0
VERTEX
  5
6F5
  8
0
 10
107.649159377217
 20
745.91982534767
 30
-20.0
 70
   192
  0
VERTEX
  5
6F6
  8
0
 10
112.4044419586912
 20
40.17476924692482
 30
-23.4549150281253
 70
   192
  0
VERTEX
  5
6F7
  8
0
 10
112.4044419586927
 20
745.91982534767
 30
-23.45491502812507
 70
   192
  0
VERTEX
  5
6F8
  8
0
 10
0.0
 20
0.0
 30
0.0
 70
   128
 71
     1
 72
     2
 73
    -3
  0
VERTEX
  5
6F9
  8
0
 10
0.0
 20
0.0
 30
0.0
 70
   128
 71
     4
 72
    -1
 73
     3
  0
VERTEX
  5
6FA
  8
0
 10
0.0
 20
0.0
 30
0.0
 70
   128
 71
     2
 72
     5
 73
    -6
  0
VERTEX
  5
6FB
  8
0
 10
0.0
 20
0.0
 30
0.0
 70
   128
 71
     3
 72
    -2
 73
     6
  0
VERTEX
  5
6FC
  8
0
 10
0.0
 20
0.0
 30
0.0
 70
   128
 71
     7
 72
     1
 73
    -4
  0
VERTEX
  5
6FD
  8
0
 10
0.0
 20
0.0
 30
0.0
 70
   128
 71
     8
 72
    -7
 73
     4
  0
SEQEND
  5
A12
  8
0
  0
POLYLINE
  5
6FE
  8
0
 66
     1
 10
0.0
 20
0.0
 30
0.0
 70
    64
 71
    12
 72
    10
  0
VERTEX
  5
6FF
  8
0
 10
112.404441958692
 20
40.1747692469249
 30
-23.4549150281253
 70
   192
  0
VERTEX
  5
700
  8
0
 10
112.448093108017
 20
38.30076692966953
 30
-23.33728268419861
 70
   192
  0
VERTEX
  5
701
  8
0
 10
112.6528947770012
 20
36.4963319606378
 30
-23.23447803238923
 70
   192
  0
VERTEX
  5
702
  8
0
 10
113.007729386963
 20
34.77258191851111
 30
-23.1465010726971
 70
   192
  0
VERTEX
  5
703
  8
0
 10
111.9680572240532
 20
34.48817962902277
 30
-21.49508931336064
 70
   192
  0
VERTEX
  5
704
  8
0
 10
110.3933373407103
 20
34.05741505139655
 30
-20.38889636674706
 70
   192
  0
VERTEX
  5
705
  8
0
 10
108.528530873445
 20
33.54729729729739
 30
-20.0
 70
   192
  0
VERTEX
  5
706
  8
0
 10
108.0414554792548
 20
35.70849073838329
 30
-20.0
 70
   192
  0
VERTEX
  5
707
  8
0
 10
107.7472334027258
 20
37.92592508498036
 30
-20.0
 70
   192
  0
VERTEX
  5
708
  8
0
 10
107.649159377216
 20
40.1747692469249
 30
-20.0
 70
   192
  0
VERTEX
  5
709
  8
0
 10
109.682842592595
 20
40.1747692469249
 30
-20.43227271178701
 70
   192
  0
VERTEX
  5
70A
  8
0
 10
111.364883504603
 20
40.1747692469249
 30
-21.65434696820576
 70
   192
  0
VERTEX
  5
70B
  8
0
 10
0.0
 20
0.0
 30
0.0
 70
   128
 71
     6
 72
     7
 73
     8
  0
VERTEX
  5
70C
  8
0
 10
0.0
 20
0.0
 30
0.0
 70
   128
 71
     9
 72
    11
 73
     6
  0
VERTEX
  5
70D
  8
0
 10
0.0
 20
0.0
 30
0.0
 70
   128
 71
     8
 72
     9
 73
     6
  0
VERTEX
  5
70E
  8
0
 10
0.0
 20
0.0
 30
0.0
 70
   128
 71
     9
 72
    10
 73
    11
  0
VERTEX
  5
70F
  8
0
 10
0.0
 20
0.0
 30
0.0
 70
   128
 71
    12
 72
     5
 73
     6
  0
VERTEX
  5
710
  8
0
 10
0.0
 20
0.0
 30
0.0
 70
   128
 71
    11
 72
    12
 73
     6
  0
VERTEX
  5
711
  8
0
 10
0.0
 20
0.0
 30
0.0
 70
   128
 71
    12
 72
     1
 73
     2
  0
VERTEX
  5
712
  8
0
 10
0.0
 20
0.0
 30
0.0
 70
   128
 71
     3
 72
     5
 73
    12
  0
VERTEX
  5
713
  8
0
 10
0.0
 20
0.0
 30
0.0
 70
   128
 71
     2
 72
     3
 73
    12
  0
VERTEX
  5
714
  8
0
 10
0.0
 20
0.0
 30
0.0
 70
   128
 71
     3
 72
     4
 73
     5
  0
SEQEND
  5
A13
  8
0
  0
POLYLINE
  5
715
  8
0
 66
     1
 10
0.0
 20
0.0
 30
0.0
 70
    64
 71
    12
 72
    10
  0
VERTEX
  5
716
  8
0
 10
108.528530873445
 20
28.5472972972973
 30
-25.00000000000001
 70
   192
  0
VERTEX
  5
717
  8
0
 10
111.1605247857793
 20
29.43798844447394
 30
-23.91087705122773
 70
   192
  0
VERTEX
  5
718
  8
0
 10
112.8548012272581
 20
31.7927295981403
 30
-23.2097829699188
 70
   192
  0
VERTEX
  5
719
  8
0
 10
113.0077293869632
 20
34.77258191851116
 30
-23.14650107269714
 70
   192
  0
VERTEX
  5
71A
  8
0
 10
116.2589383152625
 20
35.25997075982208
 30
-31.01551905099825
 70
   192
  0
VERTEX
  5
71B
  8
0
 10
119.4980438647958
 20
35.7126954132752
 30
-38.2551184352839
 70
   192
  0
VERTEX
  5
71C
  8
0
 10
122.76907392776
 20
36.1391285734931
 30
-45.0
 70
   192
  0
VERTEX
  5
71D
  8
0
 10
123.4890708762724
 20
32.59454202190953
 30
-45.00000000000001
 70
   192
  0
VERTEX
  5
71E
  8
0
 10
121.4391182895704
 20
29.6306551927312
 30
-45.0
 70
   192
  0
VERTEX
  5
71F
  8
0
 10
117.907059180141
 20
28.5472972972974
 30
-45.0
 70
   192
  0
VERTEX
  5
720
  8
0
 10
114.6846689026749
 20
28.54729729729733
 30
-38.68764423194932
 70
   192
  0
VERTEX
  5
721
  8
0
 10
111.5446405519748
 20
28.5472972972973
 30
-31.99143721947331
 70
   192
  0
VERTEX
  5
722
  8
0
 10
0.0
 20
0.0
 30
0.0
 70
   128
 71
     7
 72
     8
 73
     9
  0
VERTEX
  5
723
  8
0
 10
0.0
 20
0.0
 30
0.0
 70
   128
 71
     6
 72
     7
 73
     9
  0
VERTEX
  5
724
  8
0
 10
0.0
 20
0.0
 30
0.0
 70
   128
 71
    11
 72
     6
 73
     9
  0
VERTEX
  5
725
  8
0
 10
0.0
 20
0.0
 30
0.0
 70
   128
 71
     9
 72
    10
 73
    11
  0
VERTEX
  5
726
  8
0
 10
0.0
 20
0.0
 30
0.0
 70
   128
 71
    12
 72
     5
 73
     6
  0
VERTEX
  5
727
  8
0
 10
0.0
 20
0.0
 30
0.0
 70
   128
 71
    11
 72
    12
 73
     6
  0
VERTEX
  5
728
  8
0
 10
0.0
 20
0.0
 30
0.0
 70
   128
 71
    12
 72
     1
 73
     2
  0
VERTEX
  5
729
  8
0
 10
0.0
 20
0.0
 30
0.0
 70
   128
 71
     3
 72
     5
 73
    12
  0
VERTEX
  5
72A
  8
0
 10
0.0
 20
0.0
 30
0.0
 70
   128
 71
     2
 72
     3
 73
    12
  0
VERTEX
  5
72B
  8
0
 10
0.0
 20
0.0
 30
0.0
 70
   128
 71
     3
 72
     4
 73
     5
  0
SEQEND
  5
A14
  8
0
  0
POLYLINE
  5
72C
  8
0
 66
     1
 10
0.0
 20
0.0
 30
0.0
 70
    64
 71
     9
 72
     7
  0
VERTEX
  5
72D
  8
0
 10
110.3933373407103
 20
34.05741505139655
 30
-20.38889636674706
 70
   192
  0
VERTEX
  5
72E
  8
0
 10
111.9680572240532
 20
34.48817962902277
 30
-21.49508931336064
 70
   192
  0
VERTEX
  5
72F
  8
0
 10
108.528530873445
 20
33.5472972972973
 30
-20.0
 70
   192
  0
VERTEX
  5
730
  8
0
 10
111.1605247857793
 20
29.43798844447394
 30
-23.91087705122773
 70
   192
  0
VERTEX
  5
731
  8
0
 10
108.528530873445
 20
28.5472972972973
 30
-25.00000000000001
 70
   192
  0
VERTEX
  5
732
  8
0
 10
108.528530873445
 20
29.21717027837511
 30
-22.5
 70
   192
  0
VERTEX
  5
733
  8
0
 10
108.528530873445
 20
31.0472972972973
 30
-20.66987298107781
 70
   192
  0
VERTEX
  5
734
  8
0
 10
112.8548012272581
 20
31.7927295981403
 30
-23.2097829699188
 70
   192
  0
VERTEX
  5
735
  8
0
 10
113.0077293869632
 20
34.77258191851119
 30
-23.14650107269702
 70
   192
  0
VERTEX
  5
736
  8
0
 10
0.0
 20
0.0
 30
0.0
 70
   128
 71
     1
 72
     2
 73
     3
  0
VERTEX
  5
737
  8
0
 10
0.0
 20
0.0
 30
0.0
 70
   128
 71
     4
 72
     5
 73
     6
  0
VERTEX
  5
738
  8
0
 10
0.0
 20
0.0
 30
0.0
 70
   128
 71
     7
 72
     3
 73
     4
  0
VERTEX
  5
739
  8
0
 10
0.0
 20
0.0
 30
0.0
 70
   128
 71
     6
 72
     7
 73
     4
  0
VERTEX
  5
73A
  8
0
 10
0.0
 20
0.0
 30
0.0
 70
   128
 71
     3
 72
     8
 73
     4
  0
VERTEX
  5
73B
  8
0
 10
0.0
 20
0.0
 30
0.0
 70
   128
 71
     2
 72
     9
 73
     8
  0
VERTEX
  5
73C
  8
0
 10
0.0
 20
0.0
 30
0.0
 70
   128
 71
     3
 72
     2
 73
     8
  0
SEQEND
  5
A15
  8
0
  0
POLYLINE
  5
73D
  8
0
 66
     1
 10
0.0
 20
0.0
 30
0.0
 70
    64
 71
     8
 72
     6
  0
VERTEX
  5
73E
  8
0
 10
108.528530873445
 20
31.0472972972973
 30
-20.66987298107781
 70
   192
  0
VERTEX
  5
73F
  8
0
 10
108.528530873445
 20
29.21717027837511
 30
-22.5
 70
   192
  0
VERTEX
  5
740
  8
0
 10
78.5472972972973
 20
29.21717027837501
 30
-22.5
 70
   192
  0
VERTEX
  5
741
  8
0
 10
78.5472972972973
 20
31.0472972972972
 30
-20.66987298107781
 70
   192
  0
VERTEX
  5
742
  8
0
 10
108.528530873445
 20
28.5472972972973
 30
-25.0
 70
   192
  0
VERTEX
  5
743
  8
0
 10
78.54729729729735
 20
28.54729729729736
 30
-25.0
 70
   192
  0
VERTEX
  5
744
  8
0
 10
108.528530873445
 20
33.5472972972973
 30
-20.0
 70
   192
  0
VERTEX
  5
745
  8
0
 10
78.5472972972973
 20
33.5472972972972
 30
-20.0
 70
   192
  0
VERTEX
  5
746
  8
0
 10
0.0
 20
0.0
 30
0.0
 70
   128
 71
     1
 72
     2
 73
    -3
  0
VERTEX
  5
747
  8
0
 10
0.0
 20
0.0
 30
0.0
 70
   128
 71
     4
 72
    -1
 73
     3
  0
VERTEX
  5
748
  8
0
 10
0.0
 20
0.0
 30
0.0
 70
   128
 71
     2
 72
     5
 73
    -6
  0
VERTEX
  5
749
  8
0
 10
0.0
 20
0.0
 30
0.0
 70
   128
 71
     3
 72
    -2
 73
     6
  0
VERTEX
  5
74A
  8
0
 10
0.0
 20
0.0
 30
0.0
 70
   128
 71
     7
 72
     1
 73
    -4
  0
VERTEX
  5
74B
  8
0
 10
0.0
 20
0.0
 30
0.0
 70
   128
 71
     8
 72
    -7
 73
     4
  0
SEQEND
  5
A16
  8
0
  0
POLYLINE
  5
74C
  8
0
 66
     1
 10
0.0
 20
0.0
 30
0.0
 70
    64
 71
    12
 72
    10
  0
VERTEX
  5
74D
  8
0
 10
78.5472972972973
 20
31.0472972972972
 30
-20.66987298107781
 70
   192
  0
VERTEX
  5
74E
  8
0
 10
78.5472972972973
 20
29.21717027837501
 30
-22.5
 70
   192
  0
VERTEX
  5
74F
  8
0
 10
31.0472972972973
 20
78.5472972972974
 30
-20.66987298107781
 70
   192
  0
VERTEX
  5
750
  8
0
 10
29.21717027837511
 20
78.5472972972974
 30
-22.5
 70
   192
  0
VERTEX
  5
751
  8
0
 10
78.5472972972973
 20
28.5472972972972
 30
-25.0
 70
   192
  0
VERTEX
  5
752
  8
0
 10
53.54729729729728
 20
35.24602710807548
 30
-25.0
 70
   192
  0
VERTEX
  5
753
  8
0
 10
35.24602710807537
 20
53.54729729729742
 30
-25.0
 70
   192
  0
VERTEX
  5
754
  8
0
 10
28.54729729729731
 20
78.5472972972974
 30
-25.0
 70
   192
  0
VERTEX
  5
755
  8
0
 10
78.5472972972973
 20
33.5472972972972
 30
-20.0
 70
   192
  0
VERTEX
  5
756
  8
0
 10
56.04729729729732
 20
39.57615412699766
 30
-20.0
 70
   192
  0
VERTEX
  5
757
  8
0
 10
33.5472972972973
 20
78.5472972972974
 30
-20.0
 70
   192
  0
VERTEX
  5
758
  8
0
 10
39.57615412699757
 20
56.04729729729739
 30
-20.0
 70
   192
  0
VERTEX
  5
759
  8
0
 10
0.0
 20
0.0
 30
0.0
 70
   128
 71
     1
 72
    -2
 73
     3
  0
VERTEX
  5
75A
  8
0
 10
0.0
 20
0.0
 30
0.0
 70
   128
 71
    -3
 72
     2
 73
     4
  0
VERTEX
  5
75B
  8
0
 10
0.0
 20
0.0
 30
0.0
 70
   128
 71
     2
 72
     5
 73
     6
  0
VERTEX
  5
75C
  8
0
 10
0.0
 20
0.0
 30
0.0
 70
   128
 71
     6
 72
     7
 73
     2
  0
VERTEX
  5
75D
  8
0
 10
0.0
 20
0.0
 30
0.0
 70
   128
 71
     2
 72
     7
 73
     8
  0
VERTEX
  5
75E
  8
0
 10
0.0
 20
0.0
 30
0.0
 70
   128
 71
     4
 72
     2
 73
     8
  0
VERTEX
  5
75F
  8
0
 10
0.0
 20
0.0
 30
0.0
 70
   128
 71
     9
 72
     1
 73
    10
  0
VERTEX
  5
760
  8
0
 10
0.0
 20
0.0
 30
0.0
 70
   128
 71
     3
 72
    11
 73
    12
  0
VERTEX
  5
761
  8
0
 10
0.0
 20
0.0
 30
0.0
 70
   128
 71
    10
 72
     1
 73
    -3
  0
VERTEX
  5
762
  8
0
 10
0.0
 20
0.0
 30
0.0
 70
   128
 71
    12
 72
   -10
 73
     3
  0
SEQEND
  5
A17
  8
0
  0
POLYLINE
  5
763
  8
0
 66
     1
 10
0.0
 20
0.0
 30
0.0
 70
    64
 71
     8
 72
     6
  0
VERTEX
  5
764
  8
0
 10
31.0472972972973
 20
78.5472972972974
 30
-20.66987298107781
 70
   192
  0
VERTEX
  5
765
  8
0
 10
29.21717027837511
 20
78.5472972972974
 30
-22.5
 70
   192
  0
VERTEX
  5
766
  8
0
 10
29.2171702783748
 20
707.547297297298
 30
-22.5
 70
   192
  0
VERTEX
  5
767
  8
0
 10
31.04729729729699
 20
707.547297297298
 30
-20.66987298107781
 70
   192
  0
VERTEX
  5
768
  8
0
 10
28.5472972972973
 20
78.5472972972974
 30
-25.0
 70
   192
  0
VERTEX
  5
769
  8
0
 10
28.54729729729705
 20
707.547297297298
 30
-25.0
 70
   192
  0
VERTEX
  5
76A
  8
0
 10
33.5472972972973
 20
78.5472972972974
 30
-20.0
 70
   192
  0
VERTEX
  5
76B
  8
0
 10
33.54729729729699
 20
707.547297297298
 30
-20.0
 70
   192
  0
VERTEX
  5
76C
  8
0
 10
0.0
 20
0.0
 30
0.0
 70
   128
 71
     1
 72
     2
 73
    -3
  0
VERTEX
  5
76D
  8
0
 10
0.0
 20
0.0
 30
0.0
 70
   128
 71
     4
 72
    -1
 73
     3
  0
VERTEX
  5
76E
  8
0
 10
0.0
 20
0.0
 30
0.0
 70
   128
 71
     2
 72
     5
 73
    -6
  0
VERTEX
  5
76F
  8
0
 10
0.0
 20
0.0
 30
0.0
 70
   128
 71
     3
 72
    -2
 73
     6
  0
VERTEX
  5
770
  8
0
 10
0.0
 20
0.0
 30
0.0
 70
   128
 71
     7
 72
     1
 73
    -4
  0
VERTEX
  5
771
  8
0
 10
0.0
 20
0.0
 30
0.0
 70
   128
 71
     8
 72
    -7
 73
     4
  0
SEQEND
  5
A18
  8
0
  0
POLYLINE
  5
772
  8
0
 66
     1
 10
0.0
 20
0.0
 30
0.0
 70
    64
 71
    12
 72
    10
  0
VERTEX
  5
773
  8
0
 10
31.04729729729699
 20
707.547297297298
 30
-20.66987298107781
 70
   192
  0
VERTEX
  5
774
  8
0
 10
29.2171702783748
 20
707.547297297298
 30
-22.5
 70
   192
  0
VERTEX
  5
775
  8
0
 10
78.5472972972971
 20
755.047297297298
 30
-20.66987298107781
 70
   192
  0
VERTEX
  5
776
  8
0
 10
78.5472972972971
 20
756.8774243162202
 30
-22.5
 70
   192
  0
VERTEX
  5
777
  8
0
 10
28.54729729729699
 20
707.547297297298
 30
-25.0
 70
   192
  0
VERTEX
  5
778
  8
0
 10
35.24602710807508
 20
732.547297297298
 30
-25.0
 70
   192
  0
VERTEX
  5
779
  8
0
 10
53.54729729729706
 20
750.84856748652
 30
-25.0
 70
   192
  0
VERTEX
  5
77A
  8
0
 10
78.5472972972971
 20
757.547297297298
 30
-25.0
 70
   192
  0
VERTEX
  5
77B
  8
0
 10
33.54729729729699
 20
707.547297297298
 30
-20.0
 70
   192
  0
VERTEX
  5
77C
  8
0
 10
39.57615412699728
 20
730.047297297298
 30
-20.0
 70
   192
  0
VERTEX
  5
77D
  8
0
 10
78.5472972972971
 20
752.547297297298
 30
-20.0
 70
   192
  0
VERTEX
  5
77E
  8
0
 10
56.04729729729705
 20
746.5184404675978
 30
-20.0
 70
   192
  0
VERTEX
  5
77F
  8
0
 10
0.0
 20
0.0
 30
0.0
 70
   128
 71
     1
 72
    -2
 73
     3
  0
VERTEX
  5
780
  8
0
 10
0.0
 20
0.0
 30
0.0
 70
   128
 71
    -3
 72
     2
 73
     4
  0
VERTEX
  5
781
  8
0
 10
0.0
 20
0.0
 30
0.0
 70
   128
 71
     2
 72
     5
 73
     6
  0
VERTEX
  5
782
  8
0
 10
0.0
 20
0.0
 30
0.0
 70
   128
 71
     6
 72
     7
 73
     2
  0
VERTEX
  5
783
  8
0
 10
0.0
 20
0.0
 30
0.0
 70
   128
 71
     2
 72
     7
 73
     8
  0
VERTEX
  5
784
  8
0
 10
0.0
 20
0.0
 30
0.0
 70
   128
 71
     4
 72
     2
 73
     8
  0
VERTEX
  5
785
  8
0
 10
0.0
 20
0.0
 30
0.0
 70
   128
 71
     9
 72
     1
 73
    10
  0
VERTEX
  5
786
  8
0
 10
0.0
 20
0.0
 30
0.0
 70
   128
 71
     3
 72
    11
 73
    12
  0
VERTEX
  5
787
  8
0
 10
0.0
 20
0.0
 30
0.0
 70
   128
 71
    10
 72
     1
 73
    -3
  0
VERTEX
  5
788
  8
0
 10
0.0
 20
0.0
 30
0.0
 70
   128
 71
    12
 72
   -10
 73
     3
  0
SEQEND
  5
A19
  8
0
  0
POLYLINE
  5
789
  8
0
 66
     1
 10
0.0
 20
0.0
 30
0.0
 70
    64
 71
     8
 72
     6
  0
VERTEX
  5
78A
  8
0
 10
78.5472972972971
 20
755.047297297298
 30
-20.66987298107781
 70
   192
  0
VERTEX
  5
78B
  8
0
 10
78.5472972972971
 20
756.8774243162202
 30
-22.5
 70
   192
  0
VERTEX
  5
78C
  8
0
 10
108.528530873446
 20
756.8774243162202
 30
-22.5
 70
   192
  0
VERTEX
  5
78D
  8
0
 10
108.528530873446
 20
755.047297297298
 30
-20.6698729810778
 70
   192
  0
VERTEX
  5
78E
  8
0
 10
78.5472972972971
 20
757.547297297298
 30
-25.0
 70
   192
  0
VERTEX
  5
78F
  8
0
 10
108.528530873446
 20
757.547297297298
 30
-25.0
 70
   192
  0
VERTEX
  5
790
  8
0
 10
78.54729729729709
 20
752.547297297298
 30
-20.0
 70
   192
  0
VERTEX
  5
791
  8
0
 10
108.528530873446
 20
752.547297297298
 30
-20.0
 70
   192
  0
VERTEX
  5
792
  8
0
 10
0.0
 20
0.0
 30
0.0
 70
   128
 71
     1
 72
     2
 73
    -3
  0
VERTEX
  5
793
  8
0
 10
0.0
 20
0.0
 30
0.0
 70
   128
 71
     4
 72
    -1
 73
     3
  0
VERTEX
  5
794
  8
0
 10
0.0
 20
0.0
 30
0.0
 70
   128
 71
     2
 72
     5
 73
    -6
  0
VERTEX
  5
795
  8
0
 10
0.0
 20
0.0
 30
0.0
 70
   128
 71
     3
 72
    -2
 73
     6
  0
VERTEX
  5
796
  8
0
 10
0.0
 20
0.0
 30
0.0
 70
   128
 71
     7
 72
     1
 73
    -4
  0
VERTEX
  5
797
  8
0
 10
0.0
 20
0.0
 30
0.0
 70
   128
 71
     8
 72
    -7
 73
     4
  0
SEQEND
  5
A1A
  8
0
  0
POLYLINE
  5
798
  8
0
 66
     1
 10
0.0
 20
0.0
 30
0.0
 70
    64
 71
     9
 72
     7
  0
VERTEX
  5
799
  8
0
 10
108.528530873446
 20
752.547297297298
 30
-20.0
 70
   192
  0
VERTEX
  5
79A
  8
0
 10
108.528530873446
 20
755.047297297298
 30
-20.6698729810778
 70
   192
  0
VERTEX
  5
79B
  8
0
 10
108.528530873446
 20
756.8774243162202
 30
-22.5
 70
   192
  0
VERTEX
  5
79C
  8
0
 10
112.8548012272591
 20
754.3018649964549
 30
-23.20978296991878
 70
   192
  0
VERTEX
  5
79D
  8
0
 10
113.0077293869642
 20
751.3220126760842
 30
-23.14650107269704
 70
   192
  0
VERTEX
  5
79E
  8
0
 10
111.9680572240542
 20
751.6064149655726
 30
-21.49508931336065
 70
   192
  0
VERTEX
  5
79F
  8
0
 10
110.3933373407113
 20
752.0371795431988
 30
-20.38889636674707
 70
   192
  0
VERTEX
  5
7A0
  8
0
 10
111.1605247857804
 20
756.6566061501213
 30
-23.9108770512277
 70
   192
  0
VERTEX
  5
7A1
  8
0
 10
108.528530873446
 20
757.547297297298
 30
-25.0
 70
   192
  0
VERTEX
  5
7A2
  8
0
 10
0.0
 20
0.0
 30
0.0
 70
   128
 71
     1
 72
     2
 73
     3
  0
VERTEX
  5
7A3
  8
0
 10
0.0
 20
0.0
 30
0.0
 70
   128
 71
     4
 72
     5
 73
     6
  0
VERTEX
  5
7A4
  8
0
 10
0.0
 20
0.0
 30
0.0
 70
   128
 71
     7
 72
     1
 73
     4
  0
VERTEX
  5
7A5
  8
0
 10
0.0
 20
0.0
 30
0.0
 70
   128
 71
     6
 72
     7
 73
     4
  0
VERTEX
  5
7A6
  8
0
 10
0.0
 20
0.0
 30
0.0
 70
   128
 71
     1
 72
     8
 73
     4
  0
VERTEX
  5
7A7
  8
0
 10
0.0
 20
0.0
 30
0.0
 70
   128
 71
     3
 72
     9
 73
     8
  0
VERTEX
  5
7A8
  8
0
 10
0.0
 20
0.0
 30
0.0
 70
   128
 71
     1
 72
     3
 73
     8
  0
SEQEND
  5
A1B
  8
0
  0
POLYLINE
  5
7A9
  8
0
 66
     1
 10
0.0
 20
0.0
 30
0.0
 70
    64
 71
    12
 72
    10
  0
VERTEX
  5
7AA
  8
0
 10
113.0077293869642
 20
751.322012676084
 30
-23.14650107269715
 70
   192
  0
VERTEX
  5
7AB
  8
0
 10
112.8548012272591
 20
754.3018649964549
 30
-23.20978296991878
 70
   192
  0
VERTEX
  5
7AC
  8
0
 10
111.1605247857804
 20
756.6566061501213
 30
-23.9108770512277
 70
   192
  0
VERTEX
  5
7AD
  8
0
 10
108.528530873446
 20
757.547297297298
 30
-25.0
 70
   192
  0
VERTEX
  5
7AE
  8
0
 10
111.5446405519756
 20
757.5472972972979
 30
-31.99143721947341
 70
   192
  0
VERTEX
  5
7AF
  8
0
 10
114.6846689026758
 20
757.5472972972979
 30
-38.68764423194947
 70
   192
  0
VERTEX
  5
7B0
  8
0
 10
117.907059180142
 20
757.547297297298
 30
-45.0
 70
   192
  0
VERTEX
  5
7B1
  8
0
 10
121.4466933420929
 20
756.4573778657367
 30
-44.99999999999999
 70
   192
  0
VERTEX
  5
7B2
  8
0
 10
123.497123634771
 20
753.4892199940059
 30
-45.0
 70
   192
  0
VERTEX
  5
7B3
  8
0
 10
122.76907392776
 20
749.955466021102
 30
-45.0
 70
   192
  0
VERTEX
  5
7B4
  8
0
 10
119.4979790772861
 20
750.3818236239576
 30
-38.25508260239776
 70
   192
  0
VERTEX
  5
7B5
  8
0
 10
116.2590151629043
 20
750.8347392740677
 30
-31.0154845401722
 70
   192
  0
VERTEX
  5
7B6
  8
0
 10
0.0
 20
0.0
 30
0.0
 70
   128
 71
     6
 72
     7
 73
     8
  0
VERTEX
  5
7B7
  8
0
 10
0.0
 20
0.0
 30
0.0
 70
   128
 71
    10
 72
    11
 73
     6
  0
VERTEX
  5
7B8
  8
0
 10
0.0
 20
0.0
 30
0.0
 70
   128
 71
     9
 72
    10
 73
     6
  0
VERTEX
  5
7B9
  8
0
 10
0.0
 20
0.0
 30
0.0
 70
   128
 71
     8
 72
     9
 73
     6
  0
VERTEX
  5
7BA
  8
0
 10
0.0
 20
0.0
 30
0.0
 70
   128
 71
    12
 72
     5
 73
     6
  0
VERTEX
  5
7BB
  8
0
 10
0.0
 20
0.0
 30
0.0
 70
   128
 71
    11
 72
    12
 73
     6
  0
VERTEX
  5
7BC
  8
0
 10
0.0
 20
0.0
 30
0.0
 70
   128
 71
    12
 72
     1
 73
     2
  0
VERTEX
  5
7BD
  8
0
 10
0.0
 20
0.0
 30
0.0
 70
   128
 71
     3
 72
     5
 73
    12
  0
VERTEX
  5
7BE
  8
0
 10
0.0
 20
0.0
 30
0.0
 70
   128
 71
     2
 72
     3
 73
    12
  0
VERTEX
  5
7BF
  8
0
 10
0.0
 20
0.0
 30
0.0
 70
   128
 71
     3
 72
     4
 73
     5
  0
SEQEND
  5
A1C
  8
0
  0
POLYLINE
  5
7C0
  8
0
 66
     1
 10
0.0
 20
0.0
 30
0.0
 70
    64
 71
    10
 72
     8
  0
VERTEX
  5
7C1
  8
0
 10
86.04729729729719
 20
393.0472972972971
 30
-20.0
 70
   192
  0
VERTEX
  5
7C2
  8
0
 10
51.04729729729719
 20
393.0472972972971
 30
-20.0
 70
   192
  0
VERTEX
  5
7C3
  8
0
 10
51.04729729729719
 20
393.0472972972971
 30
-10.0
 70
   192
  0
VERTEX
  5
7C4
  8
0
 10
86.04729729729719
 20
393.0472972972971
 30
-10.0
 70
   192
  0
VERTEX
  5
7C5
  8
0
 10
68.54729729729719
 20
410.5472972972971
 30
-10.0
 70
   192
  0
VERTEX
  5
7C6
  8
0
 10
68.54729729729719
 20
410.5472972972971
 30
-20.0
 70
   192
  0
VERTEX
  5
7C7
  8
0
 10
80.92166596806177
 20
405.4216659680616
 30
-10.0
 70
   192
  0
VERTEX
  5
7C8
  8
0
 10
80.92166596806177
 20
405.4216659680616
 30
-20.0
 70
   192
  0
VERTEX
  5
7C9
  8
0
 10
56.17292862653261
 20
405.4216659680616
 30
-10.0
 70
   192
  0
VERTEX
  5
7CA
  8
0
 10
56.17292862653261
 20
405.4216659680616
 30
-20.0
 70
   192
  0
VERTEX
  5
7CB
  8
0
 10
0.0
 20
0.0
 30
0.0
 70
   128
 71
     8
 72
     1
 73
    -4
  0
VERTEX
  5
7CC
  8
0
 10
0.0
 20
0.0
 30
0.0
 70
   128
 71
     7
 72
    -8
 73
     4
  0
VERTEX
  5
7CD
  8
0
 10
0.0
 20
0.0
 30
0.0
 70
   128
 71
     6
 72
     8
 73
    -7
  0
VERTEX
  5
7CE
  8
0
 10
0.0
 20
0.0
 30
0.0
 70
   128
 71
     5
 72
    -6
 73
     7
  0
VERTEX
  5
7CF
  8
0
 10
0.0
 20
0.0
 30
0.0
 70
   128
 71
    10
 72
     6
 73
    -5
  0
VERTEX
  5
7D0
  8
0
 10
0.0
 20
0.0
 30
0.0
 70
   128
 71
     9
 72
   -10
 73
     5
  0
VERTEX
  5
7D1
  8
0
 10
0.0
 20
0.0
 30
0.0
 70
   128
 71
     3
 72
     2
 73
   -10
  0
VERTEX
  5
7D2
  8
0
 10
0.0
 20
0.0
 30
0.0
 70
   128
 71
     9
 72
    -3
 73
    10
  0
SEQEND
  5
A1D
  8
0
  0
POLYLINE
  5
7D3
  8
0
 66
     1
 10
0.0
 20
0.0
 30
0.0
 70
    64
 71
    12
 72
    10
  0
VERTEX
  5
7D4
  8
0
 10
78.5472972972973
 20
18.8152464897285
 30
-1.000000000000027
 70
   192
  0
VERTEX
  5
7D5
  8
0
 10
19.5472972972973
 20
78.5472972972974
 30
-0.2679491924311233
 70
   192
  0
VERTEX
  5
7D6
  8
0
 10
18.81524648972842
 20
78.5472972972974
 30
-0.9999999999999998
 70
   192
  0
VERTEX
  5
7D7
  8
0
 10
78.5472972972973
 20
19.54729729729734
 30
-0.2679491924311543
 70
   192
  0
VERTEX
  5
7D8
  8
0
 10
28.31782387779986
 20
49.5472972972974
 30
0.0
 70
   192
  0
VERTEX
  5
7D9
  8
0
 10
20.54729729729731
 20
78.5472972972974
 30
0.0
 70
   192
  0
VERTEX
  5
7DA
  8
0
 10
49.5472972972973
 20
28.31782387779997
 30
0.0
 70
   192
  0
VERTEX
  5
7DB
  8
0
 10
78.5472972972973
 20
20.5472972972973
 30
0.0
 70
   192
  0
VERTEX
  5
7DC
  8
0
 10
26.585773070231
 20
48.54729729729738
 30
-2.0
 70
   192
  0
VERTEX
  5
7DD
  8
0
 10
18.5472972972973
 20
78.5472972972974
 30
-2.0
 70
   192
  0
VERTEX
  5
7DE
  8
0
 10
48.5472972972973
 20
26.58577307023109
 30
-2.0
 70
   192
  0
VERTEX
  5
7DF
  8
0
 10
78.54729729729732
 20
18.5472972972974
 30
-2.0
 70
   192
  0
VERTEX
  5
7E0
  8
0
 10
0.0
 20
0.0
 30
0.0
 70
   128
 71
    -1
 72
     2
 73
     3
  0
VERTEX
  5
7E1
  8
0
 10
0.0
 20
0.0
 30
0.0
 70
   128
 71
     4
 72
    -2
 73
     1
  0
VERTEX
  5
7E2
  8
0
 10
0.0
 20
0.0
 30
0.0
 70
   128
 71
     5
 72
     6
 73
     2
  0
VERTEX
  5
7E3
  8
0
 10
0.0
 20
0.0
 30
0.0
 70
   128
 71
     2
 72
     7
 73
     5
  0
VERTEX
  5
7E4
  8
0
 10
0.0
 20
0.0
 30
0.0
 70
   128
 71
     8
 72
     7
 73
     2
  0
VERTEX
  5
7E5
  8
0
 10
0.0
 20
0.0
 30
0.0
 70
   128
 71
     8
 72
     2
 73
     4
  0
VERTEX
  5
7E6
  8
0
 10
0.0
 20
0.0
 30
0.0
 70
   128
 71
     9
 72
     3
 73
    10
  0
VERTEX
  5
7E7
  8
0
 10
0.0
 20
0.0
 30
0.0
 70
   128
 71
    11
 72
    12
 73
     1
  0
VERTEX
  5
7E8
  8
0
 10
0.0
 20
0.0
 30
0.0
 70
   128
 71
     1
 72
     3
 73
    -9
  0
VERTEX
  5
7E9
  8
0
 10
0.0
 20
0.0
 30
0.0
 70
   128
 71
    -1
 72
     9
 73
    11
  0
SEQEND
  5
A1E
  8
0
  0
POLYLINE
  5
7EA
  8
0
 66
     1
 10
0.0
 20
0.0
 30
0.0
 70
    64
 71
     8
 72
     6
  0
VERTEX
  5
7EB
  8
0
 10
18.81524648972812
 20
707.547297297298
 30
-0.9999999999999998
 70
   192
  0
VERTEX
  5
7EC
  8
0
 10
18.81524648972842
 20
78.5472972972974
 30
-0.9999999999999998
 70
   192
  0
VERTEX
  5
7ED
  8
0
 10
19.5472972972973
 20
78.5472972972974
 30
-0.2679491924311233
 70
   192
  0
VERTEX
  5
7EE
  8
0
 10
19.547297297297
 20
707.547297297298
 30
-0.2679491924311233
 70
   192
  0
VERTEX
  5
7EF
  8
0
 10
18.547297297297
 20
707.547297297298
 30
-2.0
 70
   192
  0
VERTEX
  5
7F0
  8
0
 10
18.5472972972973
 20
78.5472972972974
 30
-2.0
 70
   192
  0
VERTEX
  5
7F1
  8
0
 10
20.5472972972973
 20
78.5472972972974
 30
0.0
 70
   192
  0
VERTEX
  5
7F2
  8
0
 10
20.54729729729702
 20
707.547297297298
 30
0.0
 70
   192
  0
VERTEX
  5
7F3
  8
0
 10
0.0
 20
0.0
 30
0.0
 70
   128
 71
     1
 72
     2
 73
    -3
  0
VERTEX
  5
7F4
  8
0
 10
0.0
 20
0.0
 30
0.0
 70
   128
 71
    -1
 72
     3
 73
     4
  0
VERTEX
  5
7F5
  8
0
 10
0.0
 20
0.0
 30
0.0
 70
   128
 71
     5
 72
     6
 73
    -2
  0
VERTEX
  5
7F6
  8
0
 10
0.0
 20
0.0
 30
0.0
 70
   128
 71
    -5
 72
     2
 73
     1
  0
VERTEX
  5
7F7
  8
0
 10
0.0
 20
0.0
 30
0.0
 70
   128
 71
     4
 72
     3
 73
    -7
  0
VERTEX
  5
7F8
  8
0
 10
0.0
 20
0.0
 30
0.0
 70
   128
 71
    -4
 72
     7
 73
     8
  0
SEQEND
  5
A1F
  8
0
  0
POLYLINE
  5
7F9
  8
0
 66
     1
 10
0.0
 20
0.0
 30
0.0
 70
    64
 71
     8
 72
     6
  0
VERTEX
  5
7FA
  8
0
 10
78.5472972972973
 20
18.8152464897285
 30
-1.000000000000027
 70
   192
  0
VERTEX
  5
7FB
  8
0
 10
347.547297297297
 20
18.81524648972862
 30
-0.9999999999999991
 70
   192
  0
VERTEX
  5
7FC
  8
0
 10
347.547297297297
 20
19.5472972972975
 30
-0.2679491924311224
 70
   192
  0
VERTEX
  5
7FD
  8
0
 10
78.5472972972973
 20
19.54729729729734
 30
-0.2679491924311543
 70
   192
  0
VERTEX
  5
7FE
  8
0
 10
78.5472972972973
 20
18.5472972972974
 30
-2.0
 70
   192
  0
VERTEX
  5
7FF
  8
0
 10
347.547297297297
 20
18.5472972972975
 30
-2.0
 70
   192
  0
VERTEX
  5
800
  8
0
 10
347.547297297297
 20
20.5472972972975
 30
0.0
 70
   192
  0
VERTEX
  5
801
  8
0
 10
78.5472972972973
 20
20.54729729729734
 30
0.0
 70
   192
  0
VERTEX
  5
802
  8
0
 10
0.0
 20
0.0
 30
0.0
 70
   128
 71
     1
 72
     2
 73
    -3
  0
VERTEX
  5
803
  8
0
 10
0.0
 20
0.0
 30
0.0
 70
   128
 71
    -1
 72
     3
 73
     4
  0
VERTEX
  5
804
  8
0
 10
0.0
 20
0.0
 30
0.0
 70
   128
 71
     5
 72
     6
 73
    -2
  0
VERTEX
  5
805
  8
0
 10
0.0
 20
0.0
 30
0.0
 70
   128
 71
    -5
 72
     2
 73
     1
  0
VERTEX
  5
806
  8
0
 10
0.0
 20
0.0
 30
0.0
 70
   128
 71
     4
 72
     3
 73
    -7
  0
VERTEX
  5
807
  8
0
 10
0.0
 20
0.0
 30
0.0
 70
   128
 71
    -4
 72
     7
 73
     8
  0
SEQEND
  5
A20
  8
0
  0
POLYLINE
  5
808
  8
0
 66
     1
 10
0.0
 20
0.0
 30
0.0
 70
    64
 71
    12
 72
    10
  0
VERTEX
  5
809
  8
0
 10
18.81524648972812
 20
707.547297297298
 30
-0.9999999999999998
 70
   192
  0
VERTEX
  5
80A
  8
0
 10
78.5472972972971
 20
766.5472972972975
 30
-0.2679491924314641
 70
   192
  0
VERTEX
  5
80B
  8
0
 10
78.5472972972971
 20
767.279348104866
 30
-1.000000000000296
 70
   192
  0
VERTEX
  5
80C
  8
0
 10
19.547297297297
 20
707.547297297298
 30
-0.2679491924311233
 70
   192
  0
VERTEX
  5
80D
  8
0
 10
49.54729729729708
 20
757.7767707167955
 30
0.0
 70
   192
  0
VERTEX
  5
80E
  8
0
 10
78.54729729729712
 20
765.547297297298
 30
0.0
 70
   192
  0
VERTEX
  5
80F
  8
0
 10
28.31782387779958
 20
736.547297297298
 30
0.0
 70
   192
  0
VERTEX
  5
810
  8
0
 10
20.547297297297
 20
707.547297297298
 30
0.0
 70
   192
  0
VERTEX
  5
811
  8
0
 10
48.54729729729706
 20
759.5088215243643
 30
-2.0
 70
   192
  0
VERTEX
  5
812
  8
0
 10
78.5472972972971
 20
767.547297297297
 30
-2.0
 70
   192
  0
VERTEX
  5
813
  8
0
 10
26.5857730702307
 20
737.547297297298
 30
-2.0
 70
   192
  0
VERTEX
  5
814
  8
0
 10
18.54729729729701
 20
707.547297297298
 30
-2.0
 70
   192
  0
VERTEX
  5
815
  8
0
 10
0.0
 20
0.0
 30
0.0
 70
   128
 71
    -1
 72
     2
 73
     3
  0
VERTEX
  5
816
  8
0
 10
0.0
 20
0.0
 30
0.0
 70
   128
 71
     4
 72
    -2
 73
     1
  0
VERTEX
  5
817
  8
0
 10
0.0
 20
0.0
 30
0.0
 70
   128
 71
     5
 72
     6
 73
     2
  0
VERTEX
  5
818
  8
0
 10
0.0
 20
0.0
 30
0.0
 70
   128
 71
     2
 72
     7
 73
     5
  0
VERTEX
  5
819
  8
0
 10
0.0
 20
0.0
 30
0.0
 70
   128
 71
     8
 72
     7
 73
     2
  0
VERTEX
  5
81A
  8
0
 10
0.0
 20
0.0
 30
0.0
 70
   128
 71
     8
 72
     2
 73
     4
  0
VERTEX
  5
81B
  8
0
 10
0.0
 20
0.0
 30
0.0
 70
   128
 71
     9
 72
     3
 73
    10
  0
VERTEX
  5
81C
  8
0
 10
0.0
 20
0.0
 30
0.0
 70
   128
 71
    11
 72
    12
 73
     1
  0
VERTEX
  5
81D
  8
0
 10
0.0
 20
0.0
 30
0.0
 70
   128
 71
     1
 72
     3
 73
    -9
  0
VERTEX
  5
81E
  8
0
 10
0.0
 20
0.0
 30
0.0
 70
   128
 71
    -1
 72
     9
 73
    11
  0
SEQEND
  5
A21
  8
0
  0
POLYLINE
  5
81F
  8
0
 66
     1
 10
0.0
 20
0.0
 30
0.0
 70
    64
 71
    12
 72
    10
  0
VERTEX
  5
820
  8
0
 10
407.2793481048659
 20
78.5472972972975
 30
-0.9999999999999998
 70
   192
  0
VERTEX
  5
821
  8
0
 10
347.547297297297
 20
19.5472972972975
 30
-0.2679491924311224
 70
   192
  0
VERTEX
  5
822
  8
0
 10
347.547297297297
 20
18.81524648972862
 30
-0.9999999999999991
 70
   192
  0
VERTEX
  5
823
  8
0
 10
406.547297297297
 20
78.5472972972975
 30
-0.2679491924311226
 70
   192
  0
VERTEX
  5
824
  8
0
 10
376.547297297297
 20
28.31782387780007
 30
0.0
 70
   192
  0
VERTEX
  5
825
  8
0
 10
347.547297297297
 20
20.54729729729751
 30
0.0
 70
   192
  0
VERTEX
  5
826
  8
0
 10
397.7767707167944
 20
49.54729729729749
 30
0.0
 70
   192
  0
VERTEX
  5
827
  8
0
 10
405.547297297297
 20
78.5472972972975
 30
0.0
 70
   192
  0
VERTEX
  5
828
  8
0
 10
377.5472972972971
 20
26.5857730702312
 30
-2.0
 70
   192
  0
VERTEX
  5
829
  8
0
 10
347.547297297297
 20
18.5472972972975
 30
-2.0
 70
   192
  0
VERTEX
  5
82A
  8
0
 10
399.5088215243633
 20
48.54729729729752
 30
-2.0
 70
   192
  0
VERTEX
  5
82B
  8
0
 10
407.547297297297
 20
78.54729729729752
 30
-2.0
 70
   192
  0
VERTEX
  5
82C
  8
0
 10
0.0
 20
0.0
 30
0.0
 70
   128
 71
    -1
 72
     2
 73
     3
  0
VERTEX
  5
82D
  8
0
 10
0.0
 20
0.0
 30
0.0
 70
   128
 71
     4
 72
    -2
 73
     1
  0
VERTEX
  5
82E
  8
0
 10
0.0
 20
0.0
 30
0.0
 70
   128
 71
     5
 72
     6
 73
     2
  0
VERTEX
  5
82F
  8
0
 10
0.0
 20
0.0
 30
0.0
 70
   128
 71
     2
 72
     7
 73
     5
  0
VERTEX
  5
830
  8
0
 10
0.0
 20
0.0
 30
0.0
 70
   128
 71
     8
 72
     7
 73
     2
  0
VERTEX
  5
831
  8
0
 10
0.0
 20
0.0
 30
0.0
 70
   128
 71
     8
 72
     2
 73
     4
  0
VERTEX
  5
832
  8
0
 10
0.0
 20
0.0
 30
0.0
 70
   128
 71
     9
 72
     3
 73
    10
  0
VERTEX
  5
833
  8
0
 10
0.0
 20
0.0
 30
0.0
 70
   128
 71
    11
 72
    12
 73
     1
  0
VERTEX
  5
834
  8
0
 10
0.0
 20
0.0
 30
0.0
 70
   128
 71
     1
 72
     3
 73
    -9
  0
VERTEX
  5
835
  8
0
 10
0.0
 20
0.0
 30
0.0
 70
   128
 71
    -1
 72
     9
 73
    11
  0
SEQEND
  5
A22
  8
0
  0
POLYLINE
  5
836
  8
0
 66
     1
 10
0.0
 20
0.0
 30
0.0
 70
    64
 71
     8
 72
     6
  0
VERTEX
  5
837
  8
0
 10
347.547297297297
 20
767.2793481048668
 30
-1.0
 70
   192
  0
VERTEX
  5
838
  8
0
 10
78.5472972972971
 20
767.279348104866
 30
-1.000000000000296
 70
   192
  0
VERTEX
  5
839
  8
0
 10
78.5472972972971
 20
766.5472972972975
 30
-0.2679491924314641
 70
   192
  0
VERTEX
  5
83A
  8
0
 10
347.547297297297
 20
766.547297297298
 30
-0.267949192431123
 70
   192
  0
VERTEX
  5
83B
  8
0
 10
347.547297297297
 20
767.547297297298
 30
-2.0
 70
   192
  0
VERTEX
  5
83C
  8
0
 10
78.5472972972971
 20
767.547297297298
 30
-2.0
 70
   192
  0
VERTEX
  5
83D
  8
0
 10
78.5472972972971
 20
765.547297297298
 30
0.0
 70
   192
  0
VERTEX
  5
83E
  8
0
 10
347.547297297297
 20
765.547297297298
 30
0.0
 70
   192
  0
VERTEX
  5
83F
  8
0
 10
0.0
 20
0.0
 30
0.0
 70
   128
 71
     1
 72
     2
 73
    -3
  0
VERTEX
  5
840
  8
0
 10
0.0
 20
0.0
 30
0.0
 70
   128
 71
    -1
 72
     3
 73
     4
  0
VERTEX
  5
841
  8
0
 10
0.0
 20
0.0
 30
0.0
 70
   128
 71
     5
 72
     6
 73
    -2
  0
VERTEX
  5
842
  8
0
 10
0.0
 20
0.0
 30
0.0
 70
   128
 71
    -5
 72
     2
 73
     1
  0
VERTEX
  5
843
  8
0
 10
0.0
 20
0.0
 30
0.0
 70
   128
 71
     4
 72
     3
 73
    -7
  0
VERTEX
  5
844
  8
0
 10
0.0
 20
0.0
 30
0.0
 70
   128
 71
    -4
 72
     7
 73
     8
  0
SEQEND
  5
A23
  8
0
  0
POLYLINE
  5
845
  8
0
 66
     1
 10
0.0
 20
0.0
 30
0.0
 70
    64
 71
     8
 72
     6
  0
VERTEX
  5
846
  8
0
 10
407.2793481048659
 20
78.5472972972975
 30
-0.9999999999999998
 70
   192
  0
VERTEX
  5
847
  8
0
 10
407.2793481048659
 20
707.547297297298
 30
-0.9999999999999998
 70
   192
  0
VERTEX
  5
848
  8
0
 10
406.547297297297
 20
707.547297297298
 30
-0.2679491924311226
 70
   192
  0
VERTEX
  5
849
  8
0
 10
406.547297297297
 20
78.5472972972975
 30
-0.2679491924311226
 70
   192
  0
VERTEX
  5
84A
  8
0
 10
407.547297297297
 20
78.5472972972975
 30
-2.0
 70
   192
  0
VERTEX
  5
84B
  8
0
 10
407.547297297297
 20
707.547297297298
 30
-2.0
 70
   192
  0
VERTEX
  5
84C
  8
0
 10
405.547297297297
 20
707.547297297298
 30
0.0
 70
   192
  0
VERTEX
  5
84D
  8
0
 10
405.547297297297
 20
78.5472972972975
 30
0.0
 70
   192
  0
VERTEX
  5
84E
  8
0
 10
0.0
 20
0.0
 30
0.0
 70
   128
 71
     1
 72
     2
 73
    -3
  0
VERTEX
  5
84F
  8
0
 10
0.0
 20
0.0
 30
0.0
 70
   128
 71
    -1
 72
     3
 73
     4
  0
VERTEX
  5
850
  8
0
 10
0.0
 20
0.0
 30
0.0
 70
   128
 71
     5
 72
     6
 73
    -2
  0
VERTEX
  5
851
  8
0
 10
0.0
 20
0.0
 30
0.0
 70
   128
 71
    -5
 72
     2
 73
     1
  0
VERTEX
  5
852
  8
0
 10
0.0
 20
0.0
 30
0.0
 70
   128
 71
     4
 72
     3
 73
    -7
  0
VERTEX
  5
853
  8
0
 10
0.0
 20
0.0
 30
0.0
 70
   128
 71
    -4
 72
     7
 73
     8
  0
SEQEND
  5
A24
  8
0
  0
POLYLINE
  5
854
  8
0
 66
     1
 10
0.0
 20
0.0
 30
0.0
 70
    64
 71
    12
 72
    10
  0
VERTEX
  5
855
  8
0
 10
347.547297297297
 20
767.2793481048668
 30
-1.0
 70
   192
  0
VERTEX
  5
856
  8
0
 10
406.547297297297
 20
707.547297297298
 30
-0.2679491924311226
 70
   192
  0
VERTEX
  5
857
  8
0
 10
407.2793481048659
 20
707.547297297298
 30
-0.9999999999999998
 70
   192
  0
VERTEX
  5
858
  8
0
 10
347.547297297297
 20
766.547297297298
 30
-0.267949192431123
 70
   192
  0
VERTEX
  5
859
  8
0
 10
397.7767707167944
 20
736.547297297298
 30
0.0
 70
   192
  0
VERTEX
  5
85A
  8
0
 10
405.547297297297
 20
707.547297297298
 30
0.0
 70
   192
  0
VERTEX
  5
85B
  8
0
 10
376.547297297297
 20
757.7767707167955
 30
0.0
 70
   192
  0
VERTEX
  5
85C
  8
0
 10
347.547297297297
 20
765.547297297298
 30
0.0
 70
   192
  0
VERTEX
  5
85D
  8
0
 10
399.5088215243633
 20
737.547297297298
 30
-2.0
 70
   192
  0
VERTEX
  5
85E
  8
0
 10
407.547297297297
 20
707.547297297298
 30
-2.0
 70
   192
  0
VERTEX
  5
85F
  8
0
 10
377.547297297297
 20
759.5088215243643
 30
-2.0
 70
   192
  0
VERTEX
  5
860
  8
0
 10
347.547297297297
 20
767.547297297298
 30
-2.0
 70
   192
  0
VERTEX
  5
861
  8
0
 10
0.0
 20
0.0
 30
0.0
 70
   128
 71
    -1
 72
     2
 73
     3
  0
VERTEX
  5
862
  8
0
 10
0.0
 20
0.0
 30
0.0
 70
   128
 71
     4
 72
    -2
 73
     1
  0
VERTEX
  5
863
  8
0
 10
0.0
 20
0.0
 30
0.0
 70
   128
 71
     5
 72
     6
 73
     2
  0
VERTEX
  5
864
  8
0
 10
0.0
 20
0.0
 30
0.0
 70
   128
 71
     2
 72
     7
 73
     5
  0
VERTEX
  5
865
  8
0
 10
0.0
 20
0.0
 30
0.0
 70
   128
 71
     8
 72
     7
 73
     2
  0
VERTEX
  5
866
  8
0
 10
0.0
 20
0.0
 30
0.0
 70
   128
 71
     8
 72
     2
 73
     4
  0
VERTEX
  5
867
  8
0
 10
0.0
 20
0.0
 30
0.0
 70
   128
 71
     9
 72
     3
 73
    10
  0
VERTEX
  5
868
  8
0
 10
0.0
 20
0.0
 30
0.0
 70
   128
 71
    11
 72
    12
 73
     1
  0
VERTEX
  5
869
  8
0
 10
0.0
 20
0.0
 30
0.0
 70
   128
 71
     1
 72
     3
 73
    -9
  0
VERTEX
  5
86A
  8
0
 10
0.0
 20
0.0
 30
0.0
 70
   128
 71
    -1
 72
     9
 73
    11
  0
SEQEND
  5
A25
  8
0
  0
POLYLINE
  5
86B
  8
0
 66
     1
 10
0.0
 20
0.0
 30
0.0
 70
    64
 71
    12
 72
    10
  0
VERTEX
  5
86C
  8
0
 10
402.6869090671564
 20
78.5472972972975
 30
-0.1729090847147836
 70
   192
  0
VERTEX
  5
86D
  8
0
 10
347.547297297297
 20
24.08050189224153
 30
-0.6617387872823242
 70
   192
  0
VERTEX
  5
86E
  8
0
 10
347.547297297297
 20
23.40768552743837
 30
-0.1729090847148296
 70
   192
  0
VERTEX
  5
86F
  8
0
 10
402.0140927023533
 20
78.5472972972975
 30
-0.6617387872822289
 70
   192
  0
VERTEX
  5
870
  8
0
 10
374.5727833090072
 20
31.73778242577345
 30
-1.3819660112501
 70
   192
  0
VERTEX
  5
871
  8
0
 10
347.547297297297
 20
24.4963252738771
 30
-1.3819660112501
 70
   192
  0
VERTEX
  5
872
  8
0
 10
394.356812168821
 20
51.52181128558728
 30
-1.3819660112501
 70
   192
  0
VERTEX
  5
873
  8
0
 10
401.5982693207177
 20
78.5472972972975
 30
-1.381966011250001
 70
   192
  0
VERTEX
  5
874
  8
0
 10
375.5238398253024
 20
30.0905042186808
 30
0.0
 70
   192
  0
VERTEX
  5
875
  8
0
 10
347.547297297297
 20
22.5942122412868
 30
0.0
 70
   192
  0
VERTEX
  5
876
  8
0
 10
396.0040903759137
 20
50.57075476929217
 30
0.0
 70
   192
  0
VERTEX
  5
877
  8
0
 10
403.5003823533077
 20
78.5472972972975
 30
0.0
 70
   192
  0
VERTEX
  5
878
  8
0
 10
0.0
 20
0.0
 30
0.0
 70
   128
 71
    -1
 72
     2
 73
     3
  0
VERTEX
  5
879
  8
0
 10
0.0
 20
0.0
 30
0.0
 70
   128
 71
     4
 72
    -2
 73
     1
  0
VERTEX
  5
87A
  8
0
 10
0.0
 20
0.0
 30
0.0
 70
   128
 71
     5
 72
     6
 73
     2
  0
VERTEX
  5
87B
  8
0
 10
0.0
 20
0.0
 30
0.0
 70
   128
 71
     2
 72
     7
 73
     5
  0
VERTEX
  5
87C
  8
0
 10
0.0
 20
0.0
 30
0.0
 70
   128
 71
     8
 72
     7
 73
     2
  0
VERTEX
  5
87D
  8
0
 10
0.0
 20
0.0
 30
0.0
 70
   128
 71
     8
 72
     2
 73
     4
  0
VERTEX
  5
87E
  8
0
 10
0.0
 20
0.0
 30
0.0
 70
   128
 71
     9
 72
     3
 73
    10
  0
VERTEX
  5
87F
  8
0
 10
0.0
 20
0.0
 30
0.0
 70
   128
 71
    11
 72
    12
 73
     1
  0
VERTEX
  5
880
  8
0
 10
0.0
 20
0.0
 30
0.0
 70
   128
 71
     1
 72
     3
 73
    -9
  0
VERTEX
  5
881
  8
0
 10
0.0
 20
0.0
 30
0.0
 70
   128
 71
    -1
 72
     9
 73
    11
  0
SEQEND
  5
A26
  8
0
  0
POLYLINE
  5
882
  8
0
 66
     1
 10
0.0
 20
0.0
 30
0.0
 70
    64
 71
     8
 72
     6
  0
VERTEX
  5
883
  8
0
 10
402.0140927023533
 20
707.547297297298
 30
-0.6617387872822342
 70
   192
  0
VERTEX
  5
884
  8
0
 10
402.0140927023533
 20
78.5472972972975
 30
-0.6617387872822289
 70
   192
  0
VERTEX
  5
885
  8
0
 10
402.6869090671564
 20
78.5472972972975
 30
-0.1729090847147836
 70
   192
  0
VERTEX
  5
886
  8
0
 10
402.6869090671564
 20
707.547297297298
 30
-0.1729090847147852
 70
   192
  0
VERTEX
  5
887
  8
0
 10
401.5982693207177
 20
707.547297297298
 30
-1.381966011250011
 70
   192
  0
VERTEX
  5
888
  8
0
 10
401.598269320718
 20
78.54729729729752
 30
-1.38196601125011
 70
   192
  0
VERTEX
  5
889
  8
0
 10
403.500382353308
 20
78.5472972972975
 30
0.0
 70
   192
  0
VERTEX
  5
88A
  8
0
 10
403.500382353308
 20
707.547297297298
 30
0.0
 70
   192
  0
VERTEX
  5
88B
  8
0
 10
0.0
 20
0.0
 30
0.0
 70
   128
 71
     1
 72
     2
 73
    -3
  0
VERTEX
  5
88C
  8
0
 10
0.0
 20
0.0
 30
0.0
 70
   128
 71
    -1
 72
     3
 73
     4
  0
VERTEX
  5
88D
  8
0
 10
0.0
 20
0.0
 30
0.0
 70
   128
 71
     5
 72
     6
 73
    -2
  0
VERTEX
  5
88E
  8
0
 10
0.0
 20
0.0
 30
0.0
 70
   128
 71
    -5
 72
     2
 73
     1
  0
VERTEX
  5
88F
  8
0
 10
0.0
 20
0.0
 30
0.0
 70
   128
 71
     4
 72
     3
 73
    -7
  0
VERTEX
  5
890
  8
0
 10
0.0
 20
0.0
 30
0.0
 70
   128
 71
    -4
 72
     7
 73
     8
  0
SEQEND
  5
A27
  8
0
  0
POLYLINE
  5
891
  8
0
 66
     1
 10
0.0
 20
0.0
 30
0.0
 70
    64
 71
     8
 72
     6
  0
VERTEX
  5
892
  8
0
 10
347.547297297297
 20
24.08050189224153
 30
-0.6617387872823242
 70
   192
  0
VERTEX
  5
893
  8
0
 10
78.5472972972974
 20
24.08050189224139
 30
-0.6617387872822844
 70
   192
  0
VERTEX
  5
894
  8
0
 10
78.5472972972974
 20
23.4076855274382
 30
-0.1729090847147985
 70
   192
  0
VERTEX
  5
895
  8
0
 10
347.547297297297
 20
23.40768552743837
 30
-0.1729090847148296
 70
   192
  0
VERTEX
  5
896
  8
0
 10
347.547297297297
 20
24.49632527387702
 30
-1.381966011250136
 70
   192
  0
VERTEX
  5
897
  8
0
 10
78.54729729729746
 20
24.49632527387695
 30
-1.38196601125011
 70
   192
  0
VERTEX
  5
898
  8
0
 10
78.5472972972974
 20
22.5942122412866
 30
0.0
 70
   192
  0
VERTEX
  5
899
  8
0
 10
347.547297297297
 20
22.59421224128675
 30
0.0
 70
   192
  0
VERTEX
  5
89A
  8
0
 10
0.0
 20
0.0
 30
0.0
 70
   128
 71
     1
 72
     2
 73
    -3
  0
VERTEX
  5
89B
  8
0
 10
0.0
 20
0.0
 30
0.0
 70
   128
 71
    -1
 72
     3
 73
     4
  0
VERTEX
  5
89C
  8
0
 10
0.0
 20
0.0
 30
0.0
 70
   128
 71
     5
 72
     6
 73
    -2
  0
VERTEX
  5
89D
  8
0
 10
0.0
 20
0.0
 30
0.0
 70
   128
 71
    -5
 72
     2
 73
     1
  0
VERTEX
  5
89E
  8
0
 10
0.0
 20
0.0
 30
0.0
 70
   128
 71
     4
 72
     3
 73
    -7
  0
VERTEX
  5
89F
  8
0
 10
0.0
 20
0.0
 30
0.0
 70
   128
 71
    -4
 72
     7
 73
     8
  0
SEQEND
  5
A28
  8
0
  0
POLYLINE
  5
8A0
  8
0
 66
     1
 10
0.0
 20
0.0
 30
0.0
 70
    64
 71
    12
 72
    10
  0
VERTEX
  5
8A1
  8
0
 10
347.547297297297
 20
762.6869090671565
 30
-0.1729090847147845
 70
   192
  0
VERTEX
  5
8A2
  8
0
 10
402.0140927023533
 20
707.547297297298
 30
-0.6617387872822342
 70
   192
  0
VERTEX
  5
8A3
  8
0
 10
402.6869090671564
 20
707.547297297298
 30
-0.1729090847147852
 70
   192
  0
VERTEX
  5
8A4
  8
0
 10
347.547297297297
 20
762.0140927023533
 30
-0.6617387872822342
 70
   192
  0
VERTEX
  5
8A5
  8
0
 10
394.3568121688211
 20
734.5727833090082
 30
-1.3819660112501
 70
   192
  0
VERTEX
  5
8A6
  8
0
 10
401.5982693207174
 20
707.547297297298
 30
-1.3819660112501
 70
   192
  0
VERTEX
  5
8A7
  8
0
 10
374.5727833090072
 20
754.356812168822
 30
-1.3819660112501
 70
   192
  0
VERTEX
  5
8A8
  8
0
 10
347.547297297297
 20
761.5982693207178
 30
-1.381966011250009
 70
   192
  0
VERTEX
  5
8A9
  8
0
 10
396.0040903759137
 20
735.5238398253033
 30
0.0
 70
   192
  0
VERTEX
  5
8AA
  8
0
 10
403.500382353308
 20
707.547297297298
 30
0.0
 70
   192
  0
VERTEX
  5
8AB
  8
0
 10
375.5238398253023
 20
756.0040903759146
 30
0.0
 70
   192
  0
VERTEX
  5
8AC
  8
0
 10
347.547297297297
 20
763.5003823533086
 30
0.0
 70
   192
  0
VERTEX
  5
8AD
  8
0
 10
0.0
 20
0.0
 30
0.0
 70
   128
 71
    -1
 72
     2
 73
     3
  0
VERTEX
  5
8AE
  8
0
 10
0.0
 20
0.0
 30
0.0
 70
   128
 71
     4
 72
    -2
 73
     1
  0
VERTEX
  5
8AF
  8
0
 10
0.0
 20
0.0
 30
0.0
 70
   128
 71
     5
 72
     6
 73
     2
  0
VERTEX
  5
8B0
  8
0
 10
0.0
 20
0.0
 30
0.0
 70
   128
 71
     2
 72
     7
 73
     5
  0
VERTEX
  5
8B1
  8
0
 10
0.0
 20
0.0
 30
0.0
 70
   128
 71
     8
 72
     7
 73
     2
  0
VERTEX
  5
8B2
  8
0
 10
0.0
 20
0.0
 30
0.0
 70
   128
 71
     8
 72
     2
 73
     4
  0
VERTEX
  5
8B3
  8
0
 10
0.0
 20
0.0
 30
0.0
 70
   128
 71
     9
 72
     3
 73
    10
  0
VERTEX
  5
8B4
  8
0
 10
0.0
 20
0.0
 30
0.0
 70
   128
 71
    11
 72
    12
 73
     1
  0
VERTEX
  5
8B5
  8
0
 10
0.0
 20
0.0
 30
0.0
 70
   128
 71
     1
 72
     3
 73
    -9
  0
VERTEX
  5
8B6
  8
0
 10
0.0
 20
0.0
 30
0.0
 70
   128
 71
    -1
 72
     9
 73
    11
  0
SEQEND
  5
A29
  8
0
  0
POLYLINE
  5
8B7
  8
0
 66
     1
 10
0.0
 20
0.0
 30
0.0
 70
    64
 71
    12
 72
    10
  0
VERTEX
  5
8B8
  8
0
 10
78.5472972972974
 20
23.4076855274382
 30
-0.1729090847147985
 70
   192
  0
VERTEX
  5
8B9
  8
0
 10
24.08050189224135
 20
78.5472972972974
 30
-0.661738787282244
 70
   192
  0
VERTEX
  5
8BA
  8
0
 10
23.40768552743813
 20
78.5472972972974
 30
-0.1729090847147663
 70
   192
  0
VERTEX
  5
8BB
  8
0
 10
78.5472972972974
 20
24.08050189224139
 30
-0.6617387872822844
 70
   192
  0
VERTEX
  5
8BC
  8
0
 10
31.73778242577327
 20
51.52181128558718
 30
-1.3819660112501
 70
   192
  0
VERTEX
  5
8BD
  8
0
 10
24.49632527387691
 20
78.5472972972974
 30
-1.3819660112501
 70
   192
  0
VERTEX
  5
8BE
  8
0
 10
51.52181128558716
 20
31.73778242577333
 30
-1.3819660112501
 70
   192
  0
VERTEX
  5
8BF
  8
0
 10
78.5472972972974
 20
24.49632527387691
 30
-1.381966011250107
 70
   192
  0
VERTEX
  5
8C0
  8
0
 10
30.09050421868061
 20
50.57075476929201
 30
0.0
 70
   192
  0
VERTEX
  5
8C1
  8
0
 10
22.5942122412865
 20
78.5472972972974
 30
0.0
 70
   192
  0
VERTEX
  5
8C2
  8
0
 10
50.57075476929202
 20
30.09050421868066
 30
0.0
 70
   192
  0
VERTEX
  5
8C3
  8
0
 10
78.54729729729742
 20
22.59421224128671
 30
0.0
 70
   192
  0
VERTEX
  5
8C4
  8
0
 10
0.0
 20
0.0
 30
0.0
 70
   128
 71
    -1
 72
     2
 73
     3
  0
VERTEX
  5
8C5
  8
0
 10
0.0
 20
0.0
 30
0.0
 70
   128
 71
     4
 72
    -2
 73
     1
  0
VERTEX
  5
8C6
  8
0
 10
0.0
 20
0.0
 30
0.0
 70
   128
 71
     5
 72
     6
 73
     2
  0
VERTEX
  5
8C7
  8
0
 10
0.0
 20
0.0
 30
0.0
 70
   128
 71
     2
 72
     7
 73
     5
  0
VERTEX
  5
8C8
  8
0
 10
0.0
 20
0.0
 30
0.0
 70
   128
 71
     8
 72
     7
 73
     2
  0
VERTEX
  5
8C9
  8
0
 10
0.0
 20
0.0
 30
0.0
 70
   128
 71
     8
 72
     2
 73
     4
  0
VERTEX
  5
8CA
  8
0
 10
0.0
 20
0.0
 30
0.0
 70
   128
 71
     9
 72
     3
 73
    10
  0
VERTEX
  5
8CB
  8
0
 10
0.0
 20
0.0
 30
0.0
 70
   128
 71
    11
 72
    12
 73
     1
  0
VERTEX
  5
8CC
  8
0
 10
0.0
 20
0.0
 30
0.0
 70
   128
 71
     1
 72
     3
 73
    -9
  0
VERTEX
  5
8CD
  8
0
 10
0.0
 20
0.0
 30
0.0
 70
   128
 71
    -1
 72
     9
 73
    11
  0
SEQEND
  5
A2A
  8
0
  0
POLYLINE
  5
8CE
  8
0
 66
     1
 10
0.0
 20
0.0
 30
0.0
 70
    64
 71
     8
 72
     6
  0
VERTEX
  5
8CF
  8
0
 10
78.547297297297
 20
762.0140927023533
 30
-0.6617387872821929
 70
   192
  0
VERTEX
  5
8D0
  8
0
 10
347.547297297297
 20
762.0140927023533
 30
-0.6617387872822342
 70
   192
  0
VERTEX
  5
8D1
  8
0
 10
347.547297297297
 20
762.6869090671565
 30
-0.1729090847147845
 70
   192
  0
VERTEX
  5
8D2
  8
0
 10
78.547297297297
 20
762.6869090671565
 30
-0.1729090847147445
 70
   192
  0
VERTEX
  5
8D3
  8
0
 10
78.547297297297
 20
761.5982693207178
 30
-1.381966011249967
 70
   192
  0
VERTEX
  5
8D4
  8
0
 10
347.547297297297
 20
761.598269320718
 30
-1.38196601125006
 70
   192
  0
VERTEX
  5
8D5
  8
0
 10
347.547297297297
 20
763.500382353308
 30
0.0
 70
   192
  0
VERTEX
  5
8D6
  8
0
 10
78.547297297297
 20
763.500382353308
 30
0.0
 70
   192
  0
VERTEX
  5
8D7
  8
0
 10
0.0
 20
0.0
 30
0.0
 70
   128
 71
     1
 72
     2
 73
    -3
  0
VERTEX
  5
8D8
  8
0
 10
0.0
 20
0.0
 30
0.0
 70
   128
 71
    -1
 72
     3
 73
     4
  0
VERTEX
  5
8D9
  8
0
 10
0.0
 20
0.0
 30
0.0
 70
   128
 71
     5
 72
     6
 73
    -2
  0
VERTEX
  5
8DA
  8
0
 10
0.0
 20
0.0
 30
0.0
 70
   128
 71
    -5
 72
     2
 73
     1
  0
VERTEX
  5
8DB
  8
0
 10
0.0
 20
0.0
 30
0.0
 70
   128
 71
     4
 72
     3
 73
    -7
  0
VERTEX
  5
8DC
  8
0
 10
0.0
 20
0.0
 30
0.0
 70
   128
 71
    -4
 72
     7
 73
     8
  0
SEQEND
  5
A2B
  8
0
  0
POLYLINE
  5
8DD
  8
0
 66
     1
 10
0.0
 20
0.0
 30
0.0
 70
    64
 71
     8
 72
     6
  0
VERTEX
  5
8DE
  8
0
 10
24.08050189224135
 20
78.5472972972974
 30
-0.661738787282244
 70
   192
  0
VERTEX
  5
8DF
  8
0
 10
24.08050189224109
 20
707.547297297298
 30
-0.6617387872822791
 70
   192
  0
VERTEX
  5
8E0
  8
0
 10
23.4076855274379
 20
707.547297297298
 30
-0.1729090847147969
 70
   192
  0
VERTEX
  5
8E1
  8
0
 10
23.40768552743813
 20
78.5472972972974
 30
-0.1729090847147663
 70
   192
  0
VERTEX
  5
8E2
  8
0
 10
24.4963252738769
 20
78.5472972972974
 30
-1.381966011250078
 70
   192
  0
VERTEX
  5
8E3
  8
0
 10
24.49632527387658
 20
707.547297297298
 30
-1.38196601125011
 70
   192
  0
VERTEX
  5
8E4
  8
0
 10
22.5942122412863
 20
707.547297297298
 30
0.0
 70
   192
  0
VERTEX
  5
8E5
  8
0
 10
22.59421224128653
 20
78.5472972972974
 30
0.0
 70
   192
  0
VERTEX
  5
8E6
  8
0
 10
0.0
 20
0.0
 30
0.0
 70
   128
 71
     1
 72
     2
 73
    -3
  0
VERTEX
  5
8E7
  8
0
 10
0.0
 20
0.0
 30
0.0
 70
   128
 71
    -1
 72
     3
 73
     4
  0
VERTEX
  5
8E8
  8
0
 10
0.0
 20
0.0
 30
0.0
 70
   128
 71
     5
 72
     6
 73
    -2
  0
VERTEX
  5
8E9
  8
0
 10
0.0
 20
0.0
 30
0.0
 70
   128
 71
    -5
 72
     2
 73
     1
  0
VERTEX
  5
8EA
  8
0
 10
0.0
 20
0.0
 30
0.0
 70
   128
 71
     4
 72
     3
 73
    -7
  0
VERTEX
  5
8EB
  8
0
 10
0.0
 20
0.0
 30
0.0
 70
   128
 71
    -4
 72
     7
 73
     8
  0
SEQEND
  5
A2C
  8
0
  0
POLYLINE
  5
8EC
  8
0
 66
     1
 10
0.0
 20
0.0
 30
0.0
 70
    64
 71
    12
 72
    10
  0
VERTEX
  5
8ED
  8
0
 10
23.4076855274379
 20
707.547297297298
 30
-0.1729090847147969
 70
   192
  0
VERTEX
  5
8EE
  8
0
 10
78.547297297297
 20
762.0140927023533
 30
-0.6617387872821929
 70
   192
  0
VERTEX
  5
8EF
  8
0
 10
78.547297297297
 20
762.6869090671565
 30
-0.1729090847147445
 70
   192
  0
VERTEX
  5
8F0
  8
0
 10
24.08050189224109
 20
707.547297297298
 30
-0.6617387872822791
 70
   192
  0
VERTEX
  5
8F1
  8
0
 10
51.52181128558681
 20
754.356812168822
 30
-1.3819660112501
 70
   192
  0
VERTEX
  5
8F2
  8
0
 10
78.547297297297
 20
761.5982693207184
 30
-1.3819660112501
 70
   192
  0
VERTEX
  5
8F3
  8
0
 10
31.73778242577296
 20
734.5727833090082
 30
-1.3819660112501
 70
   192
  0
VERTEX
  5
8F4
  8
0
 10
24.49632527387661
 20
707.547297297298
 30
-1.381966011250097
 70
   192
  0
VERTEX
  5
8F5
  8
0
 10
50.57075476929165
 20
756.0040903759146
 30
0.0
 70
   192
  0
VERTEX
  5
8F6
  8
0
 10
78.547297297297
 20
763.500382353308
 30
0.00000000000004
 70
   192
  0
VERTEX
  5
8F7
  8
0
 10
30.09050421868029
 20
735.5238398253033
 30
0.0
 70
   192
  0
VERTEX
  5
8F8
  8
0
 10
22.59421224128631
 20
707.547297297298
 30
0.0
 70
   192
  0
VERTEX
  5
8F9
  8
0
 10
0.0
 20
0.0
 30
0.0
 70
   128
 71
    -1
 72
     2
 73
     3
  0
VERTEX
  5
8FA
  8
0
 10
0.0
 20
0.0
 30
0.0
 70
   128
 71
     4
 72
    -2
 73
     1
  0
VERTEX
  5
8FB
  8
0
 10
0.0
 20
0.0
 30
0.0
 70
   128
 71
     5
 72
     6
 73
     2
  0
VERTEX
  5
8FC
  8
0
 10
0.0
 20
0.0
 30
0.0
 70
   128
 71
     2
 72
     7
 73
     5
  0
VERTEX
  5
8FD
  8
0
 10
0.0
 20
0.0
 30
0.0
 70
   128
 71
     8
 72
     7
 73
     2
  0
VERTEX
  5
8FE
  8
0
 10
0.0
 20
0.0
 30
0.0
 70
   128
 71
     8
 72
     2
 73
     4
  0
VERTEX
  5
8FF
  8
0
 10
0.0
 20
0.0
 30
0.0
 70
   128
 71
     9
 72
     3
 73
    10
  0
VERTEX
  5
900
  8
0
 10
0.0
 20
0.0
 30
0.0
 70
   128
 71
    11
 72
    12
 73
     1
  0
VERTEX
  5
901
  8
0
 10
0.0
 20
0.0
 30
0.0
 70
   128
 71
     1
 72
     3
 73
    -9
  0
VERTEX
  5
902
  8
0
 10
0.0
 20
0.0
 30
0.0
 70
   128
 71
    -1
 72
     9
 73
    11
  0
SEQEND
  5
A2D
  8
0
  0
POLYLINE
  5
903
  8
0
 66
     1
 10
0.0
 20
0.0
 30
0.0
 70
    64
 71
     9
 72
     7
  0
VERTEX
  5
904
  8
0
 10
121.985639750341
 20
755.997507154977
 30
-11.1657795993845
 70
   192
  0
VERTEX
  5
905
  8
0
 10
123.7377456664658
 20
757.4077124819414
 30
-10.83543819165765
 70
   192
  0
VERTEX
  5
906
  8
0
 10
125.6597326487
 20
758.5499853843867
 30
-9.905691280955716
 70
   192
  0
VERTEX
  5
907
  8
0
 10
127.608834483669
 20
759.2471283115481
 30
-8.61803398874992
 70
   192
  0
VERTEX
  5
908
  8
0
 10
124.6873828581171
 20
758.719667920748
 30
-9.452664979755374
 70
   192
  0
VERTEX
  5
909
  8
0
 10
122.4063318572178
 20
758.0099432805429
 30
-9.886223171396125
 70
   192
  0
VERTEX
  5
90A
  8
0
 10
120.765681480971
 20
757.3450152789579
 30
-10.0
 70
   192
  0
VERTEX
  5
90B
  8
0
 10
121.263789858755
 20
756.7948283565534
 30
-10.14280254297062
 70
   192
  0
VERTEX
  5
90C
  8
0
 10
121.6907670935165
 20
756.3232095257773
 30
-10.55081760560362
 70
   192
  0
VERTEX
  5
90D
  8
0
 10
0.0
 20
0.0
 30
0.0
 70
   128
 71
     8
 72
     4
 73
     5
  0
VERTEX
  5
90E
  8
0
 10
0.0
 20
0.0
 30
0.0
 70
   128
 71
     5
 72
     6
 73
     8
  0
VERTEX
  5
90F
  8
0
 10
0.0
 20
0.0
 30
0.0
 70
   128
 71
     6
 72
     7
 73
     8
  0
VERTEX
  5
910
  8
0
 10
0.0
 20
0.0
 30
0.0
 70
   128
 71
     8
 72
     9
 73
     4
  0
VERTEX
  5
911
  8
0
 10
0.0
 20
0.0
 30
0.0
 70
   128
 71
     9
 72
     1
 73
     2
  0
VERTEX
  5
912
  8
0
 10
0.0
 20
0.0
 30
0.0
 70
   128
 71
     2
 72
     3
 73
     9
  0
VERTEX
  5
913
  8
0
 10
0.0
 20
0.0
 30
0.0
 70
   128
 71
     3
 72
     4
 73
     9
  0
SEQEND
  5
A2E
  8
0
  0
POLYLINE
  5
914
  8
0
 66
     1
 10
0.0
 20
0.0
 30
0.0
 70
    64
 71
    12
 72
    10
  0
VERTEX
  5
915
  8
0
 10
121.9856397503409
 20
755.9975071549775
 30
-11.16577959938469
 70
   192
  0
VERTEX
  5
916
  8
0
 10
121.6907670935165
 20
756.3232095257773
 30
-10.55081760560362
 70
   192
  0
VERTEX
  5
917
  8
0
 10
121.263789858755
 20
756.7948283565534
 30
-10.14280254297062
 70
   192
  0
VERTEX
  5
918
  8
0
 10
120.765681480971
 20
757.3450152789579
 30
-9.99999999999999
 70
   192
  0
VERTEX
  5
919
  8
0
 10
118.7827123774407
 20
754.9538838066912
 30
-10.0
 70
   192
  0
VERTEX
  5
91A
  8
0
 10
117.516337275325
 20
752.0197913930933
 30
-10.0
 70
   192
  0
VERTEX
  5
91B
  8
0
 10
117.094212241286
 20
748.8385071954369
 30
-10.0
 70
   192
  0
VERTEX
  5
91C
  8
0
 10
117.9076855274377
 20
748.8385071954369
 30
-10.17290908471483
 70
   192
  0
VERTEX
  5
91D
  8
0
 10
118.5805018922409
 20
748.8385071954369
 30
-10.66173878728239
 70
   192
  0
VERTEX
  5
91E
  8
0
 10
118.9963252738764
 20
748.8385071954369
 30
-11.38196601125031
 70
   192
  0
VERTEX
  5
91F
  8
0
 10
119.3354403063791
 20
751.6251112867507
 30
-11.2590918311278
 70
   192
  0
VERTEX
  5
920
  8
0
 10
120.3760072862284
 20
754.0553195169906
 30
-11.1869471932729
 70
   192
  0
VERTEX
  5
921
  8
0
 10
0.0
 20
0.0
 30
0.0
 70
   128
 71
     6
 72
     7
 73
     8
  0
VERTEX
  5
922
  8
0
 10
0.0
 20
0.0
 30
0.0
 70
   128
 71
     9
 72
    11
 73
     6
  0
VERTEX
  5
923
  8
0
 10
0.0
 20
0.0
 30
0.0
 70
   128
 71
     8
 72
     9
 73
     6
  0
VERTEX
  5
924
  8
0
 10
0.0
 20
0.0
 30
0.0
 70
   128
 71
     9
 72
    10
 73
    11
  0
VERTEX
  5
925
  8
0
 10
0.0
 20
0.0
 30
0.0
 70
   128
 71
    12
 72
     5
 73
     6
  0
VERTEX
  5
926
  8
0
 10
0.0
 20
0.0
 30
0.0
 70
   128
 71
    11
 72
    12
 73
     6
  0
VERTEX
  5
927
  8
0
 10
0.0
 20
0.0
 30
0.0
 70
   128
 71
    12
 72
     1
 73
     2
  0
VERTEX
  5
928
  8
0
 10
0.0
 20
0.0
 30
0.0
 70
   128
 71
     3
 72
     5
 73
    12
  0
VERTEX
  5
929
  8
0
 10
0.0
 20
0.0
 30
0.0
 70
   128
 71
     2
 72
     3
 73
    12
  0
VERTEX
  5
92A
  8
0
 10
0.0
 20
0.0
 30
0.0
 70
   128
 71
     3
 72
     4
 73
     5
  0
SEQEND
  5
A2F
  8
0
  0
POLYLINE
  5
92B
  8
0
 66
     1
 10
0.0
 20
0.0
 30
0.0
 70
    64
 71
     8
 72
     6
  0
VERTEX
  5
92C
  8
0
 10
118.5805018922407
 20
37.25608739915759
 30
-10.66173878728224
 70
   192
  0
VERTEX
  5
92D
  8
0
 10
118.5805018922409
 20
748.8385071954369
 30
-10.66173878728239
 70
   192
  0
VERTEX
  5
92E
  8
0
 10
117.9076855274377
 20
748.8385071954369
 30
-10.17290908471483
 70
   192
  0
VERTEX
  5
92F
  8
0
 10
117.9076855274376
 20
37.25608739915759
 30
-10.17290908471479
 70
   192
  0
VERTEX
  5
930
  8
0
 10
118.9963252738763
 20
37.25608739915759
 30
-11.38196601125001
 70
   192
  0
VERTEX
  5
931
  8
0
 10
118.9963252738769
 20
748.8385071954369
 30
-11.3819660112501
 70
   192
  0
VERTEX
  5
932
  8
0
 10
117.094212241286
 20
748.8385071954369
 30
-10.0
 70
   192
  0
VERTEX
  5
933
  8
0
 10
117.0942122412851
 20
37.25608739915754
 30
-10.0
 70
   192
  0
VERTEX
  5
934
  8
0
 10
0.0
 20
0.0
 30
0.0
 70
   128
 71
     1
 72
     2
 73
    -3
  0
VERTEX
  5
935
  8
0
 10
0.0
 20
0.0
 30
0.0
 70
   128
 71
    -1
 72
     3
 73
     4
  0
VERTEX
  5
936
  8
0
 10
0.0
 20
0.0
 30
0.0
 70
   128
 71
     5
 72
     6
 73
    -2
  0
VERTEX
  5
937
  8
0
 10
0.0
 20
0.0
 30
0.0
 70
   128
 71
    -5
 72
     2
 73
     1
  0
VERTEX
  5
938
  8
0
 10
0.0
 20
0.0
 30
0.0
 70
   128
 71
     4
 72
     3
 73
    -7
  0
VERTEX
  5
939
  8
0
 10
0.0
 20
0.0
 30
0.0
 70
   128
 71
    -4
 72
     7
 73
     8
  0
SEQEND
  5
A30
  8
0
  0
POLYLINE
  5
93A
  8
0
 66
     1
 10
0.0
 20
0.0
 30
0.0
 70
    64
 71
    12
 72
    10
  0
VERTEX
  5
93B
  8
0
 10
118.9963252738763
 20
37.25608739915759
 30
-11.38196601125001
 70
   192
  0
VERTEX
  5
93C
  8
0
 10
118.5805018922407
 20
37.25608739915759
 30
-10.66173878728224
 70
   192
  0
VERTEX
  5
93D
  8
0
 10
117.9076855274376
 20
37.25608739915759
 30
-10.17290908471479
 70
   192
  0
VERTEX
  5
93E
  8
0
 10
117.094212241286
 20
37.25608739915759
 30
-10.0
 70
   192
  0
VERTEX
  5
93F
  8
0
 10
117.5163372753244
 20
34.0748032015012
 30
-9.999999999999998
 70
   192
  0
VERTEX
  5
940
  8
0
 10
118.7827123774398
 20
31.14071078790359
 30
-9.999999999999998
 70
   192
  0
VERTEX
  5
941
  8
0
 10
120.76568148097
 20
28.7495793156372
 30
-10.0
 70
   192
  0
VERTEX
  5
942
  8
0
 10
121.263789858754
 20
29.29976623804173
 30
-10.1428025429706
 70
   192
  0
VERTEX
  5
943
  8
0
 10
121.6907670935154
 20
29.77138506881773
 30
-10.55081760560354
 70
   192
  0
VERTEX
  5
944
  8
0
 10
121.9856397503399
 20
30.09708743961755
 30
-11.16577959938452
 70
   192
  0
VERTEX
  5
945
  8
0
 10
120.376007286228
 20
32.0392750776044
 30
-11.18694719327258
 70
   192
  0
VERTEX
  5
946
  8
0
 10
119.3354403063787
 20
34.46948330784416
 30
-11.25909183112759
 70
   192
  0
VERTEX
  5
947
  8
0
 10
0.0
 20
0.0
 30
0.0
 70
   128
 71
     6
 72
     7
 73
     8
  0
VERTEX
  5
948
  8
0
 10
0.0
 20
0.0
 30
0.0
 70
   128
 71
     9
 72
    11
 73
     6
  0
VERTEX
  5
949
  8
0
 10
0.0
 20
0.0
 30
0.0
 70
   128
 71
     8
 72
     9
 73
     6
  0
VERTEX
  5
94A
  8
0
 10
0.0
 20
0.0
 30
0.0
 70
   128
 71
     9
 72
    10
 73
    11
  0
VERTEX
  5
94B
  8
0
 10
0.0
 20
0.0
 30
0.0
 70
   128
 71
    12
 72
     5
 73
     6
  0
VERTEX
  5
94C
  8
0
 10
0.0
 20
0.0
 30
0.0
 70
   128
 71
    11
 72
    12
 73
     6
  0
VERTEX
  5
94D
  8
0
 10
0.0
 20
0.0
 30
0.0
 70
   128
 71
    12
 72
     1
 73
     2
  0
VERTEX
  5
94E
  8
0
 10
0.0
 20
0.0
 30
0.0
 70
   128
 71
     3
 72
     5
 73
    12
  0
VERTEX
  5
94F
  8
0
 10
0.0
 20
0.0
 30
0.0
 70
   128
 71
     2
 72
     3
 73
    12
  0
VERTEX
  5
950
  8
0
 10
0.0
 20
0.0
 30
0.0
 70
   128
 71
     3
 72
     4
 73
     5
  0
SEQEND
  5
A31
  8
0
  0
POLYLINE
  5
951
  8
0
 66
     1
 10
0.0
 20
0.0
 30
0.0
 70
    64
 71
     9
 72
     7
  0
VERTEX
  5
952
  8
0
 10
120.76568148097
 20
28.7495793156372
 30
-10.0
 70
   192
  0
VERTEX
  5
953
  8
0
 10
122.4063318636009
 20
28.08465131132859
 30
-9.886223170434869
 70
   192
  0
VERTEX
  5
954
  8
0
 10
124.6873828645003
 20
27.37492667175067
 30
-9.452664977770281
 70
   192
  0
VERTEX
  5
955
  8
0
 10
127.608834483668
 20
26.8474662830468
 30
-8.618033988749911
 70
   192
  0
VERTEX
  5
956
  8
0
 10
125.659482986688
 20
27.54473260300536
 30
-9.905832423342009
 70
   192
  0
VERTEX
  5
957
  8
0
 10
123.7375848050595
 20
28.68697048557826
 30
-10.83545864346282
 70
   192
  0
VERTEX
  5
958
  8
0
 10
121.98563975034
 20
30.0970874396175
 30
-11.1657795993845
 70
   192
  0
VERTEX
  5
959
  8
0
 10
121.6907670935154
 20
29.77138506881773
 30
-10.55081760560354
 70
   192
  0
VERTEX
  5
95A
  8
0
 10
121.263789858754
 20
29.29976623804173
 30
-10.1428025429706
 70
   192
  0
VERTEX
  5
95B
  8
0
 10
0.0
 20
0.0
 30
0.0
 70
   128
 71
     8
 72
     4
 73
     5
  0
VERTEX
  5
95C
  8
0
 10
0.0
 20
0.0
 30
0.0
 70
   128
 71
     5
 72
     6
 73
     8
  0
VERTEX
  5
95D
  8
0
 10
0.0
 20
0.0
 30
0.0
 70
   128
 71
     6
 72
     7
 73
     8
  0
VERTEX
  5
95E
  8
0
 10
0.0
 20
0.0
 30
0.0
 70
   128
 71
     8
 72
     9
 73
     4
  0
VERTEX
  5
95F
  8
0
 10
0.0
 20
0.0
 30
0.0
 70
   128
 71
     9
 72
     1
 73
     2
  0
VERTEX
  5
960
  8
0
 10
0.0
 20
0.0
 30
0.0
 70
   128
 71
     2
 72
     3
 73
     9
  0
VERTEX
  5
961
  8
0
 10
0.0
 20
0.0
 30
0.0
 70
   128
 71
     3
 72
     4
 73
     9
  0
SEQEND
  5
A32
  8
0
  0
POLYLINE
  5
962
  8
0
 66
     1
 10
0.0
 20
0.0
 30
0.0
 70
    64
 71
    14
 72
    14
  0
VERTEX
  5
963
  8
0
 10
167.8725389146603
 20
393.0472972972977
 30
-128.054082898501
 70
   192
  0
VERTEX
  5
964
  8
0
 10
182.7148320097855
 20
357.214832010105
 30
-128.054082898501
 70
   192
  0
VERTEX
  5
965
  8
0
 10
218.547297297297
 20
342.372538914661
 30
-128.054082898501
 70
   192
  0
VERTEX
  5
966
  8
0
 10
254.37976258502
 20
357.214832010316
 30
-128.054082898501
 70
   192
  0
VERTEX
  5
967
  8
0
 10
269.2220555313783
 20
393.0472972952836
 30
-128.054082898501
 70
   192
  0
VERTEX
  5
968
  8
0
 10
254.379762583855
 20
428.879762585444
 30
-128.054082898501
 70
   192
  0
VERTEX
  5
969
  8
0
 10
218.547297299836
 20
443.722055679934
 30
-128.054082898501
 70
   192
  0
VERTEX
  5
96A
  8
0
 10
182.714832009469
 20
428.879762584174
 30
-128.054082898501
 70
   192
  0
VERTEX
  5
96B
  8
0
 10
241.222055679934
 20
393.0472972972971
 30
-128.054082898501
 70
   192
  0
VERTEX
  5
96C
  8
0
 10
229.885136985346
 20
373.4109317688589
 30
-128.054082898501
 70
   192
  0
VERTEX
  5
96D
  8
0
 10
207.2094576091826
 20
373.410931768821
 30
-128.054082898501
 70
   192
  0
VERTEX
  5
96E
  8
0
 10
195.87253891466
 20
393.0472972972976
 30
-128.054082898501
 70
   192
  0
VERTEX
  5
96F
  8
0
 10
207.2094576089252
 20
412.6836628256214
 30
-128.054082898501
 70
   192
  0
VERTEX
  5
970
  8
0
 10
229.8851369855906
 20
412.6836628256553
 30
-128.054082898501
 70
   192
  0
VERTEX
  5
971
  8
0
 10
0.0
 20
0.0
 30
0.0
 70
   128
 71
    10
 72
    -9
 73
    -5
  0
VERTEX
  5
972
  8
0
 10
0.0
 20
0.0
 30
0.0
 70
   128
 71
   -10
 72
     5
 73
    -4
  0
VERTEX
  5
973
  8
0
 10
0.0
 20
0.0
 30
0.0
 70
   128
 71
     4
 72
     3
 73
    -2
  0
VERTEX
  5
974
  8
0
 10
0.0
 20
0.0
 30
0.0
 70
   128
 71
    -4
 72
    -2
 73
   -11
  0
VERTEX
  5
975
  8
0
 10
0.0
 20
0.0
 30
0.0
 70
   128
 71
    -4
 72
    11
 73
   -10
  0
VERTEX
  5
976
  8
0
 10
0.0
 20
0.0
 30
0.0
 70
   128
 71
     2
 72
    -1
 73
   -12
  0
VERTEX
  5
977
  8
0
 10
0.0
 20
0.0
 30
0.0
 70
   128
 71
    -2
 72
    12
 73
   -11
  0
VERTEX
  5
978
  8
0
 10
0.0
 20
0.0
 30
0.0
 70
   128
 71
     1
 72
    -8
 73
   -13
  0
VERTEX
  5
979
  8
0
 10
0.0
 20
0.0
 30
0.0
 70
   128
 71
    -1
 72
    13
 73
   -12
  0
VERTEX
  5
97A
  8
0
 10
0.0
 20
0.0
 30
0.0
 70
   128
 71
     8
 72
     7
 73
    -6
  0
VERTEX
  5
97B
  8
0
 10
0.0
 20
0.0
 30
0.0
 70
   128
 71
    -8
 72
    -6
 73
   -14
  0
VERTEX
  5
97C
  8
0
 10
0.0
 20
0.0
 30
0.0
 70
   128
 71
    -8
 72
    14
 73
   -13
  0
VERTEX
  5
97D
  8
0
 10
0.0
 20
0.0
 30
0.0
 70
   128
 71
     6
 72
    -5
 73
    -9
  0
VERTEX
  5
97E
  8
0
 10
0.0
 20
0.0
 30
0.0
 70
   128
 71
    -6
 72
     9
 73
   -14
  0
SEQEND
  5
A33
  8
0
  0
POLYLINE
  5
97F
  8
0
 66
     1
 10
0.0
 20
0.0
 30
0.0
 70
    64
 71
     8
 72
     6
  0
VERTEX
  5
980
  8
0
 10
195.87253891466
 20
393.0472972972975
 30
-128.054082898501
 70
   192
  0
VERTEX
  5
981
  8
0
 10
195.87253891466
 20
393.0472972972975
 30
-113.054082898501
 70
   192
  0
VERTEX
  5
982
  8
0
 10
207.2094576091826
 20
373.410931768821
 30
-113.054082898501
 70
   192
  0
VERTEX
  5
983
  8
0
 10
207.2094576091826
 20
373.410931768821
 30
-128.054082898501
 70
   192
  0
VERTEX
  5
984
  8
0
 10
241.222055679934
 20
393.0472972972971
 30
-113.054082898501
 70
   192
  0
VERTEX
  5
985
  8
0
 10
241.222055679934
 20
393.0472972972971
 30
-128.054082898501
 70
   192
  0
VERTEX
  5
986
  8
0
 10
229.885136985346
 20
373.4109317688589
 30
-128.054082898501
 70
   192
  0
VERTEX
  5
987
  8
0
 10
229.885136985346
 20
373.4109317688589
 30
-113.054082898501
 70
   192
  0
VERTEX
  5
988
  8
0
 10
0.0
 20
0.0
 30
0.0
 70
   128
 71
     1
 72
     2
 73
    -3
  0
VERTEX
  5
989
  8
0
 10
0.0
 20
0.0
 30
0.0
 70
   128
 71
     4
 72
    -1
 73
     3
  0
VERTEX
  5
98A
  8
0
 10
0.0
 20
0.0
 30
0.0
 70
   128
 71
     5
 72
     6
 73
    -7
  0
VERTEX
  5
98B
  8
0
 10
0.0
 20
0.0
 30
0.0
 70
   128
 71
     8
 72
    -5
 73
     7
  0
VERTEX
  5
98C
  8
0
 10
0.0
 20
0.0
 30
0.0
 70
   128
 71
     7
 72
    -4
 73
     8
  0
VERTEX
  5
98D
  8
0
 10
0.0
 20
0.0
 30
0.0
 70
   128
 71
    -8
 72
     4
 73
     3
  0
SEQEND
  5
A34
  8
0
  0
POLYLINE
  5
98E
  8
0
 66
     1
 10
0.0
 20
0.0
 30
0.0
 70
    64
 71
     9
 72
     7
  0
VERTEX
  5
98F
  8
0
 10
192.4014573211477
 20
366.9014573211477
 30
-101.0540828331678
 70
   192
  0
VERTEX
  5
990
  8
0
 10
195.87253891466
 20
393.0472972972976
 30
-113.054082898501
 70
   192
  0
VERTEX
  5
991
  8
0
 10
181.57149580346
 20
393.0472972972972
 30
-101.0540828658344
 70
   192
  0
VERTEX
  5
992
  8
0
 10
229.885136985346
 20
373.4109317688589
 30
-113.054082898501
 70
   192
  0
VERTEX
  5
993
  8
0
 10
218.547297297297
 20
356.0714958033901
 30
-101.0540828331678
 70
   192
  0
VERTEX
  5
994
  8
0
 10
244.6931372734463
 20
366.9014573211477
 30
-101.0540828331678
 70
   192
  0
VERTEX
  5
995
  8
0
 10
207.2094576091826
 20
373.410931768821
 30
-113.054082898501
 70
   192
  0
VERTEX
  5
996
  8
0
 10
255.5230987911342
 20
393.0472972972973
 30
-101.0540828658344
 70
   192
  0
VERTEX
  5
997
  8
0
 10
241.222055679934
 20
393.0472972972971
 30
-113.054082898501
 70
   192
  0
VERTEX
  5
998
  8
0
 10
0.0
 20
0.0
 30
0.0
 70
   128
 71
     1
 72
     2
 73
     3
  0
VERTEX
  5
999
  8
0
 10
0.0
 20
0.0
 30
0.0
 70
   128
 71
     4
 72
     5
 73
     6
  0
VERTEX
  5
99A
  8
0
 10
0.0
 20
0.0
 30
0.0
 70
   128
 71
     7
 72
     1
 73
     5
  0
VERTEX
  5
99B
  8
0
 10
0.0
 20
0.0
 30
0.0
 70
   128
 71
     7
 72
     5
 73
     4
  0
VERTEX
  5
99C
  8
0
 10
0.0
 20
0.0
 30
0.0
 70
   128
 71
     2
 72
     1
 73
     7
  0
VERTEX
  5
99D
  8
0
 10
0.0
 20
0.0
 30
0.0
 70
   128
 71
     4
 72
     6
 73
     8
  0
VERTEX
  5
99E
  8
0
 10
0.0
 20
0.0
 30
0.0
 70
   128
 71
     4
 72
     8
 73
     9
  0
SEQEND
  5
A35
  8
0
  0
POLYLINE
  5
99F
  8
0
 66
     1
 10
0.0
 20
0.0
 30
0.0
 70
    64
 71
    10
 72
     8
  0
VERTEX
  5
9A0
  8
0
 10
167.8725389146693
 20
393.0472972972975
 30
-115.5806326141271
 70
   192
  0
VERTEX
  5
9A1
  8
0
 10
167.8725389146603
 20
393.0472972972977
 30
-128.054082898501
 70
   192
  0
VERTEX
  5
9A2
  8
0
 10
269.2220555313783
 20
393.0472972952836
 30
-128.054082898501
 70
   192
  0
VERTEX
  5
9A3
  8
0
 10
269.2220556799465
 20
393.0472972952882
 30
-115.580632614127
 70
   192
  0
VERTEX
  5
9A4
  8
0
 10
218.547297299836
 20
443.722055679934
 30
-128.054082898501
 70
   192
  0
VERTEX
  5
9A5
  8
0
 10
218.547297299836
 20
443.722055679934
 30
-115.5806326287816
 70
   192
  0
VERTEX
  5
9A6
  8
0
 10
182.714832009469
 20
428.879762584174
 30
-128.054082898501
 70
   192
  0
VERTEX
  5
9A7
  8
0
 10
182.714832009469
 20
428.879762584174
 30
-115.5806326287816
 70
   192
  0
VERTEX
  5
9A8
  8
0
 10
254.379762583855
 20
428.879762585444
 30
-128.054082898501
 70
   192
  0
VERTEX
  5
9A9
  8
0
 10
254.379762583855
 20
428.879762585444
 30
-115.5806326287816
 70
   192
  0
VERTEX
  5
9AA
  8
0
 10
0.0
 20
0.0
 30
0.0
 70
   128
 71
     2
 72
     1
 73
    -8
  0
VERTEX
  5
9AB
  8
0
 10
0.0
 20
0.0
 30
0.0
 70
   128
 71
     7
 72
    -2
 73
     8
  0
VERTEX
  5
9AC
  8
0
 10
0.0
 20
0.0
 30
0.0
 70
   128
 71
     8
 72
     6
 73
    -5
  0
VERTEX
  5
9AD
  8
0
 10
0.0
 20
0.0
 30
0.0
 70
   128
 71
     7
 72
    -8
 73
     5
  0
VERTEX
  5
9AE
  8
0
 10
0.0
 20
0.0
 30
0.0
 70
   128
 71
     6
 72
    10
 73
    -9
  0
VERTEX
  5
9AF
  8
0
 10
0.0
 20
0.0
 30
0.0
 70
   128
 71
     5
 72
    -6
 73
     9
  0
VERTEX
  5
9B0
  8
0
 10
0.0
 20
0.0
 30
0.0
 70
   128
 71
    10
 72
     4
 73
     3
  0
VERTEX
  5
9B1
  8
0
 10
0.0
 20
0.0
 30
0.0
 70
   128
 71
     9
 72
    10
 73
     3
  0
SEQEND
  5
A36
  8
0
  0
POLYLINE
  5
9B2
  8
0
 66
     1
 10
0.0
 20
0.0
 30
0.0
 70
    64
 71
    14
 72
    12
  0
VERTEX
  5
9B3
  8
0
 10
179.271480092209
 20
353.7679525979474
 30
-110.5822678572253
 70
   192
  0
VERTEX
  5
9B4
  8
0
 10
163.0004129244766
 20
393.0472972999567
 30
-110.5822680020627
 70
   192
  0
VERTEX
  5
9B5
  8
0
 10
165.3944618163574
 20
393.0474302389875
 30
-111.2632353923258
 70
   192
  0
VERTEX
  5
9B6
  8
0
 10
167.2530196404499
 20
393.0474302379731
 30
-113.1699491505741
 70
   192
  0
VERTEX
  5
9B7
  8
0
 10
167.8725389146693
 20
393.0472972972975
 30
-115.5806326141271
 70
   192
  0
VERTEX
  5
9B8
  8
0
 10
182.7148320097855
 20
357.214832010105
 30
-115.5806326287816
 70
   192
  0
VERTEX
  5
9B9
  8
0
 10
254.37976258502
 20
357.214832010316
 30
-115.5806326287816
 70
   192
  0
VERTEX
  5
9BA
  8
0
 10
269.2220556799465
 20
393.0472972952882
 30
-115.580632614127
 70
   192
  0
VERTEX
  5
9BB
  8
0
 10
269.8415756599724
 20
393.0471366216422
 30
-113.1699491325114
 70
   192
  0
VERTEX
  5
9BC
  8
0
 10
271.7001356021728
 20
393.0471366219584
 30
-111.2632353200753
 70
   192
  0
VERTEX
  5
9BD
  8
0
 10
257.8303032699433
 20
353.7751383326715
 30
-110.5822678053494
 70
   192
  0
VERTEX
  5
9BE
  8
0
 10
274.0941872226639
 20
393.047297296117
 30
-110.5822678600116
 70
   192
  0
VERTEX
  5
9BF
  8
0
 10
218.5476476415583
 20
337.5004059106606
 30
-110.5822677803313
 70
   192
  0
VERTEX
  5
9C0
  8
0
 10
218.547297297297
 20
342.372538914661
 30
-115.5806326287816
 70
   192
  0
VERTEX
  5
9C1
  8
0
 10
0.0
 20
0.0
 30
0.0
 70
   128
 71
     1
 72
     2
 73
     3
  0
VERTEX
  5
9C2
  8
0
 10
0.0
 20
0.0
 30
0.0
 70
   128
 71
     4
 72
     5
 73
     6
  0
VERTEX
  5
9C3
  8
0
 10
0.0
 20
0.0
 30
0.0
 70
   128
 71
     7
 72
     8
 73
     9
  0
VERTEX
  5
9C4
  8
0
 10
0.0
 20
0.0
 30
0.0
 70
   128
 71
    10
 72
    11
 73
     7
  0
VERTEX
  5
9C5
  8
0
 10
0.0
 20
0.0
 30
0.0
 70
   128
 71
     9
 72
    10
 73
     7
  0
VERTEX
  5
9C6
  8
0
 10
0.0
 20
0.0
 30
0.0
 70
   128
 71
    10
 72
    12
 73
    11
  0
VERTEX
  5
9C7
  8
0
 10
0.0
 20
0.0
 30
0.0
 70
   128
 71
    11
 72
    13
 73
    14
  0
VERTEX
  5
9C8
  8
0
 10
0.0
 20
0.0
 30
0.0
 70
   128
 71
     7
 72
    11
 73
    14
  0
VERTEX
  5
9C9
  8
0
 10
0.0
 20
0.0
 30
0.0
 70
   128
 71
     4
 72
     6
 73
    14
  0
VERTEX
  5
9CA
  8
0
 10
0.0
 20
0.0
 30
0.0
 70
   128
 71
     3
 72
     4
 73
    14
  0
VERTEX
  5
9CB
  8
0
 10
0.0
 20
0.0
 30
0.0
 70
   128
 71
     1
 72
     3
 73
    14
  0
VERTEX
  5
9CC
  8
0
 10
0.0
 20
0.0
 30
0.0
 70
   128
 71
    13
 72
     1
 73
    14
  0
SEQEND
  5
A37
  8
0
  0
ENDBLK
  5
9CE
  8
0
  0
ENDSEC
  0
SECTION
  2
ENTITIES
  0
INSERT
  5
12B
  8
0
  2
*X1
 10
0.0
 20
0.0
 30
0.0
  0
ENDSEC
  0
EOF
