  0
SECTION
  2
HEADER
  9
$ACADVER
  1
AC1009
  9
$DWGCODEPAGE
  3
ansi_1250
  9
$INSBASE
 10
0.0
 20
0.0
 30
0.0
  9
$EXTMIN
 10
-394.8669003679577
 20
0.0
 30
-48.00000000000013
  9
$EXTMAX
 10
369.6807484416252
 20
2000.0
 30
48.00000000000001
  9
$LIMMIN
 10
0.0
 20
0.0
  9
$LIMMAX
 10
420.0
 20
297.0
  9
$ORTHOMODE
 70
     0
  9
$REGENMODE
 70
     1
  9
$FILLMODE
 70
     1
  9
$QTEXTMODE
 70
     0
  9
$MIRRTEXT
 70
     0
  9
$DRAGMODE
 70
     2
  9
$LTSCALE
 40
1.0
  9
$OSMODE
 70
   511
  9
$ATTMODE
 70
     1
  9
$TEXTSIZE
 40
2.5
  9
$TRACEWID
 40
1.0
  9
$TEXTSTYLE
  7
STANDARD
  9
$CLAYER
  8
0
  9
$CELTYPE
  6
BYLAYER
  9
$CECOLOR
 62
   256
  9
$DIMSCALE
 40
1.0
  9
$DIMASZ
 40
2.5
  9
$DIMEXO
 40
0.625
  9
$DIMDLI
 40
3.75
  9
$DIMRND
 40
0.0
  9
$DIMDLE
 40
0.0
  9
$DIMEXE
 40
1.25
  9
$DIMTP
 40
0.0
  9
$DIMTM
 40
0.0
  9
$DIMTXT
 40
2.5
  9
$DIMCEN
 40
-2.5
  9
$DIMTSZ
 40
0.0
  9
$DIMTOL
 70
     0
  9
$DIMLIM
 70
     0
  9
$DIMTIH
 70
     0
  9
$DIMTOH
 70
     0
  9
$DIMSE1
 70
     0
  9
$DIMSE2
 70
     0
  9
$DIMTAD
 70
     1
  9
$DIMZIN
 70
     8
  9
$DIMBLK
  1

  9
$DIMASO
 70
     1
  9
$DIMSHO
 70
     1
  9
$DIMPOST
  1

  9
$DIMAPOST
  1

  9
$DIMALT
 70
     0
  9
$DIMALTD
 70
     3
  9
$DIMALTF
 40
0.03937007874016
  9
$DIMLFAC
 40
1.0
  9
$DIMTOFL
 70
     1
  9
$DIMTVP
 40
0.0
  9
$DIMTIX
 70
     0
  9
$DIMSOXD
 70
     0
  9
$DIMSAH
 70
     0
  9
$DIMBLK1
  1

  9
$DIMBLK2
  1

  9
$DIMSTYLE
  2
ISO-25
  9
$DIMCLRD
 70
     0
  9
$DIMCLRE
 70
     0
  9
$DIMCLRT
 70
     0
  9
$DIMTFAC
 40
1.0
  9
$DIMGAP
 40
0.625
  9
$LUNITS
 70
     2
  9
$LUPREC
 70
     3
  9
$SKETCHINC
 40
1.0
  9
$FILLETRAD
 40
10.0
  9
$AUNITS
 70
     0
  9
$AUPREC
 70
     0
  9
$MENU
  1
.
  9
$ELEVATION
 40
0.0
  9
$PELEVATION
 40
0.0
  9
$THICKNESS
 40
0.0
  9
$LIMCHECK
 70
     0
  9
$CHAMFERA
 40
10.0
  9
$CHAMFERB
 40
10.0
  9
$SKPOLY
 70
     0
  9
$TDCREATE
 40
2455022.720692848
  9
$TDUPDATE
 40
2460458.641057315
  9
$TDINDWG
 40
0.003182037
  9
$TDUSRTIMER
 40
0.003182037
  9
$USRTIMER
 70
     1
  9
$ANGBASE
 50
0.0
  9
$ANGDIR
 70
     0
  9
$PDMODE
 70
     0
  9
$PDSIZE
 40
0.0
  9
$PLINEWID
 40
0.0
  9
$COORDS
 70
     1
  9
$SPLFRAME
 70
     0
  9
$SPLINETYPE
 70
     6
  9
$SPLINESEGS
 70
     8
  9
$ATTDIA
 70
     0
  9
$ATTREQ
 70
     1
  9
$HANDLING
 70
     1
  9
$HANDSEED
  5
16FB
  9
$SURFTAB1
 70
     6
  9
$SURFTAB2
 70
     6
  9
$SURFTYPE
 70
     6
  9
$SURFU
 70
     6
  9
$SURFV
 70
     6
  9
$UCSNAME
  2

  9
$UCSORG
 10
0.0
 20
0.0
 30
0.0
  9
$UCSXDIR
 10
1.0
 20
0.0
 30
0.0
  9
$UCSYDIR
 10
0.0
 20
1.0
 30
0.0
  9
$PUCSNAME
  2

  9
$PUCSORG
 10
0.0
 20
0.0
 30
0.0
  9
$PUCSXDIR
 10
1.0
 20
0.0
 30
0.0
  9
$PUCSYDIR
 10
0.0
 20
1.0
 30
0.0
  9
$USERI1
 70
     0
  9
$USERI2
 70
     0
  9
$USERI3
 70
     0
  9
$USERI4
 70
     0
  9
$USERI5
 70
     0
  9
$USERR1
 40
0.0
  9
$USERR2
 40
0.0
  9
$USERR3
 40
0.0
  9
$USERR4
 40
0.0
  9
$USERR5
 40
0.0
  9
$WORLDVIEW
 70
     1
  9
$SHADEDGE
 70
     3
  9
$SHADEDIF
 70
    70
  9
$TILEMODE
 70
     1
  9
$MAXACTVP
 70
    64
  9
$PLIMCHECK
 70
     0
  9
$PEXTMIN
 10
1.000000000000000E+20
 20
1.000000000000000E+20
 30
1.000000000000000E+20
  9
$PEXTMAX
 10
-1.000000000000000E+20
 20
-1.000000000000000E+20
 30
-1.000000000000000E+20
  9
$PLIMMIN
 10
0.0
 20
0.0
  9
$PLIMMAX
 10
0.0
 20
0.0
  9
$UNITMODE
 70
     0
  9
$VISRETAIN
 70
     1
  9
$PLINEGEN
 70
     0
  9
$PSLTSCALE
 70
     1
  0
ENDSEC
  0
SECTION
  2
TABLES
  0
TABLE
  2
VPORT
 70
     1
  0
VPORT
  2
*ACTIVE
 70
     0
 10
0.0
 20
0.0
 11
1.0
 21
1.0
 12
621.1269524252938
 22
-457.8887677440569
 13
0.0
 23
0.0
 14
10.0
 24
10.0
 15
10.0
 25
10.0
 16
0.577350269189651
 26
0.577350269189651
 36
0.577350269189651
 17
-134.1869158878
 27
0.0000000000483169
 37
0.0000000000553086
 40
1231.145633767496
 41
1.89041095890411
 42
50.0
 43
0.0
 44
0.0
 50
0.0
 51
0.0
 71
    16
 72
  1000
 73
     1
 74
     3
 75
     0
 76
     0
 77
     0
 78
     0
  0
ENDTAB
  0
TABLE
  2
LTYPE
 70
     1
  0
LTYPE
  2
CONTINUOUS
 70
     0
  3
Solid line
 72
    65
 73
     0
 40
0.0
  0
ENDTAB
  0
TABLE
  2
LAYER
 70
     5
  0
LAYER
  2
0
 70
     0
 62
     7
  6
CONTINUOUS
  0
LAYER
  2
MADLO
 70
     0
 62
     7
  6
CONTINUOUS
  0
LAYER
  2
RÁM
 70
     0
 62
     7
  6
CONTINUOUS
  0
LAYER
  2
SKLO
 70
     0
 62
     7
  6
CONTINUOUS
  0
LAYER
  2
GUMA
 70
     0
 62
     7
  6
CONTINUOUS
  0
ENDTAB
  0
TABLE
  2
STYLE
 70
     2
  0
STYLE
  2
STANDARD
 70
     0
 40
0.0
 41
1.0
 50
0.0
 71
     0
 42
2.5
  3
arial.ttf
  4

  0
STYLE
  2
ANNOTATIVE
 70
     0
 40
0.0
 41
1.0
 50
0.0
 71
     0
 42
2.5
  3
arial.ttf
  4

  0
ENDTAB
  0
TABLE
  2
VIEW
 70
     0
  0
ENDTAB
  0
TABLE
  2
UCS
 70
     0
  0
ENDTAB
  0
TABLE
  2
APPID
 70
     3
  0
APPID
  2
ACAD
 70
     0
  0
APPID
  2
ACADANNOTATIVE
 70
     0
  0
APPID
  2
ACAECLAYERSTANDARD
 70
     0
  0
ENDTAB
  0
TABLE
  2
DIMSTYLE
 70
     2
  0
DIMSTYLE
  2
ISO-25
 70
     0
  3

  4

  5

  6

  7

 40
1.0
 41
2.5
 42
0.625
 43
3.75
 44
1.25
 45
0.0
 46
0.0
 47
0.0
 48
0.0
140
2.5
141
-2.5
142
0.0
143
0.03937007874016
144
1.0
145
0.0
146
1.0
147
0.625
 71
     0
 72
     0
 73
     0
 74
     0
 75
     0
 76
     0
 77
     1
 78
     8
170
     0
171
     3
172
     1
173
     0
174
     0
175
     0
176
     0
177
     0
178
     0
  0
DIMSTYLE
  2
ANNOTATIVE
 70
     0
  3

  4

  5

  6

  7

 40
0.0
 41
2.5
 42
0.625
 43
3.75
 44
1.25
 45
0.0
 46
0.0
 47
0.0
 48
0.0
140
2.5
141
-2.5
142
0.0
143
0.03937007874016
144
1.0
145
0.0
146
1.0
147
0.625
 71
     0
 72
     0
 73
     0
 74
     0
 75
     0
 76
     0
 77
     1
 78
     8
170
     0
171
     3
172
     1
173
     0
174
     0
175
     0
176
     0
177
     0
178
     0
  0
ENDTAB
  0
ENDSEC
  0
SECTION
  2
BLOCKS
  0
BLOCK
  8
0
  2
$MODEL_SPACE
 70
     0
 10
0.0
 20
0.0
 30
0.0
  3
$MODEL_SPACE
  1

  0
ENDBLK
  5
21
  8
0
  0
BLOCK
 67
     1
  8
0
  2
$PAPER_SPACE
 70
     0
 10
0.0
 20
0.0
 30
0.0
  3
$PAPER_SPACE
  1

  0
ENDBLK
  5
1D
 67
     1
  8
0
  0
BLOCK
  8
0
  2
*X1
 70
     1
 10
0.0
 20
0.0
 30
0.0
  3
*X1
  1

  0
POLYLINE
  5
BF1
  8
RÁM
 66
     1
 10
0.0
 20
0.0
 30
0.0
 70
    64
 71
     8
 72
     6
  0
VERTEX
  5
BF2
  8
RÁM
 10
-356.6936952872346
 20
0.0
 30
11.84999969676737
 70
   192
  0
VERTEX
  5
BF3
  8
RÁM
 10
-356.6936952872346
 20
2000.0
 30
11.84999969676737
 70
   192
  0
VERTEX
  5
BF4
  8
RÁM
 10
-356.7669003679775
 20
2000.0
 30
11.92320477751027
 70
   192
  0
VERTEX
  5
BF5
  8
RÁM
 10
-356.7669003679775
 20
0.0
 30
11.92320477751027
 70
   192
  0
VERTEX
  5
BF6
  8
RÁM
 10
-356.6669003679966
 20
0.0
 30
11.74999969678648
 70
   192
  0
VERTEX
  5
BF7
  8
RÁM
 10
-356.6669003679966
 20
2000.0
 30
11.74999969678648
 70
   192
  0
VERTEX
  5
BF8
  8
RÁM
 10
-356.8669003679584
 20
2000.0
 30
11.94999969674826
 70
   192
  0
VERTEX
  5
BF9
  8
RÁM
 10
-356.8669003679584
 20
0.0
 30
11.94999969674826
 70
   192
  0
VERTEX
  5
BFA
  8
RÁM
 10
0.0
 20
0.0
 30
0.0
 70
   128
 71
     1
 72
     2
 73
    -3
  0
VERTEX
  5
BFB
  8
RÁM
 10
0.0
 20
0.0
 30
0.0
 70
   128
 71
    -1
 72
     3
 73
     4
  0
VERTEX
  5
BFC
  8
RÁM
 10
0.0
 20
0.0
 30
0.0
 70
   128
 71
     5
 72
     6
 73
    -2
  0
VERTEX
  5
BFD
  8
RÁM
 10
0.0
 20
0.0
 30
0.0
 70
   128
 71
    -5
 72
     2
 73
     1
  0
VERTEX
  5
BFE
  8
RÁM
 10
0.0
 20
0.0
 30
0.0
 70
   128
 71
     4
 72
     3
 73
    -7
  0
VERTEX
  5
BFF
  8
RÁM
 10
0.0
 20
0.0
 30
0.0
 70
   128
 71
    -4
 72
     7
 73
     8
  0
SEQEND
  5
162B
  8
RÁM
  0
POLYLINE
  5
C00
  8
RÁM
 66
     1
 10
0.0
 20
0.0
 30
0.0
 70
    64
 71
     4
 72
     2
  0
VERTEX
  5
C01
  8
RÁM
 10
-356.6669003679966
 20
2000.0
 30
11.74999969678648
 70
   192
  0
VERTEX
  5
C02
  8
RÁM
 10
-356.6669003679966
 20
0.0
 30
11.74999969678648
 70
   192
  0
VERTEX
  5
C03
  8
RÁM
 10
-356.6669003679966
 20
0.0
 30
9.749998971876787
 70
   192
  0
VERTEX
  5
C04
  8
RÁM
 10
-356.6669003679966
 20
2000.0
 30
9.749998971876787
 70
   192
  0
VERTEX
  5
C05
  8
RÁM
 10
0.0
 20
0.0
 30
0.0
 70
   128
 71
     3
 72
     4
 73
    -1
  0
VERTEX
  5
C06
  8
RÁM
 10
0.0
 20
0.0
 30
0.0
 70
   128
 71
     2
 72
    -3
 73
     1
  0
SEQEND
  5
162C
  8
RÁM
  0
POLYLINE
  5
C07
  8
RÁM
 66
     1
 10
0.0
 20
0.0
 30
0.0
 70
    64
 71
     4
 72
     2
  0
VERTEX
  5
C08
  8
RÁM
 10
-356.6669003679966
 20
2000.0
 30
9.749998971876787
 70
   192
  0
VERTEX
  5
C09
  8
RÁM
 10
-356.6669003679966
 20
0.0
 30
9.749998971876787
 70
   192
  0
VERTEX
  5
C0A
  8
RÁM
 10
-321.7101733694995
 20
0.0
 30
9.749998971876785
 70
   192
  0
VERTEX
  5
C0B
  8
RÁM
 10
-321.7101733694994
 20
2000.0
 30
9.749998971876785
 70
   192
  0
VERTEX
  5
C0C
  8
RÁM
 10
0.0
 20
0.0
 30
0.0
 70
   128
 71
     3
 72
     4
 73
    -1
  0
VERTEX
  5
C0D
  8
RÁM
 10
0.0
 20
0.0
 30
0.0
 70
   128
 71
     2
 72
    -3
 73
     1
  0
SEQEND
  5
162D
  8
RÁM
  0
POLYLINE
  5
C0E
  8
RÁM
 66
     1
 10
0.0
 20
0.0
 30
0.0
 70
    64
 71
     8
 72
     6
  0
VERTEX
  5
C0F
  8
RÁM
 10
-321.2771606685747
 20
0.0
 30
9.499998972435366
 70
   192
  0
VERTEX
  5
C10
  8
RÁM
 10
-321.2771606685747
 20
2000.0
 30
9.499998972435366
 70
   192
  0
VERTEX
  5
C11
  8
RÁM
 10
-321.460173370058
 20
2000.0
 30
9.683011673918676
 70
   192
  0
VERTEX
  5
C12
  8
RÁM
 10
-321.460173370058
 20
0.0
 30
9.683011673918676
 70
   192
  0
VERTEX
  5
C13
  8
RÁM
 10
-321.2101733706166
 20
0.0
 30
9.249998972993946
 70
   192
  0
VERTEX
  5
C14
  8
RÁM
 10
-321.2101733706166
 20
2000.0
 30
9.249998972993946
 70
   192
  0
VERTEX
  5
C15
  8
RÁM
 10
-321.7101733694994
 20
2000.0
 30
9.749998971876785
 70
   192
  0
VERTEX
  5
C16
  8
RÁM
 10
-321.7101733694994
 20
0.0
 30
9.749998971876785
 70
   192
  0
VERTEX
  5
C17
  8
RÁM
 10
0.0
 20
0.0
 30
0.0
 70
   128
 71
     1
 72
     2
 73
    -3
  0
VERTEX
  5
C18
  8
RÁM
 10
0.0
 20
0.0
 30
0.0
 70
   128
 71
    -1
 72
     3
 73
     4
  0
VERTEX
  5
C19
  8
RÁM
 10
0.0
 20
0.0
 30
0.0
 70
   128
 71
     5
 72
     6
 73
    -2
  0
VERTEX
  5
C1A
  8
RÁM
 10
0.0
 20
0.0
 30
0.0
 70
   128
 71
    -5
 72
     2
 73
     1
  0
VERTEX
  5
C1B
  8
RÁM
 10
0.0
 20
0.0
 30
0.0
 70
   128
 71
     4
 72
     3
 73
    -7
  0
VERTEX
  5
C1C
  8
RÁM
 10
0.0
 20
0.0
 30
0.0
 70
   128
 71
    -4
 72
     7
 73
     8
  0
SEQEND
  5
162E
  8
RÁM
  0
POLYLINE
  5
C1D
  8
RÁM
 66
     1
 10
0.0
 20
0.0
 30
0.0
 70
    64
 71
     4
 72
     2
  0
VERTEX
  5
C1E
  8
RÁM
 10
-321.2101733706166
 20
18.00000000000001
 30
2.399998906309486
 70
   192
  0
VERTEX
  5
C1F
  8
RÁM
 10
-330.212501367868
 20
18.00000000000001
 30
2.399998906309485
 70
   192
  0
VERTEX
  5
C20
  8
RÁM
 10
-330.2125013678679
 20
2000.0
 30
2.399998906309485
 70
   192
  0
VERTEX
  5
C21
  8
RÁM
 10
-321.2101733706166
 20
2000.0
 30
2.399998906309486
 70
   192
  0
VERTEX
  5
C22
  8
RÁM
 10
0.0
 20
0.0
 30
0.0
 70
   128
 71
     3
 72
     4
 73
    -1
  0
VERTEX
  5
C23
  8
RÁM
 10
0.0
 20
0.0
 30
0.0
 70
   128
 71
     2
 72
    -3
 73
     1
  0
SEQEND
  5
162F
  8
RÁM
  0
POLYLINE
  5
C24
  8
RÁM
 66
     1
 10
0.0
 20
0.0
 30
0.0
 70
    64
 71
     4
 72
     2
  0
VERTEX
  5
C25
  8
RÁM
 10
-330.2125013678679
 20
18.00000000000001
 30
2.399998906309485
 70
   192
  0
VERTEX
  5
C26
  8
RÁM
 10
-330.2125013678679
 20
18.00000000000001
 30
-2.399998906309485
 70
   192
  0
VERTEX
  5
C27
  8
RÁM
 10
-330.2125013678679
 20
2000.0
 30
-2.399998906309485
 70
   192
  0
VERTEX
  5
C28
  8
RÁM
 10
-330.2125013678679
 20
2000.0
 30
2.399998906309485
 70
   192
  0
VERTEX
  5
C29
  8
RÁM
 10
0.0
 20
0.0
 30
0.0
 70
   128
 71
     3
 72
     4
 73
    -1
  0
VERTEX
  5
C2A
  8
RÁM
 10
0.0
 20
0.0
 30
0.0
 70
   128
 71
     2
 72
    -3
 73
     1
  0
SEQEND
  5
1630
  8
RÁM
  0
POLYLINE
  5
C2B
  8
RÁM
 66
     1
 10
0.0
 20
0.0
 30
0.0
 70
    64
 71
     4
 72
     2
  0
VERTEX
  5
C2C
  8
RÁM
 10
-330.212501367868
 20
18.00000000000001
 30
-2.399998906309485
 70
   192
  0
VERTEX
  5
C2D
  8
RÁM
 10
-321.2101733706166
 20
18.00000000000001
 30
-2.399998906309486
 70
   192
  0
VERTEX
  5
C2E
  8
RÁM
 10
-321.2101733706166
 20
2000.0
 30
-2.399998906309486
 70
   192
  0
VERTEX
  5
C2F
  8
RÁM
 10
-330.212501367868
 20
2000.0
 30
-2.399998906309485
 70
   192
  0
VERTEX
  5
C30
  8
RÁM
 10
0.0
 20
0.0
 30
0.0
 70
   128
 71
     3
 72
     4
 73
    -1
  0
VERTEX
  5
C31
  8
RÁM
 10
0.0
 20
0.0
 30
0.0
 70
   128
 71
     2
 72
    -3
 73
     1
  0
SEQEND
  5
1631
  8
RÁM
  0
POLYLINE
  5
C32
  8
RÁM
 66
     1
 10
0.0
 20
0.0
 30
0.0
 70
    64
 71
     8
 72
     6
  0
VERTEX
  5
C33
  8
RÁM
 10
-321.2101733706166
 20
2000.0
 30
-2.399998906309486
 70
   192
  0
VERTEX
  5
C34
  8
RÁM
 10
-321.2101733706166
 20
18.0
 30
-2.399998906309486
 70
   192
  0
VERTEX
  5
C35
  8
RÁM
 10
-321.2101733706166
 20
18.0
 30
2.399998906309485
 70
   192
  0
VERTEX
  5
C36
  8
RÁM
 10
-321.2101733706166
 20
2000.0
 30
2.399998906309486
 70
   192
  0
VERTEX
  5
C37
  8
RÁM
 10
-321.2101733706166
 20
2000.0
 30
9.249998972993946
 70
   192
  0
VERTEX
  5
C38
  8
RÁM
 10
-321.2101733706166
 20
0.0
 30
9.249998972993946
 70
   192
  0
VERTEX
  5
C39
  8
RÁM
 10
-321.2101733706166
 20
0.0
 30
-9.8499997584866
 70
   192
  0
VERTEX
  5
C3A
  8
RÁM
 10
-321.2101733706166
 20
2000.0
 30
-9.8499997584866
 70
   192
  0
VERTEX
  5
C3B
  8
RÁM
 10
0.0
 20
0.0
 30
0.0
 70
   128
 71
     8
 72
     1
 73
    -2
  0
VERTEX
  5
C3C
  8
RÁM
 10
0.0
 20
0.0
 30
0.0
 70
   128
 71
     7
 72
    -8
 73
    -2
  0
VERTEX
  5
C3D
  8
RÁM
 10
0.0
 20
0.0
 30
0.0
 70
   128
 71
    -3
 72
     6
 73
    -7
  0
VERTEX
  5
C3E
  8
RÁM
 10
0.0
 20
0.0
 30
0.0
 70
   128
 71
     2
 72
    -3
 73
    -7
  0
VERTEX
  5
C3F
  8
RÁM
 10
0.0
 20
0.0
 30
0.0
 70
   128
 71
     4
 72
     5
 73
    -6
  0
VERTEX
  5
C40
  8
RÁM
 10
0.0
 20
0.0
 30
0.0
 70
   128
 71
     3
 72
    -4
 73
    -6
  0
SEQEND
  5
1632
  8
RÁM
  0
POLYLINE
  5
C41
  8
RÁM
 66
     1
 10
0.0
 20
0.0
 30
0.0
 70
    64
 71
     8
 72
     6
  0
VERTEX
  5
C42
  8
RÁM
 10
-321.4101733706166
 20
0.0
 30
-10.19640992000038
 70
   192
  0
VERTEX
  5
C43
  8
RÁM
 10
-321.4101733706166
 20
2000.0
 30
-10.19640992000038
 70
   192
  0
VERTEX
  5
C44
  8
RÁM
 10
-321.2637632091028
 20
2000.0
 30
-10.0499997584866
 70
   192
  0
VERTEX
  5
C45
  8
RÁM
 10
-321.2637632091028
 20
0.0
 30
-10.0499997584866
 70
   192
  0
VERTEX
  5
C46
  8
RÁM
 10
-321.6101733706166
 20
0.0
 30
-10.24999975848661
 70
   192
  0
VERTEX
  5
C47
  8
RÁM
 10
-321.6101733706166
 20
2000.0
 30
-10.24999975848661
 70
   192
  0
VERTEX
  5
C48
  8
RÁM
 10
-321.2101733706165
 20
2000.0
 30
-9.8499997584866
 70
   192
  0
VERTEX
  5
C49
  8
RÁM
 10
-321.2101733706166
 20
0.0
 30
-9.8499997584866
 70
   192
  0
VERTEX
  5
C4A
  8
RÁM
 10
0.0
 20
0.0
 30
0.0
 70
   128
 71
     1
 72
     2
 73
    -3
  0
VERTEX
  5
C4B
  8
RÁM
 10
0.0
 20
0.0
 30
0.0
 70
   128
 71
    -1
 72
     3
 73
     4
  0
VERTEX
  5
C4C
  8
RÁM
 10
0.0
 20
0.0
 30
0.0
 70
   128
 71
     5
 72
     6
 73
    -2
  0
VERTEX
  5
C4D
  8
RÁM
 10
0.0
 20
0.0
 30
0.0
 70
   128
 71
    -5
 72
     2
 73
     1
  0
VERTEX
  5
C4E
  8
RÁM
 10
0.0
 20
0.0
 30
0.0
 70
   128
 71
     4
 72
     3
 73
    -7
  0
VERTEX
  5
C4F
  8
RÁM
 10
0.0
 20
0.0
 30
0.0
 70
   128
 71
    -4
 72
     7
 73
     8
  0
SEQEND
  5
1633
  8
RÁM
  0
POLYLINE
  5
C50
  8
RÁM
 66
     1
 10
0.0
 20
0.0
 30
0.0
 70
    64
 71
     4
 72
     2
  0
VERTEX
  5
C51
  8
RÁM
 10
-321.6101733706166
 20
2000.0
 30
-10.24999975848661
 70
   192
  0
VERTEX
  5
C52
  8
RÁM
 10
-321.6101733706166
 20
0.0
 30
-10.24999975848661
 70
   192
  0
VERTEX
  5
C53
  8
RÁM
 10
-356.6669003679965
 20
0.0
 30
-10.24999975848661
 70
   192
  0
VERTEX
  5
C54
  8
RÁM
 10
-356.6669003679966
 20
2000.0
 30
-10.24999975848661
 70
   192
  0
VERTEX
  5
C55
  8
RÁM
 10
0.0
 20
0.0
 30
0.0
 70
   128
 71
     3
 72
     4
 73
    -1
  0
VERTEX
  5
C56
  8
RÁM
 10
0.0
 20
0.0
 30
0.0
 70
   128
 71
     2
 72
    -3
 73
     1
  0
SEQEND
  5
1634
  8
RÁM
  0
POLYLINE
  5
C57
  8
RÁM
 66
     1
 10
0.0
 20
0.0
 30
0.0
 70
    64
 71
     4
 72
     2
  0
VERTEX
  5
C58
  8
RÁM
 10
-356.6669003679966
 20
2000.0
 30
-10.24999975848661
 70
   192
  0
VERTEX
  5
C59
  8
RÁM
 10
-356.6669003679966
 20
0.0
 30
-10.24999975848661
 70
   192
  0
VERTEX
  5
C5A
  8
RÁM
 10
-356.6669003679966
 20
0.0
 30
-12.05000030328993
 70
   192
  0
VERTEX
  5
C5B
  8
RÁM
 10
-356.6669003679966
 20
2000.0
 30
-12.05000030328993
 70
   192
  0
VERTEX
  5
C5C
  8
RÁM
 10
0.0
 20
0.0
 30
0.0
 70
   128
 71
     3
 72
     4
 73
    -1
  0
VERTEX
  5
C5D
  8
RÁM
 10
0.0
 20
0.0
 30
0.0
 70
   128
 71
     2
 72
    -3
 73
     1
  0
SEQEND
  5
1635
  8
RÁM
  0
POLYLINE
  5
C5E
  8
RÁM
 66
     1
 10
0.0
 20
0.0
 30
0.0
 70
    64
 71
     4
 72
     2
  0
VERTEX
  5
C5F
  8
RÁM
 10
-356.6669003679966
 20
2000.0
 30
-12.05000030328993
 70
   192
  0
VERTEX
  5
C60
  8
RÁM
 10
-356.6669003679966
 20
0.0
 30
-12.05000030328993
 70
   192
  0
VERTEX
  5
C61
  8
RÁM
 10
-365.6125958434279
 20
0.0
 30
-18.01379728444238
 70
   192
  0
VERTEX
  5
C62
  8
RÁM
 10
-365.612595843428
 20
2000.0
 30
-18.01379728444238
 70
   192
  0
VERTEX
  5
C63
  8
RÁM
 10
0.0
 20
0.0
 30
0.0
 70
   128
 71
     3
 72
     4
 73
    -1
  0
VERTEX
  5
C64
  8
RÁM
 10
0.0
 20
0.0
 30
0.0
 70
   128
 71
     2
 72
    -3
 73
     1
  0
SEQEND
  5
1636
  8
RÁM
  0
POLYLINE
  5
C65
  8
RÁM
 66
     1
 10
0.0
 20
0.0
 30
0.0
 70
    64
 71
     8
 72
     6
  0
VERTEX
  5
C66
  8
RÁM
 10
-365.6901865916867
 20
0.0
 30
-18.0458730519751
 70
   192
  0
VERTEX
  5
C67
  8
RÁM
 10
-365.6901865916867
 20
2000.0
 30
-18.0458730519751
 70
   192
  0
VERTEX
  5
C68
  8
RÁM
 10
-365.6498144469415
 20
2000.0
 30
-18.03364935010749
 70
   192
  0
VERTEX
  5
C69
  8
RÁM
 10
-365.6498144469415
 20
0.0
 30
-18.03364935010749
 70
   192
  0
VERTEX
  5
C6A
  8
RÁM
 10
-365.7321662864157
 20
0.0
 30
-18.05000030155945
 70
   192
  0
VERTEX
  5
C6B
  8
RÁM
 10
-365.7321662864157
 20
2000.0
 30
-18.05000030155944
 70
   192
  0
VERTEX
  5
C6C
  8
RÁM
 10
-365.612595843428
 20
2000.0
 30
-18.01379728444239
 70
   192
  0
VERTEX
  5
C6D
  8
RÁM
 10
-365.612595843428
 20
0.0
 30
-18.01379728444238
 70
   192
  0
VERTEX
  5
C6E
  8
RÁM
 10
0.0
 20
0.0
 30
0.0
 70
   128
 71
     1
 72
     2
 73
    -3
  0
VERTEX
  5
C6F
  8
RÁM
 10
0.0
 20
0.0
 30
0.0
 70
   128
 71
    -1
 72
     3
 73
     4
  0
VERTEX
  5
C70
  8
RÁM
 10
0.0
 20
0.0
 30
0.0
 70
   128
 71
     5
 72
     6
 73
    -2
  0
VERTEX
  5
C71
  8
RÁM
 10
0.0
 20
0.0
 30
0.0
 70
   128
 71
    -5
 72
     2
 73
     1
  0
VERTEX
  5
C72
  8
RÁM
 10
0.0
 20
0.0
 30
0.0
 70
   128
 71
     4
 72
     3
 73
    -7
  0
VERTEX
  5
C73
  8
RÁM
 10
0.0
 20
0.0
 30
0.0
 70
   128
 71
    -4
 72
     7
 73
     8
  0
SEQEND
  5
1637
  8
RÁM
  0
POLYLINE
  5
C74
  8
RÁM
 66
     1
 10
0.0
 20
0.0
 30
0.0
 70
    64
 71
     4
 72
     2
  0
VERTEX
  5
C75
  8
RÁM
 10
-365.7321662864157
 20
2000.0
 30
-18.05000030155944
 70
   192
  0
VERTEX
  5
C76
  8
RÁM
 10
-365.7321662864157
 20
0.0
 30
-18.05000030155944
 70
   192
  0
VERTEX
  5
C77
  8
RÁM
 10
-394.8669003679577
 20
0.0
 30
-18.05000030155945
 70
   192
  0
VERTEX
  5
C78
  8
RÁM
 10
-394.8669003679577
 20
2000.0
 30
-18.05000030155945
 70
   192
  0
VERTEX
  5
C79
  8
RÁM
 10
0.0
 20
0.0
 30
0.0
 70
   128
 71
     3
 72
     4
 73
    -1
  0
VERTEX
  5
C7A
  8
RÁM
 10
0.0
 20
0.0
 30
0.0
 70
   128
 71
     2
 72
    -3
 73
     1
  0
SEQEND
  5
1638
  8
RÁM
  0
POLYLINE
  5
C7B
  8
RÁM
 66
     1
 10
0.0
 20
0.0
 30
0.0
 70
    64
 71
     4
 72
     2
  0
VERTEX
  5
C7C
  8
RÁM
 10
-394.8669003679577
 20
2000.0
 30
-18.05000030155945
 70
   192
  0
VERTEX
  5
C7D
  8
RÁM
 10
-394.8669003679577
 20
0.0
 30
-18.05000030155945
 70
   192
  0
VERTEX
  5
C7E
  8
RÁM
 10
-394.8669003679577
 20
0.0
 30
11.94999969674827
 70
   192
  0
VERTEX
  5
C7F
  8
RÁM
 10
-394.8669003679577
 20
2000.0
 30
11.94999969674827
 70
   192
  0
VERTEX
  5
C80
  8
RÁM
 10
0.0
 20
0.0
 30
0.0
 70
   128
 71
     3
 72
     4
 73
    -1
  0
VERTEX
  5
C81
  8
RÁM
 10
0.0
 20
0.0
 30
0.0
 70
   128
 71
     2
 72
    -3
 73
     1
  0
SEQEND
  5
1639
  8
RÁM
  0
POLYLINE
  5
C82
  8
RÁM
 66
     1
 10
0.0
 20
0.0
 30
0.0
 70
    64
 71
     4
 72
     2
  0
VERTEX
  5
C83
  8
RÁM
 10
-394.8669003679577
 20
2000.0
 30
11.94999969674827
 70
   192
  0
VERTEX
  5
C84
  8
RÁM
 10
-394.8669003679577
 20
0.0
 30
11.94999969674827
 70
   192
  0
VERTEX
  5
C85
  8
RÁM
 10
-356.8669003679584
 20
0.0
 30
11.94999969674826
 70
   192
  0
VERTEX
  5
C86
  8
RÁM
 10
-356.8669003679584
 20
2000.0
 30
11.94999969674826
 70
   192
  0
VERTEX
  5
C87
  8
RÁM
 10
0.0
 20
0.0
 30
0.0
 70
   128
 71
     3
 72
     4
 73
    -1
  0
VERTEX
  5
C88
  8
RÁM
 10
0.0
 20
0.0
 30
0.0
 70
   128
 71
     2
 72
    -3
 73
     1
  0
SEQEND
  5
163A
  8
RÁM
  0
POLYLINE
  5
C89
  8
RÁM
 66
     1
 10
0.0
 20
0.0
 30
0.0
 70
    64
 71
    25
 72
    23
  0
VERTEX
  5
C8A
  8
RÁM
 10
-356.8669003679584
 20
2000.0
 30
11.94999969674826
 70
   192
  0
VERTEX
  5
C8B
  8
RÁM
 10
-356.7669003679775
 20
2000.0
 30
11.92320477751027
 70
   192
  0
VERTEX
  5
C8C
  8
RÁM
 10
-356.6936952872346
 20
2000.0
 30
11.84999969676737
 70
   192
  0
VERTEX
  5
C8D
  8
RÁM
 10
-356.6669003679966
 20
2000.0
 30
11.74999969678648
 70
   192
  0
VERTEX
  5
C8E
  8
RÁM
 10
-356.6669003679966
 20
2000.0
 30
9.749998971876787
 70
   192
  0
VERTEX
  5
C8F
  8
RÁM
 10
-321.7101733694995
 20
2000.0
 30
9.749998971876785
 70
   192
  0
VERTEX
  5
C90
  8
RÁM
 10
-321.460173370058
 20
2000.0
 30
9.683011673918676
 70
   192
  0
VERTEX
  5
C91
  8
RÁM
 10
-321.2771606685747
 20
2000.0
 30
9.499998972435366
 70
   192
  0
VERTEX
  5
C92
  8
RÁM
 10
-321.2101733706166
 20
2000.0
 30
9.249998972993946
 70
   192
  0
VERTEX
  5
C93
  8
RÁM
 10
-321.2101733706166
 20
2000.0
 30
2.399998906309486
 70
   192
  0
VERTEX
  5
C94
  8
RÁM
 10
-330.212501367868
 20
2000.0
 30
2.399998906309485
 70
   192
  0
VERTEX
  5
C95
  8
RÁM
 10
-330.2125013678679
 20
2000.0
 30
-2.399998906309485
 70
   192
  0
VERTEX
  5
C96
  8
RÁM
 10
-321.2101733706166
 20
2000.0
 30
-2.399998906309486
 70
   192
  0
VERTEX
  5
C97
  8
RÁM
 10
-321.2101733706166
 20
2000.0
 30
-9.8499997584866
 70
   192
  0
VERTEX
  5
C98
  8
RÁM
 10
-321.2637632091028
 20
2000.0
 30
-10.0499997584866
 70
   192
  0
VERTEX
  5
C99
  8
RÁM
 10
-321.4101733706166
 20
2000.0
 30
-10.19640992000038
 70
   192
  0
VERTEX
  5
C9A
  8
RÁM
 10
-321.6101733706166
 20
2000.0
 30
-10.24999975848661
 70
   192
  0
VERTEX
  5
C9B
  8
RÁM
 10
-356.6669003679965
 20
2000.0
 30
-10.24999975848661
 70
   192
  0
VERTEX
  5
C9C
  8
RÁM
 10
-356.6669003679966
 20
2000.0
 30
-12.05000030328993
 70
   192
  0
VERTEX
  5
C9D
  8
RÁM
 10
-365.6125958434279
 20
2000.0
 30
-18.01379728444238
 70
   192
  0
VERTEX
  5
C9E
  8
RÁM
 10
-365.6498144469415
 20
2000.0
 30
-18.03364935010749
 70
   192
  0
VERTEX
  5
C9F
  8
RÁM
 10
-365.6901865916867
 20
2000.0
 30
-18.0458730519751
 70
   192
  0
VERTEX
  5
CA0
  8
RÁM
 10
-365.7321662864157
 20
2000.0
 30
-18.05000030155945
 70
   192
  0
VERTEX
  5
CA1
  8
RÁM
 10
-394.8669003679577
 20
2000.0
 30
-18.05000030155945
 70
   192
  0
VERTEX
  5
CA2
  8
RÁM
 10
-394.8669003679577
 20
2000.0
 30
11.94999969674827
 70
   192
  0
VERTEX
  5
CA3
  8
RÁM
 10
0.0
 20
0.0
 30
0.0
 70
   128
 71
     9
 72
    10
 73
   -11
  0
VERTEX
  5
CA4
  8
RÁM
 10
0.0
 20
0.0
 30
0.0
 70
   128
 71
     8
 72
    -9
 73
   -11
  0
VERTEX
  5
CA5
  8
RÁM
 10
0.0
 20
0.0
 30
0.0
 70
   128
 71
     7
 72
    -8
 73
   -11
  0
VERTEX
  5
CA6
  8
RÁM
 10
0.0
 20
0.0
 30
0.0
 70
   128
 71
     6
 72
    -7
 73
   -11
  0
VERTEX
  5
CA7
  8
RÁM
 10
0.0
 20
0.0
 30
0.0
 70
   128
 71
     3
 72
     4
 73
    -5
  0
VERTEX
  5
CA8
  8
RÁM
 10
0.0
 20
0.0
 30
0.0
 70
   128
 71
     2
 72
    -3
 73
    -5
  0
VERTEX
  5
CA9
  8
RÁM
 10
0.0
 20
0.0
 30
0.0
 70
   128
 71
     1
 72
    -2
 73
    -5
  0
VERTEX
  5
CAA
  8
RÁM
 10
0.0
 20
0.0
 30
0.0
 70
   128
 71
   -18
 72
    -1
 73
    -5
  0
VERTEX
  5
CAB
  8
RÁM
 10
0.0
 20
0.0
 30
0.0
 70
   128
 71
    -6
 72
   -11
 73
   -18
  0
VERTEX
  5
CAC
  8
RÁM
 10
0.0
 20
0.0
 30
0.0
 70
   128
 71
     5
 72
    -6
 73
   -18
  0
VERTEX
  5
CAD
  8
RÁM
 10
0.0
 20
0.0
 30
0.0
 70
   128
 71
    11
 72
   -12
 73
   -18
  0
VERTEX
  5
CAE
  8
RÁM
 10
0.0
 20
0.0
 30
0.0
 70
   128
 71
   -12
 72
    17
 73
   -18
  0
VERTEX
  5
CAF
  8
RÁM
 10
0.0
 20
0.0
 30
0.0
 70
   128
 71
    15
 72
    16
 73
   -17
  0
VERTEX
  5
CB0
  8
RÁM
 10
0.0
 20
0.0
 30
0.0
 70
   128
 71
    14
 72
   -15
 73
   -17
  0
VERTEX
  5
CB1
  8
RÁM
 10
0.0
 20
0.0
 30
0.0
 70
   128
 71
    13
 72
   -14
 73
   -17
  0
VERTEX
  5
CB2
  8
RÁM
 10
0.0
 20
0.0
 30
0.0
 70
   128
 71
    12
 72
   -13
 73
   -17
  0
VERTEX
  5
CB3
  8
RÁM
 10
0.0
 20
0.0
 30
0.0
 70
   128
 71
   -18
 72
   -23
 73
    -1
  0
VERTEX
  5
CB4
  8
RÁM
 10
0.0
 20
0.0
 30
0.0
 70
   128
 71
    19
 72
   -20
 73
   -23
  0
VERTEX
  5
CB5
  8
RÁM
 10
0.0
 20
0.0
 30
0.0
 70
   128
 71
    18
 72
   -19
 73
   -23
  0
VERTEX
  5
CB6
  8
RÁM
 10
0.0
 20
0.0
 30
0.0
 70
   128
 71
    21
 72
    22
 73
   -23
  0
VERTEX
  5
CB7
  8
RÁM
 10
0.0
 20
0.0
 30
0.0
 70
   128
 71
    20
 72
   -21
 73
   -23
  0
VERTEX
  5
CB8
  8
RÁM
 10
0.0
 20
0.0
 30
0.0
 70
   128
 71
    24
 72
    25
 73
    -1
  0
VERTEX
  5
CB9
  8
RÁM
 10
0.0
 20
0.0
 30
0.0
 70
   128
 71
    23
 72
   -24
 73
    -1
  0
SEQEND
  5
163B
  8
RÁM
  0
POLYLINE
  5
CBA
  8
RÁM
 66
     1
 10
0.0
 20
0.0
 30
0.0
 70
    64
 71
    21
 72
    19
  0
VERTEX
  5
CBB
  8
RÁM
 10
-321.2101733706165
 20
0.0
 30
-9.8499997584866
 70
   192
  0
VERTEX
  5
CBC
  8
RÁM
 10
-321.2637632091028
 20
0.0
 30
-10.0499997584866
 70
   192
  0
VERTEX
  5
CBD
  8
RÁM
 10
-321.4101733706166
 20
0.0
 30
-10.19640992000038
 70
   192
  0
VERTEX
  5
CBE
  8
RÁM
 10
-321.6101733706166
 20
0.0
 30
-10.24999975848661
 70
   192
  0
VERTEX
  5
CBF
  8
RÁM
 10
-356.6669003679966
 20
0.0
 30
-10.24999975848661
 70
   192
  0
VERTEX
  5
CC0
  8
RÁM
 10
-356.6669003679966
 20
0.0
 30
-12.05000030328995
 70
   192
  0
VERTEX
  5
CC1
  8
RÁM
 10
-365.612595843428
 20
0.0
 30
-18.01379728444239
 70
   192
  0
VERTEX
  5
CC2
  8
RÁM
 10
-365.6498144469415
 20
0.0
 30
-18.03364935010749
 70
   192
  0
VERTEX
  5
CC3
  8
RÁM
 10
-365.6901865916867
 20
0.0
 30
-18.0458730519751
 70
   192
  0
VERTEX
  5
CC4
  8
RÁM
 10
-365.7321662864157
 20
0.0
 30
-18.05000030155944
 70
   192
  0
VERTEX
  5
CC5
  8
RÁM
 10
-394.8669003679577
 20
0.0
 30
-18.05000030155944
 70
   192
  0
VERTEX
  5
CC6
  8
RÁM
 10
-394.8669003679577
 20
0.0
 30
11.94999969674827
 70
   192
  0
VERTEX
  5
CC7
  8
RÁM
 10
-356.8669003679584
 20
0.0
 30
11.94999969674826
 70
   192
  0
VERTEX
  5
CC8
  8
RÁM
 10
-356.7669003679775
 20
0.0
 30
11.92320477751027
 70
   192
  0
VERTEX
  5
CC9
  8
RÁM
 10
-356.6936952872346
 20
0.0
 30
11.84999969676737
 70
   192
  0
VERTEX
  5
CCA
  8
RÁM
 10
-356.6669003679966
 20
0.0
 30
11.74999969678648
 70
   192
  0
VERTEX
  5
CCB
  8
RÁM
 10
-356.6669003679965
 20
0.0
 30
9.74999897187679
 70
   192
  0
VERTEX
  5
CCC
  8
RÁM
 10
-321.7101733694994
 20
0.0
 30
9.749998971876785
 70
   192
  0
VERTEX
  5
CCD
  8
RÁM
 10
-321.460173370058
 20
0.0
 30
9.683011673918676
 70
   192
  0
VERTEX
  5
CCE
  8
RÁM
 10
-321.2771606685747
 20
0.0
 30
9.499998972435366
 70
   192
  0
VERTEX
  5
CCF
  8
RÁM
 10
-321.2101733706166
 20
0.0
 30
9.249998972993946
 70
   192
  0
VERTEX
  5
CD0
  8
RÁM
 10
0.0
 20
0.0
 30
0.0
 70
   128
 71
    17
 72
    16
 73
   -15
  0
VERTEX
  5
CD1
  8
RÁM
 10
0.0
 20
0.0
 30
0.0
 70
   128
 71
   -17
 72
    15
 73
   -14
  0
VERTEX
  5
CD2
  8
RÁM
 10
0.0
 20
0.0
 30
0.0
 70
   128
 71
   -17
 72
    14
 73
   -13
  0
VERTEX
  5
CD3
  8
RÁM
 10
0.0
 20
0.0
 30
0.0
 70
   128
 71
   -17
 72
    13
 73
   -12
  0
VERTEX
  5
CD4
  8
RÁM
 10
0.0
 20
0.0
 30
0.0
 70
   128
 71
     5
 72
     4
 73
    -3
  0
VERTEX
  5
CD5
  8
RÁM
 10
0.0
 20
0.0
 30
0.0
 70
   128
 71
    -5
 72
     3
 73
    -2
  0
VERTEX
  5
CD6
  8
RÁM
 10
0.0
 20
0.0
 30
0.0
 70
   128
 71
    -5
 72
     2
 73
    -1
  0
VERTEX
  5
CD7
  8
RÁM
 10
0.0
 20
0.0
 30
0.0
 70
   128
 71
    -5
 72
     1
 73
   -21
  0
VERTEX
  5
CD8
  8
RÁM
 10
0.0
 20
0.0
 30
0.0
 70
   128
 71
    -5
 72
    21
 73
   -20
  0
VERTEX
  5
CD9
  8
RÁM
 10
0.0
 20
0.0
 30
0.0
 70
   128
 71
    -5
 72
    20
 73
   -19
  0
VERTEX
  5
CDA
  8
RÁM
 10
0.0
 20
0.0
 30
0.0
 70
   128
 71
    -5
 72
    19
 73
   -18
  0
VERTEX
  5
CDB
  8
RÁM
 10
0.0
 20
0.0
 30
0.0
 70
   128
 71
    -5
 72
    18
 73
   -17
  0
VERTEX
  5
CDC
  8
RÁM
 10
0.0
 20
0.0
 30
0.0
 70
   128
 71
   -17
 72
   -10
 73
    -5
  0
VERTEX
  5
CDD
  8
RÁM
 10
0.0
 20
0.0
 30
0.0
 70
   128
 71
   -10
 72
     7
 73
    -6
  0
VERTEX
  5
CDE
  8
RÁM
 10
0.0
 20
0.0
 30
0.0
 70
   128
 71
   -10
 72
     6
 73
    -5
  0
VERTEX
  5
CDF
  8
RÁM
 10
0.0
 20
0.0
 30
0.0
 70
   128
 71
    10
 72
     9
 73
    -8
  0
VERTEX
  5
CE0
  8
RÁM
 10
0.0
 20
0.0
 30
0.0
 70
   128
 71
   -10
 72
     8
 73
    -7
  0
VERTEX
  5
CE1
  8
RÁM
 10
0.0
 20
0.0
 30
0.0
 70
   128
 71
   -17
 72
    12
 73
   -11
  0
VERTEX
  5
CE2
  8
RÁM
 10
0.0
 20
0.0
 30
0.0
 70
   128
 71
   -17
 72
    11
 73
   -10
  0
SEQEND
  5
163C
  8
RÁM
  0
POLYLINE
  5
CE3
  8
RÁM
 66
     1
 10
0.0
 20
0.0
 30
0.0
 70
    64
 71
     4
 72
     2
  0
VERTEX
  5
CE4
  8
RÁM
 10
-330.2125013678679
 20
18.00000000000001
 30
-2.399998906309485
 70
   192
  0
VERTEX
  5
CE5
  8
RÁM
 10
-330.2125013678679
 20
18.00000000000001
 30
2.399998906309485
 70
   192
  0
VERTEX
  5
CE6
  8
RÁM
 10
-321.2101733706166
 20
18.00000000000001
 30
2.399998906309486
 70
   192
  0
VERTEX
  5
CE7
  8
RÁM
 10
-321.2101733706166
 20
18.0
 30
-2.399998906309486
 70
   192
  0
VERTEX
  5
CE8
  8
RÁM
 10
0.0
 20
0.0
 30
0.0
 70
   128
 71
     3
 72
     4
 73
    -1
  0
VERTEX
  5
CE9
  8
RÁM
 10
0.0
 20
0.0
 30
0.0
 70
   128
 71
     2
 72
    -3
 73
     1
  0
SEQEND
  5
163D
  8
RÁM
  0
ENDBLK
  5
162A
  8
0
  0
BLOCK
  8
0
  2
*X2
 70
     1
 10
0.0
 20
0.0
 30
0.0
  3
*X2
  1

  0
POLYLINE
  5
CEB
  8
RÁM
 66
     1
 10
0.0
 20
0.0
 30
0.0
 70
    64
 71
     8
 72
     6
  0
VERTEX
  5
CEC
  8
RÁM
 10
329.8205113340244
 20
2000.0
 30
-3.200213198482305
 70
   192
  0
VERTEX
  5
CED
  8
RÁM
 10
329.6374986321327
 20
2000.0
 30
-3.383225900374006
 70
   192
  0
VERTEX
  5
CEE
  8
RÁM
 10
329.6374986321327
 20
18.00000000000001
 30
-3.383225900374006
 70
   192
  0
VERTEX
  5
CEF
  8
RÁM
 10
329.8205113340244
 20
18.00000000000001
 30
-3.200213198482305
 70
   192
  0
VERTEX
  5
CF0
  8
RÁM
 10
329.3874986321334
 20
2000.0
 30
-3.450213198481597
 70
   192
  0
VERTEX
  5
CF1
  8
RÁM
 10
329.3874986321334
 20
18.0
 30
-3.450213198481597
 70
   192
  0
VERTEX
  5
CF2
  8
RÁM
 10
329.887498632132
 20
2000.0
 30
-2.950213198483012
 70
   192
  0
VERTEX
  5
CF3
  8
RÁM
 10
329.887498632132
 20
18.00000000000001
 30
-2.950213198483012
 70
   192
  0
VERTEX
  5
CF4
  8
RÁM
 10
0.0
 20
0.0
 30
0.0
 70
   128
 71
     1
 72
     2
 73
    -3
  0
VERTEX
  5
CF5
  8
RÁM
 10
0.0
 20
0.0
 30
0.0
 70
   128
 71
     4
 72
    -1
 73
     3
  0
VERTEX
  5
CF6
  8
RÁM
 10
0.0
 20
0.0
 30
0.0
 70
   128
 71
     2
 72
     5
 73
    -6
  0
VERTEX
  5
CF7
  8
RÁM
 10
0.0
 20
0.0
 30
0.0
 70
   128
 71
     3
 72
    -2
 73
     6
  0
VERTEX
  5
CF8
  8
RÁM
 10
0.0
 20
0.0
 30
0.0
 70
   128
 71
     7
 72
     1
 73
    -4
  0
VERTEX
  5
CF9
  8
RÁM
 10
0.0
 20
0.0
 30
0.0
 70
   128
 71
     8
 72
    -7
 73
     4
  0
SEQEND
  5
1640
  8
RÁM
  0
POLYLINE
  5
CFA
  8
RÁM
 66
     1
 10
0.0
 20
0.0
 30
0.0
 70
    64
 71
     8
 72
     6
  0
VERTEX
  5
CFB
  8
RÁM
 10
324.4476194595463
 20
0.0
 30
-4.400001838522893
 70
   192
  0
VERTEX
  5
CFC
  8
RÁM
 10
324.4476194595463
 20
2000.0
 30
-4.400001838522893
 70
   192
  0
VERTEX
  5
CFD
  8
RÁM
 10
324.6306476900796
 20
2000.0
 30
-4.583157727599071
 70
   192
  0
VERTEX
  5
CFE
  8
RÁM
 10
324.6306476900796
 20
0.0
 30
-4.583157727599071
 70
   192
  0
VERTEX
  5
CFF
  8
RÁM
 10
324.3807484423384
 20
0.0
 30
-4.149854522061174
 70
   192
  0
VERTEX
  5
D00
  8
RÁM
 10
324.3807484423384
 20
2000.0
 30
-4.149854522061174
 70
   192
  0
VERTEX
  5
D01
  8
RÁM
 10
324.8807483208021
 20
2000.0
 30
-4.6502031404747
 70
   192
  0
VERTEX
  5
D02
  8
RÁM
 10
324.8807483208021
 20
0.0
 30
-4.6502031404747
 70
   192
  0
VERTEX
  5
D03
  8
RÁM
 10
0.0
 20
0.0
 30
0.0
 70
   128
 71
     1
 72
     2
 73
    -3
  0
VERTEX
  5
D04
  8
RÁM
 10
0.0
 20
0.0
 30
0.0
 70
   128
 71
    -1
 72
     3
 73
     4
  0
VERTEX
  5
D05
  8
RÁM
 10
0.0
 20
0.0
 30
0.0
 70
   128
 71
     5
 72
     6
 73
    -2
  0
VERTEX
  5
D06
  8
RÁM
 10
0.0
 20
0.0
 30
0.0
 70
   128
 71
    -5
 72
     2
 73
     1
  0
VERTEX
  5
D07
  8
RÁM
 10
0.0
 20
0.0
 30
0.0
 70
   128
 71
     4
 72
     3
 73
    -7
  0
VERTEX
  5
D08
  8
RÁM
 10
0.0
 20
0.0
 30
0.0
 70
   128
 71
    -4
 72
     7
 73
     8
  0
SEQEND
  5
1641
  8
RÁM
  0
POLYLINE
  5
D09
  8
RÁM
 66
     1
 10
0.0
 20
0.0
 30
0.0
 70
    64
 71
     8
 72
     6
  0
VERTEX
  5
D0A
  8
RÁM
 10
334.9710144995743
 20
0.0
 30
-4.650118439861793
 70
   192
  0
VERTEX
  5
D0B
  8
RÁM
 10
334.9710144995743
 20
2000.0
 30
-4.650118439861793
 70
   192
  0
VERTEX
  5
D0C
  8
RÁM
 10
334.9758812403508
 20
2000.0
 30
-4.6501895082664
 70
   192
  0
VERTEX
  5
D0D
  8
RÁM
 10
334.9758812403508
 20
0.0
 30
-4.6501895082664
 70
   192
  0
VERTEX
  5
D0E
  8
RÁM
 10
334.9661486811946
 20
0.0
 30
-4.650000000003587
 70
   192
  0
VERTEX
  5
D0F
  8
RÁM
 10
334.9661486811946
 20
2000.0
 30
-4.650000000003587
 70
   192
  0
VERTEX
  5
D10
  8
RÁM
 10
334.9807484423476
 20
2000.0
 30
-4.650213198482904
 70
   192
  0
VERTEX
  5
D11
  8
RÁM
 10
334.9807484423476
 20
0.0
 30
-4.650213198482904
 70
   192
  0
VERTEX
  5
D12
  8
RÁM
 10
0.0
 20
0.0
 30
0.0
 70
   128
 71
     1
 72
     2
 73
    -3
  0
VERTEX
  5
D13
  8
RÁM
 10
0.0
 20
0.0
 30
0.0
 70
   128
 71
    -1
 72
     3
 73
     4
  0
VERTEX
  5
D14
  8
RÁM
 10
0.0
 20
0.0
 30
0.0
 70
   128
 71
     5
 72
     6
 73
    -2
  0
VERTEX
  5
D15
  8
RÁM
 10
0.0
 20
0.0
 30
0.0
 70
   128
 71
    -5
 72
     2
 73
     1
  0
VERTEX
  5
D16
  8
RÁM
 10
0.0
 20
0.0
 30
0.0
 70
   128
 71
     4
 72
     3
 73
    -7
  0
VERTEX
  5
D17
  8
RÁM
 10
0.0
 20
0.0
 30
0.0
 70
   128
 71
    -4
 72
     7
 73
     8
  0
SEQEND
  5
1642
  8
RÁM
  0
POLYLINE
  5
D18
  8
RÁM
 66
     1
 10
0.0
 20
0.0
 30
0.0
 70
    64
 71
     8
 72
     6
  0
VERTEX
  5
D19
  8
RÁM
 10
335.5477357404537
 20
0.0
 30
-4.400213198483653
 70
   192
  0
VERTEX
  5
D1A
  8
RÁM
 10
335.5477357404537
 20
2000.0
 30
-4.400213198483653
 70
   192
  0
VERTEX
  5
D1B
  8
RÁM
 10
335.7307484423454
 20
2000.0
 30
-4.583225900375324
 70
   192
  0
VERTEX
  5
D1C
  8
RÁM
 10
335.7307484423454
 20
0.0
 30
-4.583225900375324
 70
   192
  0
VERTEX
  5
D1D
  8
RÁM
 10
335.4807484423461
 20
0.0
 30
-4.150213198484402
 70
   192
  0
VERTEX
  5
D1E
  8
RÁM
 10
335.4807484423462
 20
2000.0
 30
-4.150213198484402
 70
   192
  0
VERTEX
  5
D1F
  8
RÁM
 10
335.9807484423446
 20
2000.0
 30
-4.650213198482904
 70
   192
  0
VERTEX
  5
D20
  8
RÁM
 10
335.9807484423446
 20
0.0
 30
-4.650213198482905
 70
   192
  0
VERTEX
  5
D21
  8
RÁM
 10
0.0
 20
0.0
 30
0.0
 70
   128
 71
     1
 72
     2
 73
    -3
  0
VERTEX
  5
D22
  8
RÁM
 10
0.0
 20
0.0
 30
0.0
 70
   128
 71
    -1
 72
     3
 73
     4
  0
VERTEX
  5
D23
  8
RÁM
 10
0.0
 20
0.0
 30
0.0
 70
   128
 71
     5
 72
     6
 73
    -2
  0
VERTEX
  5
D24
  8
RÁM
 10
0.0
 20
0.0
 30
0.0
 70
   128
 71
    -5
 72
     2
 73
     1
  0
VERTEX
  5
D25
  8
RÁM
 10
0.0
 20
0.0
 30
0.0
 70
   128
 71
     4
 72
     3
 73
    -7
  0
VERTEX
  5
D26
  8
RÁM
 10
0.0
 20
0.0
 30
0.0
 70
   128
 71
    -4
 72
     7
 73
     8
  0
SEQEND
  5
1643
  8
RÁM
  0
POLYLINE
  5
D27
  8
RÁM
 66
     1
 10
0.0
 20
0.0
 30
0.0
 70
    64
 71
    12
 72
    10
  0
VERTEX
  5
D28
  8
RÁM
 10
324.3807484423384
 20
2000.0
 30
-3.299854522061157
 70
   192
  0
VERTEX
  5
D29
  8
RÁM
 10
324.3809594078674
 20
0.0
 30
-3.291901839983222
 70
   192
  0
VERTEX
  5
D2A
  8
RÁM
 10
324.381222975673
 20
18.0
 30
-3.287932491256963
 70
   192
  0
VERTEX
  5
D2B
  8
RÁM
 10
324.3812229756731
 20
0.0
 30
-3.287932491256357
 70
   192
  0
VERTEX
  5
D2C
  8
RÁM
 10
324.3808011929961
 20
0.0
 30
-3.295876782166219
 70
   192
  0
VERTEX
  5
D2D
  8
RÁM
 10
324.3807484423384
 20
0.0
 30
-3.299854522061157
 70
   192
  0
VERTEX
  5
D2E
  8
RÁM
 10
324.4595946909382
 20
2000.0
 30
-3.167804744849177
 70
   192
  0
VERTEX
  5
D2F
  8
RÁM
 10
324.4019597341571
 20
2000.0
 30
-3.222955441149888
 70
   192
  0
VERTEX
  5
D30
  8
RÁM
 10
324.4062178936269
 20
18.00000000000001
 30
-3.216235490509516
 70
   192
  0
VERTEX
  5
D31
  8
RÁM
 10
324.5373531541853
 20
18.00000000000001
 30
-3.150000000002142
 70
   192
  0
VERTEX
  5
D32
  8
RÁM
 10
324.5373531541853
 20
2000.0
 30
-3.150000000002199
 70
   192
  0
VERTEX
  5
D33
  8
RÁM
 10
324.4631214447654
 20
18.00000000000001
 30
-3.165964308829111
 70
   192
  0
VERTEX
  5
D34
  8
RÁM
 10
0.0
 20
0.0
 30
0.0
 70
   128
 71
     1
 72
     2
 73
     3
  0
VERTEX
  5
D35
  8
RÁM
 10
0.0
 20
0.0
 30
0.0
 70
   128
 71
     2
 72
     4
 73
     3
  0
VERTEX
  5
D36
  8
RÁM
 10
0.0
 20
0.0
 30
0.0
 70
   128
 71
     1
 72
     5
 73
     2
  0
VERTEX
  5
D37
  8
RÁM
 10
0.0
 20
0.0
 30
0.0
 70
   128
 71
     1
 72
     6
 73
     5
  0
VERTEX
  5
D38
  8
RÁM
 10
0.0
 20
0.0
 30
0.0
 70
   128
 71
     7
 72
     8
 73
     9
  0
VERTEX
  5
D39
  8
RÁM
 10
0.0
 20
0.0
 30
0.0
 70
   128
 71
     8
 72
     1
 73
     3
  0
VERTEX
  5
D3A
  8
RÁM
 10
0.0
 20
0.0
 30
0.0
 70
   128
 71
    10
 72
    11
 73
     7
  0
VERTEX
  5
D3B
  8
RÁM
 10
0.0
 20
0.0
 30
0.0
 70
   128
 71
    10
 72
     7
 73
    12
  0
VERTEX
  5
D3C
  8
RÁM
 10
0.0
 20
0.0
 30
0.0
 70
   128
 71
    12
 72
     7
 73
     9
  0
VERTEX
  5
D3D
  8
RÁM
 10
0.0
 20
0.0
 30
0.0
 70
   128
 71
     9
 72
     8
 73
     3
  0
SEQEND
  5
1644
  8
RÁM
  0
POLYLINE
  5
D3E
  8
RÁM
 66
     1
 10
0.0
 20
0.0
 30
0.0
 70
    64
 71
     4
 72
     2
  0
VERTEX
  5
D3F
  8
RÁM
 10
369.6807484416252
 20
2000.0
 30
-12.50501298930231
 70
   192
  0
VERTEX
  5
D40
  8
RÁM
 10
369.6807484416252
 20
0.0
 30
-12.50501298930231
 70
   192
  0
VERTEX
  5
D41
  8
RÁM
 10
339.6807484416264
 20
0.0
 30
-12.50501298930231
 70
   192
  0
VERTEX
  5
D42
  8
RÁM
 10
339.6807484416264
 20
2000.0
 30
-12.50501298930231
 70
   192
  0
VERTEX
  5
D43
  8
RÁM
 10
0.0
 20
0.0
 30
0.0
 70
   128
 71
     3
 72
     4
 73
    -1
  0
VERTEX
  5
D44
  8
RÁM
 10
0.0
 20
0.0
 30
0.0
 70
   128
 71
     2
 72
    -3
 73
     1
  0
SEQEND
  5
1645
  8
RÁM
  0
POLYLINE
  5
D45
  8
RÁM
 66
     1
 10
0.0
 20
0.0
 30
0.0
 70
    64
 71
     4
 72
     2
  0
VERTEX
  5
D46
  8
RÁM
 10
339.6807484416264
 20
2000.0
 30
-12.50501298930231
 70
   192
  0
VERTEX
  5
D47
  8
RÁM
 10
339.6807484416264
 20
0.0
 30
-12.50501298930231
 70
   192
  0
VERTEX
  5
D48
  8
RÁM
 10
339.6807484416264
 20
0.0
 30
-1.401175522428831
 70
   192
  0
VERTEX
  5
D49
  8
RÁM
 10
339.6807484416264
 20
2000.0
 30
-1.401175522428831
 70
   192
  0
VERTEX
  5
D4A
  8
RÁM
 10
0.0
 20
0.0
 30
0.0
 70
   128
 71
     3
 72
     4
 73
    -1
  0
VERTEX
  5
D4B
  8
RÁM
 10
0.0
 20
0.0
 30
0.0
 70
   128
 71
     2
 72
    -3
 73
     1
  0
SEQEND
  5
1646
  8
RÁM
  0
POLYLINE
  5
D4C
  8
RÁM
 66
     1
 10
0.0
 20
0.0
 30
0.0
 70
    64
 71
     8
 72
     6
  0
VERTEX
  5
D4D
  8
RÁM
 10
337.66949452876
 20
0.0
 30
-4.16673990419116
 70
   192
  0
VERTEX
  5
D4E
  8
RÁM
 10
337.66949452876
 20
2000.0
 30
-4.16673990419116
 70
   192
  0
VERTEX
  5
D4F
  8
RÁM
 10
338.9855486055211
 20
2000.0
 30
-3.009715524097807
 70
   192
  0
VERTEX
  5
D50
  8
RÁM
 10
338.9855486055211
 20
0.0
 30
-3.009715524097807
 70
   192
  0
VERTEX
  5
D51
  8
RÁM
 10
335.9851619730626
 20
0.0
 30
-4.650193718850057
 70
   192
  0
VERTEX
  5
D52
  8
RÁM
 10
335.9851619730626
 20
2000.0
 30
-4.650193718850058
 70
   192
  0
VERTEX
  5
D53
  8
RÁM
 10
339.6807484416263
 20
2000.0
 30
-1.401175522428822
 70
   192
  0
VERTEX
  5
D54
  8
RÁM
 10
339.6807484416264
 20
0.0
 30
-1.401175522428831
 70
   192
  0
VERTEX
  5
D55
  8
RÁM
 10
0.0
 20
0.0
 30
0.0
 70
   128
 71
     1
 72
     2
 73
    -3
  0
VERTEX
  5
D56
  8
RÁM
 10
0.0
 20
0.0
 30
0.0
 70
   128
 71
    -1
 72
     3
 73
     4
  0
VERTEX
  5
D57
  8
RÁM
 10
0.0
 20
0.0
 30
0.0
 70
   128
 71
     5
 72
     6
 73
    -2
  0
VERTEX
  5
D58
  8
RÁM
 10
0.0
 20
0.0
 30
0.0
 70
   128
 71
    -5
 72
     2
 73
     1
  0
VERTEX
  5
D59
  8
RÁM
 10
0.0
 20
0.0
 30
0.0
 70
   128
 71
     4
 72
     3
 73
    -7
  0
VERTEX
  5
D5A
  8
RÁM
 10
0.0
 20
0.0
 30
0.0
 70
   128
 71
    -4
 72
     7
 73
     8
  0
SEQEND
  5
1647
  8
RÁM
  0
POLYLINE
  5
D5B
  8
RÁM
 66
     1
 10
0.0
 20
0.0
 30
0.0
 70
    64
 71
     8
 72
     6
  0
VERTEX
  5
D5C
  8
RÁM
 10
335.9822196362334
 20
0.0
 30
-4.650211034066762
 70
   192
  0
VERTEX
  5
D5D
  8
RÁM
 10
335.9822196362334
 20
2000.0
 30
-4.650211034066762
 70
   192
  0
VERTEX
  5
D5E
  8
RÁM
 10
335.9836908173851
 20
2000.0
 30
-4.650204540837071
 70
   192
  0
VERTEX
  5
D5F
  8
RÁM
 10
335.9836908173851
 20
0.0
 30
-4.650204540837071
 70
   192
  0
VERTEX
  5
D60
  8
RÁM
 10
335.9807484423446
 20
0.0
 30
-4.650213198482904
 70
   192
  0
VERTEX
  5
D61
  8
RÁM
 10
335.9807484423446
 20
2000.0
 30
-4.650213198482905
 70
   192
  0
VERTEX
  5
D62
  8
RÁM
 10
335.9851619730626
 20
2000.0
 30
-4.65019371885005
 70
   192
  0
VERTEX
  5
D63
  8
RÁM
 10
335.9851619730626
 20
0.0
 30
-4.650193718850058
 70
   192
  0
VERTEX
  5
D64
  8
RÁM
 10
0.0
 20
0.0
 30
0.0
 70
   128
 71
     1
 72
     2
 73
    -3
  0
VERTEX
  5
D65
  8
RÁM
 10
0.0
 20
0.0
 30
0.0
 70
   128
 71
    -1
 72
     3
 73
     4
  0
VERTEX
  5
D66
  8
RÁM
 10
0.0
 20
0.0
 30
0.0
 70
   128
 71
     5
 72
     6
 73
    -2
  0
VERTEX
  5
D67
  8
RÁM
 10
0.0
 20
0.0
 30
0.0
 70
   128
 71
    -5
 72
     2
 73
     1
  0
VERTEX
  5
D68
  8
RÁM
 10
0.0
 20
0.0
 30
0.0
 70
   128
 71
     4
 72
     3
 73
    -7
  0
VERTEX
  5
D69
  8
RÁM
 10
0.0
 20
0.0
 30
0.0
 70
   128
 71
    -4
 72
     7
 73
     8
  0
SEQEND
  5
1648
  8
RÁM
  0
POLYLINE
  5
D6A
  8
RÁM
 66
     1
 10
0.0
 20
0.0
 30
0.0
 70
    64
 71
     8
 72
     6
  0
VERTEX
  5
D6B
  8
RÁM
 10
335.2307484423469
 20
0.0
 30
-4.583225900375324
 70
   192
  0
VERTEX
  5
D6C
  8
RÁM
 10
335.2307484423469
 20
2000.0
 30
-4.583225900375324
 70
   192
  0
VERTEX
  5
D6D
  8
RÁM
 10
335.4137611442385
 20
2000.0
 30
-4.400213198483653
 70
   192
  0
VERTEX
  5
D6E
  8
RÁM
 10
335.4137611442385
 20
0.0
 30
-4.400213198483653
 70
   192
  0
VERTEX
  5
D6F
  8
RÁM
 10
334.9807484423476
 20
0.0
 30
-4.650213198482904
 70
   192
  0
VERTEX
  5
D70
  8
RÁM
 10
334.9807484423476
 20
2000.0
 30
-4.650213198482904
 70
   192
  0
VERTEX
  5
D71
  8
RÁM
 10
335.4807484423462
 20
2000.0
 30
-4.150213198484402
 70
   192
  0
VERTEX
  5
D72
  8
RÁM
 10
335.4807484423462
 20
0.0
 30
-4.150213198484402
 70
   192
  0
VERTEX
  5
D73
  8
RÁM
 10
0.0
 20
0.0
 30
0.0
 70
   128
 71
     1
 72
     2
 73
    -3
  0
VERTEX
  5
D74
  8
RÁM
 10
0.0
 20
0.0
 30
0.0
 70
   128
 71
    -1
 72
     3
 73
     4
  0
VERTEX
  5
D75
  8
RÁM
 10
0.0
 20
0.0
 30
0.0
 70
   128
 71
     5
 72
     6
 73
    -2
  0
VERTEX
  5
D76
  8
RÁM
 10
0.0
 20
0.0
 30
0.0
 70
   128
 71
    -5
 72
     2
 73
     1
  0
VERTEX
  5
D77
  8
RÁM
 10
0.0
 20
0.0
 30
0.0
 70
   128
 71
     4
 72
     3
 73
    -7
  0
VERTEX
  5
D78
  8
RÁM
 10
0.0
 20
0.0
 30
0.0
 70
   128
 71
    -4
 72
     7
 73
     8
  0
SEQEND
  5
1649
  8
RÁM
  0
POLYLINE
  5
D79
  8
RÁM
 66
     1
 10
0.0
 20
0.0
 30
0.0
 70
    64
 71
     4
 72
     2
  0
VERTEX
  5
D7A
  8
RÁM
 10
334.9661486811946
 20
2000.0
 30
-4.650000000003587
 70
   192
  0
VERTEX
  5
D7B
  8
RÁM
 10
334.9661486811946
 20
0.0
 30
-4.650000000003587
 70
   192
  0
VERTEX
  5
D7C
  8
RÁM
 10
324.8949996086412
 20
0.0
 30
-4.650000000003587
 70
   192
  0
VERTEX
  5
D7D
  8
RÁM
 10
324.8949996086412
 20
2000.0
 30
-4.650000000003587
 70
   192
  0
VERTEX
  5
D7E
  8
RÁM
 10
0.0
 20
0.0
 30
0.0
 70
   128
 71
     3
 72
     4
 73
    -1
  0
VERTEX
  5
D7F
  8
RÁM
 10
0.0
 20
0.0
 30
0.0
 70
   128
 71
     2
 72
    -3
 73
     1
  0
SEQEND
  5
164A
  8
RÁM
  0
POLYLINE
  5
D80
  8
RÁM
 66
     1
 10
0.0
 20
0.0
 30
0.0
 70
    64
 71
     8
 72
     6
  0
VERTEX
  5
D81
  8
RÁM
 10
324.8854993220266
 20
0.0
 30
-4.650180567952545
 70
   192
  0
VERTEX
  5
D82
  8
RÁM
 10
324.8854993220266
 20
2000.0
 30
-4.650180567952545
 70
   192
  0
VERTEX
  5
D83
  8
RÁM
 10
324.8902498942829
 20
2000.0
 30
-4.650112852424157
 70
   192
  0
VERTEX
  5
D84
  8
RÁM
 10
324.8902498942829
 20
0.0
 30
-4.650112852424157
 70
   192
  0
VERTEX
  5
D85
  8
RÁM
 10
324.8807483208021
 20
0.0
 30
-4.6502031404747
 70
   192
  0
VERTEX
  5
D86
  8
RÁM
 10
324.8807483208021
 20
2000.0
 30
-4.6502031404747
 70
   192
  0
VERTEX
  5
D87
  8
RÁM
 10
324.8949996086412
 20
2000.0
 30
-4.650000000003575
 70
   192
  0
VERTEX
  5
D88
  8
RÁM
 10
324.8949996086412
 20
0.0
 30
-4.650000000003587
 70
   192
  0
VERTEX
  5
D89
  8
RÁM
 10
0.0
 20
0.0
 30
0.0
 70
   128
 71
     1
 72
     2
 73
    -3
  0
VERTEX
  5
D8A
  8
RÁM
 10
0.0
 20
0.0
 30
0.0
 70
   128
 71
    -1
 72
     3
 73
     4
  0
VERTEX
  5
D8B
  8
RÁM
 10
0.0
 20
0.0
 30
0.0
 70
   128
 71
     5
 72
     6
 73
    -2
  0
VERTEX
  5
D8C
  8
RÁM
 10
0.0
 20
0.0
 30
0.0
 70
   128
 71
    -5
 72
     2
 73
     1
  0
VERTEX
  5
D8D
  8
RÁM
 10
0.0
 20
0.0
 30
0.0
 70
   128
 71
     4
 72
     3
 73
    -7
  0
VERTEX
  5
D8E
  8
RÁM
 10
0.0
 20
0.0
 30
0.0
 70
   128
 71
    -4
 72
     7
 73
     8
  0
SEQEND
  5
164B
  8
RÁM
  0
POLYLINE
  5
D8F
  8
RÁM
 66
     1
 10
0.0
 20
0.0
 30
0.0
 70
    64
 71
     4
 72
     2
  0
VERTEX
  5
D90
  8
RÁM
 10
324.3807484423384
 20
0.0
 30
-4.149854522061174
 70
   192
  0
VERTEX
  5
D91
  8
RÁM
 10
324.3807484423384
 20
0.0
 30
-3.299854522061157
 70
   192
  0
VERTEX
  5
D92
  8
RÁM
 10
324.3807484423384
 20
2000.0
 30
-3.299854522061157
 70
   192
  0
VERTEX
  5
D93
  8
RÁM
 10
324.3807484423384
 20
2000.0
 30
-4.149854522061174
 70
   192
  0
VERTEX
  5
D94
  8
RÁM
 10
0.0
 20
0.0
 30
0.0
 70
   128
 71
     3
 72
     4
 73
    -1
  0
VERTEX
  5
D95
  8
RÁM
 10
0.0
 20
0.0
 30
0.0
 70
   128
 71
     2
 72
    -3
 73
     1
  0
SEQEND
  5
164C
  8
RÁM
  0
POLYLINE
  5
D96
  8
RÁM
 66
     1
 10
0.0
 20
0.0
 30
0.0
 70
    64
 71
     4
 72
     2
  0
VERTEX
  5
D97
  8
RÁM
 10
324.5373531541853
 20
18.00000000000001
 30
-3.150000000002199
 70
   192
  0
VERTEX
  5
D98
  8
RÁM
 10
326.8853215842991
 20
18.00000000000001
 30
-3.150000000002198
 70
   192
  0
VERTEX
  5
D99
  8
RÁM
 10
326.8853215842991
 20
2000.0
 30
-3.150000000002198
 70
   192
  0
VERTEX
  5
D9A
  8
RÁM
 10
324.5373531541853
 20
2000.0
 30
-3.150000000002199
 70
   192
  0
VERTEX
  5
D9B
  8
RÁM
 10
0.0
 20
0.0
 30
0.0
 70
   128
 71
     3
 72
     4
 73
    -1
  0
VERTEX
  5
D9C
  8
RÁM
 10
0.0
 20
0.0
 30
0.0
 70
   128
 71
     2
 72
    -3
 73
     1
  0
SEQEND
  5
164D
  8
RÁM
  0
POLYLINE
  5
D9D
  8
RÁM
 66
     1
 10
0.0
 20
0.0
 30
0.0
 70
    64
 71
     4
 72
     2
  0
VERTEX
  5
D9E
  8
RÁM
 10
326.8853215842991
 20
18.00000000000001
 30
-3.150000000002198
 70
   192
  0
VERTEX
  5
D9F
  8
RÁM
 10
326.8853215842991
 20
18.00000000000001
 30
-3.450000000002198
 70
   192
  0
VERTEX
  5
DA0
  8
RÁM
 10
326.8853215842991
 20
2000.0
 30
-3.450000000002198
 70
   192
  0
VERTEX
  5
DA1
  8
RÁM
 10
326.8853215842991
 20
2000.0
 30
-3.150000000002198
 70
   192
  0
VERTEX
  5
DA2
  8
RÁM
 10
0.0
 20
0.0
 30
0.0
 70
   128
 71
     3
 72
     4
 73
    -1
  0
VERTEX
  5
DA3
  8
RÁM
 10
0.0
 20
0.0
 30
0.0
 70
   128
 71
     2
 72
    -3
 73
     1
  0
SEQEND
  5
164E
  8
RÁM
  0
POLYLINE
  5
DA4
  8
RÁM
 66
     1
 10
0.0
 20
0.0
 30
0.0
 70
    64
 71
     4
 72
     2
  0
VERTEX
  5
DA5
  8
RÁM
 10
326.8853215842991
 20
18.00000000000001
 30
-3.450000000002198
 70
   192
  0
VERTEX
  5
DA6
  8
RÁM
 10
329.3728988709805
 20
18.00000000000001
 30
-3.450000000002198
 70
   192
  0
VERTEX
  5
DA7
  8
RÁM
 10
329.3728988709805
 20
2000.0
 30
-3.450000000002198
 70
   192
  0
VERTEX
  5
DA8
  8
RÁM
 10
326.8853215842991
 20
2000.0
 30
-3.450000000002198
 70
   192
  0
VERTEX
  5
DA9
  8
RÁM
 10
0.0
 20
0.0
 30
0.0
 70
   128
 71
     3
 72
     4
 73
    -1
  0
VERTEX
  5
DAA
  8
RÁM
 10
0.0
 20
0.0
 30
0.0
 70
   128
 71
     2
 72
    -3
 73
     1
  0
SEQEND
  5
164F
  8
RÁM
  0
POLYLINE
  5
DAB
  8
RÁM
 66
     1
 10
0.0
 20
0.0
 30
0.0
 70
    64
 71
     8
 72
     6
  0
VERTEX
  5
DAC
  8
RÁM
 10
329.3826314301367
 20
2000.0
 30
-3.450189508265094
 70
   192
  0
VERTEX
  5
DAD
  8
RÁM
 10
329.3777646893601
 20
2000.0
 30
-3.450118439860487
 70
   192
  0
VERTEX
  5
DAE
  8
RÁM
 10
329.3777646893601
 20
18.00000000000001
 30
-3.450118439860487
 70
   192
  0
VERTEX
  5
DAF
  8
RÁM
 10
329.3826314301367
 20
18.00000000000001
 30
-3.450189508265094
 70
   192
  0
VERTEX
  5
DB0
  8
RÁM
 10
329.3728988709805
 20
2000.0
 30
-3.450000000002281
 70
   192
  0
VERTEX
  5
DB1
  8
RÁM
 10
329.3728988709805
 20
18.0
 30
-3.450000000002198
 70
   192
  0
VERTEX
  5
DB2
  8
RÁM
 10
329.3874986321334
 20
2000.0
 30
-3.450213198481597
 70
   192
  0
VERTEX
  5
DB3
  8
RÁM
 10
329.3874986321334
 20
18.0
 30
-3.450213198481597
 70
   192
  0
VERTEX
  5
DB4
  8
RÁM
 10
0.0
 20
0.0
 30
0.0
 70
   128
 71
     1
 72
     2
 73
    -3
  0
VERTEX
  5
DB5
  8
RÁM
 10
0.0
 20
0.0
 30
0.0
 70
   128
 71
     4
 72
    -1
 73
     3
  0
VERTEX
  5
DB6
  8
RÁM
 10
0.0
 20
0.0
 30
0.0
 70
   128
 71
     2
 72
     5
 73
    -6
  0
VERTEX
  5
DB7
  8
RÁM
 10
0.0
 20
0.0
 30
0.0
 70
   128
 71
     3
 72
    -2
 73
     6
  0
VERTEX
  5
DB8
  8
RÁM
 10
0.0
 20
0.0
 30
0.0
 70
   128
 71
     7
 72
     1
 73
    -4
  0
VERTEX
  5
DB9
  8
RÁM
 10
0.0
 20
0.0
 30
0.0
 70
   128
 71
     8
 72
    -7
 73
     4
  0
SEQEND
  5
1650
  8
RÁM
  0
POLYLINE
  5
DBA
  8
RÁM
 66
     1
 10
0.0
 20
0.0
 30
0.0
 70
    64
 71
     4
 72
     2
  0
VERTEX
  5
DBB
  8
RÁM
 10
329.8874986321322
 20
2000.0
 30
-2.950213198483012
 70
   192
  0
VERTEX
  5
DBC
  8
RÁM
 10
329.8874986321322
 20
2000.0
 30
2.950213198482777
 70
   192
  0
VERTEX
  5
DBD
  8
RÁM
 10
329.8874986321322
 20
18.00000000000001
 30
2.950213198482777
 70
   192
  0
VERTEX
  5
DBE
  8
RÁM
 10
329.8874986321322
 20
18.0
 30
-2.950213198483012
 70
   192
  0
VERTEX
  5
DBF
  8
RÁM
 10
0.0
 20
0.0
 30
0.0
 70
   128
 71
     1
 72
     4
 73
    -3
  0
VERTEX
  5
DC0
  8
RÁM
 10
0.0
 20
0.0
 30
0.0
 70
   128
 71
    -1
 72
     3
 73
     2
  0
SEQEND
  5
1651
  8
RÁM
  0
POLYLINE
  5
DC1
  8
RÁM
 66
     1
 10
0.0
 20
0.0
 30
0.0
 70
    64
 71
     8
 72
     6
  0
VERTEX
  5
DC2
  8
RÁM
 10
329.6290214111016
 20
2000.0
 30
3.38801080838732
 70
   192
  0
VERTEX
  5
DC3
  8
RÁM
 10
329.8180572166968
 20
2000.0
 30
3.204416473948408
 70
   192
  0
VERTEX
  5
DC4
  8
RÁM
 10
329.8180572166968
 20
18.00000000000001
 30
3.204416473948408
 70
   192
  0
VERTEX
  5
DC5
  8
RÁM
 10
329.6290214111016
 20
18.00000000000001
 30
3.38801080838732
 70
   192
  0
VERTEX
  5
DC6
  8
RÁM
 10
329.8874986321321
 20
2000.0
 30
2.950213198482777
 70
   192
  0
VERTEX
  5
DC7
  8
RÁM
 10
329.8874986321321
 20
18.00000000000001
 30
2.950213198482777
 70
   192
  0
VERTEX
  5
DC8
  8
RÁM
 10
329.3728988709805
 20
2000.0
 30
3.450000000001959
 70
   192
  0
VERTEX
  5
DC9
  8
RÁM
 10
329.3728988709805
 20
18.00000000000001
 30
3.450000000001987
 70
   192
  0
VERTEX
  5
DCA
  8
RÁM
 10
0.0
 20
0.0
 30
0.0
 70
   128
 71
     1
 72
     2
 73
    -3
  0
VERTEX
  5
DCB
  8
RÁM
 10
0.0
 20
0.0
 30
0.0
 70
   128
 71
     4
 72
    -1
 73
     3
  0
VERTEX
  5
DCC
  8
RÁM
 10
0.0
 20
0.0
 30
0.0
 70
   128
 71
     2
 72
     5
 73
    -6
  0
VERTEX
  5
DCD
  8
RÁM
 10
0.0
 20
0.0
 30
0.0
 70
   128
 71
     3
 72
    -2
 73
     6
  0
VERTEX
  5
DCE
  8
RÁM
 10
0.0
 20
0.0
 30
0.0
 70
   128
 71
     7
 72
     1
 73
    -4
  0
VERTEX
  5
DCF
  8
RÁM
 10
0.0
 20
0.0
 30
0.0
 70
   128
 71
     8
 72
    -7
 73
     4
  0
SEQEND
  5
1652
  8
RÁM
  0
POLYLINE
  5
DD0
  8
RÁM
 66
     1
 10
0.0
 20
0.0
 30
0.0
 70
    64
 71
     4
 72
     2
  0
VERTEX
  5
DD1
  8
RÁM
 10
329.3728988709805
 20
18.00000000000001
 30
3.450000000001959
 70
   192
  0
VERTEX
  5
DD2
  8
RÁM
 10
326.8874986321334
 20
18.00000000000001
 30
3.450000000001959
 70
   192
  0
VERTEX
  5
DD3
  8
RÁM
 10
326.8874986321334
 20
2000.0
 30
3.450000000001959
 70
   192
  0
VERTEX
  5
DD4
  8
RÁM
 10
329.3728988709805
 20
2000.0
 30
3.450000000001959
 70
   192
  0
VERTEX
  5
DD5
  8
RÁM
 10
0.0
 20
0.0
 30
0.0
 70
   128
 71
     3
 72
     4
 73
    -1
  0
VERTEX
  5
DD6
  8
RÁM
 10
0.0
 20
0.0
 30
0.0
 70
   128
 71
     2
 72
    -3
 73
     1
  0
SEQEND
  5
1653
  8
RÁM
  0
POLYLINE
  5
DD7
  8
RÁM
 66
     1
 10
0.0
 20
0.0
 30
0.0
 70
    64
 71
     4
 72
     2
  0
VERTEX
  5
DD8
  8
RÁM
 10
326.8874986321334
 20
18.00000000000001
 30
3.450000000001959
 70
   192
  0
VERTEX
  5
DD9
  8
RÁM
 10
326.8874986321334
 20
18.00000000000001
 30
3.150000000001961
 70
   192
  0
VERTEX
  5
DDA
  8
RÁM
 10
326.8874986321334
 20
2000.0
 30
3.150000000001961
 70
   192
  0
VERTEX
  5
DDB
  8
RÁM
 10
326.8874986321334
 20
2000.0
 30
3.450000000001959
 70
   192
  0
VERTEX
  5
DDC
  8
RÁM
 10
0.0
 20
0.0
 30
0.0
 70
   128
 71
     3
 72
     4
 73
    -1
  0
VERTEX
  5
DDD
  8
RÁM
 10
0.0
 20
0.0
 30
0.0
 70
   128
 71
     2
 72
    -3
 73
     1
  0
SEQEND
  5
1654
  8
RÁM
  0
POLYLINE
  5
DDE
  8
RÁM
 66
     1
 10
0.0
 20
0.0
 30
0.0
 70
    64
 71
     4
 72
     2
  0
VERTEX
  5
DDF
  8
RÁM
 10
326.8874986321334
 20
18.00000000000001
 30
3.150000000001961
 70
   192
  0
VERTEX
  5
DE0
  8
RÁM
 10
324.5351761063511
 20
18.00000000000001
 30
3.150000000001961
 70
   192
  0
VERTEX
  5
DE1
  8
RÁM
 10
324.5351761063511
 20
2000.0
 30
3.150000000001961
 70
   192
  0
VERTEX
  5
DE2
  8
RÁM
 10
326.8874986321334
 20
2000.0
 30
3.150000000001961
 70
   192
  0
VERTEX
  5
DE3
  8
RÁM
 10
0.0
 20
0.0
 30
0.0
 70
   128
 71
     3
 72
     4
 73
    -1
  0
VERTEX
  5
DE4
  8
RÁM
 10
0.0
 20
0.0
 30
0.0
 70
   128
 71
     2
 72
    -3
 73
     1
  0
SEQEND
  5
1655
  8
RÁM
  0
POLYLINE
  5
DE5
  8
RÁM
 66
     1
 10
0.0
 20
0.0
 30
0.0
 70
    64
 71
     8
 72
     6
  0
VERTEX
  5
DE6
  8
RÁM
 10
324.4031263291392
 20
18.00000000000001
 30
3.228846248601752
 70
   192
  0
VERTEX
  5
DE7
  8
RÁM
 10
324.4031263291392
 20
2000.0
 30
3.228846248601752
 70
   192
  0
VERTEX
  5
DE8
  8
RÁM
 10
324.4582770254398
 20
2000.0
 30
3.171211291820628
 70
   192
  0
VERTEX
  5
DE9
  8
RÁM
 10
324.4582770254398
 20
18.00000000000001
 30
3.171211291820628
 70
   192
  0
VERTEX
  5
DEA
  8
RÁM
 10
324.3853215842922
 20
18.00000000000001
 30
3.306604711848825
 70
   192
  0
VERTEX
  5
DEB
  8
RÁM
 10
324.3853215842922
 20
2000.0
 30
3.306604711848824
 70
   192
  0
VERTEX
  5
DEC
  8
RÁM
 10
324.5351761063511
 20
2000.0
 30
3.150000000001961
 70
   192
  0
VERTEX
  5
DED
  8
RÁM
 10
324.5351761063511
 20
18.0
 30
3.150000000001961
 70
   192
  0
VERTEX
  5
DEE
  8
RÁM
 10
0.0
 20
0.0
 30
0.0
 70
   128
 71
     1
 72
     2
 73
    -3
  0
VERTEX
  5
DEF
  8
RÁM
 10
0.0
 20
0.0
 30
0.0
 70
   128
 71
    -1
 72
     3
 73
     4
  0
VERTEX
  5
DF0
  8
RÁM
 10
0.0
 20
0.0
 30
0.0
 70
   128
 71
     5
 72
     6
 73
    -2
  0
VERTEX
  5
DF1
  8
RÁM
 10
0.0
 20
0.0
 30
0.0
 70
   128
 71
    -5
 72
     2
 73
     1
  0
VERTEX
  5
DF2
  8
RÁM
 10
0.0
 20
0.0
 30
0.0
 70
   128
 71
     4
 72
     3
 73
    -7
  0
VERTEX
  5
DF3
  8
RÁM
 10
0.0
 20
0.0
 30
0.0
 70
   128
 71
    -4
 72
     7
 73
     8
  0
SEQEND
  5
1656
  8
RÁM
  0
POLYLINE
  5
DF4
  8
RÁM
 66
     1
 10
0.0
 20
0.0
 30
0.0
 70
    64
 71
     4
 72
     2
  0
VERTEX
  5
DF5
  8
RÁM
 10
324.3853215842922
 20
18.00000000000001
 30
3.306604711848824
 70
   192
  0
VERTEX
  5
DF6
  8
RÁM
 10
324.3853215842921
 20
18.00000000000001
 30
4.156604711854616
 70
   192
  0
VERTEX
  5
DF7
  8
RÁM
 10
324.3853215842921
 20
2000.0
 30
4.156604711854615
 70
   192
  0
VERTEX
  5
DF8
  8
RÁM
 10
324.3853215842922
 20
2000.0
 30
3.306604711848824
 70
   192
  0
VERTEX
  5
DF9
  8
RÁM
 10
0.0
 20
0.0
 30
0.0
 70
   128
 71
     3
 72
     4
 73
    -1
  0
VERTEX
  5
DFA
  8
RÁM
 10
0.0
 20
0.0
 30
0.0
 70
   128
 71
     2
 72
    -3
 73
     1
  0
SEQEND
  5
1657
  8
RÁM
  0
POLYLINE
  5
DFB
  8
RÁM
 66
     1
 10
0.0
 20
0.0
 30
0.0
 70
    64
 71
     9
 72
     7
  0
VERTEX
  5
DFC
  8
RÁM
 10
324.6491842997149
 20
0.0
 30
4.591177707379347
 70
   192
  0
VERTEX
  5
DFD
  8
RÁM
 10
324.6491842997149
 20
2000.0
 30
4.591177707379347
 70
   192
  0
VERTEX
  5
DFE
  8
RÁM
 10
324.4578961853608
 20
2000.0
 30
4.40993126536765
 70
   192
  0
VERTEX
  5
DFF
  8
RÁM
 10
324.4578961853608
 20
0.0
 30
4.40993126536765
 70
   192
  0
VERTEX
  5
E00
  8
RÁM
 10
324.9060526576876
 20
0.0
 30
4.649999999985948
 70
   192
  0
VERTEX
  5
E01
  8
RÁM
 10
324.9060526576876
 20
2000.0
 30
4.64999999998596
 70
   192
  0
VERTEX
  5
E02
  8
RÁM
 10
324.3853215842921
 20
18.0
 30
4.156604711854615
 70
   192
  0
VERTEX
  5
E03
  8
RÁM
 10
324.3853215842921
 20
0.0
 30
4.156604711854616
 70
   192
  0
VERTEX
  5
E04
  8
RÁM
 10
324.3853215842921
 20
2000.0
 30
4.156604711854615
 70
   192
  0
VERTEX
  5
E05
  8
RÁM
 10
0.0
 20
0.0
 30
0.0
 70
   128
 71
     1
 72
     2
 73
    -3
  0
VERTEX
  5
E06
  8
RÁM
 10
0.0
 20
0.0
 30
0.0
 70
   128
 71
    -1
 72
     3
 73
     4
  0
VERTEX
  5
E07
  8
RÁM
 10
0.0
 20
0.0
 30
0.0
 70
   128
 71
     5
 72
     6
 73
    -2
  0
VERTEX
  5
E08
  8
RÁM
 10
0.0
 20
0.0
 30
0.0
 70
   128
 71
    -5
 72
     2
 73
     1
  0
VERTEX
  5
E09
  8
RÁM
 10
0.0
 20
0.0
 30
0.0
 70
   128
 71
     7
 72
     8
 73
    -4
  0
VERTEX
  5
E0A
  8
RÁM
 10
0.0
 20
0.0
 30
0.0
 70
   128
 71
    -7
 72
     4
 73
    -3
  0
VERTEX
  5
E0B
  8
RÁM
 10
0.0
 20
0.0
 30
0.0
 70
   128
 71
     3
 72
     9
 73
    -7
  0
SEQEND
  5
1658
  8
RÁM
  0
POLYLINE
  5
E0C
  8
RÁM
 66
     1
 10
0.0
 20
0.0
 30
0.0
 70
    64
 71
     4
 72
     2
  0
VERTEX
  5
E0D
  8
RÁM
 10
324.9060526576876
 20
2000.0
 30
4.64999999998596
 70
   192
  0
VERTEX
  5
E0E
  8
RÁM
 10
324.9060526576876
 20
0.0
 30
4.64999999998596
 70
   192
  0
VERTEX
  5
E0F
  8
RÁM
 10
334.9693221577554
 20
0.0
 30
4.64999999998596
 70
   192
  0
VERTEX
  5
E10
  8
RÁM
 10
334.9693221577554
 20
2000.0
 30
4.64999999998596
 70
   192
  0
VERTEX
  5
E11
  8
RÁM
 10
0.0
 20
0.0
 30
0.0
 70
   128
 71
     3
 72
     4
 73
    -1
  0
VERTEX
  5
E12
  8
RÁM
 10
0.0
 20
0.0
 30
0.0
 70
   128
 71
     2
 72
    -3
 73
     1
  0
SEQEND
  5
1659
  8
RÁM
  0
POLYLINE
  5
E13
  8
RÁM
 66
     1
 10
0.0
 20
0.0
 30
0.0
 70
    64
 71
     8
 72
     6
  0
VERTEX
  5
E14
  8
RÁM
 10
335.4129172800185
 20
0.0
 30
4.401603968346891
 70
   192
  0
VERTEX
  5
E15
  8
RÁM
 10
335.4129172800185
 20
2000.0
 30
4.401603968346891
 70
   192
  0
VERTEX
  5
E16
  8
RÁM
 10
335.2250472361346
 20
2000.0
 30
4.586391040530313
 70
   192
  0
VERTEX
  5
E17
  8
RÁM
 10
335.2250472361346
 20
0.0
 30
4.586391040530313
 70
   192
  0
VERTEX
  5
E18
  8
RÁM
 10
335.4807484423463
 20
0.0
 30
4.146966286822055
 70
   192
  0
VERTEX
  5
E19
  8
RÁM
 10
335.4807484423463
 20
2000.0
 30
4.146966286822055
 70
   192
  0
VERTEX
  5
E1A
  8
RÁM
 10
334.9693221577554
 20
2000.0
 30
4.649999999985919
 70
   192
  0
VERTEX
  5
E1B
  8
RÁM
 10
334.9693221577554
 20
0.0
 30
4.64999999998596
 70
   192
  0
VERTEX
  5
E1C
  8
RÁM
 10
0.0
 20
0.0
 30
0.0
 70
   128
 71
     1
 72
     2
 73
    -3
  0
VERTEX
  5
E1D
  8
RÁM
 10
0.0
 20
0.0
 30
0.0
 70
   128
 71
    -1
 72
     3
 73
     4
  0
VERTEX
  5
E1E
  8
RÁM
 10
0.0
 20
0.0
 30
0.0
 70
   128
 71
     5
 72
     6
 73
    -2
  0
VERTEX
  5
E1F
  8
RÁM
 10
0.0
 20
0.0
 30
0.0
 70
   128
 71
    -5
 72
     2
 73
     1
  0
VERTEX
  5
E20
  8
RÁM
 10
0.0
 20
0.0
 30
0.0
 70
   128
 71
     4
 72
     3
 73
    -7
  0
VERTEX
  5
E21
  8
RÁM
 10
0.0
 20
0.0
 30
0.0
 70
   128
 71
    -4
 72
     7
 73
     8
  0
SEQEND
  5
165A
  8
RÁM
  0
POLYLINE
  5
E22
  8
RÁM
 66
     1
 10
0.0
 20
0.0
 30
0.0
 70
    64
 71
     8
 72
     6
  0
VERTEX
  5
E23
  8
RÁM
 10
335.7360457022102
 20
0.0
 30
4.579835562077015
 70
   192
  0
VERTEX
  5
E24
  8
RÁM
 10
335.7360457022102
 20
2000.0
 30
4.579835562077015
 70
   192
  0
VERTEX
  5
E25
  8
RÁM
 10
335.5500621719348
 20
2000.0
 30
4.397805630589384
 70
   192
  0
VERTEX
  5
E26
  8
RÁM
 10
335.5500621719348
 20
0.0
 30
4.397805630589384
 70
   192
  0
VERTEX
  5
E27
  8
RÁM
 10
335.988316266304
 20
0.0
 30
4.643744340682738
 70
   192
  0
VERTEX
  5
E28
  8
RÁM
 10
335.988316266304
 20
2000.0
 30
4.643744340682725
 70
   192
  0
VERTEX
  5
E29
  8
RÁM
 10
335.4807484423463
 20
2000.0
 30
4.146966286822055
 70
   192
  0
VERTEX
  5
E2A
  8
RÁM
 10
335.4807484423463
 20
0.0
 30
4.146966286822055
 70
   192
  0
VERTEX
  5
E2B
  8
RÁM
 10
0.0
 20
0.0
 30
0.0
 70
   128
 71
     1
 72
     2
 73
    -3
  0
VERTEX
  5
E2C
  8
RÁM
 10
0.0
 20
0.0
 30
0.0
 70
   128
 71
    -1
 72
     3
 73
     4
  0
VERTEX
  5
E2D
  8
RÁM
 10
0.0
 20
0.0
 30
0.0
 70
   128
 71
     5
 72
     6
 73
    -2
  0
VERTEX
  5
E2E
  8
RÁM
 10
0.0
 20
0.0
 30
0.0
 70
   128
 71
    -5
 72
     2
 73
     1
  0
VERTEX
  5
E2F
  8
RÁM
 10
0.0
 20
0.0
 30
0.0
 70
   128
 71
     4
 72
     3
 73
    -7
  0
VERTEX
  5
E30
  8
RÁM
 10
0.0
 20
0.0
 30
0.0
 70
   128
 71
    -4
 72
     7
 73
     8
  0
SEQEND
  5
165B
  8
RÁM
  0
POLYLINE
  5
E31
  8
RÁM
 66
     1
 10
0.0
 20
0.0
 30
0.0
 70
    64
 71
     8
 72
     6
  0
VERTEX
  5
E32
  8
RÁM
 10
338.9804858622038
 20
0.0
 30
3.016210974752421
 70
   192
  0
VERTEX
  5
E33
  8
RÁM
 10
338.9804858622038
 20
2000.0
 30
3.016210974752421
 70
   192
  0
VERTEX
  5
E34
  8
RÁM
 10
337.6662952360401
 20
2000.0
 30
4.164384448928881
 70
   192
  0
VERTEX
  5
E35
  8
RÁM
 10
337.6662952360401
 20
0.0
 30
4.164384448928881
 70
   192
  0
VERTEX
  5
E36
  8
RÁM
 10
339.6807484416263
 20
0.0
 30
1.417764338621148
 70
   192
  0
VERTEX
  5
E37
  8
RÁM
 10
339.6807484416264
 20
2000.0
 30
1.417764338621156
 70
   192
  0
VERTEX
  5
E38
  8
RÁM
 10
335.988316266304
 20
2000.0
 30
4.643744340682724
 70
   192
  0
VERTEX
  5
E39
  8
RÁM
 10
335.988316266304
 20
0.0
 30
4.643744340682725
 70
   192
  0
VERTEX
  5
E3A
  8
RÁM
 10
0.0
 20
0.0
 30
0.0
 70
   128
 71
     1
 72
     2
 73
    -3
  0
VERTEX
  5
E3B
  8
RÁM
 10
0.0
 20
0.0
 30
0.0
 70
   128
 71
    -1
 72
     3
 73
     4
  0
VERTEX
  5
E3C
  8
RÁM
 10
0.0
 20
0.0
 30
0.0
 70
   128
 71
     5
 72
     6
 73
    -2
  0
VERTEX
  5
E3D
  8
RÁM
 10
0.0
 20
0.0
 30
0.0
 70
   128
 71
    -5
 72
     2
 73
     1
  0
VERTEX
  5
E3E
  8
RÁM
 10
0.0
 20
0.0
 30
0.0
 70
   128
 71
     4
 72
     3
 73
    -7
  0
VERTEX
  5
E3F
  8
RÁM
 10
0.0
 20
0.0
 30
0.0
 70
   128
 71
    -4
 72
     7
 73
     8
  0
SEQEND
  5
165C
  8
RÁM
  0
POLYLINE
  5
E40
  8
RÁM
 66
     1
 10
0.0
 20
0.0
 30
0.0
 70
    64
 71
     4
 72
     2
  0
VERTEX
  5
E41
  8
RÁM
 10
339.6807484416264
 20
2000.0
 30
1.417764338621156
 70
   192
  0
VERTEX
  5
E42
  8
RÁM
 10
339.6807484416264
 20
0.0
 30
1.417764338621156
 70
   192
  0
VERTEX
  5
E43
  8
RÁM
 10
339.6807484416264
 20
0.0
 30
10.4949870106976
 70
   192
  0
VERTEX
  5
E44
  8
RÁM
 10
339.6807484416264
 20
2000.0
 30
10.4949870106976
 70
   192
  0
VERTEX
  5
E45
  8
RÁM
 10
0.0
 20
0.0
 30
0.0
 70
   128
 71
     3
 72
     4
 73
    -1
  0
VERTEX
  5
E46
  8
RÁM
 10
0.0
 20
0.0
 30
0.0
 70
   128
 71
     2
 72
    -3
 73
     1
  0
SEQEND
  5
165D
  8
RÁM
  0
POLYLINE
  5
E47
  8
RÁM
 66
     1
 10
0.0
 20
0.0
 30
0.0
 70
    64
 71
     4
 72
     2
  0
VERTEX
  5
E48
  8
RÁM
 10
339.6807484416264
 20
2000.0
 30
10.4949870106976
 70
   192
  0
VERTEX
  5
E49
  8
RÁM
 10
339.6807484416264
 20
0.0
 30
10.4949870106976
 70
   192
  0
VERTEX
  5
E4A
  8
RÁM
 10
369.6807484416252
 20
0.0
 30
10.4949870106976
 70
   192
  0
VERTEX
  5
E4B
  8
RÁM
 10
369.6807484416252
 20
2000.0
 30
10.4949870106976
 70
   192
  0
VERTEX
  5
E4C
  8
RÁM
 10
0.0
 20
0.0
 30
0.0
 70
   128
 71
     3
 72
     4
 73
    -1
  0
VERTEX
  5
E4D
  8
RÁM
 10
0.0
 20
0.0
 30
0.0
 70
   128
 71
     2
 72
    -3
 73
     1
  0
SEQEND
  5
165E
  8
RÁM
  0
POLYLINE
  5
E4E
  8
RÁM
 66
     1
 10
0.0
 20
0.0
 30
0.0
 70
    64
 71
     4
 72
     2
  0
VERTEX
  5
E4F
  8
RÁM
 10
369.6807484416252
 20
2000.0
 30
10.4949870106976
 70
   192
  0
VERTEX
  5
E50
  8
RÁM
 10
369.6807484416252
 20
0.0
 30
10.4949870106976
 70
   192
  0
VERTEX
  5
E51
  8
RÁM
 10
369.6807484416252
 20
0.0
 30
-12.50501298930231
 70
   192
  0
VERTEX
  5
E52
  8
RÁM
 10
369.6807484416252
 20
2000.0
 30
-12.50501298930231
 70
   192
  0
VERTEX
  5
E53
  8
RÁM
 10
0.0
 20
0.0
 30
0.0
 70
   128
 71
     3
 72
     4
 73
    -1
  0
VERTEX
  5
E54
  8
RÁM
 10
0.0
 20
0.0
 30
0.0
 70
   128
 71
     2
 72
    -3
 73
     1
  0
SEQEND
  5
165F
  8
RÁM
  0
POLYLINE
  5
E55
  8
RÁM
 66
     1
 10
0.0
 20
0.0
 30
0.0
 70
    64
 71
    64
 72
    62
  0
VERTEX
  5
E56
  8
RÁM
 10
369.6807484416252
 20
2000.0
 30
-12.50501298930231
 70
   192
  0
VERTEX
  5
E57
  8
RÁM
 10
339.6807484416264
 20
2000.0
 30
-12.50501298930231
 70
   192
  0
VERTEX
  5
E58
  8
RÁM
 10
339.6807484416264
 20
2000.0
 30
-1.401175522428831
 70
   192
  0
VERTEX
  5
E59
  8
RÁM
 10
338.9855486055211
 20
2000.0
 30
-3.009715524097807
 70
   192
  0
VERTEX
  5
E5A
  8
RÁM
 10
337.66949452876
 20
2000.0
 30
-4.16673990419116
 70
   192
  0
VERTEX
  5
E5B
  8
RÁM
 10
335.9851619730626
 20
2000.0
 30
-4.650193718850057
 70
   192
  0
VERTEX
  5
E5C
  8
RÁM
 10
335.9836908173851
 20
2000.0
 30
-4.650204540837071
 70
   192
  0
VERTEX
  5
E5D
  8
RÁM
 10
335.9822196362334
 20
2000.0
 30
-4.650211034066762
 70
   192
  0
VERTEX
  5
E5E
  8
RÁM
 10
335.9807484423446
 20
2000.0
 30
-4.650213198482904
 70
   192
  0
VERTEX
  5
E5F
  8
RÁM
 10
335.7307484423454
 20
2000.0
 30
-4.583225900375324
 70
   192
  0
VERTEX
  5
E60
  8
RÁM
 10
335.5477357404537
 20
2000.0
 30
-4.400213198483653
 70
   192
  0
VERTEX
  5
E61
  8
RÁM
 10
335.4807484423461
 20
2000.0
 30
-4.150213198484402
 70
   192
  0
VERTEX
  5
E62
  8
RÁM
 10
335.4137611442385
 20
2000.0
 30
-4.400213198483653
 70
   192
  0
VERTEX
  5
E63
  8
RÁM
 10
335.2307484423469
 20
2000.0
 30
-4.583225900375324
 70
   192
  0
VERTEX
  5
E64
  8
RÁM
 10
334.9807484423476
 20
2000.0
 30
-4.650213198482904
 70
   192
  0
VERTEX
  5
E65
  8
RÁM
 10
334.9758812403508
 20
2000.0
 30
-4.6501895082664
 70
   192
  0
VERTEX
  5
E66
  8
RÁM
 10
334.9710144995743
 20
2000.0
 30
-4.650118439861793
 70
   192
  0
VERTEX
  5
E67
  8
RÁM
 10
334.9661486811946
 20
2000.0
 30
-4.650000000003587
 70
   192
  0
VERTEX
  5
E68
  8
RÁM
 10
324.8949996086412
 20
2000.0
 30
-4.650000000003587
 70
   192
  0
VERTEX
  5
E69
  8
RÁM
 10
324.8902498942829
 20
2000.0
 30
-4.650112852424157
 70
   192
  0
VERTEX
  5
E6A
  8
RÁM
 10
324.8854993220266
 20
2000.0
 30
-4.650180567952545
 70
   192
  0
VERTEX
  5
E6B
  8
RÁM
 10
324.8807483208021
 20
2000.0
 30
-4.6502031404747
 70
   192
  0
VERTEX
  5
E6C
  8
RÁM
 10
324.6306476900796
 20
2000.0
 30
-4.583157727599071
 70
   192
  0
VERTEX
  5
E6D
  8
RÁM
 10
324.4476194595463
 20
2000.0
 30
-4.400001838522893
 70
   192
  0
VERTEX
  5
E6E
  8
RÁM
 10
324.3807484423384
 20
2000.0
 30
-4.149854522061174
 70
   192
  0
VERTEX
  5
E6F
  8
RÁM
 10
324.3807484423384
 20
2000.0
 30
-3.299854522061157
 70
   192
  0
VERTEX
  5
E70
  8
RÁM
 10
324.4019597341571
 20
2000.0
 30
-3.222955441149888
 70
   192
  0
VERTEX
  5
E71
  8
RÁM
 10
324.4595946909382
 20
2000.0
 30
-3.167804744849177
 70
   192
  0
VERTEX
  5
E72
  8
RÁM
 10
324.5373531541853
 20
2000.0
 30
-3.150000000002142
 70
   192
  0
VERTEX
  5
E73
  8
RÁM
 10
326.8853215842991
 20
2000.0
 30
-3.150000000002198
 70
   192
  0
VERTEX
  5
E74
  8
RÁM
 10
326.8853215842991
 20
2000.0
 30
-3.450000000002198
 70
   192
  0
VERTEX
  5
E75
  8
RÁM
 10
329.3728988709805
 20
2000.0
 30
-3.450000000002198
 70
   192
  0
VERTEX
  5
E76
  8
RÁM
 10
329.3777646893601
 20
2000.0
 30
-3.450118439860487
 70
   192
  0
VERTEX
  5
E77
  8
RÁM
 10
329.3826314301367
 20
2000.0
 30
-3.450189508265094
 70
   192
  0
VERTEX
  5
E78
  8
RÁM
 10
329.3874986321334
 20
2000.0
 30
-3.450213198481597
 70
   192
  0
VERTEX
  5
E79
  8
RÁM
 10
329.6374986321327
 20
2000.0
 30
-3.383225900374006
 70
   192
  0
VERTEX
  5
E7A
  8
RÁM
 10
329.8205113340244
 20
2000.0
 30
-3.200213198482305
 70
   192
  0
VERTEX
  5
E7B
  8
RÁM
 10
329.887498632132
 20
2000.0
 30
-2.950213198483012
 70
   192
  0
VERTEX
  5
E7C
  8
RÁM
 10
329.8874986321322
 20
2000.0
 30
2.950213198482777
 70
   192
  0
VERTEX
  5
E7D
  8
RÁM
 10
329.8180572166968
 20
2000.0
 30
3.204416473948408
 70
   192
  0
VERTEX
  5
E7E
  8
RÁM
 10
329.6290214111016
 20
2000.0
 30
3.38801080838732
 70
   192
  0
VERTEX
  5
E7F
  8
RÁM
 10
329.3728988709805
 20
2000.0
 30
3.450000000001987
 70
   192
  0
VERTEX
  5
E80
  8
RÁM
 10
326.8874986321334
 20
2000.0
 30
3.450000000001959
 70
   192
  0
VERTEX
  5
E81
  8
RÁM
 10
326.8874986321334
 20
2000.0
 30
3.150000000001961
 70
   192
  0
VERTEX
  5
E82
  8
RÁM
 10
324.5351761063511
 20
2000.0
 30
3.150000000001961
 70
   192
  0
VERTEX
  5
E83
  8
RÁM
 10
324.4582770254398
 20
2000.0
 30
3.171211291820628
 70
   192
  0
VERTEX
  5
E84
  8
RÁM
 10
324.4031263291392
 20
2000.0
 30
3.228846248601752
 70
   192
  0
VERTEX
  5
E85
  8
RÁM
 10
324.3853215842922
 20
2000.0
 30
3.306604711848825
 70
   192
  0
VERTEX
  5
E86
  8
RÁM
 10
324.3853215842921
 20
2000.0
 30
4.156604711854615
 70
   192
  0
VERTEX
  5
E87
  8
RÁM
 10
324.4578961853608
 20
2000.0
 30
4.40993126536765
 70
   192
  0
VERTEX
  5
E88
  8
RÁM
 10
324.6491842997149
 20
2000.0
 30
4.591177707379347
 70
   192
  0
VERTEX
  5
E89
  8
RÁM
 10
324.9060526576876
 20
2000.0
 30
4.649999999985948
 70
   192
  0
VERTEX
  5
E8A
  8
RÁM
 10
334.9693221577554
 20
2000.0
 30
4.64999999998596
 70
   192
  0
VERTEX
  5
E8B
  8
RÁM
 10
335.2250472361346
 20
2000.0
 30
4.586391040530313
 70
   192
  0
VERTEX
  5
E8C
  8
RÁM
 10
335.4129172800185
 20
2000.0
 30
4.401603968346891
 70
   192
  0
VERTEX
  5
E8D
  8
RÁM
 10
335.4807484423463
 20
2000.0
 30
4.146966286822055
 70
   192
  0
VERTEX
  5
E8E
  8
RÁM
 10
335.5500621719348
 20
2000.0
 30
4.397805630589384
 70
   192
  0
VERTEX
  5
E8F
  8
RÁM
 10
335.7360457022102
 20
2000.0
 30
4.579835562077015
 70
   192
  0
VERTEX
  5
E90
  8
RÁM
 10
335.988316266304
 20
2000.0
 30
4.643744340682738
 70
   192
  0
VERTEX
  5
E91
  8
RÁM
 10
337.6662952360401
 20
2000.0
 30
4.164384448928881
 70
   192
  0
VERTEX
  5
E92
  8
RÁM
 10
338.9804858622038
 20
2000.0
 30
3.016210974752421
 70
   192
  0
VERTEX
  5
E93
  8
RÁM
 10
339.6807484416263
 20
2000.0
 30
1.417764338621148
 70
   192
  0
VERTEX
  5
E94
  8
RÁM
 10
339.6807484416264
 20
2000.0
 30
10.4949870106976
 70
   192
  0
VERTEX
  5
E95
  8
RÁM
 10
369.6807484416252
 20
2000.0
 30
10.4949870106976
 70
   192
  0
VERTEX
  5
E96
  8
RÁM
 10
0.0
 20
0.0
 30
0.0
 70
   128
 71
    60
 72
    61
 73
   -62
  0
VERTEX
  5
E97
  8
RÁM
 10
0.0
 20
0.0
 30
0.0
 70
   128
 71
    59
 72
   -60
 73
   -62
  0
VERTEX
  5
E98
  8
RÁM
 10
0.0
 20
0.0
 30
0.0
 70
   128
 71
    58
 72
   -59
 73
   -62
  0
VERTEX
  5
E99
  8
RÁM
 10
0.0
 20
0.0
 30
0.0
 70
   128
 71
    57
 72
   -58
 73
   -62
  0
VERTEX
  5
E9A
  8
RÁM
 10
0.0
 20
0.0
 30
0.0
 70
   128
 71
    56
 72
   -57
 73
   -62
  0
VERTEX
  5
E9B
  8
RÁM
 10
0.0
 20
0.0
 30
0.0
 70
   128
 71
    54
 72
    55
 73
   -56
  0
VERTEX
  5
E9C
  8
RÁM
 10
0.0
 20
0.0
 30
0.0
 70
   128
 71
    53
 72
   -54
 73
   -56
  0
VERTEX
  5
E9D
  8
RÁM
 10
0.0
 20
0.0
 30
0.0
 70
   128
 71
    29
 72
    30
 73
   -31
  0
VERTEX
  5
E9E
  8
RÁM
 10
0.0
 20
0.0
 30
0.0
 70
   128
 71
    28
 72
   -29
 73
   -31
  0
VERTEX
  5
E9F
  8
RÁM
 10
0.0
 20
0.0
 30
0.0
 70
   128
 71
    27
 72
   -28
 73
   -31
  0
VERTEX
  5
EA0
  8
RÁM
 10
0.0
 20
0.0
 30
0.0
 70
   128
 71
    26
 72
   -27
 73
   -31
  0
VERTEX
  5
EA1
  8
RÁM
 10
0.0
 20
0.0
 30
0.0
 70
   128
 71
   -20
 72
   -26
 73
   -31
  0
VERTEX
  5
EA2
  8
RÁM
 10
0.0
 20
0.0
 30
0.0
 70
   128
 71
    19
 72
   -20
 73
   -31
  0
VERTEX
  5
EA3
  8
RÁM
 10
0.0
 20
0.0
 30
0.0
 70
   128
 71
    31
 72
   -32
 73
   -19
  0
VERTEX
  5
EA4
  8
RÁM
 10
0.0
 20
0.0
 30
0.0
 70
   128
 71
    20
 72
   -21
 73
   -26
  0
VERTEX
  5
EA5
  8
RÁM
 10
0.0
 20
0.0
 30
0.0
 70
   128
 71
    24
 72
    25
 73
   -26
  0
VERTEX
  5
EA6
  8
RÁM
 10
0.0
 20
0.0
 30
0.0
 70
   128
 71
    23
 72
   -24
 73
   -26
  0
VERTEX
  5
EA7
  8
RÁM
 10
0.0
 20
0.0
 30
0.0
 70
   128
 71
    22
 72
   -23
 73
   -26
  0
VERTEX
  5
EA8
  8
RÁM
 10
0.0
 20
0.0
 30
0.0
 70
   128
 71
    21
 72
   -22
 73
   -26
  0
VERTEX
  5
EA9
  8
RÁM
 10
0.0
 20
0.0
 30
0.0
 70
   128
 71
    32
 72
   -33
 73
   -19
  0
VERTEX
  5
EAA
  8
RÁM
 10
0.0
 20
0.0
 30
0.0
 70
   128
 71
    33
 72
   -34
 73
   -19
  0
VERTEX
  5
EAB
  8
RÁM
 10
0.0
 20
0.0
 30
0.0
 70
   128
 71
    34
 72
   -35
 73
   -19
  0
VERTEX
  5
EAC
  8
RÁM
 10
0.0
 20
0.0
 30
0.0
 70
   128
 71
    18
 72
   -19
 73
   -35
  0
VERTEX
  5
EAD
  8
RÁM
 10
0.0
 20
0.0
 30
0.0
 70
   128
 71
    35
 72
   -36
 73
   -18
  0
VERTEX
  5
EAE
  8
RÁM
 10
0.0
 20
0.0
 30
0.0
 70
   128
 71
    36
 72
   -37
 73
   -18
  0
VERTEX
  5
EAF
  8
RÁM
 10
0.0
 20
0.0
 30
0.0
 70
   128
 71
    37
 72
   -38
 73
   -18
  0
VERTEX
  5
EB0
  8
RÁM
 10
0.0
 20
0.0
 30
0.0
 70
   128
 71
     1
 72
     2
 73
    -3
  0
VERTEX
  5
EB1
  8
RÁM
 10
0.0
 20
0.0
 30
0.0
 70
   128
 71
    -3
 72
   -62
 73
    -1
  0
VERTEX
  5
EB2
  8
RÁM
 10
0.0
 20
0.0
 30
0.0
 70
   128
 71
    -7
 72
   -12
 73
   -62
  0
VERTEX
  5
EB3
  8
RÁM
 10
0.0
 20
0.0
 30
0.0
 70
   128
 71
     6
 72
    -7
 73
   -62
  0
VERTEX
  5
EB4
  8
RÁM
 10
0.0
 20
0.0
 30
0.0
 70
   128
 71
     5
 72
    -6
 73
   -62
  0
VERTEX
  5
EB5
  8
RÁM
 10
0.0
 20
0.0
 30
0.0
 70
   128
 71
     4
 72
    -5
 73
   -62
  0
VERTEX
  5
EB6
  8
RÁM
 10
0.0
 20
0.0
 30
0.0
 70
   128
 71
     3
 72
    -4
 73
   -62
  0
VERTEX
  5
EB7
  8
RÁM
 10
0.0
 20
0.0
 30
0.0
 70
   128
 71
     7
 72
    -8
 73
   -12
  0
VERTEX
  5
EB8
  8
RÁM
 10
0.0
 20
0.0
 30
0.0
 70
   128
 71
    10
 72
    11
 73
   -12
  0
VERTEX
  5
EB9
  8
RÁM
 10
0.0
 20
0.0
 30
0.0
 70
   128
 71
     9
 72
   -10
 73
   -12
  0
VERTEX
  5
EBA
  8
RÁM
 10
0.0
 20
0.0
 30
0.0
 70
   128
 71
     8
 72
    -9
 73
   -12
  0
VERTEX
  5
EBB
  8
RÁM
 10
0.0
 20
0.0
 30
0.0
 70
   128
 71
   -16
 72
   -56
 73
   -62
  0
VERTEX
  5
EBC
  8
RÁM
 10
0.0
 20
0.0
 30
0.0
 70
   128
 71
   -12
 72
   -16
 73
   -62
  0
VERTEX
  5
EBD
  8
RÁM
 10
0.0
 20
0.0
 30
0.0
 70
   128
 71
    14
 72
    15
 73
   -16
  0
VERTEX
  5
EBE
  8
RÁM
 10
0.0
 20
0.0
 30
0.0
 70
   128
 71
    13
 72
   -14
 73
   -16
  0
VERTEX
  5
EBF
  8
RÁM
 10
0.0
 20
0.0
 30
0.0
 70
   128
 71
    12
 72
   -13
 73
   -16
  0
VERTEX
  5
EC0
  8
RÁM
 10
0.0
 20
0.0
 30
0.0
 70
   128
 71
    16
 72
   -17
 73
   -56
  0
VERTEX
  5
EC1
  8
RÁM
 10
0.0
 20
0.0
 30
0.0
 70
   128
 71
    38
 72
   -39
 73
   -56
  0
VERTEX
  5
EC2
  8
RÁM
 10
0.0
 20
0.0
 30
0.0
 70
   128
 71
   -18
 72
   -38
 73
   -56
  0
VERTEX
  5
EC3
  8
RÁM
 10
0.0
 20
0.0
 30
0.0
 70
   128
 71
    17
 72
   -18
 73
   -56
  0
VERTEX
  5
EC4
  8
RÁM
 10
0.0
 20
0.0
 30
0.0
 70
   128
 71
    39
 72
   -40
 73
   -56
  0
VERTEX
  5
EC5
  8
RÁM
 10
0.0
 20
0.0
 30
0.0
 70
   128
 71
    40
 72
   -41
 73
   -56
  0
VERTEX
  5
EC6
  8
RÁM
 10
0.0
 20
0.0
 30
0.0
 70
   128
 71
    41
 72
   -42
 73
   -56
  0
VERTEX
  5
EC7
  8
RÁM
 10
0.0
 20
0.0
 30
0.0
 70
   128
 71
    52
 72
   -53
 73
   -56
  0
VERTEX
  5
EC8
  8
RÁM
 10
0.0
 20
0.0
 30
0.0
 70
   128
 71
   -43
 72
   -52
 73
   -56
  0
VERTEX
  5
EC9
  8
RÁM
 10
0.0
 20
0.0
 30
0.0
 70
   128
 71
    42
 72
   -43
 73
   -56
  0
VERTEX
  5
ECA
  8
RÁM
 10
0.0
 20
0.0
 30
0.0
 70
   128
 71
    50
 72
    51
 73
   -52
  0
VERTEX
  5
ECB
  8
RÁM
 10
0.0
 20
0.0
 30
0.0
 70
   128
 71
    49
 72
   -50
 73
   -52
  0
VERTEX
  5
ECC
  8
RÁM
 10
0.0
 20
0.0
 30
0.0
 70
   128
 71
    48
 72
   -49
 73
   -52
  0
VERTEX
  5
ECD
  8
RÁM
 10
0.0
 20
0.0
 30
0.0
 70
   128
 71
   -43
 72
   -48
 73
   -52
  0
VERTEX
  5
ECE
  8
RÁM
 10
0.0
 20
0.0
 30
0.0
 70
   128
 71
    46
 72
    47
 73
   -48
  0
VERTEX
  5
ECF
  8
RÁM
 10
0.0
 20
0.0
 30
0.0
 70
   128
 71
    45
 72
   -46
 73
   -48
  0
VERTEX
  5
ED0
  8
RÁM
 10
0.0
 20
0.0
 30
0.0
 70
   128
 71
    44
 72
   -45
 73
   -48
  0
VERTEX
  5
ED1
  8
RÁM
 10
0.0
 20
0.0
 30
0.0
 70
   128
 71
    43
 72
   -44
 73
   -48
  0
VERTEX
  5
ED2
  8
RÁM
 10
0.0
 20
0.0
 30
0.0
 70
   128
 71
    63
 72
    64
 73
    -1
  0
VERTEX
  5
ED3
  8
RÁM
 10
0.0
 20
0.0
 30
0.0
 70
   128
 71
    62
 72
   -63
 73
    -1
  0
SEQEND
  5
1660
  8
RÁM
  0
POLYLINE
  5
ED4
  8
RÁM
 66
     1
 10
0.0
 20
0.0
 30
0.0
 70
    64
 71
    45
 72
    43
  0
VERTEX
  5
ED5
  8
RÁM
 10
324.3853215842921
 20
0.0
 30
4.156604711854615
 70
   192
  0
VERTEX
  5
ED6
  8
RÁM
 10
324.4578961853608
 20
0.0
 30
4.40993126536765
 70
   192
  0
VERTEX
  5
ED7
  8
RÁM
 10
324.6491842997149
 20
0.0
 30
4.591177707379347
 70
   192
  0
VERTEX
  5
ED8
  8
RÁM
 10
324.9060526576876
 20
0.0
 30
4.64999999998596
 70
   192
  0
VERTEX
  5
ED9
  8
RÁM
 10
334.9693221577554
 20
0.0
 30
4.649999999985919
 70
   192
  0
VERTEX
  5
EDA
  8
RÁM
 10
335.2250472361346
 20
0.0
 30
4.586391040530313
 70
   192
  0
VERTEX
  5
EDB
  8
RÁM
 10
335.4129172800185
 20
0.0
 30
4.401603968346891
 70
   192
  0
VERTEX
  5
EDC
  8
RÁM
 10
335.4807484423463
 20
0.0
 30
4.146966286822055
 70
   192
  0
VERTEX
  5
EDD
  8
RÁM
 10
335.5500621719348
 20
0.0
 30
4.397805630589384
 70
   192
  0
VERTEX
  5
EDE
  8
RÁM
 10
335.7360457022102
 20
0.0
 30
4.579835562077015
 70
   192
  0
VERTEX
  5
EDF
  8
RÁM
 10
335.988316266304
 20
0.0
 30
4.643744340682724
 70
   192
  0
VERTEX
  5
EE0
  8
RÁM
 10
337.6662952360401
 20
0.0
 30
4.164384448928881
 70
   192
  0
VERTEX
  5
EE1
  8
RÁM
 10
338.9804858622038
 20
0.0
 30
3.016210974752421
 70
   192
  0
VERTEX
  5
EE2
  8
RÁM
 10
339.6807484416264
 20
0.0
 30
1.417764338621156
 70
   192
  0
VERTEX
  5
EE3
  8
RÁM
 10
339.6807484416264
 20
0.0
 30
10.4949870106976
 70
   192
  0
VERTEX
  5
EE4
  8
RÁM
 10
369.6807484416252
 20
0.0
 30
10.4949870106976
 70
   192
  0
VERTEX
  5
EE5
  8
RÁM
 10
369.6807484416252
 20
0.0
 30
-12.50501298930231
 70
   192
  0
VERTEX
  5
EE6
  8
RÁM
 10
339.6807484416264
 20
0.0
 30
-12.50501298930231
 70
   192
  0
VERTEX
  5
EE7
  8
RÁM
 10
339.6807484416263
 20
0.0
 30
-1.401175522428822
 70
   192
  0
VERTEX
  5
EE8
  8
RÁM
 10
338.9855486055211
 20
0.0
 30
-3.009715524097807
 70
   192
  0
VERTEX
  5
EE9
  8
RÁM
 10
337.66949452876
 20
0.0
 30
-4.16673990419116
 70
   192
  0
VERTEX
  5
EEA
  8
RÁM
 10
335.9851619730626
 20
0.0
 30
-4.65019371885005
 70
   192
  0
VERTEX
  5
EEB
  8
RÁM
 10
335.9836908173851
 20
0.0
 30
-4.650204540837071
 70
   192
  0
VERTEX
  5
EEC
  8
RÁM
 10
335.9822196362334
 20
0.0
 30
-4.650211034066762
 70
   192
  0
VERTEX
  5
EED
  8
RÁM
 10
335.9807484423446
 20
0.0
 30
-4.650213198482904
 70
   192
  0
VERTEX
  5
EEE
  8
RÁM
 10
335.7307484423454
 20
0.0
 30
-4.583225900375324
 70
   192
  0
VERTEX
  5
EEF
  8
RÁM
 10
335.5477357404537
 20
0.0
 30
-4.400213198483653
 70
   192
  0
VERTEX
  5
EF0
  8
RÁM
 10
335.4807484423462
 20
0.0
 30
-4.150213198484402
 70
   192
  0
VERTEX
  5
EF1
  8
RÁM
 10
335.4137611442385
 20
0.0
 30
-4.400213198483653
 70
   192
  0
VERTEX
  5
EF2
  8
RÁM
 10
335.2307484423469
 20
0.0
 30
-4.583225900375324
 70
   192
  0
VERTEX
  5
EF3
  8
RÁM
 10
334.9807484423476
 20
0.0
 30
-4.650213198482904
 70
   192
  0
VERTEX
  5
EF4
  8
RÁM
 10
334.9758812403508
 20
0.0
 30
-4.6501895082664
 70
   192
  0
VERTEX
  5
EF5
  8
RÁM
 10
334.9710144995743
 20
0.0
 30
-4.650118439861793
 70
   192
  0
VERTEX
  5
EF6
  8
RÁM
 10
334.9661486811946
 20
0.0
 30
-4.650000000003587
 70
   192
  0
VERTEX
  5
EF7
  8
RÁM
 10
324.8949996086412
 20
0.0
 30
-4.650000000003575
 70
   192
  0
VERTEX
  5
EF8
  8
RÁM
 10
324.8902498942829
 20
0.0
 30
-4.650112852424157
 70
   192
  0
VERTEX
  5
EF9
  8
RÁM
 10
324.8854993220266
 20
0.0
 30
-4.650180567952545
 70
   192
  0
VERTEX
  5
EFA
  8
RÁM
 10
324.8807483208021
 20
0.0
 30
-4.6502031404747
 70
   192
  0
VERTEX
  5
EFB
  8
RÁM
 10
324.6306476900796
 20
0.0
 30
-4.583157727599071
 70
   192
  0
VERTEX
  5
EFC
  8
RÁM
 10
324.4476194595463
 20
0.0
 30
-4.400001838522893
 70
   192
  0
VERTEX
  5
EFD
  8
RÁM
 10
324.3807484423384
 20
0.0
 30
-4.149854522061174
 70
   192
  0
VERTEX
  5
EFE
  8
RÁM
 10
324.3807484423384
 20
0.0
 30
-3.299854522061157
 70
   192
  0
VERTEX
  5
EFF
  8
RÁM
 10
324.3808011929961
 20
0.0
 30
-3.295876782166219
 70
   192
  0
VERTEX
  5
F00
  8
RÁM
 10
324.3809594078674
 20
0.0
 30
-3.291901839983222
 70
   192
  0
VERTEX
  5
F01
  8
RÁM
 10
324.381222975673
 20
0.0
 30
-3.287932491256355
 70
   192
  0
VERTEX
  5
F02
  8
RÁM
 10
0.0
 20
0.0
 30
0.0
 70
   128
 71
    32
 72
    31
 73
   -30
  0
VERTEX
  5
F03
  8
RÁM
 10
0.0
 20
0.0
 30
0.0
 70
   128
 71
   -30
 72
    33
 73
   -32
  0
VERTEX
  5
F04
  8
RÁM
 10
0.0
 20
0.0
 30
0.0
 70
   128
 71
   -30
 72
    34
 73
   -33
  0
VERTEX
  5
F05
  8
RÁM
 10
0.0
 20
0.0
 30
0.0
 70
   128
 71
   -30
 72
   -42
 73
   -35
  0
VERTEX
  5
F06
  8
RÁM
 10
0.0
 20
0.0
 30
0.0
 70
   128
 71
   -30
 72
    35
 73
   -34
  0
VERTEX
  5
F07
  8
RÁM
 10
0.0
 20
0.0
 30
0.0
 70
   128
 71
   -42
 72
    36
 73
   -35
  0
VERTEX
  5
F08
  8
RÁM
 10
0.0
 20
0.0
 30
0.0
 70
   128
 71
   -42
 72
    37
 73
   -36
  0
VERTEX
  5
F09
  8
RÁM
 10
0.0
 20
0.0
 30
0.0
 70
   128
 71
    42
 72
    41
 73
   -40
  0
VERTEX
  5
F0A
  8
RÁM
 10
0.0
 20
0.0
 30
0.0
 70
   128
 71
   -42
 72
    40
 73
   -39
  0
VERTEX
  5
F0B
  8
RÁM
 10
0.0
 20
0.0
 30
0.0
 70
   128
 71
   -42
 72
    39
 73
   -38
  0
VERTEX
  5
F0C
  8
RÁM
 10
0.0
 20
0.0
 30
0.0
 70
   128
 71
   -42
 72
    38
 73
   -37
  0
VERTEX
  5
F0D
  8
RÁM
 10
0.0
 20
0.0
 30
0.0
 70
   128
 71
   -30
 72
    43
 73
   -42
  0
VERTEX
  5
F0E
  8
RÁM
 10
0.0
 20
0.0
 30
0.0
 70
   128
 71
   -30
 72
    44
 73
   -43
  0
VERTEX
  5
F0F
  8
RÁM
 10
0.0
 20
0.0
 30
0.0
 70
   128
 71
    23
 72
    22
 73
   -21
  0
VERTEX
  5
F10
  8
RÁM
 10
0.0
 20
0.0
 30
0.0
 70
   128
 71
   -23
 72
   -21
 73
   -28
  0
VERTEX
  5
F11
  8
RÁM
 10
0.0
 20
0.0
 30
0.0
 70
   128
 71
   -28
 72
    24
 73
   -23
  0
VERTEX
  5
F12
  8
RÁM
 10
0.0
 20
0.0
 30
0.0
 70
   128
 71
    28
 72
    27
 73
   -26
  0
VERTEX
  5
F13
  8
RÁM
 10
0.0
 20
0.0
 30
0.0
 70
   128
 71
   -28
 72
    26
 73
   -25
  0
VERTEX
  5
F14
  8
RÁM
 10
0.0
 20
0.0
 30
0.0
 70
   128
 71
   -28
 72
    25
 73
   -24
  0
VERTEX
  5
F15
  8
RÁM
 10
0.0
 20
0.0
 30
0.0
 70
   128
 71
   -28
 72
   -21
 73
   -45
  0
VERTEX
  5
F16
  8
RÁM
 10
0.0
 20
0.0
 30
0.0
 70
   128
 71
    45
 72
   -44
 73
   -30
  0
VERTEX
  5
F17
  8
RÁM
 10
0.0
 20
0.0
 30
0.0
 70
   128
 71
   -45
 72
    30
 73
   -29
  0
VERTEX
  5
F18
  8
RÁM
 10
0.0
 20
0.0
 30
0.0
 70
   128
 71
   -45
 72
    29
 73
   -28
  0
VERTEX
  5
F19
  8
RÁM
 10
0.0
 20
0.0
 30
0.0
 70
   128
 71
    19
 72
    18
 73
   -17
  0
VERTEX
  5
F1A
  8
RÁM
 10
0.0
 20
0.0
 30
0.0
 70
   128
 71
   -19
 72
    17
 73
   -16
  0
VERTEX
  5
F1B
  8
RÁM
 10
0.0
 20
0.0
 30
0.0
 70
   128
 71
     8
 72
     7
 73
    -6
  0
VERTEX
  5
F1C
  8
RÁM
 10
0.0
 20
0.0
 30
0.0
 70
   128
 71
    -8
 72
     6
 73
    -5
  0
VERTEX
  5
F1D
  8
RÁM
 10
0.0
 20
0.0
 30
0.0
 70
   128
 71
    -8
 72
     5
 73
    -4
  0
VERTEX
  5
F1E
  8
RÁM
 10
0.0
 20
0.0
 30
0.0
 70
   128
 71
    -8
 72
     4
 73
    -3
  0
VERTEX
  5
F1F
  8
RÁM
 10
0.0
 20
0.0
 30
0.0
 70
   128
 71
    -8
 72
     3
 73
    -2
  0
VERTEX
  5
F20
  8
RÁM
 10
0.0
 20
0.0
 30
0.0
 70
   128
 71
    -8
 72
     2
 73
    -1
  0
VERTEX
  5
F21
  8
RÁM
 10
0.0
 20
0.0
 30
0.0
 70
   128
 71
     1
 72
   -45
 73
   -21
  0
VERTEX
  5
F22
  8
RÁM
 10
0.0
 20
0.0
 30
0.0
 70
   128
 71
    -1
 72
   -21
 73
    -8
  0
VERTEX
  5
F23
  8
RÁM
 10
0.0
 20
0.0
 30
0.0
 70
   128
 71
    21
 72
    20
 73
   -19
  0
VERTEX
  5
F24
  8
RÁM
 10
0.0
 20
0.0
 30
0.0
 70
   128
 71
   -21
 72
   -19
 73
   -14
  0
VERTEX
  5
F25
  8
RÁM
 10
0.0
 20
0.0
 30
0.0
 70
   128
 71
   -21
 72
    14
 73
   -13
  0
VERTEX
  5
F26
  8
RÁM
 10
0.0
 20
0.0
 30
0.0
 70
   128
 71
   -21
 72
    13
 73
   -12
  0
VERTEX
  5
F27
  8
RÁM
 10
0.0
 20
0.0
 30
0.0
 70
   128
 71
   -21
 72
    12
 73
   -11
  0
VERTEX
  5
F28
  8
RÁM
 10
0.0
 20
0.0
 30
0.0
 70
   128
 71
   -21
 72
    11
 73
   -10
  0
VERTEX
  5
F29
  8
RÁM
 10
0.0
 20
0.0
 30
0.0
 70
   128
 71
   -21
 72
    10
 73
    -9
  0
VERTEX
  5
F2A
  8
RÁM
 10
0.0
 20
0.0
 30
0.0
 70
   128
 71
   -21
 72
     9
 73
    -8
  0
VERTEX
  5
F2B
  8
RÁM
 10
0.0
 20
0.0
 30
0.0
 70
   128
 71
   -14
 72
   -19
 73
   -16
  0
VERTEX
  5
F2C
  8
RÁM
 10
0.0
 20
0.0
 30
0.0
 70
   128
 71
    16
 72
    15
 73
   -14
  0
SEQEND
  5
1661
  8
RÁM
  0
POLYLINE
  5
F2D
  8
RÁM
 66
     1
 10
0.0
 20
0.0
 30
0.0
 70
    64
 71
    24
 72
    22
  0
VERTEX
  5
F2E
  8
RÁM
 10
324.5373531541853
 20
18.00000000000001
 30
-3.150000000002142
 70
   192
  0
VERTEX
  5
F2F
  8
RÁM
 10
324.4631214447654
 20
18.00000000000001
 30
-3.165964308829111
 70
   192
  0
VERTEX
  5
F30
  8
RÁM
 10
324.4062178936269
 20
18.00000000000001
 30
-3.216235490509516
 70
   192
  0
VERTEX
  5
F31
  8
RÁM
 10
324.381222975673
 20
18.00000000000001
 30
-3.287932491257054
 70
   192
  0
VERTEX
  5
F32
  8
RÁM
 10
324.385321584292
 20
18.0
 30
4.156604711854616
 70
   192
  0
VERTEX
  5
F33
  8
RÁM
 10
324.3853215842922
 20
18.00000000000001
 30
3.306604711848824
 70
   192
  0
VERTEX
  5
F34
  8
RÁM
 10
324.4031263291392
 20
18.00000000000001
 30
3.228846248601752
 70
   192
  0
VERTEX
  5
F35
  8
RÁM
 10
324.4582770254398
 20
18.00000000000001
 30
3.171211291820628
 70
   192
  0
VERTEX
  5
F36
  8
RÁM
 10
324.5351761063511
 20
18.00000000000001
 30
3.150000000001961
 70
   192
  0
VERTEX
  5
F37
  8
RÁM
 10
326.8874986321334
 20
18.00000000000001
 30
3.150000000001961
 70
   192
  0
VERTEX
  5
F38
  8
RÁM
 10
326.8874986321334
 20
18.00000000000001
 30
3.450000000001959
 70
   192
  0
VERTEX
  5
F39
  8
RÁM
 10
329.3728988709805
 20
18.00000000000001
 30
3.450000000001959
 70
   192
  0
VERTEX
  5
F3A
  8
RÁM
 10
329.6290214111016
 20
18.00000000000001
 30
3.38801080838732
 70
   192
  0
VERTEX
  5
F3B
  8
RÁM
 10
329.8180572166968
 20
18.00000000000001
 30
3.204416473948408
 70
   192
  0
VERTEX
  5
F3C
  8
RÁM
 10
329.8874986321321
 20
18.00000000000001
 30
2.950213198482777
 70
   192
  0
VERTEX
  5
F3D
  8
RÁM
 10
329.8874986321322
 20
18.00000000000001
 30
-2.950213198483012
 70
   192
  0
VERTEX
  5
F3E
  8
RÁM
 10
329.8205113340244
 20
18.00000000000001
 30
-3.200213198482305
 70
   192
  0
VERTEX
  5
F3F
  8
RÁM
 10
329.6374986321327
 20
18.00000000000001
 30
-3.383225900374006
 70
   192
  0
VERTEX
  5
F40
  8
RÁM
 10
329.3874986321334
 20
18.00000000000001
 30
-3.450213198481597
 70
   192
  0
VERTEX
  5
F41
  8
RÁM
 10
329.3826314301367
 20
18.00000000000001
 30
-3.450189508265094
 70
   192
  0
VERTEX
  5
F42
  8
RÁM
 10
329.3777646893601
 20
18.00000000000001
 30
-3.450118439860487
 70
   192
  0
VERTEX
  5
F43
  8
RÁM
 10
329.3728988709805
 20
18.00000000000001
 30
-3.450000000002281
 70
   192
  0
VERTEX
  5
F44
  8
RÁM
 10
326.8853215842991
 20
18.00000000000001
 30
-3.450000000002198
 70
   192
  0
VERTEX
  5
F45
  8
RÁM
 10
326.8853215842991
 20
18.00000000000001
 30
-3.150000000002198
 70
   192
  0
VERTEX
  5
F46
  8
RÁM
 10
0.0
 20
0.0
 30
0.0
 70
   128
 71
    18
 72
    19
 73
   -20
  0
VERTEX
  5
F47
  8
RÁM
 10
0.0
 20
0.0
 30
0.0
 70
   128
 71
    17
 72
   -18
 73
   -20
  0
VERTEX
  5
F48
  8
RÁM
 10
0.0
 20
0.0
 30
0.0
 70
   128
 71
    16
 72
   -17
 73
   -20
  0
VERTEX
  5
F49
  8
RÁM
 10
0.0
 20
0.0
 30
0.0
 70
   128
 71
    20
 72
   -21
 73
   -16
  0
VERTEX
  5
F4A
  8
RÁM
 10
0.0
 20
0.0
 30
0.0
 70
   128
 71
    21
 72
   -22
 73
   -16
  0
VERTEX
  5
F4B
  8
RÁM
 10
0.0
 20
0.0
 30
0.0
 70
   128
 71
    23
 72
   -24
 73
   -16
  0
VERTEX
  5
F4C
  8
RÁM
 10
0.0
 20
0.0
 30
0.0
 70
   128
 71
    22
 72
   -23
 73
   -16
  0
VERTEX
  5
F4D
  8
RÁM
 10
0.0
 20
0.0
 30
0.0
 70
   128
 71
     4
 72
     5
 73
    -6
  0
VERTEX
  5
F4E
  8
RÁM
 10
0.0
 20
0.0
 30
0.0
 70
   128
 71
     6
 72
    -7
 73
    -4
  0
VERTEX
  5
F4F
  8
RÁM
 10
0.0
 20
0.0
 30
0.0
 70
   128
 71
     7
 72
    -8
 73
    -4
  0
VERTEX
  5
F50
  8
RÁM
 10
0.0
 20
0.0
 30
0.0
 70
   128
 71
     8
 72
    -9
 73
    -4
  0
VERTEX
  5
F51
  8
RÁM
 10
0.0
 20
0.0
 30
0.0
 70
   128
 71
   -10
 72
    24
 73
    -1
  0
VERTEX
  5
F52
  8
RÁM
 10
0.0
 20
0.0
 30
0.0
 70
   128
 71
     9
 72
   -10
 73
    -1
  0
VERTEX
  5
F53
  8
RÁM
 10
0.0
 20
0.0
 30
0.0
 70
   128
 71
     1
 72
    -2
 73
    -9
  0
VERTEX
  5
F54
  8
RÁM
 10
0.0
 20
0.0
 30
0.0
 70
   128
 71
     2
 72
    -3
 73
    -9
  0
VERTEX
  5
F55
  8
RÁM
 10
0.0
 20
0.0
 30
0.0
 70
   128
 71
     3
 72
    -4
 73
    -9
  0
VERTEX
  5
F56
  8
RÁM
 10
0.0
 20
0.0
 30
0.0
 70
   128
 71
    15
 72
   -16
 73
   -24
  0
VERTEX
  5
F57
  8
RÁM
 10
0.0
 20
0.0
 30
0.0
 70
   128
 71
   -10
 72
   -15
 73
   -24
  0
VERTEX
  5
F58
  8
RÁM
 10
0.0
 20
0.0
 30
0.0
 70
   128
 71
    13
 72
    14
 73
   -15
  0
VERTEX
  5
F59
  8
RÁM
 10
0.0
 20
0.0
 30
0.0
 70
   128
 71
    12
 72
   -13
 73
   -15
  0
VERTEX
  5
F5A
  8
RÁM
 10
0.0
 20
0.0
 30
0.0
 70
   128
 71
    11
 72
   -12
 73
   -15
  0
VERTEX
  5
F5B
  8
RÁM
 10
0.0
 20
0.0
 30
0.0
 70
   128
 71
    10
 72
   -11
 73
   -15
  0
SEQEND
  5
1662
  8
RÁM
  0
POLYLINE
  5
F5C
  8
RÁM
 66
     1
 10
0.0
 20
0.0
 30
0.0
 70
    64
 71
     4
 72
     2
  0
VERTEX
  5
F5D
  8
RÁM
 10
324.3853215842921
 20
18.0
 30
4.156604711854616
 70
   192
  0
VERTEX
  5
F5E
  8
RÁM
 10
324.385321584292
 20
0.0
 30
4.156604711854615
 70
   192
  0
VERTEX
  5
F5F
  8
RÁM
 10
324.381222975673
 20
0.0
 30
-3.287932491256963
 70
   192
  0
VERTEX
  5
F60
  8
RÁM
 10
324.381222975673
 20
18.0
 30
-3.287932491257056
 70
   192
  0
VERTEX
  5
F61
  8
RÁM
 10
0.0
 20
0.0
 30
0.0
 70
   128
 71
     1
 72
     4
 73
    -3
  0
VERTEX
  5
F62
  8
RÁM
 10
0.0
 20
0.0
 30
0.0
 70
   128
 71
    -1
 72
     3
 73
     2
  0
SEQEND
  5
1663
  8
RÁM
  0
ENDBLK
  5
163F
  8
0
  0
BLOCK
  8
0
  2
*X3
 70
     1
 10
0.0
 20
0.0
 30
0.0
  3
*X3
  1

  0
POLYLINE
  5
F64
  8
SKLO
 66
     1
 10
0.0
 20
0.0
 30
0.0
 70
    64
 71
     4
 72
     2
  0
VERTEX
  5
F65
  8
SKLO
 10
-330.2125013678679
 20
17.99999999999989
 30
3.000000000000008
 70
   192
  0
VERTEX
  5
F66
  8
SKLO
 10
-330.2125013678679
 20
2000.0
 30
3.000000000000008
 70
   192
  0
VERTEX
  5
F67
  8
SKLO
 10
-330.2125013678679
 20
2000.0
 30
-2.999999999999992
 70
   192
  0
VERTEX
  5
F68
  8
SKLO
 10
-330.2125013678679
 20
17.99999999999989
 30
-2.999999999999992
 70
   192
  0
VERTEX
  5
F69
  8
SKLO
 10
0.0
 20
0.0
 30
0.0
 70
   128
 71
     3
 72
     4
 73
    -1
  0
VERTEX
  5
F6A
  8
SKLO
 10
0.0
 20
0.0
 30
0.0
 70
   128
 71
     2
 72
    -3
 73
     1
  0
SEQEND
  5
1666
  8
SKLO
  0
POLYLINE
  5
F6B
  8
SKLO
 66
     1
 10
0.0
 20
0.0
 30
0.0
 70
    64
 71
     4
 72
     2
  0
VERTEX
  5
F6C
  8
SKLO
 10
-330.2125013678679
 20
2000.0
 30
3.000000000000008
 70
   192
  0
VERTEX
  5
F6D
  8
SKLO
 10
-3.212501367867844
 20
2000.0
 30
3.000000000000008
 70
   192
  0
VERTEX
  5
F6E
  8
SKLO
 10
-3.212501367867854
 20
2000.0
 30
-2.999999999999992
 70
   192
  0
VERTEX
  5
F6F
  8
SKLO
 10
-330.2125013678679
 20
2000.0
 30
-2.999999999999992
 70
   192
  0
VERTEX
  5
F70
  8
SKLO
 10
0.0
 20
0.0
 30
0.0
 70
   128
 71
     3
 72
     4
 73
    -1
  0
VERTEX
  5
F71
  8
SKLO
 10
0.0
 20
0.0
 30
0.0
 70
   128
 71
     2
 72
    -3
 73
     1
  0
SEQEND
  5
1667
  8
SKLO
  0
POLYLINE
  5
F72
  8
SKLO
 66
     1
 10
0.0
 20
0.0
 30
0.0
 70
    64
 71
     4
 72
     2
  0
VERTEX
  5
F73
  8
SKLO
 10
-3.212501367867854
 20
2000.0
 30
3.000000000000008
 70
   192
  0
VERTEX
  5
F74
  8
SKLO
 10
-3.212501367867854
 20
18.0
 30
3.000000000000008
 70
   192
  0
VERTEX
  5
F75
  8
SKLO
 10
-3.212501367867854
 20
17.99999999999989
 30
-2.999999999999992
 70
   192
  0
VERTEX
  5
F76
  8
SKLO
 10
-3.212501367867854
 20
2000.0
 30
-2.999999999999992
 70
   192
  0
VERTEX
  5
F77
  8
SKLO
 10
0.0
 20
0.0
 30
0.0
 70
   128
 71
     3
 72
     4
 73
    -1
  0
VERTEX
  5
F78
  8
SKLO
 10
0.0
 20
0.0
 30
0.0
 70
   128
 71
     2
 72
    -3
 73
     1
  0
SEQEND
  5
1668
  8
SKLO
  0
POLYLINE
  5
F79
  8
SKLO
 66
     1
 10
0.0
 20
0.0
 30
0.0
 70
    64
 71
     4
 72
     2
  0
VERTEX
  5
F7A
  8
SKLO
 10
-3.212501367867854
 20
17.99999999999989
 30
3.000000000000008
 70
   192
  0
VERTEX
  5
F7B
  8
SKLO
 10
-330.2125013678679
 20
17.99999999999989
 30
3.000000000000008
 70
   192
  0
VERTEX
  5
F7C
  8
SKLO
 10
-330.2125013678679
 20
17.99999999999989
 30
-2.999999999999992
 70
   192
  0
VERTEX
  5
F7D
  8
SKLO
 10
-3.212501367867854
 20
17.99999999999989
 30
-2.999999999999992
 70
   192
  0
VERTEX
  5
F7E
  8
SKLO
 10
0.0
 20
0.0
 30
0.0
 70
   128
 71
     3
 72
     4
 73
    -1
  0
VERTEX
  5
F7F
  8
SKLO
 10
0.0
 20
0.0
 30
0.0
 70
   128
 71
     2
 72
    -3
 73
     1
  0
SEQEND
  5
1669
  8
SKLO
  0
POLYLINE
  5
F80
  8
SKLO
 66
     1
 10
0.0
 20
0.0
 30
0.0
 70
    64
 71
     4
 72
     2
  0
VERTEX
  5
F81
  8
SKLO
 10
-330.2125013678679
 20
17.99999999999989
 30
-2.999999999999992
 70
   192
  0
VERTEX
  5
F82
  8
SKLO
 10
-330.2125013678679
 20
2000.0
 30
-2.999999999999992
 70
   192
  0
VERTEX
  5
F83
  8
SKLO
 10
-3.212501367867844
 20
2000.0
 30
-2.999999999999992
 70
   192
  0
VERTEX
  5
F84
  8
SKLO
 10
-3.212501367867854
 20
18.0
 30
-2.999999999999992
 70
   192
  0
VERTEX
  5
F85
  8
SKLO
 10
0.0
 20
0.0
 30
0.0
 70
   128
 71
     3
 72
     4
 73
    -1
  0
VERTEX
  5
F86
  8
SKLO
 10
0.0
 20
0.0
 30
0.0
 70
   128
 71
     2
 72
    -3
 73
     1
  0
SEQEND
  5
166A
  8
SKLO
  0
POLYLINE
  5
F87
  8
SKLO
 66
     1
 10
0.0
 20
0.0
 30
0.0
 70
    64
 71
     4
 72
     2
  0
VERTEX
  5
F88
  8
SKLO
 10
-330.2125013678679
 20
2000.0
 30
3.000000000000008
 70
   192
  0
VERTEX
  5
F89
  8
SKLO
 10
-3.212501367867854
 20
2000.0
 30
3.000000000000008
 70
   192
  0
VERTEX
  5
F8A
  8
SKLO
 10
-3.212501367867854
 20
17.99999999999989
 30
3.000000000000008
 70
   192
  0
VERTEX
  5
F8B
  8
SKLO
 10
-330.2125013678679
 20
17.99999999999989
 30
3.000000000000008
 70
   192
  0
VERTEX
  5
F8C
  8
SKLO
 10
0.0
 20
0.0
 30
0.0
 70
   128
 71
     1
 72
     4
 73
    -3
  0
VERTEX
  5
F8D
  8
SKLO
 10
0.0
 20
0.0
 30
0.0
 70
   128
 71
    -1
 72
     3
 73
     2
  0
SEQEND
  5
166B
  8
SKLO
  0
ENDBLK
  5
1665
  8
0
  0
BLOCK
  8
0
  2
*X4
 70
     1
 10
0.0
 20
0.0
 30
0.0
  3
*X4
  1

  0
POLYLINE
  5
F8F
  8
SKLO
 66
     1
 10
0.0
 20
0.0
 30
0.0
 70
    64
 71
     4
 72
     2
  0
VERTEX
  5
F90
  8
SKLO
 10
2.787498632132124
 20
17.99999999999989
 30
3.000000000000008
 70
   192
  0
VERTEX
  5
F91
  8
SKLO
 10
2.787498632132124
 20
2000.0
 30
3.000000000000008
 70
   192
  0
VERTEX
  5
F92
  8
SKLO
 10
2.787498632132124
 20
2000.0
 30
-2.999999999999992
 70
   192
  0
VERTEX
  5
F93
  8
SKLO
 10
2.787498632132124
 20
17.99999999999989
 30
-2.999999999999992
 70
   192
  0
VERTEX
  5
F94
  8
SKLO
 10
0.0
 20
0.0
 30
0.0
 70
   128
 71
     3
 72
     4
 73
    -1
  0
VERTEX
  5
F95
  8
SKLO
 10
0.0
 20
0.0
 30
0.0
 70
   128
 71
     2
 72
    -3
 73
     1
  0
SEQEND
  5
166E
  8
SKLO
  0
POLYLINE
  5
F96
  8
SKLO
 66
     1
 10
0.0
 20
0.0
 30
0.0
 70
    64
 71
     4
 72
     2
  0
VERTEX
  5
F97
  8
SKLO
 10
2.787498632132124
 20
2000.0
 30
3.000000000000008
 70
   192
  0
VERTEX
  5
F98
  8
SKLO
 10
329.7874986321321
 20
2000.0
 30
3.000000000000008
 70
   192
  0
VERTEX
  5
F99
  8
SKLO
 10
329.7874986321321
 20
2000.0
 30
-2.999999999999992
 70
   192
  0
VERTEX
  5
F9A
  8
SKLO
 10
2.787498632132124
 20
2000.0
 30
-2.999999999999992
 70
   192
  0
VERTEX
  5
F9B
  8
SKLO
 10
0.0
 20
0.0
 30
0.0
 70
   128
 71
     3
 72
     4
 73
    -1
  0
VERTEX
  5
F9C
  8
SKLO
 10
0.0
 20
0.0
 30
0.0
 70
   128
 71
     2
 72
    -3
 73
     1
  0
SEQEND
  5
166F
  8
SKLO
  0
POLYLINE
  5
F9D
  8
SKLO
 66
     1
 10
0.0
 20
0.0
 30
0.0
 70
    64
 71
     4
 72
     2
  0
VERTEX
  5
F9E
  8
SKLO
 10
329.7874986321321
 20
2000.0
 30
3.000000000000008
 70
   192
  0
VERTEX
  5
F9F
  8
SKLO
 10
329.7874986321321
 20
17.99999999999989
 30
3.000000000000008
 70
   192
  0
VERTEX
  5
FA0
  8
SKLO
 10
329.7874986321321
 20
17.99999999999989
 30
-2.999999999999992
 70
   192
  0
VERTEX
  5
FA1
  8
SKLO
 10
329.7874986321321
 20
2000.0
 30
-2.999999999999992
 70
   192
  0
VERTEX
  5
FA2
  8
SKLO
 10
0.0
 20
0.0
 30
0.0
 70
   128
 71
     3
 72
     4
 73
    -1
  0
VERTEX
  5
FA3
  8
SKLO
 10
0.0
 20
0.0
 30
0.0
 70
   128
 71
     2
 72
    -3
 73
     1
  0
SEQEND
  5
1670
  8
SKLO
  0
POLYLINE
  5
FA4
  8
SKLO
 66
     1
 10
0.0
 20
0.0
 30
0.0
 70
    64
 71
     4
 72
     2
  0
VERTEX
  5
FA5
  8
SKLO
 10
329.7874986321321
 20
17.99999999999989
 30
3.000000000000008
 70
   192
  0
VERTEX
  5
FA6
  8
SKLO
 10
2.787498632132124
 20
17.99999999999989
 30
3.000000000000008
 70
   192
  0
VERTEX
  5
FA7
  8
SKLO
 10
2.787498632132124
 20
17.99999999999989
 30
-2.999999999999992
 70
   192
  0
VERTEX
  5
FA8
  8
SKLO
 10
329.7874986321321
 20
17.99999999999989
 30
-2.999999999999992
 70
   192
  0
VERTEX
  5
FA9
  8
SKLO
 10
0.0
 20
0.0
 30
0.0
 70
   128
 71
     3
 72
     4
 73
    -1
  0
VERTEX
  5
FAA
  8
SKLO
 10
0.0
 20
0.0
 30
0.0
 70
   128
 71
     2
 72
    -3
 73
     1
  0
SEQEND
  5
1671
  8
SKLO
  0
POLYLINE
  5
FAB
  8
SKLO
 66
     1
 10
0.0
 20
0.0
 30
0.0
 70
    64
 71
     4
 72
     2
  0
VERTEX
  5
FAC
  8
SKLO
 10
2.787498632132124
 20
17.99999999999989
 30
-2.999999999999992
 70
   192
  0
VERTEX
  5
FAD
  8
SKLO
 10
2.787498632132124
 20
2000.0
 30
-2.999999999999992
 70
   192
  0
VERTEX
  5
FAE
  8
SKLO
 10
329.7874986321321
 20
2000.0
 30
-2.999999999999992
 70
   192
  0
VERTEX
  5
FAF
  8
SKLO
 10
329.7874986321321
 20
17.99999999999989
 30
-2.999999999999992
 70
   192
  0
VERTEX
  5
FB0
  8
SKLO
 10
0.0
 20
0.0
 30
0.0
 70
   128
 71
     3
 72
     4
 73
    -1
  0
VERTEX
  5
FB1
  8
SKLO
 10
0.0
 20
0.0
 30
0.0
 70
   128
 71
     2
 72
    -3
 73
     1
  0
SEQEND
  5
1672
  8
SKLO
  0
POLYLINE
  5
FB2
  8
SKLO
 66
     1
 10
0.0
 20
0.0
 30
0.0
 70
    64
 71
     4
 72
     2
  0
VERTEX
  5
FB3
  8
SKLO
 10
2.787498632132124
 20
2000.0
 30
3.000000000000008
 70
   192
  0
VERTEX
  5
FB4
  8
SKLO
 10
329.7874986321321
 20
2000.0
 30
3.000000000000008
 70
   192
  0
VERTEX
  5
FB5
  8
SKLO
 10
329.7874986321321
 20
17.99999999999989
 30
3.000000000000008
 70
   192
  0
VERTEX
  5
FB6
  8
SKLO
 10
2.787498632132124
 20
17.99999999999989
 30
3.000000000000008
 70
   192
  0
VERTEX
  5
FB7
  8
SKLO
 10
0.0
 20
0.0
 30
0.0
 70
   128
 71
     1
 72
     4
 73
    -3
  0
VERTEX
  5
FB8
  8
SKLO
 10
0.0
 20
0.0
 30
0.0
 70
   128
 71
    -1
 72
     3
 73
     2
  0
SEQEND
  5
1673
  8
SKLO
  0
ENDBLK
  5
166D
  8
0
  0
BLOCK
  8
0
  2
*X5
 70
     1
 10
0.0
 20
0.0
 30
0.0
  3
*X5
  1

  0
POLYLINE
  5
FBA
  8
MADLO
 66
     1
 10
0.0
 20
0.0
 30
0.0
 70
    64
 71
    10
 72
     8
  0
VERTEX
  5
FBB
  8
MADLO
 10
237.2874986321321
 20
1110.0
 30
-8.00000000000012
 70
   192
  0
VERTEX
  5
FBC
  8
MADLO
 10
242.2874986321321
 20
1110.0
 30
-8.00000000000012
 70
   192
  0
VERTEX
  5
FBD
  8
MADLO
 10
242.2874986321321
 20
1110.0
 30
-3.000000000000121
 70
   192
  0
VERTEX
  5
FBE
  8
MADLO
 10
237.2874986321321
 20
1110.0
 30
-3.000000000000121
 70
   192
  0
VERTEX
  5
FBF
  8
MADLO
 10
239.7874986321321
 20
1107.5
 30
-3.000000000000119
 70
   192
  0
VERTEX
  5
FC0
  8
MADLO
 10
239.7874986321321
 20
1107.5
 30
-8.000000000000119
 70
   192
  0
VERTEX
  5
FC1
  8
MADLO
 10
238.0197316791657
 20
1108.232233047034
 30
-3.00000000000012
 70
   192
  0
VERTEX
  5
FC2
  8
MADLO
 10
238.0197316791657
 20
1108.232233047034
 30
-8.000000000000119
 70
   192
  0
VERTEX
  5
FC3
  8
MADLO
 10
241.5552655850984
 20
1108.232233047034
 30
-3.00000000000012
 70
   192
  0
VERTEX
  5
FC4
  8
MADLO
 10
241.5552655850984
 20
1108.232233047034
 30
-8.000000000000119
 70
   192
  0
VERTEX
  5
FC5
  8
MADLO
 10
0.0
 20
0.0
 30
0.0
 70
   128
 71
     8
 72
     1
 73
    -4
  0
VERTEX
  5
FC6
  8
MADLO
 10
0.0
 20
0.0
 30
0.0
 70
   128
 71
     7
 72
    -8
 73
     4
  0
VERTEX
  5
FC7
  8
MADLO
 10
0.0
 20
0.0
 30
0.0
 70
   128
 71
     6
 72
     8
 73
    -7
  0
VERTEX
  5
FC8
  8
MADLO
 10
0.0
 20
0.0
 30
0.0
 70
   128
 71
     5
 72
    -6
 73
     7
  0
VERTEX
  5
FC9
  8
MADLO
 10
0.0
 20
0.0
 30
0.0
 70
   128
 71
    10
 72
     6
 73
    -5
  0
VERTEX
  5
FCA
  8
MADLO
 10
0.0
 20
0.0
 30
0.0
 70
   128
 71
     9
 72
   -10
 73
     5
  0
VERTEX
  5
FCB
  8
MADLO
 10
0.0
 20
0.0
 30
0.0
 70
   128
 71
     2
 72
    10
 73
    -9
  0
VERTEX
  5
FCC
  8
MADLO
 10
0.0
 20
0.0
 30
0.0
 70
   128
 71
     3
 72
    -2
 73
     9
  0
SEQEND
  5
1676
  8
MADLO
  0
POLYLINE
  5
FCD
  8
MADLO
 66
     1
 10
0.0
 20
0.0
 30
0.0
 70
    64
 71
    10
 72
     8
  0
VERTEX
  5
FCE
  8
MADLO
 10
237.2874986321322
 20
910.0
 30
-7.999999999999979
 70
   192
  0
VERTEX
  5
FCF
  8
MADLO
 10
242.2874986321322
 20
910.0
 30
-7.999999999999979
 70
   192
  0
VERTEX
  5
FD0
  8
MADLO
 10
242.2874986321322
 20
910.0
 30
-2.999999999999979
 70
   192
  0
VERTEX
  5
FD1
  8
MADLO
 10
237.2874986321322
 20
910.0
 30
-2.999999999999979
 70
   192
  0
VERTEX
  5
FD2
  8
MADLO
 10
239.7874986321322
 20
907.5
 30
-2.999999999999977
 70
   192
  0
VERTEX
  5
FD3
  8
MADLO
 10
239.7874986321322
 20
907.5
 30
-7.999999999999977
 70
   192
  0
VERTEX
  5
FD4
  8
MADLO
 10
238.0197316791658
 20
908.2322330470337
 30
-2.999999999999978
 70
   192
  0
VERTEX
  5
FD5
  8
MADLO
 10
238.0197316791658
 20
908.2322330470337
 30
-7.999999999999978
 70
   192
  0
VERTEX
  5
FD6
  8
MADLO
 10
241.5552655850985
 20
908.2322330470337
 30
-2.999999999999978
 70
   192
  0
VERTEX
  5
FD7
  8
MADLO
 10
241.5552655850985
 20
908.2322330470337
 30
-7.999999999999978
 70
   192
  0
VERTEX
  5
FD8
  8
MADLO
 10
0.0
 20
0.0
 30
0.0
 70
   128
 71
     8
 72
     1
 73
    -4
  0
VERTEX
  5
FD9
  8
MADLO
 10
0.0
 20
0.0
 30
0.0
 70
   128
 71
     7
 72
    -8
 73
     4
  0
VERTEX
  5
FDA
  8
MADLO
 10
0.0
 20
0.0
 30
0.0
 70
   128
 71
     6
 72
     8
 73
    -7
  0
VERTEX
  5
FDB
  8
MADLO
 10
0.0
 20
0.0
 30
0.0
 70
   128
 71
     5
 72
    -6
 73
     7
  0
VERTEX
  5
FDC
  8
MADLO
 10
0.0
 20
0.0
 30
0.0
 70
   128
 71
    10
 72
     6
 73
    -5
  0
VERTEX
  5
FDD
  8
MADLO
 10
0.0
 20
0.0
 30
0.0
 70
   128
 71
     9
 72
   -10
 73
     5
  0
VERTEX
  5
FDE
  8
MADLO
 10
0.0
 20
0.0
 30
0.0
 70
   128
 71
     2
 72
    10
 73
    -9
  0
VERTEX
  5
FDF
  8
MADLO
 10
0.0
 20
0.0
 30
0.0
 70
   128
 71
     3
 72
    -2
 73
     9
  0
SEQEND
  5
1677
  8
MADLO
  0
POLYLINE
  5
FE0
  8
MADLO
 66
     1
 10
0.0
 20
0.0
 30
0.0
 70
    64
 71
     4
 72
     2
  0
VERTEX
  5
FE1
  8
MADLO
 10
229.7874986321322
 20
920.0
 30
-38.0
 70
   192
  0
VERTEX
  5
FE2
  8
MADLO
 10
229.7874986321321
 20
1100.0
 30
-38.00000000000011
 70
   192
  0
VERTEX
  5
FE3
  8
MADLO
 10
249.7874986321321
 20
1100.0
 30
-38.00000000000012
 70
   192
  0
VERTEX
  5
FE4
  8
MADLO
 10
249.7874986321322
 20
920.0
 30
-38.0
 70
   192
  0
VERTEX
  5
FE5
  8
MADLO
 10
0.0
 20
0.0
 30
0.0
 70
   128
 71
     1
 72
     4
 73
    -3
  0
VERTEX
  5
FE6
  8
MADLO
 10
0.0
 20
0.0
 30
0.0
 70
   128
 71
    -1
 72
     3
 73
     2
  0
SEQEND
  5
1678
  8
MADLO
  0
POLYLINE
  5
FE7
  8
MADLO
 66
     1
 10
0.0
 20
0.0
 30
0.0
 70
    64
 71
     8
 72
     6
  0
VERTEX
  5
FE8
  8
MADLO
 10
249.7874986321322
 20
900.0
 30
-47.99999999999999
 70
   192
  0
VERTEX
  5
FE9
  8
MADLO
 10
249.7874986321321
 20
1120.0
 30
-48.00000000000014
 70
   192
  0
VERTEX
  5
FEA
  8
MADLO
 10
249.7874986321321
 20
1120.0
 30
-3.000000000000128
 70
   192
  0
VERTEX
  5
FEB
  8
MADLO
 10
249.7874986321321
 20
1100.0
 30
-3.000000000000115
 70
   192
  0
VERTEX
  5
FEC
  8
MADLO
 10
249.7874986321321
 20
1100.0
 30
-38.00000000000011
 70
   192
  0
VERTEX
  5
FED
  8
MADLO
 10
249.7874986321322
 20
920.0
 30
-38.0
 70
   192
  0
VERTEX
  5
FEE
  8
MADLO
 10
249.7874986321322
 20
920.0
 30
-2.999999999999986
 70
   192
  0
VERTEX
  5
FEF
  8
MADLO
 10
249.7874986321322
 20
900.0
 30
-2.999999999999979
 70
   192
  0
VERTEX
  5
FF0
  8
MADLO
 10
0.0
 20
0.0
 30
0.0
 70
   128
 71
     3
 72
     4
 73
    -5
  0
VERTEX
  5
FF1
  8
MADLO
 10
0.0
 20
0.0
 30
0.0
 70
   128
 71
     2
 72
    -3
 73
    -5
  0
VERTEX
  5
FF2
  8
MADLO
 10
0.0
 20
0.0
 30
0.0
 70
   128
 71
    -6
 72
     1
 73
    -2
  0
VERTEX
  5
FF3
  8
MADLO
 10
0.0
 20
0.0
 30
0.0
 70
   128
 71
     5
 72
    -6
 73
    -2
  0
VERTEX
  5
FF4
  8
MADLO
 10
0.0
 20
0.0
 30
0.0
 70
   128
 71
     7
 72
     8
 73
    -1
  0
VERTEX
  5
FF5
  8
MADLO
 10
0.0
 20
0.0
 30
0.0
 70
   128
 71
     6
 72
    -7
 73
    -1
  0
SEQEND
  5
1679
  8
MADLO
  0
POLYLINE
  5
FF6
  8
MADLO
 66
     1
 10
0.0
 20
0.0
 30
0.0
 70
    64
 71
     4
 72
     2
  0
VERTEX
  5
FF7
  8
MADLO
 10
249.7874986321321
 20
1120.0
 30
-48.00000000000013
 70
   192
  0
VERTEX
  5
FF8
  8
MADLO
 10
229.7874986321321
 20
1120.0
 30
-48.00000000000013
 70
   192
  0
VERTEX
  5
FF9
  8
MADLO
 10
229.7874986321321
 20
1120.0
 30
-3.000000000000128
 70
   192
  0
VERTEX
  5
FFA
  8
MADLO
 10
249.7874986321321
 20
1120.0
 30
-3.000000000000128
 70
   192
  0
VERTEX
  5
FFB
  8
MADLO
 10
0.0
 20
0.0
 30
0.0
 70
   128
 71
     3
 72
     4
 73
    -1
  0
VERTEX
  5
FFC
  8
MADLO
 10
0.0
 20
0.0
 30
0.0
 70
   128
 71
     2
 72
    -3
 73
     1
  0
SEQEND
  5
167A
  8
MADLO
  0
POLYLINE
  5
FFD
  8
MADLO
 66
     1
 10
0.0
 20
0.0
 30
0.0
 70
    64
 71
     8
 72
     6
  0
VERTEX
  5
FFE
  8
MADLO
 10
229.7874986321321
 20
1120.0
 30
-48.00000000000014
 70
   192
  0
VERTEX
  5
FFF
  8
MADLO
 10
229.7874986321322
 20
900.0
 30
-47.99999999999999
 70
   192
  0
VERTEX
  5
1000
  8
MADLO
 10
229.7874986321322
 20
900.0
 30
-2.999999999999979
 70
   192
  0
VERTEX
  5
1001
  8
MADLO
 10
229.7874986321322
 20
920.0
 30
-2.999999999999992
 70
   192
  0
VERTEX
  5
1002
  8
MADLO
 10
229.7874986321322
 20
920.0
 30
-38.0
 70
   192
  0
VERTEX
  5
1003
  8
MADLO
 10
229.7874986321321
 20
1100.0
 30
-38.00000000000012
 70
   192
  0
VERTEX
  5
1004
  8
MADLO
 10
229.7874986321321
 20
1100.0
 30
-3.000000000000114
 70
   192
  0
VERTEX
  5
1005
  8
MADLO
 10
229.7874986321321
 20
1120.0
 30
-3.000000000000128
 70
   192
  0
VERTEX
  5
1006
  8
MADLO
 10
0.0
 20
0.0
 30
0.0
 70
   128
 71
     3
 72
     4
 73
    -5
  0
VERTEX
  5
1007
  8
MADLO
 10
0.0
 20
0.0
 30
0.0
 70
   128
 71
     2
 72
    -3
 73
    -5
  0
VERTEX
  5
1008
  8
MADLO
 10
0.0
 20
0.0
 30
0.0
 70
   128
 71
    -6
 72
     1
 73
    -2
  0
VERTEX
  5
1009
  8
MADLO
 10
0.0
 20
0.0
 30
0.0
 70
   128
 71
     5
 72
    -6
 73
    -2
  0
VERTEX
  5
100A
  8
MADLO
 10
0.0
 20
0.0
 30
0.0
 70
   128
 71
     7
 72
     8
 73
    -1
  0
VERTEX
  5
100B
  8
MADLO
 10
0.0
 20
0.0
 30
0.0
 70
   128
 71
     6
 72
    -7
 73
    -1
  0
SEQEND
  5
167B
  8
MADLO
  0
POLYLINE
  5
100C
  8
MADLO
 66
     1
 10
0.0
 20
0.0
 30
0.0
 70
    64
 71
     4
 72
     2
  0
VERTEX
  5
100D
  8
MADLO
 10
229.7874986321322
 20
900.0
 30
-47.99999999999999
 70
   192
  0
VERTEX
  5
100E
  8
MADLO
 10
249.7874986321322
 20
900.0
 30
-47.99999999999999
 70
   192
  0
VERTEX
  5
100F
  8
MADLO
 10
249.7874986321322
 20
900.0
 30
-2.999999999999979
 70
   192
  0
VERTEX
  5
1010
  8
MADLO
 10
229.7874986321322
 20
900.0
 30
-2.999999999999979
 70
   192
  0
VERTEX
  5
1011
  8
MADLO
 10
0.0
 20
0.0
 30
0.0
 70
   128
 71
     3
 72
     4
 73
    -1
  0
VERTEX
  5
1012
  8
MADLO
 10
0.0
 20
0.0
 30
0.0
 70
   128
 71
     2
 72
    -3
 73
     1
  0
SEQEND
  5
167C
  8
MADLO
  0
POLYLINE
  5
1013
  8
MADLO
 66
     1
 10
0.0
 20
0.0
 30
0.0
 70
    64
 71
     4
 72
     2
  0
VERTEX
  5
1014
  8
MADLO
 10
249.7874986321321
 20
1120.0
 30
-48.00000000000014
 70
   192
  0
VERTEX
  5
1015
  8
MADLO
 10
249.7874986321322
 20
900.0
 30
-47.99999999999999
 70
   192
  0
VERTEX
  5
1016
  8
MADLO
 10
229.7874986321322
 20
900.0
 30
-47.99999999999999
 70
   192
  0
VERTEX
  5
1017
  8
MADLO
 10
229.7874986321321
 20
1120.0
 30
-48.00000000000014
 70
   192
  0
VERTEX
  5
1018
  8
MADLO
 10
0.0
 20
0.0
 30
0.0
 70
   128
 71
     3
 72
     4
 73
    -1
  0
VERTEX
  5
1019
  8
MADLO
 10
0.0
 20
0.0
 30
0.0
 70
   128
 71
     2
 72
    -3
 73
     1
  0
SEQEND
  5
167D
  8
MADLO
  0
POLYLINE
  5
101A
  8
MADLO
 66
     1
 10
0.0
 20
0.0
 30
0.0
 70
    64
 71
     4
 72
     2
  0
VERTEX
  5
101B
  8
MADLO
 10
229.7874986321321
 20
1100.0
 30
-38.00000000000011
 70
   192
  0
VERTEX
  5
101C
  8
MADLO
 10
229.7874986321321
 20
1100.0
 30
-3.000000000000114
 70
   192
  0
VERTEX
  5
101D
  8
MADLO
 10
249.7874986321321
 20
1100.0
 30
-3.000000000000114
 70
   192
  0
VERTEX
  5
101E
  8
MADLO
 10
249.7874986321321
 20
1100.0
 30
-38.00000000000011
 70
   192
  0
VERTEX
  5
101F
  8
MADLO
 10
0.0
 20
0.0
 30
0.0
 70
   128
 71
     1
 72
     4
 73
    -3
  0
VERTEX
  5
1020
  8
MADLO
 10
0.0
 20
0.0
 30
0.0
 70
   128
 71
    -1
 72
     3
 73
     2
  0
SEQEND
  5
167E
  8
MADLO
  0
POLYLINE
  5
1021
  8
MADLO
 66
     1
 10
0.0
 20
0.0
 30
0.0
 70
    64
 71
    13
 72
    13
  0
VERTEX
  5
1022
  8
MADLO
 10
229.7874986321321
 20
1120.0
 30
-3.000000000000128
 70
   192
  0
VERTEX
  5
1023
  8
MADLO
 10
229.7874986321321
 20
1100.0
 30
-3.000000000000115
 70
   192
  0
VERTEX
  5
1024
  8
MADLO
 10
249.7874986321321
 20
1100.0
 30
-3.000000000000114
 70
   192
  0
VERTEX
  5
1025
  8
MADLO
 10
249.7874986321321
 20
1120.0
 30
-3.000000000000128
 70
   192
  0
VERTEX
  5
1026
  8
MADLO
 10
237.2874986321321
 20
1110.0
 30
-3.000000000000121
 70
   192
  0
VERTEX
  5
1027
  8
MADLO
 10
237.7649561461947
 20
1111.469463130731
 30
-3.000000000000122
 70
   192
  0
VERTEX
  5
1028
  8
MADLO
 10
239.0149561461947
 20
1112.377641290738
 30
-3.000000000000122
 70
   192
  0
VERTEX
  5
1029
  8
MADLO
 10
240.5600411180694
 20
1112.377641290738
 30
-3.000000000000122
 70
   192
  0
VERTEX
  5
102A
  8
MADLO
 10
241.8100411180694
 20
1111.469463130731
 30
-3.000000000000122
 70
   192
  0
VERTEX
  5
102B
  8
MADLO
 10
242.2874986321321
 20
1110.0
 30
-3.000000000000121
 70
   192
  0
VERTEX
  5
102C
  8
MADLO
 10
241.5552655850984
 20
1108.232233047034
 30
-3.00000000000012
 70
   192
  0
VERTEX
  5
102D
  8
MADLO
 10
239.7874986321321
 20
1107.5
 30
-3.000000000000119
 70
   192
  0
VERTEX
  5
102E
  8
MADLO
 10
238.0197316791657
 20
1108.232233047034
 30
-3.00000000000012
 70
   192
  0
VERTEX
  5
102F
  8
MADLO
 10
0.0
 20
0.0
 30
0.0
 70
   128
 71
    -1
 72
     5
 73
    -6
  0
VERTEX
  5
1030
  8
MADLO
 10
0.0
 20
0.0
 30
0.0
 70
   128
 71
     6
 72
    -7
 73
    -1
  0
VERTEX
  5
1031
  8
MADLO
 10
0.0
 20
0.0
 30
0.0
 70
   128
 71
    -8
 72
     4
 73
    -1
  0
VERTEX
  5
1032
  8
MADLO
 10
0.0
 20
0.0
 30
0.0
 70
   128
 71
     7
 72
    -8
 73
    -1
  0
VERTEX
  5
1033
  8
MADLO
 10
0.0
 20
0.0
 30
0.0
 70
   128
 71
     8
 72
    -9
 73
    -4
  0
VERTEX
  5
1034
  8
MADLO
 10
0.0
 20
0.0
 30
0.0
 70
   128
 71
     9
 72
   -10
 73
    -4
  0
VERTEX
  5
1035
  8
MADLO
 10
0.0
 20
0.0
 30
0.0
 70
   128
 71
   -11
 72
     3
 73
    -4
  0
VERTEX
  5
1036
  8
MADLO
 10
0.0
 20
0.0
 30
0.0
 70
   128
 71
    10
 72
   -11
 73
    -4
  0
VERTEX
  5
1037
  8
MADLO
 10
0.0
 20
0.0
 30
0.0
 70
   128
 71
   -12
 72
     2
 73
    -3
  0
VERTEX
  5
1038
  8
MADLO
 10
0.0
 20
0.0
 30
0.0
 70
   128
 71
    11
 72
   -12
 73
    -3
  0
VERTEX
  5
1039
  8
MADLO
 10
0.0
 20
0.0
 30
0.0
 70
   128
 71
    12
 72
   -13
 73
    -2
  0
VERTEX
  5
103A
  8
MADLO
 10
0.0
 20
0.0
 30
0.0
 70
   128
 71
    -5
 72
     1
 73
    -2
  0
VERTEX
  5
103B
  8
MADLO
 10
0.0
 20
0.0
 30
0.0
 70
   128
 71
    13
 72
    -5
 73
    -2
  0
SEQEND
  5
167F
  8
MADLO
  0
POLYLINE
  5
103C
  8
MADLO
 66
     1
 10
0.0
 20
0.0
 30
0.0
 70
    64
 71
     4
 72
     2
  0
VERTEX
  5
103D
  8
MADLO
 10
249.7874986321322
 20
920.0
 30
-38.0
 70
   192
  0
VERTEX
  5
103E
  8
MADLO
 10
249.7874986321322
 20
920.0
 30
-2.999999999999986
 70
   192
  0
VERTEX
  5
103F
  8
MADLO
 10
229.7874986321322
 20
920.0
 30
-2.999999999999986
 70
   192
  0
VERTEX
  5
1040
  8
MADLO
 10
229.7874986321322
 20
920.0
 30
-38.0
 70
   192
  0
VERTEX
  5
1041
  8
MADLO
 10
0.0
 20
0.0
 30
0.0
 70
   128
 71
     1
 72
     4
 73
    -3
  0
VERTEX
  5
1042
  8
MADLO
 10
0.0
 20
0.0
 30
0.0
 70
   128
 71
    -1
 72
     3
 73
     2
  0
SEQEND
  5
1680
  8
MADLO
  0
POLYLINE
  5
1043
  8
MADLO
 66
     1
 10
0.0
 20
0.0
 30
0.0
 70
    64
 71
    13
 72
    13
  0
VERTEX
  5
1044
  8
MADLO
 10
229.7874986321322
 20
920.0
 30
-2.999999999999986
 70
   192
  0
VERTEX
  5
1045
  8
MADLO
 10
249.7874986321322
 20
920.0
 30
-2.999999999999992
 70
   192
  0
VERTEX
  5
1046
  8
MADLO
 10
249.7874986321322
 20
900.0
 30
-2.999999999999979
 70
   192
  0
VERTEX
  5
1047
  8
MADLO
 10
229.7874986321322
 20
900.0
 30
-2.999999999999979
 70
   192
  0
VERTEX
  5
1048
  8
MADLO
 10
237.2874986321322
 20
910.0
 30
-2.999999999999979
 70
   192
  0
VERTEX
  5
1049
  8
MADLO
 10
238.0197316791658
 20
908.2322330470337
 30
-2.999999999999978
 70
   192
  0
VERTEX
  5
104A
  8
MADLO
 10
239.7874986321322
 20
907.5
 30
-2.999999999999977
 70
   192
  0
VERTEX
  5
104B
  8
MADLO
 10
241.5552655850985
 20
908.2322330470337
 30
-2.999999999999978
 70
   192
  0
VERTEX
  5
104C
  8
MADLO
 10
242.2874986321322
 20
910.0
 30
-2.999999999999979
 70
   192
  0
VERTEX
  5
104D
  8
MADLO
 10
241.8100411180696
 20
911.4694631307311
 30
-2.99999999999998
 70
   192
  0
VERTEX
  5
104E
  8
MADLO
 10
240.5600411180696
 20
912.3776412907379
 30
-2.99999999999998
 70
   192
  0
VERTEX
  5
104F
  8
MADLO
 10
239.0149561461948
 20
912.3776412907379
 30
-2.99999999999998
 70
   192
  0
VERTEX
  5
1050
  8
MADLO
 10
237.7649561461948
 20
911.4694631307311
 30
-2.99999999999998
 70
   192
  0
VERTEX
  5
1051
  8
MADLO
 10
0.0
 20
0.0
 30
0.0
 70
   128
 71
     6
 72
    -5
 73
    -4
  0
VERTEX
  5
1052
  8
MADLO
 10
0.0
 20
0.0
 30
0.0
 70
   128
 71
     4
 72
    -3
 73
    -7
  0
VERTEX
  5
1053
  8
MADLO
 10
0.0
 20
0.0
 30
0.0
 70
   128
 71
    -4
 72
     7
 73
    -6
  0
VERTEX
  5
1054
  8
MADLO
 10
0.0
 20
0.0
 30
0.0
 70
   128
 71
    -3
 72
     8
 73
    -7
  0
VERTEX
  5
1055
  8
MADLO
 10
0.0
 20
0.0
 30
0.0
 70
   128
 71
    -3
 72
     9
 73
    -8
  0
VERTEX
  5
1056
  8
MADLO
 10
0.0
 20
0.0
 30
0.0
 70
   128
 71
     3
 72
    -2
 73
   -10
  0
VERTEX
  5
1057
  8
MADLO
 10
0.0
 20
0.0
 30
0.0
 70
   128
 71
    -3
 72
    10
 73
    -9
  0
VERTEX
  5
1058
  8
MADLO
 10
0.0
 20
0.0
 30
0.0
 70
   128
 71
    -2
 72
    11
 73
   -10
  0
VERTEX
  5
1059
  8
MADLO
 10
0.0
 20
0.0
 30
0.0
 70
   128
 71
     2
 72
    -1
 73
   -12
  0
VERTEX
  5
105A
  8
MADLO
 10
0.0
 20
0.0
 30
0.0
 70
   128
 71
    -2
 72
    12
 73
   -11
  0
VERTEX
  5
105B
  8
MADLO
 10
0.0
 20
0.0
 30
0.0
 70
   128
 71
    -1
 72
    13
 73
   -12
  0
VERTEX
  5
105C
  8
MADLO
 10
0.0
 20
0.0
 30
0.0
 70
   128
 71
     1
 72
    -4
 73
    -5
  0
VERTEX
  5
105D
  8
MADLO
 10
0.0
 20
0.0
 30
0.0
 70
   128
 71
    -1
 72
     5
 73
   -13
  0
SEQEND
  5
1681
  8
MADLO
  0
POLYLINE
  5
105E
  8
MADLO
 66
     1
 10
0.0
 20
0.0
 30
0.0
 70
    64
 71
    12
 72
    10
  0
VERTEX
  5
105F
  8
MADLO
 10
242.2874986321322
 20
910.0
 30
-7.999999999999979
 70
   192
  0
VERTEX
  5
1060
  8
MADLO
 10
242.2874986321322
 20
910.0
 30
-2.999999999999979
 70
   192
  0
VERTEX
  5
1061
  8
MADLO
 10
241.8100411180696
 20
911.4694631307311
 30
-2.99999999999998
 70
   192
  0
VERTEX
  5
1062
  8
MADLO
 10
241.8100411180696
 20
911.4694631307311
 30
-7.99999999999998
 70
   192
  0
VERTEX
  5
1063
  8
MADLO
 10
237.2874986321322
 20
910.0
 30
-2.999999999999979
 70
   192
  0
VERTEX
  5
1064
  8
MADLO
 10
237.2874986321322
 20
910.0
 30
-7.999999999999979
 70
   192
  0
VERTEX
  5
1065
  8
MADLO
 10
237.7649561461948
 20
911.4694631307311
 30
-7.99999999999998
 70
   192
  0
VERTEX
  5
1066
  8
MADLO
 10
237.7649561461948
 20
911.4694631307311
 30
-2.99999999999998
 70
   192
  0
VERTEX
  5
1067
  8
MADLO
 10
239.0149561461948
 20
912.3776412907379
 30
-7.99999999999998
 70
   192
  0
VERTEX
  5
1068
  8
MADLO
 10
240.5600411180696
 20
912.3776412907379
 30
-7.99999999999998
 70
   192
  0
VERTEX
  5
1069
  8
MADLO
 10
240.5600411180696
 20
912.3776412907379
 30
-2.99999999999998
 70
   192
  0
VERTEX
  5
106A
  8
MADLO
 10
239.0149561461948
 20
912.3776412907379
 30
-2.99999999999998
 70
   192
  0
VERTEX
  5
106B
  8
MADLO
 10
0.0
 20
0.0
 30
0.0
 70
   128
 71
     1
 72
     2
 73
    -3
  0
VERTEX
  5
106C
  8
MADLO
 10
0.0
 20
0.0
 30
0.0
 70
   128
 71
     4
 72
    -1
 73
     3
  0
VERTEX
  5
106D
  8
MADLO
 10
0.0
 20
0.0
 30
0.0
 70
   128
 71
     5
 72
     6
 73
    -7
  0
VERTEX
  5
106E
  8
MADLO
 10
0.0
 20
0.0
 30
0.0
 70
   128
 71
     8
 72
    -5
 73
     7
  0
VERTEX
  5
106F
  8
MADLO
 10
0.0
 20
0.0
 30
0.0
 70
   128
 71
     9
 72
    10
 73
   -11
  0
VERTEX
  5
1070
  8
MADLO
 10
0.0
 20
0.0
 30
0.0
 70
   128
 71
    12
 72
    -9
 73
    11
  0
VERTEX
  5
1071
  8
MADLO
 10
0.0
 20
0.0
 30
0.0
 70
   128
 71
    10
 72
     4
 73
    -3
  0
VERTEX
  5
1072
  8
MADLO
 10
0.0
 20
0.0
 30
0.0
 70
   128
 71
    11
 72
   -10
 73
     3
  0
VERTEX
  5
1073
  8
MADLO
 10
0.0
 20
0.0
 30
0.0
 70
   128
 71
     7
 72
     9
 73
   -12
  0
VERTEX
  5
1074
  8
MADLO
 10
0.0
 20
0.0
 30
0.0
 70
   128
 71
     8
 72
    -7
 73
    12
  0
SEQEND
  5
1682
  8
MADLO
  0
POLYLINE
  5
1075
  8
MADLO
 66
     1
 10
0.0
 20
0.0
 30
0.0
 70
    64
 71
     9
 72
     7
  0
VERTEX
  5
1076
  8
MADLO
 10
242.2874986321322
 20
910.0
 30
-7.999999999999979
 70
   192
  0
VERTEX
  5
1077
  8
MADLO
 10
241.8100411180696
 20
911.4694631307311
 30
-7.99999999999998
 70
   192
  0
VERTEX
  5
1078
  8
MADLO
 10
240.5600411180696
 20
912.3776412907379
 30
-7.99999999999998
 70
   192
  0
VERTEX
  5
1079
  8
MADLO
 10
239.0149561461948
 20
912.3776412907379
 30
-7.99999999999998
 70
   192
  0
VERTEX
  5
107A
  8
MADLO
 10
237.7649561461948
 20
911.4694631307311
 30
-7.99999999999998
 70
   192
  0
VERTEX
  5
107B
  8
MADLO
 10
237.2874986321322
 20
910.0
 30
-7.999999999999979
 70
   192
  0
VERTEX
  5
107C
  8
MADLO
 10
238.0197316791658
 20
908.2322330470337
 30
-7.999999999999978
 70
   192
  0
VERTEX
  5
107D
  8
MADLO
 10
239.7874986321322
 20
907.5
 30
-7.999999999999977
 70
   192
  0
VERTEX
  5
107E
  8
MADLO
 10
241.5552655850985
 20
908.2322330470337
 30
-7.999999999999978
 70
   192
  0
VERTEX
  5
107F
  8
MADLO
 10
0.0
 20
0.0
 30
0.0
 70
   128
 71
     8
 72
     9
 73
    -1
  0
VERTEX
  5
1080
  8
MADLO
 10
0.0
 20
0.0
 30
0.0
 70
   128
 71
     7
 72
    -8
 73
    -1
  0
VERTEX
  5
1081
  8
MADLO
 10
0.0
 20
0.0
 30
0.0
 70
   128
 71
     6
 72
    -7
 73
    -1
  0
VERTEX
  5
1082
  8
MADLO
 10
0.0
 20
0.0
 30
0.0
 70
   128
 71
     5
 72
    -6
 73
    -1
  0
VERTEX
  5
1083
  8
MADLO
 10
0.0
 20
0.0
 30
0.0
 70
   128
 71
     4
 72
    -5
 73
    -1
  0
VERTEX
  5
1084
  8
MADLO
 10
0.0
 20
0.0
 30
0.0
 70
   128
 71
     3
 72
    -4
 73
    -1
  0
VERTEX
  5
1085
  8
MADLO
 10
0.0
 20
0.0
 30
0.0
 70
   128
 71
     2
 72
    -3
 73
     1
  0
SEQEND
  5
1683
  8
MADLO
  0
POLYLINE
  5
1086
  8
MADLO
 66
     1
 10
0.0
 20
0.0
 30
0.0
 70
    64
 71
    12
 72
    10
  0
VERTEX
  5
1087
  8
MADLO
 10
242.2874986321321
 20
1110.0
 30
-8.00000000000012
 70
   192
  0
VERTEX
  5
1088
  8
MADLO
 10
242.2874986321321
 20
1110.0
 30
-3.000000000000121
 70
   192
  0
VERTEX
  5
1089
  8
MADLO
 10
241.8100411180694
 20
1111.469463130731
 30
-3.000000000000122
 70
   192
  0
VERTEX
  5
108A
  8
MADLO
 10
241.8100411180694
 20
1111.469463130731
 30
-8.000000000000123
 70
   192
  0
VERTEX
  5
108B
  8
MADLO
 10
237.2874986321321
 20
1110.0
 30
-3.000000000000121
 70
   192
  0
VERTEX
  5
108C
  8
MADLO
 10
237.2874986321321
 20
1110.0
 30
-8.00000000000012
 70
   192
  0
VERTEX
  5
108D
  8
MADLO
 10
237.7649561461947
 20
1111.469463130731
 30
-8.000000000000123
 70
   192
  0
VERTEX
  5
108E
  8
MADLO
 10
237.7649561461947
 20
1111.469463130731
 30
-3.000000000000122
 70
   192
  0
VERTEX
  5
108F
  8
MADLO
 10
239.0149561461947
 20
1112.377641290738
 30
-8.000000000000123
 70
   192
  0
VERTEX
  5
1090
  8
MADLO
 10
240.5600411180694
 20
1112.377641290738
 30
-8.000000000000123
 70
   192
  0
VERTEX
  5
1091
  8
MADLO
 10
240.5600411180694
 20
1112.377641290738
 30
-3.000000000000122
 70
   192
  0
VERTEX
  5
1092
  8
MADLO
 10
239.0149561461947
 20
1112.377641290738
 30
-3.000000000000122
 70
   192
  0
VERTEX
  5
1093
  8
MADLO
 10
0.0
 20
0.0
 30
0.0
 70
   128
 71
     1
 72
     2
 73
    -3
  0
VERTEX
  5
1094
  8
MADLO
 10
0.0
 20
0.0
 30
0.0
 70
   128
 71
     4
 72
    -1
 73
     3
  0
VERTEX
  5
1095
  8
MADLO
 10
0.0
 20
0.0
 30
0.0
 70
   128
 71
     5
 72
     6
 73
    -7
  0
VERTEX
  5
1096
  8
MADLO
 10
0.0
 20
0.0
 30
0.0
 70
   128
 71
     8
 72
    -5
 73
     7
  0
VERTEX
  5
1097
  8
MADLO
 10
0.0
 20
0.0
 30
0.0
 70
   128
 71
     9
 72
    10
 73
   -11
  0
VERTEX
  5
1098
  8
MADLO
 10
0.0
 20
0.0
 30
0.0
 70
   128
 71
    12
 72
    -9
 73
    11
  0
VERTEX
  5
1099
  8
MADLO
 10
0.0
 20
0.0
 30
0.0
 70
   128
 71
    10
 72
     4
 73
    -3
  0
VERTEX
  5
109A
  8
MADLO
 10
0.0
 20
0.0
 30
0.0
 70
   128
 71
    11
 72
   -10
 73
     3
  0
VERTEX
  5
109B
  8
MADLO
 10
0.0
 20
0.0
 30
0.0
 70
   128
 71
     7
 72
     9
 73
   -12
  0
VERTEX
  5
109C
  8
MADLO
 10
0.0
 20
0.0
 30
0.0
 70
   128
 71
     8
 72
    -7
 73
    12
  0
SEQEND
  5
1684
  8
MADLO
  0
POLYLINE
  5
109D
  8
MADLO
 66
     1
 10
0.0
 20
0.0
 30
0.0
 70
    64
 71
     9
 72
     7
  0
VERTEX
  5
109E
  8
MADLO
 10
242.2874986321321
 20
1110.0
 30
-8.00000000000012
 70
   192
  0
VERTEX
  5
109F
  8
MADLO
 10
241.8100411180694
 20
1111.469463130731
 30
-8.000000000000123
 70
   192
  0
VERTEX
  5
10A0
  8
MADLO
 10
240.5600411180694
 20
1112.377641290738
 30
-8.000000000000123
 70
   192
  0
VERTEX
  5
10A1
  8
MADLO
 10
239.0149561461947
 20
1112.377641290738
 30
-8.000000000000123
 70
   192
  0
VERTEX
  5
10A2
  8
MADLO
 10
237.7649561461947
 20
1111.469463130731
 30
-8.000000000000123
 70
   192
  0
VERTEX
  5
10A3
  8
MADLO
 10
237.2874986321321
 20
1110.0
 30
-8.00000000000012
 70
   192
  0
VERTEX
  5
10A4
  8
MADLO
 10
238.0197316791657
 20
1108.232233047034
 30
-8.000000000000119
 70
   192
  0
VERTEX
  5
10A5
  8
MADLO
 10
239.7874986321321
 20
1107.5
 30
-8.000000000000119
 70
   192
  0
VERTEX
  5
10A6
  8
MADLO
 10
241.5552655850984
 20
1108.232233047034
 30
-8.000000000000119
 70
   192
  0
VERTEX
  5
10A7
  8
MADLO
 10
0.0
 20
0.0
 30
0.0
 70
   128
 71
     8
 72
     9
 73
    -1
  0
VERTEX
  5
10A8
  8
MADLO
 10
0.0
 20
0.0
 30
0.0
 70
   128
 71
     7
 72
    -8
 73
    -1
  0
VERTEX
  5
10A9
  8
MADLO
 10
0.0
 20
0.0
 30
0.0
 70
   128
 71
     6
 72
    -7
 73
    -1
  0
VERTEX
  5
10AA
  8
MADLO
 10
0.0
 20
0.0
 30
0.0
 70
   128
 71
     5
 72
    -6
 73
    -1
  0
VERTEX
  5
10AB
  8
MADLO
 10
0.0
 20
0.0
 30
0.0
 70
   128
 71
     4
 72
    -5
 73
    -1
  0
VERTEX
  5
10AC
  8
MADLO
 10
0.0
 20
0.0
 30
0.0
 70
   128
 71
     3
 72
    -4
 73
    -1
  0
VERTEX
  5
10AD
  8
MADLO
 10
0.0
 20
0.0
 30
0.0
 70
   128
 71
     2
 72
    -3
 73
     1
  0
SEQEND
  5
1685
  8
MADLO
  0
ENDBLK
  5
1675
  8
0
  0
BLOCK
  8
0
  2
*X6
 70
     1
 10
0.0
 20
0.0
 30
0.0
  3
*X6
  1

  0
POLYLINE
  5
10AF
  8
MADLO
 66
     1
 10
0.0
 20
0.0
 30
0.0
 70
    64
 71
    10
 72
     8
  0
VERTEX
  5
10B0
  8
MADLO
 10
242.2874986321322
 20
1110.0
 30
8.000000000000007
 70
   192
  0
VERTEX
  5
10B1
  8
MADLO
 10
237.2874986321322
 20
1110.0
 30
8.000000000000007
 70
   192
  0
VERTEX
  5
10B2
  8
MADLO
 10
237.2874986321322
 20
1110.0
 30
3.000000000000007
 70
   192
  0
VERTEX
  5
10B3
  8
MADLO
 10
242.2874986321322
 20
1110.0
 30
3.000000000000007
 70
   192
  0
VERTEX
  5
10B4
  8
MADLO
 10
239.7874986321322
 20
1107.5
 30
3.000000000000007
 70
   192
  0
VERTEX
  5
10B5
  8
MADLO
 10
239.7874986321322
 20
1107.5
 30
8.000000000000007
 70
   192
  0
VERTEX
  5
10B6
  8
MADLO
 10
241.5552655850986
 20
1108.232233047034
 30
3.000000000000007
 70
   192
  0
VERTEX
  5
10B7
  8
MADLO
 10
241.5552655850986
 20
1108.232233047034
 30
8.000000000000007
 70
   192
  0
VERTEX
  5
10B8
  8
MADLO
 10
238.0197316791658
 20
1108.232233047034
 30
3.000000000000007
 70
   192
  0
VERTEX
  5
10B9
  8
MADLO
 10
238.0197316791658
 20
1108.232233047034
 30
8.000000000000007
 70
   192
  0
VERTEX
  5
10BA
  8
MADLO
 10
0.0
 20
0.0
 30
0.0
 70
   128
 71
     8
 72
     1
 73
    -4
  0
VERTEX
  5
10BB
  8
MADLO
 10
0.0
 20
0.0
 30
0.0
 70
   128
 71
     7
 72
    -8
 73
     4
  0
VERTEX
  5
10BC
  8
MADLO
 10
0.0
 20
0.0
 30
0.0
 70
   128
 71
     6
 72
     8
 73
    -7
  0
VERTEX
  5
10BD
  8
MADLO
 10
0.0
 20
0.0
 30
0.0
 70
   128
 71
     5
 72
    -6
 73
     7
  0
VERTEX
  5
10BE
  8
MADLO
 10
0.0
 20
0.0
 30
0.0
 70
   128
 71
    10
 72
     6
 73
    -5
  0
VERTEX
  5
10BF
  8
MADLO
 10
0.0
 20
0.0
 30
0.0
 70
   128
 71
     9
 72
   -10
 73
     5
  0
VERTEX
  5
10C0
  8
MADLO
 10
0.0
 20
0.0
 30
0.0
 70
   128
 71
     2
 72
    10
 73
    -9
  0
VERTEX
  5
10C1
  8
MADLO
 10
0.0
 20
0.0
 30
0.0
 70
   128
 71
     3
 72
    -2
 73
     9
  0
SEQEND
  5
1688
  8
MADLO
  0
POLYLINE
  5
10C2
  8
MADLO
 66
     1
 10
0.0
 20
0.0
 30
0.0
 70
    64
 71
    10
 72
     8
  0
VERTEX
  5
10C3
  8
MADLO
 10
242.2874986321322
 20
910.0
 30
8.000000000000007
 70
   192
  0
VERTEX
  5
10C4
  8
MADLO
 10
237.2874986321322
 20
910.0
 30
8.000000000000007
 70
   192
  0
VERTEX
  5
10C5
  8
MADLO
 10
237.2874986321322
 20
910.0
 30
3.000000000000007
 70
   192
  0
VERTEX
  5
10C6
  8
MADLO
 10
242.2874986321322
 20
910.0
 30
3.000000000000007
 70
   192
  0
VERTEX
  5
10C7
  8
MADLO
 10
239.7874986321322
 20
907.5
 30
3.000000000000007
 70
   192
  0
VERTEX
  5
10C8
  8
MADLO
 10
239.7874986321322
 20
907.5
 30
8.000000000000007
 70
   192
  0
VERTEX
  5
10C9
  8
MADLO
 10
241.5552655850986
 20
908.2322330470337
 30
3.000000000000007
 70
   192
  0
VERTEX
  5
10CA
  8
MADLO
 10
241.5552655850986
 20
908.2322330470337
 30
8.000000000000007
 70
   192
  0
VERTEX
  5
10CB
  8
MADLO
 10
238.0197316791658
 20
908.2322330470337
 30
3.000000000000007
 70
   192
  0
VERTEX
  5
10CC
  8
MADLO
 10
238.0197316791658
 20
908.2322330470337
 30
8.000000000000007
 70
   192
  0
VERTEX
  5
10CD
  8
MADLO
 10
0.0
 20
0.0
 30
0.0
 70
   128
 71
     8
 72
     1
 73
    -4
  0
VERTEX
  5
10CE
  8
MADLO
 10
0.0
 20
0.0
 30
0.0
 70
   128
 71
     7
 72
    -8
 73
     4
  0
VERTEX
  5
10CF
  8
MADLO
 10
0.0
 20
0.0
 30
0.0
 70
   128
 71
     6
 72
     8
 73
    -7
  0
VERTEX
  5
10D0
  8
MADLO
 10
0.0
 20
0.0
 30
0.0
 70
   128
 71
     5
 72
    -6
 73
     7
  0
VERTEX
  5
10D1
  8
MADLO
 10
0.0
 20
0.0
 30
0.0
 70
   128
 71
    10
 72
     6
 73
    -5
  0
VERTEX
  5
10D2
  8
MADLO
 10
0.0
 20
0.0
 30
0.0
 70
   128
 71
     9
 72
   -10
 73
     5
  0
VERTEX
  5
10D3
  8
MADLO
 10
0.0
 20
0.0
 30
0.0
 70
   128
 71
     2
 72
    10
 73
    -9
  0
VERTEX
  5
10D4
  8
MADLO
 10
0.0
 20
0.0
 30
0.0
 70
   128
 71
     3
 72
    -2
 73
     9
  0
SEQEND
  5
1689
  8
MADLO
  0
POLYLINE
  5
10D5
  8
MADLO
 66
     1
 10
0.0
 20
0.0
 30
0.0
 70
    64
 71
     4
 72
     2
  0
VERTEX
  5
10D6
  8
MADLO
 10
249.7874986321322
 20
920.0
 30
38.00000000000001
 70
   192
  0
VERTEX
  5
10D7
  8
MADLO
 10
249.7874986321322
 20
1100.0
 30
38.00000000000001
 70
   192
  0
VERTEX
  5
10D8
  8
MADLO
 10
229.7874986321322
 20
1100.0
 30
38.00000000000001
 70
   192
  0
VERTEX
  5
10D9
  8
MADLO
 10
229.7874986321322
 20
920.0
 30
38.00000000000001
 70
   192
  0
VERTEX
  5
10DA
  8
MADLO
 10
0.0
 20
0.0
 30
0.0
 70
   128
 71
     1
 72
     4
 73
    -3
  0
VERTEX
  5
10DB
  8
MADLO
 10
0.0
 20
0.0
 30
0.0
 70
   128
 71
    -1
 72
     3
 73
     2
  0
SEQEND
  5
168A
  8
MADLO
  0
POLYLINE
  5
10DC
  8
MADLO
 66
     1
 10
0.0
 20
0.0
 30
0.0
 70
    64
 71
     8
 72
     6
  0
VERTEX
  5
10DD
  8
MADLO
 10
229.7874986321322
 20
900.0
 30
48.00000000000001
 70
   192
  0
VERTEX
  5
10DE
  8
MADLO
 10
229.7874986321322
 20
1120.0
 30
48.00000000000001
 70
   192
  0
VERTEX
  5
10DF
  8
MADLO
 10
229.7874986321322
 20
1120.0
 30
3.000000000000007
 70
   192
  0
VERTEX
  5
10E0
  8
MADLO
 10
229.7874986321322
 20
1100.0
 30
3.000000000000007
 70
   192
  0
VERTEX
  5
10E1
  8
MADLO
 10
229.7874986321322
 20
1100.0
 30
38.00000000000001
 70
   192
  0
VERTEX
  5
10E2
  8
MADLO
 10
229.7874986321322
 20
920.0
 30
38.00000000000001
 70
   192
  0
VERTEX
  5
10E3
  8
MADLO
 10
229.7874986321322
 20
920.0
 30
3.000000000000007
 70
   192
  0
VERTEX
  5
10E4
  8
MADLO
 10
229.7874986321322
 20
900.0
 30
3.000000000000007
 70
   192
  0
VERTEX
  5
10E5
  8
MADLO
 10
0.0
 20
0.0
 30
0.0
 70
   128
 71
     3
 72
     4
 73
    -5
  0
VERTEX
  5
10E6
  8
MADLO
 10
0.0
 20
0.0
 30
0.0
 70
   128
 71
     2
 72
    -3
 73
    -5
  0
VERTEX
  5
10E7
  8
MADLO
 10
0.0
 20
0.0
 30
0.0
 70
   128
 71
    -6
 72
     1
 73
    -2
  0
VERTEX
  5
10E8
  8
MADLO
 10
0.0
 20
0.0
 30
0.0
 70
   128
 71
     5
 72
    -6
 73
    -2
  0
VERTEX
  5
10E9
  8
MADLO
 10
0.0
 20
0.0
 30
0.0
 70
   128
 71
     7
 72
     8
 73
    -1
  0
VERTEX
  5
10EA
  8
MADLO
 10
0.0
 20
0.0
 30
0.0
 70
   128
 71
     6
 72
    -7
 73
    -1
  0
SEQEND
  5
168B
  8
MADLO
  0
POLYLINE
  5
10EB
  8
MADLO
 66
     1
 10
0.0
 20
0.0
 30
0.0
 70
    64
 71
     4
 72
     2
  0
VERTEX
  5
10EC
  8
MADLO
 10
229.7874986321322
 20
1120.0
 30
48.00000000000001
 70
   192
  0
VERTEX
  5
10ED
  8
MADLO
 10
249.7874986321322
 20
1120.0
 30
48.00000000000001
 70
   192
  0
VERTEX
  5
10EE
  8
MADLO
 10
249.7874986321322
 20
1120.0
 30
3.000000000000007
 70
   192
  0
VERTEX
  5
10EF
  8
MADLO
 10
229.7874986321322
 20
1120.0
 30
3.000000000000007
 70
   192
  0
VERTEX
  5
10F0
  8
MADLO
 10
0.0
 20
0.0
 30
0.0
 70
   128
 71
     3
 72
     4
 73
    -1
  0
VERTEX
  5
10F1
  8
MADLO
 10
0.0
 20
0.0
 30
0.0
 70
   128
 71
     2
 72
    -3
 73
     1
  0
SEQEND
  5
168C
  8
MADLO
  0
POLYLINE
  5
10F2
  8
MADLO
 66
     1
 10
0.0
 20
0.0
 30
0.0
 70
    64
 71
     8
 72
     6
  0
VERTEX
  5
10F3
  8
MADLO
 10
249.7874986321322
 20
1120.0
 30
48.00000000000001
 70
   192
  0
VERTEX
  5
10F4
  8
MADLO
 10
249.7874986321322
 20
900.0
 30
48.00000000000001
 70
   192
  0
VERTEX
  5
10F5
  8
MADLO
 10
249.7874986321322
 20
900.0
 30
3.000000000000007
 70
   192
  0
VERTEX
  5
10F6
  8
MADLO
 10
249.7874986321322
 20
920.0
 30
3.000000000000007
 70
   192
  0
VERTEX
  5
10F7
  8
MADLO
 10
249.7874986321322
 20
920.0
 30
38.00000000000001
 70
   192
  0
VERTEX
  5
10F8
  8
MADLO
 10
249.7874986321322
 20
1100.0
 30
38.00000000000001
 70
   192
  0
VERTEX
  5
10F9
  8
MADLO
 10
249.7874986321322
 20
1100.0
 30
3.000000000000007
 70
   192
  0
VERTEX
  5
10FA
  8
MADLO
 10
249.7874986321322
 20
1120.0
 30
3.000000000000007
 70
   192
  0
VERTEX
  5
10FB
  8
MADLO
 10
0.0
 20
0.0
 30
0.0
 70
   128
 71
     3
 72
     4
 73
    -5
  0
VERTEX
  5
10FC
  8
MADLO
 10
0.0
 20
0.0
 30
0.0
 70
   128
 71
     2
 72
    -3
 73
    -5
  0
VERTEX
  5
10FD
  8
MADLO
 10
0.0
 20
0.0
 30
0.0
 70
   128
 71
    -6
 72
     1
 73
    -2
  0
VERTEX
  5
10FE
  8
MADLO
 10
0.0
 20
0.0
 30
0.0
 70
   128
 71
     5
 72
    -6
 73
    -2
  0
VERTEX
  5
10FF
  8
MADLO
 10
0.0
 20
0.0
 30
0.0
 70
   128
 71
     7
 72
     8
 73
    -1
  0
VERTEX
  5
1100
  8
MADLO
 10
0.0
 20
0.0
 30
0.0
 70
   128
 71
     6
 72
    -7
 73
    -1
  0
SEQEND
  5
168D
  8
MADLO
  0
POLYLINE
  5
1101
  8
MADLO
 66
     1
 10
0.0
 20
0.0
 30
0.0
 70
    64
 71
     4
 72
     2
  0
VERTEX
  5
1102
  8
MADLO
 10
249.7874986321322
 20
900.0
 30
48.00000000000001
 70
   192
  0
VERTEX
  5
1103
  8
MADLO
 10
229.7874986321322
 20
900.0
 30
48.00000000000001
 70
   192
  0
VERTEX
  5
1104
  8
MADLO
 10
229.7874986321322
 20
900.0
 30
3.000000000000007
 70
   192
  0
VERTEX
  5
1105
  8
MADLO
 10
249.7874986321322
 20
900.0
 30
3.000000000000007
 70
   192
  0
VERTEX
  5
1106
  8
MADLO
 10
0.0
 20
0.0
 30
0.0
 70
   128
 71
     3
 72
     4
 73
    -1
  0
VERTEX
  5
1107
  8
MADLO
 10
0.0
 20
0.0
 30
0.0
 70
   128
 71
     2
 72
    -3
 73
     1
  0
SEQEND
  5
168E
  8
MADLO
  0
POLYLINE
  5
1108
  8
MADLO
 66
     1
 10
0.0
 20
0.0
 30
0.0
 70
    64
 71
     4
 72
     2
  0
VERTEX
  5
1109
  8
MADLO
 10
229.7874986321322
 20
1120.0
 30
48.00000000000001
 70
   192
  0
VERTEX
  5
110A
  8
MADLO
 10
229.7874986321322
 20
900.0
 30
48.00000000000001
 70
   192
  0
VERTEX
  5
110B
  8
MADLO
 10
249.7874986321322
 20
900.0
 30
48.00000000000001
 70
   192
  0
VERTEX
  5
110C
  8
MADLO
 10
249.7874986321322
 20
1120.0
 30
48.00000000000001
 70
   192
  0
VERTEX
  5
110D
  8
MADLO
 10
0.0
 20
0.0
 30
0.0
 70
   128
 71
     3
 72
     4
 73
    -1
  0
VERTEX
  5
110E
  8
MADLO
 10
0.0
 20
0.0
 30
0.0
 70
   128
 71
     2
 72
    -3
 73
     1
  0
SEQEND
  5
168F
  8
MADLO
  0
POLYLINE
  5
110F
  8
MADLO
 66
     1
 10
0.0
 20
0.0
 30
0.0
 70
    64
 71
     4
 72
     2
  0
VERTEX
  5
1110
  8
MADLO
 10
249.7874986321322
 20
1100.0
 30
38.00000000000001
 70
   192
  0
VERTEX
  5
1111
  8
MADLO
 10
249.7874986321322
 20
1100.0
 30
3.000000000000007
 70
   192
  0
VERTEX
  5
1112
  8
MADLO
 10
229.7874986321322
 20
1100.0
 30
3.000000000000007
 70
   192
  0
VERTEX
  5
1113
  8
MADLO
 10
229.7874986321322
 20
1100.0
 30
38.00000000000001
 70
   192
  0
VERTEX
  5
1114
  8
MADLO
 10
0.0
 20
0.0
 30
0.0
 70
   128
 71
     1
 72
     4
 73
    -3
  0
VERTEX
  5
1115
  8
MADLO
 10
0.0
 20
0.0
 30
0.0
 70
   128
 71
    -1
 72
     3
 73
     2
  0
SEQEND
  5
1690
  8
MADLO
  0
POLYLINE
  5
1116
  8
MADLO
 66
     1
 10
0.0
 20
0.0
 30
0.0
 70
    64
 71
    12
 72
    12
  0
VERTEX
  5
1117
  8
MADLO
 10
249.7874986321322
 20
1120.0
 30
3.000000000000007
 70
   192
  0
VERTEX
  5
1118
  8
MADLO
 10
249.7874986321322
 20
1100.0
 30
3.000000000000007
 70
   192
  0
VERTEX
  5
1119
  8
MADLO
 10
229.7874986321322
 20
1100.0
 30
3.000000000000007
 70
   192
  0
VERTEX
  5
111A
  8
MADLO
 10
229.7874986321322
 20
1120.0
 30
3.000000000000007
 70
   192
  0
VERTEX
  5
111B
  8
MADLO
 10
242.2874986321322
 20
1110.0
 30
3.000000000000007
 70
   192
  0
VERTEX
  5
111C
  8
MADLO
 10
241.5552655850986
 20
1111.767766952967
 30
3.000000000000007
 70
   192
  0
VERTEX
  5
111D
  8
MADLO
 10
239.7874986321322
 20
1112.5
 30
3.000000000000007
 70
   192
  0
VERTEX
  5
111E
  8
MADLO
 10
238.0197316791658
 20
1111.767766952967
 30
3.000000000000007
 70
   192
  0
VERTEX
  5
111F
  8
MADLO
 10
237.2874986321322
 20
1110.0
 30
3.000000000000007
 70
   192
  0
VERTEX
  5
1120
  8
MADLO
 10
238.0197316791658
 20
1108.232233047034
 30
3.000000000000007
 70
   192
  0
VERTEX
  5
1121
  8
MADLO
 10
239.7874986321322
 20
1107.5
 30
3.000000000000007
 70
   192
  0
VERTEX
  5
1122
  8
MADLO
 10
241.5552655850986
 20
1108.232233047034
 30
3.000000000000007
 70
   192
  0
VERTEX
  5
1123
  8
MADLO
 10
0.0
 20
0.0
 30
0.0
 70
   128
 71
    -1
 72
     5
 73
    -6
  0
VERTEX
  5
1124
  8
MADLO
 10
0.0
 20
0.0
 30
0.0
 70
   128
 71
    -7
 72
     4
 73
    -1
  0
VERTEX
  5
1125
  8
MADLO
 10
0.0
 20
0.0
 30
0.0
 70
   128
 71
     6
 72
    -7
 73
    -1
  0
VERTEX
  5
1126
  8
MADLO
 10
0.0
 20
0.0
 30
0.0
 70
   128
 71
     7
 72
    -8
 73
    -4
  0
VERTEX
  5
1127
  8
MADLO
 10
0.0
 20
0.0
 30
0.0
 70
   128
 71
     8
 72
    -9
 73
    -4
  0
VERTEX
  5
1128
  8
MADLO
 10
0.0
 20
0.0
 30
0.0
 70
   128
 71
   -10
 72
     3
 73
    -4
  0
VERTEX
  5
1129
  8
MADLO
 10
0.0
 20
0.0
 30
0.0
 70
   128
 71
     9
 72
   -10
 73
    -4
  0
VERTEX
  5
112A
  8
MADLO
 10
0.0
 20
0.0
 30
0.0
 70
   128
 71
   -11
 72
     2
 73
    -3
  0
VERTEX
  5
112B
  8
MADLO
 10
0.0
 20
0.0
 30
0.0
 70
   128
 71
    10
 72
   -11
 73
    -3
  0
VERTEX
  5
112C
  8
MADLO
 10
0.0
 20
0.0
 30
0.0
 70
   128
 71
    11
 72
   -12
 73
    -2
  0
VERTEX
  5
112D
  8
MADLO
 10
0.0
 20
0.0
 30
0.0
 70
   128
 71
    -5
 72
     1
 73
    -2
  0
VERTEX
  5
112E
  8
MADLO
 10
0.0
 20
0.0
 30
0.0
 70
   128
 71
    12
 72
    -5
 73
    -2
  0
SEQEND
  5
1691
  8
MADLO
  0
POLYLINE
  5
112F
  8
MADLO
 66
     1
 10
0.0
 20
0.0
 30
0.0
 70
    64
 71
     4
 72
     2
  0
VERTEX
  5
1130
  8
MADLO
 10
229.7874986321322
 20
920.0
 30
38.00000000000001
 70
   192
  0
VERTEX
  5
1131
  8
MADLO
 10
229.7874986321322
 20
920.0
 30
3.000000000000007
 70
   192
  0
VERTEX
  5
1132
  8
MADLO
 10
249.7874986321322
 20
920.0
 30
3.000000000000007
 70
   192
  0
VERTEX
  5
1133
  8
MADLO
 10
249.7874986321322
 20
920.0
 30
38.00000000000001
 70
   192
  0
VERTEX
  5
1134
  8
MADLO
 10
0.0
 20
0.0
 30
0.0
 70
   128
 71
     1
 72
     4
 73
    -3
  0
VERTEX
  5
1135
  8
MADLO
 10
0.0
 20
0.0
 30
0.0
 70
   128
 71
    -1
 72
     3
 73
     2
  0
SEQEND
  5
1692
  8
MADLO
  0
POLYLINE
  5
1136
  8
MADLO
 66
     1
 10
0.0
 20
0.0
 30
0.0
 70
    64
 71
    12
 72
    12
  0
VERTEX
  5
1137
  8
MADLO
 10
249.7874986321322
 20
920.0
 30
3.000000000000007
 70
   192
  0
VERTEX
  5
1138
  8
MADLO
 10
229.7874986321322
 20
920.0
 30
3.000000000000007
 70
   192
  0
VERTEX
  5
1139
  8
MADLO
 10
229.7874986321322
 20
900.0
 30
3.000000000000007
 70
   192
  0
VERTEX
  5
113A
  8
MADLO
 10
249.7874986321322
 20
900.0
 30
3.000000000000007
 70
   192
  0
VERTEX
  5
113B
  8
MADLO
 10
242.2874986321322
 20
910.0
 30
3.000000000000007
 70
   192
  0
VERTEX
  5
113C
  8
MADLO
 10
241.5552655850986
 20
908.2322330470337
 30
3.000000000000007
 70
   192
  0
VERTEX
  5
113D
  8
MADLO
 10
239.7874986321322
 20
907.5
 30
3.000000000000007
 70
   192
  0
VERTEX
  5
113E
  8
MADLO
 10
238.0197316791658
 20
908.2322330470337
 30
3.000000000000007
 70
   192
  0
VERTEX
  5
113F
  8
MADLO
 10
237.2874986321322
 20
910.0
 30
3.000000000000007
 70
   192
  0
VERTEX
  5
1140
  8
MADLO
 10
238.0197316791658
 20
911.7677669529663
 30
3.000000000000007
 70
   192
  0
VERTEX
  5
1141
  8
MADLO
 10
239.7874986321322
 20
912.5
 30
3.000000000000007
 70
   192
  0
VERTEX
  5
1142
  8
MADLO
 10
241.5552655850986
 20
911.7677669529663
 30
3.000000000000007
 70
   192
  0
VERTEX
  5
1143
  8
MADLO
 10
0.0
 20
0.0
 30
0.0
 70
   128
 71
     6
 72
    -5
 73
    -4
  0
VERTEX
  5
1144
  8
MADLO
 10
0.0
 20
0.0
 30
0.0
 70
   128
 71
     4
 72
    -3
 73
    -7
  0
VERTEX
  5
1145
  8
MADLO
 10
0.0
 20
0.0
 30
0.0
 70
   128
 71
    -4
 72
     7
 73
    -6
  0
VERTEX
  5
1146
  8
MADLO
 10
0.0
 20
0.0
 30
0.0
 70
   128
 71
    -3
 72
     8
 73
    -7
  0
VERTEX
  5
1147
  8
MADLO
 10
0.0
 20
0.0
 30
0.0
 70
   128
 71
    -3
 72
     9
 73
    -8
  0
VERTEX
  5
1148
  8
MADLO
 10
0.0
 20
0.0
 30
0.0
 70
   128
 71
     3
 72
    -2
 73
   -10
  0
VERTEX
  5
1149
  8
MADLO
 10
0.0
 20
0.0
 30
0.0
 70
   128
 71
    -3
 72
    10
 73
    -9
  0
VERTEX
  5
114A
  8
MADLO
 10
0.0
 20
0.0
 30
0.0
 70
   128
 71
     2
 72
    -1
 73
   -11
  0
VERTEX
  5
114B
  8
MADLO
 10
0.0
 20
0.0
 30
0.0
 70
   128
 71
    -2
 72
    11
 73
   -10
  0
VERTEX
  5
114C
  8
MADLO
 10
0.0
 20
0.0
 30
0.0
 70
   128
 71
    -1
 72
    12
 73
   -11
  0
VERTEX
  5
114D
  8
MADLO
 10
0.0
 20
0.0
 30
0.0
 70
   128
 71
     1
 72
    -4
 73
    -5
  0
VERTEX
  5
114E
  8
MADLO
 10
0.0
 20
0.0
 30
0.0
 70
   128
 71
    -1
 72
     5
 73
   -12
  0
SEQEND
  5
1693
  8
MADLO
  0
POLYLINE
  5
114F
  8
MADLO
 66
     1
 10
0.0
 20
0.0
 30
0.0
 70
    64
 71
    10
 72
     8
  0
VERTEX
  5
1150
  8
MADLO
 10
237.2874986321322
 20
910.0
 30
8.000000000000007
 70
   192
  0
VERTEX
  5
1151
  8
MADLO
 10
242.2874986321322
 20
910.0
 30
8.000000000000007
 70
   192
  0
VERTEX
  5
1152
  8
MADLO
 10
242.2874986321322
 20
910.0
 30
3.000000000000007
 70
   192
  0
VERTEX
  5
1153
  8
MADLO
 10
237.2874986321322
 20
910.0
 30
3.000000000000007
 70
   192
  0
VERTEX
  5
1154
  8
MADLO
 10
239.7874986321322
 20
912.5
 30
3.000000000000007
 70
   192
  0
VERTEX
  5
1155
  8
MADLO
 10
239.7874986321322
 20
912.5
 30
8.000000000000007
 70
   192
  0
VERTEX
  5
1156
  8
MADLO
 10
238.0197316791658
 20
911.7677669529663
 30
3.000000000000007
 70
   192
  0
VERTEX
  5
1157
  8
MADLO
 10
238.0197316791658
 20
911.7677669529663
 30
8.000000000000007
 70
   192
  0
VERTEX
  5
1158
  8
MADLO
 10
241.5552655850986
 20
911.7677669529663
 30
3.000000000000007
 70
   192
  0
VERTEX
  5
1159
  8
MADLO
 10
241.5552655850986
 20
911.7677669529663
 30
8.000000000000007
 70
   192
  0
VERTEX
  5
115A
  8
MADLO
 10
0.0
 20
0.0
 30
0.0
 70
   128
 71
     8
 72
     1
 73
    -4
  0
VERTEX
  5
115B
  8
MADLO
 10
0.0
 20
0.0
 30
0.0
 70
   128
 71
     7
 72
    -8
 73
     4
  0
VERTEX
  5
115C
  8
MADLO
 10
0.0
 20
0.0
 30
0.0
 70
   128
 71
     6
 72
     8
 73
    -7
  0
VERTEX
  5
115D
  8
MADLO
 10
0.0
 20
0.0
 30
0.0
 70
   128
 71
     5
 72
    -6
 73
     7
  0
VERTEX
  5
115E
  8
MADLO
 10
0.0
 20
0.0
 30
0.0
 70
   128
 71
    10
 72
     6
 73
    -5
  0
VERTEX
  5
115F
  8
MADLO
 10
0.0
 20
0.0
 30
0.0
 70
   128
 71
     9
 72
   -10
 73
     5
  0
VERTEX
  5
1160
  8
MADLO
 10
0.0
 20
0.0
 30
0.0
 70
   128
 71
     3
 72
     2
 73
   -10
  0
VERTEX
  5
1161
  8
MADLO
 10
0.0
 20
0.0
 30
0.0
 70
   128
 71
     9
 72
    -3
 73
    10
  0
SEQEND
  5
1694
  8
MADLO
  0
POLYLINE
  5
1162
  8
MADLO
 66
     1
 10
0.0
 20
0.0
 30
0.0
 70
    64
 71
     8
 72
     6
  0
VERTEX
  5
1163
  8
MADLO
 10
237.2874986321322
 20
910.0
 30
8.000000000000007
 70
   192
  0
VERTEX
  5
1164
  8
MADLO
 10
238.0197316791658
 20
911.7677669529663
 30
8.000000000000007
 70
   192
  0
VERTEX
  5
1165
  8
MADLO
 10
239.7874986321322
 20
912.5
 30
8.000000000000007
 70
   192
  0
VERTEX
  5
1166
  8
MADLO
 10
241.5552655850986
 20
911.7677669529663
 30
8.000000000000007
 70
   192
  0
VERTEX
  5
1167
  8
MADLO
 10
242.2874986321322
 20
910.0
 30
8.000000000000007
 70
   192
  0
VERTEX
  5
1168
  8
MADLO
 10
241.5552655850986
 20
908.2322330470337
 30
8.000000000000007
 70
   192
  0
VERTEX
  5
1169
  8
MADLO
 10
239.7874986321322
 20
907.5
 30
8.000000000000007
 70
   192
  0
VERTEX
  5
116A
  8
MADLO
 10
238.0197316791658
 20
908.2322330470337
 30
8.000000000000007
 70
   192
  0
VERTEX
  5
116B
  8
MADLO
 10
0.0
 20
0.0
 30
0.0
 70
   128
 71
     7
 72
     8
 73
    -1
  0
VERTEX
  5
116C
  8
MADLO
 10
0.0
 20
0.0
 30
0.0
 70
   128
 71
     6
 72
    -7
 73
    -1
  0
VERTEX
  5
116D
  8
MADLO
 10
0.0
 20
0.0
 30
0.0
 70
   128
 71
     5
 72
    -6
 73
    -1
  0
VERTEX
  5
116E
  8
MADLO
 10
0.0
 20
0.0
 30
0.0
 70
   128
 71
     4
 72
    -5
 73
    -1
  0
VERTEX
  5
116F
  8
MADLO
 10
0.0
 20
0.0
 30
0.0
 70
   128
 71
     3
 72
    -4
 73
    -1
  0
VERTEX
  5
1170
  8
MADLO
 10
0.0
 20
0.0
 30
0.0
 70
   128
 71
     2
 72
    -3
 73
     1
  0
SEQEND
  5
1695
  8
MADLO
  0
POLYLINE
  5
1171
  8
MADLO
 66
     1
 10
0.0
 20
0.0
 30
0.0
 70
    64
 71
    10
 72
     8
  0
VERTEX
  5
1172
  8
MADLO
 10
237.2874986321322
 20
1110.0
 30
8.000000000000007
 70
   192
  0
VERTEX
  5
1173
  8
MADLO
 10
242.2874986321322
 20
1110.0
 30
8.000000000000007
 70
   192
  0
VERTEX
  5
1174
  8
MADLO
 10
242.2874986321322
 20
1110.0
 30
3.000000000000007
 70
   192
  0
VERTEX
  5
1175
  8
MADLO
 10
237.2874986321322
 20
1110.0
 30
3.000000000000007
 70
   192
  0
VERTEX
  5
1176
  8
MADLO
 10
239.7874986321322
 20
1112.5
 30
3.000000000000007
 70
   192
  0
VERTEX
  5
1177
  8
MADLO
 10
239.7874986321322
 20
1112.5
 30
8.000000000000007
 70
   192
  0
VERTEX
  5
1178
  8
MADLO
 10
238.0197316791658
 20
1111.767766952967
 30
3.000000000000007
 70
   192
  0
VERTEX
  5
1179
  8
MADLO
 10
238.0197316791658
 20
1111.767766952967
 30
8.000000000000007
 70
   192
  0
VERTEX
  5
117A
  8
MADLO
 10
241.5552655850986
 20
1111.767766952967
 30
3.000000000000007
 70
   192
  0
VERTEX
  5
117B
  8
MADLO
 10
241.5552655850986
 20
1111.767766952967
 30
8.000000000000007
 70
   192
  0
VERTEX
  5
117C
  8
MADLO
 10
0.0
 20
0.0
 30
0.0
 70
   128
 71
     8
 72
     1
 73
    -4
  0
VERTEX
  5
117D
  8
MADLO
 10
0.0
 20
0.0
 30
0.0
 70
   128
 71
     7
 72
    -8
 73
     4
  0
VERTEX
  5
117E
  8
MADLO
 10
0.0
 20
0.0
 30
0.0
 70
   128
 71
     6
 72
     8
 73
    -7
  0
VERTEX
  5
117F
  8
MADLO
 10
0.0
 20
0.0
 30
0.0
 70
   128
 71
     5
 72
    -6
 73
     7
  0
VERTEX
  5
1180
  8
MADLO
 10
0.0
 20
0.0
 30
0.0
 70
   128
 71
    10
 72
     6
 73
    -5
  0
VERTEX
  5
1181
  8
MADLO
 10
0.0
 20
0.0
 30
0.0
 70
   128
 71
     9
 72
   -10
 73
     5
  0
VERTEX
  5
1182
  8
MADLO
 10
0.0
 20
0.0
 30
0.0
 70
   128
 71
     3
 72
     2
 73
   -10
  0
VERTEX
  5
1183
  8
MADLO
 10
0.0
 20
0.0
 30
0.0
 70
   128
 71
     9
 72
    -3
 73
    10
  0
SEQEND
  5
1696
  8
MADLO
  0
POLYLINE
  5
1184
  8
MADLO
 66
     1
 10
0.0
 20
0.0
 30
0.0
 70
    64
 71
     8
 72
     6
  0
VERTEX
  5
1185
  8
MADLO
 10
237.2874986321322
 20
1110.0
 30
8.000000000000007
 70
   192
  0
VERTEX
  5
1186
  8
MADLO
 10
238.0197316791658
 20
1111.767766952967
 30
8.000000000000007
 70
   192
  0
VERTEX
  5
1187
  8
MADLO
 10
239.7874986321322
 20
1112.5
 30
8.000000000000007
 70
   192
  0
VERTEX
  5
1188
  8
MADLO
 10
241.5552655850986
 20
1111.767766952967
 30
8.000000000000007
 70
   192
  0
VERTEX
  5
1189
  8
MADLO
 10
242.2874986321322
 20
1110.0
 30
8.000000000000007
 70
   192
  0
VERTEX
  5
118A
  8
MADLO
 10
241.5552655850986
 20
1108.232233047034
 30
8.000000000000007
 70
   192
  0
VERTEX
  5
118B
  8
MADLO
 10
239.7874986321322
 20
1107.5
 30
8.000000000000007
 70
   192
  0
VERTEX
  5
118C
  8
MADLO
 10
238.0197316791658
 20
1108.232233047034
 30
8.000000000000007
 70
   192
  0
VERTEX
  5
118D
  8
MADLO
 10
0.0
 20
0.0
 30
0.0
 70
   128
 71
     7
 72
     8
 73
    -1
  0
VERTEX
  5
118E
  8
MADLO
 10
0.0
 20
0.0
 30
0.0
 70
   128
 71
     6
 72
    -7
 73
    -1
  0
VERTEX
  5
118F
  8
MADLO
 10
0.0
 20
0.0
 30
0.0
 70
   128
 71
     5
 72
    -6
 73
    -1
  0
VERTEX
  5
1190
  8
MADLO
 10
0.0
 20
0.0
 30
0.0
 70
   128
 71
     4
 72
    -5
 73
    -1
  0
VERTEX
  5
1191
  8
MADLO
 10
0.0
 20
0.0
 30
0.0
 70
   128
 71
     3
 72
    -4
 73
    -1
  0
VERTEX
  5
1192
  8
MADLO
 10
0.0
 20
0.0
 30
0.0
 70
   128
 71
     2
 72
    -3
 73
     1
  0
SEQEND
  5
1697
  8
MADLO
  0
ENDBLK
  5
1687
  8
0
  0
BLOCK
  8
0
  2
*X7
 70
     1
 10
0.0
 20
0.0
 30
0.0
  3
*X7
  1

  0
POLYLINE
  5
1194
  8
GUMA
 66
     1
 10
0.0
 20
0.0
 30
0.0
 70
    64
 71
     8
 72
     6
  0
VERTEX
  5
1195
  8
GUMA
 10
0.2161728934128031
 20
2000.0
 30
-3.449582139804473
 70
   192
  0
VERTEX
  5
1196
  8
GUMA
 10
-1.669530622871603
 20
2000.0
 30
-3.72097362815375
 70
   192
  0
VERTEX
  5
1197
  8
GUMA
 10
-1.669530622871603
 20
18.00000000000027
 30
-3.72097362815375
 70
   192
  0
VERTEX
  5
1198
  8
GUMA
 10
0.2161728934128031
 20
18.00000000000027
 30
-3.449582139804473
 70
   192
  0
VERTEX
  5
1199
  8
GUMA
 10
-3.572501367867881
 20
2000.0
 30
-3.811711905435644
 70
   192
  0
VERTEX
  5
119A
  8
GUMA
 10
-3.572501367867878
 20
18.00000000000023
 30
-3.811711905435647
 70
   192
  0
VERTEX
  5
119B
  8
GUMA
 10
2.067498632132114
 20
2000.0
 30
-2.999999999999996
 70
   192
  0
VERTEX
  5
119C
  8
GUMA
 10
2.067498632132114
 20
18.00000000000027
 30
-2.999999999999996
 70
   192
  0
VERTEX
  5
119D
  8
GUMA
 10
0.0
 20
0.0
 30
0.0
 70
   128
 71
     1
 72
     2
 73
    -3
  0
VERTEX
  5
119E
  8
GUMA
 10
0.0
 20
0.0
 30
0.0
 70
   128
 71
     4
 72
    -1
 73
     3
  0
VERTEX
  5
119F
  8
GUMA
 10
0.0
 20
0.0
 30
0.0
 70
   128
 71
     2
 72
     5
 73
    -6
  0
VERTEX
  5
11A0
  8
GUMA
 10
0.0
 20
0.0
 30
0.0
 70
   128
 71
     3
 72
    -2
 73
     6
  0
VERTEX
  5
11A1
  8
GUMA
 10
0.0
 20
0.0
 30
0.0
 70
   128
 71
     7
 72
     1
 73
    -4
  0
VERTEX
  5
11A2
  8
GUMA
 10
0.0
 20
0.0
 30
0.0
 70
   128
 71
     8
 72
    -7
 73
     4
  0
SEQEND
  5
169A
  8
GUMA
  0
POLYLINE
  5
11A3
  8
GUMA
 66
     1
 10
0.0
 20
0.0
 30
0.0
 70
    64
 71
     8
 72
     6
  0
VERTEX
  5
11A4
  8
GUMA
 10
-7.361175629148567
 20
18.00000000000027
 30
-4.169582139804474
 70
   192
  0
VERTEX
  5
11A5
  8
GUMA
 10
-7.361175629148567
 20
2000.0
 30
-4.169582139804474
 70
   192
  0
VERTEX
  5
11A6
  8
GUMA
 10
-5.475472112864162
 20
2000.0
 30
-4.440973628153751
 70
   192
  0
VERTEX
  5
11A7
  8
GUMA
 10
-5.475472112864162
 20
18.00000000000027
 30
-4.440973628153751
 70
   192
  0
VERTEX
  5
11A8
  8
GUMA
 10
-9.212501367867887
 20
18.00000000000027
 30
-3.719999999999994
 70
   192
  0
VERTEX
  5
11A9
  8
GUMA
 10
-9.21250136786788
 20
2000.0
 30
-3.719999999999996
 70
   192
  0
VERTEX
  5
11AA
  8
GUMA
 10
-3.572501367867876
 20
2000.0
 30
-4.531711905435644
 70
   192
  0
VERTEX
  5
11AB
  8
GUMA
 10
-3.572501367867878
 20
18.00000000000023
 30
-4.531711905435645
 70
   192
  0
VERTEX
  5
11AC
  8
GUMA
 10
0.0
 20
0.0
 30
0.0
 70
   128
 71
     1
 72
     2
 73
    -3
  0
VERTEX
  5
11AD
  8
GUMA
 10
0.0
 20
0.0
 30
0.0
 70
   128
 71
    -1
 72
     3
 73
     4
  0
VERTEX
  5
11AE
  8
GUMA
 10
0.0
 20
0.0
 30
0.0
 70
   128
 71
     5
 72
     6
 73
    -2
  0
VERTEX
  5
11AF
  8
GUMA
 10
0.0
 20
0.0
 30
0.0
 70
   128
 71
    -5
 72
     2
 73
     1
  0
VERTEX
  5
11B0
  8
GUMA
 10
0.0
 20
0.0
 30
0.0
 70
   128
 71
     4
 72
     3
 73
    -7
  0
VERTEX
  5
11B1
  8
GUMA
 10
0.0
 20
0.0
 30
0.0
 70
   128
 71
    -4
 72
     7
 73
     8
  0
SEQEND
  5
169B
  8
GUMA
  0
POLYLINE
  5
11B2
  8
GUMA
 66
     1
 10
0.0
 20
0.0
 30
0.0
 70
    64
 71
     4
 72
     2
  0
VERTEX
  5
11B3
  8
GUMA
 10
11.78749863213212
 20
18.00000000000023
 30
3.720000000000006
 70
   192
  0
VERTEX
  5
11B4
  8
GUMA
 10
11.78749863213212
 20
2000.0
 30
3.720000000000006
 70
   192
  0
VERTEX
  5
11B5
  8
GUMA
 10
11.78749863213212
 20
2000.0
 30
3.000000000000005
 70
   192
  0
VERTEX
  5
11B6
  8
GUMA
 10
11.78749863213212
 20
18.00000000000027
 30
3.000000000000005
 70
   192
  0
VERTEX
  5
11B7
  8
GUMA
 10
0.0
 20
0.0
 30
0.0
 70
   128
 71
     1
 72
     4
 73
    -3
  0
VERTEX
  5
11B8
  8
GUMA
 10
0.0
 20
0.0
 30
0.0
 70
   128
 71
    -1
 72
     3
 73
     2
  0
SEQEND
  5
169C
  8
GUMA
  0
POLYLINE
  5
11B9
  8
GUMA
 66
     1
 10
0.0
 20
0.0
 30
0.0
 70
    64
 71
     4
 72
     2
  0
VERTEX
  5
11BA
  8
GUMA
 10
11.78749863213212
 20
18.00000000000023
 30
3.000000000000005
 70
   192
  0
VERTEX
  5
11BB
  8
GUMA
 10
11.78749863213212
 20
2000.0
 30
3.000000000000005
 70
   192
  0
VERTEX
  5
11BC
  8
GUMA
 10
2.787498632132121
 20
2000.0
 30
3.000000000000008
 70
   192
  0
VERTEX
  5
11BD
  8
GUMA
 10
2.78749863213212
 20
18.00000000000027
 30
3.000000000000008
 70
   192
  0
VERTEX
  5
11BE
  8
GUMA
 10
0.0
 20
0.0
 30
0.0
 70
   128
 71
     1
 72
     4
 73
    -3
  0
VERTEX
  5
11BF
  8
GUMA
 10
0.0
 20
0.0
 30
0.0
 70
   128
 71
    -1
 72
     3
 73
     2
  0
SEQEND
  5
169D
  8
GUMA
  0
POLYLINE
  5
11C0
  8
GUMA
 66
     1
 10
0.0
 20
0.0
 30
0.0
 70
    64
 71
     4
 72
     2
  0
VERTEX
  5
11C1
  8
GUMA
 10
2.787498632132121
 20
18.00000000000023
 30
3.000000000000008
 70
   192
  0
VERTEX
  5
11C2
  8
GUMA
 10
2.787498632132121
 20
2000.0
 30
3.000000000000008
 70
   192
  0
VERTEX
  5
11C3
  8
GUMA
 10
2.787498632132121
 20
2000.0
 30
-2.999999999999997
 70
   192
  0
VERTEX
  5
11C4
  8
GUMA
 10
2.787498632132121
 20
18.00000000000027
 30
-2.999999999999997
 70
   192
  0
VERTEX
  5
11C5
  8
GUMA
 10
0.0
 20
0.0
 30
0.0
 70
   128
 71
     1
 72
     4
 73
    -3
  0
VERTEX
  5
11C6
  8
GUMA
 10
0.0
 20
0.0
 30
0.0
 70
   128
 71
    -1
 72
     3
 73
     2
  0
SEQEND
  5
169E
  8
GUMA
  0
POLYLINE
  5
11C7
  8
GUMA
 66
     1
 10
0.0
 20
0.0
 30
0.0
 70
    64
 71
     4
 72
     2
  0
VERTEX
  5
11C8
  8
GUMA
 10
2.787498632132121
 20
18.00000000000023
 30
-2.999999999999997
 70
   192
  0
VERTEX
  5
11C9
  8
GUMA
 10
2.78749863213212
 20
2000.0
 30
-2.999999999999997
 70
   192
  0
VERTEX
  5
11CA
  8
GUMA
 10
11.78749863213212
 20
2000.0
 30
-2.999999999999995
 70
   192
  0
VERTEX
  5
11CB
  8
GUMA
 10
11.78749863213212
 20
18.00000000000027
 30
-2.999999999999995
 70
   192
  0
VERTEX
  5
11CC
  8
GUMA
 10
0.0
 20
0.0
 30
0.0
 70
   128
 71
     1
 72
     4
 73
    -3
  0
VERTEX
  5
11CD
  8
GUMA
 10
0.0
 20
0.0
 30
0.0
 70
   128
 71
    -1
 72
     3
 73
     2
  0
SEQEND
  5
169F
  8
GUMA
  0
POLYLINE
  5
11CE
  8
GUMA
 66
     1
 10
0.0
 20
0.0
 30
0.0
 70
    64
 71
     4
 72
     2
  0
VERTEX
  5
11CF
  8
GUMA
 10
11.78749863213212
 20
18.00000000000023
 30
-2.999999999999995
 70
   192
  0
VERTEX
  5
11D0
  8
GUMA
 10
11.78749863213212
 20
2000.0
 30
-2.999999999999995
 70
   192
  0
VERTEX
  5
11D1
  8
GUMA
 10
11.78749863213212
 20
2000.0
 30
-3.719999999999997
 70
   192
  0
VERTEX
  5
11D2
  8
GUMA
 10
11.78749863213212
 20
18.00000000000027
 30
-3.719999999999997
 70
   192
  0
VERTEX
  5
11D3
  8
GUMA
 10
0.0
 20
0.0
 30
0.0
 70
   128
 71
     1
 72
     4
 73
    -3
  0
VERTEX
  5
11D4
  8
GUMA
 10
0.0
 20
0.0
 30
0.0
 70
   128
 71
    -1
 72
     3
 73
     2
  0
SEQEND
  5
16A0
  8
GUMA
  0
POLYLINE
  5
11D5
  8
GUMA
 66
     1
 10
0.0
 20
0.0
 30
0.0
 70
    64
 71
     4
 72
     2
  0
VERTEX
  5
11D6
  8
GUMA
 10
11.78749863213212
 20
18.00000000000023
 30
-3.719999999999997
 70
   192
  0
VERTEX
  5
11D7
  8
GUMA
 10
11.78749863213212
 20
2000.0
 30
-3.719999999999997
 70
   192
  0
VERTEX
  5
11D8
  8
GUMA
 10
2.067498632132118
 20
2000.0
 30
-3.719999999999996
 70
   192
  0
VERTEX
  5
11D9
  8
GUMA
 10
2.067498632132118
 20
18.00000000000027
 30
-3.719999999999997
 70
   192
  0
VERTEX
  5
11DA
  8
GUMA
 10
0.0
 20
0.0
 30
0.0
 70
   128
 71
     1
 72
     4
 73
    -3
  0
VERTEX
  5
11DB
  8
GUMA
 10
0.0
 20
0.0
 30
0.0
 70
   128
 71
    -1
 72
     3
 73
     2
  0
SEQEND
  5
16A1
  8
GUMA
  0
POLYLINE
  5
11DC
  8
GUMA
 66
     1
 10
0.0
 20
0.0
 30
0.0
 70
    64
 71
     8
 72
     6
  0
VERTEX
  5
11DD
  8
GUMA
 10
-1.669530622871598
 20
18.00000000000027
 30
-4.440973628153751
 70
   192
  0
VERTEX
  5
11DE
  8
GUMA
 10
-1.669530622871598
 20
2000.0
 30
-4.440973628153751
 70
   192
  0
VERTEX
  5
11DF
  8
GUMA
 10
0.2161728934128071
 20
2000.0
 30
-4.169582139804474
 70
   192
  0
VERTEX
  5
11E0
  8
GUMA
 10
0.2161728934128071
 20
18.00000000000027
 30
-4.169582139804474
 70
   192
  0
VERTEX
  5
11E1
  8
GUMA
 10
-3.572501367867876
 20
18.00000000000027
 30
-4.531711905435644
 70
   192
  0
VERTEX
  5
11E2
  8
GUMA
 10
-3.572501367867878
 20
2000.0
 30
-4.531711905435645
 70
   192
  0
VERTEX
  5
11E3
  8
GUMA
 10
2.067498632132118
 20
2000.0
 30
-3.719999999999997
 70
   192
  0
VERTEX
  5
11E4
  8
GUMA
 10
2.067498632132118
 20
18.00000000000023
 30
-3.719999999999996
 70
   192
  0
VERTEX
  5
11E5
  8
GUMA
 10
0.0
 20
0.0
 30
0.0
 70
   128
 71
     1
 72
     2
 73
    -3
  0
VERTEX
  5
11E6
  8
GUMA
 10
0.0
 20
0.0
 30
0.0
 70
   128
 71
    -1
 72
     3
 73
     4
  0
VERTEX
  5
11E7
  8
GUMA
 10
0.0
 20
0.0
 30
0.0
 70
   128
 71
     5
 72
     6
 73
    -2
  0
VERTEX
  5
11E8
  8
GUMA
 10
0.0
 20
0.0
 30
0.0
 70
   128
 71
    -5
 72
     2
 73
     1
  0
VERTEX
  5
11E9
  8
GUMA
 10
0.0
 20
0.0
 30
0.0
 70
   128
 71
     4
 72
     3
 73
    -7
  0
VERTEX
  5
11EA
  8
GUMA
 10
0.0
 20
0.0
 30
0.0
 70
   128
 71
    -4
 72
     7
 73
     8
  0
SEQEND
  5
16A2
  8
GUMA
  0
POLYLINE
  5
11EB
  8
GUMA
 66
     1
 10
0.0
 20
0.0
 30
0.0
 70
    64
 71
     4
 72
     2
  0
VERTEX
  5
11EC
  8
GUMA
 10
-9.21250136786788
 20
18.00000000000023
 30
-3.719999999999996
 70
   192
  0
VERTEX
  5
11ED
  8
GUMA
 10
-9.21250136786788
 20
2000.0
 30
-3.719999999999996
 70
   192
  0
VERTEX
  5
11EE
  8
GUMA
 10
-9.212501367867873
 20
2000.0
 30
-3.000000000000001
 70
   192
  0
VERTEX
  5
11EF
  8
GUMA
 10
-9.21250136786788
 20
18.00000000000027
 30
-3.000000000000001
 70
   192
  0
VERTEX
  5
11F0
  8
GUMA
 10
0.0
 20
0.0
 30
0.0
 70
   128
 71
     1
 72
     4
 73
    -3
  0
VERTEX
  5
11F1
  8
GUMA
 10
0.0
 20
0.0
 30
0.0
 70
   128
 71
    -1
 72
     3
 73
     2
  0
SEQEND
  5
16A3
  8
GUMA
  0
POLYLINE
  5
11F2
  8
GUMA
 66
     1
 10
0.0
 20
0.0
 30
0.0
 70
    64
 71
     8
 72
     6
  0
VERTEX
  5
11F3
  8
GUMA
 10
-5.475472112864159
 20
2000.0
 30
-3.72097362815375
 70
   192
  0
VERTEX
  5
11F4
  8
GUMA
 10
-7.361175629148565
 20
2000.0
 30
-3.449582139804473
 70
   192
  0
VERTEX
  5
11F5
  8
GUMA
 10
-7.361175629148565
 20
18.00000000000027
 30
-3.449582139804473
 70
   192
  0
VERTEX
  5
11F6
  8
GUMA
 10
-5.475472112864159
 20
18.00000000000027
 30
-3.72097362815375
 70
   192
  0
VERTEX
  5
11F7
  8
GUMA
 10
-9.212501367867876
 20
2000.0
 30
-2.999999999999996
 70
   192
  0
VERTEX
  5
11F8
  8
GUMA
 10
-9.212501367867873
 20
18.00000000000023
 30
-3.000000000000001
 70
   192
  0
VERTEX
  5
11F9
  8
GUMA
 10
-3.572501367867878
 20
2000.0
 30
-3.811711905435647
 70
   192
  0
VERTEX
  5
11FA
  8
GUMA
 10
-3.572501367867878
 20
18.00000000000023
 30
-3.811711905435647
 70
   192
  0
VERTEX
  5
11FB
  8
GUMA
 10
0.0
 20
0.0
 30
0.0
 70
   128
 71
     1
 72
     2
 73
    -3
  0
VERTEX
  5
11FC
  8
GUMA
 10
0.0
 20
0.0
 30
0.0
 70
   128
 71
     4
 72
    -1
 73
     3
  0
VERTEX
  5
11FD
  8
GUMA
 10
0.0
 20
0.0
 30
0.0
 70
   128
 71
     2
 72
     5
 73
    -6
  0
VERTEX
  5
11FE
  8
GUMA
 10
0.0
 20
0.0
 30
0.0
 70
   128
 71
     3
 72
    -2
 73
     6
  0
VERTEX
  5
11FF
  8
GUMA
 10
0.0
 20
0.0
 30
0.0
 70
   128
 71
     7
 72
     1
 73
    -4
  0
VERTEX
  5
1200
  8
GUMA
 10
0.0
 20
0.0
 30
0.0
 70
   128
 71
     8
 72
    -7
 73
     4
  0
SEQEND
  5
16A4
  8
GUMA
  0
POLYLINE
  5
1201
  8
GUMA
 66
     1
 10
0.0
 20
0.0
 30
0.0
 70
    64
 71
     4
 72
     2
  0
VERTEX
  5
1202
  8
GUMA
 10
2.06749863213212
 20
18.00000000000023
 30
-2.999999999999997
 70
   192
  0
VERTEX
  5
1203
  8
GUMA
 10
2.06749863213212
 20
2000.0
 30
-2.999999999999997
 70
   192
  0
VERTEX
  5
1204
  8
GUMA
 10
2.067498632132121
 20
2000.0
 30
3.720000000000006
 70
   192
  0
VERTEX
  5
1205
  8
GUMA
 10
2.067498632132121
 20
18.00000000000027
 30
3.720000000000006
 70
   192
  0
VERTEX
  5
1206
  8
GUMA
 10
0.0
 20
0.0
 30
0.0
 70
   128
 71
     1
 72
     4
 73
    -3
  0
VERTEX
  5
1207
  8
GUMA
 10
0.0
 20
0.0
 30
0.0
 70
   128
 71
    -1
 72
     3
 73
     2
  0
SEQEND
  5
16A5
  8
GUMA
  0
POLYLINE
  5
1208
  8
GUMA
 66
     1
 10
0.0
 20
0.0
 30
0.0
 70
    64
 71
     4
 72
     2
  0
VERTEX
  5
1209
  8
GUMA
 10
2.067498632132121
 20
18.00000000000023
 30
3.720000000000006
 70
   192
  0
VERTEX
  5
120A
  8
GUMA
 10
2.067498632132121
 20
2000.0
 30
3.720000000000006
 70
   192
  0
VERTEX
  5
120B
  8
GUMA
 10
11.78749863213212
 20
2000.0
 30
3.720000000000006
 70
   192
  0
VERTEX
  5
120C
  8
GUMA
 10
11.78749863213212
 20
18.00000000000027
 30
3.720000000000006
 70
   192
  0
VERTEX
  5
120D
  8
GUMA
 10
0.0
 20
0.0
 30
0.0
 70
   128
 71
     1
 72
     4
 73
    -3
  0
VERTEX
  5
120E
  8
GUMA
 10
0.0
 20
0.0
 30
0.0
 70
   128
 71
    -1
 72
     3
 73
     2
  0
SEQEND
  5
16A6
  8
GUMA
  0
POLYLINE
  5
120F
  8
GUMA
 66
     1
 10
0.0
 20
0.0
 30
0.0
 70
    64
 71
    21
 72
    19
  0
VERTEX
  5
1210
  8
GUMA
 10
11.78749863213212
 20
2000.0
 30
3.720000000000006
 70
   192
  0
VERTEX
  5
1211
  8
GUMA
 10
11.78749863213212
 20
2000.0
 30
3.000000000000005
 70
   192
  0
VERTEX
  5
1212
  8
GUMA
 10
2.78749863213212
 20
2000.0
 30
3.000000000000008
 70
   192
  0
VERTEX
  5
1213
  8
GUMA
 10
2.787498632132121
 20
2000.0
 30
-2.999999999999997
 70
   192
  0
VERTEX
  5
1214
  8
GUMA
 10
11.78749863213212
 20
2000.0
 30
-2.999999999999995
 70
   192
  0
VERTEX
  5
1215
  8
GUMA
 10
11.78749863213212
 20
2000.0
 30
-3.719999999999997
 70
   192
  0
VERTEX
  5
1216
  8
GUMA
 10
2.067498632132118
 20
2000.0
 30
-3.719999999999997
 70
   192
  0
VERTEX
  5
1217
  8
GUMA
 10
0.2161728934128071
 20
2000.0
 30
-4.169582139804474
 70
   192
  0
VERTEX
  5
1218
  8
GUMA
 10
-1.669530622871598
 20
2000.0
 30
-4.440973628153751
 70
   192
  0
VERTEX
  5
1219
  8
GUMA
 10
-3.572501367867876
 20
2000.0
 30
-4.531711905435644
 70
   192
  0
VERTEX
  5
121A
  8
GUMA
 10
-5.475472112864162
 20
2000.0
 30
-4.440973628153751
 70
   192
  0
VERTEX
  5
121B
  8
GUMA
 10
-7.361175629148567
 20
2000.0
 30
-4.169582139804474
 70
   192
  0
VERTEX
  5
121C
  8
GUMA
 10
-9.212501367867887
 20
2000.0
 30
-3.719999999999994
 70
   192
  0
VERTEX
  5
121D
  8
GUMA
 10
-9.21250136786788
 20
2000.0
 30
-3.000000000000001
 70
   192
  0
VERTEX
  5
121E
  8
GUMA
 10
-7.361175629148565
 20
2000.0
 30
-3.449582139804473
 70
   192
  0
VERTEX
  5
121F
  8
GUMA
 10
-5.475472112864159
 20
2000.0
 30
-3.72097362815375
 70
   192
  0
VERTEX
  5
1220
  8
GUMA
 10
-3.572501367867881
 20
2000.0
 30
-3.811711905435644
 70
   192
  0
VERTEX
  5
1221
  8
GUMA
 10
-1.669530622871603
 20
2000.0
 30
-3.72097362815375
 70
   192
  0
VERTEX
  5
1222
  8
GUMA
 10
0.2161728934128031
 20
2000.0
 30
-3.449582139804473
 70
   192
  0
VERTEX
  5
1223
  8
GUMA
 10
2.067498632132114
 20
2000.0
 30
-2.999999999999996
 70
   192
  0
VERTEX
  5
1224
  8
GUMA
 10
2.067498632132121
 20
2000.0
 30
3.720000000000006
 70
   192
  0
VERTEX
  5
1225
  8
GUMA
 10
0.0
 20
0.0
 30
0.0
 70
   128
 71
    13
 72
    14
 73
   -15
  0
VERTEX
  5
1226
  8
GUMA
 10
0.0
 20
0.0
 30
0.0
 70
   128
 71
    12
 72
   -13
 73
   -15
  0
VERTEX
  5
1227
  8
GUMA
 10
0.0
 20
0.0
 30
0.0
 70
   128
 71
   -16
 72
    11
 73
   -12
  0
VERTEX
  5
1228
  8
GUMA
 10
0.0
 20
0.0
 30
0.0
 70
   128
 71
    15
 72
   -16
 73
   -12
  0
VERTEX
  5
1229
  8
GUMA
 10
0.0
 20
0.0
 30
0.0
 70
   128
 71
   -17
 72
    10
 73
   -11
  0
VERTEX
  5
122A
  8
GUMA
 10
0.0
 20
0.0
 30
0.0
 70
   128
 71
    16
 72
   -17
 73
   -11
  0
VERTEX
  5
122B
  8
GUMA
 10
0.0
 20
0.0
 30
0.0
 70
   128
 71
   -18
 72
     9
 73
   -10
  0
VERTEX
  5
122C
  8
GUMA
 10
0.0
 20
0.0
 30
0.0
 70
   128
 71
    17
 72
   -18
 73
   -10
  0
VERTEX
  5
122D
  8
GUMA
 10
0.0
 20
0.0
 30
0.0
 70
   128
 71
   -19
 72
     8
 73
    -9
  0
VERTEX
  5
122E
  8
GUMA
 10
0.0
 20
0.0
 30
0.0
 70
   128
 71
    18
 72
   -19
 73
    -9
  0
VERTEX
  5
122F
  8
GUMA
 10
0.0
 20
0.0
 30
0.0
 70
   128
 71
   -20
 72
     7
 73
    -8
  0
VERTEX
  5
1230
  8
GUMA
 10
0.0
 20
0.0
 30
0.0
 70
   128
 71
    19
 72
   -20
 73
    -8
  0
VERTEX
  5
1231
  8
GUMA
 10
0.0
 20
0.0
 30
0.0
 70
   128
 71
     1
 72
     2
 73
    -3
  0
VERTEX
  5
1232
  8
GUMA
 10
0.0
 20
0.0
 30
0.0
 70
   128
 71
    21
 72
    -1
 73
    -3
  0
VERTEX
  5
1233
  8
GUMA
 10
0.0
 20
0.0
 30
0.0
 70
   128
 71
    -4
 72
    20
 73
   -21
  0
VERTEX
  5
1234
  8
GUMA
 10
0.0
 20
0.0
 30
0.0
 70
   128
 71
     3
 72
    -4
 73
   -21
  0
VERTEX
  5
1235
  8
GUMA
 10
0.0
 20
0.0
 30
0.0
 70
   128
 71
    -7
 72
   -20
 73
    -4
  0
VERTEX
  5
1236
  8
GUMA
 10
0.0
 20
0.0
 30
0.0
 70
   128
 71
     5
 72
     6
 73
    -7
  0
VERTEX
  5
1237
  8
GUMA
 10
0.0
 20
0.0
 30
0.0
 70
   128
 71
     4
 72
    -5
 73
    -7
  0
SEQEND
  5
16A7
  8
GUMA
  0
POLYLINE
  5
1238
  8
GUMA
 66
     1
 10
0.0
 20
0.0
 30
0.0
 70
    64
 71
    21
 72
    19
  0
VERTEX
  5
1239
  8
GUMA
 10
11.78749863213212
 20
18.00000000000027
 30
3.000000000000005
 70
   192
  0
VERTEX
  5
123A
  8
GUMA
 10
2.787498632132121
 20
18.00000000000027
 30
3.000000000000008
 70
   192
  0
VERTEX
  5
123B
  8
GUMA
 10
2.78749863213212
 20
18.00000000000027
 30
-2.999999999999997
 70
   192
  0
VERTEX
  5
123C
  8
GUMA
 10
11.78749863213212
 20
18.00000000000027
 30
-2.999999999999995
 70
   192
  0
VERTEX
  5
123D
  8
GUMA
 10
11.78749863213212
 20
18.00000000000027
 30
-3.719999999999997
 70
   192
  0
VERTEX
  5
123E
  8
GUMA
 10
2.067498632132118
 20
18.00000000000027
 30
-3.719999999999997
 70
   192
  0
VERTEX
  5
123F
  8
GUMA
 10
0.2161728934128071
 20
18.00000000000027
 30
-4.169582139804474
 70
   192
  0
VERTEX
  5
1240
  8
GUMA
 10
-1.669530622871598
 20
18.00000000000027
 30
-4.440973628153751
 70
   192
  0
VERTEX
  5
1241
  8
GUMA
 10
-3.572501367867876
 20
18.00000000000027
 30
-4.531711905435644
 70
   192
  0
VERTEX
  5
1242
  8
GUMA
 10
-5.475472112864162
 20
18.00000000000027
 30
-4.440973628153751
 70
   192
  0
VERTEX
  5
1243
  8
GUMA
 10
-7.361175629148567
 20
18.00000000000027
 30
-4.169582139804474
 70
   192
  0
VERTEX
  5
1244
  8
GUMA
 10
-9.21250136786788
 20
18.00000000000027
 30
-3.719999999999996
 70
   192
  0
VERTEX
  5
1245
  8
GUMA
 10
-9.212501367867876
 20
18.00000000000027
 30
-2.999999999999996
 70
   192
  0
VERTEX
  5
1246
  8
GUMA
 10
-7.361175629148565
 20
18.00000000000027
 30
-3.449582139804473
 70
   192
  0
VERTEX
  5
1247
  8
GUMA
 10
-5.475472112864159
 20
18.00000000000027
 30
-3.72097362815375
 70
   192
  0
VERTEX
  5
1248
  8
GUMA
 10
-3.572501367867881
 20
18.00000000000027
 30
-3.811711905435644
 70
   192
  0
VERTEX
  5
1249
  8
GUMA
 10
-1.669530622871603
 20
18.00000000000027
 30
-3.72097362815375
 70
   192
  0
VERTEX
  5
124A
  8
GUMA
 10
0.2161728934128031
 20
18.00000000000027
 30
-3.449582139804473
 70
   192
  0
VERTEX
  5
124B
  8
GUMA
 10
2.06749863213212
 20
18.00000000000027
 30
-2.999999999999997
 70
   192
  0
VERTEX
  5
124C
  8
GUMA
 10
2.067498632132121
 20
18.00000000000027
 30
3.720000000000006
 70
   192
  0
VERTEX
  5
124D
  8
GUMA
 10
11.78749863213212
 20
18.00000000000027
 30
3.720000000000006
 70
   192
  0
VERTEX
  5
124E
  8
GUMA
 10
0.0
 20
0.0
 30
0.0
 70
   128
 71
    14
 72
    13
 73
   -12
  0
VERTEX
  5
124F
  8
GUMA
 10
0.0
 20
0.0
 30
0.0
 70
   128
 71
   -14
 72
    12
 73
   -11
  0
VERTEX
  5
1250
  8
GUMA
 10
0.0
 20
0.0
 30
0.0
 70
   128
 71
    11
 72
   -10
 73
   -15
  0
VERTEX
  5
1251
  8
GUMA
 10
0.0
 20
0.0
 30
0.0
 70
   128
 71
   -11
 72
    15
 73
   -14
  0
VERTEX
  5
1252
  8
GUMA
 10
0.0
 20
0.0
 30
0.0
 70
   128
 71
    10
 72
    -9
 73
   -16
  0
VERTEX
  5
1253
  8
GUMA
 10
0.0
 20
0.0
 30
0.0
 70
   128
 71
   -10
 72
    16
 73
   -15
  0
VERTEX
  5
1254
  8
GUMA
 10
0.0
 20
0.0
 30
0.0
 70
   128
 71
     9
 72
    -8
 73
   -17
  0
VERTEX
  5
1255
  8
GUMA
 10
0.0
 20
0.0
 30
0.0
 70
   128
 71
    -9
 72
    17
 73
   -16
  0
VERTEX
  5
1256
  8
GUMA
 10
0.0
 20
0.0
 30
0.0
 70
   128
 71
     8
 72
    -7
 73
   -18
  0
VERTEX
  5
1257
  8
GUMA
 10
0.0
 20
0.0
 30
0.0
 70
   128
 71
    -8
 72
    18
 73
   -17
  0
VERTEX
  5
1258
  8
GUMA
 10
0.0
 20
0.0
 30
0.0
 70
   128
 71
     7
 72
    -6
 73
   -19
  0
VERTEX
  5
1259
  8
GUMA
 10
0.0
 20
0.0
 30
0.0
 70
   128
 71
    -7
 72
    19
 73
   -18
  0
VERTEX
  5
125A
  8
GUMA
 10
0.0
 20
0.0
 30
0.0
 70
   128
 71
     2
 72
     1
 73
   -21
  0
VERTEX
  5
125B
  8
GUMA
 10
0.0
 20
0.0
 30
0.0
 70
   128
 71
    -2
 72
    21
 73
   -20
  0
VERTEX
  5
125C
  8
GUMA
 10
0.0
 20
0.0
 30
0.0
 70
   128
 71
    20
 72
   -19
 73
    -3
  0
VERTEX
  5
125D
  8
GUMA
 10
0.0
 20
0.0
 30
0.0
 70
   128
 71
   -20
 72
     3
 73
    -2
  0
VERTEX
  5
125E
  8
GUMA
 10
0.0
 20
0.0
 30
0.0
 70
   128
 71
    -3
 72
   -19
 73
    -6
  0
VERTEX
  5
125F
  8
GUMA
 10
0.0
 20
0.0
 30
0.0
 70
   128
 71
     6
 72
     5
 73
    -4
  0
VERTEX
  5
1260
  8
GUMA
 10
0.0
 20
0.0
 30
0.0
 70
   128
 71
    -6
 72
     4
 73
    -3
  0
SEQEND
  5
16A8
  8
GUMA
  0
ENDBLK
  5
1699
  8
0
  0
BLOCK
  8
0
  2
*X8
 70
     1
 10
0.0
 20
0.0
 30
0.0
  3
*X8
  1

  0
POLYLINE
  5
1262
  8
RÁM
 66
     1
 10
0.0
 20
0.0
 30
0.0
 70
    64
 71
     8
 72
     6
  0
VERTEX
  5
1263
  8
RÁM
 10
4.763139720814412
 20
1771.5
 30
13.24999999999998
 70
   192
  0
VERTEX
  5
1264
  8
RÁM
 10
4.763139720814412
 20
1827.5
 30
13.24999999999997
 70
   192
  0
VERTEX
  5
1265
  8
RÁM
 10
2.749999999999999
 20
1827.5
 30
15.26313972081438
 70
   192
  0
VERTEX
  5
1266
  8
RÁM
 10
2.749999999999999
 20
1771.5
 30
15.26313972081439
 70
   192
  0
VERTEX
  5
1267
  8
RÁM
 10
5.5
 20
1771.5
 30
10.49999999999998
 70
   192
  0
VERTEX
  5
1268
  8
RÁM
 10
5.5
 20
1827.5
 30
10.49999999999997
 70
   192
  0
VERTEX
  5
1269
  8
RÁM
 10
-0.0000000000000007
 20
1827.5
 30
15.99999999999997
 70
   192
  0
VERTEX
  5
126A
  8
RÁM
 10
0.0
 20
1771.5
 30
15.99999999999998
 70
   192
  0
VERTEX
  5
126B
  8
RÁM
 10
0.0
 20
0.0
 30
0.0
 70
   128
 71
     1
 72
     2
 73
    -3
  0
VERTEX
  5
126C
  8
RÁM
 10
0.0
 20
0.0
 30
0.0
 70
   128
 71
    -1
 72
     3
 73
     4
  0
VERTEX
  5
126D
  8
RÁM
 10
0.0
 20
0.0
 30
0.0
 70
   128
 71
     5
 72
     6
 73
    -2
  0
VERTEX
  5
126E
  8
RÁM
 10
0.0
 20
0.0
 30
0.0
 70
   128
 71
    -5
 72
     2
 73
     1
  0
VERTEX
  5
126F
  8
RÁM
 10
0.0
 20
0.0
 30
0.0
 70
   128
 71
     4
 72
     3
 73
    -7
  0
VERTEX
  5
1270
  8
RÁM
 10
0.0
 20
0.0
 30
0.0
 70
   128
 71
    -4
 72
     7
 73
     8
  0
SEQEND
  5
16AB
  8
RÁM
  0
POLYLINE
  5
1271
  8
RÁM
 66
     1
 10
0.0
 20
0.0
 30
0.0
 70
    64
 71
     4
 72
     2
  0
VERTEX
  5
1272
  8
RÁM
 10
-41.00000000000006
 20
1771.5
 30
7.999999999999981
 70
   192
  0
VERTEX
  5
1273
  8
RÁM
 10
-5.5
 20
1771.5
 30
7.999999999999981
 70
   192
  0
VERTEX
  5
1274
  8
RÁM
 10
-5.5
 20
1827.5
 30
7.999999999999969
 70
   192
  0
VERTEX
  5
1275
  8
RÁM
 10
-41.00000000000006
 20
1827.5
 30
7.999999999999969
 70
   192
  0
VERTEX
  5
1276
  8
RÁM
 10
0.0
 20
0.0
 30
0.0
 70
   128
 71
     3
 72
     4
 73
    -1
  0
VERTEX
  5
1277
  8
RÁM
 10
0.0
 20
0.0
 30
0.0
 70
   128
 71
     2
 72
    -3
 73
     1
  0
SEQEND
  5
16AC
  8
RÁM
  0
POLYLINE
  5
1278
  8
RÁM
 66
     1
 10
0.0
 20
0.0
 30
0.0
 70
    64
 71
     4
 72
     2
  0
VERTEX
  5
1279
  8
RÁM
 10
-5.499999999999999
 20
1771.5
 30
7.999999999999981
 70
   192
  0
VERTEX
  5
127A
  8
RÁM
 10
-5.5
 20
1771.5
 30
10.49999999999998
 70
   192
  0
VERTEX
  5
127B
  8
RÁM
 10
-5.5
 20
1827.5
 30
10.49999999999997
 70
   192
  0
VERTEX
  5
127C
  8
RÁM
 10
-5.499999999999999
 20
1827.5
 30
7.999999999999969
 70
   192
  0
VERTEX
  5
127D
  8
RÁM
 10
0.0
 20
0.0
 30
0.0
 70
   128
 71
     3
 72
     4
 73
    -1
  0
VERTEX
  5
127E
  8
RÁM
 10
0.0
 20
0.0
 30
0.0
 70
   128
 71
     2
 72
    -3
 73
     1
  0
SEQEND
  5
16AD
  8
RÁM
  0
POLYLINE
  5
127F
  8
RÁM
 66
     1
 10
0.0
 20
0.0
 30
0.0
 70
    64
 71
     8
 72
     6
  0
VERTEX
  5
1280
  8
RÁM
 10
-2.750000000000002
 20
1771.5
 30
15.26313972081439
 70
   192
  0
VERTEX
  5
1281
  8
RÁM
 10
-2.750000000000002
 20
1827.5
 30
15.26313972081438
 70
   192
  0
VERTEX
  5
1282
  8
RÁM
 10
-4.763139720814413
 20
1827.5
 30
13.24999999999997
 70
   192
  0
VERTEX
  5
1283
  8
RÁM
 10
-4.763139720814413
 20
1771.5
 30
13.24999999999998
 70
   192
  0
VERTEX
  5
1284
  8
RÁM
 10
-0.0000000000000007
 20
1771.5
 30
15.99999999999998
 70
   192
  0
VERTEX
  5
1285
  8
RÁM
 10
0.0
 20
1827.5
 30
15.99999999999997
 70
   192
  0
VERTEX
  5
1286
  8
RÁM
 10
-5.5
 20
1827.5
 30
10.49999999999997
 70
   192
  0
VERTEX
  5
1287
  8
RÁM
 10
-5.5
 20
1771.5
 30
10.49999999999998
 70
   192
  0
VERTEX
  5
1288
  8
RÁM
 10
0.0
 20
0.0
 30
0.0
 70
   128
 71
     1
 72
     2
 73
    -3
  0
VERTEX
  5
1289
  8
RÁM
 10
0.0
 20
0.0
 30
0.0
 70
   128
 71
    -1
 72
     3
 73
     4
  0
VERTEX
  5
128A
  8
RÁM
 10
0.0
 20
0.0
 30
0.0
 70
   128
 71
     5
 72
     6
 73
    -2
  0
VERTEX
  5
128B
  8
RÁM
 10
0.0
 20
0.0
 30
0.0
 70
   128
 71
    -5
 72
     2
 73
     1
  0
VERTEX
  5
128C
  8
RÁM
 10
0.0
 20
0.0
 30
0.0
 70
   128
 71
     4
 72
     3
 73
    -7
  0
VERTEX
  5
128D
  8
RÁM
 10
0.0
 20
0.0
 30
0.0
 70
   128
 71
    -4
 72
     7
 73
     8
  0
SEQEND
  5
16AE
  8
RÁM
  0
POLYLINE
  5
128E
  8
RÁM
 66
     1
 10
0.0
 20
0.0
 30
0.0
 70
    64
 71
     4
 72
     2
  0
VERTEX
  5
128F
  8
RÁM
 10
5.5
 20
1771.5
 30
10.49999999999998
 70
   192
  0
VERTEX
  5
1290
  8
RÁM
 10
5.5
 20
1827.5
 30
10.49999999999997
 70
   192
  0
VERTEX
  5
1291
  8
RÁM
 10
5.5
 20
1827.5
 30
7.999999999999969
 70
   192
  0
VERTEX
  5
1292
  8
RÁM
 10
5.499999999999999
 20
1771.5
 30
7.999999999999981
 70
   192
  0
VERTEX
  5
1293
  8
RÁM
 10
0.0
 20
0.0
 30
0.0
 70
   128
 71
     1
 72
     4
 73
    -3
  0
VERTEX
  5
1294
  8
RÁM
 10
0.0
 20
0.0
 30
0.0
 70
   128
 71
    -1
 72
     3
 73
     2
  0
SEQEND
  5
16AF
  8
RÁM
  0
POLYLINE
  5
1295
  8
RÁM
 66
     1
 10
0.0
 20
0.0
 30
0.0
 70
    64
 71
     4
 72
     2
  0
VERTEX
  5
1296
  8
RÁM
 10
5.5
 20
1771.5
 30
7.999999999999981
 70
   192
  0
VERTEX
  5
1297
  8
RÁM
 10
40.99999999999994
 20
1771.5
 30
7.999999999999981
 70
   192
  0
VERTEX
  5
1298
  8
RÁM
 10
40.99999999999994
 20
1827.5
 30
7.999999999999969
 70
   192
  0
VERTEX
  5
1299
  8
RÁM
 10
5.5
 20
1827.5
 30
7.999999999999969
 70
   192
  0
VERTEX
  5
129A
  8
RÁM
 10
0.0
 20
0.0
 30
0.0
 70
   128
 71
     3
 72
     4
 73
    -1
  0
VERTEX
  5
129B
  8
RÁM
 10
0.0
 20
0.0
 30
0.0
 70
   128
 71
     2
 72
    -3
 73
     1
  0
SEQEND
  5
16B0
  8
RÁM
  0
POLYLINE
  5
129C
  8
RÁM
 66
     1
 10
0.0
 20
0.0
 30
0.0
 70
    64
 71
     4
 72
     2
  0
VERTEX
  5
129D
  8
RÁM
 10
40.99999999999994
 20
1771.5
 30
7.999999999999981
 70
   192
  0
VERTEX
  5
129E
  8
RÁM
 10
40.99999999999994
 20
1771.5
 30
2.999999999999982
 70
   192
  0
VERTEX
  5
129F
  8
RÁM
 10
40.99999999999994
 20
1827.5
 30
2.999999999999968
 70
   192
  0
VERTEX
  5
12A0
  8
RÁM
 10
40.99999999999994
 20
1827.5
 30
7.999999999999969
 70
   192
  0
VERTEX
  5
12A1
  8
RÁM
 10
0.0
 20
0.0
 30
0.0
 70
   128
 71
     3
 72
     4
 73
    -1
  0
VERTEX
  5
12A2
  8
RÁM
 10
0.0
 20
0.0
 30
0.0
 70
   128
 71
     2
 72
    -3
 73
     1
  0
SEQEND
  5
16B1
  8
RÁM
  0
POLYLINE
  5
12A3
  8
RÁM
 66
     1
 10
0.0
 20
0.0
 30
0.0
 70
    64
 71
     4
 72
     2
  0
VERTEX
  5
12A4
  8
RÁM
 10
40.99999999999994
 20
1771.5
 30
2.999999999999981
 70
   192
  0
VERTEX
  5
12A5
  8
RÁM
 10
40.99999999999994
 20
1827.5
 30
2.999999999999968
 70
   192
  0
VERTEX
  5
12A6
  8
RÁM
 10
15.99999999999994
 20
1827.5
 30
2.999999999999968
 70
   192
  0
VERTEX
  5
12A7
  8
RÁM
 10
15.99999999999994
 20
1771.5
 30
2.999999999999981
 70
   192
  0
VERTEX
  5
12A8
  8
RÁM
 10
0.0
 20
0.0
 30
0.0
 70
   128
 71
     1
 72
     4
 73
    -3
  0
VERTEX
  5
12A9
  8
RÁM
 10
0.0
 20
0.0
 30
0.0
 70
   128
 71
    -1
 72
     3
 73
     2
  0
SEQEND
  5
16B2
  8
RÁM
  0
POLYLINE
  5
12AA
  8
RÁM
 66
     1
 10
0.0
 20
0.0
 30
0.0
 70
    64
 71
     4
 72
     2
  0
VERTEX
  5
12AB
  8
RÁM
 10
15.99999999999994
 20
1771.5
 30
2.999999999999981
 70
   192
  0
VERTEX
  5
12AC
  8
RÁM
 10
15.99999999999994
 20
1827.5
 30
2.999999999999968
 70
   192
  0
VERTEX
  5
12AD
  8
RÁM
 10
15.99999999999994
 20
1827.5
 30
4.999999999999969
 70
   192
  0
VERTEX
  5
12AE
  8
RÁM
 10
15.99999999999994
 20
1771.5
 30
4.999999999999981
 70
   192
  0
VERTEX
  5
12AF
  8
RÁM
 10
0.0
 20
0.0
 30
0.0
 70
   128
 71
     1
 72
     4
 73
    -3
  0
VERTEX
  5
12B0
  8
RÁM
 10
0.0
 20
0.0
 30
0.0
 70
   128
 71
    -1
 72
     3
 73
     2
  0
SEQEND
  5
16B3
  8
RÁM
  0
POLYLINE
  5
12B1
  8
RÁM
 66
     1
 10
0.0
 20
0.0
 30
0.0
 70
    64
 71
     4
 72
     2
  0
VERTEX
  5
12B2
  8
RÁM
 10
15.99999999999994
 20
1771.5
 30
4.999999999999981
 70
   192
  0
VERTEX
  5
12B3
  8
RÁM
 10
15.99999999999994
 20
1827.5
 30
4.999999999999969
 70
   192
  0
VERTEX
  5
12B4
  8
RÁM
 10
-15.99999999999994
 20
1827.5
 30
4.999999999999969
 70
   192
  0
VERTEX
  5
12B5
  8
RÁM
 10
-15.99999999999994
 20
1771.5
 30
4.999999999999981
 70
   192
  0
VERTEX
  5
12B6
  8
RÁM
 10
0.0
 20
0.0
 30
0.0
 70
   128
 71
     1
 72
     4
 73
    -3
  0
VERTEX
  5
12B7
  8
RÁM
 10
0.0
 20
0.0
 30
0.0
 70
   128
 71
    -1
 72
     3
 73
     2
  0
SEQEND
  5
16B4
  8
RÁM
  0
POLYLINE
  5
12B8
  8
RÁM
 66
     1
 10
0.0
 20
0.0
 30
0.0
 70
    64
 71
     4
 72
     2
  0
VERTEX
  5
12B9
  8
RÁM
 10
-15.99999999999994
 20
1771.5
 30
4.999999999999981
 70
   192
  0
VERTEX
  5
12BA
  8
RÁM
 10
-15.99999999999994
 20
1827.5
 30
4.999999999999969
 70
   192
  0
VERTEX
  5
12BB
  8
RÁM
 10
-15.99999999999994
 20
1827.5
 30
2.999999999999968
 70
   192
  0
VERTEX
  5
12BC
  8
RÁM
 10
-15.99999999999994
 20
1771.5
 30
2.999999999999981
 70
   192
  0
VERTEX
  5
12BD
  8
RÁM
 10
0.0
 20
0.0
 30
0.0
 70
   128
 71
     1
 72
     4
 73
    -3
  0
VERTEX
  5
12BE
  8
RÁM
 10
0.0
 20
0.0
 30
0.0
 70
   128
 71
    -1
 72
     3
 73
     2
  0
SEQEND
  5
16B5
  8
RÁM
  0
POLYLINE
  5
12BF
  8
RÁM
 66
     1
 10
0.0
 20
0.0
 30
0.0
 70
    64
 71
     4
 72
     2
  0
VERTEX
  5
12C0
  8
RÁM
 10
-15.99999999999994
 20
1771.5
 30
2.999999999999981
 70
   192
  0
VERTEX
  5
12C1
  8
RÁM
 10
-15.99999999999994
 20
1827.5
 30
2.999999999999968
 70
   192
  0
VERTEX
  5
12C2
  8
RÁM
 10
-41.00000000000006
 20
1827.5
 30
2.999999999999968
 70
   192
  0
VERTEX
  5
12C3
  8
RÁM
 10
-41.00000000000006
 20
1771.5
 30
2.999999999999981
 70
   192
  0
VERTEX
  5
12C4
  8
RÁM
 10
0.0
 20
0.0
 30
0.0
 70
   128
 71
     1
 72
     4
 73
    -3
  0
VERTEX
  5
12C5
  8
RÁM
 10
0.0
 20
0.0
 30
0.0
 70
   128
 71
    -1
 72
     3
 73
     2
  0
SEQEND
  5
16B6
  8
RÁM
  0
POLYLINE
  5
12C6
  8
RÁM
 66
     1
 10
0.0
 20
0.0
 30
0.0
 70
    64
 71
     4
 72
     2
  0
VERTEX
  5
12C7
  8
RÁM
 10
-41.00000000000006
 20
1771.5
 30
2.999999999999981
 70
   192
  0
VERTEX
  5
12C8
  8
RÁM
 10
-41.00000000000006
 20
1827.5
 30
2.999999999999968
 70
   192
  0
VERTEX
  5
12C9
  8
RÁM
 10
-41.00000000000006
 20
1827.5
 30
7.999999999999969
 70
   192
  0
VERTEX
  5
12CA
  8
RÁM
 10
-41.00000000000006
 20
1771.5
 30
7.999999999999981
 70
   192
  0
VERTEX
  5
12CB
  8
RÁM
 10
0.0
 20
0.0
 30
0.0
 70
   128
 71
     1
 72
     4
 73
    -3
  0
VERTEX
  5
12CC
  8
RÁM
 10
0.0
 20
0.0
 30
0.0
 70
   128
 71
    -1
 72
     3
 73
     2
  0
SEQEND
  5
16B7
  8
RÁM
  0
POLYLINE
  5
12CD
  8
RÁM
 66
     1
 10
0.0
 20
0.0
 30
0.0
 70
    64
 71
    17
 72
    15
  0
VERTEX
  5
12CE
  8
RÁM
 10
-41.00000000000006
 20
1827.5
 30
7.999999999999969
 70
   192
  0
VERTEX
  5
12CF
  8
RÁM
 10
-5.5
 20
1827.5
 30
7.999999999999969
 70
   192
  0
VERTEX
  5
12D0
  8
RÁM
 10
-5.5
 20
1827.5
 30
10.49999999999997
 70
   192
  0
VERTEX
  5
12D1
  8
RÁM
 10
-4.763139720814413
 20
1827.5
 30
13.24999999999997
 70
   192
  0
VERTEX
  5
12D2
  8
RÁM
 10
-2.750000000000002
 20
1827.5
 30
15.26313972081438
 70
   192
  0
VERTEX
  5
12D3
  8
RÁM
 10
-0.0000000000000007
 20
1827.5
 30
15.99999999999997
 70
   192
  0
VERTEX
  5
12D4
  8
RÁM
 10
2.749999999999999
 20
1827.5
 30
15.26313972081438
 70
   192
  0
VERTEX
  5
12D5
  8
RÁM
 10
4.763139720814412
 20
1827.5
 30
13.24999999999997
 70
   192
  0
VERTEX
  5
12D6
  8
RÁM
 10
5.5
 20
1827.5
 30
10.49999999999997
 70
   192
  0
VERTEX
  5
12D7
  8
RÁM
 10
5.499999999999999
 20
1827.5
 30
7.999999999999969
 70
   192
  0
VERTEX
  5
12D8
  8
RÁM
 10
40.99999999999994
 20
1827.5
 30
7.999999999999969
 70
   192
  0
VERTEX
  5
12D9
  8
RÁM
 10
40.99999999999994
 20
1827.5
 30
2.999999999999968
 70
   192
  0
VERTEX
  5
12DA
  8
RÁM
 10
15.99999999999994
 20
1827.5
 30
2.999999999999968
 70
   192
  0
VERTEX
  5
12DB
  8
RÁM
 10
15.99999999999994
 20
1827.5
 30
4.999999999999969
 70
   192
  0
VERTEX
  5
12DC
  8
RÁM
 10
-15.99999999999994
 20
1827.5
 30
4.999999999999969
 70
   192
  0
VERTEX
  5
12DD
  8
RÁM
 10
-15.99999999999994
 20
1827.5
 30
2.999999999999968
 70
   192
  0
VERTEX
  5
12DE
  8
RÁM
 10
-41.00000000000006
 20
1827.5
 30
2.999999999999968
 70
   192
  0
VERTEX
  5
12DF
  8
RÁM
 10
0.0
 20
0.0
 30
0.0
 70
   128
 71
    12
 72
    13
 73
   -14
  0
VERTEX
  5
12E0
  8
RÁM
 10
0.0
 20
0.0
 30
0.0
 70
   128
 71
     8
 72
     9
 73
   -10
  0
VERTEX
  5
12E1
  8
RÁM
 10
0.0
 20
0.0
 30
0.0
 70
   128
 71
     7
 72
    -8
 73
   -10
  0
VERTEX
  5
12E2
  8
RÁM
 10
0.0
 20
0.0
 30
0.0
 70
   128
 71
     6
 72
    -7
 73
   -10
  0
VERTEX
  5
12E3
  8
RÁM
 10
0.0
 20
0.0
 30
0.0
 70
   128
 71
     5
 72
    -6
 73
   -10
  0
VERTEX
  5
12E4
  8
RÁM
 10
0.0
 20
0.0
 30
0.0
 70
   128
 71
     4
 72
    -5
 73
   -10
  0
VERTEX
  5
12E5
  8
RÁM
 10
0.0
 20
0.0
 30
0.0
 70
   128
 71
     3
 72
    -4
 73
   -10
  0
VERTEX
  5
12E6
  8
RÁM
 10
0.0
 20
0.0
 30
0.0
 70
   128
 71
     2
 72
    -3
 73
   -10
  0
VERTEX
  5
12E7
  8
RÁM
 10
0.0
 20
0.0
 30
0.0
 70
   128
 71
    11
 72
   -12
 73
   -14
  0
VERTEX
  5
12E8
  8
RÁM
 10
0.0
 20
0.0
 30
0.0
 70
   128
 71
    10
 72
   -11
 73
   -14
  0
VERTEX
  5
12E9
  8
RÁM
 10
0.0
 20
0.0
 30
0.0
 70
   128
 71
   -15
 72
    -2
 73
   -10
  0
VERTEX
  5
12EA
  8
RÁM
 10
0.0
 20
0.0
 30
0.0
 70
   128
 71
    14
 72
   -15
 73
   -10
  0
VERTEX
  5
12EB
  8
RÁM
 10
0.0
 20
0.0
 30
0.0
 70
   128
 71
    17
 72
     1
 73
    -2
  0
VERTEX
  5
12EC
  8
RÁM
 10
0.0
 20
0.0
 30
0.0
 70
   128
 71
   -15
 72
   -17
 73
    -2
  0
VERTEX
  5
12ED
  8
RÁM
 10
0.0
 20
0.0
 30
0.0
 70
   128
 71
    15
 72
    16
 73
   -17
  0
SEQEND
  5
16B8
  8
RÁM
  0
POLYLINE
  5
12EE
  8
RÁM
 66
     1
 10
0.0
 20
0.0
 30
0.0
 70
    64
 71
    17
 72
    15
  0
VERTEX
  5
12EF
  8
RÁM
 10
-5.499999999999999
 20
1771.5
 30
7.999999999999981
 70
   192
  0
VERTEX
  5
12F0
  8
RÁM
 10
-5.5
 20
1771.5
 30
10.49999999999998
 70
   192
  0
VERTEX
  5
12F1
  8
RÁM
 10
-4.763139720814413
 20
1771.5
 30
13.24999999999998
 70
   192
  0
VERTEX
  5
12F2
  8
RÁM
 10
-2.750000000000002
 20
1771.5
 30
15.26313972081439
 70
   192
  0
VERTEX
  5
12F3
  8
RÁM
 10
-0.0000000000000007
 20
1771.5
 30
15.99999999999998
 70
   192
  0
VERTEX
  5
12F4
  8
RÁM
 10
2.749999999999999
 20
1771.5
 30
15.26313972081439
 70
   192
  0
VERTEX
  5
12F5
  8
RÁM
 10
4.763139720814412
 20
1771.5
 30
13.24999999999998
 70
   192
  0
VERTEX
  5
12F6
  8
RÁM
 10
5.5
 20
1771.5
 30
10.49999999999998
 70
   192
  0
VERTEX
  5
12F7
  8
RÁM
 10
5.5
 20
1771.5
 30
7.999999999999981
 70
   192
  0
VERTEX
  5
12F8
  8
RÁM
 10
40.99999999999994
 20
1771.5
 30
7.999999999999981
 70
   192
  0
VERTEX
  5
12F9
  8
RÁM
 10
40.99999999999994
 20
1771.5
 30
2.999999999999981
 70
   192
  0
VERTEX
  5
12FA
  8
RÁM
 10
15.99999999999994
 20
1771.5
 30
2.999999999999981
 70
   192
  0
VERTEX
  5
12FB
  8
RÁM
 10
15.99999999999994
 20
1771.5
 30
4.999999999999981
 70
   192
  0
VERTEX
  5
12FC
  8
RÁM
 10
-15.99999999999994
 20
1771.5
 30
4.999999999999981
 70
   192
  0
VERTEX
  5
12FD
  8
RÁM
 10
-15.99999999999994
 20
1771.5
 30
2.999999999999981
 70
   192
  0
VERTEX
  5
12FE
  8
RÁM
 10
-41.00000000000006
 20
1771.5
 30
2.999999999999982
 70
   192
  0
VERTEX
  5
12FF
  8
RÁM
 10
-41.00000000000006
 20
1771.5
 30
7.999999999999981
 70
   192
  0
VERTEX
  5
1300
  8
RÁM
 10
0.0
 20
0.0
 30
0.0
 70
   128
 71
    13
 72
    12
 73
   -11
  0
VERTEX
  5
1301
  8
RÁM
 10
0.0
 20
0.0
 30
0.0
 70
   128
 71
   -11
 72
    -1
 73
   -13
  0
VERTEX
  5
1302
  8
RÁM
 10
0.0
 20
0.0
 30
0.0
 70
   128
 71
    -1
 72
    14
 73
   -13
  0
VERTEX
  5
1303
  8
RÁM
 10
0.0
 20
0.0
 30
0.0
 70
   128
 71
     1
 72
    17
 73
   -16
  0
VERTEX
  5
1304
  8
RÁM
 10
0.0
 20
0.0
 30
0.0
 70
   128
 71
    -1
 72
   -16
 73
   -14
  0
VERTEX
  5
1305
  8
RÁM
 10
0.0
 20
0.0
 30
0.0
 70
   128
 71
    16
 72
    15
 73
   -14
  0
VERTEX
  5
1306
  8
RÁM
 10
0.0
 20
0.0
 30
0.0
 70
   128
 71
     9
 72
     8
 73
    -7
  0
VERTEX
  5
1307
  8
RÁM
 10
0.0
 20
0.0
 30
0.0
 70
   128
 71
    -9
 72
     7
 73
    -6
  0
VERTEX
  5
1308
  8
RÁM
 10
0.0
 20
0.0
 30
0.0
 70
   128
 71
    -9
 72
     6
 73
    -5
  0
VERTEX
  5
1309
  8
RÁM
 10
0.0
 20
0.0
 30
0.0
 70
   128
 71
    -9
 72
     5
 73
    -4
  0
VERTEX
  5
130A
  8
RÁM
 10
0.0
 20
0.0
 30
0.0
 70
   128
 71
    -9
 72
     4
 73
    -3
  0
VERTEX
  5
130B
  8
RÁM
 10
0.0
 20
0.0
 30
0.0
 70
   128
 71
    -9
 72
     3
 73
    -2
  0
VERTEX
  5
130C
  8
RÁM
 10
0.0
 20
0.0
 30
0.0
 70
   128
 71
    -9
 72
     2
 73
    -1
  0
VERTEX
  5
130D
  8
RÁM
 10
0.0
 20
0.0
 30
0.0
 70
   128
 71
    -9
 72
    -1
 73
   -11
  0
VERTEX
  5
130E
  8
RÁM
 10
0.0
 20
0.0
 30
0.0
 70
   128
 71
    11
 72
    10
 73
    -9
  0
SEQEND
  5
16B9
  8
RÁM
  0
ENDBLK
  5
16AA
  8
0
  0
BLOCK
  8
0
  2
*X9
 70
     1
 10
0.0
 20
0.0
 30
0.0
  3
*X9
  1

  0
POLYLINE
  5
1310
  8
RÁM
 66
     1
 10
0.0
 20
0.0
 30
0.0
 70
    64
 71
     8
 72
     6
  0
VERTEX
  5
1311
  8
RÁM
 10
4.763139720814412
 20
190.5
 30
13.24999999999998
 70
   192
  0
VERTEX
  5
1312
  8
RÁM
 10
4.763139720814412
 20
246.5
 30
13.24999999999996
 70
   192
  0
VERTEX
  5
1313
  8
RÁM
 10
2.749999999999999
 20
246.5
 30
15.26313972081437
 70
   192
  0
VERTEX
  5
1314
  8
RÁM
 10
2.749999999999999
 20
190.5
 30
15.26313972081439
 70
   192
  0
VERTEX
  5
1315
  8
RÁM
 10
5.5
 20
190.5
 30
10.49999999999998
 70
   192
  0
VERTEX
  5
1316
  8
RÁM
 10
5.5
 20
246.5
 30
10.49999999999996
 70
   192
  0
VERTEX
  5
1317
  8
RÁM
 10
-0.0000000000000007
 20
246.5
 30
15.99999999999996
 70
   192
  0
VERTEX
  5
1318
  8
RÁM
 10
0.0
 20
190.5
 30
15.99999999999997
 70
   192
  0
VERTEX
  5
1319
  8
RÁM
 10
0.0
 20
0.0
 30
0.0
 70
   128
 71
     1
 72
     2
 73
    -3
  0
VERTEX
  5
131A
  8
RÁM
 10
0.0
 20
0.0
 30
0.0
 70
   128
 71
    -1
 72
     3
 73
     4
  0
VERTEX
  5
131B
  8
RÁM
 10
0.0
 20
0.0
 30
0.0
 70
   128
 71
     5
 72
     6
 73
    -2
  0
VERTEX
  5
131C
  8
RÁM
 10
0.0
 20
0.0
 30
0.0
 70
   128
 71
    -5
 72
     2
 73
     1
  0
VERTEX
  5
131D
  8
RÁM
 10
0.0
 20
0.0
 30
0.0
 70
   128
 71
     4
 72
     3
 73
    -7
  0
VERTEX
  5
131E
  8
RÁM
 10
0.0
 20
0.0
 30
0.0
 70
   128
 71
    -4
 72
     7
 73
     8
  0
SEQEND
  5
16BC
  8
RÁM
  0
POLYLINE
  5
131F
  8
RÁM
 66
     1
 10
0.0
 20
0.0
 30
0.0
 70
    64
 71
     4
 72
     2
  0
VERTEX
  5
1320
  8
RÁM
 10
-41.00000000000006
 20
190.5
 30
7.999999999999974
 70
   192
  0
VERTEX
  5
1321
  8
RÁM
 10
-5.5
 20
190.5
 30
7.999999999999974
 70
   192
  0
VERTEX
  5
1322
  8
RÁM
 10
-5.5
 20
246.5
 30
7.999999999999962
 70
   192
  0
VERTEX
  5
1323
  8
RÁM
 10
-41.00000000000006
 20
246.5
 30
7.999999999999962
 70
   192
  0
VERTEX
  5
1324
  8
RÁM
 10
0.0
 20
0.0
 30
0.0
 70
   128
 71
     3
 72
     4
 73
    -1
  0
VERTEX
  5
1325
  8
RÁM
 10
0.0
 20
0.0
 30
0.0
 70
   128
 71
     2
 72
    -3
 73
     1
  0
SEQEND
  5
16BD
  8
RÁM
  0
POLYLINE
  5
1326
  8
RÁM
 66
     1
 10
0.0
 20
0.0
 30
0.0
 70
    64
 71
     4
 72
     2
  0
VERTEX
  5
1327
  8
RÁM
 10
-5.499999999999999
 20
190.5
 30
7.999999999999974
 70
   192
  0
VERTEX
  5
1328
  8
RÁM
 10
-5.5
 20
190.5
 30
10.49999999999997
 70
   192
  0
VERTEX
  5
1329
  8
RÁM
 10
-5.5
 20
246.5
 30
10.49999999999996
 70
   192
  0
VERTEX
  5
132A
  8
RÁM
 10
-5.499999999999999
 20
246.5
 30
7.999999999999962
 70
   192
  0
VERTEX
  5
132B
  8
RÁM
 10
0.0
 20
0.0
 30
0.0
 70
   128
 71
     3
 72
     4
 73
    -1
  0
VERTEX
  5
132C
  8
RÁM
 10
0.0
 20
0.0
 30
0.0
 70
   128
 71
     2
 72
    -3
 73
     1
  0
SEQEND
  5
16BE
  8
RÁM
  0
POLYLINE
  5
132D
  8
RÁM
 66
     1
 10
0.0
 20
0.0
 30
0.0
 70
    64
 71
     8
 72
     6
  0
VERTEX
  5
132E
  8
RÁM
 10
-2.750000000000002
 20
190.5
 30
15.26313972081438
 70
   192
  0
VERTEX
  5
132F
  8
RÁM
 10
-2.750000000000002
 20
246.5
 30
15.26313972081437
 70
   192
  0
VERTEX
  5
1330
  8
RÁM
 10
-4.763139720814413
 20
246.5
 30
13.24999999999996
 70
   192
  0
VERTEX
  5
1331
  8
RÁM
 10
-4.763139720814413
 20
190.5
 30
13.24999999999997
 70
   192
  0
VERTEX
  5
1332
  8
RÁM
 10
-0.0000000000000007
 20
190.5
 30
15.99999999999997
 70
   192
  0
VERTEX
  5
1333
  8
RÁM
 10
0.0
 20
246.5
 30
15.99999999999996
 70
   192
  0
VERTEX
  5
1334
  8
RÁM
 10
-5.5
 20
246.5
 30
10.49999999999996
 70
   192
  0
VERTEX
  5
1335
  8
RÁM
 10
-5.5
 20
190.5
 30
10.49999999999997
 70
   192
  0
VERTEX
  5
1336
  8
RÁM
 10
0.0
 20
0.0
 30
0.0
 70
   128
 71
     1
 72
     2
 73
    -3
  0
VERTEX
  5
1337
  8
RÁM
 10
0.0
 20
0.0
 30
0.0
 70
   128
 71
    -1
 72
     3
 73
     4
  0
VERTEX
  5
1338
  8
RÁM
 10
0.0
 20
0.0
 30
0.0
 70
   128
 71
     5
 72
     6
 73
    -2
  0
VERTEX
  5
1339
  8
RÁM
 10
0.0
 20
0.0
 30
0.0
 70
   128
 71
    -5
 72
     2
 73
     1
  0
VERTEX
  5
133A
  8
RÁM
 10
0.0
 20
0.0
 30
0.0
 70
   128
 71
     4
 72
     3
 73
    -7
  0
VERTEX
  5
133B
  8
RÁM
 10
0.0
 20
0.0
 30
0.0
 70
   128
 71
    -4
 72
     7
 73
     8
  0
SEQEND
  5
16BF
  8
RÁM
  0
POLYLINE
  5
133C
  8
RÁM
 66
     1
 10
0.0
 20
0.0
 30
0.0
 70
    64
 71
     4
 72
     2
  0
VERTEX
  5
133D
  8
RÁM
 10
5.5
 20
190.5
 30
10.49999999999997
 70
   192
  0
VERTEX
  5
133E
  8
RÁM
 10
5.5
 20
246.5
 30
10.49999999999996
 70
   192
  0
VERTEX
  5
133F
  8
RÁM
 10
5.5
 20
246.5
 30
7.999999999999962
 70
   192
  0
VERTEX
  5
1340
  8
RÁM
 10
5.499999999999999
 20
190.5
 30
7.999999999999974
 70
   192
  0
VERTEX
  5
1341
  8
RÁM
 10
0.0
 20
0.0
 30
0.0
 70
   128
 71
     1
 72
     4
 73
    -3
  0
VERTEX
  5
1342
  8
RÁM
 10
0.0
 20
0.0
 30
0.0
 70
   128
 71
    -1
 72
     3
 73
     2
  0
SEQEND
  5
16C0
  8
RÁM
  0
POLYLINE
  5
1343
  8
RÁM
 66
     1
 10
0.0
 20
0.0
 30
0.0
 70
    64
 71
     4
 72
     2
  0
VERTEX
  5
1344
  8
RÁM
 10
5.5
 20
190.5
 30
7.999999999999974
 70
   192
  0
VERTEX
  5
1345
  8
RÁM
 10
40.99999999999994
 20
190.5
 30
7.999999999999974
 70
   192
  0
VERTEX
  5
1346
  8
RÁM
 10
40.99999999999994
 20
246.5
 30
7.999999999999962
 70
   192
  0
VERTEX
  5
1347
  8
RÁM
 10
5.5
 20
246.5
 30
7.999999999999962
 70
   192
  0
VERTEX
  5
1348
  8
RÁM
 10
0.0
 20
0.0
 30
0.0
 70
   128
 71
     3
 72
     4
 73
    -1
  0
VERTEX
  5
1349
  8
RÁM
 10
0.0
 20
0.0
 30
0.0
 70
   128
 71
     2
 72
    -3
 73
     1
  0
SEQEND
  5
16C1
  8
RÁM
  0
POLYLINE
  5
134A
  8
RÁM
 66
     1
 10
0.0
 20
0.0
 30
0.0
 70
    64
 71
     4
 72
     2
  0
VERTEX
  5
134B
  8
RÁM
 10
40.99999999999994
 20
190.5
 30
7.999999999999974
 70
   192
  0
VERTEX
  5
134C
  8
RÁM
 10
40.99999999999994
 20
190.5
 30
2.999999999999975
 70
   192
  0
VERTEX
  5
134D
  8
RÁM
 10
40.99999999999994
 20
246.5
 30
2.999999999999961
 70
   192
  0
VERTEX
  5
134E
  8
RÁM
 10
40.99999999999994
 20
246.5
 30
7.999999999999962
 70
   192
  0
VERTEX
  5
134F
  8
RÁM
 10
0.0
 20
0.0
 30
0.0
 70
   128
 71
     3
 72
     4
 73
    -1
  0
VERTEX
  5
1350
  8
RÁM
 10
0.0
 20
0.0
 30
0.0
 70
   128
 71
     2
 72
    -3
 73
     1
  0
SEQEND
  5
16C2
  8
RÁM
  0
POLYLINE
  5
1351
  8
RÁM
 66
     1
 10
0.0
 20
0.0
 30
0.0
 70
    64
 71
     4
 72
     2
  0
VERTEX
  5
1352
  8
RÁM
 10
40.99999999999994
 20
190.5
 30
2.999999999999974
 70
   192
  0
VERTEX
  5
1353
  8
RÁM
 10
40.99999999999994
 20
246.5
 30
2.999999999999961
 70
   192
  0
VERTEX
  5
1354
  8
RÁM
 10
15.99999999999994
 20
246.5
 30
2.999999999999961
 70
   192
  0
VERTEX
  5
1355
  8
RÁM
 10
15.99999999999994
 20
190.5
 30
2.999999999999974
 70
   192
  0
VERTEX
  5
1356
  8
RÁM
 10
0.0
 20
0.0
 30
0.0
 70
   128
 71
     1
 72
     4
 73
    -3
  0
VERTEX
  5
1357
  8
RÁM
 10
0.0
 20
0.0
 30
0.0
 70
   128
 71
    -1
 72
     3
 73
     2
  0
SEQEND
  5
16C3
  8
RÁM
  0
POLYLINE
  5
1358
  8
RÁM
 66
     1
 10
0.0
 20
0.0
 30
0.0
 70
    64
 71
     4
 72
     2
  0
VERTEX
  5
1359
  8
RÁM
 10
15.99999999999994
 20
190.5
 30
2.999999999999974
 70
   192
  0
VERTEX
  5
135A
  8
RÁM
 10
15.99999999999994
 20
246.5
 30
2.999999999999961
 70
   192
  0
VERTEX
  5
135B
  8
RÁM
 10
15.99999999999994
 20
246.5
 30
4.999999999999962
 70
   192
  0
VERTEX
  5
135C
  8
RÁM
 10
15.99999999999994
 20
190.5
 30
4.999999999999974
 70
   192
  0
VERTEX
  5
135D
  8
RÁM
 10
0.0
 20
0.0
 30
0.0
 70
   128
 71
     1
 72
     4
 73
    -3
  0
VERTEX
  5
135E
  8
RÁM
 10
0.0
 20
0.0
 30
0.0
 70
   128
 71
    -1
 72
     3
 73
     2
  0
SEQEND
  5
16C4
  8
RÁM
  0
POLYLINE
  5
135F
  8
RÁM
 66
     1
 10
0.0
 20
0.0
 30
0.0
 70
    64
 71
     4
 72
     2
  0
VERTEX
  5
1360
  8
RÁM
 10
15.99999999999994
 20
190.5
 30
4.999999999999974
 70
   192
  0
VERTEX
  5
1361
  8
RÁM
 10
15.99999999999994
 20
246.5
 30
4.999999999999962
 70
   192
  0
VERTEX
  5
1362
  8
RÁM
 10
-15.99999999999994
 20
246.5
 30
4.999999999999962
 70
   192
  0
VERTEX
  5
1363
  8
RÁM
 10
-15.99999999999994
 20
190.5
 30
4.999999999999974
 70
   192
  0
VERTEX
  5
1364
  8
RÁM
 10
0.0
 20
0.0
 30
0.0
 70
   128
 71
     1
 72
     4
 73
    -3
  0
VERTEX
  5
1365
  8
RÁM
 10
0.0
 20
0.0
 30
0.0
 70
   128
 71
    -1
 72
     3
 73
     2
  0
SEQEND
  5
16C5
  8
RÁM
  0
POLYLINE
  5
1366
  8
RÁM
 66
     1
 10
0.0
 20
0.0
 30
0.0
 70
    64
 71
     4
 72
     2
  0
VERTEX
  5
1367
  8
RÁM
 10
-15.99999999999994
 20
190.5
 30
4.999999999999974
 70
   192
  0
VERTEX
  5
1368
  8
RÁM
 10
-15.99999999999994
 20
246.5
 30
4.999999999999962
 70
   192
  0
VERTEX
  5
1369
  8
RÁM
 10
-15.99999999999994
 20
246.5
 30
2.999999999999961
 70
   192
  0
VERTEX
  5
136A
  8
RÁM
 10
-15.99999999999994
 20
190.5
 30
2.999999999999974
 70
   192
  0
VERTEX
  5
136B
  8
RÁM
 10
0.0
 20
0.0
 30
0.0
 70
   128
 71
     1
 72
     4
 73
    -3
  0
VERTEX
  5
136C
  8
RÁM
 10
0.0
 20
0.0
 30
0.0
 70
   128
 71
    -1
 72
     3
 73
     2
  0
SEQEND
  5
16C6
  8
RÁM
  0
POLYLINE
  5
136D
  8
RÁM
 66
     1
 10
0.0
 20
0.0
 30
0.0
 70
    64
 71
     4
 72
     2
  0
VERTEX
  5
136E
  8
RÁM
 10
-15.99999999999994
 20
190.5
 30
2.999999999999974
 70
   192
  0
VERTEX
  5
136F
  8
RÁM
 10
-15.99999999999994
 20
246.5
 30
2.999999999999961
 70
   192
  0
VERTEX
  5
1370
  8
RÁM
 10
-41.00000000000006
 20
246.5
 30
2.999999999999961
 70
   192
  0
VERTEX
  5
1371
  8
RÁM
 10
-41.00000000000006
 20
190.5
 30
2.999999999999974
 70
   192
  0
VERTEX
  5
1372
  8
RÁM
 10
0.0
 20
0.0
 30
0.0
 70
   128
 71
     1
 72
     4
 73
    -3
  0
VERTEX
  5
1373
  8
RÁM
 10
0.0
 20
0.0
 30
0.0
 70
   128
 71
    -1
 72
     3
 73
     2
  0
SEQEND
  5
16C7
  8
RÁM
  0
POLYLINE
  5
1374
  8
RÁM
 66
     1
 10
0.0
 20
0.0
 30
0.0
 70
    64
 71
     4
 72
     2
  0
VERTEX
  5
1375
  8
RÁM
 10
-41.00000000000006
 20
190.5
 30
2.999999999999974
 70
   192
  0
VERTEX
  5
1376
  8
RÁM
 10
-41.00000000000006
 20
246.5
 30
2.999999999999961
 70
   192
  0
VERTEX
  5
1377
  8
RÁM
 10
-41.00000000000006
 20
246.5
 30
7.999999999999962
 70
   192
  0
VERTEX
  5
1378
  8
RÁM
 10
-41.00000000000006
 20
190.5
 30
7.999999999999974
 70
   192
  0
VERTEX
  5
1379
  8
RÁM
 10
0.0
 20
0.0
 30
0.0
 70
   128
 71
     1
 72
     4
 73
    -3
  0
VERTEX
  5
137A
  8
RÁM
 10
0.0
 20
0.0
 30
0.0
 70
   128
 71
    -1
 72
     3
 73
     2
  0
SEQEND
  5
16C8
  8
RÁM
  0
POLYLINE
  5
137B
  8
RÁM
 66
     1
 10
0.0
 20
0.0
 30
0.0
 70
    64
 71
    17
 72
    15
  0
VERTEX
  5
137C
  8
RÁM
 10
-41.00000000000006
 20
246.5
 30
7.999999999999962
 70
   192
  0
VERTEX
  5
137D
  8
RÁM
 10
-5.5
 20
246.5
 30
7.999999999999962
 70
   192
  0
VERTEX
  5
137E
  8
RÁM
 10
-5.5
 20
246.5
 30
10.49999999999996
 70
   192
  0
VERTEX
  5
137F
  8
RÁM
 10
-4.763139720814413
 20
246.5
 30
13.24999999999996
 70
   192
  0
VERTEX
  5
1380
  8
RÁM
 10
-2.750000000000002
 20
246.5
 30
15.26313972081437
 70
   192
  0
VERTEX
  5
1381
  8
RÁM
 10
-0.0000000000000007
 20
246.5
 30
15.99999999999996
 70
   192
  0
VERTEX
  5
1382
  8
RÁM
 10
2.749999999999999
 20
246.5
 30
15.26313972081437
 70
   192
  0
VERTEX
  5
1383
  8
RÁM
 10
4.763139720814412
 20
246.5
 30
13.24999999999996
 70
   192
  0
VERTEX
  5
1384
  8
RÁM
 10
5.5
 20
246.5
 30
10.49999999999996
 70
   192
  0
VERTEX
  5
1385
  8
RÁM
 10
5.499999999999999
 20
246.5
 30
7.999999999999962
 70
   192
  0
VERTEX
  5
1386
  8
RÁM
 10
40.99999999999994
 20
246.5
 30
7.999999999999962
 70
   192
  0
VERTEX
  5
1387
  8
RÁM
 10
40.99999999999994
 20
246.5
 30
2.999999999999961
 70
   192
  0
VERTEX
  5
1388
  8
RÁM
 10
15.99999999999994
 20
246.5
 30
2.999999999999961
 70
   192
  0
VERTEX
  5
1389
  8
RÁM
 10
15.99999999999994
 20
246.5
 30
4.999999999999962
 70
   192
  0
VERTEX
  5
138A
  8
RÁM
 10
-15.99999999999994
 20
246.5
 30
4.999999999999962
 70
   192
  0
VERTEX
  5
138B
  8
RÁM
 10
-15.99999999999994
 20
246.5
 30
2.999999999999961
 70
   192
  0
VERTEX
  5
138C
  8
RÁM
 10
-41.00000000000006
 20
246.5
 30
2.999999999999961
 70
   192
  0
VERTEX
  5
138D
  8
RÁM
 10
0.0
 20
0.0
 30
0.0
 70
   128
 71
    12
 72
    13
 73
   -14
  0
VERTEX
  5
138E
  8
RÁM
 10
0.0
 20
0.0
 30
0.0
 70
   128
 71
     8
 72
     9
 73
   -10
  0
VERTEX
  5
138F
  8
RÁM
 10
0.0
 20
0.0
 30
0.0
 70
   128
 71
     7
 72
    -8
 73
   -10
  0
VERTEX
  5
1390
  8
RÁM
 10
0.0
 20
0.0
 30
0.0
 70
   128
 71
     6
 72
    -7
 73
   -10
  0
VERTEX
  5
1391
  8
RÁM
 10
0.0
 20
0.0
 30
0.0
 70
   128
 71
     5
 72
    -6
 73
   -10
  0
VERTEX
  5
1392
  8
RÁM
 10
0.0
 20
0.0
 30
0.0
 70
   128
 71
     4
 72
    -5
 73
   -10
  0
VERTEX
  5
1393
  8
RÁM
 10
0.0
 20
0.0
 30
0.0
 70
   128
 71
     3
 72
    -4
 73
   -10
  0
VERTEX
  5
1394
  8
RÁM
 10
0.0
 20
0.0
 30
0.0
 70
   128
 71
     2
 72
    -3
 73
   -10
  0
VERTEX
  5
1395
  8
RÁM
 10
0.0
 20
0.0
 30
0.0
 70
   128
 71
    11
 72
   -12
 73
   -14
  0
VERTEX
  5
1396
  8
RÁM
 10
0.0
 20
0.0
 30
0.0
 70
   128
 71
    10
 72
   -11
 73
   -14
  0
VERTEX
  5
1397
  8
RÁM
 10
0.0
 20
0.0
 30
0.0
 70
   128
 71
   -15
 72
    -2
 73
   -10
  0
VERTEX
  5
1398
  8
RÁM
 10
0.0
 20
0.0
 30
0.0
 70
   128
 71
    14
 72
   -15
 73
   -10
  0
VERTEX
  5
1399
  8
RÁM
 10
0.0
 20
0.0
 30
0.0
 70
   128
 71
    17
 72
     1
 73
    -2
  0
VERTEX
  5
139A
  8
RÁM
 10
0.0
 20
0.0
 30
0.0
 70
   128
 71
   -15
 72
   -17
 73
    -2
  0
VERTEX
  5
139B
  8
RÁM
 10
0.0
 20
0.0
 30
0.0
 70
   128
 71
    15
 72
    16
 73
   -17
  0
SEQEND
  5
16C9
  8
RÁM
  0
POLYLINE
  5
139C
  8
RÁM
 66
     1
 10
0.0
 20
0.0
 30
0.0
 70
    64
 71
    17
 72
    15
  0
VERTEX
  5
139D
  8
RÁM
 10
-5.499999999999999
 20
190.5
 30
7.999999999999974
 70
   192
  0
VERTEX
  5
139E
  8
RÁM
 10
-5.5
 20
190.5
 30
10.49999999999997
 70
   192
  0
VERTEX
  5
139F
  8
RÁM
 10
-4.763139720814413
 20
190.5
 30
13.24999999999997
 70
   192
  0
VERTEX
  5
13A0
  8
RÁM
 10
-2.750000000000002
 20
190.5
 30
15.26313972081438
 70
   192
  0
VERTEX
  5
13A1
  8
RÁM
 10
-0.0000000000000007
 20
190.5
 30
15.99999999999997
 70
   192
  0
VERTEX
  5
13A2
  8
RÁM
 10
2.749999999999999
 20
190.5
 30
15.26313972081439
 70
   192
  0
VERTEX
  5
13A3
  8
RÁM
 10
4.763139720814412
 20
190.5
 30
13.24999999999998
 70
   192
  0
VERTEX
  5
13A4
  8
RÁM
 10
5.5
 20
190.5
 30
10.49999999999997
 70
   192
  0
VERTEX
  5
13A5
  8
RÁM
 10
5.5
 20
190.5
 30
7.999999999999974
 70
   192
  0
VERTEX
  5
13A6
  8
RÁM
 10
40.99999999999994
 20
190.5
 30
7.999999999999974
 70
   192
  0
VERTEX
  5
13A7
  8
RÁM
 10
40.99999999999994
 20
190.5
 30
2.999999999999974
 70
   192
  0
VERTEX
  5
13A8
  8
RÁM
 10
15.99999999999994
 20
190.5
 30
2.999999999999974
 70
   192
  0
VERTEX
  5
13A9
  8
RÁM
 10
15.99999999999994
 20
190.5
 30
4.999999999999974
 70
   192
  0
VERTEX
  5
13AA
  8
RÁM
 10
-15.99999999999994
 20
190.5
 30
4.999999999999974
 70
   192
  0
VERTEX
  5
13AB
  8
RÁM
 10
-15.99999999999994
 20
190.5
 30
2.999999999999974
 70
   192
  0
VERTEX
  5
13AC
  8
RÁM
 10
-41.00000000000006
 20
190.5
 30
2.999999999999975
 70
   192
  0
VERTEX
  5
13AD
  8
RÁM
 10
-41.00000000000006
 20
190.5
 30
7.999999999999974
 70
   192
  0
VERTEX
  5
13AE
  8
RÁM
 10
0.0
 20
0.0
 30
0.0
 70
   128
 71
    13
 72
    12
 73
   -11
  0
VERTEX
  5
13AF
  8
RÁM
 10
0.0
 20
0.0
 30
0.0
 70
   128
 71
   -11
 72
    -1
 73
   -13
  0
VERTEX
  5
13B0
  8
RÁM
 10
0.0
 20
0.0
 30
0.0
 70
   128
 71
    -1
 72
    14
 73
   -13
  0
VERTEX
  5
13B1
  8
RÁM
 10
0.0
 20
0.0
 30
0.0
 70
   128
 71
     1
 72
    17
 73
   -16
  0
VERTEX
  5
13B2
  8
RÁM
 10
0.0
 20
0.0
 30
0.0
 70
   128
 71
    -1
 72
   -16
 73
   -14
  0
VERTEX
  5
13B3
  8
RÁM
 10
0.0
 20
0.0
 30
0.0
 70
   128
 71
    16
 72
    15
 73
   -14
  0
VERTEX
  5
13B4
  8
RÁM
 10
0.0
 20
0.0
 30
0.0
 70
   128
 71
     9
 72
     8
 73
    -7
  0
VERTEX
  5
13B5
  8
RÁM
 10
0.0
 20
0.0
 30
0.0
 70
   128
 71
    -9
 72
     7
 73
    -6
  0
VERTEX
  5
13B6
  8
RÁM
 10
0.0
 20
0.0
 30
0.0
 70
   128
 71
    -9
 72
     6
 73
    -5
  0
VERTEX
  5
13B7
  8
RÁM
 10
0.0
 20
0.0
 30
0.0
 70
   128
 71
    -9
 72
     5
 73
    -4
  0
VERTEX
  5
13B8
  8
RÁM
 10
0.0
 20
0.0
 30
0.0
 70
   128
 71
    -9
 72
     4
 73
    -3
  0
VERTEX
  5
13B9
  8
RÁM
 10
0.0
 20
0.0
 30
0.0
 70
   128
 71
    -9
 72
     3
 73
    -2
  0
VERTEX
  5
13BA
  8
RÁM
 10
0.0
 20
0.0
 30
0.0
 70
   128
 71
    -9
 72
     2
 73
    -1
  0
VERTEX
  5
13BB
  8
RÁM
 10
0.0
 20
0.0
 30
0.0
 70
   128
 71
    -9
 72
    -1
 73
   -11
  0
VERTEX
  5
13BC
  8
RÁM
 10
0.0
 20
0.0
 30
0.0
 70
   128
 71
    11
 72
    10
 73
    -9
  0
SEQEND
  5
16CA
  8
RÁM
  0
ENDBLK
  5
16BB
  8
0
  0
BLOCK
  8
0
  2
*X10
 70
     1
 10
0.0
 20
0.0
 30
0.0
  3
*X10
  1

  0
POLYLINE
  5
13BE
  8
RÁM
 66
     1
 10
0.0
 20
0.0
 30
0.0
 70
    64
 71
    10
 72
     8
  0
VERTEX
  5
13BF
  8
RÁM
 10
28.49999999999995
 20
1815.5
 30
-8.300000000000033
 70
   192
  0
VERTEX
  5
13C0
  8
RÁM
 10
22.49999999999995
 20
1815.5
 30
-7.500000000000036
 70
   192
  0
VERTEX
  5
13C1
  8
RÁM
 10
34.49999999999978
 20
1815.5
 30
-7.500000000000031
 70
   192
  0
VERTEX
  5
13C2
  8
RÁM
 10
28.49999999999986
 20
1821.5
 30
-7.500000000000031
 70
   192
  0
VERTEX
  5
13C3
  8
RÁM
 10
32.74264068711909
 20
1819.742640687119
 30
-7.500000000000031
 70
   192
  0
VERTEX
  5
13C4
  8
RÁM
 10
24.25735931288063
 20
1819.742640687119
 30
-7.500000000000031
 70
   192
  0
VERTEX
  5
13C5
  8
RÁM
 10
30.52362508080062
 20
1815.5
 30
-8.23668543457389
 70
   192
  0
VERTEX
  5
13C6
  8
RÁM
 10
32.53048027605868
 20
1815.5
 30
-7.969104741872805
 70
   192
  0
VERTEX
  5
13C7
  8
RÁM
 10
24.46951972394112
 20
1815.5
 30
-7.969104741872822
 70
   192
  0
VERTEX
  5
13C8
  8
RÁM
 10
26.47637491919922
 20
1815.5
 30
-8.2366854345739
 70
   192
  0
VERTEX
  5
13C9
  8
RÁM
 10
0.0
 20
0.0
 30
0.0
 70
   128
 71
     1
 72
     5
 73
     8
  0
VERTEX
  5
13CA
  8
RÁM
 10
0.0
 20
0.0
 30
0.0
 70
   128
 71
     1
 72
     8
 73
     7
  0
VERTEX
  5
13CB
  8
RÁM
 10
0.0
 20
0.0
 30
0.0
 70
   128
 71
     5
 72
     3
 73
     8
  0
VERTEX
  5
13CC
  8
RÁM
 10
0.0
 20
0.0
 30
0.0
 70
   128
 71
     1
 72
     4
 73
     5
  0
VERTEX
  5
13CD
  8
RÁM
 10
0.0
 20
0.0
 30
0.0
 70
   128
 71
     1
 72
     6
 73
     4
  0
VERTEX
  5
13CE
  8
RÁM
 10
0.0
 20
0.0
 30
0.0
 70
   128
 71
     9
 72
     2
 73
     6
  0
VERTEX
  5
13CF
  8
RÁM
 10
0.0
 20
0.0
 30
0.0
 70
   128
 71
    10
 72
     9
 73
     6
  0
VERTEX
  5
13D0
  8
RÁM
 10
0.0
 20
0.0
 30
0.0
 70
   128
 71
    10
 72
     6
 73
     1
  0
SEQEND
  5
16CD
  8
RÁM
  0
POLYLINE
  5
13D1
  8
RÁM
 66
     1
 10
0.0
 20
0.0
 30
0.0
 70
    64
 71
    10
 72
     8
  0
VERTEX
  5
13D2
  8
RÁM
 10
28.49999999999995
 20
1783.5
 30
-8.300000000000026
 70
   192
  0
VERTEX
  5
13D3
  8
RÁM
 10
22.49999999999995
 20
1783.5
 30
-7.500000000000028
 70
   192
  0
VERTEX
  5
13D4
  8
RÁM
 10
34.49999999999978
 20
1783.5
 30
-7.500000000000024
 70
   192
  0
VERTEX
  5
13D5
  8
RÁM
 10
28.49999999999986
 20
1789.5
 30
-7.500000000000024
 70
   192
  0
VERTEX
  5
13D6
  8
RÁM
 10
32.74264068711909
 20
1787.742640687119
 30
-7.500000000000024
 70
   192
  0
VERTEX
  5
13D7
  8
RÁM
 10
24.25735931288063
 20
1787.742640687119
 30
-7.500000000000024
 70
   192
  0
VERTEX
  5
13D8
  8
RÁM
 10
30.52362508080062
 20
1783.5
 30
-8.236685434573882
 70
   192
  0
VERTEX
  5
13D9
  8
RÁM
 10
32.53048027605868
 20
1783.5
 30
-7.969104741872798
 70
   192
  0
VERTEX
  5
13DA
  8
RÁM
 10
24.46951972394112
 20
1783.5
 30
-7.969104741872815
 70
   192
  0
VERTEX
  5
13DB
  8
RÁM
 10
26.47637491919922
 20
1783.5
 30
-8.236685434573893
 70
   192
  0
VERTEX
  5
13DC
  8
RÁM
 10
0.0
 20
0.0
 30
0.0
 70
   128
 71
     1
 72
     5
 73
     8
  0
VERTEX
  5
13DD
  8
RÁM
 10
0.0
 20
0.0
 30
0.0
 70
   128
 71
     1
 72
     8
 73
     7
  0
VERTEX
  5
13DE
  8
RÁM
 10
0.0
 20
0.0
 30
0.0
 70
   128
 71
     5
 72
     3
 73
     8
  0
VERTEX
  5
13DF
  8
RÁM
 10
0.0
 20
0.0
 30
0.0
 70
   128
 71
     1
 72
     4
 73
     5
  0
VERTEX
  5
13E0
  8
RÁM
 10
0.0
 20
0.0
 30
0.0
 70
   128
 71
     1
 72
     6
 73
     4
  0
VERTEX
  5
13E1
  8
RÁM
 10
0.0
 20
0.0
 30
0.0
 70
   128
 71
     9
 72
     2
 73
     6
  0
VERTEX
  5
13E2
  8
RÁM
 10
0.0
 20
0.0
 30
0.0
 70
   128
 71
    10
 72
     9
 73
     6
  0
VERTEX
  5
13E3
  8
RÁM
 10
0.0
 20
0.0
 30
0.0
 70
   128
 71
    10
 72
     6
 73
     1
  0
SEQEND
  5
16CE
  8
RÁM
  0
POLYLINE
  5
13E4
  8
RÁM
 66
     1
 10
0.0
 20
0.0
 30
0.0
 70
    64
 71
    20
 72
    22
  0
VERTEX
  5
13E5
  8
RÁM
 10
40.99999999999994
 20
1771.5
 30
-7.500000000000019
 70
   192
  0
VERTEX
  5
13E6
  8
RÁM
 10
40.99999999999994
 20
1827.5
 30
-7.500000000000031
 70
   192
  0
VERTEX
  5
13E7
  8
RÁM
 10
15.99999999999994
 20
1827.5
 30
-7.500000000000031
 70
   192
  0
VERTEX
  5
13E8
  8
RÁM
 10
15.99999999999994
 20
1771.5
 30
-7.500000000000019
 70
   192
  0
VERTEX
  5
13E9
  8
RÁM
 10
22.49999999999994
 20
1783.5
 30
-7.500000000000024
 70
   192
  0
VERTEX
  5
13EA
  8
RÁM
 10
24.25735931288063
 20
1787.742640687119
 30
-7.500000000000024
 70
   192
  0
VERTEX
  5
13EB
  8
RÁM
 10
28.49999999999986
 20
1789.5
 30
-7.500000000000024
 70
   192
  0
VERTEX
  5
13EC
  8
RÁM
 10
32.74264068711909
 20
1787.742640687119
 30
-7.500000000000024
 70
   192
  0
VERTEX
  5
13ED
  8
RÁM
 10
34.49999999999978
 20
1783.5
 30
-7.500000000000024
 70
   192
  0
VERTEX
  5
13EE
  8
RÁM
 10
32.74264068711909
 20
1779.257359312881
 30
-7.500000000000024
 70
   192
  0
VERTEX
  5
13EF
  8
RÁM
 10
28.49999999999986
 20
1777.5
 30
-7.500000000000024
 70
   192
  0
VERTEX
  5
13F0
  8
RÁM
 10
24.25735931288063
 20
1779.257359312881
 30
-7.500000000000024
 70
   192
  0
VERTEX
  5
13F1
  8
RÁM
 10
22.49999999999994
 20
1815.5
 30
-7.500000000000031
 70
   192
  0
VERTEX
  5
13F2
  8
RÁM
 10
24.25735931288063
 20
1819.742640687119
 30
-7.500000000000031
 70
   192
  0
VERTEX
  5
13F3
  8
RÁM
 10
28.49999999999986
 20
1821.5
 30
-7.500000000000031
 70
   192
  0
VERTEX
  5
13F4
  8
RÁM
 10
32.74264068711909
 20
1819.742640687119
 30
-7.500000000000031
 70
   192
  0
VERTEX
  5
13F5
  8
RÁM
 10
34.49999999999978
 20
1815.5
 30
-7.500000000000031
 70
   192
  0
VERTEX
  5
13F6
  8
RÁM
 10
32.74264068711909
 20
1811.257359312881
 30
-7.500000000000031
 70
   192
  0
VERTEX
  5
13F7
  8
RÁM
 10
28.49999999999986
 20
1809.5
 30
-7.500000000000031
 70
   192
  0
VERTEX
  5
13F8
  8
RÁM
 10
24.25735931288063
 20
1811.257359312881
 30
-7.500000000000031
 70
   192
  0
VERTEX
  5
13F9
  8
RÁM
 10
0.0
 20
0.0
 30
0.0
 70
   128
 71
     6
 72
    -5
 73
    -4
  0
VERTEX
  5
13FA
  8
RÁM
 10
0.0
 20
0.0
 30
0.0
 70
   128
 71
    20
 72
   -19
 73
    -7
  0
VERTEX
  5
13FB
  8
RÁM
 10
0.0
 20
0.0
 30
0.0
 70
   128
 71
    -6
 72
     4
 73
    -3
  0
VERTEX
  5
13FC
  8
RÁM
 10
0.0
 20
0.0
 30
0.0
 70
   128
 71
    -6
 72
    -3
 73
   -20
  0
VERTEX
  5
13FD
  8
RÁM
 10
0.0
 20
0.0
 30
0.0
 70
   128
 71
   -20
 72
     7
 73
    -6
  0
VERTEX
  5
13FE
  8
RÁM
 10
0.0
 20
0.0
 30
0.0
 70
   128
 71
    -3
 72
    13
 73
   -20
  0
VERTEX
  5
13FF
  8
RÁM
 10
0.0
 20
0.0
 30
0.0
 70
   128
 71
   -19
 72
     8
 73
    -7
  0
VERTEX
  5
1400
  8
RÁM
 10
0.0
 20
0.0
 30
0.0
 70
   128
 71
    14
 72
   -13
 73
    -3
  0
VERTEX
  5
1401
  8
RÁM
 10
0.0
 20
0.0
 30
0.0
 70
   128
 71
    -3
 72
    15
 73
   -14
  0
VERTEX
  5
1402
  8
RÁM
 10
0.0
 20
0.0
 30
0.0
 70
   128
 71
   -15
 72
     3
 73
    -2
  0
VERTEX
  5
1403
  8
RÁM
 10
0.0
 20
0.0
 30
0.0
 70
   128
 71
    -2
 72
    16
 73
   -15
  0
VERTEX
  5
1404
  8
RÁM
 10
0.0
 20
0.0
 30
0.0
 70
   128
 71
    -2
 72
    17
 73
   -16
  0
VERTEX
  5
1405
  8
RÁM
 10
0.0
 20
0.0
 30
0.0
 70
   128
 71
    -2
 72
    18
 73
   -17
  0
VERTEX
  5
1406
  8
RÁM
 10
0.0
 20
0.0
 30
0.0
 70
   128
 71
   -18
 72
     2
 73
    -1
  0
VERTEX
  5
1407
  8
RÁM
 10
0.0
 20
0.0
 30
0.0
 70
   128
 71
   -18
 72
    -1
 73
    -8
  0
VERTEX
  5
1408
  8
RÁM
 10
0.0
 20
0.0
 30
0.0
 70
   128
 71
    -8
 72
    19
 73
   -18
  0
VERTEX
  5
1409
  8
RÁM
 10
0.0
 20
0.0
 30
0.0
 70
   128
 71
    -1
 72
     9
 73
    -8
  0
VERTEX
  5
140A
  8
RÁM
 10
0.0
 20
0.0
 30
0.0
 70
   128
 71
    -1
 72
    10
 73
    -9
  0
VERTEX
  5
140B
  8
RÁM
 10
0.0
 20
0.0
 30
0.0
 70
   128
 71
    -1
 72
    11
 73
   -10
  0
VERTEX
  5
140C
  8
RÁM
 10
0.0
 20
0.0
 30
0.0
 70
   128
 71
     1
 72
    -4
 73
   -11
  0
VERTEX
  5
140D
  8
RÁM
 10
0.0
 20
0.0
 30
0.0
 70
   128
 71
    -4
 72
    12
 73
   -11
  0
VERTEX
  5
140E
  8
RÁM
 10
0.0
 20
0.0
 30
0.0
 70
   128
 71
    -4
 72
     5
 73
   -12
  0
SEQEND
  5
16CF
  8
RÁM
  0
POLYLINE
  5
140F
  8
RÁM
 66
     1
 10
0.0
 20
0.0
 30
0.0
 70
    64
 71
     4
 72
     2
  0
VERTEX
  5
1410
  8
RÁM
 10
15.99999999999994
 20
1771.5
 30
-7.500000000000019
 70
   192
  0
VERTEX
  5
1411
  8
RÁM
 10
15.99999999999994
 20
1827.5
 30
-7.500000000000031
 70
   192
  0
VERTEX
  5
1412
  8
RÁM
 10
15.99999999999994
 20
1827.5
 30
-3.000000000000031
 70
   192
  0
VERTEX
  5
1413
  8
RÁM
 10
15.99999999999994
 20
1771.5
 30
-3.000000000000019
 70
   192
  0
VERTEX
  5
1414
  8
RÁM
 10
0.0
 20
0.0
 30
0.0
 70
   128
 71
     1
 72
     4
 73
    -3
  0
VERTEX
  5
1415
  8
RÁM
 10
0.0
 20
0.0
 30
0.0
 70
   128
 71
    -1
 72
     3
 73
     2
  0
SEQEND
  5
16D0
  8
RÁM
  0
POLYLINE
  5
1416
  8
RÁM
 66
     1
 10
0.0
 20
0.0
 30
0.0
 70
    64
 71
     4
 72
     2
  0
VERTEX
  5
1417
  8
RÁM
 10
15.99999999999994
 20
1771.5
 30
-3.000000000000019
 70
   192
  0
VERTEX
  5
1418
  8
RÁM
 10
40.99999999999994
 20
1771.5
 30
-3.000000000000019
 70
   192
  0
VERTEX
  5
1419
  8
RÁM
 10
40.99999999999994
 20
1827.5
 30
-3.000000000000031
 70
   192
  0
VERTEX
  5
141A
  8
RÁM
 10
15.99999999999994
 20
1827.5
 30
-3.000000000000031
 70
   192
  0
VERTEX
  5
141B
  8
RÁM
 10
0.0
 20
0.0
 30
0.0
 70
   128
 71
     3
 72
     4
 73
    -1
  0
VERTEX
  5
141C
  8
RÁM
 10
0.0
 20
0.0
 30
0.0
 70
   128
 71
     2
 72
    -3
 73
     1
  0
SEQEND
  5
16D1
  8
RÁM
  0
POLYLINE
  5
141D
  8
RÁM
 66
     1
 10
0.0
 20
0.0
 30
0.0
 70
    64
 71
     4
 72
     2
  0
VERTEX
  5
141E
  8
RÁM
 10
40.99999999999994
 20
1771.5
 30
-3.000000000000019
 70
   192
  0
VERTEX
  5
141F
  8
RÁM
 10
40.99999999999994
 20
1771.5
 30
-7.500000000000019
 70
   192
  0
VERTEX
  5
1420
  8
RÁM
 10
40.99999999999994
 20
1827.5
 30
-7.500000000000031
 70
   192
  0
VERTEX
  5
1421
  8
RÁM
 10
40.99999999999994
 20
1827.5
 30
-3.000000000000031
 70
   192
  0
VERTEX
  5
1422
  8
RÁM
 10
0.0
 20
0.0
 30
0.0
 70
   128
 71
     3
 72
     4
 73
    -1
  0
VERTEX
  5
1423
  8
RÁM
 10
0.0
 20
0.0
 30
0.0
 70
   128
 71
     2
 72
    -3
 73
     1
  0
SEQEND
  5
16D2
  8
RÁM
  0
POLYLINE
  5
1424
  8
RÁM
 66
     1
 10
0.0
 20
0.0
 30
0.0
 70
    64
 71
     4
 72
     2
  0
VERTEX
  5
1425
  8
RÁM
 10
40.99999999999994
 20
1827.5
 30
-7.500000000000031
 70
   192
  0
VERTEX
  5
1426
  8
RÁM
 10
15.99999999999994
 20
1827.5
 30
-7.500000000000031
 70
   192
  0
VERTEX
  5
1427
  8
RÁM
 10
15.99999999999994
 20
1827.5
 30
-3.000000000000031
 70
   192
  0
VERTEX
  5
1428
  8
RÁM
 10
40.99999999999994
 20
1827.5
 30
-3.000000000000031
 70
   192
  0
VERTEX
  5
1429
  8
RÁM
 10
0.0
 20
0.0
 30
0.0
 70
   128
 71
     3
 72
     4
 73
    -1
  0
VERTEX
  5
142A
  8
RÁM
 10
0.0
 20
0.0
 30
0.0
 70
   128
 71
     2
 72
    -3
 73
     1
  0
SEQEND
  5
16D3
  8
RÁM
  0
POLYLINE
  5
142B
  8
RÁM
 66
     1
 10
0.0
 20
0.0
 30
0.0
 70
    64
 71
     4
 72
     2
  0
VERTEX
  5
142C
  8
RÁM
 10
15.99999999999994
 20
1771.5
 30
-7.500000000000019
 70
   192
  0
VERTEX
  5
142D
  8
RÁM
 10
15.99999999999994
 20
1771.5
 30
-3.000000000000019
 70
   192
  0
VERTEX
  5
142E
  8
RÁM
 10
40.99999999999994
 20
1771.5
 30
-3.000000000000019
 70
   192
  0
VERTEX
  5
142F
  8
RÁM
 10
40.99999999999994
 20
1771.5
 30
-7.500000000000019
 70
   192
  0
VERTEX
  5
1430
  8
RÁM
 10
0.0
 20
0.0
 30
0.0
 70
   128
 71
     1
 72
     4
 73
    -3
  0
VERTEX
  5
1431
  8
RÁM
 10
0.0
 20
0.0
 30
0.0
 70
   128
 71
    -1
 72
     3
 73
     2
  0
SEQEND
  5
16D4
  8
RÁM
  0
POLYLINE
  5
1432
  8
RÁM
 66
     1
 10
0.0
 20
0.0
 30
0.0
 70
    64
 71
    10
 72
     8
  0
VERTEX
  5
1433
  8
RÁM
 10
28.49999999999995
 20
1783.5
 30
-8.300000000000026
 70
   192
  0
VERTEX
  5
1434
  8
RÁM
 10
34.49999999999979
 20
1783.5
 30
-7.500000000000021
 70
   192
  0
VERTEX
  5
1435
  8
RÁM
 10
22.49999999999994
 20
1783.5
 30
-7.500000000000024
 70
   192
  0
VERTEX
  5
1436
  8
RÁM
 10
28.49999999999986
 20
1777.5
 30
-7.500000000000024
 70
   192
  0
VERTEX
  5
1437
  8
RÁM
 10
24.25735931288063
 20
1779.257359312881
 30
-7.500000000000024
 70
   192
  0
VERTEX
  5
1438
  8
RÁM
 10
32.74264068711909
 20
1779.257359312881
 30
-7.500000000000024
 70
   192
  0
VERTEX
  5
1439
  8
RÁM
 10
26.47637491919922
 20
1783.5
 30
-8.236685434573893
 70
   192
  0
VERTEX
  5
143A
  8
RÁM
 10
24.46951972394112
 20
1783.5
 30
-7.969104741872815
 70
   192
  0
VERTEX
  5
143B
  8
RÁM
 10
32.53048027605868
 20
1783.5
 30
-7.969104741872798
 70
   192
  0
VERTEX
  5
143C
  8
RÁM
 10
30.52362508080062
 20
1783.5
 30
-8.236685434573882
 70
   192
  0
VERTEX
  5
143D
  8
RÁM
 10
0.0
 20
0.0
 30
0.0
 70
   128
 71
     1
 72
     5
 73
     8
  0
VERTEX
  5
143E
  8
RÁM
 10
0.0
 20
0.0
 30
0.0
 70
   128
 71
     1
 72
     8
 73
     7
  0
VERTEX
  5
143F
  8
RÁM
 10
0.0
 20
0.0
 30
0.0
 70
   128
 71
     5
 72
     3
 73
     8
  0
VERTEX
  5
1440
  8
RÁM
 10
0.0
 20
0.0
 30
0.0
 70
   128
 71
     1
 72
     4
 73
     5
  0
VERTEX
  5
1441
  8
RÁM
 10
0.0
 20
0.0
 30
0.0
 70
   128
 71
     1
 72
     6
 73
     4
  0
VERTEX
  5
1442
  8
RÁM
 10
0.0
 20
0.0
 30
0.0
 70
   128
 71
     9
 72
     2
 73
     6
  0
VERTEX
  5
1443
  8
RÁM
 10
0.0
 20
0.0
 30
0.0
 70
   128
 71
    10
 72
     9
 73
     6
  0
VERTEX
  5
1444
  8
RÁM
 10
0.0
 20
0.0
 30
0.0
 70
   128
 71
    10
 72
     6
 73
     1
  0
SEQEND
  5
16D5
  8
RÁM
  0
POLYLINE
  5
1445
  8
RÁM
 66
     1
 10
0.0
 20
0.0
 30
0.0
 70
    64
 71
    10
 72
     8
  0
VERTEX
  5
1446
  8
RÁM
 10
28.49999999999995
 20
1815.5
 30
-8.300000000000033
 70
   192
  0
VERTEX
  5
1447
  8
RÁM
 10
34.49999999999979
 20
1815.5
 30
-7.500000000000028
 70
   192
  0
VERTEX
  5
1448
  8
RÁM
 10
22.49999999999994
 20
1815.5
 30
-7.500000000000031
 70
   192
  0
VERTEX
  5
1449
  8
RÁM
 10
28.49999999999986
 20
1809.5
 30
-7.500000000000031
 70
   192
  0
VERTEX
  5
144A
  8
RÁM
 10
24.25735931288063
 20
1811.257359312881
 30
-7.500000000000031
 70
   192
  0
VERTEX
  5
144B
  8
RÁM
 10
32.74264068711909
 20
1811.257359312881
 30
-7.500000000000031
 70
   192
  0
VERTEX
  5
144C
  8
RÁM
 10
26.47637491919922
 20
1815.5
 30
-8.2366854345739
 70
   192
  0
VERTEX
  5
144D
  8
RÁM
 10
24.46951972394112
 20
1815.5
 30
-7.969104741872822
 70
   192
  0
VERTEX
  5
144E
  8
RÁM
 10
32.53048027605868
 20
1815.5
 30
-7.969104741872805
 70
   192
  0
VERTEX
  5
144F
  8
RÁM
 10
30.52362508080062
 20
1815.5
 30
-8.23668543457389
 70
   192
  0
VERTEX
  5
1450
  8
RÁM
 10
0.0
 20
0.0
 30
0.0
 70
   128
 71
     1
 72
     5
 73
     8
  0
VERTEX
  5
1451
  8
RÁM
 10
0.0
 20
0.0
 30
0.0
 70
   128
 71
     1
 72
     8
 73
     7
  0
VERTEX
  5
1452
  8
RÁM
 10
0.0
 20
0.0
 30
0.0
 70
   128
 71
     5
 72
     3
 73
     8
  0
VERTEX
  5
1453
  8
RÁM
 10
0.0
 20
0.0
 30
0.0
 70
   128
 71
     1
 72
     4
 73
     5
  0
VERTEX
  5
1454
  8
RÁM
 10
0.0
 20
0.0
 30
0.0
 70
   128
 71
     1
 72
     6
 73
     4
  0
VERTEX
  5
1455
  8
RÁM
 10
0.0
 20
0.0
 30
0.0
 70
   128
 71
     9
 72
     2
 73
     6
  0
VERTEX
  5
1456
  8
RÁM
 10
0.0
 20
0.0
 30
0.0
 70
   128
 71
    10
 72
     9
 73
     6
  0
VERTEX
  5
1457
  8
RÁM
 10
0.0
 20
0.0
 30
0.0
 70
   128
 71
    10
 72
     6
 73
     1
  0
SEQEND
  5
16D6
  8
RÁM
  0
ENDBLK
  5
16CC
  8
0
  0
BLOCK
  8
0
  2
*X11
 70
     1
 10
0.0
 20
0.0
 30
0.0
  3
*X11
  1

  0
POLYLINE
  5
1459
  8
RÁM
 66
     1
 10
0.0
 20
0.0
 30
0.0
 70
    64
 71
    10
 72
     8
  0
VERTEX
  5
145A
  8
RÁM
 10
28.49999999999995
 20
234.5
 30
-8.30000000000004
 70
   192
  0
VERTEX
  5
145B
  8
RÁM
 10
22.49999999999995
 20
234.5
 30
-7.500000000000043
 70
   192
  0
VERTEX
  5
145C
  8
RÁM
 10
34.49999999999978
 20
234.5
 30
-7.500000000000038
 70
   192
  0
VERTEX
  5
145D
  8
RÁM
 10
28.49999999999986
 20
240.4999999999999
 30
-7.500000000000038
 70
   192
  0
VERTEX
  5
145E
  8
RÁM
 10
32.74264068711909
 20
238.7426406871192
 30
-7.500000000000038
 70
   192
  0
VERTEX
  5
145F
  8
RÁM
 10
24.25735931288063
 20
238.7426406871192
 30
-7.500000000000038
 70
   192
  0
VERTEX
  5
1460
  8
RÁM
 10
30.52362508080062
 20
234.5
 30
-8.236685434573896
 70
   192
  0
VERTEX
  5
1461
  8
RÁM
 10
32.53048027605868
 20
234.5
 30
-7.969104741872812
 70
   192
  0
VERTEX
  5
1462
  8
RÁM
 10
24.46951972394112
 20
234.5
 30
-7.96910474187283
 70
   192
  0
VERTEX
  5
1463
  8
RÁM
 10
26.47637491919922
 20
234.5
 30
-8.236685434573907
 70
   192
  0
VERTEX
  5
1464
  8
RÁM
 10
0.0
 20
0.0
 30
0.0
 70
   128
 71
     1
 72
     5
 73
     8
  0
VERTEX
  5
1465
  8
RÁM
 10
0.0
 20
0.0
 30
0.0
 70
   128
 71
     1
 72
     8
 73
     7
  0
VERTEX
  5
1466
  8
RÁM
 10
0.0
 20
0.0
 30
0.0
 70
   128
 71
     5
 72
     3
 73
     8
  0
VERTEX
  5
1467
  8
RÁM
 10
0.0
 20
0.0
 30
0.0
 70
   128
 71
     1
 72
     4
 73
     5
  0
VERTEX
  5
1468
  8
RÁM
 10
0.0
 20
0.0
 30
0.0
 70
   128
 71
     1
 72
     6
 73
     4
  0
VERTEX
  5
1469
  8
RÁM
 10
0.0
 20
0.0
 30
0.0
 70
   128
 71
     9
 72
     2
 73
     6
  0
VERTEX
  5
146A
  8
RÁM
 10
0.0
 20
0.0
 30
0.0
 70
   128
 71
    10
 72
     9
 73
     6
  0
VERTEX
  5
146B
  8
RÁM
 10
0.0
 20
0.0
 30
0.0
 70
   128
 71
    10
 72
     6
 73
     1
  0
SEQEND
  5
16D9
  8
RÁM
  0
POLYLINE
  5
146C
  8
RÁM
 66
     1
 10
0.0
 20
0.0
 30
0.0
 70
    64
 71
    10
 72
     8
  0
VERTEX
  5
146D
  8
RÁM
 10
28.49999999999995
 20
202.5
 30
-8.300000000000033
 70
   192
  0
VERTEX
  5
146E
  8
RÁM
 10
22.49999999999995
 20
202.5
 30
-7.500000000000036
 70
   192
  0
VERTEX
  5
146F
  8
RÁM
 10
34.49999999999978
 20
202.5
 30
-7.500000000000031
 70
   192
  0
VERTEX
  5
1470
  8
RÁM
 10
28.49999999999986
 20
208.4999999999999
 30
-7.500000000000031
 70
   192
  0
VERTEX
  5
1471
  8
RÁM
 10
32.74264068711909
 20
206.7426406871192
 30
-7.500000000000031
 70
   192
  0
VERTEX
  5
1472
  8
RÁM
 10
24.25735931288063
 20
206.7426406871192
 30
-7.500000000000031
 70
   192
  0
VERTEX
  5
1473
  8
RÁM
 10
30.52362508080062
 20
202.5
 30
-8.23668543457389
 70
   192
  0
VERTEX
  5
1474
  8
RÁM
 10
32.53048027605868
 20
202.5
 30
-7.969104741872805
 70
   192
  0
VERTEX
  5
1475
  8
RÁM
 10
24.46951972394112
 20
202.5
 30
-7.969104741872822
 70
   192
  0
VERTEX
  5
1476
  8
RÁM
 10
26.47637491919922
 20
202.5
 30
-8.2366854345739
 70
   192
  0
VERTEX
  5
1477
  8
RÁM
 10
0.0
 20
0.0
 30
0.0
 70
   128
 71
     1
 72
     5
 73
     8
  0
VERTEX
  5
1478
  8
RÁM
 10
0.0
 20
0.0
 30
0.0
 70
   128
 71
     1
 72
     8
 73
     7
  0
VERTEX
  5
1479
  8
RÁM
 10
0.0
 20
0.0
 30
0.0
 70
   128
 71
     5
 72
     3
 73
     8
  0
VERTEX
  5
147A
  8
RÁM
 10
0.0
 20
0.0
 30
0.0
 70
   128
 71
     1
 72
     4
 73
     5
  0
VERTEX
  5
147B
  8
RÁM
 10
0.0
 20
0.0
 30
0.0
 70
   128
 71
     1
 72
     6
 73
     4
  0
VERTEX
  5
147C
  8
RÁM
 10
0.0
 20
0.0
 30
0.0
 70
   128
 71
     9
 72
     2
 73
     6
  0
VERTEX
  5
147D
  8
RÁM
 10
0.0
 20
0.0
 30
0.0
 70
   128
 71
    10
 72
     9
 73
     6
  0
VERTEX
  5
147E
  8
RÁM
 10
0.0
 20
0.0
 30
0.0
 70
   128
 71
    10
 72
     6
 73
     1
  0
SEQEND
  5
16DA
  8
RÁM
  0
POLYLINE
  5
147F
  8
RÁM
 66
     1
 10
0.0
 20
0.0
 30
0.0
 70
    64
 71
    20
 72
    22
  0
VERTEX
  5
1480
  8
RÁM
 10
40.99999999999994
 20
190.5
 30
-7.500000000000026
 70
   192
  0
VERTEX
  5
1481
  8
RÁM
 10
40.99999999999994
 20
246.5
 30
-7.500000000000038
 70
   192
  0
VERTEX
  5
1482
  8
RÁM
 10
15.99999999999994
 20
246.5
 30
-7.500000000000038
 70
   192
  0
VERTEX
  5
1483
  8
RÁM
 10
15.99999999999994
 20
190.5
 30
-7.500000000000026
 70
   192
  0
VERTEX
  5
1484
  8
RÁM
 10
22.49999999999994
 20
202.5
 30
-7.500000000000031
 70
   192
  0
VERTEX
  5
1485
  8
RÁM
 10
24.25735931288063
 20
206.7426406871192
 30
-7.500000000000031
 70
   192
  0
VERTEX
  5
1486
  8
RÁM
 10
28.49999999999986
 20
208.4999999999999
 30
-7.500000000000031
 70
   192
  0
VERTEX
  5
1487
  8
RÁM
 10
32.74264068711909
 20
206.7426406871192
 30
-7.500000000000031
 70
   192
  0
VERTEX
  5
1488
  8
RÁM
 10
34.49999999999978
 20
202.5
 30
-7.500000000000031
 70
   192
  0
VERTEX
  5
1489
  8
RÁM
 10
32.74264068711909
 20
198.2573593128808
 30
-7.500000000000031
 70
   192
  0
VERTEX
  5
148A
  8
RÁM
 10
28.49999999999986
 20
196.5000000000001
 30
-7.500000000000031
 70
   192
  0
VERTEX
  5
148B
  8
RÁM
 10
24.25735931288063
 20
198.2573593128808
 30
-7.500000000000031
 70
   192
  0
VERTEX
  5
148C
  8
RÁM
 10
22.49999999999994
 20
234.5
 30
-7.500000000000038
 70
   192
  0
VERTEX
  5
148D
  8
RÁM
 10
24.25735931288063
 20
238.7426406871192
 30
-7.500000000000038
 70
   192
  0
VERTEX
  5
148E
  8
RÁM
 10
28.49999999999986
 20
240.4999999999999
 30
-7.500000000000038
 70
   192
  0
VERTEX
  5
148F
  8
RÁM
 10
32.74264068711909
 20
238.7426406871192
 30
-7.500000000000038
 70
   192
  0
VERTEX
  5
1490
  8
RÁM
 10
34.49999999999978
 20
234.5
 30
-7.500000000000038
 70
   192
  0
VERTEX
  5
1491
  8
RÁM
 10
32.74264068711909
 20
230.2573593128808
 30
-7.500000000000038
 70
   192
  0
VERTEX
  5
1492
  8
RÁM
 10
28.49999999999986
 20
228.5000000000001
 30
-7.500000000000038
 70
   192
  0
VERTEX
  5
1493
  8
RÁM
 10
24.25735931288063
 20
230.2573593128808
 30
-7.500000000000038
 70
   192
  0
VERTEX
  5
1494
  8
RÁM
 10
0.0
 20
0.0
 30
0.0
 70
   128
 71
     6
 72
    -5
 73
    -4
  0
VERTEX
  5
1495
  8
RÁM
 10
0.0
 20
0.0
 30
0.0
 70
   128
 71
    20
 72
   -19
 73
    -7
  0
VERTEX
  5
1496
  8
RÁM
 10
0.0
 20
0.0
 30
0.0
 70
   128
 71
    -6
 72
     4
 73
    -3
  0
VERTEX
  5
1497
  8
RÁM
 10
0.0
 20
0.0
 30
0.0
 70
   128
 71
    -6
 72
    -3
 73
   -20
  0
VERTEX
  5
1498
  8
RÁM
 10
0.0
 20
0.0
 30
0.0
 70
   128
 71
   -20
 72
     7
 73
    -6
  0
VERTEX
  5
1499
  8
RÁM
 10
0.0
 20
0.0
 30
0.0
 70
   128
 71
    -3
 72
    13
 73
   -20
  0
VERTEX
  5
149A
  8
RÁM
 10
0.0
 20
0.0
 30
0.0
 70
   128
 71
   -19
 72
     8
 73
    -7
  0
VERTEX
  5
149B
  8
RÁM
 10
0.0
 20
0.0
 30
0.0
 70
   128
 71
    14
 72
   -13
 73
    -3
  0
VERTEX
  5
149C
  8
RÁM
 10
0.0
 20
0.0
 30
0.0
 70
   128
 71
    -3
 72
    15
 73
   -14
  0
VERTEX
  5
149D
  8
RÁM
 10
0.0
 20
0.0
 30
0.0
 70
   128
 71
   -15
 72
     3
 73
    -2
  0
VERTEX
  5
149E
  8
RÁM
 10
0.0
 20
0.0
 30
0.0
 70
   128
 71
    -2
 72
    16
 73
   -15
  0
VERTEX
  5
149F
  8
RÁM
 10
0.0
 20
0.0
 30
0.0
 70
   128
 71
    -2
 72
    17
 73
   -16
  0
VERTEX
  5
14A0
  8
RÁM
 10
0.0
 20
0.0
 30
0.0
 70
   128
 71
    -2
 72
    18
 73
   -17
  0
VERTEX
  5
14A1
  8
RÁM
 10
0.0
 20
0.0
 30
0.0
 70
   128
 71
   -18
 72
     2
 73
    -1
  0
VERTEX
  5
14A2
  8
RÁM
 10
0.0
 20
0.0
 30
0.0
 70
   128
 71
   -18
 72
    -1
 73
    -8
  0
VERTEX
  5
14A3
  8
RÁM
 10
0.0
 20
0.0
 30
0.0
 70
   128
 71
    -8
 72
    19
 73
   -18
  0
VERTEX
  5
14A4
  8
RÁM
 10
0.0
 20
0.0
 30
0.0
 70
   128
 71
    -1
 72
     9
 73
    -8
  0
VERTEX
  5
14A5
  8
RÁM
 10
0.0
 20
0.0
 30
0.0
 70
   128
 71
    -1
 72
    10
 73
    -9
  0
VERTEX
  5
14A6
  8
RÁM
 10
0.0
 20
0.0
 30
0.0
 70
   128
 71
    -1
 72
    11
 73
   -10
  0
VERTEX
  5
14A7
  8
RÁM
 10
0.0
 20
0.0
 30
0.0
 70
   128
 71
     1
 72
    -4
 73
   -11
  0
VERTEX
  5
14A8
  8
RÁM
 10
0.0
 20
0.0
 30
0.0
 70
   128
 71
    -4
 72
    12
 73
   -11
  0
VERTEX
  5
14A9
  8
RÁM
 10
0.0
 20
0.0
 30
0.0
 70
   128
 71
    -4
 72
     5
 73
   -12
  0
SEQEND
  5
16DB
  8
RÁM
  0
POLYLINE
  5
14AA
  8
RÁM
 66
     1
 10
0.0
 20
0.0
 30
0.0
 70
    64
 71
     4
 72
     2
  0
VERTEX
  5
14AB
  8
RÁM
 10
15.99999999999994
 20
190.5
 30
-7.500000000000026
 70
   192
  0
VERTEX
  5
14AC
  8
RÁM
 10
15.99999999999994
 20
246.5
 30
-7.500000000000038
 70
   192
  0
VERTEX
  5
14AD
  8
RÁM
 10
15.99999999999994
 20
246.5
 30
-3.000000000000038
 70
   192
  0
VERTEX
  5
14AE
  8
RÁM
 10
15.99999999999994
 20
190.5
 30
-3.000000000000026
 70
   192
  0
VERTEX
  5
14AF
  8
RÁM
 10
0.0
 20
0.0
 30
0.0
 70
   128
 71
     1
 72
     4
 73
    -3
  0
VERTEX
  5
14B0
  8
RÁM
 10
0.0
 20
0.0
 30
0.0
 70
   128
 71
    -1
 72
     3
 73
     2
  0
SEQEND
  5
16DC
  8
RÁM
  0
POLYLINE
  5
14B1
  8
RÁM
 66
     1
 10
0.0
 20
0.0
 30
0.0
 70
    64
 71
     4
 72
     2
  0
VERTEX
  5
14B2
  8
RÁM
 10
15.99999999999994
 20
190.5
 30
-3.000000000000026
 70
   192
  0
VERTEX
  5
14B3
  8
RÁM
 10
40.99999999999994
 20
190.5
 30
-3.000000000000026
 70
   192
  0
VERTEX
  5
14B4
  8
RÁM
 10
40.99999999999994
 20
246.5
 30
-3.000000000000038
 70
   192
  0
VERTEX
  5
14B5
  8
RÁM
 10
15.99999999999994
 20
246.5
 30
-3.000000000000038
 70
   192
  0
VERTEX
  5
14B6
  8
RÁM
 10
0.0
 20
0.0
 30
0.0
 70
   128
 71
     3
 72
     4
 73
    -1
  0
VERTEX
  5
14B7
  8
RÁM
 10
0.0
 20
0.0
 30
0.0
 70
   128
 71
     2
 72
    -3
 73
     1
  0
SEQEND
  5
16DD
  8
RÁM
  0
POLYLINE
  5
14B8
  8
RÁM
 66
     1
 10
0.0
 20
0.0
 30
0.0
 70
    64
 71
     4
 72
     2
  0
VERTEX
  5
14B9
  8
RÁM
 10
40.99999999999994
 20
190.5
 30
-3.000000000000026
 70
   192
  0
VERTEX
  5
14BA
  8
RÁM
 10
40.99999999999994
 20
190.5
 30
-7.500000000000026
 70
   192
  0
VERTEX
  5
14BB
  8
RÁM
 10
40.99999999999994
 20
246.5
 30
-7.500000000000038
 70
   192
  0
VERTEX
  5
14BC
  8
RÁM
 10
40.99999999999994
 20
246.5
 30
-3.000000000000038
 70
   192
  0
VERTEX
  5
14BD
  8
RÁM
 10
0.0
 20
0.0
 30
0.0
 70
   128
 71
     3
 72
     4
 73
    -1
  0
VERTEX
  5
14BE
  8
RÁM
 10
0.0
 20
0.0
 30
0.0
 70
   128
 71
     2
 72
    -3
 73
     1
  0
SEQEND
  5
16DE
  8
RÁM
  0
POLYLINE
  5
14BF
  8
RÁM
 66
     1
 10
0.0
 20
0.0
 30
0.0
 70
    64
 71
     4
 72
     2
  0
VERTEX
  5
14C0
  8
RÁM
 10
40.99999999999994
 20
246.5
 30
-7.500000000000038
 70
   192
  0
VERTEX
  5
14C1
  8
RÁM
 10
15.99999999999994
 20
246.5
 30
-7.500000000000038
 70
   192
  0
VERTEX
  5
14C2
  8
RÁM
 10
15.99999999999994
 20
246.5
 30
-3.000000000000038
 70
   192
  0
VERTEX
  5
14C3
  8
RÁM
 10
40.99999999999994
 20
246.5
 30
-3.000000000000038
 70
   192
  0
VERTEX
  5
14C4
  8
RÁM
 10
0.0
 20
0.0
 30
0.0
 70
   128
 71
     3
 72
     4
 73
    -1
  0
VERTEX
  5
14C5
  8
RÁM
 10
0.0
 20
0.0
 30
0.0
 70
   128
 71
     2
 72
    -3
 73
     1
  0
SEQEND
  5
16DF
  8
RÁM
  0
POLYLINE
  5
14C6
  8
RÁM
 66
     1
 10
0.0
 20
0.0
 30
0.0
 70
    64
 71
     4
 72
     2
  0
VERTEX
  5
14C7
  8
RÁM
 10
15.99999999999994
 20
190.5
 30
-7.500000000000026
 70
   192
  0
VERTEX
  5
14C8
  8
RÁM
 10
15.99999999999994
 20
190.5
 30
-3.000000000000026
 70
   192
  0
VERTEX
  5
14C9
  8
RÁM
 10
40.99999999999994
 20
190.5
 30
-3.000000000000026
 70
   192
  0
VERTEX
  5
14CA
  8
RÁM
 10
40.99999999999994
 20
190.5
 30
-7.500000000000026
 70
   192
  0
VERTEX
  5
14CB
  8
RÁM
 10
0.0
 20
0.0
 30
0.0
 70
   128
 71
     1
 72
     4
 73
    -3
  0
VERTEX
  5
14CC
  8
RÁM
 10
0.0
 20
0.0
 30
0.0
 70
   128
 71
    -1
 72
     3
 73
     2
  0
SEQEND
  5
16E0
  8
RÁM
  0
POLYLINE
  5
14CD
  8
RÁM
 66
     1
 10
0.0
 20
0.0
 30
0.0
 70
    64
 71
    10
 72
     8
  0
VERTEX
  5
14CE
  8
RÁM
 10
28.49999999999995
 20
202.5
 30
-8.300000000000033
 70
   192
  0
VERTEX
  5
14CF
  8
RÁM
 10
34.49999999999979
 20
202.5
 30
-7.500000000000028
 70
   192
  0
VERTEX
  5
14D0
  8
RÁM
 10
22.49999999999994
 20
202.5
 30
-7.500000000000031
 70
   192
  0
VERTEX
  5
14D1
  8
RÁM
 10
28.49999999999986
 20
196.5000000000001
 30
-7.500000000000031
 70
   192
  0
VERTEX
  5
14D2
  8
RÁM
 10
24.25735931288063
 20
198.2573593128808
 30
-7.500000000000031
 70
   192
  0
VERTEX
  5
14D3
  8
RÁM
 10
32.74264068711909
 20
198.2573593128808
 30
-7.500000000000031
 70
   192
  0
VERTEX
  5
14D4
  8
RÁM
 10
26.47637491919922
 20
202.5
 30
-8.2366854345739
 70
   192
  0
VERTEX
  5
14D5
  8
RÁM
 10
24.46951972394112
 20
202.5
 30
-7.969104741872822
 70
   192
  0
VERTEX
  5
14D6
  8
RÁM
 10
32.53048027605868
 20
202.5
 30
-7.969104741872805
 70
   192
  0
VERTEX
  5
14D7
  8
RÁM
 10
30.52362508080062
 20
202.5
 30
-8.23668543457389
 70
   192
  0
VERTEX
  5
14D8
  8
RÁM
 10
0.0
 20
0.0
 30
0.0
 70
   128
 71
     1
 72
     5
 73
     8
  0
VERTEX
  5
14D9
  8
RÁM
 10
0.0
 20
0.0
 30
0.0
 70
   128
 71
     1
 72
     8
 73
     7
  0
VERTEX
  5
14DA
  8
RÁM
 10
0.0
 20
0.0
 30
0.0
 70
   128
 71
     5
 72
     3
 73
     8
  0
VERTEX
  5
14DB
  8
RÁM
 10
0.0
 20
0.0
 30
0.0
 70
   128
 71
     1
 72
     4
 73
     5
  0
VERTEX
  5
14DC
  8
RÁM
 10
0.0
 20
0.0
 30
0.0
 70
   128
 71
     1
 72
     6
 73
     4
  0
VERTEX
  5
14DD
  8
RÁM
 10
0.0
 20
0.0
 30
0.0
 70
   128
 71
     9
 72
     2
 73
     6
  0
VERTEX
  5
14DE
  8
RÁM
 10
0.0
 20
0.0
 30
0.0
 70
   128
 71
    10
 72
     9
 73
     6
  0
VERTEX
  5
14DF
  8
RÁM
 10
0.0
 20
0.0
 30
0.0
 70
   128
 71
    10
 72
     6
 73
     1
  0
SEQEND
  5
16E1
  8
RÁM
  0
POLYLINE
  5
14E0
  8
RÁM
 66
     1
 10
0.0
 20
0.0
 30
0.0
 70
    64
 71
    10
 72
     8
  0
VERTEX
  5
14E1
  8
RÁM
 10
28.49999999999995
 20
234.5
 30
-8.30000000000004
 70
   192
  0
VERTEX
  5
14E2
  8
RÁM
 10
34.49999999999979
 20
234.5
 30
-7.500000000000036
 70
   192
  0
VERTEX
  5
14E3
  8
RÁM
 10
22.49999999999994
 20
234.5
 30
-7.500000000000038
 70
   192
  0
VERTEX
  5
14E4
  8
RÁM
 10
28.49999999999986
 20
228.5000000000001
 30
-7.500000000000038
 70
   192
  0
VERTEX
  5
14E5
  8
RÁM
 10
24.25735931288063
 20
230.2573593128808
 30
-7.500000000000038
 70
   192
  0
VERTEX
  5
14E6
  8
RÁM
 10
32.74264068711909
 20
230.2573593128808
 30
-7.500000000000038
 70
   192
  0
VERTEX
  5
14E7
  8
RÁM
 10
26.47637491919922
 20
234.5
 30
-8.236685434573907
 70
   192
  0
VERTEX
  5
14E8
  8
RÁM
 10
24.46951972394112
 20
234.5
 30
-7.96910474187283
 70
   192
  0
VERTEX
  5
14E9
  8
RÁM
 10
32.53048027605868
 20
234.5
 30
-7.969104741872812
 70
   192
  0
VERTEX
  5
14EA
  8
RÁM
 10
30.52362508080062
 20
234.5
 30
-8.236685434573896
 70
   192
  0
VERTEX
  5
14EB
  8
RÁM
 10
0.0
 20
0.0
 30
0.0
 70
   128
 71
     1
 72
     5
 73
     8
  0
VERTEX
  5
14EC
  8
RÁM
 10
0.0
 20
0.0
 30
0.0
 70
   128
 71
     1
 72
     8
 73
     7
  0
VERTEX
  5
14ED
  8
RÁM
 10
0.0
 20
0.0
 30
0.0
 70
   128
 71
     5
 72
     3
 73
     8
  0
VERTEX
  5
14EE
  8
RÁM
 10
0.0
 20
0.0
 30
0.0
 70
   128
 71
     1
 72
     4
 73
     5
  0
VERTEX
  5
14EF
  8
RÁM
 10
0.0
 20
0.0
 30
0.0
 70
   128
 71
     1
 72
     6
 73
     4
  0
VERTEX
  5
14F0
  8
RÁM
 10
0.0
 20
0.0
 30
0.0
 70
   128
 71
     9
 72
     2
 73
     6
  0
VERTEX
  5
14F1
  8
RÁM
 10
0.0
 20
0.0
 30
0.0
 70
   128
 71
    10
 72
     9
 73
     6
  0
VERTEX
  5
14F2
  8
RÁM
 10
0.0
 20
0.0
 30
0.0
 70
   128
 71
    10
 72
     6
 73
     1
  0
SEQEND
  5
16E2
  8
RÁM
  0
ENDBLK
  5
16D8
  8
0
  0
BLOCK
  8
0
  2
*X12
 70
     1
 10
0.0
 20
0.0
 30
0.0
  3
*X12
  1

  0
POLYLINE
  5
14F4
  8
RÁM
 66
     1
 10
0.0
 20
0.0
 30
0.0
 70
    64
 71
    10
 72
     8
  0
VERTEX
  5
14F5
  8
RÁM
 10
-28.50000000000005
 20
1815.5
 30
-8.30000000000003
 70
   192
  0
VERTEX
  5
14F6
  8
RÁM
 10
-34.50000000000006
 20
1815.5
 30
-7.500000000000028
 70
   192
  0
VERTEX
  5
14F7
  8
RÁM
 10
-22.50000000000022
 20
1815.5
 30
-7.500000000000031
 70
   192
  0
VERTEX
  5
14F8
  8
RÁM
 10
-28.50000000000014
 20
1821.5
 30
-7.500000000000031
 70
   192
  0
VERTEX
  5
14F9
  8
RÁM
 10
-24.25735931288092
 20
1819.742640687119
 30
-7.500000000000031
 70
   192
  0
VERTEX
  5
14FA
  8
RÁM
 10
-32.74264068711936
 20
1819.742640687119
 30
-7.500000000000031
 70
   192
  0
VERTEX
  5
14FB
  8
RÁM
 10
-26.47637491919939
 20
1815.5
 30
-8.23668543457389
 70
   192
  0
VERTEX
  5
14FC
  8
RÁM
 10
-24.46951972394133
 20
1815.5
 30
-7.969104741872805
 70
   192
  0
VERTEX
  5
14FD
  8
RÁM
 10
-32.53048027605888
 20
1815.5
 30
-7.969104741872815
 70
   192
  0
VERTEX
  5
14FE
  8
RÁM
 10
-30.52362508080078
 20
1815.5
 30
-8.236685434573896
 70
   192
  0
VERTEX
  5
14FF
  8
RÁM
 10
0.0
 20
0.0
 30
0.0
 70
   128
 71
     1
 72
     5
 73
     8
  0
VERTEX
  5
1500
  8
RÁM
 10
0.0
 20
0.0
 30
0.0
 70
   128
 71
     1
 72
     8
 73
     7
  0
VERTEX
  5
1501
  8
RÁM
 10
0.0
 20
0.0
 30
0.0
 70
   128
 71
     5
 72
     3
 73
     8
  0
VERTEX
  5
1502
  8
RÁM
 10
0.0
 20
0.0
 30
0.0
 70
   128
 71
     1
 72
     4
 73
     5
  0
VERTEX
  5
1503
  8
RÁM
 10
0.0
 20
0.0
 30
0.0
 70
   128
 71
     1
 72
     6
 73
     4
  0
VERTEX
  5
1504
  8
RÁM
 10
0.0
 20
0.0
 30
0.0
 70
   128
 71
     9
 72
     2
 73
     6
  0
VERTEX
  5
1505
  8
RÁM
 10
0.0
 20
0.0
 30
0.0
 70
   128
 71
    10
 72
     9
 73
     6
  0
VERTEX
  5
1506
  8
RÁM
 10
0.0
 20
0.0
 30
0.0
 70
   128
 71
    10
 72
     6
 73
     1
  0
SEQEND
  5
16E5
  8
RÁM
  0
POLYLINE
  5
1507
  8
RÁM
 66
     1
 10
0.0
 20
0.0
 30
0.0
 70
    64
 71
    10
 72
     8
  0
VERTEX
  5
1508
  8
RÁM
 10
-28.50000000000005
 20
1783.5
 30
-8.300000000000022
 70
   192
  0
VERTEX
  5
1509
  8
RÁM
 10
-34.50000000000006
 20
1783.5
 30
-7.500000000000021
 70
   192
  0
VERTEX
  5
150A
  8
RÁM
 10
-22.50000000000022
 20
1783.5
 30
-7.500000000000024
 70
   192
  0
VERTEX
  5
150B
  8
RÁM
 10
-28.50000000000014
 20
1789.5
 30
-7.500000000000024
 70
   192
  0
VERTEX
  5
150C
  8
RÁM
 10
-24.25735931288092
 20
1787.742640687119
 30
-7.500000000000024
 70
   192
  0
VERTEX
  5
150D
  8
RÁM
 10
-32.74264068711936
 20
1787.742640687119
 30
-7.500000000000024
 70
   192
  0
VERTEX
  5
150E
  8
RÁM
 10
-26.47637491919939
 20
1783.5
 30
-8.236685434573882
 70
   192
  0
VERTEX
  5
150F
  8
RÁM
 10
-24.46951972394133
 20
1783.5
 30
-7.969104741872798
 70
   192
  0
VERTEX
  5
1510
  8
RÁM
 10
-32.53048027605888
 20
1783.5
 30
-7.969104741872808
 70
   192
  0
VERTEX
  5
1511
  8
RÁM
 10
-30.52362508080078
 20
1783.5
 30
-8.23668543457389
 70
   192
  0
VERTEX
  5
1512
  8
RÁM
 10
0.0
 20
0.0
 30
0.0
 70
   128
 71
     1
 72
     5
 73
     8
  0
VERTEX
  5
1513
  8
RÁM
 10
0.0
 20
0.0
 30
0.0
 70
   128
 71
     1
 72
     8
 73
     7
  0
VERTEX
  5
1514
  8
RÁM
 10
0.0
 20
0.0
 30
0.0
 70
   128
 71
     5
 72
     3
 73
     8
  0
VERTEX
  5
1515
  8
RÁM
 10
0.0
 20
0.0
 30
0.0
 70
   128
 71
     1
 72
     4
 73
     5
  0
VERTEX
  5
1516
  8
RÁM
 10
0.0
 20
0.0
 30
0.0
 70
   128
 71
     1
 72
     6
 73
     4
  0
VERTEX
  5
1517
  8
RÁM
 10
0.0
 20
0.0
 30
0.0
 70
   128
 71
     9
 72
     2
 73
     6
  0
VERTEX
  5
1518
  8
RÁM
 10
0.0
 20
0.0
 30
0.0
 70
   128
 71
    10
 72
     9
 73
     6
  0
VERTEX
  5
1519
  8
RÁM
 10
0.0
 20
0.0
 30
0.0
 70
   128
 71
    10
 72
     6
 73
     1
  0
SEQEND
  5
16E6
  8
RÁM
  0
POLYLINE
  5
151A
  8
RÁM
 66
     1
 10
0.0
 20
0.0
 30
0.0
 70
    64
 71
     4
 72
     2
  0
VERTEX
  5
151B
  8
RÁM
 10
-41.00000000000006
 20
1771.5
 30
-7.500000000000019
 70
   192
  0
VERTEX
  5
151C
  8
RÁM
 10
-41.00000000000006
 20
1771.5
 30
-3.000000000000019
 70
   192
  0
VERTEX
  5
151D
  8
RÁM
 10
-41.00000000000006
 20
1827.5
 30
-3.000000000000031
 70
   192
  0
VERTEX
  5
151E
  8
RÁM
 10
-41.00000000000006
 20
1827.5
 30
-7.500000000000031
 70
   192
  0
VERTEX
  5
151F
  8
RÁM
 10
0.0
 20
0.0
 30
0.0
 70
   128
 71
     3
 72
     4
 73
    -1
  0
VERTEX
  5
1520
  8
RÁM
 10
0.0
 20
0.0
 30
0.0
 70
   128
 71
     2
 72
    -3
 73
     1
  0
SEQEND
  5
16E7
  8
RÁM
  0
POLYLINE
  5
1521
  8
RÁM
 66
     1
 10
0.0
 20
0.0
 30
0.0
 70
    64
 71
     4
 72
     2
  0
VERTEX
  5
1522
  8
RÁM
 10
-41.00000000000006
 20
1771.5
 30
-3.000000000000019
 70
   192
  0
VERTEX
  5
1523
  8
RÁM
 10
-15.99999999999994
 20
1771.5
 30
-3.000000000000019
 70
   192
  0
VERTEX
  5
1524
  8
RÁM
 10
-15.99999999999994
 20
1827.5
 30
-3.000000000000031
 70
   192
  0
VERTEX
  5
1525
  8
RÁM
 10
-41.00000000000006
 20
1827.5
 30
-3.000000000000031
 70
   192
  0
VERTEX
  5
1526
  8
RÁM
 10
0.0
 20
0.0
 30
0.0
 70
   128
 71
     3
 72
     4
 73
    -1
  0
VERTEX
  5
1527
  8
RÁM
 10
0.0
 20
0.0
 30
0.0
 70
   128
 71
     2
 72
    -3
 73
     1
  0
SEQEND
  5
16E8
  8
RÁM
  0
POLYLINE
  5
1528
  8
RÁM
 66
     1
 10
0.0
 20
0.0
 30
0.0
 70
    64
 71
     4
 72
     2
  0
VERTEX
  5
1529
  8
RÁM
 10
-15.99999999999994
 20
1771.5
 30
-3.000000000000019
 70
   192
  0
VERTEX
  5
152A
  8
RÁM
 10
-15.99999999999994
 20
1827.5
 30
-3.000000000000031
 70
   192
  0
VERTEX
  5
152B
  8
RÁM
 10
-15.99999999999994
 20
1827.5
 30
-7.500000000000031
 70
   192
  0
VERTEX
  5
152C
  8
RÁM
 10
-15.99999999999994
 20
1771.5
 30
-7.500000000000019
 70
   192
  0
VERTEX
  5
152D
  8
RÁM
 10
0.0
 20
0.0
 30
0.0
 70
   128
 71
     1
 72
     4
 73
    -3
  0
VERTEX
  5
152E
  8
RÁM
 10
0.0
 20
0.0
 30
0.0
 70
   128
 71
    -1
 72
     3
 73
     2
  0
SEQEND
  5
16E9
  8
RÁM
  0
POLYLINE
  5
152F
  8
RÁM
 66
     1
 10
0.0
 20
0.0
 30
0.0
 70
    64
 71
    20
 72
    22
  0
VERTEX
  5
1530
  8
RÁM
 10
-15.99999999999994
 20
1771.5
 30
-7.500000000000019
 70
   192
  0
VERTEX
  5
1531
  8
RÁM
 10
-15.99999999999994
 20
1827.5
 30
-7.500000000000031
 70
   192
  0
VERTEX
  5
1532
  8
RÁM
 10
-41.00000000000006
 20
1827.5
 30
-7.500000000000031
 70
   192
  0
VERTEX
  5
1533
  8
RÁM
 10
-41.00000000000006
 20
1771.5
 30
-7.500000000000019
 70
   192
  0
VERTEX
  5
1534
  8
RÁM
 10
-34.50000000000006
 20
1783.5
 30
-7.500000000000024
 70
   192
  0
VERTEX
  5
1535
  8
RÁM
 10
-32.74264068711936
 20
1787.742640687119
 30
-7.500000000000024
 70
   192
  0
VERTEX
  5
1536
  8
RÁM
 10
-28.50000000000014
 20
1789.5
 30
-7.500000000000024
 70
   192
  0
VERTEX
  5
1537
  8
RÁM
 10
-24.25735931288092
 20
1787.742640687119
 30
-7.500000000000024
 70
   192
  0
VERTEX
  5
1538
  8
RÁM
 10
-22.50000000000022
 20
1783.5
 30
-7.500000000000024
 70
   192
  0
VERTEX
  5
1539
  8
RÁM
 10
-24.25735931288092
 20
1779.257359312881
 30
-7.500000000000024
 70
   192
  0
VERTEX
  5
153A
  8
RÁM
 10
-28.50000000000014
 20
1777.5
 30
-7.500000000000024
 70
   192
  0
VERTEX
  5
153B
  8
RÁM
 10
-32.74264068711936
 20
1779.257359312881
 30
-7.500000000000024
 70
   192
  0
VERTEX
  5
153C
  8
RÁM
 10
-34.50000000000006
 20
1815.5
 30
-7.500000000000031
 70
   192
  0
VERTEX
  5
153D
  8
RÁM
 10
-32.74264068711936
 20
1819.742640687119
 30
-7.500000000000031
 70
   192
  0
VERTEX
  5
153E
  8
RÁM
 10
-28.50000000000014
 20
1821.5
 30
-7.500000000000031
 70
   192
  0
VERTEX
  5
153F
  8
RÁM
 10
-24.25735931288092
 20
1819.742640687119
 30
-7.500000000000031
 70
   192
  0
VERTEX
  5
1540
  8
RÁM
 10
-22.50000000000022
 20
1815.5
 30
-7.500000000000031
 70
   192
  0
VERTEX
  5
1541
  8
RÁM
 10
-24.25735931288092
 20
1811.257359312881
 30
-7.500000000000031
 70
   192
  0
VERTEX
  5
1542
  8
RÁM
 10
-28.50000000000014
 20
1809.5
 30
-7.500000000000031
 70
   192
  0
VERTEX
  5
1543
  8
RÁM
 10
-32.74264068711936
 20
1811.257359312881
 30
-7.500000000000031
 70
   192
  0
VERTEX
  5
1544
  8
RÁM
 10
0.0
 20
0.0
 30
0.0
 70
   128
 71
     6
 72
    -5
 73
    -4
  0
VERTEX
  5
1545
  8
RÁM
 10
0.0
 20
0.0
 30
0.0
 70
   128
 71
    20
 72
   -19
 73
    -7
  0
VERTEX
  5
1546
  8
RÁM
 10
0.0
 20
0.0
 30
0.0
 70
   128
 71
    -6
 72
     4
 73
    -3
  0
VERTEX
  5
1547
  8
RÁM
 10
0.0
 20
0.0
 30
0.0
 70
   128
 71
    -6
 72
    -3
 73
   -20
  0
VERTEX
  5
1548
  8
RÁM
 10
0.0
 20
0.0
 30
0.0
 70
   128
 71
   -20
 72
     7
 73
    -6
  0
VERTEX
  5
1549
  8
RÁM
 10
0.0
 20
0.0
 30
0.0
 70
   128
 71
    -3
 72
    13
 73
   -20
  0
VERTEX
  5
154A
  8
RÁM
 10
0.0
 20
0.0
 30
0.0
 70
   128
 71
   -19
 72
     8
 73
    -7
  0
VERTEX
  5
154B
  8
RÁM
 10
0.0
 20
0.0
 30
0.0
 70
   128
 71
    14
 72
   -13
 73
    -3
  0
VERTEX
  5
154C
  8
RÁM
 10
0.0
 20
0.0
 30
0.0
 70
   128
 71
    -3
 72
    15
 73
   -14
  0
VERTEX
  5
154D
  8
RÁM
 10
0.0
 20
0.0
 30
0.0
 70
   128
 71
   -15
 72
     3
 73
    -2
  0
VERTEX
  5
154E
  8
RÁM
 10
0.0
 20
0.0
 30
0.0
 70
   128
 71
    -2
 72
    16
 73
   -15
  0
VERTEX
  5
154F
  8
RÁM
 10
0.0
 20
0.0
 30
0.0
 70
   128
 71
    -2
 72
    17
 73
   -16
  0
VERTEX
  5
1550
  8
RÁM
 10
0.0
 20
0.0
 30
0.0
 70
   128
 71
    -2
 72
    18
 73
   -17
  0
VERTEX
  5
1551
  8
RÁM
 10
0.0
 20
0.0
 30
0.0
 70
   128
 71
   -18
 72
     2
 73
    -1
  0
VERTEX
  5
1552
  8
RÁM
 10
0.0
 20
0.0
 30
0.0
 70
   128
 71
   -18
 72
    -1
 73
    -8
  0
VERTEX
  5
1553
  8
RÁM
 10
0.0
 20
0.0
 30
0.0
 70
   128
 71
    -8
 72
    19
 73
   -18
  0
VERTEX
  5
1554
  8
RÁM
 10
0.0
 20
0.0
 30
0.0
 70
   128
 71
    -1
 72
     9
 73
    -8
  0
VERTEX
  5
1555
  8
RÁM
 10
0.0
 20
0.0
 30
0.0
 70
   128
 71
    -1
 72
    10
 73
    -9
  0
VERTEX
  5
1556
  8
RÁM
 10
0.0
 20
0.0
 30
0.0
 70
   128
 71
    -1
 72
    11
 73
   -10
  0
VERTEX
  5
1557
  8
RÁM
 10
0.0
 20
0.0
 30
0.0
 70
   128
 71
     1
 72
    -4
 73
   -11
  0
VERTEX
  5
1558
  8
RÁM
 10
0.0
 20
0.0
 30
0.0
 70
   128
 71
    -4
 72
    12
 73
   -11
  0
VERTEX
  5
1559
  8
RÁM
 10
0.0
 20
0.0
 30
0.0
 70
   128
 71
    -4
 72
     5
 73
   -12
  0
SEQEND
  5
16EA
  8
RÁM
  0
POLYLINE
  5
155A
  8
RÁM
 66
     1
 10
0.0
 20
0.0
 30
0.0
 70
    64
 71
     4
 72
     2
  0
VERTEX
  5
155B
  8
RÁM
 10
-41.00000000000006
 20
1827.5
 30
-7.500000000000031
 70
   192
  0
VERTEX
  5
155C
  8
RÁM
 10
-41.00000000000006
 20
1827.5
 30
-3.000000000000031
 70
   192
  0
VERTEX
  5
155D
  8
RÁM
 10
-15.99999999999994
 20
1827.5
 30
-3.000000000000031
 70
   192
  0
VERTEX
  5
155E
  8
RÁM
 10
-15.99999999999994
 20
1827.5
 30
-7.500000000000031
 70
   192
  0
VERTEX
  5
155F
  8
RÁM
 10
0.0
 20
0.0
 30
0.0
 70
   128
 71
     3
 72
     4
 73
    -1
  0
VERTEX
  5
1560
  8
RÁM
 10
0.0
 20
0.0
 30
0.0
 70
   128
 71
     2
 72
    -3
 73
     1
  0
SEQEND
  5
16EB
  8
RÁM
  0
POLYLINE
  5
1561
  8
RÁM
 66
     1
 10
0.0
 20
0.0
 30
0.0
 70
    64
 71
     4
 72
     2
  0
VERTEX
  5
1562
  8
RÁM
 10
-41.00000000000006
 20
1771.5
 30
-3.000000000000019
 70
   192
  0
VERTEX
  5
1563
  8
RÁM
 10
-15.99999999999994
 20
1771.5
 30
-3.000000000000019
 70
   192
  0
VERTEX
  5
1564
  8
RÁM
 10
-15.99999999999994
 20
1771.5
 30
-7.500000000000019
 70
   192
  0
VERTEX
  5
1565
  8
RÁM
 10
-41.00000000000006
 20
1771.5
 30
-7.500000000000019
 70
   192
  0
VERTEX
  5
1566
  8
RÁM
 10
0.0
 20
0.0
 30
0.0
 70
   128
 71
     1
 72
     4
 73
    -3
  0
VERTEX
  5
1567
  8
RÁM
 10
0.0
 20
0.0
 30
0.0
 70
   128
 71
    -1
 72
     3
 73
     2
  0
SEQEND
  5
16EC
  8
RÁM
  0
POLYLINE
  5
1568
  8
RÁM
 66
     1
 10
0.0
 20
0.0
 30
0.0
 70
    64
 71
    10
 72
     8
  0
VERTEX
  5
1569
  8
RÁM
 10
-28.50000000000005
 20
1783.5
 30
-8.300000000000026
 70
   192
  0
VERTEX
  5
156A
  8
RÁM
 10
-22.50000000000022
 20
1783.5
 30
-7.500000000000021
 70
   192
  0
VERTEX
  5
156B
  8
RÁM
 10
-34.50000000000006
 20
1783.5
 30
-7.500000000000024
 70
   192
  0
VERTEX
  5
156C
  8
RÁM
 10
-28.50000000000014
 20
1777.5
 30
-7.500000000000024
 70
   192
  0
VERTEX
  5
156D
  8
RÁM
 10
-32.74264068711936
 20
1779.257359312881
 30
-7.500000000000024
 70
   192
  0
VERTEX
  5
156E
  8
RÁM
 10
-24.25735931288092
 20
1779.257359312881
 30
-7.500000000000024
 70
   192
  0
VERTEX
  5
156F
  8
RÁM
 10
-30.52362508080078
 20
1783.5
 30
-8.23668543457389
 70
   192
  0
VERTEX
  5
1570
  8
RÁM
 10
-32.53048027605888
 20
1783.5
 30
-7.969104741872808
 70
   192
  0
VERTEX
  5
1571
  8
RÁM
 10
-24.46951972394133
 20
1783.5
 30
-7.969104741872798
 70
   192
  0
VERTEX
  5
1572
  8
RÁM
 10
-26.47637491919939
 20
1783.5
 30
-8.236685434573882
 70
   192
  0
VERTEX
  5
1573
  8
RÁM
 10
0.0
 20
0.0
 30
0.0
 70
   128
 71
     1
 72
     5
 73
     8
  0
VERTEX
  5
1574
  8
RÁM
 10
0.0
 20
0.0
 30
0.0
 70
   128
 71
     1
 72
     8
 73
     7
  0
VERTEX
  5
1575
  8
RÁM
 10
0.0
 20
0.0
 30
0.0
 70
   128
 71
     5
 72
     3
 73
     8
  0
VERTEX
  5
1576
  8
RÁM
 10
0.0
 20
0.0
 30
0.0
 70
   128
 71
     1
 72
     4
 73
     5
  0
VERTEX
  5
1577
  8
RÁM
 10
0.0
 20
0.0
 30
0.0
 70
   128
 71
     1
 72
     6
 73
     4
  0
VERTEX
  5
1578
  8
RÁM
 10
0.0
 20
0.0
 30
0.0
 70
   128
 71
     9
 72
     2
 73
     6
  0
VERTEX
  5
1579
  8
RÁM
 10
0.0
 20
0.0
 30
0.0
 70
   128
 71
    10
 72
     9
 73
     6
  0
VERTEX
  5
157A
  8
RÁM
 10
0.0
 20
0.0
 30
0.0
 70
   128
 71
    10
 72
     6
 73
     1
  0
SEQEND
  5
16ED
  8
RÁM
  0
POLYLINE
  5
157B
  8
RÁM
 66
     1
 10
0.0
 20
0.0
 30
0.0
 70
    64
 71
    10
 72
     8
  0
VERTEX
  5
157C
  8
RÁM
 10
-28.50000000000005
 20
1815.5
 30
-8.300000000000033
 70
   192
  0
VERTEX
  5
157D
  8
RÁM
 10
-22.50000000000022
 20
1815.5
 30
-7.500000000000028
 70
   192
  0
VERTEX
  5
157E
  8
RÁM
 10
-34.50000000000006
 20
1815.5
 30
-7.500000000000031
 70
   192
  0
VERTEX
  5
157F
  8
RÁM
 10
-28.50000000000014
 20
1809.5
 30
-7.500000000000031
 70
   192
  0
VERTEX
  5
1580
  8
RÁM
 10
-32.74264068711936
 20
1811.257359312881
 30
-7.500000000000031
 70
   192
  0
VERTEX
  5
1581
  8
RÁM
 10
-24.25735931288092
 20
1811.257359312881
 30
-7.500000000000031
 70
   192
  0
VERTEX
  5
1582
  8
RÁM
 10
-30.52362508080078
 20
1815.5
 30
-8.236685434573896
 70
   192
  0
VERTEX
  5
1583
  8
RÁM
 10
-32.53048027605888
 20
1815.5
 30
-7.969104741872815
 70
   192
  0
VERTEX
  5
1584
  8
RÁM
 10
-24.46951972394133
 20
1815.5
 30
-7.969104741872805
 70
   192
  0
VERTEX
  5
1585
  8
RÁM
 10
-26.47637491919939
 20
1815.5
 30
-8.23668543457389
 70
   192
  0
VERTEX
  5
1586
  8
RÁM
 10
0.0
 20
0.0
 30
0.0
 70
   128
 71
     1
 72
     5
 73
     8
  0
VERTEX
  5
1587
  8
RÁM
 10
0.0
 20
0.0
 30
0.0
 70
   128
 71
     1
 72
     8
 73
     7
  0
VERTEX
  5
1588
  8
RÁM
 10
0.0
 20
0.0
 30
0.0
 70
   128
 71
     5
 72
     3
 73
     8
  0
VERTEX
  5
1589
  8
RÁM
 10
0.0
 20
0.0
 30
0.0
 70
   128
 71
     1
 72
     4
 73
     5
  0
VERTEX
  5
158A
  8
RÁM
 10
0.0
 20
0.0
 30
0.0
 70
   128
 71
     1
 72
     6
 73
     4
  0
VERTEX
  5
158B
  8
RÁM
 10
0.0
 20
0.0
 30
0.0
 70
   128
 71
     9
 72
     2
 73
     6
  0
VERTEX
  5
158C
  8
RÁM
 10
0.0
 20
0.0
 30
0.0
 70
   128
 71
    10
 72
     9
 73
     6
  0
VERTEX
  5
158D
  8
RÁM
 10
0.0
 20
0.0
 30
0.0
 70
   128
 71
    10
 72
     6
 73
     1
  0
SEQEND
  5
16EE
  8
RÁM
  0
ENDBLK
  5
16E4
  8
0
  0
BLOCK
  8
0
  2
*X13
 70
     1
 10
0.0
 20
0.0
 30
0.0
  3
*X13
  1

  0
POLYLINE
  5
158F
  8
RÁM
 66
     1
 10
0.0
 20
0.0
 30
0.0
 70
    64
 71
    10
 72
     8
  0
VERTEX
  5
1590
  8
RÁM
 10
-28.50000000000005
 20
234.5
 30
-8.300000000000036
 70
   192
  0
VERTEX
  5
1591
  8
RÁM
 10
-34.50000000000006
 20
234.5
 30
-7.500000000000036
 70
   192
  0
VERTEX
  5
1592
  8
RÁM
 10
-22.50000000000022
 20
234.5
 30
-7.500000000000038
 70
   192
  0
VERTEX
  5
1593
  8
RÁM
 10
-28.50000000000014
 20
240.4999999999999
 30
-7.500000000000038
 70
   192
  0
VERTEX
  5
1594
  8
RÁM
 10
-24.25735931288092
 20
238.7426406871192
 30
-7.500000000000038
 70
   192
  0
VERTEX
  5
1595
  8
RÁM
 10
-32.74264068711936
 20
238.7426406871192
 30
-7.500000000000038
 70
   192
  0
VERTEX
  5
1596
  8
RÁM
 10
-26.47637491919939
 20
234.5
 30
-8.236685434573896
 70
   192
  0
VERTEX
  5
1597
  8
RÁM
 10
-24.46951972394133
 20
234.5
 30
-7.969104741872812
 70
   192
  0
VERTEX
  5
1598
  8
RÁM
 10
-32.53048027605888
 20
234.5
 30
-7.969104741872822
 70
   192
  0
VERTEX
  5
1599
  8
RÁM
 10
-30.52362508080078
 20
234.5
 30
-8.236685434573904
 70
   192
  0
VERTEX
  5
159A
  8
RÁM
 10
0.0
 20
0.0
 30
0.0
 70
   128
 71
     1
 72
     5
 73
     8
  0
VERTEX
  5
159B
  8
RÁM
 10
0.0
 20
0.0
 30
0.0
 70
   128
 71
     1
 72
     8
 73
     7
  0
VERTEX
  5
159C
  8
RÁM
 10
0.0
 20
0.0
 30
0.0
 70
   128
 71
     5
 72
     3
 73
     8
  0
VERTEX
  5
159D
  8
RÁM
 10
0.0
 20
0.0
 30
0.0
 70
   128
 71
     1
 72
     4
 73
     5
  0
VERTEX
  5
159E
  8
RÁM
 10
0.0
 20
0.0
 30
0.0
 70
   128
 71
     1
 72
     6
 73
     4
  0
VERTEX
  5
159F
  8
RÁM
 10
0.0
 20
0.0
 30
0.0
 70
   128
 71
     9
 72
     2
 73
     6
  0
VERTEX
  5
15A0
  8
RÁM
 10
0.0
 20
0.0
 30
0.0
 70
   128
 71
    10
 72
     9
 73
     6
  0
VERTEX
  5
15A1
  8
RÁM
 10
0.0
 20
0.0
 30
0.0
 70
   128
 71
    10
 72
     6
 73
     1
  0
SEQEND
  5
16F1
  8
RÁM
  0
POLYLINE
  5
15A2
  8
RÁM
 66
     1
 10
0.0
 20
0.0
 30
0.0
 70
    64
 71
    10
 72
     8
  0
VERTEX
  5
15A3
  8
RÁM
 10
-28.50000000000005
 20
202.5
 30
-8.30000000000003
 70
   192
  0
VERTEX
  5
15A4
  8
RÁM
 10
-34.50000000000006
 20
202.5
 30
-7.500000000000028
 70
   192
  0
VERTEX
  5
15A5
  8
RÁM
 10
-22.50000000000022
 20
202.5
 30
-7.500000000000031
 70
   192
  0
VERTEX
  5
15A6
  8
RÁM
 10
-28.50000000000014
 20
208.4999999999999
 30
-7.500000000000031
 70
   192
  0
VERTEX
  5
15A7
  8
RÁM
 10
-24.25735931288092
 20
206.7426406871192
 30
-7.500000000000031
 70
   192
  0
VERTEX
  5
15A8
  8
RÁM
 10
-32.74264068711936
 20
206.7426406871192
 30
-7.500000000000031
 70
   192
  0
VERTEX
  5
15A9
  8
RÁM
 10
-26.47637491919939
 20
202.5
 30
-8.23668543457389
 70
   192
  0
VERTEX
  5
15AA
  8
RÁM
 10
-24.46951972394133
 20
202.5
 30
-7.969104741872805
 70
   192
  0
VERTEX
  5
15AB
  8
RÁM
 10
-32.53048027605888
 20
202.5
 30
-7.969104741872815
 70
   192
  0
VERTEX
  5
15AC
  8
RÁM
 10
-30.52362508080078
 20
202.5
 30
-8.236685434573896
 70
   192
  0
VERTEX
  5
15AD
  8
RÁM
 10
0.0
 20
0.0
 30
0.0
 70
   128
 71
     1
 72
     5
 73
     8
  0
VERTEX
  5
15AE
  8
RÁM
 10
0.0
 20
0.0
 30
0.0
 70
   128
 71
     1
 72
     8
 73
     7
  0
VERTEX
  5
15AF
  8
RÁM
 10
0.0
 20
0.0
 30
0.0
 70
   128
 71
     5
 72
     3
 73
     8
  0
VERTEX
  5
15B0
  8
RÁM
 10
0.0
 20
0.0
 30
0.0
 70
   128
 71
     1
 72
     4
 73
     5
  0
VERTEX
  5
15B1
  8
RÁM
 10
0.0
 20
0.0
 30
0.0
 70
   128
 71
     1
 72
     6
 73
     4
  0
VERTEX
  5
15B2
  8
RÁM
 10
0.0
 20
0.0
 30
0.0
 70
   128
 71
     9
 72
     2
 73
     6
  0
VERTEX
  5
15B3
  8
RÁM
 10
0.0
 20
0.0
 30
0.0
 70
   128
 71
    10
 72
     9
 73
     6
  0
VERTEX
  5
15B4
  8
RÁM
 10
0.0
 20
0.0
 30
0.0
 70
   128
 71
    10
 72
     6
 73
     1
  0
SEQEND
  5
16F2
  8
RÁM
  0
POLYLINE
  5
15B5
  8
RÁM
 66
     1
 10
0.0
 20
0.0
 30
0.0
 70
    64
 71
     4
 72
     2
  0
VERTEX
  5
15B6
  8
RÁM
 10
-41.00000000000006
 20
190.5
 30
-7.500000000000026
 70
   192
  0
VERTEX
  5
15B7
  8
RÁM
 10
-41.00000000000006
 20
190.5
 30
-3.000000000000026
 70
   192
  0
VERTEX
  5
15B8
  8
RÁM
 10
-41.00000000000006
 20
246.5
 30
-3.000000000000038
 70
   192
  0
VERTEX
  5
15B9
  8
RÁM
 10
-41.00000000000006
 20
246.5
 30
-7.500000000000038
 70
   192
  0
VERTEX
  5
15BA
  8
RÁM
 10
0.0
 20
0.0
 30
0.0
 70
   128
 71
     3
 72
     4
 73
    -1
  0
VERTEX
  5
15BB
  8
RÁM
 10
0.0
 20
0.0
 30
0.0
 70
   128
 71
     2
 72
    -3
 73
     1
  0
SEQEND
  5
16F3
  8
RÁM
  0
POLYLINE
  5
15BC
  8
RÁM
 66
     1
 10
0.0
 20
0.0
 30
0.0
 70
    64
 71
     4
 72
     2
  0
VERTEX
  5
15BD
  8
RÁM
 10
-41.00000000000006
 20
190.5
 30
-3.000000000000026
 70
   192
  0
VERTEX
  5
15BE
  8
RÁM
 10
-15.99999999999994
 20
190.5
 30
-3.000000000000026
 70
   192
  0
VERTEX
  5
15BF
  8
RÁM
 10
-15.99999999999994
 20
246.5
 30
-3.000000000000038
 70
   192
  0
VERTEX
  5
15C0
  8
RÁM
 10
-41.00000000000006
 20
246.5
 30
-3.000000000000038
 70
   192
  0
VERTEX
  5
15C1
  8
RÁM
 10
0.0
 20
0.0
 30
0.0
 70
   128
 71
     3
 72
     4
 73
    -1
  0
VERTEX
  5
15C2
  8
RÁM
 10
0.0
 20
0.0
 30
0.0
 70
   128
 71
     2
 72
    -3
 73
     1
  0
SEQEND
  5
16F4
  8
RÁM
  0
POLYLINE
  5
15C3
  8
RÁM
 66
     1
 10
0.0
 20
0.0
 30
0.0
 70
    64
 71
     4
 72
     2
  0
VERTEX
  5
15C4
  8
RÁM
 10
-15.99999999999994
 20
190.5
 30
-3.000000000000026
 70
   192
  0
VERTEX
  5
15C5
  8
RÁM
 10
-15.99999999999994
 20
246.5
 30
-3.000000000000038
 70
   192
  0
VERTEX
  5
15C6
  8
RÁM
 10
-15.99999999999994
 20
246.5
 30
-7.500000000000038
 70
   192
  0
VERTEX
  5
15C7
  8
RÁM
 10
-15.99999999999994
 20
190.5
 30
-7.500000000000026
 70
   192
  0
VERTEX
  5
15C8
  8
RÁM
 10
0.0
 20
0.0
 30
0.0
 70
   128
 71
     1
 72
     4
 73
    -3
  0
VERTEX
  5
15C9
  8
RÁM
 10
0.0
 20
0.0
 30
0.0
 70
   128
 71
    -1
 72
     3
 73
     2
  0
SEQEND
  5
16F5
  8
RÁM
  0
POLYLINE
  5
15CA
  8
RÁM
 66
     1
 10
0.0
 20
0.0
 30
0.0
 70
    64
 71
    20
 72
    22
  0
VERTEX
  5
15CB
  8
RÁM
 10
-15.99999999999994
 20
190.5
 30
-7.500000000000026
 70
   192
  0
VERTEX
  5
15CC
  8
RÁM
 10
-15.99999999999994
 20
246.5
 30
-7.500000000000038
 70
   192
  0
VERTEX
  5
15CD
  8
RÁM
 10
-41.00000000000006
 20
246.5
 30
-7.500000000000038
 70
   192
  0
VERTEX
  5
15CE
  8
RÁM
 10
-41.00000000000006
 20
190.5
 30
-7.500000000000026
 70
   192
  0
VERTEX
  5
15CF
  8
RÁM
 10
-34.50000000000006
 20
202.5
 30
-7.500000000000031
 70
   192
  0
VERTEX
  5
15D0
  8
RÁM
 10
-32.74264068711936
 20
206.7426406871192
 30
-7.500000000000031
 70
   192
  0
VERTEX
  5
15D1
  8
RÁM
 10
-28.50000000000014
 20
208.4999999999999
 30
-7.500000000000031
 70
   192
  0
VERTEX
  5
15D2
  8
RÁM
 10
-24.25735931288092
 20
206.7426406871192
 30
-7.500000000000031
 70
   192
  0
VERTEX
  5
15D3
  8
RÁM
 10
-22.50000000000022
 20
202.5
 30
-7.500000000000031
 70
   192
  0
VERTEX
  5
15D4
  8
RÁM
 10
-24.25735931288092
 20
198.2573593128808
 30
-7.500000000000031
 70
   192
  0
VERTEX
  5
15D5
  8
RÁM
 10
-28.50000000000014
 20
196.5000000000001
 30
-7.500000000000031
 70
   192
  0
VERTEX
  5
15D6
  8
RÁM
 10
-32.74264068711936
 20
198.2573593128808
 30
-7.500000000000031
 70
   192
  0
VERTEX
  5
15D7
  8
RÁM
 10
-34.50000000000006
 20
234.5
 30
-7.500000000000038
 70
   192
  0
VERTEX
  5
15D8
  8
RÁM
 10
-32.74264068711936
 20
238.7426406871192
 30
-7.500000000000038
 70
   192
  0
VERTEX
  5
15D9
  8
RÁM
 10
-28.50000000000014
 20
240.4999999999999
 30
-7.500000000000038
 70
   192
  0
VERTEX
  5
15DA
  8
RÁM
 10
-24.25735931288092
 20
238.7426406871192
 30
-7.500000000000038
 70
   192
  0
VERTEX
  5
15DB
  8
RÁM
 10
-22.50000000000022
 20
234.5
 30
-7.500000000000038
 70
   192
  0
VERTEX
  5
15DC
  8
RÁM
 10
-24.25735931288092
 20
230.2573593128808
 30
-7.500000000000038
 70
   192
  0
VERTEX
  5
15DD
  8
RÁM
 10
-28.50000000000014
 20
228.5000000000001
 30
-7.500000000000038
 70
   192
  0
VERTEX
  5
15DE
  8
RÁM
 10
-32.74264068711936
 20
230.2573593128808
 30
-7.500000000000038
 70
   192
  0
VERTEX
  5
15DF
  8
RÁM
 10
0.0
 20
0.0
 30
0.0
 70
   128
 71
     6
 72
    -5
 73
    -4
  0
VERTEX
  5
15E0
  8
RÁM
 10
0.0
 20
0.0
 30
0.0
 70
   128
 71
    20
 72
   -19
 73
    -7
  0
VERTEX
  5
15E1
  8
RÁM
 10
0.0
 20
0.0
 30
0.0
 70
   128
 71
    -6
 72
     4
 73
    -3
  0
VERTEX
  5
15E2
  8
RÁM
 10
0.0
 20
0.0
 30
0.0
 70
   128
 71
    -6
 72
    -3
 73
   -20
  0
VERTEX
  5
15E3
  8
RÁM
 10
0.0
 20
0.0
 30
0.0
 70
   128
 71
   -20
 72
     7
 73
    -6
  0
VERTEX
  5
15E4
  8
RÁM
 10
0.0
 20
0.0
 30
0.0
 70
   128
 71
    -3
 72
    13
 73
   -20
  0
VERTEX
  5
15E5
  8
RÁM
 10
0.0
 20
0.0
 30
0.0
 70
   128
 71
   -19
 72
     8
 73
    -7
  0
VERTEX
  5
15E6
  8
RÁM
 10
0.0
 20
0.0
 30
0.0
 70
   128
 71
    14
 72
   -13
 73
    -3
  0
VERTEX
  5
15E7
  8
RÁM
 10
0.0
 20
0.0
 30
0.0
 70
   128
 71
    -3
 72
    15
 73
   -14
  0
VERTEX
  5
15E8
  8
RÁM
 10
0.0
 20
0.0
 30
0.0
 70
   128
 71
   -15
 72
     3
 73
    -2
  0
VERTEX
  5
15E9
  8
RÁM
 10
0.0
 20
0.0
 30
0.0
 70
   128
 71
    -2
 72
    16
 73
   -15
  0
VERTEX
  5
15EA
  8
RÁM
 10
0.0
 20
0.0
 30
0.0
 70
   128
 71
    -2
 72
    17
 73
   -16
  0
VERTEX
  5
15EB
  8
RÁM
 10
0.0
 20
0.0
 30
0.0
 70
   128
 71
    -2
 72
    18
 73
   -17
  0
VERTEX
  5
15EC
  8
RÁM
 10
0.0
 20
0.0
 30
0.0
 70
   128
 71
   -18
 72
     2
 73
    -1
  0
VERTEX
  5
15ED
  8
RÁM
 10
0.0
 20
0.0
 30
0.0
 70
   128
 71
   -18
 72
    -1
 73
    -8
  0
VERTEX
  5
15EE
  8
RÁM
 10
0.0
 20
0.0
 30
0.0
 70
   128
 71
    -8
 72
    19
 73
   -18
  0
VERTEX
  5
15EF
  8
RÁM
 10
0.0
 20
0.0
 30
0.0
 70
   128
 71
    -1
 72
     9
 73
    -8
  0
VERTEX
  5
15F0
  8
RÁM
 10
0.0
 20
0.0
 30
0.0
 70
   128
 71
    -1
 72
    10
 73
    -9
  0
VERTEX
  5
15F1
  8
RÁM
 10
0.0
 20
0.0
 30
0.0
 70
   128
 71
    -1
 72
    11
 73
   -10
  0
VERTEX
  5
15F2
  8
RÁM
 10
0.0
 20
0.0
 30
0.0
 70
   128
 71
     1
 72
    -4
 73
   -11
  0
VERTEX
  5
15F3
  8
RÁM
 10
0.0
 20
0.0
 30
0.0
 70
   128
 71
    -4
 72
    12
 73
   -11
  0
VERTEX
  5
15F4
  8
RÁM
 10
0.0
 20
0.0
 30
0.0
 70
   128
 71
    -4
 72
     5
 73
   -12
  0
SEQEND
  5
16F6
  8
RÁM
  0
POLYLINE
  5
15F5
  8
RÁM
 66
     1
 10
0.0
 20
0.0
 30
0.0
 70
    64
 71
     4
 72
     2
  0
VERTEX
  5
15F6
  8
RÁM
 10
-41.00000000000006
 20
246.5
 30
-7.500000000000038
 70
   192
  0
VERTEX
  5
15F7
  8
RÁM
 10
-41.00000000000006
 20
246.5
 30
-3.000000000000038
 70
   192
  0
VERTEX
  5
15F8
  8
RÁM
 10
-15.99999999999994
 20
246.5
 30
-3.000000000000038
 70
   192
  0
VERTEX
  5
15F9
  8
RÁM
 10
-15.99999999999994
 20
246.5
 30
-7.500000000000038
 70
   192
  0
VERTEX
  5
15FA
  8
RÁM
 10
0.0
 20
0.0
 30
0.0
 70
   128
 71
     3
 72
     4
 73
    -1
  0
VERTEX
  5
15FB
  8
RÁM
 10
0.0
 20
0.0
 30
0.0
 70
   128
 71
     2
 72
    -3
 73
     1
  0
SEQEND
  5
16F7
  8
RÁM
  0
POLYLINE
  5
15FC
  8
RÁM
 66
     1
 10
0.0
 20
0.0
 30
0.0
 70
    64
 71
     4
 72
     2
  0
VERTEX
  5
15FD
  8
RÁM
 10
-41.00000000000006
 20
190.5
 30
-3.000000000000026
 70
   192
  0
VERTEX
  5
15FE
  8
RÁM
 10
-15.99999999999994
 20
190.5
 30
-3.000000000000026
 70
   192
  0
VERTEX
  5
15FF
  8
RÁM
 10
-15.99999999999994
 20
190.5
 30
-7.500000000000026
 70
   192
  0
VERTEX
  5
1600
  8
RÁM
 10
-41.00000000000006
 20
190.5
 30
-7.500000000000026
 70
   192
  0
VERTEX
  5
1601
  8
RÁM
 10
0.0
 20
0.0
 30
0.0
 70
   128
 71
     1
 72
     4
 73
    -3
  0
VERTEX
  5
1602
  8
RÁM
 10
0.0
 20
0.0
 30
0.0
 70
   128
 71
    -1
 72
     3
 73
     2
  0
SEQEND
  5
16F8
  8
RÁM
  0
POLYLINE
  5
1603
  8
RÁM
 66
     1
 10
0.0
 20
0.0
 30
0.0
 70
    64
 71
    10
 72
     8
  0
VERTEX
  5
1604
  8
RÁM
 10
-28.50000000000005
 20
202.5
 30
-8.300000000000033
 70
   192
  0
VERTEX
  5
1605
  8
RÁM
 10
-22.50000000000022
 20
202.5
 30
-7.500000000000028
 70
   192
  0
VERTEX
  5
1606
  8
RÁM
 10
-34.50000000000006
 20
202.5
 30
-7.500000000000031
 70
   192
  0
VERTEX
  5
1607
  8
RÁM
 10
-28.50000000000014
 20
196.5000000000001
 30
-7.500000000000031
 70
   192
  0
VERTEX
  5
1608
  8
RÁM
 10
-32.74264068711936
 20
198.2573593128808
 30
-7.500000000000031
 70
   192
  0
VERTEX
  5
1609
  8
RÁM
 10
-24.25735931288092
 20
198.2573593128808
 30
-7.500000000000031
 70
   192
  0
VERTEX
  5
160A
  8
RÁM
 10
-30.52362508080078
 20
202.5
 30
-8.236685434573896
 70
   192
  0
VERTEX
  5
160B
  8
RÁM
 10
-32.53048027605888
 20
202.5
 30
-7.969104741872815
 70
   192
  0
VERTEX
  5
160C
  8
RÁM
 10
-24.46951972394133
 20
202.5
 30
-7.969104741872805
 70
   192
  0
VERTEX
  5
160D
  8
RÁM
 10
-26.47637491919939
 20
202.5
 30
-8.23668543457389
 70
   192
  0
VERTEX
  5
160E
  8
RÁM
 10
0.0
 20
0.0
 30
0.0
 70
   128
 71
     1
 72
     5
 73
     8
  0
VERTEX
  5
160F
  8
RÁM
 10
0.0
 20
0.0
 30
0.0
 70
   128
 71
     1
 72
     8
 73
     7
  0
VERTEX
  5
1610
  8
RÁM
 10
0.0
 20
0.0
 30
0.0
 70
   128
 71
     5
 72
     3
 73
     8
  0
VERTEX
  5
1611
  8
RÁM
 10
0.0
 20
0.0
 30
0.0
 70
   128
 71
     1
 72
     4
 73
     5
  0
VERTEX
  5
1612
  8
RÁM
 10
0.0
 20
0.0
 30
0.0
 70
   128
 71
     1
 72
     6
 73
     4
  0
VERTEX
  5
1613
  8
RÁM
 10
0.0
 20
0.0
 30
0.0
 70
   128
 71
     9
 72
     2
 73
     6
  0
VERTEX
  5
1614
  8
RÁM
 10
0.0
 20
0.0
 30
0.0
 70
   128
 71
    10
 72
     9
 73
     6
  0
VERTEX
  5
1615
  8
RÁM
 10
0.0
 20
0.0
 30
0.0
 70
   128
 71
    10
 72
     6
 73
     1
  0
SEQEND
  5
16F9
  8
RÁM
  0
POLYLINE
  5
1616
  8
RÁM
 66
     1
 10
0.0
 20
0.0
 30
0.0
 70
    64
 71
    10
 72
     8
  0
VERTEX
  5
1617
  8
RÁM
 10
-28.50000000000005
 20
234.5
 30
-8.30000000000004
 70
   192
  0
VERTEX
  5
1618
  8
RÁM
 10
-22.50000000000022
 20
234.5
 30
-7.500000000000036
 70
   192
  0
VERTEX
  5
1619
  8
RÁM
 10
-34.50000000000006
 20
234.5
 30
-7.500000000000038
 70
   192
  0
VERTEX
  5
161A
  8
RÁM
 10
-28.50000000000014
 20
228.5000000000001
 30
-7.500000000000038
 70
   192
  0
VERTEX
  5
161B
  8
RÁM
 10
-32.74264068711936
 20
230.2573593128808
 30
-7.500000000000038
 70
   192
  0
VERTEX
  5
161C
  8
RÁM
 10
-24.25735931288092
 20
230.2573593128808
 30
-7.500000000000038
 70
   192
  0
VERTEX
  5
161D
  8
RÁM
 10
-30.52362508080078
 20
234.5
 30
-8.236685434573904
 70
   192
  0
VERTEX
  5
161E
  8
RÁM
 10
-32.53048027605888
 20
234.5
 30
-7.969104741872822
 70
   192
  0
VERTEX
  5
161F
  8
RÁM
 10
-24.46951972394133
 20
234.5
 30
-7.969104741872812
 70
   192
  0
VERTEX
  5
1620
  8
RÁM
 10
-26.47637491919939
 20
234.5
 30
-8.236685434573896
 70
   192
  0
VERTEX
  5
1621
  8
RÁM
 10
0.0
 20
0.0
 30
0.0
 70
   128
 71
     1
 72
     5
 73
     8
  0
VERTEX
  5
1622
  8
RÁM
 10
0.0
 20
0.0
 30
0.0
 70
   128
 71
     1
 72
     8
 73
     7
  0
VERTEX
  5
1623
  8
RÁM
 10
0.0
 20
0.0
 30
0.0
 70
   128
 71
     5
 72
     3
 73
     8
  0
VERTEX
  5
1624
  8
RÁM
 10
0.0
 20
0.0
 30
0.0
 70
   128
 71
     1
 72
     4
 73
     5
  0
VERTEX
  5
1625
  8
RÁM
 10
0.0
 20
0.0
 30
0.0
 70
   128
 71
     1
 72
     6
 73
     4
  0
VERTEX
  5
1626
  8
RÁM
 10
0.0
 20
0.0
 30
0.0
 70
   128
 71
     9
 72
     2
 73
     6
  0
VERTEX
  5
1627
  8
RÁM
 10
0.0
 20
0.0
 30
0.0
 70
   128
 71
    10
 72
     9
 73
     6
  0
VERTEX
  5
1628
  8
RÁM
 10
0.0
 20
0.0
 30
0.0
 70
   128
 71
    10
 72
     6
 73
     1
  0
SEQEND
  5
16FA
  8
RÁM
  0
ENDBLK
  5
16F0
  8
0
  0
ENDSEC
  0
SECTION
  2
ENTITIES
  0
INSERT
  5
BE
  8
RÁM
  2
*X1
 10
0.0
 20
0.0
 30
0.0
  0
INSERT
  5
BF
  8
RÁM
  2
*X2
 10
0.0
 20
0.0
 30
0.0
  0
INSERT
  5
C0
  8
SKLO
  2
*X3
 10
0.0
 20
0.0
 30
0.0
  0
INSERT
  5
C1
  8
SKLO
  2
*X4
 10
0.0
 20
0.0
 30
0.0
  0
INSERT
  5
C2
  8
MADLO
  2
*X5
 10
0.0
 20
0.0
 30
0.0
  0
INSERT
  5
C3
  8
MADLO
  2
*X6
 10
0.0
 20
0.0
 30
0.0
  0
INSERT
  5
C4
  8
GUMA
  2
*X7
 10
0.0
 20
0.0
 30
0.0
  0
INSERT
  5
C5
  8
RÁM
  2
*X8
 10
0.0
 20
0.0
 30
0.0
  0
INSERT
  5
C6
  8
RÁM
  2
*X9
 10
0.0
 20
0.0
 30
0.0
  0
INSERT
  5
C7
  8
RÁM
  2
*X10
 10
0.0
 20
0.0
 30
0.0
  0
INSERT
  5
C8
  8
RÁM
  2
*X11
 10
0.0
 20
0.0
 30
0.0
  0
INSERT
  5
C9
  8
RÁM
  2
*X12
 10
0.0
 20
0.0
 30
0.0
  0
INSERT
  5
CA
  8
RÁM
  2
*X13
 10
0.0
 20
0.0
 30
0.0
  0
ENDSEC
  0
EOF
