  0
SECTION
  2
HEADER
  9
$ACADVER
  1
AC1009
  9
$DWGCODEPAGE
  3
ansi_1250
  9
$INSBASE
 10
0.0
 20
0.0
 30
0.0
  9
$EXTMIN
 10
-491.7550000000001
 20
-0.0000000000002274
 30
-373.3999999999966
  9
$EXTMAX
 10
493.795
 20
2006.0
 30
10.10000000000019
  9
$LIMMIN
 10
0.0
 20
0.0
  9
$LIMMAX
 10
420.0
 20
297.0
  9
$ORTHOMODE
 70
     0
  9
$REGENMODE
 70
     1
  9
$FILLMODE
 70
     1
  9
$QTEXTMODE
 70
     0
  9
$MIRRTEXT
 70
     0
  9
$DRAGMODE
 70
     2
  9
$LTSCALE
 40
1.0
  9
$OSMODE
 70
   511
  9
$ATTMODE
 70
     1
  9
$TEXTSIZE
 40
2.5
  9
$TRACEWID
 40
1.0
  9
$TEXTSTYLE
  7
STANDARD
  9
$CLAYER
  8
0
  9
$CELTYPE
  6
BYLAYER
  9
$CECOLOR
 62
   256
  9
$DIMSCALE
 40
1.0
  9
$DIMASZ
 40
2.5
  9
$DIMEXO
 40
0.625
  9
$DIMDLI
 40
3.75
  9
$DIMRND
 40
0.0
  9
$DIMDLE
 40
0.0
  9
$DIMEXE
 40
1.25
  9
$DIMTP
 40
0.0
  9
$DIMTM
 40
0.0
  9
$DIMTXT
 40
2.5
  9
$DIMCEN
 40
-2.5
  9
$DIMTSZ
 40
0.0
  9
$DIMTOL
 70
     0
  9
$DIMLIM
 70
     0
  9
$DIMTIH
 70
     0
  9
$DIMTOH
 70
     0
  9
$DIMSE1
 70
     0
  9
$DIMSE2
 70
     0
  9
$DIMTAD
 70
     1
  9
$DIMZIN
 70
     8
  9
$DIMBLK
  1

  9
$DIMASO
 70
     1
  9
$DIMSHO
 70
     1
  9
$DIMPOST
  1

  9
$DIMAPOST
  1

  9
$DIMALT
 70
     0
  9
$DIMALTD
 70
     3
  9
$DIMALTF
 40
0.03937007874016
  9
$DIMLFAC
 40
1.0
  9
$DIMTOFL
 70
     1
  9
$DIMTVP
 40
0.0
  9
$DIMTIX
 70
     0
  9
$DIMSOXD
 70
     0
  9
$DIMSAH
 70
     0
  9
$DIMBLK1
  1

  9
$DIMBLK2
  1

  9
$DIMSTYLE
  2
ISO-25
  9
$DIMCLRD
 70
     0
  9
$DIMCLRE
 70
     0
  9
$DIMCLRT
 70
     0
  9
$DIMTFAC
 40
1.0
  9
$DIMGAP
 40
0.625
  9
$LUNITS
 70
     2
  9
$LUPREC
 70
     3
  9
$SKETCHINC
 40
1.0
  9
$FILLETRAD
 40
10.0
  9
$AUNITS
 70
     0
  9
$AUPREC
 70
     0
  9
$MENU
  1
.
  9
$ELEVATION
 40
0.0
  9
$PELEVATION
 40
0.0
  9
$THICKNESS
 40
0.0
  9
$LIMCHECK
 70
     0
  9
$CHAMFERA
 40
10.0
  9
$CHAMFERB
 40
10.0
  9
$SKPOLY
 70
     0
  9
$TDCREATE
 40
2455022.720692848
  9
$TDUPDATE
 40
2460459.472125324
  9
$TDINDWG
 40
0.0017359838
  9
$TDUSRTIMER
 40
0.0017359838
  9
$USRTIMER
 70
     1
  9
$ANGBASE
 50
0.0
  9
$ANGDIR
 70
     0
  9
$PDMODE
 70
     0
  9
$PDSIZE
 40
0.0
  9
$PLINEWID
 40
0.0
  9
$COORDS
 70
     1
  9
$SPLFRAME
 70
     0
  9
$SPLINETYPE
 70
     6
  9
$SPLINESEGS
 70
     8
  9
$ATTDIA
 70
     0
  9
$ATTREQ
 70
     1
  9
$HANDLING
 70
     1
  9
$HANDSEED
  5
1367
  9
$SURFTAB1
 70
     6
  9
$SURFTAB2
 70
     6
  9
$SURFTYPE
 70
     6
  9
$SURFU
 70
     6
  9
$SURFV
 70
     6
  9
$UCSNAME
  2

  9
$UCSORG
 10
0.0
 20
0.0
 30
0.0
  9
$UCSXDIR
 10
1.0
 20
0.0
 30
0.0
  9
$UCSYDIR
 10
0.0
 20
1.0
 30
0.0
  9
$PUCSNAME
  2

  9
$PUCSORG
 10
0.0
 20
0.0
 30
0.0
  9
$PUCSXDIR
 10
1.0
 20
0.0
 30
0.0
  9
$PUCSYDIR
 10
0.0
 20
1.0
 30
0.0
  9
$USERI1
 70
     0
  9
$USERI2
 70
     0
  9
$USERI3
 70
     0
  9
$USERI4
 70
     0
  9
$USERI5
 70
     0
  9
$USERR1
 40
0.0
  9
$USERR2
 40
0.0
  9
$USERR3
 40
0.0
  9
$USERR4
 40
0.0
  9
$USERR5
 40
0.0
  9
$WORLDVIEW
 70
     1
  9
$SHADEDGE
 70
     3
  9
$SHADEDIF
 70
    70
  9
$TILEMODE
 70
     1
  9
$MAXACTVP
 70
    64
  9
$PLIMCHECK
 70
     0
  9
$PEXTMIN
 10
1.000000000000000E+20
 20
1.000000000000000E+20
 30
1.000000000000000E+20
  9
$PEXTMAX
 10
-1.000000000000000E+20
 20
-1.000000000000000E+20
 30
-1.000000000000000E+20
  9
$PLIMMIN
 10
0.0
 20
0.0
  9
$PLIMMAX
 10
0.0
 20
0.0
  9
$UNITMODE
 70
     0
  9
$VISRETAIN
 70
     1
  9
$PLINEGEN
 70
     0
  9
$PSLTSCALE
 70
     1
  0
ENDSEC
  0
SECTION
  2
TABLES
  0
TABLE
  2
VPORT
 70
     1
  0
VPORT
  2
*ACTIVE
 70
     0
 10
0.0
 20
0.0
 11
1.0
 21
1.0
 12
613.622374442489
 22
-612.9876315308811
 13
0.0
 23
0.0
 14
10.0
 24
10.0
 15
10.0
 25
10.0
 16
0.577350269189651
 26
0.577350269189651
 36
0.577350269189651
 17
-134.1869158878506
 27
-0.0000000000000853
 37
0.0000000000001137
 40
1565.110044365409
 41
1.89041095890411
 42
50.0
 43
0.0
 44
0.0
 50
0.0
 51
0.0
 71
    16
 72
  1000
 73
     1
 74
     3
 75
     0
 76
     0
 77
     0
 78
     0
  0
ENDTAB
  0
TABLE
  2
LTYPE
 70
     1
  0
LTYPE
  2
CONTINUOUS
 70
     0
  3
Solid line
 72
    65
 73
     0
 40
0.0
  0
ENDTAB
  0
TABLE
  2
LAYER
 70
     3
  0
LAYER
  2
0
 70
     0
 62
     7
  6
CONTINUOUS
  0
LAYER
  2
RÁM
 70
     0
 62
     7
  6
CONTINUOUS
  0
LAYER
  2
SKLO
 70
     0
 62
     7
  6
CONTINUOUS
  0
ENDTAB
  0
TABLE
  2
STYLE
 70
     2
  0
STYLE
  2
STANDARD
 70
     0
 40
0.0
 41
1.0
 50
0.0
 71
     0
 42
2.5
  3
arial.ttf
  4

  0
STYLE
  2
ANNOTATIVE
 70
     0
 40
0.0
 41
1.0
 50
0.0
 71
     0
 42
2.5
  3
arial.ttf
  4

  0
ENDTAB
  0
TABLE
  2
VIEW
 70
     0
  0
ENDTAB
  0
TABLE
  2
UCS
 70
     0
  0
ENDTAB
  0
TABLE
  2
APPID
 70
     3
  0
APPID
  2
ACAD
 70
     0
  0
APPID
  2
ACADANNOTATIVE
 70
     0
  0
APPID
  2
ACAECLAYERSTANDARD
 70
     0
  0
ENDTAB
  0
TABLE
  2
DIMSTYLE
 70
     2
  0
DIMSTYLE
  2
ISO-25
 70
     0
  3

  4

  5

  6

  7

 40
1.0
 41
2.5
 42
0.625
 43
3.75
 44
1.25
 45
0.0
 46
0.0
 47
0.0
 48
0.0
140
2.5
141
-2.5
142
0.0
143
0.03937007874016
144
1.0
145
0.0
146
1.0
147
0.625
 71
     0
 72
     0
 73
     0
 74
     0
 75
     0
 76
     0
 77
     1
 78
     8
170
     0
171
     3
172
     1
173
     0
174
     0
175
     0
176
     0
177
     0
178
     0
  0
DIMSTYLE
  2
ANNOTATIVE
 70
     0
  3

  4

  5

  6

  7

 40
0.0
 41
2.5
 42
0.625
 43
3.75
 44
1.25
 45
0.0
 46
0.0
 47
0.0
 48
0.0
140
2.5
141
-2.5
142
0.0
143
0.03937007874016
144
1.0
145
0.0
146
1.0
147
0.625
 71
     0
 72
     0
 73
     0
 74
     0
 75
     0
 76
     0
 77
     1
 78
     8
170
     0
171
     3
172
     1
173
     0
174
     0
175
     0
176
     0
177
     0
178
     0
  0
ENDTAB
  0
ENDSEC
  0
SECTION
  2
BLOCKS
  0
BLOCK
  8
0
  2
$MODEL_SPACE
 70
     0
 10
0.0
 20
0.0
 30
0.0
  3
$MODEL_SPACE
  1

  0
ENDBLK
  5
21
  8
0
  0
BLOCK
 67
     1
  8
0
  2
$PAPER_SPACE
 70
     0
 10
0.0
 20
0.0
 30
0.0
  3
$PAPER_SPACE
  1

  0
ENDBLK
  5
1D
 67
     1
  8
0
  0
BLOCK
  8
0
  2
*X1
 70
     1
 10
0.0
 20
0.0
 30
0.0
  3
*X1
  1

  0
POLYLINE
  5
A29
  8
RÁM
 66
     1
 10
0.0
 20
0.0
 30
0.0
 70
    64
 71
     8
 72
     6
  0
VERTEX
  5
A2A
  8
RÁM
 10
453.9450000000001
 20
18.00000000000001
 30
-5.27679491924315
 70
   192
  0
VERTEX
  5
A2B
  8
RÁM
 10
453.9450000000001
 20
2000.0
 30
-5.27679491924315
 70
   192
  0
VERTEX
  5
A2C
  8
RÁM
 10
453.8717949192431
 20
2000.0
 30
-5.350000000000033
 70
   192
  0
VERTEX
  5
A2D
  8
RÁM
 10
453.8717949192431
 20
18.00000000000001
 30
-5.350000000000033
 70
   192
  0
VERTEX
  5
A2E
  8
RÁM
 10
454.045
 20
18.00000000000001
 30
-5.250000000000039
 70
   192
  0
VERTEX
  5
A2F
  8
RÁM
 10
454.045
 20
2000.0
 30
-5.250000000000029
 70
   192
  0
VERTEX
  5
A30
  8
RÁM
 10
453.845
 20
2000.0
 30
-5.450000000000028
 70
   192
  0
VERTEX
  5
A31
  8
RÁM
 10
453.845
 20
18.0
 30
-5.450000000000028
 70
   192
  0
VERTEX
  5
A32
  8
RÁM
 10
0.0
 20
0.0
 30
0.0
 70
   128
 71
     1
 72
     2
 73
    -3
  0
VERTEX
  5
A33
  8
RÁM
 10
0.0
 20
0.0
 30
0.0
 70
   128
 71
    -1
 72
     3
 73
     4
  0
VERTEX
  5
A34
  8
RÁM
 10
0.0
 20
0.0
 30
0.0
 70
   128
 71
     5
 72
     6
 73
    -2
  0
VERTEX
  5
A35
  8
RÁM
 10
0.0
 20
0.0
 30
0.0
 70
   128
 71
    -5
 72
     2
 73
     1
  0
VERTEX
  5
A36
  8
RÁM
 10
0.0
 20
0.0
 30
0.0
 70
   128
 71
     4
 72
     3
 73
    -7
  0
VERTEX
  5
A37
  8
RÁM
 10
0.0
 20
0.0
 30
0.0
 70
   128
 71
    -4
 72
     7
 73
     8
  0
SEQEND
  5
12BE
  8
RÁM
  0
POLYLINE
  5
A38
  8
RÁM
 66
     1
 10
0.0
 20
0.0
 30
0.0
 70
    64
 71
     4
 72
     2
  0
VERTEX
  5
A39
  8
RÁM
 10
454.045
 20
2000.0
 30
-5.250000000000029
 70
   192
  0
VERTEX
  5
A3A
  8
RÁM
 10
486.7450000000002
 20
2000.0
 30
-5.250000000000029
 70
   192
  0
VERTEX
  5
A3B
  8
RÁM
 10
486.7450000000002
 20
18.00000000000001
 30
-5.250000000000029
 70
   192
  0
VERTEX
  5
A3C
  8
RÁM
 10
454.045
 20
18.0
 30
-5.250000000000029
 70
   192
  0
VERTEX
  5
A3D
  8
RÁM
 10
0.0
 20
0.0
 30
0.0
 70
   128
 71
     1
 72
     4
 73
    -3
  0
VERTEX
  5
A3E
  8
RÁM
 10
0.0
 20
0.0
 30
0.0
 70
   128
 71
    -1
 72
     3
 73
     2
  0
SEQEND
  5
12BF
  8
RÁM
  0
POLYLINE
  5
A3F
  8
RÁM
 66
     1
 10
0.0
 20
0.0
 30
0.0
 70
    64
 71
     8
 72
     6
  0
VERTEX
  5
A40
  8
RÁM
 10
487.1780127018924
 20
2000.0
 30
-5.00000000000006
 70
   192
  0
VERTEX
  5
A41
  8
RÁM
 10
486.9950000000002
 20
2000.0
 30
-5.183012701892272
 70
   192
  0
VERTEX
  5
A42
  8
RÁM
 10
486.9950000000002
 20
18.00000000000001
 30
-5.183012701892272
 70
   192
  0
VERTEX
  5
A43
  8
RÁM
 10
487.1780127018924
 20
18.00000000000001
 30
-5.00000000000006
 70
   192
  0
VERTEX
  5
A44
  8
RÁM
 10
486.7450000000002
 20
2000.0
 30
-5.250000000000029
 70
   192
  0
VERTEX
  5
A45
  8
RÁM
 10
486.7450000000002
 20
18.0
 30
-5.250000000000029
 70
   192
  0
VERTEX
  5
A46
  8
RÁM
 10
487.2450000000002
 20
2000.0
 30
-4.75000000000007
 70
   192
  0
VERTEX
  5
A47
  8
RÁM
 10
487.2450000000002
 20
18.00000000000001
 30
-4.75000000000007
 70
   192
  0
VERTEX
  5
A48
  8
RÁM
 10
0.0
 20
0.0
 30
0.0
 70
   128
 71
     1
 72
     2
 73
    -3
  0
VERTEX
  5
A49
  8
RÁM
 10
0.0
 20
0.0
 30
0.0
 70
   128
 71
     4
 72
    -1
 73
     3
  0
VERTEX
  5
A4A
  8
RÁM
 10
0.0
 20
0.0
 30
0.0
 70
   128
 71
     2
 72
     5
 73
    -6
  0
VERTEX
  5
A4B
  8
RÁM
 10
0.0
 20
0.0
 30
0.0
 70
   128
 71
     3
 72
    -2
 73
     6
  0
VERTEX
  5
A4C
  8
RÁM
 10
0.0
 20
0.0
 30
0.0
 70
   128
 71
     7
 72
     1
 73
    -4
  0
VERTEX
  5
A4D
  8
RÁM
 10
0.0
 20
0.0
 30
0.0
 70
   128
 71
     8
 72
    -7
 73
     4
  0
SEQEND
  5
12C0
  8
RÁM
  0
POLYLINE
  5
A4E
  8
RÁM
 66
     1
 10
0.0
 20
0.0
 30
0.0
 70
    64
 71
     4
 72
     2
  0
VERTEX
  5
A4F
  8
RÁM
 10
487.2450000000002
 20
2000.0
 30
-4.75000000000007
 70
   192
  0
VERTEX
  5
A50
  8
RÁM
 10
487.2450000000002
 20
2000.0
 30
4.750000000000013
 70
   192
  0
VERTEX
  5
A51
  8
RÁM
 10
487.2450000000002
 20
18.00000000000001
 30
4.750000000000013
 70
   192
  0
VERTEX
  5
A52
  8
RÁM
 10
487.2450000000002
 20
18.0
 30
-4.75000000000007
 70
   192
  0
VERTEX
  5
A53
  8
RÁM
 10
0.0
 20
0.0
 30
0.0
 70
   128
 71
     1
 72
     4
 73
    -3
  0
VERTEX
  5
A54
  8
RÁM
 10
0.0
 20
0.0
 30
0.0
 70
   128
 71
    -1
 72
     3
 73
     2
  0
SEQEND
  5
12C1
  8
RÁM
  0
POLYLINE
  5
A55
  8
RÁM
 66
     1
 10
0.0
 20
0.0
 30
0.0
 70
    64
 71
     8
 72
     6
  0
VERTEX
  5
A56
  8
RÁM
 10
486.9950000000002
 20
2000.0
 30
5.183012701892192
 70
   192
  0
VERTEX
  5
A57
  8
RÁM
 10
487.1780127018924
 20
2000.0
 30
4.999999999999989
 70
   192
  0
VERTEX
  5
A58
  8
RÁM
 10
487.1780127018924
 20
18.00000000000001
 30
4.999999999999989
 70
   192
  0
VERTEX
  5
A59
  8
RÁM
 10
486.9950000000002
 20
18.00000000000001
 30
5.183012701892192
 70
   192
  0
VERTEX
  5
A5A
  8
RÁM
 10
487.2450000000002
 20
2000.0
 30
4.750000000000013
 70
   192
  0
VERTEX
  5
A5B
  8
RÁM
 10
487.2450000000002
 20
18.00000000000001
 30
4.750000000000013
 70
   192
  0
VERTEX
  5
A5C
  8
RÁM
 10
486.7450000000002
 20
2000.0
 30
5.249999999999973
 70
   192
  0
VERTEX
  5
A5D
  8
RÁM
 10
486.7450000000002
 20
18.00000000000001
 30
5.249999999999966
 70
   192
  0
VERTEX
  5
A5E
  8
RÁM
 10
0.0
 20
0.0
 30
0.0
 70
   128
 71
     1
 72
     2
 73
    -3
  0
VERTEX
  5
A5F
  8
RÁM
 10
0.0
 20
0.0
 30
0.0
 70
   128
 71
     4
 72
    -1
 73
     3
  0
VERTEX
  5
A60
  8
RÁM
 10
0.0
 20
0.0
 30
0.0
 70
   128
 71
     2
 72
     5
 73
    -6
  0
VERTEX
  5
A61
  8
RÁM
 10
0.0
 20
0.0
 30
0.0
 70
   128
 71
     3
 72
    -2
 73
     6
  0
VERTEX
  5
A62
  8
RÁM
 10
0.0
 20
0.0
 30
0.0
 70
   128
 71
     7
 72
     1
 73
    -4
  0
VERTEX
  5
A63
  8
RÁM
 10
0.0
 20
0.0
 30
0.0
 70
   128
 71
     8
 72
    -7
 73
     4
  0
SEQEND
  5
12C2
  8
RÁM
  0
POLYLINE
  5
A64
  8
RÁM
 66
     1
 10
0.0
 20
0.0
 30
0.0
 70
    64
 71
     4
 72
     2
  0
VERTEX
  5
A65
  8
RÁM
 10
486.7450000000002
 20
18.00000000000001
 30
5.249999999999973
 70
   192
  0
VERTEX
  5
A66
  8
RÁM
 10
454.045
 20
18.00000000000001
 30
5.249999999999972
 70
   192
  0
VERTEX
  5
A67
  8
RÁM
 10
454.045
 20
2000.0
 30
5.249999999999972
 70
   192
  0
VERTEX
  5
A68
  8
RÁM
 10
486.7450000000002
 20
2000.0
 30
5.249999999999973
 70
   192
  0
VERTEX
  5
A69
  8
RÁM
 10
0.0
 20
0.0
 30
0.0
 70
   128
 71
     3
 72
     4
 73
    -1
  0
VERTEX
  5
A6A
  8
RÁM
 10
0.0
 20
0.0
 30
0.0
 70
   128
 71
     2
 72
    -3
 73
     1
  0
SEQEND
  5
12C3
  8
RÁM
  0
POLYLINE
  5
A6B
  8
RÁM
 66
     1
 10
0.0
 20
0.0
 30
0.0
 70
    64
 71
     8
 72
     6
  0
VERTEX
  5
A6C
  8
RÁM
 10
453.8717949192431
 20
18.00000000000001
 30
5.349999999999979
 70
   192
  0
VERTEX
  5
A6D
  8
RÁM
 10
453.8717949192431
 20
2000.0
 30
5.349999999999979
 70
   192
  0
VERTEX
  5
A6E
  8
RÁM
 10
453.945
 20
2000.0
 30
5.276794919243095
 70
   192
  0
VERTEX
  5
A6F
  8
RÁM
 10
453.945
 20
18.00000000000001
 30
5.276794919243095
 70
   192
  0
VERTEX
  5
A70
  8
RÁM
 10
453.845
 20
18.00000000000001
 30
5.449999999999974
 70
   192
  0
VERTEX
  5
A71
  8
RÁM
 10
453.845
 20
2000.0
 30
5.449999999999974
 70
   192
  0
VERTEX
  5
A72
  8
RÁM
 10
454.045
 20
2000.0
 30
5.249999999999984
 70
   192
  0
VERTEX
  5
A73
  8
RÁM
 10
454.045
 20
18.0
 30
5.249999999999972
 70
   192
  0
VERTEX
  5
A74
  8
RÁM
 10
0.0
 20
0.0
 30
0.0
 70
   128
 71
     1
 72
     2
 73
    -3
  0
VERTEX
  5
A75
  8
RÁM
 10
0.0
 20
0.0
 30
0.0
 70
   128
 71
    -1
 72
     3
 73
     4
  0
VERTEX
  5
A76
  8
RÁM
 10
0.0
 20
0.0
 30
0.0
 70
   128
 71
     5
 72
     6
 73
    -2
  0
VERTEX
  5
A77
  8
RÁM
 10
0.0
 20
0.0
 30
0.0
 70
   128
 71
    -5
 72
     2
 73
     1
  0
VERTEX
  5
A78
  8
RÁM
 10
0.0
 20
0.0
 30
0.0
 70
   128
 71
     4
 72
     3
 73
    -7
  0
VERTEX
  5
A79
  8
RÁM
 10
0.0
 20
0.0
 30
0.0
 70
   128
 71
    -4
 72
     7
 73
     8
  0
SEQEND
  5
12C4
  8
RÁM
  0
POLYLINE
  5
A7A
  8
RÁM
 66
     1
 10
0.0
 20
0.0
 30
0.0
 70
    64
 71
     8
 72
     6
  0
VERTEX
  5
A7B
  8
RÁM
 10
454.0950000000001
 20
0.0
 30
6.683012701892218
 70
   192
  0
VERTEX
  5
A7C
  8
RÁM
 10
454.0950000000001
 20
2000.0
 30
6.683012701892218
 70
   192
  0
VERTEX
  5
A7D
  8
RÁM
 10
453.9119872981078
 20
2000.0
 30
6.499999999999989
 70
   192
  0
VERTEX
  5
A7E
  8
RÁM
 10
453.9119872981078
 20
0.0
 30
6.499999999999989
 70
   192
  0
VERTEX
  5
A7F
  8
RÁM
 10
454.3450000000001
 20
0.0
 30
6.750000000000003
 70
   192
  0
VERTEX
  5
A80
  8
RÁM
 10
454.3450000000001
 20
2000.0
 30
6.749999999999973
 70
   192
  0
VERTEX
  5
A81
  8
RÁM
 10
453.8450000000001
 20
2000.0
 30
6.249999999999976
 70
   192
  0
VERTEX
  5
A82
  8
RÁM
 10
453.845
 20
0.0
 30
6.249999999999976
 70
   192
  0
VERTEX
  5
A83
  8
RÁM
 10
0.0
 20
0.0
 30
0.0
 70
   128
 71
     1
 72
     2
 73
    -3
  0
VERTEX
  5
A84
  8
RÁM
 10
0.0
 20
0.0
 30
0.0
 70
   128
 71
    -1
 72
     3
 73
     4
  0
VERTEX
  5
A85
  8
RÁM
 10
0.0
 20
0.0
 30
0.0
 70
   128
 71
     5
 72
     6
 73
    -2
  0
VERTEX
  5
A86
  8
RÁM
 10
0.0
 20
0.0
 30
0.0
 70
   128
 71
    -5
 72
     2
 73
     1
  0
VERTEX
  5
A87
  8
RÁM
 10
0.0
 20
0.0
 30
0.0
 70
   128
 71
     4
 72
     3
 73
    -7
  0
VERTEX
  5
A88
  8
RÁM
 10
0.0
 20
0.0
 30
0.0
 70
   128
 71
    -4
 72
     7
 73
     8
  0
SEQEND
  5
12C5
  8
RÁM
  0
POLYLINE
  5
A89
  8
RÁM
 66
     1
 10
0.0
 20
0.0
 30
0.0
 70
    64
 71
     4
 72
     2
  0
VERTEX
  5
A8A
  8
RÁM
 10
454.3450000000001
 20
2000.0
 30
6.749999999999973
 70
   192
  0
VERTEX
  5
A8B
  8
RÁM
 10
454.3450000000001
 20
0.0
 30
6.749999999999973
 70
   192
  0
VERTEX
  5
A8C
  8
RÁM
 10
493.2450000000002
 20
0.0
 30
6.749999999999973
 70
   192
  0
VERTEX
  5
A8D
  8
RÁM
 10
493.2450000000002
 20
2000.0
 30
6.749999999999973
 70
   192
  0
VERTEX
  5
A8E
  8
RÁM
 10
0.0
 20
0.0
 30
0.0
 70
   128
 71
     3
 72
     4
 73
    -1
  0
VERTEX
  5
A8F
  8
RÁM
 10
0.0
 20
0.0
 30
0.0
 70
   128
 71
     2
 72
    -3
 73
     1
  0
SEQEND
  5
12C6
  8
RÁM
  0
POLYLINE
  5
A90
  8
RÁM
 66
     1
 10
0.0
 20
0.0
 30
0.0
 70
    64
 71
     8
 72
     6
  0
VERTEX
  5
A91
  8
RÁM
 10
493.6780127018923
 20
0.0
 30
6.49999999999999
 70
   192
  0
VERTEX
  5
A92
  8
RÁM
 10
493.6780127018923
 20
2000.0
 30
6.49999999999999
 70
   192
  0
VERTEX
  5
A93
  8
RÁM
 10
493.4950000000002
 20
2000.0
 30
6.683012701892192
 70
   192
  0
VERTEX
  5
A94
  8
RÁM
 10
493.4950000000002
 20
0.0
 30
6.683012701892192
 70
   192
  0
VERTEX
  5
A95
  8
RÁM
 10
493.7450000000001
 20
0.0
 30
6.250000000000014
 70
   192
  0
VERTEX
  5
A96
  8
RÁM
 10
493.7450000000001
 20
2000.0
 30
6.250000000000014
 70
   192
  0
VERTEX
  5
A97
  8
RÁM
 10
493.2450000000002
 20
2000.0
 30
6.749999999999966
 70
   192
  0
VERTEX
  5
A98
  8
RÁM
 10
493.2450000000002
 20
0.0
 30
6.749999999999973
 70
   192
  0
VERTEX
  5
A99
  8
RÁM
 10
0.0
 20
0.0
 30
0.0
 70
   128
 71
     1
 72
     2
 73
    -3
  0
VERTEX
  5
A9A
  8
RÁM
 10
0.0
 20
0.0
 30
0.0
 70
   128
 71
    -1
 72
     3
 73
     4
  0
VERTEX
  5
A9B
  8
RÁM
 10
0.0
 20
0.0
 30
0.0
 70
   128
 71
     5
 72
     6
 73
    -2
  0
VERTEX
  5
A9C
  8
RÁM
 10
0.0
 20
0.0
 30
0.0
 70
   128
 71
    -5
 72
     2
 73
     1
  0
VERTEX
  5
A9D
  8
RÁM
 10
0.0
 20
0.0
 30
0.0
 70
   128
 71
     4
 72
     3
 73
    -7
  0
VERTEX
  5
A9E
  8
RÁM
 10
0.0
 20
0.0
 30
0.0
 70
   128
 71
    -4
 72
     7
 73
     8
  0
SEQEND
  5
12C7
  8
RÁM
  0
POLYLINE
  5
A9F
  8
RÁM
 66
     1
 10
0.0
 20
0.0
 30
0.0
 70
    64
 71
     4
 72
     2
  0
VERTEX
  5
AA0
  8
RÁM
 10
493.7450000000001
 20
2000.0
 30
6.250000000000014
 70
   192
  0
VERTEX
  5
AA1
  8
RÁM
 10
493.7450000000001
 20
2000.0
 30
-6.250000000000028
 70
   192
  0
VERTEX
  5
AA2
  8
RÁM
 10
493.7450000000001
 20
0.0
 30
-6.250000000000028
 70
   192
  0
VERTEX
  5
AA3
  8
RÁM
 10
493.7450000000001
 20
0.0
 30
6.250000000000014
 70
   192
  0
VERTEX
  5
AA4
  8
RÁM
 10
0.0
 20
0.0
 30
0.0
 70
   128
 71
     1
 72
     4
 73
    -3
  0
VERTEX
  5
AA5
  8
RÁM
 10
0.0
 20
0.0
 30
0.0
 70
   128
 71
    -1
 72
     3
 73
     2
  0
SEQEND
  5
12C8
  8
RÁM
  0
POLYLINE
  5
AA6
  8
RÁM
 66
     1
 10
0.0
 20
0.0
 30
0.0
 70
    64
 71
     8
 72
     6
  0
VERTEX
  5
AA7
  8
RÁM
 10
493.4950000000001
 20
0.0
 30
-6.68301270189227
 70
   192
  0
VERTEX
  5
AA8
  8
RÁM
 10
493.4950000000001
 20
2000.0
 30
-6.68301270189227
 70
   192
  0
VERTEX
  5
AA9
  8
RÁM
 10
493.6780127018923
 20
2000.0
 30
-6.500000000000041
 70
   192
  0
VERTEX
  5
AAA
  8
RÁM
 10
493.6780127018923
 20
0.0
 30
-6.500000000000041
 70
   192
  0
VERTEX
  5
AAB
  8
RÁM
 10
493.2450000000001
 20
0.0
 30
-6.750000000000055
 70
   192
  0
VERTEX
  5
AAC
  8
RÁM
 10
493.2450000000001
 20
2000.0
 30
-6.750000000000025
 70
   192
  0
VERTEX
  5
AAD
  8
RÁM
 10
493.7450000000001
 20
2000.0
 30
-6.250000000000028
 70
   192
  0
VERTEX
  5
AAE
  8
RÁM
 10
493.7450000000001
 20
0.0
 30
-6.250000000000028
 70
   192
  0
VERTEX
  5
AAF
  8
RÁM
 10
0.0
 20
0.0
 30
0.0
 70
   128
 71
     1
 72
     2
 73
    -3
  0
VERTEX
  5
AB0
  8
RÁM
 10
0.0
 20
0.0
 30
0.0
 70
   128
 71
    -1
 72
     3
 73
     4
  0
VERTEX
  5
AB1
  8
RÁM
 10
0.0
 20
0.0
 30
0.0
 70
   128
 71
     5
 72
     6
 73
    -2
  0
VERTEX
  5
AB2
  8
RÁM
 10
0.0
 20
0.0
 30
0.0
 70
   128
 71
    -5
 72
     2
 73
     1
  0
VERTEX
  5
AB3
  8
RÁM
 10
0.0
 20
0.0
 30
0.0
 70
   128
 71
     4
 72
     3
 73
    -7
  0
VERTEX
  5
AB4
  8
RÁM
 10
0.0
 20
0.0
 30
0.0
 70
   128
 71
    -4
 72
     7
 73
     8
  0
SEQEND
  5
12C9
  8
RÁM
  0
POLYLINE
  5
AB5
  8
RÁM
 66
     1
 10
0.0
 20
0.0
 30
0.0
 70
    64
 71
     4
 72
     2
  0
VERTEX
  5
AB6
  8
RÁM
 10
493.2450000000001
 20
2000.0
 30
-6.750000000000025
 70
   192
  0
VERTEX
  5
AB7
  8
RÁM
 10
454.3450000000001
 20
2000.0
 30
-6.750000000000025
 70
   192
  0
VERTEX
  5
AB8
  8
RÁM
 10
454.345
 20
0.0
 30
-6.750000000000025
 70
   192
  0
VERTEX
  5
AB9
  8
RÁM
 10
493.2450000000001
 20
0.0
 30
-6.750000000000025
 70
   192
  0
VERTEX
  5
ABA
  8
RÁM
 10
0.0
 20
0.0
 30
0.0
 70
   128
 71
     1
 72
     4
 73
    -3
  0
VERTEX
  5
ABB
  8
RÁM
 10
0.0
 20
0.0
 30
0.0
 70
   128
 71
    -1
 72
     3
 73
     2
  0
SEQEND
  5
12CA
  8
RÁM
  0
POLYLINE
  5
ABC
  8
RÁM
 66
     1
 10
0.0
 20
0.0
 30
0.0
 70
    64
 71
     8
 72
     6
  0
VERTEX
  5
ABD
  8
RÁM
 10
453.9119872981078
 20
0.0
 30
-6.50000000000007
 70
   192
  0
VERTEX
  5
ABE
  8
RÁM
 10
453.9119872981078
 20
2000.0
 30
-6.50000000000007
 70
   192
  0
VERTEX
  5
ABF
  8
RÁM
 10
454.095
 20
2000.0
 30
-6.683012701892319
 70
   192
  0
VERTEX
  5
AC0
  8
RÁM
 10
454.095
 20
0.0
 30
-6.683012701892319
 70
   192
  0
VERTEX
  5
AC1
  8
RÁM
 10
453.845
 20
0.0
 30
-6.250000000000029
 70
   192
  0
VERTEX
  5
AC2
  8
RÁM
 10
453.845
 20
2000.0
 30
-6.250000000000029
 70
   192
  0
VERTEX
  5
AC3
  8
RÁM
 10
454.3450000000001
 20
2000.0
 30
-6.75000000000011
 70
   192
  0
VERTEX
  5
AC4
  8
RÁM
 10
454.3450000000001
 20
0.0
 30
-6.750000000000025
 70
   192
  0
VERTEX
  5
AC5
  8
RÁM
 10
0.0
 20
0.0
 30
0.0
 70
   128
 71
     1
 72
     2
 73
    -3
  0
VERTEX
  5
AC6
  8
RÁM
 10
0.0
 20
0.0
 30
0.0
 70
   128
 71
    -1
 72
     3
 73
     4
  0
VERTEX
  5
AC7
  8
RÁM
 10
0.0
 20
0.0
 30
0.0
 70
   128
 71
     5
 72
     6
 73
    -2
  0
VERTEX
  5
AC8
  8
RÁM
 10
0.0
 20
0.0
 30
0.0
 70
   128
 71
    -5
 72
     2
 73
     1
  0
VERTEX
  5
AC9
  8
RÁM
 10
0.0
 20
0.0
 30
0.0
 70
   128
 71
     4
 72
     3
 73
    -7
  0
VERTEX
  5
ACA
  8
RÁM
 10
0.0
 20
0.0
 30
0.0
 70
   128
 71
    -4
 72
     7
 73
     8
  0
SEQEND
  5
12CB
  8
RÁM
  0
POLYLINE
  5
ACB
  8
RÁM
 66
     1
 10
0.0
 20
0.0
 30
0.0
 70
    64
 71
     8
 72
     6
  0
VERTEX
  5
ACC
  8
RÁM
 10
453.845
 20
2000.0
 30
-6.250000000000029
 70
   192
  0
VERTEX
  5
ACD
  8
RÁM
 10
453.845
 20
0.0
 30
-6.250000000000029
 70
   192
  0
VERTEX
  5
ACE
  8
RÁM
 10
453.8450000000017
 20
0.0
 30
6.249999999999976
 70
   192
  0
VERTEX
  5
ACF
  8
RÁM
 10
453.845
 20
2000.0
 30
6.249999999999976
 70
   192
  0
VERTEX
  5
AD0
  8
RÁM
 10
453.845
 20
2000.0
 30
5.449999999999974
 70
   192
  0
VERTEX
  5
AD1
  8
RÁM
 10
453.845
 20
18.0
 30
5.449999999999974
 70
   192
  0
VERTEX
  5
AD2
  8
RÁM
 10
453.845
 20
18.0
 30
-5.450000000000027
 70
   192
  0
VERTEX
  5
AD3
  8
RÁM
 10
453.845
 20
2000.0
 30
-5.450000000000028
 70
   192
  0
VERTEX
  5
AD4
  8
RÁM
 10
0.0
 20
0.0
 30
0.0
 70
   128
 71
     4
 72
     5
 73
    -6
  0
VERTEX
  5
AD5
  8
RÁM
 10
0.0
 20
0.0
 30
0.0
 70
   128
 71
    -6
 72
     3
 73
    -4
  0
VERTEX
  5
AD6
  8
RÁM
 10
0.0
 20
0.0
 30
0.0
 70
   128
 71
    -7
 72
     2
 73
    -3
  0
VERTEX
  5
AD7
  8
RÁM
 10
0.0
 20
0.0
 30
0.0
 70
   128
 71
     6
 72
    -7
 73
    -3
  0
VERTEX
  5
AD8
  8
RÁM
 10
0.0
 20
0.0
 30
0.0
 70
   128
 71
     1
 72
    -2
 73
    -7
  0
VERTEX
  5
AD9
  8
RÁM
 10
0.0
 20
0.0
 30
0.0
 70
   128
 71
     7
 72
     8
 73
    -1
  0
SEQEND
  5
12CC
  8
RÁM
  0
POLYLINE
  5
ADA
  8
RÁM
 66
     1
 10
0.0
 20
0.0
 30
0.0
 70
    64
 71
    32
 72
    30
  0
VERTEX
  5
ADB
  8
RÁM
 10
453.845
 20
2000.0
 30
-5.450000000000028
 70
   192
  0
VERTEX
  5
ADC
  8
RÁM
 10
453.8717949192431
 20
2000.0
 30
-5.350000000000033
 70
   192
  0
VERTEX
  5
ADD
  8
RÁM
 10
453.9450000000001
 20
2000.0
 30
-5.27679491924315
 70
   192
  0
VERTEX
  5
ADE
  8
RÁM
 10
454.045
 20
2000.0
 30
-5.250000000000039
 70
   192
  0
VERTEX
  5
ADF
  8
RÁM
 10
486.7450000000002
 20
2000.0
 30
-5.250000000000029
 70
   192
  0
VERTEX
  5
AE0
  8
RÁM
 10
486.9950000000002
 20
2000.0
 30
-5.183012701892272
 70
   192
  0
VERTEX
  5
AE1
  8
RÁM
 10
487.1780127018924
 20
2000.0
 30
-5.00000000000006
 70
   192
  0
VERTEX
  5
AE2
  8
RÁM
 10
487.2450000000002
 20
2000.0
 30
-4.75000000000007
 70
   192
  0
VERTEX
  5
AE3
  8
RÁM
 10
487.2450000000002
 20
2000.0
 30
4.750000000000013
 70
   192
  0
VERTEX
  5
AE4
  8
RÁM
 10
487.1780127018924
 20
2000.0
 30
4.999999999999989
 70
   192
  0
VERTEX
  5
AE5
  8
RÁM
 10
486.9950000000002
 20
2000.0
 30
5.183012701892192
 70
   192
  0
VERTEX
  5
AE6
  8
RÁM
 10
486.7450000000002
 20
2000.0
 30
5.249999999999966
 70
   192
  0
VERTEX
  5
AE7
  8
RÁM
 10
454.045
 20
2000.0
 30
5.249999999999972
 70
   192
  0
VERTEX
  5
AE8
  8
RÁM
 10
453.945
 20
2000.0
 30
5.276794919243095
 70
   192
  0
VERTEX
  5
AE9
  8
RÁM
 10
453.8717949192431
 20
2000.0
 30
5.349999999999979
 70
   192
  0
VERTEX
  5
AEA
  8
RÁM
 10
453.845
 20
2000.0
 30
5.449999999999974
 70
   192
  0
VERTEX
  5
AEB
  8
RÁM
 10
453.845
 20
2000.0
 30
6.249999999999976
 70
   192
  0
VERTEX
  5
AEC
  8
RÁM
 10
453.9119872981078
 20
2000.0
 30
6.499999999999989
 70
   192
  0
VERTEX
  5
AED
  8
RÁM
 10
454.0950000000001
 20
2000.0
 30
6.683012701892218
 70
   192
  0
VERTEX
  5
AEE
  8
RÁM
 10
454.3450000000001
 20
2000.0
 30
6.750000000000003
 70
   192
  0
VERTEX
  5
AEF
  8
RÁM
 10
493.2450000000002
 20
2000.0
 30
6.749999999999973
 70
   192
  0
VERTEX
  5
AF0
  8
RÁM
 10
493.4950000000002
 20
2000.0
 30
6.683012701892192
 70
   192
  0
VERTEX
  5
AF1
  8
RÁM
 10
493.6780127018923
 20
2000.0
 30
6.49999999999999
 70
   192
  0
VERTEX
  5
AF2
  8
RÁM
 10
493.7450000000001
 20
2000.0
 30
6.250000000000014
 70
   192
  0
VERTEX
  5
AF3
  8
RÁM
 10
493.7450000000001
 20
2000.0
 30
-6.250000000000028
 70
   192
  0
VERTEX
  5
AF4
  8
RÁM
 10
493.6780127018923
 20
2000.0
 30
-6.500000000000041
 70
   192
  0
VERTEX
  5
AF5
  8
RÁM
 10
493.4950000000001
 20
2000.0
 30
-6.68301270189227
 70
   192
  0
VERTEX
  5
AF6
  8
RÁM
 10
493.2450000000001
 20
2000.0
 30
-6.750000000000055
 70
   192
  0
VERTEX
  5
AF7
  8
RÁM
 10
454.345
 20
2000.0
 30
-6.750000000000025
 70
   192
  0
VERTEX
  5
AF8
  8
RÁM
 10
454.095
 20
2000.0
 30
-6.683012701892319
 70
   192
  0
VERTEX
  5
AF9
  8
RÁM
 10
453.9119872981078
 20
2000.0
 30
-6.50000000000007
 70
   192
  0
VERTEX
  5
AFA
  8
RÁM
 10
453.845
 20
2000.0
 30
-6.250000000000029
 70
   192
  0
VERTEX
  5
AFB
  8
RÁM
 10
0.0
 20
0.0
 30
0.0
 70
   128
 71
     3
 72
     4
 73
    -5
  0
VERTEX
  5
AFC
  8
RÁM
 10
0.0
 20
0.0
 30
0.0
 70
   128
 71
     2
 72
    -3
 73
    -5
  0
VERTEX
  5
AFD
  8
RÁM
 10
0.0
 20
0.0
 30
0.0
 70
   128
 71
     1
 72
    -2
 73
    -5
  0
VERTEX
  5
AFE
  8
RÁM
 10
0.0
 20
0.0
 30
0.0
 70
   128
 71
    32
 72
    -1
 73
    -5
  0
VERTEX
  5
AFF
  8
RÁM
 10
0.0
 20
0.0
 30
0.0
 70
   128
 71
    31
 72
   -32
 73
    -5
  0
VERTEX
  5
B00
  8
RÁM
 10
0.0
 20
0.0
 30
0.0
 70
   128
 71
    30
 72
   -31
 73
    -5
  0
VERTEX
  5
B01
  8
RÁM
 10
0.0
 20
0.0
 30
0.0
 70
   128
 71
    29
 72
   -30
 73
    -5
  0
VERTEX
  5
B02
  8
RÁM
 10
0.0
 20
0.0
 30
0.0
 70
   128
 71
    28
 72
   -29
 73
    -5
  0
VERTEX
  5
B03
  8
RÁM
 10
0.0
 20
0.0
 30
0.0
 70
   128
 71
     5
 72
    -6
 73
   -28
  0
VERTEX
  5
B04
  8
RÁM
 10
0.0
 20
0.0
 30
0.0
 70
   128
 71
     6
 72
    -7
 73
   -28
  0
VERTEX
  5
B05
  8
RÁM
 10
0.0
 20
0.0
 30
0.0
 70
   128
 71
     7
 72
    -8
 73
   -28
  0
VERTEX
  5
B06
  8
RÁM
 10
0.0
 20
0.0
 30
0.0
 70
   128
 71
    26
 72
    27
 73
   -28
  0
VERTEX
  5
B07
  8
RÁM
 10
0.0
 20
0.0
 30
0.0
 70
   128
 71
    25
 72
   -26
 73
   -28
  0
VERTEX
  5
B08
  8
RÁM
 10
0.0
 20
0.0
 30
0.0
 70
   128
 71
    24
 72
   -25
 73
   -28
  0
VERTEX
  5
B09
  8
RÁM
 10
0.0
 20
0.0
 30
0.0
 70
   128
 71
    -9
 72
   -24
 73
   -28
  0
VERTEX
  5
B0A
  8
RÁM
 10
0.0
 20
0.0
 30
0.0
 70
   128
 71
     8
 72
    -9
 73
   -28
  0
VERTEX
  5
B0B
  8
RÁM
 10
0.0
 20
0.0
 30
0.0
 70
   128
 71
     9
 72
   -10
 73
   -24
  0
VERTEX
  5
B0C
  8
RÁM
 10
0.0
 20
0.0
 30
0.0
 70
   128
 71
    10
 72
   -11
 73
   -24
  0
VERTEX
  5
B0D
  8
RÁM
 10
0.0
 20
0.0
 30
0.0
 70
   128
 71
    11
 72
   -12
 73
   -24
  0
VERTEX
  5
B0E
  8
RÁM
 10
0.0
 20
0.0
 30
0.0
 70
   128
 71
    22
 72
    23
 73
   -24
  0
VERTEX
  5
B0F
  8
RÁM
 10
0.0
 20
0.0
 30
0.0
 70
   128
 71
    21
 72
   -22
 73
   -24
  0
VERTEX
  5
B10
  8
RÁM
 10
0.0
 20
0.0
 30
0.0
 70
   128
 71
    20
 72
   -21
 73
   -24
  0
VERTEX
  5
B11
  8
RÁM
 10
0.0
 20
0.0
 30
0.0
 70
   128
 71
    19
 72
   -20
 73
   -24
  0
VERTEX
  5
B12
  8
RÁM
 10
0.0
 20
0.0
 30
0.0
 70
   128
 71
    18
 72
   -19
 73
   -24
  0
VERTEX
  5
B13
  8
RÁM
 10
0.0
 20
0.0
 30
0.0
 70
   128
 71
    17
 72
   -18
 73
   -24
  0
VERTEX
  5
B14
  8
RÁM
 10
0.0
 20
0.0
 30
0.0
 70
   128
 71
    16
 72
   -17
 73
   -24
  0
VERTEX
  5
B15
  8
RÁM
 10
0.0
 20
0.0
 30
0.0
 70
   128
 71
    15
 72
   -16
 73
   -24
  0
VERTEX
  5
B16
  8
RÁM
 10
0.0
 20
0.0
 30
0.0
 70
   128
 71
    14
 72
   -15
 73
   -24
  0
VERTEX
  5
B17
  8
RÁM
 10
0.0
 20
0.0
 30
0.0
 70
   128
 71
    13
 72
   -14
 73
   -24
  0
VERTEX
  5
B18
  8
RÁM
 10
0.0
 20
0.0
 30
0.0
 70
   128
 71
    12
 72
   -13
 73
   -24
  0
SEQEND
  5
12CD
  8
RÁM
  0
POLYLINE
  5
B19
  8
RÁM
 66
     1
 10
0.0
 20
0.0
 30
0.0
 70
    64
 71
    16
 72
    14
  0
VERTEX
  5
B1A
  8
RÁM
 10
454.345
 20
0.0
 30
6.749999999999973
 70
   192
  0
VERTEX
  5
B1B
  8
RÁM
 10
493.2450000000002
 20
0.0
 30
6.749999999999966
 70
   192
  0
VERTEX
  5
B1C
  8
RÁM
 10
493.4950000000002
 20
0.0
 30
6.683012701892192
 70
   192
  0
VERTEX
  5
B1D
  8
RÁM
 10
493.6780127018923
 20
0.0
 30
6.49999999999999
 70
   192
  0
VERTEX
  5
B1E
  8
RÁM
 10
493.7450000000001
 20
0.0
 30
6.250000000000014
 70
   192
  0
VERTEX
  5
B1F
  8
RÁM
 10
493.7450000000001
 20
0.0
 30
-6.250000000000028
 70
   192
  0
VERTEX
  5
B20
  8
RÁM
 10
493.6780127018923
 20
0.0
 30
-6.500000000000041
 70
   192
  0
VERTEX
  5
B21
  8
RÁM
 10
493.4950000000001
 20
0.0
 30
-6.68301270189227
 70
   192
  0
VERTEX
  5
B22
  8
RÁM
 10
493.2450000000001
 20
0.0
 30
-6.750000000000025
 70
   192
  0
VERTEX
  5
B23
  8
RÁM
 10
454.3450000000001
 20
0.0
 30
-6.75000000000011
 70
   192
  0
VERTEX
  5
B24
  8
RÁM
 10
454.095
 20
0.0
 30
-6.683012701892319
 70
   192
  0
VERTEX
  5
B25
  8
RÁM
 10
453.9119872981078
 20
0.0
 30
-6.50000000000007
 70
   192
  0
VERTEX
  5
B26
  8
RÁM
 10
453.845
 20
0.0
 30
-6.250000000000029
 70
   192
  0
VERTEX
  5
B27
  8
RÁM
 10
453.8450000000001
 20
0.0
 30
6.249999999999976
 70
   192
  0
VERTEX
  5
B28
  8
RÁM
 10
453.9119872981078
 20
0.0
 30
6.499999999999989
 70
   192
  0
VERTEX
  5
B29
  8
RÁM
 10
454.0950000000001
 20
0.0
 30
6.683012701892218
 70
   192
  0
VERTEX
  5
B2A
  8
RÁM
 10
0.0
 20
0.0
 30
0.0
 70
   128
 71
     1
 72
    16
 73
   -15
  0
VERTEX
  5
B2B
  8
RÁM
 10
0.0
 20
0.0
 30
0.0
 70
   128
 71
    -1
 72
    15
 73
   -14
  0
VERTEX
  5
B2C
  8
RÁM
 10
0.0
 20
0.0
 30
0.0
 70
   128
 71
    -1
 72
    14
 73
   -13
  0
VERTEX
  5
B2D
  8
RÁM
 10
0.0
 20
0.0
 30
0.0
 70
   128
 71
    -1
 72
    13
 73
   -12
  0
VERTEX
  5
B2E
  8
RÁM
 10
0.0
 20
0.0
 30
0.0
 70
   128
 71
    -1
 72
    12
 73
   -11
  0
VERTEX
  5
B2F
  8
RÁM
 10
0.0
 20
0.0
 30
0.0
 70
   128
 71
    -1
 72
    11
 73
   -10
  0
VERTEX
  5
B30
  8
RÁM
 10
0.0
 20
0.0
 30
0.0
 70
   128
 71
    -1
 72
    10
 73
    -9
  0
VERTEX
  5
B31
  8
RÁM
 10
0.0
 20
0.0
 30
0.0
 70
   128
 71
    -1
 72
     9
 73
    -8
  0
VERTEX
  5
B32
  8
RÁM
 10
0.0
 20
0.0
 30
0.0
 70
   128
 71
    -1
 72
     8
 73
    -7
  0
VERTEX
  5
B33
  8
RÁM
 10
0.0
 20
0.0
 30
0.0
 70
   128
 71
    -1
 72
     7
 73
    -6
  0
VERTEX
  5
B34
  8
RÁM
 10
0.0
 20
0.0
 30
0.0
 70
   128
 71
    -1
 72
     6
 73
    -5
  0
VERTEX
  5
B35
  8
RÁM
 10
0.0
 20
0.0
 30
0.0
 70
   128
 71
    -1
 72
     5
 73
    -4
  0
VERTEX
  5
B36
  8
RÁM
 10
0.0
 20
0.0
 30
0.0
 70
   128
 71
    -1
 72
     4
 73
    -3
  0
VERTEX
  5
B37
  8
RÁM
 10
0.0
 20
0.0
 30
0.0
 70
   128
 71
    -1
 72
     3
 73
     2
  0
SEQEND
  5
12CE
  8
RÁM
  0
POLYLINE
  5
B38
  8
RÁM
 66
     1
 10
0.0
 20
0.0
 30
0.0
 70
    64
 71
    16
 72
    14
  0
VERTEX
  5
B39
  8
RÁM
 10
486.7450000000002
 20
18.00000000000001
 30
-5.250000000000029
 70
   192
  0
VERTEX
  5
B3A
  8
RÁM
 10
454.045
 20
18.00000000000001
 30
-5.250000000000029
 70
   192
  0
VERTEX
  5
B3B
  8
RÁM
 10
453.9450000000001
 20
18.00000000000001
 30
-5.27679491924315
 70
   192
  0
VERTEX
  5
B3C
  8
RÁM
 10
453.8717949192431
 20
18.00000000000001
 30
-5.350000000000033
 70
   192
  0
VERTEX
  5
B3D
  8
RÁM
 10
453.845
 20
18.00000000000001
 30
-5.450000000000028
 70
   192
  0
VERTEX
  5
B3E
  8
RÁM
 10
453.845
 20
18.0
 30
5.449999999999974
 70
   192
  0
VERTEX
  5
B3F
  8
RÁM
 10
453.8717949192431
 20
18.00000000000001
 30
5.349999999999979
 70
   192
  0
VERTEX
  5
B40
  8
RÁM
 10
453.945
 20
18.00000000000001
 30
5.276794919243095
 70
   192
  0
VERTEX
  5
B41
  8
RÁM
 10
454.045
 20
18.00000000000001
 30
5.249999999999984
 70
   192
  0
VERTEX
  5
B42
  8
RÁM
 10
486.7450000000002
 20
18.00000000000001
 30
5.249999999999973
 70
   192
  0
VERTEX
  5
B43
  8
RÁM
 10
486.9950000000002
 20
18.00000000000001
 30
5.183012701892192
 70
   192
  0
VERTEX
  5
B44
  8
RÁM
 10
487.1780127018924
 20
18.00000000000001
 30
4.999999999999989
 70
   192
  0
VERTEX
  5
B45
  8
RÁM
 10
487.2450000000002
 20
18.00000000000001
 30
4.750000000000013
 70
   192
  0
VERTEX
  5
B46
  8
RÁM
 10
487.2450000000002
 20
18.00000000000001
 30
-4.75000000000007
 70
   192
  0
VERTEX
  5
B47
  8
RÁM
 10
487.1780127018924
 20
18.00000000000001
 30
-5.00000000000006
 70
   192
  0
VERTEX
  5
B48
  8
RÁM
 10
486.9950000000002
 20
18.00000000000001
 30
-5.183012701892272
 70
   192
  0
VERTEX
  5
B49
  8
RÁM
 10
0.0
 20
0.0
 30
0.0
 70
   128
 71
     5
 72
     6
 73
    -7
  0
VERTEX
  5
B4A
  8
RÁM
 10
0.0
 20
0.0
 30
0.0
 70
   128
 71
     7
 72
    -8
 73
    -5
  0
VERTEX
  5
B4B
  8
RÁM
 10
0.0
 20
0.0
 30
0.0
 70
   128
 71
     8
 72
    -9
 73
    -5
  0
VERTEX
  5
B4C
  8
RÁM
 10
0.0
 20
0.0
 30
0.0
 70
   128
 71
    16
 72
     1
 73
    -2
  0
VERTEX
  5
B4D
  8
RÁM
 10
0.0
 20
0.0
 30
0.0
 70
   128
 71
    15
 72
   -16
 73
    -2
  0
VERTEX
  5
B4E
  8
RÁM
 10
0.0
 20
0.0
 30
0.0
 70
   128
 71
    14
 72
   -15
 73
    -2
  0
VERTEX
  5
B4F
  8
RÁM
 10
0.0
 20
0.0
 30
0.0
 70
   128
 71
    13
 72
   -14
 73
    -2
  0
VERTEX
  5
B50
  8
RÁM
 10
0.0
 20
0.0
 30
0.0
 70
   128
 71
    12
 72
   -13
 73
    -2
  0
VERTEX
  5
B51
  8
RÁM
 10
0.0
 20
0.0
 30
0.0
 70
   128
 71
    11
 72
   -12
 73
    -2
  0
VERTEX
  5
B52
  8
RÁM
 10
0.0
 20
0.0
 30
0.0
 70
   128
 71
    10
 72
   -11
 73
    -2
  0
VERTEX
  5
B53
  8
RÁM
 10
0.0
 20
0.0
 30
0.0
 70
   128
 71
     9
 72
   -10
 73
    -2
  0
VERTEX
  5
B54
  8
RÁM
 10
0.0
 20
0.0
 30
0.0
 70
   128
 71
     2
 72
    -3
 73
    -9
  0
VERTEX
  5
B55
  8
RÁM
 10
0.0
 20
0.0
 30
0.0
 70
   128
 71
     3
 72
    -4
 73
    -9
  0
VERTEX
  5
B56
  8
RÁM
 10
0.0
 20
0.0
 30
0.0
 70
   128
 71
     4
 72
    -5
 73
    -9
  0
SEQEND
  5
12CF
  8
RÁM
  0
ENDBLK
  5
12BD
  8
0
  0
BLOCK
  8
0
  2
*X2
 70
     1
 10
0.0
 20
0.0
 30
0.0
  3
*X2
  1

  0
POLYLINE
  5
B58
  8
RÁM
 66
     1
 10
0.0
 20
0.0
 30
0.0
 70
    64
 71
     4
 72
     2
  0
VERTEX
  5
B59
  8
RÁM
 10
-491.7550000000001
 20
2001.0
 30
-5.55
 70
   192
  0
VERTEX
  5
B5A
  8
RÁM
 10
-491.7550000000001
 20
1996.0
 30
-5.55
 70
   192
  0
VERTEX
  5
B5B
  8
RÁM
 10
-491.7550000000001
 20
1996.0
 30
2.55
 70
   192
  0
VERTEX
  5
B5C
  8
RÁM
 10
-491.7550000000001
 20
2001.0
 30
2.55
 70
   192
  0
VERTEX
  5
B5D
  8
RÁM
 10
0.0
 20
0.0
 30
0.0
 70
   128
 71
     3
 72
     4
 73
    -1
  0
VERTEX
  5
B5E
  8
RÁM
 10
0.0
 20
0.0
 30
0.0
 70
   128
 71
     2
 72
    -3
 73
     1
  0
SEQEND
  5
12D2
  8
RÁM
  0
POLYLINE
  5
B5F
  8
RÁM
 66
     1
 10
0.0
 20
0.0
 30
0.0
 70
    64
 71
     8
 72
     6
  0
VERTEX
  5
B60
  8
RÁM
 10
-490.2550000000001
 20
1996.0
 30
5.148076211353317
 70
   192
  0
VERTEX
  5
B61
  8
RÁM
 10
-490.2550000000001
 20
2001.0
 30
5.148076211353317
 70
   192
  0
VERTEX
  5
B62
  8
RÁM
 10
-491.3530762113534
 20
2001.0
 30
4.050000000000001
 70
   192
  0
VERTEX
  5
B63
  8
RÁM
 10
-491.3530762113534
 20
1996.0
 30
4.050000000000001
 70
   192
  0
VERTEX
  5
B64
  8
RÁM
 10
-488.7550000000001
 20
1996.0
 30
5.550000000000001
 70
   192
  0
VERTEX
  5
B65
  8
RÁM
 10
-488.7550000000001
 20
2001.0
 30
5.550000000000001
 70
   192
  0
VERTEX
  5
B66
  8
RÁM
 10
-491.7550000000001
 20
2001.0
 30
2.55
 70
   192
  0
VERTEX
  5
B67
  8
RÁM
 10
-491.7550000000001
 20
1996.0
 30
2.55
 70
   192
  0
VERTEX
  5
B68
  8
RÁM
 10
0.0
 20
0.0
 30
0.0
 70
   128
 71
     1
 72
     2
 73
    -3
  0
VERTEX
  5
B69
  8
RÁM
 10
0.0
 20
0.0
 30
0.0
 70
   128
 71
    -1
 72
     3
 73
     4
  0
VERTEX
  5
B6A
  8
RÁM
 10
0.0
 20
0.0
 30
0.0
 70
   128
 71
     5
 72
     6
 73
    -2
  0
VERTEX
  5
B6B
  8
RÁM
 10
0.0
 20
0.0
 30
0.0
 70
   128
 71
    -5
 72
     2
 73
     1
  0
VERTEX
  5
B6C
  8
RÁM
 10
0.0
 20
0.0
 30
0.0
 70
   128
 71
     4
 72
     3
 73
    -7
  0
VERTEX
  5
B6D
  8
RÁM
 10
0.0
 20
0.0
 30
0.0
 70
   128
 71
    -4
 72
     7
 73
     8
  0
SEQEND
  5
12D3
  8
RÁM
  0
POLYLINE
  5
B6E
  8
RÁM
 66
     1
 10
0.0
 20
0.0
 30
0.0
 70
    64
 71
     4
 72
     2
  0
VERTEX
  5
B6F
  8
RÁM
 10
-488.7550000000001
 20
2001.0
 30
5.550000000000001
 70
   192
  0
VERTEX
  5
B70
  8
RÁM
 10
-488.7550000000001
 20
1996.0
 30
5.550000000000001
 70
   192
  0
VERTEX
  5
B71
  8
RÁM
 10
-463.295
 20
1996.0
 30
5.55
 70
   192
  0
VERTEX
  5
B72
  8
RÁM
 10
-463.295
 20
2001.0
 30
5.55
 70
   192
  0
VERTEX
  5
B73
  8
RÁM
 10
0.0
 20
0.0
 30
0.0
 70
   128
 71
     3
 72
     4
 73
    -1
  0
VERTEX
  5
B74
  8
RÁM
 10
0.0
 20
0.0
 30
0.0
 70
   128
 71
     2
 72
    -3
 73
     1
  0
SEQEND
  5
12D4
  8
RÁM
  0
POLYLINE
  5
B75
  8
RÁM
 66
     1
 10
0.0
 20
0.0
 30
0.0
 70
    64
 71
     8
 72
     6
  0
VERTEX
  5
B76
  8
RÁM
 10
-463.295
 20
2000.0
 30
4.550000000000002
 70
   192
  0
VERTEX
  5
B77
  8
RÁM
 10
-463.295
 20
1996.0
 30
4.550000000000002
 70
   192
  0
VERTEX
  5
B78
  8
RÁM
 10
-463.295
 20
1996.0
 30
5.55
 70
   192
  0
VERTEX
  5
B79
  8
RÁM
 10
-463.295
 20
2001.0
 30
5.55
 70
   192
  0
VERTEX
  5
B7A
  8
RÁM
 10
-463.295
 20
2001.0
 30
-5.55
 70
   192
  0
VERTEX
  5
B7B
  8
RÁM
 10
-463.295
 20
1996.0
 30
-5.55
 70
   192
  0
VERTEX
  5
B7C
  8
RÁM
 10
-463.295
 20
1996.0
 30
-4.549999999999995
 70
   192
  0
VERTEX
  5
B7D
  8
RÁM
 10
-463.295
 20
2000.0
 30
-4.549999999999995
 70
   192
  0
VERTEX
  5
B7E
  8
RÁM
 10
0.0
 20
0.0
 30
0.0
 70
   128
 71
     8
 72
     7
 73
    -6
  0
VERTEX
  5
B7F
  8
RÁM
 10
0.0
 20
0.0
 30
0.0
 70
   128
 71
    -8
 72
     6
 73
    -5
  0
VERTEX
  5
B80
  8
RÁM
 10
0.0
 20
0.0
 30
0.0
 70
   128
 71
     5
 72
    -4
 73
    -1
  0
VERTEX
  5
B81
  8
RÁM
 10
0.0
 20
0.0
 30
0.0
 70
   128
 71
    -5
 72
     1
 73
    -8
  0
VERTEX
  5
B82
  8
RÁM
 10
0.0
 20
0.0
 30
0.0
 70
   128
 71
     4
 72
     3
 73
    -2
  0
VERTEX
  5
B83
  8
RÁM
 10
0.0
 20
0.0
 30
0.0
 70
   128
 71
    -4
 72
     2
 73
    -1
  0
SEQEND
  5
12D5
  8
RÁM
  0
POLYLINE
  5
B84
  8
RÁM
 66
     1
 10
0.0
 20
0.0
 30
0.0
 70
    64
 71
     8
 72
     6
  0
VERTEX
  5
B85
  8
RÁM
 10
-472.7550000000001
 20
2000.0
 30
-5.55
 70
   192
  0
VERTEX
  5
B86
  8
RÁM
 10
-472.7550000000001
 20
1996.0
 30
-5.55
 70
   192
  0
VERTEX
  5
B87
  8
RÁM
 10
-463.295
 20
1996.0
 30
-5.55
 70
   192
  0
VERTEX
  5
B88
  8
RÁM
 10
-463.295
 20
2001.0
 30
-5.55
 70
   192
  0
VERTEX
  5
B89
  8
RÁM
 10
-491.7550000000001
 20
2001.0
 30
-5.55
 70
   192
  0
VERTEX
  5
B8A
  8
RÁM
 10
-491.7550000000001
 20
1996.0
 30
-5.55
 70
   192
  0
VERTEX
  5
B8B
  8
RÁM
 10
-488.7550000000001
 20
1996.0
 30
-5.55
 70
   192
  0
VERTEX
  5
B8C
  8
RÁM
 10
-488.7550000000001
 20
2000.0
 30
-5.55
 70
   192
  0
VERTEX
  5
B8D
  8
RÁM
 10
0.0
 20
0.0
 30
0.0
 70
   128
 71
     8
 72
     7
 73
    -6
  0
VERTEX
  5
B8E
  8
RÁM
 10
0.0
 20
0.0
 30
0.0
 70
   128
 71
    -8
 72
     6
 73
    -5
  0
VERTEX
  5
B8F
  8
RÁM
 10
0.0
 20
0.0
 30
0.0
 70
   128
 71
     5
 72
    -4
 73
    -1
  0
VERTEX
  5
B90
  8
RÁM
 10
0.0
 20
0.0
 30
0.0
 70
   128
 71
    -5
 72
     1
 73
    -8
  0
VERTEX
  5
B91
  8
RÁM
 10
0.0
 20
0.0
 30
0.0
 70
   128
 71
     4
 72
     3
 73
    -2
  0
VERTEX
  5
B92
  8
RÁM
 10
0.0
 20
0.0
 30
0.0
 70
   128
 71
    -4
 72
     2
 73
    -1
  0
SEQEND
  5
12D6
  8
RÁM
  0
POLYLINE
  5
B93
  8
RÁM
 66
     1
 10
0.0
 20
0.0
 30
0.0
 70
    64
 71
     7
 72
     5
  0
VERTEX
  5
B94
  8
RÁM
 10
-491.7550000000001
 20
2001.0
 30
-5.55
 70
   192
  0
VERTEX
  5
B95
  8
RÁM
 10
-491.7550000000001
 20
2001.0
 30
2.55
 70
   192
  0
VERTEX
  5
B96
  8
RÁM
 10
-491.3530762113534
 20
2001.0
 30
4.050000000000001
 70
   192
  0
VERTEX
  5
B97
  8
RÁM
 10
-490.2550000000001
 20
2001.0
 30
5.148076211353317
 70
   192
  0
VERTEX
  5
B98
  8
RÁM
 10
-488.7550000000001
 20
2001.0
 30
5.550000000000001
 70
   192
  0
VERTEX
  5
B99
  8
RÁM
 10
-463.295
 20
2001.0
 30
5.55
 70
   192
  0
VERTEX
  5
B9A
  8
RÁM
 10
-463.295
 20
2001.0
 30
-5.55
 70
   192
  0
VERTEX
  5
B9B
  8
RÁM
 10
0.0
 20
0.0
 30
0.0
 70
   128
 71
     6
 72
     7
 73
    -1
  0
VERTEX
  5
B9C
  8
RÁM
 10
0.0
 20
0.0
 30
0.0
 70
   128
 71
     5
 72
    -6
 73
    -1
  0
VERTEX
  5
B9D
  8
RÁM
 10
0.0
 20
0.0
 30
0.0
 70
   128
 71
     4
 72
    -5
 73
    -1
  0
VERTEX
  5
B9E
  8
RÁM
 10
0.0
 20
0.0
 30
0.0
 70
   128
 71
     3
 72
    -4
 73
    -1
  0
VERTEX
  5
B9F
  8
RÁM
 10
0.0
 20
0.0
 30
0.0
 70
   128
 71
     2
 72
    -3
 73
     1
  0
SEQEND
  5
12D7
  8
RÁM
  0
POLYLINE
  5
BA0
  8
RÁM
 66
     1
 10
0.0
 20
0.0
 30
0.0
 70
    64
 71
    18
 72
    16
  0
VERTEX
  5
BA1
  8
RÁM
 10
-463.295
 20
1996.0
 30
-5.55
 70
   192
  0
VERTEX
  5
BA2
  8
RÁM
 10
-472.7550000000001
 20
1996.0
 30
-5.549999999999999
 70
   192
  0
VERTEX
  5
BA3
  8
RÁM
 10
-472.7550000000001
 20
1996.0
 30
-5.050000000000002
 70
   192
  0
VERTEX
  5
BA4
  8
RÁM
 10
-488.7550000000001
 20
1996.0
 30
-5.050000000000002
 70
   192
  0
VERTEX
  5
BA5
  8
RÁM
 10
-488.7550000000001
 20
1996.0
 30
-5.55
 70
   192
  0
VERTEX
  5
BA6
  8
RÁM
 10
-491.7550000000001
 20
1996.0
 30
-5.55
 70
   192
  0
VERTEX
  5
BA7
  8
RÁM
 10
-491.7550000000001
 20
1996.0
 30
2.55
 70
   192
  0
VERTEX
  5
BA8
  8
RÁM
 10
-491.3530762113534
 20
1996.0
 30
4.050000000000001
 70
   192
  0
VERTEX
  5
BA9
  8
RÁM
 10
-490.2550000000001
 20
1996.0
 30
5.148076211353317
 70
   192
  0
VERTEX
  5
BAA
  8
RÁM
 10
-488.7550000000001
 20
1996.0
 30
5.55
 70
   192
  0
VERTEX
  5
BAB
  8
RÁM
 10
-463.295
 20
1996.0
 30
5.55
 70
   192
  0
VERTEX
  5
BAC
  8
RÁM
 10
-463.295
 20
1996.0
 30
4.550000000000002
 70
   192
  0
VERTEX
  5
BAD
  8
RÁM
 10
-488.7550000000001
 20
1996.0
 30
4.550000000000002
 70
   192
  0
VERTEX
  5
BAE
  8
RÁM
 10
-489.7550000000001
 20
1996.0
 30
4.282050807568879
 70
   192
  0
VERTEX
  5
BAF
  8
RÁM
 10
-490.4870508075689
 20
1996.0
 30
3.550000000000002
 70
   192
  0
VERTEX
  5
BB0
  8
RÁM
 10
-490.7550000000001
 20
1996.0
 30
2.550000000000001
 70
   192
  0
VERTEX
  5
BB1
  8
RÁM
 10
-490.7550000000001
 20
1996.0
 30
-4.55
 70
   192
  0
VERTEX
  5
BB2
  8
RÁM
 10
-463.295
 20
1996.0
 30
-4.549999999999995
 70
   192
  0
VERTEX
  5
BB3
  8
RÁM
 10
0.0
 20
0.0
 30
0.0
 70
   128
 71
    13
 72
    12
 73
   -11
  0
VERTEX
  5
BB4
  8
RÁM
 10
0.0
 20
0.0
 30
0.0
 70
   128
 71
   -13
 72
    11
 73
   -10
  0
VERTEX
  5
BB5
  8
RÁM
 10
0.0
 20
0.0
 30
0.0
 70
   128
 71
   -13
 72
    10
 73
    -9
  0
VERTEX
  5
BB6
  8
RÁM
 10
0.0
 20
0.0
 30
0.0
 70
   128
 71
    -9
 72
    14
 73
   -13
  0
VERTEX
  5
BB7
  8
RÁM
 10
0.0
 20
0.0
 30
0.0
 70
   128
 71
     9
 72
    -8
 73
   -15
  0
VERTEX
  5
BB8
  8
RÁM
 10
0.0
 20
0.0
 30
0.0
 70
   128
 71
    -9
 72
    15
 73
   -14
  0
VERTEX
  5
BB9
  8
RÁM
 10
0.0
 20
0.0
 30
0.0
 70
   128
 71
    -8
 72
    16
 73
   -15
  0
VERTEX
  5
BBA
  8
RÁM
 10
0.0
 20
0.0
 30
0.0
 70
   128
 71
     8
 72
     7
 73
    -6
  0
VERTEX
  5
BBB
  8
RÁM
 10
0.0
 20
0.0
 30
0.0
 70
   128
 71
    -8
 72
    -6
 73
   -17
  0
VERTEX
  5
BBC
  8
RÁM
 10
0.0
 20
0.0
 30
0.0
 70
   128
 71
    -8
 72
    17
 73
   -16
  0
VERTEX
  5
BBD
  8
RÁM
 10
0.0
 20
0.0
 30
0.0
 70
   128
 71
     3
 72
     2
 73
    -1
  0
VERTEX
  5
BBE
  8
RÁM
 10
0.0
 20
0.0
 30
0.0
 70
   128
 71
    -3
 72
     1
 73
   -18
  0
VERTEX
  5
BBF
  8
RÁM
 10
0.0
 20
0.0
 30
0.0
 70
   128
 71
    -3
 72
    18
 73
   -17
  0
VERTEX
  5
BC0
  8
RÁM
 10
0.0
 20
0.0
 30
0.0
 70
   128
 71
   -17
 72
     4
 73
    -3
  0
VERTEX
  5
BC1
  8
RÁM
 10
0.0
 20
0.0
 30
0.0
 70
   128
 71
   -17
 72
     6
 73
    -5
  0
VERTEX
  5
BC2
  8
RÁM
 10
0.0
 20
0.0
 30
0.0
 70
   128
 71
   -17
 72
     5
 73
    -4
  0
SEQEND
  5
12D8
  8
RÁM
  0
POLYLINE
  5
BC3
  8
RÁM
 66
     1
 10
0.0
 20
0.0
 30
0.0
 70
    64
 71
     4
 72
     2
  0
VERTEX
  5
BC4
  8
RÁM
 10
-472.7550000000001
 20
2000.0
 30
-5.55
 70
   192
  0
VERTEX
  5
BC5
  8
RÁM
 10
-488.7550000000001
 20
2000.0
 30
-5.55
 70
   192
  0
VERTEX
  5
BC6
  8
RÁM
 10
-488.7550000000001
 20
2000.0
 30
-5.050000000000002
 70
   192
  0
VERTEX
  5
BC7
  8
RÁM
 10
-472.7550000000001
 20
2000.0
 30
-5.050000000000002
 70
   192
  0
VERTEX
  5
BC8
  8
RÁM
 10
0.0
 20
0.0
 30
0.0
 70
   128
 71
     1
 72
     4
 73
    -3
  0
VERTEX
  5
BC9
  8
RÁM
 10
0.0
 20
0.0
 30
0.0
 70
   128
 71
    -1
 72
     3
 73
     2
  0
SEQEND
  5
12D9
  8
RÁM
  0
POLYLINE
  5
BCA
  8
RÁM
 66
     1
 10
0.0
 20
0.0
 30
0.0
 70
    64
 71
     4
 72
     2
  0
VERTEX
  5
BCB
  8
RÁM
 10
-488.7550000000001
 20
2000.0
 30
-5.55
 70
   192
  0
VERTEX
  5
BCC
  8
RÁM
 10
-488.7550000000001
 20
1996.0
 30
-5.550000000000001
 70
   192
  0
VERTEX
  5
BCD
  8
RÁM
 10
-488.7550000000001
 20
1996.0
 30
-5.050000000000002
 70
   192
  0
VERTEX
  5
BCE
  8
RÁM
 10
-488.7550000000001
 20
2000.0
 30
-5.050000000000002
 70
   192
  0
VERTEX
  5
BCF
  8
RÁM
 10
0.0
 20
0.0
 30
0.0
 70
   128
 71
     1
 72
     4
 73
    -3
  0
VERTEX
  5
BD0
  8
RÁM
 10
0.0
 20
0.0
 30
0.0
 70
   128
 71
    -1
 72
     3
 73
     2
  0
SEQEND
  5
12DA
  8
RÁM
  0
POLYLINE
  5
BD1
  8
RÁM
 66
     1
 10
0.0
 20
0.0
 30
0.0
 70
    64
 71
     4
 72
     2
  0
VERTEX
  5
BD2
  8
RÁM
 10
-472.7550000000001
 20
1996.0
 30
-5.55
 70
   192
  0
VERTEX
  5
BD3
  8
RÁM
 10
-472.7550000000001
 20
2000.0
 30
-5.55
 70
   192
  0
VERTEX
  5
BD4
  8
RÁM
 10
-472.7550000000001
 20
2000.0
 30
-5.050000000000002
 70
   192
  0
VERTEX
  5
BD5
  8
RÁM
 10
-472.7550000000001
 20
1996.0
 30
-5.050000000000001
 70
   192
  0
VERTEX
  5
BD6
  8
RÁM
 10
0.0
 20
0.0
 30
0.0
 70
   128
 71
     1
 72
     4
 73
    -3
  0
VERTEX
  5
BD7
  8
RÁM
 10
0.0
 20
0.0
 30
0.0
 70
   128
 71
    -1
 72
     3
 73
     2
  0
SEQEND
  5
12DB
  8
RÁM
  0
POLYLINE
  5
BD8
  8
RÁM
 66
     1
 10
0.0
 20
0.0
 30
0.0
 70
    64
 71
     4
 72
     2
  0
VERTEX
  5
BD9
  8
RÁM
 10
-472.7550000000001
 20
1996.0
 30
-5.050000000000002
 70
   192
  0
VERTEX
  5
BDA
  8
RÁM
 10
-472.7550000000001
 20
2000.0
 30
-5.050000000000002
 70
   192
  0
VERTEX
  5
BDB
  8
RÁM
 10
-488.7550000000001
 20
2000.0
 30
-5.050000000000002
 70
   192
  0
VERTEX
  5
BDC
  8
RÁM
 10
-488.7550000000001
 20
1996.0
 30
-5.050000000000002
 70
   192
  0
VERTEX
  5
BDD
  8
RÁM
 10
0.0
 20
0.0
 30
0.0
 70
   128
 71
     1
 72
     4
 73
    -3
  0
VERTEX
  5
BDE
  8
RÁM
 10
0.0
 20
0.0
 30
0.0
 70
   128
 71
    -1
 72
     3
 73
     2
  0
SEQEND
  5
12DC
  8
RÁM
  0
POLYLINE
  5
BDF
  8
RÁM
 66
     1
 10
0.0
 20
0.0
 30
0.0
 70
    64
 71
     4
 72
     2
  0
VERTEX
  5
BE0
  8
RÁM
 10
-490.7550000000001
 20
1996.0
 30
-4.55
 70
   192
  0
VERTEX
  5
BE1
  8
RÁM
 10
-490.7550000000001
 20
2000.0
 30
-4.55
 70
   192
  0
VERTEX
  5
BE2
  8
RÁM
 10
-463.295
 20
2000.0
 30
-4.549999999999995
 70
   192
  0
VERTEX
  5
BE3
  8
RÁM
 10
-463.295
 20
1996.0
 30
-4.549999999999994
 70
   192
  0
VERTEX
  5
BE4
  8
RÁM
 10
0.0
 20
0.0
 30
0.0
 70
   128
 71
     1
 72
     4
 73
    -3
  0
VERTEX
  5
BE5
  8
RÁM
 10
0.0
 20
0.0
 30
0.0
 70
   128
 71
    -1
 72
     3
 73
     2
  0
SEQEND
  5
12DD
  8
RÁM
  0
POLYLINE
  5
BE6
  8
RÁM
 66
     1
 10
0.0
 20
0.0
 30
0.0
 70
    64
 71
     4
 72
     2
  0
VERTEX
  5
BE7
  8
RÁM
 10
-490.7550000000001
 20
1996.0
 30
2.550000000000001
 70
   192
  0
VERTEX
  5
BE8
  8
RÁM
 10
-490.7550000000001
 20
2000.0
 30
2.550000000000001
 70
   192
  0
VERTEX
  5
BE9
  8
RÁM
 10
-490.7550000000001
 20
2000.0
 30
-4.55
 70
   192
  0
VERTEX
  5
BEA
  8
RÁM
 10
-490.7550000000001
 20
1996.0
 30
-4.550000000000001
 70
   192
  0
VERTEX
  5
BEB
  8
RÁM
 10
0.0
 20
0.0
 30
0.0
 70
   128
 71
     1
 72
     4
 73
    -3
  0
VERTEX
  5
BEC
  8
RÁM
 10
0.0
 20
0.0
 30
0.0
 70
   128
 71
    -1
 72
     3
 73
     2
  0
SEQEND
  5
12DE
  8
RÁM
  0
POLYLINE
  5
BED
  8
RÁM
 66
     1
 10
0.0
 20
0.0
 30
0.0
 70
    64
 71
     8
 72
     6
  0
VERTEX
  5
BEE
  8
RÁM
 10
-490.4870508075689
 20
2000.0
 30
3.550000000000002
 70
   192
  0
VERTEX
  5
BEF
  8
RÁM
 10
-489.7550000000001
 20
2000.0
 30
4.282050807568879
 70
   192
  0
VERTEX
  5
BF0
  8
RÁM
 10
-489.7550000000001
 20
1996.0
 30
4.282050807568879
 70
   192
  0
VERTEX
  5
BF1
  8
RÁM
 10
-490.4870508075689
 20
1996.0
 30
3.550000000000002
 70
   192
  0
VERTEX
  5
BF2
  8
RÁM
 10
-488.7550000000001
 20
2000.0
 30
4.550000000000002
 70
   192
  0
VERTEX
  5
BF3
  8
RÁM
 10
-488.7550000000001
 20
1996.0
 30
4.550000000000002
 70
   192
  0
VERTEX
  5
BF4
  8
RÁM
 10
-490.7550000000001
 20
2000.0
 30
2.550000000000001
 70
   192
  0
VERTEX
  5
BF5
  8
RÁM
 10
-490.7550000000001
 20
1996.0
 30
2.550000000000001
 70
   192
  0
VERTEX
  5
BF6
  8
RÁM
 10
0.0
 20
0.0
 30
0.0
 70
   128
 71
     1
 72
     2
 73
    -3
  0
VERTEX
  5
BF7
  8
RÁM
 10
0.0
 20
0.0
 30
0.0
 70
   128
 71
     4
 72
    -1
 73
     3
  0
VERTEX
  5
BF8
  8
RÁM
 10
0.0
 20
0.0
 30
0.0
 70
   128
 71
     2
 72
     5
 73
    -6
  0
VERTEX
  5
BF9
  8
RÁM
 10
0.0
 20
0.0
 30
0.0
 70
   128
 71
     3
 72
    -2
 73
     6
  0
VERTEX
  5
BFA
  8
RÁM
 10
0.0
 20
0.0
 30
0.0
 70
   128
 71
     7
 72
     1
 73
    -4
  0
VERTEX
  5
BFB
  8
RÁM
 10
0.0
 20
0.0
 30
0.0
 70
   128
 71
     8
 72
    -7
 73
     4
  0
SEQEND
  5
12DF
  8
RÁM
  0
POLYLINE
  5
BFC
  8
RÁM
 66
     1
 10
0.0
 20
0.0
 30
0.0
 70
    64
 71
     4
 72
     2
  0
VERTEX
  5
BFD
  8
RÁM
 10
-463.295
 20
1996.0
 30
4.550000000000002
 70
   192
  0
VERTEX
  5
BFE
  8
RÁM
 10
-463.295
 20
2000.0
 30
4.550000000000002
 70
   192
  0
VERTEX
  5
BFF
  8
RÁM
 10
-488.7550000000001
 20
2000.0
 30
4.550000000000001
 70
   192
  0
VERTEX
  5
C00
  8
RÁM
 10
-488.7550000000001
 20
1996.0
 30
4.550000000000001
 70
   192
  0
VERTEX
  5
C01
  8
RÁM
 10
0.0
 20
0.0
 30
0.0
 70
   128
 71
     1
 72
     4
 73
    -3
  0
VERTEX
  5
C02
  8
RÁM
 10
0.0
 20
0.0
 30
0.0
 70
   128
 71
    -1
 72
     3
 73
     2
  0
SEQEND
  5
12E0
  8
RÁM
  0
POLYLINE
  5
C03
  8
RÁM
 66
     1
 10
0.0
 20
0.0
 30
0.0
 70
    64
 71
     7
 72
     5
  0
VERTEX
  5
C04
  8
RÁM
 10
-463.295
 20
2000.0
 30
-4.549999999999995
 70
   192
  0
VERTEX
  5
C05
  8
RÁM
 10
-463.295
 20
2000.0
 30
4.550000000000002
 70
   192
  0
VERTEX
  5
C06
  8
RÁM
 10
-488.7550000000001
 20
2000.0
 30
4.550000000000001
 70
   192
  0
VERTEX
  5
C07
  8
RÁM
 10
-489.7550000000001
 20
2000.0
 30
4.282050807568879
 70
   192
  0
VERTEX
  5
C08
  8
RÁM
 10
-490.4870508075689
 20
2000.0
 30
3.550000000000002
 70
   192
  0
VERTEX
  5
C09
  8
RÁM
 10
-490.7550000000001
 20
2000.0
 30
2.550000000000001
 70
   192
  0
VERTEX
  5
C0A
  8
RÁM
 10
-490.7550000000001
 20
2000.0
 30
-4.550000000000001
 70
   192
  0
VERTEX
  5
C0B
  8
RÁM
 10
0.0
 20
0.0
 30
0.0
 70
   128
 71
     6
 72
     7
 73
    -1
  0
VERTEX
  5
C0C
  8
RÁM
 10
0.0
 20
0.0
 30
0.0
 70
   128
 71
     5
 72
    -6
 73
    -1
  0
VERTEX
  5
C0D
  8
RÁM
 10
0.0
 20
0.0
 30
0.0
 70
   128
 71
     4
 72
    -5
 73
    -1
  0
VERTEX
  5
C0E
  8
RÁM
 10
0.0
 20
0.0
 30
0.0
 70
   128
 71
     3
 72
    -4
 73
    -1
  0
VERTEX
  5
C0F
  8
RÁM
 10
0.0
 20
0.0
 30
0.0
 70
   128
 71
     2
 72
    -3
 73
     1
  0
SEQEND
  5
12E1
  8
RÁM
  0
ENDBLK
  5
12D1
  8
0
  0
BLOCK
  8
0
  2
*X3
 70
     1
 10
0.0
 20
0.0
 30
0.0
  3
*X3
  1

  0
POLYLINE
  5
C11
  8
RÁM
 66
     1
 10
0.0
 20
0.0
 30
0.0
 70
    64
 71
     4
 72
     2
  0
VERTEX
  5
C12
  8
RÁM
 10
493.7949999999999
 20
1996.0
 30
-7.749999999999999
 70
   192
  0
VERTEX
  5
C13
  8
RÁM
 10
453.7950000000001
 20
1996.0
 30
-7.749999999999999
 70
   192
  0
VERTEX
  5
C14
  8
RÁM
 10
453.7950000000001
 20
1996.0
 30
-6.750000000000007
 70
   192
  0
VERTEX
  5
C15
  8
RÁM
 10
493.795
 20
1996.0
 30
-6.749999999999999
 70
   192
  0
VERTEX
  5
C16
  8
RÁM
 10
0.0
 20
0.0
 30
0.0
 70
   128
 71
     1
 72
     4
 73
    -3
  0
VERTEX
  5
C17
  8
RÁM
 10
0.0
 20
0.0
 30
0.0
 70
   128
 71
    -1
 72
     3
 73
     2
  0
SEQEND
  5
12E4
  8
RÁM
  0
POLYLINE
  5
C18
  8
RÁM
 66
     1
 10
0.0
 20
0.0
 30
0.0
 70
    64
 71
     8
 72
     6
  0
VERTEX
  5
C19
  8
RÁM
 10
493.795
 20
2000.0
 30
6.749999999999999
 70
   192
  0
VERTEX
  5
C1A
  8
RÁM
 10
493.795
 20
1996.0
 30
6.749999999999997
 70
   192
  0
VERTEX
  5
C1B
  8
RÁM
 10
493.795
 20
1996.0
 30
7.749999999999999
 70
   192
  0
VERTEX
  5
C1C
  8
RÁM
 10
493.795
 20
2001.0
 30
7.749999999999999
 70
   192
  0
VERTEX
  5
C1D
  8
RÁM
 10
493.795
 20
2001.0
 30
-7.749999999999999
 70
   192
  0
VERTEX
  5
C1E
  8
RÁM
 10
493.795
 20
1996.0
 30
-7.749999999999999
 70
   192
  0
VERTEX
  5
C1F
  8
RÁM
 10
493.795
 20
1996.0
 30
-6.749999999999999
 70
   192
  0
VERTEX
  5
C20
  8
RÁM
 10
493.795
 20
2000.0
 30
-6.749999999999999
 70
   192
  0
VERTEX
  5
C21
  8
RÁM
 10
0.0
 20
0.0
 30
0.0
 70
   128
 71
     8
 72
     7
 73
    -6
  0
VERTEX
  5
C22
  8
RÁM
 10
0.0
 20
0.0
 30
0.0
 70
   128
 71
    -8
 72
     6
 73
    -5
  0
VERTEX
  5
C23
  8
RÁM
 10
0.0
 20
0.0
 30
0.0
 70
   128
 71
     5
 72
    -4
 73
    -1
  0
VERTEX
  5
C24
  8
RÁM
 10
0.0
 20
0.0
 30
0.0
 70
   128
 71
    -5
 72
     1
 73
    -8
  0
VERTEX
  5
C25
  8
RÁM
 10
0.0
 20
0.0
 30
0.0
 70
   128
 71
     4
 72
     3
 73
    -2
  0
VERTEX
  5
C26
  8
RÁM
 10
0.0
 20
0.0
 30
0.0
 70
   128
 71
    -4
 72
     2
 73
    -1
  0
SEQEND
  5
12E5
  8
RÁM
  0
POLYLINE
  5
C27
  8
RÁM
 66
     1
 10
0.0
 20
0.0
 30
0.0
 70
    64
 71
     4
 72
     2
  0
VERTEX
  5
C28
  8
RÁM
 10
493.7949999999999
 20
2001.0
 30
-7.749999999999999
 70
   192
  0
VERTEX
  5
C29
  8
RÁM
 10
453.7950000000001
 20
2001.0
 30
-7.749999999999999
 70
   192
  0
VERTEX
  5
C2A
  8
RÁM
 10
453.7950000000001
 20
1996.0
 30
-7.749999999999999
 70
   192
  0
VERTEX
  5
C2B
  8
RÁM
 10
493.795
 20
1996.0
 30
-7.749999999999999
 70
   192
  0
VERTEX
  5
C2C
  8
RÁM
 10
0.0
 20
0.0
 30
0.0
 70
   128
 71
     1
 72
     4
 73
    -3
  0
VERTEX
  5
C2D
  8
RÁM
 10
0.0
 20
0.0
 30
0.0
 70
   128
 71
    -1
 72
     3
 73
     2
  0
SEQEND
  5
12E6
  8
RÁM
  0
POLYLINE
  5
C2E
  8
RÁM
 66
     1
 10
0.0
 20
0.0
 30
0.0
 70
    64
 71
     8
 72
     6
  0
VERTEX
  5
C2F
  8
RÁM
 10
453.7950000000001
 20
1996.0
 30
-6.750000000000007
 70
   192
  0
VERTEX
  5
C30
  8
RÁM
 10
453.7950000000001
 20
2000.0
 30
-6.750000000000007
 70
   192
  0
VERTEX
  5
C31
  8
RÁM
 10
453.7950000000001
 20
2000.0
 30
6.749999999999996
 70
   192
  0
VERTEX
  5
C32
  8
RÁM
 10
453.7950000000001
 20
1996.0
 30
6.749999999999996
 70
   192
  0
VERTEX
  5
C33
  8
RÁM
 10
453.7950000000001
 20
1996.0
 30
7.750000000000001
 70
   192
  0
VERTEX
  5
C34
  8
RÁM
 10
453.7950000000001
 20
2001.0
 30
7.750000000000001
 70
   192
  0
VERTEX
  5
C35
  8
RÁM
 10
453.7950000000001
 20
2001.0
 30
-7.749999999999999
 70
   192
  0
VERTEX
  5
C36
  8
RÁM
 10
453.7950000000001
 20
1996.0
 30
-7.749999999999999
 70
   192
  0
VERTEX
  5
C37
  8
RÁM
 10
0.0
 20
0.0
 30
0.0
 70
   128
 71
     8
 72
     1
 73
    -2
  0
VERTEX
  5
C38
  8
RÁM
 10
0.0
 20
0.0
 30
0.0
 70
   128
 71
     7
 72
    -8
 73
    -2
  0
VERTEX
  5
C39
  8
RÁM
 10
0.0
 20
0.0
 30
0.0
 70
   128
 71
    -3
 72
     6
 73
    -7
  0
VERTEX
  5
C3A
  8
RÁM
 10
0.0
 20
0.0
 30
0.0
 70
   128
 71
     2
 72
    -3
 73
    -7
  0
VERTEX
  5
C3B
  8
RÁM
 10
0.0
 20
0.0
 30
0.0
 70
   128
 71
     4
 72
     5
 73
    -6
  0
VERTEX
  5
C3C
  8
RÁM
 10
0.0
 20
0.0
 30
0.0
 70
   128
 71
     3
 72
    -4
 73
    -6
  0
SEQEND
  5
12E7
  8
RÁM
  0
POLYLINE
  5
C3D
  8
RÁM
 66
     1
 10
0.0
 20
0.0
 30
0.0
 70
    64
 71
     4
 72
     2
  0
VERTEX
  5
C3E
  8
RÁM
 10
453.7950000000001
 20
2001.0
 30
7.750000000000001
 70
   192
  0
VERTEX
  5
C3F
  8
RÁM
 10
453.7950000000001
 20
1996.0
 30
7.750000000000001
 70
   192
  0
VERTEX
  5
C40
  8
RÁM
 10
493.7949999999999
 20
1996.0
 30
7.749999999999999
 70
   192
  0
VERTEX
  5
C41
  8
RÁM
 10
493.795
 20
2001.0
 30
7.749999999999999
 70
   192
  0
VERTEX
  5
C42
  8
RÁM
 10
0.0
 20
0.0
 30
0.0
 70
   128
 71
     3
 72
     4
 73
    -1
  0
VERTEX
  5
C43
  8
RÁM
 10
0.0
 20
0.0
 30
0.0
 70
   128
 71
     2
 72
    -3
 73
     1
  0
SEQEND
  5
12E8
  8
RÁM
  0
POLYLINE
  5
C44
  8
RÁM
 66
     1
 10
0.0
 20
0.0
 30
0.0
 70
    64
 71
     4
 72
     2
  0
VERTEX
  5
C45
  8
RÁM
 10
493.795
 20
2001.0
 30
7.749999999999999
 70
   192
  0
VERTEX
  5
C46
  8
RÁM
 10
493.795
 20
2001.0
 30
-7.749999999999999
 70
   192
  0
VERTEX
  5
C47
  8
RÁM
 10
453.7950000000001
 20
2001.0
 30
-7.749999999999999
 70
   192
  0
VERTEX
  5
C48
  8
RÁM
 10
453.7950000000001
 20
2001.0
 30
7.750000000000001
 70
   192
  0
VERTEX
  5
C49
  8
RÁM
 10
0.0
 20
0.0
 30
0.0
 70
   128
 71
     3
 72
     4
 73
    -1
  0
VERTEX
  5
C4A
  8
RÁM
 10
0.0
 20
0.0
 30
0.0
 70
   128
 71
     2
 72
    -3
 73
     1
  0
SEQEND
  5
12E9
  8
RÁM
  0
POLYLINE
  5
C4B
  8
RÁM
 66
     1
 10
0.0
 20
0.0
 30
0.0
 70
    64
 71
     4
 72
     2
  0
VERTEX
  5
C4C
  8
RÁM
 10
453.7950000000001
 20
1996.0
 30
7.750000000000001
 70
   192
  0
VERTEX
  5
C4D
  8
RÁM
 10
493.795
 20
1996.0
 30
7.749999999999999
 70
   192
  0
VERTEX
  5
C4E
  8
RÁM
 10
493.795
 20
1996.0
 30
6.749999999999999
 70
   192
  0
VERTEX
  5
C4F
  8
RÁM
 10
453.7950000000001
 20
1996.0
 30
6.749999999999996
 70
   192
  0
VERTEX
  5
C50
  8
RÁM
 10
0.0
 20
0.0
 30
0.0
 70
   128
 71
     1
 72
     4
 73
    -3
  0
VERTEX
  5
C51
  8
RÁM
 10
0.0
 20
0.0
 30
0.0
 70
   128
 71
    -1
 72
     3
 73
     2
  0
SEQEND
  5
12EA
  8
RÁM
  0
POLYLINE
  5
C52
  8
RÁM
 66
     1
 10
0.0
 20
0.0
 30
0.0
 70
    64
 71
     4
 72
     2
  0
VERTEX
  5
C53
  8
RÁM
 10
453.7950000000001
 20
1996.0
 30
-6.750000000000007
 70
   192
  0
VERTEX
  5
C54
  8
RÁM
 10
453.7950000000001
 20
2000.0
 30
-6.750000000000007
 70
   192
  0
VERTEX
  5
C55
  8
RÁM
 10
493.795
 20
2000.0
 30
-6.749999999999999
 70
   192
  0
VERTEX
  5
C56
  8
RÁM
 10
493.795
 20
1996.0
 30
-6.749999999999999
 70
   192
  0
VERTEX
  5
C57
  8
RÁM
 10
0.0
 20
0.0
 30
0.0
 70
   128
 71
     1
 72
     4
 73
    -3
  0
VERTEX
  5
C58
  8
RÁM
 10
0.0
 20
0.0
 30
0.0
 70
   128
 71
    -1
 72
     3
 73
     2
  0
SEQEND
  5
12EB
  8
RÁM
  0
POLYLINE
  5
C59
  8
RÁM
 66
     1
 10
0.0
 20
0.0
 30
0.0
 70
    64
 71
     4
 72
     2
  0
VERTEX
  5
C5A
  8
RÁM
 10
493.795
 20
1996.0
 30
6.749999999999999
 70
   192
  0
VERTEX
  5
C5B
  8
RÁM
 10
493.795
 20
2000.0
 30
6.749999999999999
 70
   192
  0
VERTEX
  5
C5C
  8
RÁM
 10
453.7950000000001
 20
2000.0
 30
6.749999999999996
 70
   192
  0
VERTEX
  5
C5D
  8
RÁM
 10
453.7950000000001
 20
1996.0
 30
6.749999999999996
 70
   192
  0
VERTEX
  5
C5E
  8
RÁM
 10
0.0
 20
0.0
 30
0.0
 70
   128
 71
     1
 72
     4
 73
    -3
  0
VERTEX
  5
C5F
  8
RÁM
 10
0.0
 20
0.0
 30
0.0
 70
   128
 71
    -1
 72
     3
 73
     2
  0
SEQEND
  5
12EC
  8
RÁM
  0
POLYLINE
  5
C60
  8
RÁM
 66
     1
 10
0.0
 20
0.0
 30
0.0
 70
    64
 71
     4
 72
     2
  0
VERTEX
  5
C61
  8
RÁM
 10
493.795
 20
2000.0
 30
-6.749999999999999
 70
   192
  0
VERTEX
  5
C62
  8
RÁM
 10
493.795
 20
2000.0
 30
6.749999999999999
 70
   192
  0
VERTEX
  5
C63
  8
RÁM
 10
453.7950000000001
 20
2000.0
 30
6.749999999999996
 70
   192
  0
VERTEX
  5
C64
  8
RÁM
 10
453.7950000000001
 20
2000.0
 30
-6.750000000000007
 70
   192
  0
VERTEX
  5
C65
  8
RÁM
 10
0.0
 20
0.0
 30
0.0
 70
   128
 71
     3
 72
     4
 73
    -1
  0
VERTEX
  5
C66
  8
RÁM
 10
0.0
 20
0.0
 30
0.0
 70
   128
 71
     2
 72
    -3
 73
     1
  0
SEQEND
  5
12ED
  8
RÁM
  0
ENDBLK
  5
12E3
  8
0
  0
BLOCK
  8
0
  2
*X4
 70
     1
 10
0.0
 20
0.0
 30
0.0
  3
*X4
  1

  0
POLYLINE
  5
C68
  8
RÁM
 66
     1
 10
0.0
 20
0.0
 30
0.0
 70
    64
 71
     8
 72
     6
  0
VERTEX
  5
C69
  8
RÁM
 10
-489.7550000000001
 20
0.0
 30
4.648076211353318
 70
   192
  0
VERTEX
  5
C6A
  8
RÁM
 10
-489.7550000000001
 20
2000.0
 30
4.648076211353318
 70
   192
  0
VERTEX
  5
C6B
  8
RÁM
 10
-490.8530762113534
 20
2000.0
 30
3.550000000000002
 70
   192
  0
VERTEX
  5
C6C
  8
RÁM
 10
-490.8530762113534
 20
0.0
 30
3.550000000000002
 70
   192
  0
VERTEX
  5
C6D
  8
RÁM
 10
-488.2550000000001
 20
0.0
 30
5.050000000000002
 70
   192
  0
VERTEX
  5
C6E
  8
RÁM
 10
-488.2550000000001
 20
2000.0
 30
5.050000000000001
 70
   192
  0
VERTEX
  5
C6F
  8
RÁM
 10
-491.2550000000001
 20
2000.0
 30
2.050000000000002
 70
   192
  0
VERTEX
  5
C70
  8
RÁM
 10
-491.2550000000001
 20
0.0
 30
2.050000000000002
 70
   192
  0
VERTEX
  5
C71
  8
RÁM
 10
0.0
 20
0.0
 30
0.0
 70
   128
 71
     1
 72
     2
 73
    -3
  0
VERTEX
  5
C72
  8
RÁM
 10
0.0
 20
0.0
 30
0.0
 70
   128
 71
    -1
 72
     3
 73
     4
  0
VERTEX
  5
C73
  8
RÁM
 10
0.0
 20
0.0
 30
0.0
 70
   128
 71
     5
 72
     6
 73
    -2
  0
VERTEX
  5
C74
  8
RÁM
 10
0.0
 20
0.0
 30
0.0
 70
   128
 71
    -5
 72
     2
 73
     1
  0
VERTEX
  5
C75
  8
RÁM
 10
0.0
 20
0.0
 30
0.0
 70
   128
 71
     4
 72
     3
 73
    -7
  0
VERTEX
  5
C76
  8
RÁM
 10
0.0
 20
0.0
 30
0.0
 70
   128
 71
    -4
 72
     7
 73
     8
  0
SEQEND
  5
12F0
  8
RÁM
  0
POLYLINE
  5
C77
  8
RÁM
 66
     1
 10
0.0
 20
0.0
 30
0.0
 70
    64
 71
     4
 72
     2
  0
VERTEX
  5
C78
  8
RÁM
 10
-488.2550000000001
 20
2000.0
 30
5.050000000000001
 70
   192
  0
VERTEX
  5
C79
  8
RÁM
 10
-488.2550000000001
 20
0.0
 30
5.050000000000001
 70
   192
  0
VERTEX
  5
C7A
  8
RÁM
 10
-463.7950000000001
 20
0.0
 30
5.050000000000001
 70
   192
  0
VERTEX
  5
C7B
  8
RÁM
 10
-463.7950000000001
 20
2000.0
 30
5.050000000000002
 70
   192
  0
VERTEX
  5
C7C
  8
RÁM
 10
0.0
 20
0.0
 30
0.0
 70
   128
 71
     3
 72
     4
 73
    -1
  0
VERTEX
  5
C7D
  8
RÁM
 10
0.0
 20
0.0
 30
0.0
 70
   128
 71
     2
 72
    -3
 73
     1
  0
SEQEND
  5
12F1
  8
RÁM
  0
POLYLINE
  5
C7E
  8
RÁM
 66
     1
 10
0.0
 20
0.0
 30
0.0
 70
    64
 71
     4
 72
     2
  0
VERTEX
  5
C7F
  8
RÁM
 10
-463.7950000000001
 20
2000.0
 30
3.15
 70
   192
  0
VERTEX
  5
C80
  8
RÁM
 10
-464.9950000000001
 20
2000.0
 30
3.150000000000001
 70
   192
  0
VERTEX
  5
C81
  8
RÁM
 10
-464.9950000000001
 20
18.00000000000001
 30
3.150000000000001
 70
   192
  0
VERTEX
  5
C82
  8
RÁM
 10
-463.7950000000001
 20
18.0
 30
3.15
 70
   192
  0
VERTEX
  5
C83
  8
RÁM
 10
0.0
 20
0.0
 30
0.0
 70
   128
 71
     1
 72
     4
 73
    -3
  0
VERTEX
  5
C84
  8
RÁM
 10
0.0
 20
0.0
 30
0.0
 70
   128
 71
    -1
 72
     3
 73
     2
  0
SEQEND
  5
12F2
  8
RÁM
  0
POLYLINE
  5
C85
  8
RÁM
 66
     1
 10
0.0
 20
0.0
 30
0.0
 70
    64
 71
     4
 72
     2
  0
VERTEX
  5
C86
  8
RÁM
 10
-464.9950000000001
 20
18.00000000000001
 30
3.150000000000001
 70
   192
  0
VERTEX
  5
C87
  8
RÁM
 10
-464.9950000000001
 20
18.00000000000001
 30
3.750000000000002
 70
   192
  0
VERTEX
  5
C88
  8
RÁM
 10
-464.9950000000001
 20
2000.0
 30
3.750000000000002
 70
   192
  0
VERTEX
  5
C89
  8
RÁM
 10
-464.9950000000001
 20
2000.0
 30
3.150000000000001
 70
   192
  0
VERTEX
  5
C8A
  8
RÁM
 10
0.0
 20
0.0
 30
0.0
 70
   128
 71
     3
 72
     4
 73
    -1
  0
VERTEX
  5
C8B
  8
RÁM
 10
0.0
 20
0.0
 30
0.0
 70
   128
 71
     2
 72
    -3
 73
     1
  0
SEQEND
  5
12F3
  8
RÁM
  0
POLYLINE
  5
C8C
  8
RÁM
 66
     1
 10
0.0
 20
0.0
 30
0.0
 70
    64
 71
     4
 72
     2
  0
VERTEX
  5
C8D
  8
RÁM
 10
-464.9950000000001
 20
2000.0
 30
3.750000000000001
 70
   192
  0
VERTEX
  5
C8E
  8
RÁM
 10
-468.7950000000001
 20
2000.0
 30
3.750000000000002
 70
   192
  0
VERTEX
  5
C8F
  8
RÁM
 10
-468.7950000000001
 20
18.00000000000001
 30
3.750000000000002
 70
   192
  0
VERTEX
  5
C90
  8
RÁM
 10
-464.9950000000001
 20
18.0
 30
3.750000000000002
 70
   192
  0
VERTEX
  5
C91
  8
RÁM
 10
0.0
 20
0.0
 30
0.0
 70
   128
 71
     1
 72
     4
 73
    -3
  0
VERTEX
  5
C92
  8
RÁM
 10
0.0
 20
0.0
 30
0.0
 70
   128
 71
    -1
 72
     3
 73
     2
  0
SEQEND
  5
12F4
  8
RÁM
  0
POLYLINE
  5
C93
  8
RÁM
 66
     1
 10
0.0
 20
0.0
 30
0.0
 70
    64
 71
     4
 72
     2
  0
VERTEX
  5
C94
  8
RÁM
 10
-468.7950000000001
 20
2000.0
 30
3.750000000000003
 70
   192
  0
VERTEX
  5
C95
  8
RÁM
 10
-468.7950000000001
 20
2000.0
 30
3.149999999999999
 70
   192
  0
VERTEX
  5
C96
  8
RÁM
 10
-468.7950000000001
 20
18.00000000000001
 30
3.149999999999999
 70
   192
  0
VERTEX
  5
C97
  8
RÁM
 10
-468.7950000000001
 20
18.0
 30
3.750000000000002
 70
   192
  0
VERTEX
  5
C98
  8
RÁM
 10
0.0
 20
0.0
 30
0.0
 70
   128
 71
     1
 72
     4
 73
    -3
  0
VERTEX
  5
C99
  8
RÁM
 10
0.0
 20
0.0
 30
0.0
 70
   128
 71
    -1
 72
     3
 73
     2
  0
SEQEND
  5
12F5
  8
RÁM
  0
POLYLINE
  5
C9A
  8
RÁM
 66
     1
 10
0.0
 20
0.0
 30
0.0
 70
    64
 71
     4
 72
     2
  0
VERTEX
  5
C9B
  8
RÁM
 10
-468.7950000000001
 20
2000.0
 30
3.149999999999999
 70
   192
  0
VERTEX
  5
C9C
  8
RÁM
 10
-469.9950000000001
 20
2000.0
 30
3.149999999999999
 70
   192
  0
VERTEX
  5
C9D
  8
RÁM
 10
-469.9950000000001
 20
18.00000000000001
 30
3.149999999999999
 70
   192
  0
VERTEX
  5
C9E
  8
RÁM
 10
-468.7950000000001
 20
18.0
 30
3.149999999999999
 70
   192
  0
VERTEX
  5
C9F
  8
RÁM
 10
0.0
 20
0.0
 30
0.0
 70
   128
 71
     1
 72
     4
 73
    -3
  0
VERTEX
  5
CA0
  8
RÁM
 10
0.0
 20
0.0
 30
0.0
 70
   128
 71
    -1
 72
     3
 73
     2
  0
SEQEND
  5
12F6
  8
RÁM
  0
POLYLINE
  5
CA1
  8
RÁM
 66
     1
 10
0.0
 20
0.0
 30
0.0
 70
    64
 71
     4
 72
     2
  0
VERTEX
  5
CA2
  8
RÁM
 10
-469.9950000000001
 20
18.00000000000001
 30
3.149999999999999
 70
   192
  0
VERTEX
  5
CA3
  8
RÁM
 10
-469.9950000000001
 20
18.00000000000001
 30
3.750000000000003
 70
   192
  0
VERTEX
  5
CA4
  8
RÁM
 10
-469.9950000000001
 20
2000.0
 30
3.750000000000002
 70
   192
  0
VERTEX
  5
CA5
  8
RÁM
 10
-469.9950000000001
 20
2000.0
 30
3.149999999999999
 70
   192
  0
VERTEX
  5
CA6
  8
RÁM
 10
0.0
 20
0.0
 30
0.0
 70
   128
 71
     3
 72
     4
 73
    -1
  0
VERTEX
  5
CA7
  8
RÁM
 10
0.0
 20
0.0
 30
0.0
 70
   128
 71
     2
 72
    -3
 73
     1
  0
SEQEND
  5
12F7
  8
RÁM
  0
POLYLINE
  5
CA8
  8
RÁM
 66
     1
 10
0.0
 20
0.0
 30
0.0
 70
    64
 71
     4
 72
     2
  0
VERTEX
  5
CA9
  8
RÁM
 10
-469.9950000000001
 20
2000.0
 30
3.750000000000002
 70
   192
  0
VERTEX
  5
CAA
  8
RÁM
 10
-473.7950000000001
 20
2000.0
 30
3.750000000000003
 70
   192
  0
VERTEX
  5
CAB
  8
RÁM
 10
-473.7950000000001
 20
18.00000000000001
 30
3.750000000000002
 70
   192
  0
VERTEX
  5
CAC
  8
RÁM
 10
-469.9950000000001
 20
18.0
 30
3.750000000000002
 70
   192
  0
VERTEX
  5
CAD
  8
RÁM
 10
0.0
 20
0.0
 30
0.0
 70
   128
 71
     1
 72
     4
 73
    -3
  0
VERTEX
  5
CAE
  8
RÁM
 10
0.0
 20
0.0
 30
0.0
 70
   128
 71
    -1
 72
     3
 73
     2
  0
SEQEND
  5
12F8
  8
RÁM
  0
POLYLINE
  5
CAF
  8
RÁM
 66
     1
 10
0.0
 20
0.0
 30
0.0
 70
    64
 71
     4
 72
     2
  0
VERTEX
  5
CB0
  8
RÁM
 10
-473.7950000000001
 20
18.00000000000001
 30
3.750000000000003
 70
   192
  0
VERTEX
  5
CB1
  8
RÁM
 10
-473.7950000000001
 20
18.00000000000001
 30
-3.750000000000003
 70
   192
  0
VERTEX
  5
CB2
  8
RÁM
 10
-473.7950000000001
 20
2000.0
 30
-3.750000000000003
 70
   192
  0
VERTEX
  5
CB3
  8
RÁM
 10
-473.7950000000001
 20
2000.0
 30
3.750000000000003
 70
   192
  0
VERTEX
  5
CB4
  8
RÁM
 10
0.0
 20
0.0
 30
0.0
 70
   128
 71
     3
 72
     4
 73
    -1
  0
VERTEX
  5
CB5
  8
RÁM
 10
0.0
 20
0.0
 30
0.0
 70
   128
 71
     2
 72
    -3
 73
     1
  0
SEQEND
  5
12F9
  8
RÁM
  0
POLYLINE
  5
CB6
  8
RÁM
 66
     1
 10
0.0
 20
0.0
 30
0.0
 70
    64
 71
     4
 72
     2
  0
VERTEX
  5
CB7
  8
RÁM
 10
-473.7950000000001
 20
18.00000000000001
 30
-3.750000000000002
 70
   192
  0
VERTEX
  5
CB8
  8
RÁM
 10
-469.9950000000001
 20
18.00000000000001
 30
-3.750000000000002
 70
   192
  0
VERTEX
  5
CB9
  8
RÁM
 10
-469.9950000000001
 20
2000.0
 30
-3.750000000000002
 70
   192
  0
VERTEX
  5
CBA
  8
RÁM
 10
-473.7950000000001
 20
2000.0
 30
-3.750000000000002
 70
   192
  0
VERTEX
  5
CBB
  8
RÁM
 10
0.0
 20
0.0
 30
0.0
 70
   128
 71
     3
 72
     4
 73
    -1
  0
VERTEX
  5
CBC
  8
RÁM
 10
0.0
 20
0.0
 30
0.0
 70
   128
 71
     2
 72
    -3
 73
     1
  0
SEQEND
  5
12FA
  8
RÁM
  0
POLYLINE
  5
CBD
  8
RÁM
 66
     1
 10
0.0
 20
0.0
 30
0.0
 70
    64
 71
     4
 72
     2
  0
VERTEX
  5
CBE
  8
RÁM
 10
-469.9950000000001
 20
2000.0
 30
-3.750000000000003
 70
   192
  0
VERTEX
  5
CBF
  8
RÁM
 10
-469.9950000000001
 20
2000.0
 30
-3.149999999999999
 70
   192
  0
VERTEX
  5
CC0
  8
RÁM
 10
-469.9950000000001
 20
18.00000000000001
 30
-3.149999999999999
 70
   192
  0
VERTEX
  5
CC1
  8
RÁM
 10
-469.9950000000001
 20
18.0
 30
-3.750000000000002
 70
   192
  0
VERTEX
  5
CC2
  8
RÁM
 10
0.0
 20
0.0
 30
0.0
 70
   128
 71
     1
 72
     4
 73
    -3
  0
VERTEX
  5
CC3
  8
RÁM
 10
0.0
 20
0.0
 30
0.0
 70
   128
 71
    -1
 72
     3
 73
     2
  0
SEQEND
  5
12FB
  8
RÁM
  0
POLYLINE
  5
CC4
  8
RÁM
 66
     1
 10
0.0
 20
0.0
 30
0.0
 70
    64
 71
     4
 72
     2
  0
VERTEX
  5
CC5
  8
RÁM
 10
-469.9950000000001
 20
2000.0
 30
-3.149999999999999
 70
   192
  0
VERTEX
  5
CC6
  8
RÁM
 10
-468.7950000000001
 20
2000.0
 30
-3.149999999999999
 70
   192
  0
VERTEX
  5
CC7
  8
RÁM
 10
-468.7950000000001
 20
18.00000000000001
 30
-3.149999999999999
 70
   192
  0
VERTEX
  5
CC8
  8
RÁM
 10
-469.9950000000001
 20
18.0
 30
-3.149999999999999
 70
   192
  0
VERTEX
  5
CC9
  8
RÁM
 10
0.0
 20
0.0
 30
0.0
 70
   128
 71
     1
 72
     4
 73
    -3
  0
VERTEX
  5
CCA
  8
RÁM
 10
0.0
 20
0.0
 30
0.0
 70
   128
 71
    -1
 72
     3
 73
     2
  0
SEQEND
  5
12FC
  8
RÁM
  0
POLYLINE
  5
CCB
  8
RÁM
 66
     1
 10
0.0
 20
0.0
 30
0.0
 70
    64
 71
     4
 72
     2
  0
VERTEX
  5
CCC
  8
RÁM
 10
-468.7950000000001
 20
18.00000000000001
 30
-3.149999999999999
 70
   192
  0
VERTEX
  5
CCD
  8
RÁM
 10
-468.7950000000001
 20
18.00000000000001
 30
-3.750000000000003
 70
   192
  0
VERTEX
  5
CCE
  8
RÁM
 10
-468.7950000000001
 20
2000.0
 30
-3.750000000000002
 70
   192
  0
VERTEX
  5
CCF
  8
RÁM
 10
-468.7950000000001
 20
2000.0
 30
-3.149999999999999
 70
   192
  0
VERTEX
  5
CD0
  8
RÁM
 10
0.0
 20
0.0
 30
0.0
 70
   128
 71
     3
 72
     4
 73
    -1
  0
VERTEX
  5
CD1
  8
RÁM
 10
0.0
 20
0.0
 30
0.0
 70
   128
 71
     2
 72
    -3
 73
     1
  0
SEQEND
  5
12FD
  8
RÁM
  0
POLYLINE
  5
CD2
  8
RÁM
 66
     1
 10
0.0
 20
0.0
 30
0.0
 70
    64
 71
     4
 72
     2
  0
VERTEX
  5
CD3
  8
RÁM
 10
-468.7950000000001
 20
18.00000000000001
 30
-3.750000000000002
 70
   192
  0
VERTEX
  5
CD4
  8
RÁM
 10
-464.9950000000001
 20
18.00000000000001
 30
-3.750000000000001
 70
   192
  0
VERTEX
  5
CD5
  8
RÁM
 10
-464.9950000000001
 20
2000.0
 30
-3.750000000000002
 70
   192
  0
VERTEX
  5
CD6
  8
RÁM
 10
-468.7950000000001
 20
2000.0
 30
-3.750000000000002
 70
   192
  0
VERTEX
  5
CD7
  8
RÁM
 10
0.0
 20
0.0
 30
0.0
 70
   128
 71
     3
 72
     4
 73
    -1
  0
VERTEX
  5
CD8
  8
RÁM
 10
0.0
 20
0.0
 30
0.0
 70
   128
 71
     2
 72
    -3
 73
     1
  0
SEQEND
  5
12FE
  8
RÁM
  0
POLYLINE
  5
CD9
  8
RÁM
 66
     1
 10
0.0
 20
0.0
 30
0.0
 70
    64
 71
     4
 72
     2
  0
VERTEX
  5
CDA
  8
RÁM
 10
-464.9950000000001
 20
2000.0
 30
-3.750000000000002
 70
   192
  0
VERTEX
  5
CDB
  8
RÁM
 10
-464.9950000000001
 20
2000.0
 30
-3.150000000000001
 70
   192
  0
VERTEX
  5
CDC
  8
RÁM
 10
-464.9950000000001
 20
18.00000000000001
 30
-3.150000000000001
 70
   192
  0
VERTEX
  5
CDD
  8
RÁM
 10
-464.9950000000001
 20
18.0
 30
-3.750000000000002
 70
   192
  0
VERTEX
  5
CDE
  8
RÁM
 10
0.0
 20
0.0
 30
0.0
 70
   128
 71
     1
 72
     4
 73
    -3
  0
VERTEX
  5
CDF
  8
RÁM
 10
0.0
 20
0.0
 30
0.0
 70
   128
 71
    -1
 72
     3
 73
     2
  0
SEQEND
  5
12FF
  8
RÁM
  0
POLYLINE
  5
CE0
  8
RÁM
 66
     1
 10
0.0
 20
0.0
 30
0.0
 70
    64
 71
     4
 72
     2
  0
VERTEX
  5
CE1
  8
RÁM
 10
-464.9950000000001
 20
18.00000000000001
 30
-3.150000000000001
 70
   192
  0
VERTEX
  5
CE2
  8
RÁM
 10
-463.7950000000001
 20
18.00000000000001
 30
-3.15
 70
   192
  0
VERTEX
  5
CE3
  8
RÁM
 10
-463.7950000000001
 20
2000.0
 30
-3.15
 70
   192
  0
VERTEX
  5
CE4
  8
RÁM
 10
-464.9950000000001
 20
2000.0
 30
-3.150000000000001
 70
   192
  0
VERTEX
  5
CE5
  8
RÁM
 10
0.0
 20
0.0
 30
0.0
 70
   128
 71
     3
 72
     4
 73
    -1
  0
VERTEX
  5
CE6
  8
RÁM
 10
0.0
 20
0.0
 30
0.0
 70
   128
 71
     2
 72
    -3
 73
     1
  0
SEQEND
  5
1300
  8
RÁM
  0
POLYLINE
  5
CE7
  8
RÁM
 66
     1
 10
0.0
 20
0.0
 30
0.0
 70
    64
 71
     8
 72
     6
  0
VERTEX
  5
CE8
  8
RÁM
 10
-463.7950000000001
 20
2000.0
 30
-3.15
 70
   192
  0
VERTEX
  5
CE9
  8
RÁM
 10
-463.7950000000001
 20
2000.0
 30
-5.050000000000002
 70
   192
  0
VERTEX
  5
CEA
  8
RÁM
 10
-463.7950000000001
 20
0.0
 30
-5.050000000000002
 70
   192
  0
VERTEX
  5
CEB
  8
RÁM
 10
-463.7950000000001
 20
0.0
 30
5.050000000000002
 70
   192
  0
VERTEX
  5
CEC
  8
RÁM
 10
-463.7950000000001
 20
2000.0
 30
5.050000000000002
 70
   192
  0
VERTEX
  5
CED
  8
RÁM
 10
-463.7950000000001
 20
2000.0
 30
3.15
 70
   192
  0
VERTEX
  5
CEE
  8
RÁM
 10
-463.7950000000001
 20
18.0
 30
3.150000000000001
 70
   192
  0
VERTEX
  5
CEF
  8
RÁM
 10
-463.7950000000001
 20
18.0
 30
-3.15
 70
   192
  0
VERTEX
  5
CF0
  8
RÁM
 10
0.0
 20
0.0
 30
0.0
 70
   128
 71
     7
 72
     6
 73
    -5
  0
VERTEX
  5
CF1
  8
RÁM
 10
0.0
 20
0.0
 30
0.0
 70
   128
 71
    -7
 72
     5
 73
    -4
  0
VERTEX
  5
CF2
  8
RÁM
 10
0.0
 20
0.0
 30
0.0
 70
   128
 71
     4
 72
    -3
 73
    -8
  0
VERTEX
  5
CF3
  8
RÁM
 10
0.0
 20
0.0
 30
0.0
 70
   128
 71
    -4
 72
     8
 73
    -7
  0
VERTEX
  5
CF4
  8
RÁM
 10
0.0
 20
0.0
 30
0.0
 70
   128
 71
     3
 72
     2
 73
    -1
  0
VERTEX
  5
CF5
  8
RÁM
 10
0.0
 20
0.0
 30
0.0
 70
   128
 71
    -3
 72
     1
 73
    -8
  0
SEQEND
  5
1301
  8
RÁM
  0
POLYLINE
  5
CF6
  8
RÁM
 66
     1
 10
0.0
 20
0.0
 30
0.0
 70
    64
 71
     4
 72
     2
  0
VERTEX
  5
CF7
  8
RÁM
 10
-463.7950000000001
 20
2000.0
 30
-5.050000000000002
 70
   192
  0
VERTEX
  5
CF8
  8
RÁM
 10
-472.7550000000001
 20
2000.0
 30
-5.050000000000002
 70
   192
  0
VERTEX
  5
CF9
  8
RÁM
 10
-472.7550000000001
 20
0.0
 30
-5.050000000000002
 70
   192
  0
VERTEX
  5
CFA
  8
RÁM
 10
-463.7950000000001
 20
0.0
 30
-5.050000000000002
 70
   192
  0
VERTEX
  5
CFB
  8
RÁM
 10
0.0
 20
0.0
 30
0.0
 70
   128
 71
     1
 72
     4
 73
    -3
  0
VERTEX
  5
CFC
  8
RÁM
 10
0.0
 20
0.0
 30
0.0
 70
   128
 71
    -1
 72
     3
 73
     2
  0
SEQEND
  5
1302
  8
RÁM
  0
POLYLINE
  5
CFD
  8
RÁM
 66
     1
 10
0.0
 20
0.0
 30
0.0
 70
    64
 71
     4
 72
     2
  0
VERTEX
  5
CFE
  8
RÁM
 10
-472.7550000000001
 20
0.0
 30
-5.050000000000002
 70
   192
  0
VERTEX
  5
CFF
  8
RÁM
 10
-472.7550000000001
 20
2000.0
 30
-5.050000000000002
 70
   192
  0
VERTEX
  5
D00
  8
RÁM
 10
-472.7550000000001
 20
2000.0
 30
-5.849999999999999
 70
   192
  0
VERTEX
  5
D01
  8
RÁM
 10
-472.7550000000001
 20
0.0
 30
-5.85
 70
   192
  0
VERTEX
  5
D02
  8
RÁM
 10
0.0
 20
0.0
 30
0.0
 70
   128
 71
     1
 72
     4
 73
    -3
  0
VERTEX
  5
D03
  8
RÁM
 10
0.0
 20
0.0
 30
0.0
 70
   128
 71
    -1
 72
     3
 73
     2
  0
SEQEND
  5
1303
  8
RÁM
  0
POLYLINE
  5
D04
  8
RÁM
 66
     1
 10
0.0
 20
0.0
 30
0.0
 70
    64
 71
     4
 72
     2
  0
VERTEX
  5
D05
  8
RÁM
 10
-472.7550000000001
 20
0.0
 30
-5.849999999999999
 70
   192
  0
VERTEX
  5
D06
  8
RÁM
 10
-480.4550000000003
 20
0.0
 30
-5.849999999999999
 70
   192
  0
VERTEX
  5
D07
  8
RÁM
 10
-480.4550000000002
 20
2000.0
 30
-5.849999999999966
 70
   192
  0
VERTEX
  5
D08
  8
RÁM
 10
-472.7550000000001
 20
2000.0
 30
-5.849999999999999
 70
   192
  0
VERTEX
  5
D09
  8
RÁM
 10
0.0
 20
0.0
 30
0.0
 70
   128
 71
     3
 72
     4
 73
    -1
  0
VERTEX
  5
D0A
  8
RÁM
 10
0.0
 20
0.0
 30
0.0
 70
   128
 71
     2
 72
    -3
 73
     1
  0
SEQEND
  5
1304
  8
RÁM
  0
POLYLINE
  5
D0B
  8
RÁM
 66
     1
 10
0.0
 20
0.0
 30
0.0
 70
    64
 71
     4
 72
     2
  0
VERTEX
  5
D0C
  8
RÁM
 10
-480.4550000000002
 20
0.0
 30
-5.849999999999966
 70
   192
  0
VERTEX
  5
D0D
  8
RÁM
 10
-480.7550000000001
 20
0.0
 30
-5.549999999999983
 70
   192
  0
VERTEX
  5
D0E
  8
RÁM
 10
-480.7550000000002
 20
2000.0
 30
-5.549999999999999
 70
   192
  0
VERTEX
  5
D0F
  8
RÁM
 10
-480.4550000000002
 20
2000.0
 30
-5.849999999999966
 70
   192
  0
VERTEX
  5
D10
  8
RÁM
 10
0.0
 20
0.0
 30
0.0
 70
   128
 71
     3
 72
     4
 73
    -1
  0
VERTEX
  5
D11
  8
RÁM
 10
0.0
 20
0.0
 30
0.0
 70
   128
 71
     2
 72
    -3
 73
     1
  0
SEQEND
  5
1305
  8
RÁM
  0
POLYLINE
  5
D12
  8
RÁM
 66
     1
 10
0.0
 20
0.0
 30
0.0
 70
    64
 71
     4
 72
     2
  0
VERTEX
  5
D13
  8
RÁM
 10
-480.7550000000002
 20
0.0
 30
-5.549999999999983
 70
   192
  0
VERTEX
  5
D14
  8
RÁM
 10
-481.0550000000001
 20
0.0
 30
-5.849999999999852
 70
   192
  0
VERTEX
  5
D15
  8
RÁM
 10
-481.0550000000001
 20
2000.0
 30
-5.849999999999883
 70
   192
  0
VERTEX
  5
D16
  8
RÁM
 10
-480.7550000000002
 20
2000.0
 30
-5.549999999999983
 70
   192
  0
VERTEX
  5
D17
  8
RÁM
 10
0.0
 20
0.0
 30
0.0
 70
   128
 71
     3
 72
     4
 73
    -1
  0
VERTEX
  5
D18
  8
RÁM
 10
0.0
 20
0.0
 30
0.0
 70
   128
 71
     2
 72
    -3
 73
     1
  0
SEQEND
  5
1306
  8
RÁM
  0
POLYLINE
  5
D19
  8
RÁM
 66
     1
 10
0.0
 20
0.0
 30
0.0
 70
    64
 71
     4
 72
     2
  0
VERTEX
  5
D1A
  8
RÁM
 10
-481.0550000000001
 20
0.0
 30
-5.849999999999999
 70
   192
  0
VERTEX
  5
D1B
  8
RÁM
 10
-488.7550000000001
 20
0.0
 30
-5.849999999999999
 70
   192
  0
VERTEX
  5
D1C
  8
RÁM
 10
-488.7550000000001
 20
2000.0
 30
-5.849999999999999
 70
   192
  0
VERTEX
  5
D1D
  8
RÁM
 10
-481.0550000000001
 20
2000.0
 30
-5.849999999999999
 70
   192
  0
VERTEX
  5
D1E
  8
RÁM
 10
0.0
 20
0.0
 30
0.0
 70
   128
 71
     3
 72
     4
 73
    -1
  0
VERTEX
  5
D1F
  8
RÁM
 10
0.0
 20
0.0
 30
0.0
 70
   128
 71
     2
 72
    -3
 73
     1
  0
SEQEND
  5
1307
  8
RÁM
  0
POLYLINE
  5
D20
  8
RÁM
 66
     1
 10
0.0
 20
0.0
 30
0.0
 70
    64
 71
     4
 72
     2
  0
VERTEX
  5
D21
  8
RÁM
 10
-488.7550000000001
 20
2000.0
 30
-5.849999999999999
 70
   192
  0
VERTEX
  5
D22
  8
RÁM
 10
-488.7550000000001
 20
0.0
 30
-5.849999999999999
 70
   192
  0
VERTEX
  5
D23
  8
RÁM
 10
-488.7550000000001
 20
0.0
 30
-5.050000000000002
 70
   192
  0
VERTEX
  5
D24
  8
RÁM
 10
-488.7550000000001
 20
2000.0
 30
-5.050000000000002
 70
   192
  0
VERTEX
  5
D25
  8
RÁM
 10
0.0
 20
0.0
 30
0.0
 70
   128
 71
     3
 72
     4
 73
    -1
  0
VERTEX
  5
D26
  8
RÁM
 10
0.0
 20
0.0
 30
0.0
 70
   128
 71
     2
 72
    -3
 73
     1
  0
SEQEND
  5
1308
  8
RÁM
  0
POLYLINE
  5
D27
  8
RÁM
 66
     1
 10
0.0
 20
0.0
 30
0.0
 70
    64
 71
     4
 72
     2
  0
VERTEX
  5
D28
  8
RÁM
 10
-488.7550000000001
 20
2000.0
 30
-5.050000000000002
 70
   192
  0
VERTEX
  5
D29
  8
RÁM
 10
-491.2550000000001
 20
2000.0
 30
-5.05
 70
   192
  0
VERTEX
  5
D2A
  8
RÁM
 10
-491.2550000000001
 20
0.0
 30
-5.05
 70
   192
  0
VERTEX
  5
D2B
  8
RÁM
 10
-488.7550000000001
 20
0.0
 30
-5.050000000000002
 70
   192
  0
VERTEX
  5
D2C
  8
RÁM
 10
0.0
 20
0.0
 30
0.0
 70
   128
 71
     1
 72
     4
 73
    -3
  0
VERTEX
  5
D2D
  8
RÁM
 10
0.0
 20
0.0
 30
0.0
 70
   128
 71
    -1
 72
     3
 73
     2
  0
SEQEND
  5
1309
  8
RÁM
  0
POLYLINE
  5
D2E
  8
RÁM
 66
     1
 10
0.0
 20
0.0
 30
0.0
 70
    64
 71
     4
 72
     2
  0
VERTEX
  5
D2F
  8
RÁM
 10
-491.2550000000001
 20
2000.0
 30
-5.05
 70
   192
  0
VERTEX
  5
D30
  8
RÁM
 10
-491.2550000000001
 20
0.0
 30
-5.05
 70
   192
  0
VERTEX
  5
D31
  8
RÁM
 10
-491.2550000000001
 20
0.0
 30
2.050000000000002
 70
   192
  0
VERTEX
  5
D32
  8
RÁM
 10
-491.2550000000001
 20
2000.0
 30
2.050000000000002
 70
   192
  0
VERTEX
  5
D33
  8
RÁM
 10
0.0
 20
0.0
 30
0.0
 70
   128
 71
     3
 72
     4
 73
    -1
  0
VERTEX
  5
D34
  8
RÁM
 10
0.0
 20
0.0
 30
0.0
 70
   128
 71
     2
 72
    -3
 73
     1
  0
SEQEND
  5
130A
  8
RÁM
  0
POLYLINE
  5
D35
  8
RÁM
 66
     1
 10
0.0
 20
0.0
 30
0.0
 70
    64
 71
    30
 72
    28
  0
VERTEX
  5
D36
  8
RÁM
 10
-491.2550000000001
 20
2000.0
 30
2.050000000000002
 70
   192
  0
VERTEX
  5
D37
  8
RÁM
 10
-490.8530762113534
 20
2000.0
 30
3.550000000000002
 70
   192
  0
VERTEX
  5
D38
  8
RÁM
 10
-489.7550000000001
 20
2000.0
 30
4.648076211353318
 70
   192
  0
VERTEX
  5
D39
  8
RÁM
 10
-488.2550000000001
 20
2000.0
 30
5.050000000000002
 70
   192
  0
VERTEX
  5
D3A
  8
RÁM
 10
-463.7950000000001
 20
2000.0
 30
5.050000000000001
 70
   192
  0
VERTEX
  5
D3B
  8
RÁM
 10
-463.7950000000001
 20
2000.0
 30
3.15
 70
   192
  0
VERTEX
  5
D3C
  8
RÁM
 10
-464.9950000000001
 20
2000.0
 30
3.150000000000001
 70
   192
  0
VERTEX
  5
D3D
  8
RÁM
 10
-464.9950000000001
 20
2000.0
 30
3.750000000000002
 70
   192
  0
VERTEX
  5
D3E
  8
RÁM
 10
-468.7950000000001
 20
2000.0
 30
3.750000000000002
 70
   192
  0
VERTEX
  5
D3F
  8
RÁM
 10
-468.7950000000001
 20
2000.0
 30
3.149999999999999
 70
   192
  0
VERTEX
  5
D40
  8
RÁM
 10
-469.9950000000001
 20
2000.0
 30
3.149999999999999
 70
   192
  0
VERTEX
  5
D41
  8
RÁM
 10
-469.9950000000001
 20
2000.0
 30
3.750000000000003
 70
   192
  0
VERTEX
  5
D42
  8
RÁM
 10
-473.7950000000001
 20
2000.0
 30
3.750000000000002
 70
   192
  0
VERTEX
  5
D43
  8
RÁM
 10
-473.7950000000001
 20
2000.0
 30
-3.750000000000003
 70
   192
  0
VERTEX
  5
D44
  8
RÁM
 10
-469.9950000000001
 20
2000.0
 30
-3.750000000000002
 70
   192
  0
VERTEX
  5
D45
  8
RÁM
 10
-469.9950000000001
 20
2000.0
 30
-3.149999999999999
 70
   192
  0
VERTEX
  5
D46
  8
RÁM
 10
-468.7950000000001
 20
2000.0
 30
-3.149999999999999
 70
   192
  0
VERTEX
  5
D47
  8
RÁM
 10
-468.7950000000001
 20
2000.0
 30
-3.750000000000003
 70
   192
  0
VERTEX
  5
D48
  8
RÁM
 10
-464.9950000000001
 20
2000.0
 30
-3.750000000000001
 70
   192
  0
VERTEX
  5
D49
  8
RÁM
 10
-464.9950000000001
 20
2000.0
 30
-3.150000000000001
 70
   192
  0
VERTEX
  5
D4A
  8
RÁM
 10
-463.7950000000001
 20
2000.0
 30
-3.15
 70
   192
  0
VERTEX
  5
D4B
  8
RÁM
 10
-463.7950000000001
 20
2000.0
 30
-5.050000000000002
 70
   192
  0
VERTEX
  5
D4C
  8
RÁM
 10
-472.7550000000001
 20
2000.0
 30
-5.050000000000002
 70
   192
  0
VERTEX
  5
D4D
  8
RÁM
 10
-472.7550000000001
 20
2000.0
 30
-5.85
 70
   192
  0
VERTEX
  5
D4E
  8
RÁM
 10
-480.4550000000003
 20
2000.0
 30
-5.849999999999999
 70
   192
  0
VERTEX
  5
D4F
  8
RÁM
 10
-480.7550000000001
 20
2000.0
 30
-5.549999999999983
 70
   192
  0
VERTEX
  5
D50
  8
RÁM
 10
-481.0550000000001
 20
2000.0
 30
-5.849999999999852
 70
   192
  0
VERTEX
  5
D51
  8
RÁM
 10
-488.7550000000001
 20
2000.0
 30
-5.849999999999999
 70
   192
  0
VERTEX
  5
D52
  8
RÁM
 10
-488.7550000000001
 20
2000.0
 30
-5.050000000000002
 70
   192
  0
VERTEX
  5
D53
  8
RÁM
 10
-491.2550000000001
 20
2000.0
 30
-5.05
 70
   192
  0
VERTEX
  5
D54
  8
RÁM
 10
0.0
 20
0.0
 30
0.0
 70
   128
 71
   -23
 72
    14
 73
   -15
  0
VERTEX
  5
D55
  8
RÁM
 10
0.0
 20
0.0
 30
0.0
 70
   128
 71
   -15
 72
   -18
 73
   -23
  0
VERTEX
  5
D56
  8
RÁM
 10
0.0
 20
0.0
 30
0.0
 70
   128
 71
    16
 72
    17
 73
   -18
  0
VERTEX
  5
D57
  8
RÁM
 10
0.0
 20
0.0
 30
0.0
 70
   128
 71
    15
 72
   -16
 73
   -18
  0
VERTEX
  5
D58
  8
RÁM
 10
0.0
 20
0.0
 30
0.0
 70
   128
 71
   -19
 72
    22
 73
   -23
  0
VERTEX
  5
D59
  8
RÁM
 10
0.0
 20
0.0
 30
0.0
 70
   128
 71
    18
 72
   -19
 73
   -23
  0
VERTEX
  5
D5A
  8
RÁM
 10
0.0
 20
0.0
 30
0.0
 70
   128
 71
   -19
 72
    21
 73
   -22
  0
VERTEX
  5
D5B
  8
RÁM
 10
0.0
 20
0.0
 30
0.0
 70
   128
 71
    19
 72
    20
 73
   -21
  0
VERTEX
  5
D5C
  8
RÁM
 10
0.0
 20
0.0
 30
0.0
 70
   128
 71
    25
 72
   -26
 73
   -14
  0
VERTEX
  5
D5D
  8
RÁM
 10
0.0
 20
0.0
 30
0.0
 70
   128
 71
    24
 72
   -25
 73
   -14
  0
VERTEX
  5
D5E
  8
RÁM
 10
0.0
 20
0.0
 30
0.0
 70
   128
 71
    23
 72
   -24
 73
   -14
  0
VERTEX
  5
D5F
  8
RÁM
 10
0.0
 20
0.0
 30
0.0
 70
   128
 71
   -29
 72
   -14
 73
   -26
  0
VERTEX
  5
D60
  8
RÁM
 10
0.0
 20
0.0
 30
0.0
 70
   128
 71
    28
 72
   -29
 73
   -26
  0
VERTEX
  5
D61
  8
RÁM
 10
0.0
 20
0.0
 30
0.0
 70
   128
 71
    26
 72
    27
 73
   -28
  0
VERTEX
  5
D62
  8
RÁM
 10
0.0
 20
0.0
 30
0.0
 70
   128
 71
    10
 72
    11
 73
   -12
  0
VERTEX
  5
D63
  8
RÁM
 10
0.0
 20
0.0
 30
0.0
 70
   128
 71
     9
 72
   -10
 73
   -12
  0
VERTEX
  5
D64
  8
RÁM
 10
0.0
 20
0.0
 30
0.0
 70
   128
 71
     6
 72
     7
 73
    -8
  0
VERTEX
  5
D65
  8
RÁM
 10
0.0
 20
0.0
 30
0.0
 70
   128
 71
     5
 72
    -6
 73
    -8
  0
VERTEX
  5
D66
  8
RÁM
 10
0.0
 20
0.0
 30
0.0
 70
   128
 71
     8
 72
    -9
 73
    -5
  0
VERTEX
  5
D67
  8
RÁM
 10
0.0
 20
0.0
 30
0.0
 70
   128
 71
    -5
 72
    -9
 73
   -12
  0
VERTEX
  5
D68
  8
RÁM
 10
0.0
 20
0.0
 30
0.0
 70
   128
 71
    12
 72
   -13
 73
    -5
  0
VERTEX
  5
D69
  8
RÁM
 10
0.0
 20
0.0
 30
0.0
 70
   128
 71
     4
 72
    -5
 73
   -13
  0
VERTEX
  5
D6A
  8
RÁM
 10
0.0
 20
0.0
 30
0.0
 70
   128
 71
   -29
 72
     3
 73
    -4
  0
VERTEX
  5
D6B
  8
RÁM
 10
0.0
 20
0.0
 30
0.0
 70
   128
 71
   -14
 72
   -29
 73
    -4
  0
VERTEX
  5
D6C
  8
RÁM
 10
0.0
 20
0.0
 30
0.0
 70
   128
 71
    13
 72
   -14
 73
    -4
  0
VERTEX
  5
D6D
  8
RÁM
 10
0.0
 20
0.0
 30
0.0
 70
   128
 71
     1
 72
     2
 73
    -3
  0
VERTEX
  5
D6E
  8
RÁM
 10
0.0
 20
0.0
 30
0.0
 70
   128
 71
    30
 72
    -1
 73
    -3
  0
VERTEX
  5
D6F
  8
RÁM
 10
0.0
 20
0.0
 30
0.0
 70
   128
 71
    29
 72
   -30
 73
    -3
  0
SEQEND
  5
130B
  8
RÁM
  0
POLYLINE
  5
D70
  8
RÁM
 66
     1
 10
0.0
 20
0.0
 30
0.0
 70
    64
 71
    14
 72
    12
  0
VERTEX
  5
D71
  8
RÁM
 10
-463.7950000000001
 20
0.0
 30
-5.050000000000002
 70
   192
  0
VERTEX
  5
D72
  8
RÁM
 10
-472.7550000000001
 20
0.0
 30
-5.050000000000002
 70
   192
  0
VERTEX
  5
D73
  8
RÁM
 10
-472.7550000000001
 20
0.0
 30
-5.849999999999999
 70
   192
  0
VERTEX
  5
D74
  8
RÁM
 10
-480.4550000000002
 20
0.0
 30
-5.849999999999966
 70
   192
  0
VERTEX
  5
D75
  8
RÁM
 10
-480.7550000000002
 20
0.0
 30
-5.549999999999983
 70
   192
  0
VERTEX
  5
D76
  8
RÁM
 10
-481.0550000000001
 20
0.0
 30
-5.849999999999999
 70
   192
  0
VERTEX
  5
D77
  8
RÁM
 10
-488.7550000000001
 20
0.0
 30
-5.85
 70
   192
  0
VERTEX
  5
D78
  8
RÁM
 10
-488.7550000000001
 20
0.0
 30
-5.050000000000002
 70
   192
  0
VERTEX
  5
D79
  8
RÁM
 10
-491.2550000000001
 20
0.0
 30
-5.05
 70
   192
  0
VERTEX
  5
D7A
  8
RÁM
 10
-491.2550000000001
 20
0.0
 30
2.050000000000002
 70
   192
  0
VERTEX
  5
D7B
  8
RÁM
 10
-490.8530762113534
 20
0.0
 30
3.550000000000002
 70
   192
  0
VERTEX
  5
D7C
  8
RÁM
 10
-489.7550000000001
 20
0.0
 30
4.648076211353318
 70
   192
  0
VERTEX
  5
D7D
  8
RÁM
 10
-488.2550000000001
 20
0.0
 30
5.050000000000001
 70
   192
  0
VERTEX
  5
D7E
  8
RÁM
 10
-463.7950000000001
 20
0.0
 30
5.050000000000002
 70
   192
  0
VERTEX
  5
D7F
  8
RÁM
 10
0.0
 20
0.0
 30
0.0
 70
   128
 71
     5
 72
     4
 73
    -3
  0
VERTEX
  5
D80
  8
RÁM
 10
0.0
 20
0.0
 30
0.0
 70
   128
 71
     2
 72
     1
 73
   -14
  0
VERTEX
  5
D81
  8
RÁM
 10
0.0
 20
0.0
 30
0.0
 70
   128
 71
    -2
 72
   -14
 73
    -5
  0
VERTEX
  5
D82
  8
RÁM
 10
0.0
 20
0.0
 30
0.0
 70
   128
 71
    -5
 72
     3
 73
    -2
  0
VERTEX
  5
D83
  8
RÁM
 10
0.0
 20
0.0
 30
0.0
 70
   128
 71
   -14
 72
    -8
 73
    -5
  0
VERTEX
  5
D84
  8
RÁM
 10
0.0
 20
0.0
 30
0.0
 70
   128
 71
     8
 72
     7
 73
    -6
  0
VERTEX
  5
D85
  8
RÁM
 10
0.0
 20
0.0
 30
0.0
 70
   128
 71
    -8
 72
     6
 73
    -5
  0
VERTEX
  5
D86
  8
RÁM
 10
0.0
 20
0.0
 30
0.0
 70
   128
 71
    14
 72
    13
 73
   -12
  0
VERTEX
  5
D87
  8
RÁM
 10
0.0
 20
0.0
 30
0.0
 70
   128
 71
   -14
 72
    12
 73
   -11
  0
VERTEX
  5
D88
  8
RÁM
 10
0.0
 20
0.0
 30
0.0
 70
   128
 71
   -14
 72
    11
 73
   -10
  0
VERTEX
  5
D89
  8
RÁM
 10
0.0
 20
0.0
 30
0.0
 70
   128
 71
   -14
 72
    10
 73
    -9
  0
VERTEX
  5
D8A
  8
RÁM
 10
0.0
 20
0.0
 30
0.0
 70
   128
 71
   -14
 72
     9
 73
    -8
  0
SEQEND
  5
130C
  8
RÁM
  0
POLYLINE
  5
D8B
  8
RÁM
 66
     1
 10
0.0
 20
0.0
 30
0.0
 70
    64
 71
    16
 72
    14
  0
VERTEX
  5
D8C
  8
RÁM
 10
-464.9950000000001
 20
18.00000000000001
 30
3.150000000000001
 70
   192
  0
VERTEX
  5
D8D
  8
RÁM
 10
-463.7950000000001
 20
18.00000000000001
 30
3.15
 70
   192
  0
VERTEX
  5
D8E
  8
RÁM
 10
-463.7950000000001
 20
18.0
 30
-3.15
 70
   192
  0
VERTEX
  5
D8F
  8
RÁM
 10
-464.9950000000001
 20
18.00000000000001
 30
-3.150000000000001
 70
   192
  0
VERTEX
  5
D90
  8
RÁM
 10
-464.9950000000001
 20
18.00000000000001
 30
-3.750000000000002
 70
   192
  0
VERTEX
  5
D91
  8
RÁM
 10
-468.7950000000001
 20
18.00000000000001
 30
-3.750000000000002
 70
   192
  0
VERTEX
  5
D92
  8
RÁM
 10
-468.7950000000001
 20
18.00000000000001
 30
-3.149999999999999
 70
   192
  0
VERTEX
  5
D93
  8
RÁM
 10
-469.9950000000001
 20
18.00000000000001
 30
-3.149999999999999
 70
   192
  0
VERTEX
  5
D94
  8
RÁM
 10
-469.9950000000001
 20
18.00000000000001
 30
-3.750000000000003
 70
   192
  0
VERTEX
  5
D95
  8
RÁM
 10
-473.7950000000001
 20
18.00000000000001
 30
-3.750000000000002
 70
   192
  0
VERTEX
  5
D96
  8
RÁM
 10
-473.7950000000001
 20
18.00000000000001
 30
3.750000000000003
 70
   192
  0
VERTEX
  5
D97
  8
RÁM
 10
-469.9950000000001
 20
18.00000000000001
 30
3.750000000000002
 70
   192
  0
VERTEX
  5
D98
  8
RÁM
 10
-469.9950000000001
 20
18.00000000000001
 30
3.149999999999999
 70
   192
  0
VERTEX
  5
D99
  8
RÁM
 10
-468.7950000000001
 20
18.00000000000001
 30
3.149999999999999
 70
   192
  0
VERTEX
  5
D9A
  8
RÁM
 10
-468.7950000000001
 20
18.00000000000001
 30
3.750000000000003
 70
   192
  0
VERTEX
  5
D9B
  8
RÁM
 10
-464.9950000000001
 20
18.00000000000001
 30
3.750000000000001
 70
   192
  0
VERTEX
  5
D9C
  8
RÁM
 10
0.0
 20
0.0
 30
0.0
 70
   128
 71
    15
 72
    16
 73
    -1
  0
VERTEX
  5
D9D
  8
RÁM
 10
0.0
 20
0.0
 30
0.0
 70
   128
 71
    14
 72
   -15
 73
    -1
  0
VERTEX
  5
D9E
  8
RÁM
 10
0.0
 20
0.0
 30
0.0
 70
   128
 71
    11
 72
    12
 73
   -13
  0
VERTEX
  5
D9F
  8
RÁM
 10
0.0
 20
0.0
 30
0.0
 70
   128
 71
   -14
 72
     7
 73
    -8
  0
VERTEX
  5
DA0
  8
RÁM
 10
0.0
 20
0.0
 30
0.0
 70
   128
 71
    13
 72
   -14
 73
    -8
  0
VERTEX
  5
DA1
  8
RÁM
 10
0.0
 20
0.0
 30
0.0
 70
   128
 71
    10
 72
   -11
 73
   -13
  0
VERTEX
  5
DA2
  8
RÁM
 10
0.0
 20
0.0
 30
0.0
 70
   128
 71
    -8
 72
   -10
 73
   -13
  0
VERTEX
  5
DA3
  8
RÁM
 10
0.0
 20
0.0
 30
0.0
 70
   128
 71
     8
 72
     9
 73
   -10
  0
VERTEX
  5
DA4
  8
RÁM
 10
0.0
 20
0.0
 30
0.0
 70
   128
 71
     5
 72
     6
 73
    -7
  0
VERTEX
  5
DA5
  8
RÁM
 10
0.0
 20
0.0
 30
0.0
 70
   128
 71
     4
 72
    -5
 73
    -7
  0
VERTEX
  5
DA6
  8
RÁM
 10
0.0
 20
0.0
 30
0.0
 70
   128
 71
     2
 72
     3
 73
    -4
  0
VERTEX
  5
DA7
  8
RÁM
 10
0.0
 20
0.0
 30
0.0
 70
   128
 71
     1
 72
    -2
 73
    -4
  0
VERTEX
  5
DA8
  8
RÁM
 10
0.0
 20
0.0
 30
0.0
 70
   128
 71
    -7
 72
   -14
 73
    -1
  0
VERTEX
  5
DA9
  8
RÁM
 10
0.0
 20
0.0
 30
0.0
 70
   128
 71
    -4
 72
    -7
 73
    -1
  0
SEQEND
  5
130D
  8
RÁM
  0
ENDBLK
  5
12EF
  8
0
  0
BLOCK
  8
0
  2
*X5
 70
     1
 10
0.0
 20
0.0
 30
0.0
  3
*X5
  1

  0
POLYLINE
  5
DAB
  8
SKLO
 66
     1
 10
0.0
 20
0.0
 30
0.0
 70
    64
 71
     4
 72
     2
  0
VERTEX
  5
DAC
  8
SKLO
 10
-473.2749999999999
 20
17.99999999999989
 30
2.850000000000134
 70
   192
  0
VERTEX
  5
DAD
  8
SKLO
 10
-473.2749999999999
 20
2000.0
 30
2.850000000000134
 70
   192
  0
VERTEX
  5
DAE
  8
SKLO
 10
-473.2749999999999
 20
2000.0
 30
-3.149999999999866
 70
   192
  0
VERTEX
  5
DAF
  8
SKLO
 10
-473.2749999999999
 20
17.99999999999989
 30
-3.149999999999866
 70
   192
  0
VERTEX
  5
DB0
  8
SKLO
 10
0.0
 20
0.0
 30
0.0
 70
   128
 71
     3
 72
     4
 73
    -1
  0
VERTEX
  5
DB1
  8
SKLO
 10
0.0
 20
0.0
 30
0.0
 70
   128
 71
     2
 72
    -3
 73
     1
  0
SEQEND
  5
1310
  8
SKLO
  0
POLYLINE
  5
DB2
  8
SKLO
 66
     1
 10
0.0
 20
0.0
 30
0.0
 70
    64
 71
     4
 72
     2
  0
VERTEX
  5
DB3
  8
SKLO
 10
-473.2749999999999
 20
2000.0
 30
2.850000000000134
 70
   192
  0
VERTEX
  5
DB4
  8
SKLO
 10
486.7250000000001
 20
2000.0
 30
2.850000000000134
 70
   192
  0
VERTEX
  5
DB5
  8
SKLO
 10
486.7250000000001
 20
2000.0
 30
-3.149999999999866
 70
   192
  0
VERTEX
  5
DB6
  8
SKLO
 10
-473.2749999999999
 20
2000.0
 30
-3.149999999999866
 70
   192
  0
VERTEX
  5
DB7
  8
SKLO
 10
0.0
 20
0.0
 30
0.0
 70
   128
 71
     3
 72
     4
 73
    -1
  0
VERTEX
  5
DB8
  8
SKLO
 10
0.0
 20
0.0
 30
0.0
 70
   128
 71
     2
 72
    -3
 73
     1
  0
SEQEND
  5
1311
  8
SKLO
  0
POLYLINE
  5
DB9
  8
SKLO
 66
     1
 10
0.0
 20
0.0
 30
0.0
 70
    64
 71
     4
 72
     2
  0
VERTEX
  5
DBA
  8
SKLO
 10
486.7250000000001
 20
2000.0
 30
2.850000000000134
 70
   192
  0
VERTEX
  5
DBB
  8
SKLO
 10
486.7250000000001
 20
17.99999999999989
 30
2.850000000000134
 70
   192
  0
VERTEX
  5
DBC
  8
SKLO
 10
486.7250000000001
 20
17.99999999999989
 30
-3.149999999999866
 70
   192
  0
VERTEX
  5
DBD
  8
SKLO
 10
486.7250000000001
 20
2000.0
 30
-3.149999999999866
 70
   192
  0
VERTEX
  5
DBE
  8
SKLO
 10
0.0
 20
0.0
 30
0.0
 70
   128
 71
     3
 72
     4
 73
    -1
  0
VERTEX
  5
DBF
  8
SKLO
 10
0.0
 20
0.0
 30
0.0
 70
   128
 71
     2
 72
    -3
 73
     1
  0
SEQEND
  5
1312
  8
SKLO
  0
POLYLINE
  5
DC0
  8
SKLO
 66
     1
 10
0.0
 20
0.0
 30
0.0
 70
    64
 71
     4
 72
     2
  0
VERTEX
  5
DC1
  8
SKLO
 10
486.7250000000001
 20
17.99999999999989
 30
2.850000000000134
 70
   192
  0
VERTEX
  5
DC2
  8
SKLO
 10
-473.2749999999999
 20
17.99999999999989
 30
2.850000000000134
 70
   192
  0
VERTEX
  5
DC3
  8
SKLO
 10
-473.2749999999999
 20
17.99999999999989
 30
-3.149999999999866
 70
   192
  0
VERTEX
  5
DC4
  8
SKLO
 10
486.7250000000001
 20
17.99999999999989
 30
-3.149999999999866
 70
   192
  0
VERTEX
  5
DC5
  8
SKLO
 10
0.0
 20
0.0
 30
0.0
 70
   128
 71
     3
 72
     4
 73
    -1
  0
VERTEX
  5
DC6
  8
SKLO
 10
0.0
 20
0.0
 30
0.0
 70
   128
 71
     2
 72
    -3
 73
     1
  0
SEQEND
  5
1313
  8
SKLO
  0
POLYLINE
  5
DC7
  8
SKLO
 66
     1
 10
0.0
 20
0.0
 30
0.0
 70
    64
 71
     4
 72
     2
  0
VERTEX
  5
DC8
  8
SKLO
 10
-473.2749999999999
 20
17.99999999999989
 30
-3.149999999999866
 70
   192
  0
VERTEX
  5
DC9
  8
SKLO
 10
486.7250000000001
 20
17.99999999999989
 30
-3.149999999999866
 70
   192
  0
VERTEX
  5
DCA
  8
SKLO
 10
486.7250000000001
 20
2000.0
 30
-3.149999999999866
 70
   192
  0
VERTEX
  5
DCB
  8
SKLO
 10
-473.2749999999999
 20
2000.0
 30
-3.149999999999866
 70
   192
  0
VERTEX
  5
DCC
  8
SKLO
 10
0.0
 20
0.0
 30
0.0
 70
   128
 71
     1
 72
     4
 73
    -3
  0
VERTEX
  5
DCD
  8
SKLO
 10
0.0
 20
0.0
 30
0.0
 70
   128
 71
    -1
 72
     3
 73
     2
  0
SEQEND
  5
1314
  8
SKLO
  0
POLYLINE
  5
DCE
  8
SKLO
 66
     1
 10
0.0
 20
0.0
 30
0.0
 70
    64
 71
     4
 72
     2
  0
VERTEX
  5
DCF
  8
SKLO
 10
-473.2749999999999
 20
2000.0
 30
2.850000000000134
 70
   192
  0
VERTEX
  5
DD0
  8
SKLO
 10
-473.2749999999999
 20
17.99999999999989
 30
2.850000000000134
 70
   192
  0
VERTEX
  5
DD1
  8
SKLO
 10
486.7250000000001
 20
17.99999999999989
 30
2.850000000000134
 70
   192
  0
VERTEX
  5
DD2
  8
SKLO
 10
486.7250000000001
 20
2000.0
 30
2.850000000000134
 70
   192
  0
VERTEX
  5
DD3
  8
SKLO
 10
0.0
 20
0.0
 30
0.0
 70
   128
 71
     3
 72
     4
 73
    -1
  0
VERTEX
  5
DD4
  8
SKLO
 10
0.0
 20
0.0
 30
0.0
 70
   128
 71
     2
 72
    -3
 73
     1
  0
SEQEND
  5
1315
  8
SKLO
  0
ENDBLK
  5
130F
  8
0
  0
BLOCK
  8
0
  2
*X6
 70
     1
 10
0.0
 20
0.0
 30
0.0
  3
*X6
  1

  0
POLYLINE
  5
DD6
  8
RÁM
 66
     1
 10
0.0
 20
0.0
 30
0.0
 70
    64
 71
     8
 72
     6
  0
VERTEX
  5
DD7
  8
RÁM
 10
-97.59091532545399
 20
1986.0
 30
-22.16823388027844
 70
   192
  0
VERTEX
  5
DD8
  8
RÁM
 10
-97.59091532545399
 20
1994.0
 30
-22.16823388027844
 70
   192
  0
VERTEX
  5
DD9
  8
RÁM
 10
-94.27910064416433
 20
1994.0
 30
-28.40618070469279
 70
   192
  0
VERTEX
  5
DDA
  8
RÁM
 10
-94.27910064416433
 20
1986.0
 30
-28.40618070469279
 70
   192
  0
VERTEX
  5
DDB
  8
RÁM
 10
-95.95506919344
 20
1986.0
 30
-15.2977095553232
 70
   192
  0
VERTEX
  5
DDC
  8
RÁM
 10
-95.95506919344001
 20
1994.0
 30
-15.29770955532319
 70
   192
  0
VERTEX
  5
DDD
  8
RÁM
 10
-87.6715124598868
 20
1994.0
 30
-30.90014851812239
 70
   192
  0
VERTEX
  5
DDE
  8
RÁM
 10
-87.6715124598868
 20
1986.0
 30
-30.90014851812239
 70
   192
  0
VERTEX
  5
DDF
  8
RÁM
 10
0.0
 20
0.0
 30
0.0
 70
   128
 71
     1
 72
     2
 73
    -3
  0
VERTEX
  5
DE0
  8
RÁM
 10
0.0
 20
0.0
 30
0.0
 70
   128
 71
    -1
 72
     3
 73
     4
  0
VERTEX
  5
DE1
  8
RÁM
 10
0.0
 20
0.0
 30
0.0
 70
   128
 71
     5
 72
     6
 73
    -2
  0
VERTEX
  5
DE2
  8
RÁM
 10
0.0
 20
0.0
 30
0.0
 70
   128
 71
    -5
 72
     2
 73
     1
  0
VERTEX
  5
DE3
  8
RÁM
 10
0.0
 20
0.0
 30
0.0
 70
   128
 71
     4
 72
     3
 73
    -7
  0
VERTEX
  5
DE4
  8
RÁM
 10
0.0
 20
0.0
 30
0.0
 70
   128
 71
    -4
 72
     7
 73
     8
  0
SEQEND
  5
1318
  8
RÁM
  0
POLYLINE
  5
DE5
  8
RÁM
 66
     1
 10
0.0
 20
0.0
 30
0.0
 70
    64
 71
     8
 72
     6
  0
VERTEX
  5
DE6
  8
RÁM
 10
-112.6715124598868
 20
2001.5
 30
5.600000000000108
 70
   192
  0
VERTEX
  5
DE7
  8
RÁM
 10
-112.6715124598868
 20
2001.5
 30
-5.899999999999892
 70
   192
  0
VERTEX
  5
DE8
  8
RÁM
 10
-112.6715124598868
 20
1986.0
 30
-5.899999999999892
 70
   192
  0
VERTEX
  5
DE9
  8
RÁM
 10
-112.6715124598868
 20
1986.0
 30
-10.39999999999989
 70
   192
  0
VERTEX
  5
DEA
  8
RÁM
 10
-112.6715124598868
 20
2006.0
 30
-10.39999999999989
 70
   192
  0
VERTEX
  5
DEB
  8
RÁM
 10
-112.6715124598868
 20
2006.0
 30
10.10000000000016
 70
   192
  0
VERTEX
  5
DEC
  8
RÁM
 10
-112.6715124598868
 20
1986.0
 30
10.10000000000016
 70
   192
  0
VERTEX
  5
DED
  8
RÁM
 10
-112.6715124598868
 20
1986.0
 30
5.600000000000108
 70
   192
  0
VERTEX
  5
DEE
  8
RÁM
 10
0.0
 20
0.0
 30
0.0
 70
   128
 71
     1
 72
     8
 73
    -7
  0
VERTEX
  5
DEF
  8
RÁM
 10
0.0
 20
0.0
 30
0.0
 70
   128
 71
    -1
 72
     7
 73
    -6
  0
VERTEX
  5
DF0
  8
RÁM
 10
0.0
 20
0.0
 30
0.0
 70
   128
 71
     2
 72
    -1
 73
    -6
  0
VERTEX
  5
DF1
  8
RÁM
 10
0.0
 20
0.0
 30
0.0
 70
   128
 71
    -2
 72
     6
 73
    -5
  0
VERTEX
  5
DF2
  8
RÁM
 10
0.0
 20
0.0
 30
0.0
 70
   128
 71
     5
 72
     4
 73
    -3
  0
VERTEX
  5
DF3
  8
RÁM
 10
0.0
 20
0.0
 30
0.0
 70
   128
 71
    -5
 72
     3
 73
    -2
  0
SEQEND
  5
1319
  8
RÁM
  0
POLYLINE
  5
DF4
  8
RÁM
 66
     1
 10
0.0
 20
0.0
 30
0.0
 70
    64
 71
     8
 72
     6
  0
VERTEX
  5
DF5
  8
RÁM
 10
-62.67151245988686
 20
1986.0
 30
10.10000000000016
 70
   192
  0
VERTEX
  5
DF6
  8
RÁM
 10
-62.67151245988686
 20
1986.0
 30
5.600000000000108
 70
   192
  0
VERTEX
  5
DF7
  8
RÁM
 10
-62.67151245988686
 20
2001.5
 30
5.600000000000108
 70
   192
  0
VERTEX
  5
DF8
  8
RÁM
 10
-62.67151245988686
 20
2001.5
 30
-5.89999999999992
 70
   192
  0
VERTEX
  5
DF9
  8
RÁM
 10
-62.67151245988686
 20
1986.0
 30
-5.899999999999892
 70
   192
  0
VERTEX
  5
DFA
  8
RÁM
 10
-62.67151245988686
 20
1986.0
 30
-10.39999999999989
 70
   192
  0
VERTEX
  5
DFB
  8
RÁM
 10
-62.67151245988686
 20
2006.0
 30
-10.39999999999989
 70
   192
  0
VERTEX
  5
DFC
  8
RÁM
 10
-62.67151245988686
 20
2006.0
 30
10.10000000000016
 70
   192
  0
VERTEX
  5
DFD
  8
RÁM
 10
0.0
 20
0.0
 30
0.0
 70
   128
 71
     1
 72
     2
 73
    -3
  0
VERTEX
  5
DFE
  8
RÁM
 10
0.0
 20
0.0
 30
0.0
 70
   128
 71
     8
 72
    -1
 73
    -3
  0
VERTEX
  5
DFF
  8
RÁM
 10
0.0
 20
0.0
 30
0.0
 70
   128
 71
    -4
 72
     7
 73
    -8
  0
VERTEX
  5
E00
  8
RÁM
 10
0.0
 20
0.0
 30
0.0
 70
   128
 71
     3
 72
    -4
 73
    -8
  0
VERTEX
  5
E01
  8
RÁM
 10
0.0
 20
0.0
 30
0.0
 70
   128
 71
     5
 72
     6
 73
    -7
  0
VERTEX
  5
E02
  8
RÁM
 10
0.0
 20
0.0
 30
0.0
 70
   128
 71
     4
 72
    -5
 73
    -7
  0
SEQEND
  5
131A
  8
RÁM
  0
POLYLINE
  5
E03
  8
RÁM
 66
     1
 10
0.0
 20
0.0
 30
0.0
 70
    64
 71
     4
 72
     2
  0
VERTEX
  5
E04
  8
RÁM
 10
-112.6715124598868
 20
1986.0
 30
10.10000000000016
 70
   192
  0
VERTEX
  5
E05
  8
RÁM
 10
-112.6715124598868
 20
1986.0
 30
5.600000000000108
 70
   192
  0
VERTEX
  5
E06
  8
RÁM
 10
-62.67151245988686
 20
1986.0
 30
5.600000000000108
 70
   192
  0
VERTEX
  5
E07
  8
RÁM
 10
-62.67151245988686
 20
1986.0
 30
10.10000000000016
 70
   192
  0
VERTEX
  5
E08
  8
RÁM
 10
0.0
 20
0.0
 30
0.0
 70
   128
 71
     3
 72
     4
 73
    -1
  0
VERTEX
  5
E09
  8
RÁM
 10
0.0
 20
0.0
 30
0.0
 70
   128
 71
     2
 72
    -3
 73
     1
  0
SEQEND
  5
131B
  8
RÁM
  0
POLYLINE
  5
E0A
  8
RÁM
 66
     1
 10
0.0
 20
0.0
 30
0.0
 70
    64
 71
     8
 72
     6
  0
VERTEX
  5
E0B
  8
RÁM
 10
-77.82823417276296
 20
1994.0
 30
-10.39999999999989
 70
   192
  0
VERTEX
  5
E0C
  8
RÁM
 10
-97.51479074701064
 20
1994.0
 30
-10.39999999999989
 70
   192
  0
VERTEX
  5
E0D
  8
RÁM
 10
-97.51479074701064
 20
1986.0
 30
-10.39999999999989
 70
   192
  0
VERTEX
  5
E0E
  8
RÁM
 10
-112.6715124598868
 20
1986.0
 30
-10.39999999999989
 70
   192
  0
VERTEX
  5
E0F
  8
RÁM
 10
-112.6715124598868
 20
2006.0
 30
-10.39999999999989
 70
   192
  0
VERTEX
  5
E10
  8
RÁM
 10
-62.67151245988686
 20
2006.0
 30
-10.39999999999989
 70
   192
  0
VERTEX
  5
E11
  8
RÁM
 10
-62.67151245988686
 20
1986.0
 30
-10.39999999999989
 70
   192
  0
VERTEX
  5
E12
  8
RÁM
 10
-77.82823417276296
 20
1986.0
 30
-10.39999999999989
 70
   192
  0
VERTEX
  5
E13
  8
RÁM
 10
0.0
 20
0.0
 30
0.0
 70
   128
 71
     7
 72
     8
 73
    -1
  0
VERTEX
  5
E14
  8
RÁM
 10
0.0
 20
0.0
 30
0.0
 70
   128
 71
     6
 72
    -7
 73
    -1
  0
VERTEX
  5
E15
  8
RÁM
 10
0.0
 20
0.0
 30
0.0
 70
   128
 71
    -2
 72
     5
 73
    -6
  0
VERTEX
  5
E16
  8
RÁM
 10
0.0
 20
0.0
 30
0.0
 70
   128
 71
     1
 72
    -2
 73
    -6
  0
VERTEX
  5
E17
  8
RÁM
 10
0.0
 20
0.0
 30
0.0
 70
   128
 71
    -2
 72
     4
 73
    -5
  0
VERTEX
  5
E18
  8
RÁM
 10
0.0
 20
0.0
 30
0.0
 70
   128
 71
     2
 72
     3
 73
    -4
  0
SEQEND
  5
131C
  8
RÁM
  0
POLYLINE
  5
E19
  8
RÁM
 66
     1
 10
0.0
 20
0.0
 30
0.0
 70
    64
 71
     4
 72
     2
  0
VERTEX
  5
E1A
  8
RÁM
 10
-62.67151245988686
 20
2006.0
 30
10.10000000000016
 70
   192
  0
VERTEX
  5
E1B
  8
RÁM
 10
-62.67151245988686
 20
1986.0
 30
10.10000000000016
 70
   192
  0
VERTEX
  5
E1C
  8
RÁM
 10
-112.6715124598868
 20
1986.0
 30
10.10000000000016
 70
   192
  0
VERTEX
  5
E1D
  8
RÁM
 10
-112.6715124598868
 20
2006.0
 30
10.10000000000016
 70
   192
  0
VERTEX
  5
E1E
  8
RÁM
 10
0.0
 20
0.0
 30
0.0
 70
   128
 71
     1
 72
     4
 73
    -3
  0
VERTEX
  5
E1F
  8
RÁM
 10
0.0
 20
0.0
 30
0.0
 70
   128
 71
    -1
 72
     3
 73
     2
  0
SEQEND
  5
131D
  8
RÁM
  0
POLYLINE
  5
E20
  8
RÁM
 66
     1
 10
0.0
 20
0.0
 30
0.0
 70
    64
 71
    25
 72
    23
  0
VERTEX
  5
E21
  8
RÁM
 10
-62.67151245988686
 20
1986.0
 30
-5.899999999999892
 70
   192
  0
VERTEX
  5
E22
  8
RÁM
 10
-112.6715124598868
 20
1986.0
 30
-5.899999999999892
 70
   192
  0
VERTEX
  5
E23
  8
RÁM
 10
-112.6715124598868
 20
1986.0
 30
-10.39999999999989
 70
   192
  0
VERTEX
  5
E24
  8
RÁM
 10
-97.51479074701064
 20
1986.0
 30
-10.39999999999989
 70
   192
  0
VERTEX
  5
E25
  8
RÁM
 10
-96.48348931408765
 20
1986.0
 30
-10.6864022191741
 70
   192
  0
VERTEX
  5
E26
  8
RÁM
 10
-95.74755490019139
 20
1986.0
 30
-11.46358264554887
 70
   192
  0
VERTEX
  5
E27
  8
RÁM
 10
-95.51776075462841
 20
1986.0
 30
-12.50895508031167
 70
   192
  0
VERTEX
  5
E28
  8
RÁM
 10
-95.61472594296808
 20
1986.0
 30
-14.28622318728574
 70
   192
  0
VERTEX
  5
E29
  8
RÁM
 10
-95.66651963954854
 20
1986.0
 30
-14.64208608586009
 70
   192
  0
VERTEX
  5
E2A
  8
RÁM
 10
-95.7812033068176
 20
1986.0
 30
-14.98292130418253
 70
   192
  0
VERTEX
  5
E2B
  8
RÁM
 10
-95.95506919344
 20
1986.0
 30
-15.2977095553232
 70
   192
  0
VERTEX
  5
E2C
  8
RÁM
 10
-97.59091532545399
 20
1986.0
 30
-22.16823388027844
 70
   192
  0
VERTEX
  5
E2D
  8
RÁM
 10
-94.27910064416433
 20
1986.0
 30
-28.40618070469279
 70
   192
  0
VERTEX
  5
E2E
  8
RÁM
 10
-87.6715124598868
 20
1986.0
 30
-30.90014851812239
 70
   192
  0
VERTEX
  5
E2F
  8
RÁM
 10
-81.06392427560927
 20
1986.0
 30
-28.4061807046928
 70
   192
  0
VERTEX
  5
E30
  8
RÁM
 10
-77.7521095943196
 20
1986.0
 30
-22.16823388027846
 70
   192
  0
VERTEX
  5
E31
  8
RÁM
 10
-79.38795572633359
 20
1986.0
 30
-15.29770955532322
 70
   192
  0
VERTEX
  5
E32
  8
RÁM
 10
-79.561821612956
 20
1986.0
 30
-14.98292130418256
 70
   192
  0
VERTEX
  5
E33
  8
RÁM
 10
-79.67650528022509
 20
1986.0
 30
-14.64208608586011
 70
   192
  0
VERTEX
  5
E34
  8
RÁM
 10
-79.72829897680568
 20
1986.0
 30
-14.2862231872858
 70
   192
  0
VERTEX
  5
E35
  8
RÁM
 10
-79.82526416514523
 20
1986.0
 30
-12.50895508031172
 70
   192
  0
VERTEX
  5
E36
  8
RÁM
 10
-79.5954700195822
 20
1986.0
 30
-11.46358264554891
 70
   192
  0
VERTEX
  5
E37
  8
RÁM
 10
-78.85953560568595
 20
1986.0
 30
-10.68640221917413
 70
   192
  0
VERTEX
  5
E38
  8
RÁM
 10
-77.82823417276296
 20
1986.0
 30
-10.39999999999989
 70
   192
  0
VERTEX
  5
E39
  8
RÁM
 10
-62.67151245988686
 20
1986.0
 30
-10.39999999999989
 70
   192
  0
VERTEX
  5
E3A
  8
RÁM
 10
0.0
 20
0.0
 30
0.0
 70
   128
 71
    16
 72
    17
 73
   -18
  0
VERTEX
  5
E3B
  8
RÁM
 10
0.0
 20
0.0
 30
0.0
 70
   128
 71
    15
 72
   -16
 73
   -18
  0
VERTEX
  5
E3C
  8
RÁM
 10
0.0
 20
0.0
 30
0.0
 70
   128
 71
    14
 72
   -15
 73
   -18
  0
VERTEX
  5
E3D
  8
RÁM
 10
0.0
 20
0.0
 30
0.0
 70
   128
 71
    13
 72
   -14
 73
   -18
  0
VERTEX
  5
E3E
  8
RÁM
 10
0.0
 20
0.0
 30
0.0
 70
   128
 71
    12
 72
   -13
 73
   -18
  0
VERTEX
  5
E3F
  8
RÁM
 10
0.0
 20
0.0
 30
0.0
 70
   128
 71
    11
 72
   -12
 73
   -18
  0
VERTEX
  5
E40
  8
RÁM
 10
0.0
 20
0.0
 30
0.0
 70
   128
 71
    18
 72
   -19
 73
   -11
  0
VERTEX
  5
E41
  8
RÁM
 10
0.0
 20
0.0
 30
0.0
 70
   128
 71
   -20
 72
    10
 73
   -11
  0
VERTEX
  5
E42
  8
RÁM
 10
0.0
 20
0.0
 30
0.0
 70
   128
 71
    19
 72
   -20
 73
   -11
  0
VERTEX
  5
E43
  8
RÁM
 10
0.0
 20
0.0
 30
0.0
 70
   128
 71
     2
 72
     3
 73
    -4
  0
VERTEX
  5
E44
  8
RÁM
 10
0.0
 20
0.0
 30
0.0
 70
   128
 71
   -21
 72
    -2
 73
    -4
  0
VERTEX
  5
E45
  8
RÁM
 10
0.0
 20
0.0
 30
0.0
 70
   128
 71
     4
 72
    -5
 73
   -21
  0
VERTEX
  5
E46
  8
RÁM
 10
0.0
 20
0.0
 30
0.0
 70
   128
 71
     5
 72
    -6
 73
   -21
  0
VERTEX
  5
E47
  8
RÁM
 10
0.0
 20
0.0
 30
0.0
 70
   128
 71
     6
 72
    -7
 73
   -21
  0
VERTEX
  5
E48
  8
RÁM
 10
0.0
 20
0.0
 30
0.0
 70
   128
 71
    -8
 72
    20
 73
   -21
  0
VERTEX
  5
E49
  8
RÁM
 10
0.0
 20
0.0
 30
0.0
 70
   128
 71
     7
 72
    -8
 73
   -21
  0
VERTEX
  5
E4A
  8
RÁM
 10
0.0
 20
0.0
 30
0.0
 70
   128
 71
     8
 72
    -9
 73
   -20
  0
VERTEX
  5
E4B
  8
RÁM
 10
0.0
 20
0.0
 30
0.0
 70
   128
 71
     9
 72
   -10
 73
   -20
  0
VERTEX
  5
E4C
  8
RÁM
 10
0.0
 20
0.0
 30
0.0
 70
   128
 71
    21
 72
   -22
 73
    -2
  0
VERTEX
  5
E4D
  8
RÁM
 10
0.0
 20
0.0
 30
0.0
 70
   128
 71
    22
 72
   -23
 73
    -2
  0
VERTEX
  5
E4E
  8
RÁM
 10
0.0
 20
0.0
 30
0.0
 70
   128
 71
    23
 72
   -24
 73
    -2
  0
VERTEX
  5
E4F
  8
RÁM
 10
0.0
 20
0.0
 30
0.0
 70
   128
 71
    25
 72
     1
 73
    -2
  0
VERTEX
  5
E50
  8
RÁM
 10
0.0
 20
0.0
 30
0.0
 70
   128
 71
    24
 72
   -25
 73
    -2
  0
SEQEND
  5
131E
  8
RÁM
  0
POLYLINE
  5
E51
  8
RÁM
 66
     1
 10
0.0
 20
0.0
 30
0.0
 70
    64
 71
     4
 72
     2
  0
VERTEX
  5
E52
  8
RÁM
 10
-112.6715124598868
 20
2006.0
 30
10.10000000000016
 70
   192
  0
VERTEX
  5
E53
  8
RÁM
 10
-112.6715124598868
 20
2006.0
 30
-10.39999999999989
 70
   192
  0
VERTEX
  5
E54
  8
RÁM
 10
-62.67151245988686
 20
2006.0
 30
-10.39999999999989
 70
   192
  0
VERTEX
  5
E55
  8
RÁM
 10
-62.67151245988686
 20
2006.0
 30
10.10000000000016
 70
   192
  0
VERTEX
  5
E56
  8
RÁM
 10
0.0
 20
0.0
 30
0.0
 70
   128
 71
     1
 72
     4
 73
    -3
  0
VERTEX
  5
E57
  8
RÁM
 10
0.0
 20
0.0
 30
0.0
 70
   128
 71
    -1
 72
     3
 73
     2
  0
SEQEND
  5
131F
  8
RÁM
  0
POLYLINE
  5
E58
  8
RÁM
 66
     1
 10
0.0
 20
0.0
 30
0.0
 70
    64
 71
     8
 72
     6
  0
VERTEX
  5
E59
  8
RÁM
 10
-95.66651963954854
 20
1994.0
 30
-14.64208608586009
 70
   192
  0
VERTEX
  5
E5A
  8
RÁM
 10
-95.7812033068176
 20
1994.0
 30
-14.98292130418253
 70
   192
  0
VERTEX
  5
E5B
  8
RÁM
 10
-95.7812033068176
 20
1986.0
 30
-14.98292130418253
 70
   192
  0
VERTEX
  5
E5C
  8
RÁM
 10
-95.66651963954854
 20
1986.0
 30
-14.64208608586009
 70
   192
  0
VERTEX
  5
E5D
  8
RÁM
 10
-95.95506919344
 20
1994.0
 30
-15.2977095553232
 70
   192
  0
VERTEX
  5
E5E
  8
RÁM
 10
-95.95506919344
 20
1986.0
 30
-15.2977095553232
 70
   192
  0
VERTEX
  5
E5F
  8
RÁM
 10
-95.61472594296805
 20
1994.0
 30
-14.28622318728577
 70
   192
  0
VERTEX
  5
E60
  8
RÁM
 10
-95.61472594296795
 20
1986.0
 30
-14.28622318728578
 70
   192
  0
VERTEX
  5
E61
  8
RÁM
 10
0.0
 20
0.0
 30
0.0
 70
   128
 71
     1
 72
     2
 73
    -3
  0
VERTEX
  5
E62
  8
RÁM
 10
0.0
 20
0.0
 30
0.0
 70
   128
 71
     4
 72
    -1
 73
     3
  0
VERTEX
  5
E63
  8
RÁM
 10
0.0
 20
0.0
 30
0.0
 70
   128
 71
     2
 72
     5
 73
    -6
  0
VERTEX
  5
E64
  8
RÁM
 10
0.0
 20
0.0
 30
0.0
 70
   128
 71
     3
 72
    -2
 73
     6
  0
VERTEX
  5
E65
  8
RÁM
 10
0.0
 20
0.0
 30
0.0
 70
   128
 71
     7
 72
     1
 73
    -4
  0
VERTEX
  5
E66
  8
RÁM
 10
0.0
 20
0.0
 30
0.0
 70
   128
 71
     8
 72
    -7
 73
     4
  0
SEQEND
  5
1320
  8
RÁM
  0
POLYLINE
  5
E67
  8
RÁM
 66
     1
 10
0.0
 20
0.0
 30
0.0
 70
    64
 71
     4
 72
     2
  0
VERTEX
  5
E68
  8
RÁM
 10
-95.61472594296805
 20
1986.0
 30
-14.28622318728577
 70
   192
  0
VERTEX
  5
E69
  8
RÁM
 10
-95.61472594296808
 20
1994.0
 30
-14.28622318728574
 70
   192
  0
VERTEX
  5
E6A
  8
RÁM
 10
-95.51776075462845
 20
1994.0
 30
-12.50895508031167
 70
   192
  0
VERTEX
  5
E6B
  8
RÁM
 10
-95.51776075462851
 20
1986.0
 30
-12.50895508031167
 70
   192
  0
VERTEX
  5
E6C
  8
RÁM
 10
0.0
 20
0.0
 30
0.0
 70
   128
 71
     1
 72
     4
 73
    -3
  0
VERTEX
  5
E6D
  8
RÁM
 10
0.0
 20
0.0
 30
0.0
 70
   128
 71
    -1
 72
     3
 73
     2
  0
SEQEND
  5
1321
  8
RÁM
  0
POLYLINE
  5
E6E
  8
RÁM
 66
     1
 10
0.0
 20
0.0
 30
0.0
 70
    64
 71
     8
 72
     6
  0
VERTEX
  5
E6F
  8
RÁM
 10
-96.48348931408765
 20
1994.0
 30
-10.6864022191741
 70
   192
  0
VERTEX
  5
E70
  8
RÁM
 10
-95.74755490019139
 20
1994.0
 30
-11.46358264554887
 70
   192
  0
VERTEX
  5
E71
  8
RÁM
 10
-95.74755490019139
 20
1986.0
 30
-11.46358264554887
 70
   192
  0
VERTEX
  5
E72
  8
RÁM
 10
-96.48348931408765
 20
1986.0
 30
-10.6864022191741
 70
   192
  0
VERTEX
  5
E73
  8
RÁM
 10
-95.51776075462841
 20
1994.0
 30
-12.50895508031167
 70
   192
  0
VERTEX
  5
E74
  8
RÁM
 10
-95.51776075462841
 20
1986.0
 30
-12.50895508031167
 70
   192
  0
VERTEX
  5
E75
  8
RÁM
 10
-97.51479074701064
 20
1994.0
 30
-10.39999999999989
 70
   192
  0
VERTEX
  5
E76
  8
RÁM
 10
-97.51479074701064
 20
1986.0
 30
-10.39999999999986
 70
   192
  0
VERTEX
  5
E77
  8
RÁM
 10
0.0
 20
0.0
 30
0.0
 70
   128
 71
     1
 72
     2
 73
    -3
  0
VERTEX
  5
E78
  8
RÁM
 10
0.0
 20
0.0
 30
0.0
 70
   128
 71
     4
 72
    -1
 73
     3
  0
VERTEX
  5
E79
  8
RÁM
 10
0.0
 20
0.0
 30
0.0
 70
   128
 71
     2
 72
     5
 73
    -6
  0
VERTEX
  5
E7A
  8
RÁM
 10
0.0
 20
0.0
 30
0.0
 70
   128
 71
     3
 72
    -2
 73
     6
  0
VERTEX
  5
E7B
  8
RÁM
 10
0.0
 20
0.0
 30
0.0
 70
   128
 71
     7
 72
     1
 73
    -4
  0
VERTEX
  5
E7C
  8
RÁM
 10
0.0
 20
0.0
 30
0.0
 70
   128
 71
     8
 72
    -7
 73
     4
  0
SEQEND
  5
1322
  8
RÁM
  0
POLYLINE
  5
E7D
  8
RÁM
 66
     1
 10
0.0
 20
0.0
 30
0.0
 70
    64
 71
     8
 72
     6
  0
VERTEX
  5
E7E
  8
RÁM
 10
-79.5954700195822
 20
1994.0
 30
-11.46358264554891
 70
   192
  0
VERTEX
  5
E7F
  8
RÁM
 10
-78.85953560568595
 20
1994.0
 30
-10.68640221917413
 70
   192
  0
VERTEX
  5
E80
  8
RÁM
 10
-78.85953560568595
 20
1986.0
 30
-10.68640221917413
 70
   192
  0
VERTEX
  5
E81
  8
RÁM
 10
-79.5954700195822
 20
1986.0
 30
-11.46358264554891
 70
   192
  0
VERTEX
  5
E82
  8
RÁM
 10
-77.82823417276296
 20
1994.0
 30
-10.39999999999989
 70
   192
  0
VERTEX
  5
E83
  8
RÁM
 10
-77.82823417276296
 20
1986.0
 30
-10.39999999999989
 70
   192
  0
VERTEX
  5
E84
  8
RÁM
 10
-79.82526416514526
 20
1994.0
 30
-12.50895508031172
 70
   192
  0
VERTEX
  5
E85
  8
RÁM
 10
-79.82526416514516
 20
1986.0
 30
-12.50895508031171
 70
   192
  0
VERTEX
  5
E86
  8
RÁM
 10
0.0
 20
0.0
 30
0.0
 70
   128
 71
     1
 72
     2
 73
    -3
  0
VERTEX
  5
E87
  8
RÁM
 10
0.0
 20
0.0
 30
0.0
 70
   128
 71
     4
 72
    -1
 73
     3
  0
VERTEX
  5
E88
  8
RÁM
 10
0.0
 20
0.0
 30
0.0
 70
   128
 71
     2
 72
     5
 73
    -6
  0
VERTEX
  5
E89
  8
RÁM
 10
0.0
 20
0.0
 30
0.0
 70
   128
 71
     3
 72
    -2
 73
     6
  0
VERTEX
  5
E8A
  8
RÁM
 10
0.0
 20
0.0
 30
0.0
 70
   128
 71
     7
 72
     1
 73
    -4
  0
VERTEX
  5
E8B
  8
RÁM
 10
0.0
 20
0.0
 30
0.0
 70
   128
 71
     8
 72
    -7
 73
     4
  0
SEQEND
  5
1323
  8
RÁM
  0
POLYLINE
  5
E8C
  8
RÁM
 66
     1
 10
0.0
 20
0.0
 30
0.0
 70
    64
 71
     4
 72
     2
  0
VERTEX
  5
E8D
  8
RÁM
 10
-79.82526416514526
 20
1986.0
 30
-12.50895508031172
 70
   192
  0
VERTEX
  5
E8E
  8
RÁM
 10
-79.82526416514523
 20
1994.0
 30
-12.50895508031172
 70
   192
  0
VERTEX
  5
E8F
  8
RÁM
 10
-79.72829897680566
 20
1994.0
 30
-14.2862231872858
 70
   192
  0
VERTEX
  5
E90
  8
RÁM
 10
-79.72829897680572
 20
1986.0
 30
-14.28622318728583
 70
   192
  0
VERTEX
  5
E91
  8
RÁM
 10
0.0
 20
0.0
 30
0.0
 70
   128
 71
     1
 72
     4
 73
    -3
  0
VERTEX
  5
E92
  8
RÁM
 10
0.0
 20
0.0
 30
0.0
 70
   128
 71
    -1
 72
     3
 73
     2
  0
SEQEND
  5
1324
  8
RÁM
  0
POLYLINE
  5
E93
  8
RÁM
 66
     1
 10
0.0
 20
0.0
 30
0.0
 70
    64
 71
     8
 72
     6
  0
VERTEX
  5
E94
  8
RÁM
 10
-79.561821612956
 20
1994.0
 30
-14.98292130418256
 70
   192
  0
VERTEX
  5
E95
  8
RÁM
 10
-79.67650528022509
 20
1994.0
 30
-14.64208608586011
 70
   192
  0
VERTEX
  5
E96
  8
RÁM
 10
-79.67650528022509
 20
1986.0
 30
-14.64208608586011
 70
   192
  0
VERTEX
  5
E97
  8
RÁM
 10
-79.561821612956
 20
1986.0
 30
-14.98292130418256
 70
   192
  0
VERTEX
  5
E98
  8
RÁM
 10
-79.72829897680568
 20
1994.0
 30
-14.2862231872858
 70
   192
  0
VERTEX
  5
E99
  8
RÁM
 10
-79.72829897680568
 20
1986.0
 30
-14.2862231872858
 70
   192
  0
VERTEX
  5
E9A
  8
RÁM
 10
-79.38795572633359
 20
1994.0
 30
-15.29770955532322
 70
   192
  0
VERTEX
  5
E9B
  8
RÁM
 10
-79.38795572633359
 20
1986.0
 30
-15.29770955532323
 70
   192
  0
VERTEX
  5
E9C
  8
RÁM
 10
0.0
 20
0.0
 30
0.0
 70
   128
 71
     1
 72
     2
 73
    -3
  0
VERTEX
  5
E9D
  8
RÁM
 10
0.0
 20
0.0
 30
0.0
 70
   128
 71
     4
 72
    -1
 73
     3
  0
VERTEX
  5
E9E
  8
RÁM
 10
0.0
 20
0.0
 30
0.0
 70
   128
 71
     2
 72
     5
 73
    -6
  0
VERTEX
  5
E9F
  8
RÁM
 10
0.0
 20
0.0
 30
0.0
 70
   128
 71
     3
 72
    -2
 73
     6
  0
VERTEX
  5
EA0
  8
RÁM
 10
0.0
 20
0.0
 30
0.0
 70
   128
 71
     7
 72
     1
 73
    -4
  0
VERTEX
  5
EA1
  8
RÁM
 10
0.0
 20
0.0
 30
0.0
 70
   128
 71
     8
 72
    -7
 73
     4
  0
SEQEND
  5
1325
  8
RÁM
  0
POLYLINE
  5
EA2
  8
RÁM
 66
     1
 10
0.0
 20
0.0
 30
0.0
 70
    64
 71
     8
 72
     6
  0
VERTEX
  5
EA3
  8
RÁM
 10
-81.06392427560927
 20
1986.0
 30
-28.4061807046928
 70
   192
  0
VERTEX
  5
EA4
  8
RÁM
 10
-81.06392427560927
 20
1994.0
 30
-28.4061807046928
 70
   192
  0
VERTEX
  5
EA5
  8
RÁM
 10
-77.7521095943196
 20
1994.0
 30
-22.16823388027846
 70
   192
  0
VERTEX
  5
EA6
  8
RÁM
 10
-77.7521095943196
 20
1986.0
 30
-22.16823388027846
 70
   192
  0
VERTEX
  5
EA7
  8
RÁM
 10
-87.6715124598868
 20
1986.0
 30
-30.90014851812239
 70
   192
  0
VERTEX
  5
EA8
  8
RÁM
 10
-87.6715124598868
 20
1994.0
 30
-30.90014851812239
 70
   192
  0
VERTEX
  5
EA9
  8
RÁM
 10
-79.38795572633359
 20
1994.0
 30
-15.29770955532322
 70
   192
  0
VERTEX
  5
EAA
  8
RÁM
 10
-79.38795572633359
 20
1986.0
 30
-15.29770955532322
 70
   192
  0
VERTEX
  5
EAB
  8
RÁM
 10
0.0
 20
0.0
 30
0.0
 70
   128
 71
     1
 72
     2
 73
    -3
  0
VERTEX
  5
EAC
  8
RÁM
 10
0.0
 20
0.0
 30
0.0
 70
   128
 71
    -1
 72
     3
 73
     4
  0
VERTEX
  5
EAD
  8
RÁM
 10
0.0
 20
0.0
 30
0.0
 70
   128
 71
     5
 72
     6
 73
    -2
  0
VERTEX
  5
EAE
  8
RÁM
 10
0.0
 20
0.0
 30
0.0
 70
   128
 71
    -5
 72
     2
 73
     1
  0
VERTEX
  5
EAF
  8
RÁM
 10
0.0
 20
0.0
 30
0.0
 70
   128
 71
     4
 72
     3
 73
    -7
  0
VERTEX
  5
EB0
  8
RÁM
 10
0.0
 20
0.0
 30
0.0
 70
   128
 71
    -4
 72
     7
 73
     8
  0
SEQEND
  5
1326
  8
RÁM
  0
POLYLINE
  5
EB1
  8
RÁM
 66
     1
 10
0.0
 20
0.0
 30
0.0
 70
    64
 71
    21
 72
    19
  0
VERTEX
  5
EB2
  8
RÁM
 10
-95.95506919344
 20
1994.0
 30
-15.2977095553232
 70
   192
  0
VERTEX
  5
EB3
  8
RÁM
 10
-97.59091532545399
 20
1994.0
 30
-22.16823388027844
 70
   192
  0
VERTEX
  5
EB4
  8
RÁM
 10
-94.27910064416433
 20
1994.0
 30
-28.40618070469279
 70
   192
  0
VERTEX
  5
EB5
  8
RÁM
 10
-87.6715124598868
 20
1994.0
 30
-30.90014851812239
 70
   192
  0
VERTEX
  5
EB6
  8
RÁM
 10
-81.06392427560927
 20
1994.0
 30
-28.4061807046928
 70
   192
  0
VERTEX
  5
EB7
  8
RÁM
 10
-77.7521095943196
 20
1994.0
 30
-22.16823388027846
 70
   192
  0
VERTEX
  5
EB8
  8
RÁM
 10
-79.38795572633359
 20
1994.0
 30
-15.29770955532323
 70
   192
  0
VERTEX
  5
EB9
  8
RÁM
 10
-79.561821612956
 20
1994.0
 30
-14.98292130418256
 70
   192
  0
VERTEX
  5
EBA
  8
RÁM
 10
-79.67650528022509
 20
1994.0
 30
-14.64208608586011
 70
   192
  0
VERTEX
  5
EBB
  8
RÁM
 10
-79.72829897680572
 20
1994.0
 30
-14.28622318728583
 70
   192
  0
VERTEX
  5
EBC
  8
RÁM
 10
-79.82526416514516
 20
1994.0
 30
-12.50895508031171
 70
   192
  0
VERTEX
  5
EBD
  8
RÁM
 10
-79.5954700195822
 20
1994.0
 30
-11.46358264554891
 70
   192
  0
VERTEX
  5
EBE
  8
RÁM
 10
-78.85953560568595
 20
1994.0
 30
-10.68640221917413
 70
   192
  0
VERTEX
  5
EBF
  8
RÁM
 10
-77.82823417276296
 20
1994.0
 30
-10.39999999999989
 70
   192
  0
VERTEX
  5
EC0
  8
RÁM
 10
-97.51479074701064
 20
1994.0
 30
-10.39999999999986
 70
   192
  0
VERTEX
  5
EC1
  8
RÁM
 10
-96.48348931408765
 20
1994.0
 30
-10.6864022191741
 70
   192
  0
VERTEX
  5
EC2
  8
RÁM
 10
-95.74755490019139
 20
1994.0
 30
-11.46358264554887
 70
   192
  0
VERTEX
  5
EC3
  8
RÁM
 10
-95.51776075462851
 20
1994.0
 30
-12.50895508031167
 70
   192
  0
VERTEX
  5
EC4
  8
RÁM
 10
-95.61472594296795
 20
1994.0
 30
-14.28622318728578
 70
   192
  0
VERTEX
  5
EC5
  8
RÁM
 10
-95.66651963954854
 20
1994.0
 30
-14.64208608586009
 70
   192
  0
VERTEX
  5
EC6
  8
RÁM
 10
-95.7812033068176
 20
1994.0
 30
-14.98292130418253
 70
   192
  0
VERTEX
  5
EC7
  8
RÁM
 10
0.0
 20
0.0
 30
0.0
 70
   128
 71
    16
 72
    15
 73
   -14
  0
VERTEX
  5
EC8
  8
RÁM
 10
0.0
 20
0.0
 30
0.0
 70
   128
 71
   -14
 72
    17
 73
   -16
  0
VERTEX
  5
EC9
  8
RÁM
 10
0.0
 20
0.0
 30
0.0
 70
   128
 71
   -14
 72
    18
 73
   -17
  0
VERTEX
  5
ECA
  8
RÁM
 10
0.0
 20
0.0
 30
0.0
 70
   128
 71
     8
 72
    -7
 73
   -19
  0
VERTEX
  5
ECB
  8
RÁM
 10
0.0
 20
0.0
 30
0.0
 70
   128
 71
   -19
 72
     9
 73
    -8
  0
VERTEX
  5
ECC
  8
RÁM
 10
0.0
 20
0.0
 30
0.0
 70
   128
 71
   -19
 72
    10
 73
    -9
  0
VERTEX
  5
ECD
  8
RÁM
 10
0.0
 20
0.0
 30
0.0
 70
   128
 71
    19
 72
   -18
 73
   -11
  0
VERTEX
  5
ECE
  8
RÁM
 10
0.0
 20
0.0
 30
0.0
 70
   128
 71
   -19
 72
    11
 73
   -10
  0
VERTEX
  5
ECF
  8
RÁM
 10
0.0
 20
0.0
 30
0.0
 70
   128
 71
   -18
 72
    12
 73
   -11
  0
VERTEX
  5
ED0
  8
RÁM
 10
0.0
 20
0.0
 30
0.0
 70
   128
 71
   -18
 72
    13
 73
   -12
  0
VERTEX
  5
ED1
  8
RÁM
 10
0.0
 20
0.0
 30
0.0
 70
   128
 71
   -18
 72
    14
 73
   -13
  0
VERTEX
  5
ED2
  8
RÁM
 10
0.0
 20
0.0
 30
0.0
 70
   128
 71
    -7
 72
    20
 73
   -19
  0
VERTEX
  5
ED3
  8
RÁM
 10
0.0
 20
0.0
 30
0.0
 70
   128
 71
     7
 72
    -6
 73
   -21
  0
VERTEX
  5
ED4
  8
RÁM
 10
0.0
 20
0.0
 30
0.0
 70
   128
 71
    -7
 72
    21
 73
   -20
  0
VERTEX
  5
ED5
  8
RÁM
 10
0.0
 20
0.0
 30
0.0
 70
   128
 71
     6
 72
     5
 73
    -4
  0
VERTEX
  5
ED6
  8
RÁM
 10
0.0
 20
0.0
 30
0.0
 70
   128
 71
    -6
 72
     4
 73
    -3
  0
VERTEX
  5
ED7
  8
RÁM
 10
0.0
 20
0.0
 30
0.0
 70
   128
 71
    -6
 72
     3
 73
    -2
  0
VERTEX
  5
ED8
  8
RÁM
 10
0.0
 20
0.0
 30
0.0
 70
   128
 71
    -6
 72
     2
 73
    -1
  0
VERTEX
  5
ED9
  8
RÁM
 10
0.0
 20
0.0
 30
0.0
 70
   128
 71
    -6
 72
     1
 73
   -21
  0
SEQEND
  5
1327
  8
RÁM
  0
POLYLINE
  5
EDA
  8
RÁM
 66
     1
 10
0.0
 20
0.0
 30
0.0
 70
    64
 71
     4
 72
     2
  0
VERTEX
  5
EDB
  8
RÁM
 10
-112.6715124598868
 20
2001.5
 30
5.600000000000108
 70
   192
  0
VERTEX
  5
EDC
  8
RÁM
 10
-62.67151245988686
 20
2001.5
 30
5.600000000000108
 70
   192
  0
VERTEX
  5
EDD
  8
RÁM
 10
-62.67151245988686
 20
1986.0
 30
5.600000000000108
 70
   192
  0
VERTEX
  5
EDE
  8
RÁM
 10
-112.6715124598868
 20
1986.0
 30
5.600000000000108
 70
   192
  0
VERTEX
  5
EDF
  8
RÁM
 10
0.0
 20
0.0
 30
0.0
 70
   128
 71
     3
 72
     4
 73
    -1
  0
VERTEX
  5
EE0
  8
RÁM
 10
0.0
 20
0.0
 30
0.0
 70
   128
 71
     2
 72
    -3
 73
     1
  0
SEQEND
  5
1328
  8
RÁM
  0
POLYLINE
  5
EE1
  8
RÁM
 66
     1
 10
0.0
 20
0.0
 30
0.0
 70
    64
 71
     4
 72
     2
  0
VERTEX
  5
EE2
  8
RÁM
 10
-112.6715124598868
 20
2001.5
 30
-5.899999999999892
 70
   192
  0
VERTEX
  5
EE3
  8
RÁM
 10
-62.67151245988686
 20
2001.5
 30
-5.899999999999892
 70
   192
  0
VERTEX
  5
EE4
  8
RÁM
 10
-62.67151245988686
 20
1986.0
 30
-5.899999999999892
 70
   192
  0
VERTEX
  5
EE5
  8
RÁM
 10
-112.6715124598868
 20
1986.0
 30
-5.899999999999892
 70
   192
  0
VERTEX
  5
EE6
  8
RÁM
 10
0.0
 20
0.0
 30
0.0
 70
   128
 71
     1
 72
     4
 73
    -3
  0
VERTEX
  5
EE7
  8
RÁM
 10
0.0
 20
0.0
 30
0.0
 70
   128
 71
    -1
 72
     3
 73
     2
  0
SEQEND
  5
1329
  8
RÁM
  0
POLYLINE
  5
EE8
  8
RÁM
 66
     1
 10
0.0
 20
0.0
 30
0.0
 70
    64
 71
     4
 72
     2
  0
VERTEX
  5
EE9
  8
RÁM
 10
-112.6715124598868
 20
2001.5
 30
-5.899999999999892
 70
   192
  0
VERTEX
  5
EEA
  8
RÁM
 10
-62.67151245988686
 20
2001.5
 30
-5.899999999999892
 70
   192
  0
VERTEX
  5
EEB
  8
RÁM
 10
-62.67151245988686
 20
2001.5
 30
5.600000000000108
 70
   192
  0
VERTEX
  5
EEC
  8
RÁM
 10
-112.6715124598868
 20
2001.5
 30
5.600000000000108
 70
   192
  0
VERTEX
  5
EED
  8
RÁM
 10
0.0
 20
0.0
 30
0.0
 70
   128
 71
     3
 72
     4
 73
    -1
  0
VERTEX
  5
EEE
  8
RÁM
 10
0.0
 20
0.0
 30
0.0
 70
   128
 71
     2
 72
    -3
 73
     1
  0
SEQEND
  5
132A
  8
RÁM
  0
ENDBLK
  5
1317
  8
0
  0
BLOCK
  8
0
  2
*X7
 70
     1
 10
0.0
 20
0.0
 30
0.0
  3
*X7
  1

  0
POLYLINE
  5
EF0
  8
RÁM
 66
     1
 10
0.0
 20
0.0
 30
0.0
 70
    64
 71
     4
 72
     2
  0
VERTEX
  5
EF1
  8
RÁM
 10
-112.6715124598868
 20
2000.0
 30
4.10000000000008
 70
   192
  0
VERTEX
  5
EF2
  8
RÁM
 10
-112.6715124598868
 20
2000.0
 30
-5.39999999999992
 70
   192
  0
VERTEX
  5
EF3
  8
RÁM
 10
-62.67151245988686
 20
2000.0
 30
-5.399999999999892
 70
   192
  0
VERTEX
  5
EF4
  8
RÁM
 10
-62.67151245988686
 20
2000.0
 30
4.10000000000008
 70
   192
  0
VERTEX
  5
EF5
  8
RÁM
 10
0.0
 20
0.0
 30
0.0
 70
   128
 71
     3
 72
     4
 73
    -1
  0
VERTEX
  5
EF6
  8
RÁM
 10
0.0
 20
0.0
 30
0.0
 70
   128
 71
     2
 72
    -3
 73
     1
  0
SEQEND
  5
132D
  8
RÁM
  0
POLYLINE
  5
EF7
  8
RÁM
 66
     1
 10
0.0
 20
0.0
 30
0.0
 70
    64
 71
     4
 72
     2
  0
VERTEX
  5
EF8
  8
RÁM
 10
-112.6715124598868
 20
1986.5
 30
4.100000000000108
 70
   192
  0
VERTEX
  5
EF9
  8
RÁM
 10
-112.6715124598868
 20
2000.0
 30
4.100000000000108
 70
   192
  0
VERTEX
  5
EFA
  8
RÁM
 10
-62.67151245988686
 20
2000.0
 30
4.100000000000108
 70
   192
  0
VERTEX
  5
EFB
  8
RÁM
 10
-62.67151245988686
 20
1986.5
 30
4.100000000000108
 70
   192
  0
VERTEX
  5
EFC
  8
RÁM
 10
0.0
 20
0.0
 30
0.0
 70
   128
 71
     3
 72
     4
 73
    -1
  0
VERTEX
  5
EFD
  8
RÁM
 10
0.0
 20
0.0
 30
0.0
 70
   128
 71
     2
 72
    -3
 73
     1
  0
SEQEND
  5
132E
  8
RÁM
  0
POLYLINE
  5
EFE
  8
RÁM
 66
     1
 10
0.0
 20
0.0
 30
0.0
 70
    64
 71
     4
 72
     2
  0
VERTEX
  5
EFF
  8
RÁM
 10
-112.6715124598868
 20
1986.5
 30
5.600000000000108
 70
   192
  0
VERTEX
  5
F00
  8
RÁM
 10
-112.6715124598868
 20
1986.5
 30
4.10000000000008
 70
   192
  0
VERTEX
  5
F01
  8
RÁM
 10
-62.67151245988686
 20
1986.5
 30
4.100000000000108
 70
   192
  0
VERTEX
  5
F02
  8
RÁM
 10
-62.67151245988686
 20
1986.5
 30
5.600000000000108
 70
   192
  0
VERTEX
  5
F03
  8
RÁM
 10
0.0
 20
0.0
 30
0.0
 70
   128
 71
     3
 72
     4
 73
    -1
  0
VERTEX
  5
F04
  8
RÁM
 10
0.0
 20
0.0
 30
0.0
 70
   128
 71
     2
 72
    -3
 73
     1
  0
SEQEND
  5
132F
  8
RÁM
  0
POLYLINE
  5
F05
  8
RÁM
 66
     1
 10
0.0
 20
0.0
 30
0.0
 70
    64
 71
     4
 72
     2
  0
VERTEX
  5
F06
  8
RÁM
 10
-62.67151245988686
 20
2001.5
 30
5.600000000000108
 70
   192
  0
VERTEX
  5
F07
  8
RÁM
 10
-62.67151245988686
 20
1986.5
 30
5.600000000000108
 70
   192
  0
VERTEX
  5
F08
  8
RÁM
 10
-112.6715124598868
 20
1986.5
 30
5.600000000000108
 70
   192
  0
VERTEX
  5
F09
  8
RÁM
 10
-112.6715124598868
 20
2001.5
 30
5.600000000000108
 70
   192
  0
VERTEX
  5
F0A
  8
RÁM
 10
0.0
 20
0.0
 30
0.0
 70
   128
 71
     1
 72
     4
 73
    -3
  0
VERTEX
  5
F0B
  8
RÁM
 10
0.0
 20
0.0
 30
0.0
 70
   128
 71
    -1
 72
     3
 73
     2
  0
SEQEND
  5
1330
  8
RÁM
  0
POLYLINE
  5
F0C
  8
RÁM
 66
     1
 10
0.0
 20
0.0
 30
0.0
 70
    64
 71
     4
 72
     2
  0
VERTEX
  5
F0D
  8
RÁM
 10
-62.67151245988686
 20
2001.5
 30
-5.39999999999992
 70
   192
  0
VERTEX
  5
F0E
  8
RÁM
 10
-62.67151245988686
 20
2001.5
 30
5.600000000000108
 70
   192
  0
VERTEX
  5
F0F
  8
RÁM
 10
-112.6715124598868
 20
2001.5
 30
5.600000000000108
 70
   192
  0
VERTEX
  5
F10
  8
RÁM
 10
-112.6715124598868
 20
2001.5
 30
-5.399999999999892
 70
   192
  0
VERTEX
  5
F11
  8
RÁM
 10
0.0
 20
0.0
 30
0.0
 70
   128
 71
     1
 72
     4
 73
    -3
  0
VERTEX
  5
F12
  8
RÁM
 10
0.0
 20
0.0
 30
0.0
 70
   128
 71
    -1
 72
     3
 73
     2
  0
SEQEND
  5
1331
  8
RÁM
  0
POLYLINE
  5
F13
  8
RÁM
 66
     1
 10
0.0
 20
0.0
 30
0.0
 70
    64
 71
     4
 72
     2
  0
VERTEX
  5
F14
  8
RÁM
 10
-112.6715124598868
 20
2000.0
 30
-5.399999999999892
 70
   192
  0
VERTEX
  5
F15
  8
RÁM
 10
-112.6715124598868
 20
2001.5
 30
-5.399999999999892
 70
   192
  0
VERTEX
  5
F16
  8
RÁM
 10
-62.67151245988686
 20
2001.5
 30
-5.399999999999892
 70
   192
  0
VERTEX
  5
F17
  8
RÁM
 10
-62.67151245988686
 20
2000.0
 30
-5.399999999999892
 70
   192
  0
VERTEX
  5
F18
  8
RÁM
 10
0.0
 20
0.0
 30
0.0
 70
   128
 71
     3
 72
     4
 73
    -1
  0
VERTEX
  5
F19
  8
RÁM
 10
0.0
 20
0.0
 30
0.0
 70
   128
 71
     2
 72
    -3
 73
     1
  0
SEQEND
  5
1332
  8
RÁM
  0
POLYLINE
  5
F1A
  8
RÁM
 66
     1
 10
0.0
 20
0.0
 30
0.0
 70
    64
 71
     6
 72
     4
  0
VERTEX
  5
F1B
  8
RÁM
 10
-62.67151245988686
 20
2000.0
 30
4.10000000000008
 70
   192
  0
VERTEX
  5
F1C
  8
RÁM
 10
-62.67151245988686
 20
2000.0
 30
-5.39999999999992
 70
   192
  0
VERTEX
  5
F1D
  8
RÁM
 10
-62.67151245988686
 20
2001.5
 30
-5.399999999999892
 70
   192
  0
VERTEX
  5
F1E
  8
RÁM
 10
-62.67151245988686
 20
2001.5
 30
5.600000000000108
 70
   192
  0
VERTEX
  5
F1F
  8
RÁM
 10
-62.67151245988686
 20
1986.5
 30
5.600000000000108
 70
   192
  0
VERTEX
  5
F20
  8
RÁM
 10
-62.67151245988686
 20
1986.5
 30
4.10000000000008
 70
   192
  0
VERTEX
  5
F21
  8
RÁM
 10
0.0
 20
0.0
 30
0.0
 70
   128
 71
     5
 72
     6
 73
    -1
  0
VERTEX
  5
F22
  8
RÁM
 10
0.0
 20
0.0
 30
0.0
 70
   128
 71
     4
 72
    -5
 73
    -1
  0
VERTEX
  5
F23
  8
RÁM
 10
0.0
 20
0.0
 30
0.0
 70
   128
 71
     2
 72
     3
 73
    -4
  0
VERTEX
  5
F24
  8
RÁM
 10
0.0
 20
0.0
 30
0.0
 70
   128
 71
     1
 72
    -2
 73
    -4
  0
SEQEND
  5
1333
  8
RÁM
  0
POLYLINE
  5
F25
  8
RÁM
 66
     1
 10
0.0
 20
0.0
 30
0.0
 70
    64
 71
     6
 72
     4
  0
VERTEX
  5
F26
  8
RÁM
 10
-112.6715124598868
 20
2000.0
 30
-5.399999999999892
 70
   192
  0
VERTEX
  5
F27
  8
RÁM
 10
-112.6715124598868
 20
2001.5
 30
-5.39999999999992
 70
   192
  0
VERTEX
  5
F28
  8
RÁM
 10
-112.6715124598868
 20
2001.5
 30
5.600000000000108
 70
   192
  0
VERTEX
  5
F29
  8
RÁM
 10
-112.6715124598868
 20
1986.5
 30
5.600000000000108
 70
   192
  0
VERTEX
  5
F2A
  8
RÁM
 10
-112.6715124598868
 20
1986.5
 30
4.100000000000108
 70
   192
  0
VERTEX
  5
F2B
  8
RÁM
 10
-112.6715124598868
 20
2000.0
 30
4.10000000000008
 70
   192
  0
VERTEX
  5
F2C
  8
RÁM
 10
0.0
 20
0.0
 30
0.0
 70
   128
 71
     6
 72
     5
 73
    -4
  0
VERTEX
  5
F2D
  8
RÁM
 10
0.0
 20
0.0
 30
0.0
 70
   128
 71
    -6
 72
     4
 73
    -3
  0
VERTEX
  5
F2E
  8
RÁM
 10
0.0
 20
0.0
 30
0.0
 70
   128
 71
     3
 72
     2
 73
    -1
  0
VERTEX
  5
F2F
  8
RÁM
 10
0.0
 20
0.0
 30
0.0
 70
   128
 71
    -3
 72
     1
 73
    -6
  0
SEQEND
  5
1334
  8
RÁM
  0
ENDBLK
  5
132C
  8
0
  0
BLOCK
  8
0
  2
*X8
 70
     1
 10
0.0
 20
0.0
 30
0.0
  3
*X8
  1

  0
POLYLINE
  5
F31
  8
RÁM
 66
     1
 10
0.0
 20
0.0
 30
0.0
 70
    64
 71
     8
 72
     6
  0
VERTEX
  5
F32
  8
RÁM
 10
485.7450000000005
 20
1989.236860279186
 30
-370.1499999999967
 70
   192
  0
VERTEX
  5
F33
  8
RÁM
 10
484.7450000000005
 20
1989.236860279186
 30
-370.1499999999966
 70
   192
  0
VERTEX
  5
F34
  8
RÁM
 10
484.7450000000005
 20
1991.25
 30
-372.163139720811
 70
   192
  0
VERTEX
  5
F35
  8
RÁM
 10
485.7450000000005
 20
1991.25
 30
-372.163139720811
 70
   192
  0
VERTEX
  5
F36
  8
RÁM
 10
485.7450000000005
 20
1988.5
 30
-367.3999999999967
 70
   192
  0
VERTEX
  5
F37
  8
RÁM
 10
484.7450000000005
 20
1988.5
 30
-367.3999999999966
 70
   192
  0
VERTEX
  5
F38
  8
RÁM
 10
484.7450000000005
 20
1994.0
 30
-372.8999999999966
 70
   192
  0
VERTEX
  5
F39
  8
RÁM
 10
485.7450000000005
 20
1994.0
 30
-372.8999999999966
 70
   192
  0
VERTEX
  5
F3A
  8
RÁM
 10
0.0
 20
0.0
 30
0.0
 70
   128
 71
     1
 72
     2
 73
    -3
  0
VERTEX
  5
F3B
  8
RÁM
 10
0.0
 20
0.0
 30
0.0
 70
   128
 71
    -1
 72
     3
 73
     4
  0
VERTEX
  5
F3C
  8
RÁM
 10
0.0
 20
0.0
 30
0.0
 70
   128
 71
     5
 72
     6
 73
    -2
  0
VERTEX
  5
F3D
  8
RÁM
 10
0.0
 20
0.0
 30
0.0
 70
   128
 71
    -5
 72
     2
 73
     1
  0
VERTEX
  5
F3E
  8
RÁM
 10
0.0
 20
0.0
 30
0.0
 70
   128
 71
     4
 72
     3
 73
    -7
  0
VERTEX
  5
F3F
  8
RÁM
 10
0.0
 20
0.0
 30
0.0
 70
   128
 71
    -4
 72
     7
 73
     8
  0
SEQEND
  5
1337
  8
RÁM
  0
POLYLINE
  5
F40
  8
RÁM
 66
     1
 10
0.0
 20
0.0
 30
0.0
 70
    64
 71
     8
 72
     6
  0
VERTEX
  5
F41
  8
RÁM
 10
485.7450000000004
 20
1989.236860279186
 30
-332.1499999999966
 70
   192
  0
VERTEX
  5
F42
  8
RÁM
 10
484.7450000000004
 20
1989.236860279186
 30
-332.1499999999966
 70
   192
  0
VERTEX
  5
F43
  8
RÁM
 10
484.7450000000004
 20
1991.25
 30
-334.163139720811
 70
   192
  0
VERTEX
  5
F44
  8
RÁM
 10
485.7450000000004
 20
1991.25
 30
-334.163139720811
 70
   192
  0
VERTEX
  5
F45
  8
RÁM
 10
485.7450000000004
 20
1988.5
 30
-329.3999999999967
 70
   192
  0
VERTEX
  5
F46
  8
RÁM
 10
484.7450000000004
 20
1988.5
 30
-329.3999999999966
 70
   192
  0
VERTEX
  5
F47
  8
RÁM
 10
484.7450000000004
 20
1994.0
 30
-334.8999999999966
 70
   192
  0
VERTEX
  5
F48
  8
RÁM
 10
485.7450000000004
 20
1994.0
 30
-334.8999999999966
 70
   192
  0
VERTEX
  5
F49
  8
RÁM
 10
0.0
 20
0.0
 30
0.0
 70
   128
 71
     1
 72
     2
 73
    -3
  0
VERTEX
  5
F4A
  8
RÁM
 10
0.0
 20
0.0
 30
0.0
 70
   128
 71
    -1
 72
     3
 73
     4
  0
VERTEX
  5
F4B
  8
RÁM
 10
0.0
 20
0.0
 30
0.0
 70
   128
 71
     5
 72
     6
 73
    -2
  0
VERTEX
  5
F4C
  8
RÁM
 10
0.0
 20
0.0
 30
0.0
 70
   128
 71
    -5
 72
     2
 73
     1
  0
VERTEX
  5
F4D
  8
RÁM
 10
0.0
 20
0.0
 30
0.0
 70
   128
 71
     4
 72
     3
 73
    -7
  0
VERTEX
  5
F4E
  8
RÁM
 10
0.0
 20
0.0
 30
0.0
 70
   128
 71
    -4
 72
     7
 73
     8
  0
SEQEND
  5
1338
  8
RÁM
  0
POLYLINE
  5
F4F
  8
RÁM
 66
     1
 10
0.0
 20
0.0
 30
0.0
 70
    64
 71
     8
 72
     6
  0
VERTEX
  5
F50
  8
RÁM
 10
485.7450000000001
 20
1995.948557158515
 30
-330.5249999999966
 70
   192
  0
VERTEX
  5
F51
  8
RÁM
 10
485.7450000000001
 20
1995.125
 30
-331.3485571585115
 70
   192
  0
VERTEX
  5
F52
  8
RÁM
 10
493.7450000000002
 20
1995.125
 30
-331.3485571585115
 70
   192
  0
VERTEX
  5
F53
  8
RÁM
 10
493.7450000000002
 20
1995.948557158515
 30
-330.5249999999966
 70
   192
  0
VERTEX
  5
F54
  8
RÁM
 10
485.7450000000001
 20
1994.0
 30
-331.6499999999966
 70
   192
  0
VERTEX
  5
F55
  8
RÁM
 10
493.7450000000002
 20
1994.0
 30
-331.6499999999966
 70
   192
  0
VERTEX
  5
F56
  8
RÁM
 10
485.7450000000001
 20
1996.25
 30
-329.3999999999966
 70
   192
  0
VERTEX
  5
F57
  8
RÁM
 10
493.7450000000002
 20
1996.25
 30
-329.3999999999966
 70
   192
  0
VERTEX
  5
F58
  8
RÁM
 10
0.0
 20
0.0
 30
0.0
 70
   128
 71
     1
 72
     2
 73
    -3
  0
VERTEX
  5
F59
  8
RÁM
 10
0.0
 20
0.0
 30
0.0
 70
   128
 71
     4
 72
    -1
 73
     3
  0
VERTEX
  5
F5A
  8
RÁM
 10
0.0
 20
0.0
 30
0.0
 70
   128
 71
     2
 72
     5
 73
    -6
  0
VERTEX
  5
F5B
  8
RÁM
 10
0.0
 20
0.0
 30
0.0
 70
   128
 71
     3
 72
    -2
 73
     6
  0
VERTEX
  5
F5C
  8
RÁM
 10
0.0
 20
0.0
 30
0.0
 70
   128
 71
     7
 72
     1
 73
    -4
  0
VERTEX
  5
F5D
  8
RÁM
 10
0.0
 20
0.0
 30
0.0
 70
   128
 71
     8
 72
    -7
 73
     4
  0
SEQEND
  5
1339
  8
RÁM
  0
POLYLINE
  5
F5E
  8
RÁM
 66
     1
 10
0.0
 20
0.0
 30
0.0
 70
    64
 71
     8
 72
     6
  0
VERTEX
  5
F5F
  8
RÁM
 10
485.7450000000001
 20
1995.948557158515
 30
-368.5249999999966
 70
   192
  0
VERTEX
  5
F60
  8
RÁM
 10
485.7450000000001
 20
1995.125
 30
-369.3485571585116
 70
   192
  0
VERTEX
  5
F61
  8
RÁM
 10
493.7450000000002
 20
1995.125
 30
-369.3485571585116
 70
   192
  0
VERTEX
  5
F62
  8
RÁM
 10
493.7450000000002
 20
1995.948557158515
 30
-368.5249999999966
 70
   192
  0
VERTEX
  5
F63
  8
RÁM
 10
485.7450000000001
 20
1994.0
 30
-369.6499999999966
 70
   192
  0
VERTEX
  5
F64
  8
RÁM
 10
493.7450000000002
 20
1994.0
 30
-369.6499999999966
 70
   192
  0
VERTEX
  5
F65
  8
RÁM
 10
485.7450000000001
 20
1996.25
 30
-367.3999999999966
 70
   192
  0
VERTEX
  5
F66
  8
RÁM
 10
493.7450000000002
 20
1996.25
 30
-367.3999999999966
 70
   192
  0
VERTEX
  5
F67
  8
RÁM
 10
0.0
 20
0.0
 30
0.0
 70
   128
 71
     1
 72
     2
 73
    -3
  0
VERTEX
  5
F68
  8
RÁM
 10
0.0
 20
0.0
 30
0.0
 70
   128
 71
     4
 72
    -1
 73
     3
  0
VERTEX
  5
F69
  8
RÁM
 10
0.0
 20
0.0
 30
0.0
 70
   128
 71
     2
 72
     5
 73
    -6
  0
VERTEX
  5
F6A
  8
RÁM
 10
0.0
 20
0.0
 30
0.0
 70
   128
 71
     3
 72
    -2
 73
     6
  0
VERTEX
  5
F6B
  8
RÁM
 10
0.0
 20
0.0
 30
0.0
 70
   128
 71
     7
 72
     1
 73
    -4
  0
VERTEX
  5
F6C
  8
RÁM
 10
0.0
 20
0.0
 30
0.0
 70
   128
 71
     8
 72
    -7
 73
     4
  0
SEQEND
  5
133A
  8
RÁM
  0
POLYLINE
  5
F6D
  8
RÁM
 66
     1
 10
0.0
 20
0.0
 30
0.0
 70
    64
 71
    11
 72
     9
  0
VERTEX
  5
F6E
  8
RÁM
 10
480.7445883324414
 20
1986.0
 30
-337.5479045408807
 70
   192
  0
VERTEX
  5
F6F
  8
RÁM
 10
480.3824403930769
 20
1994.0
 30
-337.3203918159306
 70
   192
  0
VERTEX
  5
F70
  8
RÁM
 10
480.1978005468198
 20
1994.0
 30
-337.2124953451529
 70
   192
  0
VERTEX
  5
F71
  8
RÁM
 10
480.5647307767291
 20
1994.0
 30
-337.4322119270917
 70
   192
  0
VERTEX
  5
F72
  8
RÁM
 10
480.7445883324414
 20
1994.0
 30
-337.5479045408807
 70
   192
  0
VERTEX
  5
F73
  8
RÁM
 10
479.0303177421421
 20
1986.0
 30
-336.6439565701323
 70
   192
  0
VERTEX
  5
F74
  8
RÁM
 10
478.6310866211526
 20
1994.0
 30
-336.4905692107001
 70
   192
  0
VERTEX
  5
F75
  8
RÁM
 10
476.9636135430266
 20
1994.0
 30
-336.0486377655523
 70
   192
  0
VERTEX
  5
F76
  8
RÁM
 10
477.1738806852258
 20
1986.0
 30
-336.087640972389
 70
   192
  0
VERTEX
  5
F77
  8
RÁM
 10
475.245
 20
1994.0
 30
-335.899851481874
 70
   192
  0
VERTEX
  5
F78
  8
RÁM
 10
475.245
 20
1986.0
 30
-335.899851481874
 70
   192
  0
VERTEX
  5
F79
  8
RÁM
 10
0.0
 20
0.0
 30
0.0
 70
   128
 71
     1
 72
     2
 73
     3
  0
VERTEX
  5
F7A
  8
RÁM
 10
0.0
 20
0.0
 30
0.0
 70
   128
 71
     1
 72
     4
 73
     2
  0
VERTEX
  5
F7B
  8
RÁM
 10
0.0
 20
0.0
 30
0.0
 70
   128
 71
     1
 72
     5
 73
     4
  0
VERTEX
  5
F7C
  8
RÁM
 10
0.0
 20
0.0
 30
0.0
 70
   128
 71
     6
 72
     7
 73
     8
  0
VERTEX
  5
F7D
  8
RÁM
 10
0.0
 20
0.0
 30
0.0
 70
   128
 71
     6
 72
     8
 73
     9
  0
VERTEX
  5
F7E
  8
RÁM
 10
0.0
 20
0.0
 30
0.0
 70
   128
 71
     1
 72
     3
 73
     7
  0
VERTEX
  5
F7F
  8
RÁM
 10
0.0
 20
0.0
 30
0.0
 70
   128
 71
     1
 72
     7
 73
     6
  0
VERTEX
  5
F80
  8
RÁM
 10
0.0
 20
0.0
 30
0.0
 70
   128
 71
     9
 72
     8
 73
    10
  0
VERTEX
  5
F81
  8
RÁM
 10
0.0
 20
0.0
 30
0.0
 70
   128
 71
     9
 72
    10
 73
    11
  0
SEQEND
  5
133B
  8
RÁM
  0
POLYLINE
  5
F82
  8
RÁM
 66
     1
 10
0.0
 20
0.0
 30
0.0
 70
    64
 71
    13
 72
    11
  0
VERTEX
  5
F83
  8
RÁM
 10
468.1738271699629
 20
1986.0
 30
-338.8288271699595
 70
   192
  0
VERTEX
  5
F84
  8
RÁM
 10
475.245
 20
1986.0
 30
-335.899851481874
 70
   192
  0
VERTEX
  5
F85
  8
RÁM
 10
475.245
 20
1994.0
 30
-335.899851481874
 70
   192
  0
VERTEX
  5
F86
  8
RÁM
 10
469.1681106827579
 20
1994.0
 30
-337.9580615331928
 70
   192
  0
VERTEX
  5
F87
  8
RÁM
 10
465.9905020709965
 20
1994.0
 30
-349.6890946763778
 70
   192
  0
VERTEX
  5
F88
  8
RÁM
 10
468.1738271699629
 20
1986.0
 30
-352.9711728300337
 70
   192
  0
VERTEX
  5
F89
  8
RÁM
 10
465.2448514818774
 20
1986.0
 30
-345.8999999999966
 70
   192
  0
VERTEX
  5
F8A
  8
RÁM
 10
473.4906041409872
 20
1994.0
 30
-355.7450528467003
 70
   192
  0
VERTEX
  5
F8B
  8
RÁM
 10
475.245
 20
1994.0
 30
-355.9001485181192
 70
   192
  0
VERTEX
  5
F8C
  8
RÁM
 10
475.245
 20
1986.0
 30
-355.9001485181192
 70
   192
  0
VERTEX
  5
F8D
  8
RÁM
 10
471.7906273144907
 20
1994.0
 30
-355.2845766944521
 70
   192
  0
VERTEX
  5
F8E
  8
RÁM
 10
470.1978005468198
 20
1994.0
 30
-354.533003420842
 70
   192
  0
VERTEX
  5
F8F
  8
RÁM
 10
465.5926871489154
 20
1994.0
 30
-343.2854585470267
 70
   192
  0
VERTEX
  5
F90
  8
RÁM
 10
0.0
 20
0.0
 30
0.0
 70
   128
 71
     1
 72
     2
 73
     3
  0
VERTEX
  5
F91
  8
RÁM
 10
0.0
 20
0.0
 30
0.0
 70
   128
 71
     1
 72
     3
 73
     4
  0
VERTEX
  5
F92
  8
RÁM
 10
0.0
 20
0.0
 30
0.0
 70
   128
 71
     5
 72
     6
 73
     7
  0
VERTEX
  5
F93
  8
RÁM
 10
0.0
 20
0.0
 30
0.0
 70
   128
 71
     8
 72
     9
 73
    10
  0
VERTEX
  5
F94
  8
RÁM
 10
0.0
 20
0.0
 30
0.0
 70
   128
 71
    10
 72
    11
 73
     8
  0
VERTEX
  5
F95
  8
RÁM
 10
0.0
 20
0.0
 30
0.0
 70
   128
 71
    10
 72
     6
 73
    12
  0
VERTEX
  5
F96
  8
RÁM
 10
0.0
 20
0.0
 30
0.0
 70
   128
 71
    10
 72
    12
 73
    11
  0
VERTEX
  5
F97
  8
RÁM
 10
0.0
 20
0.0
 30
0.0
 70
   128
 71
    13
 72
     5
 73
     7
  0
VERTEX
  5
F98
  8
RÁM
 10
0.0
 20
0.0
 30
0.0
 70
   128
 71
     4
 72
    13
 73
     7
  0
VERTEX
  5
F99
  8
RÁM
 10
0.0
 20
0.0
 30
0.0
 70
   128
 71
     4
 72
     7
 73
     1
  0
VERTEX
  5
F9A
  8
RÁM
 10
0.0
 20
0.0
 30
0.0
 70
   128
 71
     5
 72
    12
 73
     6
  0
SEQEND
  5
133C
  8
RÁM
  0
POLYLINE
  5
F9B
  8
RÁM
 66
     1
 10
0.0
 20
0.0
 30
0.0
 70
    64
 71
     8
 72
     6
  0
VERTEX
  5
F9C
  8
RÁM
 10
481.8861079624798
 20
1994.0
 30
-337.8770771898484
 70
   192
  0
VERTEX
  5
F9D
  8
RÁM
 10
481.8652999395032
 20
1994.0
 30
-337.8774019876113
 70
   192
  0
VERTEX
  5
F9E
  8
RÁM
 10
481.8652999395032
 20
1986.0
 30
-337.8774019876113
 70
   192
  0
VERTEX
  5
F9F
  8
RÁM
 10
481.8861079624798
 20
1986.0
 30
-337.8770771898484
 70
   192
  0
VERTEX
  5
FA0
  8
RÁM
 10
481.8444896634016
 20
1994.0
 30
-337.8775102574398
 70
   192
  0
VERTEX
  5
FA1
  8
RÁM
 10
481.8444896634016
 20
1986.0
 30
-337.8775102574398
 70
   192
  0
VERTEX
  5
FA2
  8
RÁM
 10
481.9069114794503
 20
1994.0
 30
-337.8765358993167
 70
   192
  0
VERTEX
  5
FA3
  8
RÁM
 10
481.9069114794503
 20
1986.0
 30
-337.8765358993167
 70
   192
  0
VERTEX
  5
FA4
  8
RÁM
 10
0.0
 20
0.0
 30
0.0
 70
   128
 71
     1
 72
     2
 73
    -3
  0
VERTEX
  5
FA5
  8
RÁM
 10
0.0
 20
0.0
 30
0.0
 70
   128
 71
     4
 72
    -1
 73
     3
  0
VERTEX
  5
FA6
  8
RÁM
 10
0.0
 20
0.0
 30
0.0
 70
   128
 71
     2
 72
     5
 73
    -6
  0
VERTEX
  5
FA7
  8
RÁM
 10
0.0
 20
0.0
 30
0.0
 70
   128
 71
     3
 72
    -2
 73
     6
  0
VERTEX
  5
FA8
  8
RÁM
 10
0.0
 20
0.0
 30
0.0
 70
   128
 71
     7
 72
     1
 73
    -4
  0
VERTEX
  5
FA9
  8
RÁM
 10
0.0
 20
0.0
 30
0.0
 70
   128
 71
     8
 72
    -7
 73
     4
  0
SEQEND
  5
133D
  8
RÁM
  0
POLYLINE
  5
FAA
  8
RÁM
 66
     1
 10
0.0
 20
0.0
 30
0.0
 70
    64
 71
     8
 72
     6
  0
VERTEX
  5
FAB
  8
RÁM
 10
471.8247985667431
 20
1994.0
 30
-355.2969262078557
 70
   192
  0
VERTEX
  5
FAC
  8
RÁM
 10
471.8247985667431
 20
2006.0
 30
-355.2969262078557
 70
   192
  0
VERTEX
  5
FAD
  8
RÁM
 10
473.5085182233306
 20
2006.0
 30
-355.7480775301188
 70
   192
  0
VERTEX
  5
FAE
  8
RÁM
 10
473.5085182233306
 20
1994.0
 30
-355.7480775301188
 70
   192
  0
VERTEX
  5
FAF
  8
RÁM
 10
470.2449999999997
 20
1994.0
 30
-354.5602540378409
 70
   192
  0
VERTEX
  5
FB0
  8
RÁM
 10
470.2449999999997
 20
2006.0
 30
-354.5602540378409
 70
   192
  0
VERTEX
  5
FB1
  8
RÁM
 10
475.245
 20
2006.0
 30
-355.8999999999967
 70
   192
  0
VERTEX
  5
FB2
  8
RÁM
 10
475.245
 20
1994.0
 30
-355.8999999999967
 70
   192
  0
VERTEX
  5
FB3
  8
RÁM
 10
0.0
 20
0.0
 30
0.0
 70
   128
 71
     1
 72
     2
 73
    -3
  0
VERTEX
  5
FB4
  8
RÁM
 10
0.0
 20
0.0
 30
0.0
 70
   128
 71
    -1
 72
     3
 73
     4
  0
VERTEX
  5
FB5
  8
RÁM
 10
0.0
 20
0.0
 30
0.0
 70
   128
 71
     5
 72
     6
 73
    -2
  0
VERTEX
  5
FB6
  8
RÁM
 10
0.0
 20
0.0
 30
0.0
 70
   128
 71
    -5
 72
     2
 73
     1
  0
VERTEX
  5
FB7
  8
RÁM
 10
0.0
 20
0.0
 30
0.0
 70
   128
 71
     4
 72
     3
 73
    -7
  0
VERTEX
  5
FB8
  8
RÁM
 10
0.0
 20
0.0
 30
0.0
 70
   128
 71
    -4
 72
     7
 73
     8
  0
SEQEND
  5
133E
  8
RÁM
  0
POLYLINE
  5
FB9
  8
RÁM
 66
     1
 10
0.0
 20
0.0
 30
0.0
 70
    64
 71
    12
 72
    10
  0
VERTEX
  5
FBA
  8
RÁM
 10
-88.71679709256321
 20
1994.0
 30
-10.95478104631697
 70
   192
  0
VERTEX
  5
FBB
  8
RÁM
 10
-82.67151245988651
 20
1994.0
 30
-12.23974596215548
 70
   192
  0
VERTEX
  5
FBC
  8
RÁM
 10
-82.67151245988651
 20
2006.0
 30
-12.23974596215547
 70
   192
  0
VERTEX
  5
FBD
  8
RÁM
 10
-88.71679709256321
 20
2006.0
 30
-10.95478104631697
 70
   192
  0
VERTEX
  5
FBE
  8
RÁM
 10
-96.80696703631278
 20
2006.0
 30
-24.96736643075807
 70
   192
  0
VERTEX
  5
FBF
  8
RÁM
 10
-92.67151245988651
 20
2006.0
 30
-29.56025403784446
 70
   192
  0
VERTEX
  5
FC0
  8
RÁM
 10
-92.67151245988651
 20
1994.0
 30
-29.56025403784446
 70
   192
  0
VERTEX
  5
FC1
  8
RÁM
 10
-96.80696703631278
 20
1994.0
 30
-24.96736643075807
 70
   192
  0
VERTEX
  5
FC2
  8
RÁM
 10
-94.36281852347544
 20
1994.0
 30
-13.46855174522579
 70
   192
  0
VERTEX
  5
FC3
  8
RÁM
 10
-94.36281852347544
 20
2006.0
 30
-13.46855174522579
 70
   192
  0
VERTEX
  5
FC4
  8
RÁM
 10
-97.45298846722497
 20
2006.0
 30
-18.82088309182231
 70
   192
  0
VERTEX
  5
FC5
  8
RÁM
 10
-97.45298846722497
 20
1994.0
 30
-18.82088309182231
 70
   192
  0
VERTEX
  5
FC6
  8
RÁM
 10
0.0
 20
0.0
 30
0.0
 70
   128
 71
     1
 72
     2
 73
    -3
  0
VERTEX
  5
FC7
  8
RÁM
 10
0.0
 20
0.0
 30
0.0
 70
   128
 71
    -1
 72
     3
 73
     4
  0
VERTEX
  5
FC8
  8
RÁM
 10
0.0
 20
0.0
 30
0.0
 70
   128
 71
     5
 72
     6
 73
    -7
  0
VERTEX
  5
FC9
  8
RÁM
 10
0.0
 20
0.0
 30
0.0
 70
   128
 71
    -5
 72
     7
 73
     8
  0
VERTEX
  5
FCA
  8
RÁM
 10
0.0
 20
0.0
 30
0.0
 70
   128
 71
     9
 72
    10
 73
   -11
  0
VERTEX
  5
FCB
  8
RÁM
 10
0.0
 20
0.0
 30
0.0
 70
   128
 71
    -9
 72
    11
 73
    12
  0
VERTEX
  5
FCC
  8
RÁM
 10
0.0
 20
0.0
 30
0.0
 70
   128
 71
     1
 72
     4
 73
   -10
  0
VERTEX
  5
FCD
  8
RÁM
 10
0.0
 20
0.0
 30
0.0
 70
   128
 71
    -1
 72
    10
 73
     9
  0
VERTEX
  5
FCE
  8
RÁM
 10
0.0
 20
0.0
 30
0.0
 70
   128
 71
    12
 72
    11
 73
    -5
  0
VERTEX
  5
FCF
  8
RÁM
 10
0.0
 20
0.0
 30
0.0
 70
   128
 71
   -12
 72
     5
 73
     8
  0
SEQEND
  5
133F
  8
RÁM
  0
POLYLINE
  5
FD0
  8
RÁM
 66
     1
 10
0.0
 20
0.0
 30
0.0
 70
    64
 71
     5
 72
     3
  0
VERTEX
  5
FD1
  8
RÁM
 10
-82.67151245988651
 20
1994.0
 30
-12.23974596215547
 70
   192
  0
VERTEX
  5
FD2
  8
RÁM
 10
-82.67151245988651
 20
2006.0
 30
-12.23974596215547
 70
   192
  0
VERTEX
  5
FD3
  8
RÁM
 10
480.2449999999998
 20
2006.0
 30
-337.239745962152
 70
   192
  0
VERTEX
  5
FD4
  8
RÁM
 10
480.2449999999999
 20
1994.0
 30
-337.239745962152
 70
   192
  0
VERTEX
  5
FD5
  8
RÁM
 10
480.1978005468199
 20
1994.0
 30
-337.2124953451529
 70
   192
  0
VERTEX
  5
FD6
  8
RÁM
 10
0.0
 20
0.0
 30
0.0
 70
   128
 71
     5
 72
     4
 73
    -3
  0
VERTEX
  5
FD7
  8
RÁM
 10
0.0
 20
0.0
 30
0.0
 70
   128
 71
     3
 72
     2
 73
    -1
  0
VERTEX
  5
FD8
  8
RÁM
 10
0.0
 20
0.0
 30
0.0
 70
   128
 71
    -3
 72
     1
 73
    -5
  0
SEQEND
  5
1340
  8
RÁM
  0
POLYLINE
  5
FD9
  8
RÁM
 66
     1
 10
0.0
 20
0.0
 30
0.0
 70
    64
 71
    10
 72
     8
  0
VERTEX
  5
FDA
  8
RÁM
 10
475.245
 20
2006.0
 30
-355.8999999999967
 70
   192
  0
VERTEX
  5
FDB
  8
RÁM
 10
480.2449999999998
 20
2006.0
 30
-337.239745962152
 70
   192
  0
VERTEX
  5
FDC
  8
RÁM
 10
480.2449999999998
 20
1994.0
 30
-337.239745962152
 70
   192
  0
VERTEX
  5
FDD
  8
RÁM
 10
475.245
 20
1994.0
 30
-355.8999999999967
 70
   192
  0
VERTEX
  5
FDE
  8
RÁM
 10
484.9042582628908
 20
1994.0
 30
-348.4881904510218
 70
   192
  0
VERTEX
  5
FDF
  8
RÁM
 10
484.9042582628908
 20
2006.0
 30
-348.4881904510218
 70
   192
  0
VERTEX
  5
FE0
  8
RÁM
 10
481.3326142900873
 20
1994.0
 30
-353.833533402909
 70
   192
  0
VERTEX
  5
FE1
  8
RÁM
 10
481.3326142900873
 20
2006.0
 30
-353.833533402909
 70
   192
  0
VERTEX
  5
FE2
  8
RÁM
 10
484.4837953251129
 20
1994.0
 30
-342.0731656763455
 70
   192
  0
VERTEX
  5
FE3
  8
RÁM
 10
484.4837953251129
 20
2006.0
 30
-342.0731656763455
 70
   192
  0
VERTEX
  5
FE4
  8
RÁM
 10
0.0
 20
0.0
 30
0.0
 70
   128
 71
     8
 72
     7
 73
    -4
  0
VERTEX
  5
FE5
  8
RÁM
 10
0.0
 20
0.0
 30
0.0
 70
   128
 71
    -8
 72
     4
 73
     1
  0
VERTEX
  5
FE6
  8
RÁM
 10
0.0
 20
0.0
 30
0.0
 70
   128
 71
     6
 72
     5
 73
    -7
  0
VERTEX
  5
FE7
  8
RÁM
 10
0.0
 20
0.0
 30
0.0
 70
   128
 71
    -6
 72
     7
 73
     8
  0
VERTEX
  5
FE8
  8
RÁM
 10
0.0
 20
0.0
 30
0.0
 70
   128
 71
    10
 72
     9
 73
    -5
  0
VERTEX
  5
FE9
  8
RÁM
 10
0.0
 20
0.0
 30
0.0
 70
   128
 71
   -10
 72
     5
 73
     6
  0
VERTEX
  5
FEA
  8
RÁM
 10
0.0
 20
0.0
 30
0.0
 70
   128
 71
     2
 72
     3
 73
    -9
  0
VERTEX
  5
FEB
  8
RÁM
 10
0.0
 20
0.0
 30
0.0
 70
   128
 71
    -2
 72
     9
 73
    10
  0
SEQEND
  5
1341
  8
RÁM
  0
POLYLINE
  5
FEC
  8
RÁM
 66
     1
 10
0.0
 20
0.0
 30
0.0
 70
    64
 71
     5
 72
     3
  0
VERTEX
  5
FED
  8
RÁM
 10
470.2449999999997
 20
1994.0
 30
-354.5602540378409
 70
   192
  0
VERTEX
  5
FEE
  8
RÁM
 10
470.2449999999997
 20
2006.0
 30
-354.5602540378409
 70
   192
  0
VERTEX
  5
FEF
  8
RÁM
 10
-92.67151245988651
 20
2006.0
 30
-29.56025403784446
 70
   192
  0
VERTEX
  5
FF0
  8
RÁM
 10
-92.67151245988651
 20
1994.0
 30
-29.56025403784446
 70
   192
  0
VERTEX
  5
FF1
  8
RÁM
 10
470.1978005468198
 20
1994.0
 30
-354.5330034208419
 70
   192
  0
VERTEX
  5
FF2
  8
RÁM
 10
0.0
 20
0.0
 30
0.0
 70
   128
 71
     5
 72
     4
 73
    -3
  0
VERTEX
  5
FF3
  8
RÁM
 10
0.0
 20
0.0
 30
0.0
 70
   128
 71
    -5
 72
     3
 73
    -2
  0
VERTEX
  5
FF4
  8
RÁM
 10
0.0
 20
0.0
 30
0.0
 70
   128
 71
     2
 72
     1
 73
    -5
  0
SEQEND
  5
1342
  8
RÁM
  0
POLYLINE
  5
FF5
  8
RÁM
 66
     1
 10
0.0
 20
0.0
 30
0.0
 70
    64
 71
    14
 72
    12
  0
VERTEX
  5
FF6
  8
RÁM
 10
-92.67151245988651
 20
2006.0
 30
-29.56025403784446
 70
   192
  0
VERTEX
  5
FF7
  8
RÁM
 10
-96.80696703631278
 20
2006.0
 30
-24.96736643075807
 70
   192
  0
VERTEX
  5
FF8
  8
RÁM
 10
-97.45298846722497
 20
2006.0
 30
-18.82088309182231
 70
   192
  0
VERTEX
  5
FF9
  8
RÁM
 10
-94.36281852347544
 20
2006.0
 30
-13.46855174522579
 70
   192
  0
VERTEX
  5
FFA
  8
RÁM
 10
-88.71679709256321
 20
2006.0
 30
-10.95478104631697
 70
   192
  0
VERTEX
  5
FFB
  8
RÁM
 10
-82.67151245988651
 20
2006.0
 30
-12.23974596215548
 70
   192
  0
VERTEX
  5
FFC
  8
RÁM
 10
480.2449999999999
 20
2006.0
 30
-337.239745962152
 70
   192
  0
VERTEX
  5
FFD
  8
RÁM
 10
484.4837953251129
 20
2006.0
 30
-342.0731656763455
 70
   192
  0
VERTEX
  5
FFE
  8
RÁM
 10
484.9042582628908
 20
2006.0
 30
-348.4881904510218
 70
   192
  0
VERTEX
  5
FFF
  8
RÁM
 10
481.3326142900873
 20
2006.0
 30
-353.833533402909
 70
   192
  0
VERTEX
  5
1000
  8
RÁM
 10
475.245
 20
2006.0
 30
-355.8999999999967
 70
   192
  0
VERTEX
  5
1001
  8
RÁM
 10
473.5085182233306
 20
2006.0
 30
-355.7480775301188
 70
   192
  0
VERTEX
  5
1002
  8
RÁM
 10
471.8247985667431
 20
2006.0
 30
-355.2969262078557
 70
   192
  0
VERTEX
  5
1003
  8
RÁM
 10
470.2449999999997
 20
2006.0
 30
-354.5602540378409
 70
   192
  0
VERTEX
  5
1004
  8
RÁM
 10
0.0
 20
0.0
 30
0.0
 70
   128
 71
    12
 72
    13
 73
   -14
  0
VERTEX
  5
1005
  8
RÁM
 10
0.0
 20
0.0
 30
0.0
 70
   128
 71
    11
 72
   -12
 73
   -14
  0
VERTEX
  5
1006
  8
RÁM
 10
0.0
 20
0.0
 30
0.0
 70
   128
 71
    10
 72
   -11
 73
   -14
  0
VERTEX
  5
1007
  8
RÁM
 10
0.0
 20
0.0
 30
0.0
 70
   128
 71
     9
 72
   -10
 73
   -14
  0
VERTEX
  5
1008
  8
RÁM
 10
0.0
 20
0.0
 30
0.0
 70
   128
 71
     8
 72
    -9
 73
   -14
  0
VERTEX
  5
1009
  8
RÁM
 10
0.0
 20
0.0
 30
0.0
 70
   128
 71
     7
 72
    -8
 73
   -14
  0
VERTEX
  5
100A
  8
RÁM
 10
0.0
 20
0.0
 30
0.0
 70
   128
 71
     5
 72
     6
 73
    -7
  0
VERTEX
  5
100B
  8
RÁM
 10
0.0
 20
0.0
 30
0.0
 70
   128
 71
     4
 72
    -5
 73
    -7
  0
VERTEX
  5
100C
  8
RÁM
 10
0.0
 20
0.0
 30
0.0
 70
   128
 71
     3
 72
    -4
 73
    -7
  0
VERTEX
  5
100D
  8
RÁM
 10
0.0
 20
0.0
 30
0.0
 70
   128
 71
     2
 72
    -3
 73
    -7
  0
VERTEX
  5
100E
  8
RÁM
 10
0.0
 20
0.0
 30
0.0
 70
   128
 71
     1
 72
    -2
 73
    -7
  0
VERTEX
  5
100F
  8
RÁM
 10
0.0
 20
0.0
 30
0.0
 70
   128
 71
    14
 72
    -1
 73
    -7
  0
SEQEND
  5
1343
  8
RÁM
  0
POLYLINE
  5
1010
  8
RÁM
 66
     1
 10
0.0
 20
0.0
 30
0.0
 70
    64
 71
    14
 72
    12
  0
VERTEX
  5
1011
  8
RÁM
 10
475.245
 20
1994.0
 30
-335.899851481874
 70
   192
  0
VERTEX
  5
1012
  8
RÁM
 10
469.1681106827579
 20
1994.0
 30
-337.9580615331928
 70
   192
  0
VERTEX
  5
1013
  8
RÁM
 10
465.5926871489154
 20
1994.0
 30
-343.2854585470267
 70
   192
  0
VERTEX
  5
1014
  8
RÁM
 10
465.9905020709965
 20
1994.0
 30
-349.6890946763778
 70
   192
  0
VERTEX
  5
1015
  8
RÁM
 10
470.1978005468198
 20
1994.0
 30
-354.5330034208419
 70
   192
  0
VERTEX
  5
1016
  8
RÁM
 10
-92.67151245988651
 20
1994.0
 30
-29.56025403784446
 70
   192
  0
VERTEX
  5
1017
  8
RÁM
 10
-96.80696703631278
 20
1994.0
 30
-24.96736643075807
 70
   192
  0
VERTEX
  5
1018
  8
RÁM
 10
-97.45298846722497
 20
1994.0
 30
-18.82088309182231
 70
   192
  0
VERTEX
  5
1019
  8
RÁM
 10
-94.36281852347544
 20
1994.0
 30
-13.46855174522579
 70
   192
  0
VERTEX
  5
101A
  8
RÁM
 10
-88.71679709256321
 20
1994.0
 30
-10.95478104631697
 70
   192
  0
VERTEX
  5
101B
  8
RÁM
 10
-82.67151245988651
 20
1994.0
 30
-12.23974596215547
 70
   192
  0
VERTEX
  5
101C
  8
RÁM
 10
480.1978005468198
 20
1994.0
 30
-337.2124953451529
 70
   192
  0
VERTEX
  5
101D
  8
RÁM
 10
478.6310866211526
 20
1994.0
 30
-336.4905692107001
 70
   192
  0
VERTEX
  5
101E
  8
RÁM
 10
476.9636135430266
 20
1994.0
 30
-336.0486377655523
 70
   192
  0
VERTEX
  5
101F
  8
RÁM
 10
0.0
 20
0.0
 30
0.0
 70
   128
 71
    13
 72
    12
 73
   -11
  0
VERTEX
  5
1020
  8
RÁM
 10
0.0
 20
0.0
 30
0.0
 70
   128
 71
   -11
 72
    14
 73
   -13
  0
VERTEX
  5
1021
  8
RÁM
 10
0.0
 20
0.0
 30
0.0
 70
   128
 71
   -11
 72
     1
 73
   -14
  0
VERTEX
  5
1022
  8
RÁM
 10
0.0
 20
0.0
 30
0.0
 70
   128
 71
     2
 72
    -1
 73
   -11
  0
VERTEX
  5
1023
  8
RÁM
 10
0.0
 20
0.0
 30
0.0
 70
   128
 71
    11
 72
    10
 73
    -9
  0
VERTEX
  5
1024
  8
RÁM
 10
0.0
 20
0.0
 30
0.0
 70
   128
 71
   -11
 72
     9
 73
    -8
  0
VERTEX
  5
1025
  8
RÁM
 10
0.0
 20
0.0
 30
0.0
 70
   128
 71
   -11
 72
     8
 73
    -7
  0
VERTEX
  5
1026
  8
RÁM
 10
0.0
 20
0.0
 30
0.0
 70
   128
 71
   -11
 72
     7
 73
    -6
  0
VERTEX
  5
1027
  8
RÁM
 10
0.0
 20
0.0
 30
0.0
 70
   128
 71
   -11
 72
    -6
 73
    -3
  0
VERTEX
  5
1028
  8
RÁM
 10
0.0
 20
0.0
 30
0.0
 70
   128
 71
   -11
 72
     3
 73
    -2
  0
VERTEX
  5
1029
  8
RÁM
 10
0.0
 20
0.0
 30
0.0
 70
   128
 71
    -6
 72
     4
 73
    -3
  0
VERTEX
  5
102A
  8
RÁM
 10
0.0
 20
0.0
 30
0.0
 70
   128
 71
     6
 72
     5
 73
    -4
  0
SEQEND
  5
1344
  8
RÁM
  0
POLYLINE
  5
102B
  8
RÁM
 66
     1
 10
0.0
 20
0.0
 30
0.0
 70
    64
 71
    40
 72
    33
  0
VERTEX
  5
102C
  8
RÁM
 10
485.4873621811979
 20
1994.0
 30
-336.8000883295303
 70
   192
  0
VERTEX
  5
102D
  8
RÁM
 10
484.7808259704684
 20
1994.0
 30
-337.5290313027023
 70
   192
  0
VERTEX
  5
102E
  8
RÁM
 10
483.8074218160487
 20
1994.0
 30
-337.8171903340851
 70
   192
  0
VERTEX
  5
102F
  8
RÁM
 10
481.9069114794503
 20
1994.0
 30
-337.8765358993167
 70
   192
  0
VERTEX
  5
1030
  8
RÁM
 10
481.8861079624798
 20
1994.0
 30
-337.8770771898484
 70
   192
  0
VERTEX
  5
1031
  8
RÁM
 10
481.8652999395032
 20
1994.0
 30
-337.8774019876113
 70
   192
  0
VERTEX
  5
1032
  8
RÁM
 10
481.8444896634016
 20
1994.0
 30
-337.8775102574398
 70
   192
  0
VERTEX
  5
1033
  8
RÁM
 10
481.4587192557461
 20
1994.0
 30
-337.8399529171314
 70
   192
  0
VERTEX
  5
1034
  8
RÁM
 10
481.0874373585719
 20
1994.0
 30
-337.7286914500171
 70
   192
  0
VERTEX
  5
1035
  8
RÁM
 10
480.7445883324414
 20
1994.0
 30
-337.5479045408807
 70
   192
  0
VERTEX
  5
1036
  8
RÁM
 10
480.5647307767291
 20
1994.0
 30
-337.4322119270917
 70
   192
  0
VERTEX
  5
1037
  8
RÁM
 10
480.3824403930769
 20
1994.0
 30
-337.3203918159306
 70
   192
  0
VERTEX
  5
1038
  8
RÁM
 10
480.2455953016108
 20
1994.0
 30
-337.240424773541
 70
   192
  0
VERTEX
  5
1039
  8
RÁM
 10
484.4837953251129
 20
1994.0
 30
-342.0731656763455
 70
   192
  0
VERTEX
  5
103A
  8
RÁM
 10
484.9042582628908
 20
1994.0
 30
-348.4881904510218
 70
   192
  0
VERTEX
  5
103B
  8
RÁM
 10
481.3326142900873
 20
1994.0
 30
-353.833533402909
 70
   192
  0
VERTEX
  5
103C
  8
RÁM
 10
475.245
 20
1994.0
 30
-355.8999999999967
 70
   192
  0
VERTEX
  5
103D
  8
RÁM
 10
475.0827508302347
 20
1994.0
 30
-355.8858050369758
 70
   192
  0
VERTEX
  5
103E
  8
RÁM
 10
473.5004923523738
 20
1994.0
 30
-355.7459270044774
 70
   192
  0
VERTEX
  5
103F
  8
RÁM
 10
473.5085182233306
 20
1994.0
 30
-355.7480775301188
 70
   192
  0
VERTEX
  5
1040
  8
RÁM
 10
475.245
 20
1994.0
 30
-355.9001485181192
 70
   192
  0
VERTEX
  5
1041
  8
RÁM
 10
477.1738806852258
 20
1994.0
 30
-355.7123590276042
 70
   192
  0
VERTEX
  5
1042
  8
RÁM
 10
479.0303177421421
 20
1994.0
 30
-355.1560434298609
 70
   192
  0
VERTEX
  5
1043
  8
RÁM
 10
480.7445883324414
 20
1994.0
 30
-354.2520954591125
 70
   192
  0
VERTEX
  5
1044
  8
RÁM
 10
481.1067401373992
 20
1994.0
 30
-354.0635315297678
 70
   192
  0
VERTEX
  5
1045
  8
RÁM
 10
481.4996395508442
 20
1994.0
 30
-353.9524444639192
 70
   192
  0
VERTEX
  5
1046
  8
RÁM
 10
481.9069114794503
 20
1994.0
 30
-353.9234641006765
 70
   192
  0
VERTEX
  5
1047
  8
RÁM
 10
483.8074218160488
 20
1994.0
 30
-353.9828096659081
 70
   192
  0
VERTEX
  5
1048
  8
RÁM
 10
484.7808259704684
 20
1994.0
 30
-354.2709686972909
 70
   192
  0
VERTEX
  5
1049
  8
RÁM
 10
485.4873621811979
 20
1994.0
 30
-354.999911670463
 70
   192
  0
VERTEX
  5
104A
  8
RÁM
 10
485.7450000000001
 20
1994.0
 30
-355.981835307785
 70
   192
  0
VERTEX
  5
104B
  8
RÁM
 10
485.7450000000001
 20
1994.0
 30
-335.8181646922083
 70
   192
  0
VERTEX
  5
104C
  8
RÁM
 10
472.8831847447177
 20
1994.0
 30
-355.5805199295243
 70
   192
  0
VERTEX
  5
104D
  8
RÁM
 10
471.8089699422406
 20
1994.0
 30
-355.2895451990321
 70
   192
  0
VERTEX
  5
104E
  8
RÁM
 10
471.1436750774232
 20
1994.0
 30
-354.9793131086365
 70
   192
  0
VERTEX
  5
104F
  8
RÁM
 10
471.7906273144907
 20
1994.0
 30
-355.2845766944521
 70
   192
  0
VERTEX
  5
1050
  8
RÁM
 10
471.8247985667431
 20
1994.0
 30
-355.2969262078557
 70
   192
  0
VERTEX
  5
1051
  8
RÁM
 10
473.4906041409872
 20
1994.0
 30
-355.7450528467003
 70
   192
  0
VERTEX
  5
1052
  8
RÁM
 10
470.1978005468198
 20
1994.0
 30
-354.533003420842
 70
   192
  0
VERTEX
  5
1053
  8
RÁM
 10
470.2449999999997
 20
1994.0
 30
-354.5602540378409
 70
   192
  0
VERTEX
  5
1054
  8
RÁM
 10
0.0
 20
0.0
 30
0.0
 70
   128
 71
    13
 72
    12
 73
   -11
  0
VERTEX
  5
1055
  8
RÁM
 10
0.0
 20
0.0
 30
0.0
 70
   128
 71
    11
 72
   -10
 73
   -13
  0
VERTEX
  5
1056
  8
RÁM
 10
0.0
 20
0.0
 30
0.0
 70
   128
 71
    14
 72
   -13
 73
   -10
  0
VERTEX
  5
1057
  8
RÁM
 10
0.0
 20
0.0
 30
0.0
 70
   128
 71
    10
 72
    -9
 73
   -14
  0
VERTEX
  5
1058
  8
RÁM
 10
0.0
 20
0.0
 30
0.0
 70
   128
 71
     9
 72
    -8
 73
   -14
  0
VERTEX
  5
1059
  8
RÁM
 10
0.0
 20
0.0
 30
0.0
 70
   128
 71
     8
 72
    -7
 73
   -14
  0
VERTEX
  5
105A
  8
RÁM
 10
0.0
 20
0.0
 30
0.0
 70
   128
 71
     7
 72
    -6
 73
   -14
  0
VERTEX
  5
105B
  8
RÁM
 10
0.0
 20
0.0
 30
0.0
 70
   128
 71
     6
 72
    -5
 73
   -14
  0
VERTEX
  5
105C
  8
RÁM
 10
0.0
 20
0.0
 30
0.0
 70
   128
 71
     5
 72
    -4
 73
   -14
  0
VERTEX
  5
105D
  8
RÁM
 10
0.0
 20
0.0
 30
0.0
 70
   128
 71
     4
 72
    -3
 73
   -14
  0
VERTEX
  5
105E
  8
RÁM
 10
0.0
 20
0.0
 30
0.0
 70
   128
 71
   -16
 72
    26
 73
   -25
  0
VERTEX
  5
105F
  8
RÁM
 10
0.0
 20
0.0
 30
0.0
 70
   128
 71
    25
 72
   -24
 73
   -16
  0
VERTEX
  5
1060
  8
RÁM
 10
0.0
 20
0.0
 30
0.0
 70
   128
 71
    21
 72
    18
 73
   -17
  0
VERTEX
  5
1061
  8
RÁM
 10
0.0
 20
0.0
 30
0.0
 70
   128
 71
    22
 72
   -21
 73
   -17
  0
VERTEX
  5
1062
  8
RÁM
 10
0.0
 20
0.0
 30
0.0
 70
   128
 71
    23
 72
   -22
 73
   -17
  0
VERTEX
  5
1063
  8
RÁM
 10
0.0
 20
0.0
 30
0.0
 70
   128
 71
    24
 72
   -23
 73
   -17
  0
VERTEX
  5
1064
  8
RÁM
 10
0.0
 20
0.0
 30
0.0
 70
   128
 71
   -16
 72
   -24
 73
    17
  0
VERTEX
  5
1065
  8
RÁM
 10
0.0
 20
0.0
 30
0.0
 70
   128
 71
    20
 72
    19
 73
    18
  0
VERTEX
  5
1066
  8
RÁM
 10
0.0
 20
0.0
 30
0.0
 70
   128
 71
   -15
 72
    31
 73
   -30
  0
VERTEX
  5
1067
  8
RÁM
 10
0.0
 20
0.0
 30
0.0
 70
   128
 71
    30
 72
   -29
 73
   -15
  0
VERTEX
  5
1068
  8
RÁM
 10
0.0
 20
0.0
 30
0.0
 70
   128
 71
    29
 72
   -28
 73
   -15
  0
VERTEX
  5
1069
  8
RÁM
 10
0.0
 20
0.0
 30
0.0
 70
   128
 71
   -27
 72
    16
 73
   -15
  0
VERTEX
  5
106A
  8
RÁM
 10
0.0
 20
0.0
 30
0.0
 70
   128
 71
    28
 72
   -27
 73
   -15
  0
VERTEX
  5
106B
  8
RÁM
 10
0.0
 20
0.0
 30
0.0
 70
   128
 71
    27
 72
   -26
 73
   -16
  0
VERTEX
  5
106C
  8
RÁM
 10
0.0
 20
0.0
 30
0.0
 70
   128
 71
    -2
 72
   -31
 73
   -15
  0
VERTEX
  5
106D
  8
RÁM
 10
0.0
 20
0.0
 30
0.0
 70
   128
 71
    15
 72
   -14
 73
    -2
  0
VERTEX
  5
106E
  8
RÁM
 10
0.0
 20
0.0
 30
0.0
 70
   128
 71
   -14
 72
     3
 73
    -2
  0
VERTEX
  5
106F
  8
RÁM
 10
0.0
 20
0.0
 30
0.0
 70
   128
 71
     2
 72
    -1
 73
   -31
  0
VERTEX
  5
1070
  8
RÁM
 10
0.0
 20
0.0
 30
0.0
 70
   128
 71
     1
 72
    32
 73
   -31
  0
VERTEX
  5
1071
  8
RÁM
 10
0.0
 20
0.0
 30
0.0
 70
   128
 71
    38
 72
    33
 73
    19
  0
VERTEX
  5
1072
  8
RÁM
 10
0.0
 20
0.0
 30
0.0
 70
   128
 71
    37
 72
    34
 73
    33
  0
VERTEX
  5
1073
  8
RÁM
 10
0.0
 20
0.0
 30
0.0
 70
   128
 71
    36
 72
    35
 73
    34
  0
VERTEX
  5
1074
  8
RÁM
 10
0.0
 20
0.0
 30
0.0
 70
   128
 71
    35
 72
    40
 73
    39
  0
SEQEND
  5
1345
  8
RÁM
  0
POLYLINE
  5
1075
  8
RÁM
 66
     1
 10
0.0
 20
0.0
 30
0.0
 70
    64
 71
     4
 72
     2
  0
VERTEX
  5
1076
  8
RÁM
 10
485.7450000000002
 20
2006.0
 30
-373.3999999999966
 70
   192
  0
VERTEX
  5
1077
  8
RÁM
 10
493.7450000000002
 20
2006.0
 30
-373.3999999999966
 70
   192
  0
VERTEX
  5
1078
  8
RÁM
 10
493.7450000000001
 20
1986.0
 30
-373.3999999999966
 70
   192
  0
VERTEX
  5
1079
  8
RÁM
 10
485.7450000000002
 20
1986.0
 30
-373.3999999999966
 70
   192
  0
VERTEX
  5
107A
  8
RÁM
 10
0.0
 20
0.0
 30
0.0
 70
   128
 71
     3
 72
     4
 73
    -1
  0
VERTEX
  5
107B
  8
RÁM
 10
0.0
 20
0.0
 30
0.0
 70
   128
 71
     2
 72
    -3
 73
     1
  0
SEQEND
  5
1346
  8
RÁM
  0
POLYLINE
  5
107C
  8
RÁM
 66
     1
 10
0.0
 20
0.0
 30
0.0
 70
    64
 71
    28
 72
    30
  0
VERTEX
  5
107D
  8
RÁM
 10
493.7450000000001
 20
2006.0
 30
-373.3999999999966
 70
   192
  0
VERTEX
  5
107E
  8
RÁM
 10
493.7450000000001
 20
1986.0
 30
-373.3999999999966
 70
   192
  0
VERTEX
  5
107F
  8
RÁM
 10
493.7450000000001
 20
1986.0
 30
-318.3999999999966
 70
   192
  0
VERTEX
  5
1080
  8
RÁM
 10
493.7450000000001
 20
2006.0
 30
-318.3999999999966
 70
   192
  0
VERTEX
  5
1081
  8
RÁM
 10
493.7450000000002
 20
1991.75
 30
-362.3999999999966
 70
   192
  0
VERTEX
  5
1082
  8
RÁM
 10
493.7450000000002
 20
1991.75
 30
-367.3999999999966
 70
   192
  0
VERTEX
  5
1083
  8
RÁM
 10
493.7450000000002
 20
1992.051442841485
 30
-368.5249999999966
 70
   192
  0
VERTEX
  5
1084
  8
RÁM
 10
493.7450000000002
 20
1992.875
 30
-369.3485571585116
 70
   192
  0
VERTEX
  5
1085
  8
RÁM
 10
493.7450000000002
 20
1994.0
 30
-369.6499999999966
 70
   192
  0
VERTEX
  5
1086
  8
RÁM
 10
493.7450000000002
 20
1995.125
 30
-369.3485571585116
 70
   192
  0
VERTEX
  5
1087
  8
RÁM
 10
493.7450000000002
 20
1995.948557158515
 30
-368.5249999999966
 70
   192
  0
VERTEX
  5
1088
  8
RÁM
 10
493.7450000000002
 20
1996.25
 30
-367.3999999999966
 70
   192
  0
VERTEX
  5
1089
  8
RÁM
 10
493.7450000000002
 20
1996.25
 30
-362.3999999999966
 70
   192
  0
VERTEX
  5
108A
  8
RÁM
 10
493.7450000000002
 20
1995.59099025767
 30
-360.8090097423269
 70
   192
  0
VERTEX
  5
108B
  8
RÁM
 10
493.7450000000002
 20
1994.0
 30
-360.1499999999966
 70
   192
  0
VERTEX
  5
108C
  8
RÁM
 10
493.7450000000002
 20
1992.409009742331
 30
-360.8090097423269
 70
   192
  0
VERTEX
  5
108D
  8
RÁM
 10
493.7450000000002
 20
1994.0
 30
-331.6499999999966
 70
   192
  0
VERTEX
  5
108E
  8
RÁM
 10
493.7450000000002
 20
1995.125
 30
-331.3485571585115
 70
   192
  0
VERTEX
  5
108F
  8
RÁM
 10
493.7450000000002
 20
1995.948557158515
 30
-330.5249999999966
 70
   192
  0
VERTEX
  5
1090
  8
RÁM
 10
493.7450000000002
 20
1996.25
 30
-329.3999999999966
 70
   192
  0
VERTEX
  5
1091
  8
RÁM
 10
493.7450000000002
 20
1996.25
 30
-324.3999999999966
 70
   192
  0
VERTEX
  5
1092
  8
RÁM
 10
493.7450000000002
 20
1995.59099025767
 30
-322.8090097423269
 70
   192
  0
VERTEX
  5
1093
  8
RÁM
 10
493.7450000000002
 20
1994.0
 30
-322.1499999999966
 70
   192
  0
VERTEX
  5
1094
  8
RÁM
 10
493.7450000000002
 20
1992.409009742331
 30
-322.8090097423269
 70
   192
  0
VERTEX
  5
1095
  8
RÁM
 10
493.7450000000002
 20
1991.75
 30
-324.3999999999966
 70
   192
  0
VERTEX
  5
1096
  8
RÁM
 10
493.7450000000002
 20
1991.75
 30
-329.3999999999966
 70
   192
  0
VERTEX
  5
1097
  8
RÁM
 10
493.7450000000002
 20
1992.051442841485
 30
-330.5249999999966
 70
   192
  0
VERTEX
  5
1098
  8
RÁM
 10
493.7450000000002
 20
1992.875
 30
-331.3485571585115
 70
   192
  0
VERTEX
  5
1099
  8
RÁM
 10
0.0
 20
0.0
 30
0.0
 70
   128
 71
     6
 72
    -5
 73
    -2
  0
VERTEX
  5
109A
  8
RÁM
 10
0.0
 20
0.0
 30
0.0
 70
   128
 71
    -2
 72
     7
 73
    -6
  0
VERTEX
  5
109B
  8
RÁM
 10
0.0
 20
0.0
 30
0.0
 70
   128
 71
    -2
 72
     8
 73
    -7
  0
VERTEX
  5
109C
  8
RÁM
 10
0.0
 20
0.0
 30
0.0
 70
   128
 71
    -2
 72
     9
 73
    -8
  0
VERTEX
  5
109D
  8
RÁM
 10
0.0
 20
0.0
 30
0.0
 70
   128
 71
    -2
 72
    10
 73
    -9
  0
VERTEX
  5
109E
  8
RÁM
 10
0.0
 20
0.0
 30
0.0
 70
   128
 71
   -10
 72
     2
 73
    -1
  0
VERTEX
  5
109F
  8
RÁM
 10
0.0
 20
0.0
 30
0.0
 70
   128
 71
    -1
 72
    11
 73
   -10
  0
VERTEX
  5
10A0
  8
RÁM
 10
0.0
 20
0.0
 30
0.0
 70
   128
 71
    -1
 72
    12
 73
   -11
  0
VERTEX
  5
10A1
  8
RÁM
 10
0.0
 20
0.0
 30
0.0
 70
   128
 71
    -1
 72
    13
 73
   -12
  0
VERTEX
  5
10A2
  8
RÁM
 10
0.0
 20
0.0
 30
0.0
 70
   128
 71
    -1
 72
    14
 73
   -13
  0
VERTEX
  5
10A3
  8
RÁM
 10
0.0
 20
0.0
 30
0.0
 70
   128
 71
    18
 72
   -17
 73
   -15
  0
VERTEX
  5
10A4
  8
RÁM
 10
0.0
 20
0.0
 30
0.0
 70
   128
 71
   -18
 72
    15
 73
   -14
  0
VERTEX
  5
10A5
  8
RÁM
 10
0.0
 20
0.0
 30
0.0
 70
   128
 71
   -14
 72
    19
 73
   -18
  0
VERTEX
  5
10A6
  8
RÁM
 10
0.0
 20
0.0
 30
0.0
 70
   128
 71
   -14
 72
    20
 73
   -19
  0
VERTEX
  5
10A7
  8
RÁM
 10
0.0
 20
0.0
 30
0.0
 70
   128
 71
   -20
 72
   -14
 73
    -1
  0
VERTEX
  5
10A8
  8
RÁM
 10
0.0
 20
0.0
 30
0.0
 70
   128
 71
   -20
 72
     1
 73
    -4
  0
VERTEX
  5
10A9
  8
RÁM
 10
0.0
 20
0.0
 30
0.0
 70
   128
 71
    -4
 72
    21
 73
   -20
  0
VERTEX
  5
10AA
  8
RÁM
 10
0.0
 20
0.0
 30
0.0
 70
   128
 71
    -4
 72
    22
 73
   -21
  0
VERTEX
  5
10AB
  8
RÁM
 10
0.0
 20
0.0
 30
0.0
 70
   128
 71
    -4
 72
    23
 73
   -22
  0
VERTEX
  5
10AC
  8
RÁM
 10
0.0
 20
0.0
 30
0.0
 70
   128
 71
     4
 72
    -3
 73
   -23
  0
VERTEX
  5
10AD
  8
RÁM
 10
0.0
 20
0.0
 30
0.0
 70
   128
 71
    -3
 72
    24
 73
   -23
  0
VERTEX
  5
10AE
  8
RÁM
 10
0.0
 20
0.0
 30
0.0
 70
   128
 71
    -3
 72
    25
 73
   -24
  0
VERTEX
  5
10AF
  8
RÁM
 10
0.0
 20
0.0
 30
0.0
 70
   128
 71
    -3
 72
    26
 73
   -25
  0
VERTEX
  5
10B0
  8
RÁM
 10
0.0
 20
0.0
 30
0.0
 70
   128
 71
    -3
 72
    27
 73
   -26
  0
VERTEX
  5
10B1
  8
RÁM
 10
0.0
 20
0.0
 30
0.0
 70
   128
 71
   -27
 72
    -3
 73
   -16
  0
VERTEX
  5
10B2
  8
RÁM
 10
0.0
 20
0.0
 30
0.0
 70
   128
 71
   -16
 72
    28
 73
   -27
  0
VERTEX
  5
10B3
  8
RÁM
 10
0.0
 20
0.0
 30
0.0
 70
   128
 71
    16
 72
   -15
 73
   -17
  0
VERTEX
  5
10B4
  8
RÁM
 10
0.0
 20
0.0
 30
0.0
 70
   128
 71
   -16
 72
    17
 73
   -28
  0
VERTEX
  5
10B5
  8
RÁM
 10
0.0
 20
0.0
 30
0.0
 70
   128
 71
    -3
 72
     5
 73
   -16
  0
VERTEX
  5
10B6
  8
RÁM
 10
0.0
 20
0.0
 30
0.0
 70
   128
 71
     3
 72
    -2
 73
    -5
  0
SEQEND
  5
1347
  8
RÁM
  0
POLYLINE
  5
10B7
  8
RÁM
 66
     1
 10
0.0
 20
0.0
 30
0.0
 70
    64
 71
     4
 72
     2
  0
VERTEX
  5
10B8
  8
RÁM
 10
493.7450000000001
 20
2006.0
 30
-318.3999999999966
 70
   192
  0
VERTEX
  5
10B9
  8
RÁM
 10
493.7450000000002
 20
1986.0
 30
-318.3999999999966
 70
   192
  0
VERTEX
  5
10BA
  8
RÁM
 10
485.7450000000001
 20
1986.0
 30
-318.3999999999966
 70
   192
  0
VERTEX
  5
10BB
  8
RÁM
 10
485.7450000000002
 20
2006.0
 30
-318.3999999999966
 70
   192
  0
VERTEX
  5
10BC
  8
RÁM
 10
0.0
 20
0.0
 30
0.0
 70
   128
 71
     1
 72
     4
 73
    -3
  0
VERTEX
  5
10BD
  8
RÁM
 10
0.0
 20
0.0
 30
0.0
 70
   128
 71
    -1
 72
     3
 73
     2
  0
SEQEND
  5
1348
  8
RÁM
  0
POLYLINE
  5
10BE
  8
RÁM
 66
     1
 10
0.0
 20
0.0
 30
0.0
 70
    64
 71
    32
 72
    34
  0
VERTEX
  5
10BF
  8
RÁM
 10
485.7450000000001
 20
1994.0
 30
-335.8181646922083
 70
   192
  0
VERTEX
  5
10C0
  8
RÁM
 10
485.7450000000001
 20
1986.0
 30
-335.8181646922083
 70
   192
  0
VERTEX
  5
10C1
  8
RÁM
 10
485.7450000000001
 20
1986.0
 30
-318.3999999999966
 70
   192
  0
VERTEX
  5
10C2
  8
RÁM
 10
485.7450000000001
 20
2006.0
 30
-318.3999999999966
 70
   192
  0
VERTEX
  5
10C3
  8
RÁM
 10
485.7450000000001
 20
2006.0
 30
-373.3999999999966
 70
   192
  0
VERTEX
  5
10C4
  8
RÁM
 10
485.7450000000001
 20
1986.0
 30
-373.3999999999966
 70
   192
  0
VERTEX
  5
10C5
  8
RÁM
 10
485.7450000000001
 20
1986.0
 30
-355.981835307785
 70
   192
  0
VERTEX
  5
10C6
  8
RÁM
 10
485.7450000000001
 20
1994.0
 30
-355.981835307785
 70
   192
  0
VERTEX
  5
10C7
  8
RÁM
 10
485.7450000000004
 20
1988.5
 30
-329.3999999999967
 70
   192
  0
VERTEX
  5
10C8
  8
RÁM
 10
485.7450000000004
 20
1989.236860279186
 30
-332.1499999999966
 70
   192
  0
VERTEX
  5
10C9
  8
RÁM
 10
485.7450000000004
 20
1991.25
 30
-334.163139720811
 70
   192
  0
VERTEX
  5
10CA
  8
RÁM
 10
485.7450000000004
 20
1994.0
 30
-334.8999999999966
 70
   192
  0
VERTEX
  5
10CB
  8
RÁM
 10
485.7450000000004
 20
1996.75
 30
-334.163139720811
 70
   192
  0
VERTEX
  5
10CC
  8
RÁM
 10
485.7450000000004
 20
1998.763139720815
 30
-332.1499999999966
 70
   192
  0
VERTEX
  5
10CD
  8
RÁM
 10
485.7450000000004
 20
1999.5
 30
-329.3999999999966
 70
   192
  0
VERTEX
  5
10CE
  8
RÁM
 10
485.7450000000004
 20
1999.5
 30
-324.3999999999966
 70
   192
  0
VERTEX
  5
10CF
  8
RÁM
 10
485.7450000000004
 20
1997.889087296526
 30
-320.5109127034705
 70
   192
  0
VERTEX
  5
10D0
  8
RÁM
 10
485.7450000000004
 20
1994.0
 30
-318.8999999999966
 70
   192
  0
VERTEX
  5
10D1
  8
RÁM
 10
485.7450000000004
 20
1990.110912703474
 30
-320.5109127034705
 70
   192
  0
VERTEX
  5
10D2
  8
RÁM
 10
485.7450000000004
 20
1988.5
 30
-324.3999999999966
 70
   192
  0
VERTEX
  5
10D3
  8
RÁM
 10
485.7450000000005
 20
1988.5
 30
-367.3999999999967
 70
   192
  0
VERTEX
  5
10D4
  8
RÁM
 10
485.7450000000005
 20
1989.236860279186
 30
-370.1499999999967
 70
   192
  0
VERTEX
  5
10D5
  8
RÁM
 10
485.7450000000005
 20
1991.25
 30
-372.163139720811
 70
   192
  0
VERTEX
  5
10D6
  8
RÁM
 10
485.7450000000005
 20
1994.0
 30
-372.8999999999966
 70
   192
  0
VERTEX
  5
10D7
  8
RÁM
 10
485.7450000000005
 20
1996.75
 30
-372.163139720811
 70
   192
  0
VERTEX
  5
10D8
  8
RÁM
 10
485.7450000000005
 20
1998.763139720815
 30
-370.1499999999966
 70
   192
  0
VERTEX
  5
10D9
  8
RÁM
 10
485.7450000000005
 20
1999.5
 30
-367.3999999999966
 70
   192
  0
VERTEX
  5
10DA
  8
RÁM
 10
485.7450000000005
 20
1999.5
 30
-362.3999999999966
 70
   192
  0
VERTEX
  5
10DB
  8
RÁM
 10
485.7450000000005
 20
1997.889087296526
 30
-358.5109127034706
 70
   192
  0
VERTEX
  5
10DC
  8
RÁM
 10
485.7450000000005
 20
1994.0
 30
-356.8999999999966
 70
   192
  0
VERTEX
  5
10DD
  8
RÁM
 10
485.7450000000005
 20
1990.110912703474
 30
-358.5109127034706
 70
   192
  0
VERTEX
  5
10DE
  8
RÁM
 10
485.7450000000005
 20
1988.5
 30
-362.3999999999966
 70
   192
  0
VERTEX
  5
10DF
  8
RÁM
 10
0.0
 20
0.0
 30
0.0
 70
   128
 71
    -2
 72
     9
 73
   -10
  0
VERTEX
  5
10E0
  8
RÁM
 10
0.0
 20
0.0
 30
0.0
 70
   128
 71
    10
 72
   -11
 73
    -2
  0
VERTEX
  5
10E1
  8
RÁM
 10
0.0
 20
0.0
 30
0.0
 70
   128
 71
   -11
 72
     1
 73
    -2
  0
VERTEX
  5
10E2
  8
RÁM
 10
0.0
 20
0.0
 30
0.0
 70
   128
 71
    11
 72
   -12
 73
    -1
  0
VERTEX
  5
10E3
  8
RÁM
 10
0.0
 20
0.0
 30
0.0
 70
   128
 71
   -13
 72
     8
 73
    -1
  0
VERTEX
  5
10E4
  8
RÁM
 10
0.0
 20
0.0
 30
0.0
 70
   128
 71
    -1
 72
    12
 73
   -13
  0
VERTEX
  5
10E5
  8
RÁM
 10
0.0
 20
0.0
 30
0.0
 70
   128
 71
    13
 72
   -14
 73
    -8
  0
VERTEX
  5
10E6
  8
RÁM
 10
0.0
 20
0.0
 30
0.0
 70
   128
 71
    -8
 72
    30
 73
   -31
  0
VERTEX
  5
10E7
  8
RÁM
 10
0.0
 20
0.0
 30
0.0
 70
   128
 71
     7
 72
    -8
 73
   -31
  0
VERTEX
  5
10E8
  8
RÁM
 10
0.0
 20
0.0
 30
0.0
 70
   128
 71
    31
 72
   -32
 73
    -7
  0
VERTEX
  5
10E9
  8
RÁM
 10
0.0
 20
0.0
 30
0.0
 70
   128
 71
   -21
 72
     6
 73
    -7
  0
VERTEX
  5
10EA
  8
RÁM
 10
0.0
 20
0.0
 30
0.0
 70
   128
 71
    32
 72
   -21
 73
    -7
  0
VERTEX
  5
10EB
  8
RÁM
 10
0.0
 20
0.0
 30
0.0
 70
   128
 71
    -6
 72
    21
 73
   -22
  0
VERTEX
  5
10EC
  8
RÁM
 10
0.0
 20
0.0
 30
0.0
 70
   128
 71
    22
 72
   -23
 73
    -6
  0
VERTEX
  5
10ED
  8
RÁM
 10
0.0
 20
0.0
 30
0.0
 70
   128
 71
    23
 72
   -24
 73
    -6
  0
VERTEX
  5
10EE
  8
RÁM
 10
0.0
 20
0.0
 30
0.0
 70
   128
 71
     5
 72
    -6
 73
   -24
  0
VERTEX
  5
10EF
  8
RÁM
 10
0.0
 20
0.0
 30
0.0
 70
   128
 71
    24
 72
   -25
 73
    -5
  0
VERTEX
  5
10F0
  8
RÁM
 10
0.0
 20
0.0
 30
0.0
 70
   128
 71
    25
 72
   -26
 73
    -5
  0
VERTEX
  5
10F1
  8
RÁM
 10
0.0
 20
0.0
 30
0.0
 70
   128
 71
    26
 72
   -27
 73
    -5
  0
VERTEX
  5
10F2
  8
RÁM
 10
0.0
 20
0.0
 30
0.0
 70
   128
 71
    27
 72
   -28
 73
    -5
  0
VERTEX
  5
10F3
  8
RÁM
 10
0.0
 20
0.0
 30
0.0
 70
   128
 71
    28
 72
   -29
 73
    -5
  0
VERTEX
  5
10F4
  8
RÁM
 10
0.0
 20
0.0
 30
0.0
 70
   128
 71
     4
 72
    -5
 73
   -29
  0
VERTEX
  5
10F5
  8
RÁM
 10
0.0
 20
0.0
 30
0.0
 70
   128
 71
   -14
 72
    -4
 73
   -29
  0
VERTEX
  5
10F6
  8
RÁM
 10
0.0
 20
0.0
 30
0.0
 70
   128
 71
   -29
 72
    -8
 73
   -14
  0
VERTEX
  5
10F7
  8
RÁM
 10
0.0
 20
0.0
 30
0.0
 70
   128
 71
    29
 72
   -30
 73
    -8
  0
VERTEX
  5
10F8
  8
RÁM
 10
0.0
 20
0.0
 30
0.0
 70
   128
 71
    14
 72
   -15
 73
    -4
  0
VERTEX
  5
10F9
  8
RÁM
 10
0.0
 20
0.0
 30
0.0
 70
   128
 71
    15
 72
   -16
 73
    -4
  0
VERTEX
  5
10FA
  8
RÁM
 10
0.0
 20
0.0
 30
0.0
 70
   128
 71
    16
 72
   -17
 73
    -4
  0
VERTEX
  5
10FB
  8
RÁM
 10
0.0
 20
0.0
 30
0.0
 70
   128
 71
    17
 72
   -18
 73
    -4
  0
VERTEX
  5
10FC
  8
RÁM
 10
0.0
 20
0.0
 30
0.0
 70
   128
 71
   -18
 72
     3
 73
    -4
  0
VERTEX
  5
10FD
  8
RÁM
 10
0.0
 20
0.0
 30
0.0
 70
   128
 71
    18
 72
   -19
 73
    -3
  0
VERTEX
  5
10FE
  8
RÁM
 10
0.0
 20
0.0
 30
0.0
 70
   128
 71
    19
 72
   -20
 73
    -3
  0
VERTEX
  5
10FF
  8
RÁM
 10
0.0
 20
0.0
 30
0.0
 70
   128
 71
    -9
 72
     2
 73
    -3
  0
VERTEX
  5
1100
  8
RÁM
 10
0.0
 20
0.0
 30
0.0
 70
   128
 71
    20
 72
    -9
 73
    -3
  0
SEQEND
  5
1349
  8
RÁM
  0
POLYLINE
  5
1101
  8
RÁM
 66
     1
 10
0.0
 20
0.0
 30
0.0
 70
    64
 71
    32
 72
    30
  0
VERTEX
  5
1102
  8
RÁM
 10
485.7450000000001
 20
1986.0
 30
-373.3999999999966
 70
   192
  0
VERTEX
  5
1103
  8
RÁM
 10
485.7450000000001
 20
1986.0
 30
-355.981835307785
 70
   192
  0
VERTEX
  5
1104
  8
RÁM
 10
485.4873621811979
 20
1986.0
 30
-354.999911670463
 70
   192
  0
VERTEX
  5
1105
  8
RÁM
 10
484.7808259704684
 20
1986.0
 30
-354.2709686972909
 70
   192
  0
VERTEX
  5
1106
  8
RÁM
 10
483.8074218160488
 20
1986.0
 30
-353.9828096659081
 70
   192
  0
VERTEX
  5
1107
  8
RÁM
 10
481.9069114794503
 20
1986.0
 30
-353.9234641006766
 70
   192
  0
VERTEX
  5
1108
  8
RÁM
 10
481.4996395508442
 20
1986.0
 30
-353.9524444639192
 70
   192
  0
VERTEX
  5
1109
  8
RÁM
 10
481.1067401373992
 20
1986.0
 30
-354.0635315297678
 70
   192
  0
VERTEX
  5
110A
  8
RÁM
 10
480.7445883324414
 20
1986.0
 30
-354.2520954591125
 70
   192
  0
VERTEX
  5
110B
  8
RÁM
 10
479.0303177421421
 20
1986.0
 30
-355.1560434298609
 70
   192
  0
VERTEX
  5
110C
  8
RÁM
 10
477.1738806852258
 20
1986.0
 30
-355.7123590276042
 70
   192
  0
VERTEX
  5
110D
  8
RÁM
 10
475.245
 20
1986.0
 30
-355.9001485181192
 70
   192
  0
VERTEX
  5
110E
  8
RÁM
 10
468.1738271699629
 20
1986.0
 30
-352.9711728300337
 70
   192
  0
VERTEX
  5
110F
  8
RÁM
 10
465.2448514818774
 20
1986.0
 30
-345.8999999999966
 70
   192
  0
VERTEX
  5
1110
  8
RÁM
 10
468.1738271699629
 20
1986.0
 30
-338.8288271699595
 70
   192
  0
VERTEX
  5
1111
  8
RÁM
 10
475.245
 20
1986.0
 30
-335.899851481874
 70
   192
  0
VERTEX
  5
1112
  8
RÁM
 10
477.1738806852258
 20
1986.0
 30
-336.087640972389
 70
   192
  0
VERTEX
  5
1113
  8
RÁM
 10
479.0303177421421
 20
1986.0
 30
-336.6439565701323
 70
   192
  0
VERTEX
  5
1114
  8
RÁM
 10
480.7445883324414
 20
1986.0
 30
-337.5479045408807
 70
   192
  0
VERTEX
  5
1115
  8
RÁM
 10
481.0874373585719
 20
1986.0
 30
-337.7286914500171
 70
   192
  0
VERTEX
  5
1116
  8
RÁM
 10
481.4587192557461
 20
1986.0
 30
-337.8399529171314
 70
   192
  0
VERTEX
  5
1117
  8
RÁM
 10
481.8444896634016
 20
1986.0
 30
-337.8775102574398
 70
   192
  0
VERTEX
  5
1118
  8
RÁM
 10
481.8652999395032
 20
1986.0
 30
-337.8774019876113
 70
   192
  0
VERTEX
  5
1119
  8
RÁM
 10
481.8861079624798
 20
1986.0
 30
-337.8770771898484
 70
   192
  0
VERTEX
  5
111A
  8
RÁM
 10
481.9069114794503
 20
1986.0
 30
-337.8765358993167
 70
   192
  0
VERTEX
  5
111B
  8
RÁM
 10
483.8074218160487
 20
1986.0
 30
-337.8171903340851
 70
   192
  0
VERTEX
  5
111C
  8
RÁM
 10
484.7808259704684
 20
1986.0
 30
-337.5290313027023
 70
   192
  0
VERTEX
  5
111D
  8
RÁM
 10
485.4873621811979
 20
1986.0
 30
-336.8000883295303
 70
   192
  0
VERTEX
  5
111E
  8
RÁM
 10
485.7450000000001
 20
1986.0
 30
-335.8181646922083
 70
   192
  0
VERTEX
  5
111F
  8
RÁM
 10
485.7450000000002
 20
1986.0
 30
-318.3999999999966
 70
   192
  0
VERTEX
  5
1120
  8
RÁM
 10
493.7450000000001
 20
1986.0
 30
-318.3999999999966
 70
   192
  0
VERTEX
  5
1121
  8
RÁM
 10
493.7450000000002
 20
1986.0
 30
-373.3999999999966
 70
   192
  0
VERTEX
  5
1122
  8
RÁM
 10
0.0
 20
0.0
 30
0.0
 70
   128
 71
    19
 72
    18
 73
   -17
  0
VERTEX
  5
1123
  8
RÁM
 10
0.0
 20
0.0
 30
0.0
 70
   128
 71
   -19
 72
    17
 73
   -16
  0
VERTEX
  5
1124
  8
RÁM
 10
0.0
 20
0.0
 30
0.0
 70
   128
 71
   -19
 72
    16
 73
   -15
  0
VERTEX
  5
1125
  8
RÁM
 10
0.0
 20
0.0
 30
0.0
 70
   128
 71
   -19
 72
    15
 73
   -14
  0
VERTEX
  5
1126
  8
RÁM
 10
0.0
 20
0.0
 30
0.0
 70
   128
 71
   -19
 72
    14
 73
   -13
  0
VERTEX
  5
1127
  8
RÁM
 10
0.0
 20
0.0
 30
0.0
 70
   128
 71
   -19
 72
    13
 73
   -12
  0
VERTEX
  5
1128
  8
RÁM
 10
0.0
 20
0.0
 30
0.0
 70
   128
 71
    12
 72
   -11
 73
   -20
  0
VERTEX
  5
1129
  8
RÁM
 10
0.0
 20
0.0
 30
0.0
 70
   128
 71
   -12
 72
    20
 73
   -19
  0
VERTEX
  5
112A
  8
RÁM
 10
0.0
 20
0.0
 30
0.0
 70
   128
 71
    11
 72
    10
 73
    -9
  0
VERTEX
  5
112B
  8
RÁM
 10
0.0
 20
0.0
 30
0.0
 70
   128
 71
   -11
 72
    -9
 73
   -21
  0
VERTEX
  5
112C
  8
RÁM
 10
0.0
 20
0.0
 30
0.0
 70
   128
 71
   -11
 72
    21
 73
   -20
  0
VERTEX
  5
112D
  8
RÁM
 10
0.0
 20
0.0
 30
0.0
 70
   128
 71
     7
 72
    -6
 73
   -22
  0
VERTEX
  5
112E
  8
RÁM
 10
0.0
 20
0.0
 30
0.0
 70
   128
 71
    -7
 72
    22
 73
   -21
  0
VERTEX
  5
112F
  8
RÁM
 10
0.0
 20
0.0
 30
0.0
 70
   128
 71
   -21
 72
     8
 73
    -7
  0
VERTEX
  5
1130
  8
RÁM
 10
0.0
 20
0.0
 30
0.0
 70
   128
 71
   -21
 72
     9
 73
    -8
  0
VERTEX
  5
1131
  8
RÁM
 10
0.0
 20
0.0
 30
0.0
 70
   128
 71
    -6
 72
    23
 73
   -22
  0
VERTEX
  5
1132
  8
RÁM
 10
0.0
 20
0.0
 30
0.0
 70
   128
 71
    -6
 72
    24
 73
   -23
  0
VERTEX
  5
1133
  8
RÁM
 10
0.0
 20
0.0
 30
0.0
 70
   128
 71
    -6
 72
    25
 73
   -24
  0
VERTEX
  5
1134
  8
RÁM
 10
0.0
 20
0.0
 30
0.0
 70
   128
 71
     2
 72
     1
 73
   -32
  0
VERTEX
  5
1135
  8
RÁM
 10
0.0
 20
0.0
 30
0.0
 70
   128
 71
   -32
 72
   -26
 73
    -2
  0
VERTEX
  5
1136
  8
RÁM
 10
0.0
 20
0.0
 30
0.0
 70
   128
 71
   -26
 72
     3
 73
    -2
  0
VERTEX
  5
1137
  8
RÁM
 10
0.0
 20
0.0
 30
0.0
 70
   128
 71
   -26
 72
     4
 73
    -3
  0
VERTEX
  5
1138
  8
RÁM
 10
0.0
 20
0.0
 30
0.0
 70
   128
 71
   -26
 72
     5
 73
    -4
  0
VERTEX
  5
1139
  8
RÁM
 10
0.0
 20
0.0
 30
0.0
 70
   128
 71
    26
 72
   -25
 73
    -6
  0
VERTEX
  5
113A
  8
RÁM
 10
0.0
 20
0.0
 30
0.0
 70
   128
 71
   -26
 72
     6
 73
    -5
  0
VERTEX
  5
113B
  8
RÁM
 10
0.0
 20
0.0
 30
0.0
 70
   128
 71
   -32
 72
    27
 73
   -26
  0
VERTEX
  5
113C
  8
RÁM
 10
0.0
 20
0.0
 30
0.0
 70
   128
 71
   -32
 72
    28
 73
   -27
  0
VERTEX
  5
113D
  8
RÁM
 10
0.0
 20
0.0
 30
0.0
 70
   128
 71
   -32
 72
    29
 73
   -28
  0
VERTEX
  5
113E
  8
RÁM
 10
0.0
 20
0.0
 30
0.0
 70
   128
 71
    32
 72
    31
 73
   -30
  0
VERTEX
  5
113F
  8
RÁM
 10
0.0
 20
0.0
 30
0.0
 70
   128
 71
   -32
 72
    30
 73
   -29
  0
SEQEND
  5
134A
  8
RÁM
  0
POLYLINE
  5
1140
  8
RÁM
 66
     1
 10
0.0
 20
0.0
 30
0.0
 70
    64
 71
     4
 72
     2
  0
VERTEX
  5
1141
  8
RÁM
 10
493.7450000000002
 20
2006.0
 30
-373.3999999999966
 70
   192
  0
VERTEX
  5
1142
  8
RÁM
 10
485.7450000000002
 20
2006.0
 30
-373.3999999999966
 70
   192
  0
VERTEX
  5
1143
  8
RÁM
 10
485.7450000000001
 20
2006.0
 30
-318.3999999999966
 70
   192
  0
VERTEX
  5
1144
  8
RÁM
 10
493.7450000000002
 20
2006.0
 30
-318.3999999999966
 70
   192
  0
VERTEX
  5
1145
  8
RÁM
 10
0.0
 20
0.0
 30
0.0
 70
   128
 71
     3
 72
     4
 73
    -1
  0
VERTEX
  5
1146
  8
RÁM
 10
0.0
 20
0.0
 30
0.0
 70
   128
 71
     2
 72
    -3
 73
     1
  0
SEQEND
  5
134B
  8
RÁM
  0
POLYLINE
  5
1147
  8
RÁM
 66
     1
 10
0.0
 20
0.0
 30
0.0
 70
    64
 71
     8
 72
     6
  0
VERTEX
  5
1148
  8
RÁM
 10
481.4587192557461
 20
1994.0
 30
-337.8399529171314
 70
   192
  0
VERTEX
  5
1149
  8
RÁM
 10
481.0874373585719
 20
1994.0
 30
-337.7286914500171
 70
   192
  0
VERTEX
  5
114A
  8
RÁM
 10
481.0874373585719
 20
1986.0
 30
-337.7286914500171
 70
   192
  0
VERTEX
  5
114B
  8
RÁM
 10
481.4587192557461
 20
1986.0
 30
-337.8399529171314
 70
   192
  0
VERTEX
  5
114C
  8
RÁM
 10
480.7445883324414
 20
1994.0
 30
-337.5479045408807
 70
   192
  0
VERTEX
  5
114D
  8
RÁM
 10
480.7445883324414
 20
1986.0
 30
-337.5479045408807
 70
   192
  0
VERTEX
  5
114E
  8
RÁM
 10
481.8444896634016
 20
1994.0
 30
-337.8775102574398
 70
   192
  0
VERTEX
  5
114F
  8
RÁM
 10
481.8444896634016
 20
1986.0
 30
-337.8775102574398
 70
   192
  0
VERTEX
  5
1150
  8
RÁM
 10
0.0
 20
0.0
 30
0.0
 70
   128
 71
     1
 72
     2
 73
    -3
  0
VERTEX
  5
1151
  8
RÁM
 10
0.0
 20
0.0
 30
0.0
 70
   128
 71
     4
 72
    -1
 73
     3
  0
VERTEX
  5
1152
  8
RÁM
 10
0.0
 20
0.0
 30
0.0
 70
   128
 71
     2
 72
     5
 73
    -6
  0
VERTEX
  5
1153
  8
RÁM
 10
0.0
 20
0.0
 30
0.0
 70
   128
 71
     3
 72
    -2
 73
     6
  0
VERTEX
  5
1154
  8
RÁM
 10
0.0
 20
0.0
 30
0.0
 70
   128
 71
     7
 72
     1
 73
    -4
  0
VERTEX
  5
1155
  8
RÁM
 10
0.0
 20
0.0
 30
0.0
 70
   128
 71
     8
 72
    -7
 73
     4
  0
SEQEND
  5
134C
  8
RÁM
  0
POLYLINE
  5
1156
  8
RÁM
 66
     1
 10
0.0
 20
0.0
 30
0.0
 70
    64
 71
     4
 72
     2
  0
VERTEX
  5
1157
  8
RÁM
 10
481.9069114794503
 20
1986.0
 30
-337.8765358993167
 70
   192
  0
VERTEX
  5
1158
  8
RÁM
 10
483.8074218160487
 20
1986.0
 30
-337.8171903340851
 70
   192
  0
VERTEX
  5
1159
  8
RÁM
 10
483.8074218160487
 20
1994.0
 30
-337.8171903340851
 70
   192
  0
VERTEX
  5
115A
  8
RÁM
 10
481.9069114794503
 20
1994.0
 30
-337.8765358993167
 70
   192
  0
VERTEX
  5
115B
  8
RÁM
 10
0.0
 20
0.0
 30
0.0
 70
   128
 71
     3
 72
     4
 73
    -1
  0
VERTEX
  5
115C
  8
RÁM
 10
0.0
 20
0.0
 30
0.0
 70
   128
 71
     2
 72
    -3
 73
     1
  0
SEQEND
  5
134D
  8
RÁM
  0
POLYLINE
  5
115D
  8
RÁM
 66
     1
 10
0.0
 20
0.0
 30
0.0
 70
    64
 71
     8
 72
     6
  0
VERTEX
  5
115E
  8
RÁM
 10
485.4873621811979
 20
1994.0
 30
-336.8000883295303
 70
   192
  0
VERTEX
  5
115F
  8
RÁM
 10
484.7808259704684
 20
1994.0
 30
-337.5290313027023
 70
   192
  0
VERTEX
  5
1160
  8
RÁM
 10
484.7808259704684
 20
1986.0
 30
-337.5290313027023
 70
   192
  0
VERTEX
  5
1161
  8
RÁM
 10
485.4873621811979
 20
1986.0
 30
-336.8000883295303
 70
   192
  0
VERTEX
  5
1162
  8
RÁM
 10
483.8074218160487
 20
1994.0
 30
-337.8171903340851
 70
   192
  0
VERTEX
  5
1163
  8
RÁM
 10
483.8074218160487
 20
1986.0
 30
-337.8171903340851
 70
   192
  0
VERTEX
  5
1164
  8
RÁM
 10
485.7450000000001
 20
1994.0
 30
-335.8181646922083
 70
   192
  0
VERTEX
  5
1165
  8
RÁM
 10
485.7450000000001
 20
1986.0
 30
-335.8181646922083
 70
   192
  0
VERTEX
  5
1166
  8
RÁM
 10
0.0
 20
0.0
 30
0.0
 70
   128
 71
     1
 72
     2
 73
    -3
  0
VERTEX
  5
1167
  8
RÁM
 10
0.0
 20
0.0
 30
0.0
 70
   128
 71
     4
 72
    -1
 73
     3
  0
VERTEX
  5
1168
  8
RÁM
 10
0.0
 20
0.0
 30
0.0
 70
   128
 71
     2
 72
     5
 73
    -6
  0
VERTEX
  5
1169
  8
RÁM
 10
0.0
 20
0.0
 30
0.0
 70
   128
 71
     3
 72
    -2
 73
     6
  0
VERTEX
  5
116A
  8
RÁM
 10
0.0
 20
0.0
 30
0.0
 70
   128
 71
     7
 72
     1
 73
    -4
  0
VERTEX
  5
116B
  8
RÁM
 10
0.0
 20
0.0
 30
0.0
 70
   128
 71
     8
 72
    -7
 73
     4
  0
SEQEND
  5
134E
  8
RÁM
  0
POLYLINE
  5
116C
  8
RÁM
 66
     1
 10
0.0
 20
0.0
 30
0.0
 70
    64
 71
     8
 72
     6
  0
VERTEX
  5
116D
  8
RÁM
 10
484.7808259704684
 20
1994.0
 30
-354.2709686972909
 70
   192
  0
VERTEX
  5
116E
  8
RÁM
 10
485.4873621811979
 20
1994.0
 30
-354.999911670463
 70
   192
  0
VERTEX
  5
116F
  8
RÁM
 10
485.4873621811979
 20
1986.0
 30
-354.999911670463
 70
   192
  0
VERTEX
  5
1170
  8
RÁM
 10
484.7808259704684
 20
1986.0
 30
-354.2709686972909
 70
   192
  0
VERTEX
  5
1171
  8
RÁM
 10
485.7450000000001
 20
1994.0
 30
-355.981835307785
 70
   192
  0
VERTEX
  5
1172
  8
RÁM
 10
485.7450000000001
 20
1986.0
 30
-355.981835307785
 70
   192
  0
VERTEX
  5
1173
  8
RÁM
 10
483.8074218160488
 20
1994.0
 30
-353.9828096659081
 70
   192
  0
VERTEX
  5
1174
  8
RÁM
 10
483.8074218160488
 20
1986.0
 30
-353.9828096659081
 70
   192
  0
VERTEX
  5
1175
  8
RÁM
 10
0.0
 20
0.0
 30
0.0
 70
   128
 71
     1
 72
     2
 73
    -3
  0
VERTEX
  5
1176
  8
RÁM
 10
0.0
 20
0.0
 30
0.0
 70
   128
 71
     4
 72
    -1
 73
     3
  0
VERTEX
  5
1177
  8
RÁM
 10
0.0
 20
0.0
 30
0.0
 70
   128
 71
     2
 72
     5
 73
    -6
  0
VERTEX
  5
1178
  8
RÁM
 10
0.0
 20
0.0
 30
0.0
 70
   128
 71
     3
 72
    -2
 73
     6
  0
VERTEX
  5
1179
  8
RÁM
 10
0.0
 20
0.0
 30
0.0
 70
   128
 71
     7
 72
     1
 73
    -4
  0
VERTEX
  5
117A
  8
RÁM
 10
0.0
 20
0.0
 30
0.0
 70
   128
 71
     8
 72
    -7
 73
     4
  0
SEQEND
  5
134F
  8
RÁM
  0
POLYLINE
  5
117B
  8
RÁM
 66
     1
 10
0.0
 20
0.0
 30
0.0
 70
    64
 71
     4
 72
     2
  0
VERTEX
  5
117C
  8
RÁM
 10
483.8074218160488
 20
1986.0
 30
-353.9828096659081
 70
   192
  0
VERTEX
  5
117D
  8
RÁM
 10
481.9069114794503
 20
1986.0
 30
-353.9234641006765
 70
   192
  0
VERTEX
  5
117E
  8
RÁM
 10
481.9069114794503
 20
1994.0
 30
-353.9234641006765
 70
   192
  0
VERTEX
  5
117F
  8
RÁM
 10
483.8074218160488
 20
1994.0
 30
-353.9828096659081
 70
   192
  0
VERTEX
  5
1180
  8
RÁM
 10
0.0
 20
0.0
 30
0.0
 70
   128
 71
     3
 72
     4
 73
    -1
  0
VERTEX
  5
1181
  8
RÁM
 10
0.0
 20
0.0
 30
0.0
 70
   128
 71
     2
 72
    -3
 73
     1
  0
SEQEND
  5
1350
  8
RÁM
  0
POLYLINE
  5
1182
  8
RÁM
 66
     1
 10
0.0
 20
0.0
 30
0.0
 70
    64
 71
     8
 72
     6
  0
VERTEX
  5
1183
  8
RÁM
 10
481.1067401373992
 20
1994.0
 30
-354.0635315297678
 70
   192
  0
VERTEX
  5
1184
  8
RÁM
 10
481.4996395508442
 20
1994.0
 30
-353.9524444639192
 70
   192
  0
VERTEX
  5
1185
  8
RÁM
 10
481.4996395508442
 20
1986.0
 30
-353.9524444639192
 70
   192
  0
VERTEX
  5
1186
  8
RÁM
 10
481.1067401373992
 20
1986.0
 30
-354.0635315297678
 70
   192
  0
VERTEX
  5
1187
  8
RÁM
 10
481.9069114794503
 20
1994.0
 30
-353.9234641006766
 70
   192
  0
VERTEX
  5
1188
  8
RÁM
 10
481.9069114794503
 20
1986.0
 30
-353.9234641006766
 70
   192
  0
VERTEX
  5
1189
  8
RÁM
 10
480.7445883324414
 20
1994.0
 30
-354.2520954591125
 70
   192
  0
VERTEX
  5
118A
  8
RÁM
 10
480.7445883324414
 20
1986.0
 30
-354.2520954591125
 70
   192
  0
VERTEX
  5
118B
  8
RÁM
 10
0.0
 20
0.0
 30
0.0
 70
   128
 71
     1
 72
     2
 73
    -3
  0
VERTEX
  5
118C
  8
RÁM
 10
0.0
 20
0.0
 30
0.0
 70
   128
 71
     4
 72
    -1
 73
     3
  0
VERTEX
  5
118D
  8
RÁM
 10
0.0
 20
0.0
 30
0.0
 70
   128
 71
     2
 72
     5
 73
    -6
  0
VERTEX
  5
118E
  8
RÁM
 10
0.0
 20
0.0
 30
0.0
 70
   128
 71
     3
 72
    -2
 73
     6
  0
VERTEX
  5
118F
  8
RÁM
 10
0.0
 20
0.0
 30
0.0
 70
   128
 71
     7
 72
     1
 73
    -4
  0
VERTEX
  5
1190
  8
RÁM
 10
0.0
 20
0.0
 30
0.0
 70
   128
 71
     8
 72
    -7
 73
     4
  0
SEQEND
  5
1351
  8
RÁM
  0
POLYLINE
  5
1191
  8
RÁM
 66
     1
 10
0.0
 20
0.0
 30
0.0
 70
    64
 71
     8
 72
     6
  0
VERTEX
  5
1192
  8
RÁM
 10
477.1738806852258
 20
1986.0
 30
-355.7123590276042
 70
   192
  0
VERTEX
  5
1193
  8
RÁM
 10
477.1738806852258
 20
1994.0
 30
-355.7123590276042
 70
   192
  0
VERTEX
  5
1194
  8
RÁM
 10
479.0303177421421
 20
1994.0
 30
-355.1560434298609
 70
   192
  0
VERTEX
  5
1195
  8
RÁM
 10
479.0303177421421
 20
1986.0
 30
-355.1560434298609
 70
   192
  0
VERTEX
  5
1196
  8
RÁM
 10
475.245
 20
1986.0
 30
-355.9001485181192
 70
   192
  0
VERTEX
  5
1197
  8
RÁM
 10
475.245
 20
1994.0
 30
-355.9001485181192
 70
   192
  0
VERTEX
  5
1198
  8
RÁM
 10
480.7445883324414
 20
1994.0
 30
-354.2520954591125
 70
   192
  0
VERTEX
  5
1199
  8
RÁM
 10
480.7445883324414
 20
1986.0
 30
-354.2520954591125
 70
   192
  0
VERTEX
  5
119A
  8
RÁM
 10
0.0
 20
0.0
 30
0.0
 70
   128
 71
     1
 72
     2
 73
    -3
  0
VERTEX
  5
119B
  8
RÁM
 10
0.0
 20
0.0
 30
0.0
 70
   128
 71
    -1
 72
     3
 73
     4
  0
VERTEX
  5
119C
  8
RÁM
 10
0.0
 20
0.0
 30
0.0
 70
   128
 71
     5
 72
     6
 73
    -2
  0
VERTEX
  5
119D
  8
RÁM
 10
0.0
 20
0.0
 30
0.0
 70
   128
 71
    -5
 72
     2
 73
     1
  0
VERTEX
  5
119E
  8
RÁM
 10
0.0
 20
0.0
 30
0.0
 70
   128
 71
     4
 72
     3
 73
    -7
  0
VERTEX
  5
119F
  8
RÁM
 10
0.0
 20
0.0
 30
0.0
 70
   128
 71
    -4
 72
     7
 73
     8
  0
SEQEND
  5
1352
  8
RÁM
  0
POLYLINE
  5
11A0
  8
RÁM
 66
     1
 10
0.0
 20
0.0
 30
0.0
 70
    64
 71
     4
 72
     2
  0
VERTEX
  5
11A1
  8
RÁM
 10
485.7450000000001
 20
1996.25
 30
-367.3999999999966
 70
   192
  0
VERTEX
  5
11A2
  8
RÁM
 10
485.7450000000001
 20
1996.25
 30
-362.3999999999966
 70
   192
  0
VERTEX
  5
11A3
  8
RÁM
 10
493.7450000000002
 20
1996.25
 30
-362.3999999999966
 70
   192
  0
VERTEX
  5
11A4
  8
RÁM
 10
493.7450000000002
 20
1996.25
 30
-367.3999999999966
 70
   192
  0
VERTEX
  5
11A5
  8
RÁM
 10
0.0
 20
0.0
 30
0.0
 70
   128
 71
     1
 72
     4
 73
    -3
  0
VERTEX
  5
11A6
  8
RÁM
 10
0.0
 20
0.0
 30
0.0
 70
   128
 71
    -1
 72
     3
 73
     2
  0
SEQEND
  5
1353
  8
RÁM
  0
POLYLINE
  5
11A7
  8
RÁM
 66
     1
 10
0.0
 20
0.0
 30
0.0
 70
    64
 71
    10
 72
     8
  0
VERTEX
  5
11A8
  8
RÁM
 10
485.7450000000001
 20
1996.25
 30
-362.3999999999966
 70
   192
  0
VERTEX
  5
11A9
  8
RÁM
 10
485.7450000000001
 20
1991.75
 30
-362.3999999999966
 70
   192
  0
VERTEX
  5
11AA
  8
RÁM
 10
493.7450000000002
 20
1991.75
 30
-362.3999999999966
 70
   192
  0
VERTEX
  5
11AB
  8
RÁM
 10
493.7450000000002
 20
1996.25
 30
-362.3999999999966
 70
   192
  0
VERTEX
  5
11AC
  8
RÁM
 10
493.7450000000002
 20
1994.0
 30
-360.1499999999966
 70
   192
  0
VERTEX
  5
11AD
  8
RÁM
 10
485.7450000000001
 20
1994.0
 30
-360.1499999999966
 70
   192
  0
VERTEX
  5
11AE
  8
RÁM
 10
493.7450000000002
 20
1995.59099025767
 30
-360.8090097423269
 70
   192
  0
VERTEX
  5
11AF
  8
RÁM
 10
485.7450000000001
 20
1995.59099025767
 30
-360.8090097423269
 70
   192
  0
VERTEX
  5
11B0
  8
RÁM
 10
493.7450000000002
 20
1992.409009742331
 30
-360.8090097423269
 70
   192
  0
VERTEX
  5
11B1
  8
RÁM
 10
485.7450000000001
 20
1992.409009742331
 30
-360.8090097423269
 70
   192
  0
VERTEX
  5
11B2
  8
RÁM
 10
0.0
 20
0.0
 30
0.0
 70
   128
 71
     1
 72
     4
 73
    -7
  0
VERTEX
  5
11B3
  8
RÁM
 10
0.0
 20
0.0
 30
0.0
 70
   128
 71
     8
 72
    -1
 73
     7
  0
VERTEX
  5
11B4
  8
RÁM
 10
0.0
 20
0.0
 30
0.0
 70
   128
 71
     7
 72
     5
 73
    -6
  0
VERTEX
  5
11B5
  8
RÁM
 10
0.0
 20
0.0
 30
0.0
 70
   128
 71
     8
 72
    -7
 73
     6
  0
VERTEX
  5
11B6
  8
RÁM
 10
0.0
 20
0.0
 30
0.0
 70
   128
 71
     5
 72
     9
 73
   -10
  0
VERTEX
  5
11B7
  8
RÁM
 10
0.0
 20
0.0
 30
0.0
 70
   128
 71
     6
 72
    -5
 73
    10
  0
VERTEX
  5
11B8
  8
RÁM
 10
0.0
 20
0.0
 30
0.0
 70
   128
 71
     9
 72
     3
 73
    -2
  0
VERTEX
  5
11B9
  8
RÁM
 10
0.0
 20
0.0
 30
0.0
 70
   128
 71
    10
 72
    -9
 73
     2
  0
SEQEND
  5
1354
  8
RÁM
  0
POLYLINE
  5
11BA
  8
RÁM
 66
     1
 10
0.0
 20
0.0
 30
0.0
 70
    64
 71
     4
 72
     2
  0
VERTEX
  5
11BB
  8
RÁM
 10
485.7450000000001
 20
1991.75
 30
-362.3999999999966
 70
   192
  0
VERTEX
  5
11BC
  8
RÁM
 10
485.7450000000001
 20
1991.75
 30
-367.3999999999966
 70
   192
  0
VERTEX
  5
11BD
  8
RÁM
 10
493.7450000000002
 20
1991.75
 30
-367.3999999999966
 70
   192
  0
VERTEX
  5
11BE
  8
RÁM
 10
493.7450000000002
 20
1991.75
 30
-362.3999999999966
 70
   192
  0
VERTEX
  5
11BF
  8
RÁM
 10
0.0
 20
0.0
 30
0.0
 70
   128
 71
     1
 72
     4
 73
    -3
  0
VERTEX
  5
11C0
  8
RÁM
 10
0.0
 20
0.0
 30
0.0
 70
   128
 71
    -1
 72
     3
 73
     2
  0
SEQEND
  5
1355
  8
RÁM
  0
POLYLINE
  5
11C1
  8
RÁM
 66
     1
 10
0.0
 20
0.0
 30
0.0
 70
    64
 71
     8
 72
     6
  0
VERTEX
  5
11C2
  8
RÁM
 10
485.7450000000001
 20
1992.875
 30
-369.3485571585116
 70
   192
  0
VERTEX
  5
11C3
  8
RÁM
 10
485.7450000000001
 20
1992.051442841485
 30
-368.5249999999966
 70
   192
  0
VERTEX
  5
11C4
  8
RÁM
 10
493.7450000000002
 20
1992.051442841485
 30
-368.5249999999966
 70
   192
  0
VERTEX
  5
11C5
  8
RÁM
 10
493.7450000000002
 20
1992.875
 30
-369.3485571585116
 70
   192
  0
VERTEX
  5
11C6
  8
RÁM
 10
485.7450000000001
 20
1991.75
 30
-367.3999999999966
 70
   192
  0
VERTEX
  5
11C7
  8
RÁM
 10
493.7450000000001
 20
1991.75
 30
-367.3999999999966
 70
   192
  0
VERTEX
  5
11C8
  8
RÁM
 10
485.7450000000001
 20
1994.0
 30
-369.6499999999966
 70
   192
  0
VERTEX
  5
11C9
  8
RÁM
 10
493.7450000000002
 20
1994.0
 30
-369.6499999999966
 70
   192
  0
VERTEX
  5
11CA
  8
RÁM
 10
0.0
 20
0.0
 30
0.0
 70
   128
 71
     1
 72
     2
 73
    -3
  0
VERTEX
  5
11CB
  8
RÁM
 10
0.0
 20
0.0
 30
0.0
 70
   128
 71
     4
 72
    -1
 73
     3
  0
VERTEX
  5
11CC
  8
RÁM
 10
0.0
 20
0.0
 30
0.0
 70
   128
 71
     2
 72
     5
 73
    -6
  0
VERTEX
  5
11CD
  8
RÁM
 10
0.0
 20
0.0
 30
0.0
 70
   128
 71
     3
 72
    -2
 73
     6
  0
VERTEX
  5
11CE
  8
RÁM
 10
0.0
 20
0.0
 30
0.0
 70
   128
 71
     7
 72
     1
 73
    -4
  0
VERTEX
  5
11CF
  8
RÁM
 10
0.0
 20
0.0
 30
0.0
 70
   128
 71
     8
 72
    -7
 73
     4
  0
SEQEND
  5
1356
  8
RÁM
  0
POLYLINE
  5
11D0
  8
RÁM
 66
     1
 10
0.0
 20
0.0
 30
0.0
 70
    64
 71
     4
 72
     2
  0
VERTEX
  5
11D1
  8
RÁM
 10
485.7450000000001
 20
1991.75
 30
-324.3999999999966
 70
   192
  0
VERTEX
  5
11D2
  8
RÁM
 10
485.7450000000001
 20
1991.75
 30
-329.3999999999966
 70
   192
  0
VERTEX
  5
11D3
  8
RÁM
 10
493.7450000000002
 20
1991.75
 30
-329.3999999999966
 70
   192
  0
VERTEX
  5
11D4
  8
RÁM
 10
493.7450000000002
 20
1991.75
 30
-324.3999999999966
 70
   192
  0
VERTEX
  5
11D5
  8
RÁM
 10
0.0
 20
0.0
 30
0.0
 70
   128
 71
     1
 72
     4
 73
    -3
  0
VERTEX
  5
11D6
  8
RÁM
 10
0.0
 20
0.0
 30
0.0
 70
   128
 71
    -1
 72
     3
 73
     2
  0
SEQEND
  5
1357
  8
RÁM
  0
POLYLINE
  5
11D7
  8
RÁM
 66
     1
 10
0.0
 20
0.0
 30
0.0
 70
    64
 71
     8
 72
     6
  0
VERTEX
  5
11D8
  8
RÁM
 10
485.7450000000001
 20
1992.875
 30
-331.3485571585115
 70
   192
  0
VERTEX
  5
11D9
  8
RÁM
 10
485.7450000000001
 20
1992.051442841485
 30
-330.5249999999966
 70
   192
  0
VERTEX
  5
11DA
  8
RÁM
 10
493.7450000000002
 20
1992.051442841485
 30
-330.5249999999966
 70
   192
  0
VERTEX
  5
11DB
  8
RÁM
 10
493.7450000000002
 20
1992.875
 30
-331.3485571585115
 70
   192
  0
VERTEX
  5
11DC
  8
RÁM
 10
485.7450000000001
 20
1991.75
 30
-329.3999999999966
 70
   192
  0
VERTEX
  5
11DD
  8
RÁM
 10
493.7450000000002
 20
1991.75
 30
-329.3999999999966
 70
   192
  0
VERTEX
  5
11DE
  8
RÁM
 10
485.7450000000001
 20
1994.0
 30
-331.6499999999966
 70
   192
  0
VERTEX
  5
11DF
  8
RÁM
 10
493.7450000000002
 20
1994.0
 30
-331.6499999999966
 70
   192
  0
VERTEX
  5
11E0
  8
RÁM
 10
0.0
 20
0.0
 30
0.0
 70
   128
 71
     1
 72
     2
 73
    -3
  0
VERTEX
  5
11E1
  8
RÁM
 10
0.0
 20
0.0
 30
0.0
 70
   128
 71
     4
 72
    -1
 73
     3
  0
VERTEX
  5
11E2
  8
RÁM
 10
0.0
 20
0.0
 30
0.0
 70
   128
 71
     2
 72
     5
 73
    -6
  0
VERTEX
  5
11E3
  8
RÁM
 10
0.0
 20
0.0
 30
0.0
 70
   128
 71
     3
 72
    -2
 73
     6
  0
VERTEX
  5
11E4
  8
RÁM
 10
0.0
 20
0.0
 30
0.0
 70
   128
 71
     7
 72
     1
 73
    -4
  0
VERTEX
  5
11E5
  8
RÁM
 10
0.0
 20
0.0
 30
0.0
 70
   128
 71
     8
 72
    -7
 73
     4
  0
SEQEND
  5
1358
  8
RÁM
  0
POLYLINE
  5
11E6
  8
RÁM
 66
     1
 10
0.0
 20
0.0
 30
0.0
 70
    64
 71
     4
 72
     2
  0
VERTEX
  5
11E7
  8
RÁM
 10
485.7450000000001
 20
1996.25
 30
-329.3999999999966
 70
   192
  0
VERTEX
  5
11E8
  8
RÁM
 10
485.7450000000001
 20
1996.25
 30
-324.3999999999966
 70
   192
  0
VERTEX
  5
11E9
  8
RÁM
 10
493.7450000000002
 20
1996.25
 30
-324.3999999999966
 70
   192
  0
VERTEX
  5
11EA
  8
RÁM
 10
493.7450000000002
 20
1996.25
 30
-329.3999999999966
 70
   192
  0
VERTEX
  5
11EB
  8
RÁM
 10
0.0
 20
0.0
 30
0.0
 70
   128
 71
     1
 72
     4
 73
    -3
  0
VERTEX
  5
11EC
  8
RÁM
 10
0.0
 20
0.0
 30
0.0
 70
   128
 71
    -1
 72
     3
 73
     2
  0
SEQEND
  5
1359
  8
RÁM
  0
POLYLINE
  5
11ED
  8
RÁM
 66
     1
 10
0.0
 20
0.0
 30
0.0
 70
    64
 71
    10
 72
     8
  0
VERTEX
  5
11EE
  8
RÁM
 10
485.7450000000001
 20
1996.25
 30
-324.3999999999966
 70
   192
  0
VERTEX
  5
11EF
  8
RÁM
 10
485.7450000000004
 20
1991.75
 30
-324.3999999999966
 70
   192
  0
VERTEX
  5
11F0
  8
RÁM
 10
493.7450000000002
 20
1991.75
 30
-324.3999999999966
 70
   192
  0
VERTEX
  5
11F1
  8
RÁM
 10
493.7450000000001
 20
1996.25
 30
-324.3999999999966
 70
   192
  0
VERTEX
  5
11F2
  8
RÁM
 10
493.7450000000002
 20
1994.0
 30
-322.1499999999966
 70
   192
  0
VERTEX
  5
11F3
  8
RÁM
 10
485.7450000000001
 20
1994.0
 30
-322.1499999999966
 70
   192
  0
VERTEX
  5
11F4
  8
RÁM
 10
493.7450000000002
 20
1995.59099025767
 30
-322.8090097423269
 70
   192
  0
VERTEX
  5
11F5
  8
RÁM
 10
485.7450000000001
 20
1995.59099025767
 30
-322.8090097423269
 70
   192
  0
VERTEX
  5
11F6
  8
RÁM
 10
493.7450000000002
 20
1992.409009742331
 30
-322.8090097423269
 70
   192
  0
VERTEX
  5
11F7
  8
RÁM
 10
485.7450000000001
 20
1992.409009742331
 30
-322.8090097423269
 70
   192
  0
VERTEX
  5
11F8
  8
RÁM
 10
0.0
 20
0.0
 30
0.0
 70
   128
 71
     1
 72
     4
 73
    -7
  0
VERTEX
  5
11F9
  8
RÁM
 10
0.0
 20
0.0
 30
0.0
 70
   128
 71
     8
 72
    -1
 73
     7
  0
VERTEX
  5
11FA
  8
RÁM
 10
0.0
 20
0.0
 30
0.0
 70
   128
 71
     7
 72
     5
 73
    -6
  0
VERTEX
  5
11FB
  8
RÁM
 10
0.0
 20
0.0
 30
0.0
 70
   128
 71
     8
 72
    -7
 73
     6
  0
VERTEX
  5
11FC
  8
RÁM
 10
0.0
 20
0.0
 30
0.0
 70
   128
 71
     5
 72
     9
 73
   -10
  0
VERTEX
  5
11FD
  8
RÁM
 10
0.0
 20
0.0
 30
0.0
 70
   128
 71
     6
 72
    -5
 73
    10
  0
VERTEX
  5
11FE
  8
RÁM
 10
0.0
 20
0.0
 30
0.0
 70
   128
 71
     9
 72
     3
 73
    -2
  0
VERTEX
  5
11FF
  8
RÁM
 10
0.0
 20
0.0
 30
0.0
 70
   128
 71
    10
 72
    -9
 73
     2
  0
SEQEND
  5
135A
  8
RÁM
  0
POLYLINE
  5
1200
  8
RÁM
 66
     1
 10
0.0
 20
0.0
 30
0.0
 70
    64
 71
    12
 72
    10
  0
VERTEX
  5
1201
  8
RÁM
 10
485.7450000000001
 20
1991.75
 30
-324.3999999999966
 70
   192
  0
VERTEX
  5
1202
  8
RÁM
 10
485.7450000000001
 20
1991.75
 30
-329.3999999999966
 70
   192
  0
VERTEX
  5
1203
  8
RÁM
 10
485.7450000000001
 20
1992.051442841485
 30
-330.5249999999966
 70
   192
  0
VERTEX
  5
1204
  8
RÁM
 10
485.7450000000001
 20
1992.875
 30
-331.3485571585115
 70
   192
  0
VERTEX
  5
1205
  8
RÁM
 10
485.7450000000001
 20
1994.0
 30
-331.6499999999966
 70
   192
  0
VERTEX
  5
1206
  8
RÁM
 10
485.7450000000001
 20
1995.125
 30
-331.3485571585115
 70
   192
  0
VERTEX
  5
1207
  8
RÁM
 10
485.7450000000001
 20
1995.948557158515
 30
-330.5249999999966
 70
   192
  0
VERTEX
  5
1208
  8
RÁM
 10
485.7450000000001
 20
1996.25
 30
-329.3999999999966
 70
   192
  0
VERTEX
  5
1209
  8
RÁM
 10
485.7450000000001
 20
1996.25
 30
-324.3999999999966
 70
   192
  0
VERTEX
  5
120A
  8
RÁM
 10
485.7450000000001
 20
1995.59099025767
 30
-322.8090097423269
 70
   192
  0
VERTEX
  5
120B
  8
RÁM
 10
485.7450000000001
 20
1994.0
 30
-322.1499999999966
 70
   192
  0
VERTEX
  5
120C
  8
RÁM
 10
485.7450000000001
 20
1992.409009742331
 30
-322.8090097423269
 70
   192
  0
VERTEX
  5
120D
  8
RÁM
 10
0.0
 20
0.0
 30
0.0
 70
   128
 71
    11
 72
    12
 73
    -1
  0
VERTEX
  5
120E
  8
RÁM
 10
0.0
 20
0.0
 30
0.0
 70
   128
 71
    10
 72
   -11
 73
    -1
  0
VERTEX
  5
120F
  8
RÁM
 10
0.0
 20
0.0
 30
0.0
 70
   128
 71
     9
 72
   -10
 73
    -1
  0
VERTEX
  5
1210
  8
RÁM
 10
0.0
 20
0.0
 30
0.0
 70
   128
 71
     8
 72
    -9
 73
    -1
  0
VERTEX
  5
1211
  8
RÁM
 10
0.0
 20
0.0
 30
0.0
 70
   128
 71
     7
 72
    -8
 73
    -1
  0
VERTEX
  5
1212
  8
RÁM
 10
0.0
 20
0.0
 30
0.0
 70
   128
 71
     6
 72
    -7
 73
    -1
  0
VERTEX
  5
1213
  8
RÁM
 10
0.0
 20
0.0
 30
0.0
 70
   128
 71
     5
 72
    -6
 73
    -1
  0
VERTEX
  5
1214
  8
RÁM
 10
0.0
 20
0.0
 30
0.0
 70
   128
 71
     4
 72
    -5
 73
    -1
  0
VERTEX
  5
1215
  8
RÁM
 10
0.0
 20
0.0
 30
0.0
 70
   128
 71
     3
 72
    -4
 73
    -1
  0
VERTEX
  5
1216
  8
RÁM
 10
0.0
 20
0.0
 30
0.0
 70
   128
 71
     2
 72
    -3
 73
     1
  0
SEQEND
  5
135B
  8
RÁM
  0
POLYLINE
  5
1217
  8
RÁM
 66
     1
 10
0.0
 20
0.0
 30
0.0
 70
    64
 71
     8
 72
     6
  0
VERTEX
  5
1218
  8
RÁM
 10
485.7450000000004
 20
1996.75
 30
-334.163139720811
 70
   192
  0
VERTEX
  5
1219
  8
RÁM
 10
484.7450000000004
 20
1996.75
 30
-334.163139720811
 70
   192
  0
VERTEX
  5
121A
  8
RÁM
 10
484.7450000000004
 20
1998.763139720815
 30
-332.1499999999966
 70
   192
  0
VERTEX
  5
121B
  8
RÁM
 10
485.7450000000004
 20
1998.763139720815
 30
-332.1499999999966
 70
   192
  0
VERTEX
  5
121C
  8
RÁM
 10
485.7450000000004
 20
1994.0
 30
-334.8999999999966
 70
   192
  0
VERTEX
  5
121D
  8
RÁM
 10
484.7450000000004
 20
1994.0
 30
-334.8999999999966
 70
   192
  0
VERTEX
  5
121E
  8
RÁM
 10
484.7450000000004
 20
1999.5
 30
-329.3999999999966
 70
   192
  0
VERTEX
  5
121F
  8
RÁM
 10
485.7450000000004
 20
1999.5
 30
-329.3999999999966
 70
   192
  0
VERTEX
  5
1220
  8
RÁM
 10
0.0
 20
0.0
 30
0.0
 70
   128
 71
     1
 72
     2
 73
    -3
  0
VERTEX
  5
1221
  8
RÁM
 10
0.0
 20
0.0
 30
0.0
 70
   128
 71
    -1
 72
     3
 73
     4
  0
VERTEX
  5
1222
  8
RÁM
 10
0.0
 20
0.0
 30
0.0
 70
   128
 71
     5
 72
     6
 73
    -2
  0
VERTEX
  5
1223
  8
RÁM
 10
0.0
 20
0.0
 30
0.0
 70
   128
 71
    -5
 72
     2
 73
     1
  0
VERTEX
  5
1224
  8
RÁM
 10
0.0
 20
0.0
 30
0.0
 70
   128
 71
     4
 72
     3
 73
    -7
  0
VERTEX
  5
1225
  8
RÁM
 10
0.0
 20
0.0
 30
0.0
 70
   128
 71
    -4
 72
     7
 73
     8
  0
SEQEND
  5
135C
  8
RÁM
  0
POLYLINE
  5
1226
  8
RÁM
 66
     1
 10
0.0
 20
0.0
 30
0.0
 70
    64
 71
     4
 72
     2
  0
VERTEX
  5
1227
  8
RÁM
 10
485.7450000000004
 20
1988.5
 30
-329.3999999999967
 70
   192
  0
VERTEX
  5
1228
  8
RÁM
 10
485.7450000000004
 20
1988.5
 30
-324.3999999999966
 70
   192
  0
VERTEX
  5
1229
  8
RÁM
 10
484.7450000000004
 20
1988.5
 30
-324.3999999999966
 70
   192
  0
VERTEX
  5
122A
  8
RÁM
 10
484.7450000000004
 20
1988.5
 30
-329.3999999999966
 70
   192
  0
VERTEX
  5
122B
  8
RÁM
 10
0.0
 20
0.0
 30
0.0
 70
   128
 71
     3
 72
     4
 73
    -1
  0
VERTEX
  5
122C
  8
RÁM
 10
0.0
 20
0.0
 30
0.0
 70
   128
 71
     2
 72
    -3
 73
     1
  0
SEQEND
  5
135D
  8
RÁM
  0
POLYLINE
  5
122D
  8
RÁM
 66
     1
 10
0.0
 20
0.0
 30
0.0
 70
    64
 71
    10
 72
     8
  0
VERTEX
  5
122E
  8
RÁM
 10
484.7450000000004
 20
1999.5
 30
-324.3999999999966
 70
   192
  0
VERTEX
  5
122F
  8
RÁM
 10
484.7450000000004
 20
1988.5
 30
-324.3999999999966
 70
   192
  0
VERTEX
  5
1230
  8
RÁM
 10
485.7450000000001
 20
1988.5
 30
-324.3999999999966
 70
   192
  0
VERTEX
  5
1231
  8
RÁM
 10
485.7450000000004
 20
1999.5
 30
-324.3999999999966
 70
   192
  0
VERTEX
  5
1232
  8
RÁM
 10
485.7450000000004
 20
1994.0
 30
-318.8999999999966
 70
   192
  0
VERTEX
  5
1233
  8
RÁM
 10
484.7450000000004
 20
1994.0
 30
-318.8999999999966
 70
   192
  0
VERTEX
  5
1234
  8
RÁM
 10
485.7450000000004
 20
1997.889087296526
 30
-320.5109127034705
 70
   192
  0
VERTEX
  5
1235
  8
RÁM
 10
484.7450000000004
 20
1997.889087296526
 30
-320.5109127034705
 70
   192
  0
VERTEX
  5
1236
  8
RÁM
 10
485.7450000000004
 20
1990.110912703474
 30
-320.5109127034705
 70
   192
  0
VERTEX
  5
1237
  8
RÁM
 10
484.7450000000004
 20
1990.110912703474
 30
-320.5109127034705
 70
   192
  0
VERTEX
  5
1238
  8
RÁM
 10
0.0
 20
0.0
 30
0.0
 70
   128
 71
     4
 72
     1
 73
    -8
  0
VERTEX
  5
1239
  8
RÁM
 10
0.0
 20
0.0
 30
0.0
 70
   128
 71
    -4
 72
     8
 73
     7
  0
VERTEX
  5
123A
  8
RÁM
 10
0.0
 20
0.0
 30
0.0
 70
   128
 71
     7
 72
     8
 73
    -6
  0
VERTEX
  5
123B
  8
RÁM
 10
0.0
 20
0.0
 30
0.0
 70
   128
 71
    -7
 72
     6
 73
     5
  0
VERTEX
  5
123C
  8
RÁM
 10
0.0
 20
0.0
 30
0.0
 70
   128
 71
     5
 72
     6
 73
   -10
  0
VERTEX
  5
123D
  8
RÁM
 10
0.0
 20
0.0
 30
0.0
 70
   128
 71
    -5
 72
    10
 73
     9
  0
VERTEX
  5
123E
  8
RÁM
 10
0.0
 20
0.0
 30
0.0
 70
   128
 71
    10
 72
     2
 73
    -3
  0
VERTEX
  5
123F
  8
RÁM
 10
0.0
 20
0.0
 30
0.0
 70
   128
 71
   -10
 72
     3
 73
     9
  0
SEQEND
  5
135E
  8
RÁM
  0
POLYLINE
  5
1240
  8
RÁM
 66
     1
 10
0.0
 20
0.0
 30
0.0
 70
    64
 71
     4
 72
     2
  0
VERTEX
  5
1241
  8
RÁM
 10
485.7450000000004
 20
1999.5
 30
-324.3999999999966
 70
   192
  0
VERTEX
  5
1242
  8
RÁM
 10
485.7450000000004
 20
1999.5
 30
-329.3999999999966
 70
   192
  0
VERTEX
  5
1243
  8
RÁM
 10
484.7450000000004
 20
1999.5
 30
-329.3999999999966
 70
   192
  0
VERTEX
  5
1244
  8
RÁM
 10
484.7450000000004
 20
1999.5
 30
-324.3999999999966
 70
   192
  0
VERTEX
  5
1245
  8
RÁM
 10
0.0
 20
0.0
 30
0.0
 70
   128
 71
     3
 72
     4
 73
    -1
  0
VERTEX
  5
1246
  8
RÁM
 10
0.0
 20
0.0
 30
0.0
 70
   128
 71
     2
 72
    -3
 73
     1
  0
SEQEND
  5
135F
  8
RÁM
  0
POLYLINE
  5
1247
  8
RÁM
 66
     1
 10
0.0
 20
0.0
 30
0.0
 70
    64
 71
    12
 72
    10
  0
VERTEX
  5
1248
  8
RÁM
 10
484.7450000000004
 20
1994.0
 30
-334.8999999999966
 70
   192
  0
VERTEX
  5
1249
  8
RÁM
 10
484.7450000000004
 20
1996.75
 30
-334.163139720811
 70
   192
  0
VERTEX
  5
124A
  8
RÁM
 10
484.7450000000004
 20
1998.763139720815
 30
-332.1499999999966
 70
   192
  0
VERTEX
  5
124B
  8
RÁM
 10
484.7450000000004
 20
1999.5
 30
-329.3999999999966
 70
   192
  0
VERTEX
  5
124C
  8
RÁM
 10
484.7450000000004
 20
1999.5
 30
-324.3999999999966
 70
   192
  0
VERTEX
  5
124D
  8
RÁM
 10
484.7450000000004
 20
1997.889087296526
 30
-320.5109127034705
 70
   192
  0
VERTEX
  5
124E
  8
RÁM
 10
484.7450000000004
 20
1994.0
 30
-318.8999999999966
 70
   192
  0
VERTEX
  5
124F
  8
RÁM
 10
484.7450000000004
 20
1990.110912703474
 30
-320.5109127034705
 70
   192
  0
VERTEX
  5
1250
  8
RÁM
 10
484.7450000000004
 20
1988.5
 30
-324.3999999999966
 70
   192
  0
VERTEX
  5
1251
  8
RÁM
 10
484.7450000000004
 20
1988.5
 30
-329.3999999999966
 70
   192
  0
VERTEX
  5
1252
  8
RÁM
 10
484.7450000000004
 20
1989.236860279186
 30
-332.1499999999966
 70
   192
  0
VERTEX
  5
1253
  8
RÁM
 10
484.7450000000004
 20
1991.25
 30
-334.163139720811
 70
   192
  0
VERTEX
  5
1254
  8
RÁM
 10
0.0
 20
0.0
 30
0.0
 70
   128
 71
     1
 72
    12
 73
   -11
  0
VERTEX
  5
1255
  8
RÁM
 10
0.0
 20
0.0
 30
0.0
 70
   128
 71
    -1
 72
    11
 73
   -10
  0
VERTEX
  5
1256
  8
RÁM
 10
0.0
 20
0.0
 30
0.0
 70
   128
 71
    -1
 72
    10
 73
    -9
  0
VERTEX
  5
1257
  8
RÁM
 10
0.0
 20
0.0
 30
0.0
 70
   128
 71
    -1
 72
     9
 73
    -8
  0
VERTEX
  5
1258
  8
RÁM
 10
0.0
 20
0.0
 30
0.0
 70
   128
 71
    -1
 72
     8
 73
    -7
  0
VERTEX
  5
1259
  8
RÁM
 10
0.0
 20
0.0
 30
0.0
 70
   128
 71
    -1
 72
     7
 73
    -6
  0
VERTEX
  5
125A
  8
RÁM
 10
0.0
 20
0.0
 30
0.0
 70
   128
 71
    -1
 72
     6
 73
    -5
  0
VERTEX
  5
125B
  8
RÁM
 10
0.0
 20
0.0
 30
0.0
 70
   128
 71
    -1
 72
     5
 73
    -4
  0
VERTEX
  5
125C
  8
RÁM
 10
0.0
 20
0.0
 30
0.0
 70
   128
 71
    -1
 72
     4
 73
    -3
  0
VERTEX
  5
125D
  8
RÁM
 10
0.0
 20
0.0
 30
0.0
 70
   128
 71
    -1
 72
     3
 73
     2
  0
SEQEND
  5
1360
  8
RÁM
  0
POLYLINE
  5
125E
  8
RÁM
 66
     1
 10
0.0
 20
0.0
 30
0.0
 70
    64
 71
    12
 72
    10
  0
VERTEX
  5
125F
  8
RÁM
 10
485.7450000000001
 20
1996.25
 30
-367.3999999999966
 70
   192
  0
VERTEX
  5
1260
  8
RÁM
 10
485.7450000000001
 20
1996.25
 30
-362.3999999999966
 70
   192
  0
VERTEX
  5
1261
  8
RÁM
 10
485.7450000000001
 20
1995.59099025767
 30
-360.8090097423269
 70
   192
  0
VERTEX
  5
1262
  8
RÁM
 10
485.7450000000001
 20
1994.0
 30
-360.1499999999966
 70
   192
  0
VERTEX
  5
1263
  8
RÁM
 10
485.7450000000001
 20
1992.409009742331
 30
-360.8090097423269
 70
   192
  0
VERTEX
  5
1264
  8
RÁM
 10
485.7450000000001
 20
1991.75
 30
-362.3999999999966
 70
   192
  0
VERTEX
  5
1265
  8
RÁM
 10
485.7450000000001
 20
1991.75
 30
-367.3999999999966
 70
   192
  0
VERTEX
  5
1266
  8
RÁM
 10
485.7450000000001
 20
1992.051442841485
 30
-368.5249999999966
 70
   192
  0
VERTEX
  5
1267
  8
RÁM
 10
485.7450000000001
 20
1992.875
 30
-369.3485571585116
 70
   192
  0
VERTEX
  5
1268
  8
RÁM
 10
485.7450000000001
 20
1994.0
 30
-369.6499999999966
 70
   192
  0
VERTEX
  5
1269
  8
RÁM
 10
485.7450000000001
 20
1995.125
 30
-369.3485571585116
 70
   192
  0
VERTEX
  5
126A
  8
RÁM
 10
485.7450000000001
 20
1995.948557158515
 30
-368.5249999999966
 70
   192
  0
VERTEX
  5
126B
  8
RÁM
 10
0.0
 20
0.0
 30
0.0
 70
   128
 71
    11
 72
    12
 73
    -1
  0
VERTEX
  5
126C
  8
RÁM
 10
0.0
 20
0.0
 30
0.0
 70
   128
 71
    10
 72
   -11
 73
    -1
  0
VERTEX
  5
126D
  8
RÁM
 10
0.0
 20
0.0
 30
0.0
 70
   128
 71
     9
 72
   -10
 73
    -1
  0
VERTEX
  5
126E
  8
RÁM
 10
0.0
 20
0.0
 30
0.0
 70
   128
 71
     8
 72
    -9
 73
    -1
  0
VERTEX
  5
126F
  8
RÁM
 10
0.0
 20
0.0
 30
0.0
 70
   128
 71
     7
 72
    -8
 73
    -1
  0
VERTEX
  5
1270
  8
RÁM
 10
0.0
 20
0.0
 30
0.0
 70
   128
 71
     6
 72
    -7
 73
    -1
  0
VERTEX
  5
1271
  8
RÁM
 10
0.0
 20
0.0
 30
0.0
 70
   128
 71
     5
 72
    -6
 73
    -1
  0
VERTEX
  5
1272
  8
RÁM
 10
0.0
 20
0.0
 30
0.0
 70
   128
 71
     4
 72
    -5
 73
    -1
  0
VERTEX
  5
1273
  8
RÁM
 10
0.0
 20
0.0
 30
0.0
 70
   128
 71
     3
 72
    -4
 73
    -1
  0
VERTEX
  5
1274
  8
RÁM
 10
0.0
 20
0.0
 30
0.0
 70
   128
 71
     2
 72
    -3
 73
     1
  0
SEQEND
  5
1361
  8
RÁM
  0
POLYLINE
  5
1275
  8
RÁM
 66
     1
 10
0.0
 20
0.0
 30
0.0
 70
    64
 71
     8
 72
     6
  0
VERTEX
  5
1276
  8
RÁM
 10
485.7450000000005
 20
1996.75
 30
-372.163139720811
 70
   192
  0
VERTEX
  5
1277
  8
RÁM
 10
484.7450000000005
 20
1996.75
 30
-372.163139720811
 70
   192
  0
VERTEX
  5
1278
  8
RÁM
 10
484.7450000000005
 20
1998.763139720815
 30
-370.1499999999966
 70
   192
  0
VERTEX
  5
1279
  8
RÁM
 10
485.7450000000005
 20
1998.763139720815
 30
-370.1499999999966
 70
   192
  0
VERTEX
  5
127A
  8
RÁM
 10
485.7450000000005
 20
1994.0
 30
-372.8999999999966
 70
   192
  0
VERTEX
  5
127B
  8
RÁM
 10
484.7450000000005
 20
1994.0
 30
-372.8999999999966
 70
   192
  0
VERTEX
  5
127C
  8
RÁM
 10
484.7450000000005
 20
1999.5
 30
-367.3999999999966
 70
   192
  0
VERTEX
  5
127D
  8
RÁM
 10
485.7450000000005
 20
1999.5
 30
-367.3999999999966
 70
   192
  0
VERTEX
  5
127E
  8
RÁM
 10
0.0
 20
0.0
 30
0.0
 70
   128
 71
     1
 72
     2
 73
    -3
  0
VERTEX
  5
127F
  8
RÁM
 10
0.0
 20
0.0
 30
0.0
 70
   128
 71
    -1
 72
     3
 73
     4
  0
VERTEX
  5
1280
  8
RÁM
 10
0.0
 20
0.0
 30
0.0
 70
   128
 71
     5
 72
     6
 73
    -2
  0
VERTEX
  5
1281
  8
RÁM
 10
0.0
 20
0.0
 30
0.0
 70
   128
 71
    -5
 72
     2
 73
     1
  0
VERTEX
  5
1282
  8
RÁM
 10
0.0
 20
0.0
 30
0.0
 70
   128
 71
     4
 72
     3
 73
    -7
  0
VERTEX
  5
1283
  8
RÁM
 10
0.0
 20
0.0
 30
0.0
 70
   128
 71
    -4
 72
     7
 73
     8
  0
SEQEND
  5
1362
  8
RÁM
  0
POLYLINE
  5
1284
  8
RÁM
 66
     1
 10
0.0
 20
0.0
 30
0.0
 70
    64
 71
     4
 72
     2
  0
VERTEX
  5
1285
  8
RÁM
 10
485.7450000000005
 20
1988.5
 30
-367.3999999999967
 70
   192
  0
VERTEX
  5
1286
  8
RÁM
 10
485.7450000000005
 20
1988.5
 30
-362.3999999999966
 70
   192
  0
VERTEX
  5
1287
  8
RÁM
 10
484.7450000000005
 20
1988.5
 30
-362.3999999999966
 70
   192
  0
VERTEX
  5
1288
  8
RÁM
 10
484.7450000000005
 20
1988.5
 30
-367.3999999999966
 70
   192
  0
VERTEX
  5
1289
  8
RÁM
 10
0.0
 20
0.0
 30
0.0
 70
   128
 71
     3
 72
     4
 73
    -1
  0
VERTEX
  5
128A
  8
RÁM
 10
0.0
 20
0.0
 30
0.0
 70
   128
 71
     2
 72
    -3
 73
     1
  0
SEQEND
  5
1363
  8
RÁM
  0
POLYLINE
  5
128B
  8
RÁM
 66
     1
 10
0.0
 20
0.0
 30
0.0
 70
    64
 71
    10
 72
     8
  0
VERTEX
  5
128C
  8
RÁM
 10
484.7450000000005
 20
1999.5
 30
-362.3999999999966
 70
   192
  0
VERTEX
  5
128D
  8
RÁM
 10
484.7450000000005
 20
1988.5
 30
-362.3999999999966
 70
   192
  0
VERTEX
  5
128E
  8
RÁM
 10
485.7450000000001
 20
1988.5
 30
-362.3999999999966
 70
   192
  0
VERTEX
  5
128F
  8
RÁM
 10
485.7450000000005
 20
1999.5
 30
-362.3999999999966
 70
   192
  0
VERTEX
  5
1290
  8
RÁM
 10
485.7450000000005
 20
1994.0
 30
-356.8999999999966
 70
   192
  0
VERTEX
  5
1291
  8
RÁM
 10
484.7450000000005
 20
1994.0
 30
-356.8999999999966
 70
   192
  0
VERTEX
  5
1292
  8
RÁM
 10
485.7450000000005
 20
1997.889087296526
 30
-358.5109127034706
 70
   192
  0
VERTEX
  5
1293
  8
RÁM
 10
484.7450000000005
 20
1997.889087296526
 30
-358.5109127034706
 70
   192
  0
VERTEX
  5
1294
  8
RÁM
 10
485.7450000000005
 20
1990.110912703474
 30
-358.5109127034706
 70
   192
  0
VERTEX
  5
1295
  8
RÁM
 10
484.7450000000005
 20
1990.110912703474
 30
-358.5109127034706
 70
   192
  0
VERTEX
  5
1296
  8
RÁM
 10
0.0
 20
0.0
 30
0.0
 70
   128
 71
     4
 72
     1
 73
    -8
  0
VERTEX
  5
1297
  8
RÁM
 10
0.0
 20
0.0
 30
0.0
 70
   128
 71
    -4
 72
     8
 73
     7
  0
VERTEX
  5
1298
  8
RÁM
 10
0.0
 20
0.0
 30
0.0
 70
   128
 71
     7
 72
     8
 73
    -6
  0
VERTEX
  5
1299
  8
RÁM
 10
0.0
 20
0.0
 30
0.0
 70
   128
 71
    -7
 72
     6
 73
     5
  0
VERTEX
  5
129A
  8
RÁM
 10
0.0
 20
0.0
 30
0.0
 70
   128
 71
     5
 72
     6
 73
   -10
  0
VERTEX
  5
129B
  8
RÁM
 10
0.0
 20
0.0
 30
0.0
 70
   128
 71
    -5
 72
    10
 73
     9
  0
VERTEX
  5
129C
  8
RÁM
 10
0.0
 20
0.0
 30
0.0
 70
   128
 71
    10
 72
     2
 73
    -3
  0
VERTEX
  5
129D
  8
RÁM
 10
0.0
 20
0.0
 30
0.0
 70
   128
 71
   -10
 72
     3
 73
     9
  0
SEQEND
  5
1364
  8
RÁM
  0
POLYLINE
  5
129E
  8
RÁM
 66
     1
 10
0.0
 20
0.0
 30
0.0
 70
    64
 71
     4
 72
     2
  0
VERTEX
  5
129F
  8
RÁM
 10
485.7450000000005
 20
1999.5
 30
-362.3999999999966
 70
   192
  0
VERTEX
  5
12A0
  8
RÁM
 10
485.7450000000005
 20
1999.5
 30
-367.3999999999966
 70
   192
  0
VERTEX
  5
12A1
  8
RÁM
 10
484.7450000000005
 20
1999.5
 30
-367.3999999999966
 70
   192
  0
VERTEX
  5
12A2
  8
RÁM
 10
484.7450000000005
 20
1999.5
 30
-362.3999999999966
 70
   192
  0
VERTEX
  5
12A3
  8
RÁM
 10
0.0
 20
0.0
 30
0.0
 70
   128
 71
     3
 72
     4
 73
    -1
  0
VERTEX
  5
12A4
  8
RÁM
 10
0.0
 20
0.0
 30
0.0
 70
   128
 71
     2
 72
    -3
 73
     1
  0
SEQEND
  5
1365
  8
RÁM
  0
POLYLINE
  5
12A5
  8
RÁM
 66
     1
 10
0.0
 20
0.0
 30
0.0
 70
    64
 71
    12
 72
    10
  0
VERTEX
  5
12A6
  8
RÁM
 10
484.7450000000005
 20
1994.0
 30
-372.8999999999966
 70
   192
  0
VERTEX
  5
12A7
  8
RÁM
 10
484.7450000000005
 20
1996.75
 30
-372.163139720811
 70
   192
  0
VERTEX
  5
12A8
  8
RÁM
 10
484.7450000000005
 20
1998.763139720815
 30
-370.1499999999966
 70
   192
  0
VERTEX
  5
12A9
  8
RÁM
 10
484.7450000000005
 20
1999.5
 30
-367.3999999999966
 70
   192
  0
VERTEX
  5
12AA
  8
RÁM
 10
484.7450000000005
 20
1999.5
 30
-362.3999999999966
 70
   192
  0
VERTEX
  5
12AB
  8
RÁM
 10
484.7450000000005
 20
1997.889087296526
 30
-358.5109127034706
 70
   192
  0
VERTEX
  5
12AC
  8
RÁM
 10
484.7450000000005
 20
1994.0
 30
-356.8999999999966
 70
   192
  0
VERTEX
  5
12AD
  8
RÁM
 10
484.7450000000005
 20
1990.110912703474
 30
-358.5109127034706
 70
   192
  0
VERTEX
  5
12AE
  8
RÁM
 10
484.7450000000005
 20
1988.5
 30
-362.3999999999966
 70
   192
  0
VERTEX
  5
12AF
  8
RÁM
 10
484.7450000000005
 20
1988.5
 30
-367.3999999999966
 70
   192
  0
VERTEX
  5
12B0
  8
RÁM
 10
484.7450000000005
 20
1989.236860279186
 30
-370.1499999999966
 70
   192
  0
VERTEX
  5
12B1
  8
RÁM
 10
484.7450000000005
 20
1991.25
 30
-372.163139720811
 70
   192
  0
VERTEX
  5
12B2
  8
RÁM
 10
0.0
 20
0.0
 30
0.0
 70
   128
 71
     1
 72
    12
 73
   -11
  0
VERTEX
  5
12B3
  8
RÁM
 10
0.0
 20
0.0
 30
0.0
 70
   128
 71
    -1
 72
    11
 73
   -10
  0
VERTEX
  5
12B4
  8
RÁM
 10
0.0
 20
0.0
 30
0.0
 70
   128
 71
    -1
 72
    10
 73
    -9
  0
VERTEX
  5
12B5
  8
RÁM
 10
0.0
 20
0.0
 30
0.0
 70
   128
 71
    -1
 72
     9
 73
    -8
  0
VERTEX
  5
12B6
  8
RÁM
 10
0.0
 20
0.0
 30
0.0
 70
   128
 71
    -1
 72
     8
 73
    -7
  0
VERTEX
  5
12B7
  8
RÁM
 10
0.0
 20
0.0
 30
0.0
 70
   128
 71
    -1
 72
     7
 73
    -6
  0
VERTEX
  5
12B8
  8
RÁM
 10
0.0
 20
0.0
 30
0.0
 70
   128
 71
    -1
 72
     6
 73
    -5
  0
VERTEX
  5
12B9
  8
RÁM
 10
0.0
 20
0.0
 30
0.0
 70
   128
 71
    -1
 72
     5
 73
    -4
  0
VERTEX
  5
12BA
  8
RÁM
 10
0.0
 20
0.0
 30
0.0
 70
   128
 71
    -1
 72
     4
 73
    -3
  0
VERTEX
  5
12BB
  8
RÁM
 10
0.0
 20
0.0
 30
0.0
 70
   128
 71
    -1
 72
     3
 73
     2
  0
SEQEND
  5
1366
  8
RÁM
  0
ENDBLK
  5
1336
  8
0
  0
ENDSEC
  0
SECTION
  2
ENTITIES
  0
INSERT
  5
BE
  8
RÁM
  2
*X1
 10
0.0
 20
0.0
 30
0.0
  0
INSERT
  5
BF
  8
RÁM
  2
*X2
 10
0.0
 20
0.0
 30
0.0
  0
INSERT
  5
C0
  8
RÁM
  2
*X3
 10
0.0
 20
0.0
 30
0.0
  0
INSERT
  5
C1
  8
RÁM
  2
*X4
 10
0.0
 20
0.0
 30
0.0
  0
INSERT
  5
C2
  8
SKLO
  2
*X5
 10
0.0
 20
0.0
 30
0.0
  0
INSERT
  5
C3
  8
RÁM
  2
*X6
 10
0.0
 20
0.0
 30
0.0
  0
INSERT
  5
C4
  8
RÁM
  2
*X7
 10
0.0
 20
0.0
 30
0.0
  0
INSERT
  5
C5
  8
RÁM
  2
*X8
 10
0.0
 20
0.0
 30
0.0
  0
ENDSEC
  0
EOF
