  0
SECTION
  2
HEADER
  9
$ACADVER
  1
AC1009
  9
$DWGCODEPAGE
  3
ansi_1250
  9
$INSBASE
 10
0.0
 20
0.0
 30
0.0
  9
$EXTMIN
 10
-499.9999999999999
 20
-349.9999999999999
 30
-25.00000000000014
  9
$EXTMAX
 10
499.9999999999999
 20
350.0000000000001
 30
0.0000000000001137
  9
$LIMMIN
 10
0.0
 20
0.0
  9
$LIMMAX
 10
420.0
 20
297.0
  9
$ORTHOMODE
 70
     0
  9
$REGENMODE
 70
     1
  9
$FILLMODE
 70
     1
  9
$QTEXTMODE
 70
     0
  9
$MIRRTEXT
 70
     0
  9
$DRAGMODE
 70
     2
  9
$LTSCALE
 40
1.0
  9
$OSMODE
 70
   511
  9
$ATTMODE
 70
     1
  9
$TEXTSIZE
 40
2.5
  9
$TRACEWID
 40
1.0
  9
$TEXTSTYLE
  7
STANDARD
  9
$CLAYER
  8
0
  9
$CELTYPE
  6
BYLAYER
  9
$CECOLOR
 62
   256
  9
$DIMSCALE
 40
1.0
  9
$DIMASZ
 40
2.5
  9
$DIMEXO
 40
0.625
  9
$DIMDLI
 40
3.75
  9
$DIMRND
 40
0.0
  9
$DIMDLE
 40
0.0
  9
$DIMEXE
 40
1.25
  9
$DIMTP
 40
0.0
  9
$DIMTM
 40
0.0
  9
$DIMTXT
 40
2.5
  9
$DIMCEN
 40
-2.5
  9
$DIMTSZ
 40
0.0
  9
$DIMTOL
 70
     0
  9
$DIMLIM
 70
     0
  9
$DIMTIH
 70
     0
  9
$DIMTOH
 70
     0
  9
$DIMSE1
 70
     0
  9
$DIMSE2
 70
     0
  9
$DIMTAD
 70
     1
  9
$DIMZIN
 70
     8
  9
$DIMBLK
  1

  9
$DIMASO
 70
     1
  9
$DIMSHO
 70
     1
  9
$DIMPOST
  1

  9
$DIMAPOST
  1

  9
$DIMALT
 70
     0
  9
$DIMALTD
 70
     3
  9
$DIMALTF
 40
0.03937007874016
  9
$DIMLFAC
 40
1.0
  9
$DIMTOFL
 70
     1
  9
$DIMTVP
 40
0.0
  9
$DIMTIX
 70
     0
  9
$DIMSOXD
 70
     0
  9
$DIMSAH
 70
     0
  9
$DIMBLK1
  1

  9
$DIMBLK2
  1

  9
$DIMSTYLE
  2
ISO-25
  9
$DIMCLRD
 70
     0
  9
$DIMCLRE
 70
     0
  9
$DIMCLRT
 70
     0
  9
$DIMTFAC
 40
1.0
  9
$DIMGAP
 40
0.625
  9
$LUNITS
 70
     2
  9
$LUPREC
 70
     3
  9
$SKETCHINC
 40
1.0
  9
$FILLETRAD
 40
10.0
  9
$AUNITS
 70
     0
  9
$AUPREC
 70
     0
  9
$MENU
  1
.
  9
$ELEVATION
 40
0.0
  9
$PELEVATION
 40
0.0
  9
$THICKNESS
 40
0.0
  9
$LIMCHECK
 70
     0
  9
$CHAMFERA
 40
10.0
  9
$CHAMFERB
 40
10.0
  9
$SKPOLY
 70
     0
  9
$TDCREATE
 40
2455022.720692848
  9
$TDUPDATE
 40
2460521.494589329
  9
$TDINDWG
 40
0.1653080903
  9
$TDUSRTIMER
 40
0.1653080903
  9
$USRTIMER
 70
     1
  9
$ANGBASE
 50
0.0
  9
$ANGDIR
 70
     0
  9
$PDMODE
 70
     0
  9
$PDSIZE
 40
0.0
  9
$PLINEWID
 40
0.0
  9
$COORDS
 70
     1
  9
$SPLFRAME
 70
     0
  9
$SPLINETYPE
 70
     6
  9
$SPLINESEGS
 70
     8
  9
$ATTDIA
 70
     0
  9
$ATTREQ
 70
     1
  9
$HANDLING
 70
     1
  9
$HANDSEED
  5
5DA3
  9
$SURFTAB1
 70
     6
  9
$SURFTAB2
 70
     6
  9
$SURFTYPE
 70
     6
  9
$SURFU
 70
     6
  9
$SURFV
 70
     6
  9
$UCSNAME
  2

  9
$UCSORG
 10
0.0
 20
0.0
 30
0.0
  9
$UCSXDIR
 10
1.0
 20
0.0
 30
0.0
  9
$UCSYDIR
 10
0.0
 20
1.0
 30
0.0
  9
$PUCSNAME
  2

  9
$PUCSORG
 10
0.0
 20
0.0
 30
0.0
  9
$PUCSXDIR
 10
1.0
 20
0.0
 30
0.0
  9
$PUCSYDIR
 10
0.0
 20
1.0
 30
0.0
  9
$USERI1
 70
     0
  9
$USERI2
 70
     0
  9
$USERI3
 70
     0
  9
$USERI4
 70
     0
  9
$USERI5
 70
     0
  9
$USERR1
 40
0.0
  9
$USERR2
 40
0.0
  9
$USERR3
 40
0.0
  9
$USERR4
 40
0.0
  9
$USERR5
 40
0.0
  9
$WORLDVIEW
 70
     1
  9
$SHADEDGE
 70
     3
  9
$SHADEDIF
 70
    70
  9
$TILEMODE
 70
     1
  9
$MAXACTVP
 70
    64
  9
$PLIMCHECK
 70
     0
  9
$PEXTMIN
 10
1.000000000000000E+20
 20
1.000000000000000E+20
 30
1.000000000000000E+20
  9
$PEXTMAX
 10
-1.000000000000000E+20
 20
-1.000000000000000E+20
 30
-1.000000000000000E+20
  9
$PLIMMIN
 10
0.0
 20
0.0
  9
$PLIMMAX
 10
0.0
 20
0.0
  9
$UNITMODE
 70
     0
  9
$VISRETAIN
 70
     1
  9
$PLINEGEN
 70
     0
  9
$PSLTSCALE
 70
     1
  0
ENDSEC
  0
SECTION
  2
TABLES
  0
TABLE
  2
VPORT
 70
     1
  0
VPORT
  2
*ACTIVE
 70
     0
 10
0.0
 20
0.0
 11
1.0
 21
1.0
 12
-116.6110757937285
 22
90.81470093901663
 13
0.0
 23
0.0
 14
10.0
 24
10.0
 15
10.0
 25
10.0
 16
0.5773502691896262
 26
0.5773502691896262
 36
0.5773502691896262
 17
-41.66599977993164
 27
123.2469651304761
 37
-82.93435654674934
 40
770.3645241053097
 41
1.88293897882939
 42
50.0
 43
0.0
 44
0.0
 50
0.0
 51
0.0
 71
    16
 72
  1000
 73
     1
 74
     3
 75
     0
 76
     0
 77
     0
 78
     0
  0
ENDTAB
  0
TABLE
  2
LTYPE
 70
     1
  0
LTYPE
  2
CONTINUOUS
 70
     0
  3
Solid line
 72
    65
 73
     0
 40
0.0
  0
ENDTAB
  0
TABLE
  2
LAYER
 70
     1
  0
LAYER
  2
0
 70
     0
 62
     7
  6
CONTINUOUS
  0
ENDTAB
  0
TABLE
  2
STYLE
 70
     2
  0
STYLE
  2
STANDARD
 70
     0
 40
0.0
 41
1.0
 50
0.0
 71
     0
 42
2.5
  3
arial.ttf
  4

  0
STYLE
  2
ANNOTATIVE
 70
     0
 40
0.0
 41
1.0
 50
0.0
 71
     0
 42
2.5
  3
arial.ttf
  4

  0
ENDTAB
  0
TABLE
  2
VIEW
 70
     0
  0
ENDTAB
  0
TABLE
  2
UCS
 70
     0
  0
ENDTAB
  0
TABLE
  2
APPID
 70
     2
  0
APPID
  2
ACAD
 70
     0
  0
APPID
  2
ACADANNOTATIVE
 70
     0
  0
ENDTAB
  0
TABLE
  2
DIMSTYLE
 70
     2
  0
DIMSTYLE
  2
ISO-25
 70
     0
  3

  4

  5

  6

  7

 40
1.0
 41
2.5
 42
0.625
 43
3.75
 44
1.25
 45
0.0
 46
0.0
 47
0.0
 48
0.0
140
2.5
141
-2.5
142
0.0
143
0.03937007874016
144
1.0
145
0.0
146
1.0
147
0.625
 71
     0
 72
     0
 73
     0
 74
     0
 75
     0
 76
     0
 77
     1
 78
     8
170
     0
171
     3
172
     1
173
     0
174
     0
175
     0
176
     0
177
     0
178
     0
  0
DIMSTYLE
  2
ANNOTATIVE
 70
     0
  3

  4

  5

  6

  7

 40
0.0
 41
2.5
 42
0.625
 43
3.75
 44
1.25
 45
0.0
 46
0.0
 47
0.0
 48
0.0
140
2.5
141
-2.5
142
0.0
143
0.03937007874016
144
1.0
145
0.0
146
1.0
147
0.625
 71
     0
 72
     0
 73
     0
 74
     0
 75
     0
 76
     0
 77
     1
 78
     8
170
     0
171
     3
172
     1
173
     0
174
     0
175
     0
176
     0
177
     0
178
     0
  0
ENDTAB
  0
ENDSEC
  0
SECTION
  2
BLOCKS
  0
BLOCK
  8
0
  2
$MODEL_SPACE
 70
     0
 10
0.0
 20
0.0
 30
0.0
  3
$MODEL_SPACE
  1

  0
ENDBLK
  5
21
  8
0
  0
BLOCK
 67
     1
  8
0
  2
$PAPER_SPACE
 70
     0
 10
0.0
 20
0.0
 30
0.0
  3
$PAPER_SPACE
  1

  0
ENDBLK
  5
1D
 67
     1
  8
0
  0
BLOCK
  8
0
  2
*X1
 70
     1
 10
0.0
 20
0.0
 30
0.0
  3
*X1
  1

  0
POLYLINE
  5
57A0
  8
0
 66
     1
 10
0.0
 20
0.0
 30
0.0
 70
    64
 71
     8
 72
     6
  0
VERTEX
  5
57A1
  8
0
 10
486.6025403784438
 20
300.0000000000001
 30
0.0
 70
   192
  0
VERTEX
  5
57A2
  8
0
 10
486.6025403784438
 20
300.0000000000001
 30
-25.0
 70
   192
  0
VERTEX
  5
57A3
  8
0
 10
450.0
 20
336.602540378444
 30
-25.0
 70
   192
  0
VERTEX
  5
57A4
  8
0
 10
450.0
 20
336.602540378444
 30
0.0
 70
   192
  0
VERTEX
  5
57A5
  8
0
 10
500.0
 20
250.0000000000001
 30
0.0
 70
   192
  0
VERTEX
  5
57A6
  8
0
 10
500.0
 20
250.0000000000001
 30
-25.0
 70
   192
  0
VERTEX
  5
57A7
  8
0
 10
400.0
 20
350.0000000000001
 30
-25.0
 70
   192
  0
VERTEX
  5
57A8
  8
0
 10
400.0
 20
350.0000000000001
 30
0.0
 70
   192
  0
VERTEX
  5
57A9
  8
0
 10
0.0
 20
0.0
 30
0.0
 70
   128
 71
     1
 72
     2
 73
    -3
  0
VERTEX
  5
57AA
  8
0
 10
0.0
 20
0.0
 30
0.0
 70
   128
 71
    -1
 72
     3
 73
     4
  0
VERTEX
  5
57AB
  8
0
 10
0.0
 20
0.0
 30
0.0
 70
   128
 71
     5
 72
     6
 73
    -2
  0
VERTEX
  5
57AC
  8
0
 10
0.0
 20
0.0
 30
0.0
 70
   128
 71
    -5
 72
     2
 73
     1
  0
VERTEX
  5
57AD
  8
0
 10
0.0
 20
0.0
 30
0.0
 70
   128
 71
     4
 72
     3
 73
    -7
  0
VERTEX
  5
57AE
  8
0
 10
0.0
 20
0.0
 30
0.0
 70
   128
 71
    -4
 72
     7
 73
     8
  0
SEQEND
  5
5D2E
  8
0
  0
POLYLINE
  5
57AF
  8
0
 66
     1
 10
0.0
 20
0.0
 30
0.0
 70
    64
 71
     4
 72
     2
  0
VERTEX
  5
57B0
  8
0
 10
500.0
 20
250.0000000000001
 30
0.0
 70
   192
  0
VERTEX
  5
57B1
  8
0
 10
500.0
 20
-249.9999999999999
 30
0.0
 70
   192
  0
VERTEX
  5
57B2
  8
0
 10
500.0
 20
-249.9999999999999
 30
-25.0
 70
   192
  0
VERTEX
  5
57B3
  8
0
 10
500.0
 20
250.0000000000001
 30
-25.0
 70
   192
  0
VERTEX
  5
57B4
  8
0
 10
0.0
 20
0.0
 30
0.0
 70
   128
 71
     3
 72
     4
 73
    -1
  0
VERTEX
  5
57B5
  8
0
 10
0.0
 20
0.0
 30
0.0
 70
   128
 71
     2
 72
    -3
 73
     1
  0
SEQEND
  5
5D2F
  8
0
  0
POLYLINE
  5
57B6
  8
0
 66
     1
 10
0.0
 20
0.0
 30
0.0
 70
    64
 71
     8
 72
     6
  0
VERTEX
  5
57B7
  8
0
 10
450.0
 20
-336.6025403784437
 30
0.0
 70
   192
  0
VERTEX
  5
57B8
  8
0
 10
450.0
 20
-336.6025403784437
 30
-25.0
 70
   192
  0
VERTEX
  5
57B9
  8
0
 10
486.6025403784438
 20
-299.9999999999999
 30
-25.0
 70
   192
  0
VERTEX
  5
57BA
  8
0
 10
486.6025403784438
 20
-299.9999999999999
 30
0.0
 70
   192
  0
VERTEX
  5
57BB
  8
0
 10
400.0
 20
-349.9999999999998
 30
0.0
 70
   192
  0
VERTEX
  5
57BC
  8
0
 10
400.0
 20
-349.9999999999999
 30
-25.0
 70
   192
  0
VERTEX
  5
57BD
  8
0
 10
500.0
 20
-249.9999999999999
 30
-25.0
 70
   192
  0
VERTEX
  5
57BE
  8
0
 10
500.0
 20
-249.9999999999999
 30
0.0
 70
   192
  0
VERTEX
  5
57BF
  8
0
 10
0.0
 20
0.0
 30
0.0
 70
   128
 71
     1
 72
     2
 73
    -3
  0
VERTEX
  5
57C0
  8
0
 10
0.0
 20
0.0
 30
0.0
 70
   128
 71
    -1
 72
     3
 73
     4
  0
VERTEX
  5
57C1
  8
0
 10
0.0
 20
0.0
 30
0.0
 70
   128
 71
     5
 72
     6
 73
    -2
  0
VERTEX
  5
57C2
  8
0
 10
0.0
 20
0.0
 30
0.0
 70
   128
 71
    -5
 72
     2
 73
     1
  0
VERTEX
  5
57C3
  8
0
 10
0.0
 20
0.0
 30
0.0
 70
   128
 71
     4
 72
     3
 73
    -7
  0
VERTEX
  5
57C4
  8
0
 10
0.0
 20
0.0
 30
0.0
 70
   128
 71
    -4
 72
     7
 73
     8
  0
SEQEND
  5
5D30
  8
0
  0
POLYLINE
  5
57C5
  8
0
 66
     1
 10
0.0
 20
0.0
 30
0.0
 70
    64
 71
     4
 72
     2
  0
VERTEX
  5
57C6
  8
0
 10
400.0
 20
-349.9999999999999
 30
0.0
 70
   192
  0
VERTEX
  5
57C7
  8
0
 10
400.0
 20
-349.9999999999999
 30
-25.0
 70
   192
  0
VERTEX
  5
57C8
  8
0
 10
-399.9999999999999
 20
-349.9999999999999
 30
-25.0
 70
   192
  0
VERTEX
  5
57C9
  8
0
 10
-399.9999999999999
 20
-349.9999999999999
 30
0.0
 70
   192
  0
VERTEX
  5
57CA
  8
0
 10
0.0
 20
0.0
 30
0.0
 70
   128
 71
     1
 72
     4
 73
    -3
  0
VERTEX
  5
57CB
  8
0
 10
0.0
 20
0.0
 30
0.0
 70
   128
 71
    -1
 72
     3
 73
     2
  0
SEQEND
  5
5D31
  8
0
  0
POLYLINE
  5
57CC
  8
0
 66
     1
 10
0.0
 20
0.0
 30
0.0
 70
    64
 71
     8
 72
     6
  0
VERTEX
  5
57CD
  8
0
 10
-486.6025403784437
 20
-300.0
 30
0.0
 70
   192
  0
VERTEX
  5
57CE
  8
0
 10
-486.6025403784437
 20
-300.0
 30
-25.0
 70
   192
  0
VERTEX
  5
57CF
  8
0
 10
-449.9999999999999
 20
-336.6025403784438
 30
-25.0
 70
   192
  0
VERTEX
  5
57D0
  8
0
 10
-449.9999999999999
 20
-336.6025403784438
 30
0.0
 70
   192
  0
VERTEX
  5
57D1
  8
0
 10
-499.9999999999999
 20
-250.0
 30
0.0
 70
   192
  0
VERTEX
  5
57D2
  8
0
 10
-499.9999999999999
 20
-249.9999999999999
 30
-25.0
 70
   192
  0
VERTEX
  5
57D3
  8
0
 10
-399.9999999999999
 20
-349.9999999999999
 30
-25.0
 70
   192
  0
VERTEX
  5
57D4
  8
0
 10
-399.9999999999999
 20
-349.9999999999999
 30
0.0
 70
   192
  0
VERTEX
  5
57D5
  8
0
 10
0.0
 20
0.0
 30
0.0
 70
   128
 71
     1
 72
     2
 73
    -3
  0
VERTEX
  5
57D6
  8
0
 10
0.0
 20
0.0
 30
0.0
 70
   128
 71
    -1
 72
     3
 73
     4
  0
VERTEX
  5
57D7
  8
0
 10
0.0
 20
0.0
 30
0.0
 70
   128
 71
     5
 72
     6
 73
    -2
  0
VERTEX
  5
57D8
  8
0
 10
0.0
 20
0.0
 30
0.0
 70
   128
 71
    -5
 72
     2
 73
     1
  0
VERTEX
  5
57D9
  8
0
 10
0.0
 20
0.0
 30
0.0
 70
   128
 71
     4
 72
     3
 73
    -7
  0
VERTEX
  5
57DA
  8
0
 10
0.0
 20
0.0
 30
0.0
 70
   128
 71
    -4
 72
     7
 73
     8
  0
SEQEND
  5
5D32
  8
0
  0
POLYLINE
  5
57DB
  8
0
 66
     1
 10
0.0
 20
0.0
 30
0.0
 70
    64
 71
     4
 72
     2
  0
VERTEX
  5
57DC
  8
0
 10
-499.9999999999999
 20
-249.9999999999999
 30
0.0
 70
   192
  0
VERTEX
  5
57DD
  8
0
 10
-499.9999999999999
 20
-249.9999999999999
 30
-25.0
 70
   192
  0
VERTEX
  5
57DE
  8
0
 10
-499.9999999999999
 20
250.0
 30
-25.0
 70
   192
  0
VERTEX
  5
57DF
  8
0
 10
-499.9999999999999
 20
250.0
 30
0.0
 70
   192
  0
VERTEX
  5
57E0
  8
0
 10
0.0
 20
0.0
 30
0.0
 70
   128
 71
     1
 72
     4
 73
    -3
  0
VERTEX
  5
57E1
  8
0
 10
0.0
 20
0.0
 30
0.0
 70
   128
 71
    -1
 72
     3
 73
     2
  0
SEQEND
  5
5D33
  8
0
  0
POLYLINE
  5
57E2
  8
0
 66
     1
 10
0.0
 20
0.0
 30
0.0
 70
    64
 71
     8
 72
     6
  0
VERTEX
  5
57E3
  8
0
 10
-449.9999999999998
 20
336.6025403784438
 30
0.0
 70
   192
  0
VERTEX
  5
57E4
  8
0
 10
-449.9999999999998
 20
336.6025403784438
 30
-25.0
 70
   192
  0
VERTEX
  5
57E5
  8
0
 10
-486.6025403784437
 20
300.0
 30
-25.0
 70
   192
  0
VERTEX
  5
57E6
  8
0
 10
-486.6025403784437
 20
300.0
 30
0.0
 70
   192
  0
VERTEX
  5
57E7
  8
0
 10
-399.9999999999999
 20
350.0
 30
0.0
 70
   192
  0
VERTEX
  5
57E8
  8
0
 10
-399.9999999999999
 20
350.0000000000001
 30
-25.0
 70
   192
  0
VERTEX
  5
57E9
  8
0
 10
-499.9999999999999
 20
250.0
 30
-25.0
 70
   192
  0
VERTEX
  5
57EA
  8
0
 10
-499.9999999999999
 20
250.0
 30
0.0
 70
   192
  0
VERTEX
  5
57EB
  8
0
 10
0.0
 20
0.0
 30
0.0
 70
   128
 71
     1
 72
     2
 73
    -3
  0
VERTEX
  5
57EC
  8
0
 10
0.0
 20
0.0
 30
0.0
 70
   128
 71
    -1
 72
     3
 73
     4
  0
VERTEX
  5
57ED
  8
0
 10
0.0
 20
0.0
 30
0.0
 70
   128
 71
     5
 72
     6
 73
    -2
  0
VERTEX
  5
57EE
  8
0
 10
0.0
 20
0.0
 30
0.0
 70
   128
 71
    -5
 72
     2
 73
     1
  0
VERTEX
  5
57EF
  8
0
 10
0.0
 20
0.0
 30
0.0
 70
   128
 71
     4
 72
     3
 73
    -7
  0
VERTEX
  5
57F0
  8
0
 10
0.0
 20
0.0
 30
0.0
 70
   128
 71
    -4
 72
     7
 73
     8
  0
SEQEND
  5
5D34
  8
0
  0
POLYLINE
  5
57F1
  8
0
 66
     1
 10
0.0
 20
0.0
 30
0.0
 70
    64
 71
     4
 72
     2
  0
VERTEX
  5
57F2
  8
0
 10
-399.9999999999999
 20
350.0000000000001
 30
0.0
 70
   192
  0
VERTEX
  5
57F3
  8
0
 10
400.0
 20
350.0000000000001
 30
0.0
 70
   192
  0
VERTEX
  5
57F4
  8
0
 10
400.0
 20
350.0000000000001
 30
-25.0
 70
   192
  0
VERTEX
  5
57F5
  8
0
 10
-399.9999999999999
 20
350.0000000000001
 30
-25.0
 70
   192
  0
VERTEX
  5
57F6
  8
0
 10
0.0
 20
0.0
 30
0.0
 70
   128
 71
     3
 72
     4
 73
    -1
  0
VERTEX
  5
57F7
  8
0
 10
0.0
 20
0.0
 30
0.0
 70
   128
 71
     2
 72
    -3
 73
     1
  0
SEQEND
  5
5D35
  8
0
  0
POLYLINE
  5
57F8
  8
0
 66
     1
 10
0.0
 20
0.0
 30
0.0
 70
    64
 71
    32
 72
    32
  0
VERTEX
  5
57F9
  8
0
 10
400.0
 20
350.0000000000001
 30
-25.0
 70
   192
  0
VERTEX
  5
57FA
  8
0
 10
-399.9999999999999
 20
350.0
 30
-25.0
 70
   192
  0
VERTEX
  5
57FB
  8
0
 10
-449.9999999999998
 20
336.6025403784438
 30
-25.0
 70
   192
  0
VERTEX
  5
57FC
  8
0
 10
-486.6025403784437
 20
300.0
 30
-25.0
 70
   192
  0
VERTEX
  5
57FD
  8
0
 10
-499.9999999999999
 20
250.0
 30
-25.0
 70
   192
  0
VERTEX
  5
57FE
  8
0
 10
-499.9999999999999
 20
-250.0
 30
-25.0
 70
   192
  0
VERTEX
  5
57FF
  8
0
 10
-486.6025403784437
 20
-300.0
 30
-25.0
 70
   192
  0
VERTEX
  5
5800
  8
0
 10
-449.9999999999999
 20
-336.6025403784438
 30
-25.0
 70
   192
  0
VERTEX
  5
5801
  8
0
 10
-399.9999999999999
 20
-349.9999999999999
 30
-25.0
 70
   192
  0
VERTEX
  5
5802
  8
0
 10
400.0
 20
-349.9999999999998
 30
-25.0
 70
   192
  0
VERTEX
  5
5803
  8
0
 10
450.0
 20
-336.6025403784437
 30
-25.0
 70
   192
  0
VERTEX
  5
5804
  8
0
 10
486.6025403784438
 20
-299.9999999999999
 30
-25.0
 70
   192
  0
VERTEX
  5
5805
  8
0
 10
500.0
 20
-249.9999999999999
 30
-25.0
 70
   192
  0
VERTEX
  5
5806
  8
0
 10
500.0
 20
250.0000000000001
 30
-25.0
 70
   192
  0
VERTEX
  5
5807
  8
0
 10
486.6025403784438
 20
300.0000000000001
 30
-25.0
 70
   192
  0
VERTEX
  5
5808
  8
0
 10
450.0
 20
336.602540378444
 30
-25.0
 70
   192
  0
VERTEX
  5
5809
  8
0
 10
490.0
 20
-249.9999999999999
 30
-25.0
 70
   192
  0
VERTEX
  5
580A
  8
0
 10
477.9422863405994
 20
-294.9999999999999
 30
-25.0
 70
   192
  0
VERTEX
  5
580B
  8
0
 10
445.0
 20
-327.9422863405993
 30
-25.0
 70
   192
  0
VERTEX
  5
580C
  8
0
 10
400.0
 20
-339.9999999999999
 30
-25.0
 70
   192
  0
VERTEX
  5
580D
  8
0
 10
-399.9999999999999
 20
-339.9999999999999
 30
-25.0
 70
   192
  0
VERTEX
  5
580E
  8
0
 10
-444.9999999999998
 20
-327.9422863405994
 30
-25.0
 70
   192
  0
VERTEX
  5
580F
  8
0
 10
-477.9422863405993
 20
-295.0
 30
-25.0
 70
   192
  0
VERTEX
  5
5810
  8
0
 10
-489.9999999999999
 20
-250.0
 30
-25.0
 70
   192
  0
VERTEX
  5
5811
  8
0
 10
-489.9999999999999
 20
250.0
 30
-25.0
 70
   192
  0
VERTEX
  5
5812
  8
0
 10
-477.9422863405994
 20
295.0000000000001
 30
-25.0
 70
   192
  0
VERTEX
  5
5813
  8
0
 10
-444.9999999999999
 20
327.9422863405995
 30
-25.0
 70
   192
  0
VERTEX
  5
5814
  8
0
 10
-399.9999999999999
 20
340.0
 30
-25.0
 70
   192
  0
VERTEX
  5
5815
  8
0
 10
400.0
 20
340.0000000000001
 30
-25.0
 70
   192
  0
VERTEX
  5
5816
  8
0
 10
445.0
 20
327.9422863405996
 30
-25.0
 70
   192
  0
VERTEX
  5
5817
  8
0
 10
477.9422863405995
 20
295.0000000000001
 30
-25.0
 70
   192
  0
VERTEX
  5
5818
  8
0
 10
490.0
 20
250.0000000000001
 30
-25.0
 70
   192
  0
VERTEX
  5
5819
  8
0
 10
0.0
 20
0.0
 30
0.0
 70
   128
 71
    18
 72
   -17
 73
   -13
  0
VERTEX
  5
581A
  8
0
 10
0.0
 20
0.0
 30
0.0
 70
   128
 71
   -18
 72
    13
 73
   -12
  0
VERTEX
  5
581B
  8
0
 10
0.0
 20
0.0
 30
0.0
 70
   128
 71
    12
 72
   -11
 73
   -19
  0
VERTEX
  5
581C
  8
0
 10
0.0
 20
0.0
 30
0.0
 70
   128
 71
   -12
 72
    19
 73
   -18
  0
VERTEX
  5
581D
  8
0
 10
0.0
 20
0.0
 30
0.0
 70
   128
 71
    11
 72
   -10
 73
   -20
  0
VERTEX
  5
581E
  8
0
 10
0.0
 20
0.0
 30
0.0
 70
   128
 71
   -11
 72
    20
 73
   -19
  0
VERTEX
  5
581F
  8
0
 10
0.0
 20
0.0
 30
0.0
 70
   128
 71
    10
 72
    -9
 73
   -21
  0
VERTEX
  5
5820
  8
0
 10
0.0
 20
0.0
 30
0.0
 70
   128
 71
   -10
 72
    21
 73
   -20
  0
VERTEX
  5
5821
  8
0
 10
0.0
 20
0.0
 30
0.0
 70
   128
 71
     9
 72
    -8
 73
   -22
  0
VERTEX
  5
5822
  8
0
 10
0.0
 20
0.0
 30
0.0
 70
   128
 71
    -9
 72
    22
 73
   -21
  0
VERTEX
  5
5823
  8
0
 10
0.0
 20
0.0
 30
0.0
 70
   128
 71
     8
 72
    -7
 73
   -23
  0
VERTEX
  5
5824
  8
0
 10
0.0
 20
0.0
 30
0.0
 70
   128
 71
    -8
 72
    23
 73
   -22
  0
VERTEX
  5
5825
  8
0
 10
0.0
 20
0.0
 30
0.0
 70
   128
 71
     7
 72
    -6
 73
   -24
  0
VERTEX
  5
5826
  8
0
 10
0.0
 20
0.0
 30
0.0
 70
   128
 71
    -7
 72
    24
 73
   -23
  0
VERTEX
  5
5827
  8
0
 10
0.0
 20
0.0
 30
0.0
 70
   128
 71
     6
 72
    -5
 73
   -25
  0
VERTEX
  5
5828
  8
0
 10
0.0
 20
0.0
 30
0.0
 70
   128
 71
    -6
 72
    25
 73
   -24
  0
VERTEX
  5
5829
  8
0
 10
0.0
 20
0.0
 30
0.0
 70
   128
 71
     5
 72
    -4
 73
   -26
  0
VERTEX
  5
582A
  8
0
 10
0.0
 20
0.0
 30
0.0
 70
   128
 71
    -5
 72
    26
 73
   -25
  0
VERTEX
  5
582B
  8
0
 10
0.0
 20
0.0
 30
0.0
 70
   128
 71
     4
 72
    -3
 73
   -27
  0
VERTEX
  5
582C
  8
0
 10
0.0
 20
0.0
 30
0.0
 70
   128
 71
    -4
 72
    27
 73
   -26
  0
VERTEX
  5
582D
  8
0
 10
0.0
 20
0.0
 30
0.0
 70
   128
 71
     3
 72
    -2
 73
   -28
  0
VERTEX
  5
582E
  8
0
 10
0.0
 20
0.0
 30
0.0
 70
   128
 71
    -3
 72
    28
 73
   -27
  0
VERTEX
  5
582F
  8
0
 10
0.0
 20
0.0
 30
0.0
 70
   128
 71
     2
 72
    -1
 73
   -29
  0
VERTEX
  5
5830
  8
0
 10
0.0
 20
0.0
 30
0.0
 70
   128
 71
    -2
 72
    29
 73
   -28
  0
VERTEX
  5
5831
  8
0
 10
0.0
 20
0.0
 30
0.0
 70
   128
 71
     1
 72
   -16
 73
   -30
  0
VERTEX
  5
5832
  8
0
 10
0.0
 20
0.0
 30
0.0
 70
   128
 71
    -1
 72
    30
 73
   -29
  0
VERTEX
  5
5833
  8
0
 10
0.0
 20
0.0
 30
0.0
 70
   128
 71
    16
 72
   -15
 73
   -31
  0
VERTEX
  5
5834
  8
0
 10
0.0
 20
0.0
 30
0.0
 70
   128
 71
   -16
 72
    31
 73
   -30
  0
VERTEX
  5
5835
  8
0
 10
0.0
 20
0.0
 30
0.0
 70
   128
 71
    15
 72
   -14
 73
   -32
  0
VERTEX
  5
5836
  8
0
 10
0.0
 20
0.0
 30
0.0
 70
   128
 71
   -15
 72
    32
 73
   -31
  0
VERTEX
  5
5837
  8
0
 10
0.0
 20
0.0
 30
0.0
 70
   128
 71
    14
 72
   -13
 73
   -17
  0
VERTEX
  5
5838
  8
0
 10
0.0
 20
0.0
 30
0.0
 70
   128
 71
   -14
 72
    17
 73
   -32
  0
SEQEND
  5
5D36
  8
0
  0
POLYLINE
  5
5839
  8
0
 66
     1
 10
0.0
 20
0.0
 30
0.0
 70
    64
 71
    32
 72
    32
  0
VERTEX
  5
583A
  8
0
 10
500.0
 20
250.0000000000001
 30
0.0
 70
   192
  0
VERTEX
  5
583B
  8
0
 10
486.6025403784438
 20
300.0000000000001
 30
0.0
 70
   192
  0
VERTEX
  5
583C
  8
0
 10
450.0
 20
336.602540378444
 30
0.0
 70
   192
  0
VERTEX
  5
583D
  8
0
 10
400.0
 20
350.0000000000001
 30
0.0
 70
   192
  0
VERTEX
  5
583E
  8
0
 10
-399.9999999999999
 20
350.0000000000001
 30
0.0
 70
   192
  0
VERTEX
  5
583F
  8
0
 10
-449.9999999999998
 20
336.6025403784438
 30
0.0
 70
   192
  0
VERTEX
  5
5840
  8
0
 10
-486.6025403784437
 20
300.0
 30
0.0
 70
   192
  0
VERTEX
  5
5841
  8
0
 10
-499.9999999999999
 20
250.0
 30
0.0
 70
   192
  0
VERTEX
  5
5842
  8
0
 10
-499.9999999999999
 20
-249.9999999999999
 30
0.0
 70
   192
  0
VERTEX
  5
5843
  8
0
 10
-486.6025403784437
 20
-300.0
 30
0.0
 70
   192
  0
VERTEX
  5
5844
  8
0
 10
-449.9999999999999
 20
-336.6025403784438
 30
0.0
 70
   192
  0
VERTEX
  5
5845
  8
0
 10
-399.9999999999999
 20
-349.9999999999999
 30
0.0
 70
   192
  0
VERTEX
  5
5846
  8
0
 10
400.0
 20
-349.9999999999999
 30
0.0
 70
   192
  0
VERTEX
  5
5847
  8
0
 10
450.0
 20
-336.6025403784437
 30
0.0
 70
   192
  0
VERTEX
  5
5848
  8
0
 10
486.6025403784438
 20
-299.9999999999999
 30
0.0
 70
   192
  0
VERTEX
  5
5849
  8
0
 10
500.0
 20
-249.9999999999999
 30
0.0
 70
   192
  0
VERTEX
  5
584A
  8
0
 10
490.0000000000001
 20
250.0000000000001
 30
0.0
 70
   192
  0
VERTEX
  5
584B
  8
0
 10
490.0000000000001
 20
-249.9999999999999
 30
0.0
 70
   192
  0
VERTEX
  5
584C
  8
0
 10
477.9422863405995
 20
-294.9999999999999
 30
0.0
 70
   192
  0
VERTEX
  5
584D
  8
0
 10
445.0
 20
-327.9422863405994
 30
0.0
 70
   192
  0
VERTEX
  5
584E
  8
0
 10
400.0
 20
-339.9999999999999
 30
0.0
 70
   192
  0
VERTEX
  5
584F
  8
0
 10
-399.9999999999999
 20
-339.9999999999999
 30
0.0
 70
   192
  0
VERTEX
  5
5850
  8
0
 10
-444.9999999999999
 20
-327.9422863405995
 30
0.0
 70
   192
  0
VERTEX
  5
5851
  8
0
 10
-477.9422863405994
 20
-294.9999999999999
 30
0.0
 70
   192
  0
VERTEX
  5
5852
  8
0
 10
-489.9999999999999
 20
-249.9999999999999
 30
0.0
 70
   192
  0
VERTEX
  5
5853
  8
0
 10
-489.9999999999999
 20
250.0
 30
0.0
 70
   192
  0
VERTEX
  5
5854
  8
0
 10
-477.9422863405994
 20
295.0000000000001
 30
0.0
 70
   192
  0
VERTEX
  5
5855
  8
0
 10
-444.9999999999999
 20
327.9422863405995
 30
0.0
 70
   192
  0
VERTEX
  5
5856
  8
0
 10
-399.9999999999999
 20
340.0
 30
0.0
 70
   192
  0
VERTEX
  5
5857
  8
0
 10
400.0
 20
340.0000000000001
 30
0.0
 70
   192
  0
VERTEX
  5
5858
  8
0
 10
445.0
 20
327.9422863405996
 30
0.0
 70
   192
  0
VERTEX
  5
5859
  8
0
 10
477.9422863405995
 20
295.0000000000001
 30
0.0
 70
   192
  0
VERTEX
  5
585A
  8
0
 10
0.0
 20
0.0
 30
0.0
 70
   128
 71
    -1
 72
    17
 73
   -18
  0
VERTEX
  5
585B
  8
0
 10
0.0
 20
0.0
 30
0.0
 70
   128
 71
    16
 72
    -1
 73
   -18
  0
VERTEX
  5
585C
  8
0
 10
0.0
 20
0.0
 30
0.0
 70
   128
 71
   -19
 72
    15
 73
   -16
  0
VERTEX
  5
585D
  8
0
 10
0.0
 20
0.0
 30
0.0
 70
   128
 71
    18
 72
   -19
 73
   -16
  0
VERTEX
  5
585E
  8
0
 10
0.0
 20
0.0
 30
0.0
 70
   128
 71
   -20
 72
    14
 73
   -15
  0
VERTEX
  5
585F
  8
0
 10
0.0
 20
0.0
 30
0.0
 70
   128
 71
    19
 72
   -20
 73
   -15
  0
VERTEX
  5
5860
  8
0
 10
0.0
 20
0.0
 30
0.0
 70
   128
 71
   -21
 72
    13
 73
   -14
  0
VERTEX
  5
5861
  8
0
 10
0.0
 20
0.0
 30
0.0
 70
   128
 71
    20
 72
   -21
 73
   -14
  0
VERTEX
  5
5862
  8
0
 10
0.0
 20
0.0
 30
0.0
 70
   128
 71
   -22
 72
    12
 73
   -13
  0
VERTEX
  5
5863
  8
0
 10
0.0
 20
0.0
 30
0.0
 70
   128
 71
    21
 72
   -22
 73
   -13
  0
VERTEX
  5
5864
  8
0
 10
0.0
 20
0.0
 30
0.0
 70
   128
 71
   -23
 72
    11
 73
   -12
  0
VERTEX
  5
5865
  8
0
 10
0.0
 20
0.0
 30
0.0
 70
   128
 71
    22
 72
   -23
 73
   -12
  0
VERTEX
  5
5866
  8
0
 10
0.0
 20
0.0
 30
0.0
 70
   128
 71
   -24
 72
    10
 73
   -11
  0
VERTEX
  5
5867
  8
0
 10
0.0
 20
0.0
 30
0.0
 70
   128
 71
    23
 72
   -24
 73
   -11
  0
VERTEX
  5
5868
  8
0
 10
0.0
 20
0.0
 30
0.0
 70
   128
 71
   -25
 72
     9
 73
   -10
  0
VERTEX
  5
5869
  8
0
 10
0.0
 20
0.0
 30
0.0
 70
   128
 71
    24
 72
   -25
 73
   -10
  0
VERTEX
  5
586A
  8
0
 10
0.0
 20
0.0
 30
0.0
 70
   128
 71
   -26
 72
     8
 73
    -9
  0
VERTEX
  5
586B
  8
0
 10
0.0
 20
0.0
 30
0.0
 70
   128
 71
    25
 72
   -26
 73
    -9
  0
VERTEX
  5
586C
  8
0
 10
0.0
 20
0.0
 30
0.0
 70
   128
 71
   -27
 72
     7
 73
    -8
  0
VERTEX
  5
586D
  8
0
 10
0.0
 20
0.0
 30
0.0
 70
   128
 71
    26
 72
   -27
 73
    -8
  0
VERTEX
  5
586E
  8
0
 10
0.0
 20
0.0
 30
0.0
 70
   128
 71
   -28
 72
     6
 73
    -7
  0
VERTEX
  5
586F
  8
0
 10
0.0
 20
0.0
 30
0.0
 70
   128
 71
    27
 72
   -28
 73
    -7
  0
VERTEX
  5
5870
  8
0
 10
0.0
 20
0.0
 30
0.0
 70
   128
 71
   -29
 72
     5
 73
    -6
  0
VERTEX
  5
5871
  8
0
 10
0.0
 20
0.0
 30
0.0
 70
   128
 71
    28
 72
   -29
 73
    -6
  0
VERTEX
  5
5872
  8
0
 10
0.0
 20
0.0
 30
0.0
 70
   128
 71
   -30
 72
     4
 73
    -5
  0
VERTEX
  5
5873
  8
0
 10
0.0
 20
0.0
 30
0.0
 70
   128
 71
    29
 72
   -30
 73
    -5
  0
VERTEX
  5
5874
  8
0
 10
0.0
 20
0.0
 30
0.0
 70
   128
 71
   -31
 72
     3
 73
    -4
  0
VERTEX
  5
5875
  8
0
 10
0.0
 20
0.0
 30
0.0
 70
   128
 71
    30
 72
   -31
 73
    -4
  0
VERTEX
  5
5876
  8
0
 10
0.0
 20
0.0
 30
0.0
 70
   128
 71
   -32
 72
     2
 73
    -3
  0
VERTEX
  5
5877
  8
0
 10
0.0
 20
0.0
 30
0.0
 70
   128
 71
    31
 72
   -32
 73
    -3
  0
VERTEX
  5
5878
  8
0
 10
0.0
 20
0.0
 30
0.0
 70
   128
 71
   -17
 72
     1
 73
    -2
  0
VERTEX
  5
5879
  8
0
 10
0.0
 20
0.0
 30
0.0
 70
   128
 71
    32
 72
   -17
 73
    -2
  0
SEQEND
  5
5D37
  8
0
  0
POLYLINE
  5
587A
  8
0
 66
     1
 10
0.0
 20
0.0
 30
0.0
 70
    64
 71
     8
 72
     6
  0
VERTEX
  5
587B
  8
0
 10
445.0
 20
327.9422863405996
 30
-25.0
 70
   192
  0
VERTEX
  5
587C
  8
0
 10
477.9422863405995
 20
295.0000000000001
 30
-25.0
 70
   192
  0
VERTEX
  5
587D
  8
0
 10
477.9422863405995
 20
295.0000000000001
 30
-10.0
 70
   192
  0
VERTEX
  5
587E
  8
0
 10
445.0
 20
327.9422863405996
 30
-10.0
 70
   192
  0
VERTEX
  5
587F
  8
0
 10
490.0
 20
250.0000000000001
 30
-25.0
 70
   192
  0
VERTEX
  5
5880
  8
0
 10
490.0
 20
250.0000000000001
 30
-10.0
 70
   192
  0
VERTEX
  5
5881
  8
0
 10
400.0
 20
340.0000000000001
 30
-25.0
 70
   192
  0
VERTEX
  5
5882
  8
0
 10
400.0
 20
340.0000000000001
 30
-10.0
 70
   192
  0
VERTEX
  5
5883
  8
0
 10
0.0
 20
0.0
 30
0.0
 70
   128
 71
     1
 72
     2
 73
    -3
  0
VERTEX
  5
5884
  8
0
 10
0.0
 20
0.0
 30
0.0
 70
   128
 71
     4
 72
    -1
 73
     3
  0
VERTEX
  5
5885
  8
0
 10
0.0
 20
0.0
 30
0.0
 70
   128
 71
     2
 72
     5
 73
    -6
  0
VERTEX
  5
5886
  8
0
 10
0.0
 20
0.0
 30
0.0
 70
   128
 71
     3
 72
    -2
 73
     6
  0
VERTEX
  5
5887
  8
0
 10
0.0
 20
0.0
 30
0.0
 70
   128
 71
     7
 72
     1
 73
    -4
  0
VERTEX
  5
5888
  8
0
 10
0.0
 20
0.0
 30
0.0
 70
   128
 71
     8
 72
    -7
 73
     4
  0
SEQEND
  5
5D38
  8
0
  0
POLYLINE
  5
5889
  8
0
 66
     1
 10
0.0
 20
0.0
 30
0.0
 70
    64
 71
     4
 72
     2
  0
VERTEX
  5
588A
  8
0
 10
490.0
 20
-249.9999999999999
 30
-10.0
 70
   192
  0
VERTEX
  5
588B
  8
0
 10
490.0
 20
-249.9999999999999
 30
-25.0
 70
   192
  0
VERTEX
  5
588C
  8
0
 10
490.0
 20
250.0000000000001
 30
-25.0
 70
   192
  0
VERTEX
  5
588D
  8
0
 10
490.0
 20
250.0000000000001
 30
-10.0
 70
   192
  0
VERTEX
  5
588E
  8
0
 10
0.0
 20
0.0
 30
0.0
 70
   128
 71
     1
 72
     4
 73
    -3
  0
VERTEX
  5
588F
  8
0
 10
0.0
 20
0.0
 30
0.0
 70
   128
 71
    -1
 72
     3
 73
     2
  0
SEQEND
  5
5D39
  8
0
  0
POLYLINE
  5
5890
  8
0
 66
     1
 10
0.0
 20
0.0
 30
0.0
 70
    64
 71
     8
 72
     6
  0
VERTEX
  5
5891
  8
0
 10
477.9422863405994
 20
-294.9999999999999
 30
-25.0
 70
   192
  0
VERTEX
  5
5892
  8
0
 10
445.0
 20
-327.9422863405993
 30
-25.0
 70
   192
  0
VERTEX
  5
5893
  8
0
 10
445.0
 20
-327.9422863405993
 30
-10.0
 70
   192
  0
VERTEX
  5
5894
  8
0
 10
477.9422863405994
 20
-294.9999999999999
 30
-10.0
 70
   192
  0
VERTEX
  5
5895
  8
0
 10
400.0
 20
-339.9999999999998
 30
-25.0
 70
   192
  0
VERTEX
  5
5896
  8
0
 10
400.0
 20
-339.9999999999998
 30
-10.0
 70
   192
  0
VERTEX
  5
5897
  8
0
 10
490.0
 20
-249.9999999999999
 30
-25.0
 70
   192
  0
VERTEX
  5
5898
  8
0
 10
490.0
 20
-249.9999999999999
 30
-10.0
 70
   192
  0
VERTEX
  5
5899
  8
0
 10
0.0
 20
0.0
 30
0.0
 70
   128
 71
     1
 72
     2
 73
    -3
  0
VERTEX
  5
589A
  8
0
 10
0.0
 20
0.0
 30
0.0
 70
   128
 71
     4
 72
    -1
 73
     3
  0
VERTEX
  5
589B
  8
0
 10
0.0
 20
0.0
 30
0.0
 70
   128
 71
     2
 72
     5
 73
    -6
  0
VERTEX
  5
589C
  8
0
 10
0.0
 20
0.0
 30
0.0
 70
   128
 71
     3
 72
    -2
 73
     6
  0
VERTEX
  5
589D
  8
0
 10
0.0
 20
0.0
 30
0.0
 70
   128
 71
     7
 72
     1
 73
    -4
  0
VERTEX
  5
589E
  8
0
 10
0.0
 20
0.0
 30
0.0
 70
   128
 71
     8
 72
    -7
 73
     4
  0
SEQEND
  5
5D3A
  8
0
  0
POLYLINE
  5
589F
  8
0
 66
     1
 10
0.0
 20
0.0
 30
0.0
 70
    64
 71
     4
 72
     2
  0
VERTEX
  5
58A0
  8
0
 10
-399.9999999999999
 20
-339.9999999999999
 30
-10.0
 70
   192
  0
VERTEX
  5
58A1
  8
0
 10
400.0
 20
-339.9999999999999
 30
-10.0
 70
   192
  0
VERTEX
  5
58A2
  8
0
 10
400.0
 20
-339.9999999999999
 30
-25.0
 70
   192
  0
VERTEX
  5
58A3
  8
0
 10
-399.9999999999999
 20
-339.9999999999999
 30
-25.0
 70
   192
  0
VERTEX
  5
58A4
  8
0
 10
0.0
 20
0.0
 30
0.0
 70
   128
 71
     3
 72
     4
 73
    -1
  0
VERTEX
  5
58A5
  8
0
 10
0.0
 20
0.0
 30
0.0
 70
   128
 71
     2
 72
    -3
 73
     1
  0
SEQEND
  5
5D3B
  8
0
  0
POLYLINE
  5
58A6
  8
0
 66
     1
 10
0.0
 20
0.0
 30
0.0
 70
    64
 71
     8
 72
     6
  0
VERTEX
  5
58A7
  8
0
 10
-444.9999999999998
 20
-327.9422863405994
 30
-25.0
 70
   192
  0
VERTEX
  5
58A8
  8
0
 10
-477.9422863405993
 20
-295.0
 30
-25.0
 70
   192
  0
VERTEX
  5
58A9
  8
0
 10
-477.9422863405993
 20
-295.0
 30
-10.0
 70
   192
  0
VERTEX
  5
58AA
  8
0
 10
-444.9999999999998
 20
-327.9422863405994
 30
-10.0
 70
   192
  0
VERTEX
  5
58AB
  8
0
 10
-489.9999999999999
 20
-250.0
 30
-25.0
 70
   192
  0
VERTEX
  5
58AC
  8
0
 10
-489.9999999999999
 20
-250.0
 30
-10.0
 70
   192
  0
VERTEX
  5
58AD
  8
0
 10
-399.9999999999999
 20
-339.9999999999999
 30
-25.0
 70
   192
  0
VERTEX
  5
58AE
  8
0
 10
-399.9999999999999
 20
-339.9999999999999
 30
-10.0
 70
   192
  0
VERTEX
  5
58AF
  8
0
 10
0.0
 20
0.0
 30
0.0
 70
   128
 71
     1
 72
     2
 73
    -3
  0
VERTEX
  5
58B0
  8
0
 10
0.0
 20
0.0
 30
0.0
 70
   128
 71
     4
 72
    -1
 73
     3
  0
VERTEX
  5
58B1
  8
0
 10
0.0
 20
0.0
 30
0.0
 70
   128
 71
     2
 72
     5
 73
    -6
  0
VERTEX
  5
58B2
  8
0
 10
0.0
 20
0.0
 30
0.0
 70
   128
 71
     3
 72
    -2
 73
     6
  0
VERTEX
  5
58B3
  8
0
 10
0.0
 20
0.0
 30
0.0
 70
   128
 71
     7
 72
     1
 73
    -4
  0
VERTEX
  5
58B4
  8
0
 10
0.0
 20
0.0
 30
0.0
 70
   128
 71
     8
 72
    -7
 73
     4
  0
SEQEND
  5
5D3C
  8
0
  0
POLYLINE
  5
58B5
  8
0
 66
     1
 10
0.0
 20
0.0
 30
0.0
 70
    64
 71
     4
 72
     2
  0
VERTEX
  5
58B6
  8
0
 10
-489.9999999999999
 20
250.0
 30
-10.0
 70
   192
  0
VERTEX
  5
58B7
  8
0
 10
-489.9999999999999
 20
-250.0
 30
-10.0
 70
   192
  0
VERTEX
  5
58B8
  8
0
 10
-489.9999999999999
 20
-249.9999999999999
 30
-25.0
 70
   192
  0
VERTEX
  5
58B9
  8
0
 10
-489.9999999999999
 20
250.0
 30
-25.0
 70
   192
  0
VERTEX
  5
58BA
  8
0
 10
0.0
 20
0.0
 30
0.0
 70
   128
 71
     3
 72
     4
 73
    -1
  0
VERTEX
  5
58BB
  8
0
 10
0.0
 20
0.0
 30
0.0
 70
   128
 71
     2
 72
    -3
 73
     1
  0
SEQEND
  5
5D3D
  8
0
  0
POLYLINE
  5
58BC
  8
0
 66
     1
 10
0.0
 20
0.0
 30
0.0
 70
    64
 71
     8
 72
     6
  0
VERTEX
  5
58BD
  8
0
 10
-477.9422863405994
 20
295.0000000000001
 30
-25.0
 70
   192
  0
VERTEX
  5
58BE
  8
0
 10
-444.9999999999999
 20
327.9422863405995
 30
-25.0
 70
   192
  0
VERTEX
  5
58BF
  8
0
 10
-444.9999999999999
 20
327.9422863405995
 30
-10.0
 70
   192
  0
VERTEX
  5
58C0
  8
0
 10
-477.9422863405994
 20
295.0000000000001
 30
-10.0
 70
   192
  0
VERTEX
  5
58C1
  8
0
 10
-399.9999999999999
 20
340.0
 30
-25.0
 70
   192
  0
VERTEX
  5
58C2
  8
0
 10
-399.9999999999999
 20
340.0
 30
-10.0
 70
   192
  0
VERTEX
  5
58C3
  8
0
 10
-489.9999999999999
 20
250.0
 30
-25.0
 70
   192
  0
VERTEX
  5
58C4
  8
0
 10
-489.9999999999999
 20
250.0
 30
-10.0
 70
   192
  0
VERTEX
  5
58C5
  8
0
 10
0.0
 20
0.0
 30
0.0
 70
   128
 71
     1
 72
     2
 73
    -3
  0
VERTEX
  5
58C6
  8
0
 10
0.0
 20
0.0
 30
0.0
 70
   128
 71
     4
 72
    -1
 73
     3
  0
VERTEX
  5
58C7
  8
0
 10
0.0
 20
0.0
 30
0.0
 70
   128
 71
     2
 72
     5
 73
    -6
  0
VERTEX
  5
58C8
  8
0
 10
0.0
 20
0.0
 30
0.0
 70
   128
 71
     3
 72
    -2
 73
     6
  0
VERTEX
  5
58C9
  8
0
 10
0.0
 20
0.0
 30
0.0
 70
   128
 71
     7
 72
     1
 73
    -4
  0
VERTEX
  5
58CA
  8
0
 10
0.0
 20
0.0
 30
0.0
 70
   128
 71
     8
 72
    -7
 73
     4
  0
SEQEND
  5
5D3E
  8
0
  0
POLYLINE
  5
58CB
  8
0
 66
     1
 10
0.0
 20
0.0
 30
0.0
 70
    64
 71
     4
 72
     2
  0
VERTEX
  5
58CC
  8
0
 10
400.0
 20
340.0000000000001
 30
-10.0
 70
   192
  0
VERTEX
  5
58CD
  8
0
 10
400.0
 20
340.0000000000001
 30
-25.0
 70
   192
  0
VERTEX
  5
58CE
  8
0
 10
-399.9999999999999
 20
340.0
 30
-25.0
 70
   192
  0
VERTEX
  5
58CF
  8
0
 10
-399.9999999999999
 20
340.0
 30
-10.0
 70
   192
  0
VERTEX
  5
58D0
  8
0
 10
0.0
 20
0.0
 30
0.0
 70
   128
 71
     1
 72
     4
 73
    -3
  0
VERTEX
  5
58D1
  8
0
 10
0.0
 20
0.0
 30
0.0
 70
   128
 71
    -1
 72
     3
 73
     2
  0
SEQEND
  5
5D3F
  8
0
  0
POLYLINE
  5
58D2
  8
0
 66
     1
 10
0.0
 20
0.0
 30
0.0
 70
    64
 71
    16
 72
    14
  0
VERTEX
  5
58D3
  8
0
 10
400.0
 20
340.0000000000001
 30
-10.0
 70
   192
  0
VERTEX
  5
58D4
  8
0
 10
-399.9999999999999
 20
340.0
 30
-10.0
 70
   192
  0
VERTEX
  5
58D5
  8
0
 10
-444.9999999999999
 20
327.9422863405995
 30
-10.0
 70
   192
  0
VERTEX
  5
58D6
  8
0
 10
-477.9422863405994
 20
295.0000000000001
 30
-10.0
 70
   192
  0
VERTEX
  5
58D7
  8
0
 10
-489.9999999999999
 20
250.0
 30
-10.0
 70
   192
  0
VERTEX
  5
58D8
  8
0
 10
-489.9999999999999
 20
-250.0
 30
-10.0
 70
   192
  0
VERTEX
  5
58D9
  8
0
 10
-477.9422863405993
 20
-295.0
 30
-10.0
 70
   192
  0
VERTEX
  5
58DA
  8
0
 10
-444.9999999999998
 20
-327.9422863405994
 30
-10.0
 70
   192
  0
VERTEX
  5
58DB
  8
0
 10
-399.9999999999999
 20
-339.9999999999999
 30
-10.0
 70
   192
  0
VERTEX
  5
58DC
  8
0
 10
400.0
 20
-339.9999999999998
 30
-10.0
 70
   192
  0
VERTEX
  5
58DD
  8
0
 10
445.0
 20
-327.9422863405993
 30
-10.0
 70
   192
  0
VERTEX
  5
58DE
  8
0
 10
477.9422863405994
 20
-294.9999999999999
 30
-10.0
 70
   192
  0
VERTEX
  5
58DF
  8
0
 10
490.0
 20
-249.9999999999999
 30
-10.0
 70
   192
  0
VERTEX
  5
58E0
  8
0
 10
490.0
 20
250.0000000000001
 30
-10.0
 70
   192
  0
VERTEX
  5
58E1
  8
0
 10
477.9422863405995
 20
295.0000000000001
 30
-10.0
 70
   192
  0
VERTEX
  5
58E2
  8
0
 10
445.0
 20
327.9422863405996
 30
-10.0
 70
   192
  0
VERTEX
  5
58E3
  8
0
 10
0.0
 20
0.0
 30
0.0
 70
   128
 71
     1
 72
    16
 73
   -15
  0
VERTEX
  5
58E4
  8
0
 10
0.0
 20
0.0
 30
0.0
 70
   128
 71
    -1
 72
    15
 73
   -14
  0
VERTEX
  5
58E5
  8
0
 10
0.0
 20
0.0
 30
0.0
 70
   128
 71
    -1
 72
    14
 73
   -13
  0
VERTEX
  5
58E6
  8
0
 10
0.0
 20
0.0
 30
0.0
 70
   128
 71
    -1
 72
    13
 73
   -12
  0
VERTEX
  5
58E7
  8
0
 10
0.0
 20
0.0
 30
0.0
 70
   128
 71
    -1
 72
    12
 73
   -11
  0
VERTEX
  5
58E8
  8
0
 10
0.0
 20
0.0
 30
0.0
 70
   128
 71
    -1
 72
    11
 73
   -10
  0
VERTEX
  5
58E9
  8
0
 10
0.0
 20
0.0
 30
0.0
 70
   128
 71
    -1
 72
    10
 73
    -9
  0
VERTEX
  5
58EA
  8
0
 10
0.0
 20
0.0
 30
0.0
 70
   128
 71
    -1
 72
     9
 73
    -8
  0
VERTEX
  5
58EB
  8
0
 10
0.0
 20
0.0
 30
0.0
 70
   128
 71
    -1
 72
     8
 73
    -7
  0
VERTEX
  5
58EC
  8
0
 10
0.0
 20
0.0
 30
0.0
 70
   128
 71
    -1
 72
     7
 73
    -6
  0
VERTEX
  5
58ED
  8
0
 10
0.0
 20
0.0
 30
0.0
 70
   128
 71
    -1
 72
     6
 73
    -5
  0
VERTEX
  5
58EE
  8
0
 10
0.0
 20
0.0
 30
0.0
 70
   128
 71
    -1
 72
     5
 73
    -4
  0
VERTEX
  5
58EF
  8
0
 10
0.0
 20
0.0
 30
0.0
 70
   128
 71
    -1
 72
     4
 73
    -3
  0
VERTEX
  5
58F0
  8
0
 10
0.0
 20
0.0
 30
0.0
 70
   128
 71
    -1
 72
     3
 73
     2
  0
SEQEND
  5
5D40
  8
0
  0
POLYLINE
  5
58F1
  8
0
 66
     1
 10
0.0
 20
0.0
 30
0.0
 70
    64
 71
     4
 72
     2
  0
VERTEX
  5
58F2
  8
0
 10
490.0000000000001
 20
-249.9999999999999
 30
0.0
 70
   192
  0
VERTEX
  5
58F3
  8
0
 10
490.0000000000001
 20
-249.9999999999999
 30
-0.5
 70
   192
  0
VERTEX
  5
58F4
  8
0
 10
490.0
 20
250.0000000000001
 30
-0.5
 70
   192
  0
VERTEX
  5
58F5
  8
0
 10
490.0000000000001
 20
250.0000000000001
 30
0.0
 70
   192
  0
VERTEX
  5
58F6
  8
0
 10
0.0
 20
0.0
 30
0.0
 70
   128
 71
     1
 72
     4
 73
    -3
  0
VERTEX
  5
58F7
  8
0
 10
0.0
 20
0.0
 30
0.0
 70
   128
 71
    -1
 72
     3
 73
     2
  0
SEQEND
  5
5D41
  8
0
  0
POLYLINE
  5
58F8
  8
0
 66
     1
 10
0.0
 20
0.0
 30
0.0
 70
    64
 71
     8
 72
     6
  0
VERTEX
  5
58F9
  8
0
 10
477.9422863405995
 20
-294.9999999999999
 30
-0.5
 70
   192
  0
VERTEX
  5
58FA
  8
0
 10
445.0
 20
-327.9422863405994
 30
-0.5
 70
   192
  0
VERTEX
  5
58FB
  8
0
 10
445.0
 20
-327.9422863405994
 30
0.0
 70
   192
  0
VERTEX
  5
58FC
  8
0
 10
477.9422863405995
 20
-294.9999999999999
 30
0.0
 70
   192
  0
VERTEX
  5
58FD
  8
0
 10
400.0
 20
-339.9999999999999
 30
-0.5
 70
   192
  0
VERTEX
  5
58FE
  8
0
 10
400.0
 20
-339.9999999999999
 30
0.0
 70
   192
  0
VERTEX
  5
58FF
  8
0
 10
490.0000000000001
 20
-249.9999999999999
 30
-0.5
 70
   192
  0
VERTEX
  5
5900
  8
0
 10
490.0
 20
-249.9999999999999
 30
0.0
 70
   192
  0
VERTEX
  5
5901
  8
0
 10
0.0
 20
0.0
 30
0.0
 70
   128
 71
     1
 72
     2
 73
    -3
  0
VERTEX
  5
5902
  8
0
 10
0.0
 20
0.0
 30
0.0
 70
   128
 71
     4
 72
    -1
 73
     3
  0
VERTEX
  5
5903
  8
0
 10
0.0
 20
0.0
 30
0.0
 70
   128
 71
     2
 72
     5
 73
    -6
  0
VERTEX
  5
5904
  8
0
 10
0.0
 20
0.0
 30
0.0
 70
   128
 71
     3
 72
    -2
 73
     6
  0
VERTEX
  5
5905
  8
0
 10
0.0
 20
0.0
 30
0.0
 70
   128
 71
     7
 72
     1
 73
    -4
  0
VERTEX
  5
5906
  8
0
 10
0.0
 20
0.0
 30
0.0
 70
   128
 71
     8
 72
    -7
 73
     4
  0
SEQEND
  5
5D42
  8
0
  0
POLYLINE
  5
5907
  8
0
 66
     1
 10
0.0
 20
0.0
 30
0.0
 70
    64
 71
     4
 72
     2
  0
VERTEX
  5
5908
  8
0
 10
-399.9999999999999
 20
-339.9999999999999
 30
0.0
 70
   192
  0
VERTEX
  5
5909
  8
0
 10
400.0
 20
-339.9999999999998
 30
0.0
 70
   192
  0
VERTEX
  5
590A
  8
0
 10
400.0
 20
-339.9999999999999
 30
-0.5
 70
   192
  0
VERTEX
  5
590B
  8
0
 10
-399.9999999999999
 20
-339.9999999999999
 30
-0.5
 70
   192
  0
VERTEX
  5
590C
  8
0
 10
0.0
 20
0.0
 30
0.0
 70
   128
 71
     3
 72
     4
 73
    -1
  0
VERTEX
  5
590D
  8
0
 10
0.0
 20
0.0
 30
0.0
 70
   128
 71
     2
 72
    -3
 73
     1
  0
SEQEND
  5
5D43
  8
0
  0
POLYLINE
  5
590E
  8
0
 66
     1
 10
0.0
 20
0.0
 30
0.0
 70
    64
 71
     8
 72
     6
  0
VERTEX
  5
590F
  8
0
 10
-444.9999999999999
 20
-327.9422863405995
 30
-0.5
 70
   192
  0
VERTEX
  5
5910
  8
0
 10
-477.9422863405994
 20
-294.9999999999999
 30
-0.5
 70
   192
  0
VERTEX
  5
5911
  8
0
 10
-477.9422863405994
 20
-294.9999999999999
 30
0.0
 70
   192
  0
VERTEX
  5
5912
  8
0
 10
-444.9999999999999
 20
-327.9422863405995
 30
0.0
 70
   192
  0
VERTEX
  5
5913
  8
0
 10
-489.9999999999999
 20
-249.9999999999999
 30
-0.5
 70
   192
  0
VERTEX
  5
5914
  8
0
 10
-489.9999999999999
 20
-249.9999999999999
 30
0.0
 70
   192
  0
VERTEX
  5
5915
  8
0
 10
-399.9999999999999
 20
-339.9999999999999
 30
-0.5
 70
   192
  0
VERTEX
  5
5916
  8
0
 10
-399.9999999999999
 20
-340.0
 30
0.0
 70
   192
  0
VERTEX
  5
5917
  8
0
 10
0.0
 20
0.0
 30
0.0
 70
   128
 71
     1
 72
     2
 73
    -3
  0
VERTEX
  5
5918
  8
0
 10
0.0
 20
0.0
 30
0.0
 70
   128
 71
     4
 72
    -1
 73
     3
  0
VERTEX
  5
5919
  8
0
 10
0.0
 20
0.0
 30
0.0
 70
   128
 71
     2
 72
     5
 73
    -6
  0
VERTEX
  5
591A
  8
0
 10
0.0
 20
0.0
 30
0.0
 70
   128
 71
     3
 72
    -2
 73
     6
  0
VERTEX
  5
591B
  8
0
 10
0.0
 20
0.0
 30
0.0
 70
   128
 71
     7
 72
     1
 73
    -4
  0
VERTEX
  5
591C
  8
0
 10
0.0
 20
0.0
 30
0.0
 70
   128
 71
     8
 72
    -7
 73
     4
  0
SEQEND
  5
5D44
  8
0
  0
POLYLINE
  5
591D
  8
0
 66
     1
 10
0.0
 20
0.0
 30
0.0
 70
    64
 71
     4
 72
     2
  0
VERTEX
  5
591E
  8
0
 10
-489.9999999999999
 20
250.0
 30
0.0
 70
   192
  0
VERTEX
  5
591F
  8
0
 10
-489.9999999999999
 20
-249.9999999999999
 30
0.0
 70
   192
  0
VERTEX
  5
5920
  8
0
 10
-489.9999999999999
 20
-249.9999999999999
 30
-0.5
 70
   192
  0
VERTEX
  5
5921
  8
0
 10
-489.9999999999999
 20
250.0
 30
-0.5
 70
   192
  0
VERTEX
  5
5922
  8
0
 10
0.0
 20
0.0
 30
0.0
 70
   128
 71
     3
 72
     4
 73
    -1
  0
VERTEX
  5
5923
  8
0
 10
0.0
 20
0.0
 30
0.0
 70
   128
 71
     2
 72
    -3
 73
     1
  0
SEQEND
  5
5D45
  8
0
  0
POLYLINE
  5
5924
  8
0
 66
     1
 10
0.0
 20
0.0
 30
0.0
 70
    64
 71
     8
 72
     6
  0
VERTEX
  5
5925
  8
0
 10
-477.9422863405994
 20
295.0000000000001
 30
-0.5
 70
   192
  0
VERTEX
  5
5926
  8
0
 10
-444.9999999999999
 20
327.9422863405995
 30
-0.5
 70
   192
  0
VERTEX
  5
5927
  8
0
 10
-444.9999999999999
 20
327.9422863405995
 30
0.0
 70
   192
  0
VERTEX
  5
5928
  8
0
 10
-477.9422863405994
 20
295.0000000000001
 30
0.0
 70
   192
  0
VERTEX
  5
5929
  8
0
 10
-399.9999999999999
 20
340.0
 30
-0.5
 70
   192
  0
VERTEX
  5
592A
  8
0
 10
-399.9999999999999
 20
340.0
 30
0.0
 70
   192
  0
VERTEX
  5
592B
  8
0
 10
-489.9999999999999
 20
250.0
 30
-0.5
 70
   192
  0
VERTEX
  5
592C
  8
0
 10
-489.9999999999999
 20
250.0
 30
0.0
 70
   192
  0
VERTEX
  5
592D
  8
0
 10
0.0
 20
0.0
 30
0.0
 70
   128
 71
     1
 72
     2
 73
    -3
  0
VERTEX
  5
592E
  8
0
 10
0.0
 20
0.0
 30
0.0
 70
   128
 71
     4
 72
    -1
 73
     3
  0
VERTEX
  5
592F
  8
0
 10
0.0
 20
0.0
 30
0.0
 70
   128
 71
     2
 72
     5
 73
    -6
  0
VERTEX
  5
5930
  8
0
 10
0.0
 20
0.0
 30
0.0
 70
   128
 71
     3
 72
    -2
 73
     6
  0
VERTEX
  5
5931
  8
0
 10
0.0
 20
0.0
 30
0.0
 70
   128
 71
     7
 72
     1
 73
    -4
  0
VERTEX
  5
5932
  8
0
 10
0.0
 20
0.0
 30
0.0
 70
   128
 71
     8
 72
    -7
 73
     4
  0
SEQEND
  5
5D46
  8
0
  0
POLYLINE
  5
5933
  8
0
 66
     1
 10
0.0
 20
0.0
 30
0.0
 70
    64
 71
     4
 72
     2
  0
VERTEX
  5
5934
  8
0
 10
400.0
 20
340.0000000000001
 30
0.0
 70
   192
  0
VERTEX
  5
5935
  8
0
 10
400.0
 20
340.0000000000001
 30
-0.5
 70
   192
  0
VERTEX
  5
5936
  8
0
 10
-399.9999999999999
 20
340.0
 30
-0.5
 70
   192
  0
VERTEX
  5
5937
  8
0
 10
-399.9999999999998
 20
340.0
 30
0.0
 70
   192
  0
VERTEX
  5
5938
  8
0
 10
0.0
 20
0.0
 30
0.0
 70
   128
 71
     1
 72
     4
 73
    -3
  0
VERTEX
  5
5939
  8
0
 10
0.0
 20
0.0
 30
0.0
 70
   128
 71
    -1
 72
     3
 73
     2
  0
SEQEND
  5
5D47
  8
0
  0
POLYLINE
  5
593A
  8
0
 66
     1
 10
0.0
 20
0.0
 30
0.0
 70
    64
 71
     8
 72
     6
  0
VERTEX
  5
593B
  8
0
 10
469.2820323027551
 20
290.0000000000001
 30
0.0
 70
   192
  0
VERTEX
  5
593C
  8
0
 10
469.2820323027551
 20
290.0000000000001
 30
-0.5
 70
   192
  0
VERTEX
  5
593D
  8
0
 10
440.0
 20
319.2820323027552
 30
-0.5
 70
   192
  0
VERTEX
  5
593E
  8
0
 10
440.0
 20
319.2820323027552
 30
0.0
 70
   192
  0
VERTEX
  5
593F
  8
0
 10
479.9999999999999
 20
250.0000000000001
 30
0.0
 70
   192
  0
VERTEX
  5
5940
  8
0
 10
480.0
 20
250.0000000000001
 30
-0.5
 70
   192
  0
VERTEX
  5
5941
  8
0
 10
400.0
 20
330.0000000000001
 30
-0.5
 70
   192
  0
VERTEX
  5
5942
  8
0
 10
400.0
 20
330.0000000000001
 30
0.0
 70
   192
  0
VERTEX
  5
5943
  8
0
 10
0.0
 20
0.0
 30
0.0
 70
   128
 71
     1
 72
     2
 73
    -3
  0
VERTEX
  5
5944
  8
0
 10
0.0
 20
0.0
 30
0.0
 70
   128
 71
    -1
 72
     3
 73
     4
  0
VERTEX
  5
5945
  8
0
 10
0.0
 20
0.0
 30
0.0
 70
   128
 71
     5
 72
     6
 73
    -2
  0
VERTEX
  5
5946
  8
0
 10
0.0
 20
0.0
 30
0.0
 70
   128
 71
    -5
 72
     2
 73
     1
  0
VERTEX
  5
5947
  8
0
 10
0.0
 20
0.0
 30
0.0
 70
   128
 71
     4
 72
     3
 73
    -7
  0
VERTEX
  5
5948
  8
0
 10
0.0
 20
0.0
 30
0.0
 70
   128
 71
    -4
 72
     7
 73
     8
  0
SEQEND
  5
5D48
  8
0
  0
POLYLINE
  5
5949
  8
0
 66
     1
 10
0.0
 20
0.0
 30
0.0
 70
    64
 71
     4
 72
     2
  0
VERTEX
  5
594A
  8
0
 10
-399.9999999999999
 20
329.9999999999999
 30
0.0
 70
   192
  0
VERTEX
  5
594B
  8
0
 10
400.0
 20
330.0000000000001
 30
0.0
 70
   192
  0
VERTEX
  5
594C
  8
0
 10
400.0
 20
330.0000000000001
 30
-0.5
 70
   192
  0
VERTEX
  5
594D
  8
0
 10
-399.9999999999999
 20
329.9999999999999
 30
-0.5
 70
   192
  0
VERTEX
  5
594E
  8
0
 10
0.0
 20
0.0
 30
0.0
 70
   128
 71
     3
 72
     4
 73
    -1
  0
VERTEX
  5
594F
  8
0
 10
0.0
 20
0.0
 30
0.0
 70
   128
 71
     2
 72
    -3
 73
     1
  0
SEQEND
  5
5D49
  8
0
  0
POLYLINE
  5
5950
  8
0
 66
     1
 10
0.0
 20
0.0
 30
0.0
 70
    64
 71
     8
 72
     6
  0
VERTEX
  5
5951
  8
0
 10
-439.9999999999999
 20
319.282032302755
 30
0.0
 70
   192
  0
VERTEX
  5
5952
  8
0
 10
-439.9999999999999
 20
319.282032302755
 30
-0.5
 70
   192
  0
VERTEX
  5
5953
  8
0
 10
-469.2820323027549
 20
289.9999999999999
 30
-0.5
 70
   192
  0
VERTEX
  5
5954
  8
0
 10
-469.2820323027549
 20
289.9999999999999
 30
0.0
 70
   192
  0
VERTEX
  5
5955
  8
0
 10
-399.9999999999999
 20
329.9999999999999
 30
0.0
 70
   192
  0
VERTEX
  5
5956
  8
0
 10
-399.9999999999999
 20
329.9999999999999
 30
-0.5
 70
   192
  0
VERTEX
  5
5957
  8
0
 10
-479.9999999999998
 20
250.0
 30
-0.5
 70
   192
  0
VERTEX
  5
5958
  8
0
 10
-479.9999999999999
 20
250.0
 30
0.0
 70
   192
  0
VERTEX
  5
5959
  8
0
 10
0.0
 20
0.0
 30
0.0
 70
   128
 71
     1
 72
     2
 73
    -3
  0
VERTEX
  5
595A
  8
0
 10
0.0
 20
0.0
 30
0.0
 70
   128
 71
    -1
 72
     3
 73
     4
  0
VERTEX
  5
595B
  8
0
 10
0.0
 20
0.0
 30
0.0
 70
   128
 71
     5
 72
     6
 73
    -2
  0
VERTEX
  5
595C
  8
0
 10
0.0
 20
0.0
 30
0.0
 70
   128
 71
    -5
 72
     2
 73
     1
  0
VERTEX
  5
595D
  8
0
 10
0.0
 20
0.0
 30
0.0
 70
   128
 71
     4
 72
     3
 73
    -7
  0
VERTEX
  5
595E
  8
0
 10
0.0
 20
0.0
 30
0.0
 70
   128
 71
    -4
 72
     7
 73
     8
  0
SEQEND
  5
5D4A
  8
0
  0
POLYLINE
  5
595F
  8
0
 66
     1
 10
0.0
 20
0.0
 30
0.0
 70
    64
 71
     4
 72
     2
  0
VERTEX
  5
5960
  8
0
 10
-479.9999999999999
 20
-249.9999999999999
 30
0.0
 70
   192
  0
VERTEX
  5
5961
  8
0
 10
-479.9999999999999
 20
-249.9999999999999
 30
-0.5
 70
   192
  0
VERTEX
  5
5962
  8
0
 10
-479.9999999999999
 20
250.0
 30
-0.5
 70
   192
  0
VERTEX
  5
5963
  8
0
 10
-479.9999999999999
 20
250.0
 30
0.0
 70
   192
  0
VERTEX
  5
5964
  8
0
 10
0.0
 20
0.0
 30
0.0
 70
   128
 71
     1
 72
     4
 73
    -3
  0
VERTEX
  5
5965
  8
0
 10
0.0
 20
0.0
 30
0.0
 70
   128
 71
    -1
 72
     3
 73
     2
  0
SEQEND
  5
5D4B
  8
0
  0
POLYLINE
  5
5966
  8
0
 66
     1
 10
0.0
 20
0.0
 30
0.0
 70
    64
 71
     8
 72
     6
  0
VERTEX
  5
5967
  8
0
 10
-469.282032302755
 20
-289.9999999999999
 30
0.0
 70
   192
  0
VERTEX
  5
5968
  8
0
 10
-469.282032302755
 20
-289.9999999999999
 30
-0.5
 70
   192
  0
VERTEX
  5
5969
  8
0
 10
-439.9999999999999
 20
-319.2820323027551
 30
-0.5
 70
   192
  0
VERTEX
  5
596A
  8
0
 10
-439.9999999999999
 20
-319.2820323027551
 30
0.0
 70
   192
  0
VERTEX
  5
596B
  8
0
 10
-479.9999999999999
 20
-249.9999999999999
 30
0.0
 70
   192
  0
VERTEX
  5
596C
  8
0
 10
-479.9999999999999
 20
-249.9999999999999
 30
-0.5
 70
   192
  0
VERTEX
  5
596D
  8
0
 10
-399.9999999999999
 20
-330.0
 30
-0.5
 70
   192
  0
VERTEX
  5
596E
  8
0
 10
-399.9999999999999
 20
-329.9999999999999
 30
0.0
 70
   192
  0
VERTEX
  5
596F
  8
0
 10
0.0
 20
0.0
 30
0.0
 70
   128
 71
     1
 72
     2
 73
    -3
  0
VERTEX
  5
5970
  8
0
 10
0.0
 20
0.0
 30
0.0
 70
   128
 71
    -1
 72
     3
 73
     4
  0
VERTEX
  5
5971
  8
0
 10
0.0
 20
0.0
 30
0.0
 70
   128
 71
     5
 72
     6
 73
    -2
  0
VERTEX
  5
5972
  8
0
 10
0.0
 20
0.0
 30
0.0
 70
   128
 71
    -5
 72
     2
 73
     1
  0
VERTEX
  5
5973
  8
0
 10
0.0
 20
0.0
 30
0.0
 70
   128
 71
     4
 72
     3
 73
    -7
  0
VERTEX
  5
5974
  8
0
 10
0.0
 20
0.0
 30
0.0
 70
   128
 71
    -4
 72
     7
 73
     8
  0
SEQEND
  5
5D4C
  8
0
  0
POLYLINE
  5
5975
  8
0
 66
     1
 10
0.0
 20
0.0
 30
0.0
 70
    64
 71
     4
 72
     2
  0
VERTEX
  5
5976
  8
0
 10
400.0
 20
-329.9999999999998
 30
0.0
 70
   192
  0
VERTEX
  5
5977
  8
0
 10
400.0
 20
-329.9999999999998
 30
-0.5
 70
   192
  0
VERTEX
  5
5978
  8
0
 10
-399.9999999999999
 20
-329.9999999999999
 30
-0.5
 70
   192
  0
VERTEX
  5
5979
  8
0
 10
-399.9999999999999
 20
-329.9999999999999
 30
0.0
 70
   192
  0
VERTEX
  5
597A
  8
0
 10
0.0
 20
0.0
 30
0.0
 70
   128
 71
     1
 72
     4
 73
    -3
  0
VERTEX
  5
597B
  8
0
 10
0.0
 20
0.0
 30
0.0
 70
   128
 71
    -1
 72
     3
 73
     2
  0
SEQEND
  5
5D4D
  8
0
  0
POLYLINE
  5
597C
  8
0
 66
     1
 10
0.0
 20
0.0
 30
0.0
 70
    64
 71
     8
 72
     6
  0
VERTEX
  5
597D
  8
0
 10
440.0
 20
-319.2820323027549
 30
0.0
 70
   192
  0
VERTEX
  5
597E
  8
0
 10
440.0
 20
-319.2820323027549
 30
-0.5
 70
   192
  0
VERTEX
  5
597F
  8
0
 10
469.2820323027551
 20
-289.9999999999999
 30
-0.5
 70
   192
  0
VERTEX
  5
5980
  8
0
 10
469.2820323027551
 20
-289.9999999999999
 30
0.0
 70
   192
  0
VERTEX
  5
5981
  8
0
 10
400.0
 20
-329.9999999999999
 30
0.0
 70
   192
  0
VERTEX
  5
5982
  8
0
 10
400.0
 20
-329.9999999999998
 30
-0.5
 70
   192
  0
VERTEX
  5
5983
  8
0
 10
480.0
 20
-249.9999999999999
 30
-0.5
 70
   192
  0
VERTEX
  5
5984
  8
0
 10
480.0000000000001
 20
-249.9999999999999
 30
0.0
 70
   192
  0
VERTEX
  5
5985
  8
0
 10
0.0
 20
0.0
 30
0.0
 70
   128
 71
     1
 72
     2
 73
    -3
  0
VERTEX
  5
5986
  8
0
 10
0.0
 20
0.0
 30
0.0
 70
   128
 71
    -1
 72
     3
 73
     4
  0
VERTEX
  5
5987
  8
0
 10
0.0
 20
0.0
 30
0.0
 70
   128
 71
     5
 72
     6
 73
    -2
  0
VERTEX
  5
5988
  8
0
 10
0.0
 20
0.0
 30
0.0
 70
   128
 71
    -5
 72
     2
 73
     1
  0
VERTEX
  5
5989
  8
0
 10
0.0
 20
0.0
 30
0.0
 70
   128
 71
     4
 72
     3
 73
    -7
  0
VERTEX
  5
598A
  8
0
 10
0.0
 20
0.0
 30
0.0
 70
   128
 71
    -4
 72
     7
 73
     8
  0
SEQEND
  5
5D4E
  8
0
  0
POLYLINE
  5
598B
  8
0
 66
     1
 10
0.0
 20
0.0
 30
0.0
 70
    64
 71
     4
 72
     2
  0
VERTEX
  5
598C
  8
0
 10
480.0000000000001
 20
250.0000000000001
 30
0.0
 70
   192
  0
VERTEX
  5
598D
  8
0
 10
480.0000000000001
 20
-249.9999999999999
 30
0.0
 70
   192
  0
VERTEX
  5
598E
  8
0
 10
480.0000000000001
 20
-249.9999999999999
 30
-0.5
 70
   192
  0
VERTEX
  5
598F
  8
0
 10
480.0000000000001
 20
250.0000000000001
 30
-0.5
 70
   192
  0
VERTEX
  5
5990
  8
0
 10
0.0
 20
0.0
 30
0.0
 70
   128
 71
     3
 72
     4
 73
    -1
  0
VERTEX
  5
5991
  8
0
 10
0.0
 20
0.0
 30
0.0
 70
   128
 71
     2
 72
    -3
 73
     1
  0
SEQEND
  5
5D4F
  8
0
  0
POLYLINE
  5
5992
  8
0
 66
     1
 10
0.0
 20
0.0
 30
0.0
 70
    64
 71
     8
 72
     6
  0
VERTEX
  5
5993
  8
0
 10
445.0
 20
327.9422863405996
 30
-0.5
 70
   192
  0
VERTEX
  5
5994
  8
0
 10
477.9422863405995
 20
295.0000000000001
 30
-0.5
 70
   192
  0
VERTEX
  5
5995
  8
0
 10
477.9422863405995
 20
295.0000000000001
 30
0.0
 70
   192
  0
VERTEX
  5
5996
  8
0
 10
445.0
 20
327.9422863405996
 30
0.0
 70
   192
  0
VERTEX
  5
5997
  8
0
 10
490.0
 20
250.0000000000001
 30
-0.5
 70
   192
  0
VERTEX
  5
5998
  8
0
 10
490.0
 20
250.0000000000001
 30
0.0
 70
   192
  0
VERTEX
  5
5999
  8
0
 10
400.0
 20
340.0000000000001
 30
-0.5
 70
   192
  0
VERTEX
  5
599A
  8
0
 10
400.0
 20
340.0000000000001
 30
0.0
 70
   192
  0
VERTEX
  5
599B
  8
0
 10
0.0
 20
0.0
 30
0.0
 70
   128
 71
     1
 72
     2
 73
    -3
  0
VERTEX
  5
599C
  8
0
 10
0.0
 20
0.0
 30
0.0
 70
   128
 71
     4
 72
    -1
 73
     3
  0
VERTEX
  5
599D
  8
0
 10
0.0
 20
0.0
 30
0.0
 70
   128
 71
     2
 72
     5
 73
    -6
  0
VERTEX
  5
599E
  8
0
 10
0.0
 20
0.0
 30
0.0
 70
   128
 71
     3
 72
    -2
 73
     6
  0
VERTEX
  5
599F
  8
0
 10
0.0
 20
0.0
 30
0.0
 70
   128
 71
     7
 72
     1
 73
    -4
  0
VERTEX
  5
59A0
  8
0
 10
0.0
 20
0.0
 30
0.0
 70
   128
 71
     8
 72
    -7
 73
     4
  0
SEQEND
  5
5D50
  8
0
  0
POLYLINE
  5
59A1
  8
0
 66
     1
 10
0.0
 20
0.0
 30
0.0
 70
    64
 71
    32
 72
    32
  0
VERTEX
  5
59A2
  8
0
 10
490.0000000000001
 20
-249.9999999999999
 30
-0.5
 70
   192
  0
VERTEX
  5
59A3
  8
0
 10
490.0000000000001
 20
250.0000000000001
 30
-0.5
 70
   192
  0
VERTEX
  5
59A4
  8
0
 10
477.9422863405995
 20
295.0000000000001
 30
-0.5
 70
   192
  0
VERTEX
  5
59A5
  8
0
 10
445.0
 20
327.9422863405996
 30
-0.5
 70
   192
  0
VERTEX
  5
59A6
  8
0
 10
400.0
 20
340.0000000000001
 30
-0.5
 70
   192
  0
VERTEX
  5
59A7
  8
0
 10
-399.9999999999998
 20
340.0
 30
-0.5
 70
   192
  0
VERTEX
  5
59A8
  8
0
 10
-444.9999999999999
 20
327.9422863405995
 30
-0.5
 70
   192
  0
VERTEX
  5
59A9
  8
0
 10
-477.9422863405994
 20
295.0000000000001
 30
-0.5
 70
   192
  0
VERTEX
  5
59AA
  8
0
 10
-489.9999999999999
 20
250.0
 30
-0.5
 70
   192
  0
VERTEX
  5
59AB
  8
0
 10
-489.9999999999999
 20
-249.9999999999999
 30
-0.5
 70
   192
  0
VERTEX
  5
59AC
  8
0
 10
-477.9422863405994
 20
-294.9999999999999
 30
-0.5
 70
   192
  0
VERTEX
  5
59AD
  8
0
 10
-444.9999999999999
 20
-327.9422863405995
 30
-0.5
 70
   192
  0
VERTEX
  5
59AE
  8
0
 10
-399.9999999999999
 20
-340.0
 30
-0.5
 70
   192
  0
VERTEX
  5
59AF
  8
0
 10
400.0
 20
-339.9999999999998
 30
-0.5
 70
   192
  0
VERTEX
  5
59B0
  8
0
 10
445.0
 20
-327.9422863405994
 30
-0.5
 70
   192
  0
VERTEX
  5
59B1
  8
0
 10
477.9422863405995
 20
-294.9999999999999
 30
-0.5
 70
   192
  0
VERTEX
  5
59B2
  8
0
 10
400.0
 20
330.0000000000001
 30
-0.5
 70
   192
  0
VERTEX
  5
59B3
  8
0
 10
440.0
 20
319.2820323027552
 30
-0.5
 70
   192
  0
VERTEX
  5
59B4
  8
0
 10
469.2820323027551
 20
290.0000000000001
 30
-0.5
 70
   192
  0
VERTEX
  5
59B5
  8
0
 10
479.9999999999999
 20
250.0000000000001
 30
-0.5
 70
   192
  0
VERTEX
  5
59B6
  8
0
 10
480.0000000000001
 20
-249.9999999999999
 30
-0.5
 70
   192
  0
VERTEX
  5
59B7
  8
0
 10
469.2820323027551
 20
-289.9999999999999
 30
-0.5
 70
   192
  0
VERTEX
  5
59B8
  8
0
 10
440.0
 20
-319.2820323027549
 30
-0.5
 70
   192
  0
VERTEX
  5
59B9
  8
0
 10
400.0
 20
-329.9999999999999
 30
-0.5
 70
   192
  0
VERTEX
  5
59BA
  8
0
 10
-399.9999999999999
 20
-329.9999999999999
 30
-0.5
 70
   192
  0
VERTEX
  5
59BB
  8
0
 10
-439.9999999999999
 20
-319.2820323027551
 30
-0.5
 70
   192
  0
VERTEX
  5
59BC
  8
0
 10
-469.282032302755
 20
-289.9999999999999
 30
-0.5
 70
   192
  0
VERTEX
  5
59BD
  8
0
 10
-479.9999999999999
 20
-249.9999999999999
 30
-0.5
 70
   192
  0
VERTEX
  5
59BE
  8
0
 10
-479.9999999999999
 20
250.0
 30
-0.5
 70
   192
  0
VERTEX
  5
59BF
  8
0
 10
-469.2820323027549
 20
289.9999999999999
 30
-0.5
 70
   192
  0
VERTEX
  5
59C0
  8
0
 10
-439.9999999999999
 20
319.282032302755
 30
-0.5
 70
   192
  0
VERTEX
  5
59C1
  8
0
 10
-399.9999999999999
 20
329.9999999999999
 30
-0.5
 70
   192
  0
VERTEX
  5
59C2
  8
0
 10
0.0
 20
0.0
 30
0.0
 70
   128
 71
    -5
 72
    17
 73
   -18
  0
VERTEX
  5
59C3
  8
0
 10
0.0
 20
0.0
 30
0.0
 70
   128
 71
     4
 72
    -5
 73
   -18
  0
VERTEX
  5
59C4
  8
0
 10
0.0
 20
0.0
 30
0.0
 70
   128
 71
   -19
 72
     3
 73
    -4
  0
VERTEX
  5
59C5
  8
0
 10
0.0
 20
0.0
 30
0.0
 70
   128
 71
    18
 72
   -19
 73
    -4
  0
VERTEX
  5
59C6
  8
0
 10
0.0
 20
0.0
 30
0.0
 70
   128
 71
   -20
 72
     2
 73
    -3
  0
VERTEX
  5
59C7
  8
0
 10
0.0
 20
0.0
 30
0.0
 70
   128
 71
    19
 72
   -20
 73
    -3
  0
VERTEX
  5
59C8
  8
0
 10
0.0
 20
0.0
 30
0.0
 70
   128
 71
   -21
 72
     1
 73
    -2
  0
VERTEX
  5
59C9
  8
0
 10
0.0
 20
0.0
 30
0.0
 70
   128
 71
    20
 72
   -21
 73
    -2
  0
VERTEX
  5
59CA
  8
0
 10
0.0
 20
0.0
 30
0.0
 70
   128
 71
   -22
 72
    16
 73
    -1
  0
VERTEX
  5
59CB
  8
0
 10
0.0
 20
0.0
 30
0.0
 70
   128
 71
    21
 72
   -22
 73
    -1
  0
VERTEX
  5
59CC
  8
0
 10
0.0
 20
0.0
 30
0.0
 70
   128
 71
   -23
 72
    15
 73
   -16
  0
VERTEX
  5
59CD
  8
0
 10
0.0
 20
0.0
 30
0.0
 70
   128
 71
    22
 72
   -23
 73
   -16
  0
VERTEX
  5
59CE
  8
0
 10
0.0
 20
0.0
 30
0.0
 70
   128
 71
   -24
 72
    14
 73
   -15
  0
VERTEX
  5
59CF
  8
0
 10
0.0
 20
0.0
 30
0.0
 70
   128
 71
    23
 72
   -24
 73
   -15
  0
VERTEX
  5
59D0
  8
0
 10
0.0
 20
0.0
 30
0.0
 70
   128
 71
   -25
 72
    13
 73
   -14
  0
VERTEX
  5
59D1
  8
0
 10
0.0
 20
0.0
 30
0.0
 70
   128
 71
    24
 72
   -25
 73
   -14
  0
VERTEX
  5
59D2
  8
0
 10
0.0
 20
0.0
 30
0.0
 70
   128
 71
   -26
 72
    12
 73
   -13
  0
VERTEX
  5
59D3
  8
0
 10
0.0
 20
0.0
 30
0.0
 70
   128
 71
    25
 72
   -26
 73
   -13
  0
VERTEX
  5
59D4
  8
0
 10
0.0
 20
0.0
 30
0.0
 70
   128
 71
   -27
 72
    11
 73
   -12
  0
VERTEX
  5
59D5
  8
0
 10
0.0
 20
0.0
 30
0.0
 70
   128
 71
    26
 72
   -27
 73
   -12
  0
VERTEX
  5
59D6
  8
0
 10
0.0
 20
0.0
 30
0.0
 70
   128
 71
   -28
 72
    10
 73
   -11
  0
VERTEX
  5
59D7
  8
0
 10
0.0
 20
0.0
 30
0.0
 70
   128
 71
    27
 72
   -28
 73
   -11
  0
VERTEX
  5
59D8
  8
0
 10
0.0
 20
0.0
 30
0.0
 70
   128
 71
   -29
 72
     9
 73
   -10
  0
VERTEX
  5
59D9
  8
0
 10
0.0
 20
0.0
 30
0.0
 70
   128
 71
    28
 72
   -29
 73
   -10
  0
VERTEX
  5
59DA
  8
0
 10
0.0
 20
0.0
 30
0.0
 70
   128
 71
   -30
 72
     8
 73
    -9
  0
VERTEX
  5
59DB
  8
0
 10
0.0
 20
0.0
 30
0.0
 70
   128
 71
    29
 72
   -30
 73
    -9
  0
VERTEX
  5
59DC
  8
0
 10
0.0
 20
0.0
 30
0.0
 70
   128
 71
   -31
 72
     7
 73
    -8
  0
VERTEX
  5
59DD
  8
0
 10
0.0
 20
0.0
 30
0.0
 70
   128
 71
    30
 72
   -31
 73
    -8
  0
VERTEX
  5
59DE
  8
0
 10
0.0
 20
0.0
 30
0.0
 70
   128
 71
   -32
 72
     6
 73
    -7
  0
VERTEX
  5
59DF
  8
0
 10
0.0
 20
0.0
 30
0.0
 70
   128
 71
    31
 72
   -32
 73
    -7
  0
VERTEX
  5
59E0
  8
0
 10
0.0
 20
0.0
 30
0.0
 70
   128
 71
   -17
 72
     5
 73
    -6
  0
VERTEX
  5
59E1
  8
0
 10
0.0
 20
0.0
 30
0.0
 70
   128
 71
    32
 72
   -17
 73
    -6
  0
SEQEND
  5
5D51
  8
0
  0
POLYLINE
  5
59E2
  8
0
 66
     1
 10
0.0
 20
0.0
 30
0.0
 70
    64
 71
    32
 72
    32
  0
VERTEX
  5
59E3
  8
0
 10
480.0000000000001
 20
-249.9999999999999
 30
0.0
 70
   192
  0
VERTEX
  5
59E4
  8
0
 10
480.0000000000001
 20
250.0000000000001
 30
0.0
 70
   192
  0
VERTEX
  5
59E5
  8
0
 10
469.2820323027551
 20
290.0000000000001
 30
0.0
 70
   192
  0
VERTEX
  5
59E6
  8
0
 10
440.0
 20
319.2820323027552
 30
0.0
 70
   192
  0
VERTEX
  5
59E7
  8
0
 10
400.0
 20
330.0000000000001
 30
0.0
 70
   192
  0
VERTEX
  5
59E8
  8
0
 10
-399.9999999999999
 20
329.9999999999999
 30
0.0
 70
   192
  0
VERTEX
  5
59E9
  8
0
 10
-439.9999999999999
 20
319.282032302755
 30
0.0
 70
   192
  0
VERTEX
  5
59EA
  8
0
 10
-469.2820323027549
 20
289.9999999999999
 30
0.0
 70
   192
  0
VERTEX
  5
59EB
  8
0
 10
-479.9999999999998
 20
250.0
 30
0.0
 70
   192
  0
VERTEX
  5
59EC
  8
0
 10
-479.9999999999999
 20
-249.9999999999999
 30
0.0
 70
   192
  0
VERTEX
  5
59ED
  8
0
 10
-469.282032302755
 20
-289.9999999999999
 30
0.0
 70
   192
  0
VERTEX
  5
59EE
  8
0
 10
-439.9999999999999
 20
-319.2820323027551
 30
0.0
 70
   192
  0
VERTEX
  5
59EF
  8
0
 10
-399.9999999999999
 20
-330.0
 30
0.0
 70
   192
  0
VERTEX
  5
59F0
  8
0
 10
400.0
 20
-329.9999999999998
 30
0.0
 70
   192
  0
VERTEX
  5
59F1
  8
0
 10
440.0
 20
-319.2820323027549
 30
0.0
 70
   192
  0
VERTEX
  5
59F2
  8
0
 10
469.2820323027551
 20
-289.9999999999999
 30
0.0
 70
   192
  0
VERTEX
  5
59F3
  8
0
 10
462.0
 20
250.0000000000001
 30
0.0
 70
   192
  0
VERTEX
  5
59F4
  8
0
 10
462.0
 20
-249.9999999999999
 30
0.0
 70
   192
  0
VERTEX
  5
59F5
  8
0
 10
453.6935750346352
 20
-280.9999999999999
 30
0.0
 70
   192
  0
VERTEX
  5
59F6
  8
0
 10
431.0
 20
-303.693575034635
 30
0.0
 70
   192
  0
VERTEX
  5
59F7
  8
0
 10
400.0
 20
-311.9999999999999
 30
0.0
 70
   192
  0
VERTEX
  5
59F8
  8
0
 10
-400.0
 20
-312.0
 30
0.0
 70
   192
  0
VERTEX
  5
59F9
  8
0
 10
-431.0
 20
-303.6935750346352
 30
0.0
 70
   192
  0
VERTEX
  5
59FA
  8
0
 10
-453.6935750346352
 20
-281.0
 30
0.0
 70
   192
  0
VERTEX
  5
59FB
  8
0
 10
-461.9999999999999
 20
-250.0
 30
0.0
 70
   192
  0
VERTEX
  5
59FC
  8
0
 10
-461.9999999999999
 20
250.0
 30
0.0
 70
   192
  0
VERTEX
  5
59FD
  8
0
 10
-453.6935750346352
 20
281.0
 30
0.0
 70
   192
  0
VERTEX
  5
59FE
  8
0
 10
-431.0
 20
303.6935750346352
 30
0.0
 70
   192
  0
VERTEX
  5
59FF
  8
0
 10
-400.0
 20
312.0000000000001
 30
0.0
 70
   192
  0
VERTEX
  5
5A00
  8
0
 10
400.0
 20
312.0000000000001
 30
0.0
 70
   192
  0
VERTEX
  5
5A01
  8
0
 10
431.0
 20
303.6935750346353
 30
0.0
 70
   192
  0
VERTEX
  5
5A02
  8
0
 10
453.6935750346352
 20
281.0000000000001
 30
0.0
 70
   192
  0
VERTEX
  5
5A03
  8
0
 10
0.0
 20
0.0
 30
0.0
 70
   128
 71
    -3
 72
    17
 73
   -18
  0
VERTEX
  5
5A04
  8
0
 10
0.0
 20
0.0
 30
0.0
 70
   128
 71
     2
 72
    -3
 73
   -18
  0
VERTEX
  5
5A05
  8
0
 10
0.0
 20
0.0
 30
0.0
 70
   128
 71
     1
 72
    -2
 73
   -18
  0
VERTEX
  5
5A06
  8
0
 10
0.0
 20
0.0
 30
0.0
 70
   128
 71
    16
 72
    -1
 73
   -18
  0
VERTEX
  5
5A07
  8
0
 10
0.0
 20
0.0
 30
0.0
 70
   128
 71
    18
 72
   -19
 73
   -16
  0
VERTEX
  5
5A08
  8
0
 10
0.0
 20
0.0
 30
0.0
 70
   128
 71
   -20
 72
    15
 73
   -16
  0
VERTEX
  5
5A09
  8
0
 10
0.0
 20
0.0
 30
0.0
 70
   128
 71
    19
 72
   -20
 73
   -16
  0
VERTEX
  5
5A0A
  8
0
 10
0.0
 20
0.0
 30
0.0
 70
   128
 71
    20
 72
   -21
 73
   -15
  0
VERTEX
  5
5A0B
  8
0
 10
0.0
 20
0.0
 30
0.0
 70
   128
 71
    13
 72
    14
 73
   -15
  0
VERTEX
  5
5A0C
  8
0
 10
0.0
 20
0.0
 30
0.0
 70
   128
 71
    12
 72
   -13
 73
   -15
  0
VERTEX
  5
5A0D
  8
0
 10
0.0
 20
0.0
 30
0.0
 70
   128
 71
   -22
 72
   -12
 73
   -15
  0
VERTEX
  5
5A0E
  8
0
 10
0.0
 20
0.0
 30
0.0
 70
   128
 71
    21
 72
   -22
 73
   -15
  0
VERTEX
  5
5A0F
  8
0
 10
0.0
 20
0.0
 30
0.0
 70
   128
 71
    22
 72
   -23
 73
   -12
  0
VERTEX
  5
5A10
  8
0
 10
0.0
 20
0.0
 30
0.0
 70
   128
 71
   -24
 72
    11
 73
   -12
  0
VERTEX
  5
5A11
  8
0
 10
0.0
 20
0.0
 30
0.0
 70
   128
 71
    23
 72
   -24
 73
   -12
  0
VERTEX
  5
5A12
  8
0
 10
0.0
 20
0.0
 30
0.0
 70
   128
 71
    24
 72
   -25
 73
   -11
  0
VERTEX
  5
5A13
  8
0
 10
0.0
 20
0.0
 30
0.0
 70
   128
 71
     9
 72
    10
 73
   -11
  0
VERTEX
  5
5A14
  8
0
 10
0.0
 20
0.0
 30
0.0
 70
   128
 71
     8
 72
    -9
 73
   -11
  0
VERTEX
  5
5A15
  8
0
 10
0.0
 20
0.0
 30
0.0
 70
   128
 71
   -26
 72
    -8
 73
   -11
  0
VERTEX
  5
5A16
  8
0
 10
0.0
 20
0.0
 30
0.0
 70
   128
 71
    25
 72
   -26
 73
   -11
  0
VERTEX
  5
5A17
  8
0
 10
0.0
 20
0.0
 30
0.0
 70
   128
 71
    26
 72
   -27
 73
    -8
  0
VERTEX
  5
5A18
  8
0
 10
0.0
 20
0.0
 30
0.0
 70
   128
 71
   -28
 72
     7
 73
    -8
  0
VERTEX
  5
5A19
  8
0
 10
0.0
 20
0.0
 30
0.0
 70
   128
 71
    27
 72
   -28
 73
    -8
  0
VERTEX
  5
5A1A
  8
0
 10
0.0
 20
0.0
 30
0.0
 70
   128
 71
    28
 72
   -29
 73
    -7
  0
VERTEX
  5
5A1B
  8
0
 10
0.0
 20
0.0
 30
0.0
 70
   128
 71
     5
 72
     6
 73
    -7
  0
VERTEX
  5
5A1C
  8
0
 10
0.0
 20
0.0
 30
0.0
 70
   128
 71
     4
 72
    -5
 73
    -7
  0
VERTEX
  5
5A1D
  8
0
 10
0.0
 20
0.0
 30
0.0
 70
   128
 71
   -30
 72
    -4
 73
    -7
  0
VERTEX
  5
5A1E
  8
0
 10
0.0
 20
0.0
 30
0.0
 70
   128
 71
    29
 72
   -30
 73
    -7
  0
VERTEX
  5
5A1F
  8
0
 10
0.0
 20
0.0
 30
0.0
 70
   128
 71
    30
 72
   -31
 73
    -4
  0
VERTEX
  5
5A20
  8
0
 10
0.0
 20
0.0
 30
0.0
 70
   128
 71
   -32
 72
     3
 73
    -4
  0
VERTEX
  5
5A21
  8
0
 10
0.0
 20
0.0
 30
0.0
 70
   128
 71
    31
 72
   -32
 73
    -4
  0
VERTEX
  5
5A22
  8
0
 10
0.0
 20
0.0
 30
0.0
 70
   128
 71
    32
 72
   -17
 73
    -3
  0
SEQEND
  5
5D52
  8
0
  0
POLYLINE
  5
5A23
  8
0
 66
     1
 10
0.0
 20
0.0
 30
0.0
 70
    64
 71
     4
 72
     2
  0
VERTEX
  5
5A24
  8
0
 10
462.0
 20
-249.9999999999999
 30
0.0
 70
   192
  0
VERTEX
  5
5A25
  8
0
 10
462.0
 20
-249.9999999999999
 30
-0.5
 70
   192
  0
VERTEX
  5
5A26
  8
0
 10
461.9999999999999
 20
250.0000000000001
 30
-0.5
 70
   192
  0
VERTEX
  5
5A27
  8
0
 10
462.0
 20
250.0000000000001
 30
0.0
 70
   192
  0
VERTEX
  5
5A28
  8
0
 10
0.0
 20
0.0
 30
0.0
 70
   128
 71
     1
 72
     4
 73
    -3
  0
VERTEX
  5
5A29
  8
0
 10
0.0
 20
0.0
 30
0.0
 70
   128
 71
    -1
 72
     3
 73
     2
  0
SEQEND
  5
5D53
  8
0
  0
POLYLINE
  5
5A2A
  8
0
 66
     1
 10
0.0
 20
0.0
 30
0.0
 70
    64
 71
     8
 72
     6
  0
VERTEX
  5
5A2B
  8
0
 10
453.6935750346352
 20
-280.9999999999999
 30
-0.5
 70
   192
  0
VERTEX
  5
5A2C
  8
0
 10
431.0
 20
-303.693575034635
 30
-0.5
 70
   192
  0
VERTEX
  5
5A2D
  8
0
 10
431.0
 20
-303.693575034635
 30
0.0
 70
   192
  0
VERTEX
  5
5A2E
  8
0
 10
453.6935750346352
 20
-280.9999999999999
 30
0.0
 70
   192
  0
VERTEX
  5
5A2F
  8
0
 10
400.0
 20
-311.9999999999999
 30
-0.5
 70
   192
  0
VERTEX
  5
5A30
  8
0
 10
400.0
 20
-311.9999999999999
 30
0.0
 70
   192
  0
VERTEX
  5
5A31
  8
0
 10
462.0
 20
-249.9999999999999
 30
-0.5
 70
   192
  0
VERTEX
  5
5A32
  8
0
 10
462.0
 20
-249.9999999999999
 30
0.0
 70
   192
  0
VERTEX
  5
5A33
  8
0
 10
0.0
 20
0.0
 30
0.0
 70
   128
 71
     1
 72
     2
 73
    -3
  0
VERTEX
  5
5A34
  8
0
 10
0.0
 20
0.0
 30
0.0
 70
   128
 71
     4
 72
    -1
 73
     3
  0
VERTEX
  5
5A35
  8
0
 10
0.0
 20
0.0
 30
0.0
 70
   128
 71
     2
 72
     5
 73
    -6
  0
VERTEX
  5
5A36
  8
0
 10
0.0
 20
0.0
 30
0.0
 70
   128
 71
     3
 72
    -2
 73
     6
  0
VERTEX
  5
5A37
  8
0
 10
0.0
 20
0.0
 30
0.0
 70
   128
 71
     7
 72
     1
 73
    -4
  0
VERTEX
  5
5A38
  8
0
 10
0.0
 20
0.0
 30
0.0
 70
   128
 71
     8
 72
    -7
 73
     4
  0
SEQEND
  5
5D54
  8
0
  0
POLYLINE
  5
5A39
  8
0
 66
     1
 10
0.0
 20
0.0
 30
0.0
 70
    64
 71
     4
 72
     2
  0
VERTEX
  5
5A3A
  8
0
 10
-400.0
 20
-312.0
 30
0.0
 70
   192
  0
VERTEX
  5
5A3B
  8
0
 10
400.0
 20
-311.9999999999999
 30
0.0
 70
   192
  0
VERTEX
  5
5A3C
  8
0
 10
400.0
 20
-311.9999999999999
 30
-0.5
 70
   192
  0
VERTEX
  5
5A3D
  8
0
 10
-400.0
 20
-312.0
 30
-0.5
 70
   192
  0
VERTEX
  5
5A3E
  8
0
 10
0.0
 20
0.0
 30
0.0
 70
   128
 71
     3
 72
     4
 73
    -1
  0
VERTEX
  5
5A3F
  8
0
 10
0.0
 20
0.0
 30
0.0
 70
   128
 71
     2
 72
    -3
 73
     1
  0
SEQEND
  5
5D55
  8
0
  0
POLYLINE
  5
5A40
  8
0
 66
     1
 10
0.0
 20
0.0
 30
0.0
 70
    64
 71
     8
 72
     6
  0
VERTEX
  5
5A41
  8
0
 10
-431.0
 20
-303.6935750346352
 30
-0.5
 70
   192
  0
VERTEX
  5
5A42
  8
0
 10
-453.6935750346352
 20
-281.0
 30
-0.5
 70
   192
  0
VERTEX
  5
5A43
  8
0
 10
-453.6935750346352
 20
-281.0
 30
0.0
 70
   192
  0
VERTEX
  5
5A44
  8
0
 10
-431.0
 20
-303.6935750346352
 30
0.0
 70
   192
  0
VERTEX
  5
5A45
  8
0
 10
-461.9999999999999
 20
-250.0
 30
-0.5
 70
   192
  0
VERTEX
  5
5A46
  8
0
 10
-461.9999999999999
 20
-250.0
 30
0.0
 70
   192
  0
VERTEX
  5
5A47
  8
0
 10
-400.0
 20
-312.0000000000001
 30
-0.5
 70
   192
  0
VERTEX
  5
5A48
  8
0
 10
-400.0
 20
-312.0
 30
0.0
 70
   192
  0
VERTEX
  5
5A49
  8
0
 10
0.0
 20
0.0
 30
0.0
 70
   128
 71
     1
 72
     2
 73
    -3
  0
VERTEX
  5
5A4A
  8
0
 10
0.0
 20
0.0
 30
0.0
 70
   128
 71
     4
 72
    -1
 73
     3
  0
VERTEX
  5
5A4B
  8
0
 10
0.0
 20
0.0
 30
0.0
 70
   128
 71
     2
 72
     5
 73
    -6
  0
VERTEX
  5
5A4C
  8
0
 10
0.0
 20
0.0
 30
0.0
 70
   128
 71
     3
 72
    -2
 73
     6
  0
VERTEX
  5
5A4D
  8
0
 10
0.0
 20
0.0
 30
0.0
 70
   128
 71
     7
 72
     1
 73
    -4
  0
VERTEX
  5
5A4E
  8
0
 10
0.0
 20
0.0
 30
0.0
 70
   128
 71
     8
 72
    -7
 73
     4
  0
SEQEND
  5
5D56
  8
0
  0
POLYLINE
  5
5A4F
  8
0
 66
     1
 10
0.0
 20
0.0
 30
0.0
 70
    64
 71
     4
 72
     2
  0
VERTEX
  5
5A50
  8
0
 10
-461.9999999999999
 20
250.0
 30
0.0
 70
   192
  0
VERTEX
  5
5A51
  8
0
 10
-461.9999999999999
 20
-250.0
 30
0.0
 70
   192
  0
VERTEX
  5
5A52
  8
0
 10
-461.9999999999999
 20
-250.0
 30
-0.5
 70
   192
  0
VERTEX
  5
5A53
  8
0
 10
-461.9999999999999
 20
250.0
 30
-0.5
 70
   192
  0
VERTEX
  5
5A54
  8
0
 10
0.0
 20
0.0
 30
0.0
 70
   128
 71
     3
 72
     4
 73
    -1
  0
VERTEX
  5
5A55
  8
0
 10
0.0
 20
0.0
 30
0.0
 70
   128
 71
     2
 72
    -3
 73
     1
  0
SEQEND
  5
5D57
  8
0
  0
POLYLINE
  5
5A56
  8
0
 66
     1
 10
0.0
 20
0.0
 30
0.0
 70
    64
 71
     8
 72
     6
  0
VERTEX
  5
5A57
  8
0
 10
-453.6935750346352
 20
281.0
 30
-0.5
 70
   192
  0
VERTEX
  5
5A58
  8
0
 10
-431.0
 20
303.6935750346352
 30
-0.5
 70
   192
  0
VERTEX
  5
5A59
  8
0
 10
-431.0
 20
303.6935750346352
 30
0.0
 70
   192
  0
VERTEX
  5
5A5A
  8
0
 10
-453.6935750346352
 20
281.0
 30
0.0
 70
   192
  0
VERTEX
  5
5A5B
  8
0
 10
-400.0
 20
312.0000000000001
 30
-0.5
 70
   192
  0
VERTEX
  5
5A5C
  8
0
 10
-400.0
 20
312.0000000000001
 30
0.0
 70
   192
  0
VERTEX
  5
5A5D
  8
0
 10
-462.0
 20
250.0
 30
-0.5
 70
   192
  0
VERTEX
  5
5A5E
  8
0
 10
-461.9999999999999
 20
250.0
 30
0.0
 70
   192
  0
VERTEX
  5
5A5F
  8
0
 10
0.0
 20
0.0
 30
0.0
 70
   128
 71
     1
 72
     2
 73
    -3
  0
VERTEX
  5
5A60
  8
0
 10
0.0
 20
0.0
 30
0.0
 70
   128
 71
     4
 72
    -1
 73
     3
  0
VERTEX
  5
5A61
  8
0
 10
0.0
 20
0.0
 30
0.0
 70
   128
 71
     2
 72
     5
 73
    -6
  0
VERTEX
  5
5A62
  8
0
 10
0.0
 20
0.0
 30
0.0
 70
   128
 71
     3
 72
    -2
 73
     6
  0
VERTEX
  5
5A63
  8
0
 10
0.0
 20
0.0
 30
0.0
 70
   128
 71
     7
 72
     1
 73
    -4
  0
VERTEX
  5
5A64
  8
0
 10
0.0
 20
0.0
 30
0.0
 70
   128
 71
     8
 72
    -7
 73
     4
  0
SEQEND
  5
5D58
  8
0
  0
POLYLINE
  5
5A65
  8
0
 66
     1
 10
0.0
 20
0.0
 30
0.0
 70
    64
 71
     4
 72
     2
  0
VERTEX
  5
5A66
  8
0
 10
400.0
 20
312.0000000000001
 30
0.0
 70
   192
  0
VERTEX
  5
5A67
  8
0
 10
400.0
 20
312.0000000000001
 30
-0.5
 70
   192
  0
VERTEX
  5
5A68
  8
0
 10
-400.0
 20
311.9999999999999
 30
-0.5
 70
   192
  0
VERTEX
  5
5A69
  8
0
 10
-400.0
 20
311.9999999999999
 30
0.0
 70
   192
  0
VERTEX
  5
5A6A
  8
0
 10
0.0
 20
0.0
 30
0.0
 70
   128
 71
     1
 72
     4
 73
    -3
  0
VERTEX
  5
5A6B
  8
0
 10
0.0
 20
0.0
 30
0.0
 70
   128
 71
    -1
 72
     3
 73
     2
  0
SEQEND
  5
5D59
  8
0
  0
POLYLINE
  5
5A6C
  8
0
 66
     1
 10
0.0
 20
0.0
 30
0.0
 70
    64
 71
     8
 72
     6
  0
VERTEX
  5
5A6D
  8
0
 10
431.0
 20
303.6935750346353
 30
-0.5
 70
   192
  0
VERTEX
  5
5A6E
  8
0
 10
453.6935750346352
 20
281.0000000000001
 30
-0.5
 70
   192
  0
VERTEX
  5
5A6F
  8
0
 10
453.6935750346352
 20
281.0000000000001
 30
0.0
 70
   192
  0
VERTEX
  5
5A70
  8
0
 10
431.0
 20
303.6935750346353
 30
0.0
 70
   192
  0
VERTEX
  5
5A71
  8
0
 10
461.9999999999999
 20
250.0000000000001
 30
-0.5
 70
   192
  0
VERTEX
  5
5A72
  8
0
 10
461.9999999999999
 20
250.0000000000001
 30
0.0
 70
   192
  0
VERTEX
  5
5A73
  8
0
 10
400.0
 20
312.0000000000001
 30
-0.5
 70
   192
  0
VERTEX
  5
5A74
  8
0
 10
400.0
 20
312.0000000000001
 30
0.0
 70
   192
  0
VERTEX
  5
5A75
  8
0
 10
0.0
 20
0.0
 30
0.0
 70
   128
 71
     1
 72
     2
 73
    -3
  0
VERTEX
  5
5A76
  8
0
 10
0.0
 20
0.0
 30
0.0
 70
   128
 71
     4
 72
    -1
 73
     3
  0
VERTEX
  5
5A77
  8
0
 10
0.0
 20
0.0
 30
0.0
 70
   128
 71
     2
 72
     5
 73
    -6
  0
VERTEX
  5
5A78
  8
0
 10
0.0
 20
0.0
 30
0.0
 70
   128
 71
     3
 72
    -2
 73
     6
  0
VERTEX
  5
5A79
  8
0
 10
0.0
 20
0.0
 30
0.0
 70
   128
 71
     7
 72
     1
 73
    -4
  0
VERTEX
  5
5A7A
  8
0
 10
0.0
 20
0.0
 30
0.0
 70
   128
 71
     8
 72
    -7
 73
     4
  0
SEQEND
  5
5D5A
  8
0
  0
POLYLINE
  5
5A7B
  8
0
 66
     1
 10
0.0
 20
0.0
 30
0.0
 70
    64
 71
    16
 72
    14
  0
VERTEX
  5
5A7C
  8
0
 10
462.0
 20
-249.9999999999999
 30
-0.5
 70
   192
  0
VERTEX
  5
5A7D
  8
0
 10
462.0
 20
250.0000000000001
 30
-0.5
 70
   192
  0
VERTEX
  5
5A7E
  8
0
 10
453.6935750346352
 20
281.0000000000001
 30
-0.5
 70
   192
  0
VERTEX
  5
5A7F
  8
0
 10
431.0
 20
303.6935750346353
 30
-0.5
 70
   192
  0
VERTEX
  5
5A80
  8
0
 10
400.0
 20
312.0000000000001
 30
-0.5
 70
   192
  0
VERTEX
  5
5A81
  8
0
 10
-400.0
 20
311.9999999999999
 30
-0.5
 70
   192
  0
VERTEX
  5
5A82
  8
0
 10
-431.0
 20
303.6935750346352
 30
-0.5
 70
   192
  0
VERTEX
  5
5A83
  8
0
 10
-453.6935750346352
 20
281.0
 30
-0.5
 70
   192
  0
VERTEX
  5
5A84
  8
0
 10
-461.9999999999999
 20
250.0
 30
-0.5
 70
   192
  0
VERTEX
  5
5A85
  8
0
 10
-461.9999999999999
 20
-250.0
 30
-0.5
 70
   192
  0
VERTEX
  5
5A86
  8
0
 10
-453.6935750346352
 20
-281.0
 30
-0.5
 70
   192
  0
VERTEX
  5
5A87
  8
0
 10
-431.0
 20
-303.6935750346352
 30
-0.5
 70
   192
  0
VERTEX
  5
5A88
  8
0
 10
-400.0
 20
-312.0
 30
-0.5
 70
   192
  0
VERTEX
  5
5A89
  8
0
 10
400.0
 20
-311.9999999999999
 30
-0.5
 70
   192
  0
VERTEX
  5
5A8A
  8
0
 10
431.0
 20
-303.693575034635
 30
-0.5
 70
   192
  0
VERTEX
  5
5A8B
  8
0
 10
453.6935750346352
 20
-280.9999999999999
 30
-0.5
 70
   192
  0
VERTEX
  5
5A8C
  8
0
 10
0.0
 20
0.0
 30
0.0
 70
   128
 71
    15
 72
    16
 73
    -1
  0
VERTEX
  5
5A8D
  8
0
 10
0.0
 20
0.0
 30
0.0
 70
   128
 71
    14
 72
   -15
 73
    -1
  0
VERTEX
  5
5A8E
  8
0
 10
0.0
 20
0.0
 30
0.0
 70
   128
 71
    13
 72
   -14
 73
    -1
  0
VERTEX
  5
5A8F
  8
0
 10
0.0
 20
0.0
 30
0.0
 70
   128
 71
    12
 72
   -13
 73
    -1
  0
VERTEX
  5
5A90
  8
0
 10
0.0
 20
0.0
 30
0.0
 70
   128
 71
    11
 72
   -12
 73
    -1
  0
VERTEX
  5
5A91
  8
0
 10
0.0
 20
0.0
 30
0.0
 70
   128
 71
    10
 72
   -11
 73
    -1
  0
VERTEX
  5
5A92
  8
0
 10
0.0
 20
0.0
 30
0.0
 70
   128
 71
     9
 72
   -10
 73
    -1
  0
VERTEX
  5
5A93
  8
0
 10
0.0
 20
0.0
 30
0.0
 70
   128
 71
     8
 72
    -9
 73
    -1
  0
VERTEX
  5
5A94
  8
0
 10
0.0
 20
0.0
 30
0.0
 70
   128
 71
     7
 72
    -8
 73
    -1
  0
VERTEX
  5
5A95
  8
0
 10
0.0
 20
0.0
 30
0.0
 70
   128
 71
     6
 72
    -7
 73
    -1
  0
VERTEX
  5
5A96
  8
0
 10
0.0
 20
0.0
 30
0.0
 70
   128
 71
     5
 72
    -6
 73
    -1
  0
VERTEX
  5
5A97
  8
0
 10
0.0
 20
0.0
 30
0.0
 70
   128
 71
     4
 72
    -5
 73
    -1
  0
VERTEX
  5
5A98
  8
0
 10
0.0
 20
0.0
 30
0.0
 70
   128
 71
     3
 72
    -4
 73
    -1
  0
VERTEX
  5
5A99
  8
0
 10
0.0
 20
0.0
 30
0.0
 70
   128
 71
     2
 72
    -3
 73
     1
  0
SEQEND
  5
5D5B
  8
0
  0
ENDBLK
  5
5D2D
  8
0
  0
BLOCK
  8
0
  2
*X2
 70
     1
 10
0.0
 20
0.0
 30
0.0
  3
*X2
  1

  0
POLYLINE
  5
5A9B
  8
0
 66
     1
 10
0.0
 20
0.0
 30
0.0
 70
    64
 71
     8
 72
     6
  0
VERTEX
  5
5A9C
  8
0
 10
373.0200000000002
 20
207.0
 30
-13.0
 70
   192
  0
VERTEX
  5
5A9D
  8
0
 10
353.0200000000001
 20
207.0
 30
-13.0
 70
   192
  0
VERTEX
  5
5A9E
  8
0
 10
353.0200000000001
 20
170.0
 30
-13.0
 70
   192
  0
VERTEX
  5
5A9F
  8
0
 10
318.0199999999999
 20
170.0
 30
-13.0
 70
   192
  0
VERTEX
  5
5AA0
  8
0
 10
318.0200000000001
 20
250.0000000000001
 30
-13.0
 70
   192
  0
VERTEX
  5
5AA1
  8
0
 10
353.0200000000001
 20
250.0000000000001
 30
-13.0
 70
   192
  0
VERTEX
  5
5AA2
  8
0
 10
353.0200000000001
 20
213.0
 30
-13.0
 70
   192
  0
VERTEX
  5
5AA3
  8
0
 10
373.0200000000002
 20
213.0000000000001
 30
-13.0
 70
   192
  0
VERTEX
  5
5AA4
  8
0
 10
0.0
 20
0.0
 30
0.0
 70
   128
 71
     5
 72
     6
 73
    -7
  0
VERTEX
  5
5AA5
  8
0
 10
0.0
 20
0.0
 30
0.0
 70
   128
 71
     4
 72
    -5
 73
    -7
  0
VERTEX
  5
5AA6
  8
0
 10
0.0
 20
0.0
 30
0.0
 70
   128
 71
     8
 72
     1
 73
    -2
  0
VERTEX
  5
5AA7
  8
0
 10
0.0
 20
0.0
 30
0.0
 70
   128
 71
     7
 72
    -8
 73
    -2
  0
VERTEX
  5
5AA8
  8
0
 10
0.0
 20
0.0
 30
0.0
 70
   128
 71
    -4
 72
    -7
 73
    -2
  0
VERTEX
  5
5AA9
  8
0
 10
0.0
 20
0.0
 30
0.0
 70
   128
 71
     2
 72
     3
 73
    -4
  0
SEQEND
  5
5D5E
  8
0
  0
POLYLINE
  5
5AAA
  8
0
 66
     1
 10
0.0
 20
0.0
 30
0.0
 70
    64
 71
     4
 72
     2
  0
VERTEX
  5
5AAB
  8
0
 10
378.019999999999
 20
250.0000000000001
 30
-10.0
 70
   192
  0
VERTEX
  5
5AAC
  8
0
 10
378.019999999999
 20
250.0000000000001
 30
-16.0
 70
   192
  0
VERTEX
  5
5AAD
  8
0
 10
378.019999999999
 20
170.0
 30
-16.0
 70
   192
  0
VERTEX
  5
5AAE
  8
0
 10
378.019999999999
 20
170.0
 30
-10.0
 70
   192
  0
VERTEX
  5
5AAF
  8
0
 10
0.0
 20
0.0
 30
0.0
 70
   128
 71
     1
 72
     4
 73
    -3
  0
VERTEX
  5
5AB0
  8
0
 10
0.0
 20
0.0
 30
0.0
 70
   128
 71
    -1
 72
     3
 73
     2
  0
SEQEND
  5
5D5F
  8
0
  0
POLYLINE
  5
5AB1
  8
0
 66
     1
 10
0.0
 20
0.0
 30
0.0
 70
    64
 71
     6
 72
     4
  0
VERTEX
  5
5AB2
  8
0
 10
378.019999999999
 20
170.0
 30
-10.0
 70
   192
  0
VERTEX
  5
5AB3
  8
0
 10
378.019999999999
 20
170.0
 30
-16.0
 70
   192
  0
VERTEX
  5
5AB4
  8
0
 10
353.0200000000001
 20
170.0
 30
-16.0
 70
   192
  0
VERTEX
  5
5AB5
  8
0
 10
353.0200000000001
 20
170.0
 30
-13.0
 70
   192
  0
VERTEX
  5
5AB6
  8
0
 10
318.0199999999999
 20
170.0
 30
-13.0
 70
   192
  0
VERTEX
  5
5AB7
  8
0
 10
318.0199999999999
 20
170.0
 30
-10.0
 70
   192
  0
VERTEX
  5
5AB8
  8
0
 10
0.0
 20
0.0
 30
0.0
 70
   128
 71
     4
 72
     3
 73
    -2
  0
VERTEX
  5
5AB9
  8
0
 10
0.0
 20
0.0
 30
0.0
 70
   128
 71
    -4
 72
     2
 73
    -1
  0
VERTEX
  5
5ABA
  8
0
 10
0.0
 20
0.0
 30
0.0
 70
   128
 71
     1
 72
     6
 73
    -5
  0
VERTEX
  5
5ABB
  8
0
 10
0.0
 20
0.0
 30
0.0
 70
   128
 71
    -1
 72
     5
 73
    -4
  0
SEQEND
  5
5D60
  8
0
  0
POLYLINE
  5
5ABC
  8
0
 66
     1
 10
0.0
 20
0.0
 30
0.0
 70
    64
 71
     4
 72
     2
  0
VERTEX
  5
5ABD
  8
0
 10
318.0199999999999
 20
170.0
 30
-10.0
 70
   192
  0
VERTEX
  5
5ABE
  8
0
 10
318.0200000000001
 20
250.0000000000001
 30
-10.0
 70
   192
  0
VERTEX
  5
5ABF
  8
0
 10
318.0200000000001
 20
250.0000000000001
 30
-13.0
 70
   192
  0
VERTEX
  5
5AC0
  8
0
 10
318.0199999999999
 20
170.0
 30
-13.0
 70
   192
  0
VERTEX
  5
5AC1
  8
0
 10
0.0
 20
0.0
 30
0.0
 70
   128
 71
     3
 72
     4
 73
    -1
  0
VERTEX
  5
5AC2
  8
0
 10
0.0
 20
0.0
 30
0.0
 70
   128
 71
     2
 72
    -3
 73
     1
  0
SEQEND
  5
5D61
  8
0
  0
POLYLINE
  5
5AC3
  8
0
 66
     1
 10
0.0
 20
0.0
 30
0.0
 70
    64
 71
     6
 72
     4
  0
VERTEX
  5
5AC4
  8
0
 10
318.0200000000001
 20
250.0000000000001
 30
-10.0
 70
   192
  0
VERTEX
  5
5AC5
  8
0
 10
378.019999999999
 20
250.0000000000001
 30
-10.0
 70
   192
  0
VERTEX
  5
5AC6
  8
0
 10
378.019999999999
 20
250.0000000000001
 30
-16.0
 70
   192
  0
VERTEX
  5
5AC7
  8
0
 10
353.0200000000001
 20
250.0000000000001
 30
-16.0
 70
   192
  0
VERTEX
  5
5AC8
  8
0
 10
353.0200000000001
 20
250.0000000000001
 30
-13.0
 70
   192
  0
VERTEX
  5
5AC9
  8
0
 10
318.0200000000001
 20
250.0000000000001
 30
-13.0
 70
   192
  0
VERTEX
  5
5ACA
  8
0
 10
0.0
 20
0.0
 30
0.0
 70
   128
 71
     3
 72
     4
 73
    -5
  0
VERTEX
  5
5ACB
  8
0
 10
0.0
 20
0.0
 30
0.0
 70
   128
 71
     2
 72
    -3
 73
    -5
  0
VERTEX
  5
5ACC
  8
0
 10
0.0
 20
0.0
 30
0.0
 70
   128
 71
     6
 72
     1
 73
    -2
  0
VERTEX
  5
5ACD
  8
0
 10
0.0
 20
0.0
 30
0.0
 70
   128
 71
     5
 72
    -6
 73
    -2
  0
SEQEND
  5
5D62
  8
0
  0
POLYLINE
  5
5ACE
  8
0
 66
     1
 10
0.0
 20
0.0
 30
0.0
 70
    64
 71
     4
 72
     2
  0
VERTEX
  5
5ACF
  8
0
 10
378.019999999999
 20
170.0
 30
-10.0
 70
   192
  0
VERTEX
  5
5AD0
  8
0
 10
318.0199999999999
 20
170.0
 30
-10.0
 70
   192
  0
VERTEX
  5
5AD1
  8
0
 10
318.0200000000001
 20
250.0000000000001
 30
-10.0
 70
   192
  0
VERTEX
  5
5AD2
  8
0
 10
378.019999999999
 20
250.0000000000001
 30
-10.0
 70
   192
  0
VERTEX
  5
5AD3
  8
0
 10
0.0
 20
0.0
 30
0.0
 70
   128
 71
     1
 72
     4
 73
    -3
  0
VERTEX
  5
5AD4
  8
0
 10
0.0
 20
0.0
 30
0.0
 70
   128
 71
    -1
 72
     3
 73
     2
  0
SEQEND
  5
5D63
  8
0
  0
POLYLINE
  5
5AD5
  8
0
 66
     1
 10
0.0
 20
0.0
 30
0.0
 70
    64
 71
     4
 72
     2
  0
VERTEX
  5
5AD6
  8
0
 10
353.0200000000001
 20
207.0
 30
-13.0
 70
   192
  0
VERTEX
  5
5AD7
  8
0
 10
373.0200000000002
 20
207.0
 30
-13.0
 70
   192
  0
VERTEX
  5
5AD8
  8
0
 10
373.0200000000003
 20
207.0000000000001
 30
-16.0
 70
   192
  0
VERTEX
  5
5AD9
  8
0
 10
353.0200000000001
 20
207.0
 30
-16.0
 70
   192
  0
VERTEX
  5
5ADA
  8
0
 10
0.0
 20
0.0
 30
0.0
 70
   128
 71
     3
 72
     4
 73
    -1
  0
VERTEX
  5
5ADB
  8
0
 10
0.0
 20
0.0
 30
0.0
 70
   128
 71
     2
 72
    -3
 73
     1
  0
SEQEND
  5
5D64
  8
0
  0
POLYLINE
  5
5ADC
  8
0
 66
     1
 10
0.0
 20
0.0
 30
0.0
 70
    64
 71
     4
 72
     2
  0
VERTEX
  5
5ADD
  8
0
 10
373.0200000000003
 20
207.0000000000001
 30
-13.0
 70
   192
  0
VERTEX
  5
5ADE
  8
0
 10
373.0200000000003
 20
213.0000000000001
 30
-13.0
 70
   192
  0
VERTEX
  5
5ADF
  8
0
 10
373.0200000000003
 20
213.0000000000001
 30
-16.0
 70
   192
  0
VERTEX
  5
5AE0
  8
0
 10
373.0200000000003
 20
207.0000000000001
 30
-16.0
 70
   192
  0
VERTEX
  5
5AE1
  8
0
 10
0.0
 20
0.0
 30
0.0
 70
   128
 71
     3
 72
     4
 73
    -1
  0
VERTEX
  5
5AE2
  8
0
 10
0.0
 20
0.0
 30
0.0
 70
   128
 71
     2
 72
    -3
 73
     1
  0
SEQEND
  5
5D65
  8
0
  0
POLYLINE
  5
5AE3
  8
0
 66
     1
 10
0.0
 20
0.0
 30
0.0
 70
    64
 71
     4
 72
     2
  0
VERTEX
  5
5AE4
  8
0
 10
373.0200000000002
 20
213.0000000000001
 30
-13.0
 70
   192
  0
VERTEX
  5
5AE5
  8
0
 10
353.0200000000001
 20
213.0
 30
-13.0
 70
   192
  0
VERTEX
  5
5AE6
  8
0
 10
353.0200000000001
 20
213.0
 30
-16.0
 70
   192
  0
VERTEX
  5
5AE7
  8
0
 10
373.0200000000002
 20
213.0000000000001
 30
-16.0
 70
   192
  0
VERTEX
  5
5AE8
  8
0
 10
0.0
 20
0.0
 30
0.0
 70
   128
 71
     3
 72
     4
 73
    -1
  0
VERTEX
  5
5AE9
  8
0
 10
0.0
 20
0.0
 30
0.0
 70
   128
 71
     2
 72
    -3
 73
     1
  0
SEQEND
  5
5D66
  8
0
  0
POLYLINE
  5
5AEA
  8
0
 66
     1
 10
0.0
 20
0.0
 30
0.0
 70
    64
 71
     4
 72
     2
  0
VERTEX
  5
5AEB
  8
0
 10
353.0200000000001
 20
213.0
 30
-13.0
 70
   192
  0
VERTEX
  5
5AEC
  8
0
 10
353.0200000000001
 20
250.0000000000001
 30
-13.0
 70
   192
  0
VERTEX
  5
5AED
  8
0
 10
353.0200000000001
 20
250.0000000000001
 30
-16.0
 70
   192
  0
VERTEX
  5
5AEE
  8
0
 10
353.0200000000001
 20
213.0
 30
-16.0
 70
   192
  0
VERTEX
  5
5AEF
  8
0
 10
0.0
 20
0.0
 30
0.0
 70
   128
 71
     3
 72
     4
 73
    -1
  0
VERTEX
  5
5AF0
  8
0
 10
0.0
 20
0.0
 30
0.0
 70
   128
 71
     2
 72
    -3
 73
     1
  0
SEQEND
  5
5D67
  8
0
  0
POLYLINE
  5
5AF1
  8
0
 66
     1
 10
0.0
 20
0.0
 30
0.0
 70
    64
 71
     4
 72
     2
  0
VERTEX
  5
5AF2
  8
0
 10
353.0200000000001
 20
170.0
 30
-13.0
 70
   192
  0
VERTEX
  5
5AF3
  8
0
 10
353.0200000000001
 20
207.0
 30
-13.0
 70
   192
  0
VERTEX
  5
5AF4
  8
0
 10
353.0200000000001
 20
207.0
 30
-16.0
 70
   192
  0
VERTEX
  5
5AF5
  8
0
 10
353.0200000000001
 20
170.0
 30
-16.0
 70
   192
  0
VERTEX
  5
5AF6
  8
0
 10
0.0
 20
0.0
 30
0.0
 70
   128
 71
     3
 72
     4
 73
    -1
  0
VERTEX
  5
5AF7
  8
0
 10
0.0
 20
0.0
 30
0.0
 70
   128
 71
     2
 72
    -3
 73
     1
  0
SEQEND
  5
5D68
  8
0
  0
POLYLINE
  5
5AF8
  8
0
 66
     1
 10
0.0
 20
0.0
 30
0.0
 70
    64
 71
     8
 72
     6
  0
VERTEX
  5
5AF9
  8
0
 10
353.0200000000001
 20
207.0
 30
-16.0
 70
   192
  0
VERTEX
  5
5AFA
  8
0
 10
353.0200000000001
 20
170.0
 30
-16.0
 70
   192
  0
VERTEX
  5
5AFB
  8
0
 10
378.019999999999
 20
170.0
 30
-16.0
 70
   192
  0
VERTEX
  5
5AFC
  8
0
 10
378.019999999999
 20
250.0000000000001
 30
-16.0
 70
   192
  0
VERTEX
  5
5AFD
  8
0
 10
353.0200000000001
 20
250.0000000000001
 30
-16.0
 70
   192
  0
VERTEX
  5
5AFE
  8
0
 10
353.0200000000001
 20
213.0
 30
-16.0
 70
   192
  0
VERTEX
  5
5AFF
  8
0
 10
373.0200000000003
 20
213.0000000000001
 30
-16.0
 70
   192
  0
VERTEX
  5
5B00
  8
0
 10
373.0200000000002
 20
207.0
 30
-16.0
 70
   192
  0
VERTEX
  5
5B01
  8
0
 10
0.0
 20
0.0
 30
0.0
 70
   128
 71
     7
 72
     6
 73
    -5
  0
VERTEX
  5
5B02
  8
0
 10
0.0
 20
0.0
 30
0.0
 70
   128
 71
    -7
 72
     5
 73
    -4
  0
VERTEX
  5
5B03
  8
0
 10
0.0
 20
0.0
 30
0.0
 70
   128
 71
     4
 72
    -3
 73
    -8
  0
VERTEX
  5
5B04
  8
0
 10
0.0
 20
0.0
 30
0.0
 70
   128
 71
    -4
 72
     8
 73
    -7
  0
VERTEX
  5
5B05
  8
0
 10
0.0
 20
0.0
 30
0.0
 70
   128
 71
     3
 72
     2
 73
    -1
  0
VERTEX
  5
5B06
  8
0
 10
0.0
 20
0.0
 30
0.0
 70
   128
 71
    -3
 72
     1
 73
    -8
  0
SEQEND
  5
5D69
  8
0
  0
ENDBLK
  5
5D5D
  8
0
  0
BLOCK
  8
0
  2
*X3
 70
     1
 10
0.0
 20
0.0
 30
0.0
  3
*X3
  1

  0
POLYLINE
  5
5B08
  8
0
 66
     1
 10
0.0
 20
0.0
 30
0.0
 70
    64
 71
     8
 72
     6
  0
VERTEX
  5
5B09
  8
0
 10
280.9999999999999
 20
245.0000000000001
 30
-13.0
 70
   192
  0
VERTEX
  5
5B0A
  8
0
 10
280.9999999999999
 20
225.0000000000001
 30
-13.0
 70
   192
  0
VERTEX
  5
5B0B
  8
0
 10
317.9999999999998
 20
225.0000000000001
 30
-13.0
 70
   192
  0
VERTEX
  5
5B0C
  8
0
 10
317.9999999999998
 20
190.0000000000003
 30
-13.0
 70
   192
  0
VERTEX
  5
5B0D
  8
0
 10
237.9999999999999
 20
189.9999999999999
 30
-13.0
 70
   192
  0
VERTEX
  5
5B0E
  8
0
 10
237.9999999999999
 20
225.0000000000001
 30
-13.0
 70
   192
  0
VERTEX
  5
5B0F
  8
0
 10
274.9999999999998
 20
225.0000000000001
 30
-13.0
 70
   192
  0
VERTEX
  5
5B10
  8
0
 10
274.9999999999998
 20
245.0000000000001
 30
-13.0
 70
   192
  0
VERTEX
  5
5B11
  8
0
 10
0.0
 20
0.0
 30
0.0
 70
   128
 71
     5
 72
     6
 73
    -7
  0
VERTEX
  5
5B12
  8
0
 10
0.0
 20
0.0
 30
0.0
 70
   128
 71
     4
 72
    -5
 73
    -7
  0
VERTEX
  5
5B13
  8
0
 10
0.0
 20
0.0
 30
0.0
 70
   128
 71
     8
 72
     1
 73
    -2
  0
VERTEX
  5
5B14
  8
0
 10
0.0
 20
0.0
 30
0.0
 70
   128
 71
     7
 72
    -8
 73
    -2
  0
VERTEX
  5
5B15
  8
0
 10
0.0
 20
0.0
 30
0.0
 70
   128
 71
    -4
 72
    -7
 73
    -2
  0
VERTEX
  5
5B16
  8
0
 10
0.0
 20
0.0
 30
0.0
 70
   128
 71
     2
 72
     3
 73
    -4
  0
SEQEND
  5
5D6C
  8
0
  0
POLYLINE
  5
5B17
  8
0
 66
     1
 10
0.0
 20
0.0
 30
0.0
 70
    64
 71
     6
 72
     4
  0
VERTEX
  5
5B18
  8
0
 10
317.9999999999998
 20
250.0000000000002
 30
-10.0
 70
   192
  0
VERTEX
  5
5B19
  8
0
 10
317.9999999999998
 20
250.0000000000002
 30
-16.0
 70
   192
  0
VERTEX
  5
5B1A
  8
0
 10
317.9999999999998
 20
225.0000000000001
 30
-16.0
 70
   192
  0
VERTEX
  5
5B1B
  8
0
 10
317.9999999999998
 20
225.0000000000001
 30
-13.0
 70
   192
  0
VERTEX
  5
5B1C
  8
0
 10
317.9999999999998
 20
190.0000000000003
 30
-13.0
 70
   192
  0
VERTEX
  5
5B1D
  8
0
 10
317.9999999999998
 20
190.0000000000003
 30
-10.0
 70
   192
  0
VERTEX
  5
5B1E
  8
0
 10
0.0
 20
0.0
 30
0.0
 70
   128
 71
     4
 72
     3
 73
    -2
  0
VERTEX
  5
5B1F
  8
0
 10
0.0
 20
0.0
 30
0.0
 70
   128
 71
    -4
 72
     2
 73
    -1
  0
VERTEX
  5
5B20
  8
0
 10
0.0
 20
0.0
 30
0.0
 70
   128
 71
     1
 72
     6
 73
    -5
  0
VERTEX
  5
5B21
  8
0
 10
0.0
 20
0.0
 30
0.0
 70
   128
 71
    -1
 72
     5
 73
    -4
  0
SEQEND
  5
5D6D
  8
0
  0
POLYLINE
  5
5B22
  8
0
 66
     1
 10
0.0
 20
0.0
 30
0.0
 70
    64
 71
     4
 72
     2
  0
VERTEX
  5
5B23
  8
0
 10
317.9999999999998
 20
190.0000000000003
 30
-10.0
 70
   192
  0
VERTEX
  5
5B24
  8
0
 10
317.9999999999998
 20
190.0000000000003
 30
-13.0
 70
   192
  0
VERTEX
  5
5B25
  8
0
 10
237.9999999999999
 20
189.9999999999999
 30
-13.0
 70
   192
  0
VERTEX
  5
5B26
  8
0
 10
237.9999999999999
 20
189.9999999999999
 30
-10.0
 70
   192
  0
VERTEX
  5
5B27
  8
0
 10
0.0
 20
0.0
 30
0.0
 70
   128
 71
     1
 72
     4
 73
    -3
  0
VERTEX
  5
5B28
  8
0
 10
0.0
 20
0.0
 30
0.0
 70
   128
 71
    -1
 72
     3
 73
     2
  0
SEQEND
  5
5D6E
  8
0
  0
POLYLINE
  5
5B29
  8
0
 66
     1
 10
0.0
 20
0.0
 30
0.0
 70
    64
 71
     6
 72
     4
  0
VERTEX
  5
5B2A
  8
0
 10
237.9999999999999
 20
189.9999999999999
 30
-10.0
 70
   192
  0
VERTEX
  5
5B2B
  8
0
 10
237.9999999999999
 20
250.0000000000002
 30
-10.0
 70
   192
  0
VERTEX
  5
5B2C
  8
0
 10
237.9999999999999
 20
250.0000000000002
 30
-16.0
 70
   192
  0
VERTEX
  5
5B2D
  8
0
 10
237.9999999999999
 20
225.0000000000001
 30
-16.0
 70
   192
  0
VERTEX
  5
5B2E
  8
0
 10
237.9999999999999
 20
225.0000000000001
 30
-13.0
 70
   192
  0
VERTEX
  5
5B2F
  8
0
 10
237.9999999999999
 20
189.9999999999999
 30
-13.0
 70
   192
  0
VERTEX
  5
5B30
  8
0
 10
0.0
 20
0.0
 30
0.0
 70
   128
 71
     3
 72
     4
 73
    -5
  0
VERTEX
  5
5B31
  8
0
 10
0.0
 20
0.0
 30
0.0
 70
   128
 71
     2
 72
    -3
 73
    -5
  0
VERTEX
  5
5B32
  8
0
 10
0.0
 20
0.0
 30
0.0
 70
   128
 71
     6
 72
     1
 73
    -2
  0
VERTEX
  5
5B33
  8
0
 10
0.0
 20
0.0
 30
0.0
 70
   128
 71
     5
 72
    -6
 73
    -2
  0
SEQEND
  5
5D6F
  8
0
  0
POLYLINE
  5
5B34
  8
0
 66
     1
 10
0.0
 20
0.0
 30
0.0
 70
    64
 71
     4
 72
     2
  0
VERTEX
  5
5B35
  8
0
 10
237.9999999999999
 20
250.0000000000002
 30
-10.0
 70
   192
  0
VERTEX
  5
5B36
  8
0
 10
317.9999999999998
 20
250.0000000000002
 30
-10.0
 70
   192
  0
VERTEX
  5
5B37
  8
0
 10
317.9999999999998
 20
250.0000000000002
 30
-16.0
 70
   192
  0
VERTEX
  5
5B38
  8
0
 10
237.9999999999999
 20
250.0000000000002
 30
-16.0
 70
   192
  0
VERTEX
  5
5B39
  8
0
 10
0.0
 20
0.0
 30
0.0
 70
   128
 71
     3
 72
     4
 73
    -1
  0
VERTEX
  5
5B3A
  8
0
 10
0.0
 20
0.0
 30
0.0
 70
   128
 71
     2
 72
    -3
 73
     1
  0
SEQEND
  5
5D70
  8
0
  0
POLYLINE
  5
5B3B
  8
0
 66
     1
 10
0.0
 20
0.0
 30
0.0
 70
    64
 71
     4
 72
     2
  0
VERTEX
  5
5B3C
  8
0
 10
317.9999999999998
 20
190.0000000000003
 30
-10.0
 70
   192
  0
VERTEX
  5
5B3D
  8
0
 10
237.9999999999999
 20
189.9999999999999
 30
-10.0
 70
   192
  0
VERTEX
  5
5B3E
  8
0
 10
237.9999999999999
 20
250.0000000000002
 30
-10.0
 70
   192
  0
VERTEX
  5
5B3F
  8
0
 10
317.9999999999998
 20
250.0000000000002
 30
-10.0
 70
   192
  0
VERTEX
  5
5B40
  8
0
 10
0.0
 20
0.0
 30
0.0
 70
   128
 71
     1
 72
     4
 73
    -3
  0
VERTEX
  5
5B41
  8
0
 10
0.0
 20
0.0
 30
0.0
 70
   128
 71
    -1
 72
     3
 73
     2
  0
SEQEND
  5
5D71
  8
0
  0
POLYLINE
  5
5B42
  8
0
 66
     1
 10
0.0
 20
0.0
 30
0.0
 70
    64
 71
     4
 72
     2
  0
VERTEX
  5
5B43
  8
0
 10
280.9999999999999
 20
245.0000000000001
 30
-13.0
 70
   192
  0
VERTEX
  5
5B44
  8
0
 10
274.9999999999998
 20
245.0000000000001
 30
-13.0
 70
   192
  0
VERTEX
  5
5B45
  8
0
 10
274.9999999999998
 20
245.0000000000001
 30
-16.0
 70
   192
  0
VERTEX
  5
5B46
  8
0
 10
280.9999999999999
 20
245.0000000000001
 30
-16.0
 70
   192
  0
VERTEX
  5
5B47
  8
0
 10
0.0
 20
0.0
 30
0.0
 70
   128
 71
     3
 72
     4
 73
    -1
  0
VERTEX
  5
5B48
  8
0
 10
0.0
 20
0.0
 30
0.0
 70
   128
 71
     2
 72
    -3
 73
     1
  0
SEQEND
  5
5D72
  8
0
  0
POLYLINE
  5
5B49
  8
0
 66
     1
 10
0.0
 20
0.0
 30
0.0
 70
    64
 71
     4
 72
     2
  0
VERTEX
  5
5B4A
  8
0
 10
274.9999999999998
 20
245.0000000000001
 30
-13.0
 70
   192
  0
VERTEX
  5
5B4B
  8
0
 10
274.9999999999998
 20
225.0000000000001
 30
-13.0
 70
   192
  0
VERTEX
  5
5B4C
  8
0
 10
274.9999999999998
 20
225.0000000000001
 30
-16.0
 70
   192
  0
VERTEX
  5
5B4D
  8
0
 10
274.9999999999998
 20
245.0000000000001
 30
-16.0
 70
   192
  0
VERTEX
  5
5B4E
  8
0
 10
0.0
 20
0.0
 30
0.0
 70
   128
 71
     3
 72
     4
 73
    -1
  0
VERTEX
  5
5B4F
  8
0
 10
0.0
 20
0.0
 30
0.0
 70
   128
 71
     2
 72
    -3
 73
     1
  0
SEQEND
  5
5D73
  8
0
  0
POLYLINE
  5
5B50
  8
0
 66
     1
 10
0.0
 20
0.0
 30
0.0
 70
    64
 71
     4
 72
     2
  0
VERTEX
  5
5B51
  8
0
 10
274.9999999999998
 20
225.0000000000001
 30
-13.0
 70
   192
  0
VERTEX
  5
5B52
  8
0
 10
237.9999999999999
 20
225.0000000000001
 30
-13.0
 70
   192
  0
VERTEX
  5
5B53
  8
0
 10
237.9999999999999
 20
225.0000000000001
 30
-16.0
 70
   192
  0
VERTEX
  5
5B54
  8
0
 10
274.9999999999998
 20
225.0000000000001
 30
-16.0
 70
   192
  0
VERTEX
  5
5B55
  8
0
 10
0.0
 20
0.0
 30
0.0
 70
   128
 71
     3
 72
     4
 73
    -1
  0
VERTEX
  5
5B56
  8
0
 10
0.0
 20
0.0
 30
0.0
 70
   128
 71
     2
 72
    -3
 73
     1
  0
SEQEND
  5
5D74
  8
0
  0
POLYLINE
  5
5B57
  8
0
 66
     1
 10
0.0
 20
0.0
 30
0.0
 70
    64
 71
     4
 72
     2
  0
VERTEX
  5
5B58
  8
0
 10
317.9999999999998
 20
225.0000000000001
 30
-13.0
 70
   192
  0
VERTEX
  5
5B59
  8
0
 10
280.9999999999999
 20
225.0000000000001
 30
-13.0
 70
   192
  0
VERTEX
  5
5B5A
  8
0
 10
280.9999999999999
 20
225.0000000000001
 30
-16.0
 70
   192
  0
VERTEX
  5
5B5B
  8
0
 10
317.9999999999998
 20
225.0000000000001
 30
-16.0
 70
   192
  0
VERTEX
  5
5B5C
  8
0
 10
0.0
 20
0.0
 30
0.0
 70
   128
 71
     3
 72
     4
 73
    -1
  0
VERTEX
  5
5B5D
  8
0
 10
0.0
 20
0.0
 30
0.0
 70
   128
 71
     2
 72
    -3
 73
     1
  0
SEQEND
  5
5D75
  8
0
  0
POLYLINE
  5
5B5E
  8
0
 66
     1
 10
0.0
 20
0.0
 30
0.0
 70
    64
 71
     4
 72
     2
  0
VERTEX
  5
5B5F
  8
0
 10
280.9999999999999
 20
225.0000000000001
 30
-13.0
 70
   192
  0
VERTEX
  5
5B60
  8
0
 10
280.9999999999999
 20
245.0000000000001
 30
-13.0
 70
   192
  0
VERTEX
  5
5B61
  8
0
 10
280.9999999999999
 20
245.0000000000001
 30
-16.0
 70
   192
  0
VERTEX
  5
5B62
  8
0
 10
280.9999999999999
 20
225.0000000000001
 30
-16.0
 70
   192
  0
VERTEX
  5
5B63
  8
0
 10
0.0
 20
0.0
 30
0.0
 70
   128
 71
     3
 72
     4
 73
    -1
  0
VERTEX
  5
5B64
  8
0
 10
0.0
 20
0.0
 30
0.0
 70
   128
 71
     2
 72
    -3
 73
     1
  0
SEQEND
  5
5D76
  8
0
  0
POLYLINE
  5
5B65
  8
0
 66
     1
 10
0.0
 20
0.0
 30
0.0
 70
    64
 71
     8
 72
     6
  0
VERTEX
  5
5B66
  8
0
 10
280.9999999999999
 20
245.0000000000001
 30
-16.0
 70
   192
  0
VERTEX
  5
5B67
  8
0
 10
274.9999999999998
 20
245.0000000000001
 30
-16.0
 70
   192
  0
VERTEX
  5
5B68
  8
0
 10
274.9999999999998
 20
225.0000000000001
 30
-16.0
 70
   192
  0
VERTEX
  5
5B69
  8
0
 10
237.9999999999999
 20
225.0000000000001
 30
-16.0
 70
   192
  0
VERTEX
  5
5B6A
  8
0
 10
237.9999999999999
 20
250.0000000000002
 30
-16.0
 70
   192
  0
VERTEX
  5
5B6B
  8
0
 10
317.9999999999998
 20
250.0000000000002
 30
-16.0
 70
   192
  0
VERTEX
  5
5B6C
  8
0
 10
317.9999999999998
 20
225.0000000000001
 30
-16.0
 70
   192
  0
VERTEX
  5
5B6D
  8
0
 10
280.9999999999999
 20
225.0000000000001
 30
-16.0
 70
   192
  0
VERTEX
  5
5B6E
  8
0
 10
0.0
 20
0.0
 30
0.0
 70
   128
 71
     7
 72
     8
 73
    -1
  0
VERTEX
  5
5B6F
  8
0
 10
0.0
 20
0.0
 30
0.0
 70
   128
 71
     6
 72
    -7
 73
    -1
  0
VERTEX
  5
5B70
  8
0
 10
0.0
 20
0.0
 30
0.0
 70
   128
 71
    -6
 72
     1
 73
    -2
  0
VERTEX
  5
5B71
  8
0
 10
0.0
 20
0.0
 30
0.0
 70
   128
 71
     5
 72
    -6
 73
    -2
  0
VERTEX
  5
5B72
  8
0
 10
0.0
 20
0.0
 30
0.0
 70
   128
 71
     3
 72
     4
 73
    -5
  0
VERTEX
  5
5B73
  8
0
 10
0.0
 20
0.0
 30
0.0
 70
   128
 71
     2
 72
    -3
 73
    -5
  0
SEQEND
  5
5D77
  8
0
  0
ENDBLK
  5
5D6B
  8
0
  0
BLOCK
  8
0
  2
*X4
 70
     1
 10
0.0
 20
0.0
 30
0.0
  3
*X4
  1

  0
POLYLINE
  5
5B75
  8
0
 66
     1
 10
0.0
 20
0.0
 30
0.0
 70
    64
 71
     6
 72
     4
  0
VERTEX
  5
5B76
  8
0
 10
-238.0
 20
250.0000000000001
 30
-10.0
 70
   192
  0
VERTEX
  5
5B77
  8
0
 10
-238.0
 20
250.0000000000001
 30
-16.0
 70
   192
  0
VERTEX
  5
5B78
  8
0
 10
-238.0
 20
225.0000000000001
 30
-16.0
 70
   192
  0
VERTEX
  5
5B79
  8
0
 10
-238.0
 20
225.0000000000001
 30
-13.0
 70
   192
  0
VERTEX
  5
5B7A
  8
0
 10
-238.0
 20
189.9999999999997
 30
-13.0
 70
   192
  0
VERTEX
  5
5B7B
  8
0
 10
-238.0
 20
189.9999999999997
 30
-10.0
 70
   192
  0
VERTEX
  5
5B7C
  8
0
 10
0.0
 20
0.0
 30
0.0
 70
   128
 71
     4
 72
     3
 73
    -2
  0
VERTEX
  5
5B7D
  8
0
 10
0.0
 20
0.0
 30
0.0
 70
   128
 71
    -4
 72
     2
 73
    -1
  0
VERTEX
  5
5B7E
  8
0
 10
0.0
 20
0.0
 30
0.0
 70
   128
 71
     1
 72
     6
 73
    -5
  0
VERTEX
  5
5B7F
  8
0
 10
0.0
 20
0.0
 30
0.0
 70
   128
 71
    -1
 72
     5
 73
    -4
  0
SEQEND
  5
5D7A
  8
0
  0
POLYLINE
  5
5B80
  8
0
 66
     1
 10
0.0
 20
0.0
 30
0.0
 70
    64
 71
     4
 72
     2
  0
VERTEX
  5
5B81
  8
0
 10
-238.0
 20
189.9999999999997
 30
-10.0
 70
   192
  0
VERTEX
  5
5B82
  8
0
 10
-238.0
 20
189.9999999999997
 30
-13.0
 70
   192
  0
VERTEX
  5
5B83
  8
0
 10
-318.0
 20
189.9999999999997
 30
-13.0
 70
   192
  0
VERTEX
  5
5B84
  8
0
 10
-318.0
 20
189.9999999999997
 30
-10.0
 70
   192
  0
VERTEX
  5
5B85
  8
0
 10
0.0
 20
0.0
 30
0.0
 70
   128
 71
     1
 72
     4
 73
    -3
  0
VERTEX
  5
5B86
  8
0
 10
0.0
 20
0.0
 30
0.0
 70
   128
 71
    -1
 72
     3
 73
     2
  0
SEQEND
  5
5D7B
  8
0
  0
POLYLINE
  5
5B87
  8
0
 66
     1
 10
0.0
 20
0.0
 30
0.0
 70
    64
 71
     6
 72
     4
  0
VERTEX
  5
5B88
  8
0
 10
-318.0
 20
189.9999999999997
 30
-10.0
 70
   192
  0
VERTEX
  5
5B89
  8
0
 10
-318.0
 20
250.0000000000001
 30
-10.0
 70
   192
  0
VERTEX
  5
5B8A
  8
0
 10
-318.0
 20
250.0000000000001
 30
-16.0
 70
   192
  0
VERTEX
  5
5B8B
  8
0
 10
-318.0
 20
225.0000000000001
 30
-16.0
 70
   192
  0
VERTEX
  5
5B8C
  8
0
 10
-318.0
 20
225.0000000000001
 30
-13.0
 70
   192
  0
VERTEX
  5
5B8D
  8
0
 10
-318.0
 20
189.9999999999997
 30
-13.0
 70
   192
  0
VERTEX
  5
5B8E
  8
0
 10
0.0
 20
0.0
 30
0.0
 70
   128
 71
     3
 72
     4
 73
    -5
  0
VERTEX
  5
5B8F
  8
0
 10
0.0
 20
0.0
 30
0.0
 70
   128
 71
     2
 72
    -3
 73
    -5
  0
VERTEX
  5
5B90
  8
0
 10
0.0
 20
0.0
 30
0.0
 70
   128
 71
     6
 72
     1
 73
    -2
  0
VERTEX
  5
5B91
  8
0
 10
0.0
 20
0.0
 30
0.0
 70
   128
 71
     5
 72
    -6
 73
    -2
  0
SEQEND
  5
5D7C
  8
0
  0
POLYLINE
  5
5B92
  8
0
 66
     1
 10
0.0
 20
0.0
 30
0.0
 70
    64
 71
     4
 72
     2
  0
VERTEX
  5
5B93
  8
0
 10
-318.0
 20
250.0000000000001
 30
-10.0
 70
   192
  0
VERTEX
  5
5B94
  8
0
 10
-238.0
 20
250.0000000000001
 30
-10.0
 70
   192
  0
VERTEX
  5
5B95
  8
0
 10
-238.0
 20
250.0000000000001
 30
-16.0
 70
   192
  0
VERTEX
  5
5B96
  8
0
 10
-318.0
 20
250.0000000000001
 30
-16.0
 70
   192
  0
VERTEX
  5
5B97
  8
0
 10
0.0
 20
0.0
 30
0.0
 70
   128
 71
     3
 72
     4
 73
    -1
  0
VERTEX
  5
5B98
  8
0
 10
0.0
 20
0.0
 30
0.0
 70
   128
 71
     2
 72
    -3
 73
     1
  0
SEQEND
  5
5D7D
  8
0
  0
POLYLINE
  5
5B99
  8
0
 66
     1
 10
0.0
 20
0.0
 30
0.0
 70
    64
 71
     8
 72
     6
  0
VERTEX
  5
5B9A
  8
0
 10
-274.9999999999998
 20
225.0000000000001
 30
-13.0
 70
   192
  0
VERTEX
  5
5B9B
  8
0
 10
-238.0
 20
225.0000000000001
 30
-13.0
 70
   192
  0
VERTEX
  5
5B9C
  8
0
 10
-238.0
 20
189.9999999999997
 30
-13.0
 70
   192
  0
VERTEX
  5
5B9D
  8
0
 10
-318.0
 20
189.9999999999997
 30
-13.0
 70
   192
  0
VERTEX
  5
5B9E
  8
0
 10
-318.0
 20
225.0000000000001
 30
-13.0
 70
   192
  0
VERTEX
  5
5B9F
  8
0
 10
-280.9999999999999
 20
225.0000000000001
 30
-13.0
 70
   192
  0
VERTEX
  5
5BA0
  8
0
 10
-280.9999999999999
 20
245.0000000000001
 30
-13.0
 70
   192
  0
VERTEX
  5
5BA1
  8
0
 10
-274.9999999999998
 20
245.0000000000001
 30
-13.0
 70
   192
  0
VERTEX
  5
5BA2
  8
0
 10
0.0
 20
0.0
 30
0.0
 70
   128
 71
     4
 72
     5
 73
    -6
  0
VERTEX
  5
5BA3
  8
0
 10
0.0
 20
0.0
 30
0.0
 70
   128
 71
    -6
 72
    -1
 73
    -4
  0
VERTEX
  5
5BA4
  8
0
 10
0.0
 20
0.0
 30
0.0
 70
   128
 71
     7
 72
     8
 73
    -1
  0
VERTEX
  5
5BA5
  8
0
 10
0.0
 20
0.0
 30
0.0
 70
   128
 71
     6
 72
    -7
 73
    -1
  0
VERTEX
  5
5BA6
  8
0
 10
0.0
 20
0.0
 30
0.0
 70
   128
 71
     2
 72
     3
 73
    -4
  0
VERTEX
  5
5BA7
  8
0
 10
0.0
 20
0.0
 30
0.0
 70
   128
 71
     1
 72
    -2
 73
    -4
  0
SEQEND
  5
5D7E
  8
0
  0
POLYLINE
  5
5BA8
  8
0
 66
     1
 10
0.0
 20
0.0
 30
0.0
 70
    64
 71
     4
 72
     2
  0
VERTEX
  5
5BA9
  8
0
 10
-238.0
 20
189.9999999999997
 30
-10.0
 70
   192
  0
VERTEX
  5
5BAA
  8
0
 10
-318.0
 20
189.9999999999997
 30
-10.0
 70
   192
  0
VERTEX
  5
5BAB
  8
0
 10
-318.0
 20
250.0000000000001
 30
-10.0
 70
   192
  0
VERTEX
  5
5BAC
  8
0
 10
-238.0
 20
250.0000000000001
 30
-10.0
 70
   192
  0
VERTEX
  5
5BAD
  8
0
 10
0.0
 20
0.0
 30
0.0
 70
   128
 71
     1
 72
     4
 73
    -3
  0
VERTEX
  5
5BAE
  8
0
 10
0.0
 20
0.0
 30
0.0
 70
   128
 71
    -1
 72
     3
 73
     2
  0
SEQEND
  5
5D7F
  8
0
  0
POLYLINE
  5
5BAF
  8
0
 66
     1
 10
0.0
 20
0.0
 30
0.0
 70
    64
 71
     4
 72
     2
  0
VERTEX
  5
5BB0
  8
0
 10
-280.9999999999999
 20
245.0000000000001
 30
-13.0
 70
   192
  0
VERTEX
  5
5BB1
  8
0
 10
-280.9999999999999
 20
245.0000000000001
 30
-16.0
 70
   192
  0
VERTEX
  5
5BB2
  8
0
 10
-280.9999999999999
 20
225.0000000000001
 30
-16.0
 70
   192
  0
VERTEX
  5
5BB3
  8
0
 10
-280.9999999999999
 20
225.0000000000001
 30
-13.0
 70
   192
  0
VERTEX
  5
5BB4
  8
0
 10
0.0
 20
0.0
 30
0.0
 70
   128
 71
     1
 72
     4
 73
    -3
  0
VERTEX
  5
5BB5
  8
0
 10
0.0
 20
0.0
 30
0.0
 70
   128
 71
    -1
 72
     3
 73
     2
  0
SEQEND
  5
5D80
  8
0
  0
POLYLINE
  5
5BB6
  8
0
 66
     1
 10
0.0
 20
0.0
 30
0.0
 70
    64
 71
     4
 72
     2
  0
VERTEX
  5
5BB7
  8
0
 10
-280.9999999999999
 20
225.0000000000001
 30
-13.0
 70
   192
  0
VERTEX
  5
5BB8
  8
0
 10
-280.9999999999999
 20
225.0000000000001
 30
-16.0
 70
   192
  0
VERTEX
  5
5BB9
  8
0
 10
-318.0
 20
225.0000000000001
 30
-16.0
 70
   192
  0
VERTEX
  5
5BBA
  8
0
 10
-318.0
 20
225.0000000000001
 30
-13.0
 70
   192
  0
VERTEX
  5
5BBB
  8
0
 10
0.0
 20
0.0
 30
0.0
 70
   128
 71
     1
 72
     4
 73
    -3
  0
VERTEX
  5
5BBC
  8
0
 10
0.0
 20
0.0
 30
0.0
 70
   128
 71
    -1
 72
     3
 73
     2
  0
SEQEND
  5
5D81
  8
0
  0
POLYLINE
  5
5BBD
  8
0
 66
     1
 10
0.0
 20
0.0
 30
0.0
 70
    64
 71
     4
 72
     2
  0
VERTEX
  5
5BBE
  8
0
 10
-238.0
 20
225.0000000000001
 30
-13.0
 70
   192
  0
VERTEX
  5
5BBF
  8
0
 10
-238.0
 20
225.0000000000001
 30
-16.0
 70
   192
  0
VERTEX
  5
5BC0
  8
0
 10
-274.9999999999998
 20
225.0000000000001
 30
-16.0
 70
   192
  0
VERTEX
  5
5BC1
  8
0
 10
-274.9999999999998
 20
225.0000000000001
 30
-13.0
 70
   192
  0
VERTEX
  5
5BC2
  8
0
 10
0.0
 20
0.0
 30
0.0
 70
   128
 71
     1
 72
     4
 73
    -3
  0
VERTEX
  5
5BC3
  8
0
 10
0.0
 20
0.0
 30
0.0
 70
   128
 71
    -1
 72
     3
 73
     2
  0
SEQEND
  5
5D82
  8
0
  0
POLYLINE
  5
5BC4
  8
0
 66
     1
 10
0.0
 20
0.0
 30
0.0
 70
    64
 71
     4
 72
     2
  0
VERTEX
  5
5BC5
  8
0
 10
-274.9999999999998
 20
225.0000000000001
 30
-13.0
 70
   192
  0
VERTEX
  5
5BC6
  8
0
 10
-274.9999999999998
 20
225.0000000000001
 30
-16.0
 70
   192
  0
VERTEX
  5
5BC7
  8
0
 10
-274.9999999999998
 20
245.0000000000001
 30
-16.0
 70
   192
  0
VERTEX
  5
5BC8
  8
0
 10
-274.9999999999998
 20
245.0000000000001
 30
-13.0
 70
   192
  0
VERTEX
  5
5BC9
  8
0
 10
0.0
 20
0.0
 30
0.0
 70
   128
 71
     1
 72
     4
 73
    -3
  0
VERTEX
  5
5BCA
  8
0
 10
0.0
 20
0.0
 30
0.0
 70
   128
 71
    -1
 72
     3
 73
     2
  0
SEQEND
  5
5D83
  8
0
  0
POLYLINE
  5
5BCB
  8
0
 66
     1
 10
0.0
 20
0.0
 30
0.0
 70
    64
 71
     4
 72
     2
  0
VERTEX
  5
5BCC
  8
0
 10
-274.9999999999998
 20
245.0000000000001
 30
-13.0
 70
   192
  0
VERTEX
  5
5BCD
  8
0
 10
-274.9999999999998
 20
245.0000000000001
 30
-16.0
 70
   192
  0
VERTEX
  5
5BCE
  8
0
 10
-280.9999999999999
 20
245.0000000000001
 30
-16.0
 70
   192
  0
VERTEX
  5
5BCF
  8
0
 10
-280.9999999999999
 20
245.0000000000001
 30
-13.0
 70
   192
  0
VERTEX
  5
5BD0
  8
0
 10
0.0
 20
0.0
 30
0.0
 70
   128
 71
     1
 72
     4
 73
    -3
  0
VERTEX
  5
5BD1
  8
0
 10
0.0
 20
0.0
 30
0.0
 70
   128
 71
    -1
 72
     3
 73
     2
  0
SEQEND
  5
5D84
  8
0
  0
POLYLINE
  5
5BD2
  8
0
 66
     1
 10
0.0
 20
0.0
 30
0.0
 70
    64
 71
     8
 72
     6
  0
VERTEX
  5
5BD3
  8
0
 10
-280.9999999999999
 20
245.0000000000001
 30
-16.0
 70
   192
  0
VERTEX
  5
5BD4
  8
0
 10
-280.9999999999999
 20
225.0000000000001
 30
-16.0
 70
   192
  0
VERTEX
  5
5BD5
  8
0
 10
-318.0
 20
225.0000000000001
 30
-16.0
 70
   192
  0
VERTEX
  5
5BD6
  8
0
 10
-318.0
 20
250.0000000000001
 30
-16.0
 70
   192
  0
VERTEX
  5
5BD7
  8
0
 10
-238.0
 20
250.0000000000001
 30
-16.0
 70
   192
  0
VERTEX
  5
5BD8
  8
0
 10
-238.0
 20
225.0000000000001
 30
-16.0
 70
   192
  0
VERTEX
  5
5BD9
  8
0
 10
-274.9999999999998
 20
225.0000000000001
 30
-16.0
 70
   192
  0
VERTEX
  5
5BDA
  8
0
 10
-274.9999999999998
 20
245.0000000000001
 30
-16.0
 70
   192
  0
VERTEX
  5
5BDB
  8
0
 10
0.0
 20
0.0
 30
0.0
 70
   128
 71
     6
 72
     7
 73
    -8
  0
VERTEX
  5
5BDC
  8
0
 10
0.0
 20
0.0
 30
0.0
 70
   128
 71
     5
 72
    -6
 73
    -8
  0
VERTEX
  5
5BDD
  8
0
 10
0.0
 20
0.0
 30
0.0
 70
   128
 71
    -1
 72
     4
 73
    -5
  0
VERTEX
  5
5BDE
  8
0
 10
0.0
 20
0.0
 30
0.0
 70
   128
 71
     8
 72
    -1
 73
    -5
  0
VERTEX
  5
5BDF
  8
0
 10
0.0
 20
0.0
 30
0.0
 70
   128
 71
     2
 72
     3
 73
    -4
  0
VERTEX
  5
5BE0
  8
0
 10
0.0
 20
0.0
 30
0.0
 70
   128
 71
     1
 72
    -2
 73
    -4
  0
SEQEND
  5
5D85
  8
0
  0
ENDBLK
  5
5D79
  8
0
  0
BLOCK
  8
0
  2
*X5
 70
     1
 10
0.0
 20
0.0
 30
0.0
  3
*X5
  1

  0
POLYLINE
  5
5BE2
  8
0
 66
     1
 10
0.0
 20
0.0
 30
0.0
 70
    64
 71
     6
 72
     4
  0
VERTEX
  5
5BE3
  8
0
 10
378.019999999999
 20
-245.9999999999999
 30
-10.0
 70
   192
  0
VERTEX
  5
5BE4
  8
0
 10
378.019999999999
 20
-245.9999999999999
 30
-16.0
 70
   192
  0
VERTEX
  5
5BE5
  8
0
 10
353.0200000000001
 20
-245.9999999999999
 30
-16.0
 70
   192
  0
VERTEX
  5
5BE6
  8
0
 10
353.0200000000001
 20
-245.9999999999999
 30
-13.0
 70
   192
  0
VERTEX
  5
5BE7
  8
0
 10
318.0200000000001
 20
-245.9999999999999
 30
-13.0
 70
   192
  0
VERTEX
  5
5BE8
  8
0
 10
318.0200000000001
 20
-245.9999999999999
 30
-10.0
 70
   192
  0
VERTEX
  5
5BE9
  8
0
 10
0.0
 20
0.0
 30
0.0
 70
   128
 71
     4
 72
     3
 73
    -2
  0
VERTEX
  5
5BEA
  8
0
 10
0.0
 20
0.0
 30
0.0
 70
   128
 71
    -4
 72
     2
 73
    -1
  0
VERTEX
  5
5BEB
  8
0
 10
0.0
 20
0.0
 30
0.0
 70
   128
 71
     1
 72
     6
 73
    -5
  0
VERTEX
  5
5BEC
  8
0
 10
0.0
 20
0.0
 30
0.0
 70
   128
 71
    -1
 72
     5
 73
    -4
  0
SEQEND
  5
5D88
  8
0
  0
POLYLINE
  5
5BED
  8
0
 66
     1
 10
0.0
 20
0.0
 30
0.0
 70
    64
 71
     4
 72
     2
  0
VERTEX
  5
5BEE
  8
0
 10
318.0200000000001
 20
-245.9999999999999
 30
-10.0
 70
   192
  0
VERTEX
  5
5BEF
  8
0
 10
318.0200000000001
 20
-245.9999999999999
 30
-13.0
 70
   192
  0
VERTEX
  5
5BF0
  8
0
 10
318.0199999999999
 20
-165.9999999999999
 30
-13.0
 70
   192
  0
VERTEX
  5
5BF1
  8
0
 10
318.0199999999999
 20
-165.9999999999999
 30
-10.0
 70
   192
  0
VERTEX
  5
5BF2
  8
0
 10
0.0
 20
0.0
 30
0.0
 70
   128
 71
     1
 72
     4
 73
    -3
  0
VERTEX
  5
5BF3
  8
0
 10
0.0
 20
0.0
 30
0.0
 70
   128
 71
    -1
 72
     3
 73
     2
  0
SEQEND
  5
5D89
  8
0
  0
POLYLINE
  5
5BF4
  8
0
 66
     1
 10
0.0
 20
0.0
 30
0.0
 70
    64
 71
     6
 72
     4
  0
VERTEX
  5
5BF5
  8
0
 10
318.0199999999999
 20
-165.9999999999999
 30
-10.0
 70
   192
  0
VERTEX
  5
5BF6
  8
0
 10
378.019999999999
 20
-165.9999999999999
 30
-10.0
 70
   192
  0
VERTEX
  5
5BF7
  8
0
 10
378.019999999999
 20
-165.9999999999999
 30
-16.0
 70
   192
  0
VERTEX
  5
5BF8
  8
0
 10
353.0200000000001
 20
-165.9999999999999
 30
-16.0
 70
   192
  0
VERTEX
  5
5BF9
  8
0
 10
353.0200000000001
 20
-165.9999999999999
 30
-13.0
 70
   192
  0
VERTEX
  5
5BFA
  8
0
 10
318.0199999999999
 20
-165.9999999999999
 30
-13.0
 70
   192
  0
VERTEX
  5
5BFB
  8
0
 10
0.0
 20
0.0
 30
0.0
 70
   128
 71
     3
 72
     4
 73
    -5
  0
VERTEX
  5
5BFC
  8
0
 10
0.0
 20
0.0
 30
0.0
 70
   128
 71
     2
 72
    -3
 73
    -5
  0
VERTEX
  5
5BFD
  8
0
 10
0.0
 20
0.0
 30
0.0
 70
   128
 71
     6
 72
     1
 73
    -2
  0
VERTEX
  5
5BFE
  8
0
 10
0.0
 20
0.0
 30
0.0
 70
   128
 71
     5
 72
    -6
 73
    -2
  0
SEQEND
  5
5D8A
  8
0
  0
POLYLINE
  5
5BFF
  8
0
 66
     1
 10
0.0
 20
0.0
 30
0.0
 70
    64
 71
     4
 72
     2
  0
VERTEX
  5
5C00
  8
0
 10
378.019999999999
 20
-165.9999999999999
 30
-10.0
 70
   192
  0
VERTEX
  5
5C01
  8
0
 10
378.019999999999
 20
-245.9999999999999
 30
-10.0
 70
   192
  0
VERTEX
  5
5C02
  8
0
 10
378.019999999999
 20
-245.9999999999999
 30
-16.0
 70
   192
  0
VERTEX
  5
5C03
  8
0
 10
378.019999999999
 20
-165.9999999999998
 30
-16.0
 70
   192
  0
VERTEX
  5
5C04
  8
0
 10
0.0
 20
0.0
 30
0.0
 70
   128
 71
     3
 72
     4
 73
    -1
  0
VERTEX
  5
5C05
  8
0
 10
0.0
 20
0.0
 30
0.0
 70
   128
 71
     2
 72
    -3
 73
     1
  0
SEQEND
  5
5D8B
  8
0
  0
POLYLINE
  5
5C06
  8
0
 66
     1
 10
0.0
 20
0.0
 30
0.0
 70
    64
 71
     8
 72
     6
  0
VERTEX
  5
5C07
  8
0
 10
353.0200000000001
 20
-208.9999999999999
 30
-13.0
 70
   192
  0
VERTEX
  5
5C08
  8
0
 10
353.0200000000001
 20
-245.9999999999999
 30
-13.0
 70
   192
  0
VERTEX
  5
5C09
  8
0
 10
318.0200000000001
 20
-245.9999999999999
 30
-13.0
 70
   192
  0
VERTEX
  5
5C0A
  8
0
 10
318.0199999999999
 20
-165.9999999999999
 30
-13.0
 70
   192
  0
VERTEX
  5
5C0B
  8
0
 10
353.0200000000001
 20
-165.9999999999999
 30
-13.0
 70
   192
  0
VERTEX
  5
5C0C
  8
0
 10
353.0200000000001
 20
-202.9999999999999
 30
-13.0
 70
   192
  0
VERTEX
  5
5C0D
  8
0
 10
373.0200000000003
 20
-203.0
 30
-13.0
 70
   192
  0
VERTEX
  5
5C0E
  8
0
 10
373.0200000000003
 20
-209.0
 30
-13.0
 70
   192
  0
VERTEX
  5
5C0F
  8
0
 10
0.0
 20
0.0
 30
0.0
 70
   128
 71
     4
 72
     5
 73
    -6
  0
VERTEX
  5
5C10
  8
0
 10
0.0
 20
0.0
 30
0.0
 70
   128
 71
    -6
 72
    -1
 73
    -4
  0
VERTEX
  5
5C11
  8
0
 10
0.0
 20
0.0
 30
0.0
 70
   128
 71
     7
 72
     8
 73
    -1
  0
VERTEX
  5
5C12
  8
0
 10
0.0
 20
0.0
 30
0.0
 70
   128
 71
     6
 72
    -7
 73
    -1
  0
VERTEX
  5
5C13
  8
0
 10
0.0
 20
0.0
 30
0.0
 70
   128
 71
     2
 72
     3
 73
    -4
  0
VERTEX
  5
5C14
  8
0
 10
0.0
 20
0.0
 30
0.0
 70
   128
 71
     1
 72
    -2
 73
    -4
  0
SEQEND
  5
5D8C
  8
0
  0
POLYLINE
  5
5C15
  8
0
 66
     1
 10
0.0
 20
0.0
 30
0.0
 70
    64
 71
     4
 72
     2
  0
VERTEX
  5
5C16
  8
0
 10
318.0200000000001
 20
-245.9999999999999
 30
-10.0
 70
   192
  0
VERTEX
  5
5C17
  8
0
 10
318.0199999999999
 20
-165.9999999999999
 30
-10.0
 70
   192
  0
VERTEX
  5
5C18
  8
0
 10
378.019999999999
 20
-165.9999999999999
 30
-10.0
 70
   192
  0
VERTEX
  5
5C19
  8
0
 10
378.019999999999
 20
-245.9999999999999
 30
-10.0
 70
   192
  0
VERTEX
  5
5C1A
  8
0
 10
0.0
 20
0.0
 30
0.0
 70
   128
 71
     1
 72
     4
 73
    -3
  0
VERTEX
  5
5C1B
  8
0
 10
0.0
 20
0.0
 30
0.0
 70
   128
 71
    -1
 72
     3
 73
     2
  0
SEQEND
  5
5D8D
  8
0
  0
POLYLINE
  5
5C1C
  8
0
 66
     1
 10
0.0
 20
0.0
 30
0.0
 70
    64
 71
     4
 72
     2
  0
VERTEX
  5
5C1D
  8
0
 10
373.0200000000003
 20
-203.0
 30
-13.0
 70
   192
  0
VERTEX
  5
5C1E
  8
0
 10
373.0200000000003
 20
-203.0
 30
-16.0
 70
   192
  0
VERTEX
  5
5C1F
  8
0
 10
353.0200000000001
 20
-202.9999999999999
 30
-16.0
 70
   192
  0
VERTEX
  5
5C20
  8
0
 10
353.0200000000001
 20
-202.9999999999999
 30
-13.0
 70
   192
  0
VERTEX
  5
5C21
  8
0
 10
0.0
 20
0.0
 30
0.0
 70
   128
 71
     1
 72
     4
 73
    -3
  0
VERTEX
  5
5C22
  8
0
 10
0.0
 20
0.0
 30
0.0
 70
   128
 71
    -1
 72
     3
 73
     2
  0
SEQEND
  5
5D8E
  8
0
  0
POLYLINE
  5
5C23
  8
0
 66
     1
 10
0.0
 20
0.0
 30
0.0
 70
    64
 71
     4
 72
     2
  0
VERTEX
  5
5C24
  8
0
 10
353.0200000000001
 20
-202.9999999999999
 30
-13.0
 70
   192
  0
VERTEX
  5
5C25
  8
0
 10
353.0200000000001
 20
-202.9999999999999
 30
-16.0
 70
   192
  0
VERTEX
  5
5C26
  8
0
 10
353.0200000000001
 20
-165.9999999999999
 30
-16.0
 70
   192
  0
VERTEX
  5
5C27
  8
0
 10
353.0200000000001
 20
-165.9999999999998
 30
-13.0
 70
   192
  0
VERTEX
  5
5C28
  8
0
 10
0.0
 20
0.0
 30
0.0
 70
   128
 71
     1
 72
     4
 73
    -3
  0
VERTEX
  5
5C29
  8
0
 10
0.0
 20
0.0
 30
0.0
 70
   128
 71
    -1
 72
     3
 73
     2
  0
SEQEND
  5
5D8F
  8
0
  0
POLYLINE
  5
5C2A
  8
0
 66
     1
 10
0.0
 20
0.0
 30
0.0
 70
    64
 71
     4
 72
     2
  0
VERTEX
  5
5C2B
  8
0
 10
353.0200000000001
 20
-245.9999999999999
 30
-13.0
 70
   192
  0
VERTEX
  5
5C2C
  8
0
 10
353.0200000000001
 20
-245.9999999999999
 30
-16.0
 70
   192
  0
VERTEX
  5
5C2D
  8
0
 10
353.0200000000001
 20
-208.9999999999999
 30
-16.0
 70
   192
  0
VERTEX
  5
5C2E
  8
0
 10
353.0200000000001
 20
-208.9999999999999
 30
-13.0
 70
   192
  0
VERTEX
  5
5C2F
  8
0
 10
0.0
 20
0.0
 30
0.0
 70
   128
 71
     1
 72
     4
 73
    -3
  0
VERTEX
  5
5C30
  8
0
 10
0.0
 20
0.0
 30
0.0
 70
   128
 71
    -1
 72
     3
 73
     2
  0
SEQEND
  5
5D90
  8
0
  0
POLYLINE
  5
5C31
  8
0
 66
     1
 10
0.0
 20
0.0
 30
0.0
 70
    64
 71
     4
 72
     2
  0
VERTEX
  5
5C32
  8
0
 10
353.0200000000001
 20
-208.9999999999999
 30
-13.0
 70
   192
  0
VERTEX
  5
5C33
  8
0
 10
353.0200000000001
 20
-208.9999999999999
 30
-16.0
 70
   192
  0
VERTEX
  5
5C34
  8
0
 10
373.0200000000003
 20
-209.0
 30
-16.0
 70
   192
  0
VERTEX
  5
5C35
  8
0
 10
373.0200000000002
 20
-209.0
 30
-13.0
 70
   192
  0
VERTEX
  5
5C36
  8
0
 10
0.0
 20
0.0
 30
0.0
 70
   128
 71
     1
 72
     4
 73
    -3
  0
VERTEX
  5
5C37
  8
0
 10
0.0
 20
0.0
 30
0.0
 70
   128
 71
    -1
 72
     3
 73
     2
  0
SEQEND
  5
5D91
  8
0
  0
POLYLINE
  5
5C38
  8
0
 66
     1
 10
0.0
 20
0.0
 30
0.0
 70
    64
 71
     4
 72
     2
  0
VERTEX
  5
5C39
  8
0
 10
373.0200000000003
 20
-209.0
 30
-13.0
 70
   192
  0
VERTEX
  5
5C3A
  8
0
 10
373.0200000000003
 20
-209.0
 30
-16.0
 70
   192
  0
VERTEX
  5
5C3B
  8
0
 10
373.0200000000003
 20
-203.0
 30
-16.0
 70
   192
  0
VERTEX
  5
5C3C
  8
0
 10
373.0200000000003
 20
-203.0
 30
-13.0
 70
   192
  0
VERTEX
  5
5C3D
  8
0
 10
0.0
 20
0.0
 30
0.0
 70
   128
 71
     1
 72
     4
 73
    -3
  0
VERTEX
  5
5C3E
  8
0
 10
0.0
 20
0.0
 30
0.0
 70
   128
 71
    -1
 72
     3
 73
     2
  0
SEQEND
  5
5D92
  8
0
  0
POLYLINE
  5
5C3F
  8
0
 66
     1
 10
0.0
 20
0.0
 30
0.0
 70
    64
 71
     8
 72
     6
  0
VERTEX
  5
5C40
  8
0
 10
373.0200000000003
 20
-203.0
 30
-16.0
 70
   192
  0
VERTEX
  5
5C41
  8
0
 10
353.0200000000001
 20
-202.9999999999999
 30
-16.0
 70
   192
  0
VERTEX
  5
5C42
  8
0
 10
353.0200000000001
 20
-165.9999999999998
 30
-16.0
 70
   192
  0
VERTEX
  5
5C43
  8
0
 10
378.019999999999
 20
-165.9999999999999
 30
-16.0
 70
   192
  0
VERTEX
  5
5C44
  8
0
 10
378.019999999999
 20
-245.9999999999999
 30
-16.0
 70
   192
  0
VERTEX
  5
5C45
  8
0
 10
353.0200000000001
 20
-245.9999999999999
 30
-16.0
 70
   192
  0
VERTEX
  5
5C46
  8
0
 10
353.0200000000001
 20
-208.9999999999999
 30
-16.0
 70
   192
  0
VERTEX
  5
5C47
  8
0
 10
373.0200000000002
 20
-209.0
 30
-16.0
 70
   192
  0
VERTEX
  5
5C48
  8
0
 10
0.0
 20
0.0
 30
0.0
 70
   128
 71
     6
 72
     7
 73
    -8
  0
VERTEX
  5
5C49
  8
0
 10
0.0
 20
0.0
 30
0.0
 70
   128
 71
     5
 72
    -6
 73
    -8
  0
VERTEX
  5
5C4A
  8
0
 10
0.0
 20
0.0
 30
0.0
 70
   128
 71
    -1
 72
     4
 73
    -5
  0
VERTEX
  5
5C4B
  8
0
 10
0.0
 20
0.0
 30
0.0
 70
   128
 71
     8
 72
    -1
 73
    -5
  0
VERTEX
  5
5C4C
  8
0
 10
0.0
 20
0.0
 30
0.0
 70
   128
 71
     2
 72
     3
 73
    -4
  0
VERTEX
  5
5C4D
  8
0
 10
0.0
 20
0.0
 30
0.0
 70
   128
 71
     1
 72
    -2
 73
    -4
  0
SEQEND
  5
5D93
  8
0
  0
ENDBLK
  5
5D87
  8
0
  0
BLOCK
  8
0
  2
*X6
 70
     1
 10
0.0
 20
0.0
 30
0.0
  3
*X6
  1

  0
POLYLINE
  5
5C4F
  8
0
 66
     1
 10
0.0
 20
0.0
 30
0.0
 70
    64
 71
    10
 72
     8
  0
VERTEX
  5
5C50
  8
0
 10
149.9999999999999
 20
-214.0
 30
-11.50000000000001
 70
   192
  0
VERTEX
  5
5C51
  8
0
 10
149.9999999999999
 20
-214.0
 30
-18.49999999999999
 70
   192
  0
VERTEX
  5
5C52
  8
0
 10
149.9999999999999
 20
-209.0
 30
-18.49999999999999
 70
   192
  0
VERTEX
  5
5C53
  8
0
 10
149.9999999999999
 20
-209.0
 30
-11.50000000000001
 70
   192
  0
VERTEX
  5
5C54
  8
0
 10
153.4999999999999
 20
-209.0
 30
-15.0
 70
   192
  0
VERTEX
  5
5C55
  8
0
 10
153.4999999999999
 20
-214.0
 30
-15.0
 70
   192
  0
VERTEX
  5
5C56
  8
0
 10
152.4748737341528
 20
-209.0
 30
-12.52512626584709
 70
   192
  0
VERTEX
  5
5C57
  8
0
 10
152.4748737341528
 20
-214.0
 30
-12.52512626584709
 70
   192
  0
VERTEX
  5
5C58
  8
0
 10
152.4748737341528
 20
-209.0
 30
-17.47487373415291
 70
   192
  0
VERTEX
  5
5C59
  8
0
 10
152.4748737341528
 20
-214.0
 30
-17.47487373415291
 70
   192
  0
VERTEX
  5
5C5A
  8
0
 10
0.0
 20
0.0
 30
0.0
 70
   128
 71
     7
 72
     4
 73
    -1
  0
VERTEX
  5
5C5B
  8
0
 10
0.0
 20
0.0
 30
0.0
 70
   128
 71
    -7
 72
     1
 73
     8
  0
VERTEX
  5
5C5C
  8
0
 10
0.0
 20
0.0
 30
0.0
 70
   128
 71
     6
 72
     5
 73
    -7
  0
VERTEX
  5
5C5D
  8
0
 10
0.0
 20
0.0
 30
0.0
 70
   128
 71
    -6
 72
     7
 73
     8
  0
VERTEX
  5
5C5E
  8
0
 10
0.0
 20
0.0
 30
0.0
 70
   128
 71
    10
 72
     9
 73
    -5
  0
VERTEX
  5
5C5F
  8
0
 10
0.0
 20
0.0
 30
0.0
 70
   128
 71
   -10
 72
     5
 73
     6
  0
VERTEX
  5
5C60
  8
0
 10
0.0
 20
0.0
 30
0.0
 70
   128
 71
     2
 72
     3
 73
    -9
  0
VERTEX
  5
5C61
  8
0
 10
0.0
 20
0.0
 30
0.0
 70
   128
 71
    -2
 72
     9
 73
    10
  0
SEQEND
  5
5D96
  8
0
  0
POLYLINE
  5
5C62
  8
0
 66
     1
 10
0.0
 20
0.0
 30
0.0
 70
    64
 71
     4
 72
     2
  0
VERTEX
  5
5C63
  8
0
 10
200.0
 20
-39.00000000000006
 30
-10.0
 70
   192
  0
VERTEX
  5
5C64
  8
0
 10
200.0
 20
-39.00000000000006
 30
-20.0
 70
   192
  0
VERTEX
  5
5C65
  8
0
 10
200.0
 20
-198.9999999999999
 30
-20.0
 70
   192
  0
VERTEX
  5
5C66
  8
0
 10
200.0
 20
-198.9999999999999
 30
-10.0
 70
   192
  0
VERTEX
  5
5C67
  8
0
 10
0.0
 20
0.0
 30
0.0
 70
   128
 71
     1
 72
     4
 73
    -3
  0
VERTEX
  5
5C68
  8
0
 10
0.0
 20
0.0
 30
0.0
 70
   128
 71
    -1
 72
     3
 73
     2
  0
SEQEND
  5
5D97
  8
0
  0
POLYLINE
  5
5C69
  8
0
 66
     1
 10
0.0
 20
0.0
 30
0.0
 70
    64
 71
     8
 72
     6
  0
VERTEX
  5
5C6A
  8
0
 10
195.0
 20
-207.6602540378444
 30
-10.0
 70
   192
  0
VERTEX
  5
5C6B
  8
0
 10
195.0
 20
-207.6602540378444
 30
-20.0
 70
   192
  0
VERTEX
  5
5C6C
  8
0
 10
198.6602540378444
 20
-204.0
 30
-20.0
 70
   192
  0
VERTEX
  5
5C6D
  8
0
 10
198.6602540378444
 20
-204.0
 30
-10.0
 70
   192
  0
VERTEX
  5
5C6E
  8
0
 10
189.9999999999999
 20
-209.0
 30
-10.0
 70
   192
  0
VERTEX
  5
5C6F
  8
0
 10
189.9999999999999
 20
-209.0
 30
-20.0
 70
   192
  0
VERTEX
  5
5C70
  8
0
 10
200.0
 20
-198.9999999999999
 30
-20.0
 70
   192
  0
VERTEX
  5
5C71
  8
0
 10
200.0
 20
-198.9999999999999
 30
-10.0
 70
   192
  0
VERTEX
  5
5C72
  8
0
 10
0.0
 20
0.0
 30
0.0
 70
   128
 71
     1
 72
     2
 73
    -3
  0
VERTEX
  5
5C73
  8
0
 10
0.0
 20
0.0
 30
0.0
 70
   128
 71
    -1
 72
     3
 73
     4
  0
VERTEX
  5
5C74
  8
0
 10
0.0
 20
0.0
 30
0.0
 70
   128
 71
     5
 72
     6
 73
    -2
  0
VERTEX
  5
5C75
  8
0
 10
0.0
 20
0.0
 30
0.0
 70
   128
 71
    -5
 72
     2
 73
     1
  0
VERTEX
  5
5C76
  8
0
 10
0.0
 20
0.0
 30
0.0
 70
   128
 71
     4
 72
     3
 73
    -7
  0
VERTEX
  5
5C77
  8
0
 10
0.0
 20
0.0
 30
0.0
 70
   128
 71
    -4
 72
     7
 73
     8
  0
SEQEND
  5
5D98
  8
0
  0
POLYLINE
  5
5C78
  8
0
 66
     1
 10
0.0
 20
0.0
 30
0.0
 70
    64
 71
    12
 72
    12
  0
VERTEX
  5
5C79
  8
0
 10
189.9999999999999
 20
-209.0
 30
-10.0
 70
   192
  0
VERTEX
  5
5C7A
  8
0
 10
189.9999999999999
 20
-209.0
 30
-20.0
 70
   192
  0
VERTEX
  5
5C7B
  8
0
 10
10.00000000000004
 20
-209.0
 30
-20.0
 70
   192
  0
VERTEX
  5
5C7C
  8
0
 10
10.00000000000004
 20
-209.0
 30
-10.0
 70
   192
  0
VERTEX
  5
5C7D
  8
0
 10
149.9999999999999
 20
-209.0
 30
-18.49999999999999
 70
   192
  0
VERTEX
  5
5C7E
  8
0
 10
152.4748737341528
 20
-209.0
 30
-17.47487373415291
 70
   192
  0
VERTEX
  5
5C7F
  8
0
 10
153.4999999999999
 20
-209.0
 30
-15.0
 70
   192
  0
VERTEX
  5
5C80
  8
0
 10
152.4748737341528
 20
-209.0
 30
-12.52512626584709
 70
   192
  0
VERTEX
  5
5C81
  8
0
 10
149.9999999999999
 20
-209.0
 30
-11.50000000000001
 70
   192
  0
VERTEX
  5
5C82
  8
0
 10
147.525126265847
 20
-209.0
 30
-12.52512626584709
 70
   192
  0
VERTEX
  5
5C83
  8
0
 10
146.4999999999999
 20
-209.0
 30
-15.0
 70
   192
  0
VERTEX
  5
5C84
  8
0
 10
147.525126265847
 20
-209.0
 30
-17.47487373415291
 70
   192
  0
VERTEX
  5
5C85
  8
0
 10
0.0
 20
0.0
 30
0.0
 70
   128
 71
     6
 72
    -5
 73
    -2
  0
VERTEX
  5
5C86
  8
0
 10
0.0
 20
0.0
 30
0.0
 70
   128
 71
     2
 72
    -1
 73
    -7
  0
VERTEX
  5
5C87
  8
0
 10
0.0
 20
0.0
 30
0.0
 70
   128
 71
    -2
 72
     7
 73
    -6
  0
VERTEX
  5
5C88
  8
0
 10
0.0
 20
0.0
 30
0.0
 70
   128
 71
    -1
 72
     8
 73
    -7
  0
VERTEX
  5
5C89
  8
0
 10
0.0
 20
0.0
 30
0.0
 70
   128
 71
    -1
 72
     9
 73
    -8
  0
VERTEX
  5
5C8A
  8
0
 10
0.0
 20
0.0
 30
0.0
 70
   128
 71
    -9
 72
     1
 73
    -4
  0
VERTEX
  5
5C8B
  8
0
 10
0.0
 20
0.0
 30
0.0
 70
   128
 71
    -4
 72
    10
 73
    -9
  0
VERTEX
  5
5C8C
  8
0
 10
0.0
 20
0.0
 30
0.0
 70
   128
 71
     4
 72
    -3
 73
   -11
  0
VERTEX
  5
5C8D
  8
0
 10
0.0
 20
0.0
 30
0.0
 70
   128
 71
    -4
 72
    11
 73
   -10
  0
VERTEX
  5
5C8E
  8
0
 10
0.0
 20
0.0
 30
0.0
 70
   128
 71
    -3
 72
    12
 73
   -11
  0
VERTEX
  5
5C8F
  8
0
 10
0.0
 20
0.0
 30
0.0
 70
   128
 71
    -3
 72
     5
 73
   -12
  0
VERTEX
  5
5C90
  8
0
 10
0.0
 20
0.0
 30
0.0
 70
   128
 71
     3
 72
    -2
 73
    -5
  0
SEQEND
  5
5D99
  8
0
  0
POLYLINE
  5
5C91
  8
0
 66
     1
 10
0.0
 20
0.0
 30
0.0
 70
    64
 71
     8
 72
     6
  0
VERTEX
  5
5C92
  8
0
 10
1.339745962155575
 20
-204.0
 30
-10.0
 70
   192
  0
VERTEX
  5
5C93
  8
0
 10
1.339745962155575
 20
-204.0
 30
-20.0
 70
   192
  0
VERTEX
  5
5C94
  8
0
 10
4.999999999999996
 20
-207.6602540378444
 30
-20.0
 70
   192
  0
VERTEX
  5
5C95
  8
0
 10
4.999999999999996
 20
-207.6602540378444
 30
-10.0
 70
   192
  0
VERTEX
  5
5C96
  8
0
 10
-0.000000000000032
 20
-198.9999999999999
 30
-10.0
 70
   192
  0
VERTEX
  5
5C97
  8
0
 10
-0.0000000000000262
 20
-198.9999999999999
 30
-20.0
 70
   192
  0
VERTEX
  5
5C98
  8
0
 10
10.00000000000004
 20
-209.0
 30
-20.0
 70
   192
  0
VERTEX
  5
5C99
  8
0
 10
10.00000000000004
 20
-209.0
 30
-10.0
 70
   192
  0
VERTEX
  5
5C9A
  8
0
 10
0.0
 20
0.0
 30
0.0
 70
   128
 71
     1
 72
     2
 73
    -3
  0
VERTEX
  5
5C9B
  8
0
 10
0.0
 20
0.0
 30
0.0
 70
   128
 71
    -1
 72
     3
 73
     4
  0
VERTEX
  5
5C9C
  8
0
 10
0.0
 20
0.0
 30
0.0
 70
   128
 71
     5
 72
     6
 73
    -2
  0
VERTEX
  5
5C9D
  8
0
 10
0.0
 20
0.0
 30
0.0
 70
   128
 71
    -5
 72
     2
 73
     1
  0
VERTEX
  5
5C9E
  8
0
 10
0.0
 20
0.0
 30
0.0
 70
   128
 71
     4
 72
     3
 73
    -7
  0
VERTEX
  5
5C9F
  8
0
 10
0.0
 20
0.0
 30
0.0
 70
   128
 71
    -4
 72
     7
 73
     8
  0
SEQEND
  5
5D9A
  8
0
  0
POLYLINE
  5
5CA0
  8
0
 66
     1
 10
0.0
 20
0.0
 30
0.0
 70
    64
 71
     4
 72
     2
  0
VERTEX
  5
5CA1
  8
0
 10
-0.0000000000000262
 20
-198.9999999999999
 30
-10.0
 70
   192
  0
VERTEX
  5
5CA2
  8
0
 10
-0.0000000000000015
 20
-39.00000000000007
 30
-10.0
 70
   192
  0
VERTEX
  5
5CA3
  8
0
 10
-0.0000000000000015
 20
-39.00000000000007
 30
-20.0
 70
   192
  0
VERTEX
  5
5CA4
  8
0
 10
-0.0000000000000262
 20
-198.9999999999999
 30
-20.0
 70
   192
  0
VERTEX
  5
5CA5
  8
0
 10
0.0
 20
0.0
 30
0.0
 70
   128
 71
     3
 72
     4
 73
    -1
  0
VERTEX
  5
5CA6
  8
0
 10
0.0
 20
0.0
 30
0.0
 70
   128
 71
     2
 72
    -3
 73
     1
  0
SEQEND
  5
5D9B
  8
0
  0
POLYLINE
  5
5CA7
  8
0
 66
     1
 10
0.0
 20
0.0
 30
0.0
 70
    64
 71
     8
 72
     6
  0
VERTEX
  5
5CA8
  8
0
 10
5.00000000000002
 20
-30.3397459621556
 30
-10.0
 70
   192
  0
VERTEX
  5
5CA9
  8
0
 10
5.00000000000002
 20
-30.3397459621556
 30
-20.0
 70
   192
  0
VERTEX
  5
5CAA
  8
0
 10
1.339745962155599
 20
-34.00000000000002
 30
-20.0
 70
   192
  0
VERTEX
  5
5CAB
  8
0
 10
1.339745962155599
 20
-34.00000000000002
 30
-10.0
 70
   192
  0
VERTEX
  5
5CAC
  8
0
 10
10.00000000000007
 20
-29.0
 30
-10.0
 70
   192
  0
VERTEX
  5
5CAD
  8
0
 10
10.00000000000007
 20
-29.0
 30
-20.0
 70
   192
  0
VERTEX
  5
5CAE
  8
0
 10
-0.0000000000000036
 20
-39.00000000000007
 30
-20.0
 70
   192
  0
VERTEX
  5
5CAF
  8
0
 10
-0.0000000000000015
 20
-39.00000000000007
 30
-10.0
 70
   192
  0
VERTEX
  5
5CB0
  8
0
 10
0.0
 20
0.0
 30
0.0
 70
   128
 71
     1
 72
     2
 73
    -3
  0
VERTEX
  5
5CB1
  8
0
 10
0.0
 20
0.0
 30
0.0
 70
   128
 71
    -1
 72
     3
 73
     4
  0
VERTEX
  5
5CB2
  8
0
 10
0.0
 20
0.0
 30
0.0
 70
   128
 71
     5
 72
     6
 73
    -2
  0
VERTEX
  5
5CB3
  8
0
 10
0.0
 20
0.0
 30
0.0
 70
   128
 71
    -5
 72
     2
 73
     1
  0
VERTEX
  5
5CB4
  8
0
 10
0.0
 20
0.0
 30
0.0
 70
   128
 71
     4
 72
     3
 73
    -7
  0
VERTEX
  5
5CB5
  8
0
 10
0.0
 20
0.0
 30
0.0
 70
   128
 71
    -4
 72
     7
 73
     8
  0
SEQEND
  5
5D9C
  8
0
  0
POLYLINE
  5
5CB6
  8
0
 66
     1
 10
0.0
 20
0.0
 30
0.0
 70
    64
 71
     4
 72
     2
  0
VERTEX
  5
5CB7
  8
0
 10
10.00000000000007
 20
-29.0
 30
-10.0
 70
   192
  0
VERTEX
  5
5CB8
  8
0
 10
189.9999999999999
 20
-28.99999999999999
 30
-10.0
 70
   192
  0
VERTEX
  5
5CB9
  8
0
 10
189.9999999999999
 20
-28.99999999999999
 30
-20.0
 70
   192
  0
VERTEX
  5
5CBA
  8
0
 10
10.00000000000007
 20
-29.0
 30
-20.0
 70
   192
  0
VERTEX
  5
5CBB
  8
0
 10
0.0
 20
0.0
 30
0.0
 70
   128
 71
     3
 72
     4
 73
    -1
  0
VERTEX
  5
5CBC
  8
0
 10
0.0
 20
0.0
 30
0.0
 70
   128
 71
     2
 72
    -3
 73
     1
  0
SEQEND
  5
5D9D
  8
0
  0
POLYLINE
  5
5CBD
  8
0
 66
     1
 10
0.0
 20
0.0
 30
0.0
 70
    64
 71
     8
 72
     6
  0
VERTEX
  5
5CBE
  8
0
 10
198.6602540378444
 20
-34.00000000000001
 30
-10.0
 70
   192
  0
VERTEX
  5
5CBF
  8
0
 10
198.6602540378444
 20
-34.00000000000001
 30
-20.0
 70
   192
  0
VERTEX
  5
5CC0
  8
0
 10
195.0
 20
-30.33974596215559
 30
-20.0
 70
   192
  0
VERTEX
  5
5CC1
  8
0
 10
195.0
 20
-30.33974596215559
 30
-10.0
 70
   192
  0
VERTEX
  5
5CC2
  8
0
 10
200.0
 20
-39.00000000000006
 30
-10.0
 70
   192
  0
VERTEX
  5
5CC3
  8
0
 10
200.0
 20
-39.00000000000006
 30
-20.0
 70
   192
  0
VERTEX
  5
5CC4
  8
0
 10
189.9999999999999
 20
-28.99999999999998
 30
-20.0
 70
   192
  0
VERTEX
  5
5CC5
  8
0
 10
189.9999999999999
 20
-28.99999999999999
 30
-10.0
 70
   192
  0
VERTEX
  5
5CC6
  8
0
 10
0.0
 20
0.0
 30
0.0
 70
   128
 71
     1
 72
     2
 73
    -3
  0
VERTEX
  5
5CC7
  8
0
 10
0.0
 20
0.0
 30
0.0
 70
   128
 71
    -1
 72
     3
 73
     4
  0
VERTEX
  5
5CC8
  8
0
 10
0.0
 20
0.0
 30
0.0
 70
   128
 71
     5
 72
     6
 73
    -2
  0
VERTEX
  5
5CC9
  8
0
 10
0.0
 20
0.0
 30
0.0
 70
   128
 71
    -5
 72
     2
 73
     1
  0
VERTEX
  5
5CCA
  8
0
 10
0.0
 20
0.0
 30
0.0
 70
   128
 71
     4
 72
     3
 73
    -7
  0
VERTEX
  5
5CCB
  8
0
 10
0.0
 20
0.0
 30
0.0
 70
   128
 71
    -4
 72
     7
 73
     8
  0
SEQEND
  5
5D9E
  8
0
  0
POLYLINE
  5
5CCC
  8
0
 66
     1
 10
0.0
 20
0.0
 30
0.0
 70
    64
 71
    16
 72
    14
  0
VERTEX
  5
5CCD
  8
0
 10
200.0
 20
-39.00000000000006
 30
-20.0
 70
   192
  0
VERTEX
  5
5CCE
  8
0
 10
200.0
 20
-198.9999999999999
 30
-20.0
 70
   192
  0
VERTEX
  5
5CCF
  8
0
 10
198.6602540378444
 20
-204.0
 30
-20.0
 70
   192
  0
VERTEX
  5
5CD0
  8
0
 10
195.0
 20
-207.6602540378444
 30
-20.0
 70
   192
  0
VERTEX
  5
5CD1
  8
0
 10
189.9999999999999
 20
-209.0
 30
-20.0
 70
   192
  0
VERTEX
  5
5CD2
  8
0
 10
10.00000000000004
 20
-209.0
 30
-20.0
 70
   192
  0
VERTEX
  5
5CD3
  8
0
 10
4.999999999999996
 20
-207.6602540378444
 30
-20.0
 70
   192
  0
VERTEX
  5
5CD4
  8
0
 10
1.339745962155575
 20
-204.0
 30
-20.0
 70
   192
  0
VERTEX
  5
5CD5
  8
0
 10
-0.000000000000032
 20
-198.9999999999999
 30
-20.0
 70
   192
  0
VERTEX
  5
5CD6
  8
0
 10
-0.0000000000000015
 20
-39.00000000000007
 30
-20.0
 70
   192
  0
VERTEX
  5
5CD7
  8
0
 10
1.339745962155599
 20
-34.00000000000002
 30
-20.0
 70
   192
  0
VERTEX
  5
5CD8
  8
0
 10
5.00000000000002
 20
-30.3397459621556
 30
-20.0
 70
   192
  0
VERTEX
  5
5CD9
  8
0
 10
10.00000000000007
 20
-29.0
 30
-20.0
 70
   192
  0
VERTEX
  5
5CDA
  8
0
 10
189.9999999999999
 20
-28.99999999999999
 30
-20.0
 70
   192
  0
VERTEX
  5
5CDB
  8
0
 10
195.0
 20
-30.33974596215559
 30
-20.0
 70
   192
  0
VERTEX
  5
5CDC
  8
0
 10
198.6602540378444
 20
-34.00000000000001
 30
-20.0
 70
   192
  0
VERTEX
  5
5CDD
  8
0
 10
0.0
 20
0.0
 30
0.0
 70
   128
 71
    15
 72
    16
 73
    -1
  0
VERTEX
  5
5CDE
  8
0
 10
0.0
 20
0.0
 30
0.0
 70
   128
 71
    14
 72
   -15
 73
    -1
  0
VERTEX
  5
5CDF
  8
0
 10
0.0
 20
0.0
 30
0.0
 70
   128
 71
    13
 72
   -14
 73
    -1
  0
VERTEX
  5
5CE0
  8
0
 10
0.0
 20
0.0
 30
0.0
 70
   128
 71
    12
 72
   -13
 73
    -1
  0
VERTEX
  5
5CE1
  8
0
 10
0.0
 20
0.0
 30
0.0
 70
   128
 71
    11
 72
   -12
 73
    -1
  0
VERTEX
  5
5CE2
  8
0
 10
0.0
 20
0.0
 30
0.0
 70
   128
 71
    10
 72
   -11
 73
    -1
  0
VERTEX
  5
5CE3
  8
0
 10
0.0
 20
0.0
 30
0.0
 70
   128
 71
     9
 72
   -10
 73
    -1
  0
VERTEX
  5
5CE4
  8
0
 10
0.0
 20
0.0
 30
0.0
 70
   128
 71
     8
 72
    -9
 73
    -1
  0
VERTEX
  5
5CE5
  8
0
 10
0.0
 20
0.0
 30
0.0
 70
   128
 71
     7
 72
    -8
 73
    -1
  0
VERTEX
  5
5CE6
  8
0
 10
0.0
 20
0.0
 30
0.0
 70
   128
 71
     6
 72
    -7
 73
    -1
  0
VERTEX
  5
5CE7
  8
0
 10
0.0
 20
0.0
 30
0.0
 70
   128
 71
     5
 72
    -6
 73
    -1
  0
VERTEX
  5
5CE8
  8
0
 10
0.0
 20
0.0
 30
0.0
 70
   128
 71
     4
 72
    -5
 73
    -1
  0
VERTEX
  5
5CE9
  8
0
 10
0.0
 20
0.0
 30
0.0
 70
   128
 71
     3
 72
    -4
 73
    -1
  0
VERTEX
  5
5CEA
  8
0
 10
0.0
 20
0.0
 30
0.0
 70
   128
 71
     2
 72
    -3
 73
     1
  0
SEQEND
  5
5D9F
  8
0
  0
POLYLINE
  5
5CEB
  8
0
 66
     1
 10
0.0
 20
0.0
 30
0.0
 70
    64
 71
    16
 72
    14
  0
VERTEX
  5
5CEC
  8
0
 10
200.0
 20
-198.9999999999999
 30
-10.0
 70
   192
  0
VERTEX
  5
5CED
  8
0
 10
198.6602540378444
 20
-204.0
 30
-10.0
 70
   192
  0
VERTEX
  5
5CEE
  8
0
 10
195.0
 20
-207.6602540378444
 30
-10.0
 70
   192
  0
VERTEX
  5
5CEF
  8
0
 10
189.9999999999999
 20
-209.0
 30
-10.0
 70
   192
  0
VERTEX
  5
5CF0
  8
0
 10
10.00000000000004
 20
-209.0
 30
-10.0
 70
   192
  0
VERTEX
  5
5CF1
  8
0
 10
4.999999999999996
 20
-207.6602540378444
 30
-10.0
 70
   192
  0
VERTEX
  5
5CF2
  8
0
 10
1.339745962155575
 20
-204.0
 30
-10.0
 70
   192
  0
VERTEX
  5
5CF3
  8
0
 10
-0.0000000000000262
 20
-198.9999999999999
 30
-10.0
 70
   192
  0
VERTEX
  5
5CF4
  8
0
 10
-0.0000000000000036
 20
-39.00000000000007
 30
-10.0
 70
   192
  0
VERTEX
  5
5CF5
  8
0
 10
1.339745962155599
 20
-34.00000000000002
 30
-10.0
 70
   192
  0
VERTEX
  5
5CF6
  8
0
 10
5.00000000000002
 20
-30.3397459621556
 30
-10.0
 70
   192
  0
VERTEX
  5
5CF7
  8
0
 10
10.00000000000007
 20
-29.0
 30
-10.0
 70
   192
  0
VERTEX
  5
5CF8
  8
0
 10
189.9999999999999
 20
-28.99999999999998
 30
-10.0
 70
   192
  0
VERTEX
  5
5CF9
  8
0
 10
195.0
 20
-30.33974596215559
 30
-10.0
 70
   192
  0
VERTEX
  5
5CFA
  8
0
 10
198.6602540378444
 20
-34.00000000000001
 30
-10.0
 70
   192
  0
VERTEX
  5
5CFB
  8
0
 10
200.0
 20
-39.00000000000006
 30
-10.0
 70
   192
  0
VERTEX
  5
5CFC
  8
0
 10
0.0
 20
0.0
 30
0.0
 70
   128
 71
     1
 72
    16
 73
   -15
  0
VERTEX
  5
5CFD
  8
0
 10
0.0
 20
0.0
 30
0.0
 70
   128
 71
    -1
 72
    15
 73
   -14
  0
VERTEX
  5
5CFE
  8
0
 10
0.0
 20
0.0
 30
0.0
 70
   128
 71
    -1
 72
    14
 73
   -13
  0
VERTEX
  5
5CFF
  8
0
 10
0.0
 20
0.0
 30
0.0
 70
   128
 71
    -1
 72
    13
 73
   -12
  0
VERTEX
  5
5D00
  8
0
 10
0.0
 20
0.0
 30
0.0
 70
   128
 71
    -1
 72
    12
 73
   -11
  0
VERTEX
  5
5D01
  8
0
 10
0.0
 20
0.0
 30
0.0
 70
   128
 71
    -1
 72
    11
 73
   -10
  0
VERTEX
  5
5D02
  8
0
 10
0.0
 20
0.0
 30
0.0
 70
   128
 71
    -1
 72
    10
 73
    -9
  0
VERTEX
  5
5D03
  8
0
 10
0.0
 20
0.0
 30
0.0
 70
   128
 71
    -1
 72
     9
 73
    -8
  0
VERTEX
  5
5D04
  8
0
 10
0.0
 20
0.0
 30
0.0
 70
   128
 71
    -1
 72
     8
 73
    -7
  0
VERTEX
  5
5D05
  8
0
 10
0.0
 20
0.0
 30
0.0
 70
   128
 71
    -1
 72
     7
 73
    -6
  0
VERTEX
  5
5D06
  8
0
 10
0.0
 20
0.0
 30
0.0
 70
   128
 71
    -1
 72
     6
 73
    -5
  0
VERTEX
  5
5D07
  8
0
 10
0.0
 20
0.0
 30
0.0
 70
   128
 71
    -1
 72
     5
 73
    -4
  0
VERTEX
  5
5D08
  8
0
 10
0.0
 20
0.0
 30
0.0
 70
   128
 71
    -1
 72
     4
 73
    -3
  0
VERTEX
  5
5D09
  8
0
 10
0.0
 20
0.0
 30
0.0
 70
   128
 71
    -1
 72
     3
 73
     2
  0
SEQEND
  5
5DA0
  8
0
  0
POLYLINE
  5
5D0A
  8
0
 66
     1
 10
0.0
 20
0.0
 30
0.0
 70
    64
 71
    10
 72
     8
  0
VERTEX
  5
5D0B
  8
0
 10
149.9999999999999
 20
-214.0
 30
-18.49999999999999
 70
   192
  0
VERTEX
  5
5D0C
  8
0
 10
149.9999999999999
 20
-214.0
 30
-11.50000000000001
 70
   192
  0
VERTEX
  5
5D0D
  8
0
 10
149.9999999999999
 20
-209.0
 30
-11.50000000000001
 70
   192
  0
VERTEX
  5
5D0E
  8
0
 10
149.9999999999999
 20
-209.0
 30
-18.49999999999999
 70
   192
  0
VERTEX
  5
5D0F
  8
0
 10
146.4999999999999
 20
-209.0
 30
-15.0
 70
   192
  0
VERTEX
  5
5D10
  8
0
 10
146.4999999999999
 20
-214.0
 30
-15.0
 70
   192
  0
VERTEX
  5
5D11
  8
0
 10
147.525126265847
 20
-209.0
 30
-17.47487373415291
 70
   192
  0
VERTEX
  5
5D12
  8
0
 10
147.525126265847
 20
-214.0
 30
-17.47487373415291
 70
   192
  0
VERTEX
  5
5D13
  8
0
 10
147.525126265847
 20
-209.0
 30
-12.52512626584709
 70
   192
  0
VERTEX
  5
5D14
  8
0
 10
147.525126265847
 20
-214.0
 30
-12.52512626584709
 70
   192
  0
VERTEX
  5
5D15
  8
0
 10
0.0
 20
0.0
 30
0.0
 70
   128
 71
     8
 72
     7
 73
    -4
  0
VERTEX
  5
5D16
  8
0
 10
0.0
 20
0.0
 30
0.0
 70
   128
 71
    -8
 72
     4
 73
     1
  0
VERTEX
  5
5D17
  8
0
 10
0.0
 20
0.0
 30
0.0
 70
   128
 71
     6
 72
     5
 73
    -7
  0
VERTEX
  5
5D18
  8
0
 10
0.0
 20
0.0
 30
0.0
 70
   128
 71
    -6
 72
     7
 73
     8
  0
VERTEX
  5
5D19
  8
0
 10
0.0
 20
0.0
 30
0.0
 70
   128
 71
    10
 72
     9
 73
    -5
  0
VERTEX
  5
5D1A
  8
0
 10
0.0
 20
0.0
 30
0.0
 70
   128
 71
   -10
 72
     5
 73
     6
  0
VERTEX
  5
5D1B
  8
0
 10
0.0
 20
0.0
 30
0.0
 70
   128
 71
     2
 72
     3
 73
    -9
  0
VERTEX
  5
5D1C
  8
0
 10
0.0
 20
0.0
 30
0.0
 70
   128
 71
    -2
 72
     9
 73
    10
  0
SEQEND
  5
5DA1
  8
0
  0
POLYLINE
  5
5D1D
  8
0
 66
     1
 10
0.0
 20
0.0
 30
0.0
 70
    64
 71
     8
 72
     6
  0
VERTEX
  5
5D1E
  8
0
 10
149.9999999999999
 20
-214.0
 30
-11.50000000000001
 70
   192
  0
VERTEX
  5
5D1F
  8
0
 10
147.525126265847
 20
-214.0
 30
-12.52512626584709
 70
   192
  0
VERTEX
  5
5D20
  8
0
 10
146.4999999999999
 20
-214.0
 30
-15.0
 70
   192
  0
VERTEX
  5
5D21
  8
0
 10
147.525126265847
 20
-214.0
 30
-17.47487373415291
 70
   192
  0
VERTEX
  5
5D22
  8
0
 10
149.9999999999999
 20
-214.0
 30
-18.49999999999999
 70
   192
  0
VERTEX
  5
5D23
  8
0
 10
152.4748737341528
 20
-214.0
 30
-17.47487373415291
 70
   192
  0
VERTEX
  5
5D24
  8
0
 10
153.4999999999999
 20
-214.0
 30
-15.0
 70
   192
  0
VERTEX
  5
5D25
  8
0
 10
152.4748737341528
 20
-214.0
 30
-12.52512626584709
 70
   192
  0
VERTEX
  5
5D26
  8
0
 10
0.0
 20
0.0
 30
0.0
 70
   128
 71
     7
 72
     8
 73
    -1
  0
VERTEX
  5
5D27
  8
0
 10
0.0
 20
0.0
 30
0.0
 70
   128
 71
     6
 72
    -7
 73
    -1
  0
VERTEX
  5
5D28
  8
0
 10
0.0
 20
0.0
 30
0.0
 70
   128
 71
     5
 72
    -6
 73
    -1
  0
VERTEX
  5
5D29
  8
0
 10
0.0
 20
0.0
 30
0.0
 70
   128
 71
     4
 72
    -5
 73
    -1
  0
VERTEX
  5
5D2A
  8
0
 10
0.0
 20
0.0
 30
0.0
 70
   128
 71
     3
 72
    -4
 73
    -1
  0
VERTEX
  5
5D2B
  8
0
 10
0.0
 20
0.0
 30
0.0
 70
   128
 71
     2
 72
    -3
 73
     1
  0
SEQEND
  5
5DA2
  8
0
  0
ENDBLK
  5
5D95
  8
0
  0
ENDSEC
  0
SECTION
  2
ENTITIES
  0
INSERT
  5
518E
  8
0
  2
*X1
 10
0.0
 20
0.0
 30
0.0
  0
INSERT
  5
518F
  8
0
  2
*X2
 10
0.0
 20
0.0
 30
0.0
  0
INSERT
  5
5190
  8
0
  2
*X3
 10
0.0
 20
0.0
 30
0.0
  0
INSERT
  5
5191
  8
0
  2
*X4
 10
0.0
 20
0.0
 30
0.0
  0
INSERT
  5
5192
  8
0
  2
*X5
 10
0.0
 20
0.0
 30
0.0
  0
INSERT
  5
5193
  8
0
  2
*X6
 10
0.0
 20
0.0
 30
0.0
  0
ENDSEC
  0
EOF
