  0
SECTION
  2
HEADER
  9
$ACADVER
  1
AC1009
  9
$DWGCODEPAGE
  3
ansi_1250
  9
$INSBASE
 10
0.0
 20
0.0
 30
0.0
  9
$EXTMIN
 10
-500.0
 20
-500.0000000000003
 30
-35.00000000000011
  9
$EXTMAX
 10
500.0
 20
500.0000000000003
 30
0.0000000000001137
  9
$LIMMIN
 10
0.0
 20
0.0
  9
$LIMMAX
 10
420.0
 20
297.0
  9
$ORTHOMODE
 70
     0
  9
$REGENMODE
 70
     1
  9
$FILLMODE
 70
     1
  9
$QTEXTMODE
 70
     0
  9
$MIRRTEXT
 70
     0
  9
$DRAGMODE
 70
     2
  9
$LTSCALE
 40
1.0
  9
$OSMODE
 70
   511
  9
$ATTMODE
 70
     1
  9
$TEXTSIZE
 40
2.5
  9
$TRACEWID
 40
1.0
  9
$TEXTSTYLE
  7
STANDARD
  9
$CLAYER
  8
0
  9
$CELTYPE
  6
BYLAYER
  9
$CECOLOR
 62
   256
  9
$DIMSCALE
 40
1.0
  9
$DIMASZ
 40
2.5
  9
$DIMEXO
 40
0.625
  9
$DIMDLI
 40
3.75
  9
$DIMRND
 40
0.0
  9
$DIMDLE
 40
0.0
  9
$DIMEXE
 40
1.25
  9
$DIMTP
 40
0.0
  9
$DIMTM
 40
0.0
  9
$DIMTXT
 40
2.5
  9
$DIMCEN
 40
-2.5
  9
$DIMTSZ
 40
0.0
  9
$DIMTOL
 70
     0
  9
$DIMLIM
 70
     0
  9
$DIMTIH
 70
     0
  9
$DIMTOH
 70
     0
  9
$DIMSE1
 70
     0
  9
$DIMSE2
 70
     0
  9
$DIMTAD
 70
     1
  9
$DIMZIN
 70
     8
  9
$DIMBLK
  1

  9
$DIMASO
 70
     1
  9
$DIMSHO
 70
     1
  9
$DIMPOST
  1

  9
$DIMAPOST
  1

  9
$DIMALT
 70
     0
  9
$DIMALTD
 70
     3
  9
$DIMALTF
 40
0.03937007874016
  9
$DIMLFAC
 40
1.0
  9
$DIMTOFL
 70
     1
  9
$DIMTVP
 40
0.0
  9
$DIMTIX
 70
     0
  9
$DIMSOXD
 70
     0
  9
$DIMSAH
 70
     0
  9
$DIMBLK1
  1

  9
$DIMBLK2
  1

  9
$DIMSTYLE
  2
ISO-25
  9
$DIMCLRD
 70
     0
  9
$DIMCLRE
 70
     0
  9
$DIMCLRT
 70
     0
  9
$DIMTFAC
 40
1.0
  9
$DIMGAP
 40
0.625
  9
$LUNITS
 70
     2
  9
$LUPREC
 70
     3
  9
$SKETCHINC
 40
1.0
  9
$FILLETRAD
 40
10.0
  9
$AUNITS
 70
     0
  9
$AUPREC
 70
     0
  9
$MENU
  1
.
  9
$ELEVATION
 40
0.0
  9
$PELEVATION
 40
0.0
  9
$THICKNESS
 40
0.0
  9
$LIMCHECK
 70
     0
  9
$CHAMFERA
 40
10.0
  9
$CHAMFERB
 40
10.0
  9
$SKPOLY
 70
     0
  9
$TDCREATE
 40
2455022.720692848
  9
$TDUPDATE
 40
2460521.495169746
  9
$TDINDWG
 40
0.1658883912
  9
$TDUSRTIMER
 40
0.1658883912
  9
$USRTIMER
 70
     1
  9
$ANGBASE
 50
0.0
  9
$ANGDIR
 70
     0
  9
$PDMODE
 70
     0
  9
$PDSIZE
 40
0.0
  9
$PLINEWID
 40
0.0
  9
$COORDS
 70
     1
  9
$SPLFRAME
 70
     0
  9
$SPLINETYPE
 70
     6
  9
$SPLINESEGS
 70
     8
  9
$ATTDIA
 70
     0
  9
$ATTREQ
 70
     1
  9
$HANDLING
 70
     1
  9
$HANDSEED
  5
80CF
  9
$SURFTAB1
 70
     6
  9
$SURFTAB2
 70
     6
  9
$SURFTYPE
 70
     6
  9
$SURFU
 70
     6
  9
$SURFV
 70
     6
  9
$UCSNAME
  2

  9
$UCSORG
 10
0.0
 20
0.0
 30
0.0
  9
$UCSXDIR
 10
1.0
 20
0.0
 30
0.0
  9
$UCSYDIR
 10
0.0
 20
1.0
 30
0.0
  9
$PUCSNAME
  2

  9
$PUCSORG
 10
0.0
 20
0.0
 30
0.0
  9
$PUCSXDIR
 10
1.0
 20
0.0
 30
0.0
  9
$PUCSYDIR
 10
0.0
 20
1.0
 30
0.0
  9
$USERI1
 70
     0
  9
$USERI2
 70
     0
  9
$USERI3
 70
     0
  9
$USERI4
 70
     0
  9
$USERI5
 70
     0
  9
$USERR1
 40
0.0
  9
$USERR2
 40
0.0
  9
$USERR3
 40
0.0
  9
$USERR4
 40
0.0
  9
$USERR5
 40
0.0
  9
$WORLDVIEW
 70
     1
  9
$SHADEDGE
 70
     3
  9
$SHADEDIF
 70
    70
  9
$TILEMODE
 70
     1
  9
$MAXACTVP
 70
    64
  9
$PLIMCHECK
 70
     0
  9
$PEXTMIN
 10
1.000000000000000E+20
 20
1.000000000000000E+20
 30
1.000000000000000E+20
  9
$PEXTMAX
 10
-1.000000000000000E+20
 20
-1.000000000000000E+20
 30
-1.000000000000000E+20
  9
$PLIMMIN
 10
0.0
 20
0.0
  9
$PLIMMAX
 10
0.0
 20
0.0
  9
$UNITMODE
 70
     0
  9
$VISRETAIN
 70
     1
  9
$PLINEGEN
 70
     0
  9
$PSLTSCALE
 70
     1
  0
ENDSEC
  0
SECTION
  2
TABLES
  0
TABLE
  2
VPORT
 70
     1
  0
VPORT
  2
*ACTIVE
 70
     0
 10
0.0
 20
0.0
 11
1.0
 21
1.0
 12
-116.6110757937285
 22
90.81470093901663
 13
0.0
 23
0.0
 14
10.0
 24
10.0
 15
10.0
 25
10.0
 16
0.5773502691896262
 26
0.5773502691896262
 36
0.5773502691896262
 17
-41.66599977993164
 27
123.2469651304761
 37
-82.93435654674934
 40
770.3645241053097
 41
1.88293897882939
 42
50.0
 43
0.0
 44
0.0
 50
0.0
 51
0.0
 71
    16
 72
  1000
 73
     1
 74
     3
 75
     0
 76
     0
 77
     0
 78
     0
  0
ENDTAB
  0
TABLE
  2
LTYPE
 70
     1
  0
LTYPE
  2
CONTINUOUS
 70
     0
  3
Solid line
 72
    65
 73
     0
 40
0.0
  0
ENDTAB
  0
TABLE
  2
LAYER
 70
     1
  0
LAYER
  2
0
 70
     0
 62
     7
  6
CONTINUOUS
  0
ENDTAB
  0
TABLE
  2
STYLE
 70
     2
  0
STYLE
  2
STANDARD
 70
     0
 40
0.0
 41
1.0
 50
0.0
 71
     0
 42
2.5
  3
arial.ttf
  4

  0
STYLE
  2
ANNOTATIVE
 70
     0
 40
0.0
 41
1.0
 50
0.0
 71
     0
 42
2.5
  3
arial.ttf
  4

  0
ENDTAB
  0
TABLE
  2
VIEW
 70
     0
  0
ENDTAB
  0
TABLE
  2
UCS
 70
     0
  0
ENDTAB
  0
TABLE
  2
APPID
 70
     2
  0
APPID
  2
ACAD
 70
     0
  0
APPID
  2
ACADANNOTATIVE
 70
     0
  0
ENDTAB
  0
TABLE
  2
DIMSTYLE
 70
     2
  0
DIMSTYLE
  2
ISO-25
 70
     0
  3

  4

  5

  6

  7

 40
1.0
 41
2.5
 42
0.625
 43
3.75
 44
1.25
 45
0.0
 46
0.0
 47
0.0
 48
0.0
140
2.5
141
-2.5
142
0.0
143
0.03937007874016
144
1.0
145
0.0
146
1.0
147
0.625
 71
     0
 72
     0
 73
     0
 74
     0
 75
     0
 76
     0
 77
     1
 78
     8
170
     0
171
     3
172
     1
173
     0
174
     0
175
     0
176
     0
177
     0
178
     0
  0
DIMSTYLE
  2
ANNOTATIVE
 70
     0
  3

  4

  5

  6

  7

 40
0.0
 41
2.5
 42
0.625
 43
3.75
 44
1.25
 45
0.0
 46
0.0
 47
0.0
 48
0.0
140
2.5
141
-2.5
142
0.0
143
0.03937007874016
144
1.0
145
0.0
146
1.0
147
0.625
 71
     0
 72
     0
 73
     0
 74
     0
 75
     0
 76
     0
 77
     1
 78
     8
170
     0
171
     3
172
     1
173
     0
174
     0
175
     0
176
     0
177
     0
178
     0
  0
ENDTAB
  0
ENDSEC
  0
SECTION
  2
BLOCKS
  0
BLOCK
  8
0
  2
$MODEL_SPACE
 70
     0
 10
0.0
 20
0.0
 30
0.0
  3
$MODEL_SPACE
  1

  0
ENDBLK
  5
21
  8
0
  0
BLOCK
 67
     1
  8
0
  2
$PAPER_SPACE
 70
     0
 10
0.0
 20
0.0
 30
0.0
  3
$PAPER_SPACE
  1

  0
ENDBLK
  5
1D
 67
     1
  8
0
  0
BLOCK
  8
0
  2
*X1
 70
     1
 10
0.0
 20
0.0
 30
0.0
  3
*X1
  1

  0
POLYLINE
  5
7C7A
  8
0
 66
     1
 10
0.0
 20
0.0
 30
0.0
 70
    64
 71
    14
 72
    12
  0
VERTEX
  5
7C7B
  8
0
 10
-245.0000000000002
 20
-424.3524478543749
 30
-35.0
 70
   192
  0
VERTEX
  5
7C7C
  8
0
 10
-424.352447854375
 20
-244.9999999999999
 30
-35.0
 70
   192
  0
VERTEX
  5
7C7D
  8
0
 10
-424.352447854375
 20
-244.9999999999999
 30
-10.5
 70
   192
  0
VERTEX
  5
7C7E
  8
0
 10
-245.0000000000002
 20
-424.3524478543749
 30
-10.5
 70
   192
  0
VERTEX
  5
7C7F
  8
0
 10
424.3524478543748
 20
-245.0000000000003
 30
-35.0
 70
   192
  0
VERTEX
  5
7C80
  8
0
 10
244.9999999999998
 20
-424.3524478543751
 30
-35.0
 70
   192
  0
VERTEX
  5
7C81
  8
0
 10
244.9999999999998
 20
-424.3524478543751
 30
-10.5
 70
   192
  0
VERTEX
  5
7C82
  8
0
 10
424.3524478543748
 20
-245.0000000000003
 30
-10.5
 70
   192
  0
VERTEX
  5
7C83
  8
0
 10
490.0
 20
-0.0000000000003536
 30
-35.0
 70
   192
  0
VERTEX
  5
7C84
  8
0
 10
490.0
 20
-0.0000000000003536
 30
-10.5
 70
   192
  0
VERTEX
  5
7C85
  8
0
 10
-0.0000000000001904
 20
-490.0
 30
-35.0
 70
   192
  0
VERTEX
  5
7C86
  8
0
 10
-0.0000000000001904
 20
-490.0
 30
-10.5
 70
   192
  0
VERTEX
  5
7C87
  8
0
 10
-490.0
 20
0.00000000000006
 30
-35.0
 70
   192
  0
VERTEX
  5
7C88
  8
0
 10
-490.0
 20
0.00000000000006
 30
-10.5
 70
   192
  0
VERTEX
  5
7C89
  8
0
 10
0.0
 20
0.0
 30
0.0
 70
   128
 71
     1
 72
     2
 73
    -3
  0
VERTEX
  5
7C8A
  8
0
 10
0.0
 20
0.0
 30
0.0
 70
   128
 71
     4
 72
    -1
 73
     3
  0
VERTEX
  5
7C8B
  8
0
 10
0.0
 20
0.0
 30
0.0
 70
   128
 71
     5
 72
     6
 73
    -7
  0
VERTEX
  5
7C8C
  8
0
 10
0.0
 20
0.0
 30
0.0
 70
   128
 71
     8
 72
    -5
 73
     7
  0
VERTEX
  5
7C8D
  8
0
 10
0.0
 20
0.0
 30
0.0
 70
   128
 71
     9
 72
     5
 73
    -8
  0
VERTEX
  5
7C8E
  8
0
 10
0.0
 20
0.0
 30
0.0
 70
   128
 71
    10
 72
    -9
 73
     8
  0
VERTEX
  5
7C8F
  8
0
 10
0.0
 20
0.0
 30
0.0
 70
   128
 71
     6
 72
    11
 73
   -12
  0
VERTEX
  5
7C90
  8
0
 10
0.0
 20
0.0
 30
0.0
 70
   128
 71
     7
 72
    -6
 73
    12
  0
VERTEX
  5
7C91
  8
0
 10
0.0
 20
0.0
 30
0.0
 70
   128
 71
    11
 72
     1
 73
    -4
  0
VERTEX
  5
7C92
  8
0
 10
0.0
 20
0.0
 30
0.0
 70
   128
 71
    12
 72
   -11
 73
     4
  0
VERTEX
  5
7C93
  8
0
 10
0.0
 20
0.0
 30
0.0
 70
   128
 71
     2
 72
    13
 73
   -14
  0
VERTEX
  5
7C94
  8
0
 10
0.0
 20
0.0
 30
0.0
 70
   128
 71
     3
 72
    -2
 73
    14
  0
SEQEND
  5
808C
  8
0
  0
POLYLINE
  5
7C95
  8
0
 66
     1
 10
0.0
 20
0.0
 30
0.0
 70
    64
 71
    14
 72
    12
  0
VERTEX
  5
7C96
  8
0
 10
-232.5000000000001
 20
-402.7018127597639
 30
-0.5
 70
   192
  0
VERTEX
  5
7C97
  8
0
 10
-402.701812759764
 20
-232.4999999999999
 30
-0.5
 70
   192
  0
VERTEX
  5
7C98
  8
0
 10
-402.701812759764
 20
-232.4999999999999
 30
0.0
 70
   192
  0
VERTEX
  5
7C99
  8
0
 10
-232.5000000000001
 20
-402.7018127597639
 30
0.0
 70
   192
  0
VERTEX
  5
7C9A
  8
0
 10
402.7018127597639
 20
-232.5000000000003
 30
-0.5
 70
   192
  0
VERTEX
  5
7C9B
  8
0
 10
232.4999999999998
 20
-402.7018127597641
 30
-0.5
 70
   192
  0
VERTEX
  5
7C9C
  8
0
 10
232.4999999999998
 20
-402.7018127597641
 30
0.0
 70
   192
  0
VERTEX
  5
7C9D
  8
0
 10
402.7018127597639
 20
-232.5000000000003
 30
0.0
 70
   192
  0
VERTEX
  5
7C9E
  8
0
 10
465.0
 20
-0.0000000000003356
 30
-0.5
 70
   192
  0
VERTEX
  5
7C9F
  8
0
 10
465.0
 20
-0.0000000000003356
 30
0.0
 70
   192
  0
VERTEX
  5
7CA0
  8
0
 10
-0.0000000000001807
 20
-465.0
 30
-0.5
 70
   192
  0
VERTEX
  5
7CA1
  8
0
 10
-0.0000000000001807
 20
-465.0
 30
0.0
 70
   192
  0
VERTEX
  5
7CA2
  8
0
 10
-465.0
 20
0.0000000000000569
 30
-0.5
 70
   192
  0
VERTEX
  5
7CA3
  8
0
 10
-465.0
 20
0.0000000000000569
 30
0.0
 70
   192
  0
VERTEX
  5
7CA4
  8
0
 10
0.0
 20
0.0
 30
0.0
 70
   128
 71
     1
 72
     2
 73
    -3
  0
VERTEX
  5
7CA5
  8
0
 10
0.0
 20
0.0
 30
0.0
 70
   128
 71
     4
 72
    -1
 73
     3
  0
VERTEX
  5
7CA6
  8
0
 10
0.0
 20
0.0
 30
0.0
 70
   128
 71
     5
 72
     6
 73
    -7
  0
VERTEX
  5
7CA7
  8
0
 10
0.0
 20
0.0
 30
0.0
 70
   128
 71
     8
 72
    -5
 73
     7
  0
VERTEX
  5
7CA8
  8
0
 10
0.0
 20
0.0
 30
0.0
 70
   128
 71
     9
 72
     5
 73
    -8
  0
VERTEX
  5
7CA9
  8
0
 10
0.0
 20
0.0
 30
0.0
 70
   128
 71
    10
 72
    -9
 73
     8
  0
VERTEX
  5
7CAA
  8
0
 10
0.0
 20
0.0
 30
0.0
 70
   128
 71
     6
 72
    11
 73
   -12
  0
VERTEX
  5
7CAB
  8
0
 10
0.0
 20
0.0
 30
0.0
 70
   128
 71
     7
 72
    -6
 73
    12
  0
VERTEX
  5
7CAC
  8
0
 10
0.0
 20
0.0
 30
0.0
 70
   128
 71
    11
 72
     1
 73
    -4
  0
VERTEX
  5
7CAD
  8
0
 10
0.0
 20
0.0
 30
0.0
 70
   128
 71
    12
 72
   -11
 73
     4
  0
VERTEX
  5
7CAE
  8
0
 10
0.0
 20
0.0
 30
0.0
 70
   128
 71
     2
 72
    13
 73
   -14
  0
VERTEX
  5
7CAF
  8
0
 10
0.0
 20
0.0
 30
0.0
 70
   128
 71
     3
 72
    -2
 73
    14
  0
SEQEND
  5
808D
  8
0
  0
POLYLINE
  5
7CB0
  8
0
 66
     1
 10
0.0
 20
0.0
 30
0.0
 70
    64
 71
    14
 72
    12
  0
VERTEX
  5
7CB1
  8
0
 10
-245.0000000000002
 20
-424.3524478543749
 30
-0.5
 70
   192
  0
VERTEX
  5
7CB2
  8
0
 10
-424.352447854375
 20
-244.9999999999999
 30
-0.5
 70
   192
  0
VERTEX
  5
7CB3
  8
0
 10
-424.352447854375
 20
-244.9999999999999
 30
0.0
 70
   192
  0
VERTEX
  5
7CB4
  8
0
 10
-245.0000000000002
 20
-424.3524478543749
 30
0.0
 70
   192
  0
VERTEX
  5
7CB5
  8
0
 10
424.3524478543748
 20
-245.0000000000003
 30
-0.5
 70
   192
  0
VERTEX
  5
7CB6
  8
0
 10
244.9999999999998
 20
-424.3524478543751
 30
-0.5
 70
   192
  0
VERTEX
  5
7CB7
  8
0
 10
244.9999999999998
 20
-424.3524478543751
 30
0.0
 70
   192
  0
VERTEX
  5
7CB8
  8
0
 10
424.3524478543748
 20
-245.0000000000003
 30
0.0
 70
   192
  0
VERTEX
  5
7CB9
  8
0
 10
490.0
 20
-0.0000000000003536
 30
-0.5
 70
   192
  0
VERTEX
  5
7CBA
  8
0
 10
490.0
 20
-0.0000000000003536
 30
0.0
 70
   192
  0
VERTEX
  5
7CBB
  8
0
 10
-0.0000000000001904
 20
-490.0
 30
-0.5
 70
   192
  0
VERTEX
  5
7CBC
  8
0
 10
-0.0000000000001904
 20
-490.0
 30
0.0
 70
   192
  0
VERTEX
  5
7CBD
  8
0
 10
-490.0
 20
0.00000000000006
 30
-0.5
 70
   192
  0
VERTEX
  5
7CBE
  8
0
 10
-490.0
 20
0.00000000000006
 30
0.0
 70
   192
  0
VERTEX
  5
7CBF
  8
0
 10
0.0
 20
0.0
 30
0.0
 70
   128
 71
     1
 72
     2
 73
    -3
  0
VERTEX
  5
7CC0
  8
0
 10
0.0
 20
0.0
 30
0.0
 70
   128
 71
     4
 72
    -1
 73
     3
  0
VERTEX
  5
7CC1
  8
0
 10
0.0
 20
0.0
 30
0.0
 70
   128
 71
     5
 72
     6
 73
    -7
  0
VERTEX
  5
7CC2
  8
0
 10
0.0
 20
0.0
 30
0.0
 70
   128
 71
     8
 72
    -5
 73
     7
  0
VERTEX
  5
7CC3
  8
0
 10
0.0
 20
0.0
 30
0.0
 70
   128
 71
     9
 72
     5
 73
    -8
  0
VERTEX
  5
7CC4
  8
0
 10
0.0
 20
0.0
 30
0.0
 70
   128
 71
    10
 72
    -9
 73
     8
  0
VERTEX
  5
7CC5
  8
0
 10
0.0
 20
0.0
 30
0.0
 70
   128
 71
     6
 72
    11
 73
   -12
  0
VERTEX
  5
7CC6
  8
0
 10
0.0
 20
0.0
 30
0.0
 70
   128
 71
     7
 72
    -6
 73
    12
  0
VERTEX
  5
7CC7
  8
0
 10
0.0
 20
0.0
 30
0.0
 70
   128
 71
    11
 72
     1
 73
    -4
  0
VERTEX
  5
7CC8
  8
0
 10
0.0
 20
0.0
 30
0.0
 70
   128
 71
    12
 72
   -11
 73
     4
  0
VERTEX
  5
7CC9
  8
0
 10
0.0
 20
0.0
 30
0.0
 70
   128
 71
     2
 72
    13
 73
   -14
  0
VERTEX
  5
7CCA
  8
0
 10
0.0
 20
0.0
 30
0.0
 70
   128
 71
     3
 72
    -2
 73
    14
  0
SEQEND
  5
808E
  8
0
  0
POLYLINE
  5
7CCB
  8
0
 66
     1
 10
0.0
 20
0.0
 30
0.0
 70
    64
 71
    14
 72
    12
  0
VERTEX
  5
7CCC
  8
0
 10
415.6921938165306
 20
240.0
 30
0.0
 70
   192
  0
VERTEX
  5
7CCD
  8
0
 10
415.6921938165306
 20
240.0
 30
-0.5
 70
   192
  0
VERTEX
  5
7CCE
  8
0
 10
240.0000000000001
 20
415.6921938165305
 30
-0.5
 70
   192
  0
VERTEX
  5
7CCF
  8
0
 10
240.0000000000001
 20
415.6921938165305
 30
0.0
 70
   192
  0
VERTEX
  5
7CD0
  8
0
 10
-239.9999999999999
 20
415.6921938165306
 30
0.0
 70
   192
  0
VERTEX
  5
7CD1
  8
0
 10
-239.9999999999999
 20
415.6921938165306
 30
-0.5
 70
   192
  0
VERTEX
  5
7CD2
  8
0
 10
-415.6921938165304
 20
240.0000000000002
 30
-0.5
 70
   192
  0
VERTEX
  5
7CD3
  8
0
 10
-415.6921938165304
 20
240.0000000000002
 30
0.0
 70
   192
  0
VERTEX
  5
7CD4
  8
0
 10
-480.0
 20
0.0000000000002665
 30
-0.5
 70
   192
  0
VERTEX
  5
7CD5
  8
0
 10
-480.0
 20
0.0000000000000588
 30
0.0
 70
   192
  0
VERTEX
  5
7CD6
  8
0
 10
0.0000000000001332
 20
480.0
 30
0.0
 70
   192
  0
VERTEX
  5
7CD7
  8
0
 10
0.0000000000001332
 20
480.0
 30
-0.5
 70
   192
  0
VERTEX
  5
7CD8
  8
0
 10
480.0
 20
0.0
 30
0.0
 70
   192
  0
VERTEX
  5
7CD9
  8
0
 10
480.0
 20
0.0
 30
-0.5
 70
   192
  0
VERTEX
  5
7CDA
  8
0
 10
0.0
 20
0.0
 30
0.0
 70
   128
 71
     1
 72
     2
 73
    -3
  0
VERTEX
  5
7CDB
  8
0
 10
0.0
 20
0.0
 30
0.0
 70
   128
 71
    -1
 72
     3
 73
     4
  0
VERTEX
  5
7CDC
  8
0
 10
0.0
 20
0.0
 30
0.0
 70
   128
 71
     5
 72
     6
 73
    -7
  0
VERTEX
  5
7CDD
  8
0
 10
0.0
 20
0.0
 30
0.0
 70
   128
 71
    -5
 72
     7
 73
     8
  0
VERTEX
  5
7CDE
  8
0
 10
0.0
 20
0.0
 30
0.0
 70
   128
 71
     8
 72
     7
 73
    -9
  0
VERTEX
  5
7CDF
  8
0
 10
0.0
 20
0.0
 30
0.0
 70
   128
 71
    -8
 72
     9
 73
    10
  0
VERTEX
  5
7CE0
  8
0
 10
0.0
 20
0.0
 30
0.0
 70
   128
 71
    11
 72
    12
 73
    -6
  0
VERTEX
  5
7CE1
  8
0
 10
0.0
 20
0.0
 30
0.0
 70
   128
 71
   -11
 72
     6
 73
     5
  0
VERTEX
  5
7CE2
  8
0
 10
0.0
 20
0.0
 30
0.0
 70
   128
 71
     4
 72
     3
 73
   -12
  0
VERTEX
  5
7CE3
  8
0
 10
0.0
 20
0.0
 30
0.0
 70
   128
 71
    -4
 72
    12
 73
    11
  0
VERTEX
  5
7CE4
  8
0
 10
0.0
 20
0.0
 30
0.0
 70
   128
 71
    13
 72
    14
 73
    -2
  0
VERTEX
  5
7CE5
  8
0
 10
0.0
 20
0.0
 30
0.0
 70
   128
 71
   -13
 72
     2
 73
     1
  0
SEQEND
  5
808F
  8
0
  0
POLYLINE
  5
7CE6
  8
0
 66
     1
 10
0.0
 20
0.0
 30
0.0
 70
    64
 71
    14
 72
    12
  0
VERTEX
  5
7CE7
  8
0
 10
433.0127018922194
 20
250.0
 30
0.0
 70
   192
  0
VERTEX
  5
7CE8
  8
0
 10
433.0127018922194
 20
250.0
 30
-35.0
 70
   192
  0
VERTEX
  5
7CE9
  8
0
 10
250.0000000000001
 20
433.0127018922193
 30
-35.0
 70
   192
  0
VERTEX
  5
7CEA
  8
0
 10
250.0000000000001
 20
433.0127018922193
 30
0.0
 70
   192
  0
VERTEX
  5
7CEB
  8
0
 10
-249.9999999999999
 20
433.0127018922194
 30
0.0
 70
   192
  0
VERTEX
  5
7CEC
  8
0
 10
-249.9999999999999
 20
433.0127018922194
 30
-35.0
 70
   192
  0
VERTEX
  5
7CED
  8
0
 10
-433.0127018922192
 20
250.0000000000002
 30
-35.0
 70
   192
  0
VERTEX
  5
7CEE
  8
0
 10
-433.0127018922192
 20
250.0000000000002
 30
0.0
 70
   192
  0
VERTEX
  5
7CEF
  8
0
 10
-500.0
 20
0.0000000000002776
 30
-35.0
 70
   192
  0
VERTEX
  5
7CF0
  8
0
 10
-500.0
 20
0.0000000000000612
 30
0.0
 70
   192
  0
VERTEX
  5
7CF1
  8
0
 10
0.0000000000001388
 20
500.0
 30
0.0
 70
   192
  0
VERTEX
  5
7CF2
  8
0
 10
0.0000000000001388
 20
500.0
 30
-35.0
 70
   192
  0
VERTEX
  5
7CF3
  8
0
 10
500.0
 20
0.0
 30
0.0
 70
   192
  0
VERTEX
  5
7CF4
  8
0
 10
500.0
 20
0.0
 30
-35.0
 70
   192
  0
VERTEX
  5
7CF5
  8
0
 10
0.0
 20
0.0
 30
0.0
 70
   128
 71
     1
 72
     2
 73
    -3
  0
VERTEX
  5
7CF6
  8
0
 10
0.0
 20
0.0
 30
0.0
 70
   128
 71
    -1
 72
     3
 73
     4
  0
VERTEX
  5
7CF7
  8
0
 10
0.0
 20
0.0
 30
0.0
 70
   128
 71
     5
 72
     6
 73
    -7
  0
VERTEX
  5
7CF8
  8
0
 10
0.0
 20
0.0
 30
0.0
 70
   128
 71
    -5
 72
     7
 73
     8
  0
VERTEX
  5
7CF9
  8
0
 10
0.0
 20
0.0
 30
0.0
 70
   128
 71
     8
 72
     7
 73
    -9
  0
VERTEX
  5
7CFA
  8
0
 10
0.0
 20
0.0
 30
0.0
 70
   128
 71
    -8
 72
     9
 73
    10
  0
VERTEX
  5
7CFB
  8
0
 10
0.0
 20
0.0
 30
0.0
 70
   128
 71
    11
 72
    12
 73
    -6
  0
VERTEX
  5
7CFC
  8
0
 10
0.0
 20
0.0
 30
0.0
 70
   128
 71
   -11
 72
     6
 73
     5
  0
VERTEX
  5
7CFD
  8
0
 10
0.0
 20
0.0
 30
0.0
 70
   128
 71
     4
 72
     3
 73
   -12
  0
VERTEX
  5
7CFE
  8
0
 10
0.0
 20
0.0
 30
0.0
 70
   128
 71
    -4
 72
    12
 73
    11
  0
VERTEX
  5
7CFF
  8
0
 10
0.0
 20
0.0
 30
0.0
 70
   128
 71
    13
 72
    14
 73
    -2
  0
VERTEX
  5
7D00
  8
0
 10
0.0
 20
0.0
 30
0.0
 70
   128
 71
   -13
 72
     2
 73
     1
  0
SEQEND
  5
8090
  8
0
  0
POLYLINE
  5
7D01
  8
0
 66
     1
 10
0.0
 20
0.0
 30
0.0
 70
    64
 71
    14
 72
    12
  0
VERTEX
  5
7D02
  8
0
 10
-433.0127018922194
 20
-249.9999999999999
 30
0.0
 70
   192
  0
VERTEX
  5
7D03
  8
0
 10
-433.0127018922194
 20
-249.9999999999999
 30
-35.0
 70
   192
  0
VERTEX
  5
7D04
  8
0
 10
-250.0000000000002
 20
-433.0127018922193
 30
-35.0
 70
   192
  0
VERTEX
  5
7D05
  8
0
 10
-250.0000000000002
 20
-433.0127018922193
 30
0.0
 70
   192
  0
VERTEX
  5
7D06
  8
0
 10
249.9999999999998
 20
-433.0127018922195
 30
0.0
 70
   192
  0
VERTEX
  5
7D07
  8
0
 10
249.9999999999998
 20
-433.0127018922195
 30
-35.0
 70
   192
  0
VERTEX
  5
7D08
  8
0
 10
433.0127018922192
 20
-250.0000000000003
 30
-35.0
 70
   192
  0
VERTEX
  5
7D09
  8
0
 10
433.0127018922192
 20
-250.0000000000003
 30
0.0
 70
   192
  0
VERTEX
  5
7D0A
  8
0
 10
500.0
 20
-0.0000000000003608
 30
-35.0
 70
   192
  0
VERTEX
  5
7D0B
  8
0
 10
500.0
 20
0.0
 30
0.0
 70
   192
  0
VERTEX
  5
7D0C
  8
0
 10
-0.0000000000001943
 20
-500.0
 30
0.0
 70
   192
  0
VERTEX
  5
7D0D
  8
0
 10
-0.0000000000001943
 20
-500.0
 30
-35.0
 70
   192
  0
VERTEX
  5
7D0E
  8
0
 10
-500.0
 20
0.0000000000000612
 30
0.0
 70
   192
  0
VERTEX
  5
7D0F
  8
0
 10
-500.0
 20
0.0000000000000612
 30
-35.0
 70
   192
  0
VERTEX
  5
7D10
  8
0
 10
0.0
 20
0.0
 30
0.0
 70
   128
 71
     1
 72
     2
 73
    -3
  0
VERTEX
  5
7D11
  8
0
 10
0.0
 20
0.0
 30
0.0
 70
   128
 71
    -1
 72
     3
 73
     4
  0
VERTEX
  5
7D12
  8
0
 10
0.0
 20
0.0
 30
0.0
 70
   128
 71
     5
 72
     6
 73
    -7
  0
VERTEX
  5
7D13
  8
0
 10
0.0
 20
0.0
 30
0.0
 70
   128
 71
    -5
 72
     7
 73
     8
  0
VERTEX
  5
7D14
  8
0
 10
0.0
 20
0.0
 30
0.0
 70
   128
 71
     8
 72
     7
 73
    -9
  0
VERTEX
  5
7D15
  8
0
 10
0.0
 20
0.0
 30
0.0
 70
   128
 71
    -8
 72
     9
 73
    10
  0
VERTEX
  5
7D16
  8
0
 10
0.0
 20
0.0
 30
0.0
 70
   128
 71
    11
 72
    12
 73
    -6
  0
VERTEX
  5
7D17
  8
0
 10
0.0
 20
0.0
 30
0.0
 70
   128
 71
   -11
 72
     6
 73
     5
  0
VERTEX
  5
7D18
  8
0
 10
0.0
 20
0.0
 30
0.0
 70
   128
 71
     4
 72
     3
 73
   -12
  0
VERTEX
  5
7D19
  8
0
 10
0.0
 20
0.0
 30
0.0
 70
   128
 71
    -4
 72
    12
 73
    11
  0
VERTEX
  5
7D1A
  8
0
 10
0.0
 20
0.0
 30
0.0
 70
   128
 71
    13
 72
    14
 73
    -2
  0
VERTEX
  5
7D1B
  8
0
 10
0.0
 20
0.0
 30
0.0
 70
   128
 71
   -13
 72
     2
 73
     1
  0
SEQEND
  5
8091
  8
0
  0
POLYLINE
  5
7D1C
  8
0
 66
     1
 10
0.0
 20
0.0
 30
0.0
 70
    64
 71
    24
 72
    24
  0
VERTEX
  5
7D1D
  8
0
 10
-500.0
 20
0.0000000000000612
 30
-35.0
 70
   192
  0
VERTEX
  5
7D1E
  8
0
 10
-433.0127018922194
 20
-249.9999999999999
 30
-35.0
 70
   192
  0
VERTEX
  5
7D1F
  8
0
 10
-250.0000000000002
 20
-433.0127018922193
 30
-35.0
 70
   192
  0
VERTEX
  5
7D20
  8
0
 10
-0.0000000000001943
 20
-500.0
 30
-35.0
 70
   192
  0
VERTEX
  5
7D21
  8
0
 10
249.9999999999998
 20
-433.0127018922195
 30
-35.0
 70
   192
  0
VERTEX
  5
7D22
  8
0
 10
433.0127018922192
 20
-250.0000000000003
 30
-35.0
 70
   192
  0
VERTEX
  5
7D23
  8
0
 10
500.0
 20
0.0
 30
-35.0
 70
   192
  0
VERTEX
  5
7D24
  8
0
 10
433.0127018922194
 20
250.0
 30
-35.0
 70
   192
  0
VERTEX
  5
7D25
  8
0
 10
250.0000000000001
 20
433.0127018922193
 30
-35.0
 70
   192
  0
VERTEX
  5
7D26
  8
0
 10
0.0000000000001388
 20
500.0
 30
-35.0
 70
   192
  0
VERTEX
  5
7D27
  8
0
 10
-249.9999999999999
 20
433.0127018922194
 30
-35.0
 70
   192
  0
VERTEX
  5
7D28
  8
0
 10
-433.0127018922192
 20
250.0000000000002
 30
-35.0
 70
   192
  0
VERTEX
  5
7D29
  8
0
 10
490.0
 20
-0.0000000000003536
 30
-35.0
 70
   192
  0
VERTEX
  5
7D2A
  8
0
 10
424.3524478543748
 20
-245.0000000000003
 30
-35.0
 70
   192
  0
VERTEX
  5
7D2B
  8
0
 10
244.9999999999998
 20
-424.3524478543751
 30
-35.0
 70
   192
  0
VERTEX
  5
7D2C
  8
0
 10
-0.0000000000001904
 20
-490.0
 30
-35.0
 70
   192
  0
VERTEX
  5
7D2D
  8
0
 10
-245.0000000000002
 20
-424.3524478543749
 30
-35.0
 70
   192
  0
VERTEX
  5
7D2E
  8
0
 10
-424.352447854375
 20
-244.9999999999999
 30
-35.0
 70
   192
  0
VERTEX
  5
7D2F
  8
0
 10
-490.0
 20
0.000000000000272
 30
-35.0
 70
   192
  0
VERTEX
  5
7D30
  8
0
 10
-424.3524478543749
 20
245.0000000000002
 30
-35.0
 70
   192
  0
VERTEX
  5
7D31
  8
0
 10
-244.9999999999999
 20
424.352447854375
 30
-35.0
 70
   192
  0
VERTEX
  5
7D32
  8
0
 10
0.000000000000136
 20
490.0
 30
-35.0
 70
   192
  0
VERTEX
  5
7D33
  8
0
 10
245.0000000000001
 20
424.3524478543749
 30
-35.0
 70
   192
  0
VERTEX
  5
7D34
  8
0
 10
424.352447854375
 20
245.0
 30
-35.0
 70
   192
  0
VERTEX
  5
7D35
  8
0
 10
0.0
 20
0.0
 30
0.0
 70
   128
 71
    14
 72
   -13
 73
    -7
  0
VERTEX
  5
7D36
  8
0
 10
0.0
 20
0.0
 30
0.0
 70
   128
 71
   -14
 72
     7
 73
    -6
  0
VERTEX
  5
7D37
  8
0
 10
0.0
 20
0.0
 30
0.0
 70
   128
 71
     6
 72
    -5
 73
   -15
  0
VERTEX
  5
7D38
  8
0
 10
0.0
 20
0.0
 30
0.0
 70
   128
 71
    -6
 72
    15
 73
   -14
  0
VERTEX
  5
7D39
  8
0
 10
0.0
 20
0.0
 30
0.0
 70
   128
 71
     5
 72
    -4
 73
   -16
  0
VERTEX
  5
7D3A
  8
0
 10
0.0
 20
0.0
 30
0.0
 70
   128
 71
    -5
 72
    16
 73
   -15
  0
VERTEX
  5
7D3B
  8
0
 10
0.0
 20
0.0
 30
0.0
 70
   128
 71
     4
 72
    -3
 73
   -17
  0
VERTEX
  5
7D3C
  8
0
 10
0.0
 20
0.0
 30
0.0
 70
   128
 71
    -4
 72
    17
 73
   -16
  0
VERTEX
  5
7D3D
  8
0
 10
0.0
 20
0.0
 30
0.0
 70
   128
 71
     3
 72
    -2
 73
   -18
  0
VERTEX
  5
7D3E
  8
0
 10
0.0
 20
0.0
 30
0.0
 70
   128
 71
    -3
 72
    18
 73
   -17
  0
VERTEX
  5
7D3F
  8
0
 10
0.0
 20
0.0
 30
0.0
 70
   128
 71
     2
 72
    -1
 73
   -19
  0
VERTEX
  5
7D40
  8
0
 10
0.0
 20
0.0
 30
0.0
 70
   128
 71
    -2
 72
    19
 73
   -18
  0
VERTEX
  5
7D41
  8
0
 10
0.0
 20
0.0
 30
0.0
 70
   128
 71
     1
 72
   -12
 73
   -20
  0
VERTEX
  5
7D42
  8
0
 10
0.0
 20
0.0
 30
0.0
 70
   128
 71
    -1
 72
    20
 73
   -19
  0
VERTEX
  5
7D43
  8
0
 10
0.0
 20
0.0
 30
0.0
 70
   128
 71
    12
 72
   -11
 73
   -21
  0
VERTEX
  5
7D44
  8
0
 10
0.0
 20
0.0
 30
0.0
 70
   128
 71
   -12
 72
    21
 73
   -20
  0
VERTEX
  5
7D45
  8
0
 10
0.0
 20
0.0
 30
0.0
 70
   128
 71
    11
 72
   -10
 73
   -22
  0
VERTEX
  5
7D46
  8
0
 10
0.0
 20
0.0
 30
0.0
 70
   128
 71
   -11
 72
    22
 73
   -21
  0
VERTEX
  5
7D47
  8
0
 10
0.0
 20
0.0
 30
0.0
 70
   128
 71
    10
 72
    -9
 73
   -23
  0
VERTEX
  5
7D48
  8
0
 10
0.0
 20
0.0
 30
0.0
 70
   128
 71
   -10
 72
    23
 73
   -22
  0
VERTEX
  5
7D49
  8
0
 10
0.0
 20
0.0
 30
0.0
 70
   128
 71
     9
 72
    -8
 73
   -24
  0
VERTEX
  5
7D4A
  8
0
 10
0.0
 20
0.0
 30
0.0
 70
   128
 71
    -9
 72
    24
 73
   -23
  0
VERTEX
  5
7D4B
  8
0
 10
0.0
 20
0.0
 30
0.0
 70
   128
 71
     8
 72
    -7
 73
   -13
  0
VERTEX
  5
7D4C
  8
0
 10
0.0
 20
0.0
 30
0.0
 70
   128
 71
    -8
 72
    13
 73
   -24
  0
SEQEND
  5
8092
  8
0
  0
POLYLINE
  5
7D4D
  8
0
 66
     1
 10
0.0
 20
0.0
 30
0.0
 70
    64
 71
    24
 72
    24
  0
VERTEX
  5
7D4E
  8
0
 10
500.0
 20
0.0
 30
0.0
 70
   192
  0
VERTEX
  5
7D4F
  8
0
 10
433.0127018922194
 20
250.0
 30
0.0
 70
   192
  0
VERTEX
  5
7D50
  8
0
 10
250.0000000000001
 20
433.0127018922193
 30
0.0
 70
   192
  0
VERTEX
  5
7D51
  8
0
 10
0.0000000000001388
 20
500.0
 30
0.0
 70
   192
  0
VERTEX
  5
7D52
  8
0
 10
-249.9999999999999
 20
433.0127018922194
 30
0.0
 70
   192
  0
VERTEX
  5
7D53
  8
0
 10
-433.0127018922192
 20
250.0000000000002
 30
0.0
 70
   192
  0
VERTEX
  5
7D54
  8
0
 10
-500.0
 20
0.0000000000002776
 30
0.0
 70
   192
  0
VERTEX
  5
7D55
  8
0
 10
-433.0127018922194
 20
-249.9999999999999
 30
0.0
 70
   192
  0
VERTEX
  5
7D56
  8
0
 10
-250.0000000000002
 20
-433.0127018922193
 30
0.0
 70
   192
  0
VERTEX
  5
7D57
  8
0
 10
-0.0000000000001943
 20
-500.0
 30
0.0
 70
   192
  0
VERTEX
  5
7D58
  8
0
 10
249.9999999999998
 20
-433.0127018922195
 30
0.0
 70
   192
  0
VERTEX
  5
7D59
  8
0
 10
433.0127018922192
 20
-250.0000000000003
 30
0.0
 70
   192
  0
VERTEX
  5
7D5A
  8
0
 10
-490.0
 20
0.000000000000272
 30
0.0
 70
   192
  0
VERTEX
  5
7D5B
  8
0
 10
-424.3524478543749
 20
245.0000000000002
 30
0.0
 70
   192
  0
VERTEX
  5
7D5C
  8
0
 10
-244.9999999999999
 20
424.352447854375
 30
0.0
 70
   192
  0
VERTEX
  5
7D5D
  8
0
 10
0.000000000000136
 20
490.0
 30
0.0
 70
   192
  0
VERTEX
  5
7D5E
  8
0
 10
245.0000000000001
 20
424.3524478543749
 30
0.0
 70
   192
  0
VERTEX
  5
7D5F
  8
0
 10
424.352447854375
 20
245.0
 30
0.0
 70
   192
  0
VERTEX
  5
7D60
  8
0
 10
490.0
 20
0.0
 30
0.0
 70
   192
  0
VERTEX
  5
7D61
  8
0
 10
424.3524478543748
 20
-245.0000000000003
 30
0.0
 70
   192
  0
VERTEX
  5
7D62
  8
0
 10
244.9999999999998
 20
-424.3524478543751
 30
0.0
 70
   192
  0
VERTEX
  5
7D63
  8
0
 10
-0.0000000000001904
 20
-490.0
 30
0.0
 70
   192
  0
VERTEX
  5
7D64
  8
0
 10
-245.0000000000002
 20
-424.3524478543749
 30
0.0
 70
   192
  0
VERTEX
  5
7D65
  8
0
 10
-424.352447854375
 20
-244.9999999999999
 30
0.0
 70
   192
  0
VERTEX
  5
7D66
  8
0
 10
0.0
 20
0.0
 30
0.0
 70
   128
 71
    -7
 72
    13
 73
   -14
  0
VERTEX
  5
7D67
  8
0
 10
0.0
 20
0.0
 30
0.0
 70
   128
 71
     6
 72
    -7
 73
   -14
  0
VERTEX
  5
7D68
  8
0
 10
0.0
 20
0.0
 30
0.0
 70
   128
 71
   -15
 72
     5
 73
    -6
  0
VERTEX
  5
7D69
  8
0
 10
0.0
 20
0.0
 30
0.0
 70
   128
 71
    14
 72
   -15
 73
    -6
  0
VERTEX
  5
7D6A
  8
0
 10
0.0
 20
0.0
 30
0.0
 70
   128
 71
   -16
 72
     4
 73
    -5
  0
VERTEX
  5
7D6B
  8
0
 10
0.0
 20
0.0
 30
0.0
 70
   128
 71
    15
 72
   -16
 73
    -5
  0
VERTEX
  5
7D6C
  8
0
 10
0.0
 20
0.0
 30
0.0
 70
   128
 71
   -17
 72
     3
 73
    -4
  0
VERTEX
  5
7D6D
  8
0
 10
0.0
 20
0.0
 30
0.0
 70
   128
 71
    16
 72
   -17
 73
    -4
  0
VERTEX
  5
7D6E
  8
0
 10
0.0
 20
0.0
 30
0.0
 70
   128
 71
   -18
 72
     2
 73
    -3
  0
VERTEX
  5
7D6F
  8
0
 10
0.0
 20
0.0
 30
0.0
 70
   128
 71
    17
 72
   -18
 73
    -3
  0
VERTEX
  5
7D70
  8
0
 10
0.0
 20
0.0
 30
0.0
 70
   128
 71
   -19
 72
     1
 73
    -2
  0
VERTEX
  5
7D71
  8
0
 10
0.0
 20
0.0
 30
0.0
 70
   128
 71
    18
 72
   -19
 73
    -2
  0
VERTEX
  5
7D72
  8
0
 10
0.0
 20
0.0
 30
0.0
 70
   128
 71
   -20
 72
    12
 73
    -1
  0
VERTEX
  5
7D73
  8
0
 10
0.0
 20
0.0
 30
0.0
 70
   128
 71
    19
 72
   -20
 73
    -1
  0
VERTEX
  5
7D74
  8
0
 10
0.0
 20
0.0
 30
0.0
 70
   128
 71
   -21
 72
    11
 73
   -12
  0
VERTEX
  5
7D75
  8
0
 10
0.0
 20
0.0
 30
0.0
 70
   128
 71
    20
 72
   -21
 73
   -12
  0
VERTEX
  5
7D76
  8
0
 10
0.0
 20
0.0
 30
0.0
 70
   128
 71
   -22
 72
    10
 73
   -11
  0
VERTEX
  5
7D77
  8
0
 10
0.0
 20
0.0
 30
0.0
 70
   128
 71
    21
 72
   -22
 73
   -11
  0
VERTEX
  5
7D78
  8
0
 10
0.0
 20
0.0
 30
0.0
 70
   128
 71
   -23
 72
     9
 73
   -10
  0
VERTEX
  5
7D79
  8
0
 10
0.0
 20
0.0
 30
0.0
 70
   128
 71
    22
 72
   -23
 73
   -10
  0
VERTEX
  5
7D7A
  8
0
 10
0.0
 20
0.0
 30
0.0
 70
   128
 71
   -24
 72
     8
 73
    -9
  0
VERTEX
  5
7D7B
  8
0
 10
0.0
 20
0.0
 30
0.0
 70
   128
 71
    23
 72
   -24
 73
    -9
  0
VERTEX
  5
7D7C
  8
0
 10
0.0
 20
0.0
 30
0.0
 70
   128
 71
   -13
 72
     7
 73
    -8
  0
VERTEX
  5
7D7D
  8
0
 10
0.0
 20
0.0
 30
0.0
 70
   128
 71
    24
 72
   -13
 73
    -8
  0
SEQEND
  5
8093
  8
0
  0
POLYLINE
  5
7D7E
  8
0
 66
     1
 10
0.0
 20
0.0
 30
0.0
 70
    64
 71
    14
 72
    12
  0
VERTEX
  5
7D7F
  8
0
 10
-415.6921938165306
 20
-239.9999999999999
 30
0.0
 70
   192
  0
VERTEX
  5
7D80
  8
0
 10
-415.6921938165306
 20
-239.9999999999999
 30
-0.5
 70
   192
  0
VERTEX
  5
7D81
  8
0
 10
-240.0000000000002
 20
-415.6921938165305
 30
-0.5
 70
   192
  0
VERTEX
  5
7D82
  8
0
 10
-240.0000000000002
 20
-415.6921938165305
 30
0.0
 70
   192
  0
VERTEX
  5
7D83
  8
0
 10
239.9999999999998
 20
-415.6921938165307
 30
0.0
 70
   192
  0
VERTEX
  5
7D84
  8
0
 10
239.9999999999998
 20
-415.6921938165307
 30
-0.5
 70
   192
  0
VERTEX
  5
7D85
  8
0
 10
415.6921938165304
 20
-240.0000000000003
 30
-0.5
 70
   192
  0
VERTEX
  5
7D86
  8
0
 10
415.6921938165304
 20
-240.0000000000003
 30
0.0
 70
   192
  0
VERTEX
  5
7D87
  8
0
 10
480.0
 20
-0.0000000000003464
 30
-0.5
 70
   192
  0
VERTEX
  5
7D88
  8
0
 10
480.0
 20
0.0
 30
0.0
 70
   192
  0
VERTEX
  5
7D89
  8
0
 10
-0.0000000000001865
 20
-480.0
 30
0.0
 70
   192
  0
VERTEX
  5
7D8A
  8
0
 10
-0.0000000000001865
 20
-480.0
 30
-0.5
 70
   192
  0
VERTEX
  5
7D8B
  8
0
 10
-480.0
 20
0.0000000000000588
 30
0.0
 70
   192
  0
VERTEX
  5
7D8C
  8
0
 10
-480.0
 20
0.0000000000000588
 30
-0.5
 70
   192
  0
VERTEX
  5
7D8D
  8
0
 10
0.0
 20
0.0
 30
0.0
 70
   128
 71
     1
 72
     2
 73
    -3
  0
VERTEX
  5
7D8E
  8
0
 10
0.0
 20
0.0
 30
0.0
 70
   128
 71
    -1
 72
     3
 73
     4
  0
VERTEX
  5
7D8F
  8
0
 10
0.0
 20
0.0
 30
0.0
 70
   128
 71
     5
 72
     6
 73
    -7
  0
VERTEX
  5
7D90
  8
0
 10
0.0
 20
0.0
 30
0.0
 70
   128
 71
    -5
 72
     7
 73
     8
  0
VERTEX
  5
7D91
  8
0
 10
0.0
 20
0.0
 30
0.0
 70
   128
 71
     8
 72
     7
 73
    -9
  0
VERTEX
  5
7D92
  8
0
 10
0.0
 20
0.0
 30
0.0
 70
   128
 71
    -8
 72
     9
 73
    10
  0
VERTEX
  5
7D93
  8
0
 10
0.0
 20
0.0
 30
0.0
 70
   128
 71
    11
 72
    12
 73
    -6
  0
VERTEX
  5
7D94
  8
0
 10
0.0
 20
0.0
 30
0.0
 70
   128
 71
   -11
 72
     6
 73
     5
  0
VERTEX
  5
7D95
  8
0
 10
0.0
 20
0.0
 30
0.0
 70
   128
 71
     4
 72
     3
 73
   -12
  0
VERTEX
  5
7D96
  8
0
 10
0.0
 20
0.0
 30
0.0
 70
   128
 71
    -4
 72
    12
 73
    11
  0
VERTEX
  5
7D97
  8
0
 10
0.0
 20
0.0
 30
0.0
 70
   128
 71
    13
 72
    14
 73
    -2
  0
VERTEX
  5
7D98
  8
0
 10
0.0
 20
0.0
 30
0.0
 70
   128
 71
   -13
 72
     2
 73
     1
  0
SEQEND
  5
8094
  8
0
  0
POLYLINE
  5
7D99
  8
0
 66
     1
 10
0.0
 20
0.0
 30
0.0
 70
    64
 71
    14
 72
    12
  0
VERTEX
  5
7D9A
  8
0
 10
245.0000000000001
 20
424.3524478543749
 30
-0.5
 70
   192
  0
VERTEX
  5
7D9B
  8
0
 10
424.352447854375
 20
245.0
 30
-0.5
 70
   192
  0
VERTEX
  5
7D9C
  8
0
 10
424.352447854375
 20
245.0
 30
0.0
 70
   192
  0
VERTEX
  5
7D9D
  8
0
 10
245.0000000000001
 20
424.3524478543749
 30
0.0
 70
   192
  0
VERTEX
  5
7D9E
  8
0
 10
-424.3524478543749
 20
245.0000000000002
 30
-0.5
 70
   192
  0
VERTEX
  5
7D9F
  8
0
 10
-244.9999999999999
 20
424.352447854375
 30
-0.5
 70
   192
  0
VERTEX
  5
7DA0
  8
0
 10
-244.9999999999999
 20
424.352447854375
 30
0.0
 70
   192
  0
VERTEX
  5
7DA1
  8
0
 10
-424.3524478543749
 20
245.0000000000002
 30
0.0
 70
   192
  0
VERTEX
  5
7DA2
  8
0
 10
-490.0
 20
0.00000000000006
 30
-0.5
 70
   192
  0
VERTEX
  5
7DA3
  8
0
 10
-490.0
 20
0.00000000000006
 30
0.0
 70
   192
  0
VERTEX
  5
7DA4
  8
0
 10
0.000000000000136
 20
490.0
 30
-0.5
 70
   192
  0
VERTEX
  5
7DA5
  8
0
 10
0.000000000000136
 20
490.0
 30
0.0
 70
   192
  0
VERTEX
  5
7DA6
  8
0
 10
490.0
 20
0.0
 30
-0.5
 70
   192
  0
VERTEX
  5
7DA7
  8
0
 10
490.0
 20
0.0
 30
0.0
 70
   192
  0
VERTEX
  5
7DA8
  8
0
 10
0.0
 20
0.0
 30
0.0
 70
   128
 71
     1
 72
     2
 73
    -3
  0
VERTEX
  5
7DA9
  8
0
 10
0.0
 20
0.0
 30
0.0
 70
   128
 71
     4
 72
    -1
 73
     3
  0
VERTEX
  5
7DAA
  8
0
 10
0.0
 20
0.0
 30
0.0
 70
   128
 71
     5
 72
     6
 73
    -7
  0
VERTEX
  5
7DAB
  8
0
 10
0.0
 20
0.0
 30
0.0
 70
   128
 71
     8
 72
    -5
 73
     7
  0
VERTEX
  5
7DAC
  8
0
 10
0.0
 20
0.0
 30
0.0
 70
   128
 71
     9
 72
     5
 73
    -8
  0
VERTEX
  5
7DAD
  8
0
 10
0.0
 20
0.0
 30
0.0
 70
   128
 71
    10
 72
    -9
 73
     8
  0
VERTEX
  5
7DAE
  8
0
 10
0.0
 20
0.0
 30
0.0
 70
   128
 71
     6
 72
    11
 73
   -12
  0
VERTEX
  5
7DAF
  8
0
 10
0.0
 20
0.0
 30
0.0
 70
   128
 71
     7
 72
    -6
 73
    12
  0
VERTEX
  5
7DB0
  8
0
 10
0.0
 20
0.0
 30
0.0
 70
   128
 71
    11
 72
     1
 73
    -4
  0
VERTEX
  5
7DB1
  8
0
 10
0.0
 20
0.0
 30
0.0
 70
   128
 71
    12
 72
   -11
 73
     4
  0
VERTEX
  5
7DB2
  8
0
 10
0.0
 20
0.0
 30
0.0
 70
   128
 71
     2
 72
    13
 73
   -14
  0
VERTEX
  5
7DB3
  8
0
 10
0.0
 20
0.0
 30
0.0
 70
   128
 71
     3
 72
    -2
 73
    14
  0
SEQEND
  5
8095
  8
0
  0
POLYLINE
  5
7DB4
  8
0
 66
     1
 10
0.0
 20
0.0
 30
0.0
 70
    64
 71
    24
 72
    24
  0
VERTEX
  5
7DB5
  8
0
 10
490.0
 20
0.0
 30
-0.5
 70
   192
  0
VERTEX
  5
7DB6
  8
0
 10
424.352447854375
 20
245.0
 30
-0.5
 70
   192
  0
VERTEX
  5
7DB7
  8
0
 10
245.0000000000001
 20
424.3524478543749
 30
-0.5
 70
   192
  0
VERTEX
  5
7DB8
  8
0
 10
0.000000000000136
 20
490.0
 30
-0.5
 70
   192
  0
VERTEX
  5
7DB9
  8
0
 10
-244.9999999999999
 20
424.352447854375
 30
-0.5
 70
   192
  0
VERTEX
  5
7DBA
  8
0
 10
-424.3524478543749
 20
245.0000000000002
 30
-0.5
 70
   192
  0
VERTEX
  5
7DBB
  8
0
 10
-490.0
 20
0.000000000000272
 30
-0.5
 70
   192
  0
VERTEX
  5
7DBC
  8
0
 10
-424.352447854375
 20
-244.9999999999999
 30
-0.5
 70
   192
  0
VERTEX
  5
7DBD
  8
0
 10
-245.0000000000002
 20
-424.3524478543749
 30
-0.5
 70
   192
  0
VERTEX
  5
7DBE
  8
0
 10
-0.0000000000001904
 20
-490.0
 30
-0.5
 70
   192
  0
VERTEX
  5
7DBF
  8
0
 10
244.9999999999998
 20
-424.3524478543751
 30
-0.5
 70
   192
  0
VERTEX
  5
7DC0
  8
0
 10
424.3524478543748
 20
-245.0000000000003
 30
-0.5
 70
   192
  0
VERTEX
  5
7DC1
  8
0
 10
-480.0
 20
0.0000000000002665
 30
-0.5
 70
   192
  0
VERTEX
  5
7DC2
  8
0
 10
-415.6921938165304
 20
240.0000000000002
 30
-0.5
 70
   192
  0
VERTEX
  5
7DC3
  8
0
 10
-239.9999999999999
 20
415.6921938165306
 30
-0.5
 70
   192
  0
VERTEX
  5
7DC4
  8
0
 10
0.0000000000001332
 20
480.0
 30
-0.5
 70
   192
  0
VERTEX
  5
7DC5
  8
0
 10
240.0000000000001
 20
415.6921938165305
 30
-0.5
 70
   192
  0
VERTEX
  5
7DC6
  8
0
 10
415.6921938165306
 20
240.0
 30
-0.5
 70
   192
  0
VERTEX
  5
7DC7
  8
0
 10
480.0
 20
0.0
 30
-0.5
 70
   192
  0
VERTEX
  5
7DC8
  8
0
 10
415.6921938165304
 20
-240.0000000000003
 30
-0.5
 70
   192
  0
VERTEX
  5
7DC9
  8
0
 10
239.9999999999998
 20
-415.6921938165307
 30
-0.5
 70
   192
  0
VERTEX
  5
7DCA
  8
0
 10
-0.0000000000001865
 20
-480.0
 30
-0.5
 70
   192
  0
VERTEX
  5
7DCB
  8
0
 10
-240.0000000000002
 20
-415.6921938165305
 30
-0.5
 70
   192
  0
VERTEX
  5
7DCC
  8
0
 10
-415.6921938165306
 20
-239.9999999999999
 30
-0.5
 70
   192
  0
VERTEX
  5
7DCD
  8
0
 10
0.0
 20
0.0
 30
0.0
 70
   128
 71
    -7
 72
    13
 73
   -14
  0
VERTEX
  5
7DCE
  8
0
 10
0.0
 20
0.0
 30
0.0
 70
   128
 71
     6
 72
    -7
 73
   -14
  0
VERTEX
  5
7DCF
  8
0
 10
0.0
 20
0.0
 30
0.0
 70
   128
 71
   -15
 72
     5
 73
    -6
  0
VERTEX
  5
7DD0
  8
0
 10
0.0
 20
0.0
 30
0.0
 70
   128
 71
    14
 72
   -15
 73
    -6
  0
VERTEX
  5
7DD1
  8
0
 10
0.0
 20
0.0
 30
0.0
 70
   128
 71
   -16
 72
     4
 73
    -5
  0
VERTEX
  5
7DD2
  8
0
 10
0.0
 20
0.0
 30
0.0
 70
   128
 71
    15
 72
   -16
 73
    -5
  0
VERTEX
  5
7DD3
  8
0
 10
0.0
 20
0.0
 30
0.0
 70
   128
 71
   -17
 72
     3
 73
    -4
  0
VERTEX
  5
7DD4
  8
0
 10
0.0
 20
0.0
 30
0.0
 70
   128
 71
    16
 72
   -17
 73
    -4
  0
VERTEX
  5
7DD5
  8
0
 10
0.0
 20
0.0
 30
0.0
 70
   128
 71
   -18
 72
     2
 73
    -3
  0
VERTEX
  5
7DD6
  8
0
 10
0.0
 20
0.0
 30
0.0
 70
   128
 71
    17
 72
   -18
 73
    -3
  0
VERTEX
  5
7DD7
  8
0
 10
0.0
 20
0.0
 30
0.0
 70
   128
 71
   -19
 72
     1
 73
    -2
  0
VERTEX
  5
7DD8
  8
0
 10
0.0
 20
0.0
 30
0.0
 70
   128
 71
    18
 72
   -19
 73
    -2
  0
VERTEX
  5
7DD9
  8
0
 10
0.0
 20
0.0
 30
0.0
 70
   128
 71
   -20
 72
    12
 73
    -1
  0
VERTEX
  5
7DDA
  8
0
 10
0.0
 20
0.0
 30
0.0
 70
   128
 71
    19
 72
   -20
 73
    -1
  0
VERTEX
  5
7DDB
  8
0
 10
0.0
 20
0.0
 30
0.0
 70
   128
 71
   -21
 72
    11
 73
   -12
  0
VERTEX
  5
7DDC
  8
0
 10
0.0
 20
0.0
 30
0.0
 70
   128
 71
    20
 72
   -21
 73
   -12
  0
VERTEX
  5
7DDD
  8
0
 10
0.0
 20
0.0
 30
0.0
 70
   128
 71
   -22
 72
    10
 73
   -11
  0
VERTEX
  5
7DDE
  8
0
 10
0.0
 20
0.0
 30
0.0
 70
   128
 71
    21
 72
   -22
 73
   -11
  0
VERTEX
  5
7DDF
  8
0
 10
0.0
 20
0.0
 30
0.0
 70
   128
 71
   -23
 72
     9
 73
   -10
  0
VERTEX
  5
7DE0
  8
0
 10
0.0
 20
0.0
 30
0.0
 70
   128
 71
    22
 72
   -23
 73
   -10
  0
VERTEX
  5
7DE1
  8
0
 10
0.0
 20
0.0
 30
0.0
 70
   128
 71
   -24
 72
     8
 73
    -9
  0
VERTEX
  5
7DE2
  8
0
 10
0.0
 20
0.0
 30
0.0
 70
   128
 71
    23
 72
   -24
 73
    -9
  0
VERTEX
  5
7DE3
  8
0
 10
0.0
 20
0.0
 30
0.0
 70
   128
 71
   -13
 72
     7
 73
    -8
  0
VERTEX
  5
7DE4
  8
0
 10
0.0
 20
0.0
 30
0.0
 70
   128
 71
    24
 72
   -13
 73
    -8
  0
SEQEND
  5
8096
  8
0
  0
POLYLINE
  5
7DE5
  8
0
 66
     1
 10
0.0
 20
0.0
 30
0.0
 70
    64
 71
    24
 72
    24
  0
VERTEX
  5
7DE6
  8
0
 10
480.0
 20
0.0
 30
0.0
 70
   192
  0
VERTEX
  5
7DE7
  8
0
 10
415.6921938165306
 20
240.0
 30
0.0
 70
   192
  0
VERTEX
  5
7DE8
  8
0
 10
240.0000000000001
 20
415.6921938165305
 30
0.0
 70
   192
  0
VERTEX
  5
7DE9
  8
0
 10
0.0000000000001332
 20
480.0
 30
0.0
 70
   192
  0
VERTEX
  5
7DEA
  8
0
 10
-239.9999999999999
 20
415.6921938165306
 30
0.0
 70
   192
  0
VERTEX
  5
7DEB
  8
0
 10
-415.6921938165304
 20
240.0000000000002
 30
0.0
 70
   192
  0
VERTEX
  5
7DEC
  8
0
 10
-480.0
 20
0.0000000000002665
 30
0.0
 70
   192
  0
VERTEX
  5
7DED
  8
0
 10
-415.6921938165306
 20
-239.9999999999999
 30
0.0
 70
   192
  0
VERTEX
  5
7DEE
  8
0
 10
-240.0000000000002
 20
-415.6921938165305
 30
0.0
 70
   192
  0
VERTEX
  5
7DEF
  8
0
 10
-0.0000000000001865
 20
-480.0
 30
0.0
 70
   192
  0
VERTEX
  5
7DF0
  8
0
 10
239.9999999999998
 20
-415.6921938165307
 30
0.0
 70
   192
  0
VERTEX
  5
7DF1
  8
0
 10
415.6921938165304
 20
-240.0000000000003
 30
0.0
 70
   192
  0
VERTEX
  5
7DF2
  8
0
 10
-465.0
 20
0.0000000000002581
 30
0.0
 70
   192
  0
VERTEX
  5
7DF3
  8
0
 10
-402.7018127597639
 20
232.5000000000002
 30
0.0
 70
   192
  0
VERTEX
  5
7DF4
  8
0
 10
-232.4999999999999
 20
402.701812759764
 30
0.0
 70
   192
  0
VERTEX
  5
7DF5
  8
0
 10
0.0000000000001291
 20
465.0
 30
0.0
 70
   192
  0
VERTEX
  5
7DF6
  8
0
 10
232.5000000000001
 20
402.7018127597639
 30
0.0
 70
   192
  0
VERTEX
  5
7DF7
  8
0
 10
402.701812759764
 20
232.5
 30
0.0
 70
   192
  0
VERTEX
  5
7DF8
  8
0
 10
465.0
 20
0.0
 30
0.0
 70
   192
  0
VERTEX
  5
7DF9
  8
0
 10
402.7018127597639
 20
-232.5000000000003
 30
0.0
 70
   192
  0
VERTEX
  5
7DFA
  8
0
 10
232.4999999999998
 20
-402.7018127597641
 30
0.0
 70
   192
  0
VERTEX
  5
7DFB
  8
0
 10
-0.0000000000001807
 20
-465.0
 30
0.0
 70
   192
  0
VERTEX
  5
7DFC
  8
0
 10
-232.5000000000001
 20
-402.7018127597639
 30
0.0
 70
   192
  0
VERTEX
  5
7DFD
  8
0
 10
-402.701812759764
 20
-232.4999999999999
 30
0.0
 70
   192
  0
VERTEX
  5
7DFE
  8
0
 10
0.0
 20
0.0
 30
0.0
 70
   128
 71
    -7
 72
    13
 73
   -14
  0
VERTEX
  5
7DFF
  8
0
 10
0.0
 20
0.0
 30
0.0
 70
   128
 71
     6
 72
    -7
 73
   -14
  0
VERTEX
  5
7E00
  8
0
 10
0.0
 20
0.0
 30
0.0
 70
   128
 71
   -15
 72
     5
 73
    -6
  0
VERTEX
  5
7E01
  8
0
 10
0.0
 20
0.0
 30
0.0
 70
   128
 71
    14
 72
   -15
 73
    -6
  0
VERTEX
  5
7E02
  8
0
 10
0.0
 20
0.0
 30
0.0
 70
   128
 71
   -16
 72
     4
 73
    -5
  0
VERTEX
  5
7E03
  8
0
 10
0.0
 20
0.0
 30
0.0
 70
   128
 71
    15
 72
   -16
 73
    -5
  0
VERTEX
  5
7E04
  8
0
 10
0.0
 20
0.0
 30
0.0
 70
   128
 71
   -17
 72
     3
 73
    -4
  0
VERTEX
  5
7E05
  8
0
 10
0.0
 20
0.0
 30
0.0
 70
   128
 71
    16
 72
   -17
 73
    -4
  0
VERTEX
  5
7E06
  8
0
 10
0.0
 20
0.0
 30
0.0
 70
   128
 71
   -18
 72
     2
 73
    -3
  0
VERTEX
  5
7E07
  8
0
 10
0.0
 20
0.0
 30
0.0
 70
   128
 71
    17
 72
   -18
 73
    -3
  0
VERTEX
  5
7E08
  8
0
 10
0.0
 20
0.0
 30
0.0
 70
   128
 71
   -19
 72
     1
 73
    -2
  0
VERTEX
  5
7E09
  8
0
 10
0.0
 20
0.0
 30
0.0
 70
   128
 71
    18
 72
   -19
 73
    -2
  0
VERTEX
  5
7E0A
  8
0
 10
0.0
 20
0.0
 30
0.0
 70
   128
 71
   -20
 72
    12
 73
    -1
  0
VERTEX
  5
7E0B
  8
0
 10
0.0
 20
0.0
 30
0.0
 70
   128
 71
    19
 72
   -20
 73
    -1
  0
VERTEX
  5
7E0C
  8
0
 10
0.0
 20
0.0
 30
0.0
 70
   128
 71
   -21
 72
    11
 73
   -12
  0
VERTEX
  5
7E0D
  8
0
 10
0.0
 20
0.0
 30
0.0
 70
   128
 71
    20
 72
   -21
 73
   -12
  0
VERTEX
  5
7E0E
  8
0
 10
0.0
 20
0.0
 30
0.0
 70
   128
 71
   -22
 72
    10
 73
   -11
  0
VERTEX
  5
7E0F
  8
0
 10
0.0
 20
0.0
 30
0.0
 70
   128
 71
    21
 72
   -22
 73
   -11
  0
VERTEX
  5
7E10
  8
0
 10
0.0
 20
0.0
 30
0.0
 70
   128
 71
   -23
 72
     9
 73
   -10
  0
VERTEX
  5
7E11
  8
0
 10
0.0
 20
0.0
 30
0.0
 70
   128
 71
    22
 72
   -23
 73
   -10
  0
VERTEX
  5
7E12
  8
0
 10
0.0
 20
0.0
 30
0.0
 70
   128
 71
   -24
 72
     8
 73
    -9
  0
VERTEX
  5
7E13
  8
0
 10
0.0
 20
0.0
 30
0.0
 70
   128
 71
    23
 72
   -24
 73
    -9
  0
VERTEX
  5
7E14
  8
0
 10
0.0
 20
0.0
 30
0.0
 70
   128
 71
   -13
 72
     7
 73
    -8
  0
VERTEX
  5
7E15
  8
0
 10
0.0
 20
0.0
 30
0.0
 70
   128
 71
    24
 72
   -13
 73
    -8
  0
SEQEND
  5
8097
  8
0
  0
POLYLINE
  5
7E16
  8
0
 66
     1
 10
0.0
 20
0.0
 30
0.0
 70
    64
 71
    14
 72
    12
  0
VERTEX
  5
7E17
  8
0
 10
232.5000000000001
 20
402.7018127597639
 30
-0.5
 70
   192
  0
VERTEX
  5
7E18
  8
0
 10
402.701812759764
 20
232.5
 30
-0.5
 70
   192
  0
VERTEX
  5
7E19
  8
0
 10
402.701812759764
 20
232.5
 30
0.0
 70
   192
  0
VERTEX
  5
7E1A
  8
0
 10
232.5000000000001
 20
402.7018127597639
 30
0.0
 70
   192
  0
VERTEX
  5
7E1B
  8
0
 10
-402.7018127597639
 20
232.5000000000002
 30
-0.5
 70
   192
  0
VERTEX
  5
7E1C
  8
0
 10
-232.4999999999999
 20
402.701812759764
 30
-0.5
 70
   192
  0
VERTEX
  5
7E1D
  8
0
 10
-232.4999999999999
 20
402.701812759764
 30
0.0
 70
   192
  0
VERTEX
  5
7E1E
  8
0
 10
-402.7018127597639
 20
232.5000000000002
 30
0.0
 70
   192
  0
VERTEX
  5
7E1F
  8
0
 10
-465.0
 20
0.0000000000000569
 30
-0.5
 70
   192
  0
VERTEX
  5
7E20
  8
0
 10
-465.0
 20
0.0000000000000569
 30
0.0
 70
   192
  0
VERTEX
  5
7E21
  8
0
 10
0.0000000000001291
 20
465.0
 30
-0.5
 70
   192
  0
VERTEX
  5
7E22
  8
0
 10
0.0000000000001291
 20
465.0
 30
0.0
 70
   192
  0
VERTEX
  5
7E23
  8
0
 10
465.0
 20
0.0
 30
-0.5
 70
   192
  0
VERTEX
  5
7E24
  8
0
 10
465.0
 20
0.0
 30
0.0
 70
   192
  0
VERTEX
  5
7E25
  8
0
 10
0.0
 20
0.0
 30
0.0
 70
   128
 71
     1
 72
     2
 73
    -3
  0
VERTEX
  5
7E26
  8
0
 10
0.0
 20
0.0
 30
0.0
 70
   128
 71
     4
 72
    -1
 73
     3
  0
VERTEX
  5
7E27
  8
0
 10
0.0
 20
0.0
 30
0.0
 70
   128
 71
     5
 72
     6
 73
    -7
  0
VERTEX
  5
7E28
  8
0
 10
0.0
 20
0.0
 30
0.0
 70
   128
 71
     8
 72
    -5
 73
     7
  0
VERTEX
  5
7E29
  8
0
 10
0.0
 20
0.0
 30
0.0
 70
   128
 71
     9
 72
     5
 73
    -8
  0
VERTEX
  5
7E2A
  8
0
 10
0.0
 20
0.0
 30
0.0
 70
   128
 71
    10
 72
    -9
 73
     8
  0
VERTEX
  5
7E2B
  8
0
 10
0.0
 20
0.0
 30
0.0
 70
   128
 71
     6
 72
    11
 73
   -12
  0
VERTEX
  5
7E2C
  8
0
 10
0.0
 20
0.0
 30
0.0
 70
   128
 71
     7
 72
    -6
 73
    12
  0
VERTEX
  5
7E2D
  8
0
 10
0.0
 20
0.0
 30
0.0
 70
   128
 71
    11
 72
     1
 73
    -4
  0
VERTEX
  5
7E2E
  8
0
 10
0.0
 20
0.0
 30
0.0
 70
   128
 71
    12
 72
   -11
 73
     4
  0
VERTEX
  5
7E2F
  8
0
 10
0.0
 20
0.0
 30
0.0
 70
   128
 71
     2
 72
    13
 73
   -14
  0
VERTEX
  5
7E30
  8
0
 10
0.0
 20
0.0
 30
0.0
 70
   128
 71
     3
 72
    -2
 73
    14
  0
SEQEND
  5
8098
  8
0
  0
POLYLINE
  5
7E31
  8
0
 66
     1
 10
0.0
 20
0.0
 30
0.0
 70
    64
 71
    12
 72
    10
  0
VERTEX
  5
7E32
  8
0
 10
465.0
 20
0.0
 30
-0.5
 70
   192
  0
VERTEX
  5
7E33
  8
0
 10
402.701812759764
 20
232.5
 30
-0.5
 70
   192
  0
VERTEX
  5
7E34
  8
0
 10
232.5000000000001
 20
402.7018127597639
 30
-0.5
 70
   192
  0
VERTEX
  5
7E35
  8
0
 10
0.0000000000001291
 20
465.0
 30
-0.5
 70
   192
  0
VERTEX
  5
7E36
  8
0
 10
-232.4999999999999
 20
402.701812759764
 30
-0.5
 70
   192
  0
VERTEX
  5
7E37
  8
0
 10
-402.7018127597639
 20
232.5000000000002
 30
-0.5
 70
   192
  0
VERTEX
  5
7E38
  8
0
 10
-465.0
 20
0.0000000000002581
 30
-0.5
 70
   192
  0
VERTEX
  5
7E39
  8
0
 10
-402.701812759764
 20
-232.4999999999999
 30
-0.5
 70
   192
  0
VERTEX
  5
7E3A
  8
0
 10
-232.5000000000001
 20
-402.7018127597639
 30
-0.5
 70
   192
  0
VERTEX
  5
7E3B
  8
0
 10
-0.0000000000001807
 20
-465.0
 30
-0.5
 70
   192
  0
VERTEX
  5
7E3C
  8
0
 10
232.4999999999998
 20
-402.7018127597641
 30
-0.5
 70
   192
  0
VERTEX
  5
7E3D
  8
0
 10
402.7018127597639
 20
-232.5000000000003
 30
-0.5
 70
   192
  0
VERTEX
  5
7E3E
  8
0
 10
0.0
 20
0.0
 30
0.0
 70
   128
 71
    11
 72
    12
 73
    -1
  0
VERTEX
  5
7E3F
  8
0
 10
0.0
 20
0.0
 30
0.0
 70
   128
 71
    10
 72
   -11
 73
    -1
  0
VERTEX
  5
7E40
  8
0
 10
0.0
 20
0.0
 30
0.0
 70
   128
 71
     9
 72
   -10
 73
    -1
  0
VERTEX
  5
7E41
  8
0
 10
0.0
 20
0.0
 30
0.0
 70
   128
 71
     8
 72
    -9
 73
    -1
  0
VERTEX
  5
7E42
  8
0
 10
0.0
 20
0.0
 30
0.0
 70
   128
 71
     7
 72
    -8
 73
    -1
  0
VERTEX
  5
7E43
  8
0
 10
0.0
 20
0.0
 30
0.0
 70
   128
 71
     6
 72
    -7
 73
    -1
  0
VERTEX
  5
7E44
  8
0
 10
0.0
 20
0.0
 30
0.0
 70
   128
 71
     5
 72
    -6
 73
    -1
  0
VERTEX
  5
7E45
  8
0
 10
0.0
 20
0.0
 30
0.0
 70
   128
 71
     4
 72
    -5
 73
    -1
  0
VERTEX
  5
7E46
  8
0
 10
0.0
 20
0.0
 30
0.0
 70
   128
 71
     3
 72
    -4
 73
    -1
  0
VERTEX
  5
7E47
  8
0
 10
0.0
 20
0.0
 30
0.0
 70
   128
 71
     2
 72
    -3
 73
     1
  0
SEQEND
  5
8099
  8
0
  0
POLYLINE
  5
7E48
  8
0
 66
     1
 10
0.0
 20
0.0
 30
0.0
 70
    64
 71
    14
 72
    12
  0
VERTEX
  5
7E49
  8
0
 10
245.0000000000001
 20
424.3524478543749
 30
-35.0
 70
   192
  0
VERTEX
  5
7E4A
  8
0
 10
424.352447854375
 20
245.0
 30
-35.0
 70
   192
  0
VERTEX
  5
7E4B
  8
0
 10
424.352447854375
 20
245.0
 30
-10.5
 70
   192
  0
VERTEX
  5
7E4C
  8
0
 10
245.0000000000001
 20
424.3524478543749
 30
-10.5
 70
   192
  0
VERTEX
  5
7E4D
  8
0
 10
-424.3524478543749
 20
245.0000000000002
 30
-35.0
 70
   192
  0
VERTEX
  5
7E4E
  8
0
 10
-244.9999999999999
 20
424.352447854375
 30
-35.0
 70
   192
  0
VERTEX
  5
7E4F
  8
0
 10
-244.9999999999999
 20
424.352447854375
 30
-10.5
 70
   192
  0
VERTEX
  5
7E50
  8
0
 10
-424.3524478543749
 20
245.0000000000002
 30
-10.5
 70
   192
  0
VERTEX
  5
7E51
  8
0
 10
-490.0
 20
0.00000000000006
 30
-35.0
 70
   192
  0
VERTEX
  5
7E52
  8
0
 10
-490.0
 20
0.00000000000006
 30
-10.5
 70
   192
  0
VERTEX
  5
7E53
  8
0
 10
0.000000000000136
 20
490.0
 30
-35.0
 70
   192
  0
VERTEX
  5
7E54
  8
0
 10
0.000000000000136
 20
490.0
 30
-10.5
 70
   192
  0
VERTEX
  5
7E55
  8
0
 10
490.0
 20
0.0
 30
-35.0
 70
   192
  0
VERTEX
  5
7E56
  8
0
 10
490.0
 20
0.0
 30
-10.5
 70
   192
  0
VERTEX
  5
7E57
  8
0
 10
0.0
 20
0.0
 30
0.0
 70
   128
 71
     1
 72
     2
 73
    -3
  0
VERTEX
  5
7E58
  8
0
 10
0.0
 20
0.0
 30
0.0
 70
   128
 71
     4
 72
    -1
 73
     3
  0
VERTEX
  5
7E59
  8
0
 10
0.0
 20
0.0
 30
0.0
 70
   128
 71
     5
 72
     6
 73
    -7
  0
VERTEX
  5
7E5A
  8
0
 10
0.0
 20
0.0
 30
0.0
 70
   128
 71
     8
 72
    -5
 73
     7
  0
VERTEX
  5
7E5B
  8
0
 10
0.0
 20
0.0
 30
0.0
 70
   128
 71
     9
 72
     5
 73
    -8
  0
VERTEX
  5
7E5C
  8
0
 10
0.0
 20
0.0
 30
0.0
 70
   128
 71
    10
 72
    -9
 73
     8
  0
VERTEX
  5
7E5D
  8
0
 10
0.0
 20
0.0
 30
0.0
 70
   128
 71
     6
 72
    11
 73
   -12
  0
VERTEX
  5
7E5E
  8
0
 10
0.0
 20
0.0
 30
0.0
 70
   128
 71
     7
 72
    -6
 73
    12
  0
VERTEX
  5
7E5F
  8
0
 10
0.0
 20
0.0
 30
0.0
 70
   128
 71
    11
 72
     1
 73
    -4
  0
VERTEX
  5
7E60
  8
0
 10
0.0
 20
0.0
 30
0.0
 70
   128
 71
    12
 72
   -11
 73
     4
  0
VERTEX
  5
7E61
  8
0
 10
0.0
 20
0.0
 30
0.0
 70
   128
 71
     2
 72
    13
 73
   -14
  0
VERTEX
  5
7E62
  8
0
 10
0.0
 20
0.0
 30
0.0
 70
   128
 71
     3
 72
    -2
 73
    14
  0
SEQEND
  5
809A
  8
0
  0
POLYLINE
  5
7E63
  8
0
 66
     1
 10
0.0
 20
0.0
 30
0.0
 70
    64
 71
    12
 72
    10
  0
VERTEX
  5
7E64
  8
0
 10
-490.0
 20
0.00000000000006
 30
-10.5
 70
   192
  0
VERTEX
  5
7E65
  8
0
 10
-424.352447854375
 20
-244.9999999999999
 30
-10.5
 70
   192
  0
VERTEX
  5
7E66
  8
0
 10
-245.0000000000002
 20
-424.3524478543749
 30
-10.5
 70
   192
  0
VERTEX
  5
7E67
  8
0
 10
-0.0000000000001904
 20
-490.0
 30
-10.5
 70
   192
  0
VERTEX
  5
7E68
  8
0
 10
244.9999999999998
 20
-424.3524478543751
 30
-10.5
 70
   192
  0
VERTEX
  5
7E69
  8
0
 10
424.3524478543748
 20
-245.0000000000003
 30
-10.5
 70
   192
  0
VERTEX
  5
7E6A
  8
0
 10
490.0
 20
0.0
 30
-10.5
 70
   192
  0
VERTEX
  5
7E6B
  8
0
 10
424.352447854375
 20
245.0
 30
-10.5
 70
   192
  0
VERTEX
  5
7E6C
  8
0
 10
245.0000000000001
 20
424.3524478543749
 30
-10.5
 70
   192
  0
VERTEX
  5
7E6D
  8
0
 10
0.000000000000136
 20
490.0
 30
-10.5
 70
   192
  0
VERTEX
  5
7E6E
  8
0
 10
-244.9999999999999
 20
424.352447854375
 30
-10.5
 70
   192
  0
VERTEX
  5
7E6F
  8
0
 10
-424.3524478543749
 20
245.0000000000002
 30
-10.5
 70
   192
  0
VERTEX
  5
7E70
  8
0
 10
0.0
 20
0.0
 30
0.0
 70
   128
 71
     1
 72
    12
 73
   -11
  0
VERTEX
  5
7E71
  8
0
 10
0.0
 20
0.0
 30
0.0
 70
   128
 71
    -1
 72
    11
 73
   -10
  0
VERTEX
  5
7E72
  8
0
 10
0.0
 20
0.0
 30
0.0
 70
   128
 71
    -1
 72
    10
 73
    -9
  0
VERTEX
  5
7E73
  8
0
 10
0.0
 20
0.0
 30
0.0
 70
   128
 71
    -1
 72
     9
 73
    -8
  0
VERTEX
  5
7E74
  8
0
 10
0.0
 20
0.0
 30
0.0
 70
   128
 71
    -1
 72
     8
 73
    -7
  0
VERTEX
  5
7E75
  8
0
 10
0.0
 20
0.0
 30
0.0
 70
   128
 71
    -1
 72
     7
 73
    -6
  0
VERTEX
  5
7E76
  8
0
 10
0.0
 20
0.0
 30
0.0
 70
   128
 71
    -1
 72
     6
 73
    -5
  0
VERTEX
  5
7E77
  8
0
 10
0.0
 20
0.0
 30
0.0
 70
   128
 71
    -1
 72
     5
 73
    -4
  0
VERTEX
  5
7E78
  8
0
 10
0.0
 20
0.0
 30
0.0
 70
   128
 71
    -1
 72
     4
 73
    -3
  0
VERTEX
  5
7E79
  8
0
 10
0.0
 20
0.0
 30
0.0
 70
   128
 71
    -1
 72
     3
 73
     2
  0
SEQEND
  5
809B
  8
0
  0
ENDBLK
  5
808B
  8
0
  0
BLOCK
  8
0
  2
*X2
 70
     1
 10
0.0
 20
0.0
 30
0.0
  3
*X2
  1

  0
POLYLINE
  5
7E7B
  8
0
 66
     1
 10
0.0
 20
0.0
 30
0.0
 70
    64
 71
     6
 72
     4
  0
VERTEX
  5
7E7C
  8
0
 10
-253.0000000000001
 20
260.0
 30
-20.5
 70
   192
  0
VERTEX
  5
7E7D
  8
0
 10
-287.0
 20
260.0
 30
-20.5
 70
   192
  0
VERTEX
  5
7E7E
  8
0
 10
-287.0
 20
260.0
 30
-13.5
 70
   192
  0
VERTEX
  5
7E7F
  8
0
 10
-290.0
 20
260.0
 30
-13.5
 70
   192
  0
VERTEX
  5
7E80
  8
0
 10
-290.0
 20
260.0
 30
-23.5
 70
   192
  0
VERTEX
  5
7E81
  8
0
 10
-253.0000000000001
 20
260.0
 30
-23.5
 70
   192
  0
VERTEX
  5
7E82
  8
0
 10
0.0
 20
0.0
 30
0.0
 70
   128
 71
     6
 72
     1
 73
    -2
  0
VERTEX
  5
7E83
  8
0
 10
0.0
 20
0.0
 30
0.0
 70
   128
 71
     5
 72
    -6
 73
    -2
  0
VERTEX
  5
7E84
  8
0
 10
0.0
 20
0.0
 30
0.0
 70
   128
 71
     3
 72
     4
 73
    -5
  0
VERTEX
  5
7E85
  8
0
 10
0.0
 20
0.0
 30
0.0
 70
   128
 71
     2
 72
    -3
 73
    -5
  0
SEQEND
  5
809E
  8
0
  0
POLYLINE
  5
7E86
  8
0
 66
     1
 10
0.0
 20
0.0
 30
0.0
 70
    64
 71
     6
 72
     4
  0
VERTEX
  5
7E87
  8
0
 10
-290.0
 20
225.0
 30
-10.5
 70
   192
  0
VERTEX
  5
7E88
  8
0
 10
-290.0
 20
285.0000000000001
 30
-10.5
 70
   192
  0
VERTEX
  5
7E89
  8
0
 10
-290.0
 20
285.0000000000001
 30
-23.5
 70
   192
  0
VERTEX
  5
7E8A
  8
0
 10
-290.0
 20
260.0
 30
-23.5
 70
   192
  0
VERTEX
  5
7E8B
  8
0
 10
-290.0
 20
260.0
 30
-13.5
 70
   192
  0
VERTEX
  5
7E8C
  8
0
 10
-290.0
 20
225.0
 30
-13.5
 70
   192
  0
VERTEX
  5
7E8D
  8
0
 10
0.0
 20
0.0
 30
0.0
 70
   128
 71
     3
 72
     4
 73
    -5
  0
VERTEX
  5
7E8E
  8
0
 10
0.0
 20
0.0
 30
0.0
 70
   128
 71
     2
 72
    -3
 73
    -5
  0
VERTEX
  5
7E8F
  8
0
 10
0.0
 20
0.0
 30
0.0
 70
   128
 71
     6
 72
     1
 73
    -2
  0
VERTEX
  5
7E90
  8
0
 10
0.0
 20
0.0
 30
0.0
 70
   128
 71
     5
 72
    -6
 73
    -2
  0
SEQEND
  5
809F
  8
0
  0
POLYLINE
  5
7E91
  8
0
 66
     1
 10
0.0
 20
0.0
 30
0.0
 70
    64
 71
     4
 72
     2
  0
VERTEX
  5
7E92
  8
0
 10
-290.0
 20
285.0000000000001
 30
-10.5
 70
   192
  0
VERTEX
  5
7E93
  8
0
 10
-290.0
 20
285.0000000000001
 30
-23.5
 70
   192
  0
VERTEX
  5
7E94
  8
0
 10
-210.0
 20
285.0000000000001
 30
-23.5
 70
   192
  0
VERTEX
  5
7E95
  8
0
 10
-210.0
 20
285.0000000000001
 30
-10.5
 70
   192
  0
VERTEX
  5
7E96
  8
0
 10
0.0
 20
0.0
 30
0.0
 70
   128
 71
     1
 72
     4
 73
    -3
  0
VERTEX
  5
7E97
  8
0
 10
0.0
 20
0.0
 30
0.0
 70
   128
 71
    -1
 72
     3
 73
     2
  0
SEQEND
  5
80A0
  8
0
  0
POLYLINE
  5
7E98
  8
0
 66
     1
 10
0.0
 20
0.0
 30
0.0
 70
    64
 71
     6
 72
     4
  0
VERTEX
  5
7E99
  8
0
 10
-210.0
 20
285.0000000000001
 30
-10.5
 70
   192
  0
VERTEX
  5
7E9A
  8
0
 10
-210.0
 20
285.0000000000001
 30
-23.5
 70
   192
  0
VERTEX
  5
7E9B
  8
0
 10
-210.0
 20
260.0
 30
-23.5
 70
   192
  0
VERTEX
  5
7E9C
  8
0
 10
-210.0
 20
260.0
 30
-13.5
 70
   192
  0
VERTEX
  5
7E9D
  8
0
 10
-210.0
 20
225.0
 30
-13.5
 70
   192
  0
VERTEX
  5
7E9E
  8
0
 10
-210.0
 20
225.0
 30
-10.5
 70
   192
  0
VERTEX
  5
7E9F
  8
0
 10
0.0
 20
0.0
 30
0.0
 70
   128
 71
     4
 72
     3
 73
    -2
  0
VERTEX
  5
7EA0
  8
0
 10
0.0
 20
0.0
 30
0.0
 70
   128
 71
    -4
 72
     2
 73
    -1
  0
VERTEX
  5
7EA1
  8
0
 10
0.0
 20
0.0
 30
0.0
 70
   128
 71
     1
 72
     6
 73
    -5
  0
VERTEX
  5
7EA2
  8
0
 10
0.0
 20
0.0
 30
0.0
 70
   128
 71
    -1
 72
     5
 73
    -4
  0
SEQEND
  5
80A1
  8
0
  0
POLYLINE
  5
7EA3
  8
0
 66
     1
 10
0.0
 20
0.0
 30
0.0
 70
    64
 71
     4
 72
     2
  0
VERTEX
  5
7EA4
  8
0
 10
-210.0
 20
225.0
 30
-10.5
 70
   192
  0
VERTEX
  5
7EA5
  8
0
 10
-290.0
 20
225.0
 30
-10.5
 70
   192
  0
VERTEX
  5
7EA6
  8
0
 10
-290.0
 20
225.0
 30
-13.5
 70
   192
  0
VERTEX
  5
7EA7
  8
0
 10
-210.0
 20
225.0
 30
-13.5
 70
   192
  0
VERTEX
  5
7EA8
  8
0
 10
0.0
 20
0.0
 30
0.0
 70
   128
 71
     3
 72
     4
 73
    -1
  0
VERTEX
  5
7EA9
  8
0
 10
0.0
 20
0.0
 30
0.0
 70
   128
 71
     2
 72
    -3
 73
     1
  0
SEQEND
  5
80A2
  8
0
  0
POLYLINE
  5
7EAA
  8
0
 66
     1
 10
0.0
 20
0.0
 30
0.0
 70
    64
 71
     8
 72
     6
  0
VERTEX
  5
7EAB
  8
0
 10
-213.0
 20
282.0
 30
-13.5
 70
   192
  0
VERTEX
  5
7EAC
  8
0
 10
-287.0
 20
282.0
 30
-13.5
 70
   192
  0
VERTEX
  5
7EAD
  8
0
 10
-287.0
 20
260.0
 30
-13.5
 70
   192
  0
VERTEX
  5
7EAE
  8
0
 10
-290.0
 20
260.0
 30
-13.5
 70
   192
  0
VERTEX
  5
7EAF
  8
0
 10
-290.0
 20
225.0
 30
-13.5
 70
   192
  0
VERTEX
  5
7EB0
  8
0
 10
-210.0
 20
225.0
 30
-13.5
 70
   192
  0
VERTEX
  5
7EB1
  8
0
 10
-210.0
 20
260.0
 30
-13.5
 70
   192
  0
VERTEX
  5
7EB2
  8
0
 10
-213.0
 20
260.0
 30
-13.5
 70
   192
  0
VERTEX
  5
7EB3
  8
0
 10
0.0
 20
0.0
 30
0.0
 70
   128
 71
     8
 72
     7
 73
    -6
  0
VERTEX
  5
7EB4
  8
0
 10
0.0
 20
0.0
 30
0.0
 70
   128
 71
     3
 72
     2
 73
    -1
  0
VERTEX
  5
7EB5
  8
0
 10
0.0
 20
0.0
 30
0.0
 70
   128
 71
    -3
 72
     1
 73
    -8
  0
VERTEX
  5
7EB6
  8
0
 10
0.0
 20
0.0
 30
0.0
 70
   128
 71
    -8
 72
     6
 73
    -5
  0
VERTEX
  5
7EB7
  8
0
 10
0.0
 20
0.0
 30
0.0
 70
   128
 71
    -8
 72
    -5
 73
    -3
  0
VERTEX
  5
7EB8
  8
0
 10
0.0
 20
0.0
 30
0.0
 70
   128
 71
     5
 72
     4
 73
    -3
  0
SEQEND
  5
80A3
  8
0
  0
POLYLINE
  5
7EB9
  8
0
 66
     1
 10
0.0
 20
0.0
 30
0.0
 70
    64
 71
     4
 72
     2
  0
VERTEX
  5
7EBA
  8
0
 10
-290.0
 20
285.0000000000001
 30
-10.5
 70
   192
  0
VERTEX
  5
7EBB
  8
0
 10
-290.0
 20
225.0
 30
-10.5
 70
   192
  0
VERTEX
  5
7EBC
  8
0
 10
-210.0
 20
225.0
 30
-10.5
 70
   192
  0
VERTEX
  5
7EBD
  8
0
 10
-210.0
 20
285.0000000000001
 30
-10.5
 70
   192
  0
VERTEX
  5
7EBE
  8
0
 10
0.0
 20
0.0
 30
0.0
 70
   128
 71
     3
 72
     4
 73
    -1
  0
VERTEX
  5
7EBF
  8
0
 10
0.0
 20
0.0
 30
0.0
 70
   128
 71
     2
 72
    -3
 73
     1
  0
SEQEND
  5
80A4
  8
0
  0
POLYLINE
  5
7EC0
  8
0
 66
     1
 10
0.0
 20
0.0
 30
0.0
 70
    64
 71
     4
 72
     2
  0
VERTEX
  5
7EC1
  8
0
 10
-246.9999999999999
 20
280.0
 30
-20.5
 70
   192
  0
VERTEX
  5
7EC2
  8
0
 10
-253.0000000000001
 20
280.0
 30
-20.5
 70
   192
  0
VERTEX
  5
7EC3
  8
0
 10
-253.0000000000001
 20
280.0
 30
-23.5
 70
   192
  0
VERTEX
  5
7EC4
  8
0
 10
-246.9999999999999
 20
280.0
 30
-23.5
 70
   192
  0
VERTEX
  5
7EC5
  8
0
 10
0.0
 20
0.0
 30
0.0
 70
   128
 71
     3
 72
     4
 73
    -1
  0
VERTEX
  5
7EC6
  8
0
 10
0.0
 20
0.0
 30
0.0
 70
   128
 71
     2
 72
    -3
 73
     1
  0
SEQEND
  5
80A5
  8
0
  0
POLYLINE
  5
7EC7
  8
0
 66
     1
 10
0.0
 20
0.0
 30
0.0
 70
    64
 71
     4
 72
     2
  0
VERTEX
  5
7EC8
  8
0
 10
-253.0000000000001
 20
280.0
 30
-20.5
 70
   192
  0
VERTEX
  5
7EC9
  8
0
 10
-253.0000000000001
 20
260.0
 30
-20.5
 70
   192
  0
VERTEX
  5
7ECA
  8
0
 10
-253.0000000000001
 20
260.0
 30
-23.5
 70
   192
  0
VERTEX
  5
7ECB
  8
0
 10
-253.0000000000001
 20
280.0
 30
-23.5
 70
   192
  0
VERTEX
  5
7ECC
  8
0
 10
0.0
 20
0.0
 30
0.0
 70
   128
 71
     3
 72
     4
 73
    -1
  0
VERTEX
  5
7ECD
  8
0
 10
0.0
 20
0.0
 30
0.0
 70
   128
 71
     2
 72
    -3
 73
     1
  0
SEQEND
  5
80A6
  8
0
  0
POLYLINE
  5
7ECE
  8
0
 66
     1
 10
0.0
 20
0.0
 30
0.0
 70
    64
 71
     6
 72
     4
  0
VERTEX
  5
7ECF
  8
0
 10
-213.0
 20
260.0
 30
-13.5
 70
   192
  0
VERTEX
  5
7ED0
  8
0
 10
-213.0
 20
260.0
 30
-20.5
 70
   192
  0
VERTEX
  5
7ED1
  8
0
 10
-246.9999999999999
 20
260.0
 30
-20.5
 70
   192
  0
VERTEX
  5
7ED2
  8
0
 10
-246.9999999999999
 20
260.0
 30
-23.5
 70
   192
  0
VERTEX
  5
7ED3
  8
0
 10
-210.0
 20
260.0
 30
-23.5
 70
   192
  0
VERTEX
  5
7ED4
  8
0
 10
-210.0
 20
260.0
 30
-13.5
 70
   192
  0
VERTEX
  5
7ED5
  8
0
 10
0.0
 20
0.0
 30
0.0
 70
   128
 71
     6
 72
     1
 73
    -2
  0
VERTEX
  5
7ED6
  8
0
 10
0.0
 20
0.0
 30
0.0
 70
   128
 71
     5
 72
    -6
 73
    -2
  0
VERTEX
  5
7ED7
  8
0
 10
0.0
 20
0.0
 30
0.0
 70
   128
 71
     3
 72
     4
 73
    -5
  0
VERTEX
  5
7ED8
  8
0
 10
0.0
 20
0.0
 30
0.0
 70
   128
 71
     2
 72
    -3
 73
    -5
  0
SEQEND
  5
80A7
  8
0
  0
POLYLINE
  5
7ED9
  8
0
 66
     1
 10
0.0
 20
0.0
 30
0.0
 70
    64
 71
     4
 72
     2
  0
VERTEX
  5
7EDA
  8
0
 10
-246.9999999999999
 20
260.0
 30
-20.5
 70
   192
  0
VERTEX
  5
7EDB
  8
0
 10
-246.9999999999999
 20
280.0
 30
-20.5
 70
   192
  0
VERTEX
  5
7EDC
  8
0
 10
-246.9999999999999
 20
280.0
 30
-23.5
 70
   192
  0
VERTEX
  5
7EDD
  8
0
 10
-246.9999999999999
 20
260.0
 30
-23.5
 70
   192
  0
VERTEX
  5
7EDE
  8
0
 10
0.0
 20
0.0
 30
0.0
 70
   128
 71
     3
 72
     4
 73
    -1
  0
VERTEX
  5
7EDF
  8
0
 10
0.0
 20
0.0
 30
0.0
 70
   128
 71
     2
 72
    -3
 73
     1
  0
SEQEND
  5
80A8
  8
0
  0
POLYLINE
  5
7EE0
  8
0
 66
     1
 10
0.0
 20
0.0
 30
0.0
 70
    64
 71
     8
 72
     6
  0
VERTEX
  5
7EE1
  8
0
 10
-246.9999999999999
 20
280.0
 30
-23.5
 70
   192
  0
VERTEX
  5
7EE2
  8
0
 10
-253.0000000000001
 20
280.0
 30
-23.5
 70
   192
  0
VERTEX
  5
7EE3
  8
0
 10
-253.0000000000001
 20
260.0
 30
-23.5
 70
   192
  0
VERTEX
  5
7EE4
  8
0
 10
-290.0
 20
260.0
 30
-23.5
 70
   192
  0
VERTEX
  5
7EE5
  8
0
 10
-290.0
 20
285.0000000000001
 30
-23.5
 70
   192
  0
VERTEX
  5
7EE6
  8
0
 10
-210.0
 20
285.0000000000001
 30
-23.5
 70
   192
  0
VERTEX
  5
7EE7
  8
0
 10
-210.0
 20
260.0
 30
-23.5
 70
   192
  0
VERTEX
  5
7EE8
  8
0
 10
-246.9999999999999
 20
260.0
 30
-23.5
 70
   192
  0
VERTEX
  5
7EE9
  8
0
 10
0.0
 20
0.0
 30
0.0
 70
   128
 71
     7
 72
     8
 73
    -1
  0
VERTEX
  5
7EEA
  8
0
 10
0.0
 20
0.0
 30
0.0
 70
   128
 71
     6
 72
    -7
 73
    -1
  0
VERTEX
  5
7EEB
  8
0
 10
0.0
 20
0.0
 30
0.0
 70
   128
 71
    -6
 72
     1
 73
    -2
  0
VERTEX
  5
7EEC
  8
0
 10
0.0
 20
0.0
 30
0.0
 70
   128
 71
     5
 72
    -6
 73
    -2
  0
VERTEX
  5
7EED
  8
0
 10
0.0
 20
0.0
 30
0.0
 70
   128
 71
     3
 72
     4
 73
    -5
  0
VERTEX
  5
7EEE
  8
0
 10
0.0
 20
0.0
 30
0.0
 70
   128
 71
     2
 72
    -3
 73
    -5
  0
SEQEND
  5
80A9
  8
0
  0
POLYLINE
  5
7EEF
  8
0
 66
     1
 10
0.0
 20
0.0
 30
0.0
 70
    64
 71
     4
 72
     2
  0
VERTEX
  5
7EF0
  8
0
 10
-287.0
 20
260.0
 30
-13.5
 70
   192
  0
VERTEX
  5
7EF1
  8
0
 10
-287.0
 20
282.0
 30
-13.5
 70
   192
  0
VERTEX
  5
7EF2
  8
0
 10
-287.0
 20
282.0
 30
-20.5
 70
   192
  0
VERTEX
  5
7EF3
  8
0
 10
-287.0
 20
260.0
 30
-20.5
 70
   192
  0
VERTEX
  5
7EF4
  8
0
 10
0.0
 20
0.0
 30
0.0
 70
   128
 71
     1
 72
     4
 73
    -3
  0
VERTEX
  5
7EF5
  8
0
 10
0.0
 20
0.0
 30
0.0
 70
   128
 71
    -1
 72
     3
 73
     2
  0
SEQEND
  5
80AA
  8
0
  0
POLYLINE
  5
7EF6
  8
0
 66
     1
 10
0.0
 20
0.0
 30
0.0
 70
    64
 71
     4
 72
     2
  0
VERTEX
  5
7EF7
  8
0
 10
-213.0
 20
282.0
 30
-13.5
 70
   192
  0
VERTEX
  5
7EF8
  8
0
 10
-287.0
 20
282.0
 30
-13.5
 70
   192
  0
VERTEX
  5
7EF9
  8
0
 10
-287.0
 20
282.0
 30
-20.5
 70
   192
  0
VERTEX
  5
7EFA
  8
0
 10
-213.0
 20
282.0
 30
-20.5
 70
   192
  0
VERTEX
  5
7EFB
  8
0
 10
0.0
 20
0.0
 30
0.0
 70
   128
 71
     3
 72
     4
 73
    -1
  0
VERTEX
  5
7EFC
  8
0
 10
0.0
 20
0.0
 30
0.0
 70
   128
 71
     2
 72
    -3
 73
     1
  0
SEQEND
  5
80AB
  8
0
  0
POLYLINE
  5
7EFD
  8
0
 66
     1
 10
0.0
 20
0.0
 30
0.0
 70
    64
 71
     4
 72
     2
  0
VERTEX
  5
7EFE
  8
0
 10
-213.0
 20
260.0
 30
-13.5
 70
   192
  0
VERTEX
  5
7EFF
  8
0
 10
-213.0
 20
282.0
 30
-13.5
 70
   192
  0
VERTEX
  5
7F00
  8
0
 10
-213.0
 20
282.0
 30
-20.5
 70
   192
  0
VERTEX
  5
7F01
  8
0
 10
-213.0
 20
260.0
 30
-20.5
 70
   192
  0
VERTEX
  5
7F02
  8
0
 10
0.0
 20
0.0
 30
0.0
 70
   128
 71
     3
 72
     4
 73
    -1
  0
VERTEX
  5
7F03
  8
0
 10
0.0
 20
0.0
 30
0.0
 70
   128
 71
     2
 72
    -3
 73
     1
  0
SEQEND
  5
80AC
  8
0
  0
POLYLINE
  5
7F04
  8
0
 66
     1
 10
0.0
 20
0.0
 30
0.0
 70
    64
 71
     8
 72
     6
  0
VERTEX
  5
7F05
  8
0
 10
-253.0000000000001
 20
280.0
 30
-20.5
 70
   192
  0
VERTEX
  5
7F06
  8
0
 10
-253.0000000000001
 20
260.0
 30
-20.5
 70
   192
  0
VERTEX
  5
7F07
  8
0
 10
-287.0
 20
260.0
 30
-20.5
 70
   192
  0
VERTEX
  5
7F08
  8
0
 10
-287.0
 20
282.0
 30
-20.5
 70
   192
  0
VERTEX
  5
7F09
  8
0
 10
-213.0
 20
282.0
 30
-20.5
 70
   192
  0
VERTEX
  5
7F0A
  8
0
 10
-213.0
 20
260.0
 30
-20.5
 70
   192
  0
VERTEX
  5
7F0B
  8
0
 10
-246.9999999999999
 20
260.0
 30
-20.5
 70
   192
  0
VERTEX
  5
7F0C
  8
0
 10
-246.9999999999999
 20
280.0
 30
-20.5
 70
   192
  0
VERTEX
  5
7F0D
  8
0
 10
0.0
 20
0.0
 30
0.0
 70
   128
 71
     8
 72
     7
 73
    -6
  0
VERTEX
  5
7F0E
  8
0
 10
0.0
 20
0.0
 30
0.0
 70
   128
 71
    -8
 72
     6
 73
    -5
  0
VERTEX
  5
7F0F
  8
0
 10
0.0
 20
0.0
 30
0.0
 70
   128
 71
    -5
 72
     1
 73
    -8
  0
VERTEX
  5
7F10
  8
0
 10
0.0
 20
0.0
 30
0.0
 70
   128
 71
     5
 72
    -4
 73
    -1
  0
VERTEX
  5
7F11
  8
0
 10
0.0
 20
0.0
 30
0.0
 70
   128
 71
     4
 72
     3
 73
    -2
  0
VERTEX
  5
7F12
  8
0
 10
0.0
 20
0.0
 30
0.0
 70
   128
 71
    -4
 72
     2
 73
    -1
  0
SEQEND
  5
80AD
  8
0
  0
ENDBLK
  5
809D
  8
0
  0
BLOCK
  8
0
  2
*X3
 70
     1
 10
0.0
 20
0.0
 30
0.0
  3
*X3
  1

  0
POLYLINE
  5
7F14
  8
0
 66
     1
 10
0.0
 20
0.0
 30
0.0
 70
    64
 71
     8
 72
     6
  0
VERTEX
  5
7F15
  8
0
 10
210.0
 20
260.0000000000001
 30
-13.5
 70
   192
  0
VERTEX
  5
7F16
  8
0
 10
210.0
 20
225.0
 30
-13.5
 70
   192
  0
VERTEX
  5
7F17
  8
0
 10
290.0
 20
225.0
 30
-13.5
 70
   192
  0
VERTEX
  5
7F18
  8
0
 10
290.0
 20
260.0000000000001
 30
-13.5
 70
   192
  0
VERTEX
  5
7F19
  8
0
 10
287.0
 20
260.0000000000001
 30
-13.5
 70
   192
  0
VERTEX
  5
7F1A
  8
0
 10
287.0
 20
282.0
 30
-13.5
 70
   192
  0
VERTEX
  5
7F1B
  8
0
 10
213.0
 20
282.0
 30
-13.5
 70
   192
  0
VERTEX
  5
7F1C
  8
0
 10
213.0
 20
260.0000000000001
 30
-13.5
 70
   192
  0
VERTEX
  5
7F1D
  8
0
 10
0.0
 20
0.0
 30
0.0
 70
   128
 71
     5
 72
     4
 73
    -3
  0
VERTEX
  5
7F1E
  8
0
 10
0.0
 20
0.0
 30
0.0
 70
   128
 71
    -5
 72
    -3
 73
    -8
  0
VERTEX
  5
7F1F
  8
0
 10
0.0
 20
0.0
 30
0.0
 70
   128
 71
     8
 72
     7
 73
    -6
  0
VERTEX
  5
7F20
  8
0
 10
0.0
 20
0.0
 30
0.0
 70
   128
 71
    -8
 72
     6
 73
    -5
  0
VERTEX
  5
7F21
  8
0
 10
0.0
 20
0.0
 30
0.0
 70
   128
 71
     3
 72
    -2
 73
    -8
  0
VERTEX
  5
7F22
  8
0
 10
0.0
 20
0.0
 30
0.0
 70
   128
 71
     2
 72
     1
 73
    -8
  0
SEQEND
  5
80B0
  8
0
  0
POLYLINE
  5
7F23
  8
0
 66
     1
 10
0.0
 20
0.0
 30
0.0
 70
    64
 71
     6
 72
     4
  0
VERTEX
  5
7F24
  8
0
 10
210.0
 20
225.0
 30
-10.5
 70
   192
  0
VERTEX
  5
7F25
  8
0
 10
210.0
 20
285.0000000000001
 30
-10.5
 70
   192
  0
VERTEX
  5
7F26
  8
0
 10
210.0
 20
285.0000000000001
 30
-23.5
 70
   192
  0
VERTEX
  5
7F27
  8
0
 10
210.0
 20
260.0000000000001
 30
-23.5
 70
   192
  0
VERTEX
  5
7F28
  8
0
 10
210.0
 20
260.0000000000001
 30
-13.5
 70
   192
  0
VERTEX
  5
7F29
  8
0
 10
210.0
 20
225.0
 30
-13.5
 70
   192
  0
VERTEX
  5
7F2A
  8
0
 10
0.0
 20
0.0
 30
0.0
 70
   128
 71
     3
 72
     4
 73
    -5
  0
VERTEX
  5
7F2B
  8
0
 10
0.0
 20
0.0
 30
0.0
 70
   128
 71
     2
 72
    -3
 73
    -5
  0
VERTEX
  5
7F2C
  8
0
 10
0.0
 20
0.0
 30
0.0
 70
   128
 71
     6
 72
     1
 73
    -2
  0
VERTEX
  5
7F2D
  8
0
 10
0.0
 20
0.0
 30
0.0
 70
   128
 71
     5
 72
    -6
 73
    -2
  0
SEQEND
  5
80B1
  8
0
  0
POLYLINE
  5
7F2E
  8
0
 66
     1
 10
0.0
 20
0.0
 30
0.0
 70
    64
 71
     4
 72
     2
  0
VERTEX
  5
7F2F
  8
0
 10
210.0
 20
285.0000000000001
 30
-10.5
 70
   192
  0
VERTEX
  5
7F30
  8
0
 10
210.0
 20
285.0000000000001
 30
-23.5
 70
   192
  0
VERTEX
  5
7F31
  8
0
 10
290.0
 20
285.0000000000001
 30
-23.5
 70
   192
  0
VERTEX
  5
7F32
  8
0
 10
290.0
 20
285.0000000000001
 30
-10.5
 70
   192
  0
VERTEX
  5
7F33
  8
0
 10
0.0
 20
0.0
 30
0.0
 70
   128
 71
     1
 72
     4
 73
    -3
  0
VERTEX
  5
7F34
  8
0
 10
0.0
 20
0.0
 30
0.0
 70
   128
 71
    -1
 72
     3
 73
     2
  0
SEQEND
  5
80B2
  8
0
  0
POLYLINE
  5
7F35
  8
0
 66
     1
 10
0.0
 20
0.0
 30
0.0
 70
    64
 71
     6
 72
     4
  0
VERTEX
  5
7F36
  8
0
 10
290.0
 20
285.0000000000001
 30
-10.5
 70
   192
  0
VERTEX
  5
7F37
  8
0
 10
290.0
 20
285.0000000000001
 30
-23.5
 70
   192
  0
VERTEX
  5
7F38
  8
0
 10
290.0
 20
260.0000000000001
 30
-23.5
 70
   192
  0
VERTEX
  5
7F39
  8
0
 10
290.0
 20
260.0000000000001
 30
-13.5
 70
   192
  0
VERTEX
  5
7F3A
  8
0
 10
290.0
 20
225.0
 30
-13.5
 70
   192
  0
VERTEX
  5
7F3B
  8
0
 10
290.0
 20
225.0
 30
-10.5
 70
   192
  0
VERTEX
  5
7F3C
  8
0
 10
0.0
 20
0.0
 30
0.0
 70
   128
 71
     4
 72
     3
 73
    -2
  0
VERTEX
  5
7F3D
  8
0
 10
0.0
 20
0.0
 30
0.0
 70
   128
 71
    -4
 72
     2
 73
    -1
  0
VERTEX
  5
7F3E
  8
0
 10
0.0
 20
0.0
 30
0.0
 70
   128
 71
     1
 72
     6
 73
    -5
  0
VERTEX
  5
7F3F
  8
0
 10
0.0
 20
0.0
 30
0.0
 70
   128
 71
    -1
 72
     5
 73
    -4
  0
SEQEND
  5
80B3
  8
0
  0
POLYLINE
  5
7F40
  8
0
 66
     1
 10
0.0
 20
0.0
 30
0.0
 70
    64
 71
     4
 72
     2
  0
VERTEX
  5
7F41
  8
0
 10
290.0
 20
225.0
 30
-10.5
 70
   192
  0
VERTEX
  5
7F42
  8
0
 10
210.0
 20
225.0
 30
-10.5
 70
   192
  0
VERTEX
  5
7F43
  8
0
 10
210.0
 20
225.0
 30
-13.5
 70
   192
  0
VERTEX
  5
7F44
  8
0
 10
290.0
 20
225.0
 30
-13.5
 70
   192
  0
VERTEX
  5
7F45
  8
0
 10
0.0
 20
0.0
 30
0.0
 70
   128
 71
     3
 72
     4
 73
    -1
  0
VERTEX
  5
7F46
  8
0
 10
0.0
 20
0.0
 30
0.0
 70
   128
 71
     2
 72
    -3
 73
     1
  0
SEQEND
  5
80B4
  8
0
  0
POLYLINE
  5
7F47
  8
0
 66
     1
 10
0.0
 20
0.0
 30
0.0
 70
    64
 71
     4
 72
     2
  0
VERTEX
  5
7F48
  8
0
 10
210.0
 20
285.0000000000001
 30
-10.5
 70
   192
  0
VERTEX
  5
7F49
  8
0
 10
210.0
 20
225.0
 30
-10.5
 70
   192
  0
VERTEX
  5
7F4A
  8
0
 10
290.0
 20
225.0
 30
-10.5
 70
   192
  0
VERTEX
  5
7F4B
  8
0
 10
290.0
 20
285.0000000000001
 30
-10.5
 70
   192
  0
VERTEX
  5
7F4C
  8
0
 10
0.0
 20
0.0
 30
0.0
 70
   128
 71
     3
 72
     4
 73
    -1
  0
VERTEX
  5
7F4D
  8
0
 10
0.0
 20
0.0
 30
0.0
 70
   128
 71
     2
 72
    -3
 73
     1
  0
SEQEND
  5
80B5
  8
0
  0
POLYLINE
  5
7F4E
  8
0
 66
     1
 10
0.0
 20
0.0
 30
0.0
 70
    64
 71
     4
 72
     2
  0
VERTEX
  5
7F4F
  8
0
 10
246.9999999999999
 20
280.0000000000001
 30
-23.5
 70
   192
  0
VERTEX
  5
7F50
  8
0
 10
246.9999999999999
 20
260.0000000000001
 30
-23.5
 70
   192
  0
VERTEX
  5
7F51
  8
0
 10
246.9999999999999
 20
260.0000000000001
 30
-20.5
 70
   192
  0
VERTEX
  5
7F52
  8
0
 10
246.9999999999999
 20
280.0000000000001
 30
-20.5
 70
   192
  0
VERTEX
  5
7F53
  8
0
 10
0.0
 20
0.0
 30
0.0
 70
   128
 71
     1
 72
     4
 73
    -3
  0
VERTEX
  5
7F54
  8
0
 10
0.0
 20
0.0
 30
0.0
 70
   128
 71
    -1
 72
     3
 73
     2
  0
SEQEND
  5
80B6
  8
0
  0
POLYLINE
  5
7F55
  8
0
 66
     1
 10
0.0
 20
0.0
 30
0.0
 70
    64
 71
     6
 72
     4
  0
VERTEX
  5
7F56
  8
0
 10
246.9999999999999
 20
260.0000000000001
 30
-20.5
 70
   192
  0
VERTEX
  5
7F57
  8
0
 10
246.9999999999999
 20
260.0000000000001
 30
-23.5
 70
   192
  0
VERTEX
  5
7F58
  8
0
 10
210.0
 20
260.0000000000001
 30
-23.5
 70
   192
  0
VERTEX
  5
7F59
  8
0
 10
210.0
 20
260.0000000000001
 30
-13.5
 70
   192
  0
VERTEX
  5
7F5A
  8
0
 10
213.0
 20
260.0000000000001
 30
-13.5
 70
   192
  0
VERTEX
  5
7F5B
  8
0
 10
213.0
 20
260.0000000000001
 30
-20.5
 70
   192
  0
VERTEX
  5
7F5C
  8
0
 10
0.0
 20
0.0
 30
0.0
 70
   128
 71
     6
 72
     5
 73
    -4
  0
VERTEX
  5
7F5D
  8
0
 10
0.0
 20
0.0
 30
0.0
 70
   128
 71
    -6
 72
     4
 73
    -3
  0
VERTEX
  5
7F5E
  8
0
 10
0.0
 20
0.0
 30
0.0
 70
   128
 71
     3
 72
     2
 73
    -1
  0
VERTEX
  5
7F5F
  8
0
 10
0.0
 20
0.0
 30
0.0
 70
   128
 71
    -3
 72
     1
 73
    -6
  0
SEQEND
  5
80B7
  8
0
  0
POLYLINE
  5
7F60
  8
0
 66
     1
 10
0.0
 20
0.0
 30
0.0
 70
    64
 71
     6
 72
     4
  0
VERTEX
  5
7F61
  8
0
 10
287.0
 20
260.0000000000001
 30
-13.5
 70
   192
  0
VERTEX
  5
7F62
  8
0
 10
290.0
 20
260.0000000000001
 30
-13.5
 70
   192
  0
VERTEX
  5
7F63
  8
0
 10
290.0
 20
260.0000000000001
 30
-23.5
 70
   192
  0
VERTEX
  5
7F64
  8
0
 10
253.0000000000001
 20
260.0000000000001
 30
-23.5
 70
   192
  0
VERTEX
  5
7F65
  8
0
 10
253.0000000000001
 20
260.0000000000001
 30
-20.5
 70
   192
  0
VERTEX
  5
7F66
  8
0
 10
287.0
 20
260.0000000000001
 30
-20.5
 70
   192
  0
VERTEX
  5
7F67
  8
0
 10
0.0
 20
0.0
 30
0.0
 70
   128
 71
     6
 72
     5
 73
    -4
  0
VERTEX
  5
7F68
  8
0
 10
0.0
 20
0.0
 30
0.0
 70
   128
 71
    -6
 72
     4
 73
    -3
  0
VERTEX
  5
7F69
  8
0
 10
0.0
 20
0.0
 30
0.0
 70
   128
 71
     3
 72
     2
 73
    -1
  0
VERTEX
  5
7F6A
  8
0
 10
0.0
 20
0.0
 30
0.0
 70
   128
 71
    -3
 72
     1
 73
    -6
  0
SEQEND
  5
80B8
  8
0
  0
POLYLINE
  5
7F6B
  8
0
 66
     1
 10
0.0
 20
0.0
 30
0.0
 70
    64
 71
     4
 72
     2
  0
VERTEX
  5
7F6C
  8
0
 10
253.0000000000001
 20
260.0000000000001
 30
-23.5
 70
   192
  0
VERTEX
  5
7F6D
  8
0
 10
253.0000000000001
 20
280.0000000000001
 30
-23.5
 70
   192
  0
VERTEX
  5
7F6E
  8
0
 10
253.0000000000001
 20
280.0000000000001
 30
-20.5
 70
   192
  0
VERTEX
  5
7F6F
  8
0
 10
253.0000000000001
 20
260.0000000000001
 30
-20.5
 70
   192
  0
VERTEX
  5
7F70
  8
0
 10
0.0
 20
0.0
 30
0.0
 70
   128
 71
     1
 72
     4
 73
    -3
  0
VERTEX
  5
7F71
  8
0
 10
0.0
 20
0.0
 30
0.0
 70
   128
 71
    -1
 72
     3
 73
     2
  0
SEQEND
  5
80B9
  8
0
  0
POLYLINE
  5
7F72
  8
0
 66
     1
 10
0.0
 20
0.0
 30
0.0
 70
    64
 71
     4
 72
     2
  0
VERTEX
  5
7F73
  8
0
 10
253.0000000000001
 20
280.0000000000001
 30
-23.5
 70
   192
  0
VERTEX
  5
7F74
  8
0
 10
246.9999999999999
 20
280.0000000000001
 30
-23.5
 70
   192
  0
VERTEX
  5
7F75
  8
0
 10
246.9999999999999
 20
280.0000000000001
 30
-20.5
 70
   192
  0
VERTEX
  5
7F76
  8
0
 10
253.0000000000001
 20
280.0000000000001
 30
-20.5
 70
   192
  0
VERTEX
  5
7F77
  8
0
 10
0.0
 20
0.0
 30
0.0
 70
   128
 71
     1
 72
     4
 73
    -3
  0
VERTEX
  5
7F78
  8
0
 10
0.0
 20
0.0
 30
0.0
 70
   128
 71
    -1
 72
     3
 73
     2
  0
SEQEND
  5
80BA
  8
0
  0
POLYLINE
  5
7F79
  8
0
 66
     1
 10
0.0
 20
0.0
 30
0.0
 70
    64
 71
     8
 72
     6
  0
VERTEX
  5
7F7A
  8
0
 10
246.9999999999999
 20
280.0000000000001
 30
-23.5
 70
   192
  0
VERTEX
  5
7F7B
  8
0
 10
246.9999999999999
 20
260.0000000000001
 30
-23.5
 70
   192
  0
VERTEX
  5
7F7C
  8
0
 10
210.0
 20
260.0000000000001
 30
-23.5
 70
   192
  0
VERTEX
  5
7F7D
  8
0
 10
210.0
 20
285.0000000000001
 30
-23.5
 70
   192
  0
VERTEX
  5
7F7E
  8
0
 10
290.0
 20
285.0000000000001
 30
-23.5
 70
   192
  0
VERTEX
  5
7F7F
  8
0
 10
290.0
 20
260.0000000000001
 30
-23.5
 70
   192
  0
VERTEX
  5
7F80
  8
0
 10
253.0000000000001
 20
260.0000000000001
 30
-23.5
 70
   192
  0
VERTEX
  5
7F81
  8
0
 10
253.0000000000001
 20
280.0000000000001
 30
-23.5
 70
   192
  0
VERTEX
  5
7F82
  8
0
 10
0.0
 20
0.0
 30
0.0
 70
   128
 71
     6
 72
     7
 73
    -8
  0
VERTEX
  5
7F83
  8
0
 10
0.0
 20
0.0
 30
0.0
 70
   128
 71
     5
 72
    -6
 73
    -8
  0
VERTEX
  5
7F84
  8
0
 10
0.0
 20
0.0
 30
0.0
 70
   128
 71
    -1
 72
     4
 73
    -5
  0
VERTEX
  5
7F85
  8
0
 10
0.0
 20
0.0
 30
0.0
 70
   128
 71
     8
 72
    -1
 73
    -5
  0
VERTEX
  5
7F86
  8
0
 10
0.0
 20
0.0
 30
0.0
 70
   128
 71
     2
 72
     3
 73
    -4
  0
VERTEX
  5
7F87
  8
0
 10
0.0
 20
0.0
 30
0.0
 70
   128
 71
     1
 72
    -2
 73
    -4
  0
SEQEND
  5
80BB
  8
0
  0
POLYLINE
  5
7F88
  8
0
 66
     1
 10
0.0
 20
0.0
 30
0.0
 70
    64
 71
     4
 72
     2
  0
VERTEX
  5
7F89
  8
0
 10
213.0
 20
260.0000000000001
 30
-13.5
 70
   192
  0
VERTEX
  5
7F8A
  8
0
 10
213.0
 20
282.0
 30
-13.5
 70
   192
  0
VERTEX
  5
7F8B
  8
0
 10
213.0
 20
282.0
 30
-20.5
 70
   192
  0
VERTEX
  5
7F8C
  8
0
 10
213.0
 20
260.0000000000001
 30
-20.5
 70
   192
  0
VERTEX
  5
7F8D
  8
0
 10
0.0
 20
0.0
 30
0.0
 70
   128
 71
     1
 72
     4
 73
    -3
  0
VERTEX
  5
7F8E
  8
0
 10
0.0
 20
0.0
 30
0.0
 70
   128
 71
    -1
 72
     3
 73
     2
  0
SEQEND
  5
80BC
  8
0
  0
POLYLINE
  5
7F8F
  8
0
 66
     1
 10
0.0
 20
0.0
 30
0.0
 70
    64
 71
     4
 72
     2
  0
VERTEX
  5
7F90
  8
0
 10
287.0
 20
282.0
 30
-13.5
 70
   192
  0
VERTEX
  5
7F91
  8
0
 10
213.0
 20
282.0
 30
-13.5
 70
   192
  0
VERTEX
  5
7F92
  8
0
 10
213.0
 20
282.0
 30
-20.5
 70
   192
  0
VERTEX
  5
7F93
  8
0
 10
287.0
 20
282.0
 30
-20.5
 70
   192
  0
VERTEX
  5
7F94
  8
0
 10
0.0
 20
0.0
 30
0.0
 70
   128
 71
     3
 72
     4
 73
    -1
  0
VERTEX
  5
7F95
  8
0
 10
0.0
 20
0.0
 30
0.0
 70
   128
 71
     2
 72
    -3
 73
     1
  0
SEQEND
  5
80BD
  8
0
  0
POLYLINE
  5
7F96
  8
0
 66
     1
 10
0.0
 20
0.0
 30
0.0
 70
    64
 71
     4
 72
     2
  0
VERTEX
  5
7F97
  8
0
 10
287.0
 20
260.0000000000001
 30
-13.5
 70
   192
  0
VERTEX
  5
7F98
  8
0
 10
287.0
 20
282.0
 30
-13.5
 70
   192
  0
VERTEX
  5
7F99
  8
0
 10
287.0
 20
282.0
 30
-20.5
 70
   192
  0
VERTEX
  5
7F9A
  8
0
 10
287.0
 20
260.0000000000001
 30
-20.5
 70
   192
  0
VERTEX
  5
7F9B
  8
0
 10
0.0
 20
0.0
 30
0.0
 70
   128
 71
     3
 72
     4
 73
    -1
  0
VERTEX
  5
7F9C
  8
0
 10
0.0
 20
0.0
 30
0.0
 70
   128
 71
     2
 72
    -3
 73
     1
  0
SEQEND
  5
80BE
  8
0
  0
POLYLINE
  5
7F9D
  8
0
 66
     1
 10
0.0
 20
0.0
 30
0.0
 70
    64
 71
     8
 72
     6
  0
VERTEX
  5
7F9E
  8
0
 10
246.9999999999999
 20
260.0000000000001
 30
-20.5
 70
   192
  0
VERTEX
  5
7F9F
  8
0
 10
213.0
 20
260.0000000000001
 30
-20.5
 70
   192
  0
VERTEX
  5
7FA0
  8
0
 10
213.0
 20
282.0
 30
-20.5
 70
   192
  0
VERTEX
  5
7FA1
  8
0
 10
287.0
 20
282.0
 30
-20.5
 70
   192
  0
VERTEX
  5
7FA2
  8
0
 10
287.0
 20
260.0000000000001
 30
-20.5
 70
   192
  0
VERTEX
  5
7FA3
  8
0
 10
253.0000000000001
 20
260.0000000000001
 30
-20.5
 70
   192
  0
VERTEX
  5
7FA4
  8
0
 10
253.0000000000001
 20
280.0000000000001
 30
-20.5
 70
   192
  0
VERTEX
  5
7FA5
  8
0
 10
246.9999999999999
 20
280.0000000000001
 30
-20.5
 70
   192
  0
VERTEX
  5
7FA6
  8
0
 10
0.0
 20
0.0
 30
0.0
 70
   128
 71
     7
 72
     6
 73
    -5
  0
VERTEX
  5
7FA7
  8
0
 10
0.0
 20
0.0
 30
0.0
 70
   128
 71
    -7
 72
     5
 73
    -4
  0
VERTEX
  5
7FA8
  8
0
 10
0.0
 20
0.0
 30
0.0
 70
   128
 71
    -4
 72
     8
 73
    -7
  0
VERTEX
  5
7FA9
  8
0
 10
0.0
 20
0.0
 30
0.0
 70
   128
 71
     4
 72
    -3
 73
    -8
  0
VERTEX
  5
7FAA
  8
0
 10
0.0
 20
0.0
 30
0.0
 70
   128
 71
     3
 72
     2
 73
    -1
  0
VERTEX
  5
7FAB
  8
0
 10
0.0
 20
0.0
 30
0.0
 70
   128
 71
    -3
 72
     1
 73
    -8
  0
SEQEND
  5
80BF
  8
0
  0
ENDBLK
  5
80AF
  8
0
  0
BLOCK
  8
0
  2
*X4
 70
     1
 10
0.0
 20
0.0
 30
0.0
  3
*X4
  1

  0
POLYLINE
  5
7FAD
  8
0
 66
     1
 10
0.0
 20
0.0
 30
0.0
 70
    64
 71
    10
 72
     8
  0
VERTEX
  5
7FAE
  8
0
 10
119.9999999999999
 20
-345.0
 30
-12.00000000000001
 70
   192
  0
VERTEX
  5
7FAF
  8
0
 10
119.9999999999999
 20
-345.0
 30
-18.99999999999999
 70
   192
  0
VERTEX
  5
7FB0
  8
0
 10
119.9999999999999
 20
-339.9999999999999
 30
-18.99999999999999
 70
   192
  0
VERTEX
  5
7FB1
  8
0
 10
119.9999999999999
 20
-339.9999999999999
 30
-12.00000000000001
 70
   192
  0
VERTEX
  5
7FB2
  8
0
 10
123.4999999999999
 20
-339.9999999999999
 30
-15.5
 70
   192
  0
VERTEX
  5
7FB3
  8
0
 10
123.4999999999999
 20
-345.0
 30
-15.5
 70
   192
  0
VERTEX
  5
7FB4
  8
0
 10
122.4748737341529
 20
-339.9999999999999
 30
-13.02512626584709
 70
   192
  0
VERTEX
  5
7FB5
  8
0
 10
122.4748737341529
 20
-345.0
 30
-13.02512626584709
 70
   192
  0
VERTEX
  5
7FB6
  8
0
 10
122.4748737341529
 20
-339.9999999999999
 30
-17.97487373415291
 70
   192
  0
VERTEX
  5
7FB7
  8
0
 10
122.4748737341529
 20
-345.0
 30
-17.97487373415291
 70
   192
  0
VERTEX
  5
7FB8
  8
0
 10
0.0
 20
0.0
 30
0.0
 70
   128
 71
     7
 72
     4
 73
    -1
  0
VERTEX
  5
7FB9
  8
0
 10
0.0
 20
0.0
 30
0.0
 70
   128
 71
    -7
 72
     1
 73
     8
  0
VERTEX
  5
7FBA
  8
0
 10
0.0
 20
0.0
 30
0.0
 70
   128
 71
     6
 72
     5
 73
    -7
  0
VERTEX
  5
7FBB
  8
0
 10
0.0
 20
0.0
 30
0.0
 70
   128
 71
    -6
 72
     7
 73
     8
  0
VERTEX
  5
7FBC
  8
0
 10
0.0
 20
0.0
 30
0.0
 70
   128
 71
    10
 72
     9
 73
    -5
  0
VERTEX
  5
7FBD
  8
0
 10
0.0
 20
0.0
 30
0.0
 70
   128
 71
   -10
 72
     5
 73
     6
  0
VERTEX
  5
7FBE
  8
0
 10
0.0
 20
0.0
 30
0.0
 70
   128
 71
     2
 72
     3
 73
    -9
  0
VERTEX
  5
7FBF
  8
0
 10
0.0
 20
0.0
 30
0.0
 70
   128
 71
    -2
 72
     9
 73
    10
  0
SEQEND
  5
80C2
  8
0
  0
POLYLINE
  5
7FC0
  8
0
 66
     1
 10
0.0
 20
0.0
 30
0.0
 70
    64
 71
     8
 72
     6
  0
VERTEX
  5
7FC1
  8
0
 10
164.9999999999999
 20
-338.6602540378443
 30
-10.5
 70
   192
  0
VERTEX
  5
7FC2
  8
0
 10
164.9999999999999
 20
-338.6602540378443
 30
-20.5
 70
   192
  0
VERTEX
  5
7FC3
  8
0
 10
168.6602540378443
 20
-334.9999999999999
 30
-20.5
 70
   192
  0
VERTEX
  5
7FC4
  8
0
 10
168.6602540378443
 20
-334.9999999999999
 30
-10.5
 70
   192
  0
VERTEX
  5
7FC5
  8
0
 10
159.9999999999999
 20
-339.9999999999999
 30
-10.5
 70
   192
  0
VERTEX
  5
7FC6
  8
0
 10
159.9999999999999
 20
-339.9999999999999
 30
-20.5
 70
   192
  0
VERTEX
  5
7FC7
  8
0
 10
169.9999999999999
 20
-329.9999999999999
 30
-20.5
 70
   192
  0
VERTEX
  5
7FC8
  8
0
 10
169.9999999999999
 20
-329.9999999999999
 30
-10.5
 70
   192
  0
VERTEX
  5
7FC9
  8
0
 10
0.0
 20
0.0
 30
0.0
 70
   128
 71
     1
 72
     2
 73
    -3
  0
VERTEX
  5
7FCA
  8
0
 10
0.0
 20
0.0
 30
0.0
 70
   128
 71
    -1
 72
     3
 73
     4
  0
VERTEX
  5
7FCB
  8
0
 10
0.0
 20
0.0
 30
0.0
 70
   128
 71
     5
 72
     6
 73
    -2
  0
VERTEX
  5
7FCC
  8
0
 10
0.0
 20
0.0
 30
0.0
 70
   128
 71
    -5
 72
     2
 73
     1
  0
VERTEX
  5
7FCD
  8
0
 10
0.0
 20
0.0
 30
0.0
 70
   128
 71
     4
 72
     3
 73
    -7
  0
VERTEX
  5
7FCE
  8
0
 10
0.0
 20
0.0
 30
0.0
 70
   128
 71
    -4
 72
     7
 73
     8
  0
SEQEND
  5
80C3
  8
0
  0
POLYLINE
  5
7FCF
  8
0
 66
     1
 10
0.0
 20
0.0
 30
0.0
 70
    64
 71
    12
 72
    12
  0
VERTEX
  5
7FD0
  8
0
 10
159.9999999999999
 20
-339.9999999999999
 30
-10.5
 70
   192
  0
VERTEX
  5
7FD1
  8
0
 10
159.9999999999999
 20
-339.9999999999999
 30
-20.5
 70
   192
  0
VERTEX
  5
7FD2
  8
0
 10
-20.00000000000004
 20
-339.9999999999999
 30
-20.5
 70
   192
  0
VERTEX
  5
7FD3
  8
0
 10
-20.00000000000006
 20
-339.9999999999999
 30
-10.5
 70
   192
  0
VERTEX
  5
7FD4
  8
0
 10
119.9999999999999
 20
-339.9999999999999
 30
-18.99999999999999
 70
   192
  0
VERTEX
  5
7FD5
  8
0
 10
122.4748737341529
 20
-339.9999999999999
 30
-17.97487373415291
 70
   192
  0
VERTEX
  5
7FD6
  8
0
 10
123.4999999999999
 20
-339.9999999999999
 30
-15.5
 70
   192
  0
VERTEX
  5
7FD7
  8
0
 10
122.4748737341529
 20
-339.9999999999999
 30
-13.02512626584709
 70
   192
  0
VERTEX
  5
7FD8
  8
0
 10
119.9999999999999
 20
-339.9999999999999
 30
-12.00000000000001
 70
   192
  0
VERTEX
  5
7FD9
  8
0
 10
117.525126265847
 20
-339.9999999999999
 30
-13.02512626584709
 70
   192
  0
VERTEX
  5
7FDA
  8
0
 10
116.4999999999999
 20
-339.9999999999999
 30
-15.5
 70
   192
  0
VERTEX
  5
7FDB
  8
0
 10
117.525126265847
 20
-339.9999999999999
 30
-17.97487373415291
 70
   192
  0
VERTEX
  5
7FDC
  8
0
 10
0.0
 20
0.0
 30
0.0
 70
   128
 71
     6
 72
    -5
 73
    -2
  0
VERTEX
  5
7FDD
  8
0
 10
0.0
 20
0.0
 30
0.0
 70
   128
 71
     2
 72
    -1
 73
    -7
  0
VERTEX
  5
7FDE
  8
0
 10
0.0
 20
0.0
 30
0.0
 70
   128
 71
    -2
 72
     7
 73
    -6
  0
VERTEX
  5
7FDF
  8
0
 10
0.0
 20
0.0
 30
0.0
 70
   128
 71
    -1
 72
     8
 73
    -7
  0
VERTEX
  5
7FE0
  8
0
 10
0.0
 20
0.0
 30
0.0
 70
   128
 71
    -1
 72
     9
 73
    -8
  0
VERTEX
  5
7FE1
  8
0
 10
0.0
 20
0.0
 30
0.0
 70
   128
 71
    -9
 72
     1
 73
    -4
  0
VERTEX
  5
7FE2
  8
0
 10
0.0
 20
0.0
 30
0.0
 70
   128
 71
    -4
 72
    10
 73
    -9
  0
VERTEX
  5
7FE3
  8
0
 10
0.0
 20
0.0
 30
0.0
 70
   128
 71
     4
 72
    -3
 73
   -11
  0
VERTEX
  5
7FE4
  8
0
 10
0.0
 20
0.0
 30
0.0
 70
   128
 71
    -4
 72
    11
 73
   -10
  0
VERTEX
  5
7FE5
  8
0
 10
0.0
 20
0.0
 30
0.0
 70
   128
 71
    -3
 72
    12
 73
   -11
  0
VERTEX
  5
7FE6
  8
0
 10
0.0
 20
0.0
 30
0.0
 70
   128
 71
    -3
 72
     5
 73
   -12
  0
VERTEX
  5
7FE7
  8
0
 10
0.0
 20
0.0
 30
0.0
 70
   128
 71
     3
 72
    -2
 73
    -5
  0
SEQEND
  5
80C4
  8
0
  0
POLYLINE
  5
7FE8
  8
0
 66
     1
 10
0.0
 20
0.0
 30
0.0
 70
    64
 71
     8
 72
     6
  0
VERTEX
  5
7FE9
  8
0
 10
-28.66025403784443
 20
-334.9999999999999
 30
-10.5
 70
   192
  0
VERTEX
  5
7FEA
  8
0
 10
-28.66025403784443
 20
-334.9999999999999
 30
-20.5
 70
   192
  0
VERTEX
  5
7FEB
  8
0
 10
-25.00000000000005
 20
-338.6602540378443
 30
-20.5
 70
   192
  0
VERTEX
  5
7FEC
  8
0
 10
-25.00000000000005
 20
-338.6602540378443
 30
-10.5
 70
   192
  0
VERTEX
  5
7FED
  8
0
 10
-30.00000000000004
 20
-329.9999999999999
 30
-10.5
 70
   192
  0
VERTEX
  5
7FEE
  8
0
 10
-30.00000000000003
 20
-329.9999999999999
 30
-20.5
 70
   192
  0
VERTEX
  5
7FEF
  8
0
 10
-20.00000000000004
 20
-339.9999999999999
 30
-20.5
 70
   192
  0
VERTEX
  5
7FF0
  8
0
 10
-20.00000000000004
 20
-339.9999999999999
 30
-10.5
 70
   192
  0
VERTEX
  5
7FF1
  8
0
 10
0.0
 20
0.0
 30
0.0
 70
   128
 71
     1
 72
     2
 73
    -3
  0
VERTEX
  5
7FF2
  8
0
 10
0.0
 20
0.0
 30
0.0
 70
   128
 71
    -1
 72
     3
 73
     4
  0
VERTEX
  5
7FF3
  8
0
 10
0.0
 20
0.0
 30
0.0
 70
   128
 71
     5
 72
     6
 73
    -2
  0
VERTEX
  5
7FF4
  8
0
 10
0.0
 20
0.0
 30
0.0
 70
   128
 71
    -5
 72
     2
 73
     1
  0
VERTEX
  5
7FF5
  8
0
 10
0.0
 20
0.0
 30
0.0
 70
   128
 71
     4
 72
     3
 73
    -7
  0
VERTEX
  5
7FF6
  8
0
 10
0.0
 20
0.0
 30
0.0
 70
   128
 71
    -4
 72
     7
 73
     8
  0
SEQEND
  5
80C5
  8
0
  0
POLYLINE
  5
7FF7
  8
0
 66
     1
 10
0.0
 20
0.0
 30
0.0
 70
    64
 71
     4
 72
     2
  0
VERTEX
  5
7FF8
  8
0
 10
-30.00000000000003
 20
-329.9999999999999
 30
-10.5
 70
   192
  0
VERTEX
  5
7FF9
  8
0
 10
-30.00000000000004
 20
-329.9999999999999
 30
-20.5
 70
   192
  0
VERTEX
  5
7FFA
  8
0
 10
-30.00000000000002
 20
-170.0
 30
-20.5
 70
   192
  0
VERTEX
  5
7FFB
  8
0
 10
-30.00000000000002
 20
-170.0
 30
-10.5
 70
   192
  0
VERTEX
  5
7FFC
  8
0
 10
0.0
 20
0.0
 30
0.0
 70
   128
 71
     1
 72
     4
 73
    -3
  0
VERTEX
  5
7FFD
  8
0
 10
0.0
 20
0.0
 30
0.0
 70
   128
 71
    -1
 72
     3
 73
     2
  0
SEQEND
  5
80C6
  8
0
  0
POLYLINE
  5
7FFE
  8
0
 66
     1
 10
0.0
 20
0.0
 30
0.0
 70
    64
 71
     8
 72
     6
  0
VERTEX
  5
7FFF
  8
0
 10
-25.00000000000002
 20
-161.3397459621556
 30
-10.5
 70
   192
  0
VERTEX
  5
8000
  8
0
 10
-25.00000000000002
 20
-161.3397459621556
 30
-20.5
 70
   192
  0
VERTEX
  5
8001
  8
0
 10
-28.66025403784441
 20
-165.0
 30
-20.5
 70
   192
  0
VERTEX
  5
8002
  8
0
 10
-28.66025403784441
 20
-165.0
 30
-10.5
 70
   192
  0
VERTEX
  5
8003
  8
0
 10
-20.00000000000002
 20
-160.0
 30
-10.5
 70
   192
  0
VERTEX
  5
8004
  8
0
 10
-20.00000000000002
 20
-160.0
 30
-20.5
 70
   192
  0
VERTEX
  5
8005
  8
0
 10
-30.00000000000002
 20
-170.0
 30
-20.5
 70
   192
  0
VERTEX
  5
8006
  8
0
 10
-30.00000000000002
 20
-170.0
 30
-10.5
 70
   192
  0
VERTEX
  5
8007
  8
0
 10
0.0
 20
0.0
 30
0.0
 70
   128
 71
     1
 72
     2
 73
    -3
  0
VERTEX
  5
8008
  8
0
 10
0.0
 20
0.0
 30
0.0
 70
   128
 71
    -1
 72
     3
 73
     4
  0
VERTEX
  5
8009
  8
0
 10
0.0
 20
0.0
 30
0.0
 70
   128
 71
     5
 72
     6
 73
    -2
  0
VERTEX
  5
800A
  8
0
 10
0.0
 20
0.0
 30
0.0
 70
   128
 71
    -5
 72
     2
 73
     1
  0
VERTEX
  5
800B
  8
0
 10
0.0
 20
0.0
 30
0.0
 70
   128
 71
     4
 72
     3
 73
    -7
  0
VERTEX
  5
800C
  8
0
 10
0.0
 20
0.0
 30
0.0
 70
   128
 71
    -4
 72
     7
 73
     8
  0
SEQEND
  5
80C7
  8
0
  0
POLYLINE
  5
800D
  8
0
 66
     1
 10
0.0
 20
0.0
 30
0.0
 70
    64
 71
     4
 72
     2
  0
VERTEX
  5
800E
  8
0
 10
-20.00000000000002
 20
-160.0
 30
-10.5
 70
   192
  0
VERTEX
  5
800F
  8
0
 10
-20.00000000000003
 20
-160.0
 30
-20.5
 70
   192
  0
VERTEX
  5
8010
  8
0
 10
160.0
 20
-160.0
 30
-20.5
 70
   192
  0
VERTEX
  5
8011
  8
0
 10
160.0
 20
-160.0
 30
-10.5
 70
   192
  0
VERTEX
  5
8012
  8
0
 10
0.0
 20
0.0
 30
0.0
 70
   128
 71
     1
 72
     4
 73
    -3
  0
VERTEX
  5
8013
  8
0
 10
0.0
 20
0.0
 30
0.0
 70
   128
 71
    -1
 72
     3
 73
     2
  0
SEQEND
  5
80C8
  8
0
  0
POLYLINE
  5
8014
  8
0
 66
     1
 10
0.0
 20
0.0
 30
0.0
 70
    64
 71
     8
 72
     6
  0
VERTEX
  5
8015
  8
0
 10
168.6602540378444
 20
-165.0
 30
-10.5
 70
   192
  0
VERTEX
  5
8016
  8
0
 10
168.6602540378444
 20
-165.0
 30
-20.5
 70
   192
  0
VERTEX
  5
8017
  8
0
 10
165.0
 20
-161.3397459621556
 30
-20.5
 70
   192
  0
VERTEX
  5
8018
  8
0
 10
165.0
 20
-161.3397459621556
 30
-10.5
 70
   192
  0
VERTEX
  5
8019
  8
0
 10
170.0
 20
-170.0
 30
-10.5
 70
   192
  0
VERTEX
  5
801A
  8
0
 10
170.0
 20
-170.0
 30
-20.5
 70
   192
  0
VERTEX
  5
801B
  8
0
 10
160.0
 20
-160.0
 30
-20.5
 70
   192
  0
VERTEX
  5
801C
  8
0
 10
160.0
 20
-160.0
 30
-10.5
 70
   192
  0
VERTEX
  5
801D
  8
0
 10
0.0
 20
0.0
 30
0.0
 70
   128
 71
     1
 72
     2
 73
    -3
  0
VERTEX
  5
801E
  8
0
 10
0.0
 20
0.0
 30
0.0
 70
   128
 71
    -1
 72
     3
 73
     4
  0
VERTEX
  5
801F
  8
0
 10
0.0
 20
0.0
 30
0.0
 70
   128
 71
     5
 72
     6
 73
    -2
  0
VERTEX
  5
8020
  8
0
 10
0.0
 20
0.0
 30
0.0
 70
   128
 71
    -5
 72
     2
 73
     1
  0
VERTEX
  5
8021
  8
0
 10
0.0
 20
0.0
 30
0.0
 70
   128
 71
     4
 72
     3
 73
    -7
  0
VERTEX
  5
8022
  8
0
 10
0.0
 20
0.0
 30
0.0
 70
   128
 71
    -4
 72
     7
 73
     8
  0
SEQEND
  5
80C9
  8
0
  0
POLYLINE
  5
8023
  8
0
 66
     1
 10
0.0
 20
0.0
 30
0.0
 70
    64
 71
     4
 72
     2
  0
VERTEX
  5
8024
  8
0
 10
170.0
 20
-170.0
 30
-10.5
 70
   192
  0
VERTEX
  5
8025
  8
0
 10
170.0
 20
-170.0
 30
-20.5
 70
   192
  0
VERTEX
  5
8026
  8
0
 10
169.9999999999999
 20
-329.9999999999999
 30
-20.5
 70
   192
  0
VERTEX
  5
8027
  8
0
 10
169.9999999999999
 20
-329.9999999999999
 30
-10.5
 70
   192
  0
VERTEX
  5
8028
  8
0
 10
0.0
 20
0.0
 30
0.0
 70
   128
 71
     1
 72
     4
 73
    -3
  0
VERTEX
  5
8029
  8
0
 10
0.0
 20
0.0
 30
0.0
 70
   128
 71
    -1
 72
     3
 73
     2
  0
SEQEND
  5
80CA
  8
0
  0
POLYLINE
  5
802A
  8
0
 66
     1
 10
0.0
 20
0.0
 30
0.0
 70
    64
 71
    16
 72
    14
  0
VERTEX
  5
802B
  8
0
 10
169.9999999999999
 20
-329.9999999999999
 30
-20.5
 70
   192
  0
VERTEX
  5
802C
  8
0
 10
168.6602540378443
 20
-334.9999999999999
 30
-20.5
 70
   192
  0
VERTEX
  5
802D
  8
0
 10
164.9999999999999
 20
-338.6602540378443
 30
-20.5
 70
   192
  0
VERTEX
  5
802E
  8
0
 10
159.9999999999999
 20
-339.9999999999999
 30
-20.5
 70
   192
  0
VERTEX
  5
802F
  8
0
 10
-20.00000000000006
 20
-339.9999999999999
 30
-20.5
 70
   192
  0
VERTEX
  5
8030
  8
0
 10
-25.00000000000005
 20
-338.6602540378443
 30
-20.5
 70
   192
  0
VERTEX
  5
8031
  8
0
 10
-28.66025403784443
 20
-334.9999999999999
 30
-20.5
 70
   192
  0
VERTEX
  5
8032
  8
0
 10
-30.00000000000004
 20
-329.9999999999999
 30
-20.5
 70
   192
  0
VERTEX
  5
8033
  8
0
 10
-30.00000000000002
 20
-170.0
 30
-20.5
 70
   192
  0
VERTEX
  5
8034
  8
0
 10
-28.66025403784441
 20
-165.0
 30
-20.5
 70
   192
  0
VERTEX
  5
8035
  8
0
 10
-25.00000000000002
 20
-161.3397459621556
 30
-20.5
 70
   192
  0
VERTEX
  5
8036
  8
0
 10
-20.00000000000002
 20
-160.0
 30
-20.5
 70
   192
  0
VERTEX
  5
8037
  8
0
 10
160.0
 20
-160.0
 30
-20.5
 70
   192
  0
VERTEX
  5
8038
  8
0
 10
165.0
 20
-161.3397459621556
 30
-20.5
 70
   192
  0
VERTEX
  5
8039
  8
0
 10
168.6602540378444
 20
-165.0
 30
-20.5
 70
   192
  0
VERTEX
  5
803A
  8
0
 10
170.0
 20
-170.0
 30
-20.5
 70
   192
  0
VERTEX
  5
803B
  8
0
 10
0.0
 20
0.0
 30
0.0
 70
   128
 71
    15
 72
    16
 73
    -1
  0
VERTEX
  5
803C
  8
0
 10
0.0
 20
0.0
 30
0.0
 70
   128
 71
    14
 72
   -15
 73
    -1
  0
VERTEX
  5
803D
  8
0
 10
0.0
 20
0.0
 30
0.0
 70
   128
 71
    13
 72
   -14
 73
    -1
  0
VERTEX
  5
803E
  8
0
 10
0.0
 20
0.0
 30
0.0
 70
   128
 71
    12
 72
   -13
 73
    -1
  0
VERTEX
  5
803F
  8
0
 10
0.0
 20
0.0
 30
0.0
 70
   128
 71
    11
 72
   -12
 73
    -1
  0
VERTEX
  5
8040
  8
0
 10
0.0
 20
0.0
 30
0.0
 70
   128
 71
    10
 72
   -11
 73
    -1
  0
VERTEX
  5
8041
  8
0
 10
0.0
 20
0.0
 30
0.0
 70
   128
 71
     9
 72
   -10
 73
    -1
  0
VERTEX
  5
8042
  8
0
 10
0.0
 20
0.0
 30
0.0
 70
   128
 71
     8
 72
    -9
 73
    -1
  0
VERTEX
  5
8043
  8
0
 10
0.0
 20
0.0
 30
0.0
 70
   128
 71
     7
 72
    -8
 73
    -1
  0
VERTEX
  5
8044
  8
0
 10
0.0
 20
0.0
 30
0.0
 70
   128
 71
     6
 72
    -7
 73
    -1
  0
VERTEX
  5
8045
  8
0
 10
0.0
 20
0.0
 30
0.0
 70
   128
 71
     5
 72
    -6
 73
    -1
  0
VERTEX
  5
8046
  8
0
 10
0.0
 20
0.0
 30
0.0
 70
   128
 71
     4
 72
    -5
 73
    -1
  0
VERTEX
  5
8047
  8
0
 10
0.0
 20
0.0
 30
0.0
 70
   128
 71
     3
 72
    -4
 73
    -1
  0
VERTEX
  5
8048
  8
0
 10
0.0
 20
0.0
 30
0.0
 70
   128
 71
     2
 72
    -3
 73
     1
  0
SEQEND
  5
80CB
  8
0
  0
POLYLINE
  5
8049
  8
0
 66
     1
 10
0.0
 20
0.0
 30
0.0
 70
    64
 71
    16
 72
    14
  0
VERTEX
  5
804A
  8
0
 10
159.9999999999999
 20
-339.9999999999999
 30
-10.5
 70
   192
  0
VERTEX
  5
804B
  8
0
 10
-20.00000000000004
 20
-339.9999999999999
 30
-10.5
 70
   192
  0
VERTEX
  5
804C
  8
0
 10
-25.00000000000005
 20
-338.6602540378443
 30
-10.5
 70
   192
  0
VERTEX
  5
804D
  8
0
 10
-28.66025403784443
 20
-334.9999999999999
 30
-10.5
 70
   192
  0
VERTEX
  5
804E
  8
0
 10
-30.00000000000004
 20
-329.9999999999999
 30
-10.5
 70
   192
  0
VERTEX
  5
804F
  8
0
 10
-30.00000000000002
 20
-170.0
 30
-10.5
 70
   192
  0
VERTEX
  5
8050
  8
0
 10
-28.66025403784441
 20
-165.0
 30
-10.5
 70
   192
  0
VERTEX
  5
8051
  8
0
 10
-25.00000000000002
 20
-161.3397459621556
 30
-10.5
 70
   192
  0
VERTEX
  5
8052
  8
0
 10
-20.00000000000003
 20
-160.0
 30
-10.5
 70
   192
  0
VERTEX
  5
8053
  8
0
 10
160.0
 20
-160.0
 30
-10.5
 70
   192
  0
VERTEX
  5
8054
  8
0
 10
165.0
 20
-161.3397459621556
 30
-10.5
 70
   192
  0
VERTEX
  5
8055
  8
0
 10
168.6602540378444
 20
-165.0
 30
-10.5
 70
   192
  0
VERTEX
  5
8056
  8
0
 10
170.0
 20
-170.0
 30
-10.5
 70
   192
  0
VERTEX
  5
8057
  8
0
 10
169.9999999999999
 20
-329.9999999999999
 30
-10.5
 70
   192
  0
VERTEX
  5
8058
  8
0
 10
168.6602540378443
 20
-334.9999999999999
 30
-10.5
 70
   192
  0
VERTEX
  5
8059
  8
0
 10
164.9999999999999
 20
-338.6602540378443
 30
-10.5
 70
   192
  0
VERTEX
  5
805A
  8
0
 10
0.0
 20
0.0
 30
0.0
 70
   128
 71
     1
 72
    16
 73
   -15
  0
VERTEX
  5
805B
  8
0
 10
0.0
 20
0.0
 30
0.0
 70
   128
 71
    -1
 72
    15
 73
   -14
  0
VERTEX
  5
805C
  8
0
 10
0.0
 20
0.0
 30
0.0
 70
   128
 71
    -1
 72
    14
 73
   -13
  0
VERTEX
  5
805D
  8
0
 10
0.0
 20
0.0
 30
0.0
 70
   128
 71
    -1
 72
    13
 73
   -12
  0
VERTEX
  5
805E
  8
0
 10
0.0
 20
0.0
 30
0.0
 70
   128
 71
    -1
 72
    12
 73
   -11
  0
VERTEX
  5
805F
  8
0
 10
0.0
 20
0.0
 30
0.0
 70
   128
 71
    -1
 72
    11
 73
   -10
  0
VERTEX
  5
8060
  8
0
 10
0.0
 20
0.0
 30
0.0
 70
   128
 71
    -1
 72
    10
 73
    -9
  0
VERTEX
  5
8061
  8
0
 10
0.0
 20
0.0
 30
0.0
 70
   128
 71
    -1
 72
     9
 73
    -8
  0
VERTEX
  5
8062
  8
0
 10
0.0
 20
0.0
 30
0.0
 70
   128
 71
    -1
 72
     8
 73
    -7
  0
VERTEX
  5
8063
  8
0
 10
0.0
 20
0.0
 30
0.0
 70
   128
 71
    -1
 72
     7
 73
    -6
  0
VERTEX
  5
8064
  8
0
 10
0.0
 20
0.0
 30
0.0
 70
   128
 71
    -1
 72
     6
 73
    -5
  0
VERTEX
  5
8065
  8
0
 10
0.0
 20
0.0
 30
0.0
 70
   128
 71
    -1
 72
     5
 73
    -4
  0
VERTEX
  5
8066
  8
0
 10
0.0
 20
0.0
 30
0.0
 70
   128
 71
    -1
 72
     4
 73
    -3
  0
VERTEX
  5
8067
  8
0
 10
0.0
 20
0.0
 30
0.0
 70
   128
 71
    -1
 72
     3
 73
     2
  0
SEQEND
  5
80CC
  8
0
  0
POLYLINE
  5
8068
  8
0
 66
     1
 10
0.0
 20
0.0
 30
0.0
 70
    64
 71
    10
 72
     8
  0
VERTEX
  5
8069
  8
0
 10
119.9999999999999
 20
-345.0
 30
-18.99999999999999
 70
   192
  0
VERTEX
  5
806A
  8
0
 10
119.9999999999999
 20
-345.0
 30
-12.00000000000001
 70
   192
  0
VERTEX
  5
806B
  8
0
 10
119.9999999999999
 20
-339.9999999999999
 30
-12.00000000000001
 70
   192
  0
VERTEX
  5
806C
  8
0
 10
119.9999999999999
 20
-339.9999999999999
 30
-18.99999999999999
 70
   192
  0
VERTEX
  5
806D
  8
0
 10
116.4999999999999
 20
-339.9999999999999
 30
-15.5
 70
   192
  0
VERTEX
  5
806E
  8
0
 10
116.4999999999999
 20
-345.0
 30
-15.5
 70
   192
  0
VERTEX
  5
806F
  8
0
 10
117.525126265847
 20
-339.9999999999999
 30
-17.97487373415291
 70
   192
  0
VERTEX
  5
8070
  8
0
 10
117.525126265847
 20
-345.0
 30
-17.97487373415291
 70
   192
  0
VERTEX
  5
8071
  8
0
 10
117.525126265847
 20
-339.9999999999999
 30
-13.02512626584709
 70
   192
  0
VERTEX
  5
8072
  8
0
 10
117.525126265847
 20
-345.0
 30
-13.02512626584709
 70
   192
  0
VERTEX
  5
8073
  8
0
 10
0.0
 20
0.0
 30
0.0
 70
   128
 71
     8
 72
     7
 73
    -4
  0
VERTEX
  5
8074
  8
0
 10
0.0
 20
0.0
 30
0.0
 70
   128
 71
    -8
 72
     4
 73
     1
  0
VERTEX
  5
8075
  8
0
 10
0.0
 20
0.0
 30
0.0
 70
   128
 71
     6
 72
     5
 73
    -7
  0
VERTEX
  5
8076
  8
0
 10
0.0
 20
0.0
 30
0.0
 70
   128
 71
    -6
 72
     7
 73
     8
  0
VERTEX
  5
8077
  8
0
 10
0.0
 20
0.0
 30
0.0
 70
   128
 71
    10
 72
     9
 73
    -5
  0
VERTEX
  5
8078
  8
0
 10
0.0
 20
0.0
 30
0.0
 70
   128
 71
   -10
 72
     5
 73
     6
  0
VERTEX
  5
8079
  8
0
 10
0.0
 20
0.0
 30
0.0
 70
   128
 71
     2
 72
     3
 73
    -9
  0
VERTEX
  5
807A
  8
0
 10
0.0
 20
0.0
 30
0.0
 70
   128
 71
    -2
 72
     9
 73
    10
  0
SEQEND
  5
80CD
  8
0
  0
POLYLINE
  5
807B
  8
0
 66
     1
 10
0.0
 20
0.0
 30
0.0
 70
    64
 71
     8
 72
     6
  0
VERTEX
  5
807C
  8
0
 10
119.9999999999999
 20
-345.0
 30
-12.00000000000001
 70
   192
  0
VERTEX
  5
807D
  8
0
 10
117.525126265847
 20
-345.0
 30
-13.02512626584709
 70
   192
  0
VERTEX
  5
807E
  8
0
 10
116.4999999999999
 20
-345.0
 30
-15.5
 70
   192
  0
VERTEX
  5
807F
  8
0
 10
117.525126265847
 20
-345.0
 30
-17.97487373415291
 70
   192
  0
VERTEX
  5
8080
  8
0
 10
119.9999999999999
 20
-345.0
 30
-18.99999999999999
 70
   192
  0
VERTEX
  5
8081
  8
0
 10
122.4748737341529
 20
-345.0
 30
-17.97487373415291
 70
   192
  0
VERTEX
  5
8082
  8
0
 10
123.4999999999999
 20
-345.0
 30
-15.5
 70
   192
  0
VERTEX
  5
8083
  8
0
 10
122.4748737341529
 20
-345.0
 30
-13.02512626584709
 70
   192
  0
VERTEX
  5
8084
  8
0
 10
0.0
 20
0.0
 30
0.0
 70
   128
 71
     7
 72
     8
 73
    -1
  0
VERTEX
  5
8085
  8
0
 10
0.0
 20
0.0
 30
0.0
 70
   128
 71
     6
 72
    -7
 73
    -1
  0
VERTEX
  5
8086
  8
0
 10
0.0
 20
0.0
 30
0.0
 70
   128
 71
     5
 72
    -6
 73
    -1
  0
VERTEX
  5
8087
  8
0
 10
0.0
 20
0.0
 30
0.0
 70
   128
 71
     4
 72
    -5
 73
    -1
  0
VERTEX
  5
8088
  8
0
 10
0.0
 20
0.0
 30
0.0
 70
   128
 71
     3
 72
    -4
 73
    -1
  0
VERTEX
  5
8089
  8
0
 10
0.0
 20
0.0
 30
0.0
 70
   128
 71
     2
 72
    -3
 73
     1
  0
SEQEND
  5
80CE
  8
0
  0
ENDBLK
  5
80C1
  8
0
  0
ENDSEC
  0
SECTION
  2
ENTITIES
  0
INSERT
  5
7818
  8
0
  2
*X1
 10
0.0
 20
0.0
 30
0.0
  0
INSERT
  5
7819
  8
0
  2
*X2
 10
0.0
 20
0.0
 30
0.0
  0
INSERT
  5
781A
  8
0
  2
*X3
 10
0.0
 20
0.0
 30
0.0
  0
INSERT
  5
781B
  8
0
  2
*X4
 10
0.0
 20
0.0
 30
0.0
  0
ENDSEC
  0
EOF
