  0
SECTION
  2
HEADER
  9
$ACADVER
  1
AC1009
  9
$DWGCODEPAGE
  3
ansi_1250
  9
$INSBASE
 10
0.0
 20
0.0
 30
0.0
  9
$EXTMIN
 10
-549.8917743004985
 20
-0.0000000000000568
 30
-549.891774300498
  9
$EXTMAX
 10
549.8917743004982
 20
512.5165281968054
 30
549.8917743004985
  9
$LIMMIN
 10
0.0
 20
0.0
  9
$LIMMAX
 10
420.0
 20
297.0
  9
$ORTHOMODE
 70
     0
  9
$REGENMODE
 70
     1
  9
$FILLMODE
 70
     1
  9
$QTEXTMODE
 70
     0
  9
$MIRRTEXT
 70
     0
  9
$DRAGMODE
 70
     2
  9
$LTSCALE
 40
1.0
  9
$OSMODE
 70
   511
  9
$ATTMODE
 70
     1
  9
$TEXTSIZE
 40
2.5
  9
$TRACEWID
 40
1.0
  9
$TEXTSTYLE
  7
STANDARD
  9
$CLAYER
  8
0
  9
$CELTYPE
  6
BYLAYER
  9
$CECOLOR
 62
   256
  9
$DIMSCALE
 40
1.0
  9
$DIMASZ
 40
2.5
  9
$DIMEXO
 40
0.625
  9
$DIMDLI
 40
3.75
  9
$DIMRND
 40
0.0
  9
$DIMDLE
 40
0.0
  9
$DIMEXE
 40
1.25
  9
$DIMTP
 40
0.0
  9
$DIMTM
 40
0.0
  9
$DIMTXT
 40
2.5
  9
$DIMCEN
 40
-2.5
  9
$DIMTSZ
 40
0.0
  9
$DIMTOL
 70
     0
  9
$DIMLIM
 70
     0
  9
$DIMTIH
 70
     0
  9
$DIMTOH
 70
     0
  9
$DIMSE1
 70
     0
  9
$DIMSE2
 70
     0
  9
$DIMTAD
 70
     1
  9
$DIMZIN
 70
     8
  9
$DIMBLK
  1

  9
$DIMASO
 70
     1
  9
$DIMSHO
 70
     1
  9
$DIMPOST
  1

  9
$DIMAPOST
  1

  9
$DIMALT
 70
     0
  9
$DIMALTD
 70
     3
  9
$DIMALTF
 40
0.03937007874016
  9
$DIMLFAC
 40
1.0
  9
$DIMTOFL
 70
     1
  9
$DIMTVP
 40
0.0
  9
$DIMTIX
 70
     0
  9
$DIMSOXD
 70
     0
  9
$DIMSAH
 70
     0
  9
$DIMBLK1
  1

  9
$DIMBLK2
  1

  9
$DIMSTYLE
  2
ISO-25
  9
$DIMCLRD
 70
     0
  9
$DIMCLRE
 70
     0
  9
$DIMCLRT
 70
     0
  9
$DIMTFAC
 40
1.0
  9
$DIMGAP
 40
0.625
  9
$LUNITS
 70
     2
  9
$LUPREC
 70
     3
  9
$SKETCHINC
 40
1.0
  9
$FILLETRAD
 40
10.0
  9
$AUNITS
 70
     0
  9
$AUPREC
 70
     0
  9
$MENU
  1
.
  9
$ELEVATION
 40
0.0
  9
$PELEVATION
 40
0.0
  9
$THICKNESS
 40
0.0
  9
$LIMCHECK
 70
     0
  9
$CHAMFERA
 40
10.0
  9
$CHAMFERB
 40
10.0
  9
$SKPOLY
 70
     0
  9
$TDCREATE
 40
2455022.679026181
  9
$TDUPDATE
 40
2460333.401003368
  9
$TDINDWG
 40
0.0006589815
  9
$TDUSRTIMER
 40
0.0006589815
  9
$USRTIMER
 70
     1
  9
$ANGBASE
 50
0.0
  9
$ANGDIR
 70
     0
  9
$PDMODE
 70
     0
  9
$PDSIZE
 40
0.0
  9
$PLINEWID
 40
0.0
  9
$COORDS
 70
     1
  9
$SPLFRAME
 70
     0
  9
$SPLINETYPE
 70
     6
  9
$SPLINESEGS
 70
     8
  9
$ATTDIA
 70
     0
  9
$ATTREQ
 70
     1
  9
$HANDLING
 70
     1
  9
$HANDSEED
  5
1107
  9
$SURFTAB1
 70
     6
  9
$SURFTAB2
 70
     6
  9
$SURFTYPE
 70
     6
  9
$SURFU
 70
     6
  9
$SURFV
 70
     6
  9
$UCSNAME
  2

  9
$UCSORG
 10
0.0
 20
0.0
 30
0.0
  9
$UCSXDIR
 10
1.0
 20
0.0
 30
0.0
  9
$UCSYDIR
 10
0.0
 20
1.0
 30
0.0
  9
$PUCSNAME
  2

  9
$PUCSORG
 10
0.0
 20
0.0
 30
0.0
  9
$PUCSXDIR
 10
1.0
 20
0.0
 30
0.0
  9
$PUCSYDIR
 10
0.0
 20
1.0
 30
0.0
  9
$USERI1
 70
     0
  9
$USERI2
 70
     0
  9
$USERI3
 70
     0
  9
$USERI4
 70
     0
  9
$USERI5
 70
     0
  9
$USERR1
 40
0.0
  9
$USERR2
 40
0.0
  9
$USERR3
 40
0.0
  9
$USERR4
 40
0.0
  9
$USERR5
 40
0.0
  9
$WORLDVIEW
 70
     1
  9
$SHADEDGE
 70
     3
  9
$SHADEDIF
 70
    70
  9
$TILEMODE
 70
     1
  9
$MAXACTVP
 70
    64
  9
$PLIMCHECK
 70
     0
  9
$PEXTMIN
 10
1.000000000000000E+20
 20
1.000000000000000E+20
 30
1.000000000000000E+20
  9
$PEXTMAX
 10
-1.000000000000000E+20
 20
-1.000000000000000E+20
 30
-1.000000000000000E+20
  9
$PLIMMIN
 10
0.0
 20
0.0
  9
$PLIMMAX
 10
0.0
 20
0.0
  9
$UNITMODE
 70
     0
  9
$VISRETAIN
 70
     1
  9
$PLINEGEN
 70
     0
  9
$PSLTSCALE
 70
     1
  0
ENDSEC
  0
SECTION
  2
TABLES
  0
TABLE
  2
VPORT
 70
     1
  0
VPORT
  2
*ACTIVE
 70
     0
 10
0.0
 20
0.0
 11
1.0
 21
1.0
 12
1295.182407006618
 22
-207.7324451939958
 13
0.0
 23
0.0
 14
10.0
 24
10.0
 15
10.0
 25
10.0
 16
0.0
 26
0.0
 36
1.0
 17
-134.1869158878503
 27
0.0
 37
0.0
 40
1577.7792
 41
2.786516853932584
 42
50.0
 43
0.0
 44
0.0
 50
0.0
 51
0.0
 71
    16
 72
  1000
 73
     1
 74
     3
 75
     0
 76
     0
 77
     0
 78
     0
  0
ENDTAB
  0
TABLE
  2
LTYPE
 70
     1
  0
LTYPE
  2
CONTINUOUS
 70
     0
  3
Solid line
 72
    65
 73
     0
 40
0.0
  0
ENDTAB
  0
TABLE
  2
LAYER
 70
     1
  0
LAYER
  2
0
 70
     0
 62
     7
  6
CONTINUOUS
  0
ENDTAB
  0
TABLE
  2
STYLE
 70
     2
  0
STYLE
  2
STANDARD
 70
     0
 40
0.0
 41
1.0
 50
0.0
 71
     0
 42
2.5
  3
arial.ttf
  4

  0
STYLE
  2
ANNOTATIVE
 70
     0
 40
0.0
 41
1.0
 50
0.0
 71
     0
 42
2.5
  3
arial.ttf
  4

  0
ENDTAB
  0
TABLE
  2
VIEW
 70
     0
  0
ENDTAB
  0
TABLE
  2
UCS
 70
     0
  0
ENDTAB
  0
TABLE
  2
APPID
 70
     2
  0
APPID
  2
ACAD
 70
     0
  0
APPID
  2
ACADANNOTATIVE
 70
     0
  0
ENDTAB
  0
TABLE
  2
DIMSTYLE
 70
     2
  0
DIMSTYLE
  2
ISO-25
 70
     0
  3

  4

  5

  6

  7

 40
1.0
 41
2.5
 42
0.625
 43
3.75
 44
1.25
 45
0.0
 46
0.0
 47
0.0
 48
0.0
140
2.5
141
-2.5
142
0.0
143
0.03937007874016
144
1.0
145
0.0
146
1.0
147
0.625
 71
     0
 72
     0
 73
     0
 74
     0
 75
     0
 76
     0
 77
     1
 78
     8
170
     0
171
     3
172
     1
173
     0
174
     0
175
     0
176
     0
177
     0
178
     0
  0
DIMSTYLE
  2
ANNOTATIVE
 70
     0
  3

  4

  5

  6

  7

 40
0.0
 41
2.5
 42
0.625
 43
3.75
 44
1.25
 45
0.0
 46
0.0
 47
0.0
 48
0.0
140
2.5
141
-2.5
142
0.0
143
0.03937007874016
144
1.0
145
0.0
146
1.0
147
0.625
 71
     0
 72
     0
 73
     0
 74
     0
 75
     0
 76
     0
 77
     1
 78
     8
170
     0
171
     3
172
     1
173
     0
174
     0
175
     0
176
     0
177
     0
178
     0
  0
ENDTAB
  0
ENDSEC
  0
SECTION
  2
BLOCKS
  0
BLOCK
  8
0
  2
$MODEL_SPACE
 70
     0
 10
0.0
 20
0.0
 30
0.0
  3
$MODEL_SPACE
  1

  0
ENDBLK
  5
21
  8
0
  0
BLOCK
 67
     1
  8
0
  2
$PAPER_SPACE
 70
     0
 10
0.0
 20
0.0
 30
0.0
  3
$PAPER_SPACE
  1

  0
ENDBLK
  5
1D
 67
     1
  8
0
  0
BLOCK
  8
0
  2
*X1
 70
     1
 10
0.0
 20
0.0
 30
0.0
  3
*X1
  1

  0
POLYLINE
  5
8EB
  8
0
 66
     1
 10
0.0
 20
0.0
 30
0.0
 70
    64
 71
    15
 72
    13
  0
VERTEX
  5
8EC
  8
0
 10
-0.0149075351547255
 20
18.12669193498856
 30
42.27839888909846
 70
   192
  0
VERTEX
  5
8ED
  8
0
 10
-0.0137474785930389
 20
17.85839500772989
 30
41.60483469354428
 70
   192
  0
VERTEX
  5
8EE
  8
0
 10
-35.49510205571242
 20
17.72664904937647
 30
20.48722301582497
 70
   192
  0
VERTEX
  5
8EF
  8
0
 10
-0.0072403556855604
 20
17.7266490530796
 30
40.98534973427265
 70
   192
  0
VERTEX
  5
8F0
  8
0
 10
-35.49147911854085
 20
17.72664904937647
 30
-20.4934929973921
 70
   192
  0
VERTEX
  5
8F1
  8
0
 10
-0.0000000000000026
 20
17.72664904937645
 30
-40.98535097287595
 70
   192
  0
VERTEX
  5
8F2
  8
0
 10
-0.0000000000000001
 20
18.12625304015187
 30
-42.27760785508507
 70
   192
  0
VERTEX
  5
8F3
  8
0
 10
0.0
 20
19.15754118315957
 30
-43.18797138371929
 70
   192
  0
VERTEX
  5
8F4
  8
0
 10
-37.59987955621962
 20
20.51633416976453
 30
-21.71125627936499
 70
   192
  0
VERTEX
  5
8F5
  8
0
 10
-37.60371371385546
 20
20.51633416055134
 30
21.70461487230213
 70
   192
  0
VERTEX
  5
8F6
  8
0
 10
-0.0076687293390272
 20
20.51633418407815
 30
43.41821041154985
 70
   192
  0
VERTEX
  5
8F7
  8
0
 10
-0.014307727177302
 20
19.83135821026785
 30
43.35997336487378
 70
   192
  0
VERTEX
  5
8F8
  8
0
 10
-0.0152260252156911
 20
19.15833547101122
 30
43.18828116758545
 70
   192
  0
VERTEX
  5
8F9
  8
0
 10
-0.0151340832291933
 20
18.56912734959032
 30
42.83710509687927
 70
   192
  0
VERTEX
  5
8FA
  8
0
 10
0.0000000000000063
 20
20.5163341789777
 30
-43.4182117149583
 70
   192
  0
VERTEX
  5
8FB
  8
0
 10
0.0
 20
0.0
 30
0.0
 70
   128
 71
     1
 72
     2
 73
     3
  0
VERTEX
  5
8FC
  8
0
 10
0.0
 20
0.0
 30
0.0
 70
   128
 71
     2
 72
     4
 73
     3
  0
VERTEX
  5
8FD
  8
0
 10
0.0
 20
0.0
 30
0.0
 70
   128
 71
     5
 72
     6
 73
     7
  0
VERTEX
  5
8FE
  8
0
 10
0.0
 20
0.0
 30
0.0
 70
   128
 71
     8
 72
     9
 73
     5
  0
VERTEX
  5
8FF
  8
0
 10
0.0
 20
0.0
 30
0.0
 70
   128
 71
     7
 72
     8
 73
     5
  0
VERTEX
  5
900
  8
0
 10
0.0
 20
0.0
 30
0.0
 70
   128
 71
    10
 72
    11
 73
    12
  0
VERTEX
  5
901
  8
0
 10
0.0
 20
0.0
 30
0.0
 70
   128
 71
    12
 72
    13
 73
    10
  0
VERTEX
  5
902
  8
0
 10
0.0
 20
0.0
 30
0.0
 70
   128
 71
    13
 72
    14
 73
    10
  0
VERTEX
  5
903
  8
0
 10
0.0
 20
0.0
 30
0.0
 70
   128
 71
     3
 72
    10
 73
    14
  0
VERTEX
  5
904
  8
0
 10
0.0
 20
0.0
 30
0.0
 70
   128
 71
    14
 72
     1
 73
     3
  0
VERTEX
  5
905
  8
0
 10
0.0
 20
0.0
 30
0.0
 70
   128
 71
     9
 72
    10
 73
     3
  0
VERTEX
  5
906
  8
0
 10
0.0
 20
0.0
 30
0.0
 70
   128
 71
     5
 72
     9
 73
     3
  0
VERTEX
  5
907
  8
0
 10
0.0
 20
0.0
 30
0.0
 70
   128
 71
     8
 72
    15
 73
     9
  0
SEQEND
  5
10C9
  8
0
  0
POLYLINE
  5
908
  8
0
 66
     1
 10
0.0
 20
0.0
 30
0.0
 70
    64
 71
     6
 72
     4
  0
VERTEX
  5
909
  8
0
 10
-0.0151340832291933
 20
18.56912734959032
 30
42.83710509687927
 70
   192
  0
VERTEX
  5
90A
  8
0
 10
-0.0152260252156911
 20
19.15833547101122
 30
43.18828116758545
 70
   192
  0
VERTEX
  5
90B
  8
0
 10
-0.014307727177302
 20
19.83135821026785
 30
43.35997336487378
 70
   192
  0
VERTEX
  5
90C
  8
0
 10
-0.0152258304785148
 20
19.1583354710112
 30
43.18828116762116
 70
   192
  0
VERTEX
  5
90D
  8
0
 10
-0.0143061721532474
 20
19.83135821026758
 30
43.35997336515874
 70
   192
  0
VERTEX
  5
90E
  8
0
 10
-0.0076687293390272
 20
20.51633418407815
 30
43.41821041154985
 70
   192
  0
VERTEX
  5
90F
  8
0
 10
0.0
 20
0.0
 30
0.0
 70
   128
 71
     1
 72
     2
 73
     3
  0
VERTEX
  5
910
  8
0
 10
0.0
 20
0.0
 30
0.0
 70
   128
 71
     3
 72
     1
 73
     4
  0
VERTEX
  5
911
  8
0
 10
0.0
 20
0.0
 30
0.0
 70
   128
 71
     5
 72
     4
 73
     3
  0
VERTEX
  5
912
  8
0
 10
0.0
 20
0.0
 30
0.0
 70
   128
 71
     5
 72
     3
 73
     6
  0
SEQEND
  5
10CA
  8
0
  0
POLYLINE
  5
913
  8
0
 66
     1
 10
0.0
 20
0.0
 30
0.0
 70
    64
 71
    22
 72
    20
  0
VERTEX
  5
914
  8
0
 10
0.0000000000000607
 20
512.5165281968051
 30
537.618587939441
 70
   192
  0
VERTEX
  5
915
  8
0
 10
-0.000000000000026
 20
512.5165281968051
 30
-537.618587939441
 70
   192
  0
VERTEX
  5
916
  8
0
 10
0.000000000000031
 20
509.830113586608
 30
-534.635022253336
 70
   192
  0
VERTEX
  5
917
  8
0
 10
-0.0000000000000308
 20
509.830113586608
 30
534.635022253336
 70
   192
  0
VERTEX
  5
918
  8
0
 10
-534.635022253336
 20
509.8301135866083
 30
0.000000000001803
 70
   192
  0
VERTEX
  5
919
  8
0
 10
-537.618587939441
 20
512.5165281968051
 30
-0.0000000000009504
 70
   192
  0
VERTEX
  5
91A
  8
0
 10
-378.044049695153
 20
509.8301135866083
 30
378.0440496951564
 70
   192
  0
VERTEX
  5
91B
  8
0
 10
-380.1537492239153
 20
512.5165281968051
 30
380.1537492239145
 70
   192
  0
VERTEX
  5
91C
  8
0
 10
-378.0440496951557
 20
509.8301135866082
 30
-378.0440496951538
 70
   192
  0
VERTEX
  5
91D
  8
0
 10
-380.1537492239158
 20
512.5165281968051
 30
-380.1537492239137
 70
   192
  0
VERTEX
  5
91E
  8
0
 10
0.0000000000000636
 20
512.3173452207504
 30
536.0779308649977
 70
   192
  0
VERTEX
  5
91F
  8
0
 10
0.0000000000000608
 20
511.3415104899995
 30
534.9941566006213
 70
   192
  0
VERTEX
  5
920
  8
0
 10
-204.5959653784911
 20
509.8301135866083
 30
493.9383544235744
 70
   192
  0
VERTEX
  5
921
  8
0
 10
-205.7377265359373
 20
512.5165281968051
 30
496.694809694869
 70
   192
  0
VERTEX
  5
922
  8
0
 10
-493.9383544235727
 20
509.8301135866083
 30
204.5959653784947
 70
   192
  0
VERTEX
  5
923
  8
0
 10
-496.6948096948685
 20
512.5165281968051
 30
205.7377265359387
 70
   192
  0
VERTEX
  5
924
  8
0
 10
-493.9383544235742
 20
509.8301135866083
 30
-204.5959653784913
 70
   192
  0
VERTEX
  5
925
  8
0
 10
-496.694809694869
 20
512.5165281968051
 30
-205.7377265359373
 70
   192
  0
VERTEX
  5
926
  8
0
 10
-204.5959653784938
 20
509.8301135866083
 30
-493.9383544235732
 70
   192
  0
VERTEX
  5
927
  8
0
 10
-0.000000000000004
 20
511.3415104899995
 30
-534.9941566006213
 70
   192
  0
VERTEX
  5
928
  8
0
 10
-0.0000000000000026
 20
512.3173452207504
 30
-536.0779308649977
 70
   192
  0
VERTEX
  5
929
  8
0
 10
-205.7377265359387
 20
512.5165281968051
 30
-496.694809694868
 70
   192
  0
VERTEX
  5
92A
  8
0
 10
0.0
 20
0.0
 30
0.0
 70
   128
 71
     7
 72
     8
 73
   -14
  0
VERTEX
  5
92B
  8
0
 10
0.0
 20
0.0
 30
0.0
 70
   128
 71
    13
 72
    -7
 73
    14
  0
VERTEX
  5
92C
  8
0
 10
0.0
 20
0.0
 30
0.0
 70
   128
 71
    14
 72
     1
 73
    11
  0
VERTEX
  5
92D
  8
0
 10
0.0
 20
0.0
 30
0.0
 70
   128
 71
    12
 72
    13
 73
    14
  0
VERTEX
  5
92E
  8
0
 10
0.0
 20
0.0
 30
0.0
 70
   128
 71
    11
 72
    12
 73
    14
  0
VERTEX
  5
92F
  8
0
 10
0.0
 20
0.0
 30
0.0
 70
   128
 71
    12
 72
     4
 73
    13
  0
VERTEX
  5
930
  8
0
 10
0.0
 20
0.0
 30
0.0
 70
   128
 71
     5
 72
     6
 73
   -16
  0
VERTEX
  5
931
  8
0
 10
0.0
 20
0.0
 30
0.0
 70
   128
 71
    15
 72
    -5
 73
    16
  0
VERTEX
  5
932
  8
0
 10
0.0
 20
0.0
 30
0.0
 70
   128
 71
     8
 72
     7
 73
   -15
  0
VERTEX
  5
933
  8
0
 10
0.0
 20
0.0
 30
0.0
 70
   128
 71
    16
 72
    -8
 73
    15
  0
VERTEX
  5
934
  8
0
 10
0.0
 20
0.0
 30
0.0
 70
   128
 71
     9
 72
    10
 73
   -18
  0
VERTEX
  5
935
  8
0
 10
0.0
 20
0.0
 30
0.0
 70
   128
 71
    17
 72
    -9
 73
    18
  0
VERTEX
  5
936
  8
0
 10
0.0
 20
0.0
 30
0.0
 70
   128
 71
     6
 72
     5
 73
   -17
  0
VERTEX
  5
937
  8
0
 10
0.0
 20
0.0
 30
0.0
 70
   128
 71
    18
 72
    -6
 73
    17
  0
VERTEX
  5
938
  8
0
 10
0.0
 20
0.0
 30
0.0
 70
   128
 71
    19
 72
     3
 73
    20
  0
VERTEX
  5
939
  8
0
 10
0.0
 20
0.0
 30
0.0
 70
   128
 71
    21
 72
    22
 73
    19
  0
VERTEX
  5
93A
  8
0
 10
0.0
 20
0.0
 30
0.0
 70
   128
 71
    20
 72
    21
 73
    19
  0
VERTEX
  5
93B
  8
0
 10
0.0
 20
0.0
 30
0.0
 70
   128
 71
    21
 72
     2
 73
    22
  0
VERTEX
  5
93C
  8
0
 10
0.0
 20
0.0
 30
0.0
 70
   128
 71
    10
 72
     9
 73
   -19
  0
VERTEX
  5
93D
  8
0
 10
0.0
 20
0.0
 30
0.0
 70
   128
 71
    22
 72
   -10
 73
    19
  0
SEQEND
  5
10CB
  8
0
  0
POLYLINE
  5
93E
  8
0
 66
     1
 10
0.0
 20
0.0
 30
0.0
 70
    64
 71
    22
 72
    20
  0
VERTEX
  5
93F
  8
0
 10
0.0000000000000312
 20
511.411999733537
 30
549.883909380539
 70
   192
  0
VERTEX
  5
940
  8
0
 10
0.0000000000000094
 20
511.411999733537
 30
-549.883909380539
 70
   192
  0
VERTEX
  5
941
  8
0
 10
-0.0000000000000208
 20
512.5165281968051
 30
-548.889387485171
 70
   192
  0
VERTEX
  5
942
  8
0
 10
0.0000000000000711
 20
512.5165281968051
 30
548.889387485171
 70
   192
  0
VERTEX
  5
943
  8
0
 10
-548.8893874851706
 20
512.5165281968051
 30
-0.0000000000009006
 70
   192
  0
VERTEX
  5
944
  8
0
 10
-549.8839093805392
 20
511.4119997335375
 30
0.000000000001279
 70
   192
  0
VERTEX
  5
945
  8
0
 10
-388.123408012095
 20
512.5165281968051
 30
388.1234080120945
 70
   192
  0
VERTEX
  5
946
  8
0
 10
-388.826641188347
 20
511.4119997335375
 30
388.8266411883495
 70
   192
  0
VERTEX
  5
947
  8
0
 10
-388.1234080120958
 20
512.5165281968051
 30
-388.1234080120938
 70
   192
  0
VERTEX
  5
948
  8
0
 10
-388.8266411883492
 20
511.4119997335375
 30
-388.8266411883473
 70
   192
  0
VERTEX
  5
949
  8
0
 10
-210.0508747915978
 20
512.5165281968051
 30
-507.107670710206
 70
   192
  0
VERTEX
  5
94A
  8
0
 10
-210.4314618440801
 20
511.4119997335375
 30
-508.0264891339705
 70
   192
  0
VERTEX
  5
94B
  8
0
 10
-507.1076707102064
 20
512.5165281968051
 30
-210.050874791596
 70
   192
  0
VERTEX
  5
94C
  8
0
 10
-508.0264891339717
 20
511.4119997335374
 30
-210.4314618440774
 70
   192
  0
VERTEX
  5
94D
  8
0
 10
-507.107670710206
 20
512.5165281968051
 30
210.0508747915978
 70
   192
  0
VERTEX
  5
94E
  8
0
 10
-508.0264891339708
 20
511.4119997335375
 30
210.43146184408
 70
   192
  0
VERTEX
  5
94F
  8
0
 10
-210.050874791596
 20
512.5165281968051
 30
507.1076707102064
 70
   192
  0
VERTEX
  5
950
  8
0
 10
-210.4314618440773
 20
511.4119997335375
 30
508.0264891339718
 70
   192
  0
VERTEX
  5
951
  8
0
 10
0.0000000000000009
 20
512.4288520551482
 30
-549.4926581203961
 70
   192
  0
VERTEX
  5
952
  8
0
 10
-0.0000000000000027
 20
512.0211302414546
 30
-549.8597724903946
 70
   192
  0
VERTEX
  5
953
  8
0
 10
0.0000000000000621
 20
512.0211302414546
 30
549.8597724903949
 70
   192
  0
VERTEX
  5
954
  8
0
 10
0.0000000000000624
 20
512.4288520551482
 30
549.4926581203961
 70
   192
  0
VERTEX
  5
955
  8
0
 10
0.0
 20
0.0
 30
0.0
 70
   128
 71
    12
 72
    10
 73
    -9
  0
VERTEX
  5
956
  8
0
 10
0.0
 20
0.0
 30
0.0
 70
   128
 71
    11
 72
   -12
 73
     9
  0
VERTEX
  5
957
  8
0
 10
0.0
 20
0.0
 30
0.0
 70
   128
 71
    11
 72
     3
 73
    19
  0
VERTEX
  5
958
  8
0
 10
0.0
 20
0.0
 30
0.0
 70
   128
 71
    20
 72
    12
 73
    11
  0
VERTEX
  5
959
  8
0
 10
0.0
 20
0.0
 30
0.0
 70
   128
 71
    19
 72
    20
 73
    11
  0
VERTEX
  5
95A
  8
0
 10
0.0
 20
0.0
 30
0.0
 70
   128
 71
    20
 72
     2
 73
    12
  0
VERTEX
  5
95B
  8
0
 10
0.0
 20
0.0
 30
0.0
 70
   128
 71
    14
 72
     6
 73
    -5
  0
VERTEX
  5
95C
  8
0
 10
0.0
 20
0.0
 30
0.0
 70
   128
 71
    13
 72
   -14
 73
     5
  0
VERTEX
  5
95D
  8
0
 10
0.0
 20
0.0
 30
0.0
 70
   128
 71
    10
 72
    14
 73
   -13
  0
VERTEX
  5
95E
  8
0
 10
0.0
 20
0.0
 30
0.0
 70
   128
 71
     9
 72
   -10
 73
    13
  0
VERTEX
  5
95F
  8
0
 10
0.0
 20
0.0
 30
0.0
 70
   128
 71
    16
 72
     8
 73
    -7
  0
VERTEX
  5
960
  8
0
 10
0.0
 20
0.0
 30
0.0
 70
   128
 71
    15
 72
   -16
 73
     7
  0
VERTEX
  5
961
  8
0
 10
0.0
 20
0.0
 30
0.0
 70
   128
 71
     6
 72
    16
 73
   -15
  0
VERTEX
  5
962
  8
0
 10
0.0
 20
0.0
 30
0.0
 70
   128
 71
     5
 72
    -6
 73
    15
  0
VERTEX
  5
963
  8
0
 10
0.0
 20
0.0
 30
0.0
 70
   128
 71
    18
 72
     1
 73
    21
  0
VERTEX
  5
964
  8
0
 10
0.0
 20
0.0
 30
0.0
 70
   128
 71
    18
 72
    21
 73
    22
  0
VERTEX
  5
965
  8
0
 10
0.0
 20
0.0
 30
0.0
 70
   128
 71
    17
 72
    18
 73
    22
  0
VERTEX
  5
966
  8
0
 10
0.0
 20
0.0
 30
0.0
 70
   128
 71
    22
 72
     4
 73
    17
  0
VERTEX
  5
967
  8
0
 10
0.0
 20
0.0
 30
0.0
 70
   128
 71
     8
 72
    18
 73
   -17
  0
VERTEX
  5
968
  8
0
 10
0.0
 20
0.0
 30
0.0
 70
   128
 71
     7
 72
    -8
 73
    17
  0
SEQEND
  5
10CC
  8
0
  0
POLYLINE
  5
969
  8
0
 66
     1
 10
0.0
 20
0.0
 30
0.0
 70
    64
 71
    12
 72
    10
  0
VERTEX
  5
96A
  8
0
 10
-37.98040385347456
 20
28.8722898472076
 30
-21.92800044006018
 70
   192
  0
VERTEX
  5
96B
  8
0
 10
-40.48424017394228
 20
31.71345445953605
 30
-23.37359128077026
 70
   192
  0
VERTEX
  5
96C
  8
0
 10
-40.4842401739421
 20
31.71345445953604
 30
23.37359128077057
 70
   192
  0
VERTEX
  5
96D
  8
0
 10
0.0000000000000024
 20
31.71345445953605
 30
46.747318909474
 70
   192
  0
VERTEX
  5
96E
  8
0
 10
0.0000000000000056
 20
31.45492205821579
 30
45.19325962690571
 70
   192
  0
VERTEX
  5
96F
  8
0
 10
0.0000000000000054
 20
30.42160042647478
 30
44.14174389512805
 70
   192
  0
VERTEX
  5
970
  8
0
 10
0.0000000000000002
 20
31.45492205821581
 30
-45.19325962690571
 70
   192
  0
VERTEX
  5
971
  8
0
 10
-0.0000000000000002
 20
31.71345445953605
 30
-46.747318909474
 70
   192
  0
VERTEX
  5
972
  8
0
 10
-0.000000000000003
 20
28.8722898472076
 30
43.85612879531774
 70
   192
  0
VERTEX
  5
973
  8
0
 10
-37.98040385347442
 20
28.8722898472076
 30
21.92800044006041
 70
   192
  0
VERTEX
  5
974
  8
0
 10
0.0000000000000027
 20
28.8722898472076
 30
-43.85612879531774
 70
   192
  0
VERTEX
  5
975
  8
0
 10
0.0
 20
30.4216004264748
 30
-44.14174389512805
 70
   192
  0
VERTEX
  5
976
  8
0
 10
0.0
 20
0.0
 30
0.0
 70
   128
 71
     1
 72
     2
 73
    -3
  0
VERTEX
  5
977
  8
0
 10
0.0
 20
0.0
 30
0.0
 70
   128
 71
     3
 72
     4
 73
     5
  0
VERTEX
  5
978
  8
0
 10
0.0
 20
0.0
 30
0.0
 70
   128
 71
     5
 72
     6
 73
     3
  0
VERTEX
  5
979
  8
0
 10
0.0
 20
0.0
 30
0.0
 70
   128
 71
     7
 72
     8
 73
     2
  0
VERTEX
  5
97A
  8
0
 10
0.0
 20
0.0
 30
0.0
 70
   128
 71
     3
 72
     6
 73
     9
  0
VERTEX
  5
97B
  8
0
 10
0.0
 20
0.0
 30
0.0
 70
   128
 71
    10
 72
     3
 73
     9
  0
VERTEX
  5
97C
  8
0
 10
0.0
 20
0.0
 30
0.0
 70
   128
 71
    -1
 72
     3
 73
    10
  0
VERTEX
  5
97D
  8
0
 10
0.0
 20
0.0
 30
0.0
 70
   128
 71
     1
 72
    11
 73
    12
  0
VERTEX
  5
97E
  8
0
 10
0.0
 20
0.0
 30
0.0
 70
   128
 71
     7
 72
     2
 73
     1
  0
VERTEX
  5
97F
  8
0
 10
0.0
 20
0.0
 30
0.0
 70
   128
 71
    12
 72
     7
 73
     1
  0
SEQEND
  5
10CD
  8
0
  0
POLYLINE
  5
980
  8
0
 66
     1
 10
0.0
 20
0.0
 30
0.0
 70
    64
 71
    12
 72
    10
  0
VERTEX
  5
981
  8
0
 10
-35.49510205571242
 20
17.72664904937647
 30
20.48722301582497
 70
   192
  0
VERTEX
  5
982
  8
0
 10
-0.0072403556855622
 20
17.7266490530796
 30
40.98534973427265
 70
   192
  0
VERTEX
  5
983
  8
0
 10
0.0000000000000049
 20
17.36437044768645
 30
39.74071956670129
 70
   192
  0
VERTEX
  5
984
  8
0
 10
0.0000000000000047
 20
16.78195702602077
 30
38.59181939802251
 70
   192
  0
VERTEX
  5
985
  8
0
 10
-32.53955750341461
 20
16.10389472654151
 30
18.78672575486509
 70
   192
  0
VERTEX
  5
986
  8
0
 10
-0.000000000000002
 20
16.1038947265415
 30
37.57356110055824
 70
   192
  0
VERTEX
  5
987
  8
0
 10
-35.49147911854085
 20
17.72664904937647
 30
-20.4934929973921
 70
   192
  0
VERTEX
  5
988
  8
0
 10
-32.53955750341472
 20
16.10389472654151
 30
-18.78672575486494
 70
   192
  0
VERTEX
  5
989
  8
0
 10
0.0000000000000023
 20
16.1038947265415
 30
-37.57356110055824
 70
   192
  0
VERTEX
  5
98A
  8
0
 10
0.0000000000000001
 20
16.78195702602076
 30
-38.59181939802252
 70
   192
  0
VERTEX
  5
98B
  8
0
 10
0.0000000000000001
 20
17.36437044768645
 30
-39.74071956670131
 70
   192
  0
VERTEX
  5
98C
  8
0
 10
-0.0000000000000026
 20
17.72664904937645
 30
-40.98535097287595
 70
   192
  0
VERTEX
  5
98D
  8
0
 10
0.0
 20
0.0
 30
0.0
 70
   128
 71
     1
 72
     2
 73
     3
  0
VERTEX
  5
98E
  8
0
 10
0.0
 20
0.0
 30
0.0
 70
   128
 71
     4
 72
     5
 73
     1
  0
VERTEX
  5
98F
  8
0
 10
0.0
 20
0.0
 30
0.0
 70
   128
 71
     3
 72
     4
 73
     1
  0
VERTEX
  5
990
  8
0
 10
0.0
 20
0.0
 30
0.0
 70
   128
 71
     4
 72
     6
 73
     5
  0
VERTEX
  5
991
  8
0
 10
0.0
 20
0.0
 30
0.0
 70
   128
 71
     7
 72
     1
 73
     5
  0
VERTEX
  5
992
  8
0
 10
0.0
 20
0.0
 30
0.0
 70
   128
 71
     8
 72
     7
 73
     5
  0
VERTEX
  5
993
  8
0
 10
0.0
 20
0.0
 30
0.0
 70
   128
 71
     8
 72
     9
 73
    10
  0
VERTEX
  5
994
  8
0
 10
0.0
 20
0.0
 30
0.0
 70
   128
 71
    10
 72
    11
 73
     8
  0
VERTEX
  5
995
  8
0
 10
0.0
 20
0.0
 30
0.0
 70
   128
 71
    12
 72
     7
 73
     8
  0
VERTEX
  5
996
  8
0
 10
0.0
 20
0.0
 30
0.0
 70
   128
 71
    11
 72
    12
 73
     8
  0
SEQEND
  5
10CE
  8
0
  0
POLYLINE
  5
997
  8
0
 66
     1
 10
0.0
 20
0.0
 30
0.0
 70
    64
 71
    22
 72
    20
  0
VERTEX
  5
998
  8
0
 10
-167.7105532181857
 20
11.76962104263045
 30
404.5311899017801
 70
   192
  0
VERTEX
  5
999
  8
0
 10
-174.6007130985384
 20
36.69618859201257
 30
421.1508338485968
 70
   192
  0
VERTEX
  5
99A
  8
0
 10
-322.4630734217034
 20
36.6961885920126
 30
322.290242115206
 70
   192
  0
VERTEX
  5
99B
  8
0
 10
-309.7379003950775
 20
11.7696210399984
 30
309.571875858818
 70
   192
  0
VERTEX
  5
99C
  8
0
 10
-0.156529432453962
 20
11.76962104526246
 30
437.9181302056795
 70
   192
  0
VERTEX
  5
99D
  8
0
 10
-0.1572326147248339
 20
22.51794231956358
 30
439.9007672300945
 70
   192
  0
VERTEX
  5
99E
  8
0
 10
-0.1595563276748674
 20
31.49922921685473
 30
446.4151909086597
 70
   192
  0
VERTEX
  5
99F
  8
0
 10
-0.1629469169273355
 20
36.69618860061835
 30
455.909428847812
 70
   192
  0
VERTEX
  5
9A0
  8
0
 10
-404.6210514248685
 20
11.76962103736635
 30
167.4936357224673
 70
   192
  0
VERTEX
  5
9A1
  8
0
 10
-421.2443795986371
 20
36.69618859201262
 30
174.3749023068103
 70
   192
  0
VERTEX
  5
9A2
  8
0
 10
-421.182029259658
 20
36.69618859201258
 30
-174.5254484253551
 70
   192
  0
VERTEX
  5
9A3
  8
0
 10
-404.5611566644375
 20
11.76962103210225
 30
-167.6382527397181
 70
   192
  0
VERTEX
  5
9A4
  8
0
 10
-437.9181511859595
 20
11.7696210347343
 30
-0.078264717474533
 70
   192
  0
VERTEX
  5
9A5
  8
0
 10
-455.9094507378215
 20
36.69618859201258
 30
-0.0814734597587901
 70
   192
  0
VERTEX
  5
9A6
  8
0
 10
-174.4501781606563
 20
36.69618859201262
 30
-421.2132111766988
 70
   192
  0
VERTEX
  5
9A7
  8
0
 10
-0.0000000000000225
 20
36.69618858340705
 30
-455.909458021265
 70
   192
  0
VERTEX
  5
9A8
  8
0
 10
0.000000000000001
 20
31.49922918440043
 30
-446.4152194273466
 70
   192
  0
VERTEX
  5
9A9
  8
0
 10
0.0000000000000056
 20
22.51794228455042
 30
-439.9007953279877
 70
   192
  0
VERTEX
  5
9AA
  8
0
 10
-167.5659469069275
 20
11.76962102683815
 30
-404.591110505501
 70
   192
  0
VERTEX
  5
9AB
  8
0
 10
0.0000000000000255
 20
11.76962102420606
 30
-437.918158178772
 70
   192
  0
VERTEX
  5
9AC
  8
0
 10
-309.6272272605933
 20
11.76962102947021
 30
-309.6825687732661
 70
   192
  0
VERTEX
  5
9AD
  8
0
 10
-322.3478628788856
 20
36.69618859201257
 30
-322.405473314995
 70
   192
  0
VERTEX
  5
9AE
  8
0
 10
0.0
 20
0.0
 30
0.0
 70
   128
 71
     1
 72
     2
 73
     3
  0
VERTEX
  5
9AF
  8
0
 10
0.0
 20
0.0
 30
0.0
 70
   128
 71
     4
 72
     1
 73
     3
  0
VERTEX
  5
9B0
  8
0
 10
0.0
 20
0.0
 30
0.0
 70
   128
 71
     1
 72
     5
 73
     6
  0
VERTEX
  5
9B1
  8
0
 10
0.0
 20
0.0
 30
0.0
 70
   128
 71
     7
 72
     2
 73
     1
  0
VERTEX
  5
9B2
  8
0
 10
0.0
 20
0.0
 30
0.0
 70
   128
 71
     6
 72
     7
 73
     1
  0
VERTEX
  5
9B3
  8
0
 10
0.0
 20
0.0
 30
0.0
 70
   128
 71
     7
 72
     8
 73
     2
  0
VERTEX
  5
9B4
  8
0
 10
0.0
 20
0.0
 30
0.0
 70
   128
 71
     9
 72
     4
 73
    10
  0
VERTEX
  5
9B5
  8
0
 10
0.0
 20
0.0
 30
0.0
 70
   128
 71
    11
 72
    12
 73
    13
  0
VERTEX
  5
9B6
  8
0
 10
0.0
 20
0.0
 30
0.0
 70
   128
 71
    14
 72
    11
 73
    13
  0
VERTEX
  5
9B7
  8
0
 10
0.0
 20
0.0
 30
0.0
 70
   128
 71
    15
 72
    16
 73
    17
  0
VERTEX
  5
9B8
  8
0
 10
0.0
 20
0.0
 30
0.0
 70
   128
 71
    18
 72
    19
 73
    15
  0
VERTEX
  5
9B9
  8
0
 10
0.0
 20
0.0
 30
0.0
 70
   128
 71
    17
 72
    18
 73
    15
  0
VERTEX
  5
9BA
  8
0
 10
0.0
 20
0.0
 30
0.0
 70
   128
 71
    18
 72
    20
 73
    19
  0
VERTEX
  5
9BB
  8
0
 10
0.0
 20
0.0
 30
0.0
 70
   128
 71
    15
 72
    19
 73
    21
  0
VERTEX
  5
9BC
  8
0
 10
0.0
 20
0.0
 30
0.0
 70
   128
 71
    22
 72
    15
 73
    21
  0
VERTEX
  5
9BD
  8
0
 10
0.0
 20
0.0
 30
0.0
 70
   128
 71
    10
 72
     4
 73
     3
  0
VERTEX
  5
9BE
  8
0
 10
0.0
 20
0.0
 30
0.0
 70
   128
 71
    13
 72
     9
 73
    10
  0
VERTEX
  5
9BF
  8
0
 10
0.0
 20
0.0
 30
0.0
 70
   128
 71
    14
 72
    13
 73
    10
  0
VERTEX
  5
9C0
  8
0
 10
0.0
 20
0.0
 30
0.0
 70
   128
 71
    21
 72
    12
 73
    11
  0
VERTEX
  5
9C1
  8
0
 10
0.0
 20
0.0
 30
0.0
 70
   128
 71
    22
 72
    21
 73
    11
  0
SEQEND
  5
10CF
  8
0
  0
POLYLINE
  5
9C2
  8
0
 66
     1
 10
0.0
 20
0.0
 30
0.0
 70
    64
 71
    25
 72
    23
  0
VERTEX
  5
9C3
  8
0
 10
-194.6196537307152
 20
118.2951507991801
 30
469.8534075410525
 70
   192
  0
VERTEX
  5
9C4
  8
0
 10
-359.6102294124848
 20
118.2951507991801
 30
359.6102294124873
 70
   192
  0
VERTEX
  5
9C5
  8
0
 10
-174.6007130985384
 20
36.69618859201257
 30
421.1508338485968
 70
   192
  0
VERTEX
  5
9C6
  8
0
 10
-0.1629469169273355
 20
36.69618860061835
 30
455.909428847812
 70
   192
  0
VERTEX
  5
9C7
  8
0
 10
-0.0000000000000328
 20
118.2951507991802
 30
508.565663603238
 70
   192
  0
VERTEX
  5
9C8
  8
0
 10
0.0000000000000568
 20
55.34676398156055
 30
484.9792984853649
 70
   192
  0
VERTEX
  5
9C9
  8
0
 10
-0.1086312792270592
 20
36.69618858877942
 30
455.9094450464153
 70
   192
  0
VERTEX
  5
9CA
  8
0
 10
-0.0543156399962024
 20
36.69618858622658
 30
455.909454753464
 70
   192
  0
VERTEX
  5
9CB
  8
0
 10
-0.0000000000001107
 20
36.69618859077165
 30
455.90945794253
 70
   192
  0
VERTEX
  5
9CC
  8
0
 10
0.0000000000000587
 20
84.62059001415366
 30
502.4407083791035
 70
   192
  0
VERTEX
  5
9CD
  8
0
 10
-469.8534075410513
 20
118.2951507991801
 30
194.619653730718
 70
   192
  0
VERTEX
  5
9CE
  8
0
 10
-508.5656636032381
 20
118.2951507991801
 30
0.0000000000011777
 70
   192
  0
VERTEX
  5
9CF
  8
0
 10
-421.2443795986371
 20
36.69618859201262
 30
174.3749023068103
 70
   192
  0
VERTEX
  5
9D0
  8
0
 10
-322.4630734217034
 20
36.6961885920126
 30
322.290242115206
 70
   192
  0
VERTEX
  5
9D1
  8
0
 10
-469.8534075410521
 20
118.2951507991801
 30
-194.6196537307161
 70
   192
  0
VERTEX
  5
9D2
  8
0
 10
-359.6102294124865
 20
118.2951507991801
 30
-359.6102294124857
 70
   192
  0
VERTEX
  5
9D3
  8
0
 10
-421.182029259658
 20
36.69618859201258
 30
-174.5254484253551
 70
   192
  0
VERTEX
  5
9D4
  8
0
 10
-455.9094507378215
 20
36.69618859201258
 30
-0.0814734597587901
 70
   192
  0
VERTEX
  5
9D5
  8
0
 10
-194.6196537307172
 20
118.2951507991801
 30
-469.8534075410516
 70
   192
  0
VERTEX
  5
9D6
  8
0
 10
0.0000000000000311
 20
118.2951507991802
 30
-508.565663603238
 70
   192
  0
VERTEX
  5
9D7
  8
0
 10
-0.0000000000000012
 20
84.62059001415369
 30
-502.4407083791035
 70
   192
  0
VERTEX
  5
9D8
  8
0
 10
-0.0000000000000002
 20
55.34676398155856
 30
-484.9792984853867
 70
   192
  0
VERTEX
  5
9D9
  8
0
 10
-174.4501781606563
 20
36.69618859201262
 30
-421.2132111766988
 70
   192
  0
VERTEX
  5
9DA
  8
0
 10
-0.0000000000000225
 20
36.69618858340705
 30
-455.909458021265
 70
   192
  0
VERTEX
  5
9DB
  8
0
 10
-322.3478628788856
 20
36.69618859201257
 30
-322.405473314995
 70
   192
  0
VERTEX
  5
9DC
  8
0
 10
0.0
 20
0.0
 30
0.0
 70
   128
 71
     1
 72
     2
 73
     3
  0
VERTEX
  5
9DD
  8
0
 10
0.0
 20
0.0
 30
0.0
 70
   128
 71
     4
 72
     5
 73
     1
  0
VERTEX
  5
9DE
  8
0
 10
0.0
 20
0.0
 30
0.0
 70
   128
 71
     3
 72
     4
 73
     1
  0
VERTEX
  5
9DF
  8
0
 10
0.0
 20
0.0
 30
0.0
 70
   128
 71
     6
 72
     4
 73
     7
  0
VERTEX
  5
9E0
  8
0
 10
0.0
 20
0.0
 30
0.0
 70
   128
 71
     7
 72
     8
 73
     6
  0
VERTEX
  5
9E1
  8
0
 10
0.0
 20
0.0
 30
0.0
 70
   128
 71
     8
 72
     9
 73
     6
  0
VERTEX
  5
9E2
  8
0
 10
0.0
 20
0.0
 30
0.0
 70
   128
 71
     6
 72
    10
 73
     4
  0
VERTEX
  5
9E3
  8
0
 10
0.0
 20
0.0
 30
0.0
 70
   128
 71
    10
 72
     5
 73
     4
  0
VERTEX
  5
9E4
  8
0
 10
0.0
 20
0.0
 30
0.0
 70
   128
 71
    11
 72
    12
 73
    13
  0
VERTEX
  5
9E5
  8
0
 10
0.0
 20
0.0
 30
0.0
 70
   128
 71
    14
 72
     2
 73
    11
  0
VERTEX
  5
9E6
  8
0
 10
0.0
 20
0.0
 30
0.0
 70
   128
 71
    13
 72
    14
 73
    11
  0
VERTEX
  5
9E7
  8
0
 10
0.0
 20
0.0
 30
0.0
 70
   128
 71
    15
 72
    16
 73
    17
  0
VERTEX
  5
9E8
  8
0
 10
0.0
 20
0.0
 30
0.0
 70
   128
 71
    18
 72
    12
 73
    15
  0
VERTEX
  5
9E9
  8
0
 10
0.0
 20
0.0
 30
0.0
 70
   128
 71
    17
 72
    18
 73
    15
  0
VERTEX
  5
9EA
  8
0
 10
0.0
 20
0.0
 30
0.0
 70
   128
 71
    19
 72
    20
 73
    21
  0
VERTEX
  5
9EB
  8
0
 10
0.0
 20
0.0
 30
0.0
 70
   128
 71
    22
 72
    23
 73
    19
  0
VERTEX
  5
9EC
  8
0
 10
0.0
 20
0.0
 30
0.0
 70
   128
 71
    21
 72
    22
 73
    19
  0
VERTEX
  5
9ED
  8
0
 10
0.0
 20
0.0
 30
0.0
 70
   128
 71
    22
 72
    24
 73
    23
  0
VERTEX
  5
9EE
  8
0
 10
0.0
 20
0.0
 30
0.0
 70
   128
 71
    25
 72
    16
 73
    19
  0
VERTEX
  5
9EF
  8
0
 10
0.0
 20
0.0
 30
0.0
 70
   128
 71
    23
 72
    25
 73
    19
  0
VERTEX
  5
9F0
  8
0
 10
0.0
 20
0.0
 30
0.0
 70
   128
 71
     2
 72
    14
 73
     3
  0
VERTEX
  5
9F1
  8
0
 10
0.0
 20
0.0
 30
0.0
 70
   128
 71
    12
 72
    18
 73
    13
  0
VERTEX
  5
9F2
  8
0
 10
0.0
 20
0.0
 30
0.0
 70
   128
 71
    16
 72
    25
 73
    17
  0
SEQEND
  5
10D0
  8
0
  0
POLYLINE
  5
9F3
  8
0
 66
     1
 10
0.0
 20
0.0
 30
0.0
 70
    64
 71
    22
 72
    20
  0
VERTEX
  5
9F4
  8
0
 10
0.0000000000000311
 20
124.8595480275264
 30
-494.172985360451
 70
   192
  0
VERTEX
  5
9F5
  8
0
 10
-0.0000000000000276
 20
124.8595480275264
 30
494.172985360451
 70
   192
  0
VERTEX
  5
9F6
  8
0
 10
0.000000000000026
 20
44.3219352898974
 30
407.806969480531
 70
   192
  0
VERTEX
  5
9F7
  8
0
 10
0.0000000000000254
 20
44.3219352898974
 30
-407.806969480531
 70
   192
  0
VERTEX
  5
9F8
  8
0
 10
407.806969480531
 20
44.3219352898974
 30
0.0000000000000302
 70
   192
  0
VERTEX
  5
9F9
  8
0
 10
494.172985360451
 20
124.8595480275266
 30
-0.0000000000005169
 70
   192
  0
VERTEX
  5
9FA
  8
0
 10
288.363073534819
 20
44.3219352898974
 30
288.3630735348188
 70
   192
  0
VERTEX
  5
9FB
  8
0
 10
349.4330690275755
 20
124.8595480275266
 30
349.4330690275751
 70
   192
  0
VERTEX
  5
9FC
  8
0
 10
288.3630735348188
 20
44.3219352898974
 30
-288.3630735348188
 70
   192
  0
VERTEX
  5
9FD
  8
0
 10
349.4330690275748
 20
124.8595480275266
 30
-349.4330690275759
 70
   192
  0
VERTEX
  5
9FE
  8
0
 10
376.7645123185173
 20
44.3219352898974
 30
156.0609708232149
 70
   192
  0
VERTEX
  5
9FF
  8
0
 10
456.5563066945205
 20
124.8595480275266
 30
189.1118142198402
 70
   192
  0
VERTEX
  5
A00
  8
0
 10
156.0609708232149
 20
44.3219352898974
 30
376.7645123185173
 70
   192
  0
VERTEX
  5
A01
  8
0
 10
0.0000000000000577
 20
51.57103630111261
 30
452.5254458460907
 70
   192
  0
VERTEX
  5
A02
  8
0
 10
0.0000000000000618
 20
80.75567534720786
 30
483.8221395724883
 70
   192
  0
VERTEX
  5
A03
  8
0
 10
189.1118142198408
 20
124.8595480275266
 30
456.5563066945203
 70
   192
  0
VERTEX
  5
A04
  8
0
 10
-0.0000000000000013
 20
80.75567534720786
 30
-483.8221395724883
 70
   192
  0
VERTEX
  5
A05
  8
0
 10
-0.0000000000000004
 20
51.57103630111261
 30
-452.5254458460907
 70
   192
  0
VERTEX
  5
A06
  8
0
 10
156.0609708232149
 20
44.3219352898974
 30
-376.7645123185173
 70
   192
  0
VERTEX
  5
A07
  8
0
 10
189.1118142198399
 20
124.8595480275266
 30
-456.5563066945207
 70
   192
  0
VERTEX
  5
A08
  8
0
 10
376.7645123185173
 20
44.3219352898974
 30
-156.0609708232149
 70
   192
  0
VERTEX
  5
A09
  8
0
 10
456.5563066945201
 20
124.8595480275266
 30
-189.1118142198412
 70
   192
  0
VERTEX
  5
A0A
  8
0
 10
0.0
 20
0.0
 30
0.0
 70
   128
 71
     7
 72
     8
 73
   -12
  0
VERTEX
  5
A0B
  8
0
 10
0.0
 20
0.0
 30
0.0
 70
   128
 71
    11
 72
    -7
 73
    12
  0
VERTEX
  5
A0C
  8
0
 10
0.0
 20
0.0
 30
0.0
 70
   128
 71
     6
 72
     5
 73
   -11
  0
VERTEX
  5
A0D
  8
0
 10
0.0
 20
0.0
 30
0.0
 70
   128
 71
    12
 72
    -6
 73
    11
  0
VERTEX
  5
A0E
  8
0
 10
0.0
 20
0.0
 30
0.0
 70
   128
 71
    13
 72
     3
 73
    14
  0
VERTEX
  5
A0F
  8
0
 10
0.0
 20
0.0
 30
0.0
 70
   128
 71
    15
 72
    16
 73
    13
  0
VERTEX
  5
A10
  8
0
 10
0.0
 20
0.0
 30
0.0
 70
   128
 71
    14
 72
    15
 73
    13
  0
VERTEX
  5
A11
  8
0
 10
0.0
 20
0.0
 30
0.0
 70
   128
 71
    15
 72
     2
 73
    16
  0
VERTEX
  5
A12
  8
0
 10
0.0
 20
0.0
 30
0.0
 70
   128
 71
     8
 72
     7
 73
   -13
  0
VERTEX
  5
A13
  8
0
 10
0.0
 20
0.0
 30
0.0
 70
   128
 71
    16
 72
    -8
 73
    13
  0
VERTEX
  5
A14
  8
0
 10
0.0
 20
0.0
 30
0.0
 70
   128
 71
     9
 72
    10
 73
   -20
  0
VERTEX
  5
A15
  8
0
 10
0.0
 20
0.0
 30
0.0
 70
   128
 71
    19
 72
    -9
 73
    20
  0
VERTEX
  5
A16
  8
0
 10
0.0
 20
0.0
 30
0.0
 70
   128
 71
    20
 72
     1
 73
    17
  0
VERTEX
  5
A17
  8
0
 10
0.0
 20
0.0
 30
0.0
 70
   128
 71
    18
 72
    19
 73
    20
  0
VERTEX
  5
A18
  8
0
 10
0.0
 20
0.0
 30
0.0
 70
   128
 71
    17
 72
    18
 73
    20
  0
VERTEX
  5
A19
  8
0
 10
0.0
 20
0.0
 30
0.0
 70
   128
 71
    18
 72
     4
 73
    19
  0
VERTEX
  5
A1A
  8
0
 10
0.0
 20
0.0
 30
0.0
 70
   128
 71
     5
 72
     6
 73
   -22
  0
VERTEX
  5
A1B
  8
0
 10
0.0
 20
0.0
 30
0.0
 70
   128
 71
    21
 72
    -5
 73
    22
  0
VERTEX
  5
A1C
  8
0
 10
0.0
 20
0.0
 30
0.0
 70
   128
 71
    10
 72
     9
 73
   -21
  0
VERTEX
  5
A1D
  8
0
 10
0.0
 20
0.0
 30
0.0
 70
   128
 71
    22
 72
   -10
 73
    21
  0
SEQEND
  5
10D1
  8
0
  0
POLYLINE
  5
A1E
  8
0
 66
     1
 10
0.0
 20
0.0
 30
0.0
 70
    64
 71
    15
 72
    16
  0
VERTEX
  5
A1F
  8
0
 10
311.0822660552348
 20
28.1805598862645
 30
210.0976713161459
 70
   192
  0
VERTEX
  5
A20
  8
0
 10
373.2924368208177
 20
28.1805598862645
 30
39.57226754815758
 70
   192
  0
VERTEX
  5
A21
  8
0
 10
260.543266098278
 20
26.63868439360841
 30
289.6230180248834
 70
   192
  0
VERTEX
  5
A22
  8
0
 10
269.3527711908511
 20
21.15286882423322
 30
299.415769495398
 70
   192
  0
VERTEX
  5
A23
  8
0
 10
0.0
 20
25.23259943529547
 30
394.1282001089298
 70
   192
  0
VERTEX
  5
A24
  8
0
 10
276.7672482914701
 20
12.16987697511512
 30
307.6577911262608
 70
   192
  0
VERTEX
  5
A25
  8
0
 10
406.1054524869587
 20
15.98704915483359
 30
55.53664801639767
 70
   192
  0
VERTEX
  5
A26
  8
0
 10
193.8482454790125
 20
0.4212820273002755
 30
374.7583522116853
 70
   192
  0
VERTEX
  5
A27
  8
0
 10
0.0
 20
0.4212820273002755
 30
421.925307166694
 70
   192
  0
VERTEX
  5
A28
  8
0
 10
0.0
 20
15.51292009104666
 30
410.4242220616862
 70
   192
  0
VERTEX
  5
A29
  8
0
 10
176.1333111953366
 20
28.1805598862645
 30
331.4970051657991
 70
   192
  0
VERTEX
  5
A2A
  8
0
 10
0.0
 20
28.18055988626449
 30
375.3840803051285
 70
   192
  0
VERTEX
  5
A2B
  8
0
 10
344.3559692717839
 20
0.4212820273002755
 30
243.8030583372558
 70
   192
  0
VERTEX
  5
A2C
  8
0
 10
390.1081570480797
 20
25.55182769366618
 30
49.3544903145498
 70
   192
  0
VERTEX
  5
A2D
  8
0
 10
417.8727080952008
 20
0.4212820273002755
 30
58.33836350886307
 70
   192
  0
VERTEX
  5
A2E
  8
0
 10
0.0
 20
0.0
 30
0.0
 70
   128
 71
     1
 72
     2
 73
     3
  0
VERTEX
  5
A2F
  8
0
 10
0.0
 20
0.0
 30
0.0
 70
   128
 71
     3
 72
     4
 73
     5
  0
VERTEX
  5
A30
  8
0
 10
0.0
 20
0.0
 30
0.0
 70
   128
 71
     6
 72
     4
 73
     7
  0
VERTEX
  5
A31
  8
0
 10
0.0
 20
0.0
 30
0.0
 70
   128
 71
     8
 72
     9
 73
     6
  0
VERTEX
  5
A32
  8
0
 10
0.0
 20
0.0
 30
0.0
 70
   128
 71
     4
 72
     6
 73
    10
  0
VERTEX
  5
A33
  8
0
 10
0.0
 20
0.0
 30
0.0
 70
   128
 71
     5
 72
     4
 73
    10
  0
VERTEX
  5
A34
  8
0
 10
0.0
 20
0.0
 30
0.0
 70
   128
 71
    10
 72
     6
 73
     9
  0
VERTEX
  5
A35
  8
0
 10
0.0
 20
0.0
 30
0.0
 70
   128
 71
    11
 72
     3
 73
     5
  0
VERTEX
  5
A36
  8
0
 10
0.0
 20
0.0
 30
0.0
 70
   128
 71
    12
 72
    11
 73
     5
  0
VERTEX
  5
A37
  8
0
 10
0.0
 20
0.0
 30
0.0
 70
   128
 71
     1
 72
     3
 73
    11
  0
VERTEX
  5
A38
  8
0
 10
0.0
 20
0.0
 30
0.0
 70
   128
 71
     6
 72
    13
 73
     8
  0
VERTEX
  5
A39
  8
0
 10
0.0
 20
0.0
 30
0.0
 70
   128
 71
     2
 72
    14
 73
     3
  0
VERTEX
  5
A3A
  8
0
 10
0.0
 20
0.0
 30
0.0
 70
   128
 71
     7
 72
     4
 73
     3
  0
VERTEX
  5
A3B
  8
0
 10
0.0
 20
0.0
 30
0.0
 70
   128
 71
    14
 72
     7
 73
     3
  0
VERTEX
  5
A3C
  8
0
 10
0.0
 20
0.0
 30
0.0
 70
   128
 71
    15
 72
    13
 73
     6
  0
VERTEX
  5
A3D
  8
0
 10
0.0
 20
0.0
 30
0.0
 70
   128
 71
     7
 72
    15
 73
     6
  0
SEQEND
  5
10D2
  8
0
  0
POLYLINE
  5
A3E
  8
0
 66
     1
 10
0.0
 20
0.0
 30
0.0
 70
    64
 71
    17
 72
    18
  0
VERTEX
  5
A3F
  8
0
 10
-71.95785316431713
 20
18.62552816694015
 30
71.95785316431713
 70
   192
  0
VERTEX
  5
A40
  8
0
 10
-101.763771864229
 20
18.62552816694015
 30
0.0
 70
   192
  0
VERTEX
  5
A41
  8
0
 10
-91.16309342683772
 20
17.10786856762435
 30
-0.0000000000000056
 70
   192
  0
VERTEX
  5
A42
  8
0
 10
-71.95785316431711
 20
18.62552816694015
 30
-71.95785316431711
 70
   192
  0
VERTEX
  5
A43
  8
0
 10
-81.12872330992978
 20
13.36766932837605
 30
-0.000000000000005
 70
   192
  0
VERTEX
  5
A44
  8
0
 10
0.0000000000000107
 20
16.10165348727591
 30
87.7319056303444
 70
   192
  0
VERTEX
  5
A45
  8
0
 10
-72.12094880349945
 20
7.576497388805279
 30
-0.0000000000000044
 70
   192
  0
VERTEX
  5
A46
  8
0
 10
0.0
 20
9.72019533972572
 30
-74.98277996168201
 70
   192
  0
VERTEX
  5
A47
  8
0
 10
-64.55296615884471
 20
0.0
 30
0.0000000000000072
 70
   192
  0
VERTEX
  5
A48
  8
0
 10
-45.64584011662481
 20
0.0
 30
45.64584011662483
 70
   192
  0
VERTEX
  5
A49
  8
0
 10
-45.64584011662483
 20
0.0
 30
-45.64584011662481
 70
   192
  0
VERTEX
  5
A4A
  8
0
 10
0.0
 20
16.10165348727591
 30
-87.7319056303444
 70
   192
  0
VERTEX
  5
A4B
  8
0
 10
0.0000000000000092
 20
9.72019533972572
 30
74.98277996168201
 70
   192
  0
VERTEX
  5
A4C
  8
0
 10
-0.0000000000000072
 20
0.0
 30
-64.55296615884471
 70
   192
  0
VERTEX
  5
A4D
  8
0
 10
0.0000000000000079
 20
0.0
 30
64.55296615884471
 70
   192
  0
VERTEX
  5
A4E
  8
0
 10
0.0
 20
18.62552816694015
 30
-101.763771864229
 70
   192
  0
VERTEX
  5
A4F
  8
0
 10
0.0000000000000125
 20
18.62552816694014
 30
101.763771864229
 70
   192
  0
VERTEX
  5
A50
  8
0
 10
0.0
 20
0.0
 30
0.0
 70
   128
 71
     1
 72
     2
 73
     3
  0
VERTEX
  5
A51
  8
0
 10
0.0
 20
0.0
 30
0.0
 70
   128
 71
     3
 72
     2
 73
     4
  0
VERTEX
  5
A52
  8
0
 10
0.0
 20
0.0
 30
0.0
 70
   128
 71
     3
 72
     5
 73
     6
  0
VERTEX
  5
A53
  8
0
 10
0.0
 20
0.0
 30
0.0
 70
   128
 71
     7
 72
     5
 73
     8
  0
VERTEX
  5
A54
  8
0
 10
0.0
 20
0.0
 30
0.0
 70
   128
 71
     7
 72
     9
 73
    10
  0
VERTEX
  5
A55
  8
0
 10
0.0
 20
0.0
 30
0.0
 70
   128
 71
    11
 72
     9
 73
     7
  0
VERTEX
  5
A56
  8
0
 10
0.0
 20
0.0
 30
0.0
 70
   128
 71
     8
 72
     5
 73
     3
  0
VERTEX
  5
A57
  8
0
 10
0.0
 20
0.0
 30
0.0
 70
   128
 71
    12
 72
     8
 73
     3
  0
VERTEX
  5
A58
  8
0
 10
0.0
 20
0.0
 30
0.0
 70
   128
 71
     5
 72
     7
 73
    13
  0
VERTEX
  5
A59
  8
0
 10
0.0
 20
0.0
 30
0.0
 70
   128
 71
     6
 72
     5
 73
    13
  0
VERTEX
  5
A5A
  8
0
 10
0.0
 20
0.0
 30
0.0
 70
   128
 71
    14
 72
    11
 73
     7
  0
VERTEX
  5
A5B
  8
0
 10
0.0
 20
0.0
 30
0.0
 70
   128
 71
     8
 72
    14
 73
     7
  0
VERTEX
  5
A5C
  8
0
 10
0.0
 20
0.0
 30
0.0
 70
   128
 71
     7
 72
    10
 73
    15
  0
VERTEX
  5
A5D
  8
0
 10
0.0
 20
0.0
 30
0.0
 70
   128
 71
    13
 72
     7
 73
    15
  0
VERTEX
  5
A5E
  8
0
 10
0.0
 20
0.0
 30
0.0
 70
   128
 71
    12
 72
     3
 73
     4
  0
VERTEX
  5
A5F
  8
0
 10
0.0
 20
0.0
 30
0.0
 70
   128
 71
    16
 72
    12
 73
     4
  0
VERTEX
  5
A60
  8
0
 10
0.0
 20
0.0
 30
0.0
 70
   128
 71
     1
 72
     3
 73
     6
  0
VERTEX
  5
A61
  8
0
 10
0.0
 20
0.0
 30
0.0
 70
   128
 71
    17
 72
     1
 73
     6
  0
SEQEND
  5
10D3
  8
0
  0
POLYLINE
  5
A62
  8
0
 66
     1
 10
0.0
 20
0.0
 30
0.0
 70
    64
 71
    18
 72
    16
  0
VERTEX
  5
A63
  8
0
 10
0.0000000000000311
 20
124.8595480275264
 30
-494.172985360451
 70
   192
  0
VERTEX
  5
A64
  8
0
 10
-0.0000000000000276
 20
124.8595480275264
 30
494.172985360451
 70
   192
  0
VERTEX
  5
A65
  8
0
 10
-0.0000000000000308
 20
509.830113586608
 30
534.635022253336
 70
   192
  0
VERTEX
  5
A66
  8
0
 10
0.0000000000000655
 20
509.830113586608
 30
-534.6350222533363
 70
   192
  0
VERTEX
  5
A67
  8
0
 10
-534.635022253336
 20
509.8301135866083
 30
0.000000000001803
 70
   192
  0
VERTEX
  5
A68
  8
0
 10
-494.172985360451
 20
124.8595480275266
 30
0.0000000000016644
 70
   192
  0
VERTEX
  5
A69
  8
0
 10
-378.0440496951557
 20
509.8301135866082
 30
-378.0440496951538
 70
   192
  0
VERTEX
  5
A6A
  8
0
 10
-349.4330690275763
 20
124.8595480275266
 30
-349.4330690275744
 70
   192
  0
VERTEX
  5
A6B
  8
0
 10
-378.044049695153
 20
509.8301135866083
 30
378.0440496951564
 70
   192
  0
VERTEX
  5
A6C
  8
0
 10
-349.4330690275739
 20
124.8595480275266
 30
349.4330690275769
 70
   192
  0
VERTEX
  5
A6D
  8
0
 10
-204.5959653784938
 20
509.8301135866083
 30
-493.9383544235732
 70
   192
  0
VERTEX
  5
A6E
  8
0
 10
-189.1118142198416
 20
124.8595480275266
 30
-456.55630669452
 70
   192
  0
VERTEX
  5
A6F
  8
0
 10
-493.9383544235742
 20
509.8301135866083
 30
-204.5959653784913
 70
   192
  0
VERTEX
  5
A70
  8
0
 10
-456.5563066945209
 20
124.8595480275266
 30
-189.1118142198393
 70
   192
  0
VERTEX
  5
A71
  8
0
 10
-493.9383544235727
 20
509.8301135866083
 30
204.5959653784947
 70
   192
  0
VERTEX
  5
A72
  8
0
 10
-456.5563066945198
 20
124.8595480275266
 30
189.1118142198424
 70
   192
  0
VERTEX
  5
A73
  8
0
 10
-204.5959653784911
 20
509.8301135866083
 30
493.9383544235744
 70
   192
  0
VERTEX
  5
A74
  8
0
 10
-189.1118142198389
 20
124.8595480275266
 30
456.5563066945211
 70
   192
  0
VERTEX
  5
A75
  8
0
 10
0.0
 20
0.0
 30
0.0
 70
   128
 71
     7
 72
     8
 73
   -12
  0
VERTEX
  5
A76
  8
0
 10
0.0
 20
0.0
 30
0.0
 70
   128
 71
    11
 72
    -7
 73
    12
  0
VERTEX
  5
A77
  8
0
 10
0.0
 20
0.0
 30
0.0
 70
   128
 71
     1
 72
     4
 73
   -11
  0
VERTEX
  5
A78
  8
0
 10
0.0
 20
0.0
 30
0.0
 70
   128
 71
    12
 72
    -1
 73
    11
  0
VERTEX
  5
A79
  8
0
 10
0.0
 20
0.0
 30
0.0
 70
   128
 71
     5
 72
     6
 73
   -14
  0
VERTEX
  5
A7A
  8
0
 10
0.0
 20
0.0
 30
0.0
 70
   128
 71
    13
 72
    -5
 73
    14
  0
VERTEX
  5
A7B
  8
0
 10
0.0
 20
0.0
 30
0.0
 70
   128
 71
     8
 72
     7
 73
   -13
  0
VERTEX
  5
A7C
  8
0
 10
0.0
 20
0.0
 30
0.0
 70
   128
 71
    14
 72
    -8
 73
    13
  0
VERTEX
  5
A7D
  8
0
 10
0.0
 20
0.0
 30
0.0
 70
   128
 71
     9
 72
    10
 73
   -16
  0
VERTEX
  5
A7E
  8
0
 10
0.0
 20
0.0
 30
0.0
 70
   128
 71
    15
 72
    -9
 73
    16
  0
VERTEX
  5
A7F
  8
0
 10
0.0
 20
0.0
 30
0.0
 70
   128
 71
     6
 72
     5
 73
   -15
  0
VERTEX
  5
A80
  8
0
 10
0.0
 20
0.0
 30
0.0
 70
   128
 71
    16
 72
    -6
 73
    15
  0
VERTEX
  5
A81
  8
0
 10
0.0
 20
0.0
 30
0.0
 70
   128
 71
     3
 72
     2
 73
   -18
  0
VERTEX
  5
A82
  8
0
 10
0.0
 20
0.0
 30
0.0
 70
   128
 71
    17
 72
    -3
 73
    18
  0
VERTEX
  5
A83
  8
0
 10
0.0
 20
0.0
 30
0.0
 70
   128
 71
    10
 72
     9
 73
   -17
  0
VERTEX
  5
A84
  8
0
 10
0.0
 20
0.0
 30
0.0
 70
   128
 71
    18
 72
   -10
 73
    17
  0
SEQEND
  5
10D4
  8
0
  0
POLYLINE
  5
A85
  8
0
 66
     1
 10
0.0
 20
0.0
 30
0.0
 70
    64
 71
    13
 72
    11
  0
VERTEX
  5
A86
  8
0
 10
-0.0000000000000002
 20
31.71345445953605
 30
-46.747318909474
 70
   192
  0
VERTEX
  5
A87
  8
0
 10
0.0000000000000499
 20
44.32193528989741
 30
-407.806969480531
 70
   192
  0
VERTEX
  5
A88
  8
0
 10
-156.0609708232149
 20
44.32193528989743
 30
-376.7645123185175
 70
   192
  0
VERTEX
  5
A89
  8
0
 10
-288.3630735348188
 20
44.3219352898974
 30
-288.3630735348188
 70
   192
  0
VERTEX
  5
A8A
  8
0
 10
-376.7645123185173
 20
44.3219352898974
 30
-156.0609708232153
 70
   192
  0
VERTEX
  5
A8B
  8
0
 10
-407.8069694805308
 20
44.32193528989743
 30
-0.0000000000000808
 70
   192
  0
VERTEX
  5
A8C
  8
0
 10
-40.48424017394228
 20
31.71345445953605
 30
-23.37359128077026
 70
   192
  0
VERTEX
  5
A8D
  8
0
 10
-376.7645123185173
 20
44.32193528989743
 30
156.060970823215
 70
   192
  0
VERTEX
  5
A8E
  8
0
 10
-288.3630735348188
 20
44.32193528989743
 30
288.3630735348185
 70
   192
  0
VERTEX
  5
A8F
  8
0
 10
-40.4842401739421
 20
31.71345445953604
 30
23.37359128077057
 70
   192
  0
VERTEX
  5
A90
  8
0
 10
-156.0609708232153
 20
44.32193528989743
 30
376.7645123185173
 70
   192
  0
VERTEX
  5
A91
  8
0
 10
0.000000000000026
 20
44.3219352898974
 30
407.806969480531
 70
   192
  0
VERTEX
  5
A92
  8
0
 10
0.0000000000000024
 20
31.71345445953605
 30
46.747318909474
 70
   192
  0
VERTEX
  5
A93
  8
0
 10
0.0
 20
0.0
 30
0.0
 70
   128
 71
     1
 72
     2
 73
     3
  0
VERTEX
  5
A94
  8
0
 10
0.0
 20
0.0
 30
0.0
 70
   128
 71
     3
 72
     4
 73
     1
  0
VERTEX
  5
A95
  8
0
 10
0.0
 20
0.0
 30
0.0
 70
   128
 71
     5
 72
     6
 73
     7
  0
VERTEX
  5
A96
  8
0
 10
0.0
 20
0.0
 30
0.0
 70
   128
 71
     8
 72
     9
 73
    10
  0
VERTEX
  5
A97
  8
0
 10
0.0
 20
0.0
 30
0.0
 70
   128
 71
    11
 72
    12
 73
    13
  0
VERTEX
  5
A98
  8
0
 10
0.0
 20
0.0
 30
0.0
 70
   128
 71
     8
 72
    10
 73
     7
  0
VERTEX
  5
A99
  8
0
 10
0.0
 20
0.0
 30
0.0
 70
   128
 71
     6
 72
     8
 73
     7
  0
VERTEX
  5
A9A
  8
0
 10
0.0
 20
0.0
 30
0.0
 70
   128
 71
     5
 72
     7
 73
     1
  0
VERTEX
  5
A9B
  8
0
 10
0.0
 20
0.0
 30
0.0
 70
   128
 71
     4
 72
     5
 73
     1
  0
VERTEX
  5
A9C
  8
0
 10
0.0
 20
0.0
 30
0.0
 70
   128
 71
    11
 72
    13
 73
    10
  0
VERTEX
  5
A9D
  8
0
 10
0.0
 20
0.0
 30
0.0
 70
   128
 71
     9
 72
    11
 73
    10
  0
SEQEND
  5
10D5
  8
0
  0
POLYLINE
  5
A9E
  8
0
 66
     1
 10
0.0
 20
0.0
 30
0.0
 70
    64
 71
     9
 72
     7
  0
VERTEX
  5
A9F
  8
0
 10
-0.000000000000003
 20
28.8722898472076
 30
43.85612879531774
 70
   192
  0
VERTEX
  5
AA0
  8
0
 10
0.0
 20
20.51633411594254
 30
43.41821171165475
 70
   192
  0
VERTEX
  5
AA1
  8
0
 10
-0.0076687293390272
 20
20.51633418407815
 30
43.41821041154985
 70
   192
  0
VERTEX
  5
AA2
  8
0
 10
-37.59987955621962
 20
20.51633416976453
 30
-21.71125627936499
 70
   192
  0
VERTEX
  5
AA3
  8
0
 10
0.0000000000000063
 20
20.5163341789777
 30
-43.4182117149583
 70
   192
  0
VERTEX
  5
AA4
  8
0
 10
0.0000000000000054
 20
28.8722898472076
 30
-43.85612879531776
 70
   192
  0
VERTEX
  5
AA5
  8
0
 10
-37.98040385347456
 20
28.8722898472076
 30
-21.92800044006018
 70
   192
  0
VERTEX
  5
AA6
  8
0
 10
-37.60371371385546
 20
20.51633416055134
 30
21.70461487230213
 70
   192
  0
VERTEX
  5
AA7
  8
0
 10
-37.98040385347442
 20
28.8722898472076
 30
21.92800044006041
 70
   192
  0
VERTEX
  5
AA8
  8
0
 10
0.0
 20
0.0
 30
0.0
 70
   128
 71
     1
 72
     2
 73
     3
  0
VERTEX
  5
AA9
  8
0
 10
0.0
 20
0.0
 30
0.0
 70
   128
 71
     4
 72
     5
 73
     6
  0
VERTEX
  5
AAA
  8
0
 10
0.0
 20
0.0
 30
0.0
 70
   128
 71
     7
 72
     4
 73
     6
  0
VERTEX
  5
AAB
  8
0
 10
0.0
 20
0.0
 30
0.0
 70
   128
 71
     8
 72
     4
 73
     7
  0
VERTEX
  5
AAC
  8
0
 10
0.0
 20
0.0
 30
0.0
 70
   128
 71
     9
 72
     8
 73
     7
  0
VERTEX
  5
AAD
  8
0
 10
0.0
 20
0.0
 30
0.0
 70
   128
 71
     3
 72
     8
 73
     9
  0
VERTEX
  5
AAE
  8
0
 10
0.0
 20
0.0
 30
0.0
 70
   128
 71
     1
 72
     3
 73
     9
  0
SEQEND
  5
10D6
  8
0
  0
POLYLINE
  5
AAF
  8
0
 66
     1
 10
0.0
 20
0.0
 30
0.0
 70
    64
 71
     9
 72
     7
  0
VERTEX
  5
AB0
  8
0
 10
-18.38477631085024
 20
8.0
 30
-18.38477631085023
 70
   192
  0
VERTEX
  5
AB1
  8
0
 10
-0.0000000000000029
 20
8.0
 30
-26.0
 70
   192
  0
VERTEX
  5
AB2
  8
0
 10
0.0000000000000046
 20
16.1038947265415
 30
-37.57356110055824
 70
   192
  0
VERTEX
  5
AB3
  8
0
 10
-18.38477631085023
 20
8.0
 30
18.38477631085024
 70
   192
  0
VERTEX
  5
AB4
  8
0
 10
-26.0
 20
8.0
 30
0.0000000000000029
 70
   192
  0
VERTEX
  5
AB5
  8
0
 10
-32.53955750341461
 20
16.10389472654151
 30
18.78672575486509
 70
   192
  0
VERTEX
  5
AB6
  8
0
 10
-32.53955750341472
 20
16.10389472654151
 30
-18.78672575486494
 70
   192
  0
VERTEX
  5
AB7
  8
0
 10
0.0000000000000032
 20
8.0
 30
26.0
 70
   192
  0
VERTEX
  5
AB8
  8
0
 10
-0.000000000000002
 20
16.1038947265415
 30
37.57356110055824
 70
   192
  0
VERTEX
  5
AB9
  8
0
 10
0.0
 20
0.0
 30
0.0
 70
   128
 71
     1
 72
     2
 73
     3
  0
VERTEX
  5
ABA
  8
0
 10
0.0
 20
0.0
 30
0.0
 70
   128
 71
     4
 72
     5
 73
     6
  0
VERTEX
  5
ABB
  8
0
 10
0.0
 20
0.0
 30
0.0
 70
   128
 71
     7
 72
     1
 73
     3
  0
VERTEX
  5
ABC
  8
0
 10
0.0
 20
0.0
 30
0.0
 70
   128
 71
     5
 72
     1
 73
     7
  0
VERTEX
  5
ABD
  8
0
 10
0.0
 20
0.0
 30
0.0
 70
   128
 71
     6
 72
     5
 73
     7
  0
VERTEX
  5
ABE
  8
0
 10
0.0
 20
0.0
 30
0.0
 70
   128
 71
     8
 72
     4
 73
     6
  0
VERTEX
  5
ABF
  8
0
 10
0.0
 20
0.0
 30
0.0
 70
   128
 71
     9
 72
     8
 73
     6
  0
SEQEND
  5
10D7
  8
0
  0
POLYLINE
  5
AC0
  8
0
 66
     1
 10
0.0
 20
0.0
 30
0.0
 70
    64
 71
    10
 72
     8
  0
VERTEX
  5
AC1
  8
0
 10
0.0000000000000032
 20
8.0
 30
26.0
 70
   192
  0
VERTEX
  5
AC2
  8
0
 10
-0.0000000000000029
 20
8.0
 30
-26.0
 70
   192
  0
VERTEX
  5
AC3
  8
0
 10
-0.0000000000000029
 20
0.0
 30
-26.0
 70
   192
  0
VERTEX
  5
AC4
  8
0
 10
0.0000000000000032
 20
-0.0000000000000018
 30
26.0
 70
   192
  0
VERTEX
  5
AC5
  8
0
 10
-26.0
 20
0.0
 30
0.0000000000000029
 70
   192
  0
VERTEX
  5
AC6
  8
0
 10
-26.0
 20
8.0
 30
0.0000000000000029
 70
   192
  0
VERTEX
  5
AC7
  8
0
 10
-18.38477631085023
 20
0.0
 30
18.38477631085024
 70
   192
  0
VERTEX
  5
AC8
  8
0
 10
-18.38477631085023
 20
8.0
 30
18.38477631085024
 70
   192
  0
VERTEX
  5
AC9
  8
0
 10
-18.38477631085024
 20
0.0
 30
-18.38477631085023
 70
   192
  0
VERTEX
  5
ACA
  8
0
 10
-18.38477631085024
 20
8.0
 30
-18.38477631085023
 70
   192
  0
VERTEX
  5
ACB
  8
0
 10
0.0
 20
0.0
 30
0.0
 70
   128
 71
     8
 72
     1
 73
    -4
  0
VERTEX
  5
ACC
  8
0
 10
0.0
 20
0.0
 30
0.0
 70
   128
 71
     7
 72
    -8
 73
     4
  0
VERTEX
  5
ACD
  8
0
 10
0.0
 20
0.0
 30
0.0
 70
   128
 71
     6
 72
     8
 73
    -7
  0
VERTEX
  5
ACE
  8
0
 10
0.0
 20
0.0
 30
0.0
 70
   128
 71
     5
 72
    -6
 73
     7
  0
VERTEX
  5
ACF
  8
0
 10
0.0
 20
0.0
 30
0.0
 70
   128
 71
    10
 72
     6
 73
    -5
  0
VERTEX
  5
AD0
  8
0
 10
0.0
 20
0.0
 30
0.0
 70
   128
 71
     9
 72
   -10
 73
     5
  0
VERTEX
  5
AD1
  8
0
 10
0.0
 20
0.0
 30
0.0
 70
   128
 71
     2
 72
    10
 73
    -9
  0
VERTEX
  5
AD2
  8
0
 10
0.0
 20
0.0
 30
0.0
 70
   128
 71
     3
 72
    -2
 73
     9
  0
SEQEND
  5
10D8
  8
0
  0
POLYLINE
  5
AD3
  8
0
 66
     1
 10
0.0
 20
0.0
 30
0.0
 70
    64
 71
    15
 72
    13
  0
VERTEX
  5
AD4
  8
0
 10
176.1333111953366
 20
28.1805598862645
 30
331.4970051657991
 70
   192
  0
VERTEX
  5
AD5
  8
0
 10
0.0000000000000625
 20
28.1805598862645
 30
375.3840803051285
 70
   192
  0
VERTEX
  5
AD6
  8
0
 10
0.0
 20
18.62552816694014
 30
101.763771864229
 70
   192
  0
VERTEX
  5
AD7
  8
0
 10
71.95785316431711
 20
18.62552816694015
 30
71.95785316431713
 70
   192
  0
VERTEX
  5
AD8
  8
0
 10
360.3159411791958
 20
27.66418991919862
 30
14.2385546132347
 70
   192
  0
VERTEX
  5
AD9
  8
0
 10
373.2924368208176
 20
28.1805598862645
 30
39.57226754815755
 70
   192
  0
VERTEX
  5
ADA
  8
0
 10
311.0822660552348
 20
28.1805598862645
 30
210.0976713161459
 70
   192
  0
VERTEX
  5
ADB
  8
0
 10
101.763771864229
 20
18.62552816694015
 30
0.0000000000000113
 70
   192
  0
VERTEX
  5
ADC
  8
0
 10
311.0822660552356
 20
28.1805598862645
 30
-210.0976713161446
 70
   192
  0
VERTEX
  5
ADD
  8
0
 10
373.2924368208179
 20
28.1805598862645
 30
-39.57226754815537
 70
   192
  0
VERTEX
  5
ADE
  8
0
 10
360.3051068118129
 20
27.66374739633415
 30
-14.19210109826318
 70
   192
  0
VERTEX
  5
ADF
  8
0
 10
71.95785316431713
 20
18.62552816694015
 30
-71.95785316431711
 70
   192
  0
VERTEX
  5
AE0
  8
0
 10
0.0000000000000113
 20
18.62552816694015
 30
-101.763771864229
 70
   192
  0
VERTEX
  5
AE1
  8
0
 10
0.000000000000046
 20
28.18055988626451
 30
-375.3840803051285
 70
   192
  0
VERTEX
  5
AE2
  8
0
 10
176.1333111953373
 20
28.1805598862645
 30
-331.4970051657988
 70
   192
  0
VERTEX
  5
AE3
  8
0
 10
0.0
 20
0.0
 30
0.0
 70
   128
 71
     1
 72
     2
 73
     3
  0
VERTEX
  5
AE4
  8
0
 10
0.0
 20
0.0
 30
0.0
 70
   128
 71
     1
 72
     3
 73
     4
  0
VERTEX
  5
AE5
  8
0
 10
0.0
 20
0.0
 30
0.0
 70
   128
 71
     5
 72
     6
 73
     7
  0
VERTEX
  5
AE6
  8
0
 10
0.0
 20
0.0
 30
0.0
 70
   128
 71
     5
 72
     7
 73
     4
  0
VERTEX
  5
AE7
  8
0
 10
0.0
 20
0.0
 30
0.0
 70
   128
 71
     5
 72
     4
 73
     8
  0
VERTEX
  5
AE8
  8
0
 10
0.0
 20
0.0
 30
0.0
 70
   128
 71
     9
 72
    10
 73
    11
  0
VERTEX
  5
AE9
  8
0
 10
0.0
 20
0.0
 30
0.0
 70
   128
 71
     9
 72
    11
 73
     8
  0
VERTEX
  5
AEA
  8
0
 10
0.0
 20
0.0
 30
0.0
 70
   128
 71
     9
 72
     8
 73
    12
  0
VERTEX
  5
AEB
  8
0
 10
0.0
 20
0.0
 30
0.0
 70
   128
 71
    12
 72
    13
 73
    14
  0
VERTEX
  5
AEC
  8
0
 10
0.0
 20
0.0
 30
0.0
 70
   128
 71
    12
 72
    14
 73
    15
  0
VERTEX
  5
AED
  8
0
 10
0.0
 20
0.0
 30
0.0
 70
   128
 71
     1
 72
     4
 73
     7
  0
VERTEX
  5
AEE
  8
0
 10
0.0
 20
0.0
 30
0.0
 70
   128
 71
     9
 72
    12
 73
    15
  0
VERTEX
  5
AEF
  8
0
 10
0.0
 20
0.0
 30
0.0
 70
   128
 71
     5
 72
     8
 73
    11
  0
SEQEND
  5
10D9
  8
0
  0
POLYLINE
  5
AF0
  8
0
 66
     1
 10
0.0
 20
0.0
 30
0.0
 70
    64
 71
    16
 72
    14
  0
VERTEX
  5
AF1
  8
0
 10
167.5840238668508
 20
11.7696210242061
 30
404.5836232564078
 70
   192
  0
VERTEX
  5
AF2
  8
0
 10
-0.0000000000000051
 20
11.76962103321702
 30
437.9181581054845
 70
   192
  0
VERTEX
  5
AF3
  8
0
 10
0.0
 20
0.4212820273002826
 30
436.9253071666939
 70
   192
  0
VERTEX
  5
AF4
  8
0
 10
218.4626535833471
 20
0.421282027300275
 30
378.388415562676
 70
   192
  0
VERTEX
  5
AF5
  8
0
 10
309.654899252933
 20
11.7696210242061
 30
309.654899252933
 70
   192
  0
VERTEX
  5
AF6
  8
0
 10
378.3884155626761
 20
0.421282027300275
 30
218.4626535833469
 70
   192
  0
VERTEX
  5
AF7
  8
0
 10
436.925307166694
 20
0.421282027300275
 30
-0.0000000000000485
 70
   192
  0
VERTEX
  5
AF8
  8
0
 10
437.9181581787723
 20
11.7696210242061
 30
-0.0000000000006155
 70
   192
  0
VERTEX
  5
AF9
  8
0
 10
404.5836232564079
 20
11.7696210242061
 30
167.5840238668508
 70
   192
  0
VERTEX
  5
AFA
  8
0
 10
404.5836232564076
 20
11.7696210242061
 30
-167.5840238668516
 70
   192
  0
VERTEX
  5
AFB
  8
0
 10
378.388415562676
 20
0.421282027300275
 30
-218.462653583347
 70
   192
  0
VERTEX
  5
AFC
  8
0
 10
309.6548992529322
 20
11.7696210242061
 30
-309.6548992529337
 70
   192
  0
VERTEX
  5
AFD
  8
0
 10
218.462653583347
 20
0.421282027300275
 30
-378.388415562676
 70
   192
  0
VERTEX
  5
AFE
  8
0
 10
0.0000000000000536
 20
0.421282027300275
 30
-436.925307166694
 70
   192
  0
VERTEX
  5
AFF
  8
0
 10
0.0000000000000536
 20
11.76962102420604
 30
-437.9181581787722
 70
   192
  0
VERTEX
  5
B00
  8
0
 10
167.58402386685
 20
11.7696210242061
 30
-404.5836232564082
 70
   192
  0
VERTEX
  5
B01
  8
0
 10
0.0
 20
0.0
 30
0.0
 70
   128
 71
     1
 72
     2
 73
     3
  0
VERTEX
  5
B02
  8
0
 10
0.0
 20
0.0
 30
0.0
 70
   128
 71
     1
 72
     3
 73
     4
  0
VERTEX
  5
B03
  8
0
 10
0.0
 20
0.0
 30
0.0
 70
   128
 71
     4
 72
     5
 73
     1
  0
VERTEX
  5
B04
  8
0
 10
0.0
 20
0.0
 30
0.0
 70
   128
 71
     6
 72
     7
 73
     8
  0
VERTEX
  5
B05
  8
0
 10
0.0
 20
0.0
 30
0.0
 70
   128
 71
     6
 72
     8
 73
     9
  0
VERTEX
  5
B06
  8
0
 10
0.0
 20
0.0
 30
0.0
 70
   128
 71
    10
 72
     8
 73
     7
  0
VERTEX
  5
B07
  8
0
 10
0.0
 20
0.0
 30
0.0
 70
   128
 71
    10
 72
     7
 73
    11
  0
VERTEX
  5
B08
  8
0
 10
0.0
 20
0.0
 30
0.0
 70
   128
 71
    11
 72
    12
 73
    10
  0
VERTEX
  5
B09
  8
0
 10
0.0
 20
0.0
 30
0.0
 70
   128
 71
    13
 72
    14
 73
    15
  0
VERTEX
  5
B0A
  8
0
 10
0.0
 20
0.0
 30
0.0
 70
   128
 71
    13
 72
    15
 73
    16
  0
VERTEX
  5
B0B
  8
0
 10
0.0
 20
0.0
 30
0.0
 70
   128
 71
     5
 72
     4
 73
     6
  0
VERTEX
  5
B0C
  8
0
 10
0.0
 20
0.0
 30
0.0
 70
   128
 71
     6
 72
     9
 73
     5
  0
VERTEX
  5
B0D
  8
0
 10
0.0
 20
0.0
 30
0.0
 70
   128
 71
    12
 72
    11
 73
    13
  0
VERTEX
  5
B0E
  8
0
 10
0.0
 20
0.0
 30
0.0
 70
   128
 71
    13
 72
    16
 73
    12
  0
SEQEND
  5
10DA
  8
0
  0
POLYLINE
  5
B0F
  8
0
 66
     1
 10
0.0
 20
0.0
 30
0.0
 70
    64
 71
    18
 72
    16
  0
VERTEX
  5
B10
  8
0
 10
0.0
 20
118.2951507991802
 30
508.5656636032379
 70
   192
  0
VERTEX
  5
B11
  8
0
 10
0.0000000000000311
 20
118.2951507991802
 30
-508.565663603238
 70
   192
  0
VERTEX
  5
B12
  8
0
 10
0.0000000000000673
 20
511.411999733537
 30
-549.8839093805391
 70
   192
  0
VERTEX
  5
B13
  8
0
 10
0.0000000000000312
 20
511.411999733537
 30
549.883909380539
 70
   192
  0
VERTEX
  5
B14
  8
0
 10
549.8839093805391
 20
511.4119997335373
 30
0.0000000000001865
 70
   192
  0
VERTEX
  5
B15
  8
0
 10
508.565663603238
 20
118.2951507991801
 30
-0.0000000000005311
 70
   192
  0
VERTEX
  5
B16
  8
0
 10
388.8266411883483
 20
511.4119997335372
 30
388.8266411883479
 70
   192
  0
VERTEX
  5
B17
  8
0
 10
359.6102294124863
 20
118.2951507991801
 30
359.6102294124859
 70
   192
  0
VERTEX
  5
B18
  8
0
 10
388.826641188348
 20
511.4119997335373
 30
-388.8266411883483
 70
   192
  0
VERTEX
  5
B19
  8
0
 10
359.6102294124855
 20
118.2951507991801
 30
-359.6102294124867
 70
   192
  0
VERTEX
  5
B1A
  8
0
 10
210.431461844079
 20
511.4119997335374
 30
508.0264891339712
 70
   192
  0
VERTEX
  5
B1B
  8
0
 10
194.6196537307168
 20
118.2951507991801
 30
469.8534075410518
 70
   192
  0
VERTEX
  5
B1C
  8
0
 10
469.853407541052
 20
118.2951507991801
 30
194.6196537307163
 70
   192
  0
VERTEX
  5
B1D
  8
0
 10
508.0264891339712
 20
511.4119997335372
 30
210.4314618440786
 70
   192
  0
VERTEX
  5
B1E
  8
0
 10
469.8534075410515
 20
118.2951507991801
 30
-194.6196537307173
 70
   192
  0
VERTEX
  5
B1F
  8
0
 10
508.0264891339715
 20
511.4119997335373
 30
-210.4314618440783
 70
   192
  0
VERTEX
  5
B20
  8
0
 10
194.619653730716
 20
118.2951507991801
 30
-469.8534075410521
 70
   192
  0
VERTEX
  5
B21
  8
0
 10
210.4314618440782
 20
511.4119997335373
 30
-508.0264891339715
 70
   192
  0
VERTEX
  5
B22
  8
0
 10
0.0
 20
0.0
 30
0.0
 70
   128
 71
    11
 72
     4
 73
    -1
  0
VERTEX
  5
B23
  8
0
 10
0.0
 20
0.0
 30
0.0
 70
   128
 71
   -11
 72
     1
 73
    12
  0
VERTEX
  5
B24
  8
0
 10
0.0
 20
0.0
 30
0.0
 70
   128
 71
    12
 72
     8
 73
    -7
  0
VERTEX
  5
B25
  8
0
 10
0.0
 20
0.0
 30
0.0
 70
   128
 71
   -12
 72
     7
 73
    11
  0
VERTEX
  5
B26
  8
0
 10
0.0
 20
0.0
 30
0.0
 70
   128
 71
    14
 72
     7
 73
    -8
  0
VERTEX
  5
B27
  8
0
 10
0.0
 20
0.0
 30
0.0
 70
   128
 71
   -14
 72
     8
 73
    13
  0
VERTEX
  5
B28
  8
0
 10
0.0
 20
0.0
 30
0.0
 70
   128
 71
    13
 72
     6
 73
    -5
  0
VERTEX
  5
B29
  8
0
 10
0.0
 20
0.0
 30
0.0
 70
   128
 71
   -13
 72
     5
 73
    14
  0
VERTEX
  5
B2A
  8
0
 10
0.0
 20
0.0
 30
0.0
 70
   128
 71
    16
 72
     5
 73
    -6
  0
VERTEX
  5
B2B
  8
0
 10
0.0
 20
0.0
 30
0.0
 70
   128
 71
   -16
 72
     6
 73
    15
  0
VERTEX
  5
B2C
  8
0
 10
0.0
 20
0.0
 30
0.0
 70
   128
 71
    15
 72
    10
 73
    -9
  0
VERTEX
  5
B2D
  8
0
 10
0.0
 20
0.0
 30
0.0
 70
   128
 71
   -15
 72
     9
 73
    16
  0
VERTEX
  5
B2E
  8
0
 10
0.0
 20
0.0
 30
0.0
 70
   128
 71
    18
 72
     9
 73
   -10
  0
VERTEX
  5
B2F
  8
0
 10
0.0
 20
0.0
 30
0.0
 70
   128
 71
   -18
 72
    10
 73
    17
  0
VERTEX
  5
B30
  8
0
 10
0.0
 20
0.0
 30
0.0
 70
   128
 71
    17
 72
     2
 73
    -3
  0
VERTEX
  5
B31
  8
0
 10
0.0
 20
0.0
 30
0.0
 70
   128
 71
   -17
 72
     3
 73
    18
  0
SEQEND
  5
10DB
  8
0
  0
POLYLINE
  5
B32
  8
0
 66
     1
 10
0.0
 20
0.0
 30
0.0
 70
    64
 71
    26
 72
    33
  0
VERTEX
  5
B33
  8
0
 10
0.0000000000011633
 20
26.63868439360841
 30
-389.5693597794879
 70
   192
  0
VERTEX
  5
B34
  8
0
 10
0.000000000000046
 20
28.1805598862645
 30
-375.3840803051285
 70
   192
  0
VERTEX
  5
B35
  8
0
 10
-176.1333111953366
 20
28.1805598862645
 30
-331.4970051657991
 70
   192
  0
VERTEX
  5
B36
  8
0
 10
-260.5432660982775
 20
26.63868439360841
 30
-289.6230180248839
 70
   192
  0
VERTEX
  5
B37
  8
0
 10
-311.0822660552348
 20
28.1805598862645
 30
-210.0976713161459
 70
   192
  0
VERTEX
  5
B38
  8
0
 10
-373.2924368208177
 20
28.1805598862645
 30
-39.57226754815761
 70
   192
  0
VERTEX
  5
B39
  8
0
 10
260.5432660982792
 20
26.63868439360841
 30
-289.6230180248823
 70
   192
  0
VERTEX
  5
B3A
  8
0
 10
176.1333111953373
 20
28.1805598862645
 30
-331.4970051657988
 70
   192
  0
VERTEX
  5
B3B
  8
0
 10
-269.3527711908506
 20
21.1528688242332
 30
-299.4157694953985
 70
   192
  0
VERTEX
  5
B3C
  8
0
 10
0.0000000000012027
 20
21.1528688242332
 30
-402.7415031638933
 70
   192
  0
VERTEX
  5
B3D
  8
0
 10
269.3527711908523
 20
21.1528688242332
 30
-299.4157694953968
 70
   192
  0
VERTEX
  5
B3E
  8
0
 10
390.1198540114501
 20
25.54764554017136
 30
-49.36000123582887
 70
   192
  0
VERTEX
  5
B3F
  8
0
 10
-276.7672482914696
 20
12.16987697511511
 30
-307.6577911262614
 70
   192
  0
VERTEX
  5
B40
  8
0
 10
0.0000000000012358
 20
12.16987697511511
 30
-413.8277735574574
 70
   192
  0
VERTEX
  5
B41
  8
0
 10
-406.1054524938743
 20
15.98704914830128
 30
-55.53664802142015
 70
   192
  0
VERTEX
  5
B42
  8
0
 10
276.7672482914713
 20
12.16987697511511
 30
-307.6577911262596
 70
   192
  0
VERTEX
  5
B43
  8
0
 10
-119.2010671848719
 20
0.4212820273002755
 30
-404.7370385938218
 70
   192
  0
VERTEX
  5
B44
  8
0
 10
319.5466641173886
 20
0.4212820273002755
 30
-275.5193174337472
 70
   192
  0
VERTEX
  5
B45
  8
0
 10
417.8727080952008
 20
0.4212820273002755
 30
-58.33836350886307
 70
   192
  0
VERTEX
  5
B46
  8
0
 10
311.0822660552356
 20
28.1805598862645
 30
-210.0976713161446
 70
   192
  0
VERTEX
  5
B47
  8
0
 10
119.2010671848718
 20
0.4212820273002755
 30
-404.7370385938219
 70
   192
  0
VERTEX
  5
B48
  8
0
 10
-319.5466641173887
 20
0.4212820273002755
 30
-275.5193174337471
 70
   192
  0
VERTEX
  5
B49
  8
0
 10
-390.1081570863146
 20
25.5518276800324
 30
-49.35449033195162
 70
   192
  0
VERTEX
  5
B4A
  8
0
 10
373.292436820818
 20
28.1805598862645
 30
-39.57226754815535
 70
   192
  0
VERTEX
  5
B4B
  8
0
 10
406.0768387482335
 20
16.01263703579287
 30
-55.52792401438773
 70
   192
  0
VERTEX
  5
B4C
  8
0
 10
-417.8727080952008
 20
0.4212820273002755
 30
-58.33836350886294
 70
   192
  0
VERTEX
  5
B4D
  8
0
 10
0.0
 20
0.0
 30
0.0
 70
   128
 71
     1
 72
     2
 73
     3
  0
VERTEX
  5
B4E
  8
0
 10
0.0
 20
0.0
 30
0.0
 70
   128
 71
     4
 72
     1
 73
     3
  0
VERTEX
  5
B4F
  8
0
 10
0.0
 20
0.0
 30
0.0
 70
   128
 71
     5
 72
     6
 73
     4
  0
VERTEX
  5
B50
  8
0
 10
0.0
 20
0.0
 30
0.0
 70
   128
 71
     2
 72
     1
 73
     7
  0
VERTEX
  5
B51
  8
0
 10
0.0
 20
0.0
 30
0.0
 70
   128
 71
     8
 72
     2
 73
     7
  0
VERTEX
  5
B52
  8
0
 10
0.0
 20
0.0
 30
0.0
 70
   128
 71
     4
 72
     9
 73
   -10
  0
VERTEX
  5
B53
  8
0
 10
0.0
 20
0.0
 30
0.0
 70
   128
 71
     1
 72
    -4
 73
    10
  0
VERTEX
  5
B54
  8
0
 10
0.0
 20
0.0
 30
0.0
 70
   128
 71
     7
 72
    11
 73
    12
  0
VERTEX
  5
B55
  8
0
 10
0.0
 20
0.0
 30
0.0
 70
   128
 71
     1
 72
    10
 73
   -11
  0
VERTEX
  5
B56
  8
0
 10
0.0
 20
0.0
 30
0.0
 70
   128
 71
     7
 72
    -1
 73
    11
  0
VERTEX
  5
B57
  8
0
 10
0.0
 20
0.0
 30
0.0
 70
   128
 71
     9
 72
    13
 73
   -14
  0
VERTEX
  5
B58
  8
0
 10
0.0
 20
0.0
 30
0.0
 70
   128
 71
    10
 72
    -9
 73
    14
  0
VERTEX
  5
B59
  8
0
 10
0.0
 20
0.0
 30
0.0
 70
   128
 71
    13
 72
     9
 73
    15
  0
VERTEX
  5
B5A
  8
0
 10
0.0
 20
0.0
 30
0.0
 70
   128
 71
    10
 72
    14
 73
   -16
  0
VERTEX
  5
B5B
  8
0
 10
0.0
 20
0.0
 30
0.0
 70
   128
 71
    11
 72
   -10
 73
    16
  0
VERTEX
  5
B5C
  8
0
 10
0.0
 20
0.0
 30
0.0
 70
   128
 71
    14
 72
    13
 73
    17
  0
VERTEX
  5
B5D
  8
0
 10
0.0
 20
0.0
 30
0.0
 70
   128
 71
    18
 72
    19
 73
    16
  0
VERTEX
  5
B5E
  8
0
 10
0.0
 20
0.0
 30
0.0
 70
   128
 71
     5
 72
     4
 73
     3
  0
VERTEX
  5
B5F
  8
0
 10
0.0
 20
0.0
 30
0.0
 70
   128
 71
     8
 72
     7
 73
    20
  0
VERTEX
  5
B60
  8
0
 10
0.0
 20
0.0
 30
0.0
 70
   128
 71
    14
 72
    17
 73
    21
  0
VERTEX
  5
B61
  8
0
 10
0.0
 20
0.0
 30
0.0
 70
   128
 71
    13
 72
    22
 73
    17
  0
VERTEX
  5
B62
  8
0
 10
0.0
 20
0.0
 30
0.0
 70
   128
 71
    14
 72
    21
 73
    18
  0
VERTEX
  5
B63
  8
0
 10
0.0
 20
0.0
 30
0.0
 70
   128
 71
    16
 72
    14
 73
    18
  0
VERTEX
  5
B64
  8
0
 10
0.0
 20
0.0
 30
0.0
 70
   128
 71
     6
 72
    23
 73
     4
  0
VERTEX
  5
B65
  8
0
 10
0.0
 20
0.0
 30
0.0
 70
   128
 71
     7
 72
    12
 73
    24
  0
VERTEX
  5
B66
  8
0
 10
0.0
 20
0.0
 30
0.0
 70
   128
 71
    20
 72
     7
 73
    24
  0
VERTEX
  5
B67
  8
0
 10
0.0
 20
0.0
 30
0.0
 70
   128
 71
    15
 72
     9
 73
     4
  0
VERTEX
  5
B68
  8
0
 10
0.0
 20
0.0
 30
0.0
 70
   128
 71
    23
 72
    15
 73
     4
  0
VERTEX
  5
B69
  8
0
 10
0.0
 20
0.0
 30
0.0
 70
   128
 71
    16
 72
    25
 73
    12
  0
VERTEX
  5
B6A
  8
0
 10
0.0
 20
0.0
 30
0.0
 70
   128
 71
    11
 72
    16
 73
    12
  0
VERTEX
  5
B6B
  8
0
 10
0.0
 20
0.0
 30
0.0
 70
   128
 71
    26
 72
    22
 73
    13
  0
VERTEX
  5
B6C
  8
0
 10
0.0
 20
0.0
 30
0.0
 70
   128
 71
    15
 72
    26
 73
    13
  0
VERTEX
  5
B6D
  8
0
 10
0.0
 20
0.0
 30
0.0
 70
   128
 71
    16
 72
    19
 73
    25
  0
SEQEND
  5
10DC
  8
0
  0
POLYLINE
  5
B6E
  8
0
 66
     1
 10
0.0
 20
0.0
 30
0.0
 70
    64
 71
    22
 72
    20
  0
VERTEX
  5
B6F
  8
0
 10
-0.0000000000000276
 20
124.8595480275264
 30
494.172985360451
 70
   192
  0
VERTEX
  5
B70
  8
0
 10
0.0000000000000311
 20
124.8595480275264
 30
-494.172985360451
 70
   192
  0
VERTEX
  5
B71
  8
0
 10
0.0000000000000254
 20
44.3219352898974
 30
-407.806969480531
 70
   192
  0
VERTEX
  5
B72
  8
0
 10
0.000000000000026
 20
44.3219352898974
 30
407.806969480531
 70
   192
  0
VERTEX
  5
B73
  8
0
 10
-407.8069694805308
 20
44.32193528989743
 30
-0.0000000000000808
 70
   192
  0
VERTEX
  5
B74
  8
0
 10
-494.172985360451
 20
124.8595480275266
 30
0.0000000000016644
 70
   192
  0
VERTEX
  5
B75
  8
0
 10
-288.3630735348188
 20
44.3219352898974
 30
-288.3630735348188
 70
   192
  0
VERTEX
  5
B76
  8
0
 10
-349.4330690275763
 20
124.8595480275266
 30
-349.4330690275744
 70
   192
  0
VERTEX
  5
B77
  8
0
 10
-288.3630735348188
 20
44.32193528989743
 30
288.3630735348185
 70
   192
  0
VERTEX
  5
B78
  8
0
 10
-349.4330690275739
 20
124.8595480275266
 30
349.4330690275769
 70
   192
  0
VERTEX
  5
B79
  8
0
 10
-376.7645123185173
 20
44.3219352898974
 30
-156.0609708232153
 70
   192
  0
VERTEX
  5
B7A
  8
0
 10
-456.5563066945209
 20
124.8595480275266
 30
-189.1118142198393
 70
   192
  0
VERTEX
  5
B7B
  8
0
 10
-0.0000000000000013
 20
80.75567534720786
 30
-483.8221395724883
 70
   192
  0
VERTEX
  5
B7C
  8
0
 10
-189.1118142198416
 20
124.8595480275266
 30
-456.55630669452
 70
   192
  0
VERTEX
  5
B7D
  8
0
 10
-156.0609708232149
 20
44.32193528989743
 30
-376.7645123185175
 70
   192
  0
VERTEX
  5
B7E
  8
0
 10
-0.0000000000000004
 20
51.57103630111261
 30
-452.5254458460907
 70
   192
  0
VERTEX
  5
B7F
  8
0
 10
0.0000000000000618
 20
80.75567534720786
 30
483.8221395724883
 70
   192
  0
VERTEX
  5
B80
  8
0
 10
0.0000000000000577
 20
51.57103630111261
 30
452.5254458460907
 70
   192
  0
VERTEX
  5
B81
  8
0
 10
-156.0609708232153
 20
44.32193528989743
 30
376.7645123185173
 70
   192
  0
VERTEX
  5
B82
  8
0
 10
-189.1118142198389
 20
124.8595480275266
 30
456.5563066945211
 70
   192
  0
VERTEX
  5
B83
  8
0
 10
-376.7645123185173
 20
44.32193528989743
 30
156.060970823215
 70
   192
  0
VERTEX
  5
B84
  8
0
 10
-456.5563066945198
 20
124.8595480275266
 30
189.1118142198424
 70
   192
  0
VERTEX
  5
B85
  8
0
 10
0.0
 20
0.0
 30
0.0
 70
   128
 71
     7
 72
     8
 73
   -12
  0
VERTEX
  5
B86
  8
0
 10
0.0
 20
0.0
 30
0.0
 70
   128
 71
    11
 72
    -7
 73
    12
  0
VERTEX
  5
B87
  8
0
 10
0.0
 20
0.0
 30
0.0
 70
   128
 71
     6
 72
     5
 73
   -11
  0
VERTEX
  5
B88
  8
0
 10
0.0
 20
0.0
 30
0.0
 70
   128
 71
    12
 72
    -6
 73
    11
  0
VERTEX
  5
B89
  8
0
 10
0.0
 20
0.0
 30
0.0
 70
   128
 71
    16
 72
     7
 73
    15
  0
VERTEX
  5
B8A
  8
0
 10
0.0
 20
0.0
 30
0.0
 70
   128
 71
    15
 72
     3
 73
    16
  0
VERTEX
  5
B8B
  8
0
 10
0.0
 20
0.0
 30
0.0
 70
   128
 71
    13
 72
     8
 73
     7
  0
VERTEX
  5
B8C
  8
0
 10
0.0
 20
0.0
 30
0.0
 70
   128
 71
    16
 72
    13
 73
     7
  0
VERTEX
  5
B8D
  8
0
 10
0.0
 20
0.0
 30
0.0
 70
   128
 71
    13
 72
     2
 73
    14
  0
VERTEX
  5
B8E
  8
0
 10
0.0
 20
0.0
 30
0.0
 70
   128
 71
    14
 72
     8
 73
    13
  0
VERTEX
  5
B8F
  8
0
 10
0.0
 20
0.0
 30
0.0
 70
   128
 71
     9
 72
    10
 73
   -20
  0
VERTEX
  5
B90
  8
0
 10
0.0
 20
0.0
 30
0.0
 70
   128
 71
    19
 72
    -9
 73
    20
  0
VERTEX
  5
B91
  8
0
 10
0.0
 20
0.0
 30
0.0
 70
   128
 71
    20
 72
     1
 73
    17
  0
VERTEX
  5
B92
  8
0
 10
0.0
 20
0.0
 30
0.0
 70
   128
 71
    18
 72
    19
 73
    20
  0
VERTEX
  5
B93
  8
0
 10
0.0
 20
0.0
 30
0.0
 70
   128
 71
    17
 72
    18
 73
    20
  0
VERTEX
  5
B94
  8
0
 10
0.0
 20
0.0
 30
0.0
 70
   128
 71
    18
 72
     4
 73
    19
  0
VERTEX
  5
B95
  8
0
 10
0.0
 20
0.0
 30
0.0
 70
   128
 71
     5
 72
     6
 73
   -22
  0
VERTEX
  5
B96
  8
0
 10
0.0
 20
0.0
 30
0.0
 70
   128
 71
    21
 72
    -5
 73
    22
  0
VERTEX
  5
B97
  8
0
 10
0.0
 20
0.0
 30
0.0
 70
   128
 71
    10
 72
     9
 73
   -21
  0
VERTEX
  5
B98
  8
0
 10
0.0
 20
0.0
 30
0.0
 70
   128
 71
    22
 72
   -10
 73
    21
  0
SEQEND
  5
10DD
  8
0
  0
POLYLINE
  5
B99
  8
0
 66
     1
 10
0.0
 20
0.0
 30
0.0
 70
    64
 71
    32
 72
    32
  0
VERTEX
  5
B9A
  8
0
 10
-0.0000000000000208
 20
512.5165281968051
 30
-548.889387485171
 70
   192
  0
VERTEX
  5
B9B
  8
0
 10
210.0508747915968
 20
512.5165281968051
 30
-507.107670710206
 70
   192
  0
VERTEX
  5
B9C
  8
0
 10
388.1234080120947
 20
512.5165281968051
 30
-388.1234080120947
 70
   192
  0
VERTEX
  5
B9D
  8
0
 10
507.107670710206
 20
512.5165281968051
 30
-210.0508747915968
 70
   192
  0
VERTEX
  5
B9E
  8
0
 10
548.8893874851706
 20
512.5165281968051
 30
-0.0000000000000249
 70
   192
  0
VERTEX
  5
B9F
  8
0
 10
507.1076707102064
 20
512.5165281968051
 30
210.050874791597
 70
   192
  0
VERTEX
  5
BA0
  8
0
 10
388.1234080120947
 20
512.5165281968051
 30
388.1234080120952
 70
   192
  0
VERTEX
  5
BA1
  8
0
 10
210.0508747915978
 20
512.5165281968051
 30
507.107670710206
 70
   192
  0
VERTEX
  5
BA2
  8
0
 10
0.0000000000000711
 20
512.5165281968051
 30
548.889387485171
 70
   192
  0
VERTEX
  5
BA3
  8
0
 10
-210.050874791596
 20
512.5165281968051
 30
507.1076707102064
 70
   192
  0
VERTEX
  5
BA4
  8
0
 10
-388.123408012095
 20
512.5165281968051
 30
388.1234080120945
 70
   192
  0
VERTEX
  5
BA5
  8
0
 10
-507.107670710206
 20
512.5165281968051
 30
210.0508747915978
 70
   192
  0
VERTEX
  5
BA6
  8
0
 10
-548.8893874851706
 20
512.5165281968051
 30
-0.0000000000009006
 70
   192
  0
VERTEX
  5
BA7
  8
0
 10
-507.1076707102064
 20
512.5165281968051
 30
-210.050874791596
 70
   192
  0
VERTEX
  5
BA8
  8
0
 10
-388.1234080120958
 20
512.5165281968051
 30
-388.1234080120938
 70
   192
  0
VERTEX
  5
BA9
  8
0
 10
-210.0508747915978
 20
512.5165281968051
 30
-507.107670710206
 70
   192
  0
VERTEX
  5
BAA
  8
0
 10
-0.000000000000026
 20
512.5165281968051
 30
-537.618587939441
 70
   192
  0
VERTEX
  5
BAB
  8
0
 10
-205.7377265359387
 20
512.5165281968051
 30
-496.694809694868
 70
   192
  0
VERTEX
  5
BAC
  8
0
 10
-380.1537492239158
 20
512.5165281968051
 30
-380.1537492239137
 70
   192
  0
VERTEX
  5
BAD
  8
0
 10
-496.694809694869
 20
512.5165281968051
 30
-205.7377265359373
 70
   192
  0
VERTEX
  5
BAE
  8
0
 10
-537.618587939441
 20
512.5165281968051
 30
-0.0000000000009504
 70
   192
  0
VERTEX
  5
BAF
  8
0
 10
-496.6948096948685
 20
512.5165281968051
 30
205.7377265359387
 70
   192
  0
VERTEX
  5
BB0
  8
0
 10
-380.1537492239153
 20
512.5165281968051
 30
380.1537492239145
 70
   192
  0
VERTEX
  5
BB1
  8
0
 10
-205.7377265359373
 20
512.5165281968051
 30
496.694809694869
 70
   192
  0
VERTEX
  5
BB2
  8
0
 10
0.0000000000000607
 20
512.5165281968051
 30
537.618587939441
 70
   192
  0
VERTEX
  5
BB3
  8
0
 10
205.7377265359387
 20
512.5165281968051
 30
496.6948096948685
 70
   192
  0
VERTEX
  5
BB4
  8
0
 10
380.1537492239145
 20
512.5165281968051
 30
380.1537492239152
 70
   192
  0
VERTEX
  5
BB5
  8
0
 10
496.6948096948685
 20
512.5165281968051
 30
205.7377265359382
 70
   192
  0
VERTEX
  5
BB6
  8
0
 10
537.6185879394405
 20
512.5165281968051
 30
0.0000000000000497
 70
   192
  0
VERTEX
  5
BB7
  8
0
 10
496.694809694869
 20
512.5165281968051
 30
-205.737726535938
 70
   192
  0
VERTEX
  5
BB8
  8
0
 10
380.153749223915
 20
512.5165281968051
 30
-380.1537492239148
 70
   192
  0
VERTEX
  5
BB9
  8
0
 10
205.737726535938
 20
512.5165281968051
 30
-496.6948096948685
 70
   192
  0
VERTEX
  5
BBA
  8
0
 10
0.0
 20
0.0
 30
0.0
 70
   128
 71
    18
 72
   -17
 73
    -1
  0
VERTEX
  5
BBB
  8
0
 10
0.0
 20
0.0
 30
0.0
 70
   128
 71
   -18
 72
     1
 73
   -16
  0
VERTEX
  5
BBC
  8
0
 10
0.0
 20
0.0
 30
0.0
 70
   128
 71
    16
 72
   -15
 73
   -19
  0
VERTEX
  5
BBD
  8
0
 10
0.0
 20
0.0
 30
0.0
 70
   128
 71
   -16
 72
    19
 73
   -18
  0
VERTEX
  5
BBE
  8
0
 10
0.0
 20
0.0
 30
0.0
 70
   128
 71
    15
 72
   -14
 73
   -20
  0
VERTEX
  5
BBF
  8
0
 10
0.0
 20
0.0
 30
0.0
 70
   128
 71
   -15
 72
    20
 73
   -19
  0
VERTEX
  5
BC0
  8
0
 10
0.0
 20
0.0
 30
0.0
 70
   128
 71
    14
 72
   -13
 73
   -21
  0
VERTEX
  5
BC1
  8
0
 10
0.0
 20
0.0
 30
0.0
 70
   128
 71
   -14
 72
    21
 73
   -20
  0
VERTEX
  5
BC2
  8
0
 10
0.0
 20
0.0
 30
0.0
 70
   128
 71
    13
 72
   -12
 73
   -22
  0
VERTEX
  5
BC3
  8
0
 10
0.0
 20
0.0
 30
0.0
 70
   128
 71
   -13
 72
    22
 73
   -21
  0
VERTEX
  5
BC4
  8
0
 10
0.0
 20
0.0
 30
0.0
 70
   128
 71
    12
 72
   -11
 73
   -23
  0
VERTEX
  5
BC5
  8
0
 10
0.0
 20
0.0
 30
0.0
 70
   128
 71
   -12
 72
    23
 73
   -22
  0
VERTEX
  5
BC6
  8
0
 10
0.0
 20
0.0
 30
0.0
 70
   128
 71
    11
 72
   -10
 73
   -24
  0
VERTEX
  5
BC7
  8
0
 10
0.0
 20
0.0
 30
0.0
 70
   128
 71
   -11
 72
    24
 73
   -23
  0
VERTEX
  5
BC8
  8
0
 10
0.0
 20
0.0
 30
0.0
 70
   128
 71
    10
 72
    -9
 73
   -25
  0
VERTEX
  5
BC9
  8
0
 10
0.0
 20
0.0
 30
0.0
 70
   128
 71
   -10
 72
    25
 73
   -24
  0
VERTEX
  5
BCA
  8
0
 10
0.0
 20
0.0
 30
0.0
 70
   128
 71
     9
 72
    -8
 73
   -26
  0
VERTEX
  5
BCB
  8
0
 10
0.0
 20
0.0
 30
0.0
 70
   128
 71
    -9
 72
    26
 73
   -25
  0
VERTEX
  5
BCC
  8
0
 10
0.0
 20
0.0
 30
0.0
 70
   128
 71
     8
 72
    -7
 73
   -27
  0
VERTEX
  5
BCD
  8
0
 10
0.0
 20
0.0
 30
0.0
 70
   128
 71
    -8
 72
    27
 73
   -26
  0
VERTEX
  5
BCE
  8
0
 10
0.0
 20
0.0
 30
0.0
 70
   128
 71
     7
 72
    -6
 73
   -28
  0
VERTEX
  5
BCF
  8
0
 10
0.0
 20
0.0
 30
0.0
 70
   128
 71
    -7
 72
    28
 73
   -27
  0
VERTEX
  5
BD0
  8
0
 10
0.0
 20
0.0
 30
0.0
 70
   128
 71
     6
 72
    -5
 73
   -29
  0
VERTEX
  5
BD1
  8
0
 10
0.0
 20
0.0
 30
0.0
 70
   128
 71
    -6
 72
    29
 73
   -28
  0
VERTEX
  5
BD2
  8
0
 10
0.0
 20
0.0
 30
0.0
 70
   128
 71
     5
 72
    -4
 73
   -30
  0
VERTEX
  5
BD3
  8
0
 10
0.0
 20
0.0
 30
0.0
 70
   128
 71
    -5
 72
    30
 73
   -29
  0
VERTEX
  5
BD4
  8
0
 10
0.0
 20
0.0
 30
0.0
 70
   128
 71
     4
 72
    -3
 73
   -31
  0
VERTEX
  5
BD5
  8
0
 10
0.0
 20
0.0
 30
0.0
 70
   128
 71
    -4
 72
    31
 73
   -30
  0
VERTEX
  5
BD6
  8
0
 10
0.0
 20
0.0
 30
0.0
 70
   128
 71
     3
 72
    -2
 73
   -32
  0
VERTEX
  5
BD7
  8
0
 10
0.0
 20
0.0
 30
0.0
 70
   128
 71
    -3
 72
    32
 73
   -31
  0
VERTEX
  5
BD8
  8
0
 10
0.0
 20
0.0
 30
0.0
 70
   128
 71
     2
 72
    -1
 73
   -17
  0
VERTEX
  5
BD9
  8
0
 10
0.0
 20
0.0
 30
0.0
 70
   128
 71
    -2
 72
    17
 73
   -32
  0
SEQEND
  5
10DE
  8
0
  0
POLYLINE
  5
BDA
  8
0
 66
     1
 10
0.0
 20
0.0
 30
0.0
 70
    64
 71
    18
 72
    16
  0
VERTEX
  5
BDB
  8
0
 10
0.0000000000000623
 20
118.2951507991802
 30
-508.5656636032379
 70
   192
  0
VERTEX
  5
BDC
  8
0
 10
-0.0000000000000328
 20
118.2951507991802
 30
508.565663603238
 70
   192
  0
VERTEX
  5
BDD
  8
0
 10
0.0
 20
511.411999733537
 30
549.8839093805391
 70
   192
  0
VERTEX
  5
BDE
  8
0
 10
0.0000000000000094
 20
511.411999733537
 30
-549.883909380539
 70
   192
  0
VERTEX
  5
BDF
  8
0
 10
-549.8839093805392
 20
511.4119997335375
 30
0.000000000001279
 70
   192
  0
VERTEX
  5
BE0
  8
0
 10
-508.5656636032381
 20
118.2951507991801
 30
0.0000000000011777
 70
   192
  0
VERTEX
  5
BE1
  8
0
 10
-388.8266411883492
 20
511.4119997335375
 30
-388.8266411883473
 70
   192
  0
VERTEX
  5
BE2
  8
0
 10
-359.6102294124865
 20
118.2951507991801
 30
-359.6102294124857
 70
   192
  0
VERTEX
  5
BE3
  8
0
 10
-388.826641188347
 20
511.4119997335375
 30
388.8266411883495
 70
   192
  0
VERTEX
  5
BE4
  8
0
 10
-359.6102294124848
 20
118.2951507991801
 30
359.6102294124873
 70
   192
  0
VERTEX
  5
BE5
  8
0
 10
-194.6196537307172
 20
118.2951507991801
 30
-469.8534075410516
 70
   192
  0
VERTEX
  5
BE6
  8
0
 10
-210.4314618440801
 20
511.4119997335375
 30
-508.0264891339705
 70
   192
  0
VERTEX
  5
BE7
  8
0
 10
-469.8534075410521
 20
118.2951507991801
 30
-194.6196537307161
 70
   192
  0
VERTEX
  5
BE8
  8
0
 10
-508.0264891339717
 20
511.4119997335374
 30
-210.4314618440774
 70
   192
  0
VERTEX
  5
BE9
  8
0
 10
-469.8534075410513
 20
118.2951507991801
 30
194.619653730718
 70
   192
  0
VERTEX
  5
BEA
  8
0
 10
-508.0264891339708
 20
511.4119997335375
 30
210.43146184408
 70
   192
  0
VERTEX
  5
BEB
  8
0
 10
-194.6196537307152
 20
118.2951507991801
 30
469.8534075410525
 70
   192
  0
VERTEX
  5
BEC
  8
0
 10
-210.4314618440773
 20
511.4119997335375
 30
508.0264891339718
 70
   192
  0
VERTEX
  5
BED
  8
0
 10
0.0
 20
0.0
 30
0.0
 70
   128
 71
    12
 72
     4
 73
    -1
  0
VERTEX
  5
BEE
  8
0
 10
0.0
 20
0.0
 30
0.0
 70
   128
 71
   -12
 72
     1
 73
    11
  0
VERTEX
  5
BEF
  8
0
 10
0.0
 20
0.0
 30
0.0
 70
   128
 71
    11
 72
     8
 73
    -7
  0
VERTEX
  5
BF0
  8
0
 10
0.0
 20
0.0
 30
0.0
 70
   128
 71
   -11
 72
     7
 73
    12
  0
VERTEX
  5
BF1
  8
0
 10
0.0
 20
0.0
 30
0.0
 70
   128
 71
    14
 72
     7
 73
    -8
  0
VERTEX
  5
BF2
  8
0
 10
0.0
 20
0.0
 30
0.0
 70
   128
 71
   -14
 72
     8
 73
    13
  0
VERTEX
  5
BF3
  8
0
 10
0.0
 20
0.0
 30
0.0
 70
   128
 71
    13
 72
     6
 73
    -5
  0
VERTEX
  5
BF4
  8
0
 10
0.0
 20
0.0
 30
0.0
 70
   128
 71
   -13
 72
     5
 73
    14
  0
VERTEX
  5
BF5
  8
0
 10
0.0
 20
0.0
 30
0.0
 70
   128
 71
    16
 72
     5
 73
    -6
  0
VERTEX
  5
BF6
  8
0
 10
0.0
 20
0.0
 30
0.0
 70
   128
 71
   -16
 72
     6
 73
    15
  0
VERTEX
  5
BF7
  8
0
 10
0.0
 20
0.0
 30
0.0
 70
   128
 71
    15
 72
    10
 73
    -9
  0
VERTEX
  5
BF8
  8
0
 10
0.0
 20
0.0
 30
0.0
 70
   128
 71
   -15
 72
     9
 73
    16
  0
VERTEX
  5
BF9
  8
0
 10
0.0
 20
0.0
 30
0.0
 70
   128
 71
    18
 72
     9
 73
   -10
  0
VERTEX
  5
BFA
  8
0
 10
0.0
 20
0.0
 30
0.0
 70
   128
 71
   -18
 72
    10
 73
    17
  0
VERTEX
  5
BFB
  8
0
 10
0.0
 20
0.0
 30
0.0
 70
   128
 71
    17
 72
     2
 73
    -3
  0
VERTEX
  5
BFC
  8
0
 10
0.0
 20
0.0
 30
0.0
 70
   128
 71
   -17
 72
     3
 73
    18
  0
SEQEND
  5
10DF
  8
0
  0
POLYLINE
  5
BFD
  8
0
 66
     1
 10
0.0
 20
0.0
 30
0.0
 70
    64
 71
    19
 72
    17
  0
VERTEX
  5
BFE
  8
0
 10
-167.5659469069275
 20
11.76962102683815
 30
-404.591110505501
 70
   192
  0
VERTEX
  5
BFF
  8
0
 10
0.0000000000000255
 20
11.76962102420606
 30
-437.918158178772
 70
   192
  0
VERTEX
  5
C00
  8
0
 10
0.0000000000000535
 20
0.4212820273002826
 30
-436.9253071666939
 70
   192
  0
VERTEX
  5
C01
  8
0
 10
-218.4626535833472
 20
0.421282027300275
 30
-378.3884155626759
 70
   192
  0
VERTEX
  5
C02
  8
0
 10
-309.6272272605933
 20
11.76962102947021
 30
-309.6825687732661
 70
   192
  0
VERTEX
  5
C03
  8
0
 10
-378.3884155626762
 20
0.421282027300275
 30
-218.4626535833468
 70
   192
  0
VERTEX
  5
C04
  8
0
 10
-436.925307166694
 20
0.421282027300275
 30
0.0000000000001698
 70
   192
  0
VERTEX
  5
C05
  8
0
 10
-437.9181511859595
 20
11.7696210347343
 30
-0.078264717474533
 70
   192
  0
VERTEX
  5
C06
  8
0
 10
-404.5611566644375
 20
11.76962103210225
 30
-167.6382527397181
 70
   192
  0
VERTEX
  5
C07
  8
0
 10
-404.6210514248685
 20
11.76962103736635
 30
167.4936357224673
 70
   192
  0
VERTEX
  5
C08
  8
0
 10
-378.388415562676
 20
0.421282027300275
 30
218.4626535833471
 70
   192
  0
VERTEX
  5
C09
  8
0
 10
-309.7379003950775
 20
11.7696210399984
 30
309.571875858818
 70
   192
  0
VERTEX
  5
C0A
  8
0
 10
-218.4626535833469
 20
0.421282027300275
 30
378.3884155626761
 70
   192
  0
VERTEX
  5
C0B
  8
0
 10
0.0000000000000535
 20
0.421282027300275
 30
436.925307166694
 70
   192
  0
VERTEX
  5
C0C
  8
0
 10
-0.156529432453962
 20
11.76962104526246
 30
437.9181302056795
 70
   192
  0
VERTEX
  5
C0D
  8
0
 10
-167.7105532181857
 20
11.76962104263045
 30
404.5311899017801
 70
   192
  0
VERTEX
  5
C0E
  8
0
 10
-0.1043529562030727
 20
11.76962102498593
 30
437.9181457455359
 70
   192
  0
VERTEX
  5
C0F
  8
0
 10
-0.0521764784716295
 20
11.7696210245398
 30
437.9181550677315
 70
   192
  0
VERTEX
  5
C10
  8
0
 10
0.0
 20
11.76962102678543
 30
437.9181581789979
 70
   192
  0
VERTEX
  5
C11
  8
0
 10
0.0
 20
0.0
 30
0.0
 70
   128
 71
     1
 72
     2
 73
     3
  0
VERTEX
  5
C12
  8
0
 10
0.0
 20
0.0
 30
0.0
 70
   128
 71
     1
 72
     3
 73
     4
  0
VERTEX
  5
C13
  8
0
 10
0.0
 20
0.0
 30
0.0
 70
   128
 71
     4
 72
     5
 73
     1
  0
VERTEX
  5
C14
  8
0
 10
0.0
 20
0.0
 30
0.0
 70
   128
 71
     6
 72
     7
 73
     8
  0
VERTEX
  5
C15
  8
0
 10
0.0
 20
0.0
 30
0.0
 70
   128
 71
     6
 72
     8
 73
     9
  0
VERTEX
  5
C16
  8
0
 10
0.0
 20
0.0
 30
0.0
 70
   128
 71
    10
 72
     7
 73
    11
  0
VERTEX
  5
C17
  8
0
 10
0.0
 20
0.0
 30
0.0
 70
   128
 71
    11
 72
    12
 73
    10
  0
VERTEX
  5
C18
  8
0
 10
0.0
 20
0.0
 30
0.0
 70
   128
 71
    13
 72
    14
 73
    15
  0
VERTEX
  5
C19
  8
0
 10
0.0
 20
0.0
 30
0.0
 70
   128
 71
    13
 72
    15
 73
    16
  0
VERTEX
  5
C1A
  8
0
 10
0.0
 20
0.0
 30
0.0
 70
   128
 71
    17
 72
    15
 73
    14
  0
VERTEX
  5
C1B
  8
0
 10
0.0
 20
0.0
 30
0.0
 70
   128
 71
    14
 72
    18
 73
    17
  0
VERTEX
  5
C1C
  8
0
 10
0.0
 20
0.0
 30
0.0
 70
   128
 71
    14
 72
    19
 73
    18
  0
VERTEX
  5
C1D
  8
0
 10
0.0
 20
0.0
 30
0.0
 70
   128
 71
     8
 72
     7
 73
    10
  0
VERTEX
  5
C1E
  8
0
 10
0.0
 20
0.0
 30
0.0
 70
   128
 71
     5
 72
     4
 73
     6
  0
VERTEX
  5
C1F
  8
0
 10
0.0
 20
0.0
 30
0.0
 70
   128
 71
     6
 72
     9
 73
     5
  0
VERTEX
  5
C20
  8
0
 10
0.0
 20
0.0
 30
0.0
 70
   128
 71
    12
 72
    11
 73
    13
  0
VERTEX
  5
C21
  8
0
 10
0.0
 20
0.0
 30
0.0
 70
   128
 71
    13
 72
    16
 73
    12
  0
SEQEND
  5
10E0
  8
0
  0
POLYLINE
  5
C22
  8
0
 66
     1
 10
0.0
 20
0.0
 30
0.0
 70
    64
 71
    41
 72
    41
  0
VERTEX
  5
C23
  8
0
 10
0.0000000000001455
 20
0.421282027300275
 30
436.925307166694
 70
   192
  0
VERTEX
  5
C24
  8
0
 10
218.4626535833471
 20
0.421282027300275
 30
378.388415562676
 70
   192
  0
VERTEX
  5
C25
  8
0
 10
378.3884155626761
 20
0.421282027300275
 30
218.4626535833469
 70
   192
  0
VERTEX
  5
C26
  8
0
 10
436.925307166694
 20
0.421282027300275
 30
-0.0000000000000485
 70
   192
  0
VERTEX
  5
C27
  8
0
 10
378.388415562676
 20
0.421282027300275
 30
-218.462653583347
 70
   192
  0
VERTEX
  5
C28
  8
0
 10
218.462653583347
 20
0.421282027300275
 30
-378.388415562676
 70
   192
  0
VERTEX
  5
C29
  8
0
 10
-0.0000000000003153
 20
0.421282027300275
 30
-436.925307166694
 70
   192
  0
VERTEX
  5
C2A
  8
0
 10
-218.4626535833472
 20
0.421282027300275
 30
-378.3884155626759
 70
   192
  0
VERTEX
  5
C2B
  8
0
 10
-378.3884155626762
 20
0.421282027300275
 30
-218.4626535833468
 70
   192
  0
VERTEX
  5
C2C
  8
0
 10
-436.925307166694
 20
0.421282027300275
 30
0.0000000000001698
 70
   192
  0
VERTEX
  5
C2D
  8
0
 10
-378.388415562676
 20
0.421282027300275
 30
218.4626535833471
 70
   192
  0
VERTEX
  5
C2E
  8
0
 10
-218.4626535833469
 20
0.421282027300275
 30
378.3884155626761
 70
   192
  0
VERTEX
  5
C2F
  8
0
 10
417.8727080952005
 20
0.4212820273002755
 30
-58.3383635088631
 70
   192
  0
VERTEX
  5
C30
  8
0
 10
416.7488600559436
 20
0.4212820273002755
 30
-49.09826321568501
 70
   192
  0
VERTEX
  5
C31
  8
0
 10
411.4346351214882
 20
0.4212820273002755
 30
-41.48828247283681
 70
   192
  0
VERTEX
  5
C32
  8
0
 10
403.52834621271
 20
0.4212820273002755
 30
-36.43983836097264
 70
   192
  0
VERTEX
  5
C33
  8
0
 10
382.9065921767287
 20
0.4212820273002755
 30
-14.90727889785182
 70
   192
  0
VERTEX
  5
C34
  8
0
 10
382.9065921767287
 20
0.4212820273002755
 30
14.90727889785172
 70
   192
  0
VERTEX
  5
C35
  8
0
 10
403.52834621271
 20
0.4212820273002755
 30
36.43983836097249
 70
   192
  0
VERTEX
  5
C36
  8
0
 10
411.4451549393107
 20
0.4212820273002754
 30
41.4979805885133
 70
   192
  0
VERTEX
  5
C37
  8
0
 10
416.7570131740945
 20
0.4212820273002755
 30
49.11884040669498
 70
   192
  0
VERTEX
  5
C38
  8
0
 10
417.8727080952008
 20
0.4212820273002755
 30
58.33836350886307
 70
   192
  0
VERTEX
  5
C39
  8
0
 10
344.3559692717839
 20
0.4212820273002755
 30
243.8030583372558
 70
   192
  0
VERTEX
  5
C3A
  8
0
 10
193.8482454790125
 20
0.4212820273002755
 30
374.7583522116853
 70
   192
  0
VERTEX
  5
C3B
  8
0
 10
0.000000000000239
 20
0.4212820273002755
 30
421.925307166694
 70
   192
  0
VERTEX
  5
C3C
  8
0
 10
-193.8482454790124
 20
0.4212820273002755
 30
374.7583522116854
 70
   192
  0
VERTEX
  5
C3D
  8
0
 10
-344.3559692717839
 20
0.4212820273002755
 30
243.8030583372558
 70
   192
  0
VERTEX
  5
C3E
  8
0
 10
-417.8727080952005
 20
0.4212820273002755
 30
58.338363508863
 70
   192
  0
VERTEX
  5
C3F
  8
0
 10
-416.7488600557422
 20
0.4212820273002755
 30
49.09826321563972
 70
   192
  0
VERTEX
  5
C40
  8
0
 10
-411.4346351218763
 20
0.4212820273002754
 30
41.48828247315983
 70
   192
  0
VERTEX
  5
C41
  8
0
 10
-403.52834621271
 20
0.4212820273002755
 30
36.43983836097254
 70
   192
  0
VERTEX
  5
C42
  8
0
 10
-382.9065921767287
 20
0.4212820273002755
 30
14.90727889785171
 70
   192
  0
VERTEX
  5
C43
  8
0
 10
-382.9065921767287
 20
0.4212820273002755
 30
-14.90727889785182
 70
   192
  0
VERTEX
  5
C44
  8
0
 10
-403.52834621271
 20
0.4212820273002755
 30
-36.4398383609726
 70
   192
  0
VERTEX
  5
C45
  8
0
 10
-411.4451549392069
 20
0.4212820273002754
 30
-41.49798058818256
 70
   192
  0
VERTEX
  5
C46
  8
0
 10
-416.7570131742505
 20
0.4212820273002756
 30
-49.11884040710913
 70
   192
  0
VERTEX
  5
C47
  8
0
 10
-417.8727080952008
 20
0.4212820273002755
 30
-58.33836350886294
 70
   192
  0
VERTEX
  5
C48
  8
0
 10
-319.5466641173887
 20
0.4212820273002755
 30
-275.5193174337471
 70
   192
  0
VERTEX
  5
C49
  8
0
 10
-119.2010671848719
 20
0.4212820273002755
 30
-404.7370385938218
 70
   192
  0
VERTEX
  5
C4A
  8
0
 10
119.2010671848718
 20
0.4212820273002755
 30
-404.7370385938219
 70
   192
  0
VERTEX
  5
C4B
  8
0
 10
319.5466641173886
 20
0.4212820273002755
 30
-275.5193174337472
 70
   192
  0
VERTEX
  5
C4C
  8
0
 10
0.0
 20
0.0
 30
0.0
 70
   128
 71
    14
 72
   -13
 73
    -4
  0
VERTEX
  5
C4D
  8
0
 10
0.0
 20
0.0
 30
0.0
 70
   128
 71
    -4
 72
    15
 73
   -14
  0
VERTEX
  5
C4E
  8
0
 10
0.0
 20
0.0
 30
0.0
 70
   128
 71
    -4
 72
    20
 73
   -19
  0
VERTEX
  5
C4F
  8
0
 10
0.0
 20
0.0
 30
0.0
 70
   128
 71
    -4
 72
    19
 73
   -18
  0
VERTEX
  5
C50
  8
0
 10
0.0
 20
0.0
 30
0.0
 70
   128
 71
    -4
 72
    18
 73
   -17
  0
VERTEX
  5
C51
  8
0
 10
0.0
 20
0.0
 30
0.0
 70
   128
 71
    -4
 72
    17
 73
   -16
  0
VERTEX
  5
C52
  8
0
 10
0.0
 20
0.0
 30
0.0
 70
   128
 71
    -4
 72
    16
 73
   -15
  0
VERTEX
  5
C53
  8
0
 10
0.0
 20
0.0
 30
0.0
 70
   128
 71
    -4
 72
    21
 73
   -20
  0
VERTEX
  5
C54
  8
0
 10
0.0
 20
0.0
 30
0.0
 70
   128
 71
    -4
 72
    22
 73
   -21
  0
VERTEX
  5
C55
  8
0
 10
0.0
 20
0.0
 30
0.0
 70
   128
 71
   -22
 72
     4
 73
    -3
  0
VERTEX
  5
C56
  8
0
 10
0.0
 20
0.0
 30
0.0
 70
   128
 71
    -3
 72
    23
 73
   -22
  0
VERTEX
  5
C57
  8
0
 10
0.0
 20
0.0
 30
0.0
 70
   128
 71
   -23
 72
     3
 73
    -2
  0
VERTEX
  5
C58
  8
0
 10
0.0
 20
0.0
 30
0.0
 70
   128
 71
    -2
 72
    24
 73
   -23
  0
VERTEX
  5
C59
  8
0
 10
0.0
 20
0.0
 30
0.0
 70
   128
 71
     2
 72
    -1
 73
   -25
  0
VERTEX
  5
C5A
  8
0
 10
0.0
 20
0.0
 30
0.0
 70
   128
 71
    -2
 72
    25
 73
   -24
  0
VERTEX
  5
C5B
  8
0
 10
0.0
 20
0.0
 30
0.0
 70
   128
 71
     1
 72
   -12
 73
   -26
  0
VERTEX
  5
C5C
  8
0
 10
0.0
 20
0.0
 30
0.0
 70
   128
 71
    -1
 72
    26
 73
   -25
  0
VERTEX
  5
C5D
  8
0
 10
0.0
 20
0.0
 30
0.0
 70
   128
 71
   -12
 72
    27
 73
   -26
  0
VERTEX
  5
C5E
  8
0
 10
0.0
 20
0.0
 30
0.0
 70
   128
 71
    12
 72
   -11
 73
   -27
  0
VERTEX
  5
C5F
  8
0
 10
0.0
 20
0.0
 30
0.0
 70
   128
 71
   -11
 72
    28
 73
   -27
  0
VERTEX
  5
C60
  8
0
 10
0.0
 20
0.0
 30
0.0
 70
   128
 71
    11
 72
   -10
 73
   -28
  0
VERTEX
  5
C61
  8
0
 10
0.0
 20
0.0
 30
0.0
 70
   128
 71
   -10
 72
    29
 73
   -28
  0
VERTEX
  5
C62
  8
0
 10
0.0
 20
0.0
 30
0.0
 70
   128
 71
   -10
 72
    30
 73
   -29
  0
VERTEX
  5
C63
  8
0
 10
0.0
 20
0.0
 30
0.0
 70
   128
 71
   -10
 72
    35
 73
   -34
  0
VERTEX
  5
C64
  8
0
 10
0.0
 20
0.0
 30
0.0
 70
   128
 71
   -10
 72
    34
 73
   -33
  0
VERTEX
  5
C65
  8
0
 10
0.0
 20
0.0
 30
0.0
 70
   128
 71
   -10
 72
    33
 73
   -32
  0
VERTEX
  5
C66
  8
0
 10
0.0
 20
0.0
 30
0.0
 70
   128
 71
   -10
 72
    32
 73
   -31
  0
VERTEX
  5
C67
  8
0
 10
0.0
 20
0.0
 30
0.0
 70
   128
 71
   -10
 72
    31
 73
   -30
  0
VERTEX
  5
C68
  8
0
 10
0.0
 20
0.0
 30
0.0
 70
   128
 71
   -10
 72
    36
 73
   -35
  0
VERTEX
  5
C69
  8
0
 10
0.0
 20
0.0
 30
0.0
 70
   128
 71
   -10
 72
    37
 73
   -36
  0
VERTEX
  5
C6A
  8
0
 10
0.0
 20
0.0
 30
0.0
 70
   128
 71
   -37
 72
    10
 73
    -9
  0
VERTEX
  5
C6B
  8
0
 10
0.0
 20
0.0
 30
0.0
 70
   128
 71
    -9
 72
    38
 73
   -37
  0
VERTEX
  5
C6C
  8
0
 10
0.0
 20
0.0
 30
0.0
 70
   128
 71
   -38
 72
     9
 73
    -8
  0
VERTEX
  5
C6D
  8
0
 10
0.0
 20
0.0
 30
0.0
 70
   128
 71
    -8
 72
    39
 73
   -38
  0
VERTEX
  5
C6E
  8
0
 10
0.0
 20
0.0
 30
0.0
 70
   128
 71
   -39
 72
     8
 73
    -7
  0
VERTEX
  5
C6F
  8
0
 10
0.0
 20
0.0
 30
0.0
 70
   128
 71
    -7
 72
    40
 73
   -39
  0
VERTEX
  5
C70
  8
0
 10
0.0
 20
0.0
 30
0.0
 70
   128
 71
     7
 72
    -6
 73
   -40
  0
VERTEX
  5
C71
  8
0
 10
0.0
 20
0.0
 30
0.0
 70
   128
 71
    -6
 72
    41
 73
   -40
  0
VERTEX
  5
C72
  8
0
 10
0.0
 20
0.0
 30
0.0
 70
   128
 71
     6
 72
    -5
 73
   -41
  0
VERTEX
  5
C73
  8
0
 10
0.0
 20
0.0
 30
0.0
 70
   128
 71
    -5
 72
    13
 73
   -41
  0
VERTEX
  5
C74
  8
0
 10
0.0
 20
0.0
 30
0.0
 70
   128
 71
     5
 72
    -4
 73
   -13
  0
SEQEND
  5
10E1
  8
0
  0
POLYLINE
  5
C75
  8
0
 66
     1
 10
0.0
 20
0.0
 30
0.0
 70
    64
 71
    15
 72
    13
  0
VERTEX
  5
C76
  8
0
 10
-176.1333111953366
 20
28.1805598862645
 30
-331.4970051657991
 70
   192
  0
VERTEX
  5
C77
  8
0
 10
-0.0000000000000834
 20
28.1805598862645
 30
-375.3840803051285
 70
   192
  0
VERTEX
  5
C78
  8
0
 10
0.0000000000000125
 20
18.62552816694014
 30
-101.763771864229
 70
   192
  0
VERTEX
  5
C79
  8
0
 10
-71.95785316431711
 20
18.62552816694015
 30
-71.95785316431711
 70
   192
  0
VERTEX
  5
C7A
  8
0
 10
-360.3159411791958
 20
27.66418991919862
 30
-14.2385546132348
 70
   192
  0
VERTEX
  5
C7B
  8
0
 10
-373.2924368208176
 20
28.1805598862645
 30
-39.5722675481577
 70
   192
  0
VERTEX
  5
C7C
  8
0
 10
-311.0822660552348
 20
28.1805598862645
 30
-210.0976713161459
 70
   192
  0
VERTEX
  5
C7D
  8
0
 10
-101.763771864229
 20
18.62552816694015
 30
0.0
 70
   192
  0
VERTEX
  5
C7E
  8
0
 10
-311.0822660552356
 20
28.1805598862645
 30
210.0976713161447
 70
   192
  0
VERTEX
  5
C7F
  8
0
 10
-373.292436820818
 20
28.1805598862645
 30
39.57226754815547
 70
   192
  0
VERTEX
  5
C80
  8
0
 10
-360.3051068118129
 20
27.66374739633415
 30
14.19210109826309
 70
   192
  0
VERTEX
  5
C81
  8
0
 10
-71.95785316431713
 20
18.62552816694015
 30
71.95785316431713
 70
   192
  0
VERTEX
  5
C82
  8
0
 10
0.0
 20
18.62552816694015
 30
101.763771864229
 70
   192
  0
VERTEX
  5
C83
  8
0
 10
0.0
 20
28.18055988626451
 30
375.3840803051285
 70
   192
  0
VERTEX
  5
C84
  8
0
 10
-176.1333111953372
 20
28.1805598862645
 30
331.4970051657988
 70
   192
  0
VERTEX
  5
C85
  8
0
 10
0.0
 20
0.0
 30
0.0
 70
   128
 71
     1
 72
     2
 73
     3
  0
VERTEX
  5
C86
  8
0
 10
0.0
 20
0.0
 30
0.0
 70
   128
 71
     1
 72
     3
 73
     4
  0
VERTEX
  5
C87
  8
0
 10
0.0
 20
0.0
 30
0.0
 70
   128
 71
     5
 72
     6
 73
     7
  0
VERTEX
  5
C88
  8
0
 10
0.0
 20
0.0
 30
0.0
 70
   128
 71
     5
 72
     7
 73
     4
  0
VERTEX
  5
C89
  8
0
 10
0.0
 20
0.0
 30
0.0
 70
   128
 71
     5
 72
     4
 73
     8
  0
VERTEX
  5
C8A
  8
0
 10
0.0
 20
0.0
 30
0.0
 70
   128
 71
     9
 72
    10
 73
    11
  0
VERTEX
  5
C8B
  8
0
 10
0.0
 20
0.0
 30
0.0
 70
   128
 71
     9
 72
    11
 73
     8
  0
VERTEX
  5
C8C
  8
0
 10
0.0
 20
0.0
 30
0.0
 70
   128
 71
     9
 72
     8
 73
    12
  0
VERTEX
  5
C8D
  8
0
 10
0.0
 20
0.0
 30
0.0
 70
   128
 71
    12
 72
    13
 73
    14
  0
VERTEX
  5
C8E
  8
0
 10
0.0
 20
0.0
 30
0.0
 70
   128
 71
    12
 72
    14
 73
    15
  0
VERTEX
  5
C8F
  8
0
 10
0.0
 20
0.0
 30
0.0
 70
   128
 71
     1
 72
     4
 73
     7
  0
VERTEX
  5
C90
  8
0
 10
0.0
 20
0.0
 30
0.0
 70
   128
 71
     9
 72
    12
 73
    15
  0
VERTEX
  5
C91
  8
0
 10
0.0
 20
0.0
 30
0.0
 70
   128
 71
     5
 72
     8
 73
    11
  0
SEQEND
  5
10E2
  8
0
  0
POLYLINE
  5
C92
  8
0
 66
     1
 10
0.0
 20
0.0
 30
0.0
 70
    64
 71
    16
 72
    16
  0
VERTEX
  5
C93
  8
0
 10
-0.0000000000000072
 20
0.0
 30
-64.55296615884471
 70
   192
  0
VERTEX
  5
C94
  8
0
 10
-45.64584011662483
 20
0.0
 30
-45.64584011662481
 70
   192
  0
VERTEX
  5
C95
  8
0
 10
-64.55296615884471
 20
0.0
 30
0.0000000000000072
 70
   192
  0
VERTEX
  5
C96
  8
0
 10
-45.64584011662481
 20
0.0
 30
45.64584011662483
 70
   192
  0
VERTEX
  5
C97
  8
0
 10
0.0
 20
0.0
 30
64.55296615884473
 70
   192
  0
VERTEX
  5
C98
  8
0
 10
45.64584011662483
 20
0.0
 30
45.64584011662483
 70
   192
  0
VERTEX
  5
C99
  8
0
 10
64.55296615884473
 20
0.0
 30
0.0
 70
   192
  0
VERTEX
  5
C9A
  8
0
 10
45.64584011662482
 20
0.0
 30
-45.64584011662482
 70
   192
  0
VERTEX
  5
C9B
  8
0
 10
0.0000000000000032
 20
0.0
 30
26.0
 70
   192
  0
VERTEX
  5
C9C
  8
0
 10
-18.38477631085023
 20
0.0
 30
18.38477631085024
 70
   192
  0
VERTEX
  5
C9D
  8
0
 10
-26.0
 20
0.0
 30
0.0000000000000029
 70
   192
  0
VERTEX
  5
C9E
  8
0
 10
-18.38477631085024
 20
0.0
 30
-18.38477631085023
 70
   192
  0
VERTEX
  5
C9F
  8
0
 10
0.0
 20
0.0
 30
-26.0
 70
   192
  0
VERTEX
  5
CA0
  8
0
 10
18.38477631085024
 20
0.0
 30
-18.38477631085024
 70
   192
  0
VERTEX
  5
CA1
  8
0
 10
26.00000000000001
 20
0.0
 30
0.0
 70
   192
  0
VERTEX
  5
CA2
  8
0
 10
18.38477631085024
 20
0.0
 30
18.38477631085024
 70
   192
  0
VERTEX
  5
CA3
  8
0
 10
0.0
 20
0.0
 30
0.0
 70
   128
 71
    10
 72
    -9
 73
    -5
  0
VERTEX
  5
CA4
  8
0
 10
0.0
 20
0.0
 30
0.0
 70
   128
 71
   -10
 72
     5
 73
    -4
  0
VERTEX
  5
CA5
  8
0
 10
0.0
 20
0.0
 30
0.0
 70
   128
 71
     4
 72
    -3
 73
   -11
  0
VERTEX
  5
CA6
  8
0
 10
0.0
 20
0.0
 30
0.0
 70
   128
 71
    -4
 72
    11
 73
   -10
  0
VERTEX
  5
CA7
  8
0
 10
0.0
 20
0.0
 30
0.0
 70
   128
 71
     3
 72
    -2
 73
   -12
  0
VERTEX
  5
CA8
  8
0
 10
0.0
 20
0.0
 30
0.0
 70
   128
 71
    -3
 72
    12
 73
   -11
  0
VERTEX
  5
CA9
  8
0
 10
0.0
 20
0.0
 30
0.0
 70
   128
 71
     2
 72
    -1
 73
   -13
  0
VERTEX
  5
CAA
  8
0
 10
0.0
 20
0.0
 30
0.0
 70
   128
 71
    -2
 72
    13
 73
   -12
  0
VERTEX
  5
CAB
  8
0
 10
0.0
 20
0.0
 30
0.0
 70
   128
 71
     1
 72
    -8
 73
   -14
  0
VERTEX
  5
CAC
  8
0
 10
0.0
 20
0.0
 30
0.0
 70
   128
 71
    -1
 72
    14
 73
   -13
  0
VERTEX
  5
CAD
  8
0
 10
0.0
 20
0.0
 30
0.0
 70
   128
 71
     8
 72
    -7
 73
   -15
  0
VERTEX
  5
CAE
  8
0
 10
0.0
 20
0.0
 30
0.0
 70
   128
 71
    -8
 72
    15
 73
   -14
  0
VERTEX
  5
CAF
  8
0
 10
0.0
 20
0.0
 30
0.0
 70
   128
 71
     7
 72
    -6
 73
   -16
  0
VERTEX
  5
CB0
  8
0
 10
0.0
 20
0.0
 30
0.0
 70
   128
 71
    -7
 72
    16
 73
   -15
  0
VERTEX
  5
CB1
  8
0
 10
0.0
 20
0.0
 30
0.0
 70
   128
 71
     6
 72
    -5
 73
    -9
  0
VERTEX
  5
CB2
  8
0
 10
0.0
 20
0.0
 30
0.0
 70
   128
 71
    -6
 72
     9
 73
   -16
  0
SEQEND
  5
10E3
  8
0
  0
POLYLINE
  5
CB3
  8
0
 66
     1
 10
0.0
 20
0.0
 30
0.0
 70
    64
 71
    10
 72
     8
  0
VERTEX
  5
CB4
  8
0
 10
0.0
 20
8.0
 30
-26.0
 70
   192
  0
VERTEX
  5
CB5
  8
0
 10
0.0000000000000032
 20
8.000000000000002
 30
26.0
 70
   192
  0
VERTEX
  5
CB6
  8
0
 10
0.0000000000000032
 20
-0.0000000000000018
 30
26.0
 70
   192
  0
VERTEX
  5
CB7
  8
0
 10
0.0
 20
-0.0000000000000018
 30
-26.0
 70
   192
  0
VERTEX
  5
CB8
  8
0
 10
26.00000000000001
 20
0.0
 30
0.0
 70
   192
  0
VERTEX
  5
CB9
  8
0
 10
26.00000000000001
 20
8.0
 30
0.0
 70
   192
  0
VERTEX
  5
CBA
  8
0
 10
18.38477631085024
 20
0.0
 30
-18.38477631085024
 70
   192
  0
VERTEX
  5
CBB
  8
0
 10
18.38477631085024
 20
8.0
 30
-18.38477631085024
 70
   192
  0
VERTEX
  5
CBC
  8
0
 10
18.38477631085024
 20
0.0
 30
18.38477631085024
 70
   192
  0
VERTEX
  5
CBD
  8
0
 10
18.38477631085024
 20
8.0
 30
18.38477631085024
 70
   192
  0
VERTEX
  5
CBE
  8
0
 10
0.0
 20
0.0
 30
0.0
 70
   128
 71
     8
 72
     1
 73
    -4
  0
VERTEX
  5
CBF
  8
0
 10
0.0
 20
0.0
 30
0.0
 70
   128
 71
     7
 72
    -8
 73
     4
  0
VERTEX
  5
CC0
  8
0
 10
0.0
 20
0.0
 30
0.0
 70
   128
 71
     6
 72
     8
 73
    -7
  0
VERTEX
  5
CC1
  8
0
 10
0.0
 20
0.0
 30
0.0
 70
   128
 71
     5
 72
    -6
 73
     7
  0
VERTEX
  5
CC2
  8
0
 10
0.0
 20
0.0
 30
0.0
 70
   128
 71
    10
 72
     6
 73
    -5
  0
VERTEX
  5
CC3
  8
0
 10
0.0
 20
0.0
 30
0.0
 70
   128
 71
     9
 72
   -10
 73
     5
  0
VERTEX
  5
CC4
  8
0
 10
0.0
 20
0.0
 30
0.0
 70
   128
 71
     3
 72
     2
 73
   -10
  0
VERTEX
  5
CC5
  8
0
 10
0.0
 20
0.0
 30
0.0
 70
   128
 71
     9
 72
    -3
 73
    10
  0
SEQEND
  5
10E4
  8
0
  0
POLYLINE
  5
CC6
  8
0
 66
     1
 10
0.0
 20
0.0
 30
0.0
 70
    64
 71
     9
 72
     7
  0
VERTEX
  5
CC7
  8
0
 10
18.38477631085024
 20
8.0
 30
18.38477631085024
 70
   192
  0
VERTEX
  5
CC8
  8
0
 10
0.0
 20
8.0
 30
26.00000000000001
 70
   192
  0
VERTEX
  5
CC9
  8
0
 10
0.0
 20
16.1038947265415
 30
37.57356110055824
 70
   192
  0
VERTEX
  5
CCA
  8
0
 10
18.38477631085024
 20
8.0
 30
-18.38477631085024
 70
   192
  0
VERTEX
  5
CCB
  8
0
 10
26.00000000000001
 20
8.0
 30
0.0
 70
   192
  0
VERTEX
  5
CCC
  8
0
 10
32.53955750341461
 20
16.10389472654151
 30
-18.7867257548651
 70
   192
  0
VERTEX
  5
CCD
  8
0
 10
0.0000000000000046
 20
16.1038947265415
 30
-37.57356110055824
 70
   192
  0
VERTEX
  5
CCE
  8
0
 10
0.0000000000000032
 20
8.0
 30
-26.0
 70
   192
  0
VERTEX
  5
CCF
  8
0
 10
32.53955750341471
 20
16.10389472654152
 30
18.78672575486495
 70
   192
  0
VERTEX
  5
CD0
  8
0
 10
0.0
 20
0.0
 30
0.0
 70
   128
 71
     1
 72
     2
 73
     3
  0
VERTEX
  5
CD1
  8
0
 10
0.0
 20
0.0
 30
0.0
 70
   128
 71
     4
 72
     5
 73
     6
  0
VERTEX
  5
CD2
  8
0
 10
0.0
 20
0.0
 30
0.0
 70
   128
 71
     7
 72
     8
 73
     4
  0
VERTEX
  5
CD3
  8
0
 10
0.0
 20
0.0
 30
0.0
 70
   128
 71
     9
 72
     1
 73
     3
  0
VERTEX
  5
CD4
  8
0
 10
0.0
 20
0.0
 30
0.0
 70
   128
 71
     5
 72
     1
 73
     9
  0
VERTEX
  5
CD5
  8
0
 10
0.0
 20
0.0
 30
0.0
 70
   128
 71
     6
 72
     5
 73
     9
  0
VERTEX
  5
CD6
  8
0
 10
0.0
 20
0.0
 30
0.0
 70
   128
 71
     7
 72
     4
 73
     6
  0
SEQEND
  5
10E5
  8
0
  0
POLYLINE
  5
CD7
  8
0
 66
     1
 10
0.0
 20
0.0
 30
0.0
 70
    64
 71
     8
 72
     6
  0
VERTEX
  5
CD8
  8
0
 10
37.98040385347446
 20
28.8722898472076
 30
-21.92800044006033
 70
   192
  0
VERTEX
  5
CD9
  8
0
 10
37.60243573972275
 20
20.5163341789777
 30
-21.70682872217931
 70
   192
  0
VERTEX
  5
CDA
  8
0
 10
37.59860119066804
 20
20.5163341789777
 30
21.71346990324449
 70
   192
  0
VERTEX
  5
CDB
  8
0
 10
-0.0076687293390272
 20
20.51633418407815
 30
43.41821041154985
 70
   192
  0
VERTEX
  5
CDC
  8
0
 10
0.0
 20
28.8722898472076
 30
43.85612879531776
 70
   192
  0
VERTEX
  5
CDD
  8
0
 10
37.98040385347451
 20
28.8722898472076
 30
21.92800044006026
 70
   192
  0
VERTEX
  5
CDE
  8
0
 10
0.0000000000000053
 20
20.5163341789777
 30
-43.41821171495828
 70
   192
  0
VERTEX
  5
CDF
  8
0
 10
0.0000000000000054
 20
28.8722898472076
 30
-43.85612879531776
 70
   192
  0
VERTEX
  5
CE0
  8
0
 10
0.0
 20
0.0
 30
0.0
 70
   128
 71
     1
 72
     2
 73
     3
  0
VERTEX
  5
CE1
  8
0
 10
0.0
 20
0.0
 30
0.0
 70
   128
 71
     3
 72
     4
 73
     5
  0
VERTEX
  5
CE2
  8
0
 10
0.0
 20
0.0
 30
0.0
 70
   128
 71
     6
 72
     3
 73
     5
  0
VERTEX
  5
CE3
  8
0
 10
0.0
 20
0.0
 30
0.0
 70
   128
 71
     1
 72
     3
 73
     6
  0
VERTEX
  5
CE4
  8
0
 10
0.0
 20
0.0
 30
0.0
 70
   128
 71
     7
 72
     2
 73
     1
  0
VERTEX
  5
CE5
  8
0
 10
0.0
 20
0.0
 30
0.0
 70
   128
 71
     8
 72
     7
 73
     1
  0
SEQEND
  5
10E6
  8
0
  0
POLYLINE
  5
CE6
  8
0
 66
     1
 10
0.0
 20
0.0
 30
0.0
 70
    64
 71
    13
 72
    11
  0
VERTEX
  5
CE7
  8
0
 10
0.0000000000000024
 20
31.71345445953605
 30
46.747318909474
 70
   192
  0
VERTEX
  5
CE8
  8
0
 10
0.0
 20
44.32193528989741
 30
407.806969480531
 70
   192
  0
VERTEX
  5
CE9
  8
0
 10
156.0609708232149
 20
44.3219352898974
 30
376.7645123185173
 70
   192
  0
VERTEX
  5
CEA
  8
0
 10
288.363073534819
 20
44.3219352898974
 30
288.3630735348188
 70
   192
  0
VERTEX
  5
CEB
  8
0
 10
376.7645123185173
 20
44.3219352898974
 30
156.0609708232149
 70
   192
  0
VERTEX
  5
CEC
  8
0
 10
407.806969480531
 20
44.3219352898974
 30
0.0000000000000302
 70
   192
  0
VERTEX
  5
CED
  8
0
 10
40.4842401739422
 20
31.71345445953605
 30
23.37359128077042
 70
   192
  0
VERTEX
  5
CEE
  8
0
 10
376.7645123185173
 20
44.3219352898974
 30
-156.0609708232149
 70
   192
  0
VERTEX
  5
CEF
  8
0
 10
288.3630735348188
 20
44.3219352898974
 30
-288.3630735348188
 70
   192
  0
VERTEX
  5
CF0
  8
0
 10
40.48424017394216
 20
31.71345445953604
 30
-23.37359128077044
 70
   192
  0
VERTEX
  5
CF1
  8
0
 10
156.0609708232149
 20
44.3219352898974
 30
-376.7645123185173
 70
   192
  0
VERTEX
  5
CF2
  8
0
 10
0.0000000000000499
 20
44.32193528989741
 30
-407.806969480531
 70
   192
  0
VERTEX
  5
CF3
  8
0
 10
0.0000000000000057
 20
31.71345445953605
 30
-46.747318909474
 70
   192
  0
VERTEX
  5
CF4
  8
0
 10
0.0
 20
0.0
 30
0.0
 70
   128
 71
     1
 72
     2
 73
     3
  0
VERTEX
  5
CF5
  8
0
 10
0.0
 20
0.0
 30
0.0
 70
   128
 71
     3
 72
     4
 73
     1
  0
VERTEX
  5
CF6
  8
0
 10
0.0
 20
0.0
 30
0.0
 70
   128
 71
     5
 72
     6
 73
     7
  0
VERTEX
  5
CF7
  8
0
 10
0.0
 20
0.0
 30
0.0
 70
   128
 71
     8
 72
     9
 73
    10
  0
VERTEX
  5
CF8
  8
0
 10
0.0
 20
0.0
 30
0.0
 70
   128
 71
    11
 72
    12
 73
    13
  0
VERTEX
  5
CF9
  8
0
 10
0.0
 20
0.0
 30
0.0
 70
   128
 71
     8
 72
    10
 73
     7
  0
VERTEX
  5
CFA
  8
0
 10
0.0
 20
0.0
 30
0.0
 70
   128
 71
     6
 72
     8
 73
     7
  0
VERTEX
  5
CFB
  8
0
 10
0.0
 20
0.0
 30
0.0
 70
   128
 71
     5
 72
     7
 73
     1
  0
VERTEX
  5
CFC
  8
0
 10
0.0
 20
0.0
 30
0.0
 70
   128
 71
     4
 72
     5
 73
     1
  0
VERTEX
  5
CFD
  8
0
 10
0.0
 20
0.0
 30
0.0
 70
   128
 71
    11
 72
    13
 73
    10
  0
VERTEX
  5
CFE
  8
0
 10
0.0
 20
0.0
 30
0.0
 70
   128
 71
     9
 72
    11
 73
    10
  0
SEQEND
  5
10E7
  8
0
  0
POLYLINE
  5
CFF
  8
0
 66
     1
 10
0.0
 20
0.0
 30
0.0
 70
    64
 71
    18
 72
    16
  0
VERTEX
  5
D00
  8
0
 10
-0.0000000000000276
 20
124.8595480275264
 30
494.172985360451
 70
   192
  0
VERTEX
  5
D01
  8
0
 10
0.0000000000000605
 20
124.8595480275264
 30
-494.172985360451
 70
   192
  0
VERTEX
  5
D02
  8
0
 10
0.0000000000000655
 20
509.830113586608
 30
-534.6350222533363
 70
   192
  0
VERTEX
  5
D03
  8
0
 10
0.0
 20
509.830113586608
 30
534.6350222533363
 70
   192
  0
VERTEX
  5
D04
  8
0
 10
534.635022253336
 20
509.8301135866083
 30
0.0000000000003748
 70
   192
  0
VERTEX
  5
D05
  8
0
 10
494.172985360451
 20
124.8595480275266
 30
-0.0000000000005169
 70
   192
  0
VERTEX
  5
D06
  8
0
 10
378.0440496951549
 20
509.8301135866083
 30
378.0440496951546
 70
   192
  0
VERTEX
  5
D07
  8
0
 10
349.4330690275755
 20
124.8595480275266
 30
349.4330690275751
 70
   192
  0
VERTEX
  5
D08
  8
0
 10
378.0440496951544
 20
509.8301135866084
 30
-378.0440496951552
 70
   192
  0
VERTEX
  5
D09
  8
0
 10
349.4330690275748
 20
124.8595480275266
 30
-349.4330690275759
 70
   192
  0
VERTEX
  5
D0A
  8
0
 10
204.5959653784932
 20
509.8301135866083
 30
493.9383544235735
 70
   192
  0
VERTEX
  5
D0B
  8
0
 10
189.1118142198408
 20
124.8595480275266
 30
456.5563066945203
 70
   192
  0
VERTEX
  5
D0C
  8
0
 10
493.9383544235735
 20
509.8301135866083
 30
204.595965378493
 70
   192
  0
VERTEX
  5
D0D
  8
0
 10
456.5563066945205
 20
124.8595480275266
 30
189.1118142198402
 70
   192
  0
VERTEX
  5
D0E
  8
0
 10
493.9383544235737
 20
509.8301135866083
 30
-204.5959653784928
 70
   192
  0
VERTEX
  5
D0F
  8
0
 10
456.5563066945201
 20
124.8595480275266
 30
-189.1118142198412
 70
   192
  0
VERTEX
  5
D10
  8
0
 10
189.1118142198399
 20
124.8595480275266
 30
-456.5563066945207
 70
   192
  0
VERTEX
  5
D11
  8
0
 10
204.5959653784922
 20
509.8301135866084
 30
-493.9383544235739
 70
   192
  0
VERTEX
  5
D12
  8
0
 10
0.0
 20
0.0
 30
0.0
 70
   128
 71
     7
 72
     8
 73
   -12
  0
VERTEX
  5
D13
  8
0
 10
0.0
 20
0.0
 30
0.0
 70
   128
 71
    11
 72
    -7
 73
    12
  0
VERTEX
  5
D14
  8
0
 10
0.0
 20
0.0
 30
0.0
 70
   128
 71
     1
 72
     4
 73
   -11
  0
VERTEX
  5
D15
  8
0
 10
0.0
 20
0.0
 30
0.0
 70
   128
 71
    12
 72
    -1
 73
    11
  0
VERTEX
  5
D16
  8
0
 10
0.0
 20
0.0
 30
0.0
 70
   128
 71
     5
 72
     6
 73
   -14
  0
VERTEX
  5
D17
  8
0
 10
0.0
 20
0.0
 30
0.0
 70
   128
 71
    13
 72
    -5
 73
    14
  0
VERTEX
  5
D18
  8
0
 10
0.0
 20
0.0
 30
0.0
 70
   128
 71
     8
 72
     7
 73
   -13
  0
VERTEX
  5
D19
  8
0
 10
0.0
 20
0.0
 30
0.0
 70
   128
 71
    14
 72
    -8
 73
    13
  0
VERTEX
  5
D1A
  8
0
 10
0.0
 20
0.0
 30
0.0
 70
   128
 71
     9
 72
    10
 73
   -16
  0
VERTEX
  5
D1B
  8
0
 10
0.0
 20
0.0
 30
0.0
 70
   128
 71
    15
 72
    -9
 73
    16
  0
VERTEX
  5
D1C
  8
0
 10
0.0
 20
0.0
 30
0.0
 70
   128
 71
     6
 72
     5
 73
   -15
  0
VERTEX
  5
D1D
  8
0
 10
0.0
 20
0.0
 30
0.0
 70
   128
 71
    16
 72
    -6
 73
    15
  0
VERTEX
  5
D1E
  8
0
 10
0.0
 20
0.0
 30
0.0
 70
   128
 71
     3
 72
     2
 73
   -17
  0
VERTEX
  5
D1F
  8
0
 10
0.0
 20
0.0
 30
0.0
 70
   128
 71
    18
 72
    -3
 73
    17
  0
VERTEX
  5
D20
  8
0
 10
0.0
 20
0.0
 30
0.0
 70
   128
 71
    10
 72
     9
 73
   -18
  0
VERTEX
  5
D21
  8
0
 10
0.0
 20
0.0
 30
0.0
 70
   128
 71
    17
 72
   -10
 73
    18
  0
SEQEND
  5
10E8
  8
0
  0
POLYLINE
  5
D22
  8
0
 66
     1
 10
0.0
 20
0.0
 30
0.0
 70
    64
 71
    22
 72
    20
  0
VERTEX
  5
D23
  8
0
 10
-0.0000000000001107
 20
36.69618859077165
 30
455.90945794253
 70
   192
  0
VERTEX
  5
D24
  8
0
 10
-0.0000000000000328
 20
118.2951507991802
 30
508.565663603238
 70
   192
  0
VERTEX
  5
D25
  8
0
 10
0.0000000000000311
 20
118.2951507991802
 30
-508.565663603238
 70
   192
  0
VERTEX
  5
D26
  8
0
 10
508.565663603238
 20
118.2951507991801
 30
-0.0000000000005311
 70
   192
  0
VERTEX
  5
D27
  8
0
 10
359.6102294124855
 20
118.2951507991801
 30
-359.6102294124867
 70
   192
  0
VERTEX
  5
D28
  8
0
 10
359.6102294124863
 20
118.2951507991801
 30
359.6102294124859
 70
   192
  0
VERTEX
  5
D29
  8
0
 10
-0.0000000000000225
 20
36.69618858340705
 30
-455.909458021265
 70
   192
  0
VERTEX
  5
D2A
  8
0
 10
-0.0000000000000002
 20
55.34676398155856
 30
-484.9792984853867
 70
   192
  0
VERTEX
  5
D2B
  8
0
 10
-0.0000000000000012
 20
84.62059001415369
 30
-502.4407083791035
 70
   192
  0
VERTEX
  5
D2C
  8
0
 10
194.619653730716
 20
118.2951507991801
 30
-469.8534075410521
 70
   192
  0
VERTEX
  5
D2D
  8
0
 10
322.3766693731218
 20
36.69618858291948
 30
-322.3766693731212
 70
   192
  0
VERTEX
  5
D2E
  8
0
 10
174.4689962428535
 20
36.69618858291948
 30
-421.205416943117
 70
   192
  0
VERTEX
  5
D2F
  8
0
 10
469.8534075410515
 20
118.2951507991801
 30
-194.6196537307173
 70
   192
  0
VERTEX
  5
D30
  8
0
 10
455.9094580201355
 20
36.69618858291946
 30
0.0000000000006555
 70
   192
  0
VERTEX
  5
D31
  8
0
 10
421.2054169431171
 20
36.69618858291948
 30
-174.4689962428526
 70
   192
  0
VERTEX
  5
D32
  8
0
 10
469.853407541052
 20
118.2951507991801
 30
194.6196537307163
 70
   192
  0
VERTEX
  5
D33
  8
0
 10
322.3766693731207
 20
36.69618858291948
 30
322.3766693731224
 70
   192
  0
VERTEX
  5
D34
  8
0
 10
421.2054169431167
 20
36.6961885829195
 30
174.4689962428538
 70
   192
  0
VERTEX
  5
D35
  8
0
 10
0.0000000000000568
 20
55.34676398156055
 30
484.9792984853649
 70
   192
  0
VERTEX
  5
D36
  8
0
 10
174.4689962428531
 20
36.69618858291953
 30
421.2054169431172
 70
   192
  0
VERTEX
  5
D37
  8
0
 10
194.6196537307168
 20
118.2951507991801
 30
469.8534075410518
 70
   192
  0
VERTEX
  5
D38
  8
0
 10
0.0000000000000587
 20
84.62059001415366
 30
502.4407083791035
 70
   192
  0
VERTEX
  5
D39
  8
0
 10
0.0
 20
0.0
 30
0.0
 70
   128
 71
     5
 72
    11
 73
   -12
  0
VERTEX
  5
D3A
  8
0
 10
0.0
 20
0.0
 30
0.0
 70
   128
 71
    10
 72
    -5
 73
    12
  0
VERTEX
  5
D3B
  8
0
 10
0.0
 20
0.0
 30
0.0
 70
   128
 71
    12
 72
     7
 73
     8
  0
VERTEX
  5
D3C
  8
0
 10
0.0
 20
0.0
 30
0.0
 70
   128
 71
     9
 72
    10
 73
    12
  0
VERTEX
  5
D3D
  8
0
 10
0.0
 20
0.0
 30
0.0
 70
   128
 71
     8
 72
     9
 73
    12
  0
VERTEX
  5
D3E
  8
0
 10
0.0
 20
0.0
 30
0.0
 70
   128
 71
     9
 72
     3
 73
    10
  0
VERTEX
  5
D3F
  8
0
 10
0.0
 20
0.0
 30
0.0
 70
   128
 71
     4
 72
    14
 73
   -15
  0
VERTEX
  5
D40
  8
0
 10
0.0
 20
0.0
 30
0.0
 70
   128
 71
    13
 72
    -4
 73
    15
  0
VERTEX
  5
D41
  8
0
 10
0.0
 20
0.0
 30
0.0
 70
   128
 71
    11
 72
     5
 73
   -13
  0
VERTEX
  5
D42
  8
0
 10
0.0
 20
0.0
 30
0.0
 70
   128
 71
    15
 72
   -11
 73
    13
  0
VERTEX
  5
D43
  8
0
 10
0.0
 20
0.0
 30
0.0
 70
   128
 71
     6
 72
    17
 73
   -18
  0
VERTEX
  5
D44
  8
0
 10
0.0
 20
0.0
 30
0.0
 70
   128
 71
    16
 72
    -6
 73
    18
  0
VERTEX
  5
D45
  8
0
 10
0.0
 20
0.0
 30
0.0
 70
   128
 71
    14
 72
     4
 73
   -16
  0
VERTEX
  5
D46
  8
0
 10
0.0
 20
0.0
 30
0.0
 70
   128
 71
    18
 72
   -14
 73
    16
  0
VERTEX
  5
D47
  8
0
 10
0.0
 20
0.0
 30
0.0
 70
   128
 71
    22
 72
     6
 73
    21
  0
VERTEX
  5
D48
  8
0
 10
0.0
 20
0.0
 30
0.0
 70
   128
 71
    21
 72
     2
 73
    22
  0
VERTEX
  5
D49
  8
0
 10
0.0
 20
0.0
 30
0.0
 70
   128
 71
    19
 72
    17
 73
     6
  0
VERTEX
  5
D4A
  8
0
 10
0.0
 20
0.0
 30
0.0
 70
   128
 71
    22
 72
    19
 73
     6
  0
VERTEX
  5
D4B
  8
0
 10
0.0
 20
0.0
 30
0.0
 70
   128
 71
    19
 72
     1
 73
    20
  0
VERTEX
  5
D4C
  8
0
 10
0.0
 20
0.0
 30
0.0
 70
   128
 71
    20
 72
    17
 73
    19
  0
SEQEND
  5
10E9
  8
0
  0
POLYLINE
  5
D4D
  8
0
 66
     1
 10
0.0
 20
0.0
 30
0.0
 70
    64
 71
    28
 72
    26
  0
VERTEX
  5
D4E
  8
0
 10
167.58402386685
 20
11.7696210242061
 30
-404.5836232564082
 70
   192
  0
VERTEX
  5
D4F
  8
0
 10
0.0000000000000255
 20
11.76962102420606
 30
-437.918158178772
 70
   192
  0
VERTEX
  5
D50
  8
0
 10
0.0000000000000056
 20
22.51794228455042
 30
-439.9007953279877
 70
   192
  0
VERTEX
  5
D51
  8
0
 10
0.000000000000001
 20
31.49922918440043
 30
-446.4152194273466
 70
   192
  0
VERTEX
  5
D52
  8
0
 10
174.4689962428535
 20
36.69618858291948
 30
-421.205416943117
 70
   192
  0
VERTEX
  5
D53
  8
0
 10
-0.0000000000000225
 20
36.69618858340705
 30
-455.909458021265
 70
   192
  0
VERTEX
  5
D54
  8
0
 10
309.6548992529322
 20
11.7696210242061
 30
-309.6548992529337
 70
   192
  0
VERTEX
  5
D55
  8
0
 10
322.3766693731218
 20
36.69618858291948
 30
-322.3766693731212
 70
   192
  0
VERTEX
  5
D56
  8
0
 10
421.2054169431171
 20
36.69618858291948
 30
-174.4689962428526
 70
   192
  0
VERTEX
  5
D57
  8
0
 10
404.5836232564076
 20
11.7696210242061
 30
-167.5840238668516
 70
   192
  0
VERTEX
  5
D58
  8
0
 10
437.9181581787723
 20
11.7696210242061
 30
-0.0000000000006155
 70
   192
  0
VERTEX
  5
D59
  8
0
 10
455.9094580201355
 20
36.69618858291946
 30
0.0000000000006555
 70
   192
  0
VERTEX
  5
D5A
  8
0
 10
421.2054169431167
 20
36.6961885829195
 30
174.4689962428538
 70
   192
  0
VERTEX
  5
D5B
  8
0
 10
404.5836232564079
 20
11.7696210242061
 30
167.5840238668508
 70
   192
  0
VERTEX
  5
D5C
  8
0
 10
322.3766693731207
 20
36.69618858291948
 30
322.3766693731224
 70
   192
  0
VERTEX
  5
D5D
  8
0
 10
174.4689962428531
 20
36.69618858291953
 30
421.2054169431172
 70
   192
  0
VERTEX
  5
D5E
  8
0
 10
-0.1595563276748674
 20
31.49922921685473
 30
446.4151909086597
 70
   192
  0
VERTEX
  5
D5F
  8
0
 10
-0.0000000000001107
 20
36.69618859077165
 30
455.90945794253
 70
   192
  0
VERTEX
  5
D60
  8
0
 10
-0.0543156399962024
 20
36.69618858622658
 30
455.909454753464
 70
   192
  0
VERTEX
  5
D61
  8
0
 10
-0.1086312792270592
 20
36.69618858877942
 30
455.9094450464153
 70
   192
  0
VERTEX
  5
D62
  8
0
 10
-0.1629469169273355
 20
36.69618860061835
 30
455.909428847812
 70
   192
  0
VERTEX
  5
D63
  8
0
 10
-0.1572326147248339
 20
22.51794231956358
 30
439.9007672300945
 70
   192
  0
VERTEX
  5
D64
  8
0
 10
-0.156529432453962
 20
11.76962104526246
 30
437.9181302056795
 70
   192
  0
VERTEX
  5
D65
  8
0
 10
-0.1043529562030727
 20
11.76962102498593
 30
437.9181457455359
 70
   192
  0
VERTEX
  5
D66
  8
0
 10
-0.0521764784716295
 20
11.7696210245398
 30
437.9181550677315
 70
   192
  0
VERTEX
  5
D67
  8
0
 10
-0.0000000000000051
 20
11.76962103321702
 30
437.9181581054845
 70
   192
  0
VERTEX
  5
D68
  8
0
 10
167.5840238668508
 20
11.7696210242061
 30
404.5836232564078
 70
   192
  0
VERTEX
  5
D69
  8
0
 10
309.654899252933
 20
11.7696210242061
 30
309.654899252933
 70
   192
  0
VERTEX
  5
D6A
  8
0
 10
0.0
 20
0.0
 30
0.0
 70
   128
 71
     1
 72
     2
 73
     3
  0
VERTEX
  5
D6B
  8
0
 10
0.0
 20
0.0
 30
0.0
 70
   128
 71
     4
 72
     5
 73
     1
  0
VERTEX
  5
D6C
  8
0
 10
0.0
 20
0.0
 30
0.0
 70
   128
 71
     3
 72
     4
 73
     1
  0
VERTEX
  5
D6D
  8
0
 10
0.0
 20
0.0
 30
0.0
 70
   128
 71
     4
 72
     6
 73
     5
  0
VERTEX
  5
D6E
  8
0
 10
0.0
 20
0.0
 30
0.0
 70
   128
 71
     7
 72
     8
 73
    -9
  0
VERTEX
  5
D6F
  8
0
 10
0.0
 20
0.0
 30
0.0
 70
   128
 71
    10
 72
    -7
 73
     9
  0
VERTEX
  5
D70
  8
0
 10
0.0
 20
0.0
 30
0.0
 70
   128
 71
    11
 72
    12
 73
   -13
  0
VERTEX
  5
D71
  8
0
 10
0.0
 20
0.0
 30
0.0
 70
   128
 71
    14
 72
   -11
 73
    13
  0
VERTEX
  5
D72
  8
0
 10
0.0
 20
0.0
 30
0.0
 70
   128
 71
    15
 72
    16
 73
    17
  0
VERTEX
  5
D73
  8
0
 10
0.0
 20
0.0
 30
0.0
 70
   128
 71
    16
 72
    18
 73
    17
  0
VERTEX
  5
D74
  8
0
 10
0.0
 20
0.0
 30
0.0
 70
   128
 71
    18
 72
    19
 73
    17
  0
VERTEX
  5
D75
  8
0
 10
0.0
 20
0.0
 30
0.0
 70
   128
 71
    19
 72
    20
 73
    17
  0
VERTEX
  5
D76
  8
0
 10
0.0
 20
0.0
 30
0.0
 70
   128
 71
    20
 72
    21
 73
    17
  0
VERTEX
  5
D77
  8
0
 10
0.0
 20
0.0
 30
0.0
 70
   128
 71
    22
 72
    23
 73
    24
  0
VERTEX
  5
D78
  8
0
 10
0.0
 20
0.0
 30
0.0
 70
   128
 71
    24
 72
    25
 73
    22
  0
VERTEX
  5
D79
  8
0
 10
0.0
 20
0.0
 30
0.0
 70
   128
 71
    25
 72
    26
 73
    22
  0
VERTEX
  5
D7A
  8
0
 10
0.0
 20
0.0
 30
0.0
 70
   128
 71
    26
 72
    27
 73
    22
  0
VERTEX
  5
D7B
  8
0
 10
0.0
 20
0.0
 30
0.0
 70
   128
 71
    27
 72
    28
 73
    22
  0
VERTEX
  5
D7C
  8
0
 10
0.0
 20
0.0
 30
0.0
 70
   128
 71
     7
 72
     1
 73
    -5
  0
VERTEX
  5
D7D
  8
0
 10
0.0
 20
0.0
 30
0.0
 70
   128
 71
     8
 72
    -7
 73
     5
  0
VERTEX
  5
D7E
  8
0
 10
0.0
 20
0.0
 30
0.0
 70
   128
 71
    22
 72
    28
 73
    14
  0
VERTEX
  5
D7F
  8
0
 10
0.0
 20
0.0
 30
0.0
 70
   128
 71
    11
 72
    10
 73
    -9
  0
VERTEX
  5
D80
  8
0
 10
0.0
 20
0.0
 30
0.0
 70
   128
 71
    12
 72
   -11
 73
     9
  0
VERTEX
  5
D81
  8
0
 10
0.0
 20
0.0
 30
0.0
 70
   128
 71
    22
 72
    14
 73
    13
  0
VERTEX
  5
D82
  8
0
 10
0.0
 20
0.0
 30
0.0
 70
   128
 71
    17
 72
    22
 73
    13
  0
VERTEX
  5
D83
  8
0
 10
0.0
 20
0.0
 30
0.0
 70
   128
 71
    15
 72
    17
 73
    13
  0
SEQEND
  5
10EA
  8
0
  0
POLYLINE
  5
D84
  8
0
 66
     1
 10
0.0
 20
0.0
 30
0.0
 70
    64
 71
    12
 72
    10
  0
VERTEX
  5
D85
  8
0
 10
35.49389403971844
 20
17.72664894062656
 30
-20.48931279581837
 70
   192
  0
VERTEX
  5
D86
  8
0
 10
-0.0000000000000026
 20
17.72664904937645
 30
-40.98535097287595
 70
   192
  0
VERTEX
  5
D87
  8
0
 10
0.0000000000000001
 20
17.36437044768645
 30
-39.74071956670131
 70
   192
  0
VERTEX
  5
D88
  8
0
 10
0.0000000000000001
 20
16.78195702602076
 30
-38.59181939802252
 70
   192
  0
VERTEX
  5
D89
  8
0
 10
32.53955750341461
 20
16.10389472654151
 30
-18.7867257548651
 70
   192
  0
VERTEX
  5
D8A
  8
0
 10
0.0000000000000023
 20
16.1038947265415
 30
-37.57356110055824
 70
   192
  0
VERTEX
  5
D8B
  8
0
 10
35.49027073471713
 20
17.72664894062657
 30
20.4955825652725
 70
   192
  0
VERTEX
  5
D8C
  8
0
 10
32.53955750341471
 20
16.10389472654152
 30
18.78672575486495
 70
   192
  0
VERTEX
  5
D8D
  8
0
 10
-0.000000000000002
 20
16.1038947265415
 30
37.57356110055824
 70
   192
  0
VERTEX
  5
D8E
  8
0
 10
0.0000000000000047
 20
16.78195702602077
 30
38.59181939802251
 70
   192
  0
VERTEX
  5
D8F
  8
0
 10
0.0000000000000049
 20
17.36437044768645
 30
39.74071956670129
 70
   192
  0
VERTEX
  5
D90
  8
0
 10
-0.0072403556855604
 20
17.7266490530796
 30
40.98534973427265
 70
   192
  0
VERTEX
  5
D91
  8
0
 10
0.0
 20
0.0
 30
0.0
 70
   128
 71
     1
 72
     2
 73
     3
  0
VERTEX
  5
D92
  8
0
 10
0.0
 20
0.0
 30
0.0
 70
   128
 71
     4
 72
     5
 73
     1
  0
VERTEX
  5
D93
  8
0
 10
0.0
 20
0.0
 30
0.0
 70
   128
 71
     3
 72
     4
 73
     1
  0
VERTEX
  5
D94
  8
0
 10
0.0
 20
0.0
 30
0.0
 70
   128
 71
     4
 72
     6
 73
     5
  0
VERTEX
  5
D95
  8
0
 10
0.0
 20
0.0
 30
0.0
 70
   128
 71
     7
 72
     1
 73
     5
  0
VERTEX
  5
D96
  8
0
 10
0.0
 20
0.0
 30
0.0
 70
   128
 71
     8
 72
     7
 73
     5
  0
VERTEX
  5
D97
  8
0
 10
0.0
 20
0.0
 30
0.0
 70
   128
 71
     8
 72
     9
 73
    10
  0
VERTEX
  5
D98
  8
0
 10
0.0
 20
0.0
 30
0.0
 70
   128
 71
    10
 72
    11
 73
     8
  0
VERTEX
  5
D99
  8
0
 10
0.0
 20
0.0
 30
0.0
 70
   128
 71
    12
 72
     7
 73
     8
  0
VERTEX
  5
D9A
  8
0
 10
0.0
 20
0.0
 30
0.0
 70
   128
 71
    11
 72
    12
 73
     8
  0
SEQEND
  5
10EB
  8
0
  0
POLYLINE
  5
D9B
  8
0
 66
     1
 10
0.0
 20
0.0
 30
0.0
 70
    64
 71
    12
 72
    10
  0
VERTEX
  5
D9C
  8
0
 10
37.98040385347451
 20
28.8722898472076
 30
21.92800044006026
 70
   192
  0
VERTEX
  5
D9D
  8
0
 10
40.4842401739422
 20
31.71345445953605
 30
23.37359128077042
 70
   192
  0
VERTEX
  5
D9E
  8
0
 10
40.48424017394216
 20
31.71345445953604
 30
-23.37359128077044
 70
   192
  0
VERTEX
  5
D9F
  8
0
 10
-0.0000000000000002
 20
31.71345445953605
 30
-46.747318909474
 70
   192
  0
VERTEX
  5
DA0
  8
0
 10
0.0000000000000002
 20
31.45492205821581
 30
-45.19325962690571
 70
   192
  0
VERTEX
  5
DA1
  8
0
 10
0.0
 20
30.4216004264748
 30
-44.14174389512805
 70
   192
  0
VERTEX
  5
DA2
  8
0
 10
0.0000000000000056
 20
31.45492205821579
 30
45.19325962690571
 70
   192
  0
VERTEX
  5
DA3
  8
0
 10
0.0000000000000024
 20
31.71345445953605
 30
46.747318909474
 70
   192
  0
VERTEX
  5
DA4
  8
0
 10
0.0000000000000027
 20
28.8722898472076
 30
-43.85612879531774
 70
   192
  0
VERTEX
  5
DA5
  8
0
 10
37.98040385347446
 20
28.8722898472076
 30
-21.92800044006033
 70
   192
  0
VERTEX
  5
DA6
  8
0
 10
-0.000000000000003
 20
28.8722898472076
 30
43.85612879531774
 70
   192
  0
VERTEX
  5
DA7
  8
0
 10
0.0000000000000054
 20
30.42160042647478
 30
44.14174389512805
 70
   192
  0
VERTEX
  5
DA8
  8
0
 10
0.0
 20
0.0
 30
0.0
 70
   128
 71
     1
 72
     2
 73
    -3
  0
VERTEX
  5
DA9
  8
0
 10
0.0
 20
0.0
 30
0.0
 70
   128
 71
     3
 72
     4
 73
     5
  0
VERTEX
  5
DAA
  8
0
 10
0.0
 20
0.0
 30
0.0
 70
   128
 71
     5
 72
     6
 73
     3
  0
VERTEX
  5
DAB
  8
0
 10
0.0
 20
0.0
 30
0.0
 70
   128
 71
     7
 72
     8
 73
     2
  0
VERTEX
  5
DAC
  8
0
 10
0.0
 20
0.0
 30
0.0
 70
   128
 71
     3
 72
     6
 73
     9
  0
VERTEX
  5
DAD
  8
0
 10
0.0
 20
0.0
 30
0.0
 70
   128
 71
    10
 72
     3
 73
     9
  0
VERTEX
  5
DAE
  8
0
 10
0.0
 20
0.0
 30
0.0
 70
   128
 71
    -1
 72
     3
 73
    10
  0
VERTEX
  5
DAF
  8
0
 10
0.0
 20
0.0
 30
0.0
 70
   128
 71
     1
 72
    11
 73
    12
  0
VERTEX
  5
DB0
  8
0
 10
0.0
 20
0.0
 30
0.0
 70
   128
 71
     7
 72
     2
 73
     1
  0
VERTEX
  5
DB1
  8
0
 10
0.0
 20
0.0
 30
0.0
 70
   128
 71
    12
 72
     7
 73
     1
  0
SEQEND
  5
10EC
  8
0
  0
POLYLINE
  5
DB2
  8
0
 66
     1
 10
0.0
 20
0.0
 30
0.0
 70
    64
 71
    15
 72
    13
  0
VERTEX
  5
DB3
  8
0
 10
-0.0000000000000001
 20
18.12625304015187
 30
-42.27760785508507
 70
   192
  0
VERTEX
  5
DB4
  8
0
 10
-0.0000000000000026
 20
17.72664904937645
 30
-40.98535097287595
 70
   192
  0
VERTEX
  5
DB5
  8
0
 10
35.49389403971844
 20
17.72664894062656
 30
-20.48931279581837
 70
   192
  0
VERTEX
  5
DB6
  8
0
 10
35.49027073471713
 20
17.72664894062657
 30
20.4955825652725
 70
   192
  0
VERTEX
  5
DB7
  8
0
 10
-0.0072403556855604
 20
17.7266490530796
 30
40.98534973427265
 70
   192
  0
VERTEX
  5
DB8
  8
0
 10
-0.0137474785931553
 20
17.8583950077299
 30
41.60483469354428
 70
   192
  0
VERTEX
  5
DB9
  8
0
 10
-0.0149075351548608
 20
18.12669193498858
 30
42.27839888909849
 70
   192
  0
VERTEX
  5
DBA
  8
0
 10
-0.0151340832291933
 20
18.56912734959032
 30
42.83710509687927
 70
   192
  0
VERTEX
  5
DBB
  8
0
 10
37.59860119066804
 20
20.5163341789777
 30
21.71346990324449
 70
   192
  0
VERTEX
  5
DBC
  8
0
 10
-0.0152258304785148
 20
19.1583354710112
 30
43.18828116762116
 70
   192
  0
VERTEX
  5
DBD
  8
0
 10
37.60243573972275
 20
20.5163341789777
 30
-21.70682872217931
 70
   192
  0
VERTEX
  5
DBE
  8
0
 10
0.0000000000000063
 20
20.5163341789777
 30
-43.4182117149583
 70
   192
  0
VERTEX
  5
DBF
  8
0
 10
0.0
 20
19.15754118315957
 30
-43.18797138371929
 70
   192
  0
VERTEX
  5
DC0
  8
0
 10
-0.0143061721532474
 20
19.83135821026758
 30
43.35997336515874
 70
   192
  0
VERTEX
  5
DC1
  8
0
 10
-0.0076687293390272
 20
20.51633418407815
 30
43.41821041154985
 70
   192
  0
VERTEX
  5
DC2
  8
0
 10
0.0
 20
0.0
 30
0.0
 70
   128
 71
     1
 72
     2
 73
     3
  0
VERTEX
  5
DC3
  8
0
 10
0.0
 20
0.0
 30
0.0
 70
   128
 71
     4
 72
     5
 73
     6
  0
VERTEX
  5
DC4
  8
0
 10
0.0
 20
0.0
 30
0.0
 70
   128
 71
     6
 72
     7
 73
     4
  0
VERTEX
  5
DC5
  8
0
 10
0.0
 20
0.0
 30
0.0
 70
   128
 71
     7
 72
     8
 73
     4
  0
VERTEX
  5
DC6
  8
0
 10
0.0
 20
0.0
 30
0.0
 70
   128
 71
     8
 72
     9
 73
     4
  0
VERTEX
  5
DC7
  8
0
 10
0.0
 20
0.0
 30
0.0
 70
   128
 71
     8
 72
    10
 73
     9
  0
VERTEX
  5
DC8
  8
0
 10
0.0
 20
0.0
 30
0.0
 70
   128
 71
    11
 72
    12
 73
    13
  0
VERTEX
  5
DC9
  8
0
 10
0.0
 20
0.0
 30
0.0
 70
   128
 71
     1
 72
     3
 73
    11
  0
VERTEX
  5
DCA
  8
0
 10
0.0
 20
0.0
 30
0.0
 70
   128
 71
    13
 72
     1
 73
    11
  0
VERTEX
  5
DCB
  8
0
 10
0.0
 20
0.0
 30
0.0
 70
   128
 71
     9
 72
    11
 73
     3
  0
VERTEX
  5
DCC
  8
0
 10
0.0
 20
0.0
 30
0.0
 70
   128
 71
     4
 72
     9
 73
     3
  0
VERTEX
  5
DCD
  8
0
 10
0.0
 20
0.0
 30
0.0
 70
   128
 71
     9
 72
    10
 73
    14
  0
VERTEX
  5
DCE
  8
0
 10
0.0
 20
0.0
 30
0.0
 70
   128
 71
    14
 72
    15
 73
     9
  0
SEQEND
  5
10ED
  8
0
  0
POLYLINE
  5
DCF
  8
0
 66
     1
 10
0.0
 20
0.0
 30
0.0
 70
    64
 71
    22
 72
    20
  0
VERTEX
  5
DD0
  8
0
 10
0.0000000000000094
 20
511.411999733537
 30
-549.883909380539
 70
   192
  0
VERTEX
  5
DD1
  8
0
 10
0.0000000000000312
 20
511.411999733537
 30
549.883909380539
 70
   192
  0
VERTEX
  5
DD2
  8
0
 10
0.0000000000000711
 20
512.5165281968051
 30
548.889387485171
 70
   192
  0
VERTEX
  5
DD3
  8
0
 10
-0.0000000000000208
 20
512.5165281968051
 30
-548.889387485171
 70
   192
  0
VERTEX
  5
DD4
  8
0
 10
548.8893874851706
 20
512.5165281968051
 30
-0.0000000000000249
 70
   192
  0
VERTEX
  5
DD5
  8
0
 10
549.8839093805391
 20
511.4119997335373
 30
0.0000000000001865
 70
   192
  0
VERTEX
  5
DD6
  8
0
 10
388.1234080120947
 20
512.5165281968051
 30
-388.1234080120947
 70
   192
  0
VERTEX
  5
DD7
  8
0
 10
388.826641188348
 20
511.4119997335373
 30
-388.8266411883483
 70
   192
  0
VERTEX
  5
DD8
  8
0
 10
388.1234080120947
 20
512.5165281968051
 30
388.1234080120952
 70
   192
  0
VERTEX
  5
DD9
  8
0
 10
388.8266411883483
 20
511.4119997335372
 30
388.8266411883479
 70
   192
  0
VERTEX
  5
DDA
  8
0
 10
210.0508747915978
 20
512.5165281968051
 30
507.107670710206
 70
   192
  0
VERTEX
  5
DDB
  8
0
 10
210.431461844079
 20
511.4119997335374
 30
508.0264891339712
 70
   192
  0
VERTEX
  5
DDC
  8
0
 10
507.1076707102064
 20
512.5165281968051
 30
210.050874791597
 70
   192
  0
VERTEX
  5
DDD
  8
0
 10
508.0264891339712
 20
511.4119997335372
 30
210.4314618440786
 70
   192
  0
VERTEX
  5
DDE
  8
0
 10
507.107670710206
 20
512.5165281968051
 30
-210.0508747915968
 70
   192
  0
VERTEX
  5
DDF
  8
0
 10
508.0264891339715
 20
511.4119997335373
 30
-210.4314618440783
 70
   192
  0
VERTEX
  5
DE0
  8
0
 10
210.0508747915968
 20
512.5165281968051
 30
-507.107670710206
 70
   192
  0
VERTEX
  5
DE1
  8
0
 10
210.4314618440782
 20
511.4119997335373
 30
-508.0264891339715
 70
   192
  0
VERTEX
  5
DE2
  8
0
 10
0.0000000000000621
 20
512.0211302414546
 30
549.8597724903949
 70
   192
  0
VERTEX
  5
DE3
  8
0
 10
0.0000000000000624
 20
512.4288520551482
 30
549.4926581203961
 70
   192
  0
VERTEX
  5
DE4
  8
0
 10
-0.0000000000000027
 20
512.0211302414546
 30
-549.8597724903946
 70
   192
  0
VERTEX
  5
DE5
  8
0
 10
0.0000000000000009
 20
512.4288520551482
 30
-549.4926581203961
 70
   192
  0
VERTEX
  5
DE6
  8
0
 10
0.0
 20
0.0
 30
0.0
 70
   128
 71
    12
 72
    10
 73
    -9
  0
VERTEX
  5
DE7
  8
0
 10
0.0
 20
0.0
 30
0.0
 70
   128
 71
    11
 72
   -12
 73
     9
  0
VERTEX
  5
DE8
  8
0
 10
0.0
 20
0.0
 30
0.0
 70
   128
 71
    11
 72
     3
 73
    20
  0
VERTEX
  5
DE9
  8
0
 10
0.0
 20
0.0
 30
0.0
 70
   128
 71
    19
 72
    12
 73
    11
  0
VERTEX
  5
DEA
  8
0
 10
0.0
 20
0.0
 30
0.0
 70
   128
 71
    20
 72
    19
 73
    11
  0
VERTEX
  5
DEB
  8
0
 10
0.0
 20
0.0
 30
0.0
 70
   128
 71
    19
 72
     2
 73
    12
  0
VERTEX
  5
DEC
  8
0
 10
0.0
 20
0.0
 30
0.0
 70
   128
 71
    14
 72
     6
 73
    -5
  0
VERTEX
  5
DED
  8
0
 10
0.0
 20
0.0
 30
0.0
 70
   128
 71
    13
 72
   -14
 73
     5
  0
VERTEX
  5
DEE
  8
0
 10
0.0
 20
0.0
 30
0.0
 70
   128
 71
    10
 72
    14
 73
   -13
  0
VERTEX
  5
DEF
  8
0
 10
0.0
 20
0.0
 30
0.0
 70
   128
 71
     9
 72
   -10
 73
    13
  0
VERTEX
  5
DF0
  8
0
 10
0.0
 20
0.0
 30
0.0
 70
   128
 71
    16
 72
     8
 73
    -7
  0
VERTEX
  5
DF1
  8
0
 10
0.0
 20
0.0
 30
0.0
 70
   128
 71
    15
 72
   -16
 73
     7
  0
VERTEX
  5
DF2
  8
0
 10
0.0
 20
0.0
 30
0.0
 70
   128
 71
     6
 72
    16
 73
   -15
  0
VERTEX
  5
DF3
  8
0
 10
0.0
 20
0.0
 30
0.0
 70
   128
 71
     5
 72
    -6
 73
    15
  0
VERTEX
  5
DF4
  8
0
 10
0.0
 20
0.0
 30
0.0
 70
   128
 71
    18
 72
     1
 73
    21
  0
VERTEX
  5
DF5
  8
0
 10
0.0
 20
0.0
 30
0.0
 70
   128
 71
    18
 72
    21
 73
    22
  0
VERTEX
  5
DF6
  8
0
 10
0.0
 20
0.0
 30
0.0
 70
   128
 71
    17
 72
    18
 73
    22
  0
VERTEX
  5
DF7
  8
0
 10
0.0
 20
0.0
 30
0.0
 70
   128
 71
    22
 72
     4
 73
    17
  0
VERTEX
  5
DF8
  8
0
 10
0.0
 20
0.0
 30
0.0
 70
   128
 71
     8
 72
    18
 73
   -17
  0
VERTEX
  5
DF9
  8
0
 10
0.0
 20
0.0
 30
0.0
 70
   128
 71
     7
 72
    -8
 73
    17
  0
SEQEND
  5
10EE
  8
0
  0
POLYLINE
  5
DFA
  8
0
 66
     1
 10
0.0
 20
0.0
 30
0.0
 70
    64
 71
    22
 72
    20
  0
VERTEX
  5
DFB
  8
0
 10
-0.000000000000026
 20
512.5165281968051
 30
-537.618587939441
 70
   192
  0
VERTEX
  5
DFC
  8
0
 10
0.0000000000000607
 20
512.5165281968051
 30
537.618587939441
 70
   192
  0
VERTEX
  5
DFD
  8
0
 10
-0.0000000000000308
 20
509.830113586608
 30
534.635022253336
 70
   192
  0
VERTEX
  5
DFE
  8
0
 10
0.000000000000031
 20
509.830113586608
 30
-534.635022253336
 70
   192
  0
VERTEX
  5
DFF
  8
0
 10
534.635022253336
 20
509.8301135866083
 30
0.0000000000003748
 70
   192
  0
VERTEX
  5
E00
  8
0
 10
537.6185879394405
 20
512.5165281968051
 30
0.0000000000000497
 70
   192
  0
VERTEX
  5
E01
  8
0
 10
378.0440496951544
 20
509.8301135866084
 30
-378.0440496951552
 70
   192
  0
VERTEX
  5
E02
  8
0
 10
380.153749223915
 20
512.5165281968051
 30
-380.1537492239148
 70
   192
  0
VERTEX
  5
E03
  8
0
 10
378.0440496951549
 20
509.8301135866083
 30
378.0440496951546
 70
   192
  0
VERTEX
  5
E04
  8
0
 10
380.1537492239145
 20
512.5165281968051
 30
380.1537492239152
 70
   192
  0
VERTEX
  5
E05
  8
0
 10
-0.0000000000000026
 20
512.3173452207504
 30
-536.0779308649977
 70
   192
  0
VERTEX
  5
E06
  8
0
 10
-0.000000000000004
 20
511.3415104899995
 30
-534.9941566006213
 70
   192
  0
VERTEX
  5
E07
  8
0
 10
204.5959653784922
 20
509.8301135866084
 30
-493.9383544235739
 70
   192
  0
VERTEX
  5
E08
  8
0
 10
205.737726535938
 20
512.5165281968051
 30
-496.6948096948685
 70
   192
  0
VERTEX
  5
E09
  8
0
 10
493.9383544235737
 20
509.8301135866083
 30
-204.5959653784928
 70
   192
  0
VERTEX
  5
E0A
  8
0
 10
496.694809694869
 20
512.5165281968051
 30
-205.737726535938
 70
   192
  0
VERTEX
  5
E0B
  8
0
 10
493.9383544235735
 20
509.8301135866083
 30
204.595965378493
 70
   192
  0
VERTEX
  5
E0C
  8
0
 10
496.6948096948685
 20
512.5165281968051
 30
205.7377265359382
 70
   192
  0
VERTEX
  5
E0D
  8
0
 10
0.0000000000000636
 20
512.3173452207504
 30
536.0779308649977
 70
   192
  0
VERTEX
  5
E0E
  8
0
 10
205.7377265359387
 20
512.5165281968051
 30
496.6948096948685
 70
   192
  0
VERTEX
  5
E0F
  8
0
 10
204.5959653784932
 20
509.8301135866083
 30
493.9383544235735
 70
   192
  0
VERTEX
  5
E10
  8
0
 10
0.0000000000000608
 20
511.3415104899995
 30
534.9941566006213
 70
   192
  0
VERTEX
  5
E11
  8
0
 10
0.0
 20
0.0
 30
0.0
 70
   128
 71
     7
 72
     8
 73
   -14
  0
VERTEX
  5
E12
  8
0
 10
0.0
 20
0.0
 30
0.0
 70
   128
 71
    13
 72
    -7
 73
    14
  0
VERTEX
  5
E13
  8
0
 10
0.0
 20
0.0
 30
0.0
 70
   128
 71
    14
 72
     1
 73
    11
  0
VERTEX
  5
E14
  8
0
 10
0.0
 20
0.0
 30
0.0
 70
   128
 71
    12
 72
    13
 73
    14
  0
VERTEX
  5
E15
  8
0
 10
0.0
 20
0.0
 30
0.0
 70
   128
 71
    11
 72
    12
 73
    14
  0
VERTEX
  5
E16
  8
0
 10
0.0
 20
0.0
 30
0.0
 70
   128
 71
    12
 72
     4
 73
    13
  0
VERTEX
  5
E17
  8
0
 10
0.0
 20
0.0
 30
0.0
 70
   128
 71
     5
 72
     6
 73
   -16
  0
VERTEX
  5
E18
  8
0
 10
0.0
 20
0.0
 30
0.0
 70
   128
 71
    15
 72
    -5
 73
    16
  0
VERTEX
  5
E19
  8
0
 10
0.0
 20
0.0
 30
0.0
 70
   128
 71
     8
 72
     7
 73
   -15
  0
VERTEX
  5
E1A
  8
0
 10
0.0
 20
0.0
 30
0.0
 70
   128
 71
    16
 72
    -8
 73
    15
  0
VERTEX
  5
E1B
  8
0
 10
0.0
 20
0.0
 30
0.0
 70
   128
 71
     9
 72
    10
 73
   -18
  0
VERTEX
  5
E1C
  8
0
 10
0.0
 20
0.0
 30
0.0
 70
   128
 71
    17
 72
    -9
 73
    18
  0
VERTEX
  5
E1D
  8
0
 10
0.0
 20
0.0
 30
0.0
 70
   128
 71
     6
 72
     5
 73
   -17
  0
VERTEX
  5
E1E
  8
0
 10
0.0
 20
0.0
 30
0.0
 70
   128
 71
    18
 72
    -6
 73
    17
  0
VERTEX
  5
E1F
  8
0
 10
0.0
 20
0.0
 30
0.0
 70
   128
 71
    22
 72
     9
 73
    21
  0
VERTEX
  5
E20
  8
0
 10
0.0
 20
0.0
 30
0.0
 70
   128
 71
    21
 72
     3
 73
    22
  0
VERTEX
  5
E21
  8
0
 10
0.0
 20
0.0
 30
0.0
 70
   128
 71
    19
 72
    10
 73
     9
  0
VERTEX
  5
E22
  8
0
 10
0.0
 20
0.0
 30
0.0
 70
   128
 71
    22
 72
    19
 73
     9
  0
VERTEX
  5
E23
  8
0
 10
0.0
 20
0.0
 30
0.0
 70
   128
 71
    19
 72
     2
 73
    20
  0
VERTEX
  5
E24
  8
0
 10
0.0
 20
0.0
 30
0.0
 70
   128
 71
    20
 72
    10
 73
    19
  0
SEQEND
  5
10EF
  8
0
  0
POLYLINE
  5
E25
  8
0
 66
     1
 10
0.0
 20
0.0
 30
0.0
 70
    64
 71
    17
 72
    18
  0
VERTEX
  5
E26
  8
0
 10
71.95785316431713
 20
18.62552816694015
 30
-71.95785316431711
 70
   192
  0
VERTEX
  5
E27
  8
0
 10
101.763771864229
 20
18.62552816694015
 30
0.0000000000000113
 70
   192
  0
VERTEX
  5
E28
  8
0
 10
91.16309342683769
 20
17.10786856762434
 30
-0.0000000000000056
 70
   192
  0
VERTEX
  5
E29
  8
0
 10
71.95785316431711
 20
18.62552816694015
 30
71.95785316431713
 70
   192
  0
VERTEX
  5
E2A
  8
0
 10
81.12872330992977
 20
13.36766932837605
 30
-0.000000000000005
 70
   192
  0
VERTEX
  5
E2B
  8
0
 10
0.0
 20
16.10165348727591
 30
-87.7319056303444
 70
   192
  0
VERTEX
  5
E2C
  8
0
 10
72.12094880349943
 20
7.576497388805258
 30
-0.0000000000000044
 70
   192
  0
VERTEX
  5
E2D
  8
0
 10
0.0000000000000092
 20
9.72019533972572
 30
74.98277996168201
 70
   192
  0
VERTEX
  5
E2E
  8
0
 10
64.55296615884473
 20
0.0
 30
0.0
 70
   192
  0
VERTEX
  5
E2F
  8
0
 10
45.64584011662482
 20
0.0
 30
-45.64584011662482
 70
   192
  0
VERTEX
  5
E30
  8
0
 10
45.64584011662483
 20
0.0
 30
45.64584011662483
 70
   192
  0
VERTEX
  5
E31
  8
0
 10
0.0000000000000107
 20
16.10165348727591
 30
87.7319056303444
 70
   192
  0
VERTEX
  5
E32
  8
0
 10
0.0
 20
9.72019533972572
 30
-74.98277996168201
 70
   192
  0
VERTEX
  5
E33
  8
0
 10
0.0000000000000079
 20
-0.0000000000000426
 30
64.55296615884475
 70
   192
  0
VERTEX
  5
E34
  8
0
 10
0.0
 20
0.0
 30
-64.55296615884471
 70
   192
  0
VERTEX
  5
E35
  8
0
 10
0.0000000000000125
 20
18.62552816694014
 30
101.763771864229
 70
   192
  0
VERTEX
  5
E36
  8
0
 10
0.0
 20
18.62552816694014
 30
-101.763771864229
 70
   192
  0
VERTEX
  5
E37
  8
0
 10
0.0
 20
0.0
 30
0.0
 70
   128
 71
     1
 72
     2
 73
     3
  0
VERTEX
  5
E38
  8
0
 10
0.0
 20
0.0
 30
0.0
 70
   128
 71
     3
 72
     2
 73
     4
  0
VERTEX
  5
E39
  8
0
 10
0.0
 20
0.0
 30
0.0
 70
   128
 71
     3
 72
     5
 73
     6
  0
VERTEX
  5
E3A
  8
0
 10
0.0
 20
0.0
 30
0.0
 70
   128
 71
     7
 72
     5
 73
     8
  0
VERTEX
  5
E3B
  8
0
 10
0.0
 20
0.0
 30
0.0
 70
   128
 71
     7
 72
     9
 73
    10
  0
VERTEX
  5
E3C
  8
0
 10
0.0
 20
0.0
 30
0.0
 70
   128
 71
    11
 72
     9
 73
     7
  0
VERTEX
  5
E3D
  8
0
 10
0.0
 20
0.0
 30
0.0
 70
   128
 71
     8
 72
     5
 73
     3
  0
VERTEX
  5
E3E
  8
0
 10
0.0
 20
0.0
 30
0.0
 70
   128
 71
    12
 72
     8
 73
     3
  0
VERTEX
  5
E3F
  8
0
 10
0.0
 20
0.0
 30
0.0
 70
   128
 71
     5
 72
     7
 73
    13
  0
VERTEX
  5
E40
  8
0
 10
0.0
 20
0.0
 30
0.0
 70
   128
 71
     6
 72
     5
 73
    13
  0
VERTEX
  5
E41
  8
0
 10
0.0
 20
0.0
 30
0.0
 70
   128
 71
    14
 72
    11
 73
     7
  0
VERTEX
  5
E42
  8
0
 10
0.0
 20
0.0
 30
0.0
 70
   128
 71
     8
 72
    14
 73
     7
  0
VERTEX
  5
E43
  8
0
 10
0.0
 20
0.0
 30
0.0
 70
   128
 71
     7
 72
    10
 73
    15
  0
VERTEX
  5
E44
  8
0
 10
0.0
 20
0.0
 30
0.0
 70
   128
 71
    13
 72
     7
 73
    15
  0
VERTEX
  5
E45
  8
0
 10
0.0
 20
0.0
 30
0.0
 70
   128
 71
    12
 72
     3
 73
     4
  0
VERTEX
  5
E46
  8
0
 10
0.0
 20
0.0
 30
0.0
 70
   128
 71
    16
 72
    12
 73
     4
  0
VERTEX
  5
E47
  8
0
 10
0.0
 20
0.0
 30
0.0
 70
   128
 71
     1
 72
     3
 73
     6
  0
VERTEX
  5
E48
  8
0
 10
0.0
 20
0.0
 30
0.0
 70
   128
 71
    17
 72
     1
 73
     6
  0
SEQEND
  5
10F0
  8
0
  0
POLYLINE
  5
E49
  8
0
 66
     1
 10
0.0
 20
0.0
 30
0.0
 70
    64
 71
    15
 72
    16
  0
VERTEX
  5
E4A
  8
0
 10
-176.1333111953372
 20
28.1805598862645
 30
331.4970051657988
 70
   192
  0
VERTEX
  5
E4B
  8
0
 10
0.0
 20
28.18055988626449
 30
375.3840803051285
 70
   192
  0
VERTEX
  5
E4C
  8
0
 10
-260.5432660982789
 20
26.6386843936084
 30
289.6230180248827
 70
   192
  0
VERTEX
  5
E4D
  8
0
 10
-269.352771190852
 20
21.1528688242332
 30
299.4157694953973
 70
   192
  0
VERTEX
  5
E4E
  8
0
 10
-390.1198539769769
 20
25.5476455523938
 30
49.36000122206776
 70
   192
  0
VERTEX
  5
E4F
  8
0
 10
-276.7672482914709
 20
12.16987697511511
 30
307.6577911262601
 70
   192
  0
VERTEX
  5
E50
  8
0
 10
0.0
 20
15.51292009104666
 30
410.4242220616862
 70
   192
  0
VERTEX
  5
E51
  8
0
 10
-344.3559692717839
 20
0.4212820273002755
 30
243.8030583372558
 70
   192
  0
VERTEX
  5
E52
  8
0
 10
-417.8727080952008
 20
0.4212820273002755
 30
58.33836350886302
 70
   192
  0
VERTEX
  5
E53
  8
0
 10
0.0
 20
25.23259943529547
 30
394.1282001089298
 70
   192
  0
VERTEX
  5
E54
  8
0
 10
0.0
 20
0.4212820273001299
 30
421.9253071666932
 70
   192
  0
VERTEX
  5
E55
  8
0
 10
-193.8482454790124
 20
0.4212820273002755
 30
374.7583522116854
 70
   192
  0
VERTEX
  5
E56
  8
0
 10
-311.0822660552356
 20
28.1805598862645
 30
210.0976713161447
 70
   192
  0
VERTEX
  5
E57
  8
0
 10
-373.292436820818
 20
28.1805598862645
 30
39.5722675481553
 70
   192
  0
VERTEX
  5
E58
  8
0
 10
-406.0768388088651
 20
16.01263698216557
 30
55.52792402819027
 70
   192
  0
VERTEX
  5
E59
  8
0
 10
0.0
 20
0.0
 30
0.0
 70
   128
 71
     1
 72
     2
 73
     3
  0
VERTEX
  5
E5A
  8
0
 10
0.0
 20
0.0
 30
0.0
 70
   128
 71
     3
 72
     4
 73
     5
  0
VERTEX
  5
E5B
  8
0
 10
0.0
 20
0.0
 30
0.0
 70
   128
 71
     6
 72
     4
 73
     7
  0
VERTEX
  5
E5C
  8
0
 10
0.0
 20
0.0
 30
0.0
 70
   128
 71
     8
 72
     9
 73
     6
  0
VERTEX
  5
E5D
  8
0
 10
0.0
 20
0.0
 30
0.0
 70
   128
 71
     7
 72
     4
 73
     3
  0
VERTEX
  5
E5E
  8
0
 10
0.0
 20
0.0
 30
0.0
 70
   128
 71
    10
 72
     7
 73
     3
  0
VERTEX
  5
E5F
  8
0
 10
0.0
 20
0.0
 30
0.0
 70
   128
 71
    11
 72
    12
 73
     6
  0
VERTEX
  5
E60
  8
0
 10
0.0
 20
0.0
 30
0.0
 70
   128
 71
     7
 72
    11
 73
     6
  0
VERTEX
  5
E61
  8
0
 10
0.0
 20
0.0
 30
0.0
 70
   128
 71
     2
 72
    10
 73
     3
  0
VERTEX
  5
E62
  8
0
 10
0.0
 20
0.0
 30
0.0
 70
   128
 71
     1
 72
     3
 73
    13
  0
VERTEX
  5
E63
  8
0
 10
0.0
 20
0.0
 30
0.0
 70
   128
 71
     6
 72
    12
 73
     8
  0
VERTEX
  5
E64
  8
0
 10
0.0
 20
0.0
 30
0.0
 70
   128
 71
     3
 72
     5
 73
    14
  0
VERTEX
  5
E65
  8
0
 10
0.0
 20
0.0
 30
0.0
 70
   128
 71
    13
 72
     3
 73
    14
  0
VERTEX
  5
E66
  8
0
 10
0.0
 20
0.0
 30
0.0
 70
   128
 71
     6
 72
    15
 73
     5
  0
VERTEX
  5
E67
  8
0
 10
0.0
 20
0.0
 30
0.0
 70
   128
 71
     4
 72
     6
 73
     5
  0
VERTEX
  5
E68
  8
0
 10
0.0
 20
0.0
 30
0.0
 70
   128
 71
     6
 72
     9
 73
    15
  0
SEQEND
  5
10F1
  8
0
  0
POLYLINE
  5
E69
  8
0
 66
     1
 10
0.0
 20
0.0
 30
0.0
 70
    64
 71
    12
 72
    10
  0
VERTEX
  5
E6A
  8
0
 10
-394.10303883161
 20
9.085540667460956
 30
31.45267545161209
 70
   192
  0
VERTEX
  5
E6B
  8
0
 10
-399.2289903725897
 20
5.762048724510724
 30
34.7149337003552
 70
   192
  0
VERTEX
  5
E6C
  8
0
 10
-403.52834621271
 20
0.4212820273002755
 30
36.43983836097249
 70
   192
  0
VERTEX
  5
E6D
  8
0
 10
-394.0981526524872
 20
9.087474696659076
 30
-31.44886564894168
 70
   192
  0
VERTEX
  5
E6E
  8
0
 10
-403.52834621271
 20
0.4212820273002755
 30
-36.43983836097264
 70
   192
  0
VERTEX
  5
E6F
  8
0
 10
-399.2428668133231
 20
5.749185925416352
 30
-34.72193437019371
 70
   192
  0
VERTEX
  5
E70
  8
0
 10
-382.9065921767287
 20
0.4212820273002755
 30
14.90727889785171
 70
   192
  0
VERTEX
  5
E71
  8
0
 10
-382.9065921767287
 20
0.4212820273002755
 30
-14.90727889785182
 70
   192
  0
VERTEX
  5
E72
  8
0
 10
-380.366799643603
 20
9.418840189491895
 30
-9.529857973490925
 70
   192
  0
VERTEX
  5
E73
  8
0
 10
-389.0839747061615
 20
9.93585820083568
 30
26.64473520266685
 70
   192
  0
VERTEX
  5
E74
  8
0
 10
-380.364923310174
 20
9.418731803793118
 30
9.52233810442525
 70
   192
  0
VERTEX
  5
E75
  8
0
 10
-389.083974706163
 20
9.93585820083577
 30
-26.6447352026687
 70
   192
  0
VERTEX
  5
E76
  8
0
 10
0.0
 20
0.0
 30
0.0
 70
   128
 71
     1
 72
     2
 73
     3
  0
VERTEX
  5
E77
  8
0
 10
0.0
 20
0.0
 30
0.0
 70
   128
 71
     4
 72
     5
 73
     6
  0
VERTEX
  5
E78
  8
0
 10
0.0
 20
0.0
 30
0.0
 70
   128
 71
     7
 72
     8
 73
     9
  0
VERTEX
  5
E79
  8
0
 10
0.0
 20
0.0
 30
0.0
 70
   128
 71
     8
 72
     5
 73
     4
  0
VERTEX
  5
E7A
  8
0
 10
0.0
 20
0.0
 30
0.0
 70
   128
 71
    10
 72
     1
 73
     3
  0
VERTEX
  5
E7B
  8
0
 10
0.0
 20
0.0
 30
0.0
 70
   128
 71
    10
 72
     3
 73
     7
  0
VERTEX
  5
E7C
  8
0
 10
0.0
 20
0.0
 30
0.0
 70
   128
 71
    10
 72
     7
 73
    11
  0
VERTEX
  5
E7D
  8
0
 10
0.0
 20
0.0
 30
0.0
 70
   128
 71
    11
 72
     7
 73
     9
  0
VERTEX
  5
E7E
  8
0
 10
0.0
 20
0.0
 30
0.0
 70
   128
 71
     9
 72
     8
 73
     4
  0
VERTEX
  5
E7F
  8
0
 10
0.0
 20
0.0
 30
0.0
 70
   128
 71
     9
 72
     4
 73
    12
  0
SEQEND
  5
10F2
  8
0
  0
POLYLINE
  5
E80
  8
0
 66
     1
 10
0.0
 20
0.0
 30
0.0
 70
    64
 71
    12
 72
    10
  0
VERTEX
  5
E81
  8
0
 10
394.1030388322567
 20
9.085540667264487
 30
-31.4526754521231
 70
   192
  0
VERTEX
  5
E82
  8
0
 10
399.2289903728453
 20
5.762048724109288
 30
-34.71493370046746
 70
   192
  0
VERTEX
  5
E83
  8
0
 10
403.52834621271
 20
0.4212820273002755
 30
-36.4398383609726
 70
   192
  0
VERTEX
  5
E84
  8
0
 10
394.0981526528986
 20
9.087474696407712
 30
31.44886564925237
 70
   192
  0
VERTEX
  5
E85
  8
0
 10
403.52834621271
 20
0.4212820273002755
 30
36.43983836097254
 70
   192
  0
VERTEX
  5
E86
  8
0
 10
399.242866818095
 20
5.749185922400524
 30
34.72193437274295
 70
   192
  0
VERTEX
  5
E87
  8
0
 10
382.9065921767287
 20
0.4212820273002755
 30
-14.90727889785182
 70
   192
  0
VERTEX
  5
E88
  8
0
 10
382.9065921767287
 20
0.4212820273002755
 30
14.90727889785172
 70
   192
  0
VERTEX
  5
E89
  8
0
 10
380.3667996517648
 20
9.418840190046879
 30
9.529858007660717
 70
   192
  0
VERTEX
  5
E8A
  8
0
 10
389.0839747061615
 20
9.93585820083568
 30
-26.64473520266695
 70
   192
  0
VERTEX
  5
E8B
  8
0
 10
380.364923303866
 20
9.41873180323854
 30
-9.522338077944678
 70
   192
  0
VERTEX
  5
E8C
  8
0
 10
389.083974706163
 20
9.93585820083576
 30
26.64473520266855
 70
   192
  0
VERTEX
  5
E8D
  8
0
 10
0.0
 20
0.0
 30
0.0
 70
   128
 71
     1
 72
     2
 73
     3
  0
VERTEX
  5
E8E
  8
0
 10
0.0
 20
0.0
 30
0.0
 70
   128
 71
     4
 72
     5
 73
     6
  0
VERTEX
  5
E8F
  8
0
 10
0.0
 20
0.0
 30
0.0
 70
   128
 71
     7
 72
     8
 73
     9
  0
VERTEX
  5
E90
  8
0
 10
0.0
 20
0.0
 30
0.0
 70
   128
 71
     8
 72
     5
 73
     4
  0
VERTEX
  5
E91
  8
0
 10
0.0
 20
0.0
 30
0.0
 70
   128
 71
    10
 72
     1
 73
     3
  0
VERTEX
  5
E92
  8
0
 10
0.0
 20
0.0
 30
0.0
 70
   128
 71
    10
 72
     3
 73
     7
  0
VERTEX
  5
E93
  8
0
 10
0.0
 20
0.0
 30
0.0
 70
   128
 71
    10
 72
     7
 73
    11
  0
VERTEX
  5
E94
  8
0
 10
0.0
 20
0.0
 30
0.0
 70
   128
 71
    11
 72
     7
 73
     9
  0
VERTEX
  5
E95
  8
0
 10
0.0
 20
0.0
 30
0.0
 70
   128
 71
     9
 72
     8
 73
     4
  0
VERTEX
  5
E96
  8
0
 10
0.0
 20
0.0
 30
0.0
 70
   128
 71
     9
 72
     4
 73
    12
  0
SEQEND
  5
10F3
  8
0
  0
POLYLINE
  5
E97
  8
0
 66
     1
 10
0.0
 20
0.0
 30
0.0
 70
    64
 71
    12
 72
    10
  0
VERTEX
  5
E98
  8
0
 10
417.8727080952005
 20
0.4212820273002755
 30
-58.3383635088631
 70
   192
  0
VERTEX
  5
E99
  8
0
 10
406.0768387482335
 20
16.01263703579287
 30
-55.52792401438773
 70
   192
  0
VERTEX
  5
E9A
  8
0
 10
390.1198540114501
 20
25.54764554017136
 30
-49.36000123582887
 70
   192
  0
VERTEX
  5
E9B
  8
0
 10
373.292436820816
 20
28.18055988626445
 30
-39.57226754815298
 70
   192
  0
VERTEX
  5
E9C
  8
0
 10
380.6850571286883
 20
25.94047716773058
 30
-33.30962074946626
 70
   192
  0
VERTEX
  5
E9D
  8
0
 10
386.4216434603896
 20
19.31273089789308
 30
-28.61344068808286
 70
   192
  0
VERTEX
  5
E9E
  8
0
 10
389.0839747061615
 20
9.93585820083568
 30
-26.64473520266695
 70
   192
  0
VERTEX
  5
E9F
  8
0
 10
394.1030388322567
 20
9.085540667264487
 30
-31.4526754521231
 70
   192
  0
VERTEX
  5
EA0
  8
0
 10
399.2289903728453
 20
5.762048724109288
 30
-34.71493370046746
 70
   192
  0
VERTEX
  5
EA1
  8
0
 10
403.52834621271
 20
0.4212820273002755
 30
-36.4398383609726
 70
   192
  0
VERTEX
  5
EA2
  8
0
 10
411.4346351214882
 20
0.4212820273002755
 30
-41.48828247283681
 70
   192
  0
VERTEX
  5
EA3
  8
0
 10
416.7488600559436
 20
0.4212820273002755
 30
-49.09826321568501
 70
   192
  0
VERTEX
  5
EA4
  8
0
 10
0.0
 20
0.0
 30
0.0
 70
   128
 71
     8
 72
     7
 73
     6
  0
VERTEX
  5
EA5
  8
0
 10
0.0
 20
0.0
 30
0.0
 70
   128
 71
     8
 72
     6
 73
    11
  0
VERTEX
  5
EA6
  8
0
 10
0.0
 20
0.0
 30
0.0
 70
   128
 71
    11
 72
     9
 73
     8
  0
VERTEX
  5
EA7
  8
0
 10
0.0
 20
0.0
 30
0.0
 70
   128
 71
    11
 72
    10
 73
     9
  0
VERTEX
  5
EA8
  8
0
 10
0.0
 20
0.0
 30
0.0
 70
   128
 71
     6
 72
     5
 73
    12
  0
VERTEX
  5
EA9
  8
0
 10
0.0
 20
0.0
 30
0.0
 70
   128
 71
     6
 72
    12
 73
    11
  0
VERTEX
  5
EAA
  8
0
 10
0.0
 20
0.0
 30
0.0
 70
   128
 71
     2
 72
     1
 73
    12
  0
VERTEX
  5
EAB
  8
0
 10
0.0
 20
0.0
 30
0.0
 70
   128
 71
     2
 72
    12
 73
     5
  0
VERTEX
  5
EAC
  8
0
 10
0.0
 20
0.0
 30
0.0
 70
   128
 71
     5
 72
     3
 73
     2
  0
VERTEX
  5
EAD
  8
0
 10
0.0
 20
0.0
 30
0.0
 70
   128
 71
     5
 72
     4
 73
     3
  0
SEQEND
  5
10F4
  8
0
  0
POLYLINE
  5
EAE
  8
0
 66
     1
 10
0.0
 20
0.0
 30
0.0
 70
    64
 71
    12
 72
    10
  0
VERTEX
  5
EAF
  8
0
 10
373.292436820818
 20
28.1805598862645
 30
-39.57226754815535
 70
   192
  0
VERTEX
  5
EB0
  8
0
 10
360.3051068118129
 20
27.66374739633415
 30
-14.19210109826318
 70
   192
  0
VERTEX
  5
EB1
  8
0
 10
360.3159411791958
 20
27.66418991919862
 30
14.2385546132347
 70
   192
  0
VERTEX
  5
EB2
  8
0
 10
373.2924368208175
 20
28.18055988626453
 30
39.57226754815748
 70
   192
  0
VERTEX
  5
EB3
  8
0
 10
380.6850571286899
 20
25.94047716773119
 30
33.30962074946978
 70
   192
  0
VERTEX
  5
EB4
  8
0
 10
386.4216434603911
 20
19.31273089789363
 30
28.6134406880853
 70
   192
  0
VERTEX
  5
EB5
  8
0
 10
389.083974706163
 20
9.93585820083576
 30
26.64473520266855
 70
   192
  0
VERTEX
  5
EB6
  8
0
 10
380.3667996517648
 20
9.418840190046879
 30
9.529858007660717
 70
   192
  0
VERTEX
  5
EB7
  8
0
 10
380.364923303866
 20
9.41873180323854
 30
-9.522338077944678
 70
   192
  0
VERTEX
  5
EB8
  8
0
 10
389.0839747061617
 20
9.93585820083569
 30
-26.64473520266694
 70
   192
  0
VERTEX
  5
EB9
  8
0
 10
386.4216434603896
 20
19.31273089789308
 30
-28.61344068808286
 70
   192
  0
VERTEX
  5
EBA
  8
0
 10
380.6850571286883
 20
25.94047716773058
 30
-33.30962074946626
 70
   192
  0
VERTEX
  5
EBB
  8
0
 10
0.0
 20
0.0
 30
0.0
 70
   128
 71
     8
 72
     7
 73
     6
  0
VERTEX
  5
EBC
  8
0
 10
0.0
 20
0.0
 30
0.0
 70
   128
 71
     6
 72
    11
 73
     9
  0
VERTEX
  5
EBD
  8
0
 10
0.0
 20
0.0
 30
0.0
 70
   128
 71
     6
 72
     9
 73
     8
  0
VERTEX
  5
EBE
  8
0
 10
0.0
 20
0.0
 30
0.0
 70
   128
 71
    11
 72
    10
 73
     9
  0
VERTEX
  5
EBF
  8
0
 10
0.0
 20
0.0
 30
0.0
 70
   128
 71
     6
 72
     5
 73
   -12
  0
VERTEX
  5
EC0
  8
0
 10
0.0
 20
0.0
 30
0.0
 70
   128
 71
    -6
 72
    12
 73
    11
  0
VERTEX
  5
EC1
  8
0
 10
0.0
 20
0.0
 30
0.0
 70
   128
 71
     2
 72
     1
 73
    12
  0
VERTEX
  5
EC2
  8
0
 10
0.0
 20
0.0
 30
0.0
 70
   128
 71
    12
 72
     5
 73
     3
  0
VERTEX
  5
EC3
  8
0
 10
0.0
 20
0.0
 30
0.0
 70
   128
 71
    12
 72
     3
 73
     2
  0
VERTEX
  5
EC4
  8
0
 10
0.0
 20
0.0
 30
0.0
 70
   128
 71
     5
 72
     4
 73
     3
  0
SEQEND
  5
10F5
  8
0
  0
POLYLINE
  5
EC5
  8
0
 66
     1
 10
0.0
 20
0.0
 30
0.0
 70
    64
 71
    12
 72
    10
  0
VERTEX
  5
EC6
  8
0
 10
403.52834621271
 20
0.4212820273002755
 30
36.43983836097249
 70
   192
  0
VERTEX
  5
EC7
  8
0
 10
399.242866818095
 20
5.749185922400524
 30
34.72193437274295
 70
   192
  0
VERTEX
  5
EC8
  8
0
 10
394.0981526528986
 20
9.087474696407712
 30
31.44886564925237
 70
   192
  0
VERTEX
  5
EC9
  8
0
 10
389.083974706163
 20
9.935858200835757
 30
26.64473520266862
 70
   192
  0
VERTEX
  5
ECA
  8
0
 10
386.4216434603911
 20
19.31273089789363
 30
28.6134406880853
 70
   192
  0
VERTEX
  5
ECB
  8
0
 10
380.6850571286899
 20
25.94047716773119
 30
33.30962074946978
 70
   192
  0
VERTEX
  5
ECC
  8
0
 10
373.2924368208176
 20
28.1805598862645
 30
39.57226754815755
 70
   192
  0
VERTEX
  5
ECD
  8
0
 10
390.1081570480797
 20
25.55182769366618
 30
49.3544903145498
 70
   192
  0
VERTEX
  5
ECE
  8
0
 10
406.1054524869587
 20
15.98704915483359
 30
55.53664801639767
 70
   192
  0
VERTEX
  5
ECF
  8
0
 10
417.8727080952005
 20
0.4212820273002755
 30
58.338363508863
 70
   192
  0
VERTEX
  5
ED0
  8
0
 10
416.7570131740945
 20
0.4212820273002755
 30
49.11884040669498
 70
   192
  0
VERTEX
  5
ED1
  8
0
 10
411.4451549393107
 20
0.4212820273002754
 30
41.4979805885133
 70
   192
  0
VERTEX
  5
ED2
  8
0
 10
0.0
 20
0.0
 30
0.0
 70
   128
 71
     8
 72
     7
 73
     6
  0
VERTEX
  5
ED3
  8
0
 10
0.0
 20
0.0
 30
0.0
 70
   128
 71
     6
 72
     9
 73
     8
  0
VERTEX
  5
ED4
  8
0
 10
0.0
 20
0.0
 30
0.0
 70
   128
 71
     6
 72
    11
 73
    10
  0
VERTEX
  5
ED5
  8
0
 10
0.0
 20
0.0
 30
0.0
 70
   128
 71
     6
 72
    10
 73
     9
  0
VERTEX
  5
ED6
  8
0
 10
0.0
 20
0.0
 30
0.0
 70
   128
 71
     6
 72
     5
 73
    12
  0
VERTEX
  5
ED7
  8
0
 10
0.0
 20
0.0
 30
0.0
 70
   128
 71
     6
 72
    12
 73
    11
  0
VERTEX
  5
ED8
  8
0
 10
0.0
 20
0.0
 30
0.0
 70
   128
 71
     2
 72
     1
 73
    12
  0
VERTEX
  5
ED9
  8
0
 10
0.0
 20
0.0
 30
0.0
 70
   128
 71
    12
 72
     3
 73
     2
  0
VERTEX
  5
EDA
  8
0
 10
0.0
 20
0.0
 30
0.0
 70
   128
 71
    12
 72
     5
 73
     4
  0
VERTEX
  5
EDB
  8
0
 10
0.0
 20
0.0
 30
0.0
 70
   128
 71
    12
 72
     4
 73
     3
  0
SEQEND
  5
10F6
  8
0
  0
POLYLINE
  5
EDC
  8
0
 66
     1
 10
0.0
 20
0.0
 30
0.0
 70
    64
 71
    12
 72
    10
  0
VERTEX
  5
EDD
  8
0
 10
-417.8727080952005
 20
0.4212820273002755
 30
58.338363508863
 70
   192
  0
VERTEX
  5
EDE
  8
0
 10
-406.0768388088651
 20
16.01263698216557
 30
55.52792402819027
 70
   192
  0
VERTEX
  5
EDF
  8
0
 10
-390.1198539769769
 20
25.5476455523938
 30
49.36000122206776
 70
   192
  0
VERTEX
  5
EE0
  8
0
 10
-373.292436820816
 20
28.18055988626447
 30
39.57226754815293
 70
   192
  0
VERTEX
  5
EE1
  8
0
 10
-380.6850571286884
 20
25.94047716773061
 30
33.3096207494662
 70
   192
  0
VERTEX
  5
EE2
  8
0
 10
-386.4216434603896
 20
19.3127308978931
 30
28.61344068808278
 70
   192
  0
VERTEX
  5
EE3
  8
0
 10
-389.0839747061615
 20
9.93585820083568
 30
26.64473520266685
 70
   192
  0
VERTEX
  5
EE4
  8
0
 10
-394.10303883161
 20
9.085540667460956
 30
31.45267545161209
 70
   192
  0
VERTEX
  5
EE5
  8
0
 10
-399.2289903725897
 20
5.762048724510724
 30
34.7149337003552
 70
   192
  0
VERTEX
  5
EE6
  8
0
 10
-403.52834621271
 20
0.4212820273002755
 30
36.43983836097249
 70
   192
  0
VERTEX
  5
EE7
  8
0
 10
-411.4346351218763
 20
0.4212820273002754
 30
41.48828247315983
 70
   192
  0
VERTEX
  5
EE8
  8
0
 10
-416.7488600557422
 20
0.4212820273002755
 30
49.09826321563972
 70
   192
  0
VERTEX
  5
EE9
  8
0
 10
0.0
 20
0.0
 30
0.0
 70
   128
 71
     8
 72
     7
 73
     6
  0
VERTEX
  5
EEA
  8
0
 10
0.0
 20
0.0
 30
0.0
 70
   128
 71
     8
 72
     6
 73
    11
  0
VERTEX
  5
EEB
  8
0
 10
0.0
 20
0.0
 30
0.0
 70
   128
 71
    11
 72
     9
 73
     8
  0
VERTEX
  5
EEC
  8
0
 10
0.0
 20
0.0
 30
0.0
 70
   128
 71
    11
 72
    10
 73
     9
  0
VERTEX
  5
EED
  8
0
 10
0.0
 20
0.0
 30
0.0
 70
   128
 71
     6
 72
     5
 73
    12
  0
VERTEX
  5
EEE
  8
0
 10
0.0
 20
0.0
 30
0.0
 70
   128
 71
     6
 72
    12
 73
    11
  0
VERTEX
  5
EEF
  8
0
 10
0.0
 20
0.0
 30
0.0
 70
   128
 71
     2
 72
     1
 73
    12
  0
VERTEX
  5
EF0
  8
0
 10
0.0
 20
0.0
 30
0.0
 70
   128
 71
     2
 72
    12
 73
     5
  0
VERTEX
  5
EF1
  8
0
 10
0.0
 20
0.0
 30
0.0
 70
   128
 71
     5
 72
     3
 73
     2
  0
VERTEX
  5
EF2
  8
0
 10
0.0
 20
0.0
 30
0.0
 70
   128
 71
     5
 72
     4
 73
     3
  0
SEQEND
  5
10F7
  8
0
  0
POLYLINE
  5
EF3
  8
0
 66
     1
 10
0.0
 20
0.0
 30
0.0
 70
    64
 71
    12
 72
    10
  0
VERTEX
  5
EF4
  8
0
 10
-373.292436820818
 20
28.1805598862645
 30
39.5722675481553
 70
   192
  0
VERTEX
  5
EF5
  8
0
 10
-360.3051068118129
 20
27.66374739633415
 30
14.19210109826309
 70
   192
  0
VERTEX
  5
EF6
  8
0
 10
-360.3159411791958
 20
27.66418991919862
 30
-14.2385546132348
 70
   192
  0
VERTEX
  5
EF7
  8
0
 10
-373.2924368208177
 20
28.18055988626452
 30
-39.57226754815785
 70
   192
  0
VERTEX
  5
EF8
  8
0
 10
-380.6850571286902
 20
25.94047716773133
 30
-33.30962074947005
 70
   192
  0
VERTEX
  5
EF9
  8
0
 10
-386.4216434603915
 20
19.31273089789378
 30
-28.61344068808547
 70
   192
  0
VERTEX
  5
EFA
  8
0
 10
-389.083974706163
 20
9.93585820083577
 30
-26.6447352026687
 70
   192
  0
VERTEX
  5
EFB
  8
0
 10
-380.366799643603
 20
9.418840189491895
 30
-9.529857973490925
 70
   192
  0
VERTEX
  5
EFC
  8
0
 10
-380.364923310174
 20
9.418731803793118
 30
9.52233810442525
 70
   192
  0
VERTEX
  5
EFD
  8
0
 10
-389.0839747061617
 20
9.935858200835694
 30
26.64473520266684
 70
   192
  0
VERTEX
  5
EFE
  8
0
 10
-386.4216434603896
 20
19.3127308978931
 30
28.61344068808278
 70
   192
  0
VERTEX
  5
EFF
  8
0
 10
-380.6850571286884
 20
25.94047716773061
 30
33.3096207494662
 70
   192
  0
VERTEX
  5
F00
  8
0
 10
0.0
 20
0.0
 30
0.0
 70
   128
 71
     8
 72
     7
 73
     6
  0
VERTEX
  5
F01
  8
0
 10
0.0
 20
0.0
 30
0.0
 70
   128
 71
     6
 72
    11
 73
     9
  0
VERTEX
  5
F02
  8
0
 10
0.0
 20
0.0
 30
0.0
 70
   128
 71
     6
 72
     9
 73
     8
  0
VERTEX
  5
F03
  8
0
 10
0.0
 20
0.0
 30
0.0
 70
   128
 71
    11
 72
    10
 73
     9
  0
VERTEX
  5
F04
  8
0
 10
0.0
 20
0.0
 30
0.0
 70
   128
 71
     6
 72
     5
 73
   -12
  0
VERTEX
  5
F05
  8
0
 10
0.0
 20
0.0
 30
0.0
 70
   128
 71
    -6
 72
    12
 73
    11
  0
VERTEX
  5
F06
  8
0
 10
0.0
 20
0.0
 30
0.0
 70
   128
 71
     2
 72
     1
 73
    12
  0
VERTEX
  5
F07
  8
0
 10
0.0
 20
0.0
 30
0.0
 70
   128
 71
    12
 72
     5
 73
     3
  0
VERTEX
  5
F08
  8
0
 10
0.0
 20
0.0
 30
0.0
 70
   128
 71
    12
 72
     3
 73
     2
  0
VERTEX
  5
F09
  8
0
 10
0.0
 20
0.0
 30
0.0
 70
   128
 71
     5
 72
     4
 73
     3
  0
SEQEND
  5
10F8
  8
0
  0
POLYLINE
  5
F0A
  8
0
 66
     1
 10
0.0
 20
0.0
 30
0.0
 70
    64
 71
    12
 72
    10
  0
VERTEX
  5
F0B
  8
0
 10
-403.52834621271
 20
0.4212820273002755
 30
-36.4398383609726
 70
   192
  0
VERTEX
  5
F0C
  8
0
 10
-399.2428668133231
 20
5.749185925416352
 30
-34.72193437019371
 70
   192
  0
VERTEX
  5
F0D
  8
0
 10
-394.0981526524872
 20
9.087474696659076
 30
-31.44886564894168
 70
   192
  0
VERTEX
  5
F0E
  8
0
 10
-389.0839747061635
 20
9.93585820083581
 30
-26.64473520266873
 70
   192
  0
VERTEX
  5
F0F
  8
0
 10
-386.4216434603915
 20
19.31273089789378
 30
-28.61344068808547
 70
   192
  0
VERTEX
  5
F10
  8
0
 10
-380.6850571286902
 20
25.94047716773133
 30
-33.30962074947005
 70
   192
  0
VERTEX
  5
F11
  8
0
 10
-373.2924368208176
 20
28.1805598862645
 30
-39.5722675481577
 70
   192
  0
VERTEX
  5
F12
  8
0
 10
-390.1081570863146
 20
25.5518276800324
 30
-49.35449033195162
 70
   192
  0
VERTEX
  5
F13
  8
0
 10
-406.1054524938743
 20
15.98704914830128
 30
-55.53664802142015
 70
   192
  0
VERTEX
  5
F14
  8
0
 10
-417.8727080952005
 20
0.4212820273002755
 30
-58.3383635088631
 70
   192
  0
VERTEX
  5
F15
  8
0
 10
-416.7570131742505
 20
0.4212820273002756
 30
-49.11884040710913
 70
   192
  0
VERTEX
  5
F16
  8
0
 10
-411.4451549392069
 20
0.4212820273002754
 30
-41.49798058818256
 70
   192
  0
VERTEX
  5
F17
  8
0
 10
0.0
 20
0.0
 30
0.0
 70
   128
 71
     8
 72
     7
 73
     6
  0
VERTEX
  5
F18
  8
0
 10
0.0
 20
0.0
 30
0.0
 70
   128
 71
     6
 72
     9
 73
     8
  0
VERTEX
  5
F19
  8
0
 10
0.0
 20
0.0
 30
0.0
 70
   128
 71
     6
 72
    11
 73
    10
  0
VERTEX
  5
F1A
  8
0
 10
0.0
 20
0.0
 30
0.0
 70
   128
 71
     6
 72
    10
 73
     9
  0
VERTEX
  5
F1B
  8
0
 10
0.0
 20
0.0
 30
0.0
 70
   128
 71
     6
 72
     5
 73
    12
  0
VERTEX
  5
F1C
  8
0
 10
0.0
 20
0.0
 30
0.0
 70
   128
 71
     6
 72
    12
 73
    11
  0
VERTEX
  5
F1D
  8
0
 10
0.0
 20
0.0
 30
0.0
 70
   128
 71
     2
 72
     1
 73
    12
  0
VERTEX
  5
F1E
  8
0
 10
0.0
 20
0.0
 30
0.0
 70
   128
 71
    12
 72
     3
 73
     2
  0
VERTEX
  5
F1F
  8
0
 10
0.0
 20
0.0
 30
0.0
 70
   128
 71
    12
 72
     5
 73
     4
  0
VERTEX
  5
F20
  8
0
 10
0.0
 20
0.0
 30
0.0
 70
   128
 71
    12
 72
     4
 73
     3
  0
SEQEND
  5
10F9
  8
0
  0
ENDBLK
  5
10C8
  8
0
  0
BLOCK
  8
0
  2
*X2
 70
     1
 10
0.0
 20
0.0
 30
0.0
  3
*X2
  1

  0
POLYLINE
  5
F22
  8
0
 66
     1
 10
0.0
 20
0.0
 30
0.0
 70
    64
 71
     9
 72
     7
  0
VERTEX
  5
F23
  8
0
 10
-12.60785311680172
 20
27.19110523315044
 30
-0.0000000000000015
 70
   192
  0
VERTEX
  5
F24
  8
0
 10
0.0000000000000012
 20
20.7993127390321
 30
-37.0
 70
   192
  0
VERTEX
  5
F25
  8
0
 10
12.60785311680172
 20
27.19110523315044
 30
0.0000000000000015
 70
   192
  0
VERTEX
  5
F26
  8
0
 10
-36.99999999999997
 20
20.799312739032
 30
-0.0000000000000045
 70
   192
  0
VERTEX
  5
F27
  8
0
 10
-32.04293994002423
 20
20.7993127390321
 30
-18.50000000000001
 70
   192
  0
VERTEX
  5
F28
  8
0
 10
18.50000000000001
 20
20.7993127390321
 30
-32.04293994002423
 70
   192
  0
VERTEX
  5
F29
  8
0
 10
32.04293994002423
 20
20.7993127390321
 30
-18.49999999999999
 70
   192
  0
VERTEX
  5
F2A
  8
0
 10
37.0
 20
20.7993127390321
 30
0.0000000000000068
 70
   192
  0
VERTEX
  5
F2B
  8
0
 10
-18.5
 20
20.7993127390321
 30
-32.04293994002423
 70
   192
  0
VERTEX
  5
F2C
  8
0
 10
0.0
 20
0.0
 30
0.0
 70
   128
 71
     1
 72
     2
 73
     3
  0
VERTEX
  5
F2D
  8
0
 10
0.0
 20
0.0
 30
0.0
 70
   128
 71
     4
 72
     5
 73
     1
  0
VERTEX
  5
F2E
  8
0
 10
0.0
 20
0.0
 30
0.0
 70
   128
 71
     6
 72
     7
 73
    -8
  0
VERTEX
  5
F2F
  8
0
 10
0.0
 20
0.0
 30
0.0
 70
   128
 71
     2
 72
    -6
 73
     8
  0
VERTEX
  5
F30
  8
0
 10
0.0
 20
0.0
 30
0.0
 70
   128
 71
     3
 72
     2
 73
     8
  0
VERTEX
  5
F31
  8
0
 10
0.0
 20
0.0
 30
0.0
 70
   128
 71
     9
 72
     2
 73
     1
  0
VERTEX
  5
F32
  8
0
 10
0.0
 20
0.0
 30
0.0
 70
   128
 71
     5
 72
     9
 73
     1
  0
SEQEND
  5
10FC
  8
0
  0
POLYLINE
  5
F33
  8
0
 66
     1
 10
0.0
 20
0.0
 30
0.0
 70
    64
 71
    14
 72
    12
  0
VERTEX
  5
F34
  8
0
 10
-0.000000000000001
 20
19.0
 30
-37.0
 70
   192
  0
VERTEX
  5
F35
  8
0
 10
0.0000000000000058
 20
20.7993127390321
 30
-37.0
 70
   192
  0
VERTEX
  5
F36
  8
0
 10
-18.5
 20
20.7993127390321
 30
-32.04293994002423
 70
   192
  0
VERTEX
  5
F37
  8
0
 10
-18.5
 20
19.0
 30
-32.04293994002423
 70
   192
  0
VERTEX
  5
F38
  8
0
 10
-37.0
 20
20.7993127390321
 30
-0.0000000000000103
 70
   192
  0
VERTEX
  5
F39
  8
0
 10
-37.0
 20
19.0
 30
-0.0000000000000082
 70
   192
  0
VERTEX
  5
F3A
  8
0
 10
-32.04293994002423
 20
19.0
 30
-18.5
 70
   192
  0
VERTEX
  5
F3B
  8
0
 10
-32.04293994002423
 20
20.7993127390321
 30
-18.50000000000001
 70
   192
  0
VERTEX
  5
F3C
  8
0
 10
-32.04293994002423
 20
20.7993127390321
 30
18.5
 70
   192
  0
VERTEX
  5
F3D
  8
0
 10
-32.04293994002423
 20
19.0
 30
18.49999999999999
 70
   192
  0
VERTEX
  5
F3E
  8
0
 10
-0.000000000000009
 20
20.7993127390321
 30
37.0
 70
   192
  0
VERTEX
  5
F3F
  8
0
 10
-0.0000000000000131
 20
19.0
 30
37.0
 70
   192
  0
VERTEX
  5
F40
  8
0
 10
-18.50000000000001
 20
19.0
 30
32.04293994002423
 70
   192
  0
VERTEX
  5
F41
  8
0
 10
-18.50000000000001
 20
20.7993127390321
 30
32.04293994002423
 70
   192
  0
VERTEX
  5
F42
  8
0
 10
0.0
 20
0.0
 30
0.0
 70
   128
 71
     1
 72
     2
 73
    -3
  0
VERTEX
  5
F43
  8
0
 10
0.0
 20
0.0
 30
0.0
 70
   128
 71
     4
 72
    -1
 73
     3
  0
VERTEX
  5
F44
  8
0
 10
0.0
 20
0.0
 30
0.0
 70
   128
 71
     5
 72
     6
 73
    -7
  0
VERTEX
  5
F45
  8
0
 10
0.0
 20
0.0
 30
0.0
 70
   128
 71
     8
 72
    -5
 73
     7
  0
VERTEX
  5
F46
  8
0
 10
0.0
 20
0.0
 30
0.0
 70
   128
 71
     6
 72
     5
 73
    -9
  0
VERTEX
  5
F47
  8
0
 10
0.0
 20
0.0
 30
0.0
 70
   128
 71
    10
 72
    -6
 73
     9
  0
VERTEX
  5
F48
  8
0
 10
0.0
 20
0.0
 30
0.0
 70
   128
 71
    11
 72
    12
 73
   -13
  0
VERTEX
  5
F49
  8
0
 10
0.0
 20
0.0
 30
0.0
 70
   128
 71
    14
 72
   -11
 73
    13
  0
VERTEX
  5
F4A
  8
0
 10
0.0
 20
0.0
 30
0.0
 70
   128
 71
     7
 72
     4
 73
    -3
  0
VERTEX
  5
F4B
  8
0
 10
0.0
 20
0.0
 30
0.0
 70
   128
 71
     8
 72
    -7
 73
     3
  0
VERTEX
  5
F4C
  8
0
 10
0.0
 20
0.0
 30
0.0
 70
   128
 71
    13
 72
    10
 73
    -9
  0
VERTEX
  5
F4D
  8
0
 10
0.0
 20
0.0
 30
0.0
 70
   128
 71
    14
 72
   -13
 73
     9
  0
SEQEND
  5
10FD
  8
0
  0
POLYLINE
  5
F4E
  8
0
 66
     1
 10
0.0
 20
0.0
 30
0.0
 70
    64
 71
    39
 72
    58
  0
VERTEX
  5
F4F
  8
0
 10
19.8838714656379
 20
25.6509722467359
 30
34.43987562965383
 70
   192
  0
VERTEX
  5
F50
  8
0
 10
28.03630842807172
 20
26.26251195403409
 30
28.03630842807172
 70
   192
  0
VERTEX
  5
F51
  8
0
 10
15.17314078376838
 20
26.26251195403409
 30
36.63120226396993
 70
   192
  0
VERTEX
  5
F52
  8
0
 10
36.63120226396993
 20
26.26251195403409
 30
15.17314078376837
 70
   192
  0
VERTEX
  5
F53
  8
0
 10
39.76774293127576
 20
25.6509722467359
 30
-0.0000000000000155
 70
   192
  0
VERTEX
  5
F54
  8
0
 10
39.64932761785414
 20
26.26251195403409
 30
-0.0000000000000024
 70
   192
  0
VERTEX
  5
F55
  8
0
 10
34.43987562965384
 20
25.6509722467359
 30
-19.88387146563789
 70
   192
  0
VERTEX
  5
F56
  8
0
 10
28.03630842807172
 20
26.26251195403409
 30
-28.03630842807172
 70
   192
  0
VERTEX
  5
F57
  8
0
 10
36.63120226396993
 20
26.26251195403409
 30
-15.17314078376837
 70
   192
  0
VERTEX
  5
F58
  8
0
 10
27.82360204003703
 20
26.80796129635064
 30
27.82360204003703
 70
   192
  0
VERTEX
  5
F59
  8
0
 10
15.05802491608782
 20
26.80796129635064
 30
36.35328797497118
 70
   192
  0
VERTEX
  5
F5A
  8
0
 10
39.34851535909208
 20
26.80796129635064
 30
-0.0000000000000024
 70
   192
  0
VERTEX
  5
F5B
  8
0
 10
36.35328797497118
 20
26.80796129635064
 30
15.05802491608781
 70
   192
  0
VERTEX
  5
F5C
  8
0
 10
27.82360204003703
 20
26.80796129635064
 30
-27.82360204003703
 70
   192
  0
VERTEX
  5
F5D
  8
0
 10
36.35328797497118
 20
26.80796129635064
 30
-15.05802491608782
 70
   192
  0
VERTEX
  5
F5E
  8
0
 10
0.0000000000000007
 20
26.45446950064656
 30
-39.56822603386011
 70
   192
  0
VERTEX
  5
F5F
  8
0
 10
15.05802491608781
 20
26.80796129635064
 30
-36.35328797497118
 70
   192
  0
VERTEX
  5
F60
  8
0
 10
15.17314078376837
 20
26.26251195403409
 30
-36.63120226396993
 70
   192
  0
VERTEX
  5
F61
  8
0
 10
27.50255421425647
 20
27.23441127838633
 30
27.50255421425647
 70
   192
  0
VERTEX
  5
F62
  8
0
 10
14.88427508481496
 20
27.23441127838633
 30
35.93381877585222
 70
   192
  0
VERTEX
  5
F63
  8
0
 10
0.0000000000000055
 20
27.10832420496561
 30
39.06039844989467
 70
   192
  0
VERTEX
  5
F64
  8
0
 10
38.89448516970283
 20
27.23441127838633
 30
-0.0000000000000024
 70
   192
  0
VERTEX
  5
F65
  8
0
 10
35.93381877585222
 20
27.23441127838633
 30
14.88427508481496
 70
   192
  0
VERTEX
  5
F66
  8
0
 10
27.50255421425647
 20
27.23441127838633
 30
-27.50255421425647
 70
   192
  0
VERTEX
  5
F67
  8
0
 10
35.93381877585222
 20
27.23441127838633
 30
-14.88427508481496
 70
   192
  0
VERTEX
  5
F68
  8
0
 10
14.88427508481496
 20
27.23441127838633
 30
-35.93381877585222
 70
   192
  0
VERTEX
  5
F69
  8
0
 10
33.19586078342709
 20
27.5004959320401
 30
19.16563915929299
 70
   192
  0
VERTEX
  5
F6A
  8
0
 10
38.33127831858595
 20
27.5004959320401
 30
0.000000000000007
 70
   192
  0
VERTEX
  5
F6B
  8
0
 10
19.16563915929299
 20
27.5004959320401
 30
-33.19586078342709
 70
   192
  0
VERTEX
  5
F6C
  8
0
 10
0.0000000000000056
 20
26.45446950064656
 30
39.56822603386011
 70
   192
  0
VERTEX
  5
F6D
  8
0
 10
0.0000000000000007
 20
27.10832420496561
 30
-39.06039844989467
 70
   192
  0
VERTEX
  5
F6E
  8
0
 10
-0.000000000000004
 20
27.5004959320401
 30
38.33127831858595
 70
   192
  0
VERTEX
  5
F6F
  8
0
 10
0.0000000000000007
 20
27.50049593204033
 30
-38.33127831858602
 70
   192
  0
VERTEX
  5
F70
  8
0
 10
34.43987562965386
 20
25.6509722467359
 30
19.88387146563786
 70
   192
  0
VERTEX
  5
F71
  8
0
 10
0.0000000000000056
 20
25.6509722467359
 30
39.76774293127573
 70
   192
  0
VERTEX
  5
F72
  8
0
 10
19.88387146563787
 20
25.6509722467359
 30
-34.43987562965385
 70
   192
  0
VERTEX
  5
F73
  8
0
 10
-0.0000000000000049
 20
25.6509722467359
 30
-39.76774293127576
 70
   192
  0
VERTEX
  5
F74
  8
0
 10
19.16563915929297
 20
27.5004959320401
 30
33.1958607834271
 70
   192
  0
VERTEX
  5
F75
  8
0
 10
33.1958607834271
 20
27.5004959320401
 30
-19.16563915929297
 70
   192
  0
VERTEX
  5
F76
  8
0
 10
0.0
 20
0.0
 30
0.0
 70
   128
 71
     1
 72
     2
 73
     3
  0
VERTEX
  5
F77
  8
0
 10
0.0
 20
0.0
 30
0.0
 70
   128
 71
     4
 72
     5
 73
     6
  0
VERTEX
  5
F78
  8
0
 10
0.0
 20
0.0
 30
0.0
 70
   128
 71
     7
 72
     8
 73
     9
  0
VERTEX
  5
F79
  8
0
 10
0.0
 20
0.0
 30
0.0
 70
   128
 71
    10
 72
    11
 73
    -3
  0
VERTEX
  5
F7A
  8
0
 10
0.0
 20
0.0
 30
0.0
 70
   128
 71
   -10
 72
     3
 73
     2
  0
VERTEX
  5
F7B
  8
0
 10
0.0
 20
0.0
 30
0.0
 70
   128
 71
    12
 72
    13
 73
    -4
  0
VERTEX
  5
F7C
  8
0
 10
0.0
 20
0.0
 30
0.0
 70
   128
 71
   -12
 72
     4
 73
     6
  0
VERTEX
  5
F7D
  8
0
 10
0.0
 20
0.0
 30
0.0
 70
   128
 71
    13
 72
    10
 73
    -2
  0
VERTEX
  5
F7E
  8
0
 10
0.0
 20
0.0
 30
0.0
 70
   128
 71
   -13
 72
     2
 73
     4
  0
VERTEX
  5
F7F
  8
0
 10
0.0
 20
0.0
 30
0.0
 70
   128
 71
    14
 72
    15
 73
    -9
  0
VERTEX
  5
F80
  8
0
 10
0.0
 20
0.0
 30
0.0
 70
   128
 71
   -14
 72
     9
 73
     8
  0
VERTEX
  5
F81
  8
0
 10
0.0
 20
0.0
 30
0.0
 70
   128
 71
    15
 72
    12
 73
    -6
  0
VERTEX
  5
F82
  8
0
 10
0.0
 20
0.0
 30
0.0
 70
   128
 71
   -15
 72
     6
 73
     9
  0
VERTEX
  5
F83
  8
0
 10
0.0
 20
0.0
 30
0.0
 70
   128
 71
    16
 72
    17
 73
    18
  0
VERTEX
  5
F84
  8
0
 10
0.0
 20
0.0
 30
0.0
 70
   128
 71
    17
 72
    14
 73
    -8
  0
VERTEX
  5
F85
  8
0
 10
0.0
 20
0.0
 30
0.0
 70
   128
 71
   -17
 72
     8
 73
    18
  0
VERTEX
  5
F86
  8
0
 10
0.0
 20
0.0
 30
0.0
 70
   128
 71
    19
 72
    20
 73
   -11
  0
VERTEX
  5
F87
  8
0
 10
0.0
 20
0.0
 30
0.0
 70
   128
 71
   -19
 72
    11
 73
    10
  0
VERTEX
  5
F88
  8
0
 10
0.0
 20
0.0
 30
0.0
 70
   128
 71
    21
 72
    11
 73
    20
  0
VERTEX
  5
F89
  8
0
 10
0.0
 20
0.0
 30
0.0
 70
   128
 71
    22
 72
    23
 73
   -13
  0
VERTEX
  5
F8A
  8
0
 10
0.0
 20
0.0
 30
0.0
 70
   128
 71
   -22
 72
    13
 73
    12
  0
VERTEX
  5
F8B
  8
0
 10
0.0
 20
0.0
 30
0.0
 70
   128
 71
    23
 72
    19
 73
   -10
  0
VERTEX
  5
F8C
  8
0
 10
0.0
 20
0.0
 30
0.0
 70
   128
 71
   -23
 72
    10
 73
    13
  0
VERTEX
  5
F8D
  8
0
 10
0.0
 20
0.0
 30
0.0
 70
   128
 71
    24
 72
    25
 73
   -15
  0
VERTEX
  5
F8E
  8
0
 10
0.0
 20
0.0
 30
0.0
 70
   128
 71
   -24
 72
    15
 73
    14
  0
VERTEX
  5
F8F
  8
0
 10
0.0
 20
0.0
 30
0.0
 70
   128
 71
    25
 72
    22
 73
   -12
  0
VERTEX
  5
F90
  8
0
 10
0.0
 20
0.0
 30
0.0
 70
   128
 71
   -25
 72
    12
 73
    15
  0
VERTEX
  5
F91
  8
0
 10
0.0
 20
0.0
 30
0.0
 70
   128
 71
    26
 72
    24
 73
   -14
  0
VERTEX
  5
F92
  8
0
 10
0.0
 20
0.0
 30
0.0
 70
   128
 71
   -26
 72
    14
 73
    17
  0
VERTEX
  5
F93
  8
0
 10
0.0
 20
0.0
 30
0.0
 70
   128
 71
    27
 72
    19
 73
    23
  0
VERTEX
  5
F94
  8
0
 10
0.0
 20
0.0
 30
0.0
 70
   128
 71
    25
 72
    28
 73
    22
  0
VERTEX
  5
F95
  8
0
 10
0.0
 20
0.0
 30
0.0
 70
   128
 71
    29
 72
    24
 73
    26
  0
VERTEX
  5
F96
  8
0
 10
0.0
 20
0.0
 30
0.0
 70
   128
 71
     3
 72
    11
 73
    21
  0
VERTEX
  5
F97
  8
0
 10
0.0
 20
0.0
 30
0.0
 70
   128
 71
     3
 72
    21
 73
    30
  0
VERTEX
  5
F98
  8
0
 10
0.0
 20
0.0
 30
0.0
 70
   128
 71
    31
 72
    26
 73
    17
  0
VERTEX
  5
F99
  8
0
 10
0.0
 20
0.0
 30
0.0
 70
   128
 71
    31
 72
    17
 73
    16
  0
VERTEX
  5
F9A
  8
0
 10
0.0
 20
0.0
 30
0.0
 70
   128
 71
    20
 72
    32
 73
    21
  0
VERTEX
  5
F9B
  8
0
 10
0.0
 20
0.0
 30
0.0
 70
   128
 71
    33
 72
    26
 73
    31
  0
VERTEX
  5
F9C
  8
0
 10
0.0
 20
0.0
 30
0.0
 70
   128
 71
    34
 72
     4
 73
     2
  0
VERTEX
  5
F9D
  8
0
 10
0.0
 20
0.0
 30
0.0
 70
   128
 71
    34
 72
     2
 73
     1
  0
VERTEX
  5
F9E
  8
0
 10
0.0
 20
0.0
 30
0.0
 70
   128
 71
     1
 72
     3
 73
    30
  0
VERTEX
  5
F9F
  8
0
 10
0.0
 20
0.0
 30
0.0
 70
   128
 71
     1
 72
    30
 73
    35
  0
VERTEX
  5
FA0
  8
0
 10
0.0
 20
0.0
 30
0.0
 70
   128
 71
     5
 72
     4
 73
    34
  0
VERTEX
  5
FA1
  8
0
 10
0.0
 20
0.0
 30
0.0
 70
   128
 71
    36
 72
    18
 73
     8
  0
VERTEX
  5
FA2
  8
0
 10
0.0
 20
0.0
 30
0.0
 70
   128
 71
    36
 72
     8
 73
     7
  0
VERTEX
  5
FA3
  8
0
 10
0.0
 20
0.0
 30
0.0
 70
   128
 71
     7
 72
     9
 73
     6
  0
VERTEX
  5
FA4
  8
0
 10
0.0
 20
0.0
 30
0.0
 70
   128
 71
     7
 72
     6
 73
     5
  0
VERTEX
  5
FA5
  8
0
 10
0.0
 20
0.0
 30
0.0
 70
   128
 71
    37
 72
    16
 73
    18
  0
VERTEX
  5
FA6
  8
0
 10
0.0
 20
0.0
 30
0.0
 70
   128
 71
    37
 72
    18
 73
    36
  0
VERTEX
  5
FA7
  8
0
 10
0.0
 20
0.0
 30
0.0
 70
   128
 71
    27
 72
    38
 73
    20
  0
VERTEX
  5
FA8
  8
0
 10
0.0
 20
0.0
 30
0.0
 70
   128
 71
    27
 72
    20
 73
    19
  0
VERTEX
  5
FA9
  8
0
 10
0.0
 20
0.0
 30
0.0
 70
   128
 71
    38
 72
    32
 73
    20
  0
VERTEX
  5
FAA
  8
0
 10
0.0
 20
0.0
 30
0.0
 70
   128
 71
    22
 72
    28
 73
    27
  0
VERTEX
  5
FAB
  8
0
 10
0.0
 20
0.0
 30
0.0
 70
   128
 71
    22
 72
    27
 73
    23
  0
VERTEX
  5
FAC
  8
0
 10
0.0
 20
0.0
 30
0.0
 70
   128
 71
    29
 72
    39
 73
    25
  0
VERTEX
  5
FAD
  8
0
 10
0.0
 20
0.0
 30
0.0
 70
   128
 71
    29
 72
    25
 73
    24
  0
VERTEX
  5
FAE
  8
0
 10
0.0
 20
0.0
 30
0.0
 70
   128
 71
    39
 72
    28
 73
    25
  0
VERTEX
  5
FAF
  8
0
 10
0.0
 20
0.0
 30
0.0
 70
   128
 71
    33
 72
    29
 73
    26
  0
SEQEND
  5
10FE
  8
0
  0
POLYLINE
  5
FB0
  8
0
 66
     1
 10
0.0
 20
0.0
 30
0.0
 70
    64
 71
     9
 72
     7
  0
VERTEX
  5
FB1
  8
0
 10
-19.16563915929297
 20
27.5004959320401
 30
-33.1958607834271
 70
   192
  0
VERTEX
  5
FB2
  8
0
 10
-33.19586078342709
 20
27.5004959320401
 30
-19.16563915929298
 70
   192
  0
VERTEX
  5
FB3
  8
0
 10
-38.33127831858595
 20
27.5004959320401
 30
-0.0000000000000106
 70
   192
  0
VERTEX
  5
FB4
  8
0
 10
12.93224440224519
 20
32.38525357538148
 30
0.0
 70
   192
  0
VERTEX
  5
FB5
  8
0
 10
0.0000000000000156
 20
27.5004959320401
 30
-38.33127831858595
 70
   192
  0
VERTEX
  5
FB6
  8
0
 10
-12.93224440224517
 20
32.38525357538148
 30
0.0
 70
   192
  0
VERTEX
  5
FB7
  8
0
 10
38.33127831858589
 20
27.50049593204014
 30
0.0
 70
   192
  0
VERTEX
  5
FB8
  8
0
 10
33.1958607834271
 20
27.5004959320401
 30
-19.16563915929297
 70
   192
  0
VERTEX
  5
FB9
  8
0
 10
19.16563915929299
 20
27.5004959320401
 30
-33.19586078342709
 70
   192
  0
VERTEX
  5
FBA
  8
0
 10
0.0
 20
0.0
 30
0.0
 70
   128
 71
     1
 72
     2
 73
     3
  0
VERTEX
  5
FBB
  8
0
 10
0.0
 20
0.0
 30
0.0
 70
   128
 71
     4
 72
     5
 73
     6
  0
VERTEX
  5
FBC
  8
0
 10
0.0
 20
0.0
 30
0.0
 70
   128
 71
     6
 72
     1
 73
     3
  0
VERTEX
  5
FBD
  8
0
 10
0.0
 20
0.0
 30
0.0
 70
   128
 71
     7
 72
     8
 73
    -9
  0
VERTEX
  5
FBE
  8
0
 10
0.0
 20
0.0
 30
0.0
 70
   128
 71
    -7
 72
     9
 73
     5
  0
VERTEX
  5
FBF
  8
0
 10
0.0
 20
0.0
 30
0.0
 70
   128
 71
     7
 72
     5
 73
     4
  0
VERTEX
  5
FC0
  8
0
 10
0.0
 20
0.0
 30
0.0
 70
   128
 71
     6
 72
     5
 73
     1
  0
SEQEND
  5
10FF
  8
0
  0
POLYLINE
  5
FC1
  8
0
 66
     1
 10
0.0
 20
0.0
 30
0.0
 70
    64
 71
    14
 72
    12
  0
VERTEX
  5
FC2
  8
0
 10
-20.0
 20
19.0
 30
34.64101615137755
 70
   192
  0
VERTEX
  5
FC3
  8
0
 10
-19.88387146563787
 20
25.6509722467359
 30
34.43987562965384
 70
   192
  0
VERTEX
  5
FC4
  8
0
 10
-34.43987562965384
 20
25.6509722467359
 30
19.88387146563788
 70
   192
  0
VERTEX
  5
FC5
  8
0
 10
-34.64101615137754
 20
19.0
 30
20.00000000000001
 70
   192
  0
VERTEX
  5
FC6
  8
0
 10
-34.64101615137756
 20
19.0
 30
-19.99999999999999
 70
   192
  0
VERTEX
  5
FC7
  8
0
 10
-34.43987562965385
 20
25.6509722467359
 30
-19.88387146563787
 70
   192
  0
VERTEX
  5
FC8
  8
0
 10
-19.8838714656379
 20
25.6509722467359
 30
-34.43987562965383
 70
   192
  0
VERTEX
  5
FC9
  8
0
 10
-20.00000000000002
 20
19.0
 30
-34.64101615137754
 70
   192
  0
VERTEX
  5
FCA
  8
0
 10
-0.0000000000000221
 20
25.6509722467359
 30
-39.76774293127576
 70
   192
  0
VERTEX
  5
FCB
  8
0
 10
-0.0000000000000049
 20
19.0
 30
-40.0
 70
   192
  0
VERTEX
  5
FCC
  8
0
 10
-40.0
 20
19.0
 30
0.0000000000000111
 70
   192
  0
VERTEX
  5
FCD
  8
0
 10
-39.76774293127576
 20
25.6509722467359
 30
0.000000000000011
 70
   192
  0
VERTEX
  5
FCE
  8
0
 10
0.0000000000000024
 20
19.0
 30
40.0
 70
   192
  0
VERTEX
  5
FCF
  8
0
 10
0.0
 20
25.6509722467359
 30
39.76774293127573
 70
   192
  0
VERTEX
  5
FD0
  8
0
 10
0.0
 20
0.0
 30
0.0
 70
   128
 71
     1
 72
     2
 73
    -3
  0
VERTEX
  5
FD1
  8
0
 10
0.0
 20
0.0
 30
0.0
 70
   128
 71
    -1
 72
     3
 73
     4
  0
VERTEX
  5
FD2
  8
0
 10
0.0
 20
0.0
 30
0.0
 70
   128
 71
     5
 72
     6
 73
    -7
  0
VERTEX
  5
FD3
  8
0
 10
0.0
 20
0.0
 30
0.0
 70
   128
 71
    -5
 72
     7
 73
     8
  0
VERTEX
  5
FD4
  8
0
 10
0.0
 20
0.0
 30
0.0
 70
   128
 71
     8
 72
     7
 73
    -9
  0
VERTEX
  5
FD5
  8
0
 10
0.0
 20
0.0
 30
0.0
 70
   128
 71
    -8
 72
     9
 73
    10
  0
VERTEX
  5
FD6
  8
0
 10
0.0
 20
0.0
 30
0.0
 70
   128
 71
    11
 72
    12
 73
    -6
  0
VERTEX
  5
FD7
  8
0
 10
0.0
 20
0.0
 30
0.0
 70
   128
 71
   -11
 72
     6
 73
     5
  0
VERTEX
  5
FD8
  8
0
 10
0.0
 20
0.0
 30
0.0
 70
   128
 71
     4
 72
     3
 73
   -12
  0
VERTEX
  5
FD9
  8
0
 10
0.0
 20
0.0
 30
0.0
 70
   128
 71
    -4
 72
    12
 73
    11
  0
VERTEX
  5
FDA
  8
0
 10
0.0
 20
0.0
 30
0.0
 70
   128
 71
    13
 72
    14
 73
    -2
  0
VERTEX
  5
FDB
  8
0
 10
0.0
 20
0.0
 30
0.0
 70
   128
 71
   -13
 72
     2
 73
     1
  0
SEQEND
  5
1100
  8
0
  0
POLYLINE
  5
FDC
  8
0
 66
     1
 10
0.0
 20
0.0
 30
0.0
 70
    64
 71
    24
 72
    24
  0
VERTEX
  5
FDD
  8
0
 10
0.0000000000000155
 20
19.0
 30
40.0
 70
   192
  0
VERTEX
  5
FDE
  8
0
 10
20.00000000000001
 20
19.0
 30
34.64101615137754
 70
   192
  0
VERTEX
  5
FDF
  8
0
 10
34.64101615137756
 20
19.0
 30
19.99999999999999
 70
   192
  0
VERTEX
  5
FE0
  8
0
 10
40.0
 20
19.0
 30
-0.0000000000000089
 70
   192
  0
VERTEX
  5
FE1
  8
0
 10
34.64101615137754
 20
19.0
 30
-20.0
 70
   192
  0
VERTEX
  5
FE2
  8
0
 10
20.0
 20
19.0
 30
-34.64101615137755
 70
   192
  0
VERTEX
  5
FE3
  8
0
 10
-0.0000000000000222
 20
19.0
 30
-40.0
 70
   192
  0
VERTEX
  5
FE4
  8
0
 10
-20.00000000000002
 20
19.0
 30
-34.64101615137754
 70
   192
  0
VERTEX
  5
FE5
  8
0
 10
-34.64101615137756
 20
19.0
 30
-19.99999999999999
 70
   192
  0
VERTEX
  5
FE6
  8
0
 10
-40.0
 20
19.0
 30
0.0000000000000111
 70
   192
  0
VERTEX
  5
FE7
  8
0
 10
-34.64101615137754
 20
19.0
 30
20.00000000000001
 70
   192
  0
VERTEX
  5
FE8
  8
0
 10
-20.0
 20
19.0
 30
34.64101615137755
 70
   192
  0
VERTEX
  5
FE9
  8
0
 10
-0.0000000000000131
 20
19.0
 30
37.0
 70
   192
  0
VERTEX
  5
FEA
  8
0
 10
-18.50000000000001
 20
19.0
 30
32.04293994002423
 70
   192
  0
VERTEX
  5
FEB
  8
0
 10
-32.04293994002423
 20
19.0
 30
18.49999999999999
 70
   192
  0
VERTEX
  5
FEC
  8
0
 10
-37.0
 20
19.0
 30
-0.0000000000000082
 70
   192
  0
VERTEX
  5
FED
  8
0
 10
-32.04293994002423
 20
19.0
 30
-18.5
 70
   192
  0
VERTEX
  5
FEE
  8
0
 10
-18.5
 20
19.0
 30
-32.04293994002423
 70
   192
  0
VERTEX
  5
FEF
  8
0
 10
0.0000000000000218
 20
19.0
 30
-37.0
 70
   192
  0
VERTEX
  5
FF0
  8
0
 10
18.50000000000002
 20
19.0
 30
-32.04293994002423
 70
   192
  0
VERTEX
  5
FF1
  8
0
 10
32.04293994002423
 20
19.0
 30
-18.49999999999999
 70
   192
  0
VERTEX
  5
FF2
  8
0
 10
37.0
 20
19.0
 30
0.0000000000000103
 70
   192
  0
VERTEX
  5
FF3
  8
0
 10
32.04293994002423
 20
19.0
 30
18.50000000000001
 70
   192
  0
VERTEX
  5
FF4
  8
0
 10
18.5
 20
19.0
 30
32.04293994002423
 70
   192
  0
VERTEX
  5
FF5
  8
0
 10
0.0
 20
0.0
 30
0.0
 70
   128
 71
    14
 72
   -13
 73
    -1
  0
VERTEX
  5
FF6
  8
0
 10
0.0
 20
0.0
 30
0.0
 70
   128
 71
   -14
 72
     1
 73
   -12
  0
VERTEX
  5
FF7
  8
0
 10
0.0
 20
0.0
 30
0.0
 70
   128
 71
    12
 72
   -11
 73
   -15
  0
VERTEX
  5
FF8
  8
0
 10
0.0
 20
0.0
 30
0.0
 70
   128
 71
   -12
 72
    15
 73
   -14
  0
VERTEX
  5
FF9
  8
0
 10
0.0
 20
0.0
 30
0.0
 70
   128
 71
    11
 72
   -10
 73
   -16
  0
VERTEX
  5
FFA
  8
0
 10
0.0
 20
0.0
 30
0.0
 70
   128
 71
   -11
 72
    16
 73
   -15
  0
VERTEX
  5
FFB
  8
0
 10
0.0
 20
0.0
 30
0.0
 70
   128
 71
    10
 72
    -9
 73
   -17
  0
VERTEX
  5
FFC
  8
0
 10
0.0
 20
0.0
 30
0.0
 70
   128
 71
   -10
 72
    17
 73
   -16
  0
VERTEX
  5
FFD
  8
0
 10
0.0
 20
0.0
 30
0.0
 70
   128
 71
     9
 72
    -8
 73
   -18
  0
VERTEX
  5
FFE
  8
0
 10
0.0
 20
0.0
 30
0.0
 70
   128
 71
    -9
 72
    18
 73
   -17
  0
VERTEX
  5
FFF
  8
0
 10
0.0
 20
0.0
 30
0.0
 70
   128
 71
     8
 72
    -7
 73
   -19
  0
VERTEX
  5
1000
  8
0
 10
0.0
 20
0.0
 30
0.0
 70
   128
 71
    -8
 72
    19
 73
   -18
  0
VERTEX
  5
1001
  8
0
 10
0.0
 20
0.0
 30
0.0
 70
   128
 71
     7
 72
    -6
 73
   -20
  0
VERTEX
  5
1002
  8
0
 10
0.0
 20
0.0
 30
0.0
 70
   128
 71
    -7
 72
    20
 73
   -19
  0
VERTEX
  5
1003
  8
0
 10
0.0
 20
0.0
 30
0.0
 70
   128
 71
     6
 72
    -5
 73
   -21
  0
VERTEX
  5
1004
  8
0
 10
0.0
 20
0.0
 30
0.0
 70
   128
 71
    -6
 72
    21
 73
   -20
  0
VERTEX
  5
1005
  8
0
 10
0.0
 20
0.0
 30
0.0
 70
   128
 71
     5
 72
    -4
 73
   -22
  0
VERTEX
  5
1006
  8
0
 10
0.0
 20
0.0
 30
0.0
 70
   128
 71
    -5
 72
    22
 73
   -21
  0
VERTEX
  5
1007
  8
0
 10
0.0
 20
0.0
 30
0.0
 70
   128
 71
     4
 72
    -3
 73
   -23
  0
VERTEX
  5
1008
  8
0
 10
0.0
 20
0.0
 30
0.0
 70
   128
 71
    -4
 72
    23
 73
   -22
  0
VERTEX
  5
1009
  8
0
 10
0.0
 20
0.0
 30
0.0
 70
   128
 71
     3
 72
    -2
 73
   -24
  0
VERTEX
  5
100A
  8
0
 10
0.0
 20
0.0
 30
0.0
 70
   128
 71
    -3
 72
    24
 73
   -23
  0
VERTEX
  5
100B
  8
0
 10
0.0
 20
0.0
 30
0.0
 70
   128
 71
     2
 72
    -1
 73
   -13
  0
VERTEX
  5
100C
  8
0
 10
0.0
 20
0.0
 30
0.0
 70
   128
 71
    -2
 72
    13
 73
   -24
  0
SEQEND
  5
1101
  8
0
  0
POLYLINE
  5
100D
  8
0
 66
     1
 10
0.0
 20
0.0
 30
0.0
 70
    64
 71
    14
 72
    12
  0
VERTEX
  5
100E
  8
0
 10
20.0
 20
19.0
 30
-34.64101615137755
 70
   192
  0
VERTEX
  5
100F
  8
0
 10
19.88387146563787
 20
25.6509722467359
 30
-34.43987562965385
 70
   192
  0
VERTEX
  5
1010
  8
0
 10
34.43987562965384
 20
25.6509722467359
 30
-19.88387146563789
 70
   192
  0
VERTEX
  5
1011
  8
0
 10
34.64101615137754
 20
19.0
 30
-20.0
 70
   192
  0
VERTEX
  5
1012
  8
0
 10
34.64101615137756
 20
19.0
 30
19.99999999999999
 70
   192
  0
VERTEX
  5
1013
  8
0
 10
34.43987562965386
 20
25.6509722467359
 30
19.88387146563786
 70
   192
  0
VERTEX
  5
1014
  8
0
 10
19.8838714656379
 20
25.6509722467359
 30
34.43987562965383
 70
   192
  0
VERTEX
  5
1015
  8
0
 10
20.00000000000001
 20
19.0
 30
34.64101615137754
 70
   192
  0
VERTEX
  5
1016
  8
0
 10
0.0000000000000287
 20
25.6509722467359
 30
39.76774293127576
 70
   192
  0
VERTEX
  5
1017
  8
0
 10
0.0
 20
19.0
 30
40.0
 70
   192
  0
VERTEX
  5
1018
  8
0
 10
40.0
 20
19.0
 30
-0.0000000000000089
 70
   192
  0
VERTEX
  5
1019
  8
0
 10
39.76774293127576
 20
25.6509722467359
 30
-0.0000000000000155
 70
   192
  0
VERTEX
  5
101A
  8
0
 10
0.0000000000000024
 20
19.0
 30
-40.0
 70
   192
  0
VERTEX
  5
101B
  8
0
 10
-0.0000000000000049
 20
25.6509722467359
 30
-39.76774293127573
 70
   192
  0
VERTEX
  5
101C
  8
0
 10
0.0
 20
0.0
 30
0.0
 70
   128
 71
     1
 72
     2
 73
    -3
  0
VERTEX
  5
101D
  8
0
 10
0.0
 20
0.0
 30
0.0
 70
   128
 71
    -1
 72
     3
 73
     4
  0
VERTEX
  5
101E
  8
0
 10
0.0
 20
0.0
 30
0.0
 70
   128
 71
     5
 72
     6
 73
    -7
  0
VERTEX
  5
101F
  8
0
 10
0.0
 20
0.0
 30
0.0
 70
   128
 71
    -5
 72
     7
 73
     8
  0
VERTEX
  5
1020
  8
0
 10
0.0
 20
0.0
 30
0.0
 70
   128
 71
     8
 72
     7
 73
    -9
  0
VERTEX
  5
1021
  8
0
 10
0.0
 20
0.0
 30
0.0
 70
   128
 71
    -8
 72
     9
 73
    10
  0
VERTEX
  5
1022
  8
0
 10
0.0
 20
0.0
 30
0.0
 70
   128
 71
    11
 72
    12
 73
    -6
  0
VERTEX
  5
1023
  8
0
 10
0.0
 20
0.0
 30
0.0
 70
   128
 71
   -11
 72
     6
 73
     5
  0
VERTEX
  5
1024
  8
0
 10
0.0
 20
0.0
 30
0.0
 70
   128
 71
     4
 72
     3
 73
   -12
  0
VERTEX
  5
1025
  8
0
 10
0.0
 20
0.0
 30
0.0
 70
   128
 71
    -4
 72
    12
 73
    11
  0
VERTEX
  5
1026
  8
0
 10
0.0
 20
0.0
 30
0.0
 70
   128
 71
    13
 72
    14
 73
    -2
  0
VERTEX
  5
1027
  8
0
 10
0.0
 20
0.0
 30
0.0
 70
   128
 71
   -13
 72
     2
 73
     1
  0
SEQEND
  5
1102
  8
0
  0
POLYLINE
  5
1028
  8
0
 66
     1
 10
0.0
 20
0.0
 30
0.0
 70
    64
 71
     9
 72
     7
  0
VERTEX
  5
1029
  8
0
 10
33.19586078342709
 20
27.5004959320401
 30
19.16563915929299
 70
   192
  0
VERTEX
  5
102A
  8
0
 10
38.33127831858595
 20
27.5004959320401
 30
0.0000000000000149
 70
   192
  0
VERTEX
  5
102B
  8
0
 10
12.93224440224519
 20
32.38525357538148
 30
0.0
 70
   192
  0
VERTEX
  5
102C
  8
0
 10
-12.93224440224517
 20
32.38525357538148
 30
0.0
 70
   192
  0
VERTEX
  5
102D
  8
0
 10
-38.33127831858587
 20
27.50049593204014
 30
0.0
 70
   192
  0
VERTEX
  5
102E
  8
0
 10
-33.1958607834271
 20
27.5004959320401
 30
19.16563915929297
 70
   192
  0
VERTEX
  5
102F
  8
0
 10
19.16563915929297
 20
27.5004959320401
 30
33.1958607834271
 70
   192
  0
VERTEX
  5
1030
  8
0
 10
-0.0000000000000099
 20
27.5004959320401
 30
38.33127831858595
 70
   192
  0
VERTEX
  5
1031
  8
0
 10
-19.16563915929298
 20
27.5004959320401
 30
33.19586078342709
 70
   192
  0
VERTEX
  5
1032
  8
0
 10
0.0
 20
0.0
 30
0.0
 70
   128
 71
     1
 72
     2
 73
     3
  0
VERTEX
  5
1033
  8
0
 10
0.0
 20
0.0
 30
0.0
 70
   128
 71
     4
 72
     5
 73
     6
  0
VERTEX
  5
1034
  8
0
 10
0.0
 20
0.0
 30
0.0
 70
   128
 71
     7
 72
     1
 73
     3
  0
VERTEX
  5
1035
  8
0
 10
0.0
 20
0.0
 30
0.0
 70
   128
 71
     7
 72
     3
 73
     8
  0
VERTEX
  5
1036
  8
0
 10
0.0
 20
0.0
 30
0.0
 70
   128
 71
     8
 72
     3
 73
     4
  0
VERTEX
  5
1037
  8
0
 10
0.0
 20
0.0
 30
0.0
 70
   128
 71
     8
 72
     4
 73
     6
  0
VERTEX
  5
1038
  8
0
 10
0.0
 20
0.0
 30
0.0
 70
   128
 71
     8
 72
     6
 73
     9
  0
SEQEND
  5
1103
  8
0
  0
POLYLINE
  5
1039
  8
0
 66
     1
 10
0.0
 20
0.0
 30
0.0
 70
    64
 71
    39
 72
    58
  0
VERTEX
  5
103A
  8
0
 10
-19.8838714656379
 20
25.6509722467359
 30
-34.43987562965383
 70
   192
  0
VERTEX
  5
103B
  8
0
 10
-28.03630842807173
 20
26.26251195403409
 30
-28.03630842807172
 70
   192
  0
VERTEX
  5
103C
  8
0
 10
-15.1731407837684
 20
26.26251195403409
 30
-36.63120226396993
 70
   192
  0
VERTEX
  5
103D
  8
0
 10
-36.63120226396993
 20
26.26251195403409
 30
-15.17314078376838
 70
   192
  0
VERTEX
  5
103E
  8
0
 10
-39.76774293127576
 20
25.6509722467359
 30
0.000000000000011
 70
   192
  0
VERTEX
  5
103F
  8
0
 10
-39.64932761785414
 20
26.26251195403409
 30
0.0000000000000073
 70
   192
  0
VERTEX
  5
1040
  8
0
 10
-34.43987562965384
 20
25.6509722467359
 30
19.88387146563788
 70
   192
  0
VERTEX
  5
1041
  8
0
 10
-28.03630842807172
 20
26.26251195403409
 30
28.03630842807173
 70
   192
  0
VERTEX
  5
1042
  8
0
 10
-36.63120226396993
 20
26.26251195403409
 30
15.17314078376839
 70
   192
  0
VERTEX
  5
1043
  8
0
 10
-27.82360204003704
 20
26.80796129635064
 30
-27.82360204003703
 70
   192
  0
VERTEX
  5
1044
  8
0
 10
-15.05802491608784
 20
26.80796129635064
 30
-36.35328797497117
 70
   192
  0
VERTEX
  5
1045
  8
0
 10
-39.34851535909208
 20
26.80796129635064
 30
0.0000000000000072
 70
   192
  0
VERTEX
  5
1046
  8
0
 10
-36.35328797497118
 20
26.80796129635064
 30
-15.05802491608782
 70
   192
  0
VERTEX
  5
1047
  8
0
 10
-27.82360204003703
 20
26.80796129635064
 30
27.82360204003704
 70
   192
  0
VERTEX
  5
1048
  8
0
 10
-36.35328797497117
 20
26.80796129635064
 30
15.05802491608783
 70
   192
  0
VERTEX
  5
1049
  8
0
 10
0.0000000000000056
 20
26.45446950064656
 30
39.56822603386011
 70
   192
  0
VERTEX
  5
104A
  8
0
 10
-15.05802491608781
 20
26.80796129635064
 30
36.35328797497119
 70
   192
  0
VERTEX
  5
104B
  8
0
 10
-15.17314078376837
 20
26.26251195403409
 30
36.63120226396994
 70
   192
  0
VERTEX
  5
104C
  8
0
 10
-27.50255421425648
 20
27.23441127838633
 30
-27.50255421425647
 70
   192
  0
VERTEX
  5
104D
  8
0
 10
-14.88427508481498
 20
27.23441127838633
 30
-35.93381877585221
 70
   192
  0
VERTEX
  5
104E
  8
0
 10
0.0000000000000007
 20
27.10832420496561
 30
-39.06039844989467
 70
   192
  0
VERTEX
  5
104F
  8
0
 10
-38.89448516970283
 20
27.23441127838633
 30
0.0000000000000071
 70
   192
  0
VERTEX
  5
1050
  8
0
 10
-35.93381877585222
 20
27.23441127838633
 30
-14.88427508481497
 70
   192
  0
VERTEX
  5
1051
  8
0
 10
-27.50255421425647
 20
27.23441127838633
 30
27.50255421425648
 70
   192
  0
VERTEX
  5
1052
  8
0
 10
-35.93381877585221
 20
27.23441127838633
 30
14.88427508481498
 70
   192
  0
VERTEX
  5
1053
  8
0
 10
-14.88427508481495
 20
27.23441127838633
 30
35.93381877585223
 70
   192
  0
VERTEX
  5
1054
  8
0
 10
-33.19586078342709
 20
27.5004959320401
 30
-19.16563915929298
 70
   192
  0
VERTEX
  5
1055
  8
0
 10
-38.33127831858595
 20
27.5004959320401
 30
-0.0000000000000023
 70
   192
  0
VERTEX
  5
1056
  8
0
 10
-19.16563915929298
 20
27.5004959320401
 30
33.19586078342709
 70
   192
  0
VERTEX
  5
1057
  8
0
 10
0.0000000000000007
 20
26.45446950064656
 30
-39.56822603386011
 70
   192
  0
VERTEX
  5
1058
  8
0
 10
0.0000000000000055
 20
27.10832420496561
 30
39.06039844989467
 70
   192
  0
VERTEX
  5
1059
  8
0
 10
0.0000000000000007
 20
27.5004959320401
 30
-38.33127831858595
 70
   192
  0
VERTEX
  5
105A
  8
0
 10
0.0000000000000054
 20
27.50049593204033
 30
38.33127831858602
 70
   192
  0
VERTEX
  5
105B
  8
0
 10
0.0
 20
25.6509722467359
 30
39.76774293127576
 70
   192
  0
VERTEX
  5
105C
  8
0
 10
-34.43987562965385
 20
25.6509722467359
 30
-19.88387146563787
 70
   192
  0
VERTEX
  5
105D
  8
0
 10
0.0000000000000007
 20
25.6509722467359
 30
-39.76774293127573
 70
   192
  0
VERTEX
  5
105E
  8
0
 10
-19.88387146563787
 20
25.6509722467359
 30
34.43987562965384
 70
   192
  0
VERTEX
  5
105F
  8
0
 10
-19.16563915929297
 20
27.5004959320401
 30
-33.1958607834271
 70
   192
  0
VERTEX
  5
1060
  8
0
 10
-33.1958607834271
 20
27.5004959320401
 30
19.16563915929297
 70
   192
  0
VERTEX
  5
1061
  8
0
 10
0.0
 20
0.0
 30
0.0
 70
   128
 71
     1
 72
     2
 73
     3
  0
VERTEX
  5
1062
  8
0
 10
0.0
 20
0.0
 30
0.0
 70
   128
 71
     4
 72
     5
 73
     6
  0
VERTEX
  5
1063
  8
0
 10
0.0
 20
0.0
 30
0.0
 70
   128
 71
     7
 72
     8
 73
     9
  0
VERTEX
  5
1064
  8
0
 10
0.0
 20
0.0
 30
0.0
 70
   128
 71
    10
 72
    11
 73
    -3
  0
VERTEX
  5
1065
  8
0
 10
0.0
 20
0.0
 30
0.0
 70
   128
 71
   -10
 72
     3
 73
     2
  0
VERTEX
  5
1066
  8
0
 10
0.0
 20
0.0
 30
0.0
 70
   128
 71
    12
 72
    13
 73
    -4
  0
VERTEX
  5
1067
  8
0
 10
0.0
 20
0.0
 30
0.0
 70
   128
 71
   -12
 72
     4
 73
     6
  0
VERTEX
  5
1068
  8
0
 10
0.0
 20
0.0
 30
0.0
 70
   128
 71
    13
 72
    10
 73
    -2
  0
VERTEX
  5
1069
  8
0
 10
0.0
 20
0.0
 30
0.0
 70
   128
 71
   -13
 72
     2
 73
     4
  0
VERTEX
  5
106A
  8
0
 10
0.0
 20
0.0
 30
0.0
 70
   128
 71
    14
 72
    15
 73
    -9
  0
VERTEX
  5
106B
  8
0
 10
0.0
 20
0.0
 30
0.0
 70
   128
 71
   -14
 72
     9
 73
     8
  0
VERTEX
  5
106C
  8
0
 10
0.0
 20
0.0
 30
0.0
 70
   128
 71
    15
 72
    12
 73
    -6
  0
VERTEX
  5
106D
  8
0
 10
0.0
 20
0.0
 30
0.0
 70
   128
 71
   -15
 72
     6
 73
     9
  0
VERTEX
  5
106E
  8
0
 10
0.0
 20
0.0
 30
0.0
 70
   128
 71
    16
 72
    17
 73
    18
  0
VERTEX
  5
106F
  8
0
 10
0.0
 20
0.0
 30
0.0
 70
   128
 71
    17
 72
    14
 73
    -8
  0
VERTEX
  5
1070
  8
0
 10
0.0
 20
0.0
 30
0.0
 70
   128
 71
   -17
 72
     8
 73
    18
  0
VERTEX
  5
1071
  8
0
 10
0.0
 20
0.0
 30
0.0
 70
   128
 71
    19
 72
    20
 73
   -11
  0
VERTEX
  5
1072
  8
0
 10
0.0
 20
0.0
 30
0.0
 70
   128
 71
   -19
 72
    11
 73
    10
  0
VERTEX
  5
1073
  8
0
 10
0.0
 20
0.0
 30
0.0
 70
   128
 71
    21
 72
    11
 73
    20
  0
VERTEX
  5
1074
  8
0
 10
0.0
 20
0.0
 30
0.0
 70
   128
 71
    22
 72
    23
 73
   -13
  0
VERTEX
  5
1075
  8
0
 10
0.0
 20
0.0
 30
0.0
 70
   128
 71
   -22
 72
    13
 73
    12
  0
VERTEX
  5
1076
  8
0
 10
0.0
 20
0.0
 30
0.0
 70
   128
 71
    23
 72
    19
 73
   -10
  0
VERTEX
  5
1077
  8
0
 10
0.0
 20
0.0
 30
0.0
 70
   128
 71
   -23
 72
    10
 73
    13
  0
VERTEX
  5
1078
  8
0
 10
0.0
 20
0.0
 30
0.0
 70
   128
 71
    24
 72
    25
 73
   -15
  0
VERTEX
  5
1079
  8
0
 10
0.0
 20
0.0
 30
0.0
 70
   128
 71
   -24
 72
    15
 73
    14
  0
VERTEX
  5
107A
  8
0
 10
0.0
 20
0.0
 30
0.0
 70
   128
 71
    25
 72
    22
 73
   -12
  0
VERTEX
  5
107B
  8
0
 10
0.0
 20
0.0
 30
0.0
 70
   128
 71
   -25
 72
    12
 73
    15
  0
VERTEX
  5
107C
  8
0
 10
0.0
 20
0.0
 30
0.0
 70
   128
 71
    26
 72
    24
 73
   -14
  0
VERTEX
  5
107D
  8
0
 10
0.0
 20
0.0
 30
0.0
 70
   128
 71
   -26
 72
    14
 73
    17
  0
VERTEX
  5
107E
  8
0
 10
0.0
 20
0.0
 30
0.0
 70
   128
 71
    27
 72
    19
 73
    23
  0
VERTEX
  5
107F
  8
0
 10
0.0
 20
0.0
 30
0.0
 70
   128
 71
    25
 72
    28
 73
    22
  0
VERTEX
  5
1080
  8
0
 10
0.0
 20
0.0
 30
0.0
 70
   128
 71
    29
 72
    24
 73
    26
  0
VERTEX
  5
1081
  8
0
 10
0.0
 20
0.0
 30
0.0
 70
   128
 71
     3
 72
    11
 73
    21
  0
VERTEX
  5
1082
  8
0
 10
0.0
 20
0.0
 30
0.0
 70
   128
 71
     3
 72
    21
 73
    30
  0
VERTEX
  5
1083
  8
0
 10
0.0
 20
0.0
 30
0.0
 70
   128
 71
    31
 72
    26
 73
    17
  0
VERTEX
  5
1084
  8
0
 10
0.0
 20
0.0
 30
0.0
 70
   128
 71
    31
 72
    17
 73
    16
  0
VERTEX
  5
1085
  8
0
 10
0.0
 20
0.0
 30
0.0
 70
   128
 71
    20
 72
    32
 73
    21
  0
VERTEX
  5
1086
  8
0
 10
0.0
 20
0.0
 30
0.0
 70
   128
 71
    33
 72
    26
 73
    31
  0
VERTEX
  5
1087
  8
0
 10
0.0
 20
0.0
 30
0.0
 70
   128
 71
    16
 72
    18
 73
    34
  0
VERTEX
  5
1088
  8
0
 10
0.0
 20
0.0
 30
0.0
 70
   128
 71
    35
 72
     4
 73
     2
  0
VERTEX
  5
1089
  8
0
 10
0.0
 20
0.0
 30
0.0
 70
   128
 71
    35
 72
     2
 73
     1
  0
VERTEX
  5
108A
  8
0
 10
0.0
 20
0.0
 30
0.0
 70
   128
 71
     1
 72
     3
 73
    30
  0
VERTEX
  5
108B
  8
0
 10
0.0
 20
0.0
 30
0.0
 70
   128
 71
     1
 72
    30
 73
    36
  0
VERTEX
  5
108C
  8
0
 10
0.0
 20
0.0
 30
0.0
 70
   128
 71
     5
 72
     4
 73
    35
  0
VERTEX
  5
108D
  8
0
 10
0.0
 20
0.0
 30
0.0
 70
   128
 71
    37
 72
    18
 73
     8
  0
VERTEX
  5
108E
  8
0
 10
0.0
 20
0.0
 30
0.0
 70
   128
 71
    37
 72
     8
 73
     7
  0
VERTEX
  5
108F
  8
0
 10
0.0
 20
0.0
 30
0.0
 70
   128
 71
     7
 72
     9
 73
     6
  0
VERTEX
  5
1090
  8
0
 10
0.0
 20
0.0
 30
0.0
 70
   128
 71
     7
 72
     6
 73
     5
  0
VERTEX
  5
1091
  8
0
 10
0.0
 20
0.0
 30
0.0
 70
   128
 71
    34
 72
    18
 73
    37
  0
VERTEX
  5
1092
  8
0
 10
0.0
 20
0.0
 30
0.0
 70
   128
 71
    27
 72
    38
 73
    20
  0
VERTEX
  5
1093
  8
0
 10
0.0
 20
0.0
 30
0.0
 70
   128
 71
    27
 72
    20
 73
    19
  0
VERTEX
  5
1094
  8
0
 10
0.0
 20
0.0
 30
0.0
 70
   128
 71
    38
 72
    32
 73
    20
  0
VERTEX
  5
1095
  8
0
 10
0.0
 20
0.0
 30
0.0
 70
   128
 71
    22
 72
    28
 73
    27
  0
VERTEX
  5
1096
  8
0
 10
0.0
 20
0.0
 30
0.0
 70
   128
 71
    22
 72
    27
 73
    23
  0
VERTEX
  5
1097
  8
0
 10
0.0
 20
0.0
 30
0.0
 70
   128
 71
    29
 72
    39
 73
    25
  0
VERTEX
  5
1098
  8
0
 10
0.0
 20
0.0
 30
0.0
 70
   128
 71
    29
 72
    25
 73
    24
  0
VERTEX
  5
1099
  8
0
 10
0.0
 20
0.0
 30
0.0
 70
   128
 71
    39
 72
    28
 73
    25
  0
VERTEX
  5
109A
  8
0
 10
0.0
 20
0.0
 30
0.0
 70
   128
 71
    33
 72
    29
 73
    26
  0
SEQEND
  5
1104
  8
0
  0
POLYLINE
  5
109B
  8
0
 66
     1
 10
0.0
 20
0.0
 30
0.0
 70
    64
 71
    14
 72
    12
  0
VERTEX
  5
109C
  8
0
 10
-0.000000000000001
 20
19.0
 30
37.0
 70
   192
  0
VERTEX
  5
109D
  8
0
 10
0.0000000000000012
 20
20.7993127390321
 30
37.0
 70
   192
  0
VERTEX
  5
109E
  8
0
 10
18.49999999999999
 20
20.7993127390321
 30
32.04293994002423
 70
   192
  0
VERTEX
  5
109F
  8
0
 10
18.5
 20
19.0
 30
32.04293994002423
 70
   192
  0
VERTEX
  5
10A0
  8
0
 10
37.0
 20
20.7993127390321
 30
0.0000000000000144
 70
   192
  0
VERTEX
  5
10A1
  8
0
 10
37.0
 20
19.0
 30
0.0000000000000103
 70
   192
  0
VERTEX
  5
10A2
  8
0
 10
32.04293994002423
 20
19.0
 30
18.50000000000001
 70
   192
  0
VERTEX
  5
10A3
  8
0
 10
32.04293994002423
 20
20.7993127390321
 30
18.50000000000001
 70
   192
  0
VERTEX
  5
10A4
  8
0
 10
32.04293994002423
 20
20.7993127390321
 30
-18.49999999999999
 70
   192
  0
VERTEX
  5
10A5
  8
0
 10
32.04293994002423
 20
19.0
 30
-18.49999999999999
 70
   192
  0
VERTEX
  5
10A6
  8
0
 10
0.0000000000000058
 20
20.7993127390321
 30
-37.0
 70
   192
  0
VERTEX
  5
10A7
  8
0
 10
0.0000000000000058
 20
19.0
 30
-37.0
 70
   192
  0
VERTEX
  5
10A8
  8
0
 10
18.50000000000002
 20
19.0
 30
-32.04293994002423
 70
   192
  0
VERTEX
  5
10A9
  8
0
 10
18.50000000000001
 20
20.7993127390321
 30
-32.04293994002423
 70
   192
  0
VERTEX
  5
10AA
  8
0
 10
0.0
 20
0.0
 30
0.0
 70
   128
 71
     1
 72
     2
 73
    -3
  0
VERTEX
  5
10AB
  8
0
 10
0.0
 20
0.0
 30
0.0
 70
   128
 71
     4
 72
    -1
 73
     3
  0
VERTEX
  5
10AC
  8
0
 10
0.0
 20
0.0
 30
0.0
 70
   128
 71
     5
 72
     6
 73
    -7
  0
VERTEX
  5
10AD
  8
0
 10
0.0
 20
0.0
 30
0.0
 70
   128
 71
     8
 72
    -5
 73
     7
  0
VERTEX
  5
10AE
  8
0
 10
0.0
 20
0.0
 30
0.0
 70
   128
 71
     6
 72
     5
 73
    -9
  0
VERTEX
  5
10AF
  8
0
 10
0.0
 20
0.0
 30
0.0
 70
   128
 71
    10
 72
    -6
 73
     9
  0
VERTEX
  5
10B0
  8
0
 10
0.0
 20
0.0
 30
0.0
 70
   128
 71
    11
 72
    12
 73
   -13
  0
VERTEX
  5
10B1
  8
0
 10
0.0
 20
0.0
 30
0.0
 70
   128
 71
    14
 72
   -11
 73
    13
  0
VERTEX
  5
10B2
  8
0
 10
0.0
 20
0.0
 30
0.0
 70
   128
 71
     7
 72
     4
 73
    -3
  0
VERTEX
  5
10B3
  8
0
 10
0.0
 20
0.0
 30
0.0
 70
   128
 71
     8
 72
    -7
 73
     3
  0
VERTEX
  5
10B4
  8
0
 10
0.0
 20
0.0
 30
0.0
 70
   128
 71
    13
 72
    10
 73
    -9
  0
VERTEX
  5
10B5
  8
0
 10
0.0
 20
0.0
 30
0.0
 70
   128
 71
    14
 72
   -13
 73
     9
  0
SEQEND
  5
1105
  8
0
  0
POLYLINE
  5
10B6
  8
0
 66
     1
 10
0.0
 20
0.0
 30
0.0
 70
    64
 71
     9
 72
     7
  0
VERTEX
  5
10B7
  8
0
 10
12.60785311680172
 20
27.19110523315044
 30
0.0000000000000015
 70
   192
  0
VERTEX
  5
10B8
  8
0
 10
36.99999999999998
 20
20.79931273903203
 30
0.0000000000000045
 70
   192
  0
VERTEX
  5
10B9
  8
0
 10
32.04293994002423
 20
20.7993127390321
 30
18.50000000000001
 70
   192
  0
VERTEX
  5
10BA
  8
0
 10
18.49999999999999
 20
20.7993127390321
 30
32.04293994002423
 70
   192
  0
VERTEX
  5
10BB
  8
0
 10
-0.0000000000000033
 20
20.7993127390321
 30
37.0
 70
   192
  0
VERTEX
  5
10BC
  8
0
 10
-32.04293994002423
 20
20.7993127390321
 30
18.5
 70
   192
  0
VERTEX
  5
10BD
  8
0
 10
-36.99999999999997
 20
20.799312739032
 30
-0.0000000000000045
 70
   192
  0
VERTEX
  5
10BE
  8
0
 10
-12.60785311680172
 20
27.19110523315044
 30
-0.0000000000000015
 70
   192
  0
VERTEX
  5
10BF
  8
0
 10
-18.50000000000001
 20
20.7993127390321
 30
32.04293994002423
 70
   192
  0
VERTEX
  5
10C0
  8
0
 10
0.0
 20
0.0
 30
0.0
 70
   128
 71
     1
 72
     2
 73
     3
  0
VERTEX
  5
10C1
  8
0
 10
0.0
 20
0.0
 30
0.0
 70
   128
 71
     1
 72
     3
 73
     4
  0
VERTEX
  5
10C2
  8
0
 10
0.0
 20
0.0
 30
0.0
 70
   128
 71
     5
 72
     1
 73
     4
  0
VERTEX
  5
10C3
  8
0
 10
0.0
 20
0.0
 30
0.0
 70
   128
 71
     6
 72
     7
 73
     8
  0
VERTEX
  5
10C4
  8
0
 10
0.0
 20
0.0
 30
0.0
 70
   128
 71
     9
 72
     6
 73
     8
  0
VERTEX
  5
10C5
  8
0
 10
0.0
 20
0.0
 30
0.0
 70
   128
 71
     1
 72
     5
 73
     9
  0
VERTEX
  5
10C6
  8
0
 10
0.0
 20
0.0
 30
0.0
 70
   128
 71
     8
 72
     1
 73
     9
  0
SEQEND
  5
1106
  8
0
  0
ENDBLK
  5
10FB
  8
0
  0
ENDSEC
  0
SECTION
  2
ENTITIES
  0
INSERT
  5
BE
  8
0
  2
*X1
 10
0.0
 20
0.0
 30
0.0
  0
INSERT
  5
BF
  8
0
  2
*X2
 10
0.0
 20
0.0
 30
0.0
  0
ENDSEC
  0
EOF
