  0
SECTION
  2
HEADER
  9
$ACADVER
  1
AC1009
  9
$DWGCODEPAGE
  3
ansi_1250
  9
$INSBASE
 10
0.0
 20
0.0
 30
0.0
  9
$EXTMIN
 10
-305.0
 20
-142.0
 30
-225.0
  9
$EXTMAX
 10
305.0000000000003
 20
0.0000000000000284
 30
235.0
  9
$LIMMIN
 10
0.0
 20
0.0
  9
$LIMMAX
 10
420.0
 20
297.0
  9
$ORTHOMODE
 70
     0
  9
$REGENMODE
 70
     1
  9
$FILLMODE
 70
     1
  9
$QTEXTMODE
 70
     0
  9
$MIRRTEXT
 70
     0
  9
$DRAGMODE
 70
     2
  9
$LTSCALE
 40
1.0
  9
$OSMODE
 70
   511
  9
$ATTMODE
 70
     1
  9
$TEXTSIZE
 40
2.5
  9
$TRACEWID
 40
1.0
  9
$TEXTSTYLE
  7
STANDARD
  9
$CLAYER
  8
0
  9
$CELTYPE
  6
BYLAYER
  9
$CECOLOR
 62
   256
  9
$DIMSCALE
 40
1.0
  9
$DIMASZ
 40
2.5
  9
$DIMEXO
 40
0.625
  9
$DIMDLI
 40
3.75
  9
$DIMRND
 40
0.0
  9
$DIMDLE
 40
0.0
  9
$DIMEXE
 40
1.25
  9
$DIMTP
 40
0.0
  9
$DIMTM
 40
0.0
  9
$DIMTXT
 40
2.5
  9
$DIMCEN
 40
-2.5
  9
$DIMTSZ
 40
0.0
  9
$DIMTOL
 70
     0
  9
$DIMLIM
 70
     0
  9
$DIMTIH
 70
     0
  9
$DIMTOH
 70
     0
  9
$DIMSE1
 70
     0
  9
$DIMSE2
 70
     0
  9
$DIMTAD
 70
     1
  9
$DIMZIN
 70
     8
  9
$DIMBLK
  1

  9
$DIMASO
 70
     1
  9
$DIMSHO
 70
     1
  9
$DIMPOST
  1

  9
$DIMAPOST
  1

  9
$DIMALT
 70
     0
  9
$DIMALTD
 70
     3
  9
$DIMALTF
 40
0.03937007874016
  9
$DIMLFAC
 40
1.0
  9
$DIMTOFL
 70
     1
  9
$DIMTVP
 40
0.0
  9
$DIMTIX
 70
     0
  9
$DIMSOXD
 70
     0
  9
$DIMSAH
 70
     0
  9
$DIMBLK1
  1

  9
$DIMBLK2
  1

  9
$DIMSTYLE
  2
ISO-25
  9
$DIMCLRD
 70
     0
  9
$DIMCLRE
 70
     0
  9
$DIMCLRT
 70
     0
  9
$DIMTFAC
 40
1.0
  9
$DIMGAP
 40
0.625
  9
$LUNITS
 70
     2
  9
$LUPREC
 70
     3
  9
$SKETCHINC
 40
1.0
  9
$FILLETRAD
 40
10.0
  9
$AUNITS
 70
     0
  9
$AUPREC
 70
     0
  9
$MENU
  1
.
  9
$ELEVATION
 40
0.0
  9
$PELEVATION
 40
0.0
  9
$THICKNESS
 40
0.0
  9
$LIMCHECK
 70
     0
  9
$CHAMFERA
 40
10.0
  9
$CHAMFERB
 40
10.0
  9
$SKPOLY
 70
     0
  9
$TDCREATE
 40
2455022.720692848
  9
$TDUPDATE
 40
2460413.557512732
  9
$TDINDWG
 40
0.0002634838
  9
$TDUSRTIMER
 40
0.0002634954
  9
$USRTIMER
 70
     1
  9
$ANGBASE
 50
0.0
  9
$ANGDIR
 70
     0
  9
$PDMODE
 70
     0
  9
$PDSIZE
 40
0.0
  9
$PLINEWID
 40
0.0
  9
$COORDS
 70
     1
  9
$SPLFRAME
 70
     0
  9
$SPLINETYPE
 70
     6
  9
$SPLINESEGS
 70
     8
  9
$ATTDIA
 70
     0
  9
$ATTREQ
 70
     1
  9
$HANDLING
 70
     1
  9
$HANDSEED
  5
1BB8
  9
$SURFTAB1
 70
     6
  9
$SURFTAB2
 70
     6
  9
$SURFTYPE
 70
     6
  9
$SURFU
 70
     6
  9
$SURFV
 70
     6
  9
$UCSNAME
  2

  9
$UCSORG
 10
0.0
 20
0.0
 30
0.0
  9
$UCSXDIR
 10
1.0
 20
0.0
 30
0.0
  9
$UCSYDIR
 10
0.0
 20
1.0
 30
0.0
  9
$PUCSNAME
  2

  9
$PUCSORG
 10
0.0
 20
0.0
 30
0.0
  9
$PUCSXDIR
 10
1.0
 20
0.0
 30
0.0
  9
$PUCSYDIR
 10
0.0
 20
1.0
 30
0.0
  9
$USERI1
 70
     0
  9
$USERI2
 70
     0
  9
$USERI3
 70
     0
  9
$USERI4
 70
     0
  9
$USERI5
 70
     0
  9
$USERR1
 40
0.0
  9
$USERR2
 40
0.0
  9
$USERR3
 40
0.0
  9
$USERR4
 40
0.0
  9
$USERR5
 40
0.0
  9
$WORLDVIEW
 70
     1
  9
$SHADEDGE
 70
     3
  9
$SHADEDIF
 70
    70
  9
$TILEMODE
 70
     1
  9
$MAXACTVP
 70
    64
  9
$PLIMCHECK
 70
     0
  9
$PEXTMIN
 10
1.000000000000000E+20
 20
1.000000000000000E+20
 30
1.000000000000000E+20
  9
$PEXTMAX
 10
-1.000000000000000E+20
 20
-1.000000000000000E+20
 30
-1.000000000000000E+20
  9
$PLIMMIN
 10
0.0
 20
0.0
  9
$PLIMMAX
 10
0.0
 20
0.0
  9
$UNITMODE
 70
     0
  9
$VISRETAIN
 70
     1
  9
$PLINEGEN
 70
     0
  9
$PSLTSCALE
 70
     1
  0
ENDSEC
  0
SECTION
  2
TABLES
  0
TABLE
  2
VPORT
 70
     1
  0
VPORT
  2
*ACTIVE
 70
     0
 10
0.0
 20
0.0
 11
1.0
 21
1.0
 12
134.1869158878505
 22
-71.0
 13
0.0
 23
0.0
 14
10.0
 24
10.0
 15
10.0
 25
10.0
 16
0.0
 26
0.0
 36
1.0
 17
-134.1869158878504
 27
0.0
 37
0.0
 40
329.1347826086958
 41
1.89041095890411
 42
50.0
 43
0.0
 44
0.0
 50
0.0
 51
0.0
 71
    16
 72
  1000
 73
     1
 74
     3
 75
     0
 76
     0
 77
     0
 78
     0
  0
ENDTAB
  0
TABLE
  2
LTYPE
 70
     1
  0
LTYPE
  2
CONTINUOUS
 70
     0
  3
Solid line
 72
    65
 73
     0
 40
0.0
  0
ENDTAB
  0
TABLE
  2
LAYER
 70
     1
  0
LAYER
  2
0
 70
     0
 62
     7
  6
CONTINUOUS
  0
ENDTAB
  0
TABLE
  2
STYLE
 70
     2
  0
STYLE
  2
STANDARD
 70
     0
 40
0.0
 41
1.0
 50
0.0
 71
     0
 42
2.5
  3
arial.ttf
  4

  0
STYLE
  2
ANNOTATIVE
 70
     0
 40
0.0
 41
1.0
 50
0.0
 71
     0
 42
2.5
  3
arial.ttf
  4

  0
ENDTAB
  0
TABLE
  2
VIEW
 70
     0
  0
ENDTAB
  0
TABLE
  2
UCS
 70
     0
  0
ENDTAB
  0
TABLE
  2
APPID
 70
     2
  0
APPID
  2
ACAD
 70
     0
  0
APPID
  2
ACADANNOTATIVE
 70
     0
  0
ENDTAB
  0
TABLE
  2
DIMSTYLE
 70
     2
  0
DIMSTYLE
  2
ISO-25
 70
     0
  3

  4

  5

  6

  7

 40
1.0
 41
2.5
 42
0.625
 43
3.75
 44
1.25
 45
0.0
 46
0.0
 47
0.0
 48
0.0
140
2.5
141
-2.5
142
0.0
143
0.03937007874016
144
1.0
145
0.0
146
1.0
147
0.625
 71
     0
 72
     0
 73
     0
 74
     0
 75
     0
 76
     0
 77
     1
 78
     8
170
     0
171
     3
172
     1
173
     0
174
     0
175
     0
176
     0
177
     0
178
     0
  0
DIMSTYLE
  2
ANNOTATIVE
 70
     0
  3

  4

  5

  6

  7

 40
0.0
 41
2.5
 42
0.625
 43
3.75
 44
1.25
 45
0.0
 46
0.0
 47
0.0
 48
0.0
140
2.5
141
-2.5
142
0.0
143
0.03937007874016
144
1.0
145
0.0
146
1.0
147
0.625
 71
     0
 72
     0
 73
     0
 74
     0
 75
     0
 76
     0
 77
     1
 78
     8
170
     0
171
     3
172
     1
173
     0
174
     0
175
     0
176
     0
177
     0
178
     0
  0
ENDTAB
  0
ENDSEC
  0
SECTION
  2
BLOCKS
  0
BLOCK
  8
0
  2
$MODEL_SPACE
 70
     0
 10
0.0
 20
0.0
 30
0.0
  3
$MODEL_SPACE
  1

  0
ENDBLK
  5
21
  8
0
  0
BLOCK
 67
     1
  8
0
  2
$PAPER_SPACE
 70
     0
 10
0.0
 20
0.0
 30
0.0
  3
$PAPER_SPACE
  1

  0
ENDBLK
  5
1D
 67
     1
  8
0
  0
BLOCK
  8
0
  2
*X1
 70
     1
 10
0.0
 20
0.0
 30
0.0
  3
*X1
  1

  0
POLYLINE
  5
E43
  8
0
 66
     1
 10
0.0
 20
0.0
 30
0.0
 70
    64
 71
    10
 72
     8
  0
VERTEX
  5
E44
  8
0
 10
0.0
 20
-28.42374590666707
 30
-116.2349524940247
 70
   192
  0
VERTEX
  5
E45
  8
0
 10
0.0
 20
-53.04393973197227
 30
-111.8937480523515
 70
   192
  0
VERTEX
  5
E46
  8
0
 10
-0.0000000000000014
 20
-50.26556888930138
 30
-96.13682400415615
 70
   192
  0
VERTEX
  5
E47
  8
0
 10
0.0000000000000015
 20
-25.64537506399618
 30
-100.4780284458294
 70
   192
  0
VERTEX
  5
E48
  8
0
 10
-12.5
 20
-37.95547197664878
 30
-98.30742622499278
 70
   192
  0
VERTEX
  5
E49
  8
0
 10
-12.5
 20
-40.73384281931967
 30
-114.0643502731881
 70
   192
  0
VERTEX
  5
E4A
  8
0
 10
-8.838834764831843
 20
-29.25091897264854
 30
-99.84227377460495
 70
   192
  0
VERTEX
  5
E4B
  8
0
 10
-8.838834764831844
 20
-32.02928981531943
 30
-115.5991978228003
 70
   192
  0
VERTEX
  5
E4C
  8
0
 10
-8.838834764831846
 20
-46.66002498064901
 30
-96.77257867538061
 70
   192
  0
VERTEX
  5
E4D
  8
0
 10
-8.838834764831846
 20
-49.43839582331991
 30
-112.5295027235759
 70
   192
  0
VERTEX
  5
E4E
  8
0
 10
0.0
 20
0.0
 30
0.0
 70
   128
 71
     8
 72
     1
 73
    -4
  0
VERTEX
  5
E4F
  8
0
 10
0.0
 20
0.0
 30
0.0
 70
   128
 71
     7
 72
    -8
 73
     4
  0
VERTEX
  5
E50
  8
0
 10
0.0
 20
0.0
 30
0.0
 70
   128
 71
     6
 72
     8
 73
    -7
  0
VERTEX
  5
E51
  8
0
 10
0.0
 20
0.0
 30
0.0
 70
   128
 71
     5
 72
    -6
 73
     7
  0
VERTEX
  5
E52
  8
0
 10
0.0
 20
0.0
 30
0.0
 70
   128
 71
    10
 72
     6
 73
    -5
  0
VERTEX
  5
E53
  8
0
 10
0.0
 20
0.0
 30
0.0
 70
   128
 71
     9
 72
   -10
 73
     5
  0
VERTEX
  5
E54
  8
0
 10
0.0
 20
0.0
 30
0.0
 70
   128
 71
     2
 72
    10
 73
    -9
  0
VERTEX
  5
E55
  8
0
 10
0.0
 20
0.0
 30
0.0
 70
   128
 71
     3
 72
    -2
 73
     9
  0
SEQEND
  5
1B1B
  8
0
  0
POLYLINE
  5
E56
  8
0
 66
     1
 10
0.0
 20
0.0
 30
0.0
 70
    64
 71
    15
 72
    13
  0
VERTEX
  5
E57
  8
0
 10
56.56854249492953
 20
-141.9999999999794
 30
42.42640687120059
 70
   192
  0
VERTEX
  5
E58
  8
0
 10
76.22491356335908
 20
-138.7446467099668
 30
21.82430063546709
 70
   192
  0
VERTEX
  5
E59
  8
0
 10
62.50185238459758
 20
-139.041879092979
 30
39.32654967332286
 70
   192
  0
VERTEX
  5
E5A
  8
0
 10
80.0
 20
-142.0
 30
-0.0000000000000022
 70
   192
  0
VERTEX
  5
E5B
  8
0
 10
81.5790513005439
 20
-138.613713558144
 30
0.0000000000000314
 70
   192
  0
VERTEX
  5
E5C
  8
0
 10
0.0000000000002269
 20
-141.9999999999794
 30
60.00000000000961
 70
   192
  0
VERTEX
  5
E5D
  8
0
 10
42.05717622275105
 20
-139.3868464439106
 30
52.380636152822
 70
   192
  0
VERTEX
  5
E5E
  8
0
 10
14.3434457455315
 20
-139.123960822204
 30
60.38114909647352
 70
   192
  0
VERTEX
  5
E5F
  8
0
 10
-56.56854249492953
 20
-141.9999999999794
 30
42.42640687120057
 70
   192
  0
VERTEX
  5
E60
  8
0
 10
-14.18247600856374
 20
-139.1218245420552
 30
60.40373741478869
 70
   192
  0
VERTEX
  5
E61
  8
0
 10
-42.05717622276139
 20
-139.386846443909
 30
52.38063615281941
 70
   192
  0
VERTEX
  5
E62
  8
0
 10
-76.2135079836094
 20
-138.7449167624908
 30
21.84662451291768
 70
   192
  0
VERTEX
  5
E63
  8
0
 10
-81.5790513005439
 20
-138.613713558144
 30
0.0000000000000069
 70
   192
  0
VERTEX
  5
E64
  8
0
 10
-80.0
 20
-142.0
 30
0.0000000000000069
 70
   192
  0
VERTEX
  5
E65
  8
0
 10
-62.4692886356275
 20
-139.0425269144878
 30
39.35622098194816
 70
   192
  0
VERTEX
  5
E66
  8
0
 10
0.0
 20
0.0
 30
0.0
 70
   128
 71
     1
 72
     2
 73
     3
  0
VERTEX
  5
E67
  8
0
 10
0.0
 20
0.0
 30
0.0
 70
   128
 71
     1
 72
     4
 73
     2
  0
VERTEX
  5
E68
  8
0
 10
0.0
 20
0.0
 30
0.0
 70
   128
 71
     4
 72
     5
 73
     2
  0
VERTEX
  5
E69
  8
0
 10
0.0
 20
0.0
 30
0.0
 70
   128
 71
     6
 72
     7
 73
     8
  0
VERTEX
  5
E6A
  8
0
 10
0.0
 20
0.0
 30
0.0
 70
   128
 71
     6
 72
     1
 73
     7
  0
VERTEX
  5
E6B
  8
0
 10
0.0
 20
0.0
 30
0.0
 70
   128
 71
     9
 72
    10
 73
    11
  0
VERTEX
  5
E6C
  8
0
 10
0.0
 20
0.0
 30
0.0
 70
   128
 71
     9
 72
     6
 73
    10
  0
VERTEX
  5
E6D
  8
0
 10
0.0
 20
0.0
 30
0.0
 70
   128
 71
    12
 72
    13
 73
    14
  0
VERTEX
  5
E6E
  8
0
 10
0.0
 20
0.0
 30
0.0
 70
   128
 71
    12
 72
    14
 73
     9
  0
VERTEX
  5
E6F
  8
0
 10
0.0
 20
0.0
 30
0.0
 70
   128
 71
     9
 72
    15
 73
    12
  0
VERTEX
  5
E70
  8
0
 10
0.0
 20
0.0
 30
0.0
 70
   128
 71
     3
 72
     7
 73
     1
  0
VERTEX
  5
E71
  8
0
 10
0.0
 20
0.0
 30
0.0
 70
   128
 71
     8
 72
    10
 73
     6
  0
VERTEX
  5
E72
  8
0
 10
0.0
 20
0.0
 30
0.0
 70
   128
 71
    11
 72
    15
 73
     9
  0
SEQEND
  5
1B1C
  8
0
  0
POLYLINE
  5
E73
  8
0
 66
     1
 10
0.0
 20
0.0
 30
0.0
 70
    64
 71
    12
 72
    10
  0
VERTEX
  5
E74
  8
0
 10
177.2173669163105
 20
-23.66058909122393
 30
169.3027468137417
 70
   192
  0
VERTEX
  5
E75
  8
0
 10
177.2173669163105
 20
-17.94692018112395
 30
174.8525831283968
 70
   192
  0
VERTEX
  5
E76
  8
0
 10
177.2173669163105
 20
-14.26893391067417
 30
181.9179290171762
 70
   192
  0
VERTEX
  5
E77
  8
0
 10
177.2173669163105
 20
-13.0
 30
189.7815479209665
 70
   192
  0
VERTEX
  5
E78
  8
0
 10
202.8083617432975
 20
-13.0
 30
186.8876246729193
 70
   192
  0
VERTEX
  5
E79
  8
0
 10
225.6442916656666
 20
-13.0
 30
178.2058549287783
 70
   192
  0
VERTEX
  5
E7A
  8
0
 10
244.284099993594
 20
-12.99999999999996
 30
164.284099993594
 70
   192
  0
VERTEX
  5
E7B
  8
0
 10
239.6808853434026
 20
-13.86246015500901
 30
159.6808853434026
 70
   192
  0
VERTEX
  5
E7C
  8
0
 10
235.3952778308707
 20
-16.39033361851789
 30
155.3952778308706
 70
   192
  0
VERTEX
  5
E7D
  8
0
 10
231.7229707135635
 20
-20.40920517939205
 30
151.7229707135635
 70
   192
  0
VERTEX
  5
E7E
  8
0
 10
216.9562726938007
 20
-20.77798711004191
 30
162.3023644124231
 70
   192
  0
VERTEX
  5
E7F
  8
0
 10
198.4362317130826
 20
-21.88204173564258
 30
168.2838973166097
 70
   192
  0
VERTEX
  5
E80
  8
0
 10
0.0
 20
0.0
 30
0.0
 70
   128
 71
     8
 72
     7
 73
     6
  0
VERTEX
  5
E81
  8
0
 10
0.0
 20
0.0
 30
0.0
 70
   128
 71
     6
 72
    11
 73
     9
  0
VERTEX
  5
E82
  8
0
 10
0.0
 20
0.0
 30
0.0
 70
   128
 71
     6
 72
     9
 73
     8
  0
VERTEX
  5
E83
  8
0
 10
0.0
 20
0.0
 30
0.0
 70
   128
 71
    11
 72
    10
 73
     9
  0
VERTEX
  5
E84
  8
0
 10
0.0
 20
0.0
 30
0.0
 70
   128
 71
     6
 72
     5
 73
    12
  0
VERTEX
  5
E85
  8
0
 10
0.0
 20
0.0
 30
0.0
 70
   128
 71
     6
 72
    12
 73
    11
  0
VERTEX
  5
E86
  8
0
 10
0.0
 20
0.0
 30
0.0
 70
   128
 71
     2
 72
     1
 73
    12
  0
VERTEX
  5
E87
  8
0
 10
0.0
 20
0.0
 30
0.0
 70
   128
 71
    12
 72
     5
 73
     3
  0
VERTEX
  5
E88
  8
0
 10
0.0
 20
0.0
 30
0.0
 70
   128
 71
    12
 72
     3
 73
     2
  0
VERTEX
  5
E89
  8
0
 10
0.0
 20
0.0
 30
0.0
 70
   128
 71
     5
 72
     4
 73
     3
  0
SEQEND
  5
1B1D
  8
0
  0
POLYLINE
  5
E8A
  8
0
 66
     1
 10
0.0
 20
0.0
 30
0.0
 70
    64
 71
    12
 72
    10
  0
VERTEX
  5
E8B
  8
0
 10
-25.31455211249939
 20
-17.13175911166534
 30
-118.2260344317871
 70
   192
  0
VERTEX
  5
E8C
  8
0
 10
-25.31455211249938
 20
-15.01420704148606
 30
-119.139457233073
 70
   192
  0
VERTEX
  5
E8D
  8
0
 10
-25.31455211249938
 20
-13.53183679838294
 30
-120.9060772958459
 70
   192
  0
VERTEX
  5
E8E
  8
0
 10
-25.3145521124994
 20
-13.0
 30
-123.1500731968482
 70
   192
  0
VERTEX
  5
E8F
  8
0
 10
-27.37725271408889
 20
-12.99999999999999
 30
-122.8816671137823
 70
   192
  0
VERTEX
  5
E90
  8
0
 10
-29.31780560423289
 20
-12.99999999999999
 30
-122.0764488645844
 70
   192
  0
VERTEX
  5
E91
  8
0
 10
-30.9430282641498
 20
-13.0
 30
-120.8145781245406
 70
   192
  0
VERTEX
  5
E92
  8
0
 10
-29.42068277982548
 20
-13.47951211625492
 30
-119.3153604888148
 70
   192
  0
VERTEX
  5
E93
  8
0
 10
-28.19033053744494
 20
-14.82607571716555
 30
-118.1037000615824
 70
   192
  0
VERTEX
  5
E94
  8
0
 10
-27.48795906000135
 20
-16.7814133779541
 30
-117.4119991851012
 70
   192
  0
VERTEX
  5
E95
  8
0
 10
-26.87031411177949
 20
-16.82188674420019
 30
-117.8786109376905
 70
   192
  0
VERTEX
  5
E96
  8
0
 10
-26.13741215184372
 20
-16.93942488916246
 30
-118.1551549896835
 70
   192
  0
VERTEX
  5
E97
  8
0
 10
0.0
 20
0.0
 30
0.0
 70
   128
 71
     8
 72
     7
 73
     6
  0
VERTEX
  5
E98
  8
0
 10
0.0
 20
0.0
 30
0.0
 70
   128
 71
     6
 72
    11
 73
     9
  0
VERTEX
  5
E99
  8
0
 10
0.0
 20
0.0
 30
0.0
 70
   128
 71
     6
 72
     9
 73
     8
  0
VERTEX
  5
E9A
  8
0
 10
0.0
 20
0.0
 30
0.0
 70
   128
 71
    11
 72
    10
 73
     9
  0
VERTEX
  5
E9B
  8
0
 10
0.0
 20
0.0
 30
0.0
 70
   128
 71
     6
 72
     5
 73
    12
  0
VERTEX
  5
E9C
  8
0
 10
0.0
 20
0.0
 30
0.0
 70
   128
 71
     6
 72
    12
 73
    11
  0
VERTEX
  5
E9D
  8
0
 10
0.0
 20
0.0
 30
0.0
 70
   128
 71
     2
 72
     1
 73
    12
  0
VERTEX
  5
E9E
  8
0
 10
0.0
 20
0.0
 30
0.0
 70
   128
 71
    12
 72
     5
 73
     3
  0
VERTEX
  5
E9F
  8
0
 10
0.0
 20
0.0
 30
0.0
 70
   128
 71
    12
 72
     3
 73
     2
  0
VERTEX
  5
EA0
  8
0
 10
0.0
 20
0.0
 30
0.0
 70
   128
 71
     5
 72
     4
 73
     3
  0
SEQEND
  5
1B1E
  8
0
  0
POLYLINE
  5
EA1
  8
0
 66
     1
 10
0.0
 20
0.0
 30
0.0
 70
    64
 71
    12
 72
    10
  0
VERTEX
  5
EA2
  8
0
 10
-249.3027468137417
 20
-23.66058909122392
 30
97.21736691631033
 70
   192
  0
VERTEX
  5
EA3
  8
0
 10
-254.8525831283968
 20
-17.94692018112393
 30
97.21736691631033
 70
   192
  0
VERTEX
  5
EA4
  8
0
 10
-261.9179290171762
 20
-14.26893391067414
 30
97.21736691631031
 70
   192
  0
VERTEX
  5
EA5
  8
0
 10
-269.7815479209665
 20
-13.0
 30
97.21736691631031
 70
   192
  0
VERTEX
  5
EA6
  8
0
 10
-266.8876246729194
 20
-12.99999999999999
 30
122.8083617432974
 70
   192
  0
VERTEX
  5
EA7
  8
0
 10
-258.2058549287784
 20
-12.99999999999999
 30
145.6442916656667
 70
   192
  0
VERTEX
  5
EA8
  8
0
 10
-244.284099993594
 20
-12.99999999999996
 30
164.284099993594
 70
   192
  0
VERTEX
  5
EA9
  8
0
 10
-239.6808853434026
 20
-13.86246015500901
 30
159.6808853434026
 70
   192
  0
VERTEX
  5
EAA
  8
0
 10
-235.3952778308707
 20
-16.39033361851789
 30
155.3952778308706
 70
   192
  0
VERTEX
  5
EAB
  8
0
 10
-231.7229707135635
 20
-20.40920517939205
 30
151.7229707135635
 70
   192
  0
VERTEX
  5
EAC
  8
0
 10
-242.3023644064932
 20
-20.77798710880022
 30
136.9562727070994
 70
   192
  0
VERTEX
  5
EAD
  8
0
 10
-248.2838973164866
 20
-21.8820417350838
 30
118.4362317156332
 70
   192
  0
VERTEX
  5
EAE
  8
0
 10
0.0
 20
0.0
 30
0.0
 70
   128
 71
     8
 72
     7
 73
     6
  0
VERTEX
  5
EAF
  8
0
 10
0.0
 20
0.0
 30
0.0
 70
   128
 71
     6
 72
    11
 73
     9
  0
VERTEX
  5
EB0
  8
0
 10
0.0
 20
0.0
 30
0.0
 70
   128
 71
     6
 72
     9
 73
     8
  0
VERTEX
  5
EB1
  8
0
 10
0.0
 20
0.0
 30
0.0
 70
   128
 71
    11
 72
    10
 73
     9
  0
VERTEX
  5
EB2
  8
0
 10
0.0
 20
0.0
 30
0.0
 70
   128
 71
     6
 72
     5
 73
    12
  0
VERTEX
  5
EB3
  8
0
 10
0.0
 20
0.0
 30
0.0
 70
   128
 71
     6
 72
    12
 73
    11
  0
VERTEX
  5
EB4
  8
0
 10
0.0
 20
0.0
 30
0.0
 70
   128
 71
     2
 72
     1
 73
    12
  0
VERTEX
  5
EB5
  8
0
 10
0.0
 20
0.0
 30
0.0
 70
   128
 71
    12
 72
     5
 73
     3
  0
VERTEX
  5
EB6
  8
0
 10
0.0
 20
0.0
 30
0.0
 70
   128
 71
    12
 72
     3
 73
     2
  0
VERTEX
  5
EB7
  8
0
 10
0.0
 20
0.0
 30
0.0
 70
   128
 71
     5
 72
     4
 73
     3
  0
SEQEND
  5
1B1F
  8
0
  0
POLYLINE
  5
EB8
  8
0
 66
     1
 10
0.0
 20
0.0
 30
0.0
 70
    64
 71
    12
 72
    10
  0
VERTEX
  5
EB9
  8
0
 10
176.620196928836
 20
0.0
 30
190.82268202207
 70
   192
  0
VERTEX
  5
EBA
  8
0
 10
202.6641297173624
 20
-0.0000000000000047
 30
187.8775388935263
 70
   192
  0
VERTEX
  5
EBB
  8
0
 10
225.9042353905701
 20
-0.0000000000000056
 30
179.0421095078961
 70
   192
  0
VERTEX
  5
EBC
  8
0
 10
244.873951830496
 20
-0.0000000000000035
 30
164.873951830496
 70
   192
  0
VERTEX
  5
EBD
  8
0
 10
237.5088083901898
 20
-1.379936248014431
 30
157.5088083901898
 70
   192
  0
VERTEX
  5
EBE
  8
0
 10
230.6518363701388
 20
-5.424533789628569
 30
150.6518363701388
 70
   192
  0
VERTEX
  5
EBF
  8
0
 10
224.7761449824474
 20
-11.85472828702722
 30
144.7761449824474
 70
   192
  0
VERTEX
  5
EC0
  8
0
 10
211.9977910801405
 20
-12.44473503243318
 30
153.5996590069901
 70
   192
  0
VERTEX
  5
EC1
  8
0
 10
195.6356107803052
 20
-14.21120413320864
 30
158.1195009640912
 70
   192
  0
VERTEX
  5
EC2
  8
0
 10
176.620196928836
 20
-17.0569425459581
 30
158.05660025051
 70
   192
  0
VERTEX
  5
EC3
  8
0
 10
176.620196928836
 20
-7.915072289798296
 30
166.9363383539585
 70
   192
  0
VERTEX
  5
EC4
  8
0
 10
176.620196928836
 20
-2.030294257078658
 30
178.2408917760054
 70
   192
  0
VERTEX
  5
EC5
  8
0
 10
0.0
 20
0.0
 30
0.0
 70
   128
 71
     6
 72
     7
 73
     8
  0
VERTEX
  5
EC6
  8
0
 10
0.0
 20
0.0
 30
0.0
 70
   128
 71
     9
 72
    11
 73
     6
  0
VERTEX
  5
EC7
  8
0
 10
0.0
 20
0.0
 30
0.0
 70
   128
 71
     8
 72
     9
 73
     6
  0
VERTEX
  5
EC8
  8
0
 10
0.0
 20
0.0
 30
0.0
 70
   128
 71
     9
 72
    10
 73
    11
  0
VERTEX
  5
EC9
  8
0
 10
0.0
 20
0.0
 30
0.0
 70
   128
 71
    12
 72
     5
 73
     6
  0
VERTEX
  5
ECA
  8
0
 10
0.0
 20
0.0
 30
0.0
 70
   128
 71
    11
 72
    12
 73
     6
  0
VERTEX
  5
ECB
  8
0
 10
0.0
 20
0.0
 30
0.0
 70
   128
 71
    12
 72
     1
 73
     2
  0
VERTEX
  5
ECC
  8
0
 10
0.0
 20
0.0
 30
0.0
 70
   128
 71
     3
 72
     5
 73
    12
  0
VERTEX
  5
ECD
  8
0
 10
0.0
 20
0.0
 30
0.0
 70
   128
 71
     2
 72
     3
 73
    12
  0
VERTEX
  5
ECE
  8
0
 10
0.0
 20
0.0
 30
0.0
 70
   128
 71
     3
 72
     4
 73
     5
  0
SEQEND
  5
1B20
  8
0
  0
POLYLINE
  5
ECF
  8
0
 66
     1
 10
0.0
 20
0.0
 30
0.0
 70
    64
 71
    12
 72
    10
  0
VERTEX
  5
ED0
  8
0
 10
-270.82268202207
 20
0.0
 30
96.62019692883591
 70
   192
  0
VERTEX
  5
ED1
  8
0
 10
-267.8775388935264
 20
0.0
 30
122.6641297173624
 70
   192
  0
VERTEX
  5
ED2
  8
0
 10
-259.0421095078962
 20
0.0
 30
145.90423539057
 70
   192
  0
VERTEX
  5
ED3
  8
0
 10
-244.873951830496
 20
0.0
 30
164.873951830496
 70
   192
  0
VERTEX
  5
ED4
  8
0
 10
-237.5088083901898
 20
-1.37993624801441
 30
157.5088083901898
 70
   192
  0
VERTEX
  5
ED5
  8
0
 10
-230.6518363701388
 20
-5.424533789628526
 30
150.6518363701388
 70
   192
  0
VERTEX
  5
ED6
  8
0
 10
-224.7761449824475
 20
-11.85472828702714
 30
144.7761449824475
 70
   192
  0
VERTEX
  5
ED7
  8
0
 10
-233.5996590074145
 20
-12.44473503288478
 30
131.9977910784704
 70
   192
  0
VERTEX
  5
ED8
  8
0
 10
-238.1195009643066
 20
-14.21120413306003
 30
115.6356107799419
 70
   192
  0
VERTEX
  5
ED9
  8
0
 10
-238.05660025051
 20
-17.0569425459581
 30
96.62019692883591
 70
   192
  0
VERTEX
  5
EDA
  8
0
 10
-246.9363383539585
 20
-7.91507228979831
 30
96.62019692883591
 70
   192
  0
VERTEX
  5
EDB
  8
0
 10
-258.2408917760054
 20
-2.030294257078666
 30
96.62019692883592
 70
   192
  0
VERTEX
  5
EDC
  8
0
 10
0.0
 20
0.0
 30
0.0
 70
   128
 71
     6
 72
     7
 73
     8
  0
VERTEX
  5
EDD
  8
0
 10
0.0
 20
0.0
 30
0.0
 70
   128
 71
     9
 72
    11
 73
     6
  0
VERTEX
  5
EDE
  8
0
 10
0.0
 20
0.0
 30
0.0
 70
   128
 71
     8
 72
     9
 73
     6
  0
VERTEX
  5
EDF
  8
0
 10
0.0
 20
0.0
 30
0.0
 70
   128
 71
     9
 72
    10
 73
    11
  0
VERTEX
  5
EE0
  8
0
 10
0.0
 20
0.0
 30
0.0
 70
   128
 71
    12
 72
     5
 73
     6
  0
VERTEX
  5
EE1
  8
0
 10
0.0
 20
0.0
 30
0.0
 70
   128
 71
    11
 72
    12
 73
     6
  0
VERTEX
  5
EE2
  8
0
 10
0.0
 20
0.0
 30
0.0
 70
   128
 71
    12
 72
     1
 73
     2
  0
VERTEX
  5
EE3
  8
0
 10
0.0
 20
0.0
 30
0.0
 70
   128
 71
     3
 72
     5
 73
    12
  0
VERTEX
  5
EE4
  8
0
 10
0.0
 20
0.0
 30
0.0
 70
   128
 71
     2
 72
     3
 73
    12
  0
VERTEX
  5
EE5
  8
0
 10
0.0
 20
0.0
 30
0.0
 70
   128
 71
     3
 72
     4
 73
     5
  0
SEQEND
  5
1B21
  8
0
  0
POLYLINE
  5
EE6
  8
0
 66
     1
 10
0.0
 20
0.0
 30
0.0
 70
    64
 71
    19
 72
    20
  0
VERTEX
  5
EE7
  8
0
 10
0.0000000000000164
 20
-120.0233223737479
 30
37.34577031399154
 70
   192
  0
VERTEX
  5
EE8
  8
0
 10
0.0000000000000147
 20
-119.8949318039966
 30
38.30482060947255
 70
   192
  0
VERTEX
  5
EE9
  8
0
 10
27.08559840509227
 20
-119.8949318039966
 30
27.08559840509226
 70
   192
  0
VERTEX
  5
EEA
  8
0
 10
-27.08559840509225
 20
-119.8949318039966
 30
27.08559840509226
 70
   192
  0
VERTEX
  5
EEB
  8
0
 10
37.03223137470699
 20
-120.1002865718344
 30
0.0
 70
   192
  0
VERTEX
  5
EEC
  8
0
 10
0.0000000000000164
 20
-120.3042036046319
 30
36.41982898658442
 70
   192
  0
VERTEX
  5
EED
  8
0
 10
-35.83287515119383
 20
-120.5727255522702
 30
0.0000000000000044
 70
   192
  0
VERTEX
  5
EEE
  8
0
 10
0.0000000000000164
 20
-120.7302705435153
 30
35.55107783046788
 70
   192
  0
VERTEX
  5
EEF
  8
0
 10
17.38105534440552
 20
-121.2904423538102
 30
30.10487094567689
 70
   192
  0
VERTEX
  5
EF0
  8
0
 10
0.0000000000000083
 20
-121.2904423538102
 30
34.762110688811
 70
   192
  0
VERTEX
  5
EF1
  8
0
 10
30.1048709456769
 20
-121.2904423538102
 30
17.38105534440551
 70
   192
  0
VERTEX
  5
EF2
  8
0
 10
-17.3810553444055
 20
-121.2904423538102
 30
30.10487094567689
 70
   192
  0
VERTEX
  5
EF3
  8
0
 10
-37.03223137470697
 20
-120.1002865718344
 30
0.0000000000000045
 70
   192
  0
VERTEX
  5
EF4
  8
0
 10
35.83287515119386
 20
-120.5727255522702
 30
0.0
 70
   192
  0
VERTEX
  5
EF5
  8
0
 10
-30.10487094567689
 20
-121.2904423538102
 30
17.38105534440549
 70
   192
  0
VERTEX
  5
EF6
  8
0
 10
-34.76211068881098
 20
-121.2904423538102
 30
-0.0000000000000043
 70
   192
  0
VERTEX
  5
EF7
  8
0
 10
34.76211068881096
 20
-121.2904423538102
 30
0.0
 70
   192
  0
VERTEX
  5
EF8
  8
0
 10
-38.30482060947254
 20
-119.8949318039966
 30
0.0000000000000047
 70
   192
  0
VERTEX
  5
EF9
  8
0
 10
38.30482060947256
 20
-119.8949318039966
 30
0.0
 70
   192
  0
VERTEX
  5
EFA
  8
0
 10
0.0
 20
0.0
 30
0.0
 70
   128
 71
     1
 72
     2
 73
     3
  0
VERTEX
  5
EFB
  8
0
 10
0.0
 20
0.0
 30
0.0
 70
   128
 71
     4
 72
     2
 73
     1
  0
VERTEX
  5
EFC
  8
0
 10
0.0
 20
0.0
 30
0.0
 70
   128
 71
     5
 72
     6
 73
     1
  0
VERTEX
  5
EFD
  8
0
 10
0.0
 20
0.0
 30
0.0
 70
   128
 71
     7
 72
     6
 73
     8
  0
VERTEX
  5
EFE
  8
0
 10
0.0
 20
0.0
 30
0.0
 70
   128
 71
     9
 72
    10
 73
     8
  0
VERTEX
  5
EFF
  8
0
 10
0.0
 20
0.0
 30
0.0
 70
   128
 71
     8
 72
    11
 73
     9
  0
VERTEX
  5
F00
  8
0
 10
0.0
 20
0.0
 30
0.0
 70
   128
 71
     8
 72
    10
 73
    12
  0
VERTEX
  5
F01
  8
0
 10
0.0
 20
0.0
 30
0.0
 70
   128
 71
     1
 72
     6
 73
     7
  0
VERTEX
  5
F02
  8
0
 10
0.0
 20
0.0
 30
0.0
 70
   128
 71
     1
 72
     7
 73
    13
  0
VERTEX
  5
F03
  8
0
 10
0.0
 20
0.0
 30
0.0
 70
   128
 71
     5
 72
    14
 73
     8
  0
VERTEX
  5
F04
  8
0
 10
0.0
 20
0.0
 30
0.0
 70
   128
 71
     5
 72
     8
 73
     6
  0
VERTEX
  5
F05
  8
0
 10
0.0
 20
0.0
 30
0.0
 70
   128
 71
    15
 72
    16
 73
     7
  0
VERTEX
  5
F06
  8
0
 10
0.0
 20
0.0
 30
0.0
 70
   128
 71
     7
 72
     8
 73
    12
  0
VERTEX
  5
F07
  8
0
 10
0.0
 20
0.0
 30
0.0
 70
   128
 71
     7
 72
    12
 73
    15
  0
VERTEX
  5
F08
  8
0
 10
0.0
 20
0.0
 30
0.0
 70
   128
 71
    17
 72
    11
 73
     8
  0
VERTEX
  5
F09
  8
0
 10
0.0
 20
0.0
 30
0.0
 70
   128
 71
    17
 72
     8
 73
    14
  0
VERTEX
  5
F0A
  8
0
 10
0.0
 20
0.0
 30
0.0
 70
   128
 71
     4
 72
     1
 73
    13
  0
VERTEX
  5
F0B
  8
0
 10
0.0
 20
0.0
 30
0.0
 70
   128
 71
     4
 72
    13
 73
    18
  0
VERTEX
  5
F0C
  8
0
 10
0.0
 20
0.0
 30
0.0
 70
   128
 71
    19
 72
     5
 73
     1
  0
VERTEX
  5
F0D
  8
0
 10
0.0
 20
0.0
 30
0.0
 70
   128
 71
    19
 72
     1
 73
     3
  0
SEQEND
  5
1B22
  8
0
  0
POLYLINE
  5
F0E
  8
0
 66
     1
 10
0.0
 20
0.0
 30
0.0
 70
    64
 71
    10
 72
     8
  0
VERTEX
  5
F0F
  8
0
 10
-0.0000000000000019
 20
-13.0
 30
-187.5
 70
   192
  0
VERTEX
  5
F10
  8
0
 10
0.0000000000000021
 20
-13.0
 30
-152.5
 70
   192
  0
VERTEX
  5
F11
  8
0
 10
-0.0000000000000019
 20
0.0
 30
-152.5
 70
   192
  0
VERTEX
  5
F12
  8
0
 10
0.0000000000000021
 20
-0.0000000000000071
 30
-187.5
 70
   192
  0
VERTEX
  5
F13
  8
0
 10
-17.49999999999999
 20
0.0
 30
-170.0
 70
   192
  0
VERTEX
  5
F14
  8
0
 10
-17.49999999999999
 20
-13.0
 30
-170.0
 70
   192
  0
VERTEX
  5
F15
  8
0
 10
-12.37436867076457
 20
0.0
 30
-182.3743686707646
 70
   192
  0
VERTEX
  5
F16
  8
0
 10
-12.37436867076458
 20
-13.0
 30
-182.3743686707646
 70
   192
  0
VERTEX
  5
F17
  8
0
 10
-12.37436867076458
 20
0.0
 30
-157.6256313292354
 70
   192
  0
VERTEX
  5
F18
  8
0
 10
-12.37436867076457
 20
-13.0
 30
-157.6256313292354
 70
   192
  0
VERTEX
  5
F19
  8
0
 10
0.0
 20
0.0
 30
0.0
 70
   128
 71
     8
 72
     1
 73
    -4
  0
VERTEX
  5
F1A
  8
0
 10
0.0
 20
0.0
 30
0.0
 70
   128
 71
     7
 72
    -8
 73
     4
  0
VERTEX
  5
F1B
  8
0
 10
0.0
 20
0.0
 30
0.0
 70
   128
 71
     6
 72
     8
 73
    -7
  0
VERTEX
  5
F1C
  8
0
 10
0.0
 20
0.0
 30
0.0
 70
   128
 71
     5
 72
    -6
 73
     7
  0
VERTEX
  5
F1D
  8
0
 10
0.0
 20
0.0
 30
0.0
 70
   128
 71
    10
 72
     6
 73
    -5
  0
VERTEX
  5
F1E
  8
0
 10
0.0
 20
0.0
 30
0.0
 70
   128
 71
     9
 72
   -10
 73
     5
  0
VERTEX
  5
F1F
  8
0
 10
0.0
 20
0.0
 30
0.0
 70
   128
 71
     2
 72
    10
 73
    -9
  0
VERTEX
  5
F20
  8
0
 10
0.0
 20
0.0
 30
0.0
 70
   128
 71
     3
 72
    -2
 73
     9
  0
SEQEND
  5
1B23
  8
0
  0
POLYLINE
  5
F21
  8
0
 66
     1
 10
0.0
 20
0.0
 30
0.0
 70
    64
 71
    10
 72
     8
  0
VERTEX
  5
F22
  8
0
 10
0.0000000000000147
 20
-131.999124725835
 30
22.0
 70
   192
  0
VERTEX
  5
F23
  8
0
 10
0.0000000000000147
 20
-131.999124725835
 30
-22.0
 70
   192
  0
VERTEX
  5
F24
  8
0
 10
0.0000000000000123
 20
-142.0
 30
-22.0
 70
   192
  0
VERTEX
  5
F25
  8
0
 10
0.0000000000000174
 20
-142.0
 30
22.0
 70
   192
  0
VERTEX
  5
F26
  8
0
 10
-21.99999999999999
 20
-142.0
 30
0.0000000000000024
 70
   192
  0
VERTEX
  5
F27
  8
0
 10
-21.99999999999999
 20
-131.999124725835
 30
0.0
 70
   192
  0
VERTEX
  5
F28
  8
0
 10
-15.55634918610403
 20
-142.0
 30
15.55634918610405
 70
   192
  0
VERTEX
  5
F29
  8
0
 10
-15.55634918610403
 20
-131.999124725835
 30
15.55634918610405
 70
   192
  0
VERTEX
  5
F2A
  8
0
 10
-15.55634918610403
 20
-142.0
 30
-15.55634918610404
 70
   192
  0
VERTEX
  5
F2B
  8
0
 10
-15.55634918610403
 20
-131.999124725835
 30
-15.55634918610405
 70
   192
  0
VERTEX
  5
F2C
  8
0
 10
0.0
 20
0.0
 30
0.0
 70
   128
 71
     8
 72
     1
 73
    -4
  0
VERTEX
  5
F2D
  8
0
 10
0.0
 20
0.0
 30
0.0
 70
   128
 71
     7
 72
    -8
 73
     4
  0
VERTEX
  5
F2E
  8
0
 10
0.0
 20
0.0
 30
0.0
 70
   128
 71
     6
 72
     8
 73
    -7
  0
VERTEX
  5
F2F
  8
0
 10
0.0
 20
0.0
 30
0.0
 70
   128
 71
     5
 72
    -6
 73
     7
  0
VERTEX
  5
F30
  8
0
 10
0.0
 20
0.0
 30
0.0
 70
   128
 71
    10
 72
     6
 73
    -5
  0
VERTEX
  5
F31
  8
0
 10
0.0
 20
0.0
 30
0.0
 70
   128
 71
     9
 72
   -10
 73
     5
  0
VERTEX
  5
F32
  8
0
 10
0.0
 20
0.0
 30
0.0
 70
   128
 71
     2
 72
    10
 73
    -9
  0
VERTEX
  5
F33
  8
0
 10
0.0
 20
0.0
 30
0.0
 70
   128
 71
     3
 72
    -2
 73
     9
  0
SEQEND
  5
1B24
  8
0
  0
POLYLINE
  5
F34
  8
0
 66
     1
 10
0.0
 20
0.0
 30
0.0
 70
    64
 71
    12
 72
    10
  0
VERTEX
  5
F35
  8
0
 10
0.0000000000000147
 20
-131.999124725835
 30
-22.0
 70
   192
  0
VERTEX
  5
F36
  8
0
 10
0.000000000000019
 20
-121.2904423538102
 30
-34.76211068881095
 70
   192
  0
VERTEX
  5
F37
  8
0
 10
-17.38105534440548
 20
-121.2904423538102
 30
-30.1048709456769
 70
   192
  0
VERTEX
  5
F38
  8
0
 10
-15.55634918610403
 20
-131.999124725835
 30
-15.55634918610405
 70
   192
  0
VERTEX
  5
F39
  8
0
 10
-34.76211068881098
 20
-121.2904423538102
 30
-0.0000000000000043
 70
   192
  0
VERTEX
  5
F3A
  8
0
 10
-21.99999999999999
 20
-131.999124725835
 30
0.0
 70
   192
  0
VERTEX
  5
F3B
  8
0
 10
-30.10487094567688
 20
-121.2904423538102
 30
-17.38105534440551
 70
   192
  0
VERTEX
  5
F3C
  8
0
 10
-30.10487094567689
 20
-121.2904423538102
 30
17.38105534440549
 70
   192
  0
VERTEX
  5
F3D
  8
0
 10
-15.55634918610403
 20
-131.999124725835
 30
15.55634918610405
 70
   192
  0
VERTEX
  5
F3E
  8
0
 10
0.0000000000000083
 20
-121.2904423538102
 30
34.762110688811
 70
   192
  0
VERTEX
  5
F3F
  8
0
 10
0.0000000000000147
 20
-131.999124725835
 30
22.0
 70
   192
  0
VERTEX
  5
F40
  8
0
 10
-17.3810553444055
 20
-121.2904423538102
 30
30.10487094567689
 70
   192
  0
VERTEX
  5
F41
  8
0
 10
0.0
 20
0.0
 30
0.0
 70
   128
 71
     1
 72
     2
 73
     3
  0
VERTEX
  5
F42
  8
0
 10
0.0
 20
0.0
 30
0.0
 70
   128
 71
     4
 72
     1
 73
     3
  0
VERTEX
  5
F43
  8
0
 10
0.0
 20
0.0
 30
0.0
 70
   128
 71
     5
 72
     6
 73
     4
  0
VERTEX
  5
F44
  8
0
 10
0.0
 20
0.0
 30
0.0
 70
   128
 71
     7
 72
     5
 73
     4
  0
VERTEX
  5
F45
  8
0
 10
0.0
 20
0.0
 30
0.0
 70
   128
 71
     6
 72
     5
 73
     8
  0
VERTEX
  5
F46
  8
0
 10
0.0
 20
0.0
 30
0.0
 70
   128
 71
     9
 72
     6
 73
     8
  0
VERTEX
  5
F47
  8
0
 10
0.0
 20
0.0
 30
0.0
 70
   128
 71
    10
 72
    11
 73
     9
  0
VERTEX
  5
F48
  8
0
 10
0.0
 20
0.0
 30
0.0
 70
   128
 71
    12
 72
    10
 73
     9
  0
VERTEX
  5
F49
  8
0
 10
0.0
 20
0.0
 30
0.0
 70
   128
 71
     7
 72
     4
 73
     3
  0
VERTEX
  5
F4A
  8
0
 10
0.0
 20
0.0
 30
0.0
 70
   128
 71
    12
 72
     9
 73
     8
  0
SEQEND
  5
1B25
  8
0
  0
POLYLINE
  5
F4B
  8
0
 66
     1
 10
0.0
 20
0.0
 30
0.0
 70
    64
 71
    13
 72
    11
  0
VERTEX
  5
F4C
  8
0
 10
-85.93100863939858
 20
-130.1361157411284
 30
-30.80746127352791
 70
   192
  0
VERTEX
  5
F4D
  8
0
 10
-132.0931626058908
 20
-127.6668931888553
 30
-41.31045676398626
 70
   192
  0
VERTEX
  5
F4E
  8
0
 10
-118.802358392089
 20
-128.2836147103552
 30
-43.84373701535955
 70
   192
  0
VERTEX
  5
F4F
  8
0
 10
-94.38862876244941
 20
-129.973544462936
 30
0.0000000000000008
 70
   192
  0
VERTEX
  5
F50
  8
0
 10
-147.2421287355402
 20
-127.2036099020099
 30
0.0
 70
   192
  0
VERTEX
  5
F51
  8
0
 10
-147.2444410098695
 20
-127.1951842080224
 30
-6.83298798598201
 70
   192
  0
VERTEX
  5
F52
  8
0
 10
-90.21581180341937
 20
-129.6621288122101
 30
-43.90188366614555
 70
   192
  0
VERTEX
  5
F53
  8
0
 10
-76.08169790510559
 20
-130.3143317839654
 30
-43.99463187435625
 70
   192
  0
VERTEX
  5
F54
  8
0
 10
-104.1732187598194
 20
-128.9966707676462
 30
-43.85635421012648
 70
   192
  0
VERTEX
  5
F55
  8
0
 10
-147.2635408440692
 20
-127.1280433865926
 30
-20.5033766765368
 70
   192
  0
VERTEX
  5
F56
  8
0
 10
-142.9343816586143
 20
-127.2296889472433
 30
-33.22218584699083
 70
   192
  0
VERTEX
  5
F57
  8
0
 10
-92.21154018921666
 20
-130.0161534294518
 30
-15.91932292517211
 70
   192
  0
VERTEX
  5
F58
  8
0
 10
-147.2515788901273
 20
-127.1699495274153
 30
-13.66676366659924
 70
   192
  0
VERTEX
  5
F59
  8
0
 10
0.0
 20
0.0
 30
0.0
 70
   128
 71
     1
 72
     2
 73
     3
  0
VERTEX
  5
F5A
  8
0
 10
0.0
 20
0.0
 30
0.0
 70
   128
 71
     4
 72
     5
 73
     6
  0
VERTEX
  5
F5B
  8
0
 10
0.0
 20
0.0
 30
0.0
 70
   128
 71
     7
 72
     8
 73
     1
  0
VERTEX
  5
F5C
  8
0
 10
0.0
 20
0.0
 30
0.0
 70
   128
 71
     1
 72
     9
 73
     7
  0
VERTEX
  5
F5D
  8
0
 10
0.0
 20
0.0
 30
0.0
 70
   128
 71
     1
 72
     3
 73
     9
  0
VERTEX
  5
F5E
  8
0
 10
0.0
 20
0.0
 30
0.0
 70
   128
 71
     2
 72
    10
 73
    11
  0
VERTEX
  5
F5F
  8
0
 10
0.0
 20
0.0
 30
0.0
 70
   128
 71
     2
 72
     1
 73
    12
  0
VERTEX
  5
F60
  8
0
 10
0.0
 20
0.0
 30
0.0
 70
   128
 71
     2
 72
    12
 73
    10
  0
VERTEX
  5
F61
  8
0
 10
0.0
 20
0.0
 30
0.0
 70
   128
 71
    13
 72
    10
 73
    12
  0
VERTEX
  5
F62
  8
0
 10
0.0
 20
0.0
 30
0.0
 70
   128
 71
    12
 72
     4
 73
     6
  0
VERTEX
  5
F63
  8
0
 10
0.0
 20
0.0
 30
0.0
 70
   128
 71
    12
 72
     6
 73
    13
  0
SEQEND
  5
1B26
  8
0
  0
POLYLINE
  5
F64
  8
0
 66
     1
 10
0.0
 20
0.0
 30
0.0
 70
    64
 71
    21
 72
    19
  0
VERTEX
  5
F65
  8
0
 10
38.30482060947256
 20
-119.8949318039966
 30
-0.0000000000000043
 70
   192
  0
VERTEX
  5
F66
  8
0
 10
146.561761304382
 20
-114.2214259502004
 30
0.0000000000000179
 70
   192
  0
VERTEX
  5
F67
  8
0
 10
146.5648346065034
 20
-114.2128836459226
 30
-6.804141685055873
 70
   192
  0
VERTEX
  5
F68
  8
0
 10
146.5741328491243
 20
-114.1876816894697
 30
-13.60759416175183
 70
   192
  0
VERTEX
  5
F69
  8
0
 10
118.164070143258
 20
-115.3014307585458
 30
-43.6081782057492
 70
   192
  0
VERTEX
  5
F6A
  8
0
 10
146.58967344081
 20
-114.1458594347832
 30
-20.4095546950751
 70
   192
  0
VERTEX
  5
F6B
  8
0
 10
142.2385174554897
 20
-114.2486848002352
 30
-33.11137240710288
 70
   192
  0
VERTEX
  5
F6C
  8
0
 10
131.4114437808943
 20
-114.6861207833039
 30
-41.12062460509658
 70
   192
  0
VERTEX
  5
F6D
  8
0
 10
-27.08559840509225
 20
-119.8949318039966
 30
-27.08559840509226
 70
   192
  0
VERTEX
  5
F6E
  8
0
 10
0.0000000000000104
 20
-119.8949318039966
 30
-38.30482060947254
 70
   192
  0
VERTEX
  5
F6F
  8
0
 10
-40.36082139120828
 20
-118.7725855955812
 30
-44.01907481215753
 70
   192
  0
VERTEX
  5
F70
  8
0
 10
-38.30482060947253
 20
-119.8949318039966
 30
0.0000000000000047
 70
   192
  0
VERTEX
  5
F71
  8
0
 10
-118.1640701432578
 20
-115.301430758546
 30
-43.6081782057492
 70
   192
  0
VERTEX
  5
F72
  8
0
 10
-142.2590828754745
 20
-114.2479531112061
 30
-33.08457574601109
 70
   192
  0
VERTEX
  5
F73
  8
0
 10
-146.5896734408098
 20
-114.1458594347832
 30
-20.40955469507505
 70
   192
  0
VERTEX
  5
F74
  8
0
 10
-131.4239210614869
 20
-114.6855764756499
 30
-41.11553160415226
 70
   192
  0
VERTEX
  5
F75
  8
0
 10
-146.5741328489532
 20
-114.1876816894787
 30
-13.60759416174226
 70
   192
  0
VERTEX
  5
F76
  8
0
 10
-146.5648346063637
 20
-114.2128836459299
 30
-6.804141685049727
 70
   192
  0
VERTEX
  5
F77
  8
0
 10
-146.561761304382
 20
-114.2214259502004
 30
0.0000000000000066
 70
   192
  0
VERTEX
  5
F78
  8
0
 10
27.08559840509227
 20
-119.8949318039966
 30
-27.08559840509226
 70
   192
  0
VERTEX
  5
F79
  8
0
 10
40.36330297241661
 20
-118.7724992262685
 30
-44.01903502885524
 70
   192
  0
VERTEX
  5
F7A
  8
0
 10
0.0
 20
0.0
 30
0.0
 70
   128
 71
     1
 72
     2
 73
     3
  0
VERTEX
  5
F7B
  8
0
 10
0.0
 20
0.0
 30
0.0
 70
   128
 71
     4
 72
     5
 73
     1
  0
VERTEX
  5
F7C
  8
0
 10
0.0
 20
0.0
 30
0.0
 70
   128
 71
     3
 72
     4
 73
     1
  0
VERTEX
  5
F7D
  8
0
 10
0.0
 20
0.0
 30
0.0
 70
   128
 71
     4
 72
     6
 73
     5
  0
VERTEX
  5
F7E
  8
0
 10
0.0
 20
0.0
 30
0.0
 70
   128
 71
     7
 72
     8
 73
     5
  0
VERTEX
  5
F7F
  8
0
 10
0.0
 20
0.0
 30
0.0
 70
   128
 71
     6
 72
     7
 73
     5
  0
VERTEX
  5
F80
  8
0
 10
0.0
 20
0.0
 30
0.0
 70
   128
 71
     9
 72
    10
 73
    11
  0
VERTEX
  5
F81
  8
0
 10
0.0
 20
0.0
 30
0.0
 70
   128
 71
    12
 72
     9
 73
    13
  0
VERTEX
  5
F82
  8
0
 10
0.0
 20
0.0
 30
0.0
 70
   128
 71
    14
 72
    15
 73
    12
  0
VERTEX
  5
F83
  8
0
 10
0.0
 20
0.0
 30
0.0
 70
   128
 71
    16
 72
    14
 73
    12
  0
VERTEX
  5
F84
  8
0
 10
0.0
 20
0.0
 30
0.0
 70
   128
 71
    13
 72
    16
 73
    12
  0
VERTEX
  5
F85
  8
0
 10
0.0
 20
0.0
 30
0.0
 70
   128
 71
    15
 72
    17
 73
    12
  0
VERTEX
  5
F86
  8
0
 10
0.0
 20
0.0
 30
0.0
 70
   128
 71
    17
 72
    18
 73
    12
  0
VERTEX
  5
F87
  8
0
 10
0.0
 20
0.0
 30
0.0
 70
   128
 71
    18
 72
    19
 73
    12
  0
VERTEX
  5
F88
  8
0
 10
0.0
 20
0.0
 30
0.0
 70
   128
 71
    20
 72
     1
 73
     5
  0
VERTEX
  5
F89
  8
0
 10
0.0
 20
0.0
 30
0.0
 70
   128
 71
    21
 72
    20
 73
     5
  0
VERTEX
  5
F8A
  8
0
 10
0.0
 20
0.0
 30
0.0
 70
   128
 71
    21
 72
    11
 73
    10
  0
VERTEX
  5
F8B
  8
0
 10
0.0
 20
0.0
 30
0.0
 70
   128
 71
    10
 72
    20
 73
    21
  0
VERTEX
  5
F8C
  8
0
 10
0.0
 20
0.0
 30
0.0
 70
   128
 71
    13
 72
     9
 73
    11
  0
SEQEND
  5
1B27
  8
0
  0
POLYLINE
  5
F8D
  8
0
 66
     1
 10
0.0
 20
0.0
 30
0.0
 70
    64
 71
    13
 72
    11
  0
VERTEX
  5
F8E
  8
0
 10
25.56964857058449
 20
-44.65491442742545
 30
-110.3266797197319
 70
   192
  0
VERTEX
  5
F8F
  8
0
 10
30.49758994955328
 20
-17.13175911166537
 30
-115.1797545961301
 70
   192
  0
VERTEX
  5
F90
  8
0
 10
157.146018114001
 20
-17.13175911166535
 30
-115.17975459613
 70
   192
  0
VERTEX
  5
F91
  8
0
 10
115.7091153400614
 20
-76.30978921383377
 30
-104.7450712239399
 70
   192
  0
VERTEX
  5
F92
  8
0
 10
38.59476475732113
 20
-79.78085768155614
 30
-104.1330282011941
 70
   192
  0
VERTEX
  5
F93
  8
0
 10
-38.59234314002918
 20
-79.78094405086868
 30
-104.1330129719541
 70
   192
  0
VERTEX
  5
F94
  8
0
 10
-115.7091153400612
 20
-76.3097892138338
 30
-104.74507122394
 70
   192
  0
VERTEX
  5
F95
  8
0
 10
-157.146018114001
 20
-17.13175911166532
 30
-115.1797545961301
 70
   192
  0
VERTEX
  5
F96
  8
0
 10
-30.497589949553
 20
-17.13175911166535
 30
-115.17975459613
 70
   192
  0
VERTEX
  5
F97
  8
0
 10
-25.56964857058452
 20
-44.65491442742515
 30
-110.3266797197318
 70
   192
  0
VERTEX
  5
F98
  8
0
 10
-16.68940281485296
 20
-59.80227874956083
 30
-107.6557907031187
 70
   192
  0
VERTEX
  5
F99
  8
0
 10
-0.0000000000001211
 20
-65.78444012014404
 30
-106.6009742505329
 70
   192
  0
VERTEX
  5
F9A
  8
0
 10
16.68940281485277
 20
-59.80227874956098
 30
-107.6557907031187
 70
   192
  0
VERTEX
  5
F9B
  8
0
 10
0.0
 20
0.0
 30
0.0
 70
   128
 71
     8
 72
     9
 73
   -10
  0
VERTEX
  5
F9C
  8
0
 10
0.0
 20
0.0
 30
0.0
 70
   128
 71
     7
 72
    -8
 73
   -10
  0
VERTEX
  5
F9D
  8
0
 10
0.0
 20
0.0
 30
0.0
 70
   128
 71
     6
 72
    -7
 73
   -10
  0
VERTEX
  5
F9E
  8
0
 10
0.0
 20
0.0
 30
0.0
 70
   128
 71
    10
 72
   -11
 73
    -6
  0
VERTEX
  5
F9F
  8
0
 10
0.0
 20
0.0
 30
0.0
 70
   128
 71
    11
 72
   -12
 73
    -6
  0
VERTEX
  5
FA0
  8
0
 10
0.0
 20
0.0
 30
0.0
 70
   128
 71
     5
 72
    -6
 73
   -12
  0
VERTEX
  5
FA1
  8
0
 10
0.0
 20
0.0
 30
0.0
 70
   128
 71
    12
 72
   -13
 73
    -5
  0
VERTEX
  5
FA2
  8
0
 10
0.0
 20
0.0
 30
0.0
 70
   128
 71
    13
 72
    -1
 73
    -5
  0
VERTEX
  5
FA3
  8
0
 10
0.0
 20
0.0
 30
0.0
 70
   128
 71
     3
 72
     4
 73
    -5
  0
VERTEX
  5
FA4
  8
0
 10
0.0
 20
0.0
 30
0.0
 70
   128
 71
     2
 72
    -3
 73
    -5
  0
VERTEX
  5
FA5
  8
0
 10
0.0
 20
0.0
 30
0.0
 70
   128
 71
     1
 72
    -2
 73
    -5
  0
SEQEND
  5
1B28
  8
0
  0
POLYLINE
  5
FA6
  8
0
 66
     1
 10
0.0
 20
0.0
 30
0.0
 70
    64
 71
    65
 72
    67
  0
VERTEX
  5
FA7
  8
0
 10
259.5702129791545
 20
-13.0
 30
-189.4182905092765
 70
   192
  0
VERTEX
  5
FA8
  8
0
 10
260.8214371077115
 20
-13.0
 30
-184.5751094933826
 70
   192
  0
VERTEX
  5
FA9
  8
0
 10
264.5751094933827
 20
-13.0
 30
-180.8214371077115
 70
   192
  0
VERTEX
  5
FAA
  8
0
 10
269.4182905092765
 20
-13.0
 30
-179.5702129791545
 70
   192
  0
VERTEX
  5
FAB
  8
0
 10
278.951170669088
 20
-13.0
 30
-179.5702129791545
 70
   192
  0
VERTEX
  5
FAC
  8
0
 10
278.951170669088
 20
-13.0
 30
189.5702129791545
 70
   192
  0
VERTEX
  5
FAD
  8
0
 10
269.4182905092765
 20
-13.0
 30
189.5702129791545
 70
   192
  0
VERTEX
  5
FAE
  8
0
 10
264.5751094933826
 20
-13.0
 30
190.8214371077113
 70
   192
  0
VERTEX
  5
FAF
  8
0
 10
260.8214371077116
 20
-13.0
 30
194.5751094933825
 70
   192
  0
VERTEX
  5
FB0
  8
0
 10
259.5702129791545
 20
-13.0
 30
199.4182905092765
 70
   192
  0
VERTEX
  5
FB1
  8
0
 10
259.5702129791545
 20
-13.0
 30
208.951170669088
 70
   192
  0
VERTEX
  5
FB2
  8
0
 10
-259.5702129791545
 20
-13.0
 30
208.951170669088
 70
   192
  0
VERTEX
  5
FB3
  8
0
 10
-259.5702129791545
 20
-13.0
 30
199.4182905092765
 70
   192
  0
VERTEX
  5
FB4
  8
0
 10
-260.8214371077116
 20
-12.99999999999999
 30
194.5751094933827
 70
   192
  0
VERTEX
  5
FB5
  8
0
 10
-264.5751094933827
 20
-12.99999999999999
 30
190.8214371077116
 70
   192
  0
VERTEX
  5
FB6
  8
0
 10
-269.4182905092765
 20
-13.0
 30
189.5702129791545
 70
   192
  0
VERTEX
  5
FB7
  8
0
 10
-278.951170669088
 20
-13.0
 30
189.5702129791545
 70
   192
  0
VERTEX
  5
FB8
  8
0
 10
-278.951170669088
 20
-13.0
 30
-179.5702129791545
 70
   192
  0
VERTEX
  5
FB9
  8
0
 10
-269.4182905092765
 20
-13.0
 30
-179.5702129791545
 70
   192
  0
VERTEX
  5
FBA
  8
0
 10
-264.5751094933827
 20
-13.0
 30
-180.8214371077114
 70
   192
  0
VERTEX
  5
FBB
  8
0
 10
-260.8214371077116
 20
-13.0
 30
-184.5751094933827
 70
   192
  0
VERTEX
  5
FBC
  8
0
 10
-259.5702129791545
 20
-13.0
 30
-189.4182905092765
 70
   192
  0
VERTEX
  5
FBD
  8
0
 10
-259.5702129791545
 20
-13.0
 30
-198.951170669088
 70
   192
  0
VERTEX
  5
FBE
  8
0
 10
259.5702129791545
 20
-13.0
 30
-198.951170669088
 70
   192
  0
VERTEX
  5
FBF
  8
0
 10
269.7815479209665
 20
-13.0
 30
-33.57105998033249
 70
   192
  0
VERTEX
  5
FC0
  8
0
 10
252.9884538100381
 20
-13.0
 30
-81.83891388406373
 70
   192
  0
VERTEX
  5
FC1
  8
0
 10
210.874880528414
 20
-13.0
 30
-111.7559862202209
 70
   192
  0
VERTEX
  5
FC2
  8
0
 10
157.146018114001
 20
-13.0
 30
-120.103793361191
 70
   192
  0
VERTEX
  5
FC3
  8
0
 10
31.56261565886935
 20
-13.0
 30
-120.103793361191
 70
   192
  0
VERTEX
  5
FC4
  8
0
 10
29.85376369816556
 20
-13.0
 30
-121.7341128530442
 70
   192
  0
VERTEX
  5
FC5
  8
0
 10
27.67561263740176
 20
-13.0
 30
-122.7960831108972
 70
   192
  0
VERTEX
  5
FC6
  8
0
 10
25.31455211249965
 20
-13.0
 30
-123.1500731968482
 70
   192
  0
VERTEX
  5
FC7
  8
0
 10
-25.3145521124994
 20
-13.0
 30
-123.1500731968482
 70
   192
  0
VERTEX
  5
FC8
  8
0
 10
-27.37725271408889
 20
-12.99999999999999
 30
-122.8816671137823
 70
   192
  0
VERTEX
  5
FC9
  8
0
 10
-29.31780560423289
 20
-12.99999999999999
 30
-122.0764488645844
 70
   192
  0
VERTEX
  5
FCA
  8
0
 10
-30.9430282641498
 20
-13.0
 30
-120.8145781245406
 70
   192
  0
VERTEX
  5
FCB
  8
0
 10
-31.15904964665368
 20
-13.0
 30
-120.5861462270647
 70
   192
  0
VERTEX
  5
FCC
  8
0
 10
-31.36573840251546
 20
-13.00000000000001
 30
-120.3490348531498
 70
   192
  0
VERTEX
  5
FCD
  8
0
 10
-31.5626156588691
 20
-13.0
 30
-120.103793361191
 70
   192
  0
VERTEX
  5
FCE
  8
0
 10
-157.146018114001
 20
-13.0
 30
-120.103793361191
 70
   192
  0
VERTEX
  5
FCF
  8
0
 10
-210.874274895809
 20
-13.0
 30
-111.7561894873257
 70
   192
  0
VERTEX
  5
FD0
  8
0
 10
-252.9880900678254
 20
-13.0
 30
-81.83941878606883
 70
   192
  0
VERTEX
  5
FD1
  8
0
 10
-269.7815479209665
 20
-13.0
 30
-33.57105998033249
 70
   192
  0
VERTEX
  5
FD2
  8
0
 10
-269.7815479209665
 20
-13.0
 30
97.21736691631031
 70
   192
  0
VERTEX
  5
FD3
  8
0
 10
-266.8876246729194
 20
-12.99999999999999
 30
122.8083617432974
 70
   192
  0
VERTEX
  5
FD4
  8
0
 10
-258.2058549287784
 20
-12.99999999999999
 30
145.6442916656667
 70
   192
  0
VERTEX
  5
FD5
  8
0
 10
-244.284099993594
 20
-13.0
 30
164.284099993594
 70
   192
  0
VERTEX
  5
FD6
  8
0
 10
-225.6442916656665
 20
-12.99999999999999
 30
178.2058549287786
 70
   192
  0
VERTEX
  5
FD7
  8
0
 10
-202.8083617432971
 20
-12.99999999999999
 30
186.8876246729195
 70
   192
  0
VERTEX
  5
FD8
  8
0
 10
-177.21736691631
 20
-13.0
 30
189.7815479209665
 70
   192
  0
VERTEX
  5
FD9
  8
0
 10
177.2173669163105
 20
-13.0
 30
189.7815479209665
 70
   192
  0
VERTEX
  5
FDA
  8
0
 10
202.8083617432975
 20
-13.0
 30
186.8876246729193
 70
   192
  0
VERTEX
  5
FDB
  8
0
 10
225.6442916656666
 20
-13.0
 30
178.2058549287783
 70
   192
  0
VERTEX
  5
FDC
  8
0
 10
244.284099993594
 20
-13.0
 30
164.284099993594
 70
   192
  0
VERTEX
  5
FDD
  8
0
 10
258.2058549287786
 20
-13.0
 30
145.6442916656667
 70
   192
  0
VERTEX
  5
FDE
  8
0
 10
266.8876246729196
 20
-13.0
 30
122.8083617432975
 70
   192
  0
VERTEX
  5
FDF
  8
0
 10
269.7815479209665
 20
-13.0
 30
97.21736691631041
 70
   192
  0
VERTEX
  5
FE0
  8
0
 10
-0.0000000000000019
 20
-13.0
 30
-187.5
 70
   192
  0
VERTEX
  5
FE1
  8
0
 10
-12.37436867076458
 20
-13.0
 30
-182.3743686707646
 70
   192
  0
VERTEX
  5
FE2
  8
0
 10
-17.49999999999999
 20
-13.0
 30
-170.0
 70
   192
  0
VERTEX
  5
FE3
  8
0
 10
-12.37436867076457
 20
-13.0
 30
-157.6256313292354
 70
   192
  0
VERTEX
  5
FE4
  8
0
 10
0.0000000000000021
 20
-13.0
 30
-152.5
 70
   192
  0
VERTEX
  5
FE5
  8
0
 10
12.37436867076457
 20
-13.0
 30
-157.6256313292354
 70
   192
  0
VERTEX
  5
FE6
  8
0
 10
17.49999999999999
 20
-13.0
 30
-170.0
 70
   192
  0
VERTEX
  5
FE7
  8
0
 10
12.37436867076458
 20
-13.0
 30
-182.3743686707646
 70
   192
  0
VERTEX
  5
FE8
  8
0
 10
0.0
 20
0.0
 30
0.0
 70
   128
 71
    -7
 72
    54
 73
   -55
  0
VERTEX
  5
FE9
  8
0
 10
0.0
 20
0.0
 30
0.0
 70
   128
 71
     6
 72
    -7
 73
   -55
  0
VERTEX
  5
FEA
  8
0
 10
0.0
 20
0.0
 30
0.0
 70
   128
 71
    55
 72
   -56
 73
    -6
  0
VERTEX
  5
FEB
  8
0
 10
0.0
 20
0.0
 30
0.0
 70
   128
 71
    56
 72
   -57
 73
    -6
  0
VERTEX
  5
FEC
  8
0
 10
0.0
 20
0.0
 30
0.0
 70
   128
 71
    57
 72
   -25
 73
    -6
  0
VERTEX
  5
FED
  8
0
 10
0.0
 20
0.0
 30
0.0
 70
   128
 71
   -25
 72
     5
 73
    -6
  0
VERTEX
  5
FEE
  8
0
 10
0.0
 20
0.0
 30
0.0
 70
   128
 71
     7
 72
    -8
 73
   -54
  0
VERTEX
  5
FEF
  8
0
 10
0.0
 20
0.0
 30
0.0
 70
   128
 71
     8
 72
    -9
 73
   -54
  0
VERTEX
  5
FF0
  8
0
 10
0.0
 20
0.0
 30
0.0
 70
   128
 71
     9
 72
   -10
 73
   -54
  0
VERTEX
  5
FF1
  8
0
 10
0.0
 20
0.0
 30
0.0
 70
   128
 71
   -13
 72
    48
 73
   -49
  0
VERTEX
  5
FF2
  8
0
 10
0.0
 20
0.0
 30
0.0
 70
   128
 71
    12
 72
   -13
 73
   -49
  0
VERTEX
  5
FF3
  8
0
 10
0.0
 20
0.0
 30
0.0
 70
   128
 71
    49
 72
   -50
 73
   -12
  0
VERTEX
  5
FF4
  8
0
 10
0.0
 20
0.0
 30
0.0
 70
   128
 71
   -51
 72
    11
 73
   -12
  0
VERTEX
  5
FF5
  8
0
 10
0.0
 20
0.0
 30
0.0
 70
   128
 71
    50
 72
   -51
 73
   -12
  0
VERTEX
  5
FF6
  8
0
 10
0.0
 20
0.0
 30
0.0
 70
   128
 71
    51
 72
   -52
 73
   -11
  0
VERTEX
  5
FF7
  8
0
 10
0.0
 20
0.0
 30
0.0
 70
   128
 71
    52
 72
   -53
 73
   -11
  0
VERTEX
  5
FF8
  8
0
 10
0.0
 20
0.0
 30
0.0
 70
   128
 71
   -54
 72
    10
 73
   -11
  0
VERTEX
  5
FF9
  8
0
 10
0.0
 20
0.0
 30
0.0
 70
   128
 71
    53
 72
   -54
 73
   -11
  0
VERTEX
  5
FFA
  8
0
 10
0.0
 20
0.0
 30
0.0
 70
   128
 71
    13
 72
   -14
 73
   -48
  0
VERTEX
  5
FFB
  8
0
 10
0.0
 20
0.0
 30
0.0
 70
   128
 71
   -15
 72
    47
 73
   -48
  0
VERTEX
  5
FFC
  8
0
 10
0.0
 20
0.0
 30
0.0
 70
   128
 71
    14
 72
   -15
 73
   -48
  0
VERTEX
  5
FFD
  8
0
 10
0.0
 20
0.0
 30
0.0
 70
   128
 71
    15
 72
   -16
 73
   -47
  0
VERTEX
  5
FFE
  8
0
 10
0.0
 20
0.0
 30
0.0
 70
   128
 71
   -19
 72
    41
 73
   -42
  0
VERTEX
  5
FFF
  8
0
 10
0.0
 20
0.0
 30
0.0
 70
   128
 71
    18
 72
   -19
 73
   -42
  0
VERTEX
  5
1000
  8
0
 10
0.0
 20
0.0
 30
0.0
 70
   128
 71
    42
 72
   -43
 73
   -18
  0
VERTEX
  5
1001
  8
0
 10
0.0
 20
0.0
 30
0.0
 70
   128
 71
    43
 72
   -44
 73
   -18
  0
VERTEX
  5
1002
  8
0
 10
0.0
 20
0.0
 30
0.0
 70
   128
 71
   -44
 72
    17
 73
   -18
  0
VERTEX
  5
1003
  8
0
 10
0.0
 20
0.0
 30
0.0
 70
   128
 71
    44
 72
   -45
 73
   -17
  0
VERTEX
  5
1004
  8
0
 10
0.0
 20
0.0
 30
0.0
 70
   128
 71
    45
 72
   -46
 73
   -17
  0
VERTEX
  5
1005
  8
0
 10
0.0
 20
0.0
 30
0.0
 70
   128
 71
   -47
 72
    16
 73
   -17
  0
VERTEX
  5
1006
  8
0
 10
0.0
 20
0.0
 30
0.0
 70
   128
 71
    46
 72
   -47
 73
   -17
  0
VERTEX
  5
1007
  8
0
 10
0.0
 20
0.0
 30
0.0
 70
   128
 71
    19
 72
   -20
 73
   -41
  0
VERTEX
  5
1008
  8
0
 10
0.0
 20
0.0
 30
0.0
 70
   128
 71
    20
 72
   -21
 73
   -41
  0
VERTEX
  5
1009
  8
0
 10
0.0
 20
0.0
 30
0.0
 70
   128
 71
    21
 72
   -22
 73
   -41
  0
VERTEX
  5
100A
  8
0
 10
0.0
 20
0.0
 30
0.0
 70
   128
 71
    -5
 72
    25
 73
   -26
  0
VERTEX
  5
100B
  8
0
 10
0.0
 20
0.0
 30
0.0
 70
   128
 71
   -27
 72
    24
 73
    -1
  0
VERTEX
  5
100C
  8
0
 10
0.0
 20
0.0
 30
0.0
 70
   128
 71
     1
 72
    -2
 73
   -27
  0
VERTEX
  5
100D
  8
0
 10
0.0
 20
0.0
 30
0.0
 70
   128
 71
     2
 72
    -3
 73
   -27
  0
VERTEX
  5
100E
  8
0
 10
0.0
 20
0.0
 30
0.0
 70
   128
 71
     3
 72
    -4
 73
   -27
  0
VERTEX
  5
100F
  8
0
 10
0.0
 20
0.0
 30
0.0
 70
   128
 71
    -5
 72
    26
 73
   -27
  0
VERTEX
  5
1010
  8
0
 10
0.0
 20
0.0
 30
0.0
 70
   128
 71
     4
 72
    -5
 73
   -27
  0
VERTEX
  5
1011
  8
0
 10
0.0
 20
0.0
 30
0.0
 70
   128
 71
    27
 72
   -28
 73
   -24
  0
VERTEX
  5
1012
  8
0
 10
0.0
 20
0.0
 30
0.0
 70
   128
 71
   -28
 72
   -30
 73
   -24
  0
VERTEX
  5
1013
  8
0
 10
0.0
 20
0.0
 30
0.0
 70
   128
 71
    28
 72
    29
 73
   -30
  0
VERTEX
  5
1014
  8
0
 10
0.0
 20
0.0
 30
0.0
 70
   128
 71
    30
 72
   -31
 73
   -24
  0
VERTEX
  5
1015
  8
0
 10
0.0
 20
0.0
 30
0.0
 70
   128
 71
    31
 72
   -32
 73
   -24
  0
VERTEX
  5
1016
  8
0
 10
0.0
 20
0.0
 30
0.0
 70
   128
 71
   -23
 72
    58
 73
   -59
  0
VERTEX
  5
1017
  8
0
 10
0.0
 20
0.0
 30
0.0
 70
   128
 71
    59
 72
   -60
 73
   -23
  0
VERTEX
  5
1018
  8
0
 10
0.0
 20
0.0
 30
0.0
 70
   128
 71
   -60
 72
   -33
 73
   -23
  0
VERTEX
  5
1019
  8
0
 10
0.0
 20
0.0
 30
0.0
 70
   128
 71
    60
 72
   -61
 73
   -33
  0
VERTEX
  5
101A
  8
0
 10
0.0
 20
0.0
 30
0.0
 70
   128
 71
    61
 72
   -62
 73
   -33
  0
VERTEX
  5
101B
  8
0
 10
0.0
 20
0.0
 30
0.0
 70
   128
 71
   -63
 72
    32
 73
   -33
  0
VERTEX
  5
101C
  8
0
 10
0.0
 20
0.0
 30
0.0
 70
   128
 71
    62
 72
   -63
 73
   -33
  0
VERTEX
  5
101D
  8
0
 10
0.0
 20
0.0
 30
0.0
 70
   128
 71
    63
 72
   -64
 73
   -32
  0
VERTEX
  5
101E
  8
0
 10
0.0
 20
0.0
 30
0.0
 70
   128
 71
   -24
 72
   -32
 73
   -64
  0
VERTEX
  5
101F
  8
0
 10
0.0
 20
0.0
 30
0.0
 70
   128
 71
    64
 72
   -65
 73
   -24
  0
VERTEX
  5
1020
  8
0
 10
0.0
 20
0.0
 30
0.0
 70
   128
 71
    65
 72
   -58
 73
   -24
  0
VERTEX
  5
1021
  8
0
 10
0.0
 20
0.0
 30
0.0
 70
   128
 71
   -58
 72
    23
 73
   -24
  0
VERTEX
  5
1022
  8
0
 10
0.0
 20
0.0
 30
0.0
 70
   128
 71
    33
 72
   -34
 73
   -23
  0
VERTEX
  5
1023
  8
0
 10
0.0
 20
0.0
 30
0.0
 70
   128
 71
    34
 72
   -35
 73
   -23
  0
VERTEX
  5
1024
  8
0
 10
0.0
 20
0.0
 30
0.0
 70
   128
 71
    35
 72
   -36
 73
   -23
  0
VERTEX
  5
1025
  8
0
 10
0.0
 20
0.0
 30
0.0
 70
   128
 71
    36
 72
   -37
 73
   -23
  0
VERTEX
  5
1026
  8
0
 10
0.0
 20
0.0
 30
0.0
 70
   128
 71
    37
 72
   -38
 73
   -23
  0
VERTEX
  5
1027
  8
0
 10
0.0
 20
0.0
 30
0.0
 70
   128
 71
    39
 72
   -40
 73
   -23
  0
VERTEX
  5
1028
  8
0
 10
0.0
 20
0.0
 30
0.0
 70
   128
 71
    38
 72
   -39
 73
   -23
  0
VERTEX
  5
1029
  8
0
 10
0.0
 20
0.0
 30
0.0
 70
   128
 71
   -41
 72
    22
 73
   -23
  0
VERTEX
  5
102A
  8
0
 10
0.0
 20
0.0
 30
0.0
 70
   128
 71
    40
 72
   -41
 73
   -23
  0
SEQEND
  5
1B29
  8
0
  0
POLYLINE
  5
102B
  8
0
 66
     1
 10
0.0
 20
0.0
 30
0.0
 70
    64
 71
    18
 72
    16
  0
VERTEX
  5
102C
  8
0
 10
147.347183378551
 20
-126.851050329759
 30
44.6696010179641
 70
   192
  0
VERTEX
  5
102D
  8
0
 10
144.8815477559174
 20
-126.7910205359409
 30
55.40704697104236
 70
   192
  0
VERTEX
  5
102E
  8
0
 10
137.0216538085548
 20
-127.0155492357355
 30
63.04702166664529
 70
   192
  0
VERTEX
  5
102F
  8
0
 10
126.2055843600586
 20
-127.473898278917
 30
65.270344924495
 70
   192
  0
VERTEX
  5
1030
  8
0
 10
81.90259381327331
 20
-130.2105639360224
 30
36.98469790894502
 70
   192
  0
VERTEX
  5
1031
  8
0
 10
147.2635408440692
 20
-127.1280433865926
 30
-20.50337667653685
 70
   192
  0
VERTEX
  5
1032
  8
0
 10
147.2419210520292
 20
-127.2033557067599
 30
1.222204522085322
 70
   192
  0
VERTEX
  5
1033
  8
0
 10
94.2132596483116
 20
-129.977004058658
 30
-4.540650481848452
 70
   192
  0
VERTEX
  5
1034
  8
0
 10
104.1732636980192
 20
-128.996675115513
 30
-43.85578987187923
 70
   192
  0
VERTEX
  5
1035
  8
0
 10
118.802358392089
 20
-128.2836147103552
 30
-43.84373701535955
 70
   192
  0
VERTEX
  5
1036
  8
0
 10
132.080850891122
 20
-127.6674295883538
 30
-41.31552942673052
 70
   192
  0
VERTEX
  5
1037
  8
0
 10
142.913830321415
 20
-127.2304185863665
 30
-33.24911172419438
 70
   192
  0
VERTEX
  5
1038
  8
0
 10
73.28288704705027
 20
-129.8110479010489
 30
64.29441539169912
 70
   192
  0
VERTEX
  5
1039
  8
0
 10
47.2299610852792
 20
-130.7466990055866
 30
64.118773386855
 70
   192
  0
VERTEX
  5
103A
  8
0
 10
99.60502652237525
 20
-128.6956638660287
 30
64.69648508453419
 70
   192
  0
VERTEX
  5
103B
  8
0
 10
147.268754225613
 20
-127.1091818432958
 30
22.93480716421199
 70
   192
  0
VERTEX
  5
103C
  8
0
 10
90.21568899393645
 20
-129.662134656316
 30
-43.90188001002294
 70
   192
  0
VERTEX
  5
103D
  8
0
 10
76.08169790510568
 20
-130.3143317839654
 30
-43.99463187435625
 70
   192
  0
VERTEX
  5
103E
  8
0
 10
0.0
 20
0.0
 30
0.0
 70
   128
 71
     1
 72
     2
 73
     3
  0
VERTEX
  5
103F
  8
0
 10
0.0
 20
0.0
 30
0.0
 70
   128
 71
     1
 72
     3
 73
     4
  0
VERTEX
  5
1040
  8
0
 10
0.0
 20
0.0
 30
0.0
 70
   128
 71
     1
 72
     4
 73
     5
  0
VERTEX
  5
1041
  8
0
 10
0.0
 20
0.0
 30
0.0
 70
   128
 71
     6
 72
     7
 73
     8
  0
VERTEX
  5
1042
  8
0
 10
0.0
 20
0.0
 30
0.0
 70
   128
 71
     9
 72
    10
 73
    11
  0
VERTEX
  5
1043
  8
0
 10
0.0
 20
0.0
 30
0.0
 70
   128
 71
     9
 72
    11
 73
    12
  0
VERTEX
  5
1044
  8
0
 10
0.0
 20
0.0
 30
0.0
 70
   128
 71
    13
 72
    14
 73
     5
  0
VERTEX
  5
1045
  8
0
 10
0.0
 20
0.0
 30
0.0
 70
   128
 71
     5
 72
    15
 73
    13
  0
VERTEX
  5
1046
  8
0
 10
0.0
 20
0.0
 30
0.0
 70
   128
 71
     5
 72
     4
 73
    15
  0
VERTEX
  5
1047
  8
0
 10
0.0
 20
0.0
 30
0.0
 70
   128
 71
    16
 72
     1
 73
     5
  0
VERTEX
  5
1048
  8
0
 10
0.0
 20
0.0
 30
0.0
 70
   128
 71
    16
 72
     5
 73
     8
  0
VERTEX
  5
1049
  8
0
 10
0.0
 20
0.0
 30
0.0
 70
   128
 71
     8
 72
     7
 73
    16
  0
VERTEX
  5
104A
  8
0
 10
0.0
 20
0.0
 30
0.0
 70
   128
 71
     6
 72
     9
 73
    12
  0
VERTEX
  5
104B
  8
0
 10
0.0
 20
0.0
 30
0.0
 70
   128
 71
    17
 72
     9
 73
     6
  0
VERTEX
  5
104C
  8
0
 10
0.0
 20
0.0
 30
0.0
 70
   128
 71
    17
 72
     6
 73
     8
  0
VERTEX
  5
104D
  8
0
 10
0.0
 20
0.0
 30
0.0
 70
   128
 71
     8
 72
    18
 73
    17
  0
SEQEND
  5
1B2A
  8
0
  0
POLYLINE
  5
104E
  8
0
 66
     1
 10
0.0
 20
0.0
 30
0.0
 70
    64
 71
    34
 72
    36
  0
VERTEX
  5
104F
  8
0
 10
299.7374123858575
 20
0.0
 30
229.737412385857
 70
   192
  0
VERTEX
  5
1050
  8
0
 10
299.7374123858575
 20
0.0
 30
-223.0
 70
   192
  0
VERTEX
  5
1051
  8
0
 10
-299.7374123858575
 20
0.0
 30
-223.0
 70
   192
  0
VERTEX
  5
1052
  8
0
 10
-299.7374123858575
 20
0.0
 30
229.737412385857
 70
   192
  0
VERTEX
  5
1053
  8
0
 10
161.7749603156885
 20
0.0
 30
-113.3909963117728
 70
   192
  0
VERTEX
  5
1054
  8
0
 10
212.2098590611554
 20
0.0
 30
-107.3432631932571
 70
   192
  0
VERTEX
  5
1055
  8
0
 10
253.3441830617884
 20
0.0
 30
-80.70496842463692
 70
   192
  0
VERTEX
  5
1056
  8
0
 10
270.82268202207
 20
0.0
 30
-33.42068002137015
 70
   192
  0
VERTEX
  5
1057
  8
0
 10
270.82268202207
 20
0.0
 30
96.6201969288358
 70
   192
  0
VERTEX
  5
1058
  8
0
 10
267.8775388935264
 20
-0.0000000000000047
 30
122.6641297173624
 70
   192
  0
VERTEX
  5
1059
  8
0
 10
259.0421095078962
 20
-0.0000000000000056
 30
145.90423539057
 70
   192
  0
VERTEX
  5
105A
  8
0
 10
244.873951830496
 20
-0.0000000000000035
 30
164.873951830496
 70
   192
  0
VERTEX
  5
105B
  8
0
 10
225.9042353905701
 20
-0.0000000000000056
 30
179.0421095078961
 70
   192
  0
VERTEX
  5
105C
  8
0
 10
202.6641297173624
 20
-0.0000000000000047
 30
187.8775388935263
 70
   192
  0
VERTEX
  5
105D
  8
0
 10
176.620196928836
 20
0.0
 30
190.82268202207
 70
   192
  0
VERTEX
  5
105E
  8
0
 10
-176.620196928836
 20
0.0
 30
190.82268202207
 70
   192
  0
VERTEX
  5
105F
  8
0
 10
-202.6641297173624
 20
0.0
 30
187.8775388935263
 70
   192
  0
VERTEX
  5
1060
  8
0
 10
-225.9042353905701
 20
0.0
 30
179.0421095078961
 70
   192
  0
VERTEX
  5
1061
  8
0
 10
-244.873951830496
 20
0.0
 30
164.873951830496
 70
   192
  0
VERTEX
  5
1062
  8
0
 10
-259.0421095078962
 20
0.0
 30
145.90423539057
 70
   192
  0
VERTEX
  5
1063
  8
0
 10
-267.8775388935264
 20
0.0
 30
122.6641297173624
 70
   192
  0
VERTEX
  5
1064
  8
0
 10
-270.82268202207
 20
0.0
 30
96.62019692883591
 70
   192
  0
VERTEX
  5
1065
  8
0
 10
-270.82268202207
 20
0.0
 30
-33.4206800213702
 70
   192
  0
VERTEX
  5
1066
  8
0
 10
-253.3448338603799
 20
0.0
 30
-80.70413019016276
 70
   192
  0
VERTEX
  5
1067
  8
0
 10
-212.2108433823728
 20
0.0
 30
-107.3428999547901
 70
   192
  0
VERTEX
  5
1068
  8
0
 10
-161.7749603156885
 20
0.0
 30
-113.3909963117728
 70
   192
  0
VERTEX
  5
1069
  8
0
 10
0.0
 20
0.0
 30
-187.5
 70
   192
  0
VERTEX
  5
106A
  8
0
 10
12.37436867076458
 20
0.0
 30
-182.3743686707646
 70
   192
  0
VERTEX
  5
106B
  8
0
 10
17.49999999999999
 20
0.0
 30
-170.0
 70
   192
  0
VERTEX
  5
106C
  8
0
 10
12.37436867076458
 20
0.0
 30
-157.6256313292354
 70
   192
  0
VERTEX
  5
106D
  8
0
 10
0.0
 20
0.0
 30
-152.5
 70
   192
  0
VERTEX
  5
106E
  8
0
 10
-12.37436867076458
 20
0.0
 30
-157.6256313292354
 70
   192
  0
VERTEX
  5
106F
  8
0
 10
-17.49999999999999
 20
0.0
 30
-170.0
 70
   192
  0
VERTEX
  5
1070
  8
0
 10
-12.37436867076457
 20
0.0
 30
-182.3743686707646
 70
   192
  0
VERTEX
  5
1071
  8
0
 10
0.0
 20
0.0
 30
0.0
 70
   128
 71
    -2
 72
     5
 73
    -6
  0
VERTEX
  5
1072
  8
0
 10
0.0
 20
0.0
 30
0.0
 70
   128
 71
     6
 72
    -7
 73
    -2
  0
VERTEX
  5
1073
  8
0
 10
0.0
 20
0.0
 30
0.0
 70
   128
 71
     7
 72
    -8
 73
    -2
  0
VERTEX
  5
1074
  8
0
 10
0.0
 20
0.0
 30
0.0
 70
   128
 71
    -9
 72
     1
 73
    -2
  0
VERTEX
  5
1075
  8
0
 10
0.0
 20
0.0
 30
0.0
 70
   128
 71
     8
 72
    -9
 73
    -2
  0
VERTEX
  5
1076
  8
0
 10
0.0
 20
0.0
 30
0.0
 70
   128
 71
     9
 72
   -10
 73
    -1
  0
VERTEX
  5
1077
  8
0
 10
0.0
 20
0.0
 30
0.0
 70
   128
 71
    10
 72
   -11
 73
    -1
  0
VERTEX
  5
1078
  8
0
 10
0.0
 20
0.0
 30
0.0
 70
   128
 71
    11
 72
   -12
 73
    -1
  0
VERTEX
  5
1079
  8
0
 10
0.0
 20
0.0
 30
0.0
 70
   128
 71
    12
 72
   -13
 73
    -1
  0
VERTEX
  5
107A
  8
0
 10
0.0
 20
0.0
 30
0.0
 70
   128
 71
    13
 72
   -14
 73
    -1
  0
VERTEX
  5
107B
  8
0
 10
0.0
 20
0.0
 30
0.0
 70
   128
 71
    14
 72
   -15
 73
    -1
  0
VERTEX
  5
107C
  8
0
 10
0.0
 20
0.0
 30
0.0
 70
   128
 71
   -16
 72
     4
 73
    -1
  0
VERTEX
  5
107D
  8
0
 10
0.0
 20
0.0
 30
0.0
 70
   128
 71
    15
 72
   -16
 73
    -1
  0
VERTEX
  5
107E
  8
0
 10
0.0
 20
0.0
 30
0.0
 70
   128
 71
    16
 72
   -17
 73
    -4
  0
VERTEX
  5
107F
  8
0
 10
0.0
 20
0.0
 30
0.0
 70
   128
 71
    17
 72
   -18
 73
    -4
  0
VERTEX
  5
1080
  8
0
 10
0.0
 20
0.0
 30
0.0
 70
   128
 71
    18
 72
   -19
 73
    -4
  0
VERTEX
  5
1081
  8
0
 10
0.0
 20
0.0
 30
0.0
 70
   128
 71
    19
 72
   -20
 73
    -4
  0
VERTEX
  5
1082
  8
0
 10
0.0
 20
0.0
 30
0.0
 70
   128
 71
    20
 72
   -21
 73
    -4
  0
VERTEX
  5
1083
  8
0
 10
0.0
 20
0.0
 30
0.0
 70
   128
 71
    21
 72
   -22
 73
    -4
  0
VERTEX
  5
1084
  8
0
 10
0.0
 20
0.0
 30
0.0
 70
   128
 71
   -23
 72
     3
 73
    -4
  0
VERTEX
  5
1085
  8
0
 10
0.0
 20
0.0
 30
0.0
 70
   128
 71
    22
 72
   -23
 73
    -4
  0
VERTEX
  5
1086
  8
0
 10
0.0
 20
0.0
 30
0.0
 70
   128
 71
    23
 72
   -24
 73
    -3
  0
VERTEX
  5
1087
  8
0
 10
0.0
 20
0.0
 30
0.0
 70
   128
 71
    24
 72
   -25
 73
    -3
  0
VERTEX
  5
1088
  8
0
 10
0.0
 20
0.0
 30
0.0
 70
   128
 71
    25
 72
   -26
 73
    -3
  0
VERTEX
  5
1089
  8
0
 10
0.0
 20
0.0
 30
0.0
 70
   128
 71
    -2
 72
    27
 73
   -28
  0
VERTEX
  5
108A
  8
0
 10
0.0
 20
0.0
 30
0.0
 70
   128
 71
   -29
 72
    -5
 73
    -2
  0
VERTEX
  5
108B
  8
0
 10
0.0
 20
0.0
 30
0.0
 70
   128
 71
    28
 72
   -29
 73
    -2
  0
VERTEX
  5
108C
  8
0
 10
0.0
 20
0.0
 30
0.0
 70
   128
 71
    29
 72
   -30
 73
    -5
  0
VERTEX
  5
108D
  8
0
 10
0.0
 20
0.0
 30
0.0
 70
   128
 71
    30
 72
   -31
 73
    -5
  0
VERTEX
  5
108E
  8
0
 10
0.0
 20
0.0
 30
0.0
 70
   128
 71
   -31
 72
    26
 73
    -5
  0
VERTEX
  5
108F
  8
0
 10
0.0
 20
0.0
 30
0.0
 70
   128
 71
    31
 72
   -32
 73
   -26
  0
VERTEX
  5
1090
  8
0
 10
0.0
 20
0.0
 30
0.0
 70
   128
 71
    32
 72
   -33
 73
   -26
  0
VERTEX
  5
1091
  8
0
 10
0.0
 20
0.0
 30
0.0
 70
   128
 71
   -34
 72
    -3
 73
   -26
  0
VERTEX
  5
1092
  8
0
 10
0.0
 20
0.0
 30
0.0
 70
   128
 71
    33
 72
   -34
 73
   -26
  0
VERTEX
  5
1093
  8
0
 10
0.0
 20
0.0
 30
0.0
 70
   128
 71
    34
 72
   -27
 73
    -3
  0
VERTEX
  5
1094
  8
0
 10
0.0
 20
0.0
 30
0.0
 70
   128
 71
   -27
 72
     2
 73
    -3
  0
SEQEND
  5
1B2B
  8
0
  0
POLYLINE
  5
1095
  8
0
 66
     1
 10
0.0
 20
0.0
 30
0.0
 70
    64
 71
     6
 72
     4
  0
VERTEX
  5
1096
  8
0
 10
-184.9554779504155
 20
-92.893204514607
 30
-20.0487009202221
 70
   192
  0
VERTEX
  5
1097
  8
0
 10
-184.9028444500551
 20
-92.96837294323493
 30
1.206292880650637
 70
   192
  0
VERTEX
  5
1098
  8
0
 10
-184.9689505287335
 20
-92.87396367873677
 30
22.46018881766667
 70
   192
  0
VERTEX
  5
1099
  8
0
 10
-185.1494305768426
 20
-92.61621145777336
 30
43.71302725516811
 70
   192
  0
VERTEX
  5
109A
  8
0
 10
-238.05660025051
 20
-17.0569425459581
 30
96.62019692883591
 70
   192
  0
VERTEX
  5
109B
  8
0
 10
-238.0566002505102
 20
-17.05694254595825
 30
-33.42068002137013
 70
   192
  0
VERTEX
  5
109C
  8
0
 10
0.0
 20
0.0
 30
0.0
 70
   128
 71
     2
 72
     1
 73
    -6
  0
VERTEX
  5
109D
  8
0
 10
0.0
 20
0.0
 30
0.0
 70
   128
 71
    -6
 72
     3
 73
    -2
  0
VERTEX
  5
109E
  8
0
 10
0.0
 20
0.0
 30
0.0
 70
   128
 71
     6
 72
     5
 73
    -4
  0
VERTEX
  5
109F
  8
0
 10
0.0
 20
0.0
 30
0.0
 70
   128
 71
    -6
 72
     4
 73
    -3
  0
SEQEND
  5
1B2C
  8
0
  0
POLYLINE
  5
10A0
  8
0
 66
     1
 10
0.0
 20
0.0
 30
0.0
 70
    64
 71
    14
 72
    14
  0
VERTEX
  5
10A1
  8
0
 10
115.7091153400614
 20
-74.0523629041637
 30
-91.9425704347813
 70
   192
  0
VERTEX
  5
10A2
  8
0
 10
38.59476475732117
 20
-77.52343137188605
 30
-91.33052741203538
 70
   192
  0
VERTEX
  5
10A3
  8
0
 10
-38.59234314002926
 20
-77.52351774119853
 30
-91.33051218279536
 70
   192
  0
VERTEX
  5
10A4
  8
0
 10
-115.7091153400613
 20
-74.05236290416377
 30
-91.94257043478123
 70
   192
  0
VERTEX
  5
10A5
  8
0
 10
-161.7749603156885
 20
-8.26351822333069
 30
-103.5429187816506
 70
   192
  0
VERTEX
  5
10A6
  8
0
 10
161.7749603156885
 20
-8.263518223330664
 30
-103.5429187816507
 70
   192
  0
VERTEX
  5
10A7
  8
0
 10
0.0000000000000015
 20
-25.64537506399618
 30
-100.4780284458294
 70
   192
  0
VERTEX
  5
10A8
  8
0
 10
-8.838834764831843
 20
-29.25091897264854
 30
-99.84227377460495
 70
   192
  0
VERTEX
  5
10A9
  8
0
 10
-12.5
 20
-37.95547197664878
 30
-98.30742622499278
 70
   192
  0
VERTEX
  5
10AA
  8
0
 10
-8.838834764831846
 20
-46.66002498064901
 30
-96.77257867538061
 70
   192
  0
VERTEX
  5
10AB
  8
0
 10
0.0000000000000004
 20
-50.26556888930138
 30
-96.13682400415615
 70
   192
  0
VERTEX
  5
10AC
  8
0
 10
8.838834764831844
 20
-46.66002498064901
 30
-96.77257867538061
 70
   192
  0
VERTEX
  5
10AD
  8
0
 10
12.5
 20
-37.95547197664878
 30
-98.30742622499278
 70
   192
  0
VERTEX
  5
10AE
  8
0
 10
8.838834764831846
 20
-29.25091897264854
 30
-99.84227377460495
 70
   192
  0
VERTEX
  5
10AF
  8
0
 10
0.0
 20
0.0
 30
0.0
 70
   128
 71
     2
 72
     1
 73
    -6
  0
VERTEX
  5
10B0
  8
0
 10
0.0
 20
0.0
 30
0.0
 70
   128
 71
    -7
 72
     6
 73
    -5
  0
VERTEX
  5
10B1
  8
0
 10
0.0
 20
0.0
 30
0.0
 70
   128
 71
    -5
 72
     8
 73
    -7
  0
VERTEX
  5
10B2
  8
0
 10
0.0
 20
0.0
 30
0.0
 70
   128
 71
    -5
 72
    -3
 73
    -9
  0
VERTEX
  5
10B3
  8
0
 10
0.0
 20
0.0
 30
0.0
 70
   128
 71
    -5
 72
     9
 73
    -8
  0
VERTEX
  5
10B4
  8
0
 10
0.0
 20
0.0
 30
0.0
 70
   128
 71
    -3
 72
    10
 73
    -9
  0
VERTEX
  5
10B5
  8
0
 10
0.0
 20
0.0
 30
0.0
 70
   128
 71
    -3
 72
    11
 73
   -10
  0
VERTEX
  5
10B6
  8
0
 10
0.0
 20
0.0
 30
0.0
 70
   128
 71
     3
 72
    -2
 73
   -12
  0
VERTEX
  5
10B7
  8
0
 10
0.0
 20
0.0
 30
0.0
 70
   128
 71
    -3
 72
    12
 73
   -11
  0
VERTEX
  5
10B8
  8
0
 10
0.0
 20
0.0
 30
0.0
 70
   128
 71
    -2
 72
    13
 73
   -12
  0
VERTEX
  5
10B9
  8
0
 10
0.0
 20
0.0
 30
0.0
 70
   128
 71
    -2
 72
    -6
 73
   -14
  0
VERTEX
  5
10BA
  8
0
 10
0.0
 20
0.0
 30
0.0
 70
   128
 71
    -2
 72
    14
 73
   -13
  0
VERTEX
  5
10BB
  8
0
 10
0.0
 20
0.0
 30
0.0
 70
   128
 71
    -6
 72
     7
 73
   -14
  0
VERTEX
  5
10BC
  8
0
 10
0.0
 20
0.0
 30
0.0
 70
   128
 71
     5
 72
     4
 73
    -3
  0
SEQEND
  5
1B2D
  8
0
  0
POLYLINE
  5
10BD
  8
0
 66
     1
 10
0.0
 20
0.0
 30
0.0
 70
    64
 71
     6
 72
     4
  0
VERTEX
  5
10BE
  8
0
 10
185.1494305768425
 20
-92.6162114577732
 30
43.7130272551682
 70
   192
  0
VERTEX
  5
10BF
  8
0
 10
184.9689505287336
 20
-92.87396367873674
 30
22.46018881766664
 70
   192
  0
VERTEX
  5
10C0
  8
0
 10
184.9028444500553
 20
-92.96837294323484
 30
1.206292880650599
 70
   192
  0
VERTEX
  5
10C1
  8
0
 10
184.955477950416
 20
-92.8932045146069
 30
-20.04870092022216
 70
   192
  0
VERTEX
  5
10C2
  8
0
 10
238.0566002505105
 20
-17.0569425459581
 30
-33.4206800213702
 70
   192
  0
VERTEX
  5
10C3
  8
0
 10
238.0566002505104
 20
-17.0569425459581
 30
96.6201969288359
 70
   192
  0
VERTEX
  5
10C4
  8
0
 10
0.0
 20
0.0
 30
0.0
 70
   128
 71
     2
 72
     1
 73
    -6
  0
VERTEX
  5
10C5
  8
0
 10
0.0
 20
0.0
 30
0.0
 70
   128
 71
    -2
 72
     6
 73
    -5
  0
VERTEX
  5
10C6
  8
0
 10
0.0
 20
0.0
 30
0.0
 70
   128
 71
    -5
 72
     3
 73
    -2
  0
VERTEX
  5
10C7
  8
0
 10
0.0
 20
0.0
 30
0.0
 70
   128
 71
     5
 72
     4
 73
    -3
  0
SEQEND
  5
1B2E
  8
0
  0
POLYLINE
  5
10C8
  8
0
 66
     1
 10
0.0
 20
0.0
 30
0.0
 70
    64
 71
     6
 72
     4
  0
VERTEX
  5
10C9
  8
0
 10
-123.2769044260092
 20
-93.2390594069311
 30
104.7133077476836
 70
   192
  0
VERTEX
  5
10CA
  8
0
 10
-41.15518368058704
 20
-96.6402663371067
 30
102.3317570161636
 70
   192
  0
VERTEX
  5
10CB
  8
0
 10
41.08919851626071
 20
-96.64225365102953
 30
102.3303654839741
 70
   192
  0
VERTEX
  5
10CC
  8
0
 10
123.2769044260095
 20
-93.23905940693123
 30
104.7133077476837
 70
   192
  0
VERTEX
  5
10CD
  8
0
 10
176.620196928836
 20
-17.0569425459581
 30
158.05660025051
 70
   192
  0
VERTEX
  5
10CE
  8
0
 10
-176.6201969288358
 20
-17.05694254595788
 30
158.0566002505103
 70
   192
  0
VERTEX
  5
10CF
  8
0
 10
0.0
 20
0.0
 30
0.0
 70
   128
 71
     2
 72
     1
 73
    -6
  0
VERTEX
  5
10D0
  8
0
 10
0.0
 20
0.0
 30
0.0
 70
   128
 71
     6
 72
    -5
 73
    -3
  0
VERTEX
  5
10D1
  8
0
 10
0.0
 20
0.0
 30
0.0
 70
   128
 71
    -6
 72
     3
 73
    -2
  0
VERTEX
  5
10D2
  8
0
 10
0.0
 20
0.0
 30
0.0
 70
   128
 71
     5
 72
     4
 73
    -3
  0
SEQEND
  5
1B2F
  8
0
  0
POLYLINE
  5
10D3
  8
0
 66
     1
 10
0.0
 20
0.0
 30
0.0
 70
    64
 71
    21
 72
    19
  0
VERTEX
  5
10D4
  8
0
 10
-38.30482060947254
 20
-119.8949318039966
 30
0.0
 70
   192
  0
VERTEX
  5
10D5
  8
0
 10
-146.5617613043819
 20
-114.2214259502005
 30
0.0
 70
   192
  0
VERTEX
  5
10D6
  8
0
 10
-146.5764299956077
 20
-114.1810418251268
 30
14.83481082802226
 70
   192
  0
VERTEX
  5
10D7
  8
0
 10
-146.6209342703425
 20
-114.0623114771233
 30
29.66122583285424
 70
   192
  0
VERTEX
  5
10D8
  8
0
 10
-146.6960783752164
 20
-113.8688663779496
 30
44.47221278119665
 70
   192
  0
VERTEX
  5
10D9
  8
0
 10
-125.6012535800166
 20
-114.4917143271074
 30
64.9578002882031
 70
   192
  0
VERTEX
  5
10DA
  8
0
 10
-27.08559840509225
 20
-119.8949318039966
 30
27.08559840509226
 70
   192
  0
VERTEX
  5
10DB
  8
0
 10
-136.3586777049896
 20
-114.035016892699
 30
62.78477957270678
 70
   192
  0
VERTEX
  5
10DC
  8
0
 10
-144.2189290969091
 20
-113.8092224499245
 30
55.21432116886281
 70
   192
  0
VERTEX
  5
10DD
  8
0
 10
27.08559840509227
 20
-119.8949318039966
 30
27.08559840509226
 70
   192
  0
VERTEX
  5
10DE
  8
0
 10
0.0000000000000147
 20
-119.8949318039966
 30
38.30482060947255
 70
   192
  0
VERTEX
  5
10DF
  8
0
 10
42.54491918353609
 20
-117.8945598982481
 30
63.54754798606115
 70
   192
  0
VERTEX
  5
10E0
  8
0
 10
146.6960783752166
 20
-113.8688663779496
 30
44.4722127811967
 70
   192
  0
VERTEX
  5
10E1
  8
0
 10
38.30482060947253
 20
-119.8949318039965
 30
0.0000000000000047
 70
   192
  0
VERTEX
  5
10E2
  8
0
 10
144.2406836655021
 20
-113.808911330769
 30
55.17409869448533
 70
   192
  0
VERTEX
  5
10E3
  8
0
 10
136.3888625278507
 20
-114.0339060036531
 30
62.76992121839054
 70
   192
  0
VERTEX
  5
10E4
  8
0
 10
125.6012535800168
 20
-114.4917143271074
 30
64.9578002882031
 70
   192
  0
VERTEX
  5
10E5
  8
0
 10
146.6209342702936
 20
-114.0623114771254
 30
29.66122583287371
 70
   192
  0
VERTEX
  5
10E6
  8
0
 10
146.5764299955149
 20
-114.1810418251314
 30
14.83481082803824
 70
   192
  0
VERTEX
  5
10E7
  8
0
 10
146.561761304382
 20
-114.2214259502004
 30
0.0000000000000179
 70
   192
  0
VERTEX
  5
10E8
  8
0
 10
-42.6124997447539
 20
-117.8925742496069
 30
63.54787233129468
 70
   192
  0
VERTEX
  5
10E9
  8
0
 10
0.0
 20
0.0
 30
0.0
 70
   128
 71
     1
 72
     2
 73
     3
  0
VERTEX
  5
10EA
  8
0
 10
0.0
 20
0.0
 30
0.0
 70
   128
 71
     3
 72
     4
 73
     1
  0
VERTEX
  5
10EB
  8
0
 10
0.0
 20
0.0
 30
0.0
 70
   128
 71
     4
 72
     5
 73
     1
  0
VERTEX
  5
10EC
  8
0
 10
0.0
 20
0.0
 30
0.0
 70
   128
 71
     6
 72
     7
 73
     1
  0
VERTEX
  5
10ED
  8
0
 10
0.0
 20
0.0
 30
0.0
 70
   128
 71
     8
 72
     6
 73
     1
  0
VERTEX
  5
10EE
  8
0
 10
0.0
 20
0.0
 30
0.0
 70
   128
 71
     9
 72
     8
 73
     1
  0
VERTEX
  5
10EF
  8
0
 10
0.0
 20
0.0
 30
0.0
 70
   128
 71
     5
 72
     9
 73
     1
  0
VERTEX
  5
10F0
  8
0
 10
0.0
 20
0.0
 30
0.0
 70
   128
 71
    10
 72
    11
 73
    12
  0
VERTEX
  5
10F1
  8
0
 10
0.0
 20
0.0
 30
0.0
 70
   128
 71
    13
 72
    14
 73
    10
  0
VERTEX
  5
10F2
  8
0
 10
0.0
 20
0.0
 30
0.0
 70
   128
 71
    15
 72
    13
 73
    10
  0
VERTEX
  5
10F3
  8
0
 10
0.0
 20
0.0
 30
0.0
 70
   128
 71
    16
 72
    15
 73
    10
  0
VERTEX
  5
10F4
  8
0
 10
0.0
 20
0.0
 30
0.0
 70
   128
 71
    17
 72
    16
 73
    10
  0
VERTEX
  5
10F5
  8
0
 10
0.0
 20
0.0
 30
0.0
 70
   128
 71
    13
 72
    18
 73
    14
  0
VERTEX
  5
10F6
  8
0
 10
0.0
 20
0.0
 30
0.0
 70
   128
 71
    18
 72
    19
 73
    14
  0
VERTEX
  5
10F7
  8
0
 10
0.0
 20
0.0
 30
0.0
 70
   128
 71
    19
 72
    20
 73
    14
  0
VERTEX
  5
10F8
  8
0
 10
0.0
 20
0.0
 30
0.0
 70
   128
 71
    21
 72
     7
 73
     6
  0
VERTEX
  5
10F9
  8
0
 10
0.0
 20
0.0
 30
0.0
 70
   128
 71
    11
 72
     7
 73
    21
  0
VERTEX
  5
10FA
  8
0
 10
0.0
 20
0.0
 30
0.0
 70
   128
 71
    12
 72
    11
 73
    21
  0
VERTEX
  5
10FB
  8
0
 10
0.0
 20
0.0
 30
0.0
 70
   128
 71
    17
 72
    10
 73
    12
  0
SEQEND
  5
1B30
  8
0
  0
POLYLINE
  5
10FC
  8
0
 66
     1
 10
0.0
 20
0.0
 30
0.0
 70
    64
 71
     8
 72
     6
  0
VERTEX
  5
10FD
  8
0
 10
172.7534607001897
 20
-91.96342522357644
 30
-57.86580920750205
 70
   192
  0
VERTEX
  5
10FE
  8
0
 10
184.955477950416
 20
-92.8932045146069
 30
-20.04870092022216
 70
   192
  0
VERTEX
  5
10FF
  8
0
 10
238.0566002505104
 20
-17.05694254595806
 30
-33.42068002137022
 70
   192
  0
VERTEX
  5
1100
  8
0
 10
230.7421415342379
 20
-13.97117104845953
 30
-66.75069571516562
 70
   192
  0
VERTEX
  5
1101
  8
0
 10
146.4460647683331
 20
-84.56420670583569
 30
-82.76822732562592
 70
   192
  0
VERTEX
  5
1102
  8
0
 10
204.2799954285588
 20
-10.14136238349862
 30
-93.26761416666758
 70
   192
  0
VERTEX
  5
1103
  8
0
 10
161.7749603156885
 20
-8.26351822333069
 30
-103.5429187816506
 70
   192
  0
VERTEX
  5
1104
  8
0
 10
115.7091153400613
 20
-74.05236290416364
 30
-91.9425704347812
 70
   192
  0
VERTEX
  5
1105
  8
0
 10
0.0
 20
0.0
 30
0.0
 70
   128
 71
     1
 72
     2
 73
     3
  0
VERTEX
  5
1106
  8
0
 10
0.0
 20
0.0
 30
0.0
 70
   128
 71
     1
 72
     3
 73
     4
  0
VERTEX
  5
1107
  8
0
 10
0.0
 20
0.0
 30
0.0
 70
   128
 71
     5
 72
     1
 73
     4
  0
VERTEX
  5
1108
  8
0
 10
0.0
 20
0.0
 30
0.0
 70
   128
 71
     4
 72
     6
 73
     7
  0
VERTEX
  5
1109
  8
0
 10
0.0
 20
0.0
 30
0.0
 70
   128
 71
     5
 72
     4
 73
     7
  0
VERTEX
  5
110A
  8
0
 10
0.0
 20
0.0
 30
0.0
 70
   128
 71
     7
 72
     8
 73
     5
  0
SEQEND
  5
1B31
  8
0
  0
POLYLINE
  5
110B
  8
0
 66
     1
 10
0.0
 20
0.0
 30
0.0
 70
    64
 71
    11
 72
     9
  0
VERTEX
  5
110C
  8
0
 10
123.2769044260095
 20
-93.23905940693123
 30
104.7133077476837
 70
   192
  0
VERTEX
  5
110D
  8
0
 10
176.620196928836
 20
-17.05694254595824
 30
158.0566002505102
 70
   192
  0
VERTEX
  5
110E
  8
0
 10
195.6356107803052
 20
-14.21120413320864
 30
158.1195009640912
 70
   192
  0
VERTEX
  5
110F
  8
0
 10
211.9977910801405
 20
-12.44473503243318
 30
153.5996590069901
 70
   192
  0
VERTEX
  5
1110
  8
0
 10
224.7761449824475
 20
-11.85472828702726
 30
144.7761449824474
 70
   192
  0
VERTEX
  5
1111
  8
0
 10
150.7170773416741
 20
-98.43093232914006
 30
93.96408512152144
 70
   192
  0
VERTEX
  5
1112
  8
0
 10
233.5996298154496
 20
-12.44472432445761
 30
131.9978510367031
 70
   192
  0
VERTEX
  5
1113
  8
0
 10
173.8239330716583
 20
-98.25937548757254
 30
71.33193619499842
 70
   192
  0
VERTEX
  5
1114
  8
0
 10
238.1194922475486
 20
-14.21120037752897
 30
115.635690024725
 70
   192
  0
VERTEX
  5
1115
  8
0
 10
238.0566002505105
 20
-17.0569425459581
 30
96.6201969288358
 70
   192
  0
VERTEX
  5
1116
  8
0
 10
185.1494305768427
 20
-92.61621145777329
 30
43.71302725516816
 70
   192
  0
VERTEX
  5
1117
  8
0
 10
0.0
 20
0.0
 30
0.0
 70
   128
 71
     1
 72
     2
 73
     3
  0
VERTEX
  5
1118
  8
0
 10
0.0
 20
0.0
 30
0.0
 70
   128
 71
     4
 72
     5
 73
     6
  0
VERTEX
  5
1119
  8
0
 10
0.0
 20
0.0
 30
0.0
 70
   128
 71
     4
 72
     6
 73
     3
  0
VERTEX
  5
111A
  8
0
 10
0.0
 20
0.0
 30
0.0
 70
   128
 71
     6
 72
     1
 73
     3
  0
VERTEX
  5
111B
  8
0
 10
0.0
 20
0.0
 30
0.0
 70
   128
 71
     7
 72
     8
 73
     6
  0
VERTEX
  5
111C
  8
0
 10
0.0
 20
0.0
 30
0.0
 70
   128
 71
     5
 72
     7
 73
     6
  0
VERTEX
  5
111D
  8
0
 10
0.0
 20
0.0
 30
0.0
 70
   128
 71
     9
 72
    10
 73
     7
  0
VERTEX
  5
111E
  8
0
 10
0.0
 20
0.0
 30
0.0
 70
   128
 71
    11
 72
     8
 73
     7
  0
VERTEX
  5
111F
  8
0
 10
0.0
 20
0.0
 30
0.0
 70
   128
 71
    10
 72
    11
 73
     7
  0
SEQEND
  5
1B32
  8
0
  0
POLYLINE
  5
1120
  8
0
 66
     1
 10
0.0
 20
0.0
 30
0.0
 70
    64
 71
     8
 72
     6
  0
VERTEX
  5
1121
  8
0
 10
-146.4761322272525
 20
-84.57375283303995
 30
-82.75131861043928
 70
   192
  0
VERTEX
  5
1122
  8
0
 10
-115.7091153400613
 20
-74.05236290416377
 30
-91.94257043478123
 70
   192
  0
VERTEX
  5
1123
  8
0
 10
-161.7749603156885
 20
-8.2635182233307
 30
-103.5429187816507
 70
   192
  0
VERTEX
  5
1124
  8
0
 10
-204.2787791137975
 20
-10.14110895545635
 30
-93.26811884925158
 70
   192
  0
VERTEX
  5
1125
  8
0
 10
-172.8060568342464
 20
-91.97516694638261
 30
-57.78384750119157
 70
   192
  0
VERTEX
  5
1126
  8
0
 10
-230.7417154277986
 20
-13.97118456496204
 30
-66.75166319745159
 70
   192
  0
VERTEX
  5
1127
  8
0
 10
-184.9554779504158
 20
-92.8932045146072
 30
-20.04870092022206
 70
   192
  0
VERTEX
  5
1128
  8
0
 10
-238.05660025051
 20
-17.0569425459581
 30
-33.4206800213702
 70
   192
  0
VERTEX
  5
1129
  8
0
 10
0.0
 20
0.0
 30
0.0
 70
   128
 71
     1
 72
     2
 73
     3
  0
VERTEX
  5
112A
  8
0
 10
0.0
 20
0.0
 30
0.0
 70
   128
 71
     4
 72
     1
 73
     3
  0
VERTEX
  5
112B
  8
0
 10
0.0
 20
0.0
 30
0.0
 70
   128
 71
     5
 72
     1
 73
     4
  0
VERTEX
  5
112C
  8
0
 10
0.0
 20
0.0
 30
0.0
 70
   128
 71
     6
 72
     5
 73
     4
  0
VERTEX
  5
112D
  8
0
 10
0.0
 20
0.0
 30
0.0
 70
   128
 71
     7
 72
     5
 73
     6
  0
VERTEX
  5
112E
  8
0
 10
0.0
 20
0.0
 30
0.0
 70
   128
 71
     8
 72
     7
 73
     6
  0
SEQEND
  5
1B33
  8
0
  0
POLYLINE
  5
112F
  8
0
 66
     1
 10
0.0
 20
0.0
 30
0.0
 70
    64
 71
    11
 72
     9
  0
VERTEX
  5
1130
  8
0
 10
-185.1494305768426
 20
-92.61621145777336
 30
43.71302725516811
 70
   192
  0
VERTEX
  5
1131
  8
0
 10
-238.0566002505103
 20
-17.05694254595825
 30
96.62019692883581
 70
   192
  0
VERTEX
  5
1132
  8
0
 10
-238.1195009643066
 20
-14.21120413306003
 30
115.6356107799419
 70
   192
  0
VERTEX
  5
1133
  8
0
 10
-233.5996590074145
 20
-12.44473503288478
 30
131.9977910784704
 70
   192
  0
VERTEX
  5
1134
  8
0
 10
-224.7761449824475
 20
-11.85472828702724
 30
144.7761449824476
 70
   192
  0
VERTEX
  5
1135
  8
0
 10
-173.7474267177527
 20
-98.27321443267165
 30
71.44637988794607
 70
   192
  0
VERTEX
  5
1136
  8
0
 10
-195.6356900213754
 20
-14.2112003776363
 30
158.1194922482535
 70
   192
  0
VERTEX
  5
1137
  8
0
 10
-176.620196928836
 20
-17.0569425459581
 30
158.0566002505105
 70
   192
  0
VERTEX
  5
1138
  8
0
 10
-150.6347161714222
 20
-98.42196228162159
 30
94.01617253282477
 70
   192
  0
VERTEX
  5
1139
  8
0
 10
-211.9978510390675
 20
-12.44472432406403
 30
153.5996298145825
 70
   192
  0
VERTEX
  5
113A
  8
0
 10
-123.2769044260092
 20
-93.23905940693112
 30
104.7133077476837
 70
   192
  0
VERTEX
  5
113B
  8
0
 10
0.0
 20
0.0
 30
0.0
 70
   128
 71
     1
 72
     2
 73
     3
  0
VERTEX
  5
113C
  8
0
 10
0.0
 20
0.0
 30
0.0
 70
   128
 71
     4
 72
     5
 73
     6
  0
VERTEX
  5
113D
  8
0
 10
0.0
 20
0.0
 30
0.0
 70
   128
 71
     4
 72
     6
 73
     3
  0
VERTEX
  5
113E
  8
0
 10
0.0
 20
0.0
 30
0.0
 70
   128
 71
     6
 72
     1
 73
     3
  0
VERTEX
  5
113F
  8
0
 10
0.0
 20
0.0
 30
0.0
 70
   128
 71
     7
 72
     8
 73
     9
  0
VERTEX
  5
1140
  8
0
 10
0.0
 20
0.0
 30
0.0
 70
   128
 71
     5
 72
    10
 73
     7
  0
VERTEX
  5
1141
  8
0
 10
0.0
 20
0.0
 30
0.0
 70
   128
 71
     6
 72
     5
 73
     7
  0
VERTEX
  5
1142
  8
0
 10
0.0
 20
0.0
 30
0.0
 70
   128
 71
     9
 72
     6
 73
     7
  0
VERTEX
  5
1143
  8
0
 10
0.0
 20
0.0
 30
0.0
 70
   128
 71
     8
 72
    11
 73
     9
  0
SEQEND
  5
1B34
  8
0
  0
POLYLINE
  5
1144
  8
0
 66
     1
 10
0.0
 20
0.0
 30
0.0
 70
    64
 71
    12
 72
    10
  0
VERTEX
  5
1145
  8
0
 10
115.7091153400614
 20
-74.0523629041637
 30
-91.9425704347813
 70
   192
  0
VERTEX
  5
1146
  8
0
 10
146.4460647683331
 20
-84.56420670583569
 30
-82.76822732562592
 70
   192
  0
VERTEX
  5
1147
  8
0
 10
172.7534607001897
 20
-91.96342522357644
 30
-57.86580920750205
 70
   192
  0
VERTEX
  5
1148
  8
0
 10
184.9554779504159
 20
-92.89320451460681
 30
-20.04870092022215
 70
   192
  0
VERTEX
  5
1149
  8
0
 10
174.5447087999289
 20
-103.7981214130435
 30
-20.1851524746838
 70
   192
  0
VERTEX
  5
114A
  8
0
 10
161.3563778737178
 20
-111.1037689742117
 30
-20.30919676515454
 70
   192
  0
VERTEX
  5
114B
  8
0
 10
146.58967344081
 20
-114.1458594347832
 30
-20.4095546950751
 70
   192
  0
VERTEX
  5
114C
  8
0
 10
142.2385174554897
 20
-114.2486848002352
 30
-33.11137240710288
 70
   192
  0
VERTEX
  5
114D
  8
0
 10
131.4114437808943
 20
-114.6861207833039
 30
-41.12062460509658
 70
   192
  0
VERTEX
  5
114E
  8
0
 10
118.164070143258
 20
-115.3014307585458
 30
-43.60817820574919
 70
   192
  0
VERTEX
  5
114F
  8
0
 10
117.6973520825277
 20
-109.7315093647343
 30
-65.68259448902239
 70
   192
  0
VERTEX
  5
1150
  8
0
 10
116.8182564600724
 20
-94.96061625748311
 30
-82.99067387494577
 70
   192
  0
VERTEX
  5
1151
  8
0
 10
0.0
 20
0.0
 30
0.0
 70
   128
 71
     8
 72
     7
 73
     6
  0
VERTEX
  5
1152
  8
0
 10
0.0
 20
0.0
 30
0.0
 70
   128
 71
     6
 72
     9
 73
     8
  0
VERTEX
  5
1153
  8
0
 10
0.0
 20
0.0
 30
0.0
 70
   128
 71
     6
 72
    11
 73
    10
  0
VERTEX
  5
1154
  8
0
 10
0.0
 20
0.0
 30
0.0
 70
   128
 71
     6
 72
    10
 73
     9
  0
VERTEX
  5
1155
  8
0
 10
0.0
 20
0.0
 30
0.0
 70
   128
 71
     6
 72
     5
 73
    12
  0
VERTEX
  5
1156
  8
0
 10
0.0
 20
0.0
 30
0.0
 70
   128
 71
     6
 72
    12
 73
    11
  0
VERTEX
  5
1157
  8
0
 10
0.0
 20
0.0
 30
0.0
 70
   128
 71
     2
 72
     1
 73
    12
  0
VERTEX
  5
1158
  8
0
 10
0.0
 20
0.0
 30
0.0
 70
   128
 71
     2
 72
    12
 73
     5
  0
VERTEX
  5
1159
  8
0
 10
0.0
 20
0.0
 30
0.0
 70
   128
 71
     5
 72
     3
 73
     2
  0
VERTEX
  5
115A
  8
0
 10
0.0
 20
0.0
 30
0.0
 70
   128
 71
     5
 72
     4
 73
     3
  0
SEQEND
  5
1B35
  8
0
  0
POLYLINE
  5
115B
  8
0
 66
     1
 10
0.0
 20
0.0
 30
0.0
 70
    64
 71
    15
 72
    13
  0
VERTEX
  5
115C
  8
0
 10
184.955477950416
 20
-92.89320451460691
 30
-20.04870092022215
 70
   192
  0
VERTEX
  5
115D
  8
0
 10
184.9028444500553
 20
-92.96837294323484
 30
1.206292880650599
 70
   192
  0
VERTEX
  5
115E
  8
0
 10
184.9689505287336
 20
-92.87396367873674
 30
22.46018881766664
 70
   192
  0
VERTEX
  5
115F
  8
0
 10
185.1494305768426
 20
-92.61621145777326
 30
43.71302725516814
 70
   192
  0
VERTEX
  5
1160
  8
0
 10
174.7158923348413
 20
-103.5378823203475
 30
44.00025207500231
 70
   192
  0
VERTEX
  5
1161
  8
0
 10
161.4958231254822
 20
-110.8444382599744
 30
44.26125624296705
 70
   192
  0
VERTEX
  5
1162
  8
0
 10
146.6960783752166
 20
-113.8688663779496
 30
44.4722127811967
 70
   192
  0
VERTEX
  5
1163
  8
0
 10
146.6209342702936
 20
-114.0623114771254
 30
29.66122583287371
 70
   192
  0
VERTEX
  5
1164
  8
0
 10
146.5764299955149
 20
-114.1810418251314
 30
14.83481082803824
 70
   192
  0
VERTEX
  5
1165
  8
0
 10
146.561761304382
 20
-114.2214259502004
 30
0.0000000000000171
 70
   192
  0
VERTEX
  5
1166
  8
0
 10
146.5648346065034
 20
-114.2128836459226
 30
-6.804141685055873
 70
   192
  0
VERTEX
  5
1167
  8
0
 10
146.5741328491243
 20
-114.1876816894697
 30
-13.60759416175183
 70
   192
  0
VERTEX
  5
1168
  8
0
 10
146.58967344081
 20
-114.1458594347833
 30
-20.40955469507509
 70
   192
  0
VERTEX
  5
1169
  8
0
 10
161.3563778737178
 20
-111.1037689742117
 30
-20.30919676515454
 70
   192
  0
VERTEX
  5
116A
  8
0
 10
174.5447087999289
 20
-103.7981214130435
 30
-20.1851524746838
 70
   192
  0
VERTEX
  5
116B
  8
0
 10
0.0
 20
0.0
 30
0.0
 70
   128
 71
     8
 72
     7
 73
     6
  0
VERTEX
  5
116C
  8
0
 10
0.0
 20
0.0
 30
0.0
 70
   128
 71
     6
 72
     9
 73
     8
  0
VERTEX
  5
116D
  8
0
 10
0.0
 20
0.0
 30
0.0
 70
   128
 71
     6
 72
    14
 73
    10
  0
VERTEX
  5
116E
  8
0
 10
0.0
 20
0.0
 30
0.0
 70
   128
 71
     6
 72
    10
 73
     9
  0
VERTEX
  5
116F
  8
0
 10
0.0
 20
0.0
 30
0.0
 70
   128
 71
    14
 72
    11
 73
    10
  0
VERTEX
  5
1170
  8
0
 10
0.0
 20
0.0
 30
0.0
 70
   128
 71
    14
 72
    12
 73
    11
  0
VERTEX
  5
1171
  8
0
 10
0.0
 20
0.0
 30
0.0
 70
   128
 71
    14
 72
    13
 73
    12
  0
VERTEX
  5
1172
  8
0
 10
0.0
 20
0.0
 30
0.0
 70
   128
 71
     6
 72
     5
 73
    15
  0
VERTEX
  5
1173
  8
0
 10
0.0
 20
0.0
 30
0.0
 70
   128
 71
     6
 72
    15
 73
    14
  0
VERTEX
  5
1174
  8
0
 10
0.0
 20
0.0
 30
0.0
 70
   128
 71
     2
 72
     1
 73
    15
  0
VERTEX
  5
1175
  8
0
 10
0.0
 20
0.0
 30
0.0
 70
   128
 71
    15
 72
     5
 73
     3
  0
VERTEX
  5
1176
  8
0
 10
0.0
 20
0.0
 30
0.0
 70
   128
 71
    15
 72
     3
 73
     2
  0
VERTEX
  5
1177
  8
0
 10
0.0
 20
0.0
 30
0.0
 70
   128
 71
     5
 72
     4
 73
     3
  0
SEQEND
  5
1B36
  8
0
  0
POLYLINE
  5
1178
  8
0
 66
     1
 10
0.0
 20
0.0
 30
0.0
 70
    64
 71
    12
 72
    10
  0
VERTEX
  5
1179
  8
0
 10
118.164070143258
 20
-115.3014307585458
 30
-43.6081782057492
 70
   192
  0
VERTEX
  5
117A
  8
0
 10
40.36330297241661
 20
-118.7724992262685
 30
-44.01903502885524
 70
   192
  0
VERTEX
  5
117B
  8
0
 10
-40.36082139120828
 20
-118.7725855955812
 30
-44.01907481215753
 70
   192
  0
VERTEX
  5
117C
  8
0
 10
-118.1640701432577
 20
-115.3014307585459
 30
-43.60817820574919
 70
   192
  0
VERTEX
  5
117D
  8
0
 10
-117.6973520825274
 20
-109.7315093647344
 30
-65.68259448902239
 70
   192
  0
VERTEX
  5
117E
  8
0
 10
-116.8182564600721
 20
-94.96061625748315
 30
-82.99067387494581
 70
   192
  0
VERTEX
  5
117F
  8
0
 10
-115.7091153400612
 20
-74.0523629041637
 30
-91.9425704347813
 70
   192
  0
VERTEX
  5
1180
  8
0
 10
-38.59234314002926
 20
-77.52351774119853
 30
-91.33051218279536
 70
   192
  0
VERTEX
  5
1181
  8
0
 10
38.59476475732117
 20
-77.52343137188605
 30
-91.33052741203538
 70
   192
  0
VERTEX
  5
1182
  8
0
 10
115.7091153400615
 20
-74.05236290416366
 30
-91.94257043478126
 70
   192
  0
VERTEX
  5
1183
  8
0
 10
116.8182564600724
 20
-94.96061625748311
 30
-82.99067387494577
 70
   192
  0
VERTEX
  5
1184
  8
0
 10
117.6973520825277
 20
-109.7315093647343
 30
-65.68259448902239
 70
   192
  0
VERTEX
  5
1185
  8
0
 10
0.0
 20
0.0
 30
0.0
 70
   128
 71
     8
 72
     7
 73
     6
  0
VERTEX
  5
1186
  8
0
 10
0.0
 20
0.0
 30
0.0
 70
   128
 71
     6
 72
    11
 73
     9
  0
VERTEX
  5
1187
  8
0
 10
0.0
 20
0.0
 30
0.0
 70
   128
 71
     6
 72
     9
 73
     8
  0
VERTEX
  5
1188
  8
0
 10
0.0
 20
0.0
 30
0.0
 70
   128
 71
    11
 72
    10
 73
     9
  0
VERTEX
  5
1189
  8
0
 10
0.0
 20
0.0
 30
0.0
 70
   128
 71
     6
 72
     5
 73
   -12
  0
VERTEX
  5
118A
  8
0
 10
0.0
 20
0.0
 30
0.0
 70
   128
 71
    -6
 72
    12
 73
    11
  0
VERTEX
  5
118B
  8
0
 10
0.0
 20
0.0
 30
0.0
 70
   128
 71
     2
 72
     1
 73
    12
  0
VERTEX
  5
118C
  8
0
 10
0.0
 20
0.0
 30
0.0
 70
   128
 71
    12
 72
     5
 73
     3
  0
VERTEX
  5
118D
  8
0
 10
0.0
 20
0.0
 30
0.0
 70
   128
 71
    12
 72
     3
 73
     2
  0
VERTEX
  5
118E
  8
0
 10
0.0
 20
0.0
 30
0.0
 70
   128
 71
     5
 72
     4
 73
     3
  0
SEQEND
  5
1B37
  8
0
  0
POLYLINE
  5
118F
  8
0
 66
     1
 10
0.0
 20
0.0
 30
0.0
 70
    64
 71
    12
 72
    10
  0
VERTEX
  5
1190
  8
0
 10
185.1494305768425
 20
-92.6162114577732
 30
43.7130272551682
 70
   192
  0
VERTEX
  5
1191
  8
0
 10
173.8239330716583
 20
-98.25937548757254
 30
71.33193619499842
 70
   192
  0
VERTEX
  5
1192
  8
0
 10
150.7170773416741
 20
-98.43093232914006
 30
93.96408512152144
 70
   192
  0
VERTEX
  5
1193
  8
0
 10
123.2769044260094
 20
-93.23905940693112
 30
104.7133077476836
 70
   192
  0
VERTEX
  5
1194
  8
0
 10
124.1631866294201
 20
-104.4125898200714
 30
93.93855704757453
 70
   192
  0
VERTEX
  5
1195
  8
0
 10
124.963772954909
 20
-111.7327400135539
 30
80.24538380806382
 70
   192
  0
VERTEX
  5
1196
  8
0
 10
125.6012535800168
 20
-114.4917143271074
 30
64.9578002882031
 70
   192
  0
VERTEX
  5
1197
  8
0
 10
136.3888625278507
 20
-114.0339060036531
 30
62.76992121839054
 70
   192
  0
VERTEX
  5
1198
  8
0
 10
144.2406836655021
 20
-113.808911330769
 30
55.17409869448533
 70
   192
  0
VERTEX
  5
1199
  8
0
 10
146.6960783752166
 20
-113.8688663779496
 30
44.47221278119665
 70
   192
  0
VERTEX
  5
119A
  8
0
 10
161.4958231254822
 20
-110.8444382599744
 30
44.26125624296705
 70
   192
  0
VERTEX
  5
119B
  8
0
 10
174.7158923348413
 20
-103.5378823203475
 30
44.00025207500231
 70
   192
  0
VERTEX
  5
119C
  8
0
 10
0.0
 20
0.0
 30
0.0
 70
   128
 71
     8
 72
     7
 73
     6
  0
VERTEX
  5
119D
  8
0
 10
0.0
 20
0.0
 30
0.0
 70
   128
 71
     6
 72
    11
 73
     9
  0
VERTEX
  5
119E
  8
0
 10
0.0
 20
0.0
 30
0.0
 70
   128
 71
     6
 72
     9
 73
     8
  0
VERTEX
  5
119F
  8
0
 10
0.0
 20
0.0
 30
0.0
 70
   128
 71
    11
 72
    10
 73
     9
  0
VERTEX
  5
11A0
  8
0
 10
0.0
 20
0.0
 30
0.0
 70
   128
 71
     6
 72
     5
 73
    12
  0
VERTEX
  5
11A1
  8
0
 10
0.0
 20
0.0
 30
0.0
 70
   128
 71
     6
 72
    12
 73
    11
  0
VERTEX
  5
11A2
  8
0
 10
0.0
 20
0.0
 30
0.0
 70
   128
 71
     2
 72
     1
 73
    12
  0
VERTEX
  5
11A3
  8
0
 10
0.0
 20
0.0
 30
0.0
 70
   128
 71
    12
 72
     5
 73
     3
  0
VERTEX
  5
11A4
  8
0
 10
0.0
 20
0.0
 30
0.0
 70
   128
 71
    12
 72
     3
 73
     2
  0
VERTEX
  5
11A5
  8
0
 10
0.0
 20
0.0
 30
0.0
 70
   128
 71
     5
 72
     4
 73
     3
  0
SEQEND
  5
1B38
  8
0
  0
POLYLINE
  5
11A6
  8
0
 66
     1
 10
0.0
 20
0.0
 30
0.0
 70
    64
 71
    12
 72
    10
  0
VERTEX
  5
11A7
  8
0
 10
-118.1640701432578
 20
-115.301430758546
 30
-43.6081782057492
 70
   192
  0
VERTEX
  5
11A8
  8
0
 10
-131.4239210614869
 20
-114.6855764756499
 30
-41.11553160415226
 70
   192
  0
VERTEX
  5
11A9
  8
0
 10
-142.2590828754745
 20
-114.2479531112061
 30
-33.08457574601109
 70
   192
  0
VERTEX
  5
11AA
  8
0
 10
-146.5896734408098
 20
-114.1458594347833
 30
-20.40955469507505
 70
   192
  0
VERTEX
  5
11AB
  8
0
 10
-161.3563778737176
 20
-111.1037689742118
 30
-20.30919676515449
 70
   192
  0
VERTEX
  5
11AC
  8
0
 10
-174.5447087999287
 20
-103.7981214130437
 30
-20.18515247468375
 70
   192
  0
VERTEX
  5
11AD
  8
0
 10
-184.9554779504155
 20
-92.893204514607
 30
-20.0487009202221
 70
   192
  0
VERTEX
  5
11AE
  8
0
 10
-172.8060568342464
 20
-91.97516694638261
 30
-57.78384750119157
 70
   192
  0
VERTEX
  5
11AF
  8
0
 10
-146.4761322272525
 20
-84.57375283303995
 30
-82.75131861043928
 70
   192
  0
VERTEX
  5
11B0
  8
0
 10
-115.7091153400612
 20
-74.05236290416367
 30
-91.94257043478127
 70
   192
  0
VERTEX
  5
11B1
  8
0
 10
-116.8182564600721
 20
-94.96061625748315
 30
-82.99067387494581
 70
   192
  0
VERTEX
  5
11B2
  8
0
 10
-117.6973520825274
 20
-109.7315093647344
 30
-65.68259448902239
 70
   192
  0
VERTEX
  5
11B3
  8
0
 10
0.0
 20
0.0
 30
0.0
 70
   128
 71
     8
 72
     7
 73
     6
  0
VERTEX
  5
11B4
  8
0
 10
0.0
 20
0.0
 30
0.0
 70
   128
 71
     6
 72
     9
 73
     8
  0
VERTEX
  5
11B5
  8
0
 10
0.0
 20
0.0
 30
0.0
 70
   128
 71
     6
 72
    11
 73
    10
  0
VERTEX
  5
11B6
  8
0
 10
0.0
 20
0.0
 30
0.0
 70
   128
 71
     6
 72
    10
 73
     9
  0
VERTEX
  5
11B7
  8
0
 10
0.0
 20
0.0
 30
0.0
 70
   128
 71
     6
 72
     5
 73
    12
  0
VERTEX
  5
11B8
  8
0
 10
0.0
 20
0.0
 30
0.0
 70
   128
 71
     6
 72
    12
 73
    11
  0
VERTEX
  5
11B9
  8
0
 10
0.0
 20
0.0
 30
0.0
 70
   128
 71
     2
 72
     1
 73
    12
  0
VERTEX
  5
11BA
  8
0
 10
0.0
 20
0.0
 30
0.0
 70
   128
 71
     2
 72
    12
 73
     5
  0
VERTEX
  5
11BB
  8
0
 10
0.0
 20
0.0
 30
0.0
 70
   128
 71
     5
 72
     3
 73
     2
  0
VERTEX
  5
11BC
  8
0
 10
0.0
 20
0.0
 30
0.0
 70
   128
 71
     5
 72
     4
 73
     3
  0
SEQEND
  5
1B39
  8
0
  0
POLYLINE
  5
11BD
  8
0
 66
     1
 10
0.0
 20
0.0
 30
0.0
 70
    64
 71
    12
 72
    10
  0
VERTEX
  5
11BE
  8
0
 10
123.2769044260094
 20
-93.2390594069311
 30
104.7133077476836
 70
   192
  0
VERTEX
  5
11BF
  8
0
 10
41.08919851626071
 20
-96.64225365102953
 30
102.3303654839741
 70
   192
  0
VERTEX
  5
11C0
  8
0
 10
-41.15518368058704
 20
-96.6402663371067
 30
102.3317570161636
 70
   192
  0
VERTEX
  5
11C1
  8
0
 10
-123.2769044260092
 20
-93.23905940693115
 30
104.7133077476837
 70
   192
  0
VERTEX
  5
11C2
  8
0
 10
-124.1631866294199
 20
-104.4125898200714
 30
93.93855704757459
 70
   192
  0
VERTEX
  5
11C3
  8
0
 10
-124.9637729549088
 20
-111.732740013554
 30
80.24538380806388
 70
   192
  0
VERTEX
  5
11C4
  8
0
 10
-125.6012535800166
 20
-114.4917143271074
 30
64.9578002882031
 70
   192
  0
VERTEX
  5
11C5
  8
0
 10
-42.6124997447539
 20
-117.8925742496069
 30
63.54787233129468
 70
   192
  0
VERTEX
  5
11C6
  8
0
 10
42.54491918353609
 20
-117.8945598982481
 30
63.54754798606115
 70
   192
  0
VERTEX
  5
11C7
  8
0
 10
125.6012535800167
 20
-114.4917143271074
 30
64.95780028820306
 70
   192
  0
VERTEX
  5
11C8
  8
0
 10
124.963772954909
 20
-111.7327400135539
 30
80.24538380806382
 70
   192
  0
VERTEX
  5
11C9
  8
0
 10
124.1631866294201
 20
-104.4125898200714
 30
93.93855704757453
 70
   192
  0
VERTEX
  5
11CA
  8
0
 10
0.0
 20
0.0
 30
0.0
 70
   128
 71
     8
 72
     7
 73
     6
  0
VERTEX
  5
11CB
  8
0
 10
0.0
 20
0.0
 30
0.0
 70
   128
 71
     6
 72
    11
 73
     9
  0
VERTEX
  5
11CC
  8
0
 10
0.0
 20
0.0
 30
0.0
 70
   128
 71
     6
 72
     9
 73
     8
  0
VERTEX
  5
11CD
  8
0
 10
0.0
 20
0.0
 30
0.0
 70
   128
 71
    11
 72
    10
 73
     9
  0
VERTEX
  5
11CE
  8
0
 10
0.0
 20
0.0
 30
0.0
 70
   128
 71
     6
 72
     5
 73
   -12
  0
VERTEX
  5
11CF
  8
0
 10
0.0
 20
0.0
 30
0.0
 70
   128
 71
    -6
 72
    12
 73
    11
  0
VERTEX
  5
11D0
  8
0
 10
0.0
 20
0.0
 30
0.0
 70
   128
 71
     2
 72
     1
 73
    12
  0
VERTEX
  5
11D1
  8
0
 10
0.0
 20
0.0
 30
0.0
 70
   128
 71
    12
 72
     5
 73
     3
  0
VERTEX
  5
11D2
  8
0
 10
0.0
 20
0.0
 30
0.0
 70
   128
 71
    12
 72
     3
 73
     2
  0
VERTEX
  5
11D3
  8
0
 10
0.0
 20
0.0
 30
0.0
 70
   128
 71
     5
 72
     4
 73
     3
  0
SEQEND
  5
1B3A
  8
0
  0
POLYLINE
  5
11D4
  8
0
 66
     1
 10
0.0
 20
0.0
 30
0.0
 70
    64
 71
    15
 72
    13
  0
VERTEX
  5
11D5
  8
0
 10
-146.5896734408098
 20
-114.1458594347832
 30
-20.40955469507505
 70
   192
  0
VERTEX
  5
11D6
  8
0
 10
-146.5741328489532
 20
-114.1876816894787
 30
-13.60759416174226
 70
   192
  0
VERTEX
  5
11D7
  8
0
 10
-146.5648346063637
 20
-114.2128836459299
 30
-6.804141685049727
 70
   192
  0
VERTEX
  5
11D8
  8
0
 10
-146.561761304382
 20
-114.2214259502004
 30
0.0000000000000066
 70
   192
  0
VERTEX
  5
11D9
  8
0
 10
-146.5764299956077
 20
-114.1810418251268
 30
14.83481082802226
 70
   192
  0
VERTEX
  5
11DA
  8
0
 10
-146.6209342703425
 20
-114.0623114771233
 30
29.66122583285424
 70
   192
  0
VERTEX
  5
11DB
  8
0
 10
-146.6960783752164
 20
-113.8688663779496
 30
44.47221278119665
 70
   192
  0
VERTEX
  5
11DC
  8
0
 10
-161.4958231254821
 20
-110.8444382599745
 30
44.26125624296706
 70
   192
  0
VERTEX
  5
11DD
  8
0
 10
-174.7158923348412
 20
-103.5378823203476
 30
44.00025207500232
 70
   192
  0
VERTEX
  5
11DE
  8
0
 10
-185.1494305768425
 20
-92.61621145777329
 30
43.71302725516814
 70
   192
  0
VERTEX
  5
11DF
  8
0
 10
-184.9689505287335
 20
-92.87396367873677
 30
22.46018881766667
 70
   192
  0
VERTEX
  5
11E0
  8
0
 10
-184.9028444500551
 20
-92.96837294323493
 30
1.206292880650637
 70
   192
  0
VERTEX
  5
11E1
  8
0
 10
-184.9554779504157
 20
-92.89320451460709
 30
-20.0487009202221
 70
   192
  0
VERTEX
  5
11E2
  8
0
 10
-174.5447087999287
 20
-103.7981214130437
 30
-20.18515247468375
 70
   192
  0
VERTEX
  5
11E3
  8
0
 10
-161.3563778737176
 20
-111.1037689742118
 30
-20.30919676515449
 70
   192
  0
VERTEX
  5
11E4
  8
0
 10
0.0
 20
0.0
 30
0.0
 70
   128
 71
    11
 72
    10
 73
     9
  0
VERTEX
  5
11E5
  8
0
 10
0.0
 20
0.0
 30
0.0
 70
   128
 71
     9
 72
    14
 73
    12
  0
VERTEX
  5
11E6
  8
0
 10
0.0
 20
0.0
 30
0.0
 70
   128
 71
     9
 72
    12
 73
    11
  0
VERTEX
  5
11E7
  8
0
 10
0.0
 20
0.0
 30
0.0
 70
   128
 71
    14
 72
    13
 73
    12
  0
VERTEX
  5
11E8
  8
0
 10
0.0
 20
0.0
 30
0.0
 70
   128
 71
     9
 72
     8
 73
    15
  0
VERTEX
  5
11E9
  8
0
 10
0.0
 20
0.0
 30
0.0
 70
   128
 71
     9
 72
    15
 73
    14
  0
VERTEX
  5
11EA
  8
0
 10
0.0
 20
0.0
 30
0.0
 70
   128
 71
     2
 72
     1
 73
    15
  0
VERTEX
  5
11EB
  8
0
 10
0.0
 20
0.0
 30
0.0
 70
   128
 71
    15
 72
     3
 73
     2
  0
VERTEX
  5
11EC
  8
0
 10
0.0
 20
0.0
 30
0.0
 70
   128
 71
    15
 72
     4
 73
     3
  0
VERTEX
  5
11ED
  8
0
 10
0.0
 20
0.0
 30
0.0
 70
   128
 71
    15
 72
     8
 73
     5
  0
VERTEX
  5
11EE
  8
0
 10
0.0
 20
0.0
 30
0.0
 70
   128
 71
    15
 72
     5
 73
     4
  0
VERTEX
  5
11EF
  8
0
 10
0.0
 20
0.0
 30
0.0
 70
   128
 71
     8
 72
     6
 73
     5
  0
VERTEX
  5
11F0
  8
0
 10
0.0
 20
0.0
 30
0.0
 70
   128
 71
     8
 72
     7
 73
     6
  0
SEQEND
  5
1B3B
  8
0
  0
POLYLINE
  5
11F1
  8
0
 66
     1
 10
0.0
 20
0.0
 30
0.0
 70
    64
 71
    12
 72
    10
  0
VERTEX
  5
11F2
  8
0
 10
-123.2769044260092
 20
-93.2390594069311
 30
104.7133077476836
 70
   192
  0
VERTEX
  5
11F3
  8
0
 10
-150.6347161714222
 20
-98.42196228162159
 30
94.01617253282477
 70
   192
  0
VERTEX
  5
11F4
  8
0
 10
-173.7474267177527
 20
-98.27321443267165
 30
71.44637988794607
 70
   192
  0
VERTEX
  5
11F5
  8
0
 10
-185.1494305768425
 20
-92.61621145777333
 30
43.71302725516815
 70
   192
  0
VERTEX
  5
11F6
  8
0
 10
-174.7158923348412
 20
-103.5378823203476
 30
44.00025207500232
 70
   192
  0
VERTEX
  5
11F7
  8
0
 10
-161.4958231254821
 20
-110.8444382599745
 30
44.26125624296706
 70
   192
  0
VERTEX
  5
11F8
  8
0
 10
-146.6960783752164
 20
-113.8688663779496
 30
44.47221278119665
 70
   192
  0
VERTEX
  5
11F9
  8
0
 10
-144.2189290969091
 20
-113.8092224499245
 30
55.21432116886281
 70
   192
  0
VERTEX
  5
11FA
  8
0
 10
-136.3586777049896
 20
-114.035016892699
 30
62.78477957270678
 70
   192
  0
VERTEX
  5
11FB
  8
0
 10
-125.6012535800165
 20
-114.4917143271075
 30
64.9578002882031
 70
   192
  0
VERTEX
  5
11FC
  8
0
 10
-124.9637729549088
 20
-111.732740013554
 30
80.24538380806388
 70
   192
  0
VERTEX
  5
11FD
  8
0
 10
-124.1631866294199
 20
-104.4125898200714
 30
93.93855704757459
 70
   192
  0
VERTEX
  5
11FE
  8
0
 10
0.0
 20
0.0
 30
0.0
 70
   128
 71
     8
 72
     7
 73
     6
  0
VERTEX
  5
11FF
  8
0
 10
0.0
 20
0.0
 30
0.0
 70
   128
 71
     6
 72
    11
 73
     9
  0
VERTEX
  5
1200
  8
0
 10
0.0
 20
0.0
 30
0.0
 70
   128
 71
     6
 72
     9
 73
     8
  0
VERTEX
  5
1201
  8
0
 10
0.0
 20
0.0
 30
0.0
 70
   128
 71
    11
 72
    10
 73
     9
  0
VERTEX
  5
1202
  8
0
 10
0.0
 20
0.0
 30
0.0
 70
   128
 71
     6
 72
     5
 73
    12
  0
VERTEX
  5
1203
  8
0
 10
0.0
 20
0.0
 30
0.0
 70
   128
 71
     6
 72
    12
 73
    11
  0
VERTEX
  5
1204
  8
0
 10
0.0
 20
0.0
 30
0.0
 70
   128
 71
     2
 72
     1
 73
    12
  0
VERTEX
  5
1205
  8
0
 10
0.0
 20
0.0
 30
0.0
 70
   128
 71
    12
 72
     5
 73
     3
  0
VERTEX
  5
1206
  8
0
 10
0.0
 20
0.0
 30
0.0
 70
   128
 71
    12
 72
     3
 73
     2
  0
VERTEX
  5
1207
  8
0
 10
0.0
 20
0.0
 30
0.0
 70
   128
 71
     5
 72
     4
 73
     3
  0
SEQEND
  5
1B3C
  8
0
  0
POLYLINE
  5
1208
  8
0
 66
     1
 10
0.0
 20
0.0
 30
0.0
 70
    64
 71
    10
 72
     8
  0
VERTEX
  5
1209
  8
0
 10
299.7374123858575
 20
-1.999999999999997
 30
-225.0
 70
   192
  0
VERTEX
  5
120A
  8
0
 10
301.2222720917067
 20
-2.393241159227506
 30
-225.0
 70
   192
  0
VERTEX
  5
120B
  8
0
 10
302.3178598295436
 20
-3.46987223070297
 30
-225.0
 70
   192
  0
VERTEX
  5
120C
  8
0
 10
302.7369554713267
 20
-4.947642780688144
 30
-225.0
 70
   192
  0
VERTEX
  5
120D
  8
0
 10
302.9996953439125
 20
-19.99999999999999
 30
-225.0
 70
   192
  0
VERTEX
  5
120E
  8
0
 10
-302.999695343912
 20
-20.0
 30
-224.9999999999999
 70
   192
  0
VERTEX
  5
120F
  8
0
 10
-302.7369554713264
 20
-4.947642780688151
 30
-225.0
 70
   192
  0
VERTEX
  5
1210
  8
0
 10
-302.3178598295436
 20
-3.46987223070297
 30
-225.0
 70
   192
  0
VERTEX
  5
1211
  8
0
 10
-301.2222720917067
 20
-2.393241159227506
 30
-225.0
 70
   192
  0
VERTEX
  5
1212
  8
0
 10
-299.7374123858575
 20
-1.999999999999997
 30
-225.0
 70
   192
  0
VERTEX
  5
1213
  8
0
 10
0.0
 20
0.0
 30
0.0
 70
   128
 71
     9
 72
    10
 73
    -1
  0
VERTEX
  5
1214
  8
0
 10
0.0
 20
0.0
 30
0.0
 70
   128
 71
     8
 72
    -9
 73
    -1
  0
VERTEX
  5
1215
  8
0
 10
0.0
 20
0.0
 30
0.0
 70
   128
 71
     7
 72
    -8
 73
    -1
  0
VERTEX
  5
1216
  8
0
 10
0.0
 20
0.0
 30
0.0
 70
   128
 71
     6
 72
    -7
 73
    -1
  0
VERTEX
  5
1217
  8
0
 10
0.0
 20
0.0
 30
0.0
 70
   128
 71
     5
 72
    -6
 73
    -1
  0
VERTEX
  5
1218
  8
0
 10
0.0
 20
0.0
 30
0.0
 70
   128
 71
     4
 72
    -5
 73
    -1
  0
VERTEX
  5
1219
  8
0
 10
0.0
 20
0.0
 30
0.0
 70
   128
 71
     3
 72
    -4
 73
    -1
  0
VERTEX
  5
121A
  8
0
 10
0.0
 20
0.0
 30
0.0
 70
   128
 71
     2
 72
    -3
 73
     1
  0
SEQEND
  5
1B3D
  8
0
  0
POLYLINE
  5
121B
  8
0
 66
     1
 10
0.0
 20
0.0
 30
0.0
 70
    64
 71
     4
 72
     2
  0
VERTEX
  5
121C
  8
0
 10
305.0
 20
-20.0
 30
232.000456914531
 70
   192
  0
VERTEX
  5
121D
  8
0
 10
304.9999999999999
 20
-20.0
 30
-223.0
 70
   192
  0
VERTEX
  5
121E
  8
0
 10
304.7366508616391
 20
-4.912737967813577
 30
-223.0
 70
   192
  0
VERTEX
  5
121F
  8
0
 10
304.7366508616395
 20
-4.912737967813579
 30
231.73710777617
 70
   192
  0
VERTEX
  5
1220
  8
0
 10
0.0
 20
0.0
 30
0.0
 70
   128
 71
     3
 72
     4
 73
    -1
  0
VERTEX
  5
1221
  8
0
 10
0.0
 20
0.0
 30
0.0
 70
   128
 71
     2
 72
    -3
 73
     1
  0
SEQEND
  5
1B3E
  8
0
  0
POLYLINE
  5
1222
  8
0
 66
     1
 10
0.0
 20
0.0
 30
0.0
 70
    64
 71
     4
 72
     2
  0
VERTEX
  5
1223
  8
0
 10
302.000456914531
 20
-20.0
 30
234.9999999999999
 70
   192
  0
VERTEX
  5
1224
  8
0
 10
301.7371077761701
 20
-4.912737967813577
 30
234.7366508616391
 70
   192
  0
VERTEX
  5
1225
  8
0
 10
-301.73710777617
 20
-4.912737967813579
 30
234.736650861639
 70
   192
  0
VERTEX
  5
1226
  8
0
 10
-302.0004569145308
 20
-20.00000000000001
 30
234.9999999999998
 70
   192
  0
VERTEX
  5
1227
  8
0
 10
0.0
 20
0.0
 30
0.0
 70
   128
 71
     3
 72
     4
 73
    -1
  0
VERTEX
  5
1228
  8
0
 10
0.0
 20
0.0
 30
0.0
 70
   128
 71
     2
 72
    -3
 73
     1
  0
SEQEND
  5
1B3F
  8
0
  0
POLYLINE
  5
1229
  8
0
 66
     1
 10
0.0
 20
0.0
 30
0.0
 70
    64
 71
     4
 72
     2
  0
VERTEX
  5
122A
  8
0
 10
-304.7366508616389
 20
-4.912737967813579
 30
231.7371077761699
 70
   192
  0
VERTEX
  5
122B
  8
0
 10
-304.736650861639
 20
-4.912737967813579
 30
-223.0
 70
   192
  0
VERTEX
  5
122C
  8
0
 10
-305.0
 20
-20.0
 30
-223.0
 70
   192
  0
VERTEX
  5
122D
  8
0
 10
-304.9999999999999
 20
-20.0
 30
232.000456914531
 70
   192
  0
VERTEX
  5
122E
  8
0
 10
0.0
 20
0.0
 30
0.0
 70
   128
 71
     3
 72
     4
 73
    -1
  0
VERTEX
  5
122F
  8
0
 10
0.0
 20
0.0
 30
0.0
 70
   128
 71
     2
 72
    -3
 73
     1
  0
SEQEND
  5
1B40
  8
0
  0
POLYLINE
  5
1230
  8
0
 66
     1
 10
0.0
 20
0.0
 30
0.0
 70
    64
 71
     4
 72
     2
  0
VERTEX
  5
1231
  8
0
 10
-259.5702129791545
 20
-16.28989928337165
 30
213.6496337730175
 70
   192
  0
VERTEX
  5
1232
  8
0
 10
259.5702129791545
 20
-16.28989928337165
 30
213.6496337730175
 70
   192
  0
VERTEX
  5
1233
  8
0
 10
260.2244038366417
 20
-20.00000000000005
 30
215.0
 70
   192
  0
VERTEX
  5
1234
  8
0
 10
-260.224403836642
 20
-20.0
 30
215.0
 70
   192
  0
VERTEX
  5
1235
  8
0
 10
0.0
 20
0.0
 30
0.0
 70
   128
 71
     3
 72
     4
 73
    -1
  0
VERTEX
  5
1236
  8
0
 10
0.0
 20
0.0
 30
0.0
 70
   128
 71
     2
 72
    -3
 73
     1
  0
SEQEND
  5
1B41
  8
0
  0
POLYLINE
  5
1237
  8
0
 66
     1
 10
0.0
 20
0.0
 30
0.0
 70
    64
 71
     4
 72
     2
  0
VERTEX
  5
1238
  8
0
 10
283.6496337730175
 20
-16.28989928337165
 30
189.5702129791544
 70
   192
  0
VERTEX
  5
1239
  8
0
 10
283.6496337730175
 20
-16.28989928337165
 30
-179.5702129791545
 70
   192
  0
VERTEX
  5
123A
  8
0
 10
285.0
 20
-20.00000000000005
 30
-180.2244038366417
 70
   192
  0
VERTEX
  5
123B
  8
0
 10
285.0
 20
-20.0
 30
190.224403836642
 70
   192
  0
VERTEX
  5
123C
  8
0
 10
0.0
 20
0.0
 30
0.0
 70
   128
 71
     3
 72
     4
 73
    -1
  0
VERTEX
  5
123D
  8
0
 10
0.0
 20
0.0
 30
0.0
 70
   128
 71
     2
 72
    -3
 73
     1
  0
SEQEND
  5
1B42
  8
0
  0
POLYLINE
  5
123E
  8
0
 66
     1
 10
0.0
 20
0.0
 30
0.0
 70
    64
 71
    64
 72
    64
  0
VERTEX
  5
123F
  8
0
 10
-302.999695343912
 20
-20.0
 30
-225.0
 70
   192
  0
VERTEX
  5
1240
  8
0
 10
-303.9779276862579
 20
-20.00000000000001
 30
-224.7445208382054
 70
   192
  0
VERTEX
  5
1241
  8
0
 10
-304.7444819215645
 20
-20.00000000000001
 30
-223.9780833528217
 70
   192
  0
VERTEX
  5
1242
  8
0
 10
-305.0
 20
-20.0
 30
-223.0
 70
   192
  0
VERTEX
  5
1243
  8
0
 10
-305.0
 20
-20.0
 30
232.000456914531
 70
   192
  0
VERTEX
  5
1244
  8
0
 10
-304.6168607035803
 20
-19.99999999999999
 30
233.4674428143205
 70
   192
  0
VERTEX
  5
1245
  8
0
 10
-303.4674428143206
 20
-19.99999999999998
 30
234.6168607035803
 70
   192
  0
VERTEX
  5
1246
  8
0
 10
-302.000456914531
 20
-20.0
 30
235.0
 70
   192
  0
VERTEX
  5
1247
  8
0
 10
302.000456914531
 20
-20.0
 30
235.0
 70
   192
  0
VERTEX
  5
1248
  8
0
 10
303.4674428143204
 20
-19.99999999999999
 30
234.6168607035799
 70
   192
  0
VERTEX
  5
1249
  8
0
 10
304.6168607035801
 20
-19.99999999999999
 30
233.4674428143202
 70
   192
  0
VERTEX
  5
124A
  8
0
 10
305.0
 20
-20.0
 30
232.000456914531
 70
   192
  0
VERTEX
  5
124B
  8
0
 10
305.0
 20
-20.0
 30
-223.0
 70
   192
  0
VERTEX
  5
124C
  8
0
 10
304.7444819215645
 20
-20.0
 30
-223.9780833528217
 70
   192
  0
VERTEX
  5
124D
  8
0
 10
303.9779276862579
 20
-20.0
 30
-224.7445208382054
 70
   192
  0
VERTEX
  5
124E
  8
0
 10
302.999695343912
 20
-20.0
 30
-225.0
 70
   192
  0
VERTEX
  5
124F
  8
0
 10
260.224403836642
 20
-20.0
 30
-205.0
 70
   192
  0
VERTEX
  5
1250
  8
0
 10
262.585402160967
 20
-19.99999999999999
 30
-204.3673690152273
 70
   192
  0
VERTEX
  5
1251
  8
0
 10
264.3963505402419
 20
-19.99999999999999
 30
-202.4694760609085
 70
   192
  0
VERTEX
  5
1252
  8
0
 10
265.0
 20
-20.0
 30
-199.995124977147
 70
   192
  0
VERTEX
  5
1253
  8
0
 10
265.0
 20
-20.0
 30
-189.924038765061
 70
   192
  0
VERTEX
  5
1254
  8
0
 10
265.6256120642786
 20
-20.0
 30
-187.5024482571141
 70
   192
  0
VERTEX
  5
1255
  8
0
 10
267.5024482571141
 20
-20.0
 30
-185.6256120642786
 70
   192
  0
VERTEX
  5
1256
  8
0
 10
269.924038765061
 20
-20.0
 30
-185.0
 70
   192
  0
VERTEX
  5
1257
  8
0
 10
279.995124977147
 20
-20.0
 30
-185.0
 70
   192
  0
VERTEX
  5
1258
  8
0
 10
282.4694760609087
 20
-20.00000000000002
 30
-184.3963505402419
 70
   192
  0
VERTEX
  5
1259
  8
0
 10
284.3673690152273
 20
-20.00000000000001
 30
-182.5854021609671
 70
   192
  0
VERTEX
  5
125A
  8
0
 10
285.0
 20
-20.0
 30
-180.2244038366419
 70
   192
  0
VERTEX
  5
125B
  8
0
 10
285.0
 20
-20.0
 30
190.224403836642
 70
   192
  0
VERTEX
  5
125C
  8
0
 10
284.3673690152272
 20
-20.0
 30
192.585402160967
 70
   192
  0
VERTEX
  5
125D
  8
0
 10
282.4694760609084
 20
-20.0
 30
194.3963505402418
 70
   192
  0
VERTEX
  5
125E
  8
0
 10
279.995124977147
 20
-20.0
 30
195.0
 70
   192
  0
VERTEX
  5
125F
  8
0
 10
269.924038765061
 20
-20.0
 30
195.0
 70
   192
  0
VERTEX
  5
1260
  8
0
 10
267.5024482571143
 20
-20.00000000000001
 30
195.6256120642785
 70
   192
  0
VERTEX
  5
1261
  8
0
 10
265.6256120642786
 20
-20.0
 30
197.502448257114
 70
   192
  0
VERTEX
  5
1262
  8
0
 10
265.0
 20
-20.0
 30
199.924038765061
 70
   192
  0
VERTEX
  5
1263
  8
0
 10
265.0
 20
-20.0
 30
209.995124977147
 70
   192
  0
VERTEX
  5
1264
  8
0
 10
264.3963505402417
 20
-20.00000000000002
 30
212.4694760609085
 70
   192
  0
VERTEX
  5
1265
  8
0
 10
262.5854021609669
 20
-20.00000000000001
 30
214.3673690152271
 70
   192
  0
VERTEX
  5
1266
  8
0
 10
260.224403836642
 20
-20.0
 30
215.0
 70
   192
  0
VERTEX
  5
1267
  8
0
 10
-260.224403836642
 20
-20.0
 30
215.0
 70
   192
  0
VERTEX
  5
1268
  8
0
 10
-262.5854021609669
 20
-19.99999999999999
 30
214.3673690152273
 70
   192
  0
VERTEX
  5
1269
  8
0
 10
-264.3963505402417
 20
-19.99999999999999
 30
212.4694760609085
 70
   192
  0
VERTEX
  5
126A
  8
0
 10
-265.0
 20
-20.0
 30
209.995124977147
 70
   192
  0
VERTEX
  5
126B
  8
0
 10
-265.0
 20
-20.0
 30
199.924038765061
 70
   192
  0
VERTEX
  5
126C
  8
0
 10
-265.6256120642786
 20
-20.0
 30
197.502448257114
 70
   192
  0
VERTEX
  5
126D
  8
0
 10
-267.5024482571141
 20
-20.0
 30
195.6256120642784
 70
   192
  0
VERTEX
  5
126E
  8
0
 10
-269.924038765061
 20
-20.0
 30
195.0
 70
   192
  0
VERTEX
  5
126F
  8
0
 10
-279.995124977147
 20
-20.0
 30
195.0
 70
   192
  0
VERTEX
  5
1270
  8
0
 10
-282.4694760609085
 20
-20.00000000000002
 30
194.3963505402418
 70
   192
  0
VERTEX
  5
1271
  8
0
 10
-284.3673690152271
 20
-20.00000000000001
 30
192.5854021609667
 70
   192
  0
VERTEX
  5
1272
  8
0
 10
-284.9999999999999
 20
-20.0
 30
190.2244038366416
 70
   192
  0
VERTEX
  5
1273
  8
0
 10
-285.0
 20
-20.0
 30
-180.224403836642
 70
   192
  0
VERTEX
  5
1274
  8
0
 10
-284.3673690152272
 20
-20.0
 30
-182.585402160967
 70
   192
  0
VERTEX
  5
1275
  8
0
 10
-282.4694760609084
 20
-20.0
 30
-184.3963505402418
 70
   192
  0
VERTEX
  5
1276
  8
0
 10
-279.995124977147
 20
-20.0
 30
-185.0
 70
   192
  0
VERTEX
  5
1277
  8
0
 10
-269.924038765061
 20
-20.0
 30
-185.0
 70
   192
  0
VERTEX
  5
1278
  8
0
 10
-267.5024482571141
 20
-20.0
 30
-185.6256120642784
 70
   192
  0
VERTEX
  5
1279
  8
0
 10
-265.6256120642784
 20
-20.0
 30
-187.502448257114
 70
   192
  0
VERTEX
  5
127A
  8
0
 10
-265.0
 20
-20.0
 30
-189.924038765061
 70
   192
  0
VERTEX
  5
127B
  8
0
 10
-265.0
 20
-20.0
 30
-199.995124977147
 70
   192
  0
VERTEX
  5
127C
  8
0
 10
-264.3963505402417
 20
-20.00000000000002
 30
-202.4694760609085
 70
   192
  0
VERTEX
  5
127D
  8
0
 10
-262.5854021609669
 20
-20.00000000000001
 30
-204.3673690152272
 70
   192
  0
VERTEX
  5
127E
  8
0
 10
-260.224403836642
 20
-20.0
 30
-204.9999999999999
 70
   192
  0
VERTEX
  5
127F
  8
0
 10
0.0
 20
0.0
 30
0.0
 70
   128
 71
    18
 72
   -17
 73
   -13
  0
VERTEX
  5
1280
  8
0
 10
0.0
 20
0.0
 30
0.0
 70
   128
 71
   -13
 72
    19
 73
   -18
  0
VERTEX
  5
1281
  8
0
 10
0.0
 20
0.0
 30
0.0
 70
   128
 71
   -13
 72
    20
 73
   -19
  0
VERTEX
  5
1282
  8
0
 10
0.0
 20
0.0
 30
0.0
 70
   128
 71
   -13
 72
    25
 73
   -24
  0
VERTEX
  5
1283
  8
0
 10
0.0
 20
0.0
 30
0.0
 70
   128
 71
   -13
 72
    24
 73
   -23
  0
VERTEX
  5
1284
  8
0
 10
0.0
 20
0.0
 30
0.0
 70
   128
 71
   -13
 72
    23
 73
   -22
  0
VERTEX
  5
1285
  8
0
 10
0.0
 20
0.0
 30
0.0
 70
   128
 71
   -13
 72
    22
 73
   -21
  0
VERTEX
  5
1286
  8
0
 10
0.0
 20
0.0
 30
0.0
 70
   128
 71
   -13
 72
    21
 73
   -20
  0
VERTEX
  5
1287
  8
0
 10
0.0
 20
0.0
 30
0.0
 70
   128
 71
   -13
 72
    26
 73
   -25
  0
VERTEX
  5
1288
  8
0
 10
0.0
 20
0.0
 30
0.0
 70
   128
 71
   -13
 72
    27
 73
   -26
  0
VERTEX
  5
1289
  8
0
 10
0.0
 20
0.0
 30
0.0
 70
   128
 71
   -13
 72
    28
 73
   -27
  0
VERTEX
  5
128A
  8
0
 10
0.0
 20
0.0
 30
0.0
 70
   128
 71
    13
 72
   -12
 73
   -29
  0
VERTEX
  5
128B
  8
0
 10
0.0
 20
0.0
 30
0.0
 70
   128
 71
   -13
 72
    29
 73
   -28
  0
VERTEX
  5
128C
  8
0
 10
0.0
 20
0.0
 30
0.0
 70
   128
 71
   -12
 72
    30
 73
   -29
  0
VERTEX
  5
128D
  8
0
 10
0.0
 20
0.0
 30
0.0
 70
   128
 71
   -12
 72
    31
 73
   -30
  0
VERTEX
  5
128E
  8
0
 10
0.0
 20
0.0
 30
0.0
 70
   128
 71
   -12
 72
    32
 73
   -31
  0
VERTEX
  5
128F
  8
0
 10
0.0
 20
0.0
 30
0.0
 70
   128
 71
   -12
 72
    37
 73
   -36
  0
VERTEX
  5
1290
  8
0
 10
0.0
 20
0.0
 30
0.0
 70
   128
 71
   -12
 72
    36
 73
   -35
  0
VERTEX
  5
1291
  8
0
 10
0.0
 20
0.0
 30
0.0
 70
   128
 71
   -12
 72
    35
 73
   -34
  0
VERTEX
  5
1292
  8
0
 10
0.0
 20
0.0
 30
0.0
 70
   128
 71
   -12
 72
    34
 73
   -33
  0
VERTEX
  5
1293
  8
0
 10
0.0
 20
0.0
 30
0.0
 70
   128
 71
   -12
 72
    33
 73
   -32
  0
VERTEX
  5
1294
  8
0
 10
0.0
 20
0.0
 30
0.0
 70
   128
 71
   -12
 72
    38
 73
   -37
  0
VERTEX
  5
1295
  8
0
 10
0.0
 20
0.0
 30
0.0
 70
   128
 71
   -12
 72
    39
 73
   -38
  0
VERTEX
  5
1296
  8
0
 10
0.0
 20
0.0
 30
0.0
 70
   128
 71
   -12
 72
    40
 73
   -39
  0
VERTEX
  5
1297
  8
0
 10
0.0
 20
0.0
 30
0.0
 70
   128
 71
    12
 72
    11
 73
   -10
  0
VERTEX
  5
1298
  8
0
 10
0.0
 20
0.0
 30
0.0
 70
   128
 71
   -12
 72
    10
 73
    -9
  0
VERTEX
  5
1299
  8
0
 10
0.0
 20
0.0
 30
0.0
 70
   128
 71
   -12
 72
     9
 73
    -8
  0
VERTEX
  5
129A
  8
0
 10
0.0
 20
0.0
 30
0.0
 70
   128
 71
   -12
 72
    -8
 73
   -41
  0
VERTEX
  5
129B
  8
0
 10
0.0
 20
0.0
 30
0.0
 70
   128
 71
   -12
 72
    41
 73
   -40
  0
VERTEX
  5
129C
  8
0
 10
0.0
 20
0.0
 30
0.0
 70
   128
 71
    -8
 72
    42
 73
   -41
  0
VERTEX
  5
129D
  8
0
 10
0.0
 20
0.0
 30
0.0
 70
   128
 71
    -8
 72
    43
 73
   -42
  0
VERTEX
  5
129E
  8
0
 10
0.0
 20
0.0
 30
0.0
 70
   128
 71
    -8
 72
    44
 73
   -43
  0
VERTEX
  5
129F
  8
0
 10
0.0
 20
0.0
 30
0.0
 70
   128
 71
    -8
 72
    49
 73
   -48
  0
VERTEX
  5
12A0
  8
0
 10
0.0
 20
0.0
 30
0.0
 70
   128
 71
    -8
 72
    48
 73
   -47
  0
VERTEX
  5
12A1
  8
0
 10
0.0
 20
0.0
 30
0.0
 70
   128
 71
    -8
 72
    47
 73
   -46
  0
VERTEX
  5
12A2
  8
0
 10
0.0
 20
0.0
 30
0.0
 70
   128
 71
    -8
 72
    46
 73
   -45
  0
VERTEX
  5
12A3
  8
0
 10
0.0
 20
0.0
 30
0.0
 70
   128
 71
    -8
 72
    45
 73
   -44
  0
VERTEX
  5
12A4
  8
0
 10
0.0
 20
0.0
 30
0.0
 70
   128
 71
    -8
 72
    50
 73
   -49
  0
VERTEX
  5
12A5
  8
0
 10
0.0
 20
0.0
 30
0.0
 70
   128
 71
    -8
 72
    51
 73
   -50
  0
VERTEX
  5
12A6
  8
0
 10
0.0
 20
0.0
 30
0.0
 70
   128
 71
    -8
 72
    52
 73
   -51
  0
VERTEX
  5
12A7
  8
0
 10
0.0
 20
0.0
 30
0.0
 70
   128
 71
     8
 72
     7
 73
    -6
  0
VERTEX
  5
12A8
  8
0
 10
0.0
 20
0.0
 30
0.0
 70
   128
 71
    -8
 72
     6
 73
    -5
  0
VERTEX
  5
12A9
  8
0
 10
0.0
 20
0.0
 30
0.0
 70
   128
 71
    -8
 72
     5
 73
    -4
  0
VERTEX
  5
12AA
  8
0
 10
0.0
 20
0.0
 30
0.0
 70
   128
 71
    -8
 72
    -4
 73
   -53
  0
VERTEX
  5
12AB
  8
0
 10
0.0
 20
0.0
 30
0.0
 70
   128
 71
    -8
 72
    53
 73
   -52
  0
VERTEX
  5
12AC
  8
0
 10
0.0
 20
0.0
 30
0.0
 70
   128
 71
    -4
 72
    54
 73
   -53
  0
VERTEX
  5
12AD
  8
0
 10
0.0
 20
0.0
 30
0.0
 70
   128
 71
    -4
 72
    55
 73
   -54
  0
VERTEX
  5
12AE
  8
0
 10
0.0
 20
0.0
 30
0.0
 70
   128
 71
    -4
 72
    56
 73
   -55
  0
VERTEX
  5
12AF
  8
0
 10
0.0
 20
0.0
 30
0.0
 70
   128
 71
    -4
 72
    61
 73
   -60
  0
VERTEX
  5
12B0
  8
0
 10
0.0
 20
0.0
 30
0.0
 70
   128
 71
    -4
 72
    60
 73
   -59
  0
VERTEX
  5
12B1
  8
0
 10
0.0
 20
0.0
 30
0.0
 70
   128
 71
    -4
 72
    59
 73
   -58
  0
VERTEX
  5
12B2
  8
0
 10
0.0
 20
0.0
 30
0.0
 70
   128
 71
    -4
 72
    58
 73
   -57
  0
VERTEX
  5
12B3
  8
0
 10
0.0
 20
0.0
 30
0.0
 70
   128
 71
    -4
 72
    57
 73
   -56
  0
VERTEX
  5
12B4
  8
0
 10
0.0
 20
0.0
 30
0.0
 70
   128
 71
    -4
 72
    62
 73
   -61
  0
VERTEX
  5
12B5
  8
0
 10
0.0
 20
0.0
 30
0.0
 70
   128
 71
    -4
 72
    63
 73
   -62
  0
VERTEX
  5
12B6
  8
0
 10
0.0
 20
0.0
 30
0.0
 70
   128
 71
    -4
 72
    64
 73
   -63
  0
VERTEX
  5
12B7
  8
0
 10
0.0
 20
0.0
 30
0.0
 70
   128
 71
     4
 72
     3
 73
    -2
  0
VERTEX
  5
12B8
  8
0
 10
0.0
 20
0.0
 30
0.0
 70
   128
 71
    -4
 72
     2
 73
    -1
  0
VERTEX
  5
12B9
  8
0
 10
0.0
 20
0.0
 30
0.0
 70
   128
 71
    -4
 72
     1
 73
   -16
  0
VERTEX
  5
12BA
  8
0
 10
0.0
 20
0.0
 30
0.0
 70
   128
 71
    -4
 72
    16
 73
   -15
  0
VERTEX
  5
12BB
  8
0
 10
0.0
 20
0.0
 30
0.0
 70
   128
 71
    -4
 72
    15
 73
   -14
  0
VERTEX
  5
12BC
  8
0
 10
0.0
 20
0.0
 30
0.0
 70
   128
 71
    -4
 72
    14
 73
   -13
  0
VERTEX
  5
12BD
  8
0
 10
0.0
 20
0.0
 30
0.0
 70
   128
 71
    -4
 72
   -13
 73
   -17
  0
VERTEX
  5
12BE
  8
0
 10
0.0
 20
0.0
 30
0.0
 70
   128
 71
    -4
 72
    17
 73
   -64
  0
SEQEND
  5
1B43
  8
0
  0
POLYLINE
  5
12BF
  8
0
 66
     1
 10
0.0
 20
0.0
 30
0.0
 70
    64
 71
     4
 72
     2
  0
VERTEX
  5
12C0
  8
0
 10
-283.6496337730176
 20
-16.28989928337165
 30
-179.5702129791544
 70
   192
  0
VERTEX
  5
12C1
  8
0
 10
-283.6496337730175
 20
-16.28989928337165
 30
189.5702129791545
 70
   192
  0
VERTEX
  5
12C2
  8
0
 10
-285.0
 20
-19.99999999999998
 30
190.2244038366416
 70
   192
  0
VERTEX
  5
12C3
  8
0
 10
-285.0
 20
-20.0
 30
-180.224403836642
 70
   192
  0
VERTEX
  5
12C4
  8
0
 10
0.0
 20
0.0
 30
0.0
 70
   128
 71
     3
 72
     4
 73
    -1
  0
VERTEX
  5
12C5
  8
0
 10
0.0
 20
0.0
 30
0.0
 70
   128
 71
     2
 72
    -3
 73
     1
  0
SEQEND
  5
1B44
  8
0
  0
POLYLINE
  5
12C6
  8
0
 66
     1
 10
0.0
 20
0.0
 30
0.0
 70
    64
 71
     4
 72
     2
  0
VERTEX
  5
12C7
  8
0
 10
-260.224403836642
 20
-20.0
 30
-204.9999999999999
 70
   192
  0
VERTEX
  5
12C8
  8
0
 10
260.224403836642
 20
-20.0
 30
-205.0
 70
   192
  0
VERTEX
  5
12C9
  8
0
 10
259.5702129791546
 20
-16.28989928337164
 30
-203.6496337730175
 70
   192
  0
VERTEX
  5
12CA
  8
0
 10
-259.5702129791545
 20
-16.28989928337165
 30
-203.6496337730175
 70
   192
  0
VERTEX
  5
12CB
  8
0
 10
0.0
 20
0.0
 30
0.0
 70
   128
 71
     3
 72
     4
 73
    -1
  0
VERTEX
  5
12CC
  8
0
 10
0.0
 20
0.0
 30
0.0
 70
   128
 71
     2
 72
    -3
 73
     1
  0
SEQEND
  5
1B45
  8
0
  0
POLYLINE
  5
12CD
  8
0
 66
     1
 10
0.0
 20
0.0
 30
0.0
 70
    64
 71
    13
 72
    11
  0
VERTEX
  5
12CE
  8
0
 10
-147.253182354022
 20
-127.1636892745725
 30
14.88767353988892
 70
   192
  0
VERTEX
  5
12CF
  8
0
 10
-147.2421287355402
 20
-127.20360990201
 30
0.000000000000001
 70
   192
  0
VERTEX
  5
12D0
  8
0
 10
-94.3886287624494
 20
-129.9735444629359
 30
0.0
 70
   192
  0
VERTEX
  5
12D1
  8
0
 10
-147.2869923840813
 20
-127.0453259810687
 30
29.7543478502716
 70
   192
  0
VERTEX
  5
12D2
  8
0
 10
-87.96442917937529
 20
-130.0977644653966
 30
27.01184021071641
 70
   192
  0
VERTEX
  5
12D3
  8
0
 10
-136.9915068490659
 20
-127.0166563071597
 30
63.06197732101386
 70
   192
  0
VERTEX
  5
12D4
  8
0
 10
-144.859979879669
 20
-126.7913270673561
 30
55.4470360346765
 70
   192
  0
VERTEX
  5
12D5
  8
0
 10
-147.3471833785506
 20
-126.851050329759
 30
44.66960101796405
 70
   192
  0
VERTEX
  5
12D6
  8
0
 10
-126.2055843600586
 20
-127.473898278917
 30
65.270344924495
 70
   192
  0
VERTEX
  5
12D7
  8
0
 10
-71.00541116255852
 20
-130.4008440901654
 30
48.9362143322026
 70
   192
  0
VERTEX
  5
12D8
  8
0
 10
-99.60353008293114
 20
-128.6957298147677
 30
64.69649142699899
 70
   192
  0
VERTEX
  5
12D9
  8
0
 10
-73.28126326494309
 20
-129.8111138285012
 30
64.2943545458939
 70
   192
  0
VERTEX
  5
12DA
  8
0
 10
-47.2299610852815
 20
-130.7466990055866
 30
64.118773386855
 70
   192
  0
VERTEX
  5
12DB
  8
0
 10
0.0
 20
0.0
 30
0.0
 70
   128
 71
     1
 72
     2
 73
     3
  0
VERTEX
  5
12DC
  8
0
 10
0.0
 20
0.0
 30
0.0
 70
   128
 71
     3
 72
     4
 73
     1
  0
VERTEX
  5
12DD
  8
0
 10
0.0
 20
0.0
 30
0.0
 70
   128
 71
     5
 72
     6
 73
     7
  0
VERTEX
  5
12DE
  8
0
 10
0.0
 20
0.0
 30
0.0
 70
   128
 71
     5
 72
     7
 73
     8
  0
VERTEX
  5
12DF
  8
0
 10
0.0
 20
0.0
 30
0.0
 70
   128
 71
     4
 72
     3
 73
     5
  0
VERTEX
  5
12E0
  8
0
 10
0.0
 20
0.0
 30
0.0
 70
   128
 71
     4
 72
     5
 73
     8
  0
VERTEX
  5
12E1
  8
0
 10
0.0
 20
0.0
 30
0.0
 70
   128
 71
     9
 72
     6
 73
     5
  0
VERTEX
  5
12E2
  8
0
 10
0.0
 20
0.0
 30
0.0
 70
   128
 71
     9
 72
     5
 73
    10
  0
VERTEX
  5
12E3
  8
0
 10
0.0
 20
0.0
 30
0.0
 70
   128
 71
    10
 72
    11
 73
     9
  0
VERTEX
  5
12E4
  8
0
 10
0.0
 20
0.0
 30
0.0
 70
   128
 71
    12
 72
    11
 73
    10
  0
VERTEX
  5
12E5
  8
0
 10
0.0
 20
0.0
 30
0.0
 70
   128
 71
    10
 72
    13
 73
    12
  0
SEQEND
  5
1B46
  8
0
  0
POLYLINE
  5
12E6
  8
0
 66
     1
 10
0.0
 20
0.0
 30
0.0
 70
    64
 71
    12
 72
    10
  0
VERTEX
  5
12E7
  8
0
 10
147.347183378551
 20
-126.851050329759
 30
44.66960101796406
 70
   192
  0
VERTEX
  5
12E8
  8
0
 10
165.9948617638856
 20
-123.0402709011103
 30
44.40379577979476
 70
   192
  0
VERTEX
  5
12E9
  8
0
 10
182.6521489676778
 20
-113.8340104171804
 30
44.07493052815919
 70
   192
  0
VERTEX
  5
12EA
  8
0
 10
195.7984071525994
 20
-100.0727051303369
 30
43.71302725516814
 70
   192
  0
VERTEX
  5
12EB
  8
0
 10
181.7753370945084
 20
-107.2715496750889
 30
76.32617073729827
 70
   192
  0
VERTEX
  5
12EC
  8
0
 10
156.1561475939456
 20
-107.4817310628891
 30
101.6404726840117
 70
   192
  0
VERTEX
  5
12ED
  8
0
 10
123.2769044260096
 20
-100.6955530794948
 30
115.3622843234406
 70
   192
  0
VERTEX
  5
12EE
  8
0
 10
124.3936200023069
 20
-114.7742014000515
 30
101.7860984413031
 70
   192
  0
VERTEX
  5
12EF
  8
0
 10
125.4023587724229
 20
-123.9975906438395
 30
84.53270015951958
 70
   192
  0
VERTEX
  5
12F0
  8
0
 10
126.2055843600586
 20
-127.4738982789169
 30
65.27034492449499
 70
   192
  0
VERTEX
  5
12F1
  8
0
 10
137.0216538085548
 20
-127.0155492357355
 30
63.04702166664529
 70
   192
  0
VERTEX
  5
12F2
  8
0
 10
144.8815477559174
 20
-126.7910205359409
 30
55.40704697104236
 70
   192
  0
VERTEX
  5
12F3
  8
0
 10
0.0
 20
0.0
 30
0.0
 70
   128
 71
     6
 72
     7
 73
     8
  0
VERTEX
  5
12F4
  8
0
 10
0.0
 20
0.0
 30
0.0
 70
   128
 71
     8
 72
     9
 73
     6
  0
VERTEX
  5
12F5
  8
0
 10
0.0
 20
0.0
 30
0.0
 70
   128
 71
     9
 72
    11
 73
     6
  0
VERTEX
  5
12F6
  8
0
 10
0.0
 20
0.0
 30
0.0
 70
   128
 71
     9
 72
    10
 73
    11
  0
VERTEX
  5
12F7
  8
0
 10
0.0
 20
0.0
 30
0.0
 70
   128
 71
    12
 72
     5
 73
     6
  0
VERTEX
  5
12F8
  8
0
 10
0.0
 20
0.0
 30
0.0
 70
   128
 71
    11
 72
    12
 73
     6
  0
VERTEX
  5
12F9
  8
0
 10
0.0
 20
0.0
 30
0.0
 70
   128
 71
    12
 72
     1
 73
     2
  0
VERTEX
  5
12FA
  8
0
 10
0.0
 20
0.0
 30
0.0
 70
   128
 71
     2
 72
     3
 73
    12
  0
VERTEX
  5
12FB
  8
0
 10
0.0
 20
0.0
 30
0.0
 70
   128
 71
     3
 72
     5
 73
    12
  0
VERTEX
  5
12FC
  8
0
 10
0.0
 20
0.0
 30
0.0
 70
   128
 71
     3
 72
     4
 73
     5
  0
SEQEND
  5
1B47
  8
0
  0
POLYLINE
  5
12FD
  8
0
 66
     1
 10
0.0
 20
0.0
 30
0.0
 70
    64
 71
    18
 72
    16
  0
VERTEX
  5
12FE
  8
0
 10
-126.2055843600586
 20
-127.473898278917
 30
65.270344924495
 70
   192
  0
VERTEX
  5
12FF
  8
0
 10
-99.60353008293114
 20
-128.6957298147677
 30
64.69649142699899
 70
   192
  0
VERTEX
  5
1300
  8
0
 10
-73.28126326494309
 20
-129.8111138285012
 30
64.2943545458939
 70
   192
  0
VERTEX
  5
1301
  8
0
 10
-47.2299610852815
 20
-130.7466990055866
 30
64.118773386855
 70
   192
  0
VERTEX
  5
1302
  8
0
 10
-16.02324621031383
 20
-130.6705132899019
 30
71.37187708689055
 70
   192
  0
VERTEX
  5
1303
  8
0
 10
16.0236998038891
 20
-130.6705183938422
 30
71.37183344195917
 70
   192
  0
VERTEX
  5
1304
  8
0
 10
47.2299610852792
 20
-130.7466990055866
 30
64.118773386855
 70
   192
  0
VERTEX
  5
1305
  8
0
 10
73.28288704705027
 20
-129.8110479010489
 30
64.29441539169912
 70
   192
  0
VERTEX
  5
1306
  8
0
 10
99.60502652237525
 20
-128.6956638660287
 30
64.69648508453419
 70
   192
  0
VERTEX
  5
1307
  8
0
 10
126.2055843600586
 20
-127.473898278917
 30
65.270344924495
 70
   192
  0
VERTEX
  5
1308
  8
0
 10
125.4023587724229
 20
-123.9975906438395
 30
84.53270015951958
 70
   192
  0
VERTEX
  5
1309
  8
0
 10
124.3936200023069
 20
-114.7742014000515
 30
101.7860984413031
 70
   192
  0
VERTEX
  5
130A
  8
0
 10
123.2769044260094
 20
-100.6955530794947
 30
115.3622843234405
 70
   192
  0
VERTEX
  5
130B
  8
0
 10
41.08919851626082
 20
-104.0987473235931
 30
112.9793420597309
 70
   192
  0
VERTEX
  5
130C
  8
0
 10
-41.15518368058701
 20
-104.0967600096703
 30
112.9807335919204
 70
   192
  0
VERTEX
  5
130D
  8
0
 10
-123.2769044260092
 20
-100.6955530794948
 30
115.3622843234404
 70
   192
  0
VERTEX
  5
130E
  8
0
 10
-124.3936200023066
 20
-114.7742014000516
 30
101.786098441303
 70
   192
  0
VERTEX
  5
130F
  8
0
 10
-125.4023587724227
 20
-123.9975906438396
 30
84.53270015951956
 70
   192
  0
VERTEX
  5
1310
  8
0
 10
0.0
 20
0.0
 30
0.0
 70
   128
 71
    12
 72
    13
 73
    14
  0
VERTEX
  5
1311
  8
0
 10
0.0
 20
0.0
 30
0.0
 70
   128
 71
    15
 72
    17
 73
    12
  0
VERTEX
  5
1312
  8
0
 10
0.0
 20
0.0
 30
0.0
 70
   128
 71
    14
 72
    15
 73
    12
  0
VERTEX
  5
1313
  8
0
 10
0.0
 20
0.0
 30
0.0
 70
   128
 71
    15
 72
    16
 73
    17
  0
VERTEX
  5
1314
  8
0
 10
0.0
 20
0.0
 30
0.0
 70
   128
 71
    18
 72
    11
 73
   -12
  0
VERTEX
  5
1315
  8
0
 10
0.0
 20
0.0
 30
0.0
 70
   128
 71
    17
 72
   -18
 73
    12
  0
VERTEX
  5
1316
  8
0
 10
0.0
 20
0.0
 30
0.0
 70
   128
 71
    18
 72
     1
 73
     2
  0
VERTEX
  5
1317
  8
0
 10
0.0
 20
0.0
 30
0.0
 70
   128
 71
     5
 72
    18
 73
     2
  0
VERTEX
  5
1318
  8
0
 10
0.0
 20
0.0
 30
0.0
 70
   128
 71
     2
 72
     3
 73
     5
  0
VERTEX
  5
1319
  8
0
 10
0.0
 20
0.0
 30
0.0
 70
   128
 71
     3
 72
     4
 73
     5
  0
VERTEX
  5
131A
  8
0
 10
0.0
 20
0.0
 30
0.0
 70
   128
 71
     6
 72
    11
 73
    18
  0
VERTEX
  5
131B
  8
0
 10
0.0
 20
0.0
 30
0.0
 70
   128
 71
     5
 72
     6
 73
    18
  0
VERTEX
  5
131C
  8
0
 10
0.0
 20
0.0
 30
0.0
 70
   128
 71
     7
 72
     8
 73
    11
  0
VERTEX
  5
131D
  8
0
 10
0.0
 20
0.0
 30
0.0
 70
   128
 71
     6
 72
     7
 73
    11
  0
VERTEX
  5
131E
  8
0
 10
0.0
 20
0.0
 30
0.0
 70
   128
 71
     8
 72
     9
 73
    11
  0
VERTEX
  5
131F
  8
0
 10
0.0
 20
0.0
 30
0.0
 70
   128
 71
     9
 72
    10
 73
    11
  0
SEQEND
  5
1B48
  8
0
  0
POLYLINE
  5
1320
  8
0
 66
     1
 10
0.0
 20
0.0
 30
0.0
 70
    64
 71
    12
 72
    10
  0
VERTEX
  5
1321
  8
0
 10
-126.2055843600584
 20
-127.4738982789169
 30
65.27034492449499
 70
   192
  0
VERTEX
  5
1322
  8
0
 10
-125.4023587724227
 20
-123.9975906438396
 30
84.53270015951956
 70
   192
  0
VERTEX
  5
1323
  8
0
 10
-124.3936200023066
 20
-114.7742014000516
 30
101.786098441303
 70
   192
  0
VERTEX
  5
1324
  8
0
 10
-123.2769044260092
 20
-100.6955530794948
 30
115.3622843234405
 70
   192
  0
VERTEX
  5
1325
  8
0
 10
-156.1216182096404
 20
-107.4778994430419
 30
101.6635804368737
 70
   192
  0
VERTEX
  5
1326
  8
0
 10
-181.7457448287804
 20
-107.2769917375719
 30
76.36928244723815
 70
   192
  0
VERTEX
  5
1327
  8
0
 10
-195.7984071525995
 20
-100.072705130337
 30
43.7130272551682
 70
   192
  0
VERTEX
  5
1328
  8
0
 10
-182.6521489676778
 20
-113.8340104171804
 30
44.0749305281592
 70
   192
  0
VERTEX
  5
1329
  8
0
 10
-165.9948617638853
 20
-123.0402709011103
 30
44.40379577979477
 70
   192
  0
VERTEX
  5
132A
  8
0
 10
-147.3471833785507
 20
-126.8510503297591
 30
44.66960101796406
 70
   192
  0
VERTEX
  5
132B
  8
0
 10
-144.859979879669
 20
-126.7913270673561
 30
55.4470360346765
 70
   192
  0
VERTEX
  5
132C
  8
0
 10
-136.9915068490659
 20
-127.0166563071597
 30
63.06197732101386
 70
   192
  0
VERTEX
  5
132D
  8
0
 10
0.0
 20
0.0
 30
0.0
 70
   128
 71
     6
 72
     7
 73
     8
  0
VERTEX
  5
132E
  8
0
 10
0.0
 20
0.0
 30
0.0
 70
   128
 71
     8
 72
     9
 73
     6
  0
VERTEX
  5
132F
  8
0
 10
0.0
 20
0.0
 30
0.0
 70
   128
 71
     9
 72
    11
 73
     6
  0
VERTEX
  5
1330
  8
0
 10
0.0
 20
0.0
 30
0.0
 70
   128
 71
     9
 72
    10
 73
    11
  0
VERTEX
  5
1331
  8
0
 10
0.0
 20
0.0
 30
0.0
 70
   128
 71
    12
 72
     5
 73
     6
  0
VERTEX
  5
1332
  8
0
 10
0.0
 20
0.0
 30
0.0
 70
   128
 71
    11
 72
    12
 73
     6
  0
VERTEX
  5
1333
  8
0
 10
0.0
 20
0.0
 30
0.0
 70
   128
 71
    12
 72
     1
 73
     2
  0
VERTEX
  5
1334
  8
0
 10
0.0
 20
0.0
 30
0.0
 70
   128
 71
     2
 72
     3
 73
    12
  0
VERTEX
  5
1335
  8
0
 10
0.0
 20
0.0
 30
0.0
 70
   128
 71
     3
 72
     5
 73
    12
  0
VERTEX
  5
1336
  8
0
 10
0.0
 20
0.0
 30
0.0
 70
   128
 71
     3
 72
     4
 73
     5
  0
SEQEND
  5
1B49
  8
0
  0
POLYLINE
  5
1337
  8
0
 66
     1
 10
0.0
 20
0.0
 30
0.0
 70
    64
 71
    15
 72
    13
  0
VERTEX
  5
1338
  8
0
 10
-195.6044545261726
 20
-100.3496981871706
 30
-20.0487009202221
 70
   192
  0
VERTEX
  5
1339
  8
0
 10
-182.486885396559
 20
-114.0898934792008
 30
-20.22062987884377
 70
   192
  0
VERTEX
  5
133A
  8
0
 10
-165.869588429533
 20
-123.2950094062726
 30
-20.37692568483691
 70
   192
  0
VERTEX
  5
133B
  8
0
 10
-147.2635408440692
 20
-127.1280433865927
 30
-20.50337667653681
 70
   192
  0
VERTEX
  5
133C
  8
0
 10
-147.2515788901273
 20
-127.1699495274153
 30
-13.66676366659924
 70
   192
  0
VERTEX
  5
133D
  8
0
 10
-147.2444410098695
 20
-127.1951842080224
 30
-6.83298798598201
 70
   192
  0
VERTEX
  5
133E
  8
0
 10
-147.2421287355402
 20
-127.20360990201
 30
0.000000000000001
 70
   192
  0
VERTEX
  5
133F
  8
0
 10
-147.253182354022
 20
-127.1636892745725
 30
14.88767353988892
 70
   192
  0
VERTEX
  5
1340
  8
0
 10
-147.2869923840813
 20
-127.0453259810687
 30
29.7543478502716
 70
   192
  0
VERTEX
  5
1341
  8
0
 10
-147.3471833785506
 20
-126.851050329759
 30
44.66960101796405
 70
   192
  0
VERTEX
  5
1342
  8
0
 10
-165.9948617638853
 20
-123.0402709011103
 30
44.40379577979477
 70
   192
  0
VERTEX
  5
1343
  8
0
 10
-182.6521489676778
 20
-113.8340104171804
 30
44.0749305281592
 70
   192
  0
VERTEX
  5
1344
  8
0
 10
-195.7984071525995
 20
-100.0727051303369
 30
43.71302725516815
 70
   192
  0
VERTEX
  5
1345
  8
0
 10
-195.6179271044905
 20
-100.3304573513004
 30
22.46018881766668
 70
   192
  0
VERTEX
  5
1346
  8
0
 10
-195.5518210258118
 20
-100.4248666157985
 30
1.206292880650639
 70
   192
  0
VERTEX
  5
1347
  8
0
 10
0.0
 20
0.0
 30
0.0
 70
   128
 71
     9
 72
    10
 73
    11
  0
VERTEX
  5
1348
  8
0
 10
0.0
 20
0.0
 30
0.0
 70
   128
 71
    11
 72
    12
 73
     9
  0
VERTEX
  5
1349
  8
0
 10
0.0
 20
0.0
 30
0.0
 70
   128
 71
    12
 72
    14
 73
     9
  0
VERTEX
  5
134A
  8
0
 10
0.0
 20
0.0
 30
0.0
 70
   128
 71
    12
 72
    13
 73
    14
  0
VERTEX
  5
134B
  8
0
 10
0.0
 20
0.0
 30
0.0
 70
   128
 71
    15
 72
     7
 73
     8
  0
VERTEX
  5
134C
  8
0
 10
0.0
 20
0.0
 30
0.0
 70
   128
 71
    14
 72
    15
 73
     8
  0
VERTEX
  5
134D
  8
0
 10
0.0
 20
0.0
 30
0.0
 70
   128
 71
     8
 72
     9
 73
    14
  0
VERTEX
  5
134E
  8
0
 10
0.0
 20
0.0
 30
0.0
 70
   128
 71
     5
 72
     1
 73
     2
  0
VERTEX
  5
134F
  8
0
 10
0.0
 20
0.0
 30
0.0
 70
   128
 71
     2
 72
     3
 73
     5
  0
VERTEX
  5
1350
  8
0
 10
0.0
 20
0.0
 30
0.0
 70
   128
 71
     3
 72
     4
 73
     5
  0
VERTEX
  5
1351
  8
0
 10
0.0
 20
0.0
 30
0.0
 70
   128
 71
     6
 72
    15
 73
     1
  0
VERTEX
  5
1352
  8
0
 10
0.0
 20
0.0
 30
0.0
 70
   128
 71
     5
 72
     6
 73
     1
  0
VERTEX
  5
1353
  8
0
 10
0.0
 20
0.0
 30
0.0
 70
   128
 71
     6
 72
     7
 73
    15
  0
SEQEND
  5
1B4A
  8
0
  0
POLYLINE
  5
1354
  8
0
 66
     1
 10
0.0
 20
0.0
 30
0.0
 70
    64
 71
    12
 72
    10
  0
VERTEX
  5
1355
  8
0
 10
-115.7091153400612
 20
-76.30978921383375
 30
-104.74507122394
 70
   192
  0
VERTEX
  5
1356
  8
0
 10
-117.1066331512749
 20
-102.6541884390163
 30
-93.4656815585473
 70
   192
  0
VERTEX
  5
1357
  8
0
 10
-118.2142936355686
 20
-121.2655137541529
 30
-71.6575015322838
 70
   192
  0
VERTEX
  5
1358
  8
0
 10
-118.8023583920888
 20
-128.2836147103554
 30
-43.84373701535956
 70
   192
  0
VERTEX
  5
1359
  8
0
 10
-132.0931626058908
 20
-127.6668931888553
 30
-41.31045676398626
 70
   192
  0
VERTEX
  5
135A
  8
0
 10
-142.9343816586143
 20
-127.2296889472433
 30
-33.22218584699083
 70
   192
  0
VERTEX
  5
135B
  8
0
 10
-147.2635408440692
 20
-127.1280433865926
 30
-20.5033766765368
 70
   192
  0
VERTEX
  5
135C
  8
0
 10
-165.869588429533
 20
-123.2950094062726
 30
-20.37692568483691
 70
   192
  0
VERTEX
  5
135D
  8
0
 10
-182.486885396559
 20
-114.0898934792008
 30
-20.22062987884377
 70
   192
  0
VERTEX
  5
135E
  8
0
 10
-195.6044545261726
 20
-100.3496981871706
 30
-20.0487009202221
 70
   192
  0
VERTEX
  5
135F
  8
0
 10
-183.3137746373266
 20
-99.61779542373034
 30
-61.21291317212965
 70
   192
  0
VERTEX
  5
1360
  8
0
 10
-154.4002226914131
 20
-90.89110682503967
 30
-91.72841189804907
 70
   192
  0
VERTEX
  5
1361
  8
0
 10
0.0
 20
0.0
 30
0.0
 70
   128
 71
     6
 72
     7
 73
     8
  0
VERTEX
  5
1362
  8
0
 10
0.0
 20
0.0
 30
0.0
 70
   128
 71
     8
 72
     9
 73
     6
  0
VERTEX
  5
1363
  8
0
 10
0.0
 20
0.0
 30
0.0
 70
   128
 71
     9
 72
    11
 73
     6
  0
VERTEX
  5
1364
  8
0
 10
0.0
 20
0.0
 30
0.0
 70
   128
 71
     9
 72
    10
 73
    11
  0
VERTEX
  5
1365
  8
0
 10
0.0
 20
0.0
 30
0.0
 70
   128
 71
    12
 72
     5
 73
     6
  0
VERTEX
  5
1366
  8
0
 10
0.0
 20
0.0
 30
0.0
 70
   128
 71
    11
 72
    12
 73
     6
  0
VERTEX
  5
1367
  8
0
 10
0.0
 20
0.0
 30
0.0
 70
   128
 71
    12
 72
     1
 73
     2
  0
VERTEX
  5
1368
  8
0
 10
0.0
 20
0.0
 30
0.0
 70
   128
 71
     2
 72
     3
 73
    12
  0
VERTEX
  5
1369
  8
0
 10
0.0
 20
0.0
 30
0.0
 70
   128
 71
     3
 72
     5
 73
    12
  0
VERTEX
  5
136A
  8
0
 10
0.0
 20
0.0
 30
0.0
 70
   128
 71
     3
 72
     4
 73
     5
  0
SEQEND
  5
1B4B
  8
0
  0
POLYLINE
  5
136B
  8
0
 66
     1
 10
0.0
 20
0.0
 30
0.0
 70
    64
 71
    18
 72
    16
  0
VERTEX
  5
136C
  8
0
 10
118.802358392089
 20
-128.2836147103552
 30
-43.84373701535955
 70
   192
  0
VERTEX
  5
136D
  8
0
 10
104.1732636980192
 20
-128.996675115513
 30
-43.85578987187923
 70
   192
  0
VERTEX
  5
136E
  8
0
 10
90.21568899393645
 20
-129.662134656316
 30
-43.90188001002294
 70
   192
  0
VERTEX
  5
136F
  8
0
 10
76.08169790510568
 20
-130.3143317839654
 30
-43.99463187435625
 70
   192
  0
VERTEX
  5
1370
  8
0
 10
27.22933843526322
 20
-126.6098234910866
 30
-68.03304009415845
 70
   192
  0
VERTEX
  5
1371
  8
0
 10
-27.25187842989144
 20
-126.6115805902098
 30
-68.02789351172945
 70
   192
  0
VERTEX
  5
1372
  8
0
 10
-76.08169790510559
 20
-130.3143317839654
 30
-43.99463187435625
 70
   192
  0
VERTEX
  5
1373
  8
0
 10
-90.21581180341937
 20
-129.6621288122101
 30
-43.90188366614555
 70
   192
  0
VERTEX
  5
1374
  8
0
 10
-104.1732187598194
 20
-128.9966707676462
 30
-43.85635421012648
 70
   192
  0
VERTEX
  5
1375
  8
0
 10
-118.802358392089
 20
-128.2836147103552
 30
-43.84373701535955
 70
   192
  0
VERTEX
  5
1376
  8
0
 10
-118.2142936355686
 20
-121.2655137541529
 30
-71.6575015322838
 70
   192
  0
VERTEX
  5
1377
  8
0
 10
-117.1066331512749
 20
-102.6541884390163
 30
-93.4656815585473
 70
   192
  0
VERTEX
  5
1378
  8
0
 10
-115.7091153400612
 20
-76.30978921383375
 30
-104.74507122394
 70
   192
  0
VERTEX
  5
1379
  8
0
 10
-38.59234314002918
 20
-79.78094405086868
 30
-104.1330129719541
 70
   192
  0
VERTEX
  5
137A
  8
0
 10
38.59476475732113
 20
-79.78085768155614
 30
-104.1330282011941
 70
   192
  0
VERTEX
  5
137B
  8
0
 10
115.7091153400616
 20
-76.30978921383391
 30
-104.74507122394
 70
   192
  0
VERTEX
  5
137C
  8
0
 10
117.1066331512753
 20
-102.6541884390163
 30
-93.46568155854723
 70
   192
  0
VERTEX
  5
137D
  8
0
 10
118.2142936355689
 20
-121.2655137541528
 30
-71.65750153228376
 70
   192
  0
VERTEX
  5
137E
  8
0
 10
0.0
 20
0.0
 30
0.0
 70
   128
 71
    12
 72
    13
 73
    14
  0
VERTEX
  5
137F
  8
0
 10
0.0
 20
0.0
 30
0.0
 70
   128
 71
    15
 72
    17
 73
    12
  0
VERTEX
  5
1380
  8
0
 10
0.0
 20
0.0
 30
0.0
 70
   128
 71
    14
 72
    15
 73
    12
  0
VERTEX
  5
1381
  8
0
 10
0.0
 20
0.0
 30
0.0
 70
   128
 71
    15
 72
    16
 73
    17
  0
VERTEX
  5
1382
  8
0
 10
0.0
 20
0.0
 30
0.0
 70
   128
 71
    18
 72
    11
 73
   -12
  0
VERTEX
  5
1383
  8
0
 10
0.0
 20
0.0
 30
0.0
 70
   128
 71
    17
 72
   -18
 73
    12
  0
VERTEX
  5
1384
  8
0
 10
0.0
 20
0.0
 30
0.0
 70
   128
 71
    18
 72
     1
 73
     2
  0
VERTEX
  5
1385
  8
0
 10
0.0
 20
0.0
 30
0.0
 70
   128
 71
     5
 72
    18
 73
     2
  0
VERTEX
  5
1386
  8
0
 10
0.0
 20
0.0
 30
0.0
 70
   128
 71
     2
 72
     3
 73
     5
  0
VERTEX
  5
1387
  8
0
 10
0.0
 20
0.0
 30
0.0
 70
   128
 71
     3
 72
     4
 73
     5
  0
VERTEX
  5
1388
  8
0
 10
0.0
 20
0.0
 30
0.0
 70
   128
 71
     6
 72
    11
 73
    18
  0
VERTEX
  5
1389
  8
0
 10
0.0
 20
0.0
 30
0.0
 70
   128
 71
     5
 72
     6
 73
    18
  0
VERTEX
  5
138A
  8
0
 10
0.0
 20
0.0
 30
0.0
 70
   128
 71
     7
 72
     8
 73
    11
  0
VERTEX
  5
138B
  8
0
 10
0.0
 20
0.0
 30
0.0
 70
   128
 71
     6
 72
     7
 73
    11
  0
VERTEX
  5
138C
  8
0
 10
0.0
 20
0.0
 30
0.0
 70
   128
 71
     8
 72
     9
 73
    11
  0
VERTEX
  5
138D
  8
0
 10
0.0
 20
0.0
 30
0.0
 70
   128
 71
     9
 72
    10
 73
    11
  0
SEQEND
  5
1B4C
  8
0
  0
POLYLINE
  5
138E
  8
0
 66
     1
 10
0.0
 20
0.0
 30
0.0
 70
    64
 71
    12
 72
    10
  0
VERTEX
  5
138F
  8
0
 10
118.8023583920891
 20
-128.2836147103553
 30
-43.84373701535956
 70
   192
  0
VERTEX
  5
1390
  8
0
 10
118.2142936355689
 20
-121.2655137541528
 30
-71.65750153228376
 70
   192
  0
VERTEX
  5
1391
  8
0
 10
117.1066331512753
 20
-102.6541884390163
 30
-93.46568155854723
 70
   192
  0
VERTEX
  5
1392
  8
0
 10
115.7091153400615
 20
-76.30978921383388
 30
-104.74507122394
 70
   192
  0
VERTEX
  5
1393
  8
0
 10
154.4899989878996
 20
-90.92216438149507
 30
-91.67075462420227
 70
   192
  0
VERTEX
  5
1394
  8
0
 10
183.3282047464093
 20
-99.62103630181444
 30
-61.18762206616294
 70
   192
  0
VERTEX
  5
1395
  8
0
 10
195.6044545261725
 20
-100.3496981871706
 30
-20.0487009202221
 70
   192
  0
VERTEX
  5
1396
  8
0
 10
182.486885396559
 20
-114.0898934792008
 30
-20.22062987884383
 70
   192
  0
VERTEX
  5
1397
  8
0
 10
165.869588429533
 20
-123.2950094062726
 30
-20.37692568483696
 70
   192
  0
VERTEX
  5
1398
  8
0
 10
147.2635408440692
 20
-127.1280433865927
 30
-20.50337667653686
 70
   192
  0
VERTEX
  5
1399
  8
0
 10
142.913830321415
 20
-127.2304185863665
 30
-33.24911172419438
 70
   192
  0
VERTEX
  5
139A
  8
0
 10
132.080850891122
 20
-127.6674295883538
 30
-41.31552942673052
 70
   192
  0
VERTEX
  5
139B
  8
0
 10
0.0
 20
0.0
 30
0.0
 70
   128
 71
     6
 72
     7
 73
     8
  0
VERTEX
  5
139C
  8
0
 10
0.0
 20
0.0
 30
0.0
 70
   128
 71
     8
 72
     9
 73
     6
  0
VERTEX
  5
139D
  8
0
 10
0.0
 20
0.0
 30
0.0
 70
   128
 71
     9
 72
    11
 73
     6
  0
VERTEX
  5
139E
  8
0
 10
0.0
 20
0.0
 30
0.0
 70
   128
 71
     9
 72
    10
 73
    11
  0
VERTEX
  5
139F
  8
0
 10
0.0
 20
0.0
 30
0.0
 70
   128
 71
    12
 72
     5
 73
     6
  0
VERTEX
  5
13A0
  8
0
 10
0.0
 20
0.0
 30
0.0
 70
   128
 71
    11
 72
    12
 73
     6
  0
VERTEX
  5
13A1
  8
0
 10
0.0
 20
0.0
 30
0.0
 70
   128
 71
    12
 72
     1
 73
     2
  0
VERTEX
  5
13A2
  8
0
 10
0.0
 20
0.0
 30
0.0
 70
   128
 71
     2
 72
     3
 73
    12
  0
VERTEX
  5
13A3
  8
0
 10
0.0
 20
0.0
 30
0.0
 70
   128
 71
     3
 72
     5
 73
    12
  0
VERTEX
  5
13A4
  8
0
 10
0.0
 20
0.0
 30
0.0
 70
   128
 71
     3
 72
     4
 73
     5
  0
SEQEND
  5
1B4D
  8
0
  0
POLYLINE
  5
13A5
  8
0
 66
     1
 10
0.0
 20
0.0
 30
0.0
 70
    64
 71
    12
 72
    10
  0
VERTEX
  5
13A6
  8
0
 10
147.2635408440692
 20
-127.1280433865927
 30
-20.50337667653686
 70
   192
  0
VERTEX
  5
13A7
  8
0
 10
165.869588429533
 20
-123.2950094062726
 30
-20.37692568483696
 70
   192
  0
VERTEX
  5
13A8
  8
0
 10
182.486885396559
 20
-114.0898934792008
 30
-20.22062987884383
 70
   192
  0
VERTEX
  5
13A9
  8
0
 10
195.6044545261726
 20
-100.3496981871706
 30
-20.04870092022216
 70
   192
  0
VERTEX
  5
13AA
  8
0
 10
195.5518210258122
 20
-100.4248666157984
 30
1.206292880650676
 70
   192
  0
VERTEX
  5
13AB
  8
0
 10
195.6179271044906
 20
-100.3304573513003
 30
22.4601888176667
 70
   192
  0
VERTEX
  5
13AC
  8
0
 10
195.7984071525995
 20
-100.072705130337
 30
43.7130272551682
 70
   192
  0
VERTEX
  5
13AD
  8
0
 10
182.6521489676778
 20
-113.8340104171804
 30
44.07493052815919
 70
   192
  0
VERTEX
  5
13AE
  8
0
 10
165.9948617638856
 20
-123.0402709011103
 30
44.40379577979476
 70
   192
  0
VERTEX
  5
13AF
  8
0
 10
147.347183378551
 20
-126.851050329759
 30
44.66960101796406
 70
   192
  0
VERTEX
  5
13B0
  8
0
 10
147.268754225613
 20
-127.1091818432958
 30
22.93480716421199
 70
   192
  0
VERTEX
  5
13B1
  8
0
 10
147.2419210520292
 20
-127.2033557067599
 30
1.222204522085322
 70
   192
  0
VERTEX
  5
13B2
  8
0
 10
0.0
 20
0.0
 30
0.0
 70
   128
 71
     6
 72
     7
 73
     8
  0
VERTEX
  5
13B3
  8
0
 10
0.0
 20
0.0
 30
0.0
 70
   128
 71
     8
 72
     9
 73
     6
  0
VERTEX
  5
13B4
  8
0
 10
0.0
 20
0.0
 30
0.0
 70
   128
 71
     9
 72
    11
 73
     6
  0
VERTEX
  5
13B5
  8
0
 10
0.0
 20
0.0
 30
0.0
 70
   128
 71
     9
 72
    10
 73
    11
  0
VERTEX
  5
13B6
  8
0
 10
0.0
 20
0.0
 30
0.0
 70
   128
 71
    12
 72
     5
 73
     6
  0
VERTEX
  5
13B7
  8
0
 10
0.0
 20
0.0
 30
0.0
 70
   128
 71
    11
 72
    12
 73
     6
  0
VERTEX
  5
13B8
  8
0
 10
0.0
 20
0.0
 30
0.0
 70
   128
 71
    12
 72
     1
 73
     2
  0
VERTEX
  5
13B9
  8
0
 10
0.0
 20
0.0
 30
0.0
 70
   128
 71
     2
 72
     3
 73
    12
  0
VERTEX
  5
13BA
  8
0
 10
0.0
 20
0.0
 30
0.0
 70
   128
 71
     3
 72
     5
 73
    12
  0
VERTEX
  5
13BB
  8
0
 10
0.0
 20
0.0
 30
0.0
 70
   128
 71
     3
 72
     4
 73
     5
  0
SEQEND
  5
1B4E
  8
0
  0
POLYLINE
  5
13BC
  8
0
 66
     1
 10
0.0
 20
0.0
 30
0.0
 70
    64
 71
    11
 72
     9
  0
VERTEX
  5
13BD
  8
0
 10
156.1561475939456
 20
-107.4817310628891
 30
101.6404726840117
 70
   192
  0
VERTEX
  5
13BE
  8
0
 10
231.7229707135635
 20
-20.40920517939205
 30
151.7229707135635
 70
   192
  0
VERTEX
  5
13BF
  8
0
 10
216.9562726938007
 20
-20.77798711004191
 30
162.3023644124231
 70
   192
  0
VERTEX
  5
13C0
  8
0
 10
198.4362317130826
 20
-21.88204173564258
 30
168.2838973166097
 70
   192
  0
VERTEX
  5
13C1
  8
0
 10
177.2173669163105
 20
-23.6605890912238
 30
169.3027468137415
 70
   192
  0
VERTEX
  5
13C2
  8
0
 10
123.2769044260095
 20
-100.6955530794947
 30
115.3622843234406
 70
   192
  0
VERTEX
  5
13C3
  8
0
 10
181.7753370945084
 20
-107.2715496750889
 30
76.32617073729827
 70
   192
  0
VERTEX
  5
13C4
  8
0
 10
242.3023978717402
 20
-20.77799614382456
 30
136.9562107830743
 70
   192
  0
VERTEX
  5
13C5
  8
0
 10
249.3027468137415
 20
-23.66058909122387
 30
97.21736691631041
 70
   192
  0
VERTEX
  5
13C6
  8
0
 10
248.283909742745
 20
-21.88204062890566
 30
118.4361495692435
 70
   192
  0
VERTEX
  5
13C7
  8
0
 10
195.7984071525995
 20
-100.072705130337
 30
43.7130272551682
 70
   192
  0
VERTEX
  5
13C8
  8
0
 10
0.0
 20
0.0
 30
0.0
 70
   128
 71
     1
 72
     2
 73
     3
  0
VERTEX
  5
13C9
  8
0
 10
0.0
 20
0.0
 30
0.0
 70
   128
 71
     4
 72
     1
 73
     3
  0
VERTEX
  5
13CA
  8
0
 10
0.0
 20
0.0
 30
0.0
 70
   128
 71
     4
 72
     5
 73
     6
  0
VERTEX
  5
13CB
  8
0
 10
0.0
 20
0.0
 30
0.0
 70
   128
 71
     4
 72
     6
 73
     1
  0
VERTEX
  5
13CC
  8
0
 10
0.0
 20
0.0
 30
0.0
 70
   128
 71
     1
 72
     7
 73
     8
  0
VERTEX
  5
13CD
  8
0
 10
0.0
 20
0.0
 30
0.0
 70
   128
 71
     1
 72
     8
 73
     2
  0
VERTEX
  5
13CE
  8
0
 10
0.0
 20
0.0
 30
0.0
 70
   128
 71
     9
 72
    10
 73
     8
  0
VERTEX
  5
13CF
  8
0
 10
0.0
 20
0.0
 30
0.0
 70
   128
 71
     9
 72
     8
 73
     7
  0
VERTEX
  5
13D0
  8
0
 10
0.0
 20
0.0
 30
0.0
 70
   128
 71
     7
 72
    11
 73
     9
  0
SEQEND
  5
1B4F
  8
0
  0
POLYLINE
  5
13D1
  8
0
 66
     1
 10
0.0
 20
0.0
 30
0.0
 70
    64
 71
     6
 72
     4
  0
VERTEX
  5
13D2
  8
0
 10
123.2769044260095
 20
-100.6955530794947
 30
115.3622843234406
 70
   192
  0
VERTEX
  5
13D3
  8
0
 10
177.2173669163105
 20
-23.66058909122387
 30
169.3027468137416
 70
   192
  0
VERTEX
  5
13D4
  8
0
 10
-177.2173669163105
 20
-23.6605890912238
 30
169.3027468137415
 70
   192
  0
VERTEX
  5
13D5
  8
0
 10
-123.2769044260093
 20
-100.6955530794949
 30
115.3622843234405
 70
   192
  0
VERTEX
  5
13D6
  8
0
 10
-41.15518368058701
 20
-104.0967600096703
 30
112.9807335919204
 70
   192
  0
VERTEX
  5
13D7
  8
0
 10
41.08919851626082
 20
-104.0987473235931
 30
112.9793420597309
 70
   192
  0
VERTEX
  5
13D8
  8
0
 10
0.0
 20
0.0
 30
0.0
 70
   128
 71
     3
 72
     4
 73
    -5
  0
VERTEX
  5
13D9
  8
0
 10
0.0
 20
0.0
 30
0.0
 70
   128
 71
    -6
 72
     2
 73
    -3
  0
VERTEX
  5
13DA
  8
0
 10
0.0
 20
0.0
 30
0.0
 70
   128
 71
     5
 72
    -6
 73
    -3
  0
VERTEX
  5
13DB
  8
0
 10
0.0
 20
0.0
 30
0.0
 70
   128
 71
     6
 72
     1
 73
    -2
  0
SEQEND
  5
1B50
  8
0
  0
POLYLINE
  5
13DC
  8
0
 66
     1
 10
0.0
 20
0.0
 30
0.0
 70
    64
 71
    11
 72
     9
  0
VERTEX
  5
13DD
  8
0
 10
-181.7457448287804
 20
-107.2769917375719
 30
76.36928244723815
 70
   192
  0
VERTEX
  5
13DE
  8
0
 10
-231.7229707135635
 20
-20.40920517939205
 30
151.7229707135635
 70
   192
  0
VERTEX
  5
13DF
  8
0
 10
-242.3023644064932
 20
-20.77798710880022
 30
136.9562727070994
 70
   192
  0
VERTEX
  5
13E0
  8
0
 10
-248.2838973164866
 20
-21.8820417350838
 30
118.4362317156332
 70
   192
  0
VERTEX
  5
13E1
  8
0
 10
-249.3027468137415
 20
-23.6605890912238
 30
97.21736691631031
 70
   192
  0
VERTEX
  5
13E2
  8
0
 10
-195.7984071525992
 20
-100.0727051303368
 30
43.71302725516822
 70
   192
  0
VERTEX
  5
13E3
  8
0
 10
-177.2173669163104
 20
-23.6605890912238
 30
169.3027468137416
 70
   192
  0
VERTEX
  5
13E4
  8
0
 10
-198.4361495674452
 20
-21.88204062945307
 30
168.2839097426987
 70
   192
  0
VERTEX
  5
13E5
  8
0
 10
-156.1216182096404
 20
-107.4778994430419
 30
101.6635804368737
 70
   192
  0
VERTEX
  5
13E6
  8
0
 10
-216.9562107813453
 20
-20.77799614354117
 30
162.302397872993
 70
   192
  0
VERTEX
  5
13E7
  8
0
 10
-123.2769044260092
 20
-100.6955530794948
 30
115.3622843234404
 70
   192
  0
VERTEX
  5
13E8
  8
0
 10
0.0
 20
0.0
 30
0.0
 70
   128
 71
     1
 72
     2
 73
     3
  0
VERTEX
  5
13E9
  8
0
 10
0.0
 20
0.0
 30
0.0
 70
   128
 71
     4
 72
     1
 73
     3
  0
VERTEX
  5
13EA
  8
0
 10
0.0
 20
0.0
 30
0.0
 70
   128
 71
     4
 72
     5
 73
     6
  0
VERTEX
  5
13EB
  8
0
 10
0.0
 20
0.0
 30
0.0
 70
   128
 71
     4
 72
     6
 73
     1
  0
VERTEX
  5
13EC
  8
0
 10
0.0
 20
0.0
 30
0.0
 70
   128
 71
     7
 72
     8
 73
     9
  0
VERTEX
  5
13ED
  8
0
 10
0.0
 20
0.0
 30
0.0
 70
   128
 71
     8
 72
    10
 73
     2
  0
VERTEX
  5
13EE
  8
0
 10
0.0
 20
0.0
 30
0.0
 70
   128
 71
     8
 72
     2
 73
     1
  0
VERTEX
  5
13EF
  8
0
 10
0.0
 20
0.0
 30
0.0
 70
   128
 71
     8
 72
     1
 73
     9
  0
VERTEX
  5
13F0
  8
0
 10
0.0
 20
0.0
 30
0.0
 70
   128
 71
     9
 72
    11
 73
     7
  0
SEQEND
  5
1B51
  8
0
  0
POLYLINE
  5
13F1
  8
0
 66
     1
 10
0.0
 20
0.0
 30
0.0
 70
    64
 71
     6
 72
     4
  0
VERTEX
  5
13F2
  8
0
 10
-195.7984071525992
 20
-100.0727051303368
 30
43.71302725516822
 70
   192
  0
VERTEX
  5
13F3
  8
0
 10
-249.3027468137414
 20
-23.6605890912238
 30
97.2173669163104
 70
   192
  0
VERTEX
  5
13F4
  8
0
 10
-249.3027468137415
 20
-23.66058909122385
 30
-33.57105998033249
 70
   192
  0
VERTEX
  5
13F5
  8
0
 10
-195.6044545261728
 20
-100.3496981871708
 30
-20.04870092022206
 70
   192
  0
VERTEX
  5
13F6
  8
0
 10
-195.5518210258118
 20
-100.4248666157985
 30
1.206292880650639
 70
   192
  0
VERTEX
  5
13F7
  8
0
 10
-195.6179271044905
 20
-100.3304573513004
 30
22.46018881766668
 70
   192
  0
VERTEX
  5
13F8
  8
0
 10
0.0
 20
0.0
 30
0.0
 70
   128
 71
     3
 72
     4
 73
    -5
  0
VERTEX
  5
13F9
  8
0
 10
0.0
 20
0.0
 30
0.0
 70
   128
 71
     5
 72
    -6
 73
    -3
  0
VERTEX
  5
13FA
  8
0
 10
0.0
 20
0.0
 30
0.0
 70
   128
 71
     1
 72
     2
 73
    -3
  0
VERTEX
  5
13FB
  8
0
 10
0.0
 20
0.0
 30
0.0
 70
   128
 71
     6
 72
    -1
 73
    -3
  0
SEQEND
  5
1B52
  8
0
  0
POLYLINE
  5
13FC
  8
0
 66
     1
 10
0.0
 20
0.0
 30
0.0
 70
    64
 71
     8
 72
     6
  0
VERTEX
  5
13FD
  8
0
 10
-157.146018114001
 20
-17.13175911166535
 30
-115.17975459613
 70
   192
  0
VERTEX
  5
13FE
  8
0
 10
-154.4002226914131
 20
-90.89110682503967
 30
-91.72841189804907
 70
   192
  0
VERTEX
  5
13FF
  8
0
 10
-206.7139237554165
 20
-18.85964451947229
 30
-103.5255094887836
 70
   192
  0
VERTEX
  5
1400
  8
0
 10
-115.7091153400613
 20
-76.30978921383388
 30
-104.74507122394
 70
   192
  0
VERTEX
  5
1401
  8
0
 10
-183.3137746373266
 20
-99.61779542373034
 30
-61.21291317212965
 70
   192
  0
VERTEX
  5
1402
  8
0
 10
-239.1953939392142
 20
-21.62651263536619
 30
-73.0503705769994
 70
   192
  0
VERTEX
  5
1403
  8
0
 10
-195.6044545261725
 20
-100.3496981871706
 30
-20.0487009202221
 70
   192
  0
VERTEX
  5
1404
  8
0
 10
-249.3027468137417
 20
-23.66058909122394
 30
-33.57105998033246
 70
   192
  0
VERTEX
  5
1405
  8
0
 10
0.0
 20
0.0
 30
0.0
 70
   128
 71
     1
 72
     2
 73
     3
  0
VERTEX
  5
1406
  8
0
 10
0.0
 20
0.0
 30
0.0
 70
   128
 71
     1
 72
     4
 73
     2
  0
VERTEX
  5
1407
  8
0
 10
0.0
 20
0.0
 30
0.0
 70
   128
 71
     3
 72
     2
 73
     5
  0
VERTEX
  5
1408
  8
0
 10
0.0
 20
0.0
 30
0.0
 70
   128
 71
     3
 72
     5
 73
     6
  0
VERTEX
  5
1409
  8
0
 10
0.0
 20
0.0
 30
0.0
 70
   128
 71
     6
 72
     5
 73
     7
  0
VERTEX
  5
140A
  8
0
 10
0.0
 20
0.0
 30
0.0
 70
   128
 71
     6
 72
     7
 73
     8
  0
SEQEND
  5
1B53
  8
0
  0
POLYLINE
  5
140B
  8
0
 66
     1
 10
0.0
 20
0.0
 30
0.0
 70
    64
 71
     8
 72
     6
  0
VERTEX
  5
140C
  8
0
 10
249.3027468137415
 20
-23.6605890912238
 30
-33.57105998033249
 70
   192
  0
VERTEX
  5
140D
  8
0
 10
195.6044545261728
 20
-100.3496981871708
 30
-20.04870092022206
 70
   192
  0
VERTEX
  5
140E
  8
0
 10
183.3282047464093
 20
-99.62103630181444
 30
-61.18762206616294
 70
   192
  0
VERTEX
  5
140F
  8
0
 10
239.1951118845091
 20
-21.62660386783958
 30
-73.05104973396269
 70
   192
  0
VERTEX
  5
1410
  8
0
 10
154.4899989878996
 20
-90.92216438149507
 30
-91.67075462420227
 70
   192
  0
VERTEX
  5
1411
  8
0
 10
157.146018114001
 20
-17.13175911166535
 30
-115.1797545961299
 70
   192
  0
VERTEX
  5
1412
  8
0
 10
206.7128873092172
 20
-18.85941296220893
 30
-103.5258675132183
 70
   192
  0
VERTEX
  5
1413
  8
0
 10
115.7091153400616
 20
-76.30978921383391
 30
-104.74507122394
 70
   192
  0
VERTEX
  5
1414
  8
0
 10
0.0
 20
0.0
 30
0.0
 70
   128
 71
     1
 72
     2
 73
     3
  0
VERTEX
  5
1415
  8
0
 10
0.0
 20
0.0
 30
0.0
 70
   128
 71
     4
 72
     1
 73
     3
  0
VERTEX
  5
1416
  8
0
 10
0.0
 20
0.0
 30
0.0
 70
   128
 71
     4
 72
     3
 73
     5
  0
VERTEX
  5
1417
  8
0
 10
0.0
 20
0.0
 30
0.0
 70
   128
 71
     6
 72
     7
 73
     4
  0
VERTEX
  5
1418
  8
0
 10
0.0
 20
0.0
 30
0.0
 70
   128
 71
     6
 72
     4
 73
     5
  0
VERTEX
  5
1419
  8
0
 10
0.0
 20
0.0
 30
0.0
 70
   128
 71
     5
 72
     8
 73
     6
  0
SEQEND
  5
1B54
  8
0
  0
POLYLINE
  5
141A
  8
0
 66
     1
 10
0.0
 20
0.0
 30
0.0
 70
    64
 71
     6
 72
     4
  0
VERTEX
  5
141B
  8
0
 10
195.6044545261728
 20
-100.3496981871708
 30
-20.04870092022206
 70
   192
  0
VERTEX
  5
141C
  8
0
 10
249.3027468137417
 20
-23.66058909122394
 30
-33.57105998033246
 70
   192
  0
VERTEX
  5
141D
  8
0
 10
249.3027468137415
 20
-23.6605890912238
 30
97.2173669163104
 70
   192
  0
VERTEX
  5
141E
  8
0
 10
195.7984071525993
 20
-100.0727051303369
 30
43.71302725516822
 70
   192
  0
VERTEX
  5
141F
  8
0
 10
195.6179271044906
 20
-100.3304573513003
 30
22.4601888176667
 70
   192
  0
VERTEX
  5
1420
  8
0
 10
195.5518210258122
 20
-100.4248666157984
 30
1.206292880650676
 70
   192
  0
VERTEX
  5
1421
  8
0
 10
0.0
 20
0.0
 30
0.0
 70
   128
 71
     3
 72
     4
 73
    -5
  0
VERTEX
  5
1422
  8
0
 10
0.0
 20
0.0
 30
0.0
 70
   128
 71
     2
 72
    -3
 73
    -5
  0
VERTEX
  5
1423
  8
0
 10
0.0
 20
0.0
 30
0.0
 70
   128
 71
     5
 72
    -6
 73
    -2
  0
VERTEX
  5
1424
  8
0
 10
0.0
 20
0.0
 30
0.0
 70
   128
 71
     6
 72
     1
 73
    -2
  0
SEQEND
  5
1B55
  8
0
  0
POLYLINE
  5
1425
  8
0
 66
     1
 10
0.0
 20
0.0
 30
0.0
 70
    64
 71
    16
 72
    16
  0
VERTEX
  5
1426
  8
0
 10
80.0
 20
-142.0
 30
-0.0000000000000022
 70
   192
  0
VERTEX
  5
1427
  8
0
 10
56.56854249492953
 20
-141.9999999999794
 30
42.42640687120059
 70
   192
  0
VERTEX
  5
1428
  8
0
 10
0.0000000000002269
 20
-141.9999999999794
 30
60.00000000000961
 70
   192
  0
VERTEX
  5
1429
  8
0
 10
-56.56854249492953
 20
-141.9999999999794
 30
42.42640687120057
 70
   192
  0
VERTEX
  5
142A
  8
0
 10
-80.0
 20
-142.0
 30
0.0000000000000082
 70
   192
  0
VERTEX
  5
142B
  8
0
 10
-56.56854249511871
 20
-141.9999999993034
 30
-42.42640687145274
 70
   192
  0
VERTEX
  5
142C
  8
0
 10
0.0000000000001221
 20
-141.9999999993034
 30
-60.00000000032489
 70
   192
  0
VERTEX
  5
142D
  8
0
 10
56.56854249511866
 20
-141.9999999993034
 30
-42.4264068714528
 70
   192
  0
VERTEX
  5
142E
  8
0
 10
0.0000000000000147
 20
-142.0
 30
22.0
 70
   192
  0
VERTEX
  5
142F
  8
0
 10
15.55634918610406
 20
-142.0
 30
15.55634918610405
 70
   192
  0
VERTEX
  5
1430
  8
0
 10
22.00000000000002
 20
-142.0
 30
0.0
 70
   192
  0
VERTEX
  5
1431
  8
0
 10
15.55634918610406
 20
-142.0
 30
-15.55634918610405
 70
   192
  0
VERTEX
  5
1432
  8
0
 10
0.0000000000000147
 20
-142.0
 30
-22.0
 70
   192
  0
VERTEX
  5
1433
  8
0
 10
-15.55634918610403
 20
-142.0
 30
-15.55634918610404
 70
   192
  0
VERTEX
  5
1434
  8
0
 10
-21.99999999999999
 20
-142.0
 30
0.0000000000000024
 70
   192
  0
VERTEX
  5
1435
  8
0
 10
-15.55634918610403
 20
-142.0
 30
15.55634918610405
 70
   192
  0
VERTEX
  5
1436
  8
0
 10
0.0
 20
0.0
 30
0.0
 70
   128
 71
    -3
 72
     9
 73
   -10
  0
VERTEX
  5
1437
  8
0
 10
0.0
 20
0.0
 30
0.0
 70
   128
 71
     2
 72
    -3
 73
   -10
  0
VERTEX
  5
1438
  8
0
 10
0.0
 20
0.0
 30
0.0
 70
   128
 71
     8
 72
     1
 73
    -2
  0
VERTEX
  5
1439
  8
0
 10
0.0
 20
0.0
 30
0.0
 70
   128
 71
   -11
 72
    -8
 73
    -2
  0
VERTEX
  5
143A
  8
0
 10
0.0
 20
0.0
 30
0.0
 70
   128
 71
    10
 72
   -11
 73
    -2
  0
VERTEX
  5
143B
  8
0
 10
0.0
 20
0.0
 30
0.0
 70
   128
 71
    11
 72
   -12
 73
    -8
  0
VERTEX
  5
143C
  8
0
 10
0.0
 20
0.0
 30
0.0
 70
   128
 71
   -12
 72
     7
 73
    -8
  0
VERTEX
  5
143D
  8
0
 10
0.0
 20
0.0
 30
0.0
 70
   128
 71
    12
 72
   -13
 73
    -7
  0
VERTEX
  5
143E
  8
0
 10
0.0
 20
0.0
 30
0.0
 70
   128
 71
    13
 72
   -14
 73
    -7
  0
VERTEX
  5
143F
  8
0
 10
0.0
 20
0.0
 30
0.0
 70
   128
 71
     6
 72
    -7
 73
   -14
  0
VERTEX
  5
1440
  8
0
 10
0.0
 20
0.0
 30
0.0
 70
   128
 71
     4
 72
     5
 73
    -6
  0
VERTEX
  5
1441
  8
0
 10
0.0
 20
0.0
 30
0.0
 70
   128
 71
   -15
 72
    -4
 73
    -6
  0
VERTEX
  5
1442
  8
0
 10
0.0
 20
0.0
 30
0.0
 70
   128
 71
    14
 72
   -15
 73
    -6
  0
VERTEX
  5
1443
  8
0
 10
0.0
 20
0.0
 30
0.0
 70
   128
 71
    15
 72
   -16
 73
    -4
  0
VERTEX
  5
1444
  8
0
 10
0.0
 20
0.0
 30
0.0
 70
   128
 71
   -16
 72
     3
 73
    -4
  0
VERTEX
  5
1445
  8
0
 10
0.0
 20
0.0
 30
0.0
 70
   128
 71
    16
 72
    -9
 73
    -3
  0
SEQEND
  5
1B56
  8
0
  0
POLYLINE
  5
1446
  8
0
 66
     1
 10
0.0
 20
0.0
 30
0.0
 70
    64
 71
    15
 72
    13
  0
VERTEX
  5
1447
  8
0
 10
-56.56854249511871
 20
-141.9999999993034
 30
-42.42640687145274
 70
   192
  0
VERTEX
  5
1448
  8
0
 10
-74.95606975713001
 20
-138.7743578462174
 30
-24.17289330233339
 70
   192
  0
VERTEX
  5
1449
  8
0
 10
-66.78041814486039
 20
-138.9544967184974
 30
-35.15746418772345
 70
   192
  0
VERTEX
  5
144A
  8
0
 10
-79.83746407269567
 20
-138.6575217944037
 30
-12.59191579057369
 70
   192
  0
VERTEX
  5
144B
  8
0
 10
-80.0
 20
-142.0
 30
0.0000000000000069
 70
   192
  0
VERTEX
  5
144C
  8
0
 10
-81.5790513005439
 20
-138.613713558144
 30
0.0000000000000069
 70
   192
  0
VERTEX
  5
144D
  8
0
 10
24.47045337984709
 20
-133.9241441693271
 30
-60.99353514291408
 70
   192
  0
VERTEX
  5
144E
  8
0
 10
56.56854249511866
 20
-141.9999999993034
 30
-42.4264068714528
 70
   192
  0
VERTEX
  5
144F
  8
0
 10
0.0000000000001221
 20
-141.9999999993034
 30
-60.00000000032489
 70
   192
  0
VERTEX
  5
1450
  8
0
 10
79.83558110511805
 20
-138.6575638222697
 30
-12.59795693883667
 70
   192
  0
VERTEX
  5
1451
  8
0
 10
81.5790513005439
 20
-138.613713558144
 30
0.0000000000000314
 70
   192
  0
VERTEX
  5
1452
  8
0
 10
80.0
 20
-142.0
 30
-0.0000000000000022
 70
   192
  0
VERTEX
  5
1453
  8
0
 10
74.9527015597937
 20
-138.7744387149144
 30
-24.17883221549927
 70
   192
  0
VERTEX
  5
1454
  8
0
 10
66.7804181448629
 20
-138.9544967184966
 30
-35.15746418772105
 70
   192
  0
VERTEX
  5
1455
  8
0
 10
-24.49443809759892
 20
-133.9269197697362
 30
-60.98665293640821
 70
   192
  0
VERTEX
  5
1456
  8
0
 10
0.0
 20
0.0
 30
0.0
 70
   128
 71
     1
 72
     2
 73
     3
  0
VERTEX
  5
1457
  8
0
 10
0.0
 20
0.0
 30
0.0
 70
   128
 71
     1
 72
     4
 73
     2
  0
VERTEX
  5
1458
  8
0
 10
0.0
 20
0.0
 30
0.0
 70
   128
 71
     1
 72
     5
 73
     4
  0
VERTEX
  5
1459
  8
0
 10
0.0
 20
0.0
 30
0.0
 70
   128
 71
     5
 72
     6
 73
     4
  0
VERTEX
  5
145A
  8
0
 10
0.0
 20
0.0
 30
0.0
 70
   128
 71
     7
 72
     8
 73
     9
  0
VERTEX
  5
145B
  8
0
 10
0.0
 20
0.0
 30
0.0
 70
   128
 71
    10
 72
    11
 73
    12
  0
VERTEX
  5
145C
  8
0
 10
0.0
 20
0.0
 30
0.0
 70
   128
 71
    12
 72
    13
 73
    10
  0
VERTEX
  5
145D
  8
0
 10
0.0
 20
0.0
 30
0.0
 70
   128
 71
    12
 72
    14
 73
    13
  0
VERTEX
  5
145E
  8
0
 10
0.0
 20
0.0
 30
0.0
 70
   128
 71
    12
 72
     8
 73
    14
  0
VERTEX
  5
145F
  8
0
 10
0.0
 20
0.0
 30
0.0
 70
   128
 71
     1
 72
     3
 73
    15
  0
VERTEX
  5
1460
  8
0
 10
0.0
 20
0.0
 30
0.0
 70
   128
 71
    15
 72
     9
 73
     1
  0
VERTEX
  5
1461
  8
0
 10
0.0
 20
0.0
 30
0.0
 70
   128
 71
    15
 72
     7
 73
     9
  0
VERTEX
  5
1462
  8
0
 10
0.0
 20
0.0
 30
0.0
 70
   128
 71
     7
 72
    14
 73
     8
  0
SEQEND
  5
1B57
  8
0
  0
POLYLINE
  5
1463
  8
0
 66
     1
 10
0.0
 20
0.0
 30
0.0
 70
    64
 71
    12
 72
    10
  0
VERTEX
  5
1464
  8
0
 10
0.0000000000000172
 20
-131.999124725835
 30
22.0
 70
   192
  0
VERTEX
  5
1465
  8
0
 10
0.0000000000000147
 20
-121.2904423538102
 30
34.76211068881095
 70
   192
  0
VERTEX
  5
1466
  8
0
 10
17.38105534440552
 20
-121.2904423538102
 30
30.10487094567689
 70
   192
  0
VERTEX
  5
1467
  8
0
 10
15.55634918610406
 20
-131.999124725835
 30
15.55634918610404
 70
   192
  0
VERTEX
  5
1468
  8
0
 10
34.76211068881101
 20
-121.2904423538102
 30
0.0000000000000085
 70
   192
  0
VERTEX
  5
1469
  8
0
 10
22.00000000000001
 20
-131.999124725835
 30
-0.0000000000000024
 70
   192
  0
VERTEX
  5
146A
  8
0
 10
30.1048709456769
 20
-121.2904423538102
 30
17.38105534440551
 70
   192
  0
VERTEX
  5
146B
  8
0
 10
30.10487094567691
 20
-121.2904423538102
 30
-17.3810553444055
 70
   192
  0
VERTEX
  5
146C
  8
0
 10
15.55634918610406
 20
-131.999124725835
 30
-15.55634918610405
 70
   192
  0
VERTEX
  5
146D
  8
0
 10
0.000000000000019
 20
-121.2904423538102
 30
-34.76211068881095
 70
   192
  0
VERTEX
  5
146E
  8
0
 10
0.0000000000000174
 20
-131.999124725835
 30
-22.00000000000003
 70
   192
  0
VERTEX
  5
146F
  8
0
 10
17.38105534440552
 20
-121.2904423538102
 30
-30.10487094567689
 70
   192
  0
VERTEX
  5
1470
  8
0
 10
0.0
 20
0.0
 30
0.0
 70
   128
 71
     1
 72
     2
 73
     3
  0
VERTEX
  5
1471
  8
0
 10
0.0
 20
0.0
 30
0.0
 70
   128
 71
     4
 72
     1
 73
     3
  0
VERTEX
  5
1472
  8
0
 10
0.0
 20
0.0
 30
0.0
 70
   128
 71
     5
 72
     6
 73
     4
  0
VERTEX
  5
1473
  8
0
 10
0.0
 20
0.0
 30
0.0
 70
   128
 71
     7
 72
     5
 73
     4
  0
VERTEX
  5
1474
  8
0
 10
0.0
 20
0.0
 30
0.0
 70
   128
 71
     6
 72
     5
 73
     8
  0
VERTEX
  5
1475
  8
0
 10
0.0
 20
0.0
 30
0.0
 70
   128
 71
     9
 72
     6
 73
     8
  0
VERTEX
  5
1476
  8
0
 10
0.0
 20
0.0
 30
0.0
 70
   128
 71
    10
 72
    11
 73
     9
  0
VERTEX
  5
1477
  8
0
 10
0.0
 20
0.0
 30
0.0
 70
   128
 71
    12
 72
    10
 73
     9
  0
VERTEX
  5
1478
  8
0
 10
0.0
 20
0.0
 30
0.0
 70
   128
 71
     7
 72
     4
 73
     3
  0
VERTEX
  5
1479
  8
0
 10
0.0
 20
0.0
 30
0.0
 70
   128
 71
    12
 72
     9
 73
     8
  0
SEQEND
  5
1B58
  8
0
  0
POLYLINE
  5
147A
  8
0
 66
     1
 10
0.0
 20
0.0
 30
0.0
 70
    64
 71
    10
 72
     8
  0
VERTEX
  5
147B
  8
0
 10
0.000000000000012
 20
-131.999124725835
 30
-22.0
 70
   192
  0
VERTEX
  5
147C
  8
0
 10
0.0000000000000174
 20
-131.999124725835
 30
22.0
 70
   192
  0
VERTEX
  5
147D
  8
0
 10
0.0000000000000174
 20
-142.0
 30
22.0
 70
   192
  0
VERTEX
  5
147E
  8
0
 10
0.0000000000000147
 20
-142.0
 30
-22.0
 70
   192
  0
VERTEX
  5
147F
  8
0
 10
22.00000000000002
 20
-142.0
 30
0.0
 70
   192
  0
VERTEX
  5
1480
  8
0
 10
22.00000000000001
 20
-131.999124725835
 30
-0.0000000000000024
 70
   192
  0
VERTEX
  5
1481
  8
0
 10
15.55634918610406
 20
-142.0
 30
-15.55634918610405
 70
   192
  0
VERTEX
  5
1482
  8
0
 10
15.55634918610406
 20
-131.999124725835
 30
-15.55634918610405
 70
   192
  0
VERTEX
  5
1483
  8
0
 10
15.55634918610406
 20
-142.0
 30
15.55634918610405
 70
   192
  0
VERTEX
  5
1484
  8
0
 10
15.55634918610406
 20
-131.999124725835
 30
15.55634918610404
 70
   192
  0
VERTEX
  5
1485
  8
0
 10
0.0
 20
0.0
 30
0.0
 70
   128
 71
     8
 72
     1
 73
    -4
  0
VERTEX
  5
1486
  8
0
 10
0.0
 20
0.0
 30
0.0
 70
   128
 71
     7
 72
    -8
 73
     4
  0
VERTEX
  5
1487
  8
0
 10
0.0
 20
0.0
 30
0.0
 70
   128
 71
     6
 72
     8
 73
    -7
  0
VERTEX
  5
1488
  8
0
 10
0.0
 20
0.0
 30
0.0
 70
   128
 71
     5
 72
    -6
 73
     7
  0
VERTEX
  5
1489
  8
0
 10
0.0
 20
0.0
 30
0.0
 70
   128
 71
    10
 72
     6
 73
    -5
  0
VERTEX
  5
148A
  8
0
 10
0.0
 20
0.0
 30
0.0
 70
   128
 71
     9
 72
   -10
 73
     5
  0
VERTEX
  5
148B
  8
0
 10
0.0
 20
0.0
 30
0.0
 70
   128
 71
     3
 72
     2
 73
   -10
  0
VERTEX
  5
148C
  8
0
 10
0.0
 20
0.0
 30
0.0
 70
   128
 71
     9
 72
    -3
 73
    10
  0
SEQEND
  5
1B59
  8
0
  0
POLYLINE
  5
148D
  8
0
 66
     1
 10
0.0
 20
0.0
 30
0.0
 70
    64
 71
     8
 72
     6
  0
VERTEX
  5
148E
  8
0
 10
303.2366156412645
 20
-4.89358381258328
 30
234.334483814758
 70
   192
  0
VERTEX
  5
148F
  8
0
 10
303.4674428143204
 20
-19.99999999999999
 30
234.6168607035799
 70
   192
  0
VERTEX
  5
1490
  8
0
 10
304.6168607035801
 20
-19.99999999999999
 30
233.4674428143202
 70
   192
  0
VERTEX
  5
1491
  8
0
 10
304.334483814758
 20
-4.893583812583281
 30
233.2366156412645
 70
   192
  0
VERTEX
  5
1492
  8
0
 10
301.73710777617
 20
-4.912737967813576
 30
234.7366508616392
 70
   192
  0
VERTEX
  5
1493
  8
0
 10
302.000456914531
 20
-20.0
 30
234.9999999999999
 70
   192
  0
VERTEX
  5
1494
  8
0
 10
305.0
 20
-20.0
 30
232.000456914531
 70
   192
  0
VERTEX
  5
1495
  8
0
 10
304.7366508616394
 20
-4.91273796781358
 30
231.73710777617
 70
   192
  0
VERTEX
  5
1496
  8
0
 10
0.0
 20
0.0
 30
0.0
 70
   128
 71
     1
 72
     2
 73
    -3
  0
VERTEX
  5
1497
  8
0
 10
0.0
 20
0.0
 30
0.0
 70
   128
 71
    -1
 72
     3
 73
     4
  0
VERTEX
  5
1498
  8
0
 10
0.0
 20
0.0
 30
0.0
 70
   128
 71
     5
 72
     6
 73
     2
  0
VERTEX
  5
1499
  8
0
 10
0.0
 20
0.0
 30
0.0
 70
   128
 71
     5
 72
     2
 73
     1
  0
VERTEX
  5
149A
  8
0
 10
0.0
 20
0.0
 30
0.0
 70
   128
 71
     4
 72
     3
 73
     7
  0
VERTEX
  5
149B
  8
0
 10
0.0
 20
0.0
 30
0.0
 70
   128
 71
     4
 72
     7
 73
     8
  0
SEQEND
  5
1B5A
  8
0
  0
POLYLINE
  5
149C
  8
0
 66
     1
 10
0.0
 20
0.0
 30
0.0
 70
    64
 71
     8
 72
     6
  0
VERTEX
  5
149D
  8
0
 10
-304.334483814758
 20
-4.893583812583284
 30
233.2366156412645
 70
   192
  0
VERTEX
  5
149E
  8
0
 10
-304.6168607035803
 20
-19.99999999999999
 30
233.4674428143205
 70
   192
  0
VERTEX
  5
149F
  8
0
 10
-303.4674428143206
 20
-19.99999999999998
 30
234.6168607035803
 70
   192
  0
VERTEX
  5
14A0
  8
0
 10
-303.2366156412645
 20
-4.893583812583284
 30
234.334483814758
 70
   192
  0
VERTEX
  5
14A1
  8
0
 10
-304.7366508616392
 20
-4.91273796781358
 30
231.73710777617
 70
   192
  0
VERTEX
  5
14A2
  8
0
 10
-304.9999999999999
 20
-20.0
 30
232.0004569145308
 70
   192
  0
VERTEX
  5
14A3
  8
0
 10
-302.000456914531
 20
-20.0
 30
235.0
 70
   192
  0
VERTEX
  5
14A4
  8
0
 10
-301.7371077761699
 20
-4.912737967813582
 30
234.736650861639
 70
   192
  0
VERTEX
  5
14A5
  8
0
 10
0.0
 20
0.0
 30
0.0
 70
   128
 71
     1
 72
     2
 73
    -3
  0
VERTEX
  5
14A6
  8
0
 10
0.0
 20
0.0
 30
0.0
 70
   128
 71
    -1
 72
     3
 73
     4
  0
VERTEX
  5
14A7
  8
0
 10
0.0
 20
0.0
 30
0.0
 70
   128
 71
     5
 72
     6
 73
     2
  0
VERTEX
  5
14A8
  8
0
 10
0.0
 20
0.0
 30
0.0
 70
   128
 71
     5
 72
     2
 73
     1
  0
VERTEX
  5
14A9
  8
0
 10
0.0
 20
0.0
 30
0.0
 70
   128
 71
     4
 72
     3
 73
     7
  0
VERTEX
  5
14AA
  8
0
 10
0.0
 20
0.0
 30
0.0
 70
   128
 71
     4
 72
     7
 73
     8
  0
SEQEND
  5
1B5B
  8
0
  0
POLYLINE
  5
14AB
  8
0
 66
     1
 10
0.0
 20
0.0
 30
0.0
 70
    64
 71
     8
 72
     6
  0
VERTEX
  5
14AC
  8
0
 10
304.7366508616394
 20
-4.912737967813579
 30
-223.0
 70
   192
  0
VERTEX
  5
14AD
  8
0
 10
304.0381581253343
 20
-2.449787051171616
 30
-223.0
 70
   192
  0
VERTEX
  5
14AE
  8
0
 10
304.0381453649843
 20
-2.449794175608804
 30
231.4577055775084
 70
   192
  0
VERTEX
  5
14AF
  8
0
 10
302.2121785622728
 20
-0.6554019320458435
 30
-223.0
 70
   192
  0
VERTEX
  5
14B0
  8
0
 10
299.7374123858575
 20
0.0000000000000044
 30
-223.0
 70
   192
  0
VERTEX
  5
14B1
  8
0
 10
299.7374123858575
 20
0.0
 30
229.737412385857
 70
   192
  0
VERTEX
  5
14B2
  8
0
 10
302.2121716616739
 20
-0.6554148146012656
 30
230.7273160961861
 70
   192
  0
VERTEX
  5
14B3
  8
0
 10
304.7366508616395
 20
-4.912737967813579
 30
231.73710777617
 70
   192
  0
VERTEX
  5
14B4
  8
0
 10
0.0
 20
0.0
 30
0.0
 70
   128
 71
     1
 72
     2
 73
     3
  0
VERTEX
  5
14B5
  8
0
 10
0.0
 20
0.0
 30
0.0
 70
   128
 71
     4
 72
     5
 73
     6
  0
VERTEX
  5
14B6
  8
0
 10
0.0
 20
0.0
 30
0.0
 70
   128
 71
     6
 72
     7
 73
     2
  0
VERTEX
  5
14B7
  8
0
 10
0.0
 20
0.0
 30
0.0
 70
   128
 71
     6
 72
     2
 73
     4
  0
VERTEX
  5
14B8
  8
0
 10
0.0
 20
0.0
 30
0.0
 70
   128
 71
     7
 72
     3
 73
     2
  0
VERTEX
  5
14B9
  8
0
 10
0.0
 20
0.0
 30
0.0
 70
   128
 71
     3
 72
     8
 73
     1
  0
SEQEND
  5
1B5C
  8
0
  0
POLYLINE
  5
14BA
  8
0
 66
     1
 10
0.0
 20
0.0
 30
0.0
 70
    64
 71
     9
 72
     7
  0
VERTEX
  5
14BB
  8
0
 10
301.73710777617
 20
-4.912737967813576
 30
234.7366508616392
 70
   192
  0
VERTEX
  5
14BC
  8
0
 10
303.2366156412645
 20
-4.89358381258328
 30
234.334483814758
 70
   192
  0
VERTEX
  5
14BD
  8
0
 10
304.334483814758
 20
-4.893583812583281
 30
233.2366156412645
 70
   192
  0
VERTEX
  5
14BE
  8
0
 10
304.7366508616392
 20
-4.912737967813579
 30
231.73710777617
 70
   192
  0
VERTEX
  5
14BF
  8
0
 10
304.0381453649843
 20
-2.449794175608804
 30
231.4577055775084
 70
   192
  0
VERTEX
  5
14C0
  8
0
 10
302.2121716616739
 20
-0.6554148146012656
 30
230.7273160961861
 70
   192
  0
VERTEX
  5
14C1
  8
0
 10
299.7374123858575
 20
0.0
 30
229.737412385857
 70
   192
  0
VERTEX
  5
14C2
  8
0
 10
300.725625250486
 20
-0.6534206502231072
 30
232.208696473685
 70
   192
  0
VERTEX
  5
14C3
  8
0
 10
301.4718788392788
 20
-2.511153344644862
 30
234.0739452697312
 70
   192
  0
VERTEX
  5
14C4
  8
0
 10
0.0
 20
0.0
 30
0.0
 70
   128
 71
     6
 72
     7
 73
     8
  0
VERTEX
  5
14C5
  8
0
 10
0.0
 20
0.0
 30
0.0
 70
   128
 71
     9
 72
     5
 73
     6
  0
VERTEX
  5
14C6
  8
0
 10
0.0
 20
0.0
 30
0.0
 70
   128
 71
     8
 72
     9
 73
     6
  0
VERTEX
  5
14C7
  8
0
 10
0.0
 20
0.0
 30
0.0
 70
   128
 71
     9
 72
     1
 73
     2
  0
VERTEX
  5
14C8
  8
0
 10
0.0
 20
0.0
 30
0.0
 70
   128
 71
     3
 72
     5
 73
     9
  0
VERTEX
  5
14C9
  8
0
 10
0.0
 20
0.0
 30
0.0
 70
   128
 71
     2
 72
     3
 73
     9
  0
VERTEX
  5
14CA
  8
0
 10
0.0
 20
0.0
 30
0.0
 70
   128
 71
     3
 72
     4
 73
     5
  0
SEQEND
  5
1B5D
  8
0
  0
POLYLINE
  5
14CB
  8
0
 66
     1
 10
0.0
 20
0.0
 30
0.0
 70
    64
 71
     8
 72
     6
  0
VERTEX
  5
14CC
  8
0
 10
299.7374123858575
 20
0.0
 30
229.737412385857
 70
   192
  0
VERTEX
  5
14CD
  8
0
 10
-299.7374123858575
 20
0.0
 30
229.7374123858571
 70
   192
  0
VERTEX
  5
14CE
  8
0
 10
-300.7273160961838
 20
-0.6554148146048894
 30
232.2121716616801
 70
   192
  0
VERTEX
  5
14CF
  8
0
 10
300.725625250486
 20
-0.6534206502231072
 30
232.208696473685
 70
   192
  0
VERTEX
  5
14D0
  8
0
 10
-301.4577055775075
 20
-2.449794175609227
 30
234.0381453649842
 70
   192
  0
VERTEX
  5
14D1
  8
0
 10
301.4718788392788
 20
-2.511153344644862
 30
234.0739452697312
 70
   192
  0
VERTEX
  5
14D2
  8
0
 10
-301.73710777617
 20
-4.912737967813579
 30
234.736650861639
 70
   192
  0
VERTEX
  5
14D3
  8
0
 10
301.73710777617
 20
-4.912737967813579
 30
234.7366508616389
 70
   192
  0
VERTEX
  5
14D4
  8
0
 10
0.0
 20
0.0
 30
0.0
 70
   128
 71
     1
 72
     2
 73
     3
  0
VERTEX
  5
14D5
  8
0
 10
0.0
 20
0.0
 30
0.0
 70
   128
 71
     1
 72
     3
 73
     4
  0
VERTEX
  5
14D6
  8
0
 10
0.0
 20
0.0
 30
0.0
 70
   128
 71
     4
 72
     3
 73
     5
  0
VERTEX
  5
14D7
  8
0
 10
0.0
 20
0.0
 30
0.0
 70
   128
 71
     6
 72
     4
 73
     5
  0
VERTEX
  5
14D8
  8
0
 10
0.0
 20
0.0
 30
0.0
 70
   128
 71
     6
 72
     5
 73
     7
  0
VERTEX
  5
14D9
  8
0
 10
0.0
 20
0.0
 30
0.0
 70
   128
 71
     6
 72
     7
 73
     8
  0
SEQEND
  5
1B5E
  8
0
  0
POLYLINE
  5
14DA
  8
0
 66
     1
 10
0.0
 20
0.0
 30
0.0
 70
    64
 71
     9
 72
     7
  0
VERTEX
  5
14DB
  8
0
 10
-304.7366508616392
 20
-4.91273796781358
 30
231.73710777617
 70
   192
  0
VERTEX
  5
14DC
  8
0
 10
-304.334483814758
 20
-4.893583812583284
 30
233.2366156412645
 70
   192
  0
VERTEX
  5
14DD
  8
0
 10
-303.2366156412645
 20
-4.893583812583284
 30
234.334483814758
 70
   192
  0
VERTEX
  5
14DE
  8
0
 10
-301.73710777617
 20
-4.912737967813579
 30
234.7366508616392
 70
   192
  0
VERTEX
  5
14DF
  8
0
 10
-301.4577055775075
 20
-2.449794175609227
 30
234.0381453649842
 70
   192
  0
VERTEX
  5
14E0
  8
0
 10
-300.7273160961838
 20
-0.6554148146048894
 30
232.2121716616801
 70
   192
  0
VERTEX
  5
14E1
  8
0
 10
-299.7374123858575
 20
0.0
 30
229.737412385857
 70
   192
  0
VERTEX
  5
14E2
  8
0
 10
-302.2086964757841
 20
-0.653420651416207
 30
230.7256252513514
 70
   192
  0
VERTEX
  5
14E3
  8
0
 10
-304.0739452747039
 20
-2.511153353301373
 30
231.4718788419224
 70
   192
  0
VERTEX
  5
14E4
  8
0
 10
0.0
 20
0.0
 30
0.0
 70
   128
 71
     6
 72
     7
 73
     8
  0
VERTEX
  5
14E5
  8
0
 10
0.0
 20
0.0
 30
0.0
 70
   128
 71
     9
 72
     5
 73
     6
  0
VERTEX
  5
14E6
  8
0
 10
0.0
 20
0.0
 30
0.0
 70
   128
 71
     8
 72
     9
 73
     6
  0
VERTEX
  5
14E7
  8
0
 10
0.0
 20
0.0
 30
0.0
 70
   128
 71
     9
 72
     1
 73
     2
  0
VERTEX
  5
14E8
  8
0
 10
0.0
 20
0.0
 30
0.0
 70
   128
 71
     3
 72
     5
 73
     9
  0
VERTEX
  5
14E9
  8
0
 10
0.0
 20
0.0
 30
0.0
 70
   128
 71
     2
 72
     3
 73
     9
  0
VERTEX
  5
14EA
  8
0
 10
0.0
 20
0.0
 30
0.0
 70
   128
 71
     3
 72
     4
 73
     5
  0
SEQEND
  5
1B5F
  8
0
  0
POLYLINE
  5
14EB
  8
0
 66
     1
 10
0.0
 20
0.0
 30
0.0
 70
    64
 71
     8
 72
     6
  0
VERTEX
  5
14EC
  8
0
 10
-302.2086964757841
 20
-0.653420651416207
 30
230.7256252513514
 70
   192
  0
VERTEX
  5
14ED
  8
0
 10
-302.2121785622728
 20
-0.6554019320458435
 30
-223.0
 70
   192
  0
VERTEX
  5
14EE
  8
0
 10
-304.0381581253343
 20
-2.449787051171612
 30
-223.0
 70
   192
  0
VERTEX
  5
14EF
  8
0
 10
-299.7374123858575
 20
0.0
 30
229.737412385857
 70
   192
  0
VERTEX
  5
14F0
  8
0
 10
-299.7374123858575
 20
0.0
 30
-223.0
 70
   192
  0
VERTEX
  5
14F1
  8
0
 10
-304.0739452747039
 20
-2.511153353301373
 30
231.4718788419224
 70
   192
  0
VERTEX
  5
14F2
  8
0
 10
-304.7366508616395
 20
-4.912737967813569
 30
-223.0
 70
   192
  0
VERTEX
  5
14F3
  8
0
 10
-304.7366508616389
 20
-4.912737967813579
 30
231.7371077761699
 70
   192
  0
VERTEX
  5
14F4
  8
0
 10
0.0
 20
0.0
 30
0.0
 70
   128
 71
     1
 72
     2
 73
     3
  0
VERTEX
  5
14F5
  8
0
 10
0.0
 20
0.0
 30
0.0
 70
   128
 71
     4
 72
     5
 73
     2
  0
VERTEX
  5
14F6
  8
0
 10
0.0
 20
0.0
 30
0.0
 70
   128
 71
     4
 72
     2
 73
     1
  0
VERTEX
  5
14F7
  8
0
 10
0.0
 20
0.0
 30
0.0
 70
   128
 71
     1
 72
     3
 73
     6
  0
VERTEX
  5
14F8
  8
0
 10
0.0
 20
0.0
 30
0.0
 70
   128
 71
     6
 72
     3
 73
     7
  0
VERTEX
  5
14F9
  8
0
 10
0.0
 20
0.0
 30
0.0
 70
   128
 71
     6
 72
     7
 73
     8
  0
SEQEND
  5
1B60
  8
0
  0
POLYLINE
  5
14FA
  8
0
 66
     1
 10
0.0
 20
0.0
 30
0.0
 70
    64
 71
     8
 72
     6
  0
VERTEX
  5
14FB
  8
0
 10
-302.7369554713264
 20
-4.94764278068815
 30
-225.0
 70
   192
  0
VERTEX
  5
14FC
  8
0
 10
-302.9996953439122
 20
-20.0
 30
-225.0
 70
   192
  0
VERTEX
  5
14FD
  8
0
 10
-303.9779276862579
 20
-20.00000000000001
 30
-224.7445208382054
 70
   192
  0
VERTEX
  5
14FE
  8
0
 10
-303.7368031664828
 20
-4.930190374250866
 30
-224.7320508075689
 70
   192
  0
VERTEX
  5
14FF
  8
0
 10
-304.7444819215645
 20
-20.00000000000001
 30
-223.9780833528217
 70
   192
  0
VERTEX
  5
1500
  8
0
 10
-304.468742479168
 20
-4.917414326024432
 30
-224.0
 70
   192
  0
VERTEX
  5
1501
  8
0
 10
-305.0
 20
-20.0
 30
-223.0
 70
   192
  0
VERTEX
  5
1502
  8
0
 10
-304.7366508616391
 20
-4.912737967813577
 30
-223.0
 70
   192
  0
VERTEX
  5
1503
  8
0
 10
0.0
 20
0.0
 30
0.0
 70
   128
 71
     1
 72
     2
 73
     3
  0
VERTEX
  5
1504
  8
0
 10
0.0
 20
0.0
 30
0.0
 70
   128
 71
     1
 72
     3
 73
     4
  0
VERTEX
  5
1505
  8
0
 10
0.0
 20
0.0
 30
0.0
 70
   128
 71
     4
 72
     3
 73
     5
  0
VERTEX
  5
1506
  8
0
 10
0.0
 20
0.0
 30
0.0
 70
   128
 71
     4
 72
     5
 73
     6
  0
VERTEX
  5
1507
  8
0
 10
0.0
 20
0.0
 30
0.0
 70
   128
 71
     6
 72
     5
 73
     7
  0
VERTEX
  5
1508
  8
0
 10
0.0
 20
0.0
 30
0.0
 70
   128
 71
     6
 72
     7
 73
     8
  0
SEQEND
  5
1B61
  8
0
  0
POLYLINE
  5
1509
  8
0
 66
     1
 10
0.0
 20
0.0
 30
0.0
 70
    64
 71
    12
 72
    10
  0
VERTEX
  5
150A
  8
0
 10
-303.7368031664828
 20
-4.930190374250866
 30
-224.7320508075689
 70
   192
  0
VERTEX
  5
150B
  8
0
 10
-299.7374123858575
 20
-0.2679491924311213
 30
-224.0
 70
   192
  0
VERTEX
  5
150C
  8
0
 10
-299.7374123858575
 20
-0.9999999999999993
 30
-224.7320508075689
 70
   192
  0
VERTEX
  5
150D
  8
0
 10
-304.468742479168
 20
-4.917414326024432
 30
-224.0
 70
   192
  0
VERTEX
  5
150E
  8
0
 10
-302.2121785622728
 20
-0.6554019320458435
 30
-223.0
 70
   192
  0
VERTEX
  5
150F
  8
0
 10
-299.7374123858575
 20
0.0000000000000044
 30
-223.0
 70
   192
  0
VERTEX
  5
1510
  8
0
 10
-304.0381581253343
 20
-2.449787051171612
 30
-223.0
 70
   192
  0
VERTEX
  5
1511
  8
0
 10
-304.7366508616392
 20
-4.912737967813582
 30
-223.0
 70
   192
  0
VERTEX
  5
1512
  8
0
 10
-301.2222720917067
 20
-2.393241159227506
 30
-225.0
 70
   192
  0
VERTEX
  5
1513
  8
0
 10
-299.7374123858575
 20
-2.0
 30
-225.0
 70
   192
  0
VERTEX
  5
1514
  8
0
 10
-302.3178598295436
 20
-3.46987223070297
 30
-225.0
 70
   192
  0
VERTEX
  5
1515
  8
0
 10
-302.7369554713267
 20
-4.947642780688144
 30
-225.0
 70
   192
  0
VERTEX
  5
1516
  8
0
 10
0.0
 20
0.0
 30
0.0
 70
   128
 71
    -1
 72
     2
 73
     3
  0
VERTEX
  5
1517
  8
0
 10
0.0
 20
0.0
 30
0.0
 70
   128
 71
     4
 72
    -2
 73
     1
  0
VERTEX
  5
1518
  8
0
 10
0.0
 20
0.0
 30
0.0
 70
   128
 71
     5
 72
     6
 73
     2
  0
VERTEX
  5
1519
  8
0
 10
0.0
 20
0.0
 30
0.0
 70
   128
 71
    -2
 72
     7
 73
     5
  0
VERTEX
  5
151A
  8
0
 10
0.0
 20
0.0
 30
0.0
 70
   128
 71
     4
 72
     8
 73
     7
  0
VERTEX
  5
151B
  8
0
 10
0.0
 20
0.0
 30
0.0
 70
   128
 71
     4
 72
    -7
 73
     2
  0
VERTEX
  5
151C
  8
0
 10
0.0
 20
0.0
 30
0.0
 70
   128
 71
     9
 72
     3
 73
    10
  0
VERTEX
  5
151D
  8
0
 10
0.0
 20
0.0
 30
0.0
 70
   128
 71
    11
 72
    12
 73
     1
  0
VERTEX
  5
151E
  8
0
 10
0.0
 20
0.0
 30
0.0
 70
   128
 71
     1
 72
     3
 73
    -9
  0
VERTEX
  5
151F
  8
0
 10
0.0
 20
0.0
 30
0.0
 70
   128
 71
    -1
 72
     9
 73
    11
  0
SEQEND
  5
1B62
  8
0
  0
POLYLINE
  5
1520
  8
0
 66
     1
 10
0.0
 20
0.0
 30
0.0
 70
    64
 71
     8
 72
     6
  0
VERTEX
  5
1521
  8
0
 10
-299.7374123858575
 20
-0.2679491924311213
 30
-224.0
 70
   192
  0
VERTEX
  5
1522
  8
0
 10
299.7374123858575
 20
-0.2679491924311213
 30
-224.0
 70
   192
  0
VERTEX
  5
1523
  8
0
 10
299.7374123858575
 20
-0.9999999999999993
 30
-224.7320508075689
 70
   192
  0
VERTEX
  5
1524
  8
0
 10
-299.7374123858575
 20
-0.9999999999999993
 30
-224.7320508075689
 70
   192
  0
VERTEX
  5
1525
  8
0
 10
-299.7374123858575
 20
0.0000000000000018
 30
-223.0
 70
   192
  0
VERTEX
  5
1526
  8
0
 10
299.7374123858575
 20
0.0
 30
-223.0
 70
   192
  0
VERTEX
  5
1527
  8
0
 10
299.7374123858575
 20
-2.0
 30
-225.0
 70
   192
  0
VERTEX
  5
1528
  8
0
 10
-299.7374123858575
 20
-2.0
 30
-225.0
 70
   192
  0
VERTEX
  5
1529
  8
0
 10
0.0
 20
0.0
 30
0.0
 70
   128
 71
     1
 72
     2
 73
    -3
  0
VERTEX
  5
152A
  8
0
 10
0.0
 20
0.0
 30
0.0
 70
   128
 71
    -1
 72
     3
 73
     4
  0
VERTEX
  5
152B
  8
0
 10
0.0
 20
0.0
 30
0.0
 70
   128
 71
     5
 72
     6
 73
    -2
  0
VERTEX
  5
152C
  8
0
 10
0.0
 20
0.0
 30
0.0
 70
   128
 71
    -5
 72
     2
 73
     1
  0
VERTEX
  5
152D
  8
0
 10
0.0
 20
0.0
 30
0.0
 70
   128
 71
     4
 72
     3
 73
    -7
  0
VERTEX
  5
152E
  8
0
 10
0.0
 20
0.0
 30
0.0
 70
   128
 71
    -4
 72
     7
 73
     8
  0
SEQEND
  5
1B63
  8
0
  0
POLYLINE
  5
152F
  8
0
 66
     1
 10
0.0
 20
0.0
 30
0.0
 70
    64
 71
    12
 72
    10
  0
VERTEX
  5
1530
  8
0
 10
299.7374123858575
 20
-0.2679491924311213
 30
-224.0
 70
   192
  0
VERTEX
  5
1531
  8
0
 10
304.468742479168
 20
-4.917414326024433
 30
-224.0
 70
   192
  0
VERTEX
  5
1532
  8
0
 10
303.7368031664828
 20
-4.930190374250866
 30
-224.7320508075689
 70
   192
  0
VERTEX
  5
1533
  8
0
 10
299.7374123858575
 20
-0.9999999999999993
 30
-224.7320508075689
 70
   192
  0
VERTEX
  5
1534
  8
0
 10
304.0381581253343
 20
-2.449787051171616
 30
-223.0
 70
   192
  0
VERTEX
  5
1535
  8
0
 10
304.7366508616395
 20
-4.912737967813571
 30
-223.0
 70
   192
  0
VERTEX
  5
1536
  8
0
 10
302.2121785622728
 20
-0.6554019320458435
 30
-223.0
 70
   192
  0
VERTEX
  5
1537
  8
0
 10
299.7374123858575
 20
0.0000000000000018
 30
-223.0
 70
   192
  0
VERTEX
  5
1538
  8
0
 10
301.2222720917067
 20
-2.393241159227506
 30
-225.0
 70
   192
  0
VERTEX
  5
1539
  8
0
 10
299.7374123858575
 20
-1.999999999999997
 30
-225.0
 70
   192
  0
VERTEX
  5
153A
  8
0
 10
302.3178598295436
 20
-3.46987223070297
 30
-225.0
 70
   192
  0
VERTEX
  5
153B
  8
0
 10
302.7369554713264
 20
-4.94764278068815
 30
-225.0
 70
   192
  0
VERTEX
  5
153C
  8
0
 10
0.0
 20
0.0
 30
0.0
 70
   128
 71
     1
 72
     2
 73
    -3
  0
VERTEX
  5
153D
  8
0
 10
0.0
 20
0.0
 30
0.0
 70
   128
 71
    -1
 72
     3
 73
     4
  0
VERTEX
  5
153E
  8
0
 10
0.0
 20
0.0
 30
0.0
 70
   128
 71
     5
 72
     6
 73
     2
  0
VERTEX
  5
153F
  8
0
 10
0.0
 20
0.0
 30
0.0
 70
   128
 71
     2
 72
     7
 73
     5
  0
VERTEX
  5
1540
  8
0
 10
0.0
 20
0.0
 30
0.0
 70
   128
 71
     8
 72
     7
 73
     2
  0
VERTEX
  5
1541
  8
0
 10
0.0
 20
0.0
 30
0.0
 70
   128
 71
     8
 72
     2
 73
     1
  0
VERTEX
  5
1542
  8
0
 10
0.0
 20
0.0
 30
0.0
 70
   128
 71
     9
 72
    10
 73
     4
  0
VERTEX
  5
1543
  8
0
 10
0.0
 20
0.0
 30
0.0
 70
   128
 71
     4
 72
     3
 73
   -11
  0
VERTEX
  5
1544
  8
0
 10
0.0
 20
0.0
 30
0.0
 70
   128
 71
    -4
 72
    11
 73
     9
  0
VERTEX
  5
1545
  8
0
 10
0.0
 20
0.0
 30
0.0
 70
   128
 71
     3
 72
    12
 73
    11
  0
SEQEND
  5
1B64
  8
0
  0
POLYLINE
  5
1546
  8
0
 66
     1
 10
0.0
 20
0.0
 30
0.0
 70
    64
 71
     8
 72
     6
  0
VERTEX
  5
1547
  8
0
 10
304.7366508616392
 20
-4.912737967813583
 30
-223.0
 70
   192
  0
VERTEX
  5
1548
  8
0
 10
305.0
 20
-20.0
 30
-223.0
 70
   192
  0
VERTEX
  5
1549
  8
0
 10
304.7444819215645
 20
-20.0
 30
-223.9780833528217
 70
   192
  0
VERTEX
  5
154A
  8
0
 10
304.468742479168
 20
-4.917414326024433
 30
-224.0
 70
   192
  0
VERTEX
  5
154B
  8
0
 10
303.9779276862579
 20
-20.0
 30
-224.7445208382054
 70
   192
  0
VERTEX
  5
154C
  8
0
 10
303.7368031664828
 20
-4.930190374250866
 30
-224.7320508075689
 70
   192
  0
VERTEX
  5
154D
  8
0
 10
302.999695343912
 20
-20.0
 30
-225.0
 70
   192
  0
VERTEX
  5
154E
  8
0
 10
302.7369554713267
 20
-4.947642780688145
 30
-225.0
 70
   192
  0
VERTEX
  5
154F
  8
0
 10
0.0
 20
0.0
 30
0.0
 70
   128
 71
     1
 72
     2
 73
     3
  0
VERTEX
  5
1550
  8
0
 10
0.0
 20
0.0
 30
0.0
 70
   128
 71
     1
 72
     3
 73
     4
  0
VERTEX
  5
1551
  8
0
 10
0.0
 20
0.0
 30
0.0
 70
   128
 71
     4
 72
     3
 73
     5
  0
VERTEX
  5
1552
  8
0
 10
0.0
 20
0.0
 30
0.0
 70
   128
 71
     4
 72
     5
 73
     6
  0
VERTEX
  5
1553
  8
0
 10
0.0
 20
0.0
 30
0.0
 70
   128
 71
     6
 72
     5
 73
     7
  0
VERTEX
  5
1554
  8
0
 10
0.0
 20
0.0
 30
0.0
 70
   128
 71
     6
 72
     7
 73
     8
  0
SEQEND
  5
1B65
  8
0
  0
POLYLINE
  5
1555
  8
0
 66
     1
 10
0.0
 20
0.0
 30
0.0
 70
    64
 71
     8
 72
     6
  0
VERTEX
  5
1556
  8
0
 10
-282.5880388769532
 20
-14.56879181065632
 30
-179.5702129791545
 70
   192
  0
VERTEX
  5
1557
  8
0
 10
-280.9315694992838
 20
-13.40891946559863
 30
-179.5702129791545
 70
   192
  0
VERTEX
  5
1558
  8
0
 10
-280.9315694992838
 20
-13.40891946559862
 30
189.5702129791545
 70
   192
  0
VERTEX
  5
1559
  8
0
 10
-282.5880388769532
 20
-14.56879181065632
 30
189.5702129791545
 70
   192
  0
VERTEX
  5
155A
  8
0
 10
-278.951170669088
 20
-13.0
 30
-179.5702129791545
 70
   192
  0
VERTEX
  5
155B
  8
0
 10
-278.951170669088
 20
-13.0
 30
189.5702129791544
 70
   192
  0
VERTEX
  5
155C
  8
0
 10
-283.6496337730176
 20
-16.28989928337165
 30
-179.5702129791544
 70
   192
  0
VERTEX
  5
155D
  8
0
 10
-283.6496337730176
 20
-16.28989928337164
 30
189.5702129791545
 70
   192
  0
VERTEX
  5
155E
  8
0
 10
0.0
 20
0.0
 30
0.0
 70
   128
 71
     1
 72
     2
 73
    -3
  0
VERTEX
  5
155F
  8
0
 10
0.0
 20
0.0
 30
0.0
 70
   128
 71
     4
 72
    -1
 73
     3
  0
VERTEX
  5
1560
  8
0
 10
0.0
 20
0.0
 30
0.0
 70
   128
 71
     2
 72
     5
 73
    -6
  0
VERTEX
  5
1561
  8
0
 10
0.0
 20
0.0
 30
0.0
 70
   128
 71
     3
 72
    -2
 73
     6
  0
VERTEX
  5
1562
  8
0
 10
0.0
 20
0.0
 30
0.0
 70
   128
 71
     7
 72
     1
 73
    -4
  0
VERTEX
  5
1563
  8
0
 10
0.0
 20
0.0
 30
0.0
 70
   128
 71
     8
 72
    -7
 73
     4
  0
SEQEND
  5
1B66
  8
0
  0
POLYLINE
  5
1564
  8
0
 66
     1
 10
0.0
 20
0.0
 30
0.0
 70
    64
 71
     8
 72
     6
  0
VERTEX
  5
1565
  8
0
 10
-259.5702129791545
 20
-14.56879181065632
 30
212.5880388769532
 70
   192
  0
VERTEX
  5
1566
  8
0
 10
-259.5702129791545
 20
-13.40891946559863
 30
210.9315694992838
 70
   192
  0
VERTEX
  5
1567
  8
0
 10
259.5702129791545
 20
-13.40891946559862
 30
210.9315694992838
 70
   192
  0
VERTEX
  5
1568
  8
0
 10
259.5702129791545
 20
-14.56879181065632
 30
212.5880388769532
 70
   192
  0
VERTEX
  5
1569
  8
0
 10
-259.5702129791545
 20
-13.0
 30
208.951170669088
 70
   192
  0
VERTEX
  5
156A
  8
0
 10
259.5702129791545
 20
-13.0
 30
208.951170669088
 70
   192
  0
VERTEX
  5
156B
  8
0
 10
-259.5702129791545
 20
-16.28989928337165
 30
213.6496337730175
 70
   192
  0
VERTEX
  5
156C
  8
0
 10
259.5702129791545
 20
-16.28989928337164
 30
213.6496337730175
 70
   192
  0
VERTEX
  5
156D
  8
0
 10
0.0
 20
0.0
 30
0.0
 70
   128
 71
     1
 72
     2
 73
    -3
  0
VERTEX
  5
156E
  8
0
 10
0.0
 20
0.0
 30
0.0
 70
   128
 71
     4
 72
    -1
 73
     3
  0
VERTEX
  5
156F
  8
0
 10
0.0
 20
0.0
 30
0.0
 70
   128
 71
     2
 72
     5
 73
    -6
  0
VERTEX
  5
1570
  8
0
 10
0.0
 20
0.0
 30
0.0
 70
   128
 71
     3
 72
    -2
 73
     6
  0
VERTEX
  5
1571
  8
0
 10
0.0
 20
0.0
 30
0.0
 70
   128
 71
     7
 72
     1
 73
    -4
  0
VERTEX
  5
1572
  8
0
 10
0.0
 20
0.0
 30
0.0
 70
   128
 71
     8
 72
    -7
 73
     4
  0
SEQEND
  5
1B67
  8
0
  0
POLYLINE
  5
1573
  8
0
 66
     1
 10
0.0
 20
0.0
 30
0.0
 70
    64
 71
     8
 72
     6
  0
VERTEX
  5
1574
  8
0
 10
259.5702129791545
 20
-14.56879181065632
 30
-202.5880388769532
 70
   192
  0
VERTEX
  5
1575
  8
0
 10
259.5702129791545
 20
-13.40891946559863
 30
-200.9315694992838
 70
   192
  0
VERTEX
  5
1576
  8
0
 10
-259.5702129791545
 20
-13.40891946559862
 30
-200.9315694992838
 70
   192
  0
VERTEX
  5
1577
  8
0
 10
-259.5702129791545
 20
-14.56879181065632
 30
-202.5880388769532
 70
   192
  0
VERTEX
  5
1578
  8
0
 10
259.5702129791545
 20
-13.0
 30
-198.951170669088
 70
   192
  0
VERTEX
  5
1579
  8
0
 10
-259.5702129791545
 20
-13.0
 30
-198.9511706690879
 70
   192
  0
VERTEX
  5
157A
  8
0
 10
259.5702129791545
 20
-16.28989928337165
 30
-203.6496337730176
 70
   192
  0
VERTEX
  5
157B
  8
0
 10
-259.5702129791545
 20
-16.28989928337165
 30
-203.6496337730175
 70
   192
  0
VERTEX
  5
157C
  8
0
 10
0.0
 20
0.0
 30
0.0
 70
   128
 71
     1
 72
     2
 73
    -3
  0
VERTEX
  5
157D
  8
0
 10
0.0
 20
0.0
 30
0.0
 70
   128
 71
     4
 72
    -1
 73
     3
  0
VERTEX
  5
157E
  8
0
 10
0.0
 20
0.0
 30
0.0
 70
   128
 71
     2
 72
     5
 73
    -6
  0
VERTEX
  5
157F
  8
0
 10
0.0
 20
0.0
 30
0.0
 70
   128
 71
     3
 72
    -2
 73
     6
  0
VERTEX
  5
1580
  8
0
 10
0.0
 20
0.0
 30
0.0
 70
   128
 71
     7
 72
     1
 73
    -4
  0
VERTEX
  5
1581
  8
0
 10
0.0
 20
0.0
 30
0.0
 70
   128
 71
     8
 72
    -7
 73
     4
  0
SEQEND
  5
1B68
  8
0
  0
POLYLINE
  5
1582
  8
0
 66
     1
 10
0.0
 20
0.0
 30
0.0
 70
    64
 71
     8
 72
     6
  0
VERTEX
  5
1583
  8
0
 10
282.5880388769532
 20
-14.56879181065632
 30
189.5702129791545
 70
   192
  0
VERTEX
  5
1584
  8
0
 10
280.9315694992838
 20
-13.40891946559862
 30
189.5702129791545
 70
   192
  0
VERTEX
  5
1585
  8
0
 10
280.9315694992838
 20
-13.40891946559862
 30
-179.5702129791545
 70
   192
  0
VERTEX
  5
1586
  8
0
 10
282.5880388769532
 20
-14.56879181065632
 30
-179.5702129791545
 70
   192
  0
VERTEX
  5
1587
  8
0
 10
278.951170669088
 20
-13.0
 30
189.5702129791545
 70
   192
  0
VERTEX
  5
1588
  8
0
 10
278.951170669088
 20
-13.0
 30
-179.5702129791544
 70
   192
  0
VERTEX
  5
1589
  8
0
 10
283.6496337730175
 20
-16.28989928337165
 30
189.5702129791544
 70
   192
  0
VERTEX
  5
158A
  8
0
 10
283.6496337730176
 20
-16.28989928337164
 30
-179.5702129791545
 70
   192
  0
VERTEX
  5
158B
  8
0
 10
0.0
 20
0.0
 30
0.0
 70
   128
 71
     1
 72
     2
 73
    -3
  0
VERTEX
  5
158C
  8
0
 10
0.0
 20
0.0
 30
0.0
 70
   128
 71
     4
 72
    -1
 73
     3
  0
VERTEX
  5
158D
  8
0
 10
0.0
 20
0.0
 30
0.0
 70
   128
 71
     2
 72
     5
 73
    -6
  0
VERTEX
  5
158E
  8
0
 10
0.0
 20
0.0
 30
0.0
 70
   128
 71
     3
 72
    -2
 73
     6
  0
VERTEX
  5
158F
  8
0
 10
0.0
 20
0.0
 30
0.0
 70
   128
 71
     7
 72
     1
 73
    -4
  0
VERTEX
  5
1590
  8
0
 10
0.0
 20
0.0
 30
0.0
 70
   128
 71
     8
 72
    -7
 73
     4
  0
SEQEND
  5
1B69
  8
0
  0
POLYLINE
  5
1591
  8
0
 66
     1
 10
0.0
 20
0.0
 30
0.0
 70
    64
 71
    10
 72
     8
  0
VERTEX
  5
1592
  8
0
 10
-0.0000000000000019
 20
-13.0
 30
-152.5
 70
   192
  0
VERTEX
  5
1593
  8
0
 10
0.0000000000000021
 20
-13.0
 30
-187.5
 70
   192
  0
VERTEX
  5
1594
  8
0
 10
0.0000000000000021
 20
-0.0000000000000071
 30
-187.5
 70
   192
  0
VERTEX
  5
1595
  8
0
 10
0.0
 20
-0.0000000000000071
 30
-152.5
 70
   192
  0
VERTEX
  5
1596
  8
0
 10
17.49999999999999
 20
0.0
 30
-170.0
 70
   192
  0
VERTEX
  5
1597
  8
0
 10
17.49999999999999
 20
-13.0
 30
-170.0
 70
   192
  0
VERTEX
  5
1598
  8
0
 10
12.37436867076458
 20
0.0
 30
-157.6256313292354
 70
   192
  0
VERTEX
  5
1599
  8
0
 10
12.37436867076457
 20
-13.0
 30
-157.6256313292354
 70
   192
  0
VERTEX
  5
159A
  8
0
 10
12.37436867076458
 20
0.0
 30
-182.3743686707646
 70
   192
  0
VERTEX
  5
159B
  8
0
 10
12.37436867076458
 20
-13.0
 30
-182.3743686707646
 70
   192
  0
VERTEX
  5
159C
  8
0
 10
0.0
 20
0.0
 30
0.0
 70
   128
 71
     8
 72
     1
 73
    -4
  0
VERTEX
  5
159D
  8
0
 10
0.0
 20
0.0
 30
0.0
 70
   128
 71
     7
 72
    -8
 73
     4
  0
VERTEX
  5
159E
  8
0
 10
0.0
 20
0.0
 30
0.0
 70
   128
 71
     6
 72
     8
 73
    -7
  0
VERTEX
  5
159F
  8
0
 10
0.0
 20
0.0
 30
0.0
 70
   128
 71
     5
 72
    -6
 73
     7
  0
VERTEX
  5
15A0
  8
0
 10
0.0
 20
0.0
 30
0.0
 70
   128
 71
    10
 72
     6
 73
    -5
  0
VERTEX
  5
15A1
  8
0
 10
0.0
 20
0.0
 30
0.0
 70
   128
 71
     9
 72
   -10
 73
     5
  0
VERTEX
  5
15A2
  8
0
 10
0.0
 20
0.0
 30
0.0
 70
   128
 71
     3
 72
     2
 73
   -10
  0
VERTEX
  5
15A3
  8
0
 10
0.0
 20
0.0
 30
0.0
 70
   128
 71
     9
 72
    -3
 73
    10
  0
SEQEND
  5
1B6A
  8
0
  0
POLYLINE
  5
15A4
  8
0
 66
     1
 10
0.0
 20
0.0
 30
0.0
 70
    64
 71
    19
 72
    20
  0
VERTEX
  5
15A5
  8
0
 10
27.08559840509227
 20
-119.8949318039966
 30
-27.08559840509226
 70
   192
  0
VERTEX
  5
15A6
  8
0
 10
0.0000000000000104
 20
-119.8949318039966
 30
-38.30482060947254
 70
   192
  0
VERTEX
  5
15A7
  8
0
 10
0.0000000000000073
 20
-120.0233223737479
 30
-37.34577031399153
 70
   192
  0
VERTEX
  5
15A8
  8
0
 10
-37.03223137470697
 20
-120.1002865718344
 30
0.0000000000000045
 70
   192
  0
VERTEX
  5
15A9
  8
0
 10
0.0000000000000075
 20
-120.3042036046319
 30
-36.41982898658441
 70
   192
  0
VERTEX
  5
15AA
  8
0
 10
35.83287515119386
 20
-120.5727255522702
 30
0.0
 70
   192
  0
VERTEX
  5
15AB
  8
0
 10
0.0000000000000076
 20
-120.7302705435153
 30
-35.55107783046787
 70
   192
  0
VERTEX
  5
15AC
  8
0
 10
-17.38105534440548
 20
-121.2904423538102
 30
-30.1048709456769
 70
   192
  0
VERTEX
  5
15AD
  8
0
 10
0.0000000000000168
 20
-121.2904423538102
 30
-34.762110688811
 70
   192
  0
VERTEX
  5
15AE
  8
0
 10
-30.10487094567688
 20
-121.2904423538102
 30
-17.38105534440551
 70
   192
  0
VERTEX
  5
15AF
  8
0
 10
17.38105534440552
 20
-121.2904423538102
 30
-30.10487094567689
 70
   192
  0
VERTEX
  5
15B0
  8
0
 10
37.03223137470699
 20
-120.1002865718344
 30
0.0
 70
   192
  0
VERTEX
  5
15B1
  8
0
 10
-35.83287515119383
 20
-120.5727255522702
 30
0.0000000000000044
 70
   192
  0
VERTEX
  5
15B2
  8
0
 10
30.10487094567691
 20
-121.2904423538102
 30
-17.3810553444055
 70
   192
  0
VERTEX
  5
15B3
  8
0
 10
34.76211068881101
 20
-121.2904423538102
 30
0.0
 70
   192
  0
VERTEX
  5
15B4
  8
0
 10
-34.76211068881094
 20
-121.2904423538102
 30
0.0000000000000043
 70
   192
  0
VERTEX
  5
15B5
  8
0
 10
38.30482060947254
 20
-119.8949318039966
 30
0.0
 70
   192
  0
VERTEX
  5
15B6
  8
0
 10
-27.08559840509225
 20
-119.8949318039966
 30
-27.08559840509226
 70
   192
  0
VERTEX
  5
15B7
  8
0
 10
-38.30482060947253
 20
-119.8949318039966
 30
0.0000000000000047
 70
   192
  0
VERTEX
  5
15B8
  8
0
 10
0.0
 20
0.0
 30
0.0
 70
   128
 71
     1
 72
     2
 73
     3
  0
VERTEX
  5
15B9
  8
0
 10
0.0
 20
0.0
 30
0.0
 70
   128
 71
     4
 72
     5
 73
     3
  0
VERTEX
  5
15BA
  8
0
 10
0.0
 20
0.0
 30
0.0
 70
   128
 71
     6
 72
     5
 73
     7
  0
VERTEX
  5
15BB
  8
0
 10
0.0
 20
0.0
 30
0.0
 70
   128
 71
     8
 72
     9
 73
     7
  0
VERTEX
  5
15BC
  8
0
 10
0.0
 20
0.0
 30
0.0
 70
   128
 71
     7
 72
    10
 73
     8
  0
VERTEX
  5
15BD
  8
0
 10
0.0
 20
0.0
 30
0.0
 70
   128
 71
     7
 72
     9
 73
    11
  0
VERTEX
  5
15BE
  8
0
 10
0.0
 20
0.0
 30
0.0
 70
   128
 71
     3
 72
     5
 73
     6
  0
VERTEX
  5
15BF
  8
0
 10
0.0
 20
0.0
 30
0.0
 70
   128
 71
     3
 72
     6
 73
    12
  0
VERTEX
  5
15C0
  8
0
 10
0.0
 20
0.0
 30
0.0
 70
   128
 71
    13
 72
     7
 73
     5
  0
VERTEX
  5
15C1
  8
0
 10
0.0
 20
0.0
 30
0.0
 70
   128
 71
    13
 72
     5
 73
     4
  0
VERTEX
  5
15C2
  8
0
 10
0.0
 20
0.0
 30
0.0
 70
   128
 71
    14
 72
    15
 73
     6
  0
VERTEX
  5
15C3
  8
0
 10
0.0
 20
0.0
 30
0.0
 70
   128
 71
     6
 72
     7
 73
    11
  0
VERTEX
  5
15C4
  8
0
 10
0.0
 20
0.0
 30
0.0
 70
   128
 71
     6
 72
    11
 73
    14
  0
VERTEX
  5
15C5
  8
0
 10
0.0
 20
0.0
 30
0.0
 70
   128
 71
    16
 72
    10
 73
     7
  0
VERTEX
  5
15C6
  8
0
 10
0.0
 20
0.0
 30
0.0
 70
   128
 71
    16
 72
     7
 73
    13
  0
VERTEX
  5
15C7
  8
0
 10
0.0
 20
0.0
 30
0.0
 70
   128
 71
     1
 72
     3
 73
    12
  0
VERTEX
  5
15C8
  8
0
 10
0.0
 20
0.0
 30
0.0
 70
   128
 71
     1
 72
    12
 73
    17
  0
VERTEX
  5
15C9
  8
0
 10
0.0
 20
0.0
 30
0.0
 70
   128
 71
    18
 72
    19
 73
     4
  0
VERTEX
  5
15CA
  8
0
 10
0.0
 20
0.0
 30
0.0
 70
   128
 71
    18
 72
     4
 73
     3
  0
VERTEX
  5
15CB
  8
0
 10
0.0
 20
0.0
 30
0.0
 70
   128
 71
     3
 72
     2
 73
    18
  0
SEQEND
  5
1B6B
  8
0
  0
POLYLINE
  5
15CC
  8
0
 66
     1
 10
0.0
 20
0.0
 30
0.0
 70
    64
 71
     8
 72
     6
  0
VERTEX
  5
15CD
  8
0
 10
-258.3466268901268
 20
-1.995420692438718
 30
-33.42068002137019
 70
   192
  0
VERTEX
  5
15CE
  8
0
 10
-258.2408917760054
 20
-2.030294257078666
 30
96.62019692883592
 70
   192
  0
VERTEX
  5
15CF
  8
0
 10
-246.9363383539585
 20
-7.91507228979831
 30
96.62019692883591
 70
   192
  0
VERTEX
  5
15D0
  8
0
 10
-246.847124432237
 20
-7.981682769754866
 30
-33.42068002137019
 70
   192
  0
VERTEX
  5
15D1
  8
0
 10
-270.82268202207
 20
0.0
 30
-33.4206800213702
 70
   192
  0
VERTEX
  5
15D2
  8
0
 10
-270.82268202207
 20
0.0
 30
96.62019692883592
 70
   192
  0
VERTEX
  5
15D3
  8
0
 10
-238.0566002505103
 20
-17.05694254595828
 30
96.62019692883591
 70
   192
  0
VERTEX
  5
15D4
  8
0
 10
-238.05660025051
 20
-17.0569425459581
 30
-33.4206800213702
 70
   192
  0
VERTEX
  5
15D5
  8
0
 10
0.0
 20
0.0
 30
0.0
 70
   128
 71
     1
 72
     2
 73
    -3
  0
VERTEX
  5
15D6
  8
0
 10
0.0
 20
0.0
 30
0.0
 70
   128
 71
    -1
 72
     3
 73
     4
  0
VERTEX
  5
15D7
  8
0
 10
0.0
 20
0.0
 30
0.0
 70
   128
 71
     5
 72
     6
 73
     2
  0
VERTEX
  5
15D8
  8
0
 10
0.0
 20
0.0
 30
0.0
 70
   128
 71
     5
 72
     2
 73
     1
  0
VERTEX
  5
15D9
  8
0
 10
0.0
 20
0.0
 30
0.0
 70
   128
 71
     4
 72
     3
 73
     7
  0
VERTEX
  5
15DA
  8
0
 10
0.0
 20
0.0
 30
0.0
 70
   128
 71
     4
 72
     7
 73
     8
  0
SEQEND
  5
1B6C
  8
0
  0
POLYLINE
  5
15DB
  8
0
 66
     1
 10
0.0
 20
0.0
 30
0.0
 70
    64
 71
    12
 72
    10
  0
VERTEX
  5
15DC
  8
0
 10
-224.7761449824475
 20
-11.85472828702714
 30
144.7761449824475
 70
   192
  0
VERTEX
  5
15DD
  8
0
 10
-230.6518363701388
 20
-5.424533789628526
 30
150.6518363701388
 70
   192
  0
VERTEX
  5
15DE
  8
0
 10
-237.5088083901898
 20
-1.37993624801441
 30
157.5088083901898
 70
   192
  0
VERTEX
  5
15DF
  8
0
 10
-244.873951830496
 20
0.0000000000000355
 30
164.873951830496
 70
   192
  0
VERTEX
  5
15E0
  8
0
 10
-225.9042353905701
 20
0.0
 30
179.0421095078961
 70
   192
  0
VERTEX
  5
15E1
  8
0
 10
-202.6641297173624
 20
0.0
 30
187.8775388935263
 70
   192
  0
VERTEX
  5
15E2
  8
0
 10
-176.620196928836
 20
0.0
 30
190.82268202207
 70
   192
  0
VERTEX
  5
15E3
  8
0
 10
-176.620196928836
 20
-2.030294257078637
 30
178.2408917760055
 70
   192
  0
VERTEX
  5
15E4
  8
0
 10
-176.620196928836
 20
-7.915072289798189
 30
166.9363383539587
 70
   192
  0
VERTEX
  5
15E5
  8
0
 10
-176.620196928836
 20
-17.05694254595804
 30
158.0566002505104
 70
   192
  0
VERTEX
  5
15E6
  8
0
 10
-195.6356900213754
 20
-14.2112003776363
 30
158.1194922482535
 70
   192
  0
VERTEX
  5
15E7
  8
0
 10
-211.9978510390675
 20
-12.44472432406403
 30
153.5996298145825
 70
   192
  0
VERTEX
  5
15E8
  8
0
 10
0.0
 20
0.0
 30
0.0
 70
   128
 71
     6
 72
     7
 73
     8
  0
VERTEX
  5
15E9
  8
0
 10
0.0
 20
0.0
 30
0.0
 70
   128
 71
     9
 72
    11
 73
     6
  0
VERTEX
  5
15EA
  8
0
 10
0.0
 20
0.0
 30
0.0
 70
   128
 71
     8
 72
     9
 73
     6
  0
VERTEX
  5
15EB
  8
0
 10
0.0
 20
0.0
 30
0.0
 70
   128
 71
     9
 72
    10
 73
    11
  0
VERTEX
  5
15EC
  8
0
 10
0.0
 20
0.0
 30
0.0
 70
   128
 71
    12
 72
     5
 73
     6
  0
VERTEX
  5
15ED
  8
0
 10
0.0
 20
0.0
 30
0.0
 70
   128
 71
    11
 72
    12
 73
     6
  0
VERTEX
  5
15EE
  8
0
 10
0.0
 20
0.0
 30
0.0
 70
   128
 71
    12
 72
     1
 73
     2
  0
VERTEX
  5
15EF
  8
0
 10
0.0
 20
0.0
 30
0.0
 70
   128
 71
     3
 72
     5
 73
    12
  0
VERTEX
  5
15F0
  8
0
 10
0.0
 20
0.0
 30
0.0
 70
   128
 71
     2
 72
     3
 73
    12
  0
VERTEX
  5
15F1
  8
0
 10
0.0
 20
0.0
 30
0.0
 70
   128
 71
     3
 72
     4
 73
     5
  0
SEQEND
  5
1B6D
  8
0
  0
POLYLINE
  5
15F2
  8
0
 66
     1
 10
0.0
 20
0.0
 30
0.0
 70
    64
 71
    12
 72
    10
  0
VERTEX
  5
15F3
  8
0
 10
-204.2787791137975
 20
-10.14110895545635
 30
-93.26811884925158
 70
   192
  0
VERTEX
  5
15F4
  8
0
 10
-161.7749603156885
 20
-8.26351822333067
 30
-103.5429187816506
 70
   192
  0
VERTEX
  5
15F5
  8
0
 10
-161.7749603156886
 20
-4.028607307115987
 30
-105.3700001811587
 70
   192
  0
VERTEX
  5
15F6
  8
0
 10
-161.7749603156886
 20
-1.063939364437357
 30
-108.9031538526948
 70
   192
  0
VERTEX
  5
15F7
  8
0
 10
-212.2108433823728
 20
0.0
 30
-107.3428999547901
 70
   192
  0
VERTEX
  5
15F8
  8
0
 10
-161.7749603156885
 20
0.0
 30
-113.3909963117728
 70
   192
  0
VERTEX
  5
15F9
  8
0
 10
-253.3448338603799
 20
0.0
 30
-80.70413019016276
 70
   192
  0
VERTEX
  5
15FA
  8
0
 10
-270.82268202207
 20
0.0
 30
-33.4206800213702
 70
   192
  0
VERTEX
  5
15FB
  8
0
 10
-258.3466268901268
 20
-1.995420692438718
 30
-33.42068002137019
 70
   192
  0
VERTEX
  5
15FC
  8
0
 10
-246.847124432237
 20
-7.981682769754866
 30
-33.42068002137019
 70
   192
  0
VERTEX
  5
15FD
  8
0
 10
-238.05660025051
 20
-17.0569425459581
 30
-33.4206800213702
 70
   192
  0
VERTEX
  5
15FE
  8
0
 10
-230.7417154277986
 20
-13.97118456496204
 30
-66.75166319745159
 70
   192
  0
VERTEX
  5
15FF
  8
0
 10
0.0
 20
0.0
 30
0.0
 70
   128
 71
     1
 72
     2
 73
     3
  0
VERTEX
  5
1600
  8
0
 10
0.0
 20
0.0
 30
0.0
 70
   128
 71
     4
 72
     5
 73
     1
  0
VERTEX
  5
1601
  8
0
 10
0.0
 20
0.0
 30
0.0
 70
   128
 71
     3
 72
     4
 73
     1
  0
VERTEX
  5
1602
  8
0
 10
0.0
 20
0.0
 30
0.0
 70
   128
 71
     4
 72
     6
 73
     5
  0
VERTEX
  5
1603
  8
0
 10
0.0
 20
0.0
 30
0.0
 70
   128
 71
     7
 72
     8
 73
     9
  0
VERTEX
  5
1604
  8
0
 10
0.0
 20
0.0
 30
0.0
 70
   128
 71
    10
 72
    11
 73
    12
  0
VERTEX
  5
1605
  8
0
 10
0.0
 20
0.0
 30
0.0
 70
   128
 71
     9
 72
    10
 73
     5
  0
VERTEX
  5
1606
  8
0
 10
0.0
 20
0.0
 30
0.0
 70
   128
 71
     7
 72
     9
 73
     5
  0
VERTEX
  5
1607
  8
0
 10
0.0
 20
0.0
 30
0.0
 70
   128
 71
    12
 72
     1
 73
     5
  0
VERTEX
  5
1608
  8
0
 10
0.0
 20
0.0
 30
0.0
 70
   128
 71
    10
 72
    12
 73
     5
  0
SEQEND
  5
1B6E
  8
0
  0
POLYLINE
  5
1609
  8
0
 66
     1
 10
0.0
 20
0.0
 30
0.0
 70
    64
 71
     8
 72
     6
  0
VERTEX
  5
160A
  8
0
 10
-176.620196928836
 20
-2.030294257078637
 30
178.2408917760055
 70
   192
  0
VERTEX
  5
160B
  8
0
 10
176.620196928836
 20
-2.030294257078658
 30
178.2408917760054
 70
   192
  0
VERTEX
  5
160C
  8
0
 10
176.620196928836
 20
-7.915072289798296
 30
166.9363383539585
 70
   192
  0
VERTEX
  5
160D
  8
0
 10
-176.620196928836
 20
-7.915072289798189
 30
166.9363383539587
 70
   192
  0
VERTEX
  5
160E
  8
0
 10
-176.620196928836
 20
0.0
 30
190.82268202207
 70
   192
  0
VERTEX
  5
160F
  8
0
 10
176.620196928836
 20
0.0
 30
190.82268202207
 70
   192
  0
VERTEX
  5
1610
  8
0
 10
176.620196928836
 20
-17.05694254595826
 30
158.0566002505103
 70
   192
  0
VERTEX
  5
1611
  8
0
 10
-176.620196928836
 20
-17.0569425459581
 30
158.0566002505101
 70
   192
  0
VERTEX
  5
1612
  8
0
 10
0.0
 20
0.0
 30
0.0
 70
   128
 71
     1
 72
     2
 73
    -3
  0
VERTEX
  5
1613
  8
0
 10
0.0
 20
0.0
 30
0.0
 70
   128
 71
    -1
 72
     3
 73
     4
  0
VERTEX
  5
1614
  8
0
 10
0.0
 20
0.0
 30
0.0
 70
   128
 71
     5
 72
     6
 73
    -2
  0
VERTEX
  5
1615
  8
0
 10
0.0
 20
0.0
 30
0.0
 70
   128
 71
    -5
 72
     2
 73
     1
  0
VERTEX
  5
1616
  8
0
 10
0.0
 20
0.0
 30
0.0
 70
   128
 71
     4
 72
     3
 73
    -7
  0
VERTEX
  5
1617
  8
0
 10
0.0
 20
0.0
 30
0.0
 70
   128
 71
    -4
 72
     7
 73
     8
  0
SEQEND
  5
1B6F
  8
0
  0
POLYLINE
  5
1618
  8
0
 66
     1
 10
0.0
 20
0.0
 30
0.0
 70
    64
 71
     8
 72
     6
  0
VERTEX
  5
1619
  8
0
 10
161.7749603156885
 20
-1.024719253032233
 30
-108.9814231450015
 70
   192
  0
VERTEX
  5
161A
  8
0
 10
-161.7749603156886
 20
-1.063939364437357
 30
-108.9031538526948
 70
   192
  0
VERTEX
  5
161B
  8
0
 10
-161.7749603156886
 20
-4.028607307115987
 30
-105.3700001811587
 70
   192
  0
VERTEX
  5
161C
  8
0
 10
161.7749603156885
 20
-4.098877012128946
 30
-105.3177845913965
 70
   192
  0
VERTEX
  5
161D
  8
0
 10
161.7749603156885
 20
0.0
 30
-113.3909963117728
 70
   192
  0
VERTEX
  5
161E
  8
0
 10
-161.7749603156885
 20
0.0
 30
-113.3909963117728
 70
   192
  0
VERTEX
  5
161F
  8
0
 10
-161.7749603156885
 20
-8.26351822333067
 30
-103.5429187816506
 70
   192
  0
VERTEX
  5
1620
  8
0
 10
161.7749603156885
 20
-8.26351822333069
 30
-103.5429187816506
 70
   192
  0
VERTEX
  5
1621
  8
0
 10
0.0
 20
0.0
 30
0.0
 70
   128
 71
     1
 72
     2
 73
    -3
  0
VERTEX
  5
1622
  8
0
 10
0.0
 20
0.0
 30
0.0
 70
   128
 71
    -1
 72
     3
 73
     4
  0
VERTEX
  5
1623
  8
0
 10
0.0
 20
0.0
 30
0.0
 70
   128
 71
     5
 72
     6
 73
     2
  0
VERTEX
  5
1624
  8
0
 10
0.0
 20
0.0
 30
0.0
 70
   128
 71
     5
 72
     2
 73
     1
  0
VERTEX
  5
1625
  8
0
 10
0.0
 20
0.0
 30
0.0
 70
   128
 71
     4
 72
     3
 73
     7
  0
VERTEX
  5
1626
  8
0
 10
0.0
 20
0.0
 30
0.0
 70
   128
 71
     4
 72
     7
 73
     8
  0
SEQEND
  5
1B70
  8
0
  0
POLYLINE
  5
1627
  8
0
 66
     1
 10
0.0
 20
0.0
 30
0.0
 70
    64
 71
    12
 72
    10
  0
VERTEX
  5
1628
  8
0
 10
224.7761449824474
 20
-11.85472828702722
 30
144.7761449824474
 70
   192
  0
VERTEX
  5
1629
  8
0
 10
230.6518363701388
 20
-5.424533789628569
 30
150.6518363701388
 70
   192
  0
VERTEX
  5
162A
  8
0
 10
237.5088083901898
 20
-1.379936248014431
 30
157.5088083901898
 70
   192
  0
VERTEX
  5
162B
  8
0
 10
244.873951830496
 20
0.0000000000000213
 30
164.873951830496
 70
   192
  0
VERTEX
  5
162C
  8
0
 10
259.0421095078962
 20
-0.0000000000000056
 30
145.90423539057
 70
   192
  0
VERTEX
  5
162D
  8
0
 10
267.8775388935264
 20
-0.0000000000000047
 30
122.6641297173624
 70
   192
  0
VERTEX
  5
162E
  8
0
 10
270.82268202207
 20
0.0
 30
96.6201969288358
 70
   192
  0
VERTEX
  5
162F
  8
0
 10
258.2408917760055
 20
-2.030294257078637
 30
96.62019692883581
 70
   192
  0
VERTEX
  5
1630
  8
0
 10
246.9363383539587
 20
-7.915072289798189
 30
96.62019692883581
 70
   192
  0
VERTEX
  5
1631
  8
0
 10
238.0566002505104
 20
-17.05694254595804
 30
96.62019692883581
 70
   192
  0
VERTEX
  5
1632
  8
0
 10
238.1194922475486
 20
-14.21120037752897
 30
115.635690024725
 70
   192
  0
VERTEX
  5
1633
  8
0
 10
233.5996298154496
 20
-12.44472432445761
 30
131.9978510367031
 70
   192
  0
VERTEX
  5
1634
  8
0
 10
0.0
 20
0.0
 30
0.0
 70
   128
 71
     6
 72
     7
 73
     8
  0
VERTEX
  5
1635
  8
0
 10
0.0
 20
0.0
 30
0.0
 70
   128
 71
     9
 72
    11
 73
     6
  0
VERTEX
  5
1636
  8
0
 10
0.0
 20
0.0
 30
0.0
 70
   128
 71
     8
 72
     9
 73
     6
  0
VERTEX
  5
1637
  8
0
 10
0.0
 20
0.0
 30
0.0
 70
   128
 71
     9
 72
    10
 73
    11
  0
VERTEX
  5
1638
  8
0
 10
0.0
 20
0.0
 30
0.0
 70
   128
 71
    12
 72
     5
 73
     6
  0
VERTEX
  5
1639
  8
0
 10
0.0
 20
0.0
 30
0.0
 70
   128
 71
    11
 72
    12
 73
     6
  0
VERTEX
  5
163A
  8
0
 10
0.0
 20
0.0
 30
0.0
 70
   128
 71
    12
 72
     1
 73
     2
  0
VERTEX
  5
163B
  8
0
 10
0.0
 20
0.0
 30
0.0
 70
   128
 71
     3
 72
     5
 73
    12
  0
VERTEX
  5
163C
  8
0
 10
0.0
 20
0.0
 30
0.0
 70
   128
 71
     2
 72
     3
 73
    12
  0
VERTEX
  5
163D
  8
0
 10
0.0
 20
0.0
 30
0.0
 70
   128
 71
     3
 72
     4
 73
     5
  0
SEQEND
  5
1B71
  8
0
  0
POLYLINE
  5
163E
  8
0
 66
     1
 10
0.0
 20
0.0
 30
0.0
 70
    64
 71
    12
 72
    10
  0
VERTEX
  5
163F
  8
0
 10
230.7421415342379
 20
-13.97117104845953
 30
-66.75069571516562
 70
   192
  0
VERTEX
  5
1640
  8
0
 10
238.0566002505105
 20
-17.05694254595815
 30
-33.4206800213702
 70
   192
  0
VERTEX
  5
1641
  8
0
 10
246.9364941299991
 20
-7.915296143114778
 30
-33.42068002137011
 70
   192
  0
VERTEX
  5
1642
  8
0
 10
258.2409857964411
 20
-2.030550258328284
 30
-33.42068002137011
 70
   192
  0
VERTEX
  5
1643
  8
0
 10
253.3441830617884
 20
0.0
 30
-80.70496842463692
 70
   192
  0
VERTEX
  5
1644
  8
0
 10
270.82268202207
 20
0.0
 30
-33.42068002137015
 70
   192
  0
VERTEX
  5
1645
  8
0
 10
212.2098590611554
 20
0.0
 30
-107.3432631932571
 70
   192
  0
VERTEX
  5
1646
  8
0
 10
161.7749603156885
 20
0.0
 30
-113.3909963117728
 70
   192
  0
VERTEX
  5
1647
  8
0
 10
161.7749603156885
 20
-1.024719253032233
 30
-108.9814231450015
 70
   192
  0
VERTEX
  5
1648
  8
0
 10
161.7749603156885
 20
-4.098877012128946
 30
-105.3177845913965
 70
   192
  0
VERTEX
  5
1649
  8
0
 10
161.7749603156885
 20
-8.26351822333069
 30
-103.5429187816506
 70
   192
  0
VERTEX
  5
164A
  8
0
 10
204.2799954285588
 20
-10.14136238349862
 30
-93.26761416666758
 70
   192
  0
VERTEX
  5
164B
  8
0
 10
0.0
 20
0.0
 30
0.0
 70
   128
 71
     1
 72
     2
 73
     3
  0
VERTEX
  5
164C
  8
0
 10
0.0
 20
0.0
 30
0.0
 70
   128
 71
     4
 72
     5
 73
     1
  0
VERTEX
  5
164D
  8
0
 10
0.0
 20
0.0
 30
0.0
 70
   128
 71
     3
 72
     4
 73
     1
  0
VERTEX
  5
164E
  8
0
 10
0.0
 20
0.0
 30
0.0
 70
   128
 71
     4
 72
     6
 73
     5
  0
VERTEX
  5
164F
  8
0
 10
0.0
 20
0.0
 30
0.0
 70
   128
 71
     7
 72
     8
 73
     9
  0
VERTEX
  5
1650
  8
0
 10
0.0
 20
0.0
 30
0.0
 70
   128
 71
    10
 72
    11
 73
    12
  0
VERTEX
  5
1651
  8
0
 10
0.0
 20
0.0
 30
0.0
 70
   128
 71
     9
 72
    10
 73
     5
  0
VERTEX
  5
1652
  8
0
 10
0.0
 20
0.0
 30
0.0
 70
   128
 71
     7
 72
     9
 73
     5
  0
VERTEX
  5
1653
  8
0
 10
0.0
 20
0.0
 30
0.0
 70
   128
 71
    12
 72
     1
 73
     5
  0
VERTEX
  5
1654
  8
0
 10
0.0
 20
0.0
 30
0.0
 70
   128
 71
    10
 72
    12
 73
     5
  0
SEQEND
  5
1B72
  8
0
  0
POLYLINE
  5
1655
  8
0
 66
     1
 10
0.0
 20
0.0
 30
0.0
 70
    64
 71
     8
 72
     6
  0
VERTEX
  5
1656
  8
0
 10
258.2408917760055
 20
-2.030294257078637
 30
96.62019692883581
 70
   192
  0
VERTEX
  5
1657
  8
0
 10
258.2409857964411
 20
-2.030550258328284
 30
-33.42068002137011
 70
   192
  0
VERTEX
  5
1658
  8
0
 10
246.9364941299991
 20
-7.915296143114778
 30
-33.42068002137011
 70
   192
  0
VERTEX
  5
1659
  8
0
 10
246.9363383539587
 20
-7.915072289798189
 30
96.62019692883581
 70
   192
  0
VERTEX
  5
165A
  8
0
 10
270.82268202207
 20
0.0
 30
96.62019692883581
 70
   192
  0
VERTEX
  5
165B
  8
0
 10
270.82268202207
 20
0.0
 30
-33.42068002137015
 70
   192
  0
VERTEX
  5
165C
  8
0
 10
238.0566002505105
 20
-17.05694254595815
 30
-33.4206800213702
 70
   192
  0
VERTEX
  5
165D
  8
0
 10
238.0566002505105
 20
-17.0569425459581
 30
96.62019692883581
 70
   192
  0
VERTEX
  5
165E
  8
0
 10
0.0
 20
0.0
 30
0.0
 70
   128
 71
     1
 72
     2
 73
    -3
  0
VERTEX
  5
165F
  8
0
 10
0.0
 20
0.0
 30
0.0
 70
   128
 71
    -1
 72
     3
 73
     4
  0
VERTEX
  5
1660
  8
0
 10
0.0
 20
0.0
 30
0.0
 70
   128
 71
     5
 72
     6
 73
     2
  0
VERTEX
  5
1661
  8
0
 10
0.0
 20
0.0
 30
0.0
 70
   128
 71
     5
 72
     2
 73
     1
  0
VERTEX
  5
1662
  8
0
 10
0.0
 20
0.0
 30
0.0
 70
   128
 71
     4
 72
     3
 73
     7
  0
VERTEX
  5
1663
  8
0
 10
0.0
 20
0.0
 30
0.0
 70
   128
 71
     4
 72
     7
 73
     8
  0
SEQEND
  5
1B73
  8
0
  0
POLYLINE
  5
1664
  8
0
 66
     1
 10
0.0
 20
0.0
 30
0.0
 70
    64
 71
    12
 72
    10
  0
VERTEX
  5
1665
  8
0
 10
-47.2299610852815
 20
-130.7466990055866
 30
64.118773386855
 70
   192
  0
VERTEX
  5
1666
  8
0
 10
-16.02324621031383
 20
-130.6705132899019
 30
71.37187708689055
 70
   192
  0
VERTEX
  5
1667
  8
0
 10
16.0236998038891
 20
-130.6705183938422
 30
71.37183344195917
 70
   192
  0
VERTEX
  5
1668
  8
0
 10
47.22996108527912
 20
-130.7466990055866
 30
64.11877338685503
 70
   192
  0
VERTEX
  5
1669
  8
0
 10
45.09252917379396
 20
-131.9837548357195
 30
59.33133624335015
 70
   192
  0
VERTEX
  5
166A
  8
0
 10
43.29081108728559
 20
-134.9931801884915
 30
55.24285881416542
 70
   192
  0
VERTEX
  5
166B
  8
0
 10
42.05717622275105
 20
-139.3868464439106
 30
52.380636152822
 70
   192
  0
VERTEX
  5
166C
  8
0
 10
14.3434457455315
 20
-139.123960822204
 30
60.38114909647352
 70
   192
  0
VERTEX
  5
166D
  8
0
 10
-14.18247600856374
 20
-139.1218245420552
 30
60.40373741478869
 70
   192
  0
VERTEX
  5
166E
  8
0
 10
-42.05717622276141
 20
-139.386846443909
 30
52.38063615281938
 70
   192
  0
VERTEX
  5
166F
  8
0
 10
-43.29081108729412
 20
-134.9931801884908
 30
55.2428588141637
 70
   192
  0
VERTEX
  5
1670
  8
0
 10
-45.09252917379968
 20
-131.9837548357193
 30
59.33133624334928
 70
   192
  0
VERTEX
  5
1671
  8
0
 10
0.0
 20
0.0
 30
0.0
 70
   128
 71
     8
 72
     7
 73
     6
  0
VERTEX
  5
1672
  8
0
 10
0.0
 20
0.0
 30
0.0
 70
   128
 71
     6
 72
    11
 73
     9
  0
VERTEX
  5
1673
  8
0
 10
0.0
 20
0.0
 30
0.0
 70
   128
 71
     6
 72
     9
 73
     8
  0
VERTEX
  5
1674
  8
0
 10
0.0
 20
0.0
 30
0.0
 70
   128
 71
    11
 72
    10
 73
     9
  0
VERTEX
  5
1675
  8
0
 10
0.0
 20
0.0
 30
0.0
 70
   128
 71
     6
 72
     5
 73
   -12
  0
VERTEX
  5
1676
  8
0
 10
0.0
 20
0.0
 30
0.0
 70
   128
 71
    -6
 72
    12
 73
    11
  0
VERTEX
  5
1677
  8
0
 10
0.0
 20
0.0
 30
0.0
 70
   128
 71
     2
 72
     1
 73
    12
  0
VERTEX
  5
1678
  8
0
 10
0.0
 20
0.0
 30
0.0
 70
   128
 71
    12
 72
     5
 73
     3
  0
VERTEX
  5
1679
  8
0
 10
0.0
 20
0.0
 30
0.0
 70
   128
 71
    12
 72
     3
 73
     2
  0
VERTEX
  5
167A
  8
0
 10
0.0
 20
0.0
 30
0.0
 70
   128
 71
     5
 72
     4
 73
     3
  0
SEQEND
  5
1B74
  8
0
  0
POLYLINE
  5
167B
  8
0
 66
     1
 10
0.0
 20
0.0
 30
0.0
 70
    64
 71
    15
 72
    13
  0
VERTEX
  5
167C
  8
0
 10
72.26141422336211
 20
-131.5508068579736
 30
-40.4024024255523
 70
   192
  0
VERTEX
  5
167D
  8
0
 10
76.08169790510567
 20
-130.3143317839654
 30
-43.99463187435626
 70
   192
  0
VERTEX
  5
167E
  8
0
 10
74.9527015597937
 20
-138.7744387149144
 30
-24.17883221549927
 70
   192
  0
VERTEX
  5
167F
  8
0
 10
69.021666231866
 20
-134.5602805771161
 30
-37.32431027035588
 70
   192
  0
VERTEX
  5
1680
  8
0
 10
66.7804181448629
 20
-138.9544967184966
 30
-35.15746418772105
 70
   192
  0
VERTEX
  5
1681
  8
0
 10
94.2132596483116
 20
-129.977004058658
 30
-4.540650481848452
 70
   192
  0
VERTEX
  5
1682
  8
0
 10
79.83558110511805
 20
-138.6575638222697
 30
-12.59795693883667
 70
   192
  0
VERTEX
  5
1683
  8
0
 10
81.5790513005439
 20
-138.613713558144
 30
0.0000000000000314
 70
   192
  0
VERTEX
  5
1684
  8
0
 10
62.50185238459758
 20
-139.041879092979
 30
39.32654967332286
 70
   192
  0
VERTEX
  5
1685
  8
0
 10
76.22491356335908
 20
-138.7446467099668
 30
21.82430063546709
 70
   192
  0
VERTEX
  5
1686
  8
0
 10
43.29081108728559
 20
-134.9931801884915
 30
55.24285881416542
 70
   192
  0
VERTEX
  5
1687
  8
0
 10
42.05717622275098
 20
-139.3868464439105
 30
52.38063615282198
 70
   192
  0
VERTEX
  5
1688
  8
0
 10
81.90259381327331
 20
-130.2105639360224
 30
36.98469790894502
 70
   192
  0
VERTEX
  5
1689
  8
0
 10
45.09252917379396
 20
-131.9837548357195
 30
59.33133624335015
 70
   192
  0
VERTEX
  5
168A
  8
0
 10
47.2299610852792
 20
-130.7466990055866
 30
64.118773386855
 70
   192
  0
VERTEX
  5
168B
  8
0
 10
0.0
 20
0.0
 30
0.0
 70
   128
 71
     1
 72
     2
 73
     3
  0
VERTEX
  5
168C
  8
0
 10
0.0
 20
0.0
 30
0.0
 70
   128
 71
     3
 72
     4
 73
     1
  0
VERTEX
  5
168D
  8
0
 10
0.0
 20
0.0
 30
0.0
 70
   128
 71
     3
 72
     5
 73
     4
  0
VERTEX
  5
168E
  8
0
 10
0.0
 20
0.0
 30
0.0
 70
   128
 71
     2
 72
     6
 73
     7
  0
VERTEX
  5
168F
  8
0
 10
0.0
 20
0.0
 30
0.0
 70
   128
 71
     2
 72
     7
 73
     3
  0
VERTEX
  5
1690
  8
0
 10
0.0
 20
0.0
 30
0.0
 70
   128
 71
     6
 72
     8
 73
     7
  0
VERTEX
  5
1691
  8
0
 10
0.0
 20
0.0
 30
0.0
 70
   128
 71
     9
 72
    10
 73
    11
  0
VERTEX
  5
1692
  8
0
 10
0.0
 20
0.0
 30
0.0
 70
   128
 71
    11
 72
    12
 73
     9
  0
VERTEX
  5
1693
  8
0
 10
0.0
 20
0.0
 30
0.0
 70
   128
 71
    10
 72
    13
 73
    14
  0
VERTEX
  5
1694
  8
0
 10
0.0
 20
0.0
 30
0.0
 70
   128
 71
    10
 72
    14
 73
    11
  0
VERTEX
  5
1695
  8
0
 10
0.0
 20
0.0
 30
0.0
 70
   128
 71
    13
 72
    15
 73
    14
  0
VERTEX
  5
1696
  8
0
 10
0.0
 20
0.0
 30
0.0
 70
   128
 71
    10
 72
     6
 73
    13
  0
VERTEX
  5
1697
  8
0
 10
0.0
 20
0.0
 30
0.0
 70
   128
 71
    10
 72
     8
 73
     6
  0
SEQEND
  5
1B75
  8
0
  0
POLYLINE
  5
1698
  8
0
 66
     1
 10
0.0
 20
0.0
 30
0.0
 70
    64
 71
    18
 72
    16
  0
VERTEX
  5
1699
  8
0
 10
-45.09252917379968
 20
-131.9837548357193
 30
59.33133624334928
 70
   192
  0
VERTEX
  5
169A
  8
0
 10
-47.22996108528152
 20
-130.7466990055866
 30
64.11877338685498
 70
   192
  0
VERTEX
  5
169B
  8
0
 10
-71.00541116255852
 20
-130.4008440901654
 30
48.9362143322026
 70
   192
  0
VERTEX
  5
169C
  8
0
 10
-43.29081108729412
 20
-134.9931801884908
 30
55.2428588141637
 70
   192
  0
VERTEX
  5
169D
  8
0
 10
-62.4692886356275
 20
-139.0425269144878
 30
39.35622098194816
 70
   192
  0
VERTEX
  5
169E
  8
0
 10
-42.05717622276139
 20
-139.386846443909
 30
52.38063615281941
 70
   192
  0
VERTEX
  5
169F
  8
0
 10
-87.96442917937529
 20
-130.0977644653966
 30
27.01184021071641
 70
   192
  0
VERTEX
  5
16A0
  8
0
 10
-76.2135079836094
 20
-138.7449167624908
 30
21.84662451291768
 70
   192
  0
VERTEX
  5
16A1
  8
0
 10
-94.38862876244941
 20
-129.973544462936
 30
0.0000000000000008
 70
   192
  0
VERTEX
  5
16A2
  8
0
 10
-92.21154018921666
 20
-130.0161534294518
 30
-15.91932292517211
 70
   192
  0
VERTEX
  5
16A3
  8
0
 10
-79.83746407269567
 20
-138.6575217944037
 30
-12.59191579057369
 70
   192
  0
VERTEX
  5
16A4
  8
0
 10
-81.5790513005439
 20
-138.613713558144
 30
0.0000000000000069
 70
   192
  0
VERTEX
  5
16A5
  8
0
 10
-69.02166623186395
 20
-134.5602805771165
 30
-37.32431027035756
 70
   192
  0
VERTEX
  5
16A6
  8
0
 10
-66.78041814486032
 20
-138.9544967184974
 30
-35.15746418772343
 70
   192
  0
VERTEX
  5
16A7
  8
0
 10
-74.95606975713001
 20
-138.7743578462174
 30
-24.17289330233339
 70
   192
  0
VERTEX
  5
16A8
  8
0
 10
-72.2614142233609
 20
-131.5508068579737
 30
-40.40240242555321
 70
   192
  0
VERTEX
  5
16A9
  8
0
 10
-85.93100863939858
 20
-130.1361157411284
 30
-30.80746127352791
 70
   192
  0
VERTEX
  5
16AA
  8
0
 10
-76.08169790510559
 20
-130.3143317839654
 30
-43.99463187435625
 70
   192
  0
VERTEX
  5
16AB
  8
0
 10
0.0
 20
0.0
 30
0.0
 70
   128
 71
     1
 72
     2
 73
     3
  0
VERTEX
  5
16AC
  8
0
 10
0.0
 20
0.0
 30
0.0
 70
   128
 71
     3
 72
     4
 73
     1
  0
VERTEX
  5
16AD
  8
0
 10
0.0
 20
0.0
 30
0.0
 70
   128
 71
     3
 72
     5
 73
     4
  0
VERTEX
  5
16AE
  8
0
 10
0.0
 20
0.0
 30
0.0
 70
   128
 71
     5
 72
     6
 73
     4
  0
VERTEX
  5
16AF
  8
0
 10
0.0
 20
0.0
 30
0.0
 70
   128
 71
     3
 72
     7
 73
     8
  0
VERTEX
  5
16B0
  8
0
 10
0.0
 20
0.0
 30
0.0
 70
   128
 71
     3
 72
     8
 73
     5
  0
VERTEX
  5
16B1
  8
0
 10
0.0
 20
0.0
 30
0.0
 70
   128
 71
     9
 72
    10
 73
    11
  0
VERTEX
  5
16B2
  8
0
 10
0.0
 20
0.0
 30
0.0
 70
   128
 71
     9
 72
    11
 73
    12
  0
VERTEX
  5
16B3
  8
0
 10
0.0
 20
0.0
 30
0.0
 70
   128
 71
    13
 72
    14
 73
    15
  0
VERTEX
  5
16B4
  8
0
 10
0.0
 20
0.0
 30
0.0
 70
   128
 71
    15
 72
    16
 73
    13
  0
VERTEX
  5
16B5
  8
0
 10
0.0
 20
0.0
 30
0.0
 70
   128
 71
    15
 72
    17
 73
    16
  0
VERTEX
  5
16B6
  8
0
 10
0.0
 20
0.0
 30
0.0
 70
   128
 71
    17
 72
    18
 73
    16
  0
VERTEX
  5
16B7
  8
0
 10
0.0
 20
0.0
 30
0.0
 70
   128
 71
    15
 72
    11
 73
    10
  0
VERTEX
  5
16B8
  8
0
 10
0.0
 20
0.0
 30
0.0
 70
   128
 71
    15
 72
    10
 73
    17
  0
VERTEX
  5
16B9
  8
0
 10
0.0
 20
0.0
 30
0.0
 70
   128
 71
     9
 72
    12
 73
     8
  0
VERTEX
  5
16BA
  8
0
 10
0.0
 20
0.0
 30
0.0
 70
   128
 71
     9
 72
     8
 73
     7
  0
SEQEND
  5
1B76
  8
0
  0
POLYLINE
  5
16BB
  8
0
 66
     1
 10
0.0
 20
0.0
 30
0.0
 70
    64
 71
    12
 72
    10
  0
VERTEX
  5
16BC
  8
0
 10
-72.2614142233609
 20
-131.5508068579737
 30
-40.40240242555321
 70
   192
  0
VERTEX
  5
16BD
  8
0
 10
-76.08169790510551
 20
-130.3143317839654
 30
-43.99463187435634
 70
   192
  0
VERTEX
  5
16BE
  8
0
 10
-27.25187842989144
 20
-126.6115805902098
 30
-68.02789351172945
 70
   192
  0
VERTEX
  5
16BF
  8
0
 10
-24.49443809759892
 20
-133.9269197697362
 30
-60.98665293640821
 70
   192
  0
VERTEX
  5
16C0
  8
0
 10
-69.02166623186395
 20
-134.5602805771165
 30
-37.32431027035756
 70
   192
  0
VERTEX
  5
16C1
  8
0
 10
-66.78041814486039
 20
-138.9544967184974
 30
-35.15746418772345
 70
   192
  0
VERTEX
  5
16C2
  8
0
 10
69.021666231866
 20
-134.5602805771161
 30
-37.32431027035588
 70
   192
  0
VERTEX
  5
16C3
  8
0
 10
66.78041814486289
 20
-138.9544967184966
 30
-35.1574641877211
 70
   192
  0
VERTEX
  5
16C4
  8
0
 10
24.47045337984709
 20
-133.9241441693271
 30
-60.99353514291408
 70
   192
  0
VERTEX
  5
16C5
  8
0
 10
27.22933843526322
 20
-126.6098234910866
 30
-68.03304009415845
 70
   192
  0
VERTEX
  5
16C6
  8
0
 10
72.26141422336211
 20
-131.5508068579736
 30
-40.4024024255523
 70
   192
  0
VERTEX
  5
16C7
  8
0
 10
76.08169790510568
 20
-130.3143317839654
 30
-43.99463187435625
 70
   192
  0
VERTEX
  5
16C8
  8
0
 10
0.0
 20
0.0
 30
0.0
 70
   128
 71
     1
 72
     2
 73
     3
  0
VERTEX
  5
16C9
  8
0
 10
0.0
 20
0.0
 30
0.0
 70
   128
 71
     3
 72
     4
 73
     5
  0
VERTEX
  5
16CA
  8
0
 10
0.0
 20
0.0
 30
0.0
 70
   128
 71
     3
 72
     5
 73
     1
  0
VERTEX
  5
16CB
  8
0
 10
0.0
 20
0.0
 30
0.0
 70
   128
 71
     4
 72
     6
 73
     5
  0
VERTEX
  5
16CC
  8
0
 10
0.0
 20
0.0
 30
0.0
 70
   128
 71
     7
 72
     8
 73
     9
  0
VERTEX
  5
16CD
  8
0
 10
0.0
 20
0.0
 30
0.0
 70
   128
 71
     9
 72
    10
 73
    11
  0
VERTEX
  5
16CE
  8
0
 10
0.0
 20
0.0
 30
0.0
 70
   128
 71
     9
 72
    11
 73
     7
  0
VERTEX
  5
16CF
  8
0
 10
0.0
 20
0.0
 30
0.0
 70
   128
 71
    10
 72
    12
 73
    11
  0
VERTEX
  5
16D0
  8
0
 10
0.0
 20
0.0
 30
0.0
 70
   128
 71
     9
 72
     3
 73
    10
  0
VERTEX
  5
16D1
  8
0
 10
0.0
 20
0.0
 30
0.0
 70
   128
 71
     4
 72
     3
 73
     9
  0
SEQEND
  5
1B77
  8
0
  0
POLYLINE
  5
16D2
  8
0
 66
     1
 10
0.0
 20
0.0
 30
0.0
 70
    64
 71
     4
 72
     2
  0
VERTEX
  5
16D3
  8
0
 10
269.4182905092765
 20
-17.13175911166535
 30
194.4942517442155
 70
   192
  0
VERTEX
  5
16D4
  8
0
 10
278.951170669088
 20
-17.13175911166535
 30
194.4942517442155
 70
   192
  0
VERTEX
  5
16D5
  8
0
 10
279.9951249771472
 20
-19.99999999999996
 30
194.9999999999999
 70
   192
  0
VERTEX
  5
16D6
  8
0
 10
269.924038765061
 20
-20.0
 30
195.0
 70
   192
  0
VERTEX
  5
16D7
  8
0
 10
0.0
 20
0.0
 30
0.0
 70
   128
 71
     3
 72
     4
 73
    -1
  0
VERTEX
  5
16D8
  8
0
 10
0.0
 20
0.0
 30
0.0
 70
   128
 71
     2
 72
    -3
 73
     1
  0
SEQEND
  5
1B78
  8
0
  0
POLYLINE
  5
16D9
  8
0
 66
     1
 10
0.0
 20
0.0
 30
0.0
 70
    64
 71
     4
 72
     2
  0
VERTEX
  5
16DA
  8
0
 10
265.0
 20
-20.0
 30
199.924038765061
 70
   192
  0
VERTEX
  5
16DB
  8
0
 10
265.0
 20
-20.0
 30
209.995124977147
 70
   192
  0
VERTEX
  5
16DC
  8
0
 10
264.4942517442157
 20
-17.13175911166533
 30
208.951170669088
 70
   192
  0
VERTEX
  5
16DD
  8
0
 10
264.4942517442155
 20
-17.13175911166535
 30
199.4182905092765
 70
   192
  0
VERTEX
  5
16DE
  8
0
 10
0.0
 20
0.0
 30
0.0
 70
   128
 71
     3
 72
     4
 73
    -1
  0
VERTEX
  5
16DF
  8
0
 10
0.0
 20
0.0
 30
0.0
 70
   128
 71
     2
 72
    -3
 73
     1
  0
SEQEND
  5
1B79
  8
0
  0
POLYLINE
  5
16E0
  8
0
 66
     1
 10
0.0
 20
0.0
 30
0.0
 70
    64
 71
     4
 72
     2
  0
VERTEX
  5
16E1
  8
0
 10
269.924038765061
 20
-20.0
 30
-185.0
 70
   192
  0
VERTEX
  5
16E2
  8
0
 10
279.995124977147
 20
-20.0
 30
-185.0
 70
   192
  0
VERTEX
  5
16E3
  8
0
 10
278.951170669088
 20
-17.13175911166532
 30
-184.4942517442157
 70
   192
  0
VERTEX
  5
16E4
  8
0
 10
269.4182905092765
 20
-17.13175911166535
 30
-184.4942517442155
 70
   192
  0
VERTEX
  5
16E5
  8
0
 10
0.0
 20
0.0
 30
0.0
 70
   128
 71
     3
 72
     4
 73
    -1
  0
VERTEX
  5
16E6
  8
0
 10
0.0
 20
0.0
 30
0.0
 70
   128
 71
     2
 72
    -3
 73
     1
  0
SEQEND
  5
1B7A
  8
0
  0
POLYLINE
  5
16E7
  8
0
 66
     1
 10
0.0
 20
0.0
 30
0.0
 70
    64
 71
     4
 72
     2
  0
VERTEX
  5
16E8
  8
0
 10
264.4942517442155
 20
-17.13175911166535
 30
-189.4182905092765
 70
   192
  0
VERTEX
  5
16E9
  8
0
 10
264.4942517442155
 20
-17.13175911166535
 30
-198.951170669088
 70
   192
  0
VERTEX
  5
16EA
  8
0
 10
265.0000000000004
 20
-19.99999999999989
 30
-199.9951249771471
 70
   192
  0
VERTEX
  5
16EB
  8
0
 10
265.0
 20
-20.0
 30
-189.924038765061
 70
   192
  0
VERTEX
  5
16EC
  8
0
 10
0.0
 20
0.0
 30
0.0
 70
   128
 71
     3
 72
     4
 73
    -1
  0
VERTEX
  5
16ED
  8
0
 10
0.0
 20
0.0
 30
0.0
 70
   128
 71
     2
 72
    -3
 73
     1
  0
SEQEND
  5
1B7B
  8
0
  0
POLYLINE
  5
16EE
  8
0
 66
     1
 10
0.0
 20
0.0
 30
0.0
 70
    64
 71
     4
 72
     2
  0
VERTEX
  5
16EF
  8
0
 10
-265.0
 20
-20.0
 30
-189.924038765061
 70
   192
  0
VERTEX
  5
16F0
  8
0
 10
-265.0000000000001
 20
-20.0
 30
-199.995124977147
 70
   192
  0
VERTEX
  5
16F1
  8
0
 10
-264.4942517442157
 20
-17.13175911166533
 30
-198.951170669088
 70
   192
  0
VERTEX
  5
16F2
  8
0
 10
-264.4942517442155
 20
-17.13175911166535
 30
-189.4182905092765
 70
   192
  0
VERTEX
  5
16F3
  8
0
 10
0.0
 20
0.0
 30
0.0
 70
   128
 71
     3
 72
     4
 73
    -1
  0
VERTEX
  5
16F4
  8
0
 10
0.0
 20
0.0
 30
0.0
 70
   128
 71
     2
 72
    -3
 73
     1
  0
SEQEND
  5
1B7C
  8
0
  0
POLYLINE
  5
16F5
  8
0
 66
     1
 10
0.0
 20
0.0
 30
0.0
 70
    64
 71
     4
 72
     2
  0
VERTEX
  5
16F6
  8
0
 10
-269.4182905092765
 20
-17.13175911166535
 30
-184.4942517442155
 70
   192
  0
VERTEX
  5
16F7
  8
0
 10
-278.951170669088
 20
-17.13175911166535
 30
-184.4942517442155
 70
   192
  0
VERTEX
  5
16F8
  8
0
 10
-279.9951249771472
 20
-19.99999999999996
 30
-184.9999999999999
 70
   192
  0
VERTEX
  5
16F9
  8
0
 10
-269.924038765061
 20
-20.0
 30
-185.0
 70
   192
  0
VERTEX
  5
16FA
  8
0
 10
0.0
 20
0.0
 30
0.0
 70
   128
 71
     3
 72
     4
 73
    -1
  0
VERTEX
  5
16FB
  8
0
 10
0.0
 20
0.0
 30
0.0
 70
   128
 71
     2
 72
    -3
 73
     1
  0
SEQEND
  5
1B7D
  8
0
  0
POLYLINE
  5
16FC
  8
0
 66
     1
 10
0.0
 20
0.0
 30
0.0
 70
    64
 71
     4
 72
     2
  0
VERTEX
  5
16FD
  8
0
 10
-269.924038765061
 20
-20.0
 30
195.0
 70
   192
  0
VERTEX
  5
16FE
  8
0
 10
-279.995124977147
 20
-20.0
 30
195.0
 70
   192
  0
VERTEX
  5
16FF
  8
0
 10
-278.951170669088
 20
-17.1317591116654
 30
194.4942517442152
 70
   192
  0
VERTEX
  5
1700
  8
0
 10
-269.4182905092765
 20
-17.13175911166535
 30
194.4942517442155
 70
   192
  0
VERTEX
  5
1701
  8
0
 10
0.0
 20
0.0
 30
0.0
 70
   128
 71
     3
 72
     4
 73
    -1
  0
VERTEX
  5
1702
  8
0
 10
0.0
 20
0.0
 30
0.0
 70
   128
 71
     2
 72
    -3
 73
     1
  0
SEQEND
  5
1B7E
  8
0
  0
POLYLINE
  5
1703
  8
0
 66
     1
 10
0.0
 20
0.0
 30
0.0
 70
    64
 71
     4
 72
     2
  0
VERTEX
  5
1704
  8
0
 10
-264.4942517442155
 20
-17.13175911166535
 30
199.4182905092765
 70
   192
  0
VERTEX
  5
1705
  8
0
 10
-264.4942517442155
 20
-17.13175911166535
 30
208.951170669088
 70
   192
  0
VERTEX
  5
1706
  8
0
 10
-265.0000000000004
 20
-19.9999999999999
 30
209.9951249771471
 70
   192
  0
VERTEX
  5
1707
  8
0
 10
-265.0
 20
-20.0
 30
199.924038765061
 70
   192
  0
VERTEX
  5
1708
  8
0
 10
0.0
 20
0.0
 30
0.0
 70
   128
 71
     3
 72
     4
 73
    -1
  0
VERTEX
  5
1709
  8
0
 10
0.0
 20
0.0
 30
0.0
 70
   128
 71
     2
 72
    -3
 73
     1
  0
SEQEND
  5
1B7F
  8
0
  0
POLYLINE
  5
170A
  8
0
 66
     1
 10
0.0
 20
0.0
 30
0.0
 70
    64
 71
     8
 72
     6
  0
VERTEX
  5
170B
  8
0
 10
-264.4942517442157
 20
-17.13175911166527
 30
-189.4182905092767
 70
   192
  0
VERTEX
  5
170C
  8
0
 10
-265.0751037164277
 20
-16.83266799307848
 30
-186.9302602896737
 70
   192
  0
VERTEX
  5
170D
  8
0
 10
-265.6256120642784
 20
-20.0
 30
-187.502448257114
 70
   192
  0
VERTEX
  5
170E
  8
0
 10
-265.0
 20
-20.0
 30
-189.924038765061
 70
   192
  0
VERTEX
  5
170F
  8
0
 10
-266.9300119410462
 20
-16.8327333075271
 30
-185.0749588273675
 70
   192
  0
VERTEX
  5
1710
  8
0
 10
-267.5024482571141
 20
-20.0
 30
-185.6256120642784
 70
   192
  0
VERTEX
  5
1711
  8
0
 10
-269.4182905092765
 20
-17.13175911166535
 30
-184.4942517442155
 70
   192
  0
VERTEX
  5
1712
  8
0
 10
-269.9240387650611
 20
-19.99999999999996
 30
-185.0000000000001
 70
   192
  0
VERTEX
  5
1713
  8
0
 10
0.0
 20
0.0
 30
0.0
 70
   128
 71
     1
 72
     2
 73
     3
  0
VERTEX
  5
1714
  8
0
 10
0.0
 20
0.0
 30
0.0
 70
   128
 71
     4
 72
     1
 73
     3
  0
VERTEX
  5
1715
  8
0
 10
0.0
 20
0.0
 30
0.0
 70
   128
 71
     3
 72
     2
 73
     5
  0
VERTEX
  5
1716
  8
0
 10
0.0
 20
0.0
 30
0.0
 70
   128
 71
     3
 72
     5
 73
     6
  0
VERTEX
  5
1717
  8
0
 10
0.0
 20
0.0
 30
0.0
 70
   128
 71
     6
 72
     7
 73
     8
  0
VERTEX
  5
1718
  8
0
 10
0.0
 20
0.0
 30
0.0
 70
   128
 71
     6
 72
     5
 73
     7
  0
SEQEND
  5
1B80
  8
0
  0
POLYLINE
  5
1719
  8
0
 66
     1
 10
0.0
 20
0.0
 30
0.0
 70
    64
 71
     8
 72
     6
  0
VERTEX
  5
171A
  8
0
 10
269.4182905092768
 20
-17.13175911166535
 30
-184.4942517442152
 70
   192
  0
VERTEX
  5
171B
  8
0
 10
266.930260290128
 20
-16.83266799308659
 30
-185.0751037162212
 70
   192
  0
VERTEX
  5
171C
  8
0
 10
267.5024482571141
 20
-20.0
 30
-185.6256120642786
 70
   192
  0
VERTEX
  5
171D
  8
0
 10
269.924038765061
 20
-20.0
 30
-185.0
 70
   192
  0
VERTEX
  5
171E
  8
0
 10
265.074958827245
 20
-16.83273330746433
 30
-186.9300119412332
 70
   192
  0
VERTEX
  5
171F
  8
0
 10
265.6256120642786
 20
-20.0
 30
-187.5024482571141
 70
   192
  0
VERTEX
  5
1720
  8
0
 10
264.4942517442155
 20
-17.13175911166535
 30
-189.4182905092765
 70
   192
  0
VERTEX
  5
1721
  8
0
 10
265.0000000000002
 20
-19.99999999999996
 30
-189.9240387650611
 70
   192
  0
VERTEX
  5
1722
  8
0
 10
0.0
 20
0.0
 30
0.0
 70
   128
 71
     1
 72
     2
 73
     3
  0
VERTEX
  5
1723
  8
0
 10
0.0
 20
0.0
 30
0.0
 70
   128
 71
     4
 72
     1
 73
     3
  0
VERTEX
  5
1724
  8
0
 10
0.0
 20
0.0
 30
0.0
 70
   128
 71
     3
 72
     2
 73
     5
  0
VERTEX
  5
1725
  8
0
 10
0.0
 20
0.0
 30
0.0
 70
   128
 71
     3
 72
     5
 73
     6
  0
VERTEX
  5
1726
  8
0
 10
0.0
 20
0.0
 30
0.0
 70
   128
 71
     6
 72
     7
 73
     8
  0
VERTEX
  5
1727
  8
0
 10
0.0
 20
0.0
 30
0.0
 70
   128
 71
     6
 72
     5
 73
     7
  0
SEQEND
  5
1B81
  8
0
  0
POLYLINE
  5
1728
  8
0
 66
     1
 10
0.0
 20
0.0
 30
0.0
 70
    64
 71
     8
 72
     6
  0
VERTEX
  5
1729
  8
0
 10
264.4942517442155
 20
-17.13175911166535
 30
199.4182905092765
 70
   192
  0
VERTEX
  5
172A
  8
0
 10
265.0751037161812
 20
-16.83266799300623
 30
196.9302602900592
 70
   192
  0
VERTEX
  5
172B
  8
0
 10
265.6256120642786
 20
-20.0
 30
197.502448257114
 70
   192
  0
VERTEX
  5
172C
  8
0
 10
265.0
 20
-20.0
 30
199.924038765061
 70
   192
  0
VERTEX
  5
172D
  8
0
 10
266.9300119415134
 20
-16.83273330753861
 30
195.0749588271075
 70
   192
  0
VERTEX
  5
172E
  8
0
 10
267.5024482571143
 20
-20.00000000000001
 30
195.6256120642785
 70
   192
  0
VERTEX
  5
172F
  8
0
 10
269.4182905092765
 20
-17.13175911166535
 30
194.4942517442155
 70
   192
  0
VERTEX
  5
1730
  8
0
 10
269.9240387650614
 20
-19.99999999999995
 30
194.9999999999998
 70
   192
  0
VERTEX
  5
1731
  8
0
 10
0.0
 20
0.0
 30
0.0
 70
   128
 71
     1
 72
     2
 73
     3
  0
VERTEX
  5
1732
  8
0
 10
0.0
 20
0.0
 30
0.0
 70
   128
 71
     4
 72
     1
 73
     3
  0
VERTEX
  5
1733
  8
0
 10
0.0
 20
0.0
 30
0.0
 70
   128
 71
     3
 72
     2
 73
     5
  0
VERTEX
  5
1734
  8
0
 10
0.0
 20
0.0
 30
0.0
 70
   128
 71
     3
 72
     5
 73
     6
  0
VERTEX
  5
1735
  8
0
 10
0.0
 20
0.0
 30
0.0
 70
   128
 71
     6
 72
     7
 73
     8
  0
VERTEX
  5
1736
  8
0
 10
0.0
 20
0.0
 30
0.0
 70
   128
 71
     6
 72
     5
 73
     7
  0
SEQEND
  5
1B82
  8
0
  0
POLYLINE
  5
1737
  8
0
 66
     1
 10
0.0
 20
0.0
 30
0.0
 70
    64
 71
     8
 72
     6
  0
VERTEX
  5
1738
  8
0
 10
-269.4182905092765
 20
-17.13175911166535
 30
194.4942517442155
 70
   192
  0
VERTEX
  5
1739
  8
0
 10
-266.9302602895103
 20
-16.83266799317469
 30
195.0751037164949
 70
   192
  0
VERTEX
  5
173A
  8
0
 10
-267.5024482571141
 20
-20.0
 30
195.6256120642784
 70
   192
  0
VERTEX
  5
173B
  8
0
 10
-269.924038765061
 20
-20.0
 30
195.0
 70
   192
  0
VERTEX
  5
173C
  8
0
 10
-265.0749588272813
 20
-16.83273330744413
 30
196.930011941158
 70
   192
  0
VERTEX
  5
173D
  8
0
 10
-265.6256120642786
 20
-20.0
 30
197.502448257114
 70
   192
  0
VERTEX
  5
173E
  8
0
 10
-264.4942517442155
 20
-17.13175911166535
 30
199.4182905092765
 70
   192
  0
VERTEX
  5
173F
  8
0
 10
-265.0000000000003
 20
-19.99999999999988
 30
199.9240387650613
 70
   192
  0
VERTEX
  5
1740
  8
0
 10
0.0
 20
0.0
 30
0.0
 70
   128
 71
     1
 72
     2
 73
     3
  0
VERTEX
  5
1741
  8
0
 10
0.0
 20
0.0
 30
0.0
 70
   128
 71
     4
 72
     1
 73
     3
  0
VERTEX
  5
1742
  8
0
 10
0.0
 20
0.0
 30
0.0
 70
   128
 71
     3
 72
     2
 73
     5
  0
VERTEX
  5
1743
  8
0
 10
0.0
 20
0.0
 30
0.0
 70
   128
 71
     3
 72
     5
 73
     6
  0
VERTEX
  5
1744
  8
0
 10
0.0
 20
0.0
 30
0.0
 70
   128
 71
     6
 72
     7
 73
     8
  0
VERTEX
  5
1745
  8
0
 10
0.0
 20
0.0
 30
0.0
 70
   128
 71
     6
 72
     5
 73
     7
  0
SEQEND
  5
1B83
  8
0
  0
POLYLINE
  5
1746
  8
0
 66
     1
 10
0.0
 20
0.0
 30
0.0
 70
    64
 71
     8
 72
     6
  0
VERTEX
  5
1747
  8
0
 10
284.3673690152273
 20
-20.00000000000001
 30
-182.5854021609671
 70
   192
  0
VERTEX
  5
1748
  8
0
 10
285.0
 20
-20.0
 30
-180.224403836642
 70
   192
  0
VERTEX
  5
1749
  8
0
 10
283.6496337730176
 20
-16.28989928337167
 30
-179.5702129791543
 70
   192
  0
VERTEX
  5
174A
  8
0
 10
282.9309452521836
 20
-16.13159762245263
 30
-181.9514871807788
 70
   192
  0
VERTEX
  5
174B
  8
0
 10
282.4694760609087
 20
-20.00000000000002
 30
-184.3963505402419
 70
   192
  0
VERTEX
  5
174C
  8
0
 10
281.2233560661769
 20
-16.43755953108728
 30
-183.7410586131189
 70
   192
  0
VERTEX
  5
174D
  8
0
 10
279.995124977147
 20
-20.0
 30
-185.0
 70
   192
  0
VERTEX
  5
174E
  8
0
 10
278.951170669088
 20
-17.13175911166535
 30
-184.4942517442155
 70
   192
  0
VERTEX
  5
174F
  8
0
 10
0.0
 20
0.0
 30
0.0
 70
   128
 71
     1
 72
     2
 73
     3
  0
VERTEX
  5
1750
  8
0
 10
0.0
 20
0.0
 30
0.0
 70
   128
 71
     4
 72
     1
 73
     3
  0
VERTEX
  5
1751
  8
0
 10
0.0
 20
0.0
 30
0.0
 70
   128
 71
     5
 72
     1
 73
     4
  0
VERTEX
  5
1752
  8
0
 10
0.0
 20
0.0
 30
0.0
 70
   128
 71
     6
 72
     5
 73
     4
  0
VERTEX
  5
1753
  8
0
 10
0.0
 20
0.0
 30
0.0
 70
   128
 71
     7
 72
     5
 73
     6
  0
VERTEX
  5
1754
  8
0
 10
0.0
 20
0.0
 30
0.0
 70
   128
 71
     8
 72
     7
 73
     6
  0
SEQEND
  5
1B84
  8
0
  0
POLYLINE
  5
1755
  8
0
 66
     1
 10
0.0
 20
0.0
 30
0.0
 70
    64
 71
     9
 72
     7
  0
VERTEX
  5
1756
  8
0
 10
280.9315694992838
 20
-13.40891946559862
 30
-179.5702129791545
 70
   192
  0
VERTEX
  5
1757
  8
0
 10
278.951170669088
 20
-13.0
 30
-179.5702129791545
 70
   192
  0
VERTEX
  5
1758
  8
0
 10
278.951170669088
 20
-13.53183679838293
 30
-181.8142088801568
 70
   192
  0
VERTEX
  5
1759
  8
0
 10
278.951170669088
 20
-15.01420704148606
 30
-183.5808289429297
 70
   192
  0
VERTEX
  5
175A
  8
0
 10
281.2233560661769
 20
-16.43755953108728
 30
-183.7410586131189
 70
   192
  0
VERTEX
  5
175B
  8
0
 10
282.9309452521836
 20
-16.13159762245263
 30
-181.9514871807788
 70
   192
  0
VERTEX
  5
175C
  8
0
 10
283.6496337730175
 20
-16.28989928337164
 30
-179.5702129791545
 70
   192
  0
VERTEX
  5
175D
  8
0
 10
282.5880388769532
 20
-14.56879181065632
 30
-179.5702129791545
 70
   192
  0
VERTEX
  5
175E
  8
0
 10
278.951170669088
 20
-17.13175911166535
 30
-184.4942517442155
 70
   192
  0
VERTEX
  5
175F
  8
0
 10
0.0
 20
0.0
 30
0.0
 70
   128
 71
     1
 72
     2
 73
     3
  0
VERTEX
  5
1760
  8
0
 10
0.0
 20
0.0
 30
0.0
 70
   128
 71
     3
 72
     4
 73
     1
  0
VERTEX
  5
1761
  8
0
 10
0.0
 20
0.0
 30
0.0
 70
   128
 71
     5
 72
     6
 73
     7
  0
VERTEX
  5
1762
  8
0
 10
0.0
 20
0.0
 30
0.0
 70
   128
 71
     5
 72
     7
 73
     8
  0
VERTEX
  5
1763
  8
0
 10
0.0
 20
0.0
 30
0.0
 70
   128
 71
     8
 72
     1
 73
     5
  0
VERTEX
  5
1764
  8
0
 10
0.0
 20
0.0
 30
0.0
 70
   128
 71
     9
 72
     5
 73
     1
  0
VERTEX
  5
1765
  8
0
 10
0.0
 20
0.0
 30
0.0
 70
   128
 71
     4
 72
     9
 73
     1
  0
SEQEND
  5
1B85
  8
0
  0
POLYLINE
  5
1766
  8
0
 66
     1
 10
0.0
 20
0.0
 30
0.0
 70
    64
 71
     8
 72
     6
  0
VERTEX
  5
1767
  8
0
 10
278.951170669088
 20
-15.01420704148606
 30
-183.5808289429297
 70
   192
  0
VERTEX
  5
1768
  8
0
 10
278.951170669088
 20
-13.53183679838293
 30
-181.8142088801568
 70
   192
  0
VERTEX
  5
1769
  8
0
 10
269.4182905092765
 20
-13.53183679838293
 30
-181.8142088801568
 70
   192
  0
VERTEX
  5
176A
  8
0
 10
269.4182905092765
 20
-15.01420704148606
 30
-183.5808289429297
 70
   192
  0
VERTEX
  5
176B
  8
0
 10
278.951170669088
 20
-13.0
 30
-179.5702129791545
 70
   192
  0
VERTEX
  5
176C
  8
0
 10
269.4182905092765
 20
-13.0
 30
-179.5702129791545
 70
   192
  0
VERTEX
  5
176D
  8
0
 10
278.951170669088
 20
-17.13175911166534
 30
-184.4942517442155
 70
   192
  0
VERTEX
  5
176E
  8
0
 10
269.4182905092765
 20
-17.13175911166534
 30
-184.4942517442155
 70
   192
  0
VERTEX
  5
176F
  8
0
 10
0.0
 20
0.0
 30
0.0
 70
   128
 71
     1
 72
     2
 73
    -3
  0
VERTEX
  5
1770
  8
0
 10
0.0
 20
0.0
 30
0.0
 70
   128
 71
     4
 72
    -1
 73
     3
  0
VERTEX
  5
1771
  8
0
 10
0.0
 20
0.0
 30
0.0
 70
   128
 71
     2
 72
     5
 73
    -6
  0
VERTEX
  5
1772
  8
0
 10
0.0
 20
0.0
 30
0.0
 70
   128
 71
     3
 72
    -2
 73
     6
  0
VERTEX
  5
1773
  8
0
 10
0.0
 20
0.0
 30
0.0
 70
   128
 71
     7
 72
     1
 73
    -4
  0
VERTEX
  5
1774
  8
0
 10
0.0
 20
0.0
 30
0.0
 70
   128
 71
     8
 72
    -7
 73
     4
  0
SEQEND
  5
1B86
  8
0
  0
POLYLINE
  5
1775
  8
0
 66
     1
 10
0.0
 20
0.0
 30
0.0
 70
    64
 71
    12
 72
    10
  0
VERTEX
  5
1776
  8
0
 10
269.4182905092765
 20
-17.13175911166535
 30
-184.4942517442155
 70
   192
  0
VERTEX
  5
1777
  8
0
 10
266.930260290128
 20
-16.83266799308659
 30
-185.0751037162212
 70
   192
  0
VERTEX
  5
1778
  8
0
 10
265.074958827245
 20
-16.83273330746433
 30
-186.9300119412332
 70
   192
  0
VERTEX
  5
1779
  8
0
 10
264.4942517442155
 20
-17.13175911166534
 30
-189.4182905092765
 70
   192
  0
VERTEX
  5
177A
  8
0
 10
263.5808289429297
 20
-15.01420704148606
 30
-189.4182905092765
 70
   192
  0
VERTEX
  5
177B
  8
0
 10
261.8142088801569
 20
-13.53183679838293
 30
-189.4182905092765
 70
   192
  0
VERTEX
  5
177C
  8
0
 10
259.5702129791545
 20
-13.0
 30
-189.4182905092765
 70
   192
  0
VERTEX
  5
177D
  8
0
 10
260.8214371077115
 20
-13.0
 30
-184.5751094933826
 70
   192
  0
VERTEX
  5
177E
  8
0
 10
264.5751094933827
 20
-13.0
 30
-180.8214371077115
 70
   192
  0
VERTEX
  5
177F
  8
0
 10
269.4182905092765
 20
-13.0
 30
-179.5702129791545
 70
   192
  0
VERTEX
  5
1780
  8
0
 10
269.4182905092765
 20
-13.53183679838293
 30
-181.8142088801568
 70
   192
  0
VERTEX
  5
1781
  8
0
 10
269.4182905092765
 20
-15.01420704148606
 30
-183.5808289429297
 70
   192
  0
VERTEX
  5
1782
  8
0
 10
0.0
 20
0.0
 30
0.0
 70
   128
 71
     8
 72
     7
 73
     6
  0
VERTEX
  5
1783
  8
0
 10
0.0
 20
0.0
 30
0.0
 70
   128
 71
     6
 72
    11
 73
    -9
  0
VERTEX
  5
1784
  8
0
 10
0.0
 20
0.0
 30
0.0
 70
   128
 71
    -6
 72
     9
 73
     8
  0
VERTEX
  5
1785
  8
0
 10
0.0
 20
0.0
 30
0.0
 70
   128
 71
    11
 72
    10
 73
     9
  0
VERTEX
  5
1786
  8
0
 10
0.0
 20
0.0
 30
0.0
 70
   128
 71
     6
 72
     5
 73
   -12
  0
VERTEX
  5
1787
  8
0
 10
0.0
 20
0.0
 30
0.0
 70
   128
 71
    -6
 72
    12
 73
    11
  0
VERTEX
  5
1788
  8
0
 10
0.0
 20
0.0
 30
0.0
 70
   128
 71
     2
 72
     1
 73
    12
  0
VERTEX
  5
1789
  8
0
 10
0.0
 20
0.0
 30
0.0
 70
   128
 71
    12
 72
     5
 73
     3
  0
VERTEX
  5
178A
  8
0
 10
0.0
 20
0.0
 30
0.0
 70
   128
 71
    12
 72
     3
 73
     2
  0
VERTEX
  5
178B
  8
0
 10
0.0
 20
0.0
 30
0.0
 70
   128
 71
     5
 72
     4
 73
     3
  0
SEQEND
  5
1B87
  8
0
  0
POLYLINE
  5
178C
  8
0
 66
     1
 10
0.0
 20
0.0
 30
0.0
 70
    64
 71
     8
 72
     6
  0
VERTEX
  5
178D
  8
0
 10
263.5808289429297
 20
-15.01420704148606
 30
-189.4182905092765
 70
   192
  0
VERTEX
  5
178E
  8
0
 10
261.8142088801569
 20
-13.53183679838293
 30
-189.4182905092765
 70
   192
  0
VERTEX
  5
178F
  8
0
 10
261.8142088801569
 20
-13.53183679838293
 30
-198.951170669088
 70
   192
  0
VERTEX
  5
1790
  8
0
 10
263.5808289429297
 20
-15.01420704148606
 30
-198.951170669088
 70
   192
  0
VERTEX
  5
1791
  8
0
 10
259.5702129791545
 20
-13.0
 30
-189.4182905092765
 70
   192
  0
VERTEX
  5
1792
  8
0
 10
259.5702129791545
 20
-13.0
 30
-198.951170669088
 70
   192
  0
VERTEX
  5
1793
  8
0
 10
264.4942517442155
 20
-17.13175911166534
 30
-189.4182905092765
 70
   192
  0
VERTEX
  5
1794
  8
0
 10
264.4942517442155
 20
-17.13175911166534
 30
-198.951170669088
 70
   192
  0
VERTEX
  5
1795
  8
0
 10
0.0
 20
0.0
 30
0.0
 70
   128
 71
     1
 72
     2
 73
    -3
  0
VERTEX
  5
1796
  8
0
 10
0.0
 20
0.0
 30
0.0
 70
   128
 71
     4
 72
    -1
 73
     3
  0
VERTEX
  5
1797
  8
0
 10
0.0
 20
0.0
 30
0.0
 70
   128
 71
     2
 72
     5
 73
    -6
  0
VERTEX
  5
1798
  8
0
 10
0.0
 20
0.0
 30
0.0
 70
   128
 71
     3
 72
    -2
 73
     6
  0
VERTEX
  5
1799
  8
0
 10
0.0
 20
0.0
 30
0.0
 70
   128
 71
     7
 72
     1
 73
    -4
  0
VERTEX
  5
179A
  8
0
 10
0.0
 20
0.0
 30
0.0
 70
   128
 71
     8
 72
    -7
 73
     4
  0
SEQEND
  5
1B88
  8
0
  0
POLYLINE
  5
179B
  8
0
 66
     1
 10
0.0
 20
0.0
 30
0.0
 70
    64
 71
     9
 72
     7
  0
VERTEX
  5
179C
  8
0
 10
261.8142088801569
 20
-13.53183679838293
 30
-198.951170669088
 70
   192
  0
VERTEX
  5
179D
  8
0
 10
259.5702129791545
 20
-13.0
 30
-198.951170669088
 70
   192
  0
VERTEX
  5
179E
  8
0
 10
259.5702129791545
 20
-13.40891946559863
 30
-200.9315694992838
 70
   192
  0
VERTEX
  5
179F
  8
0
 10
259.5702129791545
 20
-14.56879181065632
 30
-202.5880388769532
 70
   192
  0
VERTEX
  5
17A0
  8
0
 10
261.9514871807789
 20
-16.13159762245263
 30
-202.9309452521836
 70
   192
  0
VERTEX
  5
17A1
  8
0
 10
263.7410586131189
 20
-16.43755953108728
 30
-201.2233560661769
 70
   192
  0
VERTEX
  5
17A2
  8
0
 10
264.4942517442155
 20
-17.13175911166534
 30
-198.951170669088
 70
   192
  0
VERTEX
  5
17A3
  8
0
 10
263.5808289429297
 20
-15.01420704148606
 30
-198.951170669088
 70
   192
  0
VERTEX
  5
17A4
  8
0
 10
259.5702129791545
 20
-16.28989928337164
 30
-203.6496337730175
 70
   192
  0
VERTEX
  5
17A5
  8
0
 10
0.0
 20
0.0
 30
0.0
 70
   128
 71
     1
 72
     2
 73
     3
  0
VERTEX
  5
17A6
  8
0
 10
0.0
 20
0.0
 30
0.0
 70
   128
 71
     3
 72
     4
 73
     1
  0
VERTEX
  5
17A7
  8
0
 10
0.0
 20
0.0
 30
0.0
 70
   128
 71
     5
 72
     6
 73
     7
  0
VERTEX
  5
17A8
  8
0
 10
0.0
 20
0.0
 30
0.0
 70
   128
 71
     5
 72
     7
 73
     8
  0
VERTEX
  5
17A9
  8
0
 10
0.0
 20
0.0
 30
0.0
 70
   128
 71
     8
 72
     1
 73
     5
  0
VERTEX
  5
17AA
  8
0
 10
0.0
 20
0.0
 30
0.0
 70
   128
 71
     9
 72
     5
 73
     1
  0
VERTEX
  5
17AB
  8
0
 10
0.0
 20
0.0
 30
0.0
 70
   128
 71
     4
 72
     9
 73
     1
  0
SEQEND
  5
1B89
  8
0
  0
POLYLINE
  5
17AC
  8
0
 66
     1
 10
0.0
 20
0.0
 30
0.0
 70
    64
 71
     8
 72
     6
  0
VERTEX
  5
17AD
  8
0
 10
264.3963505402419
 20
-19.99999999999999
 30
-202.4694760609085
 70
   192
  0
VERTEX
  5
17AE
  8
0
 10
263.7410586131189
 20
-16.43755953108728
 30
-201.2233560661769
 70
   192
  0
VERTEX
  5
17AF
  8
0
 10
261.9514871807789
 20
-16.13159762245263
 30
-202.9309452521836
 70
   192
  0
VERTEX
  5
17B0
  8
0
 10
259.5702129791545
 20
-16.28989928337165
 30
-203.6496337730176
 70
   192
  0
VERTEX
  5
17B1
  8
0
 10
260.224403836642
 20
-20.0
 30
-205.0
 70
   192
  0
VERTEX
  5
17B2
  8
0
 10
262.585402160967
 20
-19.99999999999999
 30
-204.3673690152273
 70
   192
  0
VERTEX
  5
17B3
  8
0
 10
264.4942517442158
 20
-17.13175911166529
 30
-198.9511706690881
 70
   192
  0
VERTEX
  5
17B4
  8
0
 10
265.0
 20
-20.0
 30
-199.995124977147
 70
   192
  0
VERTEX
  5
17B5
  8
0
 10
0.0
 20
0.0
 30
0.0
 70
   128
 71
     1
 72
     2
 73
     3
  0
VERTEX
  5
17B6
  8
0
 10
0.0
 20
0.0
 30
0.0
 70
   128
 71
     3
 72
     4
 73
     5
  0
VERTEX
  5
17B7
  8
0
 10
0.0
 20
0.0
 30
0.0
 70
   128
 71
     6
 72
     3
 73
     5
  0
VERTEX
  5
17B8
  8
0
 10
0.0
 20
0.0
 30
0.0
 70
   128
 71
     1
 72
     3
 73
     6
  0
VERTEX
  5
17B9
  8
0
 10
0.0
 20
0.0
 30
0.0
 70
   128
 71
     7
 72
     2
 73
     1
  0
VERTEX
  5
17BA
  8
0
 10
0.0
 20
0.0
 30
0.0
 70
   128
 71
     8
 72
     7
 73
     1
  0
SEQEND
  5
1B8A
  8
0
  0
POLYLINE
  5
17BB
  8
0
 66
     1
 10
0.0
 20
0.0
 30
0.0
 70
    64
 71
     8
 72
     6
  0
VERTEX
  5
17BC
  8
0
 10
262.5854021609669
 20
-20.00000000000001
 30
214.3673690152271
 70
   192
  0
VERTEX
  5
17BD
  8
0
 10
260.224403836642
 20
-20.0
 30
215.0
 70
   192
  0
VERTEX
  5
17BE
  8
0
 10
259.5702129791542
 20
-16.28989928337167
 30
213.6496337730176
 70
   192
  0
VERTEX
  5
17BF
  8
0
 10
261.9514871807789
 20
-16.13159762245262
 30
212.9309452521836
 70
   192
  0
VERTEX
  5
17C0
  8
0
 10
264.3963505402417
 20
-20.00000000000002
 30
212.4694760609085
 70
   192
  0
VERTEX
  5
17C1
  8
0
 10
263.7410586131189
 20
-16.43755953108728
 30
211.2233560661769
 70
   192
  0
VERTEX
  5
17C2
  8
0
 10
265.0
 20
-20.0
 30
209.995124977147
 70
   192
  0
VERTEX
  5
17C3
  8
0
 10
264.4942517442155
 20
-17.13175911166534
 30
208.951170669088
 70
   192
  0
VERTEX
  5
17C4
  8
0
 10
0.0
 20
0.0
 30
0.0
 70
   128
 71
     1
 72
     2
 73
     3
  0
VERTEX
  5
17C5
  8
0
 10
0.0
 20
0.0
 30
0.0
 70
   128
 71
     4
 72
     1
 73
     3
  0
VERTEX
  5
17C6
  8
0
 10
0.0
 20
0.0
 30
0.0
 70
   128
 71
     5
 72
     1
 73
     4
  0
VERTEX
  5
17C7
  8
0
 10
0.0
 20
0.0
 30
0.0
 70
   128
 71
     6
 72
     5
 73
     4
  0
VERTEX
  5
17C8
  8
0
 10
0.0
 20
0.0
 30
0.0
 70
   128
 71
     7
 72
     5
 73
     6
  0
VERTEX
  5
17C9
  8
0
 10
0.0
 20
0.0
 30
0.0
 70
   128
 71
     8
 72
     7
 73
     6
  0
SEQEND
  5
1B8B
  8
0
  0
POLYLINE
  5
17CA
  8
0
 66
     1
 10
0.0
 20
0.0
 30
0.0
 70
    64
 71
     9
 72
     7
  0
VERTEX
  5
17CB
  8
0
 10
259.5702129791545
 20
-13.40891946559862
 30
210.9315694992838
 70
   192
  0
VERTEX
  5
17CC
  8
0
 10
259.5702129791545
 20
-13.0
 30
208.951170669088
 70
   192
  0
VERTEX
  5
17CD
  8
0
 10
261.8142088801569
 20
-13.53183679838294
 30
208.951170669088
 70
   192
  0
VERTEX
  5
17CE
  8
0
 10
263.5808289429297
 20
-15.01420704148606
 30
208.951170669088
 70
   192
  0
VERTEX
  5
17CF
  8
0
 10
264.4942517442155
 20
-17.13175911166534
 30
208.951170669088
 70
   192
  0
VERTEX
  5
17D0
  8
0
 10
263.7410586131189
 20
-16.43755953108728
 30
211.2233560661769
 70
   192
  0
VERTEX
  5
17D1
  8
0
 10
261.9514871807789
 20
-16.13159762245262
 30
212.9309452521836
 70
   192
  0
VERTEX
  5
17D2
  8
0
 10
259.5702129791545
 20
-16.28989928337164
 30
213.6496337730176
 70
   192
  0
VERTEX
  5
17D3
  8
0
 10
259.5702129791545
 20
-14.56879181065632
 30
212.5880388769532
 70
   192
  0
VERTEX
  5
17D4
  8
0
 10
0.0
 20
0.0
 30
0.0
 70
   128
 71
     1
 72
     2
 73
     3
  0
VERTEX
  5
17D5
  8
0
 10
0.0
 20
0.0
 30
0.0
 70
   128
 71
     4
 72
     5
 73
     6
  0
VERTEX
  5
17D6
  8
0
 10
0.0
 20
0.0
 30
0.0
 70
   128
 71
     7
 72
     4
 73
     6
  0
VERTEX
  5
17D7
  8
0
 10
0.0
 20
0.0
 30
0.0
 70
   128
 71
     3
 72
     4
 73
     7
  0
VERTEX
  5
17D8
  8
0
 10
0.0
 20
0.0
 30
0.0
 70
   128
 71
     7
 72
     8
 73
     9
  0
VERTEX
  5
17D9
  8
0
 10
0.0
 20
0.0
 30
0.0
 70
   128
 71
     1
 72
     3
 73
     7
  0
VERTEX
  5
17DA
  8
0
 10
0.0
 20
0.0
 30
0.0
 70
   128
 71
     9
 72
     1
 73
     7
  0
SEQEND
  5
1B8C
  8
0
  0
POLYLINE
  5
17DB
  8
0
 66
     1
 10
0.0
 20
0.0
 30
0.0
 70
    64
 71
     8
 72
     6
  0
VERTEX
  5
17DC
  8
0
 10
263.5808289429297
 20
-15.01420704148606
 30
208.951170669088
 70
   192
  0
VERTEX
  5
17DD
  8
0
 10
261.8142088801569
 20
-13.53183679838294
 30
208.951170669088
 70
   192
  0
VERTEX
  5
17DE
  8
0
 10
261.8142088801569
 20
-13.53183679838293
 30
199.4182905092765
 70
   192
  0
VERTEX
  5
17DF
  8
0
 10
263.5808289429297
 20
-15.01420704148606
 30
199.4182905092765
 70
   192
  0
VERTEX
  5
17E0
  8
0
 10
259.5702129791545
 20
-13.0
 30
208.951170669088
 70
   192
  0
VERTEX
  5
17E1
  8
0
 10
259.5702129791545
 20
-13.0
 30
199.4182905092765
 70
   192
  0
VERTEX
  5
17E2
  8
0
 10
264.4942517442155
 20
-17.13175911166534
 30
208.951170669088
 70
   192
  0
VERTEX
  5
17E3
  8
0
 10
264.4942517442155
 20
-17.13175911166534
 30
199.4182905092765
 70
   192
  0
VERTEX
  5
17E4
  8
0
 10
0.0
 20
0.0
 30
0.0
 70
   128
 71
     1
 72
     2
 73
    -3
  0
VERTEX
  5
17E5
  8
0
 10
0.0
 20
0.0
 30
0.0
 70
   128
 71
     4
 72
    -1
 73
     3
  0
VERTEX
  5
17E6
  8
0
 10
0.0
 20
0.0
 30
0.0
 70
   128
 71
     2
 72
     5
 73
    -6
  0
VERTEX
  5
17E7
  8
0
 10
0.0
 20
0.0
 30
0.0
 70
   128
 71
     3
 72
    -2
 73
     6
  0
VERTEX
  5
17E8
  8
0
 10
0.0
 20
0.0
 30
0.0
 70
   128
 71
     7
 72
     1
 73
    -4
  0
VERTEX
  5
17E9
  8
0
 10
0.0
 20
0.0
 30
0.0
 70
   128
 71
     8
 72
    -7
 73
     4
  0
SEQEND
  5
1B8D
  8
0
  0
POLYLINE
  5
17EA
  8
0
 66
     1
 10
0.0
 20
0.0
 30
0.0
 70
    64
 71
    12
 72
    10
  0
VERTEX
  5
17EB
  8
0
 10
264.4942517442155
 20
-17.13175911166535
 30
199.4182905092765
 70
   192
  0
VERTEX
  5
17EC
  8
0
 10
265.0751037161812
 20
-16.83266799300623
 30
196.9302602900592
 70
   192
  0
VERTEX
  5
17ED
  8
0
 10
266.9300119415134
 20
-16.83273330753861
 30
195.0749588271075
 70
   192
  0
VERTEX
  5
17EE
  8
0
 10
269.4182905092766
 20
-17.13175911166534
 30
194.4942517442155
 70
   192
  0
VERTEX
  5
17EF
  8
0
 10
269.4182905092766
 20
-15.01420704148606
 30
193.5808289429297
 70
   192
  0
VERTEX
  5
17F0
  8
0
 10
269.4182905092765
 20
-13.53183679838293
 30
191.8142088801568
 70
   192
  0
VERTEX
  5
17F1
  8
0
 10
269.4182905092765
 20
-13.0
 30
189.5702129791545
 70
   192
  0
VERTEX
  5
17F2
  8
0
 10
264.5751094933826
 20
-13.0
 30
190.8214371077113
 70
   192
  0
VERTEX
  5
17F3
  8
0
 10
260.8214371077116
 20
-13.0
 30
194.5751094933825
 70
   192
  0
VERTEX
  5
17F4
  8
0
 10
259.5702129791545
 20
-13.0
 30
199.4182905092765
 70
   192
  0
VERTEX
  5
17F5
  8
0
 10
261.8142088801569
 20
-13.53183679838293
 30
199.4182905092765
 70
   192
  0
VERTEX
  5
17F6
  8
0
 10
263.5808289429297
 20
-15.01420704148606
 30
199.4182905092765
 70
   192
  0
VERTEX
  5
17F7
  8
0
 10
0.0
 20
0.0
 30
0.0
 70
   128
 71
     8
 72
     7
 73
     6
  0
VERTEX
  5
17F8
  8
0
 10
0.0
 20
0.0
 30
0.0
 70
   128
 71
     6
 72
    11
 73
    -9
  0
VERTEX
  5
17F9
  8
0
 10
0.0
 20
0.0
 30
0.0
 70
   128
 71
    -6
 72
     9
 73
     8
  0
VERTEX
  5
17FA
  8
0
 10
0.0
 20
0.0
 30
0.0
 70
   128
 71
    11
 72
    10
 73
     9
  0
VERTEX
  5
17FB
  8
0
 10
0.0
 20
0.0
 30
0.0
 70
   128
 71
     6
 72
     5
 73
   -12
  0
VERTEX
  5
17FC
  8
0
 10
0.0
 20
0.0
 30
0.0
 70
   128
 71
    -6
 72
    12
 73
    11
  0
VERTEX
  5
17FD
  8
0
 10
0.0
 20
0.0
 30
0.0
 70
   128
 71
     2
 72
     1
 73
    12
  0
VERTEX
  5
17FE
  8
0
 10
0.0
 20
0.0
 30
0.0
 70
   128
 71
    12
 72
     5
 73
     3
  0
VERTEX
  5
17FF
  8
0
 10
0.0
 20
0.0
 30
0.0
 70
   128
 71
    12
 72
     3
 73
     2
  0
VERTEX
  5
1800
  8
0
 10
0.0
 20
0.0
 30
0.0
 70
   128
 71
     5
 72
     4
 73
     3
  0
SEQEND
  5
1B8E
  8
0
  0
POLYLINE
  5
1801
  8
0
 66
     1
 10
0.0
 20
0.0
 30
0.0
 70
    64
 71
     8
 72
     6
  0
VERTEX
  5
1802
  8
0
 10
269.4182905092766
 20
-15.01420704148606
 30
193.5808289429297
 70
   192
  0
VERTEX
  5
1803
  8
0
 10
269.4182905092765
 20
-13.53183679838293
 30
191.8142088801568
 70
   192
  0
VERTEX
  5
1804
  8
0
 10
278.951170669088
 20
-13.53183679838293
 30
191.8142088801568
 70
   192
  0
VERTEX
  5
1805
  8
0
 10
278.951170669088
 20
-15.01420704148606
 30
193.5808289429297
 70
   192
  0
VERTEX
  5
1806
  8
0
 10
269.4182905092765
 20
-13.0
 30
189.5702129791545
 70
   192
  0
VERTEX
  5
1807
  8
0
 10
278.951170669088
 20
-13.0
 30
189.5702129791545
 70
   192
  0
VERTEX
  5
1808
  8
0
 10
269.4182905092766
 20
-17.13175911166534
 30
194.4942517442155
 70
   192
  0
VERTEX
  5
1809
  8
0
 10
278.951170669088
 20
-17.13175911166534
 30
194.4942517442155
 70
   192
  0
VERTEX
  5
180A
  8
0
 10
0.0
 20
0.0
 30
0.0
 70
   128
 71
     1
 72
     2
 73
    -3
  0
VERTEX
  5
180B
  8
0
 10
0.0
 20
0.0
 30
0.0
 70
   128
 71
     4
 72
    -1
 73
     3
  0
VERTEX
  5
180C
  8
0
 10
0.0
 20
0.0
 30
0.0
 70
   128
 71
     2
 72
     5
 73
    -6
  0
VERTEX
  5
180D
  8
0
 10
0.0
 20
0.0
 30
0.0
 70
   128
 71
     3
 72
    -2
 73
     6
  0
VERTEX
  5
180E
  8
0
 10
0.0
 20
0.0
 30
0.0
 70
   128
 71
     7
 72
     1
 73
    -4
  0
VERTEX
  5
180F
  8
0
 10
0.0
 20
0.0
 30
0.0
 70
   128
 71
     8
 72
    -7
 73
     4
  0
SEQEND
  5
1B8F
  8
0
  0
POLYLINE
  5
1810
  8
0
 66
     1
 10
0.0
 20
0.0
 30
0.0
 70
    64
 71
     9
 72
     7
  0
VERTEX
  5
1811
  8
0
 10
282.5880388769532
 20
-14.56879181065632
 30
189.5702129791545
 70
   192
  0
VERTEX
  5
1812
  8
0
 10
283.6496337730176
 20
-16.28989928337164
 30
189.5702129791545
 70
   192
  0
VERTEX
  5
1813
  8
0
 10
282.9309452521836
 20
-16.13159762245262
 30
191.9514871807788
 70
   192
  0
VERTEX
  5
1814
  8
0
 10
278.951170669088
 20
-13.53183679838293
 30
191.8142088801568
 70
   192
  0
VERTEX
  5
1815
  8
0
 10
278.951170669088
 20
-13.0
 30
189.5702129791545
 70
   192
  0
VERTEX
  5
1816
  8
0
 10
280.9315694992838
 20
-13.40891946559862
 30
189.5702129791545
 70
   192
  0
VERTEX
  5
1817
  8
0
 10
281.2233560661769
 20
-16.43755953108728
 30
193.7410586131189
 70
   192
  0
VERTEX
  5
1818
  8
0
 10
278.951170669088
 20
-17.13175911166534
 30
194.4942517442155
 70
   192
  0
VERTEX
  5
1819
  8
0
 10
278.951170669088
 20
-15.01420704148606
 30
193.5808289429297
 70
   192
  0
VERTEX
  5
181A
  8
0
 10
0.0
 20
0.0
 30
0.0
 70
   128
 71
     1
 72
     2
 73
     3
  0
VERTEX
  5
181B
  8
0
 10
0.0
 20
0.0
 30
0.0
 70
   128
 71
     4
 72
     5
 73
     6
  0
VERTEX
  5
181C
  8
0
 10
0.0
 20
0.0
 30
0.0
 70
   128
 71
     1
 72
     3
 73
     7
  0
VERTEX
  5
181D
  8
0
 10
0.0
 20
0.0
 30
0.0
 70
   128
 71
     6
 72
     1
 73
     7
  0
VERTEX
  5
181E
  8
0
 10
0.0
 20
0.0
 30
0.0
 70
   128
 71
     7
 72
     8
 73
     9
  0
VERTEX
  5
181F
  8
0
 10
0.0
 20
0.0
 30
0.0
 70
   128
 71
     4
 72
     6
 73
     7
  0
VERTEX
  5
1820
  8
0
 10
0.0
 20
0.0
 30
0.0
 70
   128
 71
     9
 72
     4
 73
     7
  0
SEQEND
  5
1B90
  8
0
  0
POLYLINE
  5
1821
  8
0
 66
     1
 10
0.0
 20
0.0
 30
0.0
 70
    64
 71
     8
 72
     6
  0
VERTEX
  5
1822
  8
0
 10
282.4694760609084
 20
-20.0
 30
194.3963505402418
 70
   192
  0
VERTEX
  5
1823
  8
0
 10
281.2233560661769
 20
-16.43755953108728
 30
193.7410586131189
 70
   192
  0
VERTEX
  5
1824
  8
0
 10
282.9309452521836
 20
-16.13159762245262
 30
191.9514871807788
 70
   192
  0
VERTEX
  5
1825
  8
0
 10
283.6496337730175
 20
-16.28989928337164
 30
189.5702129791545
 70
   192
  0
VERTEX
  5
1826
  8
0
 10
285.0
 20
-20.0
 30
190.224403836642
 70
   192
  0
VERTEX
  5
1827
  8
0
 10
284.3673690152272
 20
-20.0
 30
192.585402160967
 70
   192
  0
VERTEX
  5
1828
  8
0
 10
278.9511706690881
 20
-17.13175911166536
 30
194.4942517442153
 70
   192
  0
VERTEX
  5
1829
  8
0
 10
279.995124977147
 20
-20.0
 30
195.0
 70
   192
  0
VERTEX
  5
182A
  8
0
 10
0.0
 20
0.0
 30
0.0
 70
   128
 71
     1
 72
     2
 73
     3
  0
VERTEX
  5
182B
  8
0
 10
0.0
 20
0.0
 30
0.0
 70
   128
 71
     3
 72
     4
 73
     5
  0
VERTEX
  5
182C
  8
0
 10
0.0
 20
0.0
 30
0.0
 70
   128
 71
     6
 72
     3
 73
     5
  0
VERTEX
  5
182D
  8
0
 10
0.0
 20
0.0
 30
0.0
 70
   128
 71
     1
 72
     3
 73
     6
  0
VERTEX
  5
182E
  8
0
 10
0.0
 20
0.0
 30
0.0
 70
   128
 71
     7
 72
     2
 73
     1
  0
VERTEX
  5
182F
  8
0
 10
0.0
 20
0.0
 30
0.0
 70
   128
 71
     8
 72
     7
 73
     1
  0
SEQEND
  5
1B91
  8
0
  0
POLYLINE
  5
1830
  8
0
 66
     1
 10
0.0
 20
0.0
 30
0.0
 70
    64
 71
     8
 72
     6
  0
VERTEX
  5
1831
  8
0
 10
-284.3673690152271
 20
-20.00000000000001
 30
192.5854021609667
 70
   192
  0
VERTEX
  5
1832
  8
0
 10
-285.0
 20
-20.0
 30
190.2244038366415
 70
   192
  0
VERTEX
  5
1833
  8
0
 10
-283.6496337730176
 20
-16.28989928337167
 30
189.5702129791543
 70
   192
  0
VERTEX
  5
1834
  8
0
 10
-282.9309452521836
 20
-16.13159762245263
 30
191.9514871807788
 70
   192
  0
VERTEX
  5
1835
  8
0
 10
-282.4694760609085
 20
-20.00000000000002
 30
194.3963505402418
 70
   192
  0
VERTEX
  5
1836
  8
0
 10
-281.2233560661769
 20
-16.43755953108728
 30
193.7410586131189
 70
   192
  0
VERTEX
  5
1837
  8
0
 10
-279.995124977147
 20
-20.0
 30
195.0
 70
   192
  0
VERTEX
  5
1838
  8
0
 10
-278.951170669088
 20
-17.13175911166535
 30
194.4942517442155
 70
   192
  0
VERTEX
  5
1839
  8
0
 10
0.0
 20
0.0
 30
0.0
 70
   128
 71
     1
 72
     2
 73
     3
  0
VERTEX
  5
183A
  8
0
 10
0.0
 20
0.0
 30
0.0
 70
   128
 71
     4
 72
     1
 73
     3
  0
VERTEX
  5
183B
  8
0
 10
0.0
 20
0.0
 30
0.0
 70
   128
 71
     5
 72
     1
 73
     4
  0
VERTEX
  5
183C
  8
0
 10
0.0
 20
0.0
 30
0.0
 70
   128
 71
     6
 72
     5
 73
     4
  0
VERTEX
  5
183D
  8
0
 10
0.0
 20
0.0
 30
0.0
 70
   128
 71
     7
 72
     5
 73
     6
  0
VERTEX
  5
183E
  8
0
 10
0.0
 20
0.0
 30
0.0
 70
   128
 71
     8
 72
     7
 73
     6
  0
SEQEND
  5
1B92
  8
0
  0
POLYLINE
  5
183F
  8
0
 66
     1
 10
0.0
 20
0.0
 30
0.0
 70
    64
 71
     9
 72
     7
  0
VERTEX
  5
1840
  8
0
 10
-280.9315694992838
 20
-13.40891946559862
 30
189.5702129791545
 70
   192
  0
VERTEX
  5
1841
  8
0
 10
-278.951170669088
 20
-13.0
 30
189.5702129791545
 70
   192
  0
VERTEX
  5
1842
  8
0
 10
-278.951170669088
 20
-13.53183679838294
 30
191.8142088801568
 70
   192
  0
VERTEX
  5
1843
  8
0
 10
-278.951170669088
 20
-15.01420704148606
 30
193.5808289429297
 70
   192
  0
VERTEX
  5
1844
  8
0
 10
-282.9309452521836
 20
-16.13159762245263
 30
191.9514871807788
 70
   192
  0
VERTEX
  5
1845
  8
0
 10
-283.6496337730175
 20
-16.28989928337164
 30
189.5702129791545
 70
   192
  0
VERTEX
  5
1846
  8
0
 10
-282.5880388769532
 20
-14.56879181065632
 30
189.5702129791545
 70
   192
  0
VERTEX
  5
1847
  8
0
 10
-278.951170669088
 20
-17.13175911166535
 30
194.4942517442155
 70
   192
  0
VERTEX
  5
1848
  8
0
 10
-281.2233560661769
 20
-16.43755953108728
 30
193.7410586131189
 70
   192
  0
VERTEX
  5
1849
  8
0
 10
0.0
 20
0.0
 30
0.0
 70
   128
 71
     1
 72
     2
 73
     3
  0
VERTEX
  5
184A
  8
0
 10
0.0
 20
0.0
 30
0.0
 70
   128
 71
     3
 72
     4
 73
     1
  0
VERTEX
  5
184B
  8
0
 10
0.0
 20
0.0
 30
0.0
 70
   128
 71
     5
 72
     6
 73
     7
  0
VERTEX
  5
184C
  8
0
 10
0.0
 20
0.0
 30
0.0
 70
   128
 71
     1
 72
     4
 73
     8
  0
VERTEX
  5
184D
  8
0
 10
0.0
 20
0.0
 30
0.0
 70
   128
 71
     7
 72
     1
 73
     8
  0
VERTEX
  5
184E
  8
0
 10
0.0
 20
0.0
 30
0.0
 70
   128
 71
     5
 72
     7
 73
     8
  0
VERTEX
  5
184F
  8
0
 10
0.0
 20
0.0
 30
0.0
 70
   128
 71
     9
 72
     5
 73
     8
  0
SEQEND
  5
1B93
  8
0
  0
POLYLINE
  5
1850
  8
0
 66
     1
 10
0.0
 20
0.0
 30
0.0
 70
    64
 71
     8
 72
     6
  0
VERTEX
  5
1851
  8
0
 10
-278.951170669088
 20
-15.01420704148606
 30
193.5808289429297
 70
   192
  0
VERTEX
  5
1852
  8
0
 10
-278.951170669088
 20
-13.53183679838294
 30
191.8142088801568
 70
   192
  0
VERTEX
  5
1853
  8
0
 10
-269.4182905092765
 20
-13.53183679838293
 30
191.8142088801568
 70
   192
  0
VERTEX
  5
1854
  8
0
 10
-269.4182905092765
 20
-15.01420704148606
 30
193.5808289429297
 70
   192
  0
VERTEX
  5
1855
  8
0
 10
-278.951170669088
 20
-13.0
 30
189.5702129791545
 70
   192
  0
VERTEX
  5
1856
  8
0
 10
-269.4182905092765
 20
-13.0
 30
189.5702129791545
 70
   192
  0
VERTEX
  5
1857
  8
0
 10
-278.951170669088
 20
-17.13175911166534
 30
194.4942517442155
 70
   192
  0
VERTEX
  5
1858
  8
0
 10
-269.4182905092765
 20
-17.13175911166534
 30
194.4942517442155
 70
   192
  0
VERTEX
  5
1859
  8
0
 10
0.0
 20
0.0
 30
0.0
 70
   128
 71
     1
 72
     2
 73
    -3
  0
VERTEX
  5
185A
  8
0
 10
0.0
 20
0.0
 30
0.0
 70
   128
 71
     4
 72
    -1
 73
     3
  0
VERTEX
  5
185B
  8
0
 10
0.0
 20
0.0
 30
0.0
 70
   128
 71
     2
 72
     5
 73
    -6
  0
VERTEX
  5
185C
  8
0
 10
0.0
 20
0.0
 30
0.0
 70
   128
 71
     3
 72
    -2
 73
     6
  0
VERTEX
  5
185D
  8
0
 10
0.0
 20
0.0
 30
0.0
 70
   128
 71
     7
 72
     1
 73
    -4
  0
VERTEX
  5
185E
  8
0
 10
0.0
 20
0.0
 30
0.0
 70
   128
 71
     8
 72
    -7
 73
     4
  0
SEQEND
  5
1B94
  8
0
  0
POLYLINE
  5
185F
  8
0
 66
     1
 10
0.0
 20
0.0
 30
0.0
 70
    64
 71
    12
 72
    10
  0
VERTEX
  5
1860
  8
0
 10
-269.4182905092765
 20
-17.13175911166535
 30
194.4942517442155
 70
   192
  0
VERTEX
  5
1861
  8
0
 10
-266.9302602895103
 20
-16.83266799317469
 30
195.0751037164949
 70
   192
  0
VERTEX
  5
1862
  8
0
 10
-265.0749588272813
 20
-16.83273330744413
 30
196.930011941158
 70
   192
  0
VERTEX
  5
1863
  8
0
 10
-264.4942517442155
 20
-17.13175911166535
 30
199.4182905092765
 70
   192
  0
VERTEX
  5
1864
  8
0
 10
-263.5808289429297
 20
-15.01420704148607
 30
199.4182905092765
 70
   192
  0
VERTEX
  5
1865
  8
0
 10
-261.8142088801569
 20
-13.53183679838294
 30
199.4182905092765
 70
   192
  0
VERTEX
  5
1866
  8
0
 10
-259.5702129791545
 20
-13.0
 30
199.4182905092765
 70
   192
  0
VERTEX
  5
1867
  8
0
 10
-260.8214371077116
 20
-12.99999999999999
 30
194.5751094933827
 70
   192
  0
VERTEX
  5
1868
  8
0
 10
-264.5751094933827
 20
-12.99999999999999
 30
190.8214371077116
 70
   192
  0
VERTEX
  5
1869
  8
0
 10
-269.4182905092765
 20
-13.0
 30
189.5702129791545
 70
   192
  0
VERTEX
  5
186A
  8
0
 10
-269.4182905092765
 20
-13.53183679838293
 30
191.8142088801568
 70
   192
  0
VERTEX
  5
186B
  8
0
 10
-269.4182905092765
 20
-15.01420704148606
 30
193.5808289429297
 70
   192
  0
VERTEX
  5
186C
  8
0
 10
0.0
 20
0.0
 30
0.0
 70
   128
 71
     8
 72
     7
 73
     6
  0
VERTEX
  5
186D
  8
0
 10
0.0
 20
0.0
 30
0.0
 70
   128
 71
     6
 72
    11
 73
    -9
  0
VERTEX
  5
186E
  8
0
 10
0.0
 20
0.0
 30
0.0
 70
   128
 71
    -6
 72
     9
 73
     8
  0
VERTEX
  5
186F
  8
0
 10
0.0
 20
0.0
 30
0.0
 70
   128
 71
    11
 72
    10
 73
     9
  0
VERTEX
  5
1870
  8
0
 10
0.0
 20
0.0
 30
0.0
 70
   128
 71
     6
 72
     5
 73
   -12
  0
VERTEX
  5
1871
  8
0
 10
0.0
 20
0.0
 30
0.0
 70
   128
 71
    -6
 72
    12
 73
    11
  0
VERTEX
  5
1872
  8
0
 10
0.0
 20
0.0
 30
0.0
 70
   128
 71
     2
 72
     1
 73
    12
  0
VERTEX
  5
1873
  8
0
 10
0.0
 20
0.0
 30
0.0
 70
   128
 71
    12
 72
     5
 73
     3
  0
VERTEX
  5
1874
  8
0
 10
0.0
 20
0.0
 30
0.0
 70
   128
 71
    12
 72
     3
 73
     2
  0
VERTEX
  5
1875
  8
0
 10
0.0
 20
0.0
 30
0.0
 70
   128
 71
     5
 72
     4
 73
     3
  0
SEQEND
  5
1B95
  8
0
  0
POLYLINE
  5
1876
  8
0
 66
     1
 10
0.0
 20
0.0
 30
0.0
 70
    64
 71
     8
 72
     6
  0
VERTEX
  5
1877
  8
0
 10
-263.5808289429297
 20
-15.01420704148607
 30
199.4182905092765
 70
   192
  0
VERTEX
  5
1878
  8
0
 10
-261.8142088801569
 20
-13.53183679838294
 30
199.4182905092765
 70
   192
  0
VERTEX
  5
1879
  8
0
 10
-261.8142088801569
 20
-13.53183679838293
 30
208.951170669088
 70
   192
  0
VERTEX
  5
187A
  8
0
 10
-263.5808289429297
 20
-15.01420704148606
 30
208.951170669088
 70
   192
  0
VERTEX
  5
187B
  8
0
 10
-259.5702129791545
 20
-13.0
 30
199.4182905092765
 70
   192
  0
VERTEX
  5
187C
  8
0
 10
-259.5702129791545
 20
-13.0
 30
208.951170669088
 70
   192
  0
VERTEX
  5
187D
  8
0
 10
-264.4942517442155
 20
-17.13175911166535
 30
199.4182905092765
 70
   192
  0
VERTEX
  5
187E
  8
0
 10
-264.4942517442155
 20
-17.13175911166534
 30
208.951170669088
 70
   192
  0
VERTEX
  5
187F
  8
0
 10
0.0
 20
0.0
 30
0.0
 70
   128
 71
     1
 72
     2
 73
    -3
  0
VERTEX
  5
1880
  8
0
 10
0.0
 20
0.0
 30
0.0
 70
   128
 71
     4
 72
    -1
 73
     3
  0
VERTEX
  5
1881
  8
0
 10
0.0
 20
0.0
 30
0.0
 70
   128
 71
     2
 72
     5
 73
    -6
  0
VERTEX
  5
1882
  8
0
 10
0.0
 20
0.0
 30
0.0
 70
   128
 71
     3
 72
    -2
 73
     6
  0
VERTEX
  5
1883
  8
0
 10
0.0
 20
0.0
 30
0.0
 70
   128
 71
     7
 72
     1
 73
    -4
  0
VERTEX
  5
1884
  8
0
 10
0.0
 20
0.0
 30
0.0
 70
   128
 71
     8
 72
    -7
 73
     4
  0
SEQEND
  5
1B96
  8
0
  0
POLYLINE
  5
1885
  8
0
 66
     1
 10
0.0
 20
0.0
 30
0.0
 70
    64
 71
     9
 72
     7
  0
VERTEX
  5
1886
  8
0
 10
-261.8142088801569
 20
-13.53183679838293
 30
208.951170669088
 70
   192
  0
VERTEX
  5
1887
  8
0
 10
-259.5702129791545
 20
-13.0
 30
208.951170669088
 70
   192
  0
VERTEX
  5
1888
  8
0
 10
-259.5702129791545
 20
-13.40891946559863
 30
210.9315694992838
 70
   192
  0
VERTEX
  5
1889
  8
0
 10
-259.5702129791545
 20
-14.56879181065632
 30
212.5880388769532
 70
   192
  0
VERTEX
  5
188A
  8
0
 10
-259.5702129791545
 20
-16.28989928337164
 30
213.6496337730175
 70
   192
  0
VERTEX
  5
188B
  8
0
 10
-263.7410586131189
 20
-16.43755953108728
 30
211.2233560661769
 70
   192
  0
VERTEX
  5
188C
  8
0
 10
-264.4942517442155
 20
-17.13175911166534
 30
208.951170669088
 70
   192
  0
VERTEX
  5
188D
  8
0
 10
-263.5808289429297
 20
-15.01420704148606
 30
208.951170669088
 70
   192
  0
VERTEX
  5
188E
  8
0
 10
-261.9514871807789
 20
-16.13159762245263
 30
212.9309452521836
 70
   192
  0
VERTEX
  5
188F
  8
0
 10
0.0
 20
0.0
 30
0.0
 70
   128
 71
     1
 72
     2
 73
     3
  0
VERTEX
  5
1890
  8
0
 10
0.0
 20
0.0
 30
0.0
 70
   128
 71
     3
 72
     4
 73
     1
  0
VERTEX
  5
1891
  8
0
 10
0.0
 20
0.0
 30
0.0
 70
   128
 71
     1
 72
     4
 73
     5
  0
VERTEX
  5
1892
  8
0
 10
0.0
 20
0.0
 30
0.0
 70
   128
 71
     6
 72
     7
 73
     8
  0
VERTEX
  5
1893
  8
0
 10
0.0
 20
0.0
 30
0.0
 70
   128
 71
     5
 72
     9
 73
     6
  0
VERTEX
  5
1894
  8
0
 10
0.0
 20
0.0
 30
0.0
 70
   128
 71
     1
 72
     5
 73
     6
  0
VERTEX
  5
1895
  8
0
 10
0.0
 20
0.0
 30
0.0
 70
   128
 71
     8
 72
     1
 73
     6
  0
SEQEND
  5
1B97
  8
0
  0
POLYLINE
  5
1896
  8
0
 66
     1
 10
0.0
 20
0.0
 30
0.0
 70
    64
 71
     8
 72
     6
  0
VERTEX
  5
1897
  8
0
 10
-264.3963505402417
 20
-19.99999999999999
 30
212.4694760609085
 70
   192
  0
VERTEX
  5
1898
  8
0
 10
-263.7410586131189
 20
-16.43755953108728
 30
211.2233560661769
 70
   192
  0
VERTEX
  5
1899
  8
0
 10
-261.9514871807789
 20
-16.13159762245263
 30
212.9309452521836
 70
   192
  0
VERTEX
  5
189A
  8
0
 10
-259.5702129791545
 20
-16.28989928337165
 30
213.6496337730176
 70
   192
  0
VERTEX
  5
189B
  8
0
 10
-260.224403836642
 20
-20.0
 30
215.0
 70
   192
  0
VERTEX
  5
189C
  8
0
 10
-262.5854021609669
 20
-19.99999999999999
 30
214.3673690152273
 70
   192
  0
VERTEX
  5
189D
  8
0
 10
-264.4942517442158
 20
-17.13175911166529
 30
208.9511706690881
 70
   192
  0
VERTEX
  5
189E
  8
0
 10
-265.0
 20
-20.0
 30
209.995124977147
 70
   192
  0
VERTEX
  5
189F
  8
0
 10
0.0
 20
0.0
 30
0.0
 70
   128
 71
     1
 72
     2
 73
     3
  0
VERTEX
  5
18A0
  8
0
 10
0.0
 20
0.0
 30
0.0
 70
   128
 71
     3
 72
     4
 73
     5
  0
VERTEX
  5
18A1
  8
0
 10
0.0
 20
0.0
 30
0.0
 70
   128
 71
     6
 72
     3
 73
     5
  0
VERTEX
  5
18A2
  8
0
 10
0.0
 20
0.0
 30
0.0
 70
   128
 71
     1
 72
     3
 73
     6
  0
VERTEX
  5
18A3
  8
0
 10
0.0
 20
0.0
 30
0.0
 70
   128
 71
     7
 72
     2
 73
     1
  0
VERTEX
  5
18A4
  8
0
 10
0.0
 20
0.0
 30
0.0
 70
   128
 71
     8
 72
     7
 73
     1
  0
SEQEND
  5
1B98
  8
0
  0
POLYLINE
  5
18A5
  8
0
 66
     1
 10
0.0
 20
0.0
 30
0.0
 70
    64
 71
     8
 72
     6
  0
VERTEX
  5
18A6
  8
0
 10
-262.5854021609669
 20
-20.00000000000001
 30
-204.3673690152272
 70
   192
  0
VERTEX
  5
18A7
  8
0
 10
-260.224403836642
 20
-20.0
 30
-205.0
 70
   192
  0
VERTEX
  5
18A8
  8
0
 10
-259.5702129791542
 20
-16.28989928337167
 30
-203.6496337730176
 70
   192
  0
VERTEX
  5
18A9
  8
0
 10
-261.9514871807789
 20
-16.13159762245263
 30
-202.9309452521836
 70
   192
  0
VERTEX
  5
18AA
  8
0
 10
-264.3963505402417
 20
-20.00000000000002
 30
-202.4694760609085
 70
   192
  0
VERTEX
  5
18AB
  8
0
 10
-263.7410586131189
 20
-16.43755953108728
 30
-201.2233560661769
 70
   192
  0
VERTEX
  5
18AC
  8
0
 10
-265.0
 20
-20.0
 30
-199.995124977147
 70
   192
  0
VERTEX
  5
18AD
  8
0
 10
-264.4942517442155
 20
-17.13175911166535
 30
-198.951170669088
 70
   192
  0
VERTEX
  5
18AE
  8
0
 10
0.0
 20
0.0
 30
0.0
 70
   128
 71
     1
 72
     2
 73
     3
  0
VERTEX
  5
18AF
  8
0
 10
0.0
 20
0.0
 30
0.0
 70
   128
 71
     4
 72
     1
 73
     3
  0
VERTEX
  5
18B0
  8
0
 10
0.0
 20
0.0
 30
0.0
 70
   128
 71
     5
 72
     1
 73
     4
  0
VERTEX
  5
18B1
  8
0
 10
0.0
 20
0.0
 30
0.0
 70
   128
 71
     6
 72
     5
 73
     4
  0
VERTEX
  5
18B2
  8
0
 10
0.0
 20
0.0
 30
0.0
 70
   128
 71
     7
 72
     5
 73
     6
  0
VERTEX
  5
18B3
  8
0
 10
0.0
 20
0.0
 30
0.0
 70
   128
 71
     8
 72
     7
 73
     6
  0
SEQEND
  5
1B99
  8
0
  0
POLYLINE
  5
18B4
  8
0
 66
     1
 10
0.0
 20
0.0
 30
0.0
 70
    64
 71
     9
 72
     7
  0
VERTEX
  5
18B5
  8
0
 10
-259.5702129791545
 20
-13.40891946559862
 30
-200.9315694992838
 70
   192
  0
VERTEX
  5
18B6
  8
0
 10
-259.5702129791545
 20
-13.0
 30
-198.951170669088
 70
   192
  0
VERTEX
  5
18B7
  8
0
 10
-261.8142088801569
 20
-13.53183679838293
 30
-198.951170669088
 70
   192
  0
VERTEX
  5
18B8
  8
0
 10
-261.9514871807789
 20
-16.13159762245263
 30
-202.9309452521836
 70
   192
  0
VERTEX
  5
18B9
  8
0
 10
-259.5702129791545
 20
-16.28989928337165
 30
-203.6496337730176
 70
   192
  0
VERTEX
  5
18BA
  8
0
 10
-259.5702129791545
 20
-14.56879181065632
 30
-202.5880388769532
 70
   192
  0
VERTEX
  5
18BB
  8
0
 10
-263.5808289429297
 20
-15.01420704148606
 30
-198.951170669088
 70
   192
  0
VERTEX
  5
18BC
  8
0
 10
-263.7410586131189
 20
-16.43755953108728
 30
-201.2233560661769
 70
   192
  0
VERTEX
  5
18BD
  8
0
 10
-264.4942517442155
 20
-17.13175911166535
 30
-198.951170669088
 70
   192
  0
VERTEX
  5
18BE
  8
0
 10
0.0
 20
0.0
 30
0.0
 70
   128
 71
     1
 72
     2
 73
     3
  0
VERTEX
  5
18BF
  8
0
 10
0.0
 20
0.0
 30
0.0
 70
   128
 71
     4
 72
     5
 73
     6
  0
VERTEX
  5
18C0
  8
0
 10
0.0
 20
0.0
 30
0.0
 70
   128
 71
     3
 72
     7
 73
     4
  0
VERTEX
  5
18C1
  8
0
 10
0.0
 20
0.0
 30
0.0
 70
   128
 71
     1
 72
     3
 73
     4
  0
VERTEX
  5
18C2
  8
0
 10
0.0
 20
0.0
 30
0.0
 70
   128
 71
     6
 72
     1
 73
     4
  0
VERTEX
  5
18C3
  8
0
 10
0.0
 20
0.0
 30
0.0
 70
   128
 71
     8
 72
     4
 73
     7
  0
VERTEX
  5
18C4
  8
0
 10
0.0
 20
0.0
 30
0.0
 70
   128
 71
     9
 72
     8
 73
     7
  0
SEQEND
  5
1B9A
  8
0
  0
POLYLINE
  5
18C5
  8
0
 66
     1
 10
0.0
 20
0.0
 30
0.0
 70
    64
 71
     8
 72
     6
  0
VERTEX
  5
18C6
  8
0
 10
-263.5808289429297
 20
-15.01420704148606
 30
-198.951170669088
 70
   192
  0
VERTEX
  5
18C7
  8
0
 10
-261.8142088801569
 20
-13.53183679838293
 30
-198.951170669088
 70
   192
  0
VERTEX
  5
18C8
  8
0
 10
-261.8142088801569
 20
-13.53183679838293
 30
-189.4182905092765
 70
   192
  0
VERTEX
  5
18C9
  8
0
 10
-263.5808289429297
 20
-15.01420704148606
 30
-189.4182905092765
 70
   192
  0
VERTEX
  5
18CA
  8
0
 10
-259.5702129791545
 20
-13.0
 30
-198.951170669088
 70
   192
  0
VERTEX
  5
18CB
  8
0
 10
-259.5702129791545
 20
-13.0
 30
-189.4182905092765
 70
   192
  0
VERTEX
  5
18CC
  8
0
 10
-264.4942517442155
 20
-17.13175911166534
 30
-198.951170669088
 70
   192
  0
VERTEX
  5
18CD
  8
0
 10
-264.4942517442155
 20
-17.13175911166534
 30
-189.4182905092765
 70
   192
  0
VERTEX
  5
18CE
  8
0
 10
0.0
 20
0.0
 30
0.0
 70
   128
 71
     1
 72
     2
 73
    -3
  0
VERTEX
  5
18CF
  8
0
 10
0.0
 20
0.0
 30
0.0
 70
   128
 71
     4
 72
    -1
 73
     3
  0
VERTEX
  5
18D0
  8
0
 10
0.0
 20
0.0
 30
0.0
 70
   128
 71
     2
 72
     5
 73
    -6
  0
VERTEX
  5
18D1
  8
0
 10
0.0
 20
0.0
 30
0.0
 70
   128
 71
     3
 72
    -2
 73
     6
  0
VERTEX
  5
18D2
  8
0
 10
0.0
 20
0.0
 30
0.0
 70
   128
 71
     7
 72
     1
 73
    -4
  0
VERTEX
  5
18D3
  8
0
 10
0.0
 20
0.0
 30
0.0
 70
   128
 71
     8
 72
    -7
 73
     4
  0
SEQEND
  5
1B9B
  8
0
  0
POLYLINE
  5
18D4
  8
0
 66
     1
 10
0.0
 20
0.0
 30
0.0
 70
    64
 71
    12
 72
    10
  0
VERTEX
  5
18D5
  8
0
 10
-264.4942517442155
 20
-17.13175911166535
 30
-189.4182905092765
 70
   192
  0
VERTEX
  5
18D6
  8
0
 10
-265.0751037164277
 20
-16.83266799307848
 30
-186.9302602896737
 70
   192
  0
VERTEX
  5
18D7
  8
0
 10
-266.9300119410462
 20
-16.8327333075271
 30
-185.0749588273675
 70
   192
  0
VERTEX
  5
18D8
  8
0
 10
-269.4182905092765
 20
-17.13175911166534
 30
-184.4942517442155
 70
   192
  0
VERTEX
  5
18D9
  8
0
 10
-269.4182905092765
 20
-15.01420704148606
 30
-183.5808289429297
 70
   192
  0
VERTEX
  5
18DA
  8
0
 10
-269.4182905092765
 20
-13.53183679838293
 30
-181.8142088801568
 70
   192
  0
VERTEX
  5
18DB
  8
0
 10
-269.4182905092765
 20
-13.0
 30
-179.5702129791545
 70
   192
  0
VERTEX
  5
18DC
  8
0
 10
-264.5751094933827
 20
-13.0
 30
-180.8214371077114
 70
   192
  0
VERTEX
  5
18DD
  8
0
 10
-260.8214371077116
 20
-13.0
 30
-184.5751094933827
 70
   192
  0
VERTEX
  5
18DE
  8
0
 10
-259.5702129791545
 20
-13.0
 30
-189.4182905092765
 70
   192
  0
VERTEX
  5
18DF
  8
0
 10
-261.8142088801569
 20
-13.53183679838293
 30
-189.4182905092765
 70
   192
  0
VERTEX
  5
18E0
  8
0
 10
-263.5808289429297
 20
-15.01420704148606
 30
-189.4182905092765
 70
   192
  0
VERTEX
  5
18E1
  8
0
 10
0.0
 20
0.0
 30
0.0
 70
   128
 71
     8
 72
     7
 73
     6
  0
VERTEX
  5
18E2
  8
0
 10
0.0
 20
0.0
 30
0.0
 70
   128
 71
     6
 72
    11
 73
    -9
  0
VERTEX
  5
18E3
  8
0
 10
0.0
 20
0.0
 30
0.0
 70
   128
 71
    -6
 72
     9
 73
     8
  0
VERTEX
  5
18E4
  8
0
 10
0.0
 20
0.0
 30
0.0
 70
   128
 71
    11
 72
    10
 73
     9
  0
VERTEX
  5
18E5
  8
0
 10
0.0
 20
0.0
 30
0.0
 70
   128
 71
     6
 72
     5
 73
   -12
  0
VERTEX
  5
18E6
  8
0
 10
0.0
 20
0.0
 30
0.0
 70
   128
 71
    -6
 72
    12
 73
    11
  0
VERTEX
  5
18E7
  8
0
 10
0.0
 20
0.0
 30
0.0
 70
   128
 71
     2
 72
     1
 73
    12
  0
VERTEX
  5
18E8
  8
0
 10
0.0
 20
0.0
 30
0.0
 70
   128
 71
    12
 72
     5
 73
     3
  0
VERTEX
  5
18E9
  8
0
 10
0.0
 20
0.0
 30
0.0
 70
   128
 71
    12
 72
     3
 73
     2
  0
VERTEX
  5
18EA
  8
0
 10
0.0
 20
0.0
 30
0.0
 70
   128
 71
     5
 72
     4
 73
     3
  0
SEQEND
  5
1B9C
  8
0
  0
POLYLINE
  5
18EB
  8
0
 66
     1
 10
0.0
 20
0.0
 30
0.0
 70
    64
 71
     8
 72
     6
  0
VERTEX
  5
18EC
  8
0
 10
-269.4182905092765
 20
-15.01420704148606
 30
-183.5808289429297
 70
   192
  0
VERTEX
  5
18ED
  8
0
 10
-269.4182905092765
 20
-13.53183679838293
 30
-181.8142088801568
 70
   192
  0
VERTEX
  5
18EE
  8
0
 10
-278.951170669088
 20
-13.53183679838293
 30
-181.8142088801568
 70
   192
  0
VERTEX
  5
18EF
  8
0
 10
-278.951170669088
 20
-15.01420704148606
 30
-183.5808289429297
 70
   192
  0
VERTEX
  5
18F0
  8
0
 10
-269.4182905092765
 20
-13.0
 30
-179.5702129791545
 70
   192
  0
VERTEX
  5
18F1
  8
0
 10
-278.951170669088
 20
-13.0
 30
-179.5702129791545
 70
   192
  0
VERTEX
  5
18F2
  8
0
 10
-269.4182905092765
 20
-17.13175911166534
 30
-184.4942517442155
 70
   192
  0
VERTEX
  5
18F3
  8
0
 10
-278.951170669088
 20
-17.13175911166534
 30
-184.4942517442155
 70
   192
  0
VERTEX
  5
18F4
  8
0
 10
0.0
 20
0.0
 30
0.0
 70
   128
 71
     1
 72
     2
 73
    -3
  0
VERTEX
  5
18F5
  8
0
 10
0.0
 20
0.0
 30
0.0
 70
   128
 71
     4
 72
    -1
 73
     3
  0
VERTEX
  5
18F6
  8
0
 10
0.0
 20
0.0
 30
0.0
 70
   128
 71
     2
 72
     5
 73
    -6
  0
VERTEX
  5
18F7
  8
0
 10
0.0
 20
0.0
 30
0.0
 70
   128
 71
     3
 72
    -2
 73
     6
  0
VERTEX
  5
18F8
  8
0
 10
0.0
 20
0.0
 30
0.0
 70
   128
 71
     7
 72
     1
 73
    -4
  0
VERTEX
  5
18F9
  8
0
 10
0.0
 20
0.0
 30
0.0
 70
   128
 71
     8
 72
    -7
 73
     4
  0
SEQEND
  5
1B9D
  8
0
  0
POLYLINE
  5
18FA
  8
0
 66
     1
 10
0.0
 20
0.0
 30
0.0
 70
    64
 71
     9
 72
     7
  0
VERTEX
  5
18FB
  8
0
 10
-283.6496337730176
 20
-16.28989928337164
 30
-179.5702129791545
 70
   192
  0
VERTEX
  5
18FC
  8
0
 10
-282.9309452521836
 20
-16.13159762245263
 30
-181.9514871807788
 70
   192
  0
VERTEX
  5
18FD
  8
0
 10
-282.5880388769532
 20
-14.56879181065632
 30
-179.5702129791545
 70
   192
  0
VERTEX
  5
18FE
  8
0
 10
-278.951170669088
 20
-13.53183679838293
 30
-181.8142088801568
 70
   192
  0
VERTEX
  5
18FF
  8
0
 10
-278.951170669088
 20
-13.0
 30
-179.5702129791545
 70
   192
  0
VERTEX
  5
1900
  8
0
 10
-280.9315694992838
 20
-13.40891946559863
 30
-179.5702129791545
 70
   192
  0
VERTEX
  5
1901
  8
0
 10
-281.2233560661769
 20
-16.43755953108728
 30
-183.7410586131189
 70
   192
  0
VERTEX
  5
1902
  8
0
 10
-278.951170669088
 20
-17.13175911166534
 30
-184.4942517442155
 70
   192
  0
VERTEX
  5
1903
  8
0
 10
-278.951170669088
 20
-15.01420704148606
 30
-183.5808289429297
 70
   192
  0
VERTEX
  5
1904
  8
0
 10
0.0
 20
0.0
 30
0.0
 70
   128
 71
     1
 72
     2
 73
     3
  0
VERTEX
  5
1905
  8
0
 10
0.0
 20
0.0
 30
0.0
 70
   128
 71
     4
 72
     5
 73
     6
  0
VERTEX
  5
1906
  8
0
 10
0.0
 20
0.0
 30
0.0
 70
   128
 71
     7
 72
     8
 73
     9
  0
VERTEX
  5
1907
  8
0
 10
0.0
 20
0.0
 30
0.0
 70
   128
 71
     3
 72
     2
 73
     7
  0
VERTEX
  5
1908
  8
0
 10
0.0
 20
0.0
 30
0.0
 70
   128
 71
     6
 72
     3
 73
     7
  0
VERTEX
  5
1909
  8
0
 10
0.0
 20
0.0
 30
0.0
 70
   128
 71
     4
 72
     6
 73
     7
  0
VERTEX
  5
190A
  8
0
 10
0.0
 20
0.0
 30
0.0
 70
   128
 71
     9
 72
     4
 73
     7
  0
SEQEND
  5
1B9E
  8
0
  0
POLYLINE
  5
190B
  8
0
 66
     1
 10
0.0
 20
0.0
 30
0.0
 70
    64
 71
     8
 72
     6
  0
VERTEX
  5
190C
  8
0
 10
-282.4694760609084
 20
-20.0
 30
-184.3963505402418
 70
   192
  0
VERTEX
  5
190D
  8
0
 10
-281.2233560661769
 20
-16.43755953108728
 30
-183.7410586131189
 70
   192
  0
VERTEX
  5
190E
  8
0
 10
-282.9309452521836
 20
-16.13159762245263
 30
-181.9514871807788
 70
   192
  0
VERTEX
  5
190F
  8
0
 10
-283.6496337730175
 20
-16.28989928337164
 30
-179.5702129791545
 70
   192
  0
VERTEX
  5
1910
  8
0
 10
-285.0
 20
-20.0
 30
-180.224403836642
 70
   192
  0
VERTEX
  5
1911
  8
0
 10
-284.3673690152272
 20
-20.0
 30
-182.585402160967
 70
   192
  0
VERTEX
  5
1912
  8
0
 10
-278.9511706690881
 20
-17.13175911166536
 30
-184.4942517442153
 70
   192
  0
VERTEX
  5
1913
  8
0
 10
-279.995124977147
 20
-20.0
 30
-185.0
 70
   192
  0
VERTEX
  5
1914
  8
0
 10
0.0
 20
0.0
 30
0.0
 70
   128
 71
     1
 72
     2
 73
     3
  0
VERTEX
  5
1915
  8
0
 10
0.0
 20
0.0
 30
0.0
 70
   128
 71
     3
 72
     4
 73
     5
  0
VERTEX
  5
1916
  8
0
 10
0.0
 20
0.0
 30
0.0
 70
   128
 71
     6
 72
     3
 73
     5
  0
VERTEX
  5
1917
  8
0
 10
0.0
 20
0.0
 30
0.0
 70
   128
 71
     1
 72
     3
 73
     6
  0
VERTEX
  5
1918
  8
0
 10
0.0
 20
0.0
 30
0.0
 70
   128
 71
     7
 72
     2
 73
     1
  0
VERTEX
  5
1919
  8
0
 10
0.0
 20
0.0
 30
0.0
 70
   128
 71
     8
 72
     7
 73
     1
  0
SEQEND
  5
1B9F
  8
0
  0
POLYLINE
  5
191A
  8
0
 66
     1
 10
0.0
 20
0.0
 30
0.0
 70
    64
 71
    15
 72
    15
  0
VERTEX
  5
191B
  8
0
 10
-20.45243737886983
 20
-44.287264562248
 30
-113.4377861460738
 70
   192
  0
VERTEX
  5
191C
  8
0
 10
-25.31455211249941
 20
-17.13175911166536
 30
-118.2260344317873
 70
   192
  0
VERTEX
  5
191D
  8
0
 10
25.31455211249965
 20
-17.13175911166535
 30
-118.2260344317872
 70
   192
  0
VERTEX
  5
191E
  8
0
 10
20.4524373788698
 20
-44.28726456224815
 30
-113.4377861460738
 70
   192
  0
VERTEX
  5
191F
  8
0
 10
13.34938041949427
 20
-56.40321208488248
 30
-111.3014177009854
 70
   192
  0
VERTEX
  5
1920
  8
0
 10
-0.0000000000000692
 20
-61.18817346143017
 30
-110.4576999086521
 70
   192
  0
VERTEX
  5
1921
  8
0
 10
-13.34938041949438
 20
-56.4032120848824
 30
-111.3014177009854
 70
   192
  0
VERTEX
  5
1922
  8
0
 10
-0.0000000000000015
 20
-53.04393973197227
 30
-111.8937480523515
 70
   192
  0
VERTEX
  5
1923
  8
0
 10
8.838834764831843
 20
-49.43839582331991
 30
-112.5295027235759
 70
   192
  0
VERTEX
  5
1924
  8
0
 10
12.5
 20
-40.73384281931967
 30
-114.0643502731881
 70
   192
  0
VERTEX
  5
1925
  8
0
 10
8.838834764831846
 20
-32.02928981531944
 30
-115.5991978228003
 70
   192
  0
VERTEX
  5
1926
  8
0
 10
0.0000000000000014
 20
-28.42374590666707
 30
-116.2349524940247
 70
   192
  0
VERTEX
  5
1927
  8
0
 10
-8.838834764831844
 20
-32.02928981531943
 30
-115.5991978228003
 70
   192
  0
VERTEX
  5
1928
  8
0
 10
-12.5
 20
-40.73384281931967
 30
-114.0643502731881
 70
   192
  0
VERTEX
  5
1929
  8
0
 10
-8.838834764831846
 20
-49.43839582331991
 30
-112.5295027235759
 70
   192
  0
VERTEX
  5
192A
  8
0
 10
0.0
 20
0.0
 30
0.0
 70
   128
 71
    -6
 72
     8
 73
    -9
  0
VERTEX
  5
192B
  8
0
 10
0.0
 20
0.0
 30
0.0
 70
   128
 71
     5
 72
    -6
 73
    -9
  0
VERTEX
  5
192C
  8
0
 10
0.0
 20
0.0
 30
0.0
 70
   128
 71
   -10
 72
     4
 73
    -5
  0
VERTEX
  5
192D
  8
0
 10
0.0
 20
0.0
 30
0.0
 70
   128
 71
     9
 72
   -10
 73
    -5
  0
VERTEX
  5
192E
  8
0
 10
0.0
 20
0.0
 30
0.0
 70
   128
 71
   -11
 72
     3
 73
    -4
  0
VERTEX
  5
192F
  8
0
 10
0.0
 20
0.0
 30
0.0
 70
   128
 71
    10
 72
   -11
 73
    -4
  0
VERTEX
  5
1930
  8
0
 10
0.0
 20
0.0
 30
0.0
 70
   128
 71
    11
 72
   -12
 73
    -3
  0
VERTEX
  5
1931
  8
0
 10
0.0
 20
0.0
 30
0.0
 70
   128
 71
   -12
 72
     2
 73
    -3
  0
VERTEX
  5
1932
  8
0
 10
0.0
 20
0.0
 30
0.0
 70
   128
 71
    12
 72
   -13
 73
    -2
  0
VERTEX
  5
1933
  8
0
 10
0.0
 20
0.0
 30
0.0
 70
   128
 71
   -14
 72
     1
 73
    -2
  0
VERTEX
  5
1934
  8
0
 10
0.0
 20
0.0
 30
0.0
 70
   128
 71
    13
 72
   -14
 73
    -2
  0
VERTEX
  5
1935
  8
0
 10
0.0
 20
0.0
 30
0.0
 70
   128
 71
   -15
 72
     7
 73
    -1
  0
VERTEX
  5
1936
  8
0
 10
0.0
 20
0.0
 30
0.0
 70
   128
 71
    14
 72
   -15
 73
    -1
  0
VERTEX
  5
1937
  8
0
 10
0.0
 20
0.0
 30
0.0
 70
   128
 71
    -8
 72
     6
 73
    -7
  0
VERTEX
  5
1938
  8
0
 10
0.0
 20
0.0
 30
0.0
 70
   128
 71
    15
 72
    -8
 73
    -7
  0
SEQEND
  5
1BA0
  8
0
  0
POLYLINE
  5
1939
  8
0
 66
     1
 10
0.0
 20
0.0
 30
0.0
 70
    64
 71
     8
 72
     6
  0
VERTEX
  5
193A
  8
0
 10
24.55917630408407
 20
-44.51086455926582
 30
-110.535792751297
 70
   192
  0
VERTEX
  5
193B
  8
0
 10
23.67058190590597
 20
-44.44702283015829
 30
-111.0760307127592
 70
   192
  0
VERTEX
  5
193C
  8
0
 10
28.59852328487477
 20
-16.92386751439825
 30
-115.9291055891574
 70
   192
  0
VERTEX
  5
193D
  8
0
 10
29.48711768305284
 20
-16.98770924350577
 30
-115.3888676276952
 70
   192
  0
VERTEX
  5
193E
  8
0
 10
23.01104297472715
 20
-44.47108949483678
 30
-111.8822329329027
 70
   192
  0
VERTEX
  5
193F
  8
0
 10
27.93898435369594
 20
-16.94793417907667
 30
-116.7353078093008
 70
   192
  0
VERTEX
  5
1940
  8
0
 10
25.56964857058449
 20
-44.65491442742545
 30
-110.3266797197319
 70
   192
  0
VERTEX
  5
1941
  8
0
 10
30.49758994955325
 20
-17.13175911166535
 30
-115.17975459613
 70
   192
  0
VERTEX
  5
1942
  8
0
 10
0.0
 20
0.0
 30
0.0
 70
   128
 71
     1
 72
     2
 73
    -3
  0
VERTEX
  5
1943
  8
0
 10
0.0
 20
0.0
 30
0.0
 70
   128
 71
     4
 72
    -1
 73
     3
  0
VERTEX
  5
1944
  8
0
 10
0.0
 20
0.0
 30
0.0
 70
   128
 71
     2
 72
     5
 73
    -6
  0
VERTEX
  5
1945
  8
0
 10
0.0
 20
0.0
 30
0.0
 70
   128
 71
     3
 72
    -2
 73
     6
  0
VERTEX
  5
1946
  8
0
 10
0.0
 20
0.0
 30
0.0
 70
   128
 71
     7
 72
     1
 73
    -4
  0
VERTEX
  5
1947
  8
0
 10
0.0
 20
0.0
 30
0.0
 70
   128
 71
     8
 72
    -7
 73
     4
  0
SEQEND
  5
1BA1
  8
0
  0
POLYLINE
  5
1948
  8
0
 66
     1
 10
0.0
 20
0.0
 30
0.0
 70
    64
 71
    17
 72
    18
  0
VERTEX
  5
1949
  8
0
 10
16.68940281485277
 20
-59.80227874956098
 30
-107.6557907031187
 70
   192
  0
VERTEX
  5
194A
  8
0
 10
-0.0000000000001211
 20
-65.78444012014404
 30
-106.6009742505329
 70
   192
  0
VERTEX
  5
194B
  8
0
 10
-0.0000000000001088
 20
-65.03752986792274
 30
-106.8364741484596
 70
   192
  0
VERTEX
  5
194C
  8
0
 10
-16.68940281485296
 20
-59.80227874956083
 30
-107.6557907031187
 70
   192
  0
VERTEX
  5
194D
  8
0
 10
-0.0000000000001056
 20
-64.3770218240852
 30
-107.2572641802126
 70
   192
  0
VERTEX
  5
194E
  8
0
 10
24.55917630408407
 20
-44.51086455926582
 30
-110.535792751297
 70
   192
  0
VERTEX
  5
194F
  8
0
 10
-0.000000000000103
 20
-63.84792852027784
 30
-107.8346682005164
 70
   192
  0
VERTEX
  5
1950
  8
0
 10
-23.6705819059061
 20
-44.44702283015811
 30
-111.0760307127593
 70
   192
  0
VERTEX
  5
1951
  8
0
 10
-0.0000000000000999
 20
-63.48630679078713
 30
-108.5293370795926
 70
   192
  0
VERTEX
  5
1952
  8
0
 10
15.01939161717352
 20
-58.10274541722176
 30
-109.4786042020521
 70
   192
  0
VERTEX
  5
1953
  8
0
 10
23.01104297472711
 20
-44.47108949483677
 30
-111.8822329329028
 70
   192
  0
VERTEX
  5
1954
  8
0
 10
-15.01939161717367
 20
-58.10274541722163
 30
-109.4786042020521
 70
   192
  0
VERTEX
  5
1955
  8
0
 10
-24.55917630408417
 20
-44.51086455926563
 30
-110.5357927512972
 70
   192
  0
VERTEX
  5
1956
  8
0
 10
23.67058190590597
 20
-44.44702283015829
 30
-111.0760307127592
 70
   192
  0
VERTEX
  5
1957
  8
0
 10
-23.01104297472724
 20
-44.47108949483658
 30
-111.8822329329028
 70
   192
  0
VERTEX
  5
1958
  8
0
 10
-25.56964857058454
 20
-44.6549144274252
 30
-110.326679719732
 70
   192
  0
VERTEX
  5
1959
  8
0
 10
25.5696485705845
 20
-44.6549144274254
 30
-110.3266797197318
 70
   192
  0
VERTEX
  5
195A
  8
0
 10
0.0
 20
0.0
 30
0.0
 70
   128
 71
     1
 72
     2
 73
     3
  0
VERTEX
  5
195B
  8
0
 10
0.0
 20
0.0
 30
0.0
 70
   128
 71
     3
 72
     2
 73
     4
  0
VERTEX
  5
195C
  8
0
 10
0.0
 20
0.0
 30
0.0
 70
   128
 71
     3
 72
     5
 73
     6
  0
VERTEX
  5
195D
  8
0
 10
0.0
 20
0.0
 30
0.0
 70
   128
 71
     7
 72
     5
 73
     8
  0
VERTEX
  5
195E
  8
0
 10
0.0
 20
0.0
 30
0.0
 70
   128
 71
     7
 72
     9
 73
    10
  0
VERTEX
  5
195F
  8
0
 10
0.0
 20
0.0
 30
0.0
 70
   128
 71
    10
 72
    11
 73
     7
  0
VERTEX
  5
1960
  8
0
 10
0.0
 20
0.0
 30
0.0
 70
   128
 71
    12
 72
     9
 73
     7
  0
VERTEX
  5
1961
  8
0
 10
0.0
 20
0.0
 30
0.0
 70
   128
 71
     8
 72
     5
 73
     3
  0
VERTEX
  5
1962
  8
0
 10
0.0
 20
0.0
 30
0.0
 70
   128
 71
    13
 72
     8
 73
     3
  0
VERTEX
  5
1963
  8
0
 10
0.0
 20
0.0
 30
0.0
 70
   128
 71
     5
 72
     7
 73
    14
  0
VERTEX
  5
1964
  8
0
 10
0.0
 20
0.0
 30
0.0
 70
   128
 71
     6
 72
     5
 73
    14
  0
VERTEX
  5
1965
  8
0
 10
0.0
 20
0.0
 30
0.0
 70
   128
 71
    15
 72
    12
 73
     7
  0
VERTEX
  5
1966
  8
0
 10
0.0
 20
0.0
 30
0.0
 70
   128
 71
     8
 72
    15
 73
     7
  0
VERTEX
  5
1967
  8
0
 10
0.0
 20
0.0
 30
0.0
 70
   128
 71
    14
 72
     7
 73
    11
  0
VERTEX
  5
1968
  8
0
 10
0.0
 20
0.0
 30
0.0
 70
   128
 71
    13
 72
     3
 73
     4
  0
VERTEX
  5
1969
  8
0
 10
0.0
 20
0.0
 30
0.0
 70
   128
 71
    16
 72
    13
 73
     4
  0
VERTEX
  5
196A
  8
0
 10
0.0
 20
0.0
 30
0.0
 70
   128
 71
     1
 72
     3
 73
     6
  0
VERTEX
  5
196B
  8
0
 10
0.0
 20
0.0
 30
0.0
 70
   128
 71
    17
 72
     1
 73
     6
  0
SEQEND
  5
1BA2
  8
0
  0
POLYLINE
  5
196C
  8
0
 66
     1
 10
0.0
 20
0.0
 30
0.0
 70
    64
 71
     8
 72
     6
  0
VERTEX
  5
196D
  8
0
 10
-29.48711768305259
 20
-16.98770924350578
 30
-115.3888676276952
 70
   192
  0
VERTEX
  5
196E
  8
0
 10
-28.59852328487451
 20
-16.92386751439826
 30
-115.9291055891574
 70
   192
  0
VERTEX
  5
196F
  8
0
 10
-23.6705819059061
 20
-44.44702283015811
 30
-111.0760307127593
 70
   192
  0
VERTEX
  5
1970
  8
0
 10
-24.55917630408417
 20
-44.51086455926563
 30
-110.5357927512972
 70
   192
  0
VERTEX
  5
1971
  8
0
 10
-27.93898435369567
 20
-16.94793417907675
 30
-116.735307809301
 70
   192
  0
VERTEX
  5
1972
  8
0
 10
-23.0110429747272
 20
-44.47108949483659
 30
-111.8822329329028
 70
   192
  0
VERTEX
  5
1973
  8
0
 10
-30.49758994955302
 20
-17.13175911166533
 30
-115.1797545961299
 70
   192
  0
VERTEX
  5
1974
  8
0
 10
-25.56964857058452
 20
-44.65491442742515
 30
-110.3266797197318
 70
   192
  0
VERTEX
  5
1975
  8
0
 10
0.0
 20
0.0
 30
0.0
 70
   128
 71
     1
 72
     2
 73
    -3
  0
VERTEX
  5
1976
  8
0
 10
0.0
 20
0.0
 30
0.0
 70
   128
 71
     4
 72
    -1
 73
     3
  0
VERTEX
  5
1977
  8
0
 10
0.0
 20
0.0
 30
0.0
 70
   128
 71
     2
 72
     5
 73
    -6
  0
VERTEX
  5
1978
  8
0
 10
0.0
 20
0.0
 30
0.0
 70
   128
 71
     3
 72
    -2
 73
     6
  0
VERTEX
  5
1979
  8
0
 10
0.0
 20
0.0
 30
0.0
 70
   128
 71
     7
 72
     1
 73
    -4
  0
VERTEX
  5
197A
  8
0
 10
0.0
 20
0.0
 30
0.0
 70
   128
 71
     8
 72
    -7
 73
     4
  0
SEQEND
  5
1BA3
  8
0
  0
POLYLINE
  5
197B
  8
0
 66
     1
 10
0.0
 20
0.0
 30
0.0
 70
    64
 71
    14
 72
    12
  0
VERTEX
  5
197C
  8
0
 10
-21.46290964537028
 20
-44.43131443040757
 30
-113.2286731145086
 70
   192
  0
VERTEX
  5
197D
  8
0
 10
-26.87031411177949
 20
-16.82188674420019
 30
-117.8786109376905
 70
   192
  0
VERTEX
  5
197E
  8
0
 10
-26.13741215184372
 20
-16.93942488916246
 30
-118.1551549896835
 70
   192
  0
VERTEX
  5
197F
  8
0
 10
-27.95316627281087
 20
-16.86602803434698
 30
-116.7506334914522
 70
   192
  0
VERTEX
  5
1980
  8
0
 10
-27.82364786392835
 20
-16.80084720740894
 30
-116.9938670741815
 70
   192
  0
VERTEX
  5
1981
  8
0
 10
-27.66583306789371
 20
-16.78627183531781
 30
-117.2120649923995
 70
   192
  0
VERTEX
  5
1982
  8
0
 10
-27.95987997950415
 20
-16.8251394942275
 30
-116.758952401007
 70
   192
  0
VERTEX
  5
1983
  8
0
 10
-25.3145521124994
 20
-17.13175911166535
 30
-118.2260344317872
 70
   192
  0
VERTEX
  5
1984
  8
0
 10
-20.45243737886983
 20
-44.287264562248
 30
-113.4377861460738
 70
   192
  0
VERTEX
  5
1985
  8
0
 10
-22.35150404354837
 20
-44.49515615951508
 30
-112.6884351530464
 70
   192
  0
VERTEX
  5
1986
  8
0
 10
-27.48795906000135
 20
-16.7814133779541
 30
-117.4119991851012
 70
   192
  0
VERTEX
  5
1987
  8
0
 10
-27.94619978171539
 20
-16.90696260835673
 30
-116.742752514838
 70
   192
  0
VERTEX
  5
1988
  8
0
 10
-27.93898435369572
 20
-16.94793417907669
 30
-116.7353078093009
 70
   192
  0
VERTEX
  5
1989
  8
0
 10
-23.01104297472724
 20
-44.4710894948366
 30
-111.8822329329028
 70
   192
  0
VERTEX
  5
198A
  8
0
 10
0.0
 20
0.0
 30
0.0
 70
   128
 71
     1
 72
     2
 73
     3
  0
VERTEX
  5
198B
  8
0
 10
0.0
 20
0.0
 30
0.0
 70
   128
 71
     4
 72
     5
 73
     6
  0
VERTEX
  5
198C
  8
0
 10
0.0
 20
0.0
 30
0.0
 70
   128
 71
     4
 72
     7
 73
     5
  0
VERTEX
  5
198D
  8
0
 10
0.0
 20
0.0
 30
0.0
 70
   128
 71
     8
 72
     9
 73
     1
  0
VERTEX
  5
198E
  8
0
 10
0.0
 20
0.0
 30
0.0
 70
   128
 71
     8
 72
     1
 73
     3
  0
VERTEX
  5
198F
  8
0
 10
0.0
 20
0.0
 30
0.0
 70
   128
 71
     2
 72
     1
 73
    10
  0
VERTEX
  5
1990
  8
0
 10
0.0
 20
0.0
 30
0.0
 70
   128
 71
     2
 72
    10
 73
    11
  0
VERTEX
  5
1991
  8
0
 10
0.0
 20
0.0
 30
0.0
 70
   128
 71
    12
 72
     4
 73
     6
  0
VERTEX
  5
1992
  8
0
 10
0.0
 20
0.0
 30
0.0
 70
   128
 71
    12
 72
     6
 73
    11
  0
VERTEX
  5
1993
  8
0
 10
0.0
 20
0.0
 30
0.0
 70
   128
 71
    11
 72
    13
 73
    12
  0
VERTEX
  5
1994
  8
0
 10
0.0
 20
0.0
 30
0.0
 70
   128
 71
    11
 72
    10
 73
    14
  0
VERTEX
  5
1995
  8
0
 10
0.0
 20
0.0
 30
0.0
 70
   128
 71
    11
 72
    14
 73
    13
  0
SEQEND
  5
1BA4
  8
0
  0
POLYLINE
  5
1996
  8
0
 66
     1
 10
0.0
 20
0.0
 30
0.0
 70
    64
 71
    14
 72
    12
  0
VERTEX
  5
1997
  8
0
 10
22.35150404354832
 20
-44.49515615951525
 30
-112.6884351530464
 70
   192
  0
VERTEX
  5
1998
  8
0
 10
-22.35150404354837
 20
-44.49515615951508
 30
-112.6884351530464
 70
   192
  0
VERTEX
  5
1999
  8
0
 10
-21.46290964537028
 20
-44.43131443040757
 30
-113.2286731145086
 70
   192
  0
VERTEX
  5
199A
  8
0
 10
21.46290964537023
 20
-44.43131443040772
 30
-113.2286731145086
 70
   192
  0
VERTEX
  5
199B
  8
0
 10
-15.01939161717367
 20
-58.10274541722163
 30
-109.4786042020521
 70
   192
  0
VERTEX
  5
199C
  8
0
 10
-23.01104297472719
 20
-44.47108949483663
 30
-111.882232932903
 70
   192
  0
VERTEX
  5
199D
  8
0
 10
-0.0000000000000999
 20
-63.48630679078713
 30
-108.5293370795926
 70
   192
  0
VERTEX
  5
199E
  8
0
 10
15.01939161717352
 20
-58.10274541722176
 30
-109.4786042020521
 70
   192
  0
VERTEX
  5
199F
  8
0
 10
23.01104297472718
 20
-44.47108949483678
 30
-111.8822329329028
 70
   192
  0
VERTEX
  5
19A0
  8
0
 10
-13.34938041949438
 20
-56.4032120848824
 30
-111.3014177009854
 70
   192
  0
VERTEX
  5
19A1
  8
0
 10
-20.45243737886985
 20
-44.28726456224799
 30
-113.4377861460738
 70
   192
  0
VERTEX
  5
19A2
  8
0
 10
13.34938041949427
 20
-56.40321208488248
 30
-111.3014177009854
 70
   192
  0
VERTEX
  5
19A3
  8
0
 10
20.45243737886981
 20
-44.28726456224813
 30
-113.4377861460737
 70
   192
  0
VERTEX
  5
19A4
  8
0
 10
-0.0000000000000692
 20
-61.18817346143017
 30
-110.4576999086521
 70
   192
  0
VERTEX
  5
19A5
  8
0
 10
0.0
 20
0.0
 30
0.0
 70
   128
 71
     1
 72
     2
 73
    -3
  0
VERTEX
  5
19A6
  8
0
 10
0.0
 20
0.0
 30
0.0
 70
   128
 71
    -1
 72
     3
 73
     4
  0
VERTEX
  5
19A7
  8
0
 10
0.0
 20
0.0
 30
0.0
 70
   128
 71
     5
 72
     6
 73
     2
  0
VERTEX
  5
19A8
  8
0
 10
0.0
 20
0.0
 30
0.0
 70
   128
 71
     2
 72
     7
 73
     5
  0
VERTEX
  5
19A9
  8
0
 10
0.0
 20
0.0
 30
0.0
 70
   128
 71
     2
 72
     8
 73
     7
  0
VERTEX
  5
19AA
  8
0
 10
0.0
 20
0.0
 30
0.0
 70
   128
 71
     9
 72
     8
 73
     2
  0
VERTEX
  5
19AB
  8
0
 10
0.0
 20
0.0
 30
0.0
 70
   128
 71
     9
 72
     2
 73
     1
  0
VERTEX
  5
19AC
  8
0
 10
0.0
 20
0.0
 30
0.0
 70
   128
 71
    10
 72
     3
 73
    11
  0
VERTEX
  5
19AD
  8
0
 10
0.0
 20
0.0
 30
0.0
 70
   128
 71
    12
 72
    13
 73
     4
  0
VERTEX
  5
19AE
  8
0
 10
0.0
 20
0.0
 30
0.0
 70
   128
 71
     4
 72
    14
 73
    12
  0
VERTEX
  5
19AF
  8
0
 10
0.0
 20
0.0
 30
0.0
 70
   128
 71
     4
 72
     3
 73
    10
  0
VERTEX
  5
19B0
  8
0
 10
0.0
 20
0.0
 30
0.0
 70
   128
 71
     4
 72
    10
 73
    14
  0
SEQEND
  5
1BA5
  8
0
  0
POLYLINE
  5
19B1
  8
0
 66
     1
 10
0.0
 20
0.0
 30
0.0
 70
    64
 71
    11
 72
     9
  0
VERTEX
  5
19B2
  8
0
 10
27.9531662728111
 20
-16.86602803434695
 30
-116.7506334914521
 70
   192
  0
VERTEX
  5
19B3
  8
0
 10
27.94619978171562
 20
-16.90696260835671
 30
-116.7427525148379
 70
   192
  0
VERTEX
  5
19B4
  8
0
 10
27.93898435369595
 20
-16.9479341790767
 30
-116.735307809301
 70
   192
  0
VERTEX
  5
19B5
  8
0
 10
22.35150404354832
 20
-44.49515615951525
 30
-112.6884351530464
 70
   192
  0
VERTEX
  5
19B6
  8
0
 10
23.01104297472715
 20
-44.47108949483678
 30
-111.8822329329027
 70
   192
  0
VERTEX
  5
19B7
  8
0
 10
20.45243737886981
 20
-44.28726456224814
 30
-113.4377861460738
 70
   192
  0
VERTEX
  5
19B8
  8
0
 10
25.31455211249963
 20
-17.13175911166536
 30
-118.2260344317873
 70
   192
  0
VERTEX
  5
19B9
  8
0
 10
26.38725644289863
 20
-16.89282023314081
 30
-118.0867503838762
 70
   192
  0
VERTEX
  5
19BA
  8
0
 10
21.46290964537023
 20
-44.43131443040772
 30
-113.2286731145086
 70
   192
  0
VERTEX
  5
19BB
  8
0
 10
27.3111884662363
 20
-16.78551424832188
 30
-117.575184778407
 70
   192
  0
VERTEX
  5
19BC
  8
0
 10
27.9598799795044
 20
-16.82513949422745
 30
-116.758952401007
 70
   192
  0
VERTEX
  5
19BD
  8
0
 10
0.0
 20
0.0
 30
0.0
 70
   128
 71
     1
 72
     2
 73
     3
  0
VERTEX
  5
19BE
  8
0
 10
0.0
 20
0.0
 30
0.0
 70
   128
 71
     4
 72
     3
 73
     5
  0
VERTEX
  5
19BF
  8
0
 10
0.0
 20
0.0
 30
0.0
 70
   128
 71
     6
 72
     7
 73
     8
  0
VERTEX
  5
19C0
  8
0
 10
0.0
 20
0.0
 30
0.0
 70
   128
 71
     6
 72
     8
 73
     9
  0
VERTEX
  5
19C1
  8
0
 10
0.0
 20
0.0
 30
0.0
 70
   128
 71
     9
 72
     8
 73
    10
  0
VERTEX
  5
19C2
  8
0
 10
0.0
 20
0.0
 30
0.0
 70
   128
 71
     9
 72
    10
 73
     4
  0
VERTEX
  5
19C3
  8
0
 10
0.0
 20
0.0
 30
0.0
 70
   128
 71
     3
 72
     4
 73
    10
  0
VERTEX
  5
19C4
  8
0
 10
0.0
 20
0.0
 30
0.0
 70
   128
 71
    10
 72
     1
 73
     3
  0
VERTEX
  5
19C5
  8
0
 10
0.0
 20
0.0
 30
0.0
 70
   128
 71
    10
 72
    11
 73
     1
  0
SEQEND
  5
1BA6
  8
0
  0
POLYLINE
  5
19C6
  8
0
 66
     1
 10
0.0
 20
0.0
 30
0.0
 70
    64
 71
    12
 72
    10
  0
VERTEX
  5
19C7
  8
0
 10
-239.1953939392142
 20
-21.62651263536619
 30
-73.0503705769994
 70
   192
  0
VERTEX
  5
19C8
  8
0
 10
-249.3027468137415
 20
-23.6605890912238
 30
-33.57105998033249
 70
   192
  0
VERTEX
  5
19C9
  8
0
 10
-254.8526804884223
 20
-17.94706008944672
 30
-33.57105998033249
 70
   192
  0
VERTEX
  5
19CA
  8
0
 10
-261.9179877799485
 20
-14.26909391145517
 30
-33.57105998033249
 70
   192
  0
VERTEX
  5
19CB
  8
0
 10
-252.9880900678254
 20
-13.0
 30
-81.83941878606883
 70
   192
  0
VERTEX
  5
19CC
  8
0
 10
-269.7815479209665
 20
-13.0
 30
-33.57105998033249
 70
   192
  0
VERTEX
  5
19CD
  8
0
 10
-210.874274895809
 20
-13.0
 30
-111.7561894873257
 70
   192
  0
VERTEX
  5
19CE
  8
0
 10
-157.146018114001
 20
-13.0
 30
-120.103793361191
 70
   192
  0
VERTEX
  5
19CF
  8
0
 10
-157.146018114001
 20
-13.53196968221868
 30
-117.859872131652
 70
   192
  0
VERTEX
  5
19D0
  8
0
 10
-157.146018114001
 20
-15.014303653558
 30
-116.0932952958839
 70
   192
  0
VERTEX
  5
19D1
  8
0
 10
-157.146018114001
 20
-17.13175911166535
 30
-115.17975459613
 70
   192
  0
VERTEX
  5
19D2
  8
0
 10
-206.7139237554165
 20
-18.85964451947229
 30
-103.5255094887836
 70
   192
  0
VERTEX
  5
19D3
  8
0
 10
0.0
 20
0.0
 30
0.0
 70
   128
 71
     1
 72
     2
 73
     3
  0
VERTEX
  5
19D4
  8
0
 10
0.0
 20
0.0
 30
0.0
 70
   128
 71
     4
 72
     5
 73
     1
  0
VERTEX
  5
19D5
  8
0
 10
0.0
 20
0.0
 30
0.0
 70
   128
 71
     3
 72
     4
 73
     1
  0
VERTEX
  5
19D6
  8
0
 10
0.0
 20
0.0
 30
0.0
 70
   128
 71
     4
 72
     6
 73
     5
  0
VERTEX
  5
19D7
  8
0
 10
0.0
 20
0.0
 30
0.0
 70
   128
 71
     7
 72
     8
 73
     9
  0
VERTEX
  5
19D8
  8
0
 10
0.0
 20
0.0
 30
0.0
 70
   128
 71
    10
 72
    11
 73
    12
  0
VERTEX
  5
19D9
  8
0
 10
0.0
 20
0.0
 30
0.0
 70
   128
 71
     9
 72
    10
 73
     5
  0
VERTEX
  5
19DA
  8
0
 10
0.0
 20
0.0
 30
0.0
 70
   128
 71
     7
 72
     9
 73
     5
  0
VERTEX
  5
19DB
  8
0
 10
0.0
 20
0.0
 30
0.0
 70
   128
 71
    12
 72
     1
 73
     5
  0
VERTEX
  5
19DC
  8
0
 10
0.0
 20
0.0
 30
0.0
 70
   128
 71
    10
 72
    12
 73
     5
  0
SEQEND
  5
1BA7
  8
0
  0
POLYLINE
  5
19DD
  8
0
 66
     1
 10
0.0
 20
0.0
 30
0.0
 70
    64
 71
     8
 72
     6
  0
VERTEX
  5
19DE
  8
0
 10
-254.8525831283968
 20
-17.94692018112393
 30
97.21736691631033
 70
   192
  0
VERTEX
  5
19DF
  8
0
 10
-261.9179290171762
 20
-14.26893391067414
 30
97.21736691631031
 70
   192
  0
VERTEX
  5
19E0
  8
0
 10
-261.9179877799485
 20
-14.26909391145517
 30
-33.57105998033249
 70
   192
  0
VERTEX
  5
19E1
  8
0
 10
-254.8526804884223
 20
-17.94706008944672
 30
-33.57105998033249
 70
   192
  0
VERTEX
  5
19E2
  8
0
 10
-269.7815479209665
 20
-12.99999999999998
 30
97.21736691631031
 70
   192
  0
VERTEX
  5
19E3
  8
0
 10
-269.7815479209665
 20
-13.0
 30
-33.57105998033249
 70
   192
  0
VERTEX
  5
19E4
  8
0
 10
-249.3027468137415
 20
-23.66058909122385
 30
97.21736691631031
 70
   192
  0
VERTEX
  5
19E5
  8
0
 10
-249.3027468137415
 20
-23.6605890912238
 30
-33.57105998033249
 70
   192
  0
VERTEX
  5
19E6
  8
0
 10
0.0
 20
0.0
 30
0.0
 70
   128
 71
     1
 72
     2
 73
    -3
  0
VERTEX
  5
19E7
  8
0
 10
0.0
 20
0.0
 30
0.0
 70
   128
 71
     4
 72
    -1
 73
     3
  0
VERTEX
  5
19E8
  8
0
 10
0.0
 20
0.0
 30
0.0
 70
   128
 71
     2
 72
     5
 73
     6
  0
VERTEX
  5
19E9
  8
0
 10
0.0
 20
0.0
 30
0.0
 70
   128
 71
     3
 72
     2
 73
     6
  0
VERTEX
  5
19EA
  8
0
 10
0.0
 20
0.0
 30
0.0
 70
   128
 71
     7
 72
     1
 73
     4
  0
VERTEX
  5
19EB
  8
0
 10
0.0
 20
0.0
 30
0.0
 70
   128
 71
     8
 72
     7
 73
     4
  0
SEQEND
  5
1BA8
  8
0
  0
POLYLINE
  5
19EC
  8
0
 66
     1
 10
0.0
 20
0.0
 30
0.0
 70
    64
 71
    11
 72
     9
  0
VERTEX
  5
19ED
  8
0
 10
-30.51736887699885
 20
-16.82513949422745
 30
-115.2437827858964
 70
   192
  0
VERTEX
  5
19EE
  8
0
 10
-30.51129108372372
 20
-16.92693190504792
 30
-115.2202977241777
 70
   192
  0
VERTEX
  5
19EF
  8
0
 10
-157.146018114001
 20
-17.13175911166535
 30
-115.17975459613
 70
   192
  0
VERTEX
  5
19F0
  8
0
 10
-30.50469765118083
 20
-17.02913855482918
 30
-115.1989556651559
 70
   192
  0
VERTEX
  5
19F1
  8
0
 10
-30.497589949553
 20
-17.13175911166535
 30
-115.17975459613
 70
   192
  0
VERTEX
  5
19F2
  8
0
 10
-30.75783448745871
 20
-14.77572137430743
 30
-116.2822318589704
 70
   192
  0
VERTEX
  5
19F3
  8
0
 10
-157.146018114001
 20
-15.014303653558
 30
-116.0932952958839
 70
   192
  0
VERTEX
  5
19F4
  8
0
 10
-157.146018114001
 20
-13.53196968221868
 30
-117.859872131652
 70
   192
  0
VERTEX
  5
19F5
  8
0
 10
-157.146018114001
 20
-13.0
 30
-120.103793361191
 70
   192
  0
VERTEX
  5
19F6
  8
0
 10
-31.56261565886911
 20
-13.0
 30
-120.103793361191
 70
   192
  0
VERTEX
  5
19F7
  8
0
 10
-31.13806515935804
 20
-13.45437541723337
 30
-118.0212888684441
 70
   192
  0
VERTEX
  5
19F8
  8
0
 10
0.0
 20
0.0
 30
0.0
 70
   128
 71
     1
 72
     2
 73
     3
  0
VERTEX
  5
19F9
  8
0
 10
0.0
 20
0.0
 30
0.0
 70
   128
 71
     2
 72
     4
 73
     3
  0
VERTEX
  5
19FA
  8
0
 10
0.0
 20
0.0
 30
0.0
 70
   128
 71
     4
 72
     5
 73
     3
  0
VERTEX
  5
19FB
  8
0
 10
0.0
 20
0.0
 30
0.0
 70
   128
 71
     6
 72
     7
 73
     8
  0
VERTEX
  5
19FC
  8
0
 10
0.0
 20
0.0
 30
0.0
 70
   128
 71
     1
 72
     3
 73
     7
  0
VERTEX
  5
19FD
  8
0
 10
0.0
 20
0.0
 30
0.0
 70
   128
 71
     8
 72
     9
 73
    10
  0
VERTEX
  5
19FE
  8
0
 10
0.0
 20
0.0
 30
0.0
 70
   128
 71
    11
 72
     8
 73
    10
  0
VERTEX
  5
19FF
  8
0
 10
0.0
 20
0.0
 30
0.0
 70
   128
 71
     6
 72
     8
 73
    11
  0
VERTEX
  5
1A00
  8
0
 10
0.0
 20
0.0
 30
0.0
 70
   128
 71
     1
 72
     7
 73
     6
  0
SEQEND
  5
1BA9
  8
0
  0
POLYLINE
  5
1A01
  8
0
 66
     1
 10
0.0
 20
0.0
 30
0.0
 70
    64
 71
    12
 72
    10
  0
VERTEX
  5
1A02
  8
0
 10
-27.9389843536957
 20
-16.9479341790767
 30
-116.735307809301
 70
   192
  0
VERTEX
  5
1A03
  8
0
 10
-27.94619978171539
 20
-16.90696260835673
 30
-116.742752514838
 70
   192
  0
VERTEX
  5
1A04
  8
0
 10
-27.95316627281087
 20
-16.86602803434698
 30
-116.7506334914522
 70
   192
  0
VERTEX
  5
1A05
  8
0
 10
-27.95987997950412
 20
-16.82513949422748
 30
-116.758952401007
 70
   192
  0
VERTEX
  5
1A06
  8
0
 10
-28.62343615554385
 20
-16.73062494642177
 30
-115.9748568299158
 70
   192
  0
VERTEX
  5
1A07
  8
0
 10
-29.51090687586031
 20
-16.73062494642175
 30
-115.4490798965179
 70
   192
  0
VERTEX
  5
1A08
  8
0
 10
-30.51736887699885
 20
-16.82513949422745
 30
-115.2437827858964
 70
   192
  0
VERTEX
  5
1A09
  8
0
 10
-30.51129108372372
 20
-16.92693190504792
 30
-115.2202977241777
 70
   192
  0
VERTEX
  5
1A0A
  8
0
 10
-30.50469765118083
 20
-17.02913855482918
 30
-115.1989556651559
 70
   192
  0
VERTEX
  5
1A0B
  8
0
 10
-30.497589949553
 20
-17.13175911166535
 30
-115.17975459613
 70
   192
  0
VERTEX
  5
1A0C
  8
0
 10
-29.48711768305259
 20
-16.98770924350578
 30
-115.3888676276952
 70
   192
  0
VERTEX
  5
1A0D
  8
0
 10
-28.59852328487451
 20
-16.92386751439826
 30
-115.9291055891574
 70
   192
  0
VERTEX
  5
1A0E
  8
0
 10
0.0
 20
0.0
 30
0.0
 70
   128
 71
     8
 72
     7
 73
     6
  0
VERTEX
  5
1A0F
  8
0
 10
0.0
 20
0.0
 30
0.0
 70
   128
 71
     6
 72
     9
 73
     8
  0
VERTEX
  5
1A10
  8
0
 10
0.0
 20
0.0
 30
0.0
 70
   128
 71
     6
 72
    11
 73
    10
  0
VERTEX
  5
1A11
  8
0
 10
0.0
 20
0.0
 30
0.0
 70
   128
 71
     6
 72
    10
 73
     9
  0
VERTEX
  5
1A12
  8
0
 10
0.0
 20
0.0
 30
0.0
 70
   128
 71
     6
 72
     5
 73
    12
  0
VERTEX
  5
1A13
  8
0
 10
0.0
 20
0.0
 30
0.0
 70
   128
 71
     6
 72
    12
 73
    11
  0
VERTEX
  5
1A14
  8
0
 10
0.0
 20
0.0
 30
0.0
 70
   128
 71
     2
 72
     1
 73
    12
  0
VERTEX
  5
1A15
  8
0
 10
0.0
 20
0.0
 30
0.0
 70
   128
 71
     2
 72
    12
 73
     5
  0
VERTEX
  5
1A16
  8
0
 10
0.0
 20
0.0
 30
0.0
 70
   128
 71
     5
 72
     3
 73
     2
  0
VERTEX
  5
1A17
  8
0
 10
0.0
 20
0.0
 30
0.0
 70
   128
 71
     5
 72
     4
 73
     3
  0
SEQEND
  5
1BAA
  8
0
  0
POLYLINE
  5
1A18
  8
0
 66
     1
 10
0.0
 20
0.0
 30
0.0
 70
    64
 71
    12
 72
    10
  0
VERTEX
  5
1A19
  8
0
 10
-244.284099993594
 20
-13.0
 30
164.284099993594
 70
   192
  0
VERTEX
  5
1A1A
  8
0
 10
-225.6442916656665
 20
-12.99999999999999
 30
178.2058549287786
 70
   192
  0
VERTEX
  5
1A1B
  8
0
 10
-202.8083617432971
 20
-12.99999999999999
 30
186.8876246729195
 70
   192
  0
VERTEX
  5
1A1C
  8
0
 10
-177.21736691631
 20
-13.00000000000001
 30
189.7815479209665
 70
   192
  0
VERTEX
  5
1A1D
  8
0
 10
-177.21736691631
 20
-14.26893391067417
 30
181.9179290171762
 70
   192
  0
VERTEX
  5
1A1E
  8
0
 10
-177.21736691631
 20
-17.94692018112395
 30
174.8525831283968
 70
   192
  0
VERTEX
  5
1A1F
  8
0
 10
-177.2173669163105
 20
-23.6605890912238
 30
169.3027468137415
 70
   192
  0
VERTEX
  5
1A20
  8
0
 10
-198.4361495674452
 20
-21.88204062945307
 30
168.2839097426987
 70
   192
  0
VERTEX
  5
1A21
  8
0
 10
-216.9562107813453
 20
-20.77799614354117
 30
162.302397872993
 70
   192
  0
VERTEX
  5
1A22
  8
0
 10
-231.7229707135636
 20
-20.40920517939211
 30
151.7229707135635
 70
   192
  0
VERTEX
  5
1A23
  8
0
 10
-235.3952778308707
 20
-16.39033361851789
 30
155.3952778308706
 70
   192
  0
VERTEX
  5
1A24
  8
0
 10
-239.6808853434026
 20
-13.86246015500901
 30
159.6808853434026
 70
   192
  0
VERTEX
  5
1A25
  8
0
 10
0.0
 20
0.0
 30
0.0
 70
   128
 71
     8
 72
     7
 73
     6
  0
VERTEX
  5
1A26
  8
0
 10
0.0
 20
0.0
 30
0.0
 70
   128
 71
     6
 72
    11
 73
     9
  0
VERTEX
  5
1A27
  8
0
 10
0.0
 20
0.0
 30
0.0
 70
   128
 71
     6
 72
     9
 73
     8
  0
VERTEX
  5
1A28
  8
0
 10
0.0
 20
0.0
 30
0.0
 70
   128
 71
    11
 72
    10
 73
     9
  0
VERTEX
  5
1A29
  8
0
 10
0.0
 20
0.0
 30
0.0
 70
   128
 71
     6
 72
     5
 73
    12
  0
VERTEX
  5
1A2A
  8
0
 10
0.0
 20
0.0
 30
0.0
 70
   128
 71
     6
 72
    12
 73
    11
  0
VERTEX
  5
1A2B
  8
0
 10
0.0
 20
0.0
 30
0.0
 70
   128
 71
     2
 72
     1
 73
    12
  0
VERTEX
  5
1A2C
  8
0
 10
0.0
 20
0.0
 30
0.0
 70
   128
 71
    12
 72
     5
 73
     3
  0
VERTEX
  5
1A2D
  8
0
 10
0.0
 20
0.0
 30
0.0
 70
   128
 71
    12
 72
     3
 73
     2
  0
VERTEX
  5
1A2E
  8
0
 10
0.0
 20
0.0
 30
0.0
 70
   128
 71
     5
 72
     4
 73
     3
  0
SEQEND
  5
1BAB
  8
0
  0
POLYLINE
  5
1A2F
  8
0
 66
     1
 10
0.0
 20
0.0
 30
0.0
 70
    64
 71
     9
 72
     7
  0
VERTEX
  5
1A30
  8
0
 10
-27.95987997950415
 20
-16.8251394942275
 30
-116.758952401007
 70
   192
  0
VERTEX
  5
1A31
  8
0
 10
-28.72166573755069
 20
-14.88502256652817
 30
-117.3379256325083
 70
   192
  0
VERTEX
  5
1A32
  8
0
 10
-30.11827166479155
 20
-13.44637854444318
 30
-118.5790787182536
 70
   192
  0
VERTEX
  5
1A33
  8
0
 10
-31.5626156588691
 20
-13.0
 30
-120.103793361191
 70
   192
  0
VERTEX
  5
1A34
  8
0
 10
-31.13806515935804
 20
-13.45437541723337
 30
-118.0212888684441
 70
   192
  0
VERTEX
  5
1A35
  8
0
 10
-30.75783448745871
 20
-14.77572137430743
 30
-116.2822318589704
 70
   192
  0
VERTEX
  5
1A36
  8
0
 10
-30.51736887699885
 20
-16.82513949422741
 30
-115.2437827858964
 70
   192
  0
VERTEX
  5
1A37
  8
0
 10
-29.51090687586031
 20
-16.73062494642175
 30
-115.4490798965179
 70
   192
  0
VERTEX
  5
1A38
  8
0
 10
-28.62343615554385
 20
-16.73062494642177
 30
-115.9748568299158
 70
   192
  0
VERTEX
  5
1A39
  8
0
 10
0.0
 20
0.0
 30
0.0
 70
   128
 71
     5
 72
     4
 73
     8
  0
VERTEX
  5
1A3A
  8
0
 10
0.0
 20
0.0
 30
0.0
 70
   128
 71
     8
 72
     6
 73
     5
  0
VERTEX
  5
1A3B
  8
0
 10
0.0
 20
0.0
 30
0.0
 70
   128
 71
     8
 72
     7
 73
     6
  0
VERTEX
  5
1A3C
  8
0
 10
0.0
 20
0.0
 30
0.0
 70
   128
 71
     4
 72
     9
 73
     8
  0
VERTEX
  5
1A3D
  8
0
 10
0.0
 20
0.0
 30
0.0
 70
   128
 71
     2
 72
     1
 73
     9
  0
VERTEX
  5
1A3E
  8
0
 10
0.0
 20
0.0
 30
0.0
 70
   128
 71
     9
 72
     3
 73
     2
  0
VERTEX
  5
1A3F
  8
0
 10
0.0
 20
0.0
 30
0.0
 70
   128
 71
     9
 72
     4
 73
     3
  0
SEQEND
  5
1BAC
  8
0
  0
POLYLINE
  5
1A40
  8
0
 66
     1
 10
0.0
 20
0.0
 30
0.0
 70
    64
 71
     8
 72
     6
  0
VERTEX
  5
1A41
  8
0
 10
177.2173669163105
 20
-17.94692018112395
 30
174.8525831283968
 70
   192
  0
VERTEX
  5
1A42
  8
0
 10
177.2173669163105
 20
-14.26893391067417
 30
181.9179290171762
 70
   192
  0
VERTEX
  5
1A43
  8
0
 10
-177.21736691631
 20
-14.26893391067417
 30
181.9179290171762
 70
   192
  0
VERTEX
  5
1A44
  8
0
 10
-177.21736691631
 20
-17.94692018112395
 30
174.8525831283968
 70
   192
  0
VERTEX
  5
1A45
  8
0
 10
177.2173669163105
 20
-13.00000000000001
 30
189.7815479209665
 70
   192
  0
VERTEX
  5
1A46
  8
0
 10
-177.21736691631
 20
-13.00000000000001
 30
189.7815479209665
 70
   192
  0
VERTEX
  5
1A47
  8
0
 10
177.2173669163104
 20
-23.6605890912238
 30
169.3027468137415
 70
   192
  0
VERTEX
  5
1A48
  8
0
 10
-177.21736691631
 20
-23.66058909122393
 30
169.3027468137417
 70
   192
  0
VERTEX
  5
1A49
  8
0
 10
0.0
 20
0.0
 30
0.0
 70
   128
 71
     1
 72
     2
 73
    -3
  0
VERTEX
  5
1A4A
  8
0
 10
0.0
 20
0.0
 30
0.0
 70
   128
 71
     4
 72
    -1
 73
     3
  0
VERTEX
  5
1A4B
  8
0
 10
0.0
 20
0.0
 30
0.0
 70
   128
 71
     2
 72
     5
 73
    -6
  0
VERTEX
  5
1A4C
  8
0
 10
0.0
 20
0.0
 30
0.0
 70
   128
 71
     3
 72
    -2
 73
     6
  0
VERTEX
  5
1A4D
  8
0
 10
0.0
 20
0.0
 30
0.0
 70
   128
 71
     7
 72
     1
 73
    -4
  0
VERTEX
  5
1A4E
  8
0
 10
0.0
 20
0.0
 30
0.0
 70
   128
 71
     8
 72
    -7
 73
     4
  0
SEQEND
  5
1BAD
  8
0
  0
POLYLINE
  5
1A4F
  8
0
 66
     1
 10
0.0
 20
0.0
 30
0.0
 70
    64
 71
    12
 72
    10
  0
VERTEX
  5
1A50
  8
0
 10
-30.9430282641498
 20
-13.0
 30
-120.8145781245406
 70
   192
  0
VERTEX
  5
1A51
  8
0
 10
-31.15904964665368
 20
-13.0
 30
-120.5861462270647
 70
   192
  0
VERTEX
  5
1A52
  8
0
 10
-31.36573840251546
 20
-13.00000000000001
 30
-120.3490348531498
 70
   192
  0
VERTEX
  5
1A53
  8
0
 10
-31.5626156588691
 20
-13.0
 30
-120.103793361191
 70
   192
  0
VERTEX
  5
1A54
  8
0
 10
-30.11827166479155
 20
-13.44637854444318
 30
-118.5790787182536
 70
   192
  0
VERTEX
  5
1A55
  8
0
 10
-28.72166573755069
 20
-14.88502256652817
 30
-117.3379256325083
 70
   192
  0
VERTEX
  5
1A56
  8
0
 10
-27.95987997950415
 20
-16.8251394942275
 30
-116.758952401007
 70
   192
  0
VERTEX
  5
1A57
  8
0
 10
-27.82364786392835
 20
-16.80084720740894
 30
-116.9938670741815
 70
   192
  0
VERTEX
  5
1A58
  8
0
 10
-27.66583306789371
 20
-16.78627183531781
 30
-117.2120649923995
 70
   192
  0
VERTEX
  5
1A59
  8
0
 10
-27.48795906000134
 20
-16.78141337795412
 30
-117.4119991851013
 70
   192
  0
VERTEX
  5
1A5A
  8
0
 10
-28.19033053744494
 20
-14.82607571716555
 30
-118.1037000615824
 70
   192
  0
VERTEX
  5
1A5B
  8
0
 10
-29.42068277982548
 20
-13.47951211625492
 30
-119.3153604888148
 70
   192
  0
VERTEX
  5
1A5C
  8
0
 10
0.0
 20
0.0
 30
0.0
 70
   128
 71
     8
 72
     7
 73
     6
  0
VERTEX
  5
1A5D
  8
0
 10
0.0
 20
0.0
 30
0.0
 70
   128
 71
     6
 72
    11
 73
     9
  0
VERTEX
  5
1A5E
  8
0
 10
0.0
 20
0.0
 30
0.0
 70
   128
 71
     6
 72
     9
 73
     8
  0
VERTEX
  5
1A5F
  8
0
 10
0.0
 20
0.0
 30
0.0
 70
   128
 71
    11
 72
    10
 73
     9
  0
VERTEX
  5
1A60
  8
0
 10
0.0
 20
0.0
 30
0.0
 70
   128
 71
     6
 72
     5
 73
    12
  0
VERTEX
  5
1A61
  8
0
 10
0.0
 20
0.0
 30
0.0
 70
   128
 71
     6
 72
    12
 73
    11
  0
VERTEX
  5
1A62
  8
0
 10
0.0
 20
0.0
 30
0.0
 70
   128
 71
     2
 72
     1
 73
    12
  0
VERTEX
  5
1A63
  8
0
 10
0.0
 20
0.0
 30
0.0
 70
   128
 71
    12
 72
     5
 73
     3
  0
VERTEX
  5
1A64
  8
0
 10
0.0
 20
0.0
 30
0.0
 70
   128
 71
    12
 72
     3
 73
     2
  0
VERTEX
  5
1A65
  8
0
 10
0.0
 20
0.0
 30
0.0
 70
   128
 71
     5
 72
     4
 73
     3
  0
SEQEND
  5
1BAE
  8
0
  0
POLYLINE
  5
1A66
  8
0
 66
     1
 10
0.0
 20
0.0
 30
0.0
 70
    64
 71
    12
 72
    10
  0
VERTEX
  5
1A67
  8
0
 10
244.284099993594
 20
-13.0
 30
164.284099993594
 70
   192
  0
VERTEX
  5
1A68
  8
0
 10
258.2058549287786
 20
-13.0
 30
145.6442916656667
 70
   192
  0
VERTEX
  5
1A69
  8
0
 10
266.8876246729196
 20
-13.0
 30
122.8083617432975
 70
   192
  0
VERTEX
  5
1A6A
  8
0
 10
269.7815479209665
 20
-12.99999999999998
 30
97.2173669163104
 70
   192
  0
VERTEX
  5
1A6B
  8
0
 10
261.9179290171762
 20
-14.26893391067414
 30
97.2173669163104
 70
   192
  0
VERTEX
  5
1A6C
  8
0
 10
254.8525831283968
 20
-17.94692018112393
 30
97.2173669163104
 70
   192
  0
VERTEX
  5
1A6D
  8
0
 10
249.3027468137415
 20
-23.6605890912238
 30
97.2173669163104
 70
   192
  0
VERTEX
  5
1A6E
  8
0
 10
248.283909742745
 20
-21.88204062890566
 30
118.4361495692435
 70
   192
  0
VERTEX
  5
1A6F
  8
0
 10
242.3023978717402
 20
-20.77799614382456
 30
136.9562107830743
 70
   192
  0
VERTEX
  5
1A70
  8
0
 10
231.7229707135636
 20
-20.40920517939211
 30
151.7229707135635
 70
   192
  0
VERTEX
  5
1A71
  8
0
 10
235.3952778308707
 20
-16.39033361851789
 30
155.3952778308706
 70
   192
  0
VERTEX
  5
1A72
  8
0
 10
239.6808853434026
 20
-13.86246015500901
 30
159.6808853434026
 70
   192
  0
VERTEX
  5
1A73
  8
0
 10
0.0
 20
0.0
 30
0.0
 70
   128
 71
     8
 72
     7
 73
     6
  0
VERTEX
  5
1A74
  8
0
 10
0.0
 20
0.0
 30
0.0
 70
   128
 71
     6
 72
    11
 73
     9
  0
VERTEX
  5
1A75
  8
0
 10
0.0
 20
0.0
 30
0.0
 70
   128
 71
     6
 72
     9
 73
     8
  0
VERTEX
  5
1A76
  8
0
 10
0.0
 20
0.0
 30
0.0
 70
   128
 71
    11
 72
    10
 73
     9
  0
VERTEX
  5
1A77
  8
0
 10
0.0
 20
0.0
 30
0.0
 70
   128
 71
     6
 72
     5
 73
    12
  0
VERTEX
  5
1A78
  8
0
 10
0.0
 20
0.0
 30
0.0
 70
   128
 71
     6
 72
    12
 73
    11
  0
VERTEX
  5
1A79
  8
0
 10
0.0
 20
0.0
 30
0.0
 70
   128
 71
     2
 72
     1
 73
    12
  0
VERTEX
  5
1A7A
  8
0
 10
0.0
 20
0.0
 30
0.0
 70
   128
 71
    12
 72
     5
 73
     3
  0
VERTEX
  5
1A7B
  8
0
 10
0.0
 20
0.0
 30
0.0
 70
   128
 71
    12
 72
     3
 73
     2
  0
VERTEX
  5
1A7C
  8
0
 10
0.0
 20
0.0
 30
0.0
 70
   128
 71
     5
 72
     4
 73
     3
  0
SEQEND
  5
1BAF
  8
0
  0
POLYLINE
  5
1A7D
  8
0
 66
     1
 10
0.0
 20
0.0
 30
0.0
 70
    64
 71
     8
 72
     6
  0
VERTEX
  5
1A7E
  8
0
 10
25.31455211249964
 20
-13.53183679838294
 30
-120.9060772958459
 70
   192
  0
VERTEX
  5
1A7F
  8
0
 10
25.31455211249965
 20
-15.01420704148606
 30
-119.139457233073
 70
   192
  0
VERTEX
  5
1A80
  8
0
 10
-25.31455211249938
 20
-15.01420704148606
 30
-119.139457233073
 70
   192
  0
VERTEX
  5
1A81
  8
0
 10
-25.31455211249938
 20
-13.53183679838294
 30
-120.9060772958459
 70
   192
  0
VERTEX
  5
1A82
  8
0
 10
25.31455211249965
 20
-17.13175911166534
 30
-118.2260344317871
 70
   192
  0
VERTEX
  5
1A83
  8
0
 10
-25.31455211249939
 20
-17.13175911166534
 30
-118.2260344317871
 70
   192
  0
VERTEX
  5
1A84
  8
0
 10
25.31455211249965
 20
-13.0
 30
-123.1500731968482
 70
   192
  0
VERTEX
  5
1A85
  8
0
 10
-25.31455211249938
 20
-13.0
 30
-123.1500731968482
 70
   192
  0
VERTEX
  5
1A86
  8
0
 10
0.0
 20
0.0
 30
0.0
 70
   128
 71
     1
 72
     2
 73
    -3
  0
VERTEX
  5
1A87
  8
0
 10
0.0
 20
0.0
 30
0.0
 70
   128
 71
     4
 72
    -1
 73
     3
  0
VERTEX
  5
1A88
  8
0
 10
0.0
 20
0.0
 30
0.0
 70
   128
 71
     2
 72
     5
 73
    -6
  0
VERTEX
  5
1A89
  8
0
 10
0.0
 20
0.0
 30
0.0
 70
   128
 71
     3
 72
    -2
 73
     6
  0
VERTEX
  5
1A8A
  8
0
 10
0.0
 20
0.0
 30
0.0
 70
   128
 71
     7
 72
     1
 73
    -4
  0
VERTEX
  5
1A8B
  8
0
 10
0.0
 20
0.0
 30
0.0
 70
   128
 71
     8
 72
    -7
 73
     4
  0
SEQEND
  5
1BB0
  8
0
  0
POLYLINE
  5
1A8C
  8
0
 66
     1
 10
0.0
 20
0.0
 30
0.0
 70
    64
 71
     8
 72
     6
  0
VERTEX
  5
1A8D
  8
0
 10
254.7968244273209
 20
-17.98855173109679
 30
-33.5710599803325
 70
   192
  0
VERTEX
  5
1A8E
  8
0
 10
261.984013463502
 20
-14.2471379327742
 30
-33.5710599803325
 70
   192
  0
VERTEX
  5
1A8F
  8
0
 10
261.9179290171762
 20
-14.26893391067414
 30
97.2173669163104
 70
   192
  0
VERTEX
  5
1A90
  8
0
 10
254.8525831283968
 20
-17.94692018112393
 30
97.2173669163104
 70
   192
  0
VERTEX
  5
1A91
  8
0
 10
269.7815479209665
 20
-13.0
 30
-33.57105998033249
 70
   192
  0
VERTEX
  5
1A92
  8
0
 10
269.7815479209665
 20
-12.99999999999998
 30
97.2173669163104
 70
   192
  0
VERTEX
  5
1A93
  8
0
 10
249.3027468137415
 20
-23.6605890912238
 30
-33.57105998033248
 70
   192
  0
VERTEX
  5
1A94
  8
0
 10
249.3027468137417
 20
-23.66058909122392
 30
97.2173669163104
 70
   192
  0
VERTEX
  5
1A95
  8
0
 10
0.0
 20
0.0
 30
0.0
 70
   128
 71
     1
 72
     2
 73
    -3
  0
VERTEX
  5
1A96
  8
0
 10
0.0
 20
0.0
 30
0.0
 70
   128
 71
     4
 72
    -1
 73
     3
  0
VERTEX
  5
1A97
  8
0
 10
0.0
 20
0.0
 30
0.0
 70
   128
 71
     2
 72
     5
 73
     6
  0
VERTEX
  5
1A98
  8
0
 10
0.0
 20
0.0
 30
0.0
 70
   128
 71
     3
 72
     2
 73
     6
  0
VERTEX
  5
1A99
  8
0
 10
0.0
 20
0.0
 30
0.0
 70
   128
 71
     7
 72
     1
 73
     4
  0
VERTEX
  5
1A9A
  8
0
 10
0.0
 20
0.0
 30
0.0
 70
   128
 71
     8
 72
     7
 73
     4
  0
SEQEND
  5
1BB1
  8
0
  0
POLYLINE
  5
1A9B
  8
0
 66
     1
 10
0.0
 20
0.0
 30
0.0
 70
    64
 71
    12
 72
    10
  0
VERTEX
  5
1A9C
  8
0
 10
25.31455211249965
 20
-17.13175911166535
 30
-118.2260344317872
 70
   192
  0
VERTEX
  5
1A9D
  8
0
 10
26.38725644289863
 20
-16.89282023314081
 30
-118.0867503838762
 70
   192
  0
VERTEX
  5
1A9E
  8
0
 10
27.3111884662363
 20
-16.78551424832188
 30
-117.575184778407
 70
   192
  0
VERTEX
  5
1A9F
  8
0
 10
27.9598799795044
 20
-16.82513949422745
 30
-116.758952401007
 70
   192
  0
VERTEX
  5
1AA0
  8
0
 10
28.79206378805718
 20
-14.7757213742317
 30
-117.3947868992467
 70
   192
  0
VERTEX
  5
1AA1
  8
0
 10
30.10566775672447
 20
-13.45437541730489
 30
-118.5669368910665
 70
   192
  0
VERTEX
  5
1AA2
  8
0
 10
31.56261565886935
 20
-13.0
 30
-120.103793361191
 70
   192
  0
VERTEX
  5
1AA3
  8
0
 10
29.85376369816556
 20
-13.0
 30
-121.7341128530442
 70
   192
  0
VERTEX
  5
1AA4
  8
0
 10
27.67561263740176
 20
-13.0
 30
-122.7960831108972
 70
   192
  0
VERTEX
  5
1AA5
  8
0
 10
25.31455211249964
 20
-13.0
 30
-123.1500731968482
 70
   192
  0
VERTEX
  5
1AA6
  8
0
 10
25.31455211249964
 20
-13.53183679838294
 30
-120.9060772958459
 70
   192
  0
VERTEX
  5
1AA7
  8
0
 10
25.31455211249965
 20
-15.01420704148606
 30
-119.139457233073
 70
   192
  0
VERTEX
  5
1AA8
  8
0
 10
0.0
 20
0.0
 30
0.0
 70
   128
 71
     8
 72
     7
 73
     6
  0
VERTEX
  5
1AA9
  8
0
 10
0.0
 20
0.0
 30
0.0
 70
   128
 71
     6
 72
    11
 73
     9
  0
VERTEX
  5
1AAA
  8
0
 10
0.0
 20
0.0
 30
0.0
 70
   128
 71
     6
 72
     9
 73
     8
  0
VERTEX
  5
1AAB
  8
0
 10
0.0
 20
0.0
 30
0.0
 70
   128
 71
    11
 72
    10
 73
     9
  0
VERTEX
  5
1AAC
  8
0
 10
0.0
 20
0.0
 30
0.0
 70
   128
 71
     6
 72
     5
 73
    12
  0
VERTEX
  5
1AAD
  8
0
 10
0.0
 20
0.0
 30
0.0
 70
   128
 71
     6
 72
    12
 73
    11
  0
VERTEX
  5
1AAE
  8
0
 10
0.0
 20
0.0
 30
0.0
 70
   128
 71
     2
 72
     1
 73
    12
  0
VERTEX
  5
1AAF
  8
0
 10
0.0
 20
0.0
 30
0.0
 70
   128
 71
    12
 72
     5
 73
     3
  0
VERTEX
  5
1AB0
  8
0
 10
0.0
 20
0.0
 30
0.0
 70
   128
 71
    12
 72
     3
 73
     2
  0
VERTEX
  5
1AB1
  8
0
 10
0.0
 20
0.0
 30
0.0
 70
   128
 71
     5
 72
     4
 73
     3
  0
SEQEND
  5
1BB2
  8
0
  0
POLYLINE
  5
1AB2
  8
0
 66
     1
 10
0.0
 20
0.0
 30
0.0
 70
    64
 71
    12
 72
    10
  0
VERTEX
  5
1AB3
  8
0
 10
206.7128873092172
 20
-18.85941296220893
 30
-103.5258675132183
 70
   192
  0
VERTEX
  5
1AB4
  8
0
 10
157.146018114001
 20
-17.1317591116654
 30
-115.17975459613
 70
   192
  0
VERTEX
  5
1AB5
  8
0
 10
157.146018114001
 20
-15.014303653558
 30
-116.0932952958839
 70
   192
  0
VERTEX
  5
1AB6
  8
0
 10
157.146018114001
 20
-13.53196968221868
 30
-117.859872131652
 70
   192
  0
VERTEX
  5
1AB7
  8
0
 10
210.874880528414
 20
-13.0
 30
-111.7559862202209
 70
   192
  0
VERTEX
  5
1AB8
  8
0
 10
157.146018114001
 20
-13.0
 30
-120.103793361191
 70
   192
  0
VERTEX
  5
1AB9
  8
0
 10
252.9884538100381
 20
-13.0
 30
-81.83891388406373
 70
   192
  0
VERTEX
  5
1ABA
  8
0
 10
269.7815479209665
 20
-13.0
 30
-33.57105998033249
 70
   192
  0
VERTEX
  5
1ABB
  8
0
 10
261.984013463502
 20
-14.2471379327742
 30
-33.5710599803325
 70
   192
  0
VERTEX
  5
1ABC
  8
0
 10
254.7968244273209
 20
-17.98855173109679
 30
-33.5710599803325
 70
   192
  0
VERTEX
  5
1ABD
  8
0
 10
249.3027468137415
 20
-23.6605890912238
 30
-33.57105998033249
 70
   192
  0
VERTEX
  5
1ABE
  8
0
 10
239.1951118845091
 20
-21.62660386783958
 30
-73.05104973396269
 70
   192
  0
VERTEX
  5
1ABF
  8
0
 10
0.0
 20
0.0
 30
0.0
 70
   128
 71
     1
 72
     2
 73
     3
  0
VERTEX
  5
1AC0
  8
0
 10
0.0
 20
0.0
 30
0.0
 70
   128
 71
     4
 72
     5
 73
     1
  0
VERTEX
  5
1AC1
  8
0
 10
0.0
 20
0.0
 30
0.0
 70
   128
 71
     3
 72
     4
 73
     1
  0
VERTEX
  5
1AC2
  8
0
 10
0.0
 20
0.0
 30
0.0
 70
   128
 71
     4
 72
     6
 73
     5
  0
VERTEX
  5
1AC3
  8
0
 10
0.0
 20
0.0
 30
0.0
 70
   128
 71
     7
 72
     8
 73
     9
  0
VERTEX
  5
1AC4
  8
0
 10
0.0
 20
0.0
 30
0.0
 70
   128
 71
    10
 72
    11
 73
    12
  0
VERTEX
  5
1AC5
  8
0
 10
0.0
 20
0.0
 30
0.0
 70
   128
 71
     9
 72
    10
 73
     5
  0
VERTEX
  5
1AC6
  8
0
 10
0.0
 20
0.0
 30
0.0
 70
   128
 71
     7
 72
     9
 73
     5
  0
VERTEX
  5
1AC7
  8
0
 10
0.0
 20
0.0
 30
0.0
 70
   128
 71
    12
 72
     1
 73
     5
  0
VERTEX
  5
1AC8
  8
0
 10
0.0
 20
0.0
 30
0.0
 70
   128
 71
    10
 72
    12
 73
     5
  0
SEQEND
  5
1BB3
  8
0
  0
POLYLINE
  5
1AC9
  8
0
 66
     1
 10
0.0
 20
0.0
 30
0.0
 70
    64
 71
     9
 72
     7
  0
VERTEX
  5
1ACA
  8
0
 10
30.5173688769991
 20
-16.8251394942274
 30
-115.2437827858964
 70
   192
  0
VERTEX
  5
1ACB
  8
0
 10
30.74161758619887
 20
-14.86291716106478
 30
-116.2103752716874
 70
   192
  0
VERTEX
  5
1ACC
  8
0
 10
31.11318751084453
 20
-13.51030975921565
 30
-117.90318165952
 70
   192
  0
VERTEX
  5
1ACD
  8
0
 10
31.56261565886935
 20
-13.0
 30
-120.103793361191
 70
   192
  0
VERTEX
  5
1ACE
  8
0
 10
30.10566775672447
 20
-13.45437541730489
 30
-118.5669368910665
 70
   192
  0
VERTEX
  5
1ACF
  8
0
 10
28.79206378805718
 20
-14.7757213742317
 30
-117.3947868992467
 70
   192
  0
VERTEX
  5
1AD0
  8
0
 10
27.95987997950437
 20
-16.82513949422744
 30
-116.758952401007
 70
   192
  0
VERTEX
  5
1AD1
  8
0
 10
28.6234361555441
 20
-16.73062494642174
 30
-115.9748568299158
 70
   192
  0
VERTEX
  5
1AD2
  8
0
 10
29.51090687586056
 20
-16.73062494642172
 30
-115.4490798965179
 70
   192
  0
VERTEX
  5
1AD3
  8
0
 10
0.0
 20
0.0
 30
0.0
 70
   128
 71
     5
 72
     4
 73
     8
  0
VERTEX
  5
1AD4
  8
0
 10
0.0
 20
0.0
 30
0.0
 70
   128
 71
     8
 72
     6
 73
     5
  0
VERTEX
  5
1AD5
  8
0
 10
0.0
 20
0.0
 30
0.0
 70
   128
 71
     8
 72
     7
 73
     6
  0
VERTEX
  5
1AD6
  8
0
 10
0.0
 20
0.0
 30
0.0
 70
   128
 71
     4
 72
     9
 73
     8
  0
VERTEX
  5
1AD7
  8
0
 10
0.0
 20
0.0
 30
0.0
 70
   128
 71
     2
 72
     1
 73
     9
  0
VERTEX
  5
1AD8
  8
0
 10
0.0
 20
0.0
 30
0.0
 70
   128
 71
     9
 72
     3
 73
     2
  0
VERTEX
  5
1AD9
  8
0
 10
0.0
 20
0.0
 30
0.0
 70
   128
 71
     9
 72
     4
 73
     3
  0
SEQEND
  5
1BB4
  8
0
  0
POLYLINE
  5
1ADA
  8
0
 66
     1
 10
0.0
 20
0.0
 30
0.0
 70
    64
 71
    12
 72
    10
  0
VERTEX
  5
1ADB
  8
0
 10
27.93898435369592
 20
-16.94793417907672
 30
-116.735307809301
 70
   192
  0
VERTEX
  5
1ADC
  8
0
 10
28.59852328487477
 20
-16.92386751439825
 30
-115.9291055891574
 70
   192
  0
VERTEX
  5
1ADD
  8
0
 10
29.48711768305284
 20
-16.98770924350577
 30
-115.3888676276952
 70
   192
  0
VERTEX
  5
1ADE
  8
0
 10
30.49758994955325
 20
-17.13175911166535
 30
-115.17975459613
 70
   192
  0
VERTEX
  5
1ADF
  8
0
 10
30.50469765118109
 20
-17.02913855482917
 30
-115.1989556651559
 70
   192
  0
VERTEX
  5
1AE0
  8
0
 10
30.51129108372397
 20
-16.92693190504789
 30
-115.2202977241777
 70
   192
  0
VERTEX
  5
1AE1
  8
0
 10
30.5173688769991
 20
-16.82513949422739
 30
-115.2437827858964
 70
   192
  0
VERTEX
  5
1AE2
  8
0
 10
29.51090687586056
 20
-16.73062494642172
 30
-115.4490798965179
 70
   192
  0
VERTEX
  5
1AE3
  8
0
 10
28.6234361555441
 20
-16.73062494642174
 30
-115.9748568299158
 70
   192
  0
VERTEX
  5
1AE4
  8
0
 10
27.9598799795044
 20
-16.82513949422745
 30
-116.758952401007
 70
   192
  0
VERTEX
  5
1AE5
  8
0
 10
27.9531662728111
 20
-16.86602803434695
 30
-116.7506334914521
 70
   192
  0
VERTEX
  5
1AE6
  8
0
 10
27.94619978171562
 20
-16.90696260835671
 30
-116.7427525148379
 70
   192
  0
VERTEX
  5
1AE7
  8
0
 10
0.0
 20
0.0
 30
0.0
 70
   128
 71
     8
 72
     7
 73
     6
  0
VERTEX
  5
1AE8
  8
0
 10
0.0
 20
0.0
 30
0.0
 70
   128
 71
     6
 72
     9
 73
     8
  0
VERTEX
  5
1AE9
  8
0
 10
0.0
 20
0.0
 30
0.0
 70
   128
 71
     6
 72
    11
 73
     9
  0
VERTEX
  5
1AEA
  8
0
 10
0.0
 20
0.0
 30
0.0
 70
   128
 71
    11
 72
    10
 73
     9
  0
VERTEX
  5
1AEB
  8
0
 10
0.0
 20
0.0
 30
0.0
 70
   128
 71
     6
 72
     5
 73
    12
  0
VERTEX
  5
1AEC
  8
0
 10
0.0
 20
0.0
 30
0.0
 70
   128
 71
     6
 72
    12
 73
    11
  0
VERTEX
  5
1AED
  8
0
 10
0.0
 20
0.0
 30
0.0
 70
   128
 71
     2
 72
     1
 73
    12
  0
VERTEX
  5
1AEE
  8
0
 10
0.0
 20
0.0
 30
0.0
 70
   128
 71
    12
 72
     3
 73
     2
  0
VERTEX
  5
1AEF
  8
0
 10
0.0
 20
0.0
 30
0.0
 70
   128
 71
    12
 72
     5
 73
     3
  0
VERTEX
  5
1AF0
  8
0
 10
0.0
 20
0.0
 30
0.0
 70
   128
 71
     5
 72
     4
 73
     3
  0
SEQEND
  5
1BB5
  8
0
  0
POLYLINE
  5
1AF1
  8
0
 66
     1
 10
0.0
 20
0.0
 30
0.0
 70
    64
 71
    11
 72
     9
  0
VERTEX
  5
1AF2
  8
0
 10
157.146018114001
 20
-17.1317591116654
 30
-115.17975459613
 70
   192
  0
VERTEX
  5
1AF3
  8
0
 10
30.49758994955326
 20
-17.13175911166535
 30
-115.17975459613
 70
   192
  0
VERTEX
  5
1AF4
  8
0
 10
30.50469765118109
 20
-17.02913855482917
 30
-115.1989556651559
 70
   192
  0
VERTEX
  5
1AF5
  8
0
 10
30.51129108372397
 20
-16.92693190504789
 30
-115.2202977241777
 70
   192
  0
VERTEX
  5
1AF6
  8
0
 10
30.5173688769991
 20
-16.8251394942274
 30
-115.2437827858964
 70
   192
  0
VERTEX
  5
1AF7
  8
0
 10
31.11318751084453
 20
-13.51030975921565
 30
-117.90318165952
 70
   192
  0
VERTEX
  5
1AF8
  8
0
 10
31.56261565886935
 20
-13.0
 30
-120.103793361191
 70
   192
  0
VERTEX
  5
1AF9
  8
0
 10
157.146018114001
 20
-13.0
 30
-120.103793361191
 70
   192
  0
VERTEX
  5
1AFA
  8
0
 10
157.146018114001
 20
-13.53196968221868
 30
-117.859872131652
 70
   192
  0
VERTEX
  5
1AFB
  8
0
 10
30.74161758619887
 20
-14.86291716106478
 30
-116.2103752716874
 70
   192
  0
VERTEX
  5
1AFC
  8
0
 10
157.146018114001
 20
-15.014303653558
 30
-116.0932952958839
 70
   192
  0
VERTEX
  5
1AFD
  8
0
 10
0.0
 20
0.0
 30
0.0
 70
   128
 71
     1
 72
     2
 73
     3
  0
VERTEX
  5
1AFE
  8
0
 10
0.0
 20
0.0
 30
0.0
 70
   128
 71
     3
 72
     4
 73
     1
  0
VERTEX
  5
1AFF
  8
0
 10
0.0
 20
0.0
 30
0.0
 70
   128
 71
     4
 72
     5
 73
     1
  0
VERTEX
  5
1B00
  8
0
 10
0.0
 20
0.0
 30
0.0
 70
   128
 71
     6
 72
     7
 73
     8
  0
VERTEX
  5
1B01
  8
0
 10
0.0
 20
0.0
 30
0.0
 70
   128
 71
     9
 72
     6
 73
     8
  0
VERTEX
  5
1B02
  8
0
 10
0.0
 20
0.0
 30
0.0
 70
   128
 71
    10
 72
     6
 73
     9
  0
VERTEX
  5
1B03
  8
0
 10
0.0
 20
0.0
 30
0.0
 70
   128
 71
    11
 72
    10
 73
     9
  0
VERTEX
  5
1B04
  8
0
 10
0.0
 20
0.0
 30
0.0
 70
   128
 71
     5
 72
    10
 73
    11
  0
VERTEX
  5
1B05
  8
0
 10
0.0
 20
0.0
 30
0.0
 70
   128
 71
     1
 72
     5
 73
    11
  0
SEQEND
  5
1BB6
  8
0
  0
POLYLINE
  5
1B06
  8
0
 66
     1
 10
0.0
 20
0.0
 30
0.0
 70
    64
 71
    10
 72
     8
  0
VERTEX
  5
1B07
  8
0
 10
-0.0000000000000015
 20
-53.04393973197227
 30
-111.8937480523515
 70
   192
  0
VERTEX
  5
1B08
  8
0
 10
0.0000000000000015
 20
-28.42374590666707
 30
-116.2349524940248
 70
   192
  0
VERTEX
  5
1B09
  8
0
 10
0.0000000000000015
 20
-25.64537506399618
 30
-100.4780284458294
 70
   192
  0
VERTEX
  5
1B0A
  8
0
 10
0.0
 20
-50.26556888930138
 30
-96.13682400415614
 70
   192
  0
VERTEX
  5
1B0B
  8
0
 10
12.5
 20
-37.95547197664878
 30
-98.30742622499278
 70
   192
  0
VERTEX
  5
1B0C
  8
0
 10
12.5
 20
-40.73384281931967
 30
-114.0643502731881
 70
   192
  0
VERTEX
  5
1B0D
  8
0
 10
8.838834764831844
 20
-46.66002498064901
 30
-96.77257867538061
 70
   192
  0
VERTEX
  5
1B0E
  8
0
 10
8.838834764831843
 20
-49.43839582331991
 30
-112.5295027235759
 70
   192
  0
VERTEX
  5
1B0F
  8
0
 10
8.838834764831846
 20
-29.25091897264854
 30
-99.84227377460495
 70
   192
  0
VERTEX
  5
1B10
  8
0
 10
8.838834764831846
 20
-32.02928981531944
 30
-115.5991978228003
 70
   192
  0
VERTEX
  5
1B11
  8
0
 10
0.0
 20
0.0
 30
0.0
 70
   128
 71
     8
 72
     1
 73
    -4
  0
VERTEX
  5
1B12
  8
0
 10
0.0
 20
0.0
 30
0.0
 70
   128
 71
     7
 72
    -8
 73
     4
  0
VERTEX
  5
1B13
  8
0
 10
0.0
 20
0.0
 30
0.0
 70
   128
 71
     6
 72
     8
 73
    -7
  0
VERTEX
  5
1B14
  8
0
 10
0.0
 20
0.0
 30
0.0
 70
   128
 71
     5
 72
    -6
 73
     7
  0
VERTEX
  5
1B15
  8
0
 10
0.0
 20
0.0
 30
0.0
 70
   128
 71
    10
 72
     6
 73
    -5
  0
VERTEX
  5
1B16
  8
0
 10
0.0
 20
0.0
 30
0.0
 70
   128
 71
     9
 72
   -10
 73
     5
  0
VERTEX
  5
1B17
  8
0
 10
0.0
 20
0.0
 30
0.0
 70
   128
 71
     3
 72
     2
 73
   -10
  0
VERTEX
  5
1B18
  8
0
 10
0.0
 20
0.0
 30
0.0
 70
   128
 71
     9
 72
    -3
 73
    10
  0
SEQEND
  5
1BB7
  8
0
  0
ENDBLK
  5
1B1A
  8
0
  0
ENDSEC
  0
SECTION
  2
ENTITIES
  0
INSERT
  5
BE
  8
0
  2
*X1
 10
0.0
 20
0.0
 30
0.0
  0
ENDSEC
  0
EOF
