  0
SECTION
  2
HEADER
  9
$ACADVER
  1
AC1009
  9
$DWGCODEPAGE
  3
ansi_1250
  9
$INSBASE
 10
0.0
 20
0.0
 30
0.0
  9
$EXTMIN
 10
-165.0
 20
-22.0
 30
-215.0
  9
$EXTMAX
 10
215.0
 20
90.0
 30
165.0
  9
$LIMMIN
 10
0.0
 20
0.0
  9
$LIMMAX
 10
420.0
 20
297.0
  9
$ORTHOMODE
 70
     0
  9
$REGENMODE
 70
     1
  9
$FILLMODE
 70
     1
  9
$QTEXTMODE
 70
     0
  9
$MIRRTEXT
 70
     0
  9
$DRAGMODE
 70
     2
  9
$LTSCALE
 40
1.0
  9
$OSMODE
 70
   511
  9
$ATTMODE
 70
     1
  9
$TEXTSIZE
 40
2.5
  9
$TRACEWID
 40
1.0
  9
$TEXTSTYLE
  7
STANDARD
  9
$CLAYER
  8
0
  9
$CELTYPE
  6
BYLAYER
  9
$CECOLOR
 62
   256
  9
$DIMSCALE
 40
1.0
  9
$DIMASZ
 40
2.5
  9
$DIMEXO
 40
0.625
  9
$DIMDLI
 40
3.75
  9
$DIMRND
 40
0.0
  9
$DIMDLE
 40
0.0
  9
$DIMEXE
 40
1.25
  9
$DIMTP
 40
0.0
  9
$DIMTM
 40
0.0
  9
$DIMTXT
 40
2.5
  9
$DIMCEN
 40
-2.5
  9
$DIMTSZ
 40
0.0
  9
$DIMTOL
 70
     0
  9
$DIMLIM
 70
     0
  9
$DIMTIH
 70
     0
  9
$DIMTOH
 70
     0
  9
$DIMSE1
 70
     0
  9
$DIMSE2
 70
     0
  9
$DIMTAD
 70
     1
  9
$DIMZIN
 70
     8
  9
$DIMBLK
  1

  9
$DIMASO
 70
     1
  9
$DIMSHO
 70
     1
  9
$DIMPOST
  1

  9
$DIMAPOST
  1

  9
$DIMALT
 70
     0
  9
$DIMALTD
 70
     3
  9
$DIMALTF
 40
0.03937007874016
  9
$DIMLFAC
 40
1.0
  9
$DIMTOFL
 70
     1
  9
$DIMTVP
 40
0.0
  9
$DIMTIX
 70
     0
  9
$DIMSOXD
 70
     0
  9
$DIMSAH
 70
     0
  9
$DIMBLK1
  1

  9
$DIMBLK2
  1

  9
$DIMSTYLE
  2
ISO-25
  9
$DIMCLRD
 70
     0
  9
$DIMCLRE
 70
     0
  9
$DIMCLRT
 70
     0
  9
$DIMTFAC
 40
1.0
  9
$DIMGAP
 40
0.625
  9
$LUNITS
 70
     2
  9
$LUPREC
 70
     3
  9
$SKETCHINC
 40
1.0
  9
$FILLETRAD
 40
10.0
  9
$AUNITS
 70
     0
  9
$AUPREC
 70
     0
  9
$MENU
  1
.
  9
$ELEVATION
 40
0.0
  9
$PELEVATION
 40
0.0
  9
$THICKNESS
 40
0.0
  9
$LIMCHECK
 70
     0
  9
$CHAMFERA
 40
10.0
  9
$CHAMFERB
 40
10.0
  9
$SKPOLY
 70
     0
  9
$TDCREATE
 40
2455022.720692848
  9
$TDUPDATE
 40
2460413.564063924
  9
$TDINDWG
 40
0.0003419213
  9
$TDUSRTIMER
 40
0.0003419213
  9
$USRTIMER
 70
     1
  9
$ANGBASE
 50
0.0
  9
$ANGDIR
 70
     0
  9
$PDMODE
 70
     0
  9
$PDSIZE
 40
0.0
  9
$PLINEWID
 40
0.0
  9
$COORDS
 70
     1
  9
$SPLFRAME
 70
     0
  9
$SPLINETYPE
 70
     6
  9
$SPLINESEGS
 70
     8
  9
$ATTDIA
 70
     0
  9
$ATTREQ
 70
     1
  9
$HANDLING
 70
     1
  9
$HANDSEED
  5
17A4
  9
$SURFTAB1
 70
     6
  9
$SURFTAB2
 70
     6
  9
$SURFTYPE
 70
     6
  9
$SURFU
 70
     6
  9
$SURFV
 70
     6
  9
$UCSNAME
  2

  9
$UCSORG
 10
0.0
 20
0.0
 30
0.0
  9
$UCSXDIR
 10
1.0
 20
0.0
 30
0.0
  9
$UCSYDIR
 10
0.0
 20
1.0
 30
0.0
  9
$PUCSNAME
  2

  9
$PUCSORG
 10
0.0
 20
0.0
 30
0.0
  9
$PUCSXDIR
 10
1.0
 20
0.0
 30
0.0
  9
$PUCSYDIR
 10
0.0
 20
1.0
 30
0.0
  9
$USERI1
 70
     0
  9
$USERI2
 70
     0
  9
$USERI3
 70
     0
  9
$USERI4
 70
     0
  9
$USERI5
 70
     0
  9
$USERR1
 40
0.0
  9
$USERR2
 40
0.0
  9
$USERR3
 40
0.0
  9
$USERR4
 40
0.0
  9
$USERR5
 40
0.0
  9
$WORLDVIEW
 70
     1
  9
$SHADEDGE
 70
     3
  9
$SHADEDIF
 70
    70
  9
$TILEMODE
 70
     1
  9
$MAXACTVP
 70
    64
  9
$PLIMCHECK
 70
     0
  9
$PEXTMIN
 10
1.000000000000000E+20
 20
1.000000000000000E+20
 30
1.000000000000000E+20
  9
$PEXTMAX
 10
-1.000000000000000E+20
 20
-1.000000000000000E+20
 30
-1.000000000000000E+20
  9
$PLIMMIN
 10
0.0
 20
0.0
  9
$PLIMMAX
 10
0.0
 20
0.0
  9
$UNITMODE
 70
     0
  9
$VISRETAIN
 70
     1
  9
$PLINEGEN
 70
     0
  9
$PSLTSCALE
 70
     1
  0
ENDSEC
  0
SECTION
  2
TABLES
  0
TABLE
  2
VPORT
 70
     1
  0
VPORT
  2
*ACTIVE
 70
     0
 10
0.0
 20
0.0
 11
1.0
 21
1.0
 12
159.1869158878504
 22
34.0
 13
0.0
 23
0.0
 14
10.0
 24
10.0
 15
10.0
 25
10.0
 16
0.0
 26
0.0
 36
1.0
 17
-134.1869158878504
 27
0.0
 37
0.0
 40
205.0347826086957
 41
1.89041095890411
 42
50.0
 43
0.0
 44
0.0
 50
0.0
 51
0.0
 71
    16
 72
  1000
 73
     1
 74
     3
 75
     0
 76
     0
 77
     0
 78
     0
  0
ENDTAB
  0
TABLE
  2
LTYPE
 70
     1
  0
LTYPE
  2
CONTINUOUS
 70
     0
  3
Solid line
 72
    65
 73
     0
 40
0.0
  0
ENDTAB
  0
TABLE
  2
LAYER
 70
     1
  0
LAYER
  2
0
 70
     0
 62
     7
  6
CONTINUOUS
  0
ENDTAB
  0
TABLE
  2
STYLE
 70
     2
  0
STYLE
  2
STANDARD
 70
     0
 40
0.0
 41
1.0
 50
0.0
 71
     0
 42
2.5
  3
arial.ttf
  4

  0
STYLE
  2
ANNOTATIVE
 70
     0
 40
0.0
 41
1.0
 50
0.0
 71
     0
 42
2.5
  3
arial.ttf
  4

  0
ENDTAB
  0
TABLE
  2
VIEW
 70
     0
  0
ENDTAB
  0
TABLE
  2
UCS
 70
     0
  0
ENDTAB
  0
TABLE
  2
APPID
 70
     2
  0
APPID
  2
ACAD
 70
     0
  0
APPID
  2
ACADANNOTATIVE
 70
     0
  0
ENDTAB
  0
TABLE
  2
DIMSTYLE
 70
     2
  0
DIMSTYLE
  2
ISO-25
 70
     0
  3

  4

  5

  6

  7

 40
1.0
 41
2.5
 42
0.625
 43
3.75
 44
1.25
 45
0.0
 46
0.0
 47
0.0
 48
0.0
140
2.5
141
-2.5
142
0.0
143
0.03937007874016
144
1.0
145
0.0
146
1.0
147
0.625
 71
     0
 72
     0
 73
     0
 74
     0
 75
     0
 76
     0
 77
     1
 78
     8
170
     0
171
     3
172
     1
173
     0
174
     0
175
     0
176
     0
177
     0
178
     0
  0
DIMSTYLE
  2
ANNOTATIVE
 70
     0
  3

  4

  5

  6

  7

 40
0.0
 41
2.5
 42
0.625
 43
3.75
 44
1.25
 45
0.0
 46
0.0
 47
0.0
 48
0.0
140
2.5
141
-2.5
142
0.0
143
0.03937007874016
144
1.0
145
0.0
146
1.0
147
0.625
 71
     0
 72
     0
 73
     0
 74
     0
 75
     0
 76
     0
 77
     1
 78
     8
170
     0
171
     3
172
     1
173
     0
174
     0
175
     0
176
     0
177
     0
178
     0
  0
ENDTAB
  0
ENDSEC
  0
SECTION
  2
BLOCKS
  0
BLOCK
  8
0
  2
$MODEL_SPACE
 70
     0
 10
0.0
 20
0.0
 30
0.0
  3
$MODEL_SPACE
  1

  0
ENDBLK
  5
21
  8
0
  0
BLOCK
 67
     1
  8
0
  2
$PAPER_SPACE
 70
     0
 10
0.0
 20
0.0
 30
0.0
  3
$PAPER_SPACE
  1

  0
ENDBLK
  5
1D
 67
     1
  8
0
  0
BLOCK
  8
0
  2
*X1
 70
     1
 10
0.0
 20
0.0
 30
0.0
  3
*X1
  1

  0
POLYLINE
  5
C39
  8
0
 66
     1
 10
0.0
 20
0.0
 30
0.0
 70
    64
 71
    12
 72
    10
  0
VERTEX
  5
C3A
  8
0
 10
94.01583719762698
 20
39.09831120312444
 30
-94.1439305932737
 70
   192
  0
VERTEX
  5
C3B
  8
0
 10
106.5072645276319
 20
47.88038886988615
 30
-84.63892776967398
 70
   192
  0
VERTEX
  5
C3C
  8
0
 10
105.2345434547839
 20
48.79361924641059
 30
-86.4366859374748
 70
   192
  0
VERTEX
  5
C3D
  8
0
 10
93.77663056529991
 20
38.21180766983065
 30
-93.9109557925276
 70
   192
  0
VERTEX
  5
C3E
  8
0
 10
109.6778223035069
 20
66.0710578197691
 30
-87.79980993002115
 70
   192
  0
VERTEX
  5
C3F
  8
0
 10
104.0002280238474
 20
80.169735284963
 30
-98.4889591010936
 70
   192
  0
VERTEX
  5
C40
  8
0
 10
103.6525359764641
 20
79.3991815064748
 30
-98.63620473360305
 70
   192
  0
VERTEX
  5
C41
  8
0
 10
103.2916030970066
 20
78.63228335621365
 30
-98.77069443682423
 70
   192
  0
VERTEX
  5
C42
  8
0
 10
107.8938194216192
 20
65.04317189678021
 30
-89.44362465770595
 70
   192
  0
VERTEX
  5
C43
  8
0
 10
94.4040712554468
 20
40.91425847952235
 30
-94.5196271331801
 70
   192
  0
VERTEX
  5
C44
  8
0
 10
94.22521899719118
 20
40.00013989012679
 30
-94.3470489160894
 70
   192
  0
VERTEX
  5
C45
  8
0
 10
102.917654961011
 20
77.8696083660008
 30
-98.8923641035074
 70
   192
  0
VERTEX
  5
C46
  8
0
 10
0.0
 20
0.0
 30
0.0
 70
   128
 71
     1
 72
     2
 73
     3
  0
VERTEX
  5
C47
  8
0
 10
0.0
 20
0.0
 30
0.0
 70
   128
 71
     1
 72
     4
 73
     2
  0
VERTEX
  5
C48
  8
0
 10
0.0
 20
0.0
 30
0.0
 70
   128
 71
     5
 72
     6
 73
     7
  0
VERTEX
  5
C49
  8
0
 10
0.0
 20
0.0
 30
0.0
 70
   128
 71
     7
 72
     8
 73
     5
  0
VERTEX
  5
C4A
  8
0
 10
0.0
 20
0.0
 30
0.0
 70
   128
 71
     8
 72
     9
 73
     5
  0
VERTEX
  5
C4B
  8
0
 10
0.0
 20
0.0
 30
0.0
 70
   128
 71
     3
 72
    10
 73
    11
  0
VERTEX
  5
C4C
  8
0
 10
0.0
 20
0.0
 30
0.0
 70
   128
 71
    11
 72
     1
 73
     3
  0
VERTEX
  5
C4D
  8
0
 10
0.0
 20
0.0
 30
0.0
 70
   128
 71
     9
 72
     3
 73
     2
  0
VERTEX
  5
C4E
  8
0
 10
0.0
 20
0.0
 30
0.0
 70
   128
 71
     5
 72
     9
 73
     2
  0
VERTEX
  5
C4F
  8
0
 10
0.0
 20
0.0
 30
0.0
 70
   128
 71
     8
 72
    12
 73
     9
  0
SEQEND
  5
173E
  8
0
  0
POLYLINE
  5
C50
  8
0
 66
     1
 10
0.0
 20
0.0
 30
0.0
 70
    64
 71
    25
 72
    28
  0
VERTEX
  5
C51
  8
0
 10
133.2880539492606
 20
39.66893694563567
 30
0.0000000000000164
 70
   192
  0
VERTEX
  5
C52
  8
0
 10
117.4205989659392
 20
17.12117167720591
 30
0.0000000000000152
 70
   192
  0
VERTEX
  5
C53
  8
0
 10
93.93647917275128
 20
17.12117167720592
 30
70.45235937956346
 70
   192
  0
VERTEX
  5
C54
  8
0
 10
124.0447172339439
 20
80.16973528496189
 30
71.61725088656853
 70
   192
  0
VERTEX
  5
C55
  8
0
 10
143.234501773137
 20
80.16973528496189
 30
0.0000000000000398
 70
   192
  0
VERTEX
  5
C56
  8
0
 10
88.11868702330611
 20
6.08964791329663
 30
0.0000000000000135
 70
   192
  0
VERTEX
  5
C57
  8
0
 10
37.86886832149474
 20
0.137574087531891
 30
0.0000000000000111
 70
   192
  0
VERTEX
  5
C58
  8
0
 10
32.79540197898222
 20
0.137574087531891
 30
18.93443416074738
 70
   192
  0
VERTEX
  5
C59
  8
0
 10
18.93443416074739
 20
0.137574087531891
 30
32.79540197898221
 70
   192
  0
VERTEX
  5
C5A
  8
0
 10
0.0000000000000093
 20
0.137574087531891
 30
37.86886832149474
 70
   192
  0
VERTEX
  5
C5B
  8
0
 10
0.000000000000002
 20
17.12117167720593
 30
117.4205989659391
 70
   192
  0
VERTEX
  5
C5C
  8
0
 10
55.25675245455958
 20
17.12117167720592
 30
103.6064108522992
 70
   192
  0
VERTEX
  5
C5D
  8
0
 10
71.61725088656848
 20
80.16973528496189
 30
124.0447172339439
 70
   192
  0
VERTEX
  5
C5E
  8
0
 10
-18.93443416074737
 20
0.137574087531891
 30
32.79540197898223
 70
   192
  0
VERTEX
  5
C5F
  8
0
 10
-93.93647917275129
 20
17.12117167720593
 30
70.45235937956346
 70
   192
  0
VERTEX
  5
C60
  8
0
 10
-55.25675245455957
 20
17.12117167720592
 30
103.6064108522992
 70
   192
  0
VERTEX
  5
C61
  8
0
 10
-0.0000000000000557
 20
80.16973528496189
 30
143.234501773137
 70
   192
  0
VERTEX
  5
C62
  8
0
 10
-133.2880539492606
 20
39.66893694563567
 30
0.0
 70
   192
  0
VERTEX
  5
C63
  8
0
 10
-143.234501773137
 20
80.16973528496189
 30
0.0
 70
   192
  0
VERTEX
  5
C64
  8
0
 10
-124.0447172339439
 20
80.16973528496189
 30
71.61725088656847
 70
   192
  0
VERTEX
  5
C65
  8
0
 10
-117.4205989659392
 20
17.12117167720591
 30
0.0
 70
   192
  0
VERTEX
  5
C66
  8
0
 10
-88.11868702330611
 20
6.08964791329663
 30
0.0
 70
   192
  0
VERTEX
  5
C67
  8
0
 10
-32.79540197898222
 20
0.137574087531891
 30
18.93443416074738
 70
   192
  0
VERTEX
  5
C68
  8
0
 10
-37.86886832149474
 20
0.137574087531891
 30
0.0000000000000023
 70
   192
  0
VERTEX
  5
C69
  8
0
 10
-71.61725088656854
 20
80.16973528496189
 30
124.0447172339439
 70
   192
  0
VERTEX
  5
C6A
  8
0
 10
0.0
 20
0.0
 30
0.0
 70
   128
 71
     1
 72
     2
 73
     3
  0
VERTEX
  5
C6B
  8
0
 10
0.0
 20
0.0
 30
0.0
 70
   128
 71
     4
 72
     5
 73
     1
  0
VERTEX
  5
C6C
  8
0
 10
0.0
 20
0.0
 30
0.0
 70
   128
 71
     6
 72
     7
 73
     8
  0
VERTEX
  5
C6D
  8
0
 10
0.0
 20
0.0
 30
0.0
 70
   128
 71
     8
 72
     3
 73
     2
  0
VERTEX
  5
C6E
  8
0
 10
0.0
 20
0.0
 30
0.0
 70
   128
 71
     8
 72
     2
 73
     6
  0
VERTEX
  5
C6F
  8
0
 10
0.0
 20
0.0
 30
0.0
 70
   128
 71
     9
 72
    10
 73
    11
  0
VERTEX
  5
C70
  8
0
 10
0.0
 20
0.0
 30
0.0
 70
   128
 71
     9
 72
    11
 73
    12
  0
VERTEX
  5
C71
  8
0
 10
0.0
 20
0.0
 30
0.0
 70
   128
 71
    13
 72
     3
 73
    12
  0
VERTEX
  5
C72
  8
0
 10
0.0
 20
0.0
 30
0.0
 70
   128
 71
    14
 72
    15
 73
    16
  0
VERTEX
  5
C73
  8
0
 10
0.0
 20
0.0
 30
0.0
 70
   128
 71
    16
 72
    11
 73
    10
  0
VERTEX
  5
C74
  8
0
 10
0.0
 20
0.0
 30
0.0
 70
   128
 71
    16
 72
    10
 73
    14
  0
VERTEX
  5
C75
  8
0
 10
0.0
 20
0.0
 30
0.0
 70
   128
 71
    16
 72
    17
 73
    11
  0
VERTEX
  5
C76
  8
0
 10
0.0
 20
0.0
 30
0.0
 70
   128
 71
    18
 72
    19
 73
    20
  0
VERTEX
  5
C77
  8
0
 10
0.0
 20
0.0
 30
0.0
 70
   128
 71
    20
 72
    15
 73
    21
  0
VERTEX
  5
C78
  8
0
 10
0.0
 20
0.0
 30
0.0
 70
   128
 71
    20
 72
    21
 73
    18
  0
VERTEX
  5
C79
  8
0
 10
0.0
 20
0.0
 30
0.0
 70
   128
 71
    22
 72
    21
 73
    15
  0
VERTEX
  5
C7A
  8
0
 10
0.0
 20
0.0
 30
0.0
 70
   128
 71
    23
 72
    24
 73
    22
  0
VERTEX
  5
C7B
  8
0
 10
0.0
 20
0.0
 30
0.0
 70
   128
 71
     9
 72
    12
 73
     3
  0
VERTEX
  5
C7C
  8
0
 10
0.0
 20
0.0
 30
0.0
 70
   128
 71
     9
 72
     3
 73
     8
  0
VERTEX
  5
C7D
  8
0
 10
0.0
 20
0.0
 30
0.0
 70
   128
 71
    13
 72
     4
 73
     1
  0
VERTEX
  5
C7E
  8
0
 10
0.0
 20
0.0
 30
0.0
 70
   128
 71
    13
 72
     1
 73
     3
  0
VERTEX
  5
C7F
  8
0
 10
0.0
 20
0.0
 30
0.0
 70
   128
 71
    11
 72
    17
 73
    13
  0
VERTEX
  5
C80
  8
0
 10
0.0
 20
0.0
 30
0.0
 70
   128
 71
    11
 72
    13
 73
    12
  0
VERTEX
  5
C81
  8
0
 10
0.0
 20
0.0
 30
0.0
 70
   128
 71
    23
 72
    22
 73
    15
  0
VERTEX
  5
C82
  8
0
 10
0.0
 20
0.0
 30
0.0
 70
   128
 71
    23
 72
    15
 73
    14
  0
VERTEX
  5
C83
  8
0
 10
0.0
 20
0.0
 30
0.0
 70
   128
 71
    20
 72
    25
 73
    16
  0
VERTEX
  5
C84
  8
0
 10
0.0
 20
0.0
 30
0.0
 70
   128
 71
    20
 72
    16
 73
    15
  0
VERTEX
  5
C85
  8
0
 10
0.0
 20
0.0
 30
0.0
 70
   128
 71
    25
 72
    17
 73
    16
  0
SEQEND
  5
173F
  8
0
  0
POLYLINE
  5
C86
  8
0
 66
     1
 10
0.0
 20
0.0
 30
0.0
 70
    64
 71
    39
 72
    42
  0
VERTEX
  5
C87
  8
0
 10
-60.68024227203939
 20
-9.74326072682973
 30
-35.03375421025368
 70
   192
  0
VERTEX
  5
C88
  8
0
 10
-70.06750842050731
 20
-9.74326072682973
 30
-0.0000000000000129
 70
   192
  0
VERTEX
  5
C89
  8
0
 10
-100.8795887295595
 20
-4.330181644712643
 30
0.0000000000000009
 70
   192
  0
VERTEX
  5
C8A
  8
0
 10
-124.3753240316272
 20
6.107892935422491
 30
0.0000000000000011
 70
   192
  0
VERTEX
  5
C8B
  8
0
 10
-104.5125276208708
 20
11.32832263228659
 30
-78.3843957156532
 70
   192
  0
VERTEX
  5
C8C
  8
0
 10
0.0000000000001172
 20
11.32832263228659
 30
-130.6406595260885
 70
   192
  0
VERTEX
  5
C8D
  8
0
 10
0.0000000000000039
 20
-9.74326072682973
 30
-70.06750842050731
 70
   192
  0
VERTEX
  5
C8E
  8
0
 10
-35.03375421025363
 20
-9.74326072682973
 30
-60.68024227203941
 70
   192
  0
VERTEX
  5
C8F
  8
0
 10
-61.47795742404158
 20
11.32832263228659
 30
-115.2711701700781
 70
   192
  0
VERTEX
  5
C90
  8
0
 10
-65.1844355291541
 20
24.64430939898665
 30
-124.6456921967296
 70
   192
  0
VERTEX
  5
C91
  8
0
 10
-49.01257186978231
 20
32.67040500820186
 30
-135.9279062957637
 70
   192
  0
VERTEX
  5
C92
  8
0
 10
-40.39422462801302
 20
50.44947362495314
 30
-144.70038189618
 70
   192
  0
VERTEX
  5
C93
  8
0
 10
61.47795742404176
 20
11.32832263228659
 30
-115.271170170078
 70
   192
  0
VERTEX
  5
C94
  8
0
 10
104.5125276208709
 20
11.32832263228659
 30
-78.38439571565299
 70
   192
  0
VERTEX
  5
C95
  8
0
 10
35.03375421025367
 20
-9.74326072682973
 30
-60.68024227203939
 70
   192
  0
VERTEX
  5
C96
  8
0
 10
82.7521308492213
 20
49.3045639658997
 30
-125.029891049921
 70
   192
  0
VERTEX
  5
C97
  8
0
 10
87.32713350071147
 20
32.02747003081095
 30
-114.7828733973617
 70
   192
  0
VERTEX
  5
C98
  8
0
 10
99.67586972729876
 20
25.23622730880789
 30
-99.70667589501014
 70
   192
  0
VERTEX
  5
C99
  8
0
 10
114.7467798327235
 20
31.99345741213582
 30
-87.35084732487876
 70
   192
  0
VERTEX
  5
C9A
  8
0
 10
45.27436593555199
 20
70.948046978642
 30
-147.9554953267424
 70
   192
  0
VERTEX
  5
C9B
  8
0
 10
5.14001884805155
 20
70.948046978642
 30
-154.6420932815177
 70
   192
  0
VERTEX
  5
C9C
  8
0
 10
144.04382828478
 20
70.948046978642
 30
-56.49754279004313
 70
   192
  0
VERTEX
  5
C9D
  8
0
 10
125.0298910499344
 20
49.3045639658956
 30
-82.7521308491991
 70
   192
  0
VERTEX
  5
C9E
  8
0
 10
127.0928517678799
 20
56.37530992174172
 30
-82.78165828003736
 70
   192
  0
VERTEX
  5
C9F
  8
0
 10
129.0996556698968
 20
63.58990970874956
 30
-82.58494104110605
 70
   192
  0
VERTEX
  5
CA0
  8
0
 10
131.0378728924658
 20
70.948046978642
 30
-82.27802061344174
 70
   192
  0
VERTEX
  5
CA1
  8
0
 10
152.0331166386051
 20
70.948046978642
 30
-28.7494044007915
 70
   192
  0
VERTEX
  5
CA2
  8
0
 10
154.7274920893115
 20
70.948046978642
 30
-0.0000000000000284
 70
   192
  0
VERTEX
  5
CA3
  8
0
 10
141.9048376824094
 20
26.99766764771886
 30
0.0000000000000174
 70
   192
  0
VERTEX
  5
CA4
  8
0
 10
114.6265519202137
 20
0.5223677266890904
 30
0.000000000000014
 70
   192
  0
VERTEX
  5
CA5
  8
0
 10
70.06750842050694
 20
-9.743260726829778
 30
0.0000000000000397
 70
   192
  0
VERTEX
  5
CA6
  8
0
 10
60.68024227203941
 20
-9.74326072682973
 30
-35.03375421025363
 70
   192
  0
VERTEX
  5
CA7
  8
0
 10
-35.34975713746559
 20
70.948046978642
 30
-150.635292938176
 70
   192
  0
VERTEX
  5
CA8
  8
0
 10
-140.661150352385
 20
24.64430939898665
 30
0.0
 70
   192
  0
VERTEX
  5
CA9
  8
0
 10
-126.2453679440871
 20
24.6443054155764
 30
-62.02957698142595
 70
   192
  0
VERTEX
  5
CAA
  8
0
 10
82.27802061343665
 20
70.948046978642
 30
-131.037872892469
 70
   192
  0
VERTEX
  5
CAB
  8
0
 10
82.58537377133385
 20
63.5779518535395
 30
-129.0964203764702
 70
   192
  0
VERTEX
  5
CAC
  8
0
 10
82.78176194528798
 20
56.36799888269562
 30
-127.0907692911742
 70
   192
  0
VERTEX
  5
CAD
  8
0
 10
-102.7856260266107
 20
24.64430611414126
 30
-96.02435134263483
 70
   192
  0
VERTEX
  5
CAE
  8
0
 10
0.0
 20
0.0
 30
0.0
 70
   128
 71
     1
 72
     2
 73
     3
  0
VERTEX
  5
CAF
  8
0
 10
0.0
 20
0.0
 30
0.0
 70
   128
 71
     4
 72
     5
 73
     1
  0
VERTEX
  5
CB0
  8
0
 10
0.0
 20
0.0
 30
0.0
 70
   128
 71
     3
 72
     4
 73
     1
  0
VERTEX
  5
CB1
  8
0
 10
0.0
 20
0.0
 30
0.0
 70
   128
 71
     6
 72
     7
 73
     8
  0
VERTEX
  5
CB2
  8
0
 10
0.0
 20
0.0
 30
0.0
 70
   128
 71
     9
 72
     6
 73
     8
  0
VERTEX
  5
CB3
  8
0
 10
0.0
 20
0.0
 30
0.0
 70
   128
 71
    10
 72
    11
 73
     9
  0
VERTEX
  5
CB4
  8
0
 10
0.0
 20
0.0
 30
0.0
 70
   128
 71
     6
 72
     9
 73
    11
  0
VERTEX
  5
CB5
  8
0
 10
0.0
 20
0.0
 30
0.0
 70
   128
 71
    11
 72
    12
 73
     6
  0
VERTEX
  5
CB6
  8
0
 10
0.0
 20
0.0
 30
0.0
 70
   128
 71
    13
 72
    14
 73
    15
  0
VERTEX
  5
CB7
  8
0
 10
0.0
 20
0.0
 30
0.0
 70
   128
 71
     7
 72
     6
 73
    13
  0
VERTEX
  5
CB8
  8
0
 10
0.0
 20
0.0
 30
0.0
 70
   128
 71
    15
 72
     7
 73
    13
  0
VERTEX
  5
CB9
  8
0
 10
0.0
 20
0.0
 30
0.0
 70
   128
 71
    16
 72
    17
 73
    13
  0
VERTEX
  5
CBA
  8
0
 10
0.0
 20
0.0
 30
0.0
 70
   128
 71
    18
 72
    14
 73
    13
  0
VERTEX
  5
CBB
  8
0
 10
0.0
 20
0.0
 30
0.0
 70
   128
 71
    17
 72
    18
 73
    13
  0
VERTEX
  5
CBC
  8
0
 10
0.0
 20
0.0
 30
0.0
 70
   128
 71
    18
 72
    19
 73
    14
  0
VERTEX
  5
CBD
  8
0
 10
0.0
 20
0.0
 30
0.0
 70
   128
 71
    20
 72
    13
 73
     6
  0
VERTEX
  5
CBE
  8
0
 10
0.0
 20
0.0
 30
0.0
 70
   128
 71
    21
 72
    20
 73
     6
  0
VERTEX
  5
CBF
  8
0
 10
0.0
 20
0.0
 30
0.0
 70
   128
 71
    22
 72
    14
 73
    23
  0
VERTEX
  5
CC0
  8
0
 10
0.0
 20
0.0
 30
0.0
 70
   128
 71
    23
 72
    24
 73
    22
  0
VERTEX
  5
CC1
  8
0
 10
0.0
 20
0.0
 30
0.0
 70
   128
 71
    24
 72
    25
 73
    22
  0
VERTEX
  5
CC2
  8
0
 10
0.0
 20
0.0
 30
0.0
 70
   128
 71
    25
 72
    26
 73
    22
  0
VERTEX
  5
CC3
  8
0
 10
0.0
 20
0.0
 30
0.0
 70
   128
 71
    22
 72
    27
 73
    14
  0
VERTEX
  5
CC4
  8
0
 10
0.0
 20
0.0
 30
0.0
 70
   128
 71
    27
 72
    28
 73
    29
  0
VERTEX
  5
CC5
  8
0
 10
0.0
 20
0.0
 30
0.0
 70
   128
 71
    30
 72
    31
 73
    32
  0
VERTEX
  5
CC6
  8
0
 10
0.0
 20
0.0
 30
0.0
 70
   128
 71
    12
 72
    33
 73
    21
  0
VERTEX
  5
CC7
  8
0
 10
0.0
 20
0.0
 30
0.0
 70
   128
 71
     6
 72
    12
 73
    21
  0
VERTEX
  5
CC8
  8
0
 10
0.0
 20
0.0
 30
0.0
 70
   128
 71
     5
 72
     9
 73
     8
  0
VERTEX
  5
CC9
  8
0
 10
0.0
 20
0.0
 30
0.0
 70
   128
 71
     1
 72
     5
 73
     8
  0
VERTEX
  5
CCA
  8
0
 10
0.0
 20
0.0
 30
0.0
 70
   128
 71
    34
 72
    35
 73
     5
  0
VERTEX
  5
CCB
  8
0
 10
0.0
 20
0.0
 30
0.0
 70
   128
 71
     4
 72
    34
 73
     5
  0
VERTEX
  5
CCC
  8
0
 10
0.0
 20
0.0
 30
0.0
 70
   128
 71
    14
 72
    30
 73
    32
  0
VERTEX
  5
CCD
  8
0
 10
0.0
 20
0.0
 30
0.0
 70
   128
 71
    15
 72
    14
 73
    32
  0
VERTEX
  5
CCE
  8
0
 10
0.0
 20
0.0
 30
0.0
 70
   128
 71
    20
 72
    36
 73
    37
  0
VERTEX
  5
CCF
  8
0
 10
0.0
 20
0.0
 30
0.0
 70
   128
 71
    37
 72
    38
 73
    20
  0
VERTEX
  5
CD0
  8
0
 10
0.0
 20
0.0
 30
0.0
 70
   128
 71
    16
 72
    13
 73
    20
  0
VERTEX
  5
CD1
  8
0
 10
0.0
 20
0.0
 30
0.0
 70
   128
 71
    38
 72
    16
 73
    20
  0
VERTEX
  5
CD2
  8
0
 10
0.0
 20
0.0
 30
0.0
 70
   128
 71
    14
 72
    27
 73
    29
  0
VERTEX
  5
CD3
  8
0
 10
0.0
 20
0.0
 30
0.0
 70
   128
 71
    30
 72
    14
 73
    29
  0
VERTEX
  5
CD4
  8
0
 10
0.0
 20
0.0
 30
0.0
 70
   128
 71
     5
 72
    35
 73
    39
  0
VERTEX
  5
CD5
  8
0
 10
0.0
 20
0.0
 30
0.0
 70
   128
 71
     5
 72
    39
 73
    10
  0
VERTEX
  5
CD6
  8
0
 10
0.0
 20
0.0
 30
0.0
 70
   128
 71
     9
 72
     5
 73
    10
  0
VERTEX
  5
CD7
  8
0
 10
0.0
 20
0.0
 30
0.0
 70
   128
 71
    14
 72
    19
 73
    23
  0
SEQEND
  5
1740
  8
0
  0
POLYLINE
  5
CD8
  8
0
 66
     1
 10
0.0
 20
0.0
 30
0.0
 70
    64
 71
    10
 72
     8
  0
VERTEX
  5
CD9
  8
0
 10
-36.47135802387965
 20
74.5174911124692
 30
-153.2717917163845
 70
   192
  0
VERTEX
  5
CDA
  8
0
 10
-36.47135802387965
 20
75.0
 30
-155.4147508967615
 70
   192
  0
VERTEX
  5
CDB
  8
0
 10
-35.96421493013996
 20
74.48023879796266
 30
-153.2536710288014
 70
   192
  0
VERTEX
  5
CDC
  8
0
 10
-35.34975713746565
 20
70.94804697864201
 30
-150.6352929381763
 70
   192
  0
VERTEX
  5
CDD
  8
0
 10
-35.68162778702965
 20
71.02846005480549
 30
-150.5872384163123
 70
   192
  0
VERTEX
  5
CDE
  8
0
 10
-35.71991641421942
 20
71.03773748352192
 30
-150.581694263267
 70
   192
  0
VERTEX
  5
CDF
  8
0
 10
-35.5625091580031
 20
73.02901587470798
 30
-151.5418893487893
 70
   192
  0
VERTEX
  5
CE0
  8
0
 10
-36.09452227440319
 20
71.1212872766824
 30
-150.5566947360047
 70
   192
  0
VERTEX
  5
CE1
  8
0
 10
-36.47135802387964
 20
71.19820196026059
 30
-150.5604422886868
 70
   192
  0
VERTEX
  5
CE2
  8
0
 10
-36.47135802387965
 20
73.16309038049529
 30
-151.5424312760667
 70
   192
  0
VERTEX
  5
CE3
  8
0
 10
0.0
 20
0.0
 30
0.0
 70
   128
 71
     1
 72
     2
 73
     3
  0
VERTEX
  5
CE4
  8
0
 10
0.0
 20
0.0
 30
0.0
 70
   128
 71
     4
 72
     5
 73
     6
  0
VERTEX
  5
CE5
  8
0
 10
0.0
 20
0.0
 30
0.0
 70
   128
 71
     7
 72
     4
 73
     6
  0
VERTEX
  5
CE6
  8
0
 10
0.0
 20
0.0
 30
0.0
 70
   128
 71
     7
 72
     6
 73
     8
  0
VERTEX
  5
CE7
  8
0
 10
0.0
 20
0.0
 30
0.0
 70
   128
 71
     9
 72
    10
 73
     8
  0
VERTEX
  5
CE8
  8
0
 10
0.0
 20
0.0
 30
0.0
 70
   128
 71
     3
 72
     7
 73
     8
  0
VERTEX
  5
CE9
  8
0
 10
0.0
 20
0.0
 30
0.0
 70
   128
 71
     1
 72
     3
 73
     8
  0
VERTEX
  5
CEA
  8
0
 10
0.0
 20
0.0
 30
0.0
 70
   128
 71
    10
 72
     1
 73
     8
  0
SEQEND
  5
1741
  8
0
  0
POLYLINE
  5
CEB
  8
0
 66
     1
 10
0.0
 20
0.0
 30
0.0
 70
    64
 71
     9
 72
     7
  0
VERTEX
  5
CEC
  8
0
 10
156.3856659664027
 20
74.40100695590056
 30
38.63664361743498
 70
   192
  0
VERTEX
  5
CED
  8
0
 10
155.4147508967615
 20
73.06319972060933
 30
40.42316868124395
 70
   192
  0
VERTEX
  5
CEE
  8
0
 10
155.4147508967615
 20
74.48976606311768
 30
38.67181268109854
 70
   192
  0
VERTEX
  5
CEF
  8
0
 10
155.4147508967615
 20
75.0
 30
36.4713580238796
 70
   192
  0
VERTEX
  5
CF0
  8
0
 10
157.4527190618269
 20
70.43577871373829
 30
41.01633136492703
 70
   192
  0
VERTEX
  5
CF1
  8
0
 10
156.7973754401647
 20
70.64234859312441
 30
41.23326285880539
 70
   192
  0
VERTEX
  5
CF2
  8
0
 10
156.113317159481
 20
70.83557803174337
 30
41.35129803677499
 70
   192
  0
VERTEX
  5
CF3
  8
0
 10
157.1239524867934
 20
72.74754489035405
 30
40.28313280737898
 70
   192
  0
VERTEX
  5
CF4
  8
0
 10
155.4147508967615
 20
71.01145399693975
 30
41.36798551758117
 70
   192
  0
VERTEX
  5
CF5
  8
0
 10
0.0
 20
0.0
 30
0.0
 70
   128
 71
     1
 72
     2
 73
     3
  0
VERTEX
  5
CF6
  8
0
 10
0.0
 20
0.0
 30
0.0
 70
   128
 71
     3
 72
     4
 73
     1
  0
VERTEX
  5
CF7
  8
0
 10
0.0
 20
0.0
 30
0.0
 70
   128
 71
     5
 72
     6
 73
     7
  0
VERTEX
  5
CF8
  8
0
 10
0.0
 20
0.0
 30
0.0
 70
   128
 71
     8
 72
     5
 73
     7
  0
VERTEX
  5
CF9
  8
0
 10
0.0
 20
0.0
 30
0.0
 70
   128
 71
     2
 72
     1
 73
     8
  0
VERTEX
  5
CFA
  8
0
 10
0.0
 20
0.0
 30
0.0
 70
   128
 71
     2
 72
     8
 73
     7
  0
VERTEX
  5
CFB
  8
0
 10
0.0
 20
0.0
 30
0.0
 70
   128
 71
     9
 72
     2
 73
     7
  0
SEQEND
  5
1742
  8
0
  0
POLYLINE
  5
CFC
  8
0
 66
     1
 10
0.0
 20
0.0
 30
0.0
 70
    64
 71
    12
 72
    10
  0
VERTEX
  5
CFD
  8
0
 10
132.4858401237156
 20
75.0
 30
-90.6399285222017
 70
   192
  0
VERTEX
  5
CFE
  8
0
 10
131.8796134572089
 20
74.80692513891206
 30
-90.03370185569501
 70
   192
  0
VERTEX
  5
CFF
  8
0
 10
131.3904339201258
 20
74.26497845763238
 30
-89.54452231861191
 70
   192
  0
VERTEX
  5
D00
  8
0
 10
131.1127497836356
 20
73.47879623636611
 30
-89.26683818212179
 70
   192
  0
VERTEX
  5
D01
  8
0
 10
131.3949007371403
 20
73.53814144463452
 30
-88.94136782453332
 70
   192
  0
VERTEX
  5
D02
  8
0
 10
131.5898897754625
 20
73.57374856959557
 30
-88.57669755328456
 70
   192
  0
VERTEX
  5
D03
  8
0
 10
131.6950498163978
 20
73.58561761124922
 30
-88.19040708958528
 70
   192
  0
VERTEX
  5
D04
  8
0
 10
132.1013846603209
 20
74.32133482778227
 30
-88.25205359798743
 70
   192
  0
VERTEX
  5
D05
  8
0
 10
132.7712653023253
 20
74.82245296997817
 30
-88.35368357937682
 70
   192
  0
VERTEX
  5
D06
  8
0
 10
133.585756423954
 20
75.0
 30
-88.4772529323966
 70
   192
  0
VERTEX
  5
D07
  8
0
 10
133.3787151584681
 20
75.00000000000001
 30
-89.26470633768996
 70
   192
  0
VERTEX
  5
D08
  8
0
 10
133.0043066511028
 20
75.0
 30
-90.00087520737469
 70
   192
  0
VERTEX
  5
D09
  8
0
 10
0.0
 20
0.0
 30
0.0
 70
   128
 71
     8
 72
     7
 73
     6
  0
VERTEX
  5
D0A
  8
0
 10
0.0
 20
0.0
 30
0.0
 70
   128
 71
     6
 72
    11
 73
     9
  0
VERTEX
  5
D0B
  8
0
 10
0.0
 20
0.0
 30
0.0
 70
   128
 71
     6
 72
     9
 73
     8
  0
VERTEX
  5
D0C
  8
0
 10
0.0
 20
0.0
 30
0.0
 70
   128
 71
    11
 72
    10
 73
     9
  0
VERTEX
  5
D0D
  8
0
 10
0.0
 20
0.0
 30
0.0
 70
   128
 71
     6
 72
     5
 73
    12
  0
VERTEX
  5
D0E
  8
0
 10
0.0
 20
0.0
 30
0.0
 70
   128
 71
     6
 72
    12
 73
    11
  0
VERTEX
  5
D0F
  8
0
 10
0.0
 20
0.0
 30
0.0
 70
   128
 71
     2
 72
     1
 73
    12
  0
VERTEX
  5
D10
  8
0
 10
0.0
 20
0.0
 30
0.0
 70
   128
 71
    12
 72
     5
 73
     3
  0
VERTEX
  5
D11
  8
0
 10
0.0
 20
0.0
 30
0.0
 70
   128
 71
    12
 72
     3
 73
     2
  0
VERTEX
  5
D12
  8
0
 10
0.0
 20
0.0
 30
0.0
 70
   128
 71
     5
 72
     4
 73
     3
  0
SEQEND
  5
1743
  8
0
  0
POLYLINE
  5
D13
  8
0
 66
     1
 10
0.0
 20
0.0
 30
0.0
 70
    64
 71
    13
 72
    11
  0
VERTEX
  5
D14
  8
0
 10
87.81690451619127
 20
73.5754107600357
 30
-131.7116803798659
 70
   192
  0
VERTEX
  5
D15
  8
0
 10
87.90300396278569
 20
73.57955143513401
 30
-131.7148591032074
 70
   192
  0
VERTEX
  5
D16
  8
0
 10
86.7915471281955
 20
49.38257792079121
 30
-124.3888377093486
 70
   192
  0
VERTEX
  5
D17
  8
0
 10
86.66023200323829
 20
49.38935619017343
 30
-124.3863721812505
 70
   192
  0
VERTEX
  5
D18
  8
0
 10
87.7306040597787
 20
73.57019346163021
 30
-131.7043092588831
 70
   192
  0
VERTEX
  5
D19
  8
0
 10
87.00005952413251
 20
73.2822949879279
 30
-131.4087895534986
 70
   192
  0
VERTEX
  5
D1A
  8
0
 10
87.18854906684787
 20
73.42690388111592
 30
-131.5345688384427
 70
   192
  0
VERTEX
  5
D1B
  8
0
 10
87.40339851138145
 20
73.51999506506466
 30
-131.6317616872249
 70
   192
  0
VERTEX
  5
D1C
  8
0
 10
86.52948467456682
 20
49.39861108573403
 30
-124.3756405103374
 70
   192
  0
VERTEX
  5
D1D
  8
0
 10
86.39987048336029
 20
49.41030259003157
 30
-124.3566890995115
 70
   192
  0
VERTEX
  5
D1E
  8
0
 10
86.65875250975094
 20
57.23864652507923
 30
-126.7030786356371
 70
   192
  0
VERTEX
  5
D1F
  8
0
 10
86.84480039677051
 20
65.21117484754959
 30
-129.0598527023516
 70
   192
  0
VERTEX
  5
D20
  8
0
 10
87.6442637273105
 20
73.5638995399175
 30
-131.6927212940814
 70
   192
  0
VERTEX
  5
D21
  8
0
 10
0.0
 20
0.0
 30
0.0
 70
   128
 71
     1
 72
     2
 73
     3
  0
VERTEX
  5
D22
  8
0
 10
0.0
 20
0.0
 30
0.0
 70
   128
 71
     3
 72
     4
 73
     5
  0
VERTEX
  5
D23
  8
0
 10
0.0
 20
0.0
 30
0.0
 70
   128
 71
     3
 72
     5
 73
     1
  0
VERTEX
  5
D24
  8
0
 10
0.0
 20
0.0
 30
0.0
 70
   128
 71
     6
 72
     7
 73
     8
  0
VERTEX
  5
D25
  8
0
 10
0.0
 20
0.0
 30
0.0
 70
   128
 71
     9
 72
    10
 73
    11
  0
VERTEX
  5
D26
  8
0
 10
0.0
 20
0.0
 30
0.0
 70
   128
 71
    11
 72
     4
 73
     9
  0
VERTEX
  5
D27
  8
0
 10
0.0
 20
0.0
 30
0.0
 70
   128
 71
    12
 72
     6
 73
     8
  0
VERTEX
  5
D28
  8
0
 10
0.0
 20
0.0
 30
0.0
 70
   128
 71
    12
 72
     8
 73
    13
  0
VERTEX
  5
D29
  8
0
 10
0.0
 20
0.0
 30
0.0
 70
   128
 71
    13
 72
    11
 73
    12
  0
VERTEX
  5
D2A
  8
0
 10
0.0
 20
0.0
 30
0.0
 70
   128
 71
    11
 72
    13
 73
     5
  0
VERTEX
  5
D2B
  8
0
 10
0.0
 20
0.0
 30
0.0
 70
   128
 71
     5
 72
     4
 73
    11
  0
SEQEND
  5
1744
  8
0
  0
POLYLINE
  5
D2C
  8
0
 66
     1
 10
0.0
 20
0.0
 30
0.0
 70
    64
 71
    11
 72
     9
  0
VERTEX
  5
D2D
  8
0
 10
97.9204871510563
 20
53.80300223724328
 30
-115.5981566806491
 70
   192
  0
VERTEX
  5
D2E
  8
0
 10
88.44616380450496
 20
57.1066962681688
 30
-106.1238333341019
 70
   192
  0
VERTEX
  5
D2F
  8
0
 10
88.89047719948789
 20
49.9730296014426
 30
-103.1920122698703
 70
   192
  0
VERTEX
  5
D30
  8
0
 10
99.01308367724157
 20
45.22118761176049
 30
-111.5130836771815
 70
   192
  0
VERTEX
  5
D31
  8
0
 10
104.6433215062426
 20
41.6664836041134
 30
-104.6433215062075
 70
   192
  0
VERTEX
  5
D32
  8
0
 10
92.54121243845836
 20
45.56418113699364
 30
-98.00391274402669
 70
   192
  0
VERTEX
  5
D33
  8
0
 10
106.12383333413
 20
57.1066962681688
 30
-88.44616380446922
 70
   192
  0
VERTEX
  5
D34
  8
0
 10
115.5981566806849
 20
53.80300223724208
 30
-97.9204871510201
 70
   192
  0
VERTEX
  5
D35
  8
0
 10
111.5130836772167
 20
45.22118761175966
 30
-99.01308367720603
 70
   192
  0
VERTEX
  5
D36
  8
0
 10
103.1920122698987
 20
49.9730296014426
 30
-88.89047719945336
 70
   192
  0
VERTEX
  5
D37
  8
0
 10
98.00391274405666
 20
45.56418113699364
 30
-92.54121243842606
 70
   192
  0
VERTEX
  5
D38
  8
0
 10
0.0
 20
0.0
 30
0.0
 70
   128
 71
     1
 72
     2
 73
     3
  0
VERTEX
  5
D39
  8
0
 10
0.0
 20
0.0
 30
0.0
 70
   128
 71
     4
 72
     1
 73
     3
  0
VERTEX
  5
D3A
  8
0
 10
0.0
 20
0.0
 30
0.0
 70
   128
 71
     5
 72
     4
 73
     6
  0
VERTEX
  5
D3B
  8
0
 10
0.0
 20
0.0
 30
0.0
 70
   128
 71
     7
 72
     8
 73
     9
  0
VERTEX
  5
D3C
  8
0
 10
0.0
 20
0.0
 30
0.0
 70
   128
 71
    10
 72
     7
 73
     9
  0
VERTEX
  5
D3D
  8
0
 10
0.0
 20
0.0
 30
0.0
 70
   128
 71
    11
 72
     5
 73
     6
  0
VERTEX
  5
D3E
  8
0
 10
0.0
 20
0.0
 30
0.0
 70
   128
 71
     6
 72
     4
 73
     3
  0
VERTEX
  5
D3F
  8
0
 10
0.0
 20
0.0
 30
0.0
 70
   128
 71
     9
 72
     5
 73
    11
  0
VERTEX
  5
D40
  8
0
 10
0.0
 20
0.0
 30
0.0
 70
   128
 71
    10
 72
     9
 73
    11
  0
SEQEND
  5
1745
  8
0
  0
POLYLINE
  5
D41
  8
0
 66
     1
 10
0.0
 20
0.0
 30
0.0
 70
    64
 71
     8
 72
     6
  0
VERTEX
  5
D42
  8
0
 10
109.536815854796
 20
0.0
 30
123.3964585083077
 70
   192
  0
VERTEX
  5
D43
  8
0
 10
107.562259410409
 20
85.1744974835125
 30
121.1720623501691
 70
   192
  0
VERTEX
  5
D44
  8
0
 10
57.52967612138513
 20
85.1744974835125
 30
151.4682960524543
 70
   192
  0
VERTEX
  5
D45
  8
0
 10
58.58576766642744
 20
0.0
 30
154.2488503261382
 70
   192
  0
VERTEX
  5
D46
  8
0
 10
146.2133585637325
 20
0.0
 30
76.46341463414636
 70
   192
  0
VERTEX
  5
D47
  8
0
 10
143.5776554245229
 20
85.1744974835125
 30
75.08505314949394
 70
   192
  0
VERTEX
  5
D48
  8
0
 10
0.0000000000000198
 20
85.1744974835125
 30
162.025641006803
 70
   192
  0
VERTEX
  5
D49
  8
0
 10
0.0
 20
0.0
 30
165.0
 70
   192
  0
VERTEX
  5
D4A
  8
0
 10
0.0
 20
0.0
 30
0.0
 70
   128
 71
     1
 72
     2
 73
    -3
  0
VERTEX
  5
D4B
  8
0
 10
0.0
 20
0.0
 30
0.0
 70
   128
 71
    -1
 72
     3
 73
     4
  0
VERTEX
  5
D4C
  8
0
 10
0.0
 20
0.0
 30
0.0
 70
   128
 71
     5
 72
     6
 73
    -2
  0
VERTEX
  5
D4D
  8
0
 10
0.0
 20
0.0
 30
0.0
 70
   128
 71
    -5
 72
     2
 73
     1
  0
VERTEX
  5
D4E
  8
0
 10
0.0
 20
0.0
 30
0.0
 70
   128
 71
     4
 72
     3
 73
    -7
  0
VERTEX
  5
D4F
  8
0
 10
0.0
 20
0.0
 30
0.0
 70
   128
 71
    -4
 72
     7
 73
     8
  0
SEQEND
  5
1746
  8
0
  0
POLYLINE
  5
D50
  8
0
 66
     1
 10
0.0
 20
0.0
 30
0.0
 70
    64
 71
    17
 72
    18
  0
VERTEX
  5
D51
  8
0
 10
0.0
 20
26.77271103426623
 30
142.9598541763618
 70
   192
  0
VERTEX
  5
D52
  8
0
 10
0.0
 20
24.64430939898661
 30
140.6611503523852
 70
   192
  0
VERTEX
  5
D53
  8
0
 10
54.56021745006944
 20
24.64430573293801
 30
129.6485397081723
 70
   192
  0
VERTEX
  5
D54
  8
0
 10
74.04888282739445
 20
26.77271103426622
 30
122.2877052615733
 70
   192
  0
VERTEX
  5
D55
  8
0
 10
124.6456921967296
 20
24.6443093989866
 30
65.1844355291541
 70
   192
  0
VERTEX
  5
D56
  8
0
 10
126.6826692054987
 20
26.77271103426626
 30
66.24968852075303
 70
   192
  0
VERTEX
  5
D57
  8
0
 10
97.65236141555796
 20
24.64430598979492
 30
101.240196253046
 70
   192
  0
VERTEX
  5
D58
  8
0
 10
0.0
 20
27.11558962505926
 30
146.0737853033139
 70
   192
  0
VERTEX
  5
D59
  8
0
 10
75.66180501789835
 20
27.11558962505926
 30
124.9513585931429
 70
   192
  0
VERTEX
  5
D5A
  8
0
 10
129.442053014031
 20
27.11558962505931
 30
67.69272977470648
 70
   192
  0
VERTEX
  5
D5B
  8
0
 10
0.0
 20
25.53834293051053
 30
148.7805223899111
 70
   192
  0
VERTEX
  5
D5C
  8
0
 10
77.06381300485907
 20
25.53834293051053
 30
127.2666985812351
 70
   192
  0
VERTEX
  5
D5D
  8
0
 10
131.8406052575485
 20
25.53834293051055
 30
68.94707135142227
 70
   192
  0
VERTEX
  5
D5E
  8
0
 10
-0.0000000000000184
 20
22.66014329082555
 30
150.0174943481795
 70
   192
  0
VERTEX
  5
D5F
  8
0
 10
53.26600042292143
 20
22.66014329082555
 30
140.2425820122099
 70
   192
  0
VERTEX
  5
D60
  8
0
 10
132.936737527049
 20
22.66014329082555
 30
69.52030225891242
 70
   192
  0
VERTEX
  5
D61
  8
0
 10
99.5905372934209
 20
22.66014329082555
 30
112.1916819203358
 70
   192
  0
VERTEX
  5
D62
  8
0
 10
0.0
 20
0.0
 30
0.0
 70
   128
 71
     1
 72
     2
 73
     3
  0
VERTEX
  5
D63
  8
0
 10
0.0
 20
0.0
 30
0.0
 70
   128
 71
     4
 72
     1
 73
     3
  0
VERTEX
  5
D64
  8
0
 10
0.0
 20
0.0
 30
0.0
 70
   128
 71
     5
 72
     6
 73
     4
  0
VERTEX
  5
D65
  8
0
 10
0.0
 20
0.0
 30
0.0
 70
   128
 71
     7
 72
     5
 73
     4
  0
VERTEX
  5
D66
  8
0
 10
0.0
 20
0.0
 30
0.0
 70
   128
 71
     8
 72
     1
 73
    -4
  0
VERTEX
  5
D67
  8
0
 10
0.0
 20
0.0
 30
0.0
 70
   128
 71
     9
 72
    -8
 73
     4
  0
VERTEX
  5
D68
  8
0
 10
0.0
 20
0.0
 30
0.0
 70
   128
 71
     6
 72
    10
 73
    -9
  0
VERTEX
  5
D69
  8
0
 10
0.0
 20
0.0
 30
0.0
 70
   128
 71
     4
 72
    -6
 73
     9
  0
VERTEX
  5
D6A
  8
0
 10
0.0
 20
0.0
 30
0.0
 70
   128
 71
    11
 72
     8
 73
    -9
  0
VERTEX
  5
D6B
  8
0
 10
0.0
 20
0.0
 30
0.0
 70
   128
 71
    12
 72
   -11
 73
     9
  0
VERTEX
  5
D6C
  8
0
 10
0.0
 20
0.0
 30
0.0
 70
   128
 71
    10
 72
    13
 73
   -12
  0
VERTEX
  5
D6D
  8
0
 10
0.0
 20
0.0
 30
0.0
 70
   128
 71
     9
 72
   -10
 73
    12
  0
VERTEX
  5
D6E
  8
0
 10
0.0
 20
0.0
 30
0.0
 70
   128
 71
    14
 72
    11
 73
    12
  0
VERTEX
  5
D6F
  8
0
 10
0.0
 20
0.0
 30
0.0
 70
   128
 71
    15
 72
    14
 73
    12
  0
VERTEX
  5
D70
  8
0
 10
0.0
 20
0.0
 30
0.0
 70
   128
 71
    13
 72
    16
 73
    17
  0
VERTEX
  5
D71
  8
0
 10
0.0
 20
0.0
 30
0.0
 70
   128
 71
    12
 72
    13
 73
    17
  0
VERTEX
  5
D72
  8
0
 10
0.0
 20
0.0
 30
0.0
 70
   128
 71
    12
 72
    17
 73
    15
  0
VERTEX
  5
D73
  8
0
 10
0.0
 20
0.0
 30
0.0
 70
   128
 71
     7
 72
     4
 73
     3
  0
SEQEND
  5
1747
  8
0
  0
POLYLINE
  5
D74
  8
0
 66
     1
 10
0.0
 20
0.0
 30
0.0
 70
    64
 71
    10
 72
     8
  0
VERTEX
  5
D75
  8
0
 10
0.0
 20
-22.0
 30
65.0
 70
   192
  0
VERTEX
  5
D76
  8
0
 10
0.0
 20
-22.0
 30
-65.00000000000001
 70
   192
  0
VERTEX
  5
D77
  8
0
 10
0.000000000000008
 20
-14.27260648082184
 30
-65.67605933153179
 70
   192
  0
VERTEX
  5
D78
  8
0
 10
0.0
 20
-14.27260648082184
 30
65.67605933153183
 70
   192
  0
VERTEX
  5
D79
  8
0
 10
65.67605933153183
 20
-14.27260648082184
 30
0.0
 70
   192
  0
VERTEX
  5
D7A
  8
0
 10
65.00000000000001
 20
-22.0
 30
0.0
 70
   192
  0
VERTEX
  5
D7B
  8
0
 10
46.43998691493619
 20
-14.27260648082184
 30
46.43998691493619
 70
   192
  0
VERTEX
  5
D7C
  8
0
 10
45.96194077712559
 20
-22.0
 30
45.96194077712559
 70
   192
  0
VERTEX
  5
D7D
  8
0
 10
46.43998691493618
 20
-14.27260648082184
 30
-46.43998691493618
 70
   192
  0
VERTEX
  5
D7E
  8
0
 10
45.9619407771256
 20
-22.0
 30
-45.9619407771256
 70
   192
  0
VERTEX
  5
D7F
  8
0
 10
0.0
 20
0.0
 30
0.0
 70
   128
 71
     7
 72
     4
 73
    -1
  0
VERTEX
  5
D80
  8
0
 10
0.0
 20
0.0
 30
0.0
 70
   128
 71
    -7
 72
     1
 73
     8
  0
VERTEX
  5
D81
  8
0
 10
0.0
 20
0.0
 30
0.0
 70
   128
 71
     6
 72
     5
 73
    -7
  0
VERTEX
  5
D82
  8
0
 10
0.0
 20
0.0
 30
0.0
 70
   128
 71
    -6
 72
     7
 73
     8
  0
VERTEX
  5
D83
  8
0
 10
0.0
 20
0.0
 30
0.0
 70
   128
 71
    10
 72
     9
 73
    -5
  0
VERTEX
  5
D84
  8
0
 10
0.0
 20
0.0
 30
0.0
 70
   128
 71
   -10
 72
     5
 73
     6
  0
VERTEX
  5
D85
  8
0
 10
0.0
 20
0.0
 30
0.0
 70
   128
 71
     2
 72
     3
 73
    -9
  0
VERTEX
  5
D86
  8
0
 10
0.0
 20
0.0
 30
0.0
 70
   128
 71
    -2
 72
     9
 73
    10
  0
SEQEND
  5
1748
  8
0
  0
POLYLINE
  5
D87
  8
0
 66
     1
 10
0.0
 20
0.0
 30
0.0
 70
    64
 71
    25
 72
    32
  0
VERTEX
  5
D88
  8
0
 10
-68.43945516212312
 20
-10.22705176326356
 30
-0.0000000000000042
 70
   192
  0
VERTEX
  5
D89
  8
0
 10
-70.06750842050731
 20
-9.74326072682973
 30
-0.0000000000000129
 70
   192
  0
VERTEX
  5
D8A
  8
0
 10
-60.68024227203939
 20
-9.74326072682973
 30
-35.03375421025368
 70
   192
  0
VERTEX
  5
D8B
  8
0
 10
-48.39400284584993
 20
-10.22705176326356
 30
-48.39400284584994
 70
   192
  0
VERTEX
  5
D8C
  8
0
 10
-35.03375421025363
 20
-9.74326072682973
 30
-60.68024227203941
 70
   192
  0
VERTEX
  5
D8D
  8
0
 10
0.0000000000000086
 20
-9.74326072682973
 30
-70.06750842050731
 70
   192
  0
VERTEX
  5
D8E
  8
0
 10
-48.39400284584993
 20
-10.22705176326356
 30
48.39400284584993
 70
   192
  0
VERTEX
  5
D8F
  8
0
 10
-60.68024227203939
 20
-9.74326072682973
 30
35.03375421025366
 70
   192
  0
VERTEX
  5
D90
  8
0
 10
-47.42372556767321
 20
-11.22791898021963
 30
-47.42372556767322
 70
   192
  0
VERTEX
  5
D91
  8
0
 10
-67.06727587606316
 20
-11.22791898021963
 30
-0.0000000000000041
 70
   192
  0
VERTEX
  5
D92
  8
0
 10
-47.42372556767322
 20
-11.22791898021963
 30
47.42372556767321
 70
   192
  0
VERTEX
  5
D93
  8
0
 10
0.0000000000000083
 20
-10.50779759233197
 30
67.94501073579609
 70
   192
  0
VERTEX
  5
D94
  8
0
 10
-46.74633341779318
 20
-12.6303778671861
 30
-46.7463334177932
 70
   192
  0
VERTEX
  5
D95
  8
0
 10
-66.10929871065777
 20
-12.6303778671861
 30
-0.000000000000004
 70
   192
  0
VERTEX
  5
D96
  8
0
 10
0.0
 20
-12.12749227297557
 30
-66.37462792201734
 70
   192
  0
VERTEX
  5
D97
  8
0
 10
-46.74633341779319
 20
-12.6303778671861
 30
46.74633341779318
 70
   192
  0
VERTEX
  5
D98
  8
0
 10
-46.43998691493619
 20
-14.27260648082184
 30
-46.43998691493618
 70
   192
  0
VERTEX
  5
D99
  8
0
 10
-65.67605933153182
 20
-14.27260648082184
 30
0.0000000000000073
 70
   192
  0
VERTEX
  5
D9A
  8
0
 10
-0.0000000000000073
 20
-14.27260648082184
 30
-65.67605933153182
 70
   192
  0
VERTEX
  5
D9B
  8
0
 10
-46.43998691493618
 20
-14.27260648082184
 30
46.43998691493619
 70
   192
  0
VERTEX
  5
D9C
  8
0
 10
0.0
 20
-10.50779759233197
 30
-67.94501073579609
 70
   192
  0
VERTEX
  5
D9D
  8
0
 10
0.0000000000000081
 20
-12.12749227297557
 30
66.37462792201734
 70
   192
  0
VERTEX
  5
D9E
  8
0
 10
0.000000000000008
 20
-14.27260648082184
 30
65.67605933153182
 70
   192
  0
VERTEX
  5
D9F
  8
0
 10
-35.03375421025368
 20
-9.74326072682973
 30
60.68024227203938
 70
   192
  0
VERTEX
  5
DA0
  8
0
 10
0.0000000000000086
 20
-9.743260726829725
 30
70.06750842050741
 70
   192
  0
VERTEX
  5
DA1
  8
0
 10
0.0
 20
0.0
 30
0.0
 70
   128
 71
     1
 72
     2
 73
     3
  0
VERTEX
  5
DA2
  8
0
 10
0.0
 20
0.0
 30
0.0
 70
   128
 71
     4
 72
     1
 73
     3
  0
VERTEX
  5
DA3
  8
0
 10
0.0
 20
0.0
 30
0.0
 70
   128
 71
     5
 72
     6
 73
     4
  0
VERTEX
  5
DA4
  8
0
 10
0.0
 20
0.0
 30
0.0
 70
   128
 71
     2
 72
     1
 73
     7
  0
VERTEX
  5
DA5
  8
0
 10
0.0
 20
0.0
 30
0.0
 70
   128
 71
     8
 72
     2
 73
     7
  0
VERTEX
  5
DA6
  8
0
 10
0.0
 20
0.0
 30
0.0
 70
   128
 71
     4
 72
     9
 73
   -10
  0
VERTEX
  5
DA7
  8
0
 10
0.0
 20
0.0
 30
0.0
 70
   128
 71
     1
 72
    -4
 73
    10
  0
VERTEX
  5
DA8
  8
0
 10
0.0
 20
0.0
 30
0.0
 70
   128
 71
     7
 72
    11
 73
    12
  0
VERTEX
  5
DA9
  8
0
 10
0.0
 20
0.0
 30
0.0
 70
   128
 71
     1
 72
    10
 73
   -11
  0
VERTEX
  5
DAA
  8
0
 10
0.0
 20
0.0
 30
0.0
 70
   128
 71
     7
 72
    -1
 73
    11
  0
VERTEX
  5
DAB
  8
0
 10
0.0
 20
0.0
 30
0.0
 70
   128
 71
     9
 72
    13
 73
   -14
  0
VERTEX
  5
DAC
  8
0
 10
0.0
 20
0.0
 30
0.0
 70
   128
 71
    10
 72
    -9
 73
    14
  0
VERTEX
  5
DAD
  8
0
 10
0.0
 20
0.0
 30
0.0
 70
   128
 71
    13
 72
     9
 73
    15
  0
VERTEX
  5
DAE
  8
0
 10
0.0
 20
0.0
 30
0.0
 70
   128
 71
    10
 72
    14
 73
   -16
  0
VERTEX
  5
DAF
  8
0
 10
0.0
 20
0.0
 30
0.0
 70
   128
 71
    11
 72
   -10
 73
    16
  0
VERTEX
  5
DB0
  8
0
 10
0.0
 20
0.0
 30
0.0
 70
   128
 71
    17
 72
    18
 73
   -14
  0
VERTEX
  5
DB1
  8
0
 10
0.0
 20
0.0
 30
0.0
 70
   128
 71
    13
 72
   -17
 73
    14
  0
VERTEX
  5
DB2
  8
0
 10
0.0
 20
0.0
 30
0.0
 70
   128
 71
    19
 72
    17
 73
    13
  0
VERTEX
  5
DB3
  8
0
 10
0.0
 20
0.0
 30
0.0
 70
   128
 71
    18
 72
    20
 73
   -16
  0
VERTEX
  5
DB4
  8
0
 10
0.0
 20
0.0
 30
0.0
 70
   128
 71
    14
 72
   -18
 73
    16
  0
VERTEX
  5
DB5
  8
0
 10
0.0
 20
0.0
 30
0.0
 70
   128
 71
    15
 72
     9
 73
     4
  0
VERTEX
  5
DB6
  8
0
 10
0.0
 20
0.0
 30
0.0
 70
   128
 71
    21
 72
    15
 73
     4
  0
VERTEX
  5
DB7
  8
0
 10
0.0
 20
0.0
 30
0.0
 70
   128
 71
    11
 72
    16
 73
    22
  0
VERTEX
  5
DB8
  8
0
 10
0.0
 20
0.0
 30
0.0
 70
   128
 71
    12
 72
    11
 73
    22
  0
VERTEX
  5
DB9
  8
0
 10
0.0
 20
0.0
 30
0.0
 70
   128
 71
    15
 72
    19
 73
    13
  0
VERTEX
  5
DBA
  8
0
 10
0.0
 20
0.0
 30
0.0
 70
   128
 71
    16
 72
    20
 73
    23
  0
VERTEX
  5
DBB
  8
0
 10
0.0
 20
0.0
 30
0.0
 70
   128
 71
    22
 72
    16
 73
    23
  0
VERTEX
  5
DBC
  8
0
 10
0.0
 20
0.0
 30
0.0
 70
   128
 71
     6
 72
    21
 73
     4
  0
VERTEX
  5
DBD
  8
0
 10
0.0
 20
0.0
 30
0.0
 70
   128
 71
    24
 72
     7
 73
    12
  0
VERTEX
  5
DBE
  8
0
 10
0.0
 20
0.0
 30
0.0
 70
   128
 71
    25
 72
    24
 73
    12
  0
VERTEX
  5
DBF
  8
0
 10
0.0
 20
0.0
 30
0.0
 70
   128
 71
     5
 72
     4
 73
     3
  0
VERTEX
  5
DC0
  8
0
 10
0.0
 20
0.0
 30
0.0
 70
   128
 71
     8
 72
     7
 73
    24
  0
SEQEND
  5
1749
  8
0
  0
POLYLINE
  5
DC1
  8
0
 66
     1
 10
0.0
 20
0.0
 30
0.0
 70
    64
 71
    10
 72
     8
  0
VERTEX
  5
DC2
  8
0
 10
0.0
 20
-11.99912472583506
 30
22.0
 70
   192
  0
VERTEX
  5
DC3
  8
0
 10
0.0
 20
-11.99912472583506
 30
-22.0
 70
   192
  0
VERTEX
  5
DC4
  8
0
 10
-0.0000000000000024
 20
-22.0
 30
-22.0
 70
   192
  0
VERTEX
  5
DC5
  8
0
 10
0.0000000000000027
 20
-22.0
 30
22.0
 70
   192
  0
VERTEX
  5
DC6
  8
0
 10
-22.0
 20
-22.0
 30
0.0000000000000024
 70
   192
  0
VERTEX
  5
DC7
  8
0
 10
-22.0
 20
-11.99912472583506
 30
0.0
 70
   192
  0
VERTEX
  5
DC8
  8
0
 10
-15.55634918610404
 20
-22.0
 30
15.55634918610405
 70
   192
  0
VERTEX
  5
DC9
  8
0
 10
-15.55634918610405
 20
-11.99912472583506
 30
15.55634918610405
 70
   192
  0
VERTEX
  5
DCA
  8
0
 10
-15.55634918610405
 20
-22.0
 30
-15.55634918610404
 70
   192
  0
VERTEX
  5
DCB
  8
0
 10
-15.55634918610405
 20
-11.99912472583506
 30
-15.55634918610405
 70
   192
  0
VERTEX
  5
DCC
  8
0
 10
0.0
 20
0.0
 30
0.0
 70
   128
 71
     8
 72
     1
 73
    -4
  0
VERTEX
  5
DCD
  8
0
 10
0.0
 20
0.0
 30
0.0
 70
   128
 71
     7
 72
    -8
 73
     4
  0
VERTEX
  5
DCE
  8
0
 10
0.0
 20
0.0
 30
0.0
 70
   128
 71
     6
 72
     8
 73
    -7
  0
VERTEX
  5
DCF
  8
0
 10
0.0
 20
0.0
 30
0.0
 70
   128
 71
     5
 72
    -6
 73
     7
  0
VERTEX
  5
DD0
  8
0
 10
0.0
 20
0.0
 30
0.0
 70
   128
 71
    10
 72
     6
 73
    -5
  0
VERTEX
  5
DD1
  8
0
 10
0.0
 20
0.0
 30
0.0
 70
   128
 71
     9
 72
   -10
 73
     5
  0
VERTEX
  5
DD2
  8
0
 10
0.0
 20
0.0
 30
0.0
 70
   128
 71
     2
 72
    10
 73
    -9
  0
VERTEX
  5
DD3
  8
0
 10
0.0
 20
0.0
 30
0.0
 70
   128
 71
     3
 72
    -2
 73
     9
  0
SEQEND
  5
174A
  8
0
  0
POLYLINE
  5
DD4
  8
0
 66
     1
 10
0.0
 20
0.0
 30
0.0
 70
    64
 71
    10
 72
     8
  0
VERTEX
  5
DD5
  8
0
 10
0.0
 20
-11.99912472583506
 30
-22.0
 70
   192
  0
VERTEX
  5
DD6
  8
0
 10
0.0
 20
-11.99912472583506
 30
22.0
 70
   192
  0
VERTEX
  5
DD7
  8
0
 10
0.0
 20
-1.01299763532759
 30
35.0927564288089
 70
   192
  0
VERTEX
  5
DD8
  8
0
 10
0.0000000000000043
 20
-1.01299763532759
 30
-35.0927564288089
 70
   192
  0
VERTEX
  5
DD9
  8
0
 10
-35.0927564288089
 20
-1.01299763532759
 30
0.0
 70
   192
  0
VERTEX
  5
DDA
  8
0
 10
-22.0
 20
-11.99912472583506
 30
0.0
 70
   192
  0
VERTEX
  5
DDB
  8
0
 10
-24.81432604133859
 20
-1.01299763532759
 30
-24.81432604133859
 70
   192
  0
VERTEX
  5
DDC
  8
0
 10
-15.55634918610405
 20
-11.99912472583506
 30
-15.55634918610405
 70
   192
  0
VERTEX
  5
DDD
  8
0
 10
-24.81432604133859
 20
-1.01299763532759
 30
24.81432604133859
 70
   192
  0
VERTEX
  5
DDE
  8
0
 10
-15.55634918610405
 20
-11.99912472583506
 30
15.55634918610405
 70
   192
  0
VERTEX
  5
DDF
  8
0
 10
0.0
 20
0.0
 30
0.0
 70
   128
 71
     8
 72
     1
 73
    -4
  0
VERTEX
  5
DE0
  8
0
 10
0.0
 20
0.0
 30
0.0
 70
   128
 71
     7
 72
    -8
 73
     4
  0
VERTEX
  5
DE1
  8
0
 10
0.0
 20
0.0
 30
0.0
 70
   128
 71
     6
 72
     8
 73
    -7
  0
VERTEX
  5
DE2
  8
0
 10
0.0
 20
0.0
 30
0.0
 70
   128
 71
     5
 72
    -6
 73
     7
  0
VERTEX
  5
DE3
  8
0
 10
0.0
 20
0.0
 30
0.0
 70
   128
 71
    10
 72
     6
 73
    -5
  0
VERTEX
  5
DE4
  8
0
 10
0.0
 20
0.0
 30
0.0
 70
   128
 71
     9
 72
   -10
 73
     5
  0
VERTEX
  5
DE5
  8
0
 10
0.0
 20
0.0
 30
0.0
 70
   128
 71
     2
 72
    10
 73
    -9
  0
VERTEX
  5
DE6
  8
0
 10
0.0
 20
0.0
 30
0.0
 70
   128
 71
     3
 72
    -2
 73
     9
  0
SEQEND
  5
174B
  8
0
  0
POLYLINE
  5
DE7
  8
0
 66
     1
 10
0.0
 20
0.0
 30
0.0
 70
    64
 71
    19
 72
    20
  0
VERTEX
  5
DE8
  8
0
 10
37.11676777265345
 20
0.0131238804980933
 30
-0.0000000000000023
 70
   192
  0
VERTEX
  5
DE9
  8
0
 10
37.86886832149474
 20
0.137574087531891
 30
-0.000000000000007
 70
   192
  0
VERTEX
  5
DEA
  8
0
 10
32.79540197898223
 20
0.137574087531891
 30
-18.93443416074736
 70
   192
  0
VERTEX
  5
DEB
  8
0
 10
32.79540197898222
 20
0.137574087531891
 30
18.93443416074738
 70
   192
  0
VERTEX
  5
DEC
  8
0
 10
18.93443416074739
 20
0.137574087531891
 30
32.79540197898221
 70
   192
  0
VERTEX
  5
DED
  8
0
 10
0.0
 20
-0.0536654469717872
 30
-36.87136573036986
 70
   192
  0
VERTEX
  5
DEE
  8
0
 10
36.39232793107215
 20
-0.2242155505448364
 30
-0.0000000000000022
 70
   192
  0
VERTEX
  5
DEF
  8
0
 10
0.0000000000000044
 20
-0.4425380850348466
 30
35.93308962483167
 70
   192
  0
VERTEX
  5
DF0
  8
0
 10
35.71238892506142
 20
-0.5689270787873069
 30
-0.0000000000000022
 70
   192
  0
VERTEX
  5
DF1
  8
0
 10
24.81432604133859
 20
-1.01299763532759
 30
-24.81432604133858
 70
   192
  0
VERTEX
  5
DF2
  8
0
 10
35.0927564288089
 20
-1.01299763532759
 30
0.0000000000000039
 70
   192
  0
VERTEX
  5
DF3
  8
0
 10
0.0
 20
-1.012997635327601
 30
-35.0927564288089
 70
   192
  0
VERTEX
  5
DF4
  8
0
 10
0.0000000000000045
 20
-0.0536654469717872
 30
36.87136573036986
 70
   192
  0
VERTEX
  5
DF5
  8
0
 10
0.0
 20
-0.4425380850348466
 30
-35.93308962483167
 70
   192
  0
VERTEX
  5
DF6
  8
0
 10
24.81432604133858
 20
-1.01299763532759
 30
24.81432604133859
 70
   192
  0
VERTEX
  5
DF7
  8
0
 10
-0.0000000000000043
 20
-1.01299763532759
 30
35.0927564288089
 70
   192
  0
VERTEX
  5
DF8
  8
0
 10
0.0000000000000046
 20
0.13757408753189
 30
37.86886832149474
 70
   192
  0
VERTEX
  5
DF9
  8
0
 10
18.93443416074738
 20
0.137574087531891
 30
-32.79540197898222
 70
   192
  0
VERTEX
  5
DFA
  8
0
 10
0.0000000000000122
 20
0.137574087531891
 30
-37.86886832149474
 70
   192
  0
VERTEX
  5
DFB
  8
0
 10
0.0
 20
0.0
 30
0.0
 70
   128
 71
     1
 72
     2
 73
     3
  0
VERTEX
  5
DFC
  8
0
 10
0.0
 20
0.0
 30
0.0
 70
   128
 71
     4
 72
     2
 73
     1
  0
VERTEX
  5
DFD
  8
0
 10
0.0
 20
0.0
 30
0.0
 70
   128
 71
     1
 72
     5
 73
     4
  0
VERTEX
  5
DFE
  8
0
 10
0.0
 20
0.0
 30
0.0
 70
   128
 71
     6
 72
     7
 73
     1
  0
VERTEX
  5
DFF
  8
0
 10
0.0
 20
0.0
 30
0.0
 70
   128
 71
     8
 72
     7
 73
     9
  0
VERTEX
  5
E00
  8
0
 10
0.0
 20
0.0
 30
0.0
 70
   128
 71
    10
 72
    11
 73
     9
  0
VERTEX
  5
E01
  8
0
 10
0.0
 20
0.0
 30
0.0
 70
   128
 71
     9
 72
    12
 73
    10
  0
VERTEX
  5
E02
  8
0
 10
0.0
 20
0.0
 30
0.0
 70
   128
 71
     1
 72
     7
 73
     8
  0
VERTEX
  5
E03
  8
0
 10
0.0
 20
0.0
 30
0.0
 70
   128
 71
     1
 72
     8
 73
    13
  0
VERTEX
  5
E04
  8
0
 10
0.0
 20
0.0
 30
0.0
 70
   128
 71
    14
 72
     9
 73
     7
  0
VERTEX
  5
E05
  8
0
 10
0.0
 20
0.0
 30
0.0
 70
   128
 71
    14
 72
     7
 73
     6
  0
VERTEX
  5
E06
  8
0
 10
0.0
 20
0.0
 30
0.0
 70
   128
 71
    15
 72
    16
 73
     8
  0
VERTEX
  5
E07
  8
0
 10
0.0
 20
0.0
 30
0.0
 70
   128
 71
    15
 72
     8
 73
     9
  0
VERTEX
  5
E08
  8
0
 10
0.0
 20
0.0
 30
0.0
 70
   128
 71
     9
 72
    11
 73
    15
  0
VERTEX
  5
E09
  8
0
 10
0.0
 20
0.0
 30
0.0
 70
   128
 71
    12
 72
     9
 73
    14
  0
VERTEX
  5
E0A
  8
0
 10
0.0
 20
0.0
 30
0.0
 70
   128
 71
     5
 72
     1
 73
    13
  0
VERTEX
  5
E0B
  8
0
 10
0.0
 20
0.0
 30
0.0
 70
   128
 71
     5
 72
    13
 73
    17
  0
VERTEX
  5
E0C
  8
0
 10
0.0
 20
0.0
 30
0.0
 70
   128
 71
    18
 72
    19
 73
     6
  0
VERTEX
  5
E0D
  8
0
 10
0.0
 20
0.0
 30
0.0
 70
   128
 71
     6
 72
     1
 73
     3
  0
VERTEX
  5
E0E
  8
0
 10
0.0
 20
0.0
 30
0.0
 70
   128
 71
     6
 72
     3
 73
    18
  0
SEQEND
  5
174C
  8
0
  0
POLYLINE
  5
E0F
  8
0
 66
     1
 10
0.0
 20
0.0
 30
0.0
 70
    64
 71
    33
 72
    40
  0
VERTEX
  5
E10
  8
0
 10
138.6844609369588
 20
80.16973528496189
 30
-35.81539882262852
 70
   192
  0
VERTEX
  5
E11
  8
0
 10
143.234501773137
 20
80.16973528496189
 30
0.0000000000000088
 70
   192
  0
VERTEX
  5
E12
  8
0
 10
144.6773178211162
 20
84.05663931438838
 30
0.0000000000000089
 70
   192
  0
VERTEX
  5
E13
  8
0
 10
102.3023125151926
 20
84.05663931438838
 30
-102.3023125151926
 70
   192
  0
VERTEX
  5
E14
  8
0
 10
125.3234150315414
 20
80.16973528496189
 30
-69.3553468957571
 70
   192
  0
VERTEX
  5
E15
  8
0
 10
102.1418560452351
 20
80.31861576685964
 30
-100.4553400755431
 70
   192
  0
VERTEX
  5
E16
  8
0
 10
104.0002280238474
 20
80.169735284963
 30
-98.4889591010936
 70
   192
  0
VERTEX
  5
E17
  8
0
 10
69.35657947332724
 20
80.16973528496189
 30
-125.3227329017319
 70
   192
  0
VERTEX
  5
E18
  8
0
 10
98.4904933955192
 20
80.16973528496189
 30
-103.9987750356031
 70
   192
  0
VERTEX
  5
E19
  8
0
 10
100.4400746642356
 20
80.31794875747752
 30
-102.1567255230426
 70
   192
  0
VERTEX
  5
E1A
  8
0
 10
35.81608081694101
 20
80.16973528496189
 30
-138.6842848094662
 70
   192
  0
VERTEX
  5
E1B
  8
0
 10
102.3023125151926
 20
84.05663931438838
 30
102.3023125151926
 70
   192
  0
VERTEX
  5
E1C
  8
0
 10
124.0447172339439
 20
80.16973528496189
 30
71.61725088656853
 70
   192
  0
VERTEX
  5
E1D
  8
0
 10
147.3567683422114
 20
87.22054291750234
 30
0.000000000000009
 70
   192
  0
VERTEX
  5
E1E
  8
0
 10
104.1969701485128
 20
87.22054291750234
 30
-104.1969701485128
 70
   192
  0
VERTEX
  5
E1F
  8
0
 10
0.0
 20
85.21252351778475
 30
145.4461209117973
 70
   192
  0
VERTEX
  5
E20
  8
0
 10
104.1969701485128
 20
87.22054291750234
 30
104.1969701485128
 70
   192
  0
VERTEX
  5
E21
  8
0
 10
150.952998747308
 20
89.28376078730022
 30
0.0000000000000092
 70
   192
  0
VERTEX
  5
E22
  8
0
 10
106.7398890546659
 20
89.28376078730022
 30
-106.7398890546659
 70
   192
  0
VERTEX
  5
E23
  8
0
 10
0.0000000000000183
 20
88.7366261510173
 30
-149.6771577830652
 70
   192
  0
VERTEX
  5
E24
  8
0
 10
106.7398890546659
 20
89.28376078730022
 30
106.7398890546659
 70
   192
  0
VERTEX
  5
E25
  8
0
 10
155.0367154974005
 20
90.0
 30
-0.0000000000000602
 70
   192
  0
VERTEX
  5
E26
  8
0
 10
134.2657341400494
 20
90.0
 30
-77.51835774870031
 70
   192
  0
VERTEX
  5
E27
  8
0
 10
0.0
 20
90.00000000000001
 30
155.0367154974005
 70
   192
  0
VERTEX
  5
E28
  8
0
 10
77.51835774870034
 20
90.0
 30
134.2657341400494
 70
   192
  0
VERTEX
  5
E29
  8
0
 10
134.2657341400495
 20
90.0
 30
77.5183577487002
 70
   192
  0
VERTEX
  5
E2A
  8
0
 10
0.0000000000000178
 20
85.21252351778475
 30
-145.4461209117973
 70
   192
  0
VERTEX
  5
E2B
  8
0
 10
0.0
 20
88.7366261510173
 30
149.6771577830652
 70
   192
  0
VERTEX
  5
E2C
  8
0
 10
77.51835774870023
 20
90.0
 30
-134.2657341400494
 70
   192
  0
VERTEX
  5
E2D
  8
0
 10
-0.000000000000019
 20
90.0
 30
-155.0367154974005
 70
   192
  0
VERTEX
  5
E2E
  8
0
 10
0.0000000000000175
 20
80.16973528496187
 30
-143.2345017731371
 70
   192
  0
VERTEX
  5
E2F
  8
0
 10
71.61725088656848
 20
80.16973528496189
 30
124.0447172339439
 70
   192
  0
VERTEX
  5
E30
  8
0
 10
0.0
 20
80.16973528496189
 30
143.234501773137
 70
   192
  0
VERTEX
  5
E31
  8
0
 10
0.0
 20
0.0
 30
0.0
 70
   128
 71
     1
 72
     2
 73
     3
  0
VERTEX
  5
E32
  8
0
 10
0.0
 20
0.0
 30
0.0
 70
   128
 71
     3
 72
     4
 73
     5
  0
VERTEX
  5
E33
  8
0
 10
0.0
 20
0.0
 30
0.0
 70
   128
 71
     3
 72
     5
 73
     1
  0
VERTEX
  5
E34
  8
0
 10
0.0
 20
0.0
 30
0.0
 70
   128
 71
     6
 72
     7
 73
     5
  0
VERTEX
  5
E35
  8
0
 10
0.0
 20
0.0
 30
0.0
 70
   128
 71
     6
 72
     5
 73
     4
  0
VERTEX
  5
E36
  8
0
 10
0.0
 20
0.0
 30
0.0
 70
   128
 71
     8
 72
     9
 73
    10
  0
VERTEX
  5
E37
  8
0
 10
0.0
 20
0.0
 30
0.0
 70
   128
 71
     8
 72
    10
 73
     4
  0
VERTEX
  5
E38
  8
0
 10
0.0
 20
0.0
 30
0.0
 70
   128
 71
     4
 72
    11
 73
     8
  0
VERTEX
  5
E39
  8
0
 10
0.0
 20
0.0
 30
0.0
 70
   128
 71
    12
 72
     3
 73
     2
  0
VERTEX
  5
E3A
  8
0
 10
0.0
 20
0.0
 30
0.0
 70
   128
 71
    12
 72
     2
 73
    13
  0
VERTEX
  5
E3B
  8
0
 10
0.0
 20
0.0
 30
0.0
 70
   128
 71
    14
 72
    15
 73
    -4
  0
VERTEX
  5
E3C
  8
0
 10
0.0
 20
0.0
 30
0.0
 70
   128
 71
   -14
 72
     4
 73
     3
  0
VERTEX
  5
E3D
  8
0
 10
0.0
 20
0.0
 30
0.0
 70
   128
 71
    16
 72
    17
 73
    12
  0
VERTEX
  5
E3E
  8
0
 10
0.0
 20
0.0
 30
0.0
 70
   128
 71
    17
 72
    14
 73
    -3
  0
VERTEX
  5
E3F
  8
0
 10
0.0
 20
0.0
 30
0.0
 70
   128
 71
   -17
 72
     3
 73
    12
  0
VERTEX
  5
E40
  8
0
 10
0.0
 20
0.0
 30
0.0
 70
   128
 71
    18
 72
    19
 73
   -15
  0
VERTEX
  5
E41
  8
0
 10
0.0
 20
0.0
 30
0.0
 70
   128
 71
   -18
 72
    15
 73
    14
  0
VERTEX
  5
E42
  8
0
 10
0.0
 20
0.0
 30
0.0
 70
   128
 71
    20
 72
    15
 73
    19
  0
VERTEX
  5
E43
  8
0
 10
0.0
 20
0.0
 30
0.0
 70
   128
 71
    21
 72
    18
 73
   -14
  0
VERTEX
  5
E44
  8
0
 10
0.0
 20
0.0
 30
0.0
 70
   128
 71
   -21
 72
    14
 73
    17
  0
VERTEX
  5
E45
  8
0
 10
0.0
 20
0.0
 30
0.0
 70
   128
 71
    19
 72
    18
 73
    22
  0
VERTEX
  5
E46
  8
0
 10
0.0
 20
0.0
 30
0.0
 70
   128
 71
    19
 72
    22
 73
    23
  0
VERTEX
  5
E47
  8
0
 10
0.0
 20
0.0
 30
0.0
 70
   128
 71
    21
 72
    24
 73
    25
  0
VERTEX
  5
E48
  8
0
 10
0.0
 20
0.0
 30
0.0
 70
   128
 71
    26
 72
    22
 73
    18
  0
VERTEX
  5
E49
  8
0
 10
0.0
 20
0.0
 30
0.0
 70
   128
 71
    26
 72
    18
 73
    21
  0
VERTEX
  5
E4A
  8
0
 10
0.0
 20
0.0
 30
0.0
 70
   128
 71
     4
 72
    15
 73
    20
  0
VERTEX
  5
E4B
  8
0
 10
0.0
 20
0.0
 30
0.0
 70
   128
 71
     4
 72
    20
 73
    27
  0
VERTEX
  5
E4C
  8
0
 10
0.0
 20
0.0
 30
0.0
 70
   128
 71
    28
 72
    21
 73
    17
  0
VERTEX
  5
E4D
  8
0
 10
0.0
 20
0.0
 30
0.0
 70
   128
 71
    28
 72
    17
 73
    16
  0
VERTEX
  5
E4E
  8
0
 10
0.0
 20
0.0
 30
0.0
 70
   128
 71
    19
 72
    29
 73
    30
  0
VERTEX
  5
E4F
  8
0
 10
0.0
 20
0.0
 30
0.0
 70
   128
 71
    19
 72
    30
 73
    20
  0
VERTEX
  5
E50
  8
0
 10
0.0
 20
0.0
 30
0.0
 70
   128
 71
    24
 72
    21
 73
    28
  0
VERTEX
  5
E51
  8
0
 10
0.0
 20
0.0
 30
0.0
 70
   128
 71
    11
 72
     4
 73
    27
  0
VERTEX
  5
E52
  8
0
 10
0.0
 20
0.0
 30
0.0
 70
   128
 71
    11
 72
    27
 73
    31
  0
VERTEX
  5
E53
  8
0
 10
0.0
 20
0.0
 30
0.0
 70
   128
 71
    16
 72
    12
 73
    32
  0
VERTEX
  5
E54
  8
0
 10
0.0
 20
0.0
 30
0.0
 70
   128
 71
    16
 72
    32
 73
    33
  0
VERTEX
  5
E55
  8
0
 10
0.0
 20
0.0
 30
0.0
 70
   128
 71
    23
 72
    29
 73
    19
  0
VERTEX
  5
E56
  8
0
 10
0.0
 20
0.0
 30
0.0
 70
   128
 71
    25
 72
    26
 73
    21
  0
VERTEX
  5
E57
  8
0
 10
0.0
 20
0.0
 30
0.0
 70
   128
 71
     6
 72
     4
 73
    10
  0
VERTEX
  5
E58
  8
0
 10
0.0
 20
0.0
 30
0.0
 70
   128
 71
    32
 72
    12
 73
    13
  0
SEQEND
  5
174D
  8
0
  0
POLYLINE
  5
E59
  8
0
 66
     1
 10
0.0
 20
0.0
 30
0.0
 70
    64
 71
    25
 72
    32
  0
VERTEX
  5
E5A
  8
0
 10
-98.04387791315666
 20
89.63591927283395
 30
125.0486088346224
 70
   192
  0
VERTEX
  5
E5B
  8
0
 10
0.0
 20
90.0
 30
157.0286868717075
 70
   192
  0
VERTEX
  5
E5C
  8
0
 10
-79.64722673172861
 20
90.0
 30
135.3304392019674
 70
   192
  0
VERTEX
  5
E5D
  8
0
 10
-156.9794118978974
 20
90.0
 30
-3.933540497188517
 70
   192
  0
VERTEX
  5
E5E
  8
0
 10
-144.8301109275158
 20
89.63591927283395
 30
-65.37580237708636
 70
   192
  0
VERTEX
  5
E5F
  8
0
 10
-154.312370567548
 20
89.63591927283395
 30
37.9137027675762
 70
   192
  0
VERTEX
  5
E60
  8
0
 10
-155.8664112812037
 20
88.59669900169325
 30
38.29552204421326
 70
   192
  0
VERTEX
  5
E61
  8
0
 10
-99.03125292036667
 20
88.59669900169325
 30
126.307941632118
 70
   192
  0
VERTEX
  5
E62
  8
0
 10
-73.9045017998795
 20
89.3589220684838
 30
-141.3202048697707
 70
   192
  0
VERTEX
  5
E63
  8
0
 10
-146.2886582112936
 20
88.59669900169325
 30
-66.03418548796874
 70
   192
  0
VERTEX
  5
E64
  8
0
 10
-156.9292375786218
 20
87.033683215379
 30
38.55665263397527
 70
   192
  0
VERTEX
  5
E65
  8
0
 10
-99.70653003109803
 20
87.033683215379
 30
127.1692137999693
 70
   192
  0
VERTEX
  5
E66
  8
0
 10
0.0
 20
87.60008063964608
 30
161.2994690796102
 70
   192
  0
VERTEX
  5
E67
  8
0
 10
-147.2861754549573
 20
87.033683215379
 30
-66.48446126123065
 70
   192
  0
VERTEX
  5
E68
  8
0
 10
-141.6517341897939
 20
85.1744974835125
 30
78.65808632740425
 70
   192
  0
VERTEX
  5
E69
  8
0
 10
-75.08505314949402
 20
85.1744974835125
 30
-143.5776554245227
 70
   192
  0
VERTEX
  5
E6A
  8
0
 10
-137.5344577203
 20
85.1744974835125
 30
-85.65384570028607
 70
   192
  0
VERTEX
  5
E6B
  8
0
 10
0.0
 20
89.35892206848382
 30
159.478135462898
 70
   192
  0
VERTEX
  5
E6C
  8
0
 10
-74.74853445152661
 20
87.60008063964607
 30
-142.9341642950102
 70
   192
  0
VERTEX
  5
E6D
  8
0
 10
-82.1817543196155
 20
85.1744974835125
 30
139.6369134599292
 70
   192
  0
VERTEX
  5
E6E
  8
0
 10
0.0000000000000198
 20
85.1744974835125
 30
162.025641006803
 70
   192
  0
VERTEX
  5
E6F
  8
0
 10
-72.76939147713281
 20
90.0
 30
-139.1496466567579
 70
   192
  0
VERTEX
  5
E70
  8
0
 10
-133.292824279117
 20
90.0
 30
-83.01223702773713
 70
   192
  0
VERTEX
  5
E71
  8
0
 10
-137.2831218238449
 20
90.0
 30
76.23223047341678
 70
   192
  0
VERTEX
  5
E72
  8
0
 10
-161.9747980087736
 20
85.1744974835125
 30
-4.058713303791976
 70
   192
  0
VERTEX
  5
E73
  8
0
 10
0.0
 20
0.0
 30
0.0
 70
   128
 71
     1
 72
     2
 73
     3
  0
VERTEX
  5
E74
  8
0
 10
0.0
 20
0.0
 30
0.0
 70
   128
 71
     4
 72
     5
 73
     6
  0
VERTEX
  5
E75
  8
0
 10
0.0
 20
0.0
 30
0.0
 70
   128
 71
     7
 72
     8
 73
    -1
  0
VERTEX
  5
E76
  8
0
 10
0.0
 20
0.0
 30
0.0
 70
   128
 71
    -7
 72
     1
 73
     6
  0
VERTEX
  5
E77
  8
0
 10
0.0
 20
0.0
 30
0.0
 70
   128
 71
     9
 72
    10
 73
     5
  0
VERTEX
  5
E78
  8
0
 10
0.0
 20
0.0
 30
0.0
 70
   128
 71
    10
 72
     7
 73
    -6
  0
VERTEX
  5
E79
  8
0
 10
0.0
 20
0.0
 30
0.0
 70
   128
 71
   -10
 72
     6
 73
     5
  0
VERTEX
  5
E7A
  8
0
 10
0.0
 20
0.0
 30
0.0
 70
   128
 71
    11
 72
    12
 73
    -8
  0
VERTEX
  5
E7B
  8
0
 10
0.0
 20
0.0
 30
0.0
 70
   128
 71
   -11
 72
     8
 73
     7
  0
VERTEX
  5
E7C
  8
0
 10
0.0
 20
0.0
 30
0.0
 70
   128
 71
    13
 72
     8
 73
    12
  0
VERTEX
  5
E7D
  8
0
 10
0.0
 20
0.0
 30
0.0
 70
   128
 71
    14
 72
    11
 73
    -7
  0
VERTEX
  5
E7E
  8
0
 10
0.0
 20
0.0
 30
0.0
 70
   128
 71
   -14
 72
     7
 73
    10
  0
VERTEX
  5
E7F
  8
0
 10
0.0
 20
0.0
 30
0.0
 70
   128
 71
    15
 72
    12
 73
    11
  0
VERTEX
  5
E80
  8
0
 10
0.0
 20
0.0
 30
0.0
 70
   128
 71
    14
 72
    16
 73
    17
  0
VERTEX
  5
E81
  8
0
 10
0.0
 20
0.0
 30
0.0
 70
   128
 71
     1
 72
     8
 73
    13
  0
VERTEX
  5
E82
  8
0
 10
0.0
 20
0.0
 30
0.0
 70
   128
 71
     1
 72
    13
 73
    18
  0
VERTEX
  5
E83
  8
0
 10
0.0
 20
0.0
 30
0.0
 70
   128
 71
    19
 72
    14
 73
    10
  0
VERTEX
  5
E84
  8
0
 10
0.0
 20
0.0
 30
0.0
 70
   128
 71
    19
 72
    10
 73
     9
  0
VERTEX
  5
E85
  8
0
 10
0.0
 20
0.0
 30
0.0
 70
   128
 71
    13
 72
    12
 73
    20
  0
VERTEX
  5
E86
  8
0
 10
0.0
 20
0.0
 30
0.0
 70
   128
 71
    13
 72
    20
 73
    21
  0
VERTEX
  5
E87
  8
0
 10
0.0
 20
0.0
 30
0.0
 70
   128
 71
    16
 72
    14
 73
    19
  0
VERTEX
  5
E88
  8
0
 10
0.0
 20
0.0
 30
0.0
 70
   128
 71
     1
 72
    18
 73
     2
  0
VERTEX
  5
E89
  8
0
 10
0.0
 20
0.0
 30
0.0
 70
   128
 71
    22
 72
     9
 73
     5
  0
VERTEX
  5
E8A
  8
0
 10
0.0
 20
0.0
 30
0.0
 70
   128
 71
    22
 72
     5
 73
    23
  0
VERTEX
  5
E8B
  8
0
 10
0.0
 20
0.0
 30
0.0
 70
   128
 71
     4
 72
     6
 73
    24
  0
VERTEX
  5
E8C
  8
0
 10
0.0
 20
0.0
 30
0.0
 70
   128
 71
    24
 72
     6
 73
     1
  0
VERTEX
  5
E8D
  8
0
 10
0.0
 20
0.0
 30
0.0
 70
   128
 71
    24
 72
     1
 73
     3
  0
VERTEX
  5
E8E
  8
0
 10
0.0
 20
0.0
 30
0.0
 70
   128
 71
    23
 72
     5
 73
     4
  0
VERTEX
  5
E8F
  8
0
 10
0.0
 20
0.0
 30
0.0
 70
   128
 71
    25
 72
    15
 73
    11
  0
VERTEX
  5
E90
  8
0
 10
0.0
 20
0.0
 30
0.0
 70
   128
 71
    15
 72
    20
 73
    12
  0
VERTEX
  5
E91
  8
0
 10
0.0
 20
0.0
 30
0.0
 70
   128
 71
    17
 72
    25
 73
    11
  0
VERTEX
  5
E92
  8
0
 10
0.0
 20
0.0
 30
0.0
 70
   128
 71
    17
 72
    11
 73
    14
  0
SEQEND
  5
174E
  8
0
  0
POLYLINE
  5
E93
  8
0
 66
     1
 10
0.0
 20
0.0
 30
0.0
 70
    64
 71
    10
 72
     8
  0
VERTEX
  5
E94
  8
0
 10
194.0
 20
47.0
 30
-45.5
 70
   192
  0
VERTEX
  5
E95
  8
0
 10
194.0
 20
47.0
 30
-64.5
 70
   192
  0
VERTEX
  5
E96
  8
0
 10
215.0
 20
47.0
 30
-64.5
 70
   192
  0
VERTEX
  5
E97
  8
0
 10
215.0
 20
47.0
 30
-45.5
 70
   192
  0
VERTEX
  5
E98
  8
0
 10
215.0
 20
37.5
 30
-55.0
 70
   192
  0
VERTEX
  5
E99
  8
0
 10
194.0
 20
37.5
 30
-55.0
 70
   192
  0
VERTEX
  5
E9A
  8
0
 10
215.0
 20
40.2824855787278
 30
-48.28248557872779
 70
   192
  0
VERTEX
  5
E9B
  8
0
 10
194.0
 20
40.28248557872779
 30
-48.28248557872779
 70
   192
  0
VERTEX
  5
E9C
  8
0
 10
215.0
 20
40.28248557872779
 30
-61.7175144212722
 70
   192
  0
VERTEX
  5
E9D
  8
0
 10
194.0
 20
40.28248557872779
 30
-61.71751442127221
 70
   192
  0
VERTEX
  5
E9E
  8
0
 10
0.0
 20
0.0
 30
0.0
 70
   128
 71
     8
 72
     1
 73
    -4
  0
VERTEX
  5
E9F
  8
0
 10
0.0
 20
0.0
 30
0.0
 70
   128
 71
     7
 72
    -8
 73
     4
  0
VERTEX
  5
EA0
  8
0
 10
0.0
 20
0.0
 30
0.0
 70
   128
 71
     6
 72
     8
 73
    -7
  0
VERTEX
  5
EA1
  8
0
 10
0.0
 20
0.0
 30
0.0
 70
   128
 71
     5
 72
    -6
 73
     7
  0
VERTEX
  5
EA2
  8
0
 10
0.0
 20
0.0
 30
0.0
 70
   128
 71
    10
 72
     6
 73
    -5
  0
VERTEX
  5
EA3
  8
0
 10
0.0
 20
0.0
 30
0.0
 70
   128
 71
     9
 72
   -10
 73
     5
  0
VERTEX
  5
EA4
  8
0
 10
0.0
 20
0.0
 30
0.0
 70
   128
 71
     2
 72
    10
 73
    -9
  0
VERTEX
  5
EA5
  8
0
 10
0.0
 20
0.0
 30
0.0
 70
   128
 71
     3
 72
    -2
 73
     9
  0
SEQEND
  5
174F
  8
0
  0
POLYLINE
  5
EA6
  8
0
 66
     1
 10
0.0
 20
0.0
 30
0.0
 70
    64
 71
     8
 72
     6
  0
VERTEX
  5
EA7
  8
0
 10
41.0
 20
53.92820323027551
 30
-194.0
 70
   192
  0
VERTEX
  5
EA8
  8
0
 10
38.07179676972449
 20
51.0
 30
-194.0
 70
   192
  0
VERTEX
  5
EA9
  8
0
 10
38.07179676972449
 20
51.0
 30
-215.0
 70
   192
  0
VERTEX
  5
EAA
  8
0
 10
41.0
 20
53.92820323027551
 30
-215.0
 70
   192
  0
VERTEX
  5
EAB
  8
0
 10
37.0
 20
47.0
 30
-194.0
 70
   192
  0
VERTEX
  5
EAC
  8
0
 10
37.00000000000004
 20
47.0
 30
-215.0
 70
   192
  0
VERTEX
  5
EAD
  8
0
 10
45.0
 20
55.0
 30
-194.0
 70
   192
  0
VERTEX
  5
EAE
  8
0
 10
45.0
 20
55.0
 30
-215.0
 70
   192
  0
VERTEX
  5
EAF
  8
0
 10
0.0
 20
0.0
 30
0.0
 70
   128
 71
     1
 72
     2
 73
    -3
  0
VERTEX
  5
EB0
  8
0
 10
0.0
 20
0.0
 30
0.0
 70
   128
 71
     4
 72
    -1
 73
     3
  0
VERTEX
  5
EB1
  8
0
 10
0.0
 20
0.0
 30
0.0
 70
   128
 71
     2
 72
     5
 73
    -6
  0
VERTEX
  5
EB2
  8
0
 10
0.0
 20
0.0
 30
0.0
 70
   128
 71
     3
 72
    -2
 73
     6
  0
VERTEX
  5
EB3
  8
0
 10
0.0
 20
0.0
 30
0.0
 70
   128
 71
     7
 72
     1
 73
    -4
  0
VERTEX
  5
EB4
  8
0
 10
0.0
 20
0.0
 30
0.0
 70
   128
 71
     8
 72
    -7
 73
     4
  0
SEQEND
  5
1750
  8
0
  0
POLYLINE
  5
EB5
  8
0
 66
     1
 10
0.0
 20
0.0
 30
0.0
 70
    64
 71
    10
 72
     8
  0
VERTEX
  5
EB6
  8
0
 10
155.0
 20
75.0
 30
-172.5
 70
   192
  0
VERTEX
  5
EB7
  8
0
 10
155.0
 20
75.0
 30
-137.5
 70
   192
  0
VERTEX
  5
EB8
  8
0
 10
155.0
 20
90.0
 30
-137.5
 70
   192
  0
VERTEX
  5
EB9
  8
0
 10
155.0
 20
90.0
 30
-172.5
 70
   192
  0
VERTEX
  5
EBA
  8
0
 10
137.5
 20
90.0
 30
-155.0
 70
   192
  0
VERTEX
  5
EBB
  8
0
 10
137.5
 20
75.0
 30
-155.0
 70
   192
  0
VERTEX
  5
EBC
  8
0
 10
142.6256313292354
 20
90.0
 30
-167.3743686707646
 70
   192
  0
VERTEX
  5
EBD
  8
0
 10
142.6256313292354
 20
75.0
 30
-167.3743686707646
 70
   192
  0
VERTEX
  5
EBE
  8
0
 10
142.6256313292354
 20
90.0
 30
-142.6256313292354
 70
   192
  0
VERTEX
  5
EBF
  8
0
 10
142.6256313292354
 20
75.0
 30
-142.6256313292354
 70
   192
  0
VERTEX
  5
EC0
  8
0
 10
0.0
 20
0.0
 30
0.0
 70
   128
 71
     8
 72
     1
 73
    -4
  0
VERTEX
  5
EC1
  8
0
 10
0.0
 20
0.0
 30
0.0
 70
   128
 71
     7
 72
    -8
 73
     4
  0
VERTEX
  5
EC2
  8
0
 10
0.0
 20
0.0
 30
0.0
 70
   128
 71
     6
 72
     8
 73
    -7
  0
VERTEX
  5
EC3
  8
0
 10
0.0
 20
0.0
 30
0.0
 70
   128
 71
     5
 72
    -6
 73
     7
  0
VERTEX
  5
EC4
  8
0
 10
0.0
 20
0.0
 30
0.0
 70
   128
 71
    10
 72
     6
 73
    -5
  0
VERTEX
  5
EC5
  8
0
 10
0.0
 20
0.0
 30
0.0
 70
   128
 71
     9
 72
   -10
 73
     5
  0
VERTEX
  5
EC6
  8
0
 10
0.0
 20
0.0
 30
0.0
 70
   128
 71
     2
 72
    10
 73
    -9
  0
VERTEX
  5
EC7
  8
0
 10
0.0
 20
0.0
 30
0.0
 70
   128
 71
     3
 72
    -2
 73
     9
  0
SEQEND
  5
1751
  8
0
  0
POLYLINE
  5
EC8
  8
0
 66
     1
 10
0.0
 20
0.0
 30
0.0
 70
    64
 71
    43
 72
    43
  0
VERTEX
  5
EC9
  8
0
 10
181.6590212458495
 20
75.0
 30
30.8566943654686
 70
   192
  0
VERTEX
  5
ECA
  8
0
 10
184.0
 20
75.0
 30
30.8566943654686
 70
   192
  0
VERTEX
  5
ECB
  8
0
 10
186.4452083820544
 20
75.00000000000001
 30
30.21555673874778
 70
   192
  0
VERTEX
  5
ECC
  8
0
 10
188.3613020955137
 20
75.00000000000001
 30
28.29214385858528
 70
   192
  0
VERTEX
  5
ECD
  8
0
 10
189.0
 20
75.0
 30
25.83759517775185
 70
   192
  0
VERTEX
  5
ECE
  8
0
 10
189.0
 20
75.0
 30
-174.0
 70
   192
  0
VERTEX
  5
ECF
  8
0
 10
186.9903810567666
 20
75.0
 30
-181.5
 70
   192
  0
VERTEX
  5
ED0
  8
0
 10
181.5
 20
75.0
 30
-186.9903810567666
 70
   192
  0
VERTEX
  5
ED1
  8
0
 10
174.0
 20
75.0
 30
-189.0
 70
   192
  0
VERTEX
  5
ED2
  8
0
 10
-25.83759517775185
 20
75.0
 30
-189.0
 70
   192
  0
VERTEX
  5
ED3
  8
0
 10
-28.29214385858529
 20
75.00000000000003
 30
-188.3613020955135
 70
   192
  0
VERTEX
  5
ED4
  8
0
 10
-30.21555673874778
 20
75.00000000000001
 30
-186.4452083820542
 70
   192
  0
VERTEX
  5
ED5
  8
0
 10
-30.85669436546864
 20
75.0
 30
-184.0
 70
   192
  0
VERTEX
  5
ED6
  8
0
 10
-30.85669436546858
 20
75.0
 30
-181.6590212458495
 70
   192
  0
VERTEX
  5
ED7
  8
0
 10
-31.48882476619733
 20
75.0
 30
-172.676021849984
 70
   192
  0
VERTEX
  5
ED8
  8
0
 10
-33.37275671516692
 20
75.0
 30
-163.8700768466754
 70
   192
  0
VERTEX
  5
ED9
  8
0
 10
-36.47135802387957
 20
75.0
 30
-155.4147508967612
 70
   192
  0
VERTEX
  5
EDA
  8
0
 10
6.291625298084905
 20
75.0
 30
-159.5127587483736
 70
   192
  0
VERTEX
  5
EDB
  8
0
 10
48.59898836598374
 20
75.0
 30
-152.0593406608463
 70
   192
  0
VERTEX
  5
EDC
  8
0
 10
87.38696139115669
 20
75.0
 30
-133.594250367405
 70
   192
  0
VERTEX
  5
EDD
  8
0
 10
88.55704381977857
 20
75.0
 30
-133.5727870047548
 70
   192
  0
VERTEX
  5
EDE
  8
0
 10
89.69005864557691
 20
74.99999999999999
 30
-133.1867255449943
 70
   192
  0
VERTEX
  5
EDF
  8
0
 10
90.63992852219785
 20
75.0
 30
-132.4858401237196
 70
   192
  0
VERTEX
  5
EE0
  8
0
 10
132.4858401237156
 20
75.0
 30
-90.6399285222017
 70
   192
  0
VERTEX
  5
EE1
  8
0
 10
133.0043066511028
 20
75.0
 30
-90.00087520737469
 70
   192
  0
VERTEX
  5
EE2
  8
0
 10
133.3787151584681
 20
75.00000000000001
 30
-89.26470633768996
 70
   192
  0
VERTEX
  5
EE3
  8
0
 10
133.585756423954
 20
75.0
 30
-88.4772529323966
 70
   192
  0
VERTEX
  5
EE4
  8
0
 10
133.6231669768885
 20
75.00000000000001
 30
-88.11526569010677
 70
   192
  0
VERTEX
  5
EE5
  8
0
 10
133.6260100615157
 20
75.00000000000001
 30
-87.75032434812057
 70
   192
  0
VERTEX
  5
EE6
  8
0
 10
133.5942503674002
 20
75.0
 30
-87.38696139116371
 70
   192
  0
VERTEX
  5
EE7
  8
0
 10
152.0593406608446
 20
75.0
 30
-48.59898836598911
 70
   192
  0
VERTEX
  5
EE8
  8
0
 10
159.5127587483735
 20
75.0
 30
-6.291625298087745
 70
   192
  0
VERTEX
  5
EE9
  8
0
 10
155.4147508967614
 20
75.0
 30
36.47135802387956
 70
   192
  0
VERTEX
  5
EEA
  8
0
 10
163.8700768466754
 20
75.0
 30
33.37275671516692
 70
   192
  0
VERTEX
  5
EEB
  8
0
 10
172.676021849984
 20
75.0
 30
31.48882476619732
 70
   192
  0
VERTEX
  5
EEC
  8
0
 10
155.0
 20
75.0
 30
-172.5
 70
   192
  0
VERTEX
  5
EED
  8
0
 10
167.3743686707646
 20
75.0
 30
-167.3743686707646
 70
   192
  0
VERTEX
  5
EEE
  8
0
 10
172.5
 20
75.0
 30
-155.0
 70
   192
  0
VERTEX
  5
EEF
  8
0
 10
167.3743686707646
 20
75.0
 30
-142.6256313292354
 70
   192
  0
VERTEX
  5
EF0
  8
0
 10
155.0
 20
75.0
 30
-137.5
 70
   192
  0
VERTEX
  5
EF1
  8
0
 10
142.6256313292354
 20
75.0
 30
-142.6256313292354
 70
   192
  0
VERTEX
  5
EF2
  8
0
 10
137.5
 20
75.0
 30
-155.0
 70
   192
  0
VERTEX
  5
EF3
  8
0
 10
142.6256313292354
 20
75.0
 30
-167.3743686707646
 70
   192
  0
VERTEX
  5
EF4
  8
0
 10
0.0
 20
0.0
 30
0.0
 70
   128
 71
    34
 72
    33
 73
   -32
  0
VERTEX
  5
EF5
  8
0
 10
0.0
 20
0.0
 30
0.0
 70
   128
 71
    14
 72
    13
 73
   -12
  0
VERTEX
  5
EF6
  8
0
 10
0.0
 20
0.0
 30
0.0
 70
   128
 71
   -14
 72
    12
 73
   -11
  0
VERTEX
  5
EF7
  8
0
 10
0.0
 20
0.0
 30
0.0
 70
   128
 71
   -14
 72
    11
 73
   -10
  0
VERTEX
  5
EF8
  8
0
 10
0.0
 20
0.0
 30
0.0
 70
   128
 71
   -10
 72
    15
 73
   -14
  0
VERTEX
  5
EF9
  8
0
 10
0.0
 20
0.0
 30
0.0
 70
   128
 71
   -10
 72
   -18
 73
   -16
  0
VERTEX
  5
EFA
  8
0
 10
0.0
 20
0.0
 30
0.0
 70
   128
 71
   -10
 72
    16
 73
   -15
  0
VERTEX
  5
EFB
  8
0
 10
0.0
 20
0.0
 30
0.0
 70
   128
 71
    18
 72
    17
 73
   -16
  0
VERTEX
  5
EFC
  8
0
 10
0.0
 20
0.0
 30
0.0
 70
   128
 71
   -10
 72
    19
 73
   -18
  0
VERTEX
  5
EFD
  8
0
 10
0.0
 20
0.0
 30
0.0
 70
   128
 71
   -19
 72
    10
 73
    -9
  0
VERTEX
  5
EFE
  8
0
 10
0.0
 20
0.0
 30
0.0
 70
   128
 71
    -9
 72
    21
 73
   -20
  0
VERTEX
  5
EFF
  8
0
 10
0.0
 20
0.0
 30
0.0
 70
   128
 71
    -9
 72
    20
 73
   -19
  0
VERTEX
  5
F00
  8
0
 10
0.0
 20
0.0
 30
0.0
 70
   128
 71
    -9
 72
    22
 73
   -21
  0
VERTEX
  5
F01
  8
0
 10
0.0
 20
0.0
 30
0.0
 70
   128
 71
    -9
 72
    23
 73
   -22
  0
VERTEX
  5
F02
  8
0
 10
0.0
 20
0.0
 30
0.0
 70
   128
 71
    41
 72
   -40
 73
   -24
  0
VERTEX
  5
F03
  8
0
 10
0.0
 20
0.0
 30
0.0
 70
   128
 71
    24
 72
   -23
 73
   -42
  0
VERTEX
  5
F04
  8
0
 10
0.0
 20
0.0
 30
0.0
 70
   128
 71
   -24
 72
    42
 73
   -41
  0
VERTEX
  5
F05
  8
0
 10
0.0
 20
0.0
 30
0.0
 70
   128
 71
   -23
 72
    43
 73
   -42
  0
VERTEX
  5
F06
  8
0
 10
0.0
 20
0.0
 30
0.0
 70
   128
 71
   -23
 72
    -9
 73
   -43
  0
VERTEX
  5
F07
  8
0
 10
0.0
 20
0.0
 30
0.0
 70
   128
 71
    -9
 72
    36
 73
   -43
  0
VERTEX
  5
F08
  8
0
 10
0.0
 20
0.0
 30
0.0
 70
   128
 71
   -40
 72
    25
 73
   -24
  0
VERTEX
  5
F09
  8
0
 10
0.0
 20
0.0
 30
0.0
 70
   128
 71
   -40
 72
    26
 73
   -25
  0
VERTEX
  5
F0A
  8
0
 10
0.0
 20
0.0
 30
0.0
 70
   128
 71
   -40
 72
   -31
 73
   -26
  0
VERTEX
  5
F0B
  8
0
 10
0.0
 20
0.0
 30
0.0
 70
   128
 71
   -31
 72
    27
 73
   -26
  0
VERTEX
  5
F0C
  8
0
 10
0.0
 20
0.0
 30
0.0
 70
   128
 71
   -31
 72
    28
 73
   -27
  0
VERTEX
  5
F0D
  8
0
 10
0.0
 20
0.0
 30
0.0
 70
   128
 71
   -31
 72
    29
 73
   -28
  0
VERTEX
  5
F0E
  8
0
 10
0.0
 20
0.0
 30
0.0
 70
   128
 71
    31
 72
    30
 73
   -29
  0
VERTEX
  5
F0F
  8
0
 10
0.0
 20
0.0
 30
0.0
 70
   128
 71
   -40
 72
   -35
 73
   -31
  0
VERTEX
  5
F10
  8
0
 10
0.0
 20
0.0
 30
0.0
 70
   128
 71
   -35
 72
    32
 73
   -31
  0
VERTEX
  5
F11
  8
0
 10
0.0
 20
0.0
 30
0.0
 70
   128
 71
    35
 72
   -34
 73
   -32
  0
VERTEX
  5
F12
  8
0
 10
0.0
 20
0.0
 30
0.0
 70
   128
 71
    37
 72
   -36
 73
    -9
  0
VERTEX
  5
F13
  8
0
 10
0.0
 20
0.0
 30
0.0
 70
   128
 71
   -37
 72
     9
 73
    -8
  0
VERTEX
  5
F14
  8
0
 10
0.0
 20
0.0
 30
0.0
 70
   128
 71
   -37
 72
     8
 73
    -7
  0
VERTEX
  5
F15
  8
0
 10
0.0
 20
0.0
 30
0.0
 70
   128
 71
    -7
 72
    38
 73
   -37
  0
VERTEX
  5
F16
  8
0
 10
0.0
 20
0.0
 30
0.0
 70
   128
 71
    -7
 72
    39
 73
   -38
  0
VERTEX
  5
F17
  8
0
 10
0.0
 20
0.0
 30
0.0
 70
   128
 71
   -39
 72
    -7
 73
    -1
  0
VERTEX
  5
F18
  8
0
 10
0.0
 20
0.0
 30
0.0
 70
   128
 71
   -39
 72
     1
 73
   -35
  0
VERTEX
  5
F19
  8
0
 10
0.0
 20
0.0
 30
0.0
 70
   128
 71
   -35
 72
    40
 73
   -39
  0
VERTEX
  5
F1A
  8
0
 10
0.0
 20
0.0
 30
0.0
 70
   128
 71
     7
 72
     6
 73
    -5
  0
VERTEX
  5
F1B
  8
0
 10
0.0
 20
0.0
 30
0.0
 70
   128
 71
    -7
 72
     5
 73
    -4
  0
VERTEX
  5
F1C
  8
0
 10
0.0
 20
0.0
 30
0.0
 70
   128
 71
    -7
 72
     4
 73
    -3
  0
VERTEX
  5
F1D
  8
0
 10
0.0
 20
0.0
 30
0.0
 70
   128
 71
    -7
 72
     3
 73
    -2
  0
VERTEX
  5
F1E
  8
0
 10
0.0
 20
0.0
 30
0.0
 70
   128
 71
    -7
 72
     2
 73
    -1
  0
SEQEND
  5
1752
  8
0
  0
POLYLINE
  5
F1F
  8
0
 66
     1
 10
0.0
 20
0.0
 30
0.0
 70
    64
 71
    30
 72
    33
  0
VERTEX
  5
F20
  8
0
 10
141.9048376824094
 20
26.99766764771886
 30
0.0000000000000174
 70
   192
  0
VERTEX
  5
F21
  8
0
 10
135.9317959858497
 20
32.67560747459298
 30
49.00813016548037
 70
   192
  0
VERTEX
  5
F22
  8
0
 10
124.6456921967296
 20
24.6443093989866
 30
65.1844355291541
 70
   192
  0
VERTEX
  5
F23
  8
0
 10
144.7001969441637
 20
50.44894815910319
 30
40.39439803379574
 70
   192
  0
VERTEX
  5
F24
  8
0
 10
154.7274920893115
 20
70.948046978642
 30
0.0000000000000189
 70
   192
  0
VERTEX
  5
F25
  8
0
 10
154.2710094182399
 20
70.948046978642
 30
11.87655090189382
 70
   192
  0
VERTEX
  5
F26
  8
0
 10
152.9042548685614
 20
70.948046978642
 30
23.68302453948748
 70
   192
  0
VERTEX
  5
F27
  8
0
 10
150.6352929381762
 20
70.948046978642
 30
35.34975713746552
 70
   192
  0
VERTEX
  5
F28
  8
0
 10
114.6265519202137
 20
0.5223677266890904
 30
0.000000000000014
 70
   192
  0
VERTEX
  5
F29
  8
0
 10
104.5125276208708
 20
11.32832263228656
 30
78.384395715653
 70
   192
  0
VERTEX
  5
F2A
  8
0
 10
60.68024227203939
 20
-9.74326072682973
 30
35.03375421025368
 70
   192
  0
VERTEX
  5
F2B
  8
0
 10
70.06750842050694
 20
-9.743260726829778
 30
0.0000000000000397
 70
   192
  0
VERTEX
  5
F2C
  8
0
 10
-0.0000000000000391
 20
11.32832263228656
 30
130.6406595260883
 70
   192
  0
VERTEX
  5
F2D
  8
0
 10
-0.0000000000000172
 20
-9.74326072682973
 30
70.06750842050731
 70
   192
  0
VERTEX
  5
F2E
  8
0
 10
35.03375421025364
 20
-9.74326072682973
 30
60.6802422720394
 70
   192
  0
VERTEX
  5
F2F
  8
0
 10
61.47795742404159
 20
11.32832263228656
 30
115.2711701700779
 70
   192
  0
VERTEX
  5
F30
  8
0
 10
0.0
 20
24.6443093989866
 30
140.6611503523852
 70
   192
  0
VERTEX
  5
F31
  8
0
 10
54.56021745006944
 20
24.64430573293801
 30
129.6485397081723
 70
   192
  0
VERTEX
  5
F32
  8
0
 10
-61.47795742404166
 20
11.32832263228656
 30
115.2711701700779
 70
   192
  0
VERTEX
  5
F33
  8
0
 10
-104.5125276208708
 20
11.32832263228657
 30
78.38439571565303
 70
   192
  0
VERTEX
  5
F34
  8
0
 10
-35.03375421025368
 20
-9.74326072682973
 30
60.68024227203938
 70
   192
  0
VERTEX
  5
F35
  8
0
 10
-66.19348690514178
 20
24.6443062451066
 30
124.1127845477023
 70
   192
  0
VERTEX
  5
F36
  8
0
 10
-112.5289262473744
 20
24.64430554963564
 30
84.39669518265305
 70
   192
  0
VERTEX
  5
F37
  8
0
 10
-135.0347085141161
 20
24.64430692440386
 30
39.38512478312769
 70
   192
  0
VERTEX
  5
F38
  8
0
 10
-140.661150352385
 20
24.64430939898665
 30
0.0
 70
   192
  0
VERTEX
  5
F39
  8
0
 10
-124.3753240316272
 20
6.107892935422491
 30
0.0000000000000011
 70
   192
  0
VERTEX
  5
F3A
  8
0
 10
-100.8795887295595
 20
-4.330181644712643
 30
0.0000000000000009
 70
   192
  0
VERTEX
  5
F3B
  8
0
 10
-70.06750842050691
 20
-9.74326072682978
 30
0.0
 70
   192
  0
VERTEX
  5
F3C
  8
0
 10
-60.68024227203939
 20
-9.74326072682973
 30
35.03375421025366
 70
   192
  0
VERTEX
  5
F3D
  8
0
 10
97.65236141555796
 20
24.64430598979492
 30
101.240196253046
 70
   192
  0
VERTEX
  5
F3E
  8
0
 10
0.0
 20
0.0
 30
0.0
 70
   128
 71
     1
 72
     2
 73
     3
  0
VERTEX
  5
F3F
  8
0
 10
0.0
 20
0.0
 30
0.0
 70
   128
 71
     4
 72
     5
 73
     6
  0
VERTEX
  5
F40
  8
0
 10
0.0
 20
0.0
 30
0.0
 70
   128
 71
     6
 72
     7
 73
     4
  0
VERTEX
  5
F41
  8
0
 10
0.0
 20
0.0
 30
0.0
 70
   128
 71
     7
 72
     8
 73
     4
  0
VERTEX
  5
F42
  8
0
 10
0.0
 20
0.0
 30
0.0
 70
   128
 71
     2
 72
     1
 73
     5
  0
VERTEX
  5
F43
  8
0
 10
0.0
 20
0.0
 30
0.0
 70
   128
 71
     4
 72
     2
 73
     5
  0
VERTEX
  5
F44
  8
0
 10
0.0
 20
0.0
 30
0.0
 70
   128
 71
     9
 72
    10
 73
    11
  0
VERTEX
  5
F45
  8
0
 10
0.0
 20
0.0
 30
0.0
 70
   128
 71
    11
 72
    12
 73
     9
  0
VERTEX
  5
F46
  8
0
 10
0.0
 20
0.0
 30
0.0
 70
   128
 71
    13
 72
    14
 73
    15
  0
VERTEX
  5
F47
  8
0
 10
0.0
 20
0.0
 30
0.0
 70
   128
 71
    16
 72
    13
 73
    15
  0
VERTEX
  5
F48
  8
0
 10
0.0
 20
0.0
 30
0.0
 70
   128
 71
    17
 72
    13
 73
    16
  0
VERTEX
  5
F49
  8
0
 10
0.0
 20
0.0
 30
0.0
 70
   128
 71
    18
 72
    17
 73
    16
  0
VERTEX
  5
F4A
  8
0
 10
0.0
 20
0.0
 30
0.0
 70
   128
 71
    19
 72
    20
 73
    21
  0
VERTEX
  5
F4B
  8
0
 10
0.0
 20
0.0
 30
0.0
 70
   128
 71
    14
 72
    13
 73
    19
  0
VERTEX
  5
F4C
  8
0
 10
0.0
 20
0.0
 30
0.0
 70
   128
 71
    21
 72
    14
 73
    19
  0
VERTEX
  5
F4D
  8
0
 10
0.0
 20
0.0
 30
0.0
 70
   128
 71
    22
 72
    23
 73
    20
  0
VERTEX
  5
F4E
  8
0
 10
0.0
 20
0.0
 30
0.0
 70
   128
 71
    19
 72
    22
 73
    20
  0
VERTEX
  5
F4F
  8
0
 10
0.0
 20
0.0
 30
0.0
 70
   128
 71
    17
 72
    22
 73
    19
  0
VERTEX
  5
F50
  8
0
 10
0.0
 20
0.0
 30
0.0
 70
   128
 71
    13
 72
    17
 73
    19
  0
VERTEX
  5
F51
  8
0
 10
0.0
 20
0.0
 30
0.0
 70
   128
 71
    20
 72
    23
 73
    24
  0
VERTEX
  5
F52
  8
0
 10
0.0
 20
0.0
 30
0.0
 70
   128
 71
    24
 72
    25
 73
    20
  0
VERTEX
  5
F53
  8
0
 10
0.0
 20
0.0
 30
0.0
 70
   128
 71
    26
 72
    27
 73
    20
  0
VERTEX
  5
F54
  8
0
 10
0.0
 20
0.0
 30
0.0
 70
   128
 71
    27
 72
    28
 73
    29
  0
VERTEX
  5
F55
  8
0
 10
0.0
 20
0.0
 30
0.0
 70
   128
 71
    10
 72
    16
 73
    15
  0
VERTEX
  5
F56
  8
0
 10
0.0
 20
0.0
 30
0.0
 70
   128
 71
    11
 72
    10
 73
    15
  0
VERTEX
  5
F57
  8
0
 10
0.0
 20
0.0
 30
0.0
 70
   128
 71
     1
 72
     3
 73
    10
  0
VERTEX
  5
F58
  8
0
 10
0.0
 20
0.0
 30
0.0
 70
   128
 71
     9
 72
     1
 73
    10
  0
VERTEX
  5
F59
  8
0
 10
0.0
 20
0.0
 30
0.0
 70
   128
 71
    20
 72
    27
 73
    29
  0
VERTEX
  5
F5A
  8
0
 10
0.0
 20
0.0
 30
0.0
 70
   128
 71
    21
 72
    20
 73
    29
  0
VERTEX
  5
F5B
  8
0
 10
0.0
 20
0.0
 30
0.0
 70
   128
 71
    26
 72
    20
 73
    25
  0
VERTEX
  5
F5C
  8
0
 10
0.0
 20
0.0
 30
0.0
 70
   128
 71
    10
 72
     3
 73
    30
  0
VERTEX
  5
F5D
  8
0
 10
0.0
 20
0.0
 30
0.0
 70
   128
 71
    10
 72
    30
 73
    18
  0
VERTEX
  5
F5E
  8
0
 10
0.0
 20
0.0
 30
0.0
 70
   128
 71
    16
 72
    10
 73
    18
  0
SEQEND
  5
1753
  8
0
  0
POLYLINE
  5
F5F
  8
0
 66
     1
 10
0.0
 20
0.0
 30
0.0
 70
    64
 71
    18
 72
    18
  0
VERTEX
  5
F60
  8
0
 10
98.8931353409061
 20
77.87085229419519
 30
-102.9173174810428
 70
   192
  0
VERTEX
  5
F61
  8
0
 10
100.4004024317957
 20
78.47363820981629
 30
-101.620241678599
 70
   192
  0
VERTEX
  5
F62
  8
0
 10
101.6089076383654
 20
78.4758373114864
 30
-100.4125032981965
 70
   192
  0
VERTEX
  5
F63
  8
0
 10
102.917654961011
 20
77.8696083660008
 30
-98.8923641035074
 70
   192
  0
VERTEX
  5
F64
  8
0
 10
107.8938194216192
 20
65.04317189678021
 30
-89.44362465770595
 70
   192
  0
VERTEX
  5
F65
  8
0
 10
105.2345434547839
 20
48.79361924641059
 30
-86.4366859374748
 70
   192
  0
VERTEX
  5
F66
  8
0
 10
94.4040712554468
 20
40.91425847952235
 30
-94.5196271331801
 70
   192
  0
VERTEX
  5
F67
  8
0
 10
86.41391652444857
 20
48.93998780696695
 30
-105.3083515459446
 70
   192
  0
VERTEX
  5
F68
  8
0
 10
89.46898888165745
 20
65.10611069366504
 30
-107.8904019394007
 70
   192
  0
VERTEX
  5
F69
  8
0
 10
88.446163804505
 20
57.1066962681688
 30
-106.1238333341018
 70
   192
  0
VERTEX
  5
F6A
  8
0
 10
88.89047719948789
 20
49.9730296014426
 30
-103.1920122698703
 70
   192
  0
VERTEX
  5
F6B
  8
0
 10
92.54121243845836
 20
45.56418113699364
 30
-98.00391274402669
 70
   192
  0
VERTEX
  5
F6C
  8
0
 10
98.00391274405666
 20
45.56418113699364
 30
-92.54121243842606
 70
   192
  0
VERTEX
  5
F6D
  8
0
 10
103.1920122698987
 20
49.9730296014426
 30
-88.89047719945336
 70
   192
  0
VERTEX
  5
F6E
  8
0
 10
106.12383333413
 20
57.10669626816881
 30
-88.44616380446922
 70
   192
  0
VERTEX
  5
F6F
  8
0
 10
105.0312368079453
 20
65.68851089365141
 30
-92.53123680793738
 70
   192
  0
VERTEX
  5
F70
  8
0
 10
99.40099897894555
 20
69.24321490129807
 30
-99.40099897891264
 70
   192
  0
VERTEX
  5
F71
  8
0
 10
92.53123680797269
 20
65.6885108936514
 30
-105.0312368079153
 70
   192
  0
VERTEX
  5
F72
  8
0
 10
0.0
 20
0.0
 30
0.0
 70
   128
 71
   -10
 72
     9
 73
    -8
  0
VERTEX
  5
F73
  8
0
 10
0.0
 20
0.0
 30
0.0
 70
   128
 71
    -8
 72
    11
 73
   -10
  0
VERTEX
  5
F74
  8
0
 10
0.0
 20
0.0
 30
0.0
 70
   128
 71
     8
 72
    -7
 73
   -12
  0
VERTEX
  5
F75
  8
0
 10
0.0
 20
0.0
 30
0.0
 70
   128
 71
    -8
 72
    12
 73
   -11
  0
VERTEX
  5
F76
  8
0
 10
0.0
 20
0.0
 30
0.0
 70
   128
 71
    -7
 72
    13
 73
   -12
  0
VERTEX
  5
F77
  8
0
 10
0.0
 20
0.0
 30
0.0
 70
   128
 71
     7
 72
    -6
 73
   -14
  0
VERTEX
  5
F78
  8
0
 10
0.0
 20
0.0
 30
0.0
 70
   128
 71
    -7
 72
    14
 73
   -13
  0
VERTEX
  5
F79
  8
0
 10
0.0
 20
0.0
 30
0.0
 70
   128
 71
    -6
 72
    15
 73
   -14
  0
VERTEX
  5
F7A
  8
0
 10
0.0
 20
0.0
 30
0.0
 70
   128
 71
     6
 72
    -5
 73
   -15
  0
VERTEX
  5
F7B
  8
0
 10
0.0
 20
0.0
 30
0.0
 70
   128
 71
    -5
 72
    16
 73
   -15
  0
VERTEX
  5
F7C
  8
0
 10
0.0
 20
0.0
 30
0.0
 70
   128
 71
     5
 72
     4
 73
    -3
  0
VERTEX
  5
F7D
  8
0
 10
0.0
 20
0.0
 30
0.0
 70
   128
 71
    -5
 72
     3
 73
    -2
  0
VERTEX
  5
F7E
  8
0
 10
0.0
 20
0.0
 30
0.0
 70
   128
 71
    -5
 72
    -2
 73
   -17
  0
VERTEX
  5
F7F
  8
0
 10
0.0
 20
0.0
 30
0.0
 70
   128
 71
    -5
 72
    17
 73
   -16
  0
VERTEX
  5
F80
  8
0
 10
0.0
 20
0.0
 30
0.0
 70
   128
 71
     2
 72
     1
 73
    -9
  0
VERTEX
  5
F81
  8
0
 10
0.0
 20
0.0
 30
0.0
 70
   128
 71
    -2
 72
    -9
 73
   -18
  0
VERTEX
  5
F82
  8
0
 10
0.0
 20
0.0
 30
0.0
 70
   128
 71
    -2
 72
    18
 73
   -17
  0
VERTEX
  5
F83
  8
0
 10
0.0
 20
0.0
 30
0.0
 70
   128
 71
    -9
 72
    10
 73
   -18
  0
SEQEND
  5
1754
  8
0
  0
POLYLINE
  5
F84
  8
0
 66
     1
 10
0.0
 20
0.0
 30
0.0
 70
    64
 71
    34
 72
    37
  0
VERTEX
  5
F85
  8
0
 10
-133.2880539492606
 20
39.66893694563567
 30
0.0
 70
   192
  0
VERTEX
  5
F86
  8
0
 10
-117.4205989659392
 20
17.12117167720591
 30
0.0
 70
   192
  0
VERTEX
  5
F87
  8
0
 10
-93.93647917275128
 20
17.12117167720592
 30
-70.45235937956348
 70
   192
  0
VERTEX
  5
F88
  8
0
 10
-124.0447172339439
 20
80.16973528496189
 30
-71.61725088656854
 70
   192
  0
VERTEX
  5
F89
  8
0
 10
-143.234501773137
 20
80.16973528496189
 30
-0.0000000000000557
 70
   192
  0
VERTEX
  5
F8A
  8
0
 10
-88.11868702330611
 20
6.08964791329663
 30
0.0
 70
   192
  0
VERTEX
  5
F8B
  8
0
 10
-37.86886832149474
 20
0.137574087531891
 30
0.0
 70
   192
  0
VERTEX
  5
F8C
  8
0
 10
-32.79540197898223
 20
0.137574087531891
 30
-18.93443416074737
 70
   192
  0
VERTEX
  5
F8D
  8
0
 10
-18.93443416074739
 20
0.137574087531891
 30
-32.79540197898222
 70
   192
  0
VERTEX
  5
F8E
  8
0
 10
-0.0000000000000046
 20
0.137574087531891
 30
-37.86886832149474
 70
   192
  0
VERTEX
  5
F8F
  8
0
 10
0.0000000000000122
 20
17.12117167720593
 30
-117.4205989659391
 70
   192
  0
VERTEX
  5
F90
  8
0
 10
-55.25675245455957
 20
17.12117167720592
 30
-103.6064108522992
 70
   192
  0
VERTEX
  5
F91
  8
0
 10
-71.61725088656847
 20
80.16973528496189
 30
-124.0447172339439
 70
   192
  0
VERTEX
  5
F92
  8
0
 10
18.93443416074738
 20
0.137574087531891
 30
-32.79540197898222
 70
   192
  0
VERTEX
  5
F93
  8
0
 10
93.93647917275129
 20
17.12117167720593
 30
-70.45235937956346
 70
   192
  0
VERTEX
  5
F94
  8
0
 10
55.25675245455959
 20
17.12117167720592
 30
-103.6064108522992
 70
   192
  0
VERTEX
  5
F95
  8
0
 10
87.83340586180323
 20
66.15113638343983
 30
-109.6723438819381
 70
   192
  0
VERTEX
  5
F96
  8
0
 10
98.4904933955191
 20
80.16973528496189
 30
-103.998775035603
 70
   192
  0
VERTEX
  5
F97
  8
0
 10
69.35657947332724
 20
80.16973528496189
 30
-125.3227329017319
 70
   192
  0
VERTEX
  5
F98
  8
0
 10
84.61363246004377
 20
48.04010640222264
 30
-106.5875885920636
 70
   192
  0
VERTEX
  5
F99
  8
0
 10
93.77663056529991
 20
38.21180766983065
 30
-93.9109557925276
 70
   192
  0
VERTEX
  5
F9A
  8
0
 10
106.5072645276319
 20
47.88038886988615
 30
-84.63892776967398
 70
   192
  0
VERTEX
  5
F9B
  8
0
 10
35.81608081694101
 20
80.16973528496189
 30
-138.6842848094662
 70
   192
  0
VERTEX
  5
F9C
  8
0
 10
0.0000000000000175
 20
80.16973528496189
 30
-143.234501773137
 70
   192
  0
VERTEX
  5
F9D
  8
0
 10
117.4205989659392
 20
17.12117167720591
 30
0.0000000000000152
 70
   192
  0
VERTEX
  5
F9E
  8
0
 10
138.6844609369588
 20
80.16973528496189
 30
-35.81539882262852
 70
   192
  0
VERTEX
  5
F9F
  8
0
 10
125.3234150315414
 20
80.16973528496189
 30
-69.3553468957571
 70
   192
  0
VERTEX
  5
FA0
  8
0
 10
133.2880539492606
 20
39.66893694563567
 30
0.0000000000000164
 70
   192
  0
VERTEX
  5
FA1
  8
0
 10
143.234501773137
 20
80.16973528496189
 30
0.0000000000000175
 70
   192
  0
VERTEX
  5
FA2
  8
0
 10
88.11868702330611
 20
6.08964791329663
 30
0.0000000000000135
 70
   192
  0
VERTEX
  5
FA3
  8
0
 10
32.79540197898223
 20
0.137574087531891
 30
-18.93443416074736
 70
   192
  0
VERTEX
  5
FA4
  8
0
 10
37.86886832149474
 20
0.137574087531891
 30
-0.000000000000007
 70
   192
  0
VERTEX
  5
FA5
  8
0
 10
109.6778223035069
 20
66.0710578197691
 30
-87.79980993002115
 70
   192
  0
VERTEX
  5
FA6
  8
0
 10
104.0002280349227
 20
80.16973528496189
 30
-98.48895911158198
 70
   192
  0
VERTEX
  5
FA7
  8
0
 10
0.0
 20
0.0
 30
0.0
 70
   128
 71
     1
 72
     2
 73
     3
  0
VERTEX
  5
FA8
  8
0
 10
0.0
 20
0.0
 30
0.0
 70
   128
 71
     4
 72
     5
 73
     1
  0
VERTEX
  5
FA9
  8
0
 10
0.0
 20
0.0
 30
0.0
 70
   128
 71
     6
 72
     7
 73
     8
  0
VERTEX
  5
FAA
  8
0
 10
0.0
 20
0.0
 30
0.0
 70
   128
 71
     8
 72
     3
 73
     2
  0
VERTEX
  5
FAB
  8
0
 10
0.0
 20
0.0
 30
0.0
 70
   128
 71
     8
 72
     2
 73
     6
  0
VERTEX
  5
FAC
  8
0
 10
0.0
 20
0.0
 30
0.0
 70
   128
 71
     9
 72
    10
 73
    11
  0
VERTEX
  5
FAD
  8
0
 10
0.0
 20
0.0
 30
0.0
 70
   128
 71
     9
 72
    11
 73
    12
  0
VERTEX
  5
FAE
  8
0
 10
0.0
 20
0.0
 30
0.0
 70
   128
 71
    13
 72
     3
 73
    12
  0
VERTEX
  5
FAF
  8
0
 10
0.0
 20
0.0
 30
0.0
 70
   128
 71
    14
 72
    15
 73
    16
  0
VERTEX
  5
FB0
  8
0
 10
0.0
 20
0.0
 30
0.0
 70
   128
 71
    16
 72
    11
 73
    10
  0
VERTEX
  5
FB1
  8
0
 10
0.0
 20
0.0
 30
0.0
 70
   128
 71
    16
 72
    10
 73
    14
  0
VERTEX
  5
FB2
  8
0
 10
0.0
 20
0.0
 30
0.0
 70
   128
 71
    17
 72
    18
 73
    19
  0
VERTEX
  5
FB3
  8
0
 10
0.0
 20
0.0
 30
0.0
 70
   128
 71
    19
 72
    20
 73
    17
  0
VERTEX
  5
FB4
  8
0
 10
0.0
 20
0.0
 30
0.0
 70
   128
 71
    20
 72
    19
 73
    16
  0
VERTEX
  5
FB5
  8
0
 10
0.0
 20
0.0
 30
0.0
 70
   128
 71
    16
 72
    15
 73
    21
  0
VERTEX
  5
FB6
  8
0
 10
0.0
 20
0.0
 30
0.0
 70
   128
 71
    16
 72
    21
 73
    20
  0
VERTEX
  5
FB7
  8
0
 10
0.0
 20
0.0
 30
0.0
 70
   128
 71
    15
 72
    22
 73
    21
  0
VERTEX
  5
FB8
  8
0
 10
0.0
 20
0.0
 30
0.0
 70
   128
 71
    23
 72
    24
 73
    11
  0
VERTEX
  5
FB9
  8
0
 10
0.0
 20
0.0
 30
0.0
 70
   128
 71
    23
 72
    11
 73
    16
  0
VERTEX
  5
FBA
  8
0
 10
0.0
 20
0.0
 30
0.0
 70
   128
 71
    15
 72
    25
 73
    26
  0
VERTEX
  5
FBB
  8
0
 10
0.0
 20
0.0
 30
0.0
 70
   128
 71
    15
 72
    26
 73
    27
  0
VERTEX
  5
FBC
  8
0
 10
0.0
 20
0.0
 30
0.0
 70
   128
 71
    28
 72
    29
 73
    26
  0
VERTEX
  5
FBD
  8
0
 10
0.0
 20
0.0
 30
0.0
 70
   128
 71
    26
 72
    25
 73
    28
  0
VERTEX
  5
FBE
  8
0
 10
0.0
 20
0.0
 30
0.0
 70
   128
 71
    30
 72
    25
 73
    15
  0
VERTEX
  5
FBF
  8
0
 10
0.0
 20
0.0
 30
0.0
 70
   128
 71
    30
 72
    15
 73
    31
  0
VERTEX
  5
FC0
  8
0
 10
0.0
 20
0.0
 30
0.0
 70
   128
 71
    31
 72
    32
 73
    30
  0
VERTEX
  5
FC1
  8
0
 10
0.0
 20
0.0
 30
0.0
 70
   128
 71
     9
 72
    12
 73
     3
  0
VERTEX
  5
FC2
  8
0
 10
0.0
 20
0.0
 30
0.0
 70
   128
 71
     9
 72
     3
 73
     8
  0
VERTEX
  5
FC3
  8
0
 10
0.0
 20
0.0
 30
0.0
 70
   128
 71
    13
 72
     4
 73
     1
  0
VERTEX
  5
FC4
  8
0
 10
0.0
 20
0.0
 30
0.0
 70
   128
 71
    13
 72
     1
 73
     3
  0
VERTEX
  5
FC5
  8
0
 10
0.0
 20
0.0
 30
0.0
 70
   128
 71
    11
 72
    24
 73
    13
  0
VERTEX
  5
FC6
  8
0
 10
0.0
 20
0.0
 30
0.0
 70
   128
 71
    11
 72
    13
 73
    12
  0
VERTEX
  5
FC7
  8
0
 10
0.0
 20
0.0
 30
0.0
 70
   128
 71
    31
 72
    15
 73
    14
  0
VERTEX
  5
FC8
  8
0
 10
0.0
 20
0.0
 30
0.0
 70
   128
 71
    22
 72
    15
 73
    27
  0
VERTEX
  5
FC9
  8
0
 10
0.0
 20
0.0
 30
0.0
 70
   128
 71
    27
 72
    33
 73
    22
  0
VERTEX
  5
FCA
  8
0
 10
0.0
 20
0.0
 30
0.0
 70
   128
 71
    27
 72
    34
 73
    33
  0
VERTEX
  5
FCB
  8
0
 10
0.0
 20
0.0
 30
0.0
 70
   128
 71
    19
 72
    23
 73
    16
  0
SEQEND
  5
1755
  8
0
  0
POLYLINE
  5
FCC
  8
0
 66
     1
 10
0.0
 20
0.0
 30
0.0
 70
    64
 71
    53
 72
    53
  0
VERTEX
  5
FCD
  8
0
 10
215.0
 20
0.0
 30
-213.0
 70
   192
  0
VERTEX
  5
FCE
  8
0
 10
214.7320508075689
 20
0.0
 30
-214.0
 70
   192
  0
VERTEX
  5
FCF
  8
0
 10
214.0
 20
0.0
 30
-214.7320508075689
 70
   192
  0
VERTEX
  5
FD0
  8
0
 10
213.0
 20
0.0
 30
-215.0
 70
   192
  0
VERTEX
  5
FD1
  8
0
 10
-52.9987809114024
 20
0.0
 30
-215.0
 70
   192
  0
VERTEX
  5
FD2
  8
0
 10
-53.97746044935563
 20
0.0
 30
-214.7445208382055
 70
   192
  0
VERTEX
  5
FD3
  8
0
 10
-54.74436511233894
 20
0.0
 30
-213.9780833528218
 70
   192
  0
VERTEX
  5
FD4
  8
0
 10
-55.00000000000001
 20
0.0
 30
-213.0
 70
   192
  0
VERTEX
  5
FD5
  8
0
 10
-54.99999999999999
 20
0.0
 30
-181.6590212458495
 70
   192
  0
VERTEX
  5
FD6
  8
0
 10
-57.60633931487559
 20
0.0
 30
-167.4564109024731
 70
   192
  0
VERTEX
  5
FD7
  8
0
 10
-65.08570702828906
 20
0.0
 30
-155.1046416446868
 70
   192
  0
VERTEX
  5
FD8
  8
0
 10
-76.4634146341464
 20
0.0
 30
-146.2133585637325
 70
   192
  0
VERTEX
  5
FD9
  8
0
 10
-140.0592238539373
 20
0.0
 30
-87.22622205181588
 70
   192
  0
VERTEX
  5
FDA
  8
0
 10
-164.9482236600163
 20
0.0
 30
-4.133220464145933
 70
   192
  0
VERTEX
  5
FDB
  8
0
 10
-144.2520825474447
 20
0.0
 30
80.10203917956888
 70
   192
  0
VERTEX
  5
FDC
  8
0
 10
-83.69039232603446
 20
0.0
 30
142.2002750781953
 70
   192
  0
VERTEX
  5
FDD
  8
0
 10
0.0
 20
0.0
 30
165.0
 70
   192
  0
VERTEX
  5
FDE
  8
0
 10
58.58576766642744
 20
0.0
 30
154.2488503261382
 70
   192
  0
VERTEX
  5
FDF
  8
0
 10
109.536815854796
 20
0.0
 30
123.3964585083077
 70
   192
  0
VERTEX
  5
FE0
  8
0
 10
146.2133585637325
 20
0.0
 30
76.46341463414635
 70
   192
  0
VERTEX
  5
FE1
  8
0
 10
155.1046416446868
 20
0.0
 30
65.08570702828905
 70
   192
  0
VERTEX
  5
FE2
  8
0
 10
167.4564109024731
 20
0.0
 30
57.60633931487558
 70
   192
  0
VERTEX
  5
FE3
  8
0
 10
181.6590212458495
 20
0.0
 30
54.99999999999999
 70
   192
  0
VERTEX
  5
FE4
  8
0
 10
213.0
 20
0.0
 30
55.0
 70
   192
  0
VERTEX
  5
FE5
  8
0
 10
213.9780833528216
 20
0.0
 30
54.7443651123389
 70
   192
  0
VERTEX
  5
FE6
  8
0
 10
214.7445208382055
 20
0.0
 30
53.97746044935561
 70
   192
  0
VERTEX
  5
FE7
  8
0
 10
215.0
 20
0.0
 30
52.99878091140238
 70
   192
  0
VERTEX
  5
FE8
  8
0
 10
194.0
 20
0.0
 30
31.96180162456655
 70
   192
  0
VERTEX
  5
FE9
  8
0
 10
192.7226041910273
 20
0.0000000000000012
 30
36.87089898623339
 70
   192
  0
VERTEX
  5
FEA
  8
0
 10
188.8904167641087
 20
0.0000000000000095
 30
40.71772474655835
 70
   192
  0
VERTEX
  5
FEB
  8
0
 10
184.0
 20
0.0000000000000278
 30
41.99999999999999
 70
   192
  0
VERTEX
  5
FEC
  8
0
 10
181.6590212458495
 20
0.0000000000000278
 30
42.0
 70
   192
  0
VERTEX
  5
FED
  8
0
 10
162.8405625408758
 20
0.0000000000000278
 30
45.45339959221016
 70
   192
  0
VERTEX
  5
FEE
  8
0
 10
146.4744682743089
 20
0.0000000000000278
 30
55.36356181248303
 70
   192
  0
VERTEX
  5
FEF
  8
0
 10
134.6935181920444
 20
0.0
 30
70.43902439024404
 70
   192
  0
VERTEX
  5
FF0
  8
0
 10
79.8915719016878
 20
0.0
 30
129.311007803193
 70
   192
  0
VERTEX
  5
FF1
  8
0
 10
2.719834201533378
 20
0.0
 30
151.9756641765917
 70
   192
  0
VERTEX
  5
FF2
  8
0
 10
-75.2134622251461
 20
0.0
 30
132.0868468096143
 70
   192
  0
VERTEX
  5
FF3
  8
0
 10
-132.0868468096144
 20
0.0
 30
75.213462225146
 70
   192
  0
VERTEX
  5
FF4
  8
0
 10
-151.9756641765917
 20
0.0
 30
-2.719834201533505
 70
   192
  0
VERTEX
  5
FF5
  8
0
 10
-129.311007803193
 20
0.0
 30
-79.8915719016879
 70
   192
  0
VERTEX
  5
FF6
  8
0
 10
-70.43902439024393
 20
0.0000000000000278
 30
-134.6935181920445
 70
   192
  0
VERTEX
  5
FF7
  8
0
 10
-55.36356181248301
 20
0.0000000000000278
 30
-146.4744682743089
 70
   192
  0
VERTEX
  5
FF8
  8
0
 10
-45.45339959221016
 20
0.0000000000000278
 30
-162.8405625408758
 70
   192
  0
VERTEX
  5
FF9
  8
0
 10
-42.00000000000001
 20
0.0000000000000278
 30
-181.6590212458495
 70
   192
  0
VERTEX
  5
FFA
  8
0
 10
-42.0
 20
0.0000000000000278
 30
-184.0
 70
   192
  0
VERTEX
  5
FFB
  8
0
 10
-40.71772474655835
 20
0.0000000000000095
 30
-188.8904167641086
 70
   192
  0
VERTEX
  5
FFC
  8
0
 10
-36.87089898623338
 20
0.0000000000000012
 30
-192.722604191027
 70
   192
  0
VERTEX
  5
FFD
  8
0
 10
-31.96180162456655
 20
0.0
 30
-194.0
 70
   192
  0
VERTEX
  5
FFE
  8
0
 10
174.0
 20
0.0
 30
-194.0
 70
   192
  0
VERTEX
  5
FFF
  8
0
 10
184.0
 20
0.0
 30
-191.3205080756888
 70
   192
  0
VERTEX
  5
1000
  8
0
 10
191.3205080756888
 20
0.0
 30
-184.0
 70
   192
  0
VERTEX
  5
1001
  8
0
 10
194.0
 20
0.0
 30
-174.0
 70
   192
  0
VERTEX
  5
1002
  8
0
 10
0.0
 20
0.0
 30
0.0
 70
   128
 71
    46
 72
   -45
 73
    -9
  0
VERTEX
  5
1003
  8
0
 10
0.0
 20
0.0
 30
0.0
 70
   128
 71
    -9
 72
    47
 73
   -46
  0
VERTEX
  5
1004
  8
0
 10
0.0
 20
0.0
 30
0.0
 70
   128
 71
     9
 72
    -8
 73
   -48
  0
VERTEX
  5
1005
  8
0
 10
0.0
 20
0.0
 30
0.0
 70
   128
 71
    -9
 72
    48
 73
   -47
  0
VERTEX
  5
1006
  8
0
 10
0.0
 20
0.0
 30
0.0
 70
   128
 71
    -8
 72
    49
 73
   -48
  0
VERTEX
  5
1007
  8
0
 10
0.0
 20
0.0
 30
0.0
 70
   128
 71
     8
 72
     7
 73
    -6
  0
VERTEX
  5
1008
  8
0
 10
0.0
 20
0.0
 30
0.0
 70
   128
 71
    -8
 72
     6
 73
    -5
  0
VERTEX
  5
1009
  8
0
 10
0.0
 20
0.0
 30
0.0
 70
   128
 71
    -8
 72
     5
 73
    -4
  0
VERTEX
  5
100A
  8
0
 10
0.0
 20
0.0
 30
0.0
 70
   128
 71
    -8
 72
    -4
 73
   -50
  0
VERTEX
  5
100B
  8
0
 10
0.0
 20
0.0
 30
0.0
 70
   128
 71
    -8
 72
    50
 73
   -49
  0
VERTEX
  5
100C
  8
0
 10
0.0
 20
0.0
 30
0.0
 70
   128
 71
    -4
 72
    51
 73
   -50
  0
VERTEX
  5
100D
  8
0
 10
0.0
 20
0.0
 30
0.0
 70
   128
 71
    -4
 72
    52
 73
   -51
  0
VERTEX
  5
100E
  8
0
 10
0.0
 20
0.0
 30
0.0
 70
   128
 71
    -4
 72
    53
 73
   -52
  0
VERTEX
  5
100F
  8
0
 10
0.0
 20
0.0
 30
0.0
 70
   128
 71
     4
 72
     3
 73
    -2
  0
VERTEX
  5
1010
  8
0
 10
0.0
 20
0.0
 30
0.0
 70
   128
 71
    -4
 72
     2
 73
    -1
  0
VERTEX
  5
1011
  8
0
 10
0.0
 20
0.0
 30
0.0
 70
   128
 71
    -4
 72
     1
 73
   -27
  0
VERTEX
  5
1012
  8
0
 10
0.0
 20
0.0
 30
0.0
 70
   128
 71
    -4
 72
    27
 73
   -26
  0
VERTEX
  5
1013
  8
0
 10
0.0
 20
0.0
 30
0.0
 70
   128
 71
    -4
 72
    26
 73
   -25
  0
VERTEX
  5
1014
  8
0
 10
0.0
 20
0.0
 30
0.0
 70
   128
 71
    -4
 72
    25
 73
   -24
  0
VERTEX
  5
1015
  8
0
 10
0.0
 20
0.0
 30
0.0
 70
   128
 71
    -4
 72
   -24
 73
   -28
  0
VERTEX
  5
1016
  8
0
 10
0.0
 20
0.0
 30
0.0
 70
   128
 71
    -4
 72
    28
 73
   -53
  0
VERTEX
  5
1017
  8
0
 10
0.0
 20
0.0
 30
0.0
 70
   128
 71
    45
 72
   -44
 73
   -10
  0
VERTEX
  5
1018
  8
0
 10
0.0
 20
0.0
 30
0.0
 70
   128
 71
   -45
 72
    10
 73
    -9
  0
VERTEX
  5
1019
  8
0
 10
0.0
 20
0.0
 30
0.0
 70
   128
 71
    44
 72
   -43
 73
   -11
  0
VERTEX
  5
101A
  8
0
 10
0.0
 20
0.0
 30
0.0
 70
   128
 71
   -44
 72
    11
 73
   -10
  0
VERTEX
  5
101B
  8
0
 10
0.0
 20
0.0
 30
0.0
 70
   128
 71
    43
 72
   -42
 73
   -12
  0
VERTEX
  5
101C
  8
0
 10
0.0
 20
0.0
 30
0.0
 70
   128
 71
   -43
 72
    12
 73
   -11
  0
VERTEX
  5
101D
  8
0
 10
0.0
 20
0.0
 30
0.0
 70
   128
 71
    36
 72
   -35
 73
   -20
  0
VERTEX
  5
101E
  8
0
 10
0.0
 20
0.0
 30
0.0
 70
   128
 71
   -36
 72
    20
 73
   -19
  0
VERTEX
  5
101F
  8
0
 10
0.0
 20
0.0
 30
0.0
 70
   128
 71
   -36
 72
    19
 73
   -18
  0
VERTEX
  5
1020
  8
0
 10
0.0
 20
0.0
 30
0.0
 70
   128
 71
    18
 72
   -17
 73
   -37
  0
VERTEX
  5
1021
  8
0
 10
0.0
 20
0.0
 30
0.0
 70
   128
 71
   -18
 72
    37
 73
   -36
  0
VERTEX
  5
1022
  8
0
 10
0.0
 20
0.0
 30
0.0
 70
   128
 71
    17
 72
   -16
 73
   -38
  0
VERTEX
  5
1023
  8
0
 10
0.0
 20
0.0
 30
0.0
 70
   128
 71
   -17
 72
    38
 73
   -37
  0
VERTEX
  5
1024
  8
0
 10
0.0
 20
0.0
 30
0.0
 70
   128
 71
    16
 72
   -15
 73
   -39
  0
VERTEX
  5
1025
  8
0
 10
0.0
 20
0.0
 30
0.0
 70
   128
 71
   -16
 72
    39
 73
   -38
  0
VERTEX
  5
1026
  8
0
 10
0.0
 20
0.0
 30
0.0
 70
   128
 71
    15
 72
   -14
 73
   -40
  0
VERTEX
  5
1027
  8
0
 10
0.0
 20
0.0
 30
0.0
 70
   128
 71
   -15
 72
    40
 73
   -39
  0
VERTEX
  5
1028
  8
0
 10
0.0
 20
0.0
 30
0.0
 70
   128
 71
    14
 72
   -13
 73
   -41
  0
VERTEX
  5
1029
  8
0
 10
0.0
 20
0.0
 30
0.0
 70
   128
 71
   -14
 72
    41
 73
   -40
  0
VERTEX
  5
102A
  8
0
 10
0.0
 20
0.0
 30
0.0
 70
   128
 71
    13
 72
   -12
 73
   -42
  0
VERTEX
  5
102B
  8
0
 10
0.0
 20
0.0
 30
0.0
 70
   128
 71
   -13
 72
    42
 73
   -41
  0
VERTEX
  5
102C
  8
0
 10
0.0
 20
0.0
 30
0.0
 70
   128
 71
    35
 72
   -34
 73
   -21
  0
VERTEX
  5
102D
  8
0
 10
0.0
 20
0.0
 30
0.0
 70
   128
 71
   -35
 72
    21
 73
   -20
  0
VERTEX
  5
102E
  8
0
 10
0.0
 20
0.0
 30
0.0
 70
   128
 71
    34
 72
   -33
 73
   -22
  0
VERTEX
  5
102F
  8
0
 10
0.0
 20
0.0
 30
0.0
 70
   128
 71
   -34
 72
    22
 73
   -21
  0
VERTEX
  5
1030
  8
0
 10
0.0
 20
0.0
 30
0.0
 70
   128
 71
    33
 72
   -32
 73
   -23
  0
VERTEX
  5
1031
  8
0
 10
0.0
 20
0.0
 30
0.0
 70
   128
 71
   -33
 72
    23
 73
   -22
  0
VERTEX
  5
1032
  8
0
 10
0.0
 20
0.0
 30
0.0
 70
   128
 71
    29
 72
   -28
 73
   -24
  0
VERTEX
  5
1033
  8
0
 10
0.0
 20
0.0
 30
0.0
 70
   128
 71
    24
 72
   -23
 73
   -30
  0
VERTEX
  5
1034
  8
0
 10
0.0
 20
0.0
 30
0.0
 70
   128
 71
   -24
 72
    30
 73
   -29
  0
VERTEX
  5
1035
  8
0
 10
0.0
 20
0.0
 30
0.0
 70
   128
 71
   -23
 72
    31
 73
   -30
  0
VERTEX
  5
1036
  8
0
 10
0.0
 20
0.0
 30
0.0
 70
   128
 71
   -23
 72
    32
 73
   -31
  0
SEQEND
  5
1756
  8
0
  0
POLYLINE
  5
1037
  8
0
 66
     1
 10
0.0
 20
0.0
 30
0.0
 70
    64
 71
    40
 72
    40
  0
VERTEX
  5
1038
  8
0
 10
213.0
 20
90.0
 30
47.02868687170739
 70
   192
  0
VERTEX
  5
1039
  8
0
 10
181.6590212458495
 20
90.0
 30
47.02868687170739
 70
   192
  0
VERTEX
  5
103A
  8
0
 10
164.6260745453186
 20
90.0
 30
50.15442485651922
 70
   192
  0
VERTEX
  5
103B
  8
0
 10
149.8128097764764
 20
90.0
 30
59.1243021210642
 70
   192
  0
VERTEX
  5
103C
  8
0
 10
139.1496466567579
 20
90.0
 30
72.76939147713271
 70
   192
  0
VERTEX
  5
103D
  8
0
 10
104.2449839865858
 20
90.0
 30
117.435053601083
 70
   192
  0
VERTEX
  5
103E
  8
0
 10
79.15829177793613
 20
90.0
 30
132.6258001108136
 70
   192
  0
VERTEX
  5
103F
  8
0
 10
134.2657341400495
 20
90.0
 30
77.5183577487002
 70
   192
  0
VERTEX
  5
1040
  8
0
 10
155.0367154974005
 20
90.0
 30
-0.0000000000000602
 70
   192
  0
VERTEX
  5
1041
  8
0
 10
134.2657341400494
 20
90.0
 30
-77.51835774870031
 70
   192
  0
VERTEX
  5
1042
  8
0
 10
77.51835774870023
 20
90.0
 30
-134.2657341400494
 70
   192
  0
VERTEX
  5
1043
  8
0
 10
-0.0000000000000861
 20
90.0
 30
-155.0367154974005
 70
   192
  0
VERTEX
  5
1044
  8
0
 10
-77.51835774870032
 20
90.0
 30
-134.2657341400494
 70
   192
  0
VERTEX
  5
1045
  8
0
 10
-134.2657341400494
 20
90.0
 30
-77.51835774870021
 70
   192
  0
VERTEX
  5
1046
  8
0
 10
-155.0367154974005
 20
90.0
 30
0.000000000000043
 70
   192
  0
VERTEX
  5
1047
  8
0
 10
-134.2657341400494
 20
90.0
 30
77.51835774870028
 70
   192
  0
VERTEX
  5
1048
  8
0
 10
-77.51835774870024
 20
90.0
 30
134.2657341400494
 70
   192
  0
VERTEX
  5
1049
  8
0
 10
0.0
 20
90.0
 30
155.0367154974005
 70
   192
  0
VERTEX
  5
104A
  8
0
 10
75.60206241982482
 20
90.0
 30
134.7792039258811
 70
   192
  0
VERTEX
  5
104B
  8
0
 10
55.755431309273
 20
90.0
 30
146.796935867782
 70
   192
  0
VERTEX
  5
104C
  8
0
 10
-0.0000000000000262
 20
90.0
 30
157.0286868717075
 70
   192
  0
VERTEX
  5
104D
  8
0
 10
-79.64722673172861
 20
90.0
 30
135.3304392019674
 70
   192
  0
VERTEX
  5
104E
  8
0
 10
-137.2831218238449
 20
90.0
 30
76.23223047341678
 70
   192
  0
VERTEX
  5
104F
  8
0
 10
-156.9794118978974
 20
90.0
 30
-3.933540497188517
 70
   192
  0
VERTEX
  5
1050
  8
0
 10
-133.292824279117
 20
90.0
 30
-83.01223702773713
 70
   192
  0
VERTEX
  5
1051
  8
0
 10
-72.7693914771327
 20
90.0
 30
-139.1496466567577
 70
   192
  0
VERTEX
  5
1052
  8
0
 10
-59.12430212106424
 20
90.0
 30
-149.8128097764764
 70
   192
  0
VERTEX
  5
1053
  8
0
 10
-50.15442485651921
 20
90.0
 30
-164.6260745453186
 70
   192
  0
VERTEX
  5
1054
  8
0
 10
-47.02868687170739
 20
90.0
 30
-181.6590212458495
 70
   192
  0
VERTEX
  5
1055
  8
0
 10
-47.02868687170739
 20
90.0
 30
-213.0
 70
   192
  0
VERTEX
  5
1056
  8
0
 10
213.0
 20
90.0
 30
-213.0
 70
   192
  0
VERTEX
  5
1057
  8
0
 10
155.0
 20
90.0
 30
-172.5
 70
   192
  0
VERTEX
  5
1058
  8
0
 10
142.6256313292354
 20
90.0
 30
-167.3743686707646
 70
   192
  0
VERTEX
  5
1059
  8
0
 10
137.5
 20
90.0
 30
-155.0
 70
   192
  0
VERTEX
  5
105A
  8
0
 10
142.6256313292354
 20
90.0
 30
-142.6256313292354
 70
   192
  0
VERTEX
  5
105B
  8
0
 10
155.0
 20
90.0
 30
-137.5
 70
   192
  0
VERTEX
  5
105C
  8
0
 10
167.3743686707646
 20
90.0
 30
-142.6256313292354
 70
   192
  0
VERTEX
  5
105D
  8
0
 10
172.5
 20
90.0
 30
-155.0
 70
   192
  0
VERTEX
  5
105E
  8
0
 10
167.3743686707646
 20
90.0
 30
-167.3743686707646
 70
   192
  0
VERTEX
  5
105F
  8
0
 10
77.51835774870034
 20
90.0
 30
134.2657341400494
 70
   192
  0
VERTEX
  5
1060
  8
0
 10
0.0
 20
0.0
 30
0.0
 70
   128
 71
     6
 72
    -5
 73
    -8
  0
VERTEX
  5
1061
  8
0
 10
0.0
 20
0.0
 30
0.0
 70
   128
 71
     8
 72
     7
 73
    -6
  0
VERTEX
  5
1062
  8
0
 10
0.0
 20
0.0
 30
0.0
 70
   128
 71
     5
 72
    -4
 73
    -8
  0
VERTEX
  5
1063
  8
0
 10
0.0
 20
0.0
 30
0.0
 70
   128
 71
     9
 72
    -8
 73
    -4
  0
VERTEX
  5
1064
  8
0
 10
0.0
 20
0.0
 30
0.0
 70
   128
 71
     4
 72
    -3
 73
    -9
  0
VERTEX
  5
1065
  8
0
 10
0.0
 20
0.0
 30
0.0
 70
   128
 71
    20
 72
    19
 73
   -18
  0
VERTEX
  5
1066
  8
0
 10
0.0
 20
0.0
 30
0.0
 70
   128
 71
    21
 72
   -20
 73
   -18
  0
VERTEX
  5
1067
  8
0
 10
0.0
 20
0.0
 30
0.0
 70
   128
 71
   -17
 72
    22
 73
   -21
  0
VERTEX
  5
1068
  8
0
 10
0.0
 20
0.0
 30
0.0
 70
   128
 71
    18
 72
   -17
 73
   -21
  0
VERTEX
  5
1069
  8
0
 10
0.0
 20
0.0
 30
0.0
 70
   128
 71
   -16
 72
    23
 73
   -22
  0
VERTEX
  5
106A
  8
0
 10
0.0
 20
0.0
 30
0.0
 70
   128
 71
    17
 72
   -16
 73
   -22
  0
VERTEX
  5
106B
  8
0
 10
0.0
 20
0.0
 30
0.0
 70
   128
 71
   -15
 72
    24
 73
   -23
  0
VERTEX
  5
106C
  8
0
 10
0.0
 20
0.0
 30
0.0
 70
   128
 71
    16
 72
   -15
 73
   -23
  0
VERTEX
  5
106D
  8
0
 10
0.0
 20
0.0
 30
0.0
 70
   128
 71
    15
 72
   -14
 73
   -24
  0
VERTEX
  5
106E
  8
0
 10
0.0
 20
0.0
 30
0.0
 70
   128
 71
   -14
 72
    25
 73
   -24
  0
VERTEX
  5
106F
  8
0
 10
0.0
 20
0.0
 30
0.0
 70
   128
 71
    14
 72
   -13
 73
   -25
  0
VERTEX
  5
1070
  8
0
 10
0.0
 20
0.0
 30
0.0
 70
   128
 71
   -13
 72
    26
 73
   -25
  0
VERTEX
  5
1071
  8
0
 10
0.0
 20
0.0
 30
0.0
 70
   128
 71
   -12
 72
    30
 73
   -29
  0
VERTEX
  5
1072
  8
0
 10
0.0
 20
0.0
 30
0.0
 70
   128
 71
    29
 72
   -28
 73
   -12
  0
VERTEX
  5
1073
  8
0
 10
0.0
 20
0.0
 30
0.0
 70
   128
 71
    28
 72
   -27
 73
   -12
  0
VERTEX
  5
1074
  8
0
 10
0.0
 20
0.0
 30
0.0
 70
   128
 71
   -27
 72
    13
 73
   -12
  0
VERTEX
  5
1075
  8
0
 10
0.0
 20
0.0
 30
0.0
 70
   128
 71
    27
 72
   -26
 73
   -13
  0
VERTEX
  5
1076
  8
0
 10
0.0
 20
0.0
 30
0.0
 70
   128
 71
    12
 72
   -11
 73
   -30
  0
VERTEX
  5
1077
  8
0
 10
0.0
 20
0.0
 30
0.0
 70
   128
 71
   -10
 72
    36
 73
   -35
  0
VERTEX
  5
1078
  8
0
 10
0.0
 20
0.0
 30
0.0
 70
   128
 71
   -34
 72
    11
 73
   -10
  0
VERTEX
  5
1079
  8
0
 10
0.0
 20
0.0
 30
0.0
 70
   128
 71
    35
 72
   -34
 73
   -10
  0
VERTEX
  5
107A
  8
0
 10
0.0
 20
0.0
 30
0.0
 70
   128
 71
    34
 72
   -33
 73
   -11
  0
VERTEX
  5
107B
  8
0
 10
0.0
 20
0.0
 30
0.0
 70
   128
 71
    31
 72
   -30
 73
   -11
  0
VERTEX
  5
107C
  8
0
 10
0.0
 20
0.0
 30
0.0
 70
   128
 71
   -33
 72
   -31
 73
   -11
  0
VERTEX
  5
107D
  8
0
 10
0.0
 20
0.0
 30
0.0
 70
   128
 71
    33
 72
   -32
 73
   -31
  0
VERTEX
  5
107E
  8
0
 10
0.0
 20
0.0
 30
0.0
 70
   128
 71
   -31
 72
    32
 73
   -39
  0
VERTEX
  5
107F
  8
0
 10
0.0
 20
0.0
 30
0.0
 70
   128
 71
    39
 72
   -38
 73
   -31
  0
VERTEX
  5
1080
  8
0
 10
0.0
 20
0.0
 30
0.0
 70
   128
 71
    38
 72
   -37
 73
   -31
  0
VERTEX
  5
1081
  8
0
 10
0.0
 20
0.0
 30
0.0
 70
   128
 71
    -2
 72
   -31
 73
   -37
  0
VERTEX
  5
1082
  8
0
 10
0.0
 20
0.0
 30
0.0
 70
   128
 71
   -10
 72
    -2
 73
   -37
  0
VERTEX
  5
1083
  8
0
 10
0.0
 20
0.0
 30
0.0
 70
   128
 71
    37
 72
   -36
 73
   -10
  0
VERTEX
  5
1084
  8
0
 10
0.0
 20
0.0
 30
0.0
 70
   128
 71
    10
 72
    -9
 73
    -2
  0
VERTEX
  5
1085
  8
0
 10
0.0
 20
0.0
 30
0.0
 70
   128
 71
    -9
 72
     3
 73
    -2
  0
VERTEX
  5
1086
  8
0
 10
0.0
 20
0.0
 30
0.0
 70
   128
 71
     2
 72
     1
 73
   -31
  0
VERTEX
  5
1087
  8
0
 10
0.0
 20
0.0
 30
0.0
 70
   128
 71
     7
 72
    19
 73
    40
  0
SEQEND
  5
1757
  8
0
  0
POLYLINE
  5
1088
  8
0
 66
     1
 10
0.0
 20
0.0
 30
0.0
 70
    64
 71
    15
 72
    15
  0
VERTEX
  5
1089
  8
0
 10
215.0
 20
88.0
 30
47.02868687170739
 70
   192
  0
VERTEX
  5
108A
  8
0
 10
215.0
 20
88.0
 30
-213.0
 70
   192
  0
VERTEX
  5
108B
  8
0
 10
215.0
 20
0.0
 30
-213.0
 70
   192
  0
VERTEX
  5
108C
  8
0
 10
215.0
 20
0.0000000000000142
 30
52.99878091140242
 70
   192
  0
VERTEX
  5
108D
  8
0
 10
215.0
 20
85.10469849010751
 30
50.02685935276468
 70
   192
  0
VERTEX
  5
108E
  8
0
 10
215.0
 20
86.56004838378766
 30
49.59115619644897
 70
   192
  0
VERTEX
  5
108F
  8
0
 10
215.0
 20
87.61535324109029
 30
48.49835602642165
 70
   192
  0
VERTEX
  5
1090
  8
0
 10
215.0
 20
47.0
 30
-45.5
 70
   192
  0
VERTEX
  5
1091
  8
0
 10
215.0
 20
40.2824855787278
 30
-48.28248557872779
 70
   192
  0
VERTEX
  5
1092
  8
0
 10
215.0
 20
37.5
 30
-55.0
 70
   192
  0
VERTEX
  5
1093
  8
0
 10
215.0
 20
40.28248557872779
 30
-61.7175144212722
 70
   192
  0
VERTEX
  5
1094
  8
0
 10
215.0
 20
47.0
 30
-64.5
 70
   192
  0
VERTEX
  5
1095
  8
0
 10
215.0
 20
53.71751442127221
 30
-61.71751442127221
 70
   192
  0
VERTEX
  5
1096
  8
0
 10
215.0
 20
56.5
 30
-55.0
 70
   192
  0
VERTEX
  5
1097
  8
0
 10
215.0
 20
53.71751442127221
 30
-48.28248557872779
 70
   192
  0
VERTEX
  5
1098
  8
0
 10
0.0
 20
0.0
 30
0.0
 70
   128
 71
     9
 72
    -8
 73
    -5
  0
VERTEX
  5
1099
  8
0
 10
0.0
 20
0.0
 30
0.0
 70
   128
 71
    -9
 72
     5
 73
    -4
  0
VERTEX
  5
109A
  8
0
 10
0.0
 20
0.0
 30
0.0
 70
   128
 71
    -4
 72
    10
 73
    -9
  0
VERTEX
  5
109B
  8
0
 10
0.0
 20
0.0
 30
0.0
 70
   128
 71
   -10
 72
     4
 73
    -3
  0
VERTEX
  5
109C
  8
0
 10
0.0
 20
0.0
 30
0.0
 70
   128
 71
    -3
 72
    11
 73
   -10
  0
VERTEX
  5
109D
  8
0
 10
0.0
 20
0.0
 30
0.0
 70
   128
 71
     3
 72
    -2
 73
   -12
  0
VERTEX
  5
109E
  8
0
 10
0.0
 20
0.0
 30
0.0
 70
   128
 71
    -3
 72
    12
 73
   -11
  0
VERTEX
  5
109F
  8
0
 10
0.0
 20
0.0
 30
0.0
 70
   128
 71
    -2
 72
    13
 73
   -12
  0
VERTEX
  5
10A0
  8
0
 10
0.0
 20
0.0
 30
0.0
 70
   128
 71
    -2
 72
    14
 73
   -13
  0
VERTEX
  5
10A1
  8
0
 10
0.0
 20
0.0
 30
0.0
 70
   128
 71
     2
 72
    -1
 73
   -14
  0
VERTEX
  5
10A2
  8
0
 10
0.0
 20
0.0
 30
0.0
 70
   128
 71
    -1
 72
    15
 73
   -14
  0
VERTEX
  5
10A3
  8
0
 10
0.0
 20
0.0
 30
0.0
 70
   128
 71
     1
 72
     7
 73
    -6
  0
VERTEX
  5
10A4
  8
0
 10
0.0
 20
0.0
 30
0.0
 70
   128
 71
    -1
 72
     6
 73
    -5
  0
VERTEX
  5
10A5
  8
0
 10
0.0
 20
0.0
 30
0.0
 70
   128
 71
    -1
 72
    -5
 73
    -8
  0
VERTEX
  5
10A6
  8
0
 10
0.0
 20
0.0
 30
0.0
 70
   128
 71
    -1
 72
     8
 73
   -15
  0
SEQEND
  5
1758
  8
0
  0
POLYLINE
  5
10A7
  8
0
 66
     1
 10
0.0
 20
0.0
 30
0.0
 70
    64
 71
    19
 72
    19
  0
VERTEX
  5
10A8
  8
0
 10
213.0
 20
0.0
 30
-215.0
 70
   192
  0
VERTEX
  5
10A9
  8
0
 10
213.0
 20
88.0
 30
-215.0
 70
   192
  0
VERTEX
  5
10AA
  8
0
 10
-47.02868687170739
 20
88.0
 30
-215.0
 70
   192
  0
VERTEX
  5
10AB
  8
0
 10
-48.49835602642165
 20
87.61535324109029
 30
-215.0
 70
   192
  0
VERTEX
  5
10AC
  8
0
 10
-49.59115619644897
 20
86.56004838378765
 30
-215.0
 70
   192
  0
VERTEX
  5
10AD
  8
0
 10
-50.02685935276465
 20
85.10469849010751
 30
-215.0
 70
   192
  0
VERTEX
  5
10AE
  8
0
 10
-52.9987809114024
 20
0.0
 30
-215.0
 70
   192
  0
VERTEX
  5
10AF
  8
0
 10
37.0
 20
47.0
 30
-215.0
 70
   192
  0
VERTEX
  5
10B0
  8
0
 10
38.07179676972449
 20
51.0
 30
-215.0
 70
   192
  0
VERTEX
  5
10B1
  8
0
 10
41.0
 20
53.92820323027551
 30
-215.0
 70
   192
  0
VERTEX
  5
10B2
  8
0
 10
45.0
 20
55.0
 30
-215.0
 70
   192
  0
VERTEX
  5
10B3
  8
0
 10
125.0
 20
55.00000000000001
 30
-215.0
 70
   192
  0
VERTEX
  5
10B4
  8
0
 10
130.6568542494924
 20
52.65685424949238
 30
-215.0
 70
   192
  0
VERTEX
  5
10B5
  8
0
 10
133.0
 20
47.0
 30
-215.0
 70
   192
  0
VERTEX
  5
10B6
  8
0
 10
130.6568542494924
 20
41.34314575050762
 30
-215.0
 70
   192
  0
VERTEX
  5
10B7
  8
0
 10
125.0
 20
39.0
 30
-215.0
 70
   192
  0
VERTEX
  5
10B8
  8
0
 10
45.0
 20
39.0
 30
-215.0
 70
   192
  0
VERTEX
  5
10B9
  8
0
 10
41.0
 20
40.07179676972449
 30
-215.0
 70
   192
  0
VERTEX
  5
10BA
  8
0
 10
38.07179676972449
 20
43.0
 30
-215.0
 70
   192
  0
VERTEX
  5
10BB
  8
0
 10
0.0
 20
0.0
 30
0.0
 70
   128
 71
     9
 72
    -8
 73
    -6
  0
VERTEX
  5
10BC
  8
0
 10
0.0
 20
0.0
 30
0.0
 70
   128
 71
    -6
 72
    10
 73
    -9
  0
VERTEX
  5
10BD
  8
0
 10
0.0
 20
0.0
 30
0.0
 70
   128
 71
    -6
 72
    11
 73
   -10
  0
VERTEX
  5
10BE
  8
0
 10
0.0
 20
0.0
 30
0.0
 70
   128
 71
     6
 72
     5
 73
    -4
  0
VERTEX
  5
10BF
  8
0
 10
0.0
 20
0.0
 30
0.0
 70
   128
 71
    -6
 72
     4
 73
    -3
  0
VERTEX
  5
10C0
  8
0
 10
0.0
 20
0.0
 30
0.0
 70
   128
 71
    -6
 72
     3
 73
    -2
  0
VERTEX
  5
10C1
  8
0
 10
0.0
 20
0.0
 30
0.0
 70
   128
 71
    -6
 72
    -2
 73
   -12
  0
VERTEX
  5
10C2
  8
0
 10
0.0
 20
0.0
 30
0.0
 70
   128
 71
    -6
 72
    12
 73
   -11
  0
VERTEX
  5
10C3
  8
0
 10
0.0
 20
0.0
 30
0.0
 70
   128
 71
    -2
 72
    13
 73
   -12
  0
VERTEX
  5
10C4
  8
0
 10
0.0
 20
0.0
 30
0.0
 70
   128
 71
    -2
 72
    14
 73
   -13
  0
VERTEX
  5
10C5
  8
0
 10
0.0
 20
0.0
 30
0.0
 70
   128
 71
     2
 72
    -1
 73
   -15
  0
VERTEX
  5
10C6
  8
0
 10
0.0
 20
0.0
 30
0.0
 70
   128
 71
    -2
 72
    15
 73
   -14
  0
VERTEX
  5
10C7
  8
0
 10
0.0
 20
0.0
 30
0.0
 70
   128
 71
    -1
 72
    16
 73
   -15
  0
VERTEX
  5
10C8
  8
0
 10
0.0
 20
0.0
 30
0.0
 70
   128
 71
     1
 72
    -7
 73
   -17
  0
VERTEX
  5
10C9
  8
0
 10
0.0
 20
0.0
 30
0.0
 70
   128
 71
    -1
 72
    17
 73
   -16
  0
VERTEX
  5
10CA
  8
0
 10
0.0
 20
0.0
 30
0.0
 70
   128
 71
    -7
 72
    18
 73
   -17
  0
VERTEX
  5
10CB
  8
0
 10
0.0
 20
0.0
 30
0.0
 70
   128
 71
    -7
 72
    19
 73
   -18
  0
VERTEX
  5
10CC
  8
0
 10
0.0
 20
0.0
 30
0.0
 70
   128
 71
     7
 72
    -6
 73
    -8
  0
VERTEX
  5
10CD
  8
0
 10
0.0
 20
0.0
 30
0.0
 70
   128
 71
    -7
 72
     8
 73
   -19
  0
SEQEND
  5
1759
  8
0
  0
POLYLINE
  5
10CE
  8
0
 66
     1
 10
0.0
 20
0.0
 30
0.0
 70
    64
 71
     4
 72
     2
  0
VERTEX
  5
10CF
  8
0
 10
-52.02564100680289
 20
85.1744974835125
 30
-181.6590212458495
 70
   192
  0
VERTEX
  5
10D0
  8
0
 10
-52.02564100680289
 20
85.1744974835125
 30
-213.0
 70
   192
  0
VERTEX
  5
10D1
  8
0
 10
-55.0
 20
0.0
 30
-213.0
 70
   192
  0
VERTEX
  5
10D2
  8
0
 10
-55.00000000000001
 20
0.0
 30
-181.6590212458495
 70
   192
  0
VERTEX
  5
10D3
  8
0
 10
0.0
 20
0.0
 30
0.0
 70
   128
 71
     3
 72
     4
 73
    -1
  0
VERTEX
  5
10D4
  8
0
 10
0.0
 20
0.0
 30
0.0
 70
   128
 71
     2
 72
    -3
 73
     1
  0
SEQEND
  5
175A
  8
0
  0
POLYLINE
  5
10D5
  8
0
 66
     1
 10
0.0
 20
0.0
 30
0.0
 70
    64
 71
    12
 72
    10
  0
VERTEX
  5
10D6
  8
0
 10
-83.69039232603446
 20
0.0
 30
142.2002750781953
 70
   192
  0
VERTEX
  5
10D7
  8
0
 10
-0.0000000000000275
 20
0.0
 30
165.0
 70
   192
  0
VERTEX
  5
10D8
  8
0
 10
0.0
 20
85.1744974835125
 30
162.0256410068028
 70
   192
  0
VERTEX
  5
10D9
  8
0
 10
-82.1817543196155
 20
85.1744974835125
 30
139.6369134599292
 70
   192
  0
VERTEX
  5
10DA
  8
0
 10
-137.5344577203
 20
85.1744974835125
 30
-85.65384570028607
 70
   192
  0
VERTEX
  5
10DB
  8
0
 10
-75.08505314949412
 20
85.1744974835125
 30
-143.577655424523
 70
   192
  0
VERTEX
  5
10DC
  8
0
 10
-76.46341463414639
 20
0.0
 30
-146.2133585637324
 70
   192
  0
VERTEX
  5
10DD
  8
0
 10
-140.0592238539373
 20
0.0
 30
-87.22622205181588
 70
   192
  0
VERTEX
  5
10DE
  8
0
 10
-144.2520825474447
 20
0.0
 30
80.10203917956888
 70
   192
  0
VERTEX
  5
10DF
  8
0
 10
-141.6517341897939
 20
85.1744974835125
 30
78.65808632740425
 70
   192
  0
VERTEX
  5
10E0
  8
0
 10
-161.9747980087736
 20
85.1744974835125
 30
-4.058713303791976
 70
   192
  0
VERTEX
  5
10E1
  8
0
 10
-164.9482236600163
 20
0.0
 30
-4.133220464145933
 70
   192
  0
VERTEX
  5
10E2
  8
0
 10
0.0
 20
0.0
 30
0.0
 70
   128
 71
     1
 72
     2
 73
    -3
  0
VERTEX
  5
10E3
  8
0
 10
0.0
 20
0.0
 30
0.0
 70
   128
 71
    -1
 72
     3
 73
     4
  0
VERTEX
  5
10E4
  8
0
 10
0.0
 20
0.0
 30
0.0
 70
   128
 71
     5
 72
     6
 73
    -7
  0
VERTEX
  5
10E5
  8
0
 10
0.0
 20
0.0
 30
0.0
 70
   128
 71
    -5
 72
     7
 73
     8
  0
VERTEX
  5
10E6
  8
0
 10
0.0
 20
0.0
 30
0.0
 70
   128
 71
     9
 72
    10
 73
   -11
  0
VERTEX
  5
10E7
  8
0
 10
0.0
 20
0.0
 30
0.0
 70
   128
 71
    -9
 72
    11
 73
    12
  0
VERTEX
  5
10E8
  8
0
 10
0.0
 20
0.0
 30
0.0
 70
   128
 71
     1
 72
     4
 73
   -10
  0
VERTEX
  5
10E9
  8
0
 10
0.0
 20
0.0
 30
0.0
 70
   128
 71
    -1
 72
    10
 73
     9
  0
VERTEX
  5
10EA
  8
0
 10
0.0
 20
0.0
 30
0.0
 70
   128
 71
    12
 72
    11
 73
    -5
  0
VERTEX
  5
10EB
  8
0
 10
0.0
 20
0.0
 30
0.0
 70
   128
 71
   -12
 72
     5
 73
     8
  0
SEQEND
  5
175B
  8
0
  0
POLYLINE
  5
10EC
  8
0
 66
     1
 10
0.0
 20
0.0
 30
0.0
 70
    64
 71
     4
 72
     2
  0
VERTEX
  5
10ED
  8
0
 10
181.6590212458495
 20
0.0
 30
54.99999999999999
 70
   192
  0
VERTEX
  5
10EE
  8
0
 10
213.0
 20
0.0
 30
55.0
 70
   192
  0
VERTEX
  5
10EF
  8
0
 10
213.0
 20
85.1744974835125
 30
52.02564100680281
 70
   192
  0
VERTEX
  5
10F0
  8
0
 10
181.6590212458495
 20
85.1744974835125
 30
52.0256410068028
 70
   192
  0
VERTEX
  5
10F1
  8
0
 10
0.0
 20
0.0
 30
0.0
 70
   128
 71
     3
 72
     4
 73
    -1
  0
VERTEX
  5
10F2
  8
0
 10
0.0
 20
0.0
 30
0.0
 70
   128
 71
     2
 72
    -3
 73
     1
  0
SEQEND
  5
175C
  8
0
  0
POLYLINE
  5
10F3
  8
0
 66
     1
 10
0.0
 20
0.0
 30
0.0
 70
    64
 71
     8
 72
     6
  0
VERTEX
  5
10F4
  8
0
 10
-57.60633931487559
 20
0.0
 30
-167.4564109024731
 70
   192
  0
VERTEX
  5
10F5
  8
0
 10
-65.08570702828906
 20
0.0
 30
-155.1046416446868
 70
   192
  0
VERTEX
  5
10F6
  8
0
 10
-62.86131087015043
 20
85.1744974835125
 30
-153.1300852002995
 70
   192
  0
VERTEX
  5
10F7
  8
0
 10
-54.82578504119147
 20
85.1744974835125
 30
-166.4003193574307
 70
   192
  0
VERTEX
  5
10F8
  8
0
 10
-76.46341463414639
 20
0.0
 30
-146.2133585637324
 70
   192
  0
VERTEX
  5
10F9
  8
0
 10
-75.08505314949403
 20
85.1744974835125
 30
-143.5776554245227
 70
   192
  0
VERTEX
  5
10FA
  8
0
 10
-55.0
 20
0.0
 30
-181.6590212458495
 70
   192
  0
VERTEX
  5
10FB
  8
0
 10
-52.02564100680279
 20
85.1744974835125
 30
-181.6590212458495
 70
   192
  0
VERTEX
  5
10FC
  8
0
 10
0.0
 20
0.0
 30
0.0
 70
   128
 71
     1
 72
     2
 73
    -3
  0
VERTEX
  5
10FD
  8
0
 10
0.0
 20
0.0
 30
0.0
 70
   128
 71
     4
 72
    -1
 73
     3
  0
VERTEX
  5
10FE
  8
0
 10
0.0
 20
0.0
 30
0.0
 70
   128
 71
     2
 72
     5
 73
    -6
  0
VERTEX
  5
10FF
  8
0
 10
0.0
 20
0.0
 30
0.0
 70
   128
 71
     3
 72
    -2
 73
     6
  0
VERTEX
  5
1100
  8
0
 10
0.0
 20
0.0
 30
0.0
 70
   128
 71
     7
 72
     1
 73
    -4
  0
VERTEX
  5
1101
  8
0
 10
0.0
 20
0.0
 30
0.0
 70
   128
 71
     8
 72
    -7
 73
     4
  0
SEQEND
  5
175D
  8
0
  0
POLYLINE
  5
1102
  8
0
 66
     1
 10
0.0
 20
0.0
 30
0.0
 70
    64
 71
     8
 72
     6
  0
VERTEX
  5
1103
  8
0
 10
155.1046416446868
 20
0.0
 30
65.08570702828905
 70
   192
  0
VERTEX
  5
1104
  8
0
 10
167.4564109024731
 20
0.0
 30
57.60633931487558
 70
   192
  0
VERTEX
  5
1105
  8
0
 10
166.4003193574308
 20
85.1744974835125
 30
54.82578504119145
 70
   192
  0
VERTEX
  5
1106
  8
0
 10
153.1300852002996
 20
85.1744974835125
 30
62.86131087015035
 70
   192
  0
VERTEX
  5
1107
  8
0
 10
181.6590212458495
 20
0.0
 30
55.0
 70
   192
  0
VERTEX
  5
1108
  8
0
 10
181.6590212458495
 20
85.1744974835125
 30
52.02564100680281
 70
   192
  0
VERTEX
  5
1109
  8
0
 10
146.2133585637326
 20
0.0000000000000061
 30
76.4634146341463
 70
   192
  0
VERTEX
  5
110A
  8
0
 10
143.5776554245229
 20
85.1744974835125
 30
75.08505314949382
 70
   192
  0
VERTEX
  5
110B
  8
0
 10
0.0
 20
0.0
 30
0.0
 70
   128
 71
     1
 72
     2
 73
    -3
  0
VERTEX
  5
110C
  8
0
 10
0.0
 20
0.0
 30
0.0
 70
   128
 71
     4
 72
    -1
 73
     3
  0
VERTEX
  5
110D
  8
0
 10
0.0
 20
0.0
 30
0.0
 70
   128
 71
     2
 72
     5
 73
    -6
  0
VERTEX
  5
110E
  8
0
 10
0.0
 20
0.0
 30
0.0
 70
   128
 71
     3
 72
    -2
 73
     6
  0
VERTEX
  5
110F
  8
0
 10
0.0
 20
0.0
 30
0.0
 70
   128
 71
     7
 72
     1
 73
    -4
  0
VERTEX
  5
1110
  8
0
 10
0.0
 20
0.0
 30
0.0
 70
   128
 71
     8
 72
    -7
 73
     4
  0
SEQEND
  5
175E
  8
0
  0
POLYLINE
  5
1111
  8
0
 66
     1
 10
0.0
 20
0.0
 30
0.0
 70
    64
 71
    12
 72
    12
  0
VERTEX
  5
1112
  8
0
 10
194.0
 20
-0.0000000000000142
 30
31.96180162456654
 70
   192
  0
VERTEX
  5
1113
  8
0
 10
194.0
 20
70.0
 30
25.83759517775186
 70
   192
  0
VERTEX
  5
1114
  8
0
 10
194.0
 20
70.0
 30
-174.0
 70
   192
  0
VERTEX
  5
1115
  8
0
 10
194.0
 20
0.0
 30
-174.0
 70
   192
  0
VERTEX
  5
1116
  8
0
 10
194.0
 20
47.0
 30
-64.5
 70
   192
  0
VERTEX
  5
1117
  8
0
 10
194.0
 20
53.7175144212722
 30
-61.71751442127221
 70
   192
  0
VERTEX
  5
1118
  8
0
 10
194.0
 20
56.5
 30
-55.0
 70
   192
  0
VERTEX
  5
1119
  8
0
 10
194.0
 20
53.71751442127221
 30
-48.2824855787278
 70
   192
  0
VERTEX
  5
111A
  8
0
 10
194.0
 20
47.0
 30
-45.5
 70
   192
  0
VERTEX
  5
111B
  8
0
 10
194.0
 20
40.28248557872779
 30
-48.28248557872779
 70
   192
  0
VERTEX
  5
111C
  8
0
 10
194.0
 20
37.5
 30
-55.0
 70
   192
  0
VERTEX
  5
111D
  8
0
 10
194.0
 20
40.28248557872779
 30
-61.71751442127221
 70
   192
  0
VERTEX
  5
111E
  8
0
 10
0.0
 20
0.0
 30
0.0
 70
   128
 71
    -3
 72
     5
 73
    -6
  0
VERTEX
  5
111F
  8
0
 10
0.0
 20
0.0
 30
0.0
 70
   128
 71
     6
 72
    -7
 73
    -3
  0
VERTEX
  5
1120
  8
0
 10
0.0
 20
0.0
 30
0.0
 70
   128
 71
    -7
 72
     2
 73
    -3
  0
VERTEX
  5
1121
  8
0
 10
0.0
 20
0.0
 30
0.0
 70
   128
 71
     7
 72
    -8
 73
    -2
  0
VERTEX
  5
1122
  8
0
 10
0.0
 20
0.0
 30
0.0
 70
   128
 71
     8
 72
    -9
 73
    -2
  0
VERTEX
  5
1123
  8
0
 10
0.0
 20
0.0
 30
0.0
 70
   128
 71
   -10
 72
     1
 73
    -2
  0
VERTEX
  5
1124
  8
0
 10
0.0
 20
0.0
 30
0.0
 70
   128
 71
     9
 72
   -10
 73
    -2
  0
VERTEX
  5
1125
  8
0
 10
0.0
 20
0.0
 30
0.0
 70
   128
 71
    10
 72
   -11
 73
    -1
  0
VERTEX
  5
1126
  8
0
 10
0.0
 20
0.0
 30
0.0
 70
   128
 71
    11
 72
   -12
 73
    -1
  0
VERTEX
  5
1127
  8
0
 10
0.0
 20
0.0
 30
0.0
 70
   128
 71
     4
 72
    -1
 73
   -12
  0
VERTEX
  5
1128
  8
0
 10
0.0
 20
0.0
 30
0.0
 70
   128
 71
     3
 72
    -4
 73
   -12
  0
VERTEX
  5
1129
  8
0
 10
0.0
 20
0.0
 30
0.0
 70
   128
 71
    12
 72
    -5
 73
    -3
  0
SEQEND
  5
175F
  8
0
  0
POLYLINE
  5
112A
  8
0
 66
     1
 10
0.0
 20
0.0
 30
0.0
 70
    64
 71
    16
 72
    16
  0
VERTEX
  5
112B
  8
0
 10
174.0
 20
0.0
 30
-194.0
 70
   192
  0
VERTEX
  5
112C
  8
0
 10
174.0
 20
70.0
 30
-194.0
 70
   192
  0
VERTEX
  5
112D
  8
0
 10
-25.83759517775185
 20
70.0
 30
-194.0
 70
   192
  0
VERTEX
  5
112E
  8
0
 10
-31.96180162456658
 20
0.0000000000000022
 30
-194.0
 70
   192
  0
VERTEX
  5
112F
  8
0
 10
125.0
 20
39.0
 30
-194.0
 70
   192
  0
VERTEX
  5
1130
  8
0
 10
45.0
 20
39.0
 30
-194.0
 70
   192
  0
VERTEX
  5
1131
  8
0
 10
41.0
 20
40.07179676972449
 30
-194.0
 70
   192
  0
VERTEX
  5
1132
  8
0
 10
38.07179676972449
 20
43.0
 30
-194.0
 70
   192
  0
VERTEX
  5
1133
  8
0
 10
37.0
 20
47.0
 30
-194.0
 70
   192
  0
VERTEX
  5
1134
  8
0
 10
38.07179676972449
 20
51.0
 30
-194.0
 70
   192
  0
VERTEX
  5
1135
  8
0
 10
41.0
 20
53.92820323027551
 30
-194.0
 70
   192
  0
VERTEX
  5
1136
  8
0
 10
45.0
 20
55.0
 30
-194.0
 70
   192
  0
VERTEX
  5
1137
  8
0
 10
125.0
 20
55.0
 30
-194.0
 70
   192
  0
VERTEX
  5
1138
  8
0
 10
130.6568542494924
 20
52.65685424949238
 30
-194.0
 70
   192
  0
VERTEX
  5
1139
  8
0
 10
133.0
 20
47.0
 30
-194.0
 70
   192
  0
VERTEX
  5
113A
  8
0
 10
130.6568542494924
 20
41.34314575050762
 30
-194.0
 70
   192
  0
VERTEX
  5
113B
  8
0
 10
0.0
 20
0.0
 30
0.0
 70
   128
 71
    -1
 72
     5
 73
    -6
  0
VERTEX
  5
113C
  8
0
 10
0.0
 20
0.0
 30
0.0
 70
   128
 71
     4
 72
    -1
 73
    -6
  0
VERTEX
  5
113D
  8
0
 10
0.0
 20
0.0
 30
0.0
 70
   128
 71
     6
 72
    -7
 73
    -4
  0
VERTEX
  5
113E
  8
0
 10
0.0
 20
0.0
 30
0.0
 70
   128
 71
    -8
 72
     3
 73
    -4
  0
VERTEX
  5
113F
  8
0
 10
0.0
 20
0.0
 30
0.0
 70
   128
 71
     7
 72
    -8
 73
    -4
  0
VERTEX
  5
1140
  8
0
 10
0.0
 20
0.0
 30
0.0
 70
   128
 71
     8
 72
    -9
 73
    -3
  0
VERTEX
  5
1141
  8
0
 10
0.0
 20
0.0
 30
0.0
 70
   128
 71
     9
 72
   -10
 73
    -3
  0
VERTEX
  5
1142
  8
0
 10
0.0
 20
0.0
 30
0.0
 70
   128
 71
    10
 72
   -11
 73
    -3
  0
VERTEX
  5
1143
  8
0
 10
0.0
 20
0.0
 30
0.0
 70
   128
 71
    11
 72
   -12
 73
    -3
  0
VERTEX
  5
1144
  8
0
 10
0.0
 20
0.0
 30
0.0
 70
   128
 71
   -13
 72
     2
 73
    -3
  0
VERTEX
  5
1145
  8
0
 10
0.0
 20
0.0
 30
0.0
 70
   128
 71
    12
 72
   -13
 73
    -3
  0
VERTEX
  5
1146
  8
0
 10
0.0
 20
0.0
 30
0.0
 70
   128
 71
    13
 72
   -14
 73
    -2
  0
VERTEX
  5
1147
  8
0
 10
0.0
 20
0.0
 30
0.0
 70
   128
 71
    14
 72
   -15
 73
    -2
  0
VERTEX
  5
1148
  8
0
 10
0.0
 20
0.0
 30
0.0
 70
   128
 71
   -16
 72
     1
 73
    -2
  0
VERTEX
  5
1149
  8
0
 10
0.0
 20
0.0
 30
0.0
 70
   128
 71
    15
 72
   -16
 73
    -2
  0
VERTEX
  5
114A
  8
0
 10
0.0
 20
0.0
 30
0.0
 70
   128
 71
    16
 72
    -5
 73
    -1
  0
SEQEND
  5
1760
  8
0
  0
POLYLINE
  5
114B
  8
0
 66
     1
 10
0.0
 20
0.0
 30
0.0
 70
    64
 71
     4
 72
     2
  0
VERTEX
  5
114C
  8
0
 10
-42.00000000000006
 20
0.0000000000000426
 30
-184.0
 70
   192
  0
VERTEX
  5
114D
  8
0
 10
-35.83766785592736
 20
70.43577871373832
 30
-184.0
 70
   192
  0
VERTEX
  5
114E
  8
0
 10
-35.83766785592736
 20
70.43577871373832
 30
-181.6590212458495
 70
   192
  0
VERTEX
  5
114F
  8
0
 10
-42.0
 20
0.0000000000000277
 30
-181.6590212458495
 70
   192
  0
VERTEX
  5
1150
  8
0
 10
0.0
 20
0.0
 30
0.0
 70
   128
 71
     3
 72
     4
 73
    -1
  0
VERTEX
  5
1151
  8
0
 10
0.0
 20
0.0
 30
0.0
 70
   128
 71
     2
 72
    -3
 73
     1
  0
SEQEND
  5
1761
  8
0
  0
POLYLINE
  5
1152
  8
0
 66
     1
 10
0.0
 20
0.0
 30
0.0
 70
    64
 71
    17
 72
    15
  0
VERTEX
  5
1153
  8
0
 10
-131.1535513834813
 20
22.66014329082555
 30
72.82852854484013
 70
   192
  0
VERTEX
  5
1154
  8
0
 10
-76.09104822889577
 20
22.66014329082555
 30
129.2880543203196
 70
   192
  0
VERTEX
  5
1155
  8
0
 10
-75.2134622251461
 20
0.0
 30
132.0868468096143
 70
   192
  0
VERTEX
  5
1156
  8
0
 10
-132.0868468096144
 20
0.0
 30
75.213462225146
 70
   192
  0
VERTEX
  5
1157
  8
0
 10
-0.0000000000000583
 20
22.66014329082555
 30
150.0174943481794
 70
   192
  0
VERTEX
  5
1158
  8
0
 10
53.26600042292143
 20
22.66014329082555
 30
140.2425820122099
 70
   192
  0
VERTEX
  5
1159
  8
0
 10
79.8915719016878
 20
0.0
 30
129.311007803193
 70
   192
  0
VERTEX
  5
115A
  8
0
 10
2.719834201533378
 20
0.0
 30
151.9756641765917
 70
   192
  0
VERTEX
  5
115B
  8
0
 10
-127.3414171085966
 20
22.66014329082555
 30
-79.30581377982632
 70
   192
  0
VERTEX
  5
115C
  8
0
 10
-149.9704194585378
 20
22.66014329082555
 30
-3.757911379513918
 70
   192
  0
VERTEX
  5
115D
  8
0
 10
-151.9756641765917
 20
0.0
 30
-2.719834201533505
 70
   192
  0
VERTEX
  5
115E
  8
0
 10
-129.311007803193
 20
0.0
 30
-79.8915719016879
 70
   192
  0
VERTEX
  5
115F
  8
0
 10
-69.52030225891257
 20
22.66014329082554
 30
-132.9367375270491
 70
   192
  0
VERTEX
  5
1160
  8
0
 10
-70.4390243902439
 20
0.0000000000000278
 30
-134.6935181920444
 70
   192
  0
VERTEX
  5
1161
  8
0
 10
132.936737527049
 20
22.66014329082555
 30
69.52030225891242
 70
   192
  0
VERTEX
  5
1162
  8
0
 10
134.6935181920444
 20
0.0000000000000278
 30
70.4390243902439
 70
   192
  0
VERTEX
  5
1163
  8
0
 10
99.5905372934209
 20
22.66014329082555
 30
112.1916819203358
 70
   192
  0
VERTEX
  5
1164
  8
0
 10
0.0
 20
0.0
 30
0.0
 70
   128
 71
     1
 72
     2
 73
     3
  0
VERTEX
  5
1165
  8
0
 10
0.0
 20
0.0
 30
0.0
 70
   128
 71
     4
 72
     1
 73
     3
  0
VERTEX
  5
1166
  8
0
 10
0.0
 20
0.0
 30
0.0
 70
   128
 71
     5
 72
     6
 73
     7
  0
VERTEX
  5
1167
  8
0
 10
0.0
 20
0.0
 30
0.0
 70
   128
 71
     8
 72
     5
 73
     7
  0
VERTEX
  5
1168
  8
0
 10
0.0
 20
0.0
 30
0.0
 70
   128
 71
     9
 72
    10
 73
    11
  0
VERTEX
  5
1169
  8
0
 10
0.0
 20
0.0
 30
0.0
 70
   128
 71
    12
 72
     9
 73
    11
  0
VERTEX
  5
116A
  8
0
 10
0.0
 20
0.0
 30
0.0
 70
   128
 71
    13
 72
     9
 73
    12
  0
VERTEX
  5
116B
  8
0
 10
0.0
 20
0.0
 30
0.0
 70
   128
 71
    14
 72
    13
 73
    12
  0
VERTEX
  5
116C
  8
0
 10
0.0
 20
0.0
 30
0.0
 70
   128
 71
    10
 72
     1
 73
     4
  0
VERTEX
  5
116D
  8
0
 10
0.0
 20
0.0
 30
0.0
 70
   128
 71
    11
 72
    10
 73
     4
  0
VERTEX
  5
116E
  8
0
 10
0.0
 20
0.0
 30
0.0
 70
   128
 71
     2
 72
     5
 73
     8
  0
VERTEX
  5
116F
  8
0
 10
0.0
 20
0.0
 30
0.0
 70
   128
 71
     3
 72
     2
 73
     8
  0
VERTEX
  5
1170
  8
0
 10
0.0
 20
0.0
 30
0.0
 70
   128
 71
    15
 72
    16
 73
     7
  0
VERTEX
  5
1171
  8
0
 10
0.0
 20
0.0
 30
0.0
 70
   128
 71
    17
 72
    15
 73
     7
  0
VERTEX
  5
1172
  8
0
 10
0.0
 20
0.0
 30
0.0
 70
   128
 71
     7
 72
     6
 73
    17
  0
SEQEND
  5
1762
  8
0
  0
POLYLINE
  5
1173
  8
0
 66
     1
 10
0.0
 20
0.0
 30
0.0
 70
    64
 71
     4
 72
     2
  0
VERTEX
  5
1174
  8
0
 10
181.6590212458495
 20
0.0000000000000278
 30
42.0
 70
   192
  0
VERTEX
  5
1175
  8
0
 10
181.6590212458495
 20
70.43577871373832
 30
35.8376678559273
 70
   192
  0
VERTEX
  5
1176
  8
0
 10
184.0
 20
70.43577871373832
 30
35.83766785592734
 70
   192
  0
VERTEX
  5
1177
  8
0
 10
184.0
 20
0.0000000000000278
 30
42.0
 70
   192
  0
VERTEX
  5
1178
  8
0
 10
0.0
 20
0.0
 30
0.0
 70
   128
 71
     3
 72
     4
 73
    -1
  0
VERTEX
  5
1179
  8
0
 10
0.0
 20
0.0
 30
0.0
 70
   128
 71
     2
 72
    -3
 73
     1
  0
SEQEND
  5
1763
  8
0
  0
POLYLINE
  5
117A
  8
0
 66
     1
 10
0.0
 20
0.0
 30
0.0
 70
    64
 71
    11
 72
     9
  0
VERTEX
  5
117B
  8
0
 10
-38.1583483221974
 20
70.43577871373832
 30
-165.2514565494987
 70
   192
  0
VERTEX
  5
117C
  8
0
 10
-41.01633136492703
 20
70.43577871373832
 30
-157.4527190618269
 70
   192
  0
VERTEX
  5
117D
  8
0
 10
-45.45339959221016
 20
0.0000000000000278
 30
-162.8405625408758
 70
   192
  0
VERTEX
  5
117E
  8
0
 10
-55.36356181248301
 20
0.0000000000000278
 30
-146.4744682743089
 70
   192
  0
VERTEX
  5
117F
  8
0
 10
-45.8728695964751
 20
49.91960110748884
 30
-152.0356598770605
 70
   192
  0
VERTEX
  5
1180
  8
0
 10
-36.42071090860943
 20
70.43577871373832
 30
-173.3735861774378
 70
   192
  0
VERTEX
  5
1181
  8
0
 10
-42.00000000000001
 20
0.0000000000000278
 30
-181.6590212458495
 70
   192
  0
VERTEX
  5
1182
  8
0
 10
-35.8376678559273
 20
70.43577871373832
 30
-181.6590212458495
 70
   192
  0
VERTEX
  5
1183
  8
0
 10
-69.5203022589126
 20
22.66014329082555
 30
-132.9367375270492
 70
   192
  0
VERTEX
  5
1184
  8
0
 10
-70.4390243902439
 20
0.0000000000000278
 30
-134.6935181920444
 70
   192
  0
VERTEX
  5
1185
  8
0
 10
-53.92683560919991
 20
31.60892080058233
 30
-143.9392942806329
 70
   192
  0
VERTEX
  5
1186
  8
0
 10
0.0
 20
0.0
 30
0.0
 70
   128
 71
     1
 72
     2
 73
     3
  0
VERTEX
  5
1187
  8
0
 10
0.0
 20
0.0
 30
0.0
 70
   128
 71
     4
 72
     3
 73
     2
  0
VERTEX
  5
1188
  8
0
 10
0.0
 20
0.0
 30
0.0
 70
   128
 71
     4
 72
     2
 73
     5
  0
VERTEX
  5
1189
  8
0
 10
0.0
 20
0.0
 30
0.0
 70
   128
 71
     6
 72
     1
 73
     3
  0
VERTEX
  5
118A
  8
0
 10
0.0
 20
0.0
 30
0.0
 70
   128
 71
     6
 72
     3
 73
     7
  0
VERTEX
  5
118B
  8
0
 10
0.0
 20
0.0
 30
0.0
 70
   128
 71
     7
 72
     8
 73
     6
  0
VERTEX
  5
118C
  8
0
 10
0.0
 20
0.0
 30
0.0
 70
   128
 71
     9
 72
    10
 73
     4
  0
VERTEX
  5
118D
  8
0
 10
0.0
 20
0.0
 30
0.0
 70
   128
 71
     9
 72
     4
 73
    11
  0
VERTEX
  5
118E
  8
0
 10
0.0
 20
0.0
 30
0.0
 70
   128
 71
    11
 72
     4
 73
     5
  0
SEQEND
  5
1764
  8
0
  0
POLYLINE
  5
118F
  8
0
 66
     1
 10
0.0
 20
0.0
 30
0.0
 70
    64
 71
    11
 72
     9
  0
VERTEX
  5
1190
  8
0
 10
173.3735861774378
 20
70.43577871373832
 30
36.42071090860942
 70
   192
  0
VERTEX
  5
1191
  8
0
 10
181.6590212458495
 20
70.43577871373832
 30
35.8376678559273
 70
   192
  0
VERTEX
  5
1192
  8
0
 10
181.6590212458495
 20
0.0000000000000278
 30
42.0
 70
   192
  0
VERTEX
  5
1193
  8
0
 10
152.0356353568101
 20
49.91952187448308
 30
45.8728921588269
 70
   192
  0
VERTEX
  5
1194
  8
0
 10
157.452719061827
 20
70.43577871373832
 30
41.01633136492705
 70
   192
  0
VERTEX
  5
1195
  8
0
 10
162.8405625408758
 20
0.0000000000000278
 30
45.45339959221016
 70
   192
  0
VERTEX
  5
1196
  8
0
 10
146.4744682743089
 20
0.0000000000000278
 30
55.36356181248303
 70
   192
  0
VERTEX
  5
1197
  8
0
 10
143.9392773528888
 20
31.60889005593528
 30
53.92685844047779
 70
   192
  0
VERTEX
  5
1198
  8
0
 10
165.2514565494987
 20
70.43577871373832
 30
38.15834832219738
 70
   192
  0
VERTEX
  5
1199
  8
0
 10
134.6935181920445
 20
0.0000000000000278
 30
70.43902439024397
 70
   192
  0
VERTEX
  5
119A
  8
0
 10
132.9367375270491
 20
22.66014329082554
 30
69.52030225891257
 70
   192
  0
VERTEX
  5
119B
  8
0
 10
0.0
 20
0.0
 30
0.0
 70
   128
 71
     1
 72
     2
 73
     3
  0
VERTEX
  5
119C
  8
0
 10
0.0
 20
0.0
 30
0.0
 70
   128
 71
     4
 72
     5
 73
     6
  0
VERTEX
  5
119D
  8
0
 10
0.0
 20
0.0
 30
0.0
 70
   128
 71
     6
 72
     7
 73
     8
  0
VERTEX
  5
119E
  8
0
 10
0.0
 20
0.0
 30
0.0
 70
   128
 71
     9
 72
     1
 73
     3
  0
VERTEX
  5
119F
  8
0
 10
0.0
 20
0.0
 30
0.0
 70
   128
 71
     9
 72
     3
 73
     6
  0
VERTEX
  5
11A0
  8
0
 10
0.0
 20
0.0
 30
0.0
 70
   128
 71
     6
 72
     5
 73
     9
  0
VERTEX
  5
11A1
  8
0
 10
0.0
 20
0.0
 30
0.0
 70
   128
 71
     7
 72
    10
 73
    11
  0
VERTEX
  5
11A2
  8
0
 10
0.0
 20
0.0
 30
0.0
 70
   128
 71
     4
 72
     6
 73
     8
  0
VERTEX
  5
11A3
  8
0
 10
0.0
 20
0.0
 30
0.0
 70
   128
 71
     8
 72
     7
 73
    11
  0
SEQEND
  5
1765
  8
0
  0
POLYLINE
  5
11A4
  8
0
 66
     1
 10
0.0
 20
0.0
 30
0.0
 70
    64
 71
     8
 72
     6
  0
VERTEX
  5
11A5
  8
0
 10
-31.96180162456658
 20
0.0000000000000022
 30
-194.0
 70
   192
  0
VERTEX
  5
11A6
  8
0
 10
-25.83759517775189
 20
70.00000000000001
 30
-194.0
 70
   192
  0
VERTEX
  5
11A7
  8
0
 10
-30.82829218030463
 20
70.21754584381453
 30
-192.6656140701263
 70
   192
  0
VERTEX
  5
11A8
  8
0
 10
-34.54462250637162
 20
70.37981350196368
 30
-188.9170626892537
 70
   192
  0
VERTEX
  5
11A9
  8
0
 10
-36.87089898623338
 20
0.0000000000000012
 30
-192.722604191027
 70
   192
  0
VERTEX
  5
11AA
  8
0
 10
-40.71772474655835
 20
0.0000000000000095
 30
-188.8904167641086
 70
   192
  0
VERTEX
  5
11AB
  8
0
 10
-42.00000000000006
 20
0.0000000000000426
 30
-184.0
 70
   192
  0
VERTEX
  5
11AC
  8
0
 10
-35.83766785592735
 20
70.43577871373832
 30
-184.0
 70
   192
  0
VERTEX
  5
11AD
  8
0
 10
0.0
 20
0.0
 30
0.0
 70
   128
 71
     1
 72
     2
 73
     3
  0
VERTEX
  5
11AE
  8
0
 10
0.0
 20
0.0
 30
0.0
 70
   128
 71
     1
 72
     3
 73
     4
  0
VERTEX
  5
11AF
  8
0
 10
0.0
 20
0.0
 30
0.0
 70
   128
 71
     5
 72
     1
 73
     4
  0
VERTEX
  5
11B0
  8
0
 10
0.0
 20
0.0
 30
0.0
 70
   128
 71
     6
 72
     5
 73
     4
  0
VERTEX
  5
11B1
  8
0
 10
0.0
 20
0.0
 30
0.0
 70
   128
 71
     7
 72
     6
 73
     4
  0
VERTEX
  5
11B2
  8
0
 10
0.0
 20
0.0
 30
0.0
 70
   128
 71
     8
 72
     7
 73
     4
  0
SEQEND
  5
1766
  8
0
  0
POLYLINE
  5
11B3
  8
0
 66
     1
 10
0.0
 20
0.0
 30
0.0
 70
    64
 71
     8
 72
     6
  0
VERTEX
  5
11B4
  8
0
 10
184.0
 20
0.0000000000000278
 30
42.0
 70
   192
  0
VERTEX
  5
11B5
  8
0
 10
184.0
 20
70.4357787137383
 30
35.8376678559273
 70
   192
  0
VERTEX
  5
11B6
  8
0
 10
188.9169583220471
 20
70.37986915042728
 30
34.54525857121991
 70
   192
  0
VERTEX
  5
11B7
  8
0
 10
188.8904167641087
 20
0.0000000000000095
 30
40.71772474655835
 70
   192
  0
VERTEX
  5
11B8
  8
0
 10
192.6655377753769
 20
70.21755793797124
 30
30.82846129583169
 70
   192
  0
VERTEX
  5
11B9
  8
0
 10
192.7226041910273
 20
0.0000000000000012
 30
36.87089898623339
 70
   192
  0
VERTEX
  5
11BA
  8
0
 10
194.0
 20
70.0
 30
25.83759517775185
 70
   192
  0
VERTEX
  5
11BB
  8
0
 10
194.0
 20
-0.0000000000000142
 30
31.96180162456654
 70
   192
  0
VERTEX
  5
11BC
  8
0
 10
0.0
 20
0.0
 30
0.0
 70
   128
 71
     1
 72
     2
 73
     3
  0
VERTEX
  5
11BD
  8
0
 10
0.0
 20
0.0
 30
0.0
 70
   128
 71
     3
 72
     4
 73
     1
  0
VERTEX
  5
11BE
  8
0
 10
0.0
 20
0.0
 30
0.0
 70
   128
 71
     5
 72
     6
 73
     3
  0
VERTEX
  5
11BF
  8
0
 10
0.0
 20
0.0
 30
0.0
 70
   128
 71
     6
 72
     4
 73
     3
  0
VERTEX
  5
11C0
  8
0
 10
0.0
 20
0.0
 30
0.0
 70
   128
 71
     7
 72
     8
 73
     5
  0
VERTEX
  5
11C1
  8
0
 10
0.0
 20
0.0
 30
0.0
 70
   128
 71
     8
 72
     6
 73
     5
  0
SEQEND
  5
1767
  8
0
  0
POLYLINE
  5
11C2
  8
0
 66
     1
 10
0.0
 20
0.0
 30
0.0
 70
    64
 71
     8
 72
     6
  0
VERTEX
  5
11C3
  8
0
 10
184.0
 20
0.0
 30
-191.3205080756888
 70
   192
  0
VERTEX
  5
11C4
  8
0
 10
191.3205080756888
 20
0.0
 30
-184.0
 70
   192
  0
VERTEX
  5
11C5
  8
0
 10
191.3205080756888
 20
70.0
 30
-184.0
 70
   192
  0
VERTEX
  5
11C6
  8
0
 10
184.0
 20
70.0
 30
-191.3205080756888
 70
   192
  0
VERTEX
  5
11C7
  8
0
 10
194.0
 20
0.0
 30
-174.0
 70
   192
  0
VERTEX
  5
11C8
  8
0
 10
194.0
 20
70.0
 30
-174.0
 70
   192
  0
VERTEX
  5
11C9
  8
0
 10
174.0
 20
0.0
 30
-194.0
 70
   192
  0
VERTEX
  5
11CA
  8
0
 10
174.0
 20
70.0
 30
-194.0
 70
   192
  0
VERTEX
  5
11CB
  8
0
 10
0.0
 20
0.0
 30
0.0
 70
   128
 71
     1
 72
     2
 73
    -3
  0
VERTEX
  5
11CC
  8
0
 10
0.0
 20
0.0
 30
0.0
 70
   128
 71
     4
 72
    -1
 73
     3
  0
VERTEX
  5
11CD
  8
0
 10
0.0
 20
0.0
 30
0.0
 70
   128
 71
     2
 72
     5
 73
    -6
  0
VERTEX
  5
11CE
  8
0
 10
0.0
 20
0.0
 30
0.0
 70
   128
 71
     3
 72
    -2
 73
     6
  0
VERTEX
  5
11CF
  8
0
 10
0.0
 20
0.0
 30
0.0
 70
   128
 71
     7
 72
     1
 73
    -4
  0
VERTEX
  5
11D0
  8
0
 10
0.0
 20
0.0
 30
0.0
 70
   128
 71
     8
 72
    -7
 73
     4
  0
SEQEND
  5
1768
  8
0
  0
POLYLINE
  5
11D1
  8
0
 66
     1
 10
0.0
 20
0.0
 30
0.0
 70
    64
 71
    16
 72
    14
  0
VERTEX
  5
11D2
  8
0
 10
124.6456921967296
 20
24.64430939898661
 30
65.1844355291541
 70
   192
  0
VERTEX
  5
11D3
  8
0
 10
126.6826692054987
 20
26.77271103426626
 30
66.24968852075303
 70
   192
  0
VERTEX
  5
11D4
  8
0
 10
129.442053014031
 20
27.11558962505931
 30
67.69272977470648
 70
   192
  0
VERTEX
  5
11D5
  8
0
 10
131.8406052575485
 20
25.53834293051055
 30
68.94707135142227
 70
   192
  0
VERTEX
  5
11D6
  8
0
 10
132.9367375270492
 20
22.66014329082555
 30
69.5203022589126
 70
   192
  0
VERTEX
  5
11D7
  8
0
 10
143.9392773528888
 20
31.60889005593528
 30
53.92685844047779
 70
   192
  0
VERTEX
  5
11D8
  8
0
 10
152.0356353568101
 20
49.91952187448308
 30
45.8728921588269
 70
   192
  0
VERTEX
  5
11D9
  8
0
 10
157.4527190618269
 20
70.43577871373829
 30
41.01633136492703
 70
   192
  0
VERTEX
  5
11DA
  8
0
 10
156.7973754401647
 20
70.64234859312441
 30
41.23326285880539
 70
   192
  0
VERTEX
  5
11DB
  8
0
 10
156.113317159481
 20
70.83557803174337
 30
41.35129803677499
 70
   192
  0
VERTEX
  5
11DC
  8
0
 10
155.4147508967615
 20
71.01145399693975
 30
41.36798551758117
 70
   192
  0
VERTEX
  5
11DD
  8
0
 10
152.733574004864
 20
71.47832925797084
 30
40.42431047481828
 70
   192
  0
VERTEX
  5
11DE
  8
0
 10
150.94224804489
 20
71.45456450495794
 30
38.16869721830054
 70
   192
  0
VERTEX
  5
11DF
  8
0
 10
150.635292938176
 20
70.948046978642
 30
35.3497571374654
 70
   192
  0
VERTEX
  5
11E0
  8
0
 10
144.7001969441637
 20
50.44894815910319
 30
40.39439803379574
 70
   192
  0
VERTEX
  5
11E1
  8
0
 10
135.9317959858497
 20
32.67560747459298
 30
49.00813016548037
 70
   192
  0
VERTEX
  5
11E2
  8
0
 10
0.0
 20
0.0
 30
0.0
 70
   128
 71
     9
 72
     8
 73
     7
  0
VERTEX
  5
11E3
  8
0
 10
0.0
 20
0.0
 30
0.0
 70
   128
 71
     7
 72
    10
 73
     9
  0
VERTEX
  5
11E4
  8
0
 10
0.0
 20
0.0
 30
0.0
 70
   128
 71
     7
 72
    11
 73
    10
  0
VERTEX
  5
11E5
  8
0
 10
0.0
 20
0.0
 30
0.0
 70
   128
 71
     7
 72
    12
 73
    11
  0
VERTEX
  5
11E6
  8
0
 10
0.0
 20
0.0
 30
0.0
 70
   128
 71
     7
 72
    13
 73
    12
  0
VERTEX
  5
11E7
  8
0
 10
0.0
 20
0.0
 30
0.0
 70
   128
 71
     7
 72
    15
 73
    13
  0
VERTEX
  5
11E8
  8
0
 10
0.0
 20
0.0
 30
0.0
 70
   128
 71
    15
 72
    14
 73
    13
  0
VERTEX
  5
11E9
  8
0
 10
0.0
 20
0.0
 30
0.0
 70
   128
 71
     7
 72
     6
 73
    16
  0
VERTEX
  5
11EA
  8
0
 10
0.0
 20
0.0
 30
0.0
 70
   128
 71
     7
 72
    16
 73
    15
  0
VERTEX
  5
11EB
  8
0
 10
0.0
 20
0.0
 30
0.0
 70
   128
 71
     2
 72
     1
 73
    16
  0
VERTEX
  5
11EC
  8
0
 10
0.0
 20
0.0
 30
0.0
 70
   128
 71
    16
 72
     3
 73
     2
  0
VERTEX
  5
11ED
  8
0
 10
0.0
 20
0.0
 30
0.0
 70
   128
 71
    16
 72
     4
 73
     3
  0
VERTEX
  5
11EE
  8
0
 10
0.0
 20
0.0
 30
0.0
 70
   128
 71
    16
 72
     6
 73
     4
  0
VERTEX
  5
11EF
  8
0
 10
0.0
 20
0.0
 30
0.0
 70
   128
 71
     6
 72
     5
 73
     4
  0
SEQEND
  5
1769
  8
0
  0
POLYLINE
  5
11F0
  8
0
 66
     1
 10
0.0
 20
0.0
 30
0.0
 70
    64
 71
    29
 72
    36
  0
VERTEX
  5
11F1
  8
0
 10
-112.5289262473744
 20
24.64430554963564
 30
84.39669518265305
 70
   192
  0
VERTEX
  5
11F2
  8
0
 10
-88.20759462874346
 20
26.77271103426621
 30
112.5030673179087
 70
   192
  0
VERTEX
  5
11F3
  8
0
 10
-138.8309328327391
 20
26.77271103426621
 30
34.10999845966167
 70
   192
  0
VERTEX
  5
11F4
  8
0
 10
-135.0347085141161
 20
24.64430692440386
 30
39.38512478312769
 70
   192
  0
VERTEX
  5
11F5
  8
0
 10
0.0
 20
24.64430939898661
 30
140.6611503523852
 70
   192
  0
VERTEX
  5
11F6
  8
0
 10
0.0
 20
26.77271103426623
 30
142.9598541763618
 70
   192
  0
VERTEX
  5
11F7
  8
0
 10
-66.19348690514178
 20
24.6443062451066
 30
124.1127845477023
 70
   192
  0
VERTEX
  5
11F8
  8
0
 10
-66.24968852075305
 20
26.77271103426623
 30
-126.6826692054988
 70
   192
  0
VERTEX
  5
11F9
  8
0
 10
-65.18443552915411
 20
24.64430939898664
 30
-124.6456921967296
 70
   192
  0
VERTEX
  5
11FA
  8
0
 10
-102.7856260266107
 20
24.64430611414126
 30
-96.02435134263483
 70
   192
  0
VERTEX
  5
11FB
  8
0
 10
-130.2999839117537
 20
26.77271103426621
 30
-58.81695417754424
 70
   192
  0
VERTEX
  5
11FC
  8
0
 10
-126.2453679440871
 20
24.6443054155764
 30
-62.02957698142595
 70
   192
  0
VERTEX
  5
11FD
  8
0
 10
-140.661150352385
 20
24.64430939898665
 30
0.0
 70
   192
  0
VERTEX
  5
11FE
  8
0
 10
-90.12891985763724
 20
27.11558962505927
 30
114.9535930631759
 70
   192
  0
VERTEX
  5
11FF
  8
0
 10
-141.8549283846536
 20
27.11558962505927
 30
34.85297757471307
 70
   192
  0
VERTEX
  5
1200
  8
0
 10
0.0
 20
27.11558962505926
 30
146.0737853033139
 70
   192
  0
VERTEX
  5
1201
  8
0
 10
-67.69272977470648
 20
27.11558962505925
 30
-129.442053014031
 70
   192
  0
VERTEX
  5
1202
  8
0
 10
-133.1381595526132
 20
27.11558962505927
 30
-60.09809667353495
 70
   192
  0
VERTEX
  5
1203
  8
0
 10
-91.79900247682217
 20
25.53834293051054
 30
117.0836751510442
 70
   192
  0
VERTEX
  5
1204
  8
0
 10
-144.4834903458436
 20
25.53834293051054
 30
35.49880082618785
 70
   192
  0
VERTEX
  5
1205
  8
0
 10
0.0
 20
25.53834293051053
 30
148.7805223899111
 70
   192
  0
VERTEX
  5
1206
  8
0
 10
-68.94707135142224
 20
25.53834293051051
 30
-131.8406052575485
 70
   192
  0
VERTEX
  5
1207
  8
0
 10
-135.6052003933367
 20
25.53834293051054
 30
-61.21171022686615
 70
   192
  0
VERTEX
  5
1208
  8
0
 10
-131.1535513834813
 20
22.66014329082555
 30
72.82852854484013
 70
   192
  0
VERTEX
  5
1209
  8
0
 10
0.0
 20
22.66014329082557
 30
150.0174943481797
 70
   192
  0
VERTEX
  5
120A
  8
0
 10
-76.09104822889577
 20
22.66014329082555
 30
129.2880543203196
 70
   192
  0
VERTEX
  5
120B
  8
0
 10
-69.52030225891248
 20
22.66014329082555
 30
-132.936737527049
 70
   192
  0
VERTEX
  5
120C
  8
0
 10
-127.3414171085966
 20
22.66014329082555
 30
-79.30581377982632
 70
   192
  0
VERTEX
  5
120D
  8
0
 10
-149.9704194585378
 20
22.66014329082555
 30
-3.757911379513918
 70
   192
  0
VERTEX
  5
120E
  8
0
 10
0.0
 20
0.0
 30
0.0
 70
   128
 71
     1
 72
     2
 73
     3
  0
VERTEX
  5
120F
  8
0
 10
0.0
 20
0.0
 30
0.0
 70
   128
 71
     4
 72
     1
 73
     3
  0
VERTEX
  5
1210
  8
0
 10
0.0
 20
0.0
 30
0.0
 70
   128
 71
     5
 72
     6
 73
     2
  0
VERTEX
  5
1211
  8
0
 10
0.0
 20
0.0
 30
0.0
 70
   128
 71
     7
 72
     5
 73
     2
  0
VERTEX
  5
1212
  8
0
 10
0.0
 20
0.0
 30
0.0
 70
   128
 71
     8
 72
     9
 73
    10
  0
VERTEX
  5
1213
  8
0
 10
0.0
 20
0.0
 30
0.0
 70
   128
 71
    11
 72
     8
 73
    10
  0
VERTEX
  5
1214
  8
0
 10
0.0
 20
0.0
 30
0.0
 70
   128
 71
    11
 72
    10
 73
    12
  0
VERTEX
  5
1215
  8
0
 10
0.0
 20
0.0
 30
0.0
 70
   128
 71
     3
 72
    11
 73
    13
  0
VERTEX
  5
1216
  8
0
 10
0.0
 20
0.0
 30
0.0
 70
   128
 71
     2
 72
    14
 73
   -15
  0
VERTEX
  5
1217
  8
0
 10
0.0
 20
0.0
 30
0.0
 70
   128
 71
     3
 72
    -2
 73
    15
  0
VERTEX
  5
1218
  8
0
 10
0.0
 20
0.0
 30
0.0
 70
   128
 71
     6
 72
    16
 73
   -14
  0
VERTEX
  5
1219
  8
0
 10
0.0
 20
0.0
 30
0.0
 70
   128
 71
     2
 72
    -6
 73
    14
  0
VERTEX
  5
121A
  8
0
 10
0.0
 20
0.0
 30
0.0
 70
   128
 71
    17
 72
     8
 73
   -11
  0
VERTEX
  5
121B
  8
0
 10
0.0
 20
0.0
 30
0.0
 70
   128
 71
    18
 72
   -17
 73
    11
  0
VERTEX
  5
121C
  8
0
 10
0.0
 20
0.0
 30
0.0
 70
   128
 71
     3
 72
    15
 73
   -18
  0
VERTEX
  5
121D
  8
0
 10
0.0
 20
0.0
 30
0.0
 70
   128
 71
    11
 72
    -3
 73
    18
  0
VERTEX
  5
121E
  8
0
 10
0.0
 20
0.0
 30
0.0
 70
   128
 71
    14
 72
    19
 73
   -20
  0
VERTEX
  5
121F
  8
0
 10
0.0
 20
0.0
 30
0.0
 70
   128
 71
    15
 72
   -14
 73
    20
  0
VERTEX
  5
1220
  8
0
 10
0.0
 20
0.0
 30
0.0
 70
   128
 71
    16
 72
    21
 73
   -19
  0
VERTEX
  5
1221
  8
0
 10
0.0
 20
0.0
 30
0.0
 70
   128
 71
    14
 72
   -16
 73
    19
  0
VERTEX
  5
1222
  8
0
 10
0.0
 20
0.0
 30
0.0
 70
   128
 71
    22
 72
    17
 73
   -18
  0
VERTEX
  5
1223
  8
0
 10
0.0
 20
0.0
 30
0.0
 70
   128
 71
    23
 72
   -22
 73
    18
  0
VERTEX
  5
1224
  8
0
 10
0.0
 20
0.0
 30
0.0
 70
   128
 71
    15
 72
    20
 73
   -23
  0
VERTEX
  5
1225
  8
0
 10
0.0
 20
0.0
 30
0.0
 70
   128
 71
    18
 72
   -15
 73
    23
  0
VERTEX
  5
1226
  8
0
 10
0.0
 20
0.0
 30
0.0
 70
   128
 71
    20
 72
    19
 73
    24
  0
VERTEX
  5
1227
  8
0
 10
0.0
 20
0.0
 30
0.0
 70
   128
 71
    21
 72
    25
 73
    26
  0
VERTEX
  5
1228
  8
0
 10
0.0
 20
0.0
 30
0.0
 70
   128
 71
    19
 72
    21
 73
    26
  0
VERTEX
  5
1229
  8
0
 10
0.0
 20
0.0
 30
0.0
 70
   128
 71
    27
 72
    22
 73
    23
  0
VERTEX
  5
122A
  8
0
 10
0.0
 20
0.0
 30
0.0
 70
   128
 71
    28
 72
    27
 73
    23
  0
VERTEX
  5
122B
  8
0
 10
0.0
 20
0.0
 30
0.0
 70
   128
 71
    20
 72
    24
 73
    29
  0
VERTEX
  5
122C
  8
0
 10
0.0
 20
0.0
 30
0.0
 70
   128
 71
    19
 72
    26
 73
    24
  0
VERTEX
  5
122D
  8
0
 10
0.0
 20
0.0
 30
0.0
 70
   128
 71
    20
 72
    29
 73
    28
  0
VERTEX
  5
122E
  8
0
 10
0.0
 20
0.0
 30
0.0
 70
   128
 71
    23
 72
    20
 73
    28
  0
VERTEX
  5
122F
  8
0
 10
0.0
 20
0.0
 30
0.0
 70
   128
 71
     7
 72
     2
 73
     1
  0
VERTEX
  5
1230
  8
0
 10
0.0
 20
0.0
 30
0.0
 70
   128
 71
     4
 72
     3
 73
    13
  0
VERTEX
  5
1231
  8
0
 10
0.0
 20
0.0
 30
0.0
 70
   128
 71
    13
 72
    11
 73
    12
  0
SEQEND
  5
176A
  8
0
  0
POLYLINE
  5
1232
  8
0
 66
     1
 10
0.0
 20
0.0
 30
0.0
 70
    64
 71
    16
 72
    14
  0
VERTEX
  5
1233
  8
0
 10
-69.52030225891257
 20
22.66014329082554
 30
-132.9367375270492
 70
   192
  0
VERTEX
  5
1234
  8
0
 10
-68.94707135142224
 20
25.53834293051051
 30
-131.8406052575485
 70
   192
  0
VERTEX
  5
1235
  8
0
 10
-67.69272977470648
 20
27.11558962505925
 30
-129.442053014031
 70
   192
  0
VERTEX
  5
1236
  8
0
 10
-66.24968852075305
 20
26.77271103426623
 30
-126.6826692054988
 70
   192
  0
VERTEX
  5
1237
  8
0
 10
-65.1844355291541
 20
24.64430939898665
 30
-124.6456921967296
 70
   192
  0
VERTEX
  5
1238
  8
0
 10
-49.01257186978231
 20
32.67040500820186
 30
-135.9279062957637
 70
   192
  0
VERTEX
  5
1239
  8
0
 10
-40.39422462801302
 20
50.44947362495314
 30
-144.70038189618
 70
   192
  0
VERTEX
  5
123A
  8
0
 10
-35.34975713746565
 20
70.94804697864201
 30
-150.6352929381763
 70
   192
  0
VERTEX
  5
123B
  8
0
 10
-35.71991641421942
 20
71.03773748352192
 30
-150.581694263267
 70
   192
  0
VERTEX
  5
123C
  8
0
 10
-36.09452227440319
 20
71.1212872766824
 30
-150.5566947360047
 70
   192
  0
VERTEX
  5
123D
  8
0
 10
-36.47135802387964
 20
71.19820196026059
 30
-150.5604422886868
 70
   192
  0
VERTEX
  5
123E
  8
0
 10
-39.44473302992274
 20
71.53156994100392
 30
-151.6981214305312
 70
   192
  0
VERTEX
  5
123F
  8
0
 10
-41.19945162087671
 20
71.23721436519325
 30
-154.3590844946274
 70
   192
  0
VERTEX
  5
1240
  8
0
 10
-41.0163313649271
 20
70.43577871373832
 30
-157.452719061827
 70
   192
  0
VERTEX
  5
1241
  8
0
 10
-45.8728695964751
 20
49.91960110748884
 30
-152.0356598770605
 70
   192
  0
VERTEX
  5
1242
  8
0
 10
-53.92683560919991
 20
31.60892080058233
 30
-143.9392942806329
 70
   192
  0
VERTEX
  5
1243
  8
0
 10
0.0
 20
0.0
 30
0.0
 70
   128
 71
     9
 72
     8
 73
     7
  0
VERTEX
  5
1244
  8
0
 10
0.0
 20
0.0
 30
0.0
 70
   128
 71
     7
 72
    10
 73
     9
  0
VERTEX
  5
1245
  8
0
 10
0.0
 20
0.0
 30
0.0
 70
   128
 71
     7
 72
    11
 73
    10
  0
VERTEX
  5
1246
  8
0
 10
0.0
 20
0.0
 30
0.0
 70
   128
 71
     7
 72
    12
 73
    11
  0
VERTEX
  5
1247
  8
0
 10
0.0
 20
0.0
 30
0.0
 70
   128
 71
     7
 72
    13
 73
    12
  0
VERTEX
  5
1248
  8
0
 10
0.0
 20
0.0
 30
0.0
 70
   128
 71
     7
 72
    15
 73
    13
  0
VERTEX
  5
1249
  8
0
 10
0.0
 20
0.0
 30
0.0
 70
   128
 71
    15
 72
    14
 73
    13
  0
VERTEX
  5
124A
  8
0
 10
0.0
 20
0.0
 30
0.0
 70
   128
 71
     7
 72
     6
 73
    16
  0
VERTEX
  5
124B
  8
0
 10
0.0
 20
0.0
 30
0.0
 70
   128
 71
     7
 72
    16
 73
    15
  0
VERTEX
  5
124C
  8
0
 10
0.0
 20
0.0
 30
0.0
 70
   128
 71
     2
 72
     1
 73
    16
  0
VERTEX
  5
124D
  8
0
 10
0.0
 20
0.0
 30
0.0
 70
   128
 71
    16
 72
     3
 73
     2
  0
VERTEX
  5
124E
  8
0
 10
0.0
 20
0.0
 30
0.0
 70
   128
 71
    16
 72
     4
 73
     3
  0
VERTEX
  5
124F
  8
0
 10
0.0
 20
0.0
 30
0.0
 70
   128
 71
    16
 72
     6
 73
     4
  0
VERTEX
  5
1250
  8
0
 10
0.0
 20
0.0
 30
0.0
 70
   128
 71
     6
 72
     5
 73
     4
  0
SEQEND
  5
176B
  8
0
  0
POLYLINE
  5
1251
  8
0
 66
     1
 10
0.0
 20
0.0
 30
0.0
 70
    64
 71
    16
 72
    16
  0
VERTEX
  5
1252
  8
0
 10
0.000000000000008
 20
-22.0
 30
-65.0
 70
   192
  0
VERTEX
  5
1253
  8
0
 10
-45.96194077712558
 20
-22.0
 30
-45.9619407771256
 70
   192
  0
VERTEX
  5
1254
  8
0
 10
-65.0
 20
-22.0
 30
-0.0000000000000072
 70
   192
  0
VERTEX
  5
1255
  8
0
 10
-45.9619407771256
 20
-22.0
 30
45.96194077712558
 70
   192
  0
VERTEX
  5
1256
  8
0
 10
0.0
 20
-22.0
 30
65.0
 70
   192
  0
VERTEX
  5
1257
  8
0
 10
45.96194077712559
 20
-22.0
 30
45.96194077712559
 70
   192
  0
VERTEX
  5
1258
  8
0
 10
65.00000000000001
 20
-22.0
 30
0.0
 70
   192
  0
VERTEX
  5
1259
  8
0
 10
45.9619407771256
 20
-22.0
 30
-45.9619407771256
 70
   192
  0
VERTEX
  5
125A
  8
0
 10
0.0000000000000027
 20
-22.0
 30
22.0
 70
   192
  0
VERTEX
  5
125B
  8
0
 10
-15.55634918610404
 20
-22.0
 30
15.55634918610405
 70
   192
  0
VERTEX
  5
125C
  8
0
 10
-22.0
 20
-22.0
 30
0.0000000000000024
 70
   192
  0
VERTEX
  5
125D
  8
0
 10
-15.55634918610405
 20
-22.0
 30
-15.55634918610404
 70
   192
  0
VERTEX
  5
125E
  8
0
 10
0.0
 20
-22.0
 30
-22.0
 70
   192
  0
VERTEX
  5
125F
  8
0
 10
15.55634918610405
 20
-22.0
 30
-15.55634918610405
 70
   192
  0
VERTEX
  5
1260
  8
0
 10
22.0
 20
-22.0
 30
0.0
 70
   192
  0
VERTEX
  5
1261
  8
0
 10
15.55634918610405
 20
-22.0
 30
15.55634918610405
 70
   192
  0
VERTEX
  5
1262
  8
0
 10
0.0
 20
0.0
 30
0.0
 70
   128
 71
    10
 72
    -9
 73
    -5
  0
VERTEX
  5
1263
  8
0
 10
0.0
 20
0.0
 30
0.0
 70
   128
 71
   -10
 72
     5
 73
    -4
  0
VERTEX
  5
1264
  8
0
 10
0.0
 20
0.0
 30
0.0
 70
   128
 71
     4
 72
    -3
 73
   -11
  0
VERTEX
  5
1265
  8
0
 10
0.0
 20
0.0
 30
0.0
 70
   128
 71
    -4
 72
    11
 73
   -10
  0
VERTEX
  5
1266
  8
0
 10
0.0
 20
0.0
 30
0.0
 70
   128
 71
     3
 72
    -2
 73
   -12
  0
VERTEX
  5
1267
  8
0
 10
0.0
 20
0.0
 30
0.0
 70
   128
 71
    -3
 72
    12
 73
   -11
  0
VERTEX
  5
1268
  8
0
 10
0.0
 20
0.0
 30
0.0
 70
   128
 71
     2
 72
    -1
 73
   -13
  0
VERTEX
  5
1269
  8
0
 10
0.0
 20
0.0
 30
0.0
 70
   128
 71
    -2
 72
    13
 73
   -12
  0
VERTEX
  5
126A
  8
0
 10
0.0
 20
0.0
 30
0.0
 70
   128
 71
     1
 72
    -8
 73
   -14
  0
VERTEX
  5
126B
  8
0
 10
0.0
 20
0.0
 30
0.0
 70
   128
 71
    -1
 72
    14
 73
   -13
  0
VERTEX
  5
126C
  8
0
 10
0.0
 20
0.0
 30
0.0
 70
   128
 71
     8
 72
    -7
 73
   -15
  0
VERTEX
  5
126D
  8
0
 10
0.0
 20
0.0
 30
0.0
 70
   128
 71
    -8
 72
    15
 73
   -14
  0
VERTEX
  5
126E
  8
0
 10
0.0
 20
0.0
 30
0.0
 70
   128
 71
     7
 72
    -6
 73
   -16
  0
VERTEX
  5
126F
  8
0
 10
0.0
 20
0.0
 30
0.0
 70
   128
 71
    -7
 72
    16
 73
   -15
  0
VERTEX
  5
1270
  8
0
 10
0.0
 20
0.0
 30
0.0
 70
   128
 71
     6
 72
    -5
 73
    -9
  0
VERTEX
  5
1271
  8
0
 10
0.0
 20
0.0
 30
0.0
 70
   128
 71
    -6
 72
     9
 73
   -16
  0
SEQEND
  5
176C
  8
0
  0
POLYLINE
  5
1272
  8
0
 66
     1
 10
0.0
 20
0.0
 30
0.0
 70
    64
 71
    10
 72
     8
  0
VERTEX
  5
1273
  8
0
 10
0.000000000000008
 20
-22.0
 30
-65.0
 70
   192
  0
VERTEX
  5
1274
  8
0
 10
-0.0000000000000072
 20
-22.0
 30
65.0
 70
   192
  0
VERTEX
  5
1275
  8
0
 10
0.0
 20
-14.27260648082184
 30
65.67605933153179
 70
   192
  0
VERTEX
  5
1276
  8
0
 10
-0.0000000000000073
 20
-14.27260648082184
 30
-65.67605933153182
 70
   192
  0
VERTEX
  5
1277
  8
0
 10
-65.67605933153182
 20
-14.27260648082184
 30
0.0000000000000073
 70
   192
  0
VERTEX
  5
1278
  8
0
 10
-65.0
 20
-22.0
 30
-0.0000000000000072
 70
   192
  0
VERTEX
  5
1279
  8
0
 10
-46.43998691493619
 20
-14.27260648082184
 30
-46.43998691493618
 70
   192
  0
VERTEX
  5
127A
  8
0
 10
-45.96194077712558
 20
-22.0
 30
-45.9619407771256
 70
   192
  0
VERTEX
  5
127B
  8
0
 10
-46.43998691493618
 20
-14.27260648082184
 30
46.43998691493619
 70
   192
  0
VERTEX
  5
127C
  8
0
 10
-45.9619407771256
 20
-22.0
 30
45.96194077712558
 70
   192
  0
VERTEX
  5
127D
  8
0
 10
0.0
 20
0.0
 30
0.0
 70
   128
 71
     8
 72
     7
 73
    -4
  0
VERTEX
  5
127E
  8
0
 10
0.0
 20
0.0
 30
0.0
 70
   128
 71
    -8
 72
     4
 73
     1
  0
VERTEX
  5
127F
  8
0
 10
0.0
 20
0.0
 30
0.0
 70
   128
 71
     6
 72
     5
 73
    -7
  0
VERTEX
  5
1280
  8
0
 10
0.0
 20
0.0
 30
0.0
 70
   128
 71
    -6
 72
     7
 73
     8
  0
VERTEX
  5
1281
  8
0
 10
0.0
 20
0.0
 30
0.0
 70
   128
 71
    10
 72
     9
 73
    -5
  0
VERTEX
  5
1282
  8
0
 10
0.0
 20
0.0
 30
0.0
 70
   128
 71
   -10
 72
     5
 73
     6
  0
VERTEX
  5
1283
  8
0
 10
0.0
 20
0.0
 30
0.0
 70
   128
 71
     2
 72
     3
 73
    -9
  0
VERTEX
  5
1284
  8
0
 10
0.0
 20
0.0
 30
0.0
 70
   128
 71
    -2
 72
     9
 73
    10
  0
SEQEND
  5
176D
  8
0
  0
POLYLINE
  5
1285
  8
0
 66
     1
 10
0.0
 20
0.0
 30
0.0
 70
    64
 71
    25
 72
    32
  0
VERTEX
  5
1286
  8
0
 10
68.43945516212312
 20
-10.22705176326356
 30
-0.0000000000000042
 70
   192
  0
VERTEX
  5
1287
  8
0
 10
70.06750842050731
 20
-9.74326072682973
 30
0.0000000000000354
 70
   192
  0
VERTEX
  5
1288
  8
0
 10
60.68024227203939
 20
-9.74326072682973
 30
35.03375421025368
 70
   192
  0
VERTEX
  5
1289
  8
0
 10
48.39400284584993
 20
-10.22705176326356
 30
48.39400284584993
 70
   192
  0
VERTEX
  5
128A
  8
0
 10
35.03375421025364
 20
-9.74326072682973
 30
60.6802422720394
 70
   192
  0
VERTEX
  5
128B
  8
0
 10
0.0000000000000086
 20
-9.743260726829725
 30
70.06750842050741
 70
   192
  0
VERTEX
  5
128C
  8
0
 10
48.39400284584993
 20
-10.22705176326356
 30
-48.39400284584993
 70
   192
  0
VERTEX
  5
128D
  8
0
 10
60.68024227203941
 20
-9.74326072682973
 30
-35.03375421025363
 70
   192
  0
VERTEX
  5
128E
  8
0
 10
47.42372556767322
 20
-11.22791898021963
 30
47.42372556767321
 70
   192
  0
VERTEX
  5
128F
  8
0
 10
67.06727587606316
 20
-11.22791898021963
 30
-0.0000000000000041
 70
   192
  0
VERTEX
  5
1290
  8
0
 10
47.42372556767322
 20
-11.22791898021963
 30
-47.42372556767322
 70
   192
  0
VERTEX
  5
1291
  8
0
 10
0.0
 20
-10.50779759233197
 30
-67.94501073579609
 70
   192
  0
VERTEX
  5
1292
  8
0
 10
46.74633341779319
 20
-12.6303778671861
 30
46.74633341779318
 70
   192
  0
VERTEX
  5
1293
  8
0
 10
66.10929871065777
 20
-12.6303778671861
 30
-0.000000000000004
 70
   192
  0
VERTEX
  5
1294
  8
0
 10
0.0000000000000081
 20
-12.12749227297557
 30
66.37462792201734
 70
   192
  0
VERTEX
  5
1295
  8
0
 10
46.74633341779319
 20
-12.6303778671861
 30
-46.74633341779319
 70
   192
  0
VERTEX
  5
1296
  8
0
 10
46.43998691493619
 20
-14.27260648082184
 30
46.43998691493619
 70
   192
  0
VERTEX
  5
1297
  8
0
 10
65.67605933153183
 20
-14.27260648082184
 30
0.0
 70
   192
  0
VERTEX
  5
1298
  8
0
 10
46.43998691493618
 20
-14.27260648082184
 30
-46.43998691493618
 70
   192
  0
VERTEX
  5
1299
  8
0
 10
0.0000000000000083
 20
-10.50779759233197
 30
67.94501073579609
 70
   192
  0
VERTEX
  5
129A
  8
0
 10
0.0
 20
-12.12749227297557
 30
-66.37462792201734
 70
   192
  0
VERTEX
  5
129B
  8
0
 10
0.000000000000008
 20
-14.27260648082184
 30
65.67605933153179
 70
   192
  0
VERTEX
  5
129C
  8
0
 10
0.0
 20
-14.27260648082184
 30
-65.67605933153182
 70
   192
  0
VERTEX
  5
129D
  8
0
 10
35.03375421025367
 20
-9.74326072682973
 30
-60.68024227203939
 70
   192
  0
VERTEX
  5
129E
  8
0
 10
0.0
 20
-9.743260726829725
 30
-70.06750842050741
 70
   192
  0
VERTEX
  5
129F
  8
0
 10
0.0
 20
0.0
 30
0.0
 70
   128
 71
     1
 72
     2
 73
     3
  0
VERTEX
  5
12A0
  8
0
 10
0.0
 20
0.0
 30
0.0
 70
   128
 71
     4
 72
     1
 73
     3
  0
VERTEX
  5
12A1
  8
0
 10
0.0
 20
0.0
 30
0.0
 70
   128
 71
     5
 72
     6
 73
     4
  0
VERTEX
  5
12A2
  8
0
 10
0.0
 20
0.0
 30
0.0
 70
   128
 71
     2
 72
     1
 73
     7
  0
VERTEX
  5
12A3
  8
0
 10
0.0
 20
0.0
 30
0.0
 70
   128
 71
     8
 72
     2
 73
     7
  0
VERTEX
  5
12A4
  8
0
 10
0.0
 20
0.0
 30
0.0
 70
   128
 71
     4
 72
     9
 73
   -10
  0
VERTEX
  5
12A5
  8
0
 10
0.0
 20
0.0
 30
0.0
 70
   128
 71
     1
 72
    -4
 73
    10
  0
VERTEX
  5
12A6
  8
0
 10
0.0
 20
0.0
 30
0.0
 70
   128
 71
     7
 72
    11
 73
    12
  0
VERTEX
  5
12A7
  8
0
 10
0.0
 20
0.0
 30
0.0
 70
   128
 71
     1
 72
    10
 73
   -11
  0
VERTEX
  5
12A8
  8
0
 10
0.0
 20
0.0
 30
0.0
 70
   128
 71
     7
 72
    -1
 73
    11
  0
VERTEX
  5
12A9
  8
0
 10
0.0
 20
0.0
 30
0.0
 70
   128
 71
     9
 72
    13
 73
   -14
  0
VERTEX
  5
12AA
  8
0
 10
0.0
 20
0.0
 30
0.0
 70
   128
 71
    10
 72
    -9
 73
    14
  0
VERTEX
  5
12AB
  8
0
 10
0.0
 20
0.0
 30
0.0
 70
   128
 71
    13
 72
     9
 73
    15
  0
VERTEX
  5
12AC
  8
0
 10
0.0
 20
0.0
 30
0.0
 70
   128
 71
    10
 72
    14
 73
   -16
  0
VERTEX
  5
12AD
  8
0
 10
0.0
 20
0.0
 30
0.0
 70
   128
 71
    11
 72
   -10
 73
    16
  0
VERTEX
  5
12AE
  8
0
 10
0.0
 20
0.0
 30
0.0
 70
   128
 71
    17
 72
    18
 73
   -14
  0
VERTEX
  5
12AF
  8
0
 10
0.0
 20
0.0
 30
0.0
 70
   128
 71
    13
 72
   -17
 73
    14
  0
VERTEX
  5
12B0
  8
0
 10
0.0
 20
0.0
 30
0.0
 70
   128
 71
    18
 72
    19
 73
   -16
  0
VERTEX
  5
12B1
  8
0
 10
0.0
 20
0.0
 30
0.0
 70
   128
 71
    14
 72
   -18
 73
    16
  0
VERTEX
  5
12B2
  8
0
 10
0.0
 20
0.0
 30
0.0
 70
   128
 71
    15
 72
     9
 73
     4
  0
VERTEX
  5
12B3
  8
0
 10
0.0
 20
0.0
 30
0.0
 70
   128
 71
    20
 72
    15
 73
     4
  0
VERTEX
  5
12B4
  8
0
 10
0.0
 20
0.0
 30
0.0
 70
   128
 71
    11
 72
    16
 73
    21
  0
VERTEX
  5
12B5
  8
0
 10
0.0
 20
0.0
 30
0.0
 70
   128
 71
    12
 72
    11
 73
    21
  0
VERTEX
  5
12B6
  8
0
 10
0.0
 20
0.0
 30
0.0
 70
   128
 71
    22
 72
    17
 73
    13
  0
VERTEX
  5
12B7
  8
0
 10
0.0
 20
0.0
 30
0.0
 70
   128
 71
    15
 72
    22
 73
    13
  0
VERTEX
  5
12B8
  8
0
 10
0.0
 20
0.0
 30
0.0
 70
   128
 71
    16
 72
    19
 73
    23
  0
VERTEX
  5
12B9
  8
0
 10
0.0
 20
0.0
 30
0.0
 70
   128
 71
    21
 72
    16
 73
    23
  0
VERTEX
  5
12BA
  8
0
 10
0.0
 20
0.0
 30
0.0
 70
   128
 71
     6
 72
    20
 73
     4
  0
VERTEX
  5
12BB
  8
0
 10
0.0
 20
0.0
 30
0.0
 70
   128
 71
    24
 72
     7
 73
    12
  0
VERTEX
  5
12BC
  8
0
 10
0.0
 20
0.0
 30
0.0
 70
   128
 71
    25
 72
    24
 73
    12
  0
VERTEX
  5
12BD
  8
0
 10
0.0
 20
0.0
 30
0.0
 70
   128
 71
     5
 72
     4
 73
     3
  0
VERTEX
  5
12BE
  8
0
 10
0.0
 20
0.0
 30
0.0
 70
   128
 71
     8
 72
     7
 73
    24
  0
SEQEND
  5
176E
  8
0
  0
POLYLINE
  5
12BF
  8
0
 66
     1
 10
0.0
 20
0.0
 30
0.0
 70
    64
 71
    10
 72
     8
  0
VERTEX
  5
12C0
  8
0
 10
-0.0000000000000027
 20
-11.99912472583506
 30
-22.0
 70
   192
  0
VERTEX
  5
12C1
  8
0
 10
0.0000000000000027
 20
-11.99912472583507
 30
22.0
 70
   192
  0
VERTEX
  5
12C2
  8
0
 10
0.0000000000000027
 20
-22.0
 30
22.0
 70
   192
  0
VERTEX
  5
12C3
  8
0
 10
0.0
 20
-22.0
 30
-22.0
 70
   192
  0
VERTEX
  5
12C4
  8
0
 10
22.0
 20
-22.0
 30
0.0
 70
   192
  0
VERTEX
  5
12C5
  8
0
 10
22.0
 20
-11.99912472583506
 30
-0.0000000000000024
 70
   192
  0
VERTEX
  5
12C6
  8
0
 10
15.55634918610405
 20
-22.0
 30
-15.55634918610405
 70
   192
  0
VERTEX
  5
12C7
  8
0
 10
15.55634918610404
 20
-11.99912472583506
 30
-15.55634918610405
 70
   192
  0
VERTEX
  5
12C8
  8
0
 10
15.55634918610405
 20
-22.0
 30
15.55634918610405
 70
   192
  0
VERTEX
  5
12C9
  8
0
 10
15.55634918610405
 20
-11.99912472583506
 30
15.55634918610404
 70
   192
  0
VERTEX
  5
12CA
  8
0
 10
0.0
 20
0.0
 30
0.0
 70
   128
 71
     8
 72
     1
 73
    -4
  0
VERTEX
  5
12CB
  8
0
 10
0.0
 20
0.0
 30
0.0
 70
   128
 71
     7
 72
    -8
 73
     4
  0
VERTEX
  5
12CC
  8
0
 10
0.0
 20
0.0
 30
0.0
 70
   128
 71
     6
 72
     8
 73
    -7
  0
VERTEX
  5
12CD
  8
0
 10
0.0
 20
0.0
 30
0.0
 70
   128
 71
     5
 72
    -6
 73
     7
  0
VERTEX
  5
12CE
  8
0
 10
0.0
 20
0.0
 30
0.0
 70
   128
 71
    10
 72
     6
 73
    -5
  0
VERTEX
  5
12CF
  8
0
 10
0.0
 20
0.0
 30
0.0
 70
   128
 71
     9
 72
   -10
 73
     5
  0
VERTEX
  5
12D0
  8
0
 10
0.0
 20
0.0
 30
0.0
 70
   128
 71
     3
 72
     2
 73
   -10
  0
VERTEX
  5
12D1
  8
0
 10
0.0
 20
0.0
 30
0.0
 70
   128
 71
     9
 72
    -3
 73
    10
  0
SEQEND
  5
176F
  8
0
  0
POLYLINE
  5
12D2
  8
0
 66
     1
 10
0.0
 20
0.0
 30
0.0
 70
    64
 71
    10
 72
     8
  0
VERTEX
  5
12D3
  8
0
 10
0.0000000000000024
 20
-11.99912472583506
 30
22.0
 70
   192
  0
VERTEX
  5
12D4
  8
0
 10
0.0000000000000027
 20
-11.99912472583506
 30
-22.0
 70
   192
  0
VERTEX
  5
12D5
  8
0
 10
0.0000000000000043
 20
-1.01299763532759
 30
-35.0927564288089
 70
   192
  0
VERTEX
  5
12D6
  8
0
 10
0.0
 20
-1.01299763532759
 30
35.0927564288089
 70
   192
  0
VERTEX
  5
12D7
  8
0
 10
35.0927564288089
 20
-1.01299763532759
 30
0.0000000000000039
 70
   192
  0
VERTEX
  5
12D8
  8
0
 10
22.0
 20
-11.99912472583506
 30
-0.0000000000000024
 70
   192
  0
VERTEX
  5
12D9
  8
0
 10
24.81432604133858
 20
-1.01299763532759
 30
24.81432604133859
 70
   192
  0
VERTEX
  5
12DA
  8
0
 10
15.55634918610405
 20
-11.99912472583506
 30
15.55634918610404
 70
   192
  0
VERTEX
  5
12DB
  8
0
 10
24.81432604133859
 20
-1.01299763532759
 30
-24.81432604133858
 70
   192
  0
VERTEX
  5
12DC
  8
0
 10
15.55634918610404
 20
-11.99912472583506
 30
-15.55634918610405
 70
   192
  0
VERTEX
  5
12DD
  8
0
 10
0.0
 20
0.0
 30
0.0
 70
   128
 71
     8
 72
     1
 73
    -4
  0
VERTEX
  5
12DE
  8
0
 10
0.0
 20
0.0
 30
0.0
 70
   128
 71
     7
 72
    -8
 73
     4
  0
VERTEX
  5
12DF
  8
0
 10
0.0
 20
0.0
 30
0.0
 70
   128
 71
     6
 72
     8
 73
    -7
  0
VERTEX
  5
12E0
  8
0
 10
0.0
 20
0.0
 30
0.0
 70
   128
 71
     5
 72
    -6
 73
     7
  0
VERTEX
  5
12E1
  8
0
 10
0.0
 20
0.0
 30
0.0
 70
   128
 71
    10
 72
     6
 73
    -5
  0
VERTEX
  5
12E2
  8
0
 10
0.0
 20
0.0
 30
0.0
 70
   128
 71
     9
 72
   -10
 73
     5
  0
VERTEX
  5
12E3
  8
0
 10
0.0
 20
0.0
 30
0.0
 70
   128
 71
     3
 72
     2
 73
   -10
  0
VERTEX
  5
12E4
  8
0
 10
0.0
 20
0.0
 30
0.0
 70
   128
 71
     9
 72
    -3
 73
    10
  0
SEQEND
  5
1770
  8
0
  0
POLYLINE
  5
12E5
  8
0
 66
     1
 10
0.0
 20
0.0
 30
0.0
 70
    64
 71
    19
 72
    20
  0
VERTEX
  5
12E6
  8
0
 10
-37.11676777265346
 20
0.0131238804980942
 30
0.0000000000000068
 70
   192
  0
VERTEX
  5
12E7
  8
0
 10
-37.86886832149474
 20
0.137574087531891
 30
0.0000000000000023
 70
   192
  0
VERTEX
  5
12E8
  8
0
 10
-32.79540197898222
 20
0.137574087531891
 30
18.93443416074738
 70
   192
  0
VERTEX
  5
12E9
  8
0
 10
-32.79540197898223
 20
0.137574087531891
 30
-18.93443416074737
 70
   192
  0
VERTEX
  5
12EA
  8
0
 10
-18.93443416074739
 20
0.137574087531891
 30
-32.79540197898222
 70
   192
  0
VERTEX
  5
12EB
  8
0
 10
0.0000000000000045
 20
-0.0536654469717872
 30
36.87136573036986
 70
   192
  0
VERTEX
  5
12EC
  8
0
 10
-36.39232793107215
 20
-0.2242155505448356
 30
0.0000000000000067
 70
   192
  0
VERTEX
  5
12ED
  8
0
 10
0.0
 20
-0.4425380850348466
 30
-35.93308962483167
 70
   192
  0
VERTEX
  5
12EE
  8
0
 10
-35.71238892506142
 20
-0.5689270787873069
 30
0.0000000000000066
 70
   192
  0
VERTEX
  5
12EF
  8
0
 10
-24.81432604133859
 20
-1.01299763532759
 30
24.81432604133859
 70
   192
  0
VERTEX
  5
12F0
  8
0
 10
-35.0927564288089
 20
-1.01299763532759
 30
0.0
 70
   192
  0
VERTEX
  5
12F1
  8
0
 10
-24.81432604133859
 20
-1.01299763532759
 30
-24.81432604133859
 70
   192
  0
VERTEX
  5
12F2
  8
0
 10
0.0
 20
-0.0536654469717872
 30
-36.87136573036986
 70
   192
  0
VERTEX
  5
12F3
  8
0
 10
0.0000000000000044
 20
-0.4425380850348466
 30
35.93308962483167
 70
   192
  0
VERTEX
  5
12F4
  8
0
 10
0.0
 20
-1.01299763532759
 30
-35.0927564288089
 70
   192
  0
VERTEX
  5
12F5
  8
0
 10
0.0000000000000043
 20
-1.012997635327601
 30
35.0927564288089
 70
   192
  0
VERTEX
  5
12F6
  8
0
 10
0.0
 20
0.13757408753189
 30
-37.86886832149474
 70
   192
  0
VERTEX
  5
12F7
  8
0
 10
-18.93443416074737
 20
0.137574087531891
 30
32.79540197898223
 70
   192
  0
VERTEX
  5
12F8
  8
0
 10
0.0
 20
0.137574087531891
 30
37.86886832149474
 70
   192
  0
VERTEX
  5
12F9
  8
0
 10
0.0
 20
0.0
 30
0.0
 70
   128
 71
     1
 72
     2
 73
     3
  0
VERTEX
  5
12FA
  8
0
 10
0.0
 20
0.0
 30
0.0
 70
   128
 71
     4
 72
     2
 73
     1
  0
VERTEX
  5
12FB
  8
0
 10
0.0
 20
0.0
 30
0.0
 70
   128
 71
     1
 72
     5
 73
     4
  0
VERTEX
  5
12FC
  8
0
 10
0.0
 20
0.0
 30
0.0
 70
   128
 71
     6
 72
     7
 73
     1
  0
VERTEX
  5
12FD
  8
0
 10
0.0
 20
0.0
 30
0.0
 70
   128
 71
     8
 72
     7
 73
     9
  0
VERTEX
  5
12FE
  8
0
 10
0.0
 20
0.0
 30
0.0
 70
   128
 71
    10
 72
    11
 73
     9
  0
VERTEX
  5
12FF
  8
0
 10
0.0
 20
0.0
 30
0.0
 70
   128
 71
     9
 72
    11
 73
    12
  0
VERTEX
  5
1300
  8
0
 10
0.0
 20
0.0
 30
0.0
 70
   128
 71
     1
 72
     7
 73
     8
  0
VERTEX
  5
1301
  8
0
 10
0.0
 20
0.0
 30
0.0
 70
   128
 71
     1
 72
     8
 73
    13
  0
VERTEX
  5
1302
  8
0
 10
0.0
 20
0.0
 30
0.0
 70
   128
 71
    14
 72
     9
 73
     7
  0
VERTEX
  5
1303
  8
0
 10
0.0
 20
0.0
 30
0.0
 70
   128
 71
    14
 72
     7
 73
     6
  0
VERTEX
  5
1304
  8
0
 10
0.0
 20
0.0
 30
0.0
 70
   128
 71
     9
 72
    12
 73
    15
  0
VERTEX
  5
1305
  8
0
 10
0.0
 20
0.0
 30
0.0
 70
   128
 71
     9
 72
    15
 73
     8
  0
VERTEX
  5
1306
  8
0
 10
0.0
 20
0.0
 30
0.0
 70
   128
 71
    16
 72
    10
 73
     9
  0
VERTEX
  5
1307
  8
0
 10
0.0
 20
0.0
 30
0.0
 70
   128
 71
    16
 72
     9
 73
    14
  0
VERTEX
  5
1308
  8
0
 10
0.0
 20
0.0
 30
0.0
 70
   128
 71
     5
 72
     1
 73
    13
  0
VERTEX
  5
1309
  8
0
 10
0.0
 20
0.0
 30
0.0
 70
   128
 71
     5
 72
    13
 73
    17
  0
VERTEX
  5
130A
  8
0
 10
0.0
 20
0.0
 30
0.0
 70
   128
 71
    18
 72
    19
 73
     6
  0
VERTEX
  5
130B
  8
0
 10
0.0
 20
0.0
 30
0.0
 70
   128
 71
     6
 72
     1
 73
     3
  0
VERTEX
  5
130C
  8
0
 10
0.0
 20
0.0
 30
0.0
 70
   128
 71
     6
 72
     3
 73
    18
  0
SEQEND
  5
1771
  8
0
  0
POLYLINE
  5
130D
  8
0
 66
     1
 10
0.0
 20
0.0
 30
0.0
 70
    64
 71
    27
 72
    34
  0
VERTEX
  5
130E
  8
0
 10
-124.0447172339439
 20
80.16973528496189
 30
71.61725088656847
 70
   192
  0
VERTEX
  5
130F
  8
0
 10
-143.234501773137
 20
80.16973528496189
 30
-0.0000000000000263
 70
   192
  0
VERTEX
  5
1310
  8
0
 10
-144.6773178221598
 20
84.05663931617337
 30
-0.0000000000000266
 70
   192
  0
VERTEX
  5
1311
  8
0
 10
-102.3023125159306
 20
84.05663931617337
 30
102.3023125159305
 70
   192
  0
VERTEX
  5
1312
  8
0
 10
0.0
 20
80.16973528496187
 30
143.2345017731371
 70
   192
  0
VERTEX
  5
1313
  8
0
 10
-71.61725088656854
 20
80.16973528496189
 30
124.0447172339439
 70
   192
  0
VERTEX
  5
1314
  8
0
 10
-102.3023125159305
 20
84.05663931617337
 30
-102.3023125159306
 70
   192
  0
VERTEX
  5
1315
  8
0
 10
-124.0447172339439
 20
80.16973528496189
 30
-71.61725088656854
 70
   192
  0
VERTEX
  5
1316
  8
0
 10
-147.3567683432705
 20
87.22054291838454
 30
-0.0000000000000271
 70
   192
  0
VERTEX
  5
1317
  8
0
 10
-104.1969701492618
 20
87.22054291838454
 30
104.1969701492618
 70
   192
  0
VERTEX
  5
1318
  8
0
 10
0.0000000000000178
 20
85.21252351778475
 30
-145.4461209117973
 70
   192
  0
VERTEX
  5
1319
  8
0
 10
-104.1969701492618
 20
87.22054291838454
 30
-104.1969701492618
 70
   192
  0
VERTEX
  5
131A
  8
0
 10
-150.9529987479561
 20
89.28376078753477
 30
-0.0000000000000277
 70
   192
  0
VERTEX
  5
131B
  8
0
 10
-106.7398890551242
 20
89.28376078753477
 30
106.7398890551242
 70
   192
  0
VERTEX
  5
131C
  8
0
 10
0.0
 20
88.7366261510173
 30
149.6771577830652
 70
   192
  0
VERTEX
  5
131D
  8
0
 10
-106.7398890551242
 20
89.28376078753477
 30
-106.7398890551242
 70
   192
  0
VERTEX
  5
131E
  8
0
 10
-155.0367154974005
 20
90.0
 30
0.000000000000043
 70
   192
  0
VERTEX
  5
131F
  8
0
 10
-134.2657341400494
 20
90.0
 30
77.51835774870028
 70
   192
  0
VERTEX
  5
1320
  8
0
 10
0.000000000000019
 20
90.00000000000001
 30
-155.0367154974005
 70
   192
  0
VERTEX
  5
1321
  8
0
 10
-77.51835774870032
 20
90.0
 30
-134.2657341400494
 70
   192
  0
VERTEX
  5
1322
  8
0
 10
-134.2657341400494
 20
90.0
 30
-77.51835774870021
 70
   192
  0
VERTEX
  5
1323
  8
0
 10
0.0
 20
85.21252351778475
 30
145.4461209117973
 70
   192
  0
VERTEX
  5
1324
  8
0
 10
0.0000000000000183
 20
88.7366261510173
 30
-149.6771577830652
 70
   192
  0
VERTEX
  5
1325
  8
0
 10
-77.51835774870024
 20
90.0
 30
134.2657341400494
 70
   192
  0
VERTEX
  5
1326
  8
0
 10
0.0
 20
90.0
 30
155.0367154974005
 70
   192
  0
VERTEX
  5
1327
  8
0
 10
-71.61725088656847
 20
80.16973528496189
 30
-124.0447172339439
 70
   192
  0
VERTEX
  5
1328
  8
0
 10
0.0000000000000175
 20
80.16973528496189
 30
-143.234501773137
 70
   192
  0
VERTEX
  5
1329
  8
0
 10
0.0
 20
0.0
 30
0.0
 70
   128
 71
     1
 72
     2
 73
     3
  0
VERTEX
  5
132A
  8
0
 10
0.0
 20
0.0
 30
0.0
 70
   128
 71
     1
 72
     3
 73
     4
  0
VERTEX
  5
132B
  8
0
 10
0.0
 20
0.0
 30
0.0
 70
   128
 71
     4
 72
     5
 73
     6
  0
VERTEX
  5
132C
  8
0
 10
0.0
 20
0.0
 30
0.0
 70
   128
 71
     7
 72
     3
 73
     2
  0
VERTEX
  5
132D
  8
0
 10
0.0
 20
0.0
 30
0.0
 70
   128
 71
     7
 72
     2
 73
     8
  0
VERTEX
  5
132E
  8
0
 10
0.0
 20
0.0
 30
0.0
 70
   128
 71
     9
 72
    10
 73
    -4
  0
VERTEX
  5
132F
  8
0
 10
0.0
 20
0.0
 30
0.0
 70
   128
 71
    -9
 72
     4
 73
     3
  0
VERTEX
  5
1330
  8
0
 10
0.0
 20
0.0
 30
0.0
 70
   128
 71
    11
 72
    12
 73
     7
  0
VERTEX
  5
1331
  8
0
 10
0.0
 20
0.0
 30
0.0
 70
   128
 71
    12
 72
     9
 73
    -3
  0
VERTEX
  5
1332
  8
0
 10
0.0
 20
0.0
 30
0.0
 70
   128
 71
   -12
 72
     3
 73
     7
  0
VERTEX
  5
1333
  8
0
 10
0.0
 20
0.0
 30
0.0
 70
   128
 71
    13
 72
    14
 73
   -10
  0
VERTEX
  5
1334
  8
0
 10
0.0
 20
0.0
 30
0.0
 70
   128
 71
   -13
 72
    10
 73
     9
  0
VERTEX
  5
1335
  8
0
 10
0.0
 20
0.0
 30
0.0
 70
   128
 71
    15
 72
    10
 73
    14
  0
VERTEX
  5
1336
  8
0
 10
0.0
 20
0.0
 30
0.0
 70
   128
 71
    16
 72
    13
 73
    -9
  0
VERTEX
  5
1337
  8
0
 10
0.0
 20
0.0
 30
0.0
 70
   128
 71
   -16
 72
     9
 73
    12
  0
VERTEX
  5
1338
  8
0
 10
0.0
 20
0.0
 30
0.0
 70
   128
 71
    14
 72
    13
 73
    17
  0
VERTEX
  5
1339
  8
0
 10
0.0
 20
0.0
 30
0.0
 70
   128
 71
    14
 72
    17
 73
    18
  0
VERTEX
  5
133A
  8
0
 10
0.0
 20
0.0
 30
0.0
 70
   128
 71
    16
 72
    19
 73
    20
  0
VERTEX
  5
133B
  8
0
 10
0.0
 20
0.0
 30
0.0
 70
   128
 71
    21
 72
    17
 73
    13
  0
VERTEX
  5
133C
  8
0
 10
0.0
 20
0.0
 30
0.0
 70
   128
 71
    21
 72
    13
 73
    16
  0
VERTEX
  5
133D
  8
0
 10
0.0
 20
0.0
 30
0.0
 70
   128
 71
     4
 72
    10
 73
    15
  0
VERTEX
  5
133E
  8
0
 10
0.0
 20
0.0
 30
0.0
 70
   128
 71
     4
 72
    15
 73
    22
  0
VERTEX
  5
133F
  8
0
 10
0.0
 20
0.0
 30
0.0
 70
   128
 71
    23
 72
    16
 73
    12
  0
VERTEX
  5
1340
  8
0
 10
0.0
 20
0.0
 30
0.0
 70
   128
 71
    23
 72
    12
 73
    11
  0
VERTEX
  5
1341
  8
0
 10
0.0
 20
0.0
 30
0.0
 70
   128
 71
    14
 72
    24
 73
    25
  0
VERTEX
  5
1342
  8
0
 10
0.0
 20
0.0
 30
0.0
 70
   128
 71
    14
 72
    25
 73
    15
  0
VERTEX
  5
1343
  8
0
 10
0.0
 20
0.0
 30
0.0
 70
   128
 71
    19
 72
    16
 73
    23
  0
VERTEX
  5
1344
  8
0
 10
0.0
 20
0.0
 30
0.0
 70
   128
 71
     4
 72
    22
 73
     5
  0
VERTEX
  5
1345
  8
0
 10
0.0
 20
0.0
 30
0.0
 70
   128
 71
    11
 72
     7
 73
    26
  0
VERTEX
  5
1346
  8
0
 10
0.0
 20
0.0
 30
0.0
 70
   128
 71
    11
 72
    26
 73
    27
  0
VERTEX
  5
1347
  8
0
 10
0.0
 20
0.0
 30
0.0
 70
   128
 71
     1
 72
     4
 73
     6
  0
VERTEX
  5
1348
  8
0
 10
0.0
 20
0.0
 30
0.0
 70
   128
 71
    26
 72
     7
 73
     8
  0
VERTEX
  5
1349
  8
0
 10
0.0
 20
0.0
 30
0.0
 70
   128
 71
    18
 72
    24
 73
    14
  0
VERTEX
  5
134A
  8
0
 10
0.0
 20
0.0
 30
0.0
 70
   128
 71
    20
 72
    21
 73
    16
  0
SEQEND
  5
1772
  8
0
  0
POLYLINE
  5
134B
  8
0
 66
     1
 10
0.0
 20
0.0
 30
0.0
 70
    64
 71
     8
 72
     6
  0
VERTEX
  5
134C
  8
0
 10
213.0
 20
89.3589220684838
 30
49.47813546289782
 70
   192
  0
VERTEX
  5
134D
  8
0
 10
181.6590212458495
 20
89.3589220684838
 30
49.47813546289773
 70
   192
  0
VERTEX
  5
134E
  8
0
 10
181.6590212458495
 20
87.60008063964607
 30
51.29946907960992
 70
   192
  0
VERTEX
  5
134F
  8
0
 10
213.0
 20
87.60008063964607
 30
51.29946907961002
 70
   192
  0
VERTEX
  5
1350
  8
0
 10
213.0
 20
90.0
 30
47.02868687170739
 70
   192
  0
VERTEX
  5
1351
  8
0
 10
181.6590212458495
 20
90.0
 30
47.02868687170739
 70
   192
  0
VERTEX
  5
1352
  8
0
 10
181.6590212458495
 20
85.1744974835125
 30
52.02564100680277
 70
   192
  0
VERTEX
  5
1353
  8
0
 10
213.0
 20
85.1744974835125
 30
52.02564100680281
 70
   192
  0
VERTEX
  5
1354
  8
0
 10
0.0
 20
0.0
 30
0.0
 70
   128
 71
     1
 72
     2
 73
    -3
  0
VERTEX
  5
1355
  8
0
 10
0.0
 20
0.0
 30
0.0
 70
   128
 71
    -1
 72
     3
 73
     4
  0
VERTEX
  5
1356
  8
0
 10
0.0
 20
0.0
 30
0.0
 70
   128
 71
     5
 72
     6
 73
    -2
  0
VERTEX
  5
1357
  8
0
 10
0.0
 20
0.0
 30
0.0
 70
   128
 71
    -5
 72
     2
 73
     1
  0
VERTEX
  5
1358
  8
0
 10
0.0
 20
0.0
 30
0.0
 70
   128
 71
     4
 72
     3
 73
    -7
  0
VERTEX
  5
1359
  8
0
 10
0.0
 20
0.0
 30
0.0
 70
   128
 71
    -4
 72
     7
 73
     8
  0
SEQEND
  5
1773
  8
0
  0
POLYLINE
  5
135A
  8
0
 66
     1
 10
0.0
 20
0.0
 30
0.0
 70
    64
 71
    12
 72
    10
  0
VERTEX
  5
135B
  8
0
 10
181.6590212458495
 20
87.60008063964607
 30
51.29946907960992
 70
   192
  0
VERTEX
  5
135C
  8
0
 10
141.3202048697707
 20
89.3589220684838
 30
73.9045017998794
 70
   192
  0
VERTEX
  5
135D
  8
0
 10
142.9341642950102
 20
87.60008063964607
 30
74.74853445152652
 70
   192
  0
VERTEX
  5
135E
  8
0
 10
181.6590212458495
 20
89.3589220684838
 30
49.47813546289773
 70
   192
  0
VERTEX
  5
135F
  8
0
 10
149.8128097764764
 20
90.0
 30
59.1243021210642
 70
   192
  0
VERTEX
  5
1360
  8
0
 10
139.1496466567577
 20
90.0
 30
72.76939147713264
 70
   192
  0
VERTEX
  5
1361
  8
0
 10
164.6260745453186
 20
90.0
 30
50.15442485651922
 70
   192
  0
VERTEX
  5
1362
  8
0
 10
181.6590212458495
 20
90.0
 30
47.02868687170729
 70
   192
  0
VERTEX
  5
1363
  8
0
 10
153.1300852002996
 20
85.1744974835125
 30
62.86131087015035
 70
   192
  0
VERTEX
  5
1364
  8
0
 10
143.5776554245227
 20
85.17449748351248
 30
75.08505314949393
 70
   192
  0
VERTEX
  5
1365
  8
0
 10
166.4003193574308
 20
85.1744974835125
 30
54.82578504119145
 70
   192
  0
VERTEX
  5
1366
  8
0
 10
181.6590212458495
 20
85.1744974835125
 30
52.02564100680279
 70
   192
  0
VERTEX
  5
1367
  8
0
 10
0.0
 20
0.0
 30
0.0
 70
   128
 71
    -1
 72
     2
 73
     3
  0
VERTEX
  5
1368
  8
0
 10
0.0
 20
0.0
 30
0.0
 70
   128
 71
     4
 72
    -2
 73
     1
  0
VERTEX
  5
1369
  8
0
 10
0.0
 20
0.0
 30
0.0
 70
   128
 71
     5
 72
     6
 73
     2
  0
VERTEX
  5
136A
  8
0
 10
0.0
 20
0.0
 30
0.0
 70
   128
 71
     2
 72
     7
 73
     5
  0
VERTEX
  5
136B
  8
0
 10
0.0
 20
0.0
 30
0.0
 70
   128
 71
     8
 72
     7
 73
     2
  0
VERTEX
  5
136C
  8
0
 10
0.0
 20
0.0
 30
0.0
 70
   128
 71
     8
 72
     2
 73
     4
  0
VERTEX
  5
136D
  8
0
 10
0.0
 20
0.0
 30
0.0
 70
   128
 71
     9
 72
     3
 73
    10
  0
VERTEX
  5
136E
  8
0
 10
0.0
 20
0.0
 30
0.0
 70
   128
 71
    11
 72
    12
 73
     1
  0
VERTEX
  5
136F
  8
0
 10
0.0
 20
0.0
 30
0.0
 70
   128
 71
     1
 72
     3
 73
    -9
  0
VERTEX
  5
1370
  8
0
 10
0.0
 20
0.0
 30
0.0
 70
   128
 71
    -1
 72
     9
 73
    11
  0
SEQEND
  5
1774
  8
0
  0
POLYLINE
  5
1371
  8
0
 66
     1
 10
0.0
 20
0.0
 30
0.0
 70
    64
 71
    15
 72
    16
  0
VERTEX
  5
1372
  8
0
 10
82.3062873224403
 20
89.63591927283403
 30
135.9243599761287
 70
   192
  0
VERTEX
  5
1373
  8
0
 10
139.1496466567576
 20
90.0
 30
72.7693914771326
 70
   192
  0
VERTEX
  5
1374
  8
0
 10
104.2449839865858
 20
90.0
 30
117.435053601083
 70
   192
  0
VERTEX
  5
1375
  8
0
 10
0.0
 20
89.35892206848382
 30
159.478135462898
 70
   192
  0
VERTEX
  5
1376
  8
0
 10
83.13517304960841
 20
88.59669900169337
 30
137.2932197026925
 70
   192
  0
VERTEX
  5
1377
  8
0
 10
142.9341642950102
 20
87.60008063964607
 30
74.74853445152652
 70
   192
  0
VERTEX
  5
1378
  8
0
 10
83.70205752094029
 20
87.03368321537907
 30
138.2293985956163
 70
   192
  0
VERTEX
  5
1379
  8
0
 10
0.0
 20
85.1744974835125
 30
162.025641006803
 70
   192
  0
VERTEX
  5
137A
  8
0
 10
57.52967612138513
 20
85.1744974835125
 30
151.4682960524543
 70
   192
  0
VERTEX
  5
137B
  8
0
 10
141.3202048697707
 20
89.3589220684838
 30
73.9045017998794
 70
   192
  0
VERTEX
  5
137C
  8
0
 10
0.0
 20
87.60008063964608
 30
161.2994690796102
 70
   192
  0
VERTEX
  5
137D
  8
0
 10
107.562259410409
 20
85.1744974835125
 30
121.1720623501691
 70
   192
  0
VERTEX
  5
137E
  8
0
 10
143.577655424523
 20
85.1744974835125
 30
75.08505314949394
 70
   192
  0
VERTEX
  5
137F
  8
0
 10
55.755431309273
 20
90.0
 30
146.796935867782
 70
   192
  0
VERTEX
  5
1380
  8
0
 10
0.0
 20
90.0
 30
157.0286868717075
 70
   192
  0
VERTEX
  5
1381
  8
0
 10
0.0
 20
0.0
 30
0.0
 70
   128
 71
     1
 72
     2
 73
     3
  0
VERTEX
  5
1382
  8
0
 10
0.0
 20
0.0
 30
0.0
 70
   128
 71
     4
 72
     5
 73
     1
  0
VERTEX
  5
1383
  8
0
 10
0.0
 20
0.0
 30
0.0
 70
   128
 71
     6
 72
     5
 73
     7
  0
VERTEX
  5
1384
  8
0
 10
0.0
 20
0.0
 30
0.0
 70
   128
 71
     7
 72
     8
 73
     9
  0
VERTEX
  5
1385
  8
0
 10
0.0
 20
0.0
 30
0.0
 70
   128
 71
     1
 72
     5
 73
     6
  0
VERTEX
  5
1386
  8
0
 10
0.0
 20
0.0
 30
0.0
 70
   128
 71
     1
 72
     6
 73
    10
  0
VERTEX
  5
1387
  8
0
 10
0.0
 20
0.0
 30
0.0
 70
   128
 71
    11
 72
     7
 73
     5
  0
VERTEX
  5
1388
  8
0
 10
0.0
 20
0.0
 30
0.0
 70
   128
 71
    11
 72
     5
 73
     4
  0
VERTEX
  5
1389
  8
0
 10
0.0
 20
0.0
 30
0.0
 70
   128
 71
     6
 72
     7
 73
    12
  0
VERTEX
  5
138A
  8
0
 10
0.0
 20
0.0
 30
0.0
 70
   128
 71
     6
 72
    12
 73
    13
  0
VERTEX
  5
138B
  8
0
 10
0.0
 20
0.0
 30
0.0
 70
   128
 71
     8
 72
     7
 73
    11
  0
VERTEX
  5
138C
  8
0
 10
0.0
 20
0.0
 30
0.0
 70
   128
 71
     1
 72
    10
 73
     2
  0
VERTEX
  5
138D
  8
0
 10
0.0
 20
0.0
 30
0.0
 70
   128
 71
     4
 72
     1
 73
    14
  0
VERTEX
  5
138E
  8
0
 10
0.0
 20
0.0
 30
0.0
 70
   128
 71
     4
 72
    14
 73
    15
  0
VERTEX
  5
138F
  8
0
 10
0.0
 20
0.0
 30
0.0
 70
   128
 71
    14
 72
     1
 73
     3
  0
VERTEX
  5
1390
  8
0
 10
0.0
 20
0.0
 30
0.0
 70
   128
 71
     9
 72
    12
 73
     7
  0
SEQEND
  5
1775
  8
0
  0
POLYLINE
  5
1391
  8
0
 66
     1
 10
0.0
 20
0.0
 30
0.0
 70
    64
 71
    12
 72
    10
  0
VERTEX
  5
1392
  8
0
 10
-74.74853445152661
 20
87.60008063964607
 30
-142.9341642950102
 70
   192
  0
VERTEX
  5
1393
  8
0
 10
-49.47813546289773
 20
89.3589220684838
 30
-181.6590212458495
 70
   192
  0
VERTEX
  5
1394
  8
0
 10
-51.29946907960992
 20
87.60008063964607
 30
-181.6590212458495
 70
   192
  0
VERTEX
  5
1395
  8
0
 10
-73.9045017998795
 20
89.3589220684838
 30
-141.3202048697707
 70
   192
  0
VERTEX
  5
1396
  8
0
 10
-50.15442485651921
 20
90.0
 30
-164.6260745453186
 70
   192
  0
VERTEX
  5
1397
  8
0
 10
-47.0286868717073
 20
90.0
 30
-181.6590212458495
 70
   192
  0
VERTEX
  5
1398
  8
0
 10
-59.12430212106424
 20
90.0
 30
-149.8128097764764
 70
   192
  0
VERTEX
  5
1399
  8
0
 10
-72.76939147713271
 20
90.0
 30
-139.1496466567576
 70
   192
  0
VERTEX
  5
139A
  8
0
 10
-54.82578504119147
 20
85.1744974835125
 30
-166.4003193574307
 70
   192
  0
VERTEX
  5
139B
  8
0
 10
-52.02564100680277
 20
85.1744974835125
 30
-181.6590212458495
 70
   192
  0
VERTEX
  5
139C
  8
0
 10
-62.86131087015043
 20
85.1744974835125
 30
-153.1300852002995
 70
   192
  0
VERTEX
  5
139D
  8
0
 10
-75.08505314949397
 20
85.1744974835125
 30
-143.5776554245228
 70
   192
  0
VERTEX
  5
139E
  8
0
 10
0.0
 20
0.0
 30
0.0
 70
   128
 71
    -1
 72
     2
 73
     3
  0
VERTEX
  5
139F
  8
0
 10
0.0
 20
0.0
 30
0.0
 70
   128
 71
     1
 72
     4
 73
    -2
  0
VERTEX
  5
13A0
  8
0
 10
0.0
 20
0.0
 30
0.0
 70
   128
 71
     5
 72
     6
 73
     2
  0
VERTEX
  5
13A1
  8
0
 10
0.0
 20
0.0
 30
0.0
 70
   128
 71
     2
 72
     7
 73
     5
  0
VERTEX
  5
13A2
  8
0
 10
0.0
 20
0.0
 30
0.0
 70
   128
 71
     8
 72
     7
 73
     2
  0
VERTEX
  5
13A3
  8
0
 10
0.0
 20
0.0
 30
0.0
 70
   128
 71
     8
 72
     2
 73
     4
  0
VERTEX
  5
13A4
  8
0
 10
0.0
 20
0.0
 30
0.0
 70
   128
 71
     9
 72
     3
 73
    10
  0
VERTEX
  5
13A5
  8
0
 10
0.0
 20
0.0
 30
0.0
 70
   128
 71
    11
 72
    12
 73
     1
  0
VERTEX
  5
13A6
  8
0
 10
0.0
 20
0.0
 30
0.0
 70
   128
 71
     1
 72
     3
 73
    -9
  0
VERTEX
  5
13A7
  8
0
 10
0.0
 20
0.0
 30
0.0
 70
   128
 71
    -1
 72
     9
 73
    11
  0
SEQEND
  5
1776
  8
0
  0
POLYLINE
  5
13A8
  8
0
 66
     1
 10
0.0
 20
0.0
 30
0.0
 70
    64
 71
     8
 72
     6
  0
VERTEX
  5
13A9
  8
0
 10
-49.47813546289773
 20
89.3589220684838
 30
-181.6590212458495
 70
   192
  0
VERTEX
  5
13AA
  8
0
 10
-49.47813546289783
 20
89.3589220684838
 30
-213.0
 70
   192
  0
VERTEX
  5
13AB
  8
0
 10
-51.29946907961002
 20
87.60008063964607
 30
-213.0
 70
   192
  0
VERTEX
  5
13AC
  8
0
 10
-51.29946907960992
 20
87.60008063964607
 30
-181.6590212458495
 70
   192
  0
VERTEX
  5
13AD
  8
0
 10
-47.02868687170729
 20
90.0
 30
-181.6590212458495
 70
   192
  0
VERTEX
  5
13AE
  8
0
 10
-47.0286868717074
 20
90.0
 30
-213.0
 70
   192
  0
VERTEX
  5
13AF
  8
0
 10
-52.02564100680287
 20
85.1744974835125
 30
-213.0
 70
   192
  0
VERTEX
  5
13B0
  8
0
 10
-52.02564100680289
 20
85.1744974835125
 30
-181.6590212458495
 70
   192
  0
VERTEX
  5
13B1
  8
0
 10
0.0
 20
0.0
 30
0.0
 70
   128
 71
     1
 72
     2
 73
    -3
  0
VERTEX
  5
13B2
  8
0
 10
0.0
 20
0.0
 30
0.0
 70
   128
 71
    -1
 72
     3
 73
     4
  0
VERTEX
  5
13B3
  8
0
 10
0.0
 20
0.0
 30
0.0
 70
   128
 71
     5
 72
     6
 73
    -2
  0
VERTEX
  5
13B4
  8
0
 10
0.0
 20
0.0
 30
0.0
 70
   128
 71
    -5
 72
     2
 73
     1
  0
VERTEX
  5
13B5
  8
0
 10
0.0
 20
0.0
 30
0.0
 70
   128
 71
     4
 72
     3
 73
    -7
  0
VERTEX
  5
13B6
  8
0
 10
0.0
 20
0.0
 30
0.0
 70
   128
 71
    -4
 72
     7
 73
     8
  0
SEQEND
  5
1777
  8
0
  0
POLYLINE
  5
13B7
  8
0
 66
     1
 10
0.0
 20
0.0
 30
0.0
 70
    64
 71
     8
 72
     6
  0
VERTEX
  5
13B8
  8
0
 10
-50.0268593527647
 20
85.10469849010751
 30
-215.0
 70
   192
  0
VERTEX
  5
13B9
  8
0
 10
-52.99878091140239
 20
0.0
 30
-215.0
 70
   192
  0
VERTEX
  5
13BA
  8
0
 10
-53.97746044935563
 20
0.0
 30
-214.7445208382055
 70
   192
  0
VERTEX
  5
13BB
  8
0
 10
-51.0262501797838
 20
85.13959798681002
 30
-214.7320508075689
 70
   192
  0
VERTEX
  5
13BC
  8
0
 10
-51.75785504178005
 20
85.16514619155483
 30
-214.0
 70
   192
  0
VERTEX
  5
13BD
  8
0
 10
-54.74436511233894
 20
0.0
 30
-213.9780833528218
 70
   192
  0
VERTEX
  5
13BE
  8
0
 10
-52.02564100680281
 20
85.1744974835125
 30
-213.0
 70
   192
  0
VERTEX
  5
13BF
  8
0
 10
-55.0
 20
0.0
 30
-213.0
 70
   192
  0
VERTEX
  5
13C0
  8
0
 10
0.0
 20
0.0
 30
0.0
 70
   128
 71
     1
 72
     2
 73
     3
  0
VERTEX
  5
13C1
  8
0
 10
0.0
 20
0.0
 30
0.0
 70
   128
 71
     1
 72
     3
 73
     4
  0
VERTEX
  5
13C2
  8
0
 10
0.0
 20
0.0
 30
0.0
 70
   128
 71
     5
 72
     4
 73
     3
  0
VERTEX
  5
13C3
  8
0
 10
0.0
 20
0.0
 30
0.0
 70
   128
 71
     3
 72
     6
 73
     7
  0
VERTEX
  5
13C4
  8
0
 10
0.0
 20
0.0
 30
0.0
 70
   128
 71
     3
 72
     7
 73
     5
  0
VERTEX
  5
13C5
  8
0
 10
0.0
 20
0.0
 30
0.0
 70
   128
 71
     6
 72
     8
 73
     7
  0
SEQEND
  5
1778
  8
0
  0
POLYLINE
  5
13C6
  8
0
 66
     1
 10
0.0
 20
0.0
 30
0.0
 70
    64
 71
    12
 72
    10
  0
VERTEX
  5
13C7
  8
0
 10
-47.02868687170739
 20
89.73205080756888
 30
-214.0
 70
   192
  0
VERTEX
  5
13C8
  8
0
 10
-51.0262501797838
 20
85.13959798681002
 30
-214.7320508075689
 70
   192
  0
VERTEX
  5
13C9
  8
0
 10
-51.75785504178005
 20
85.16514619155483
 30
-214.0
 70
   192
  0
VERTEX
  5
13CA
  8
0
 10
-47.02868687170739
 20
89.0
 30
-214.7320508075689
 70
   192
  0
VERTEX
  5
13CB
  8
0
 10
-49.59115619644897
 20
86.56004838378765
 30
-215.0
 70
   192
  0
VERTEX
  5
13CC
  8
0
 10
-50.02685935276468
 20
85.10469849010751
 30
-215.0
 70
   192
  0
VERTEX
  5
13CD
  8
0
 10
-48.49835602642165
 20
87.61535324109029
 30
-215.0
 70
   192
  0
VERTEX
  5
13CE
  8
0
 10
-47.02868687170739
 20
88.0
 30
-215.0
 70
   192
  0
VERTEX
  5
13CF
  8
0
 10
-51.29946907961002
 20
87.60008063964607
 30
-213.0
 70
   192
  0
VERTEX
  5
13D0
  8
0
 10
-52.02564100680289
 20
85.17449748351251
 30
-213.0
 70
   192
  0
VERTEX
  5
13D1
  8
0
 10
-49.47813546289783
 20
89.3589220684838
 30
-213.0
 70
   192
  0
VERTEX
  5
13D2
  8
0
 10
-47.02868687170739
 20
90.0
 30
-213.0
 70
   192
  0
VERTEX
  5
13D3
  8
0
 10
0.0
 20
0.0
 30
0.0
 70
   128
 71
    -1
 72
     2
 73
     3
  0
VERTEX
  5
13D4
  8
0
 10
0.0
 20
0.0
 30
0.0
 70
   128
 71
     4
 72
    -2
 73
     1
  0
VERTEX
  5
13D5
  8
0
 10
0.0
 20
0.0
 30
0.0
 70
   128
 71
     5
 72
     6
 73
     2
  0
VERTEX
  5
13D6
  8
0
 10
0.0
 20
0.0
 30
0.0
 70
   128
 71
     2
 72
     7
 73
     5
  0
VERTEX
  5
13D7
  8
0
 10
0.0
 20
0.0
 30
0.0
 70
   128
 71
     8
 72
     7
 73
     2
  0
VERTEX
  5
13D8
  8
0
 10
0.0
 20
0.0
 30
0.0
 70
   128
 71
     8
 72
     2
 73
     4
  0
VERTEX
  5
13D9
  8
0
 10
0.0
 20
0.0
 30
0.0
 70
   128
 71
     9
 72
     3
 73
    10
  0
VERTEX
  5
13DA
  8
0
 10
0.0
 20
0.0
 30
0.0
 70
   128
 71
    11
 72
    12
 73
     1
  0
VERTEX
  5
13DB
  8
0
 10
0.0
 20
0.0
 30
0.0
 70
   128
 71
     1
 72
     3
 73
    -9
  0
VERTEX
  5
13DC
  8
0
 10
0.0
 20
0.0
 30
0.0
 70
   128
 71
    -1
 72
     9
 73
    11
  0
SEQEND
  5
1779
  8
0
  0
POLYLINE
  5
13DD
  8
0
 66
     1
 10
0.0
 20
0.0
 30
0.0
 70
    64
 71
     8
 72
     6
  0
VERTEX
  5
13DE
  8
0
 10
213.0
 20
89.0
 30
-214.7320508075689
 70
   192
  0
VERTEX
  5
13DF
  8
0
 10
-47.02868687170739
 20
89.0
 30
-214.7320508075689
 70
   192
  0
VERTEX
  5
13E0
  8
0
 10
-47.02868687170739
 20
89.73205080756888
 30
-214.0
 70
   192
  0
VERTEX
  5
13E1
  8
0
 10
213.0000000000001
 20
89.73205080756888
 30
-214.0
 70
   192
  0
VERTEX
  5
13E2
  8
0
 10
213.0
 20
88.0
 30
-215.0
 70
   192
  0
VERTEX
  5
13E3
  8
0
 10
-47.02868687170741
 20
88.0
 30
-215.0
 70
   192
  0
VERTEX
  5
13E4
  8
0
 10
-47.02868687170739
 20
90.0
 30
-213.0
 70
   192
  0
VERTEX
  5
13E5
  8
0
 10
213.0000000000001
 20
90.0
 30
-213.0
 70
   192
  0
VERTEX
  5
13E6
  8
0
 10
0.0
 20
0.0
 30
0.0
 70
   128
 71
     1
 72
     2
 73
    -3
  0
VERTEX
  5
13E7
  8
0
 10
0.0
 20
0.0
 30
0.0
 70
   128
 71
    -1
 72
     3
 73
     4
  0
VERTEX
  5
13E8
  8
0
 10
0.0
 20
0.0
 30
0.0
 70
   128
 71
     5
 72
     6
 73
    -2
  0
VERTEX
  5
13E9
  8
0
 10
0.0
 20
0.0
 30
0.0
 70
   128
 71
    -5
 72
     2
 73
     1
  0
VERTEX
  5
13EA
  8
0
 10
0.0
 20
0.0
 30
0.0
 70
   128
 71
     4
 72
     3
 73
    -7
  0
VERTEX
  5
13EB
  8
0
 10
0.0
 20
0.0
 30
0.0
 70
   128
 71
    -4
 72
     7
 73
     8
  0
SEQEND
  5
177A
  8
0
  0
POLYLINE
  5
13EC
  8
0
 66
     1
 10
0.0
 20
0.0
 30
0.0
 70
    64
 71
     8
 72
     6
  0
VERTEX
  5
13ED
  8
0
 10
214.0
 20
0.0
 30
-214.7320508075689
 70
   192
  0
VERTEX
  5
13EE
  8
0
 10
214.0
 20
88.0
 30
-214.7320508075689
 70
   192
  0
VERTEX
  5
13EF
  8
0
 10
214.7320508075689
 20
88.0
 30
-214.0
 70
   192
  0
VERTEX
  5
13F0
  8
0
 10
214.7320508075689
 20
0.0
 30
-214.0
 70
   192
  0
VERTEX
  5
13F1
  8
0
 10
213.0
 20
0.0
 30
-215.0
 70
   192
  0
VERTEX
  5
13F2
  8
0
 10
213.0
 20
88.0
 30
-215.0
 70
   192
  0
VERTEX
  5
13F3
  8
0
 10
215.0
 20
88.0
 30
-213.0
 70
   192
  0
VERTEX
  5
13F4
  8
0
 10
215.0
 20
0.0
 30
-213.0
 70
   192
  0
VERTEX
  5
13F5
  8
0
 10
0.0
 20
0.0
 30
0.0
 70
   128
 71
     1
 72
     2
 73
    -3
  0
VERTEX
  5
13F6
  8
0
 10
0.0
 20
0.0
 30
0.0
 70
   128
 71
    -1
 72
     3
 73
     4
  0
VERTEX
  5
13F7
  8
0
 10
0.0
 20
0.0
 30
0.0
 70
   128
 71
     5
 72
     6
 73
    -2
  0
VERTEX
  5
13F8
  8
0
 10
0.0
 20
0.0
 30
0.0
 70
   128
 71
    -5
 72
     2
 73
     1
  0
VERTEX
  5
13F9
  8
0
 10
0.0
 20
0.0
 30
0.0
 70
   128
 71
     4
 72
     3
 73
    -7
  0
VERTEX
  5
13FA
  8
0
 10
0.0
 20
0.0
 30
0.0
 70
   128
 71
    -4
 72
     7
 73
     8
  0
SEQEND
  5
177B
  8
0
  0
POLYLINE
  5
13FB
  8
0
 66
     1
 10
0.0
 20
0.0
 30
0.0
 70
    64
 71
     9
 72
     7
  0
VERTEX
  5
13FC
  8
0
 10
213.0
 20
88.0
 30
-215.0
 70
   192
  0
VERTEX
  5
13FD
  8
0
 10
214.7320508075689
 20
88.0
 30
-214.0
 70
   192
  0
VERTEX
  5
13FE
  8
0
 10
214.0
 20
88.0
 30
-214.7320508075689
 70
   192
  0
VERTEX
  5
13FF
  8
0
 10
214.7320508075689
 20
89.0
 30
-213.0
 70
   192
  0
VERTEX
  5
1400
  8
0
 10
214.0
 20
89.73205080756888
 30
-213.0
 70
   192
  0
VERTEX
  5
1401
  8
0
 10
215.0
 20
88.0
 30
-213.0
 70
   192
  0
VERTEX
  5
1402
  8
0
 10
213.0000000000001
 20
89.73205080756888
 30
-214.0
 70
   192
  0
VERTEX
  5
1403
  8
0
 10
213.0000000000001
 20
90.0
 30
-213.0
 70
   192
  0
VERTEX
  5
1404
  8
0
 10
213.0
 20
89.0
 30
-214.7320508075689
 70
   192
  0
VERTEX
  5
1405
  8
0
 10
0.0
 20
0.0
 30
0.0
 70
   128
 71
    -1
 72
     2
 73
     3
  0
VERTEX
  5
1406
  8
0
 10
0.0
 20
0.0
 30
0.0
 70
   128
 71
     4
 72
     1
 73
     5
  0
VERTEX
  5
1407
  8
0
 10
0.0
 20
0.0
 30
0.0
 70
   128
 71
     6
 72
    -2
 73
     1
  0
VERTEX
  5
1408
  8
0
 10
0.0
 20
0.0
 30
0.0
 70
   128
 71
     6
 72
     1
 73
     4
  0
VERTEX
  5
1409
  8
0
 10
0.0
 20
0.0
 30
0.0
 70
   128
 71
     7
 72
     8
 73
     5
  0
VERTEX
  5
140A
  8
0
 10
0.0
 20
0.0
 30
0.0
 70
   128
 71
     5
 72
     1
 73
     9
  0
VERTEX
  5
140B
  8
0
 10
0.0
 20
0.0
 30
0.0
 70
   128
 71
     5
 72
     9
 73
     7
  0
SEQEND
  5
177C
  8
0
  0
POLYLINE
  5
140C
  8
0
 66
     1
 10
0.0
 20
0.0
 30
0.0
 70
    64
 71
     8
 72
     6
  0
VERTEX
  5
140D
  8
0
 10
214.7320508075689
 20
89.0
 30
47.02868687170739
 70
   192
  0
VERTEX
  5
140E
  8
0
 10
214.7320508075689
 20
89.0
 30
-213.0
 70
   192
  0
VERTEX
  5
140F
  8
0
 10
214.0
 20
89.73205080756888
 30
-213.0
 70
   192
  0
VERTEX
  5
1410
  8
0
 10
214.0
 20
89.73205080756888
 30
47.02868687170739
 70
   192
  0
VERTEX
  5
1411
  8
0
 10
215.0
 20
88.0
 30
47.02868687170739
 70
   192
  0
VERTEX
  5
1412
  8
0
 10
215.0
 20
88.0
 30
-213.0
 70
   192
  0
VERTEX
  5
1413
  8
0
 10
213.0
 20
90.0
 30
-213.0
 70
   192
  0
VERTEX
  5
1414
  8
0
 10
213.0
 20
90.0
 30
47.02868687170741
 70
   192
  0
VERTEX
  5
1415
  8
0
 10
0.0
 20
0.0
 30
0.0
 70
   128
 71
     1
 72
     2
 73
    -3
  0
VERTEX
  5
1416
  8
0
 10
0.0
 20
0.0
 30
0.0
 70
   128
 71
    -1
 72
     3
 73
     4
  0
VERTEX
  5
1417
  8
0
 10
0.0
 20
0.0
 30
0.0
 70
   128
 71
     5
 72
     6
 73
    -2
  0
VERTEX
  5
1418
  8
0
 10
0.0
 20
0.0
 30
0.0
 70
   128
 71
    -5
 72
     2
 73
     1
  0
VERTEX
  5
1419
  8
0
 10
0.0
 20
0.0
 30
0.0
 70
   128
 71
     4
 72
     3
 73
    -7
  0
VERTEX
  5
141A
  8
0
 10
0.0
 20
0.0
 30
0.0
 70
   128
 71
    -4
 72
     7
 73
     8
  0
SEQEND
  5
177D
  8
0
  0
POLYLINE
  5
141B
  8
0
 66
     1
 10
0.0
 20
0.0
 30
0.0
 70
    64
 71
    12
 72
    10
  0
VERTEX
  5
141C
  8
0
 10
214.0
 20
85.16514619155483
 30
51.75785504177995
 70
   192
  0
VERTEX
  5
141D
  8
0
 10
214.7320508075689
 20
89.0
 30
47.02868687170739
 70
   192
  0
VERTEX
  5
141E
  8
0
 10
214.0
 20
89.73205080756888
 30
47.02868687170739
 70
   192
  0
VERTEX
  5
141F
  8
0
 10
214.7320508075689
 20
85.13959798681002
 30
51.02625017978369
 70
   192
  0
VERTEX
  5
1420
  8
0
 10
215.0
 20
87.61535324109029
 30
48.49835602642165
 70
   192
  0
VERTEX
  5
1421
  8
0
 10
215.0
 20
88.0
 30
47.02868687170739
 70
   192
  0
VERTEX
  5
1422
  8
0
 10
215.0
 20
86.56004838378766
 30
49.59115619644897
 70
   192
  0
VERTEX
  5
1423
  8
0
 10
215.0
 20
85.10469849010751
 30
50.0268593527646
 70
   192
  0
VERTEX
  5
1424
  8
0
 10
213.0
 20
89.3589220684838
 30
49.47813546289782
 70
   192
  0
VERTEX
  5
1425
  8
0
 10
213.0
 20
90.0
 30
47.02868687170739
 70
   192
  0
VERTEX
  5
1426
  8
0
 10
213.0
 20
87.60008063964607
 30
51.29946907961002
 70
   192
  0
VERTEX
  5
1427
  8
0
 10
213.0
 20
85.1744974835125
 30
52.02564100680287
 70
   192
  0
VERTEX
  5
1428
  8
0
 10
0.0
 20
0.0
 30
0.0
 70
   128
 71
    -1
 72
     2
 73
     3
  0
VERTEX
  5
1429
  8
0
 10
0.0
 20
0.0
 30
0.0
 70
   128
 71
     1
 72
     4
 73
    -2
  0
VERTEX
  5
142A
  8
0
 10
0.0
 20
0.0
 30
0.0
 70
   128
 71
     5
 72
     6
 73
     2
  0
VERTEX
  5
142B
  8
0
 10
0.0
 20
0.0
 30
0.0
 70
   128
 71
     2
 72
     7
 73
     5
  0
VERTEX
  5
142C
  8
0
 10
0.0
 20
0.0
 30
0.0
 70
   128
 71
     8
 72
     7
 73
     2
  0
VERTEX
  5
142D
  8
0
 10
0.0
 20
0.0
 30
0.0
 70
   128
 71
     8
 72
     2
 73
     4
  0
VERTEX
  5
142E
  8
0
 10
0.0
 20
0.0
 30
0.0
 70
   128
 71
     9
 72
     3
 73
    10
  0
VERTEX
  5
142F
  8
0
 10
0.0
 20
0.0
 30
0.0
 70
   128
 71
    11
 72
    12
 73
     1
  0
VERTEX
  5
1430
  8
0
 10
0.0
 20
0.0
 30
0.0
 70
   128
 71
     1
 72
     3
 73
    -9
  0
VERTEX
  5
1431
  8
0
 10
0.0
 20
0.0
 30
0.0
 70
   128
 71
    -1
 72
     9
 73
    11
  0
SEQEND
  5
177E
  8
0
  0
POLYLINE
  5
1432
  8
0
 66
     1
 10
0.0
 20
0.0
 30
0.0
 70
    64
 71
     8
 72
     6
  0
VERTEX
  5
1433
  8
0
 10
214.0
 20
85.16514619155483
 30
51.75785504177995
 70
   192
  0
VERTEX
  5
1434
  8
0
 10
214.7445208382055
 20
0.0
 30
53.97746044935561
 70
   192
  0
VERTEX
  5
1435
  8
0
 10
214.7320508075689
 20
85.13959798681002
 30
51.02625017978369
 70
   192
  0
VERTEX
  5
1436
  8
0
 10
213.0
 20
85.17449748351251
 30
52.02564100680279
 70
   192
  0
VERTEX
  5
1437
  8
0
 10
213.9780833528216
 20
0.0
 30
54.7443651123389
 70
   192
  0
VERTEX
  5
1438
  8
0
 10
213.0
 20
0.0
 30
55.0
 70
   192
  0
VERTEX
  5
1439
  8
0
 10
215.0
 20
0.0
 30
52.9987809114024
 70
   192
  0
VERTEX
  5
143A
  8
0
 10
215.0
 20
85.10469849010751
 30
50.02685935276468
 70
   192
  0
VERTEX
  5
143B
  8
0
 10
0.0
 20
0.0
 30
0.0
 70
   128
 71
     1
 72
     2
 73
     3
  0
VERTEX
  5
143C
  8
0
 10
0.0
 20
0.0
 30
0.0
 70
   128
 71
     4
 72
     5
 73
     1
  0
VERTEX
  5
143D
  8
0
 10
0.0
 20
0.0
 30
0.0
 70
   128
 71
     4
 72
     6
 73
     5
  0
VERTEX
  5
143E
  8
0
 10
0.0
 20
0.0
 30
0.0
 70
   128
 71
     1
 72
     5
 73
     2
  0
VERTEX
  5
143F
  8
0
 10
0.0
 20
0.0
 30
0.0
 70
   128
 71
     3
 72
     2
 73
     7
  0
VERTEX
  5
1440
  8
0
 10
0.0
 20
0.0
 30
0.0
 70
   128
 71
     3
 72
     7
 73
     8
  0
SEQEND
  5
177F
  8
0
  0
POLYLINE
  5
1441
  8
0
 66
     1
 10
0.0
 20
0.0
 30
0.0
 70
    64
 71
    10
 72
     8
  0
VERTEX
  5
1442
  8
0
 10
194.0
 20
47.0
 30
-64.5
 70
   192
  0
VERTEX
  5
1443
  8
0
 10
194.0
 20
47.0
 30
-45.5
 70
   192
  0
VERTEX
  5
1444
  8
0
 10
215.0
 20
47.0
 30
-45.5
 70
   192
  0
VERTEX
  5
1445
  8
0
 10
215.0
 20
47.0
 30
-64.5
 70
   192
  0
VERTEX
  5
1446
  8
0
 10
215.0
 20
56.5
 30
-55.0
 70
   192
  0
VERTEX
  5
1447
  8
0
 10
194.0
 20
56.5
 30
-55.0
 70
   192
  0
VERTEX
  5
1448
  8
0
 10
215.0
 20
53.71751442127221
 30
-61.71751442127221
 70
   192
  0
VERTEX
  5
1449
  8
0
 10
194.0
 20
53.7175144212722
 30
-61.71751442127221
 70
   192
  0
VERTEX
  5
144A
  8
0
 10
215.0
 20
53.71751442127221
 30
-48.28248557872779
 70
   192
  0
VERTEX
  5
144B
  8
0
 10
194.0
 20
53.71751442127221
 30
-48.2824855787278
 70
   192
  0
VERTEX
  5
144C
  8
0
 10
0.0
 20
0.0
 30
0.0
 70
   128
 71
     8
 72
     1
 73
    -4
  0
VERTEX
  5
144D
  8
0
 10
0.0
 20
0.0
 30
0.0
 70
   128
 71
     7
 72
    -8
 73
     4
  0
VERTEX
  5
144E
  8
0
 10
0.0
 20
0.0
 30
0.0
 70
   128
 71
     6
 72
     8
 73
    -7
  0
VERTEX
  5
144F
  8
0
 10
0.0
 20
0.0
 30
0.0
 70
   128
 71
     5
 72
    -6
 73
     7
  0
VERTEX
  5
1450
  8
0
 10
0.0
 20
0.0
 30
0.0
 70
   128
 71
    10
 72
     6
 73
    -5
  0
VERTEX
  5
1451
  8
0
 10
0.0
 20
0.0
 30
0.0
 70
   128
 71
     9
 72
   -10
 73
     5
  0
VERTEX
  5
1452
  8
0
 10
0.0
 20
0.0
 30
0.0
 70
   128
 71
     3
 72
     2
 73
   -10
  0
VERTEX
  5
1453
  8
0
 10
0.0
 20
0.0
 30
0.0
 70
   128
 71
     9
 72
    -3
 73
    10
  0
SEQEND
  5
1780
  8
0
  0
POLYLINE
  5
1454
  8
0
 66
     1
 10
0.0
 20
0.0
 30
0.0
 70
    64
 71
     4
 72
     2
  0
VERTEX
  5
1455
  8
0
 10
125.0
 20
39.0
 30
-194.0
 70
   192
  0
VERTEX
  5
1456
  8
0
 10
45.00000000000004
 20
39.0
 30
-194.0
 70
   192
  0
VERTEX
  5
1457
  8
0
 10
45.0
 20
39.0
 30
-215.0
 70
   192
  0
VERTEX
  5
1458
  8
0
 10
125.0
 20
39.0
 30
-215.0
 70
   192
  0
VERTEX
  5
1459
  8
0
 10
0.0
 20
0.0
 30
0.0
 70
   128
 71
     1
 72
     4
 73
    -3
  0
VERTEX
  5
145A
  8
0
 10
0.0
 20
0.0
 30
0.0
 70
   128
 71
    -1
 72
     3
 73
     2
  0
SEQEND
  5
1781
  8
0
  0
POLYLINE
  5
145B
  8
0
 66
     1
 10
0.0
 20
0.0
 30
0.0
 70
    64
 71
     8
 72
     6
  0
VERTEX
  5
145C
  8
0
 10
38.07179676972449
 20
43.0
 30
-194.0
 70
   192
  0
VERTEX
  5
145D
  8
0
 10
41.0
 20
40.07179676972449
 30
-194.0
 70
   192
  0
VERTEX
  5
145E
  8
0
 10
41.0
 20
40.07179676972449
 30
-215.0
 70
   192
  0
VERTEX
  5
145F
  8
0
 10
38.07179676972449
 20
43.0
 30
-215.0
 70
   192
  0
VERTEX
  5
1460
  8
0
 10
45.0
 20
39.0
 30
-194.0
 70
   192
  0
VERTEX
  5
1461
  8
0
 10
45.00000000000004
 20
39.0
 30
-215.0
 70
   192
  0
VERTEX
  5
1462
  8
0
 10
37.00000000000004
 20
47.0
 30
-194.0
 70
   192
  0
VERTEX
  5
1463
  8
0
 10
37.00000000000004
 20
47.0
 30
-215.0
 70
   192
  0
VERTEX
  5
1464
  8
0
 10
0.0
 20
0.0
 30
0.0
 70
   128
 71
     1
 72
     2
 73
    -3
  0
VERTEX
  5
1465
  8
0
 10
0.0
 20
0.0
 30
0.0
 70
   128
 71
     4
 72
    -1
 73
     3
  0
VERTEX
  5
1466
  8
0
 10
0.0
 20
0.0
 30
0.0
 70
   128
 71
     2
 72
     5
 73
    -6
  0
VERTEX
  5
1467
  8
0
 10
0.0
 20
0.0
 30
0.0
 70
   128
 71
     3
 72
    -2
 73
     6
  0
VERTEX
  5
1468
  8
0
 10
0.0
 20
0.0
 30
0.0
 70
   128
 71
     7
 72
     1
 73
    -4
  0
VERTEX
  5
1469
  8
0
 10
0.0
 20
0.0
 30
0.0
 70
   128
 71
     8
 72
    -7
 73
     4
  0
SEQEND
  5
1782
  8
0
  0
POLYLINE
  5
146A
  8
0
 66
     1
 10
0.0
 20
0.0
 30
0.0
 70
    64
 71
     4
 72
     2
  0
VERTEX
  5
146B
  8
0
 10
45.0
 20
55.0
 30
-194.0
 70
   192
  0
VERTEX
  5
146C
  8
0
 10
125.0
 20
55.0
 30
-194.0
 70
   192
  0
VERTEX
  5
146D
  8
0
 10
125.0
 20
55.0
 30
-215.0
 70
   192
  0
VERTEX
  5
146E
  8
0
 10
45.00000000000004
 20
55.0
 30
-215.0
 70
   192
  0
VERTEX
  5
146F
  8
0
 10
0.0
 20
0.0
 30
0.0
 70
   128
 71
     1
 72
     4
 73
    -3
  0
VERTEX
  5
1470
  8
0
 10
0.0
 20
0.0
 30
0.0
 70
   128
 71
    -1
 72
     3
 73
     2
  0
SEQEND
  5
1783
  8
0
  0
POLYLINE
  5
1471
  8
0
 66
     1
 10
0.0
 20
0.0
 30
0.0
 70
    64
 71
    10
 72
     8
  0
VERTEX
  5
1472
  8
0
 10
125.0
 20
55.0
 30
-194.0
 70
   192
  0
VERTEX
  5
1473
  8
0
 10
125.0
 20
39.0
 30
-194.0
 70
   192
  0
VERTEX
  5
1474
  8
0
 10
125.0
 20
38.99999999999999
 30
-215.0
 70
   192
  0
VERTEX
  5
1475
  8
0
 10
125.0
 20
55.0
 30
-215.0
 70
   192
  0
VERTEX
  5
1476
  8
0
 10
133.0
 20
47.0
 30
-215.0
 70
   192
  0
VERTEX
  5
1477
  8
0
 10
133.0
 20
47.0
 30
-194.0
 70
   192
  0
VERTEX
  5
1478
  8
0
 10
130.6568542494924
 20
52.65685424949238
 30
-215.0
 70
   192
  0
VERTEX
  5
1479
  8
0
 10
130.6568542494924
 20
52.65685424949238
 30
-194.0
 70
   192
  0
VERTEX
  5
147A
  8
0
 10
130.6568542494924
 20
41.34314575050762
 30
-215.0
 70
   192
  0
VERTEX
  5
147B
  8
0
 10
130.6568542494924
 20
41.34314575050762
 30
-194.0
 70
   192
  0
VERTEX
  5
147C
  8
0
 10
0.0
 20
0.0
 30
0.0
 70
   128
 71
     1
 72
     4
 73
    -7
  0
VERTEX
  5
147D
  8
0
 10
0.0
 20
0.0
 30
0.0
 70
   128
 71
     8
 72
    -1
 73
     7
  0
VERTEX
  5
147E
  8
0
 10
0.0
 20
0.0
 30
0.0
 70
   128
 71
     7
 72
     5
 73
    -6
  0
VERTEX
  5
147F
  8
0
 10
0.0
 20
0.0
 30
0.0
 70
   128
 71
     8
 72
    -7
 73
     6
  0
VERTEX
  5
1480
  8
0
 10
0.0
 20
0.0
 30
0.0
 70
   128
 71
     5
 72
     9
 73
   -10
  0
VERTEX
  5
1481
  8
0
 10
0.0
 20
0.0
 30
0.0
 70
   128
 71
     6
 72
    -5
 73
    10
  0
VERTEX
  5
1482
  8
0
 10
0.0
 20
0.0
 30
0.0
 70
   128
 71
     9
 72
     3
 73
    -2
  0
VERTEX
  5
1483
  8
0
 10
0.0
 20
0.0
 30
0.0
 70
   128
 71
    10
 72
    -9
 73
     2
  0
SEQEND
  5
1784
  8
0
  0
POLYLINE
  5
1484
  8
0
 66
     1
 10
0.0
 20
0.0
 30
0.0
 70
    64
 71
    10
 72
     8
  0
VERTEX
  5
1485
  8
0
 10
155.0
 20
75.0
 30
-137.5
 70
   192
  0
VERTEX
  5
1486
  8
0
 10
155.0
 20
75.0
 30
-172.5
 70
   192
  0
VERTEX
  5
1487
  8
0
 10
155.0
 20
90.0
 30
-172.5
 70
   192
  0
VERTEX
  5
1488
  8
0
 10
155.0
 20
90.0
 30
-137.5
 70
   192
  0
VERTEX
  5
1489
  8
0
 10
172.5
 20
90.0
 30
-155.0
 70
   192
  0
VERTEX
  5
148A
  8
0
 10
172.5
 20
75.0
 30
-155.0
 70
   192
  0
VERTEX
  5
148B
  8
0
 10
167.3743686707646
 20
90.0
 30
-142.6256313292354
 70
   192
  0
VERTEX
  5
148C
  8
0
 10
167.3743686707646
 20
75.0
 30
-142.6256313292354
 70
   192
  0
VERTEX
  5
148D
  8
0
 10
167.3743686707646
 20
90.0
 30
-167.3743686707646
 70
   192
  0
VERTEX
  5
148E
  8
0
 10
167.3743686707646
 20
75.0
 30
-167.3743686707646
 70
   192
  0
VERTEX
  5
148F
  8
0
 10
0.0
 20
0.0
 30
0.0
 70
   128
 71
     8
 72
     1
 73
    -4
  0
VERTEX
  5
1490
  8
0
 10
0.0
 20
0.0
 30
0.0
 70
   128
 71
     7
 72
    -8
 73
     4
  0
VERTEX
  5
1491
  8
0
 10
0.0
 20
0.0
 30
0.0
 70
   128
 71
     6
 72
     8
 73
    -7
  0
VERTEX
  5
1492
  8
0
 10
0.0
 20
0.0
 30
0.0
 70
   128
 71
     5
 72
    -6
 73
     7
  0
VERTEX
  5
1493
  8
0
 10
0.0
 20
0.0
 30
0.0
 70
   128
 71
    10
 72
     6
 73
    -5
  0
VERTEX
  5
1494
  8
0
 10
0.0
 20
0.0
 30
0.0
 70
   128
 71
     9
 72
   -10
 73
     5
  0
VERTEX
  5
1495
  8
0
 10
0.0
 20
0.0
 30
0.0
 70
   128
 71
     3
 72
     2
 73
   -10
  0
VERTEX
  5
1496
  8
0
 10
0.0
 20
0.0
 30
0.0
 70
   128
 71
     9
 72
    -3
 73
    10
  0
SEQEND
  5
1785
  8
0
  0
POLYLINE
  5
1497
  8
0
 66
     1
 10
0.0
 20
0.0
 30
0.0
 70
    64
 71
    12
 72
    10
  0
VERTEX
  5
1498
  8
0
 10
98.4904933955191
 20
80.16973528496189
 30
-103.998775035603
 70
   192
  0
VERTEX
  5
1499
  8
0
 10
98.63746805902117
 20
79.39959282235496
 30
-103.6514634621006
 70
   192
  0
VERTEX
  5
149A
  8
0
 10
98.77171409965845
 20
78.63311545223863
 30
-103.2908915036142
 70
   192
  0
VERTEX
  5
149B
  8
0
 10
98.8931353409061
 20
77.87085229419519
 30
-102.9173174810428
 70
   192
  0
VERTEX
  5
149C
  8
0
 10
100.4004024317957
 20
78.47363820981629
 30
-101.620241678599
 70
   192
  0
VERTEX
  5
149D
  8
0
 10
101.6089076383654
 20
78.4758373114864
 30
-100.4125032981965
 70
   192
  0
VERTEX
  5
149E
  8
0
 10
102.917654961011
 20
77.8696083660008
 30
-98.8923641035074
 70
   192
  0
VERTEX
  5
149F
  8
0
 10
103.2916030970066
 20
78.63228335621365
 30
-98.77069443682423
 70
   192
  0
VERTEX
  5
14A0
  8
0
 10
103.6525359764641
 20
79.3991815064748
 30
-98.63620473360305
 70
   192
  0
VERTEX
  5
14A1
  8
0
 10
104.0002280238474
 20
80.169735284963
 30
-98.4889591010936
 70
   192
  0
VERTEX
  5
14A2
  8
0
 10
102.1418560452351
 20
80.31861576685964
 30
-100.4553400755431
 70
   192
  0
VERTEX
  5
14A3
  8
0
 10
100.4400746642356
 20
80.31794875747752
 30
-102.1567255230426
 70
   192
  0
VERTEX
  5
14A4
  8
0
 10
0.0
 20
0.0
 30
0.0
 70
   128
 71
     6
 72
     7
 73
     8
  0
VERTEX
  5
14A5
  8
0
 10
0.0
 20
0.0
 30
0.0
 70
   128
 71
     8
 72
     9
 73
     6
  0
VERTEX
  5
14A6
  8
0
 10
0.0
 20
0.0
 30
0.0
 70
   128
 71
     9
 72
    11
 73
     6
  0
VERTEX
  5
14A7
  8
0
 10
0.0
 20
0.0
 30
0.0
 70
   128
 71
     9
 72
    10
 73
    11
  0
VERTEX
  5
14A8
  8
0
 10
0.0
 20
0.0
 30
0.0
 70
   128
 71
    12
 72
     5
 73
     6
  0
VERTEX
  5
14A9
  8
0
 10
0.0
 20
0.0
 30
0.0
 70
   128
 71
    11
 72
    12
 73
     6
  0
VERTEX
  5
14AA
  8
0
 10
0.0
 20
0.0
 30
0.0
 70
   128
 71
    12
 72
     1
 73
     2
  0
VERTEX
  5
14AB
  8
0
 10
0.0
 20
0.0
 30
0.0
 70
   128
 71
     2
 72
     3
 73
    12
  0
VERTEX
  5
14AC
  8
0
 10
0.0
 20
0.0
 30
0.0
 70
   128
 71
     3
 72
     5
 73
    12
  0
VERTEX
  5
14AD
  8
0
 10
0.0
 20
0.0
 30
0.0
 70
   128
 71
     3
 72
     4
 73
     5
  0
SEQEND
  5
1786
  8
0
  0
POLYLINE
  5
14AE
  8
0
 66
     1
 10
0.0
 20
0.0
 30
0.0
 70
    64
 71
    12
 72
    10
  0
VERTEX
  5
14AF
  8
0
 10
98.63746805902117
 20
79.39959282235496
 30
-103.6514634621006
 70
   192
  0
VERTEX
  5
14B0
  8
0
 10
87.83340586180323
 20
66.15113638343983
 30
-109.6723438819381
 70
   192
  0
VERTEX
  5
14B1
  8
0
 10
89.46898888165745
 20
65.10611069366504
 30
-107.8904019394007
 70
   192
  0
VERTEX
  5
14B2
  8
0
 10
98.4904933955191
 20
80.16973528496189
 30
-103.998775035603
 70
   192
  0
VERTEX
  5
14B3
  8
0
 10
84.61363246004377
 20
48.04010640222264
 30
-106.5875885920636
 70
   192
  0
VERTEX
  5
14B4
  8
0
 10
93.77663056529991
 20
38.21180766983065
 30
-93.9109557925276
 70
   192
  0
VERTEX
  5
14B5
  8
0
 10
94.01583719762698
 20
39.09831120312444
 30
-94.1439305932737
 70
   192
  0
VERTEX
  5
14B6
  8
0
 10
94.22521899719118
 20
40.00013989012679
 30
-94.3470489160894
 70
   192
  0
VERTEX
  5
14B7
  8
0
 10
98.8931353409061
 20
77.87085229419519
 30
-102.9173174810428
 70
   192
  0
VERTEX
  5
14B8
  8
0
 10
98.77171409965845
 20
78.63311545223863
 30
-103.2908915036142
 70
   192
  0
VERTEX
  5
14B9
  8
0
 10
94.4040712554468
 20
40.91425847952235
 30
-94.5196271331801
 70
   192
  0
VERTEX
  5
14BA
  8
0
 10
86.41391652444857
 20
48.93998780696695
 30
-105.3083515459446
 70
   192
  0
VERTEX
  5
14BB
  8
0
 10
0.0
 20
0.0
 30
0.0
 70
   128
 71
     1
 72
     2
 73
     3
  0
VERTEX
  5
14BC
  8
0
 10
0.0
 20
0.0
 30
0.0
 70
   128
 71
     1
 72
     4
 73
     2
  0
VERTEX
  5
14BD
  8
0
 10
0.0
 20
0.0
 30
0.0
 70
   128
 71
     5
 72
     6
 73
     7
  0
VERTEX
  5
14BE
  8
0
 10
0.0
 20
0.0
 30
0.0
 70
   128
 71
     7
 72
     8
 73
     5
  0
VERTEX
  5
14BF
  8
0
 10
0.0
 20
0.0
 30
0.0
 70
   128
 71
     3
 72
     9
 73
    10
  0
VERTEX
  5
14C0
  8
0
 10
0.0
 20
0.0
 30
0.0
 70
   128
 71
    10
 72
     1
 73
     3
  0
VERTEX
  5
14C1
  8
0
 10
0.0
 20
0.0
 30
0.0
 70
   128
 71
     2
 72
     5
 73
     8
  0
VERTEX
  5
14C2
  8
0
 10
0.0
 20
0.0
 30
0.0
 70
   128
 71
     3
 72
     2
 73
     8
  0
VERTEX
  5
14C3
  8
0
 10
0.0
 20
0.0
 30
0.0
 70
   128
 71
    11
 72
    12
 73
     3
  0
VERTEX
  5
14C4
  8
0
 10
0.0
 20
0.0
 30
0.0
 70
   128
 71
     8
 72
    11
 73
     3
  0
SEQEND
  5
1787
  8
0
  0
POLYLINE
  5
14C5
  8
0
 66
     1
 10
0.0
 20
0.0
 30
0.0
 70
    64
 71
    11
 72
     9
  0
VERTEX
  5
14C6
  8
0
 10
115.5981566806849
 20
53.80300223724208
 30
-97.92048715102011
 70
   192
  0
VERTEX
  5
14C7
  8
0
 10
106.12383333413
 20
57.1066962681688
 30
-88.44616380446936
 70
   192
  0
VERTEX
  5
14C8
  8
0
 10
105.0312368079453
 20
65.68851089365141
 30
-92.53123680793738
 70
   192
  0
VERTEX
  5
14C9
  8
0
 10
115.1538432857016
 20
60.93666890396841
 30
-100.8523082152512
 70
   192
  0
VERTEX
  5
14CA
  8
0
 10
99.40099897894555
 20
69.24321490129807
 30
-99.40099897891264
 70
   192
  0
VERTEX
  5
14CB
  8
0
 10
92.53123680797269
 20
65.6885108936514
 30
-105.0312368079153
 70
   192
  0
VERTEX
  5
14CC
  8
0
 10
106.0404077411308
 20
65.34551736841806
 30
-111.5031080466934
 70
   192
  0
VERTEX
  5
14CD
  8
0
 10
88.44616380450496
 20
57.1066962681688
 30
-106.1238333341019
 70
   192
  0
VERTEX
  5
14CE
  8
0
 10
97.92048715105622
 20
53.80300223724332
 30
-115.5981566806491
 70
   192
  0
VERTEX
  5
14CF
  8
0
 10
100.8523082152879
 20
60.93666890396939
 30
-115.1538432856652
 70
   192
  0
VERTEX
  5
14D0
  8
0
 10
111.5031080467302
 20
65.34551736841769
 30
-106.0404077410939
 70
   192
  0
VERTEX
  5
14D1
  8
0
 10
0.0
 20
0.0
 30
0.0
 70
   128
 71
     1
 72
     2
 73
     3
  0
VERTEX
  5
14D2
  8
0
 10
0.0
 20
0.0
 30
0.0
 70
   128
 71
     4
 72
     1
 73
     3
  0
VERTEX
  5
14D3
  8
0
 10
0.0
 20
0.0
 30
0.0
 70
   128
 71
     5
 72
     6
 73
     7
  0
VERTEX
  5
14D4
  8
0
 10
0.0
 20
0.0
 30
0.0
 70
   128
 71
     8
 72
     9
 73
    10
  0
VERTEX
  5
14D5
  8
0
 10
0.0
 20
0.0
 30
0.0
 70
   128
 71
     6
 72
     8
 73
    10
  0
VERTEX
  5
14D6
  8
0
 10
0.0
 20
0.0
 30
0.0
 70
   128
 71
     5
 72
     7
 73
    11
  0
VERTEX
  5
14D7
  8
0
 10
0.0
 20
0.0
 30
0.0
 70
   128
 71
     5
 72
    11
 73
     4
  0
VERTEX
  5
14D8
  8
0
 10
0.0
 20
0.0
 30
0.0
 70
   128
 71
     3
 72
     5
 73
     4
  0
VERTEX
  5
14D9
  8
0
 10
0.0
 20
0.0
 30
0.0
 70
   128
 71
     6
 72
    10
 73
     7
  0
SEQEND
  5
1788
  8
0
  0
POLYLINE
  5
14DA
  8
0
 66
     1
 10
0.0
 20
0.0
 30
0.0
 70
    64
 71
    16
 72
    16
  0
VERTEX
  5
14DB
  8
0
 10
88.16463746829504
 20
49.48333311956357
 30
-123.8477388910372
 70
   192
  0
VERTEX
  5
14DC
  8
0
 10
91.79164674808369
 20
34.74689368390595
 30
-115.0821370996886
 70
   192
  0
VERTEX
  5
14DD
  8
0
 10
102.4221975860581
 20
28.92701922540828
 30
-102.4221975860282
 70
   192
  0
VERTEX
  5
14DE
  8
0
 10
115.0821370997189
 20
34.74689368390077
 30
-91.79164674805148
 70
   192
  0
VERTEX
  5
14DF
  8
0
 10
123.8477388910524
 20
49.48333311956019
 30
-88.16463746827856
 70
   192
  0
VERTEX
  5
14E0
  8
0
 10
131.1127497836356
 20
73.47879623636611
 30
-89.2668381821218
 70
   192
  0
VERTEX
  5
14E1
  8
0
 10
89.2668381821178
 20
73.47879623636612
 30
-131.1127497836395
 70
   192
  0
VERTEX
  5
14E2
  8
0
 10
97.9204871510563
 20
53.80300223724328
 30
-115.5981566806491
 70
   192
  0
VERTEX
  5
14E3
  8
0
 10
100.8523082152879
 20
60.93666890396939
 30
-115.1538432856652
 70
   192
  0
VERTEX
  5
14E4
  8
0
 10
106.0404077411308
 20
65.34551736841806
 30
-111.5031080466934
 70
   192
  0
VERTEX
  5
14E5
  8
0
 10
111.5031080467302
 20
65.34551736841769
 30
-106.0404077410939
 70
   192
  0
VERTEX
  5
14E6
  8
0
 10
115.1538432857016
 20
60.93666890396841
 30
-100.8523082152512
 70
   192
  0
VERTEX
  5
14E7
  8
0
 10
115.5981566806849
 20
53.80300223724208
 30
-97.9204871510201
 70
   192
  0
VERTEX
  5
14E8
  8
0
 10
111.5130836772167
 20
45.22118761175966
 30
-99.01308367720603
 70
   192
  0
VERTEX
  5
14E9
  8
0
 10
104.6433215062426
 20
41.6664836041134
 30
-104.6433215062075
 70
   192
  0
VERTEX
  5
14EA
  8
0
 10
99.01308367724157
 20
45.22118761176049
 30
-111.5130836771815
 70
   192
  0
VERTEX
  5
14EB
  8
0
 10
0.0
 20
0.0
 30
0.0
 70
   128
 71
     9
 72
    -8
 73
    -1
  0
VERTEX
  5
14EC
  8
0
 10
0.0
 20
0.0
 30
0.0
 70
   128
 71
    -9
 72
     1
 73
    -7
  0
VERTEX
  5
14ED
  8
0
 10
0.0
 20
0.0
 30
0.0
 70
   128
 71
    -7
 72
    10
 73
    -9
  0
VERTEX
  5
14EE
  8
0
 10
0.0
 20
0.0
 30
0.0
 70
   128
 71
     7
 72
    -6
 73
   -11
  0
VERTEX
  5
14EF
  8
0
 10
0.0
 20
0.0
 30
0.0
 70
   128
 71
    -7
 72
    11
 73
   -10
  0
VERTEX
  5
14F0
  8
0
 10
0.0
 20
0.0
 30
0.0
 70
   128
 71
    -6
 72
    12
 73
   -11
  0
VERTEX
  5
14F1
  8
0
 10
0.0
 20
0.0
 30
0.0
 70
   128
 71
     6
 72
    -5
 73
   -13
  0
VERTEX
  5
14F2
  8
0
 10
0.0
 20
0.0
 30
0.0
 70
   128
 71
    -6
 72
    13
 73
   -12
  0
VERTEX
  5
14F3
  8
0
 10
0.0
 20
0.0
 30
0.0
 70
   128
 71
     5
 72
    -4
 73
   -14
  0
VERTEX
  5
14F4
  8
0
 10
0.0
 20
0.0
 30
0.0
 70
   128
 71
    -5
 72
    14
 73
   -13
  0
VERTEX
  5
14F5
  8
0
 10
0.0
 20
0.0
 30
0.0
 70
   128
 71
     4
 72
    -3
 73
   -15
  0
VERTEX
  5
14F6
  8
0
 10
0.0
 20
0.0
 30
0.0
 70
   128
 71
    -4
 72
    15
 73
   -14
  0
VERTEX
  5
14F7
  8
0
 10
0.0
 20
0.0
 30
0.0
 70
   128
 71
     3
 72
    -2
 73
   -16
  0
VERTEX
  5
14F8
  8
0
 10
0.0
 20
0.0
 30
0.0
 70
   128
 71
    -3
 72
    16
 73
   -15
  0
VERTEX
  5
14F9
  8
0
 10
0.0
 20
0.0
 30
0.0
 70
   128
 71
     2
 72
    -1
 73
    -8
  0
VERTEX
  5
14FA
  8
0
 10
0.0
 20
0.0
 30
0.0
 70
   128
 71
    -2
 72
     8
 73
   -16
  0
SEQEND
  5
1789
  8
0
  0
POLYLINE
  5
14FB
  8
0
 66
     1
 10
0.0
 20
0.0
 30
0.0
 70
    64
 71
     8
 72
     6
  0
VERTEX
  5
14FC
  8
0
 10
87.75839051510815
 20
49.41426520741059
 30
-124.1374951283708
 70
   192
  0
VERTEX
  5
14FD
  8
0
 10
89.2668381821178
 20
73.47879623636611
 30
-131.1127497836396
 70
   192
  0
VERTEX
  5
14FE
  8
0
 10
88.16463746827549
 20
49.483333119559
 30
-123.8477388910552
 70
   192
  0
VERTEX
  5
14FF
  8
0
 10
86.7915471281955
 20
49.38257792079123
 30
-124.3888377093488
 70
   192
  0
VERTEX
  5
1500
  8
0
 10
87.9030039627857
 20
73.57955143513404
 30
-131.7148591032073
 70
   192
  0
VERTEX
  5
1501
  8
0
 10
88.40202490337848
 20
73.58213933190184
 30
-131.649485709577
 70
   192
  0
VERTEX
  5
1502
  8
0
 10
87.29080565410267
 20
49.37995456940209
 30
-124.3217580339909
 70
   192
  0
VERTEX
  5
1503
  8
0
 10
88.86278382584088
 20
73.54833291694045
 30
-131.4467922941114
 70
   192
  0
VERTEX
  5
1504
  8
0
 10
0.0
 20
0.0
 30
0.0
 70
   128
 71
     1
 72
     2
 73
     3
  0
VERTEX
  5
1505
  8
0
 10
0.0
 20
0.0
 30
0.0
 70
   128
 71
     4
 72
     5
 73
     6
  0
VERTEX
  5
1506
  8
0
 10
0.0
 20
0.0
 30
0.0
 70
   128
 71
     4
 72
     6
 73
     7
  0
VERTEX
  5
1507
  8
0
 10
0.0
 20
0.0
 30
0.0
 70
   128
 71
     7
 72
     6
 73
     8
  0
VERTEX
  5
1508
  8
0
 10
0.0
 20
0.0
 30
0.0
 70
   128
 71
     7
 72
     8
 73
     1
  0
VERTEX
  5
1509
  8
0
 10
0.0
 20
0.0
 30
0.0
 70
   128
 71
     1
 72
     8
 73
     2
  0
SEQEND
  5
178A
  8
0
  0
POLYLINE
  5
150A
  8
0
 66
     1
 10
0.0
 20
0.0
 30
0.0
 70
    64
 71
    19
 72
    20
  0
VERTEX
  5
150B
  8
0
 10
101.8625554528816
 20
27.76978244579599
 30
-101.8625554528516
 70
   192
  0
VERTEX
  5
150C
  8
0
 10
86.66023200323829
 20
49.38935619017343
 30
-124.3863721812505
 70
   192
  0
VERTEX
  5
150D
  8
0
 10
86.7915471281955
 20
49.38257792079123
 30
-124.3888377093488
 70
   192
  0
VERTEX
  5
150E
  8
0
 10
86.52948467456682
 20
49.39861108573403
 30
-124.3756405103374
 70
   192
  0
VERTEX
  5
150F
  8
0
 10
93.37624536554318
 20
30.42773268788559
 30
-110.8147246436326
 70
   192
  0
VERTEX
  5
1510
  8
0
 10
86.3998704833603
 20
49.41030259003151
 30
-124.3566890995114
 70
   192
  0
VERTEX
  5
1511
  8
0
 10
124.3566890995265
 20
49.4103025900281
 30
-86.39987048334189
 70
   192
  0
VERTEX
  5
1512
  8
0
 10
110.7822657905819
 20
30.40758016074362
 30
-93.40126085751007
 70
   192
  0
VERTEX
  5
1513
  8
0
 10
124.1962384468893
 20
49.40185433977979
 30
-87.64138248672045
 70
   192
  0
VERTEX
  5
1514
  8
0
 10
102.1130499536029
 20
28.08822226591126
 30
-102.1130499535728
 70
   192
  0
VERTEX
  5
1515
  8
0
 10
102.3031925944729
 20
28.48140220062844
 30
-102.3031925944427
 70
   192
  0
VERTEX
  5
1516
  8
0
 10
91.79164674808369
 20
34.74689368390595
 30
-115.0821370996886
 70
   192
  0
VERTEX
  5
1517
  8
0
 10
102.4221975860581
 20
28.92701922540828
 30
-102.4221975860282
 70
   192
  0
VERTEX
  5
1518
  8
0
 10
115.0821370997189
 20
34.74689368390077
 30
-91.79164674805148
 70
   192
  0
VERTEX
  5
1519
  8
0
 10
124.3717670649847
 20
49.37666730239623
 30
-87.03274316409843
 70
   192
  0
VERTEX
  5
151A
  8
0
 10
87.75839051510815
 20
49.41426520741059
 30
-124.1374951283708
 70
   192
  0
VERTEX
  5
151B
  8
0
 10
87.29080565410267
 20
49.37995456940209
 30
-124.3217580339909
 70
   192
  0
VERTEX
  5
151C
  8
0
 10
123.8477388910705
 20
49.48333311955561
 30
-88.16463746825886
 70
   192
  0
VERTEX
  5
151D
  8
0
 10
88.16463746827553
 20
49.4833331195591
 30
-123.8477388910553
 70
   192
  0
VERTEX
  5
151E
  8
0
 10
0.0
 20
0.0
 30
0.0
 70
   128
 71
     1
 72
     2
 73
     3
  0
VERTEX
  5
151F
  8
0
 10
0.0
 20
0.0
 30
0.0
 70
   128
 71
     4
 72
     2
 73
     1
  0
VERTEX
  5
1520
  8
0
 10
0.0
 20
0.0
 30
0.0
 70
   128
 71
     4
 72
     1
 73
     5
  0
VERTEX
  5
1521
  8
0
 10
0.0
 20
0.0
 30
0.0
 70
   128
 71
     5
 72
     6
 73
     4
  0
VERTEX
  5
1522
  8
0
 10
0.0
 20
0.0
 30
0.0
 70
   128
 71
     1
 72
     7
 73
     8
  0
VERTEX
  5
1523
  8
0
 10
0.0
 20
0.0
 30
0.0
 70
   128
 71
     9
 72
    10
 73
    11
  0
VERTEX
  5
1524
  8
0
 10
0.0
 20
0.0
 30
0.0
 70
   128
 71
    12
 72
    13
 73
    11
  0
VERTEX
  5
1525
  8
0
 10
0.0
 20
0.0
 30
0.0
 70
   128
 71
    11
 72
    13
 73
    14
  0
VERTEX
  5
1526
  8
0
 10
0.0
 20
0.0
 30
0.0
 70
   128
 71
     1
 72
    10
 73
     9
  0
VERTEX
  5
1527
  8
0
 10
0.0
 20
0.0
 30
0.0
 70
   128
 71
     1
 72
     9
 73
    15
  0
VERTEX
  5
1528
  8
0
 10
0.0
 20
0.0
 30
0.0
 70
   128
 71
    16
 72
    11
 73
    10
  0
VERTEX
  5
1529
  8
0
 10
0.0
 20
0.0
 30
0.0
 70
   128
 71
    16
 72
    10
 73
    17
  0
VERTEX
  5
152A
  8
0
 10
0.0
 20
0.0
 30
0.0
 70
   128
 71
    11
 72
    14
 73
    18
  0
VERTEX
  5
152B
  8
0
 10
0.0
 20
0.0
 30
0.0
 70
   128
 71
    11
 72
    18
 73
     9
  0
VERTEX
  5
152C
  8
0
 10
0.0
 20
0.0
 30
0.0
 70
   128
 71
    19
 72
    12
 73
    11
  0
VERTEX
  5
152D
  8
0
 10
0.0
 20
0.0
 30
0.0
 70
   128
 71
    19
 72
    11
 73
    16
  0
VERTEX
  5
152E
  8
0
 10
0.0
 20
0.0
 30
0.0
 70
   128
 71
     1
 72
    15
 73
     7
  0
VERTEX
  5
152F
  8
0
 10
0.0
 20
0.0
 30
0.0
 70
   128
 71
    17
 72
    10
 73
     1
  0
VERTEX
  5
1530
  8
0
 10
0.0
 20
0.0
 30
0.0
 70
   128
 71
    17
 72
     1
 73
     3
  0
VERTEX
  5
1531
  8
0
 10
0.0
 20
0.0
 30
0.0
 70
   128
 71
     5
 72
     1
 73
     8
  0
SEQEND
  5
178B
  8
0
  0
POLYLINE
  5
1532
  8
0
 66
     1
 10
0.0
 20
0.0
 30
0.0
 70
    64
 71
    16
 72
    14
  0
VERTEX
  5
1533
  8
0
 10
131.7129655862402
 20
73.5832044922124
 30
-88.00992970578999
 70
   192
  0
VERTEX
  5
1534
  8
0
 10
131.7122654958345
 20
73.57596513510181
 30
-87.82738042266857
 70
   192
  0
VERTEX
  5
1535
  8
0
 10
124.3717670649847
 20
49.37666730239623
 30
-87.03274316409843
 70
   192
  0
VERTEX
  5
1536
  8
0
 10
126.7030976365231
 20
57.23871291572986
 30
-86.65875444553626
 70
   192
  0
VERTEX
  5
1537
  8
0
 10
124.3566890995264
 20
49.4103025900281
 30
-86.3998704833419
 70
   192
  0
VERTEX
  5
1538
  8
0
 10
129.0598653297365
 20
65.2112167285828
 30
-86.84480089497761
 70
   192
  0
VERTEX
  5
1539
  8
0
 10
124.1962384468893
 20
49.40185433977979
 30
-87.64138248672045
 70
   192
  0
VERTEX
  5
153A
  8
0
 10
123.8477388910707
 20
49.48333311955564
 30
-88.16463746825896
 70
   192
  0
VERTEX
  5
153B
  8
0
 10
131.1127497836355
 20
73.47879623636614
 30
-89.26683818212172
 70
   192
  0
VERTEX
  5
153C
  8
0
 10
131.6297353593324
 20
73.51874218862858
 30
-87.39755345897761
 70
   192
  0
VERTEX
  5
153D
  8
0
 10
131.5322603241542
 20
73.42492397003714
 30
-87.18429101912568
 70
   192
  0
VERTEX
  5
153E
  8
0
 10
131.408789553495
 20
73.28229498792771
 30
-87.0000595241368
 70
   192
  0
VERTEX
  5
153F
  8
0
 10
131.6927212940776
 20
73.5638995399175
 30
-87.6442637273153
 70
   192
  0
VERTEX
  5
1540
  8
0
 10
131.6950498163976
 20
73.58561761124929
 30
-88.19040708958529
 70
   192
  0
VERTEX
  5
1541
  8
0
 10
131.5898897754625
 20
73.57374856959557
 30
-88.57669755328456
 70
   192
  0
VERTEX
  5
1542
  8
0
 10
131.3949007371403
 20
73.53814144463452
 30
-88.94136782453332
 70
   192
  0
VERTEX
  5
1543
  8
0
 10
0.0
 20
0.0
 30
0.0
 70
   128
 71
     1
 72
     2
 73
     3
  0
VERTEX
  5
1544
  8
0
 10
0.0
 20
0.0
 30
0.0
 70
   128
 71
     4
 72
     5
 73
     3
  0
VERTEX
  5
1545
  8
0
 10
0.0
 20
0.0
 30
0.0
 70
   128
 71
     3
 72
     6
 73
     4
  0
VERTEX
  5
1546
  8
0
 10
0.0
 20
0.0
 30
0.0
 70
   128
 71
     3
 72
     2
 73
     6
  0
VERTEX
  5
1547
  8
0
 10
0.0
 20
0.0
 30
0.0
 70
   128
 71
     7
 72
     8
 73
     9
  0
VERTEX
  5
1548
  8
0
 10
0.0
 20
0.0
 30
0.0
 70
   128
 71
    10
 72
    11
 73
    12
  0
VERTEX
  5
1549
  8
0
 10
0.0
 20
0.0
 30
0.0
 70
   128
 71
    10
 72
    12
 73
     6
  0
VERTEX
  5
154A
  8
0
 10
0.0
 20
0.0
 30
0.0
 70
   128
 71
    10
 72
     6
 73
     2
  0
VERTEX
  5
154B
  8
0
 10
0.0
 20
0.0
 30
0.0
 70
   128
 71
    10
 72
     2
 73
    13
  0
VERTEX
  5
154C
  8
0
 10
0.0
 20
0.0
 30
0.0
 70
   128
 71
    14
 72
     1
 73
     3
  0
VERTEX
  5
154D
  8
0
 10
0.0
 20
0.0
 30
0.0
 70
   128
 71
     3
 72
    15
 73
    14
  0
VERTEX
  5
154E
  8
0
 10
0.0
 20
0.0
 30
0.0
 70
   128
 71
    15
 72
     3
 73
     7
  0
VERTEX
  5
154F
  8
0
 10
0.0
 20
0.0
 30
0.0
 70
   128
 71
    15
 72
     7
 73
     9
  0
VERTEX
  5
1550
  8
0
 10
0.0
 20
0.0
 30
0.0
 70
   128
 71
    15
 72
     9
 73
    16
  0
SEQEND
  5
178C
  8
0
  0
POLYLINE
  5
1551
  8
0
 66
     1
 10
0.0
 20
0.0
 30
0.0
 70
    64
 71
    12
 72
    10
  0
VERTEX
  5
1552
  8
0
 10
131.6950498163976
 20
73.58561761124929
 30
-88.19040708958529
 70
   192
  0
VERTEX
  5
1553
  8
0
 10
131.7129655862402
 20
73.5832044922124
 30
-88.00992970578999
 70
   192
  0
VERTEX
  5
1554
  8
0
 10
131.7122654958345
 20
73.57596513510181
 30
-87.82738042266857
 70
   192
  0
VERTEX
  5
1555
  8
0
 10
131.6927212940776
 20
73.56389953991749
 30
-87.6442637273153
 70
   192
  0
VERTEX
  5
1556
  8
0
 10
132.096597512748
 20
74.30994957926178
 30
-87.58961386892611
 70
   192
  0
VERTEX
  5
1557
  8
0
 10
132.7710596404709
 20
74.81932668294114
 30
-87.49835011516936
 70
   192
  0
VERTEX
  5
1558
  8
0
 10
133.5942503674002
 20
75.0
 30
-87.3869613911638
 70
   192
  0
VERTEX
  5
1559
  8
0
 10
133.6260100615157
 20
75.00000000000001
 30
-87.75032434812057
 70
   192
  0
VERTEX
  5
155A
  8
0
 10
133.6231669768885
 20
75.00000000000001
 30
-88.11526569010677
 70
   192
  0
VERTEX
  5
155B
  8
0
 10
133.585756423954
 20
75.0
 30
-88.4772529323966
 70
   192
  0
VERTEX
  5
155C
  8
0
 10
132.7712653023253
 20
74.82245296997817
 30
-88.35368357937682
 70
   192
  0
VERTEX
  5
155D
  8
0
 10
132.1013846603209
 20
74.32133482778227
 30
-88.25205359798743
 70
   192
  0
VERTEX
  5
155E
  8
0
 10
0.0
 20
0.0
 30
0.0
 70
   128
 71
     8
 72
     7
 73
     6
  0
VERTEX
  5
155F
  8
0
 10
0.0
 20
0.0
 30
0.0
 70
   128
 71
     6
 72
    11
 73
     9
  0
VERTEX
  5
1560
  8
0
 10
0.0
 20
0.0
 30
0.0
 70
   128
 71
     6
 72
     9
 73
     8
  0
VERTEX
  5
1561
  8
0
 10
0.0
 20
0.0
 30
0.0
 70
   128
 71
    11
 72
    10
 73
     9
  0
VERTEX
  5
1562
  8
0
 10
0.0
 20
0.0
 30
0.0
 70
   128
 71
     6
 72
     5
 73
    12
  0
VERTEX
  5
1563
  8
0
 10
0.0
 20
0.0
 30
0.0
 70
   128
 71
     6
 72
    12
 73
    11
  0
VERTEX
  5
1564
  8
0
 10
0.0
 20
0.0
 30
0.0
 70
   128
 71
     2
 72
     1
 73
    12
  0
VERTEX
  5
1565
  8
0
 10
0.0
 20
0.0
 30
0.0
 70
   128
 71
    12
 72
     5
 73
     3
  0
VERTEX
  5
1566
  8
0
 10
0.0
 20
0.0
 30
0.0
 70
   128
 71
    12
 72
     3
 73
     2
  0
VERTEX
  5
1567
  8
0
 10
0.0
 20
0.0
 30
0.0
 70
   128
 71
     5
 72
     4
 73
     3
  0
SEQEND
  5
178D
  8
0
  0
POLYLINE
  5
1568
  8
0
 66
     1
 10
0.0
 20
0.0
 30
0.0
 70
    64
 71
     8
 72
     6
  0
VERTEX
  5
1569
  8
0
 10
131.8796134572089
 20
74.80692513891206
 30
-90.03370185569501
 70
   192
  0
VERTEX
  5
156A
  8
0
 10
131.3904339201258
 20
74.26497845763238
 30
-89.54452231861191
 70
   192
  0
VERTEX
  5
156B
  8
0
 10
89.5445223186079
 20
74.26497845763241
 30
-131.3904339201296
 70
   192
  0
VERTEX
  5
156C
  8
0
 10
90.033701855691
 20
74.80692513891208
 30
-131.8796134572127
 70
   192
  0
VERTEX
  5
156D
  8
0
 10
131.1127497836357
 20
73.4787962363661
 30
-89.26683818212177
 70
   192
  0
VERTEX
  5
156E
  8
0
 10
89.2668381821178
 20
73.47879623636611
 30
-131.1127497836396
 70
   192
  0
VERTEX
  5
156F
  8
0
 10
132.4858401237156
 20
75.0
 30
-90.6399285222017
 70
   192
  0
VERTEX
  5
1570
  8
0
 10
90.63992852219769
 20
75.0
 30
-132.4858401237194
 70
   192
  0
VERTEX
  5
1571
  8
0
 10
0.0
 20
0.0
 30
0.0
 70
   128
 71
     1
 72
     2
 73
    -3
  0
VERTEX
  5
1572
  8
0
 10
0.0
 20
0.0
 30
0.0
 70
   128
 71
     4
 72
    -1
 73
     3
  0
VERTEX
  5
1573
  8
0
 10
0.0
 20
0.0
 30
0.0
 70
   128
 71
     2
 72
     5
 73
    -6
  0
VERTEX
  5
1574
  8
0
 10
0.0
 20
0.0
 30
0.0
 70
   128
 71
     3
 72
    -2
 73
     6
  0
VERTEX
  5
1575
  8
0
 10
0.0
 20
0.0
 30
0.0
 70
   128
 71
     7
 72
     1
 73
    -4
  0
VERTEX
  5
1576
  8
0
 10
0.0
 20
0.0
 30
0.0
 70
   128
 71
     8
 72
    -7
 73
     4
  0
SEQEND
  5
178E
  8
0
  0
POLYLINE
  5
1577
  8
0
 66
     1
 10
0.0
 20
0.0
 30
0.0
 70
    64
 71
    15
 72
    13
  0
VERTEX
  5
1578
  8
0
 10
87.90300396278569
 20
73.57955143513401
 30
-131.7148591032074
 70
   192
  0
VERTEX
  5
1579
  8
0
 10
88.40202490337848
 20
73.58213933190184
 30
-131.649485709577
 70
   192
  0
VERTEX
  5
157A
  8
0
 10
88.86278382584088
 20
73.54833291694045
 30
-131.4467922941114
 70
   192
  0
VERTEX
  5
157B
  8
0
 10
89.26683818211775
 20
73.47879623636614
 30
-131.1127497836395
 70
   192
  0
VERTEX
  5
157C
  8
0
 10
89.5445223186079
 20
74.26497845763241
 30
-131.3904339201296
 70
   192
  0
VERTEX
  5
157D
  8
0
 10
90.033701855691
 20
74.80692513891208
 30
-131.8796134572127
 70
   192
  0
VERTEX
  5
157E
  8
0
 10
90.63992852219769
 20
75.0
 30
-132.4858401237194
 70
   192
  0
VERTEX
  5
157F
  8
0
 10
89.69005864557691
 20
74.99999999999999
 30
-133.1867255449943
 70
   192
  0
VERTEX
  5
1580
  8
0
 10
88.55704381977857
 20
75.0
 30
-133.5727870047548
 70
   192
  0
VERTEX
  5
1581
  8
0
 10
87.38696139115767
 20
75.0
 30
-133.5942503674051
 70
   192
  0
VERTEX
  5
1582
  8
0
 10
87.49835011516393
 20
74.81932668294147
 30
-132.7710596404754
 70
   192
  0
VERTEX
  5
1583
  8
0
 10
87.58961386892105
 20
74.30994957926207
 30
-132.0965975127521
 70
   192
  0
VERTEX
  5
1584
  8
0
 10
87.6442637273105
 20
73.5638995399175
 30
-131.6927212940814
 70
   192
  0
VERTEX
  5
1585
  8
0
 10
87.7306040597787
 20
73.57019346163021
 30
-131.7043092588831
 70
   192
  0
VERTEX
  5
1586
  8
0
 10
87.81690451619127
 20
73.5754107600357
 30
-131.7116803798659
 70
   192
  0
VERTEX
  5
1587
  8
0
 10
0.0
 20
0.0
 30
0.0
 70
   128
 71
    11
 72
    10
 73
    14
  0
VERTEX
  5
1588
  8
0
 10
0.0
 20
0.0
 30
0.0
 70
   128
 71
    14
 72
    12
 73
    11
  0
VERTEX
  5
1589
  8
0
 10
0.0
 20
0.0
 30
0.0
 70
   128
 71
    14
 72
    13
 73
    12
  0
VERTEX
  5
158A
  8
0
 10
0.0
 20
0.0
 30
0.0
 70
   128
 71
    10
 72
    15
 73
    14
  0
VERTEX
  5
158B
  8
0
 10
0.0
 20
0.0
 30
0.0
 70
   128
 71
    10
 72
     1
 73
    15
  0
VERTEX
  5
158C
  8
0
 10
0.0
 20
0.0
 30
0.0
 70
   128
 71
     5
 72
     4
 73
     3
  0
VERTEX
  5
158D
  8
0
 10
0.0
 20
0.0
 30
0.0
 70
   128
 71
     3
 72
     8
 73
     6
  0
VERTEX
  5
158E
  8
0
 10
0.0
 20
0.0
 30
0.0
 70
   128
 71
     3
 72
     6
 73
     5
  0
VERTEX
  5
158F
  8
0
 10
0.0
 20
0.0
 30
0.0
 70
   128
 71
     8
 72
     7
 73
     6
  0
VERTEX
  5
1590
  8
0
 10
0.0
 20
0.0
 30
0.0
 70
   128
 71
     3
 72
     2
 73
     9
  0
VERTEX
  5
1591
  8
0
 10
0.0
 20
0.0
 30
0.0
 70
   128
 71
     3
 72
     9
 73
     8
  0
VERTEX
  5
1592
  8
0
 10
0.0
 20
0.0
 30
0.0
 70
   128
 71
     2
 72
     1
 73
    10
  0
VERTEX
  5
1593
  8
0
 10
0.0
 20
0.0
 30
0.0
 70
   128
 71
     2
 72
    10
 73
     9
  0
SEQEND
  5
178F
  8
0
  0
POLYLINE
  5
1594
  8
0
 66
     1
 10
0.0
 20
0.0
 30
0.0
 70
    64
 71
    12
 72
    10
  0
VERTEX
  5
1595
  8
0
 10
189.0
 20
75.0
 30
25.83759517775185
 70
   192
  0
VERTEX
  5
1596
  8
0
 10
188.3613020955137
 20
75.00000000000001
 30
28.29214385858528
 70
   192
  0
VERTEX
  5
1597
  8
0
 10
186.4452083820544
 20
75.00000000000001
 30
30.21555673874778
 70
   192
  0
VERTEX
  5
1598
  8
0
 10
184.0
 20
75.0
 30
30.8566943654686
 70
   192
  0
VERTEX
  5
1599
  8
0
 10
184.0
 20
74.40100695590056
 30
33.2296962142068
 70
   192
  0
VERTEX
  5
159A
  8
0
 10
184.0
 20
72.74754489035405
 30
35.03413342253327
 70
   192
  0
VERTEX
  5
159B
  8
0
 10
184.0
 20
70.43577871373832
 30
35.83766785592735
 70
   192
  0
VERTEX
  5
159C
  8
0
 10
188.9169583220471
 20
70.37986915042728
 30
34.54525857121991
 70
   192
  0
VERTEX
  5
159D
  8
0
 10
192.6655377753769
 20
70.21755793797124
 30
30.82846129583169
 70
   192
  0
VERTEX
  5
159E
  8
0
 10
194.0
 20
70.0
 30
25.83759517775185
 70
   192
  0
VERTEX
  5
159F
  8
0
 10
193.3301270189222
 20
72.5
 30
25.83759517775185
 70
   192
  0
VERTEX
  5
15A0
  8
0
 10
191.5
 20
74.3301270189222
 30
25.83759517775185
 70
   192
  0
VERTEX
  5
15A1
  8
0
 10
0.0
 20
0.0
 30
0.0
 70
   128
 71
     8
 72
     7
 73
     6
  0
VERTEX
  5
15A2
  8
0
 10
0.0
 20
0.0
 30
0.0
 70
   128
 71
     6
 72
    11
 73
     9
  0
VERTEX
  5
15A3
  8
0
 10
0.0
 20
0.0
 30
0.0
 70
   128
 71
     6
 72
     9
 73
     8
  0
VERTEX
  5
15A4
  8
0
 10
0.0
 20
0.0
 30
0.0
 70
   128
 71
    11
 72
    10
 73
     9
  0
VERTEX
  5
15A5
  8
0
 10
0.0
 20
0.0
 30
0.0
 70
   128
 71
     6
 72
     5
 73
    12
  0
VERTEX
  5
15A6
  8
0
 10
0.0
 20
0.0
 30
0.0
 70
   128
 71
     6
 72
    12
 73
    11
  0
VERTEX
  5
15A7
  8
0
 10
0.0
 20
0.0
 30
0.0
 70
   128
 71
     2
 72
     1
 73
    12
  0
VERTEX
  5
15A8
  8
0
 10
0.0
 20
0.0
 30
0.0
 70
   128
 71
    12
 72
     5
 73
     3
  0
VERTEX
  5
15A9
  8
0
 10
0.0
 20
0.0
 30
0.0
 70
   128
 71
    12
 72
     3
 73
     2
  0
VERTEX
  5
15AA
  8
0
 10
0.0
 20
0.0
 30
0.0
 70
   128
 71
     5
 72
     4
 73
     3
  0
SEQEND
  5
1790
  8
0
  0
POLYLINE
  5
15AB
  8
0
 66
     1
 10
0.0
 20
0.0
 30
0.0
 70
    64
 71
     8
 72
     6
  0
VERTEX
  5
15AC
  8
0
 10
181.6590212458495
 20
72.74754489035405
 30
35.03413342253327
 70
   192
  0
VERTEX
  5
15AD
  8
0
 10
181.6590212458495
 20
74.40100695590056
 30
33.2296962142068
 70
   192
  0
VERTEX
  5
15AE
  8
0
 10
184.0
 20
74.40100695590056
 30
33.2296962142068
 70
   192
  0
VERTEX
  5
15AF
  8
0
 10
184.0
 20
72.74754489035405
 30
35.03413342253327
 70
   192
  0
VERTEX
  5
15B0
  8
0
 10
181.6590212458495
 20
75.0
 30
30.8566943654686
 70
   192
  0
VERTEX
  5
15B1
  8
0
 10
184.0
 20
75.0
 30
30.8566943654686
 70
   192
  0
VERTEX
  5
15B2
  8
0
 10
181.6590212458495
 20
70.43577871373832
 30
35.83766785592734
 70
   192
  0
VERTEX
  5
15B3
  8
0
 10
184.0
 20
70.43577871373832
 30
35.83766785592732
 70
   192
  0
VERTEX
  5
15B4
  8
0
 10
0.0
 20
0.0
 30
0.0
 70
   128
 71
     1
 72
     2
 73
    -3
  0
VERTEX
  5
15B5
  8
0
 10
0.0
 20
0.0
 30
0.0
 70
   128
 71
     4
 72
    -1
 73
     3
  0
VERTEX
  5
15B6
  8
0
 10
0.0
 20
0.0
 30
0.0
 70
   128
 71
     2
 72
     5
 73
    -6
  0
VERTEX
  5
15B7
  8
0
 10
0.0
 20
0.0
 30
0.0
 70
   128
 71
     3
 72
    -2
 73
     6
  0
VERTEX
  5
15B8
  8
0
 10
0.0
 20
0.0
 30
0.0
 70
   128
 71
     7
 72
     1
 73
    -4
  0
VERTEX
  5
15B9
  8
0
 10
0.0
 20
0.0
 30
0.0
 70
   128
 71
     8
 72
    -7
 73
     4
  0
SEQEND
  5
1791
  8
0
  0
POLYLINE
  5
15BA
  8
0
 66
     1
 10
0.0
 20
0.0
 30
0.0
 70
    64
 71
     8
 72
     6
  0
VERTEX
  5
15BB
  8
0
 10
193.3301270189222
 20
72.5
 30
25.83759517775185
 70
   192
  0
VERTEX
  5
15BC
  8
0
 10
191.5
 20
74.3301270189222
 30
25.83759517775185
 70
   192
  0
VERTEX
  5
15BD
  8
0
 10
191.5
 20
74.3301270189222
 30
-174.0
 70
   192
  0
VERTEX
  5
15BE
  8
0
 10
193.3301270189222
 20
72.5
 30
-174.0
 70
   192
  0
VERTEX
  5
15BF
  8
0
 10
189.0
 20
75.0
 30
25.83759517775185
 70
   192
  0
VERTEX
  5
15C0
  8
0
 10
189.0
 20
75.0
 30
-174.0
 70
   192
  0
VERTEX
  5
15C1
  8
0
 10
194.0
 20
70.0
 30
25.83759517775185
 70
   192
  0
VERTEX
  5
15C2
  8
0
 10
194.0
 20
70.0
 30
-174.0
 70
   192
  0
VERTEX
  5
15C3
  8
0
 10
0.0
 20
0.0
 30
0.0
 70
   128
 71
     1
 72
     2
 73
    -3
  0
VERTEX
  5
15C4
  8
0
 10
0.0
 20
0.0
 30
0.0
 70
   128
 71
     4
 72
    -1
 73
     3
  0
VERTEX
  5
15C5
  8
0
 10
0.0
 20
0.0
 30
0.0
 70
   128
 71
     2
 72
     5
 73
    -6
  0
VERTEX
  5
15C6
  8
0
 10
0.0
 20
0.0
 30
0.0
 70
   128
 71
     3
 72
    -2
 73
     6
  0
VERTEX
  5
15C7
  8
0
 10
0.0
 20
0.0
 30
0.0
 70
   128
 71
     7
 72
     1
 73
    -4
  0
VERTEX
  5
15C8
  8
0
 10
0.0
 20
0.0
 30
0.0
 70
   128
 71
     8
 72
    -7
 73
     4
  0
SEQEND
  5
1792
  8
0
  0
POLYLINE
  5
15C9
  8
0
 66
     1
 10
0.0
 20
0.0
 30
0.0
 70
    64
 71
    12
 72
    10
  0
VERTEX
  5
15CA
  8
0
 10
157.1239524867934
 20
72.74754489035405
 30
40.28313280737898
 70
   192
  0
VERTEX
  5
15CB
  8
0
 10
156.3856659664027
 20
74.40100695590056
 30
38.63664361743498
 70
   192
  0
VERTEX
  5
15CC
  8
0
 10
181.6590212458495
 20
72.74754489035405
 30
35.03413342253327
 70
   192
  0
VERTEX
  5
15CD
  8
0
 10
181.6590212458495
 20
74.40100695590056
 30
33.2296962142068
 70
   192
  0
VERTEX
  5
15CE
  8
0
 10
155.4147508967615
 20
75.0
 30
36.4713580238796
 70
   192
  0
VERTEX
  5
15CF
  8
0
 10
163.8700768466754
 20
75.0
 30
33.37275671516692
 70
   192
  0
VERTEX
  5
15D0
  8
0
 10
172.676021849984
 20
75.0
 30
31.48882476619732
 70
   192
  0
VERTEX
  5
15D1
  8
0
 10
181.6590212458495
 20
75.0
 30
30.8566943654686
 70
   192
  0
VERTEX
  5
15D2
  8
0
 10
181.6590212458495
 20
70.43577871373832
 30
35.83766785592732
 70
   192
  0
VERTEX
  5
15D3
  8
0
 10
173.3735861774378
 20
70.43577871373832
 30
36.42071090860942
 70
   192
  0
VERTEX
  5
15D4
  8
0
 10
165.2514565494987
 20
70.43577871373832
 30
38.15834832219738
 70
   192
  0
VERTEX
  5
15D5
  8
0
 10
157.4527190618269
 20
70.43577871373832
 30
41.01633136492701
 70
   192
  0
VERTEX
  5
15D6
  8
0
 10
0.0
 20
0.0
 30
0.0
 70
   128
 71
     1
 72
    -2
 73
     3
  0
VERTEX
  5
15D7
  8
0
 10
0.0
 20
0.0
 30
0.0
 70
   128
 71
    -3
 72
     2
 73
     4
  0
VERTEX
  5
15D8
  8
0
 10
0.0
 20
0.0
 30
0.0
 70
   128
 71
     2
 72
     5
 73
     6
  0
VERTEX
  5
15D9
  8
0
 10
0.0
 20
0.0
 30
0.0
 70
   128
 71
     6
 72
     7
 73
     2
  0
VERTEX
  5
15DA
  8
0
 10
0.0
 20
0.0
 30
0.0
 70
   128
 71
     2
 72
     7
 73
     8
  0
VERTEX
  5
15DB
  8
0
 10
0.0
 20
0.0
 30
0.0
 70
   128
 71
     4
 72
     2
 73
     8
  0
VERTEX
  5
15DC
  8
0
 10
0.0
 20
0.0
 30
0.0
 70
   128
 71
     3
 72
     9
 73
    10
  0
VERTEX
  5
15DD
  8
0
 10
0.0
 20
0.0
 30
0.0
 70
   128
 71
    11
 72
     1
 73
    -3
  0
VERTEX
  5
15DE
  8
0
 10
0.0
 20
0.0
 30
0.0
 70
   128
 71
    10
 72
   -11
 73
     3
  0
VERTEX
  5
15DF
  8
0
 10
0.0
 20
0.0
 30
0.0
 70
   128
 71
    11
 72
    12
 73
     1
  0
SEQEND
  5
1793
  8
0
  0
POLYLINE
  5
15E0
  8
0
 66
     1
 10
0.0
 20
0.0
 30
0.0
 70
    64
 71
    12
 72
    10
  0
VERTEX
  5
15E1
  8
0
 10
174.0
 20
74.3301270189222
 30
-191.5
 70
   192
  0
VERTEX
  5
15E2
  8
0
 10
174.0
 20
72.5
 30
-193.3301270189222
 70
   192
  0
VERTEX
  5
15E3
  8
0
 10
191.5
 20
74.3301270189222
 30
-174.0
 70
   192
  0
VERTEX
  5
15E4
  8
0
 10
193.3301270189222
 20
72.5
 30
-174.0
 70
   192
  0
VERTEX
  5
15E5
  8
0
 10
174.0
 20
70.0
 30
-194.0
 70
   192
  0
VERTEX
  5
15E6
  8
0
 10
184.0
 20
70.0
 30
-191.3205080756888
 70
   192
  0
VERTEX
  5
15E7
  8
0
 10
191.3205080756888
 20
70.0
 30
-184.0
 70
   192
  0
VERTEX
  5
15E8
  8
0
 10
194.0
 20
70.0
 30
-174.0
 70
   192
  0
VERTEX
  5
15E9
  8
0
 10
174.0
 20
75.0
 30
-189.0
 70
   192
  0
VERTEX
  5
15EA
  8
0
 10
181.5
 20
75.0
 30
-186.9903810567666
 70
   192
  0
VERTEX
  5
15EB
  8
0
 10
189.0
 20
75.0
 30
-174.0
 70
   192
  0
VERTEX
  5
15EC
  8
0
 10
186.9903810567666
 20
75.0
 30
-181.5
 70
   192
  0
VERTEX
  5
15ED
  8
0
 10
0.0
 20
0.0
 30
0.0
 70
   128
 71
     1
 72
    -2
 73
     3
  0
VERTEX
  5
15EE
  8
0
 10
0.0
 20
0.0
 30
0.0
 70
   128
 71
    -3
 72
     2
 73
     4
  0
VERTEX
  5
15EF
  8
0
 10
0.0
 20
0.0
 30
0.0
 70
   128
 71
     2
 72
     5
 73
     6
  0
VERTEX
  5
15F0
  8
0
 10
0.0
 20
0.0
 30
0.0
 70
   128
 71
     6
 72
     7
 73
     2
  0
VERTEX
  5
15F1
  8
0
 10
0.0
 20
0.0
 30
0.0
 70
   128
 71
     2
 72
     7
 73
     8
  0
VERTEX
  5
15F2
  8
0
 10
0.0
 20
0.0
 30
0.0
 70
   128
 71
     4
 72
     2
 73
     8
  0
VERTEX
  5
15F3
  8
0
 10
0.0
 20
0.0
 30
0.0
 70
   128
 71
     9
 72
     1
 73
    10
  0
VERTEX
  5
15F4
  8
0
 10
0.0
 20
0.0
 30
0.0
 70
   128
 71
     3
 72
    11
 73
    12
  0
VERTEX
  5
15F5
  8
0
 10
0.0
 20
0.0
 30
0.0
 70
   128
 71
    10
 72
     1
 73
    -3
  0
VERTEX
  5
15F6
  8
0
 10
0.0
 20
0.0
 30
0.0
 70
   128
 71
    12
 72
   -10
 73
     3
  0
SEQEND
  5
1794
  8
0
  0
POLYLINE
  5
15F7
  8
0
 66
     1
 10
0.0
 20
0.0
 30
0.0
 70
    64
 71
     9
 72
     7
  0
VERTEX
  5
15F8
  8
0
 10
153.2536710288014
 20
74.48023879796266
 30
35.96421493013986
 70
   192
  0
VERTEX
  5
15F9
  8
0
 10
155.4147508967615
 20
75.0
 30
36.4713580238796
 70
   192
  0
VERTEX
  5
15FA
  8
0
 10
155.4147508967615
 20
74.48976606311768
 30
38.67181268109854
 70
   192
  0
VERTEX
  5
15FB
  8
0
 10
155.4147508967615
 20
73.06319972060933
 30
40.42316868124395
 70
   192
  0
VERTEX
  5
15FC
  8
0
 10
155.4147508967615
 20
71.0114539969397
 30
41.36798551758118
 70
   192
  0
VERTEX
  5
15FD
  8
0
 10
150.94224804489
 20
71.45456450495794
 30
38.16869721830054
 70
   192
  0
VERTEX
  5
15FE
  8
0
 10
150.6352929381763
 20
70.948046978642
 30
35.34975713746547
 70
   192
  0
VERTEX
  5
15FF
  8
0
 10
151.5418893487893
 20
73.02901587470798
 30
35.562509158003
 70
   192
  0
VERTEX
  5
1600
  8
0
 10
152.733574004864
 20
71.47832925797084
 30
40.42431047481828
 70
   192
  0
VERTEX
  5
1601
  8
0
 10
0.0
 20
0.0
 30
0.0
 70
   128
 71
     1
 72
     2
 73
     3
  0
VERTEX
  5
1602
  8
0
 10
0.0
 20
0.0
 30
0.0
 70
   128
 71
     3
 72
     4
 73
     1
  0
VERTEX
  5
1603
  8
0
 10
0.0
 20
0.0
 30
0.0
 70
   128
 71
     1
 72
     4
 73
     5
  0
VERTEX
  5
1604
  8
0
 10
0.0
 20
0.0
 30
0.0
 70
   128
 71
     6
 72
     7
 73
     8
  0
VERTEX
  5
1605
  8
0
 10
0.0
 20
0.0
 30
0.0
 70
   128
 71
     8
 72
     1
 73
     5
  0
VERTEX
  5
1606
  8
0
 10
0.0
 20
0.0
 30
0.0
 70
   128
 71
     6
 72
     8
 73
     5
  0
VERTEX
  5
1607
  8
0
 10
0.0
 20
0.0
 30
0.0
 70
   128
 71
     9
 72
     6
 73
     5
  0
SEQEND
  5
1795
  8
0
  0
POLYLINE
  5
1608
  8
0
 66
     1
 10
0.0
 20
0.0
 30
0.0
 70
    64
 71
     8
 72
     6
  0
VERTEX
  5
1609
  8
0
 10
174.0
 20
72.5
 30
-193.3301270189222
 70
   192
  0
VERTEX
  5
160A
  8
0
 10
174.0
 20
74.3301270189222
 30
-191.5
 70
   192
  0
VERTEX
  5
160B
  8
0
 10
-25.83759517775185
 20
74.3301270189222
 30
-191.5
 70
   192
  0
VERTEX
  5
160C
  8
0
 10
-25.83759517775185
 20
72.5
 30
-193.3301270189222
 70
   192
  0
VERTEX
  5
160D
  8
0
 10
174.0
 20
75.0
 30
-189.0
 70
   192
  0
VERTEX
  5
160E
  8
0
 10
-25.83759517775185
 20
75.0
 30
-189.0
 70
   192
  0
VERTEX
  5
160F
  8
0
 10
174.0
 20
70.0
 30
-194.0
 70
   192
  0
VERTEX
  5
1610
  8
0
 10
-25.83759517775185
 20
70.0
 30
-194.0
 70
   192
  0
VERTEX
  5
1611
  8
0
 10
0.0
 20
0.0
 30
0.0
 70
   128
 71
     1
 72
     2
 73
    -3
  0
VERTEX
  5
1612
  8
0
 10
0.0
 20
0.0
 30
0.0
 70
   128
 71
     4
 72
    -1
 73
     3
  0
VERTEX
  5
1613
  8
0
 10
0.0
 20
0.0
 30
0.0
 70
   128
 71
     2
 72
     5
 73
    -6
  0
VERTEX
  5
1614
  8
0
 10
0.0
 20
0.0
 30
0.0
 70
   128
 71
     3
 72
    -2
 73
     6
  0
VERTEX
  5
1615
  8
0
 10
0.0
 20
0.0
 30
0.0
 70
   128
 71
     7
 72
     1
 73
    -4
  0
VERTEX
  5
1616
  8
0
 10
0.0
 20
0.0
 30
0.0
 70
   128
 71
     8
 72
    -7
 73
     4
  0
SEQEND
  5
1796
  8
0
  0
POLYLINE
  5
1617
  8
0
 66
     1
 10
0.0
 20
0.0
 30
0.0
 70
    64
 71
    18
 72
    16
  0
VERTEX
  5
1618
  8
0
 10
133.3191793972184
 20
74.970670365094
 30
-86.81790620973715
 70
   192
  0
VERTEX
  5
1619
  8
0
 10
133.5942503674002
 20
75.0
 30
-87.3869613911638
 70
   192
  0
VERTEX
  5
161A
  8
0
 10
152.0593406608446
 20
75.0
 30
-48.59898836598911
 70
   192
  0
VERTEX
  5
161B
  8
0
 10
159.5127587483735
 20
75.0
 30
-6.291625298087745
 70
   192
  0
VERTEX
  5
161C
  8
0
 10
155.4147508967612
 20
75.0
 30
36.47135802387952
 70
   192
  0
VERTEX
  5
161D
  8
0
 10
152.9042548685614
 20
70.948046978642
 30
23.68302453948748
 70
   192
  0
VERTEX
  5
161E
  8
0
 10
154.2710094182399
 20
70.948046978642
 30
11.87655090189382
 70
   192
  0
VERTEX
  5
161F
  8
0
 10
154.7274920893115
 20
70.948046978642
 30
0.000000000000109
 70
   192
  0
VERTEX
  5
1620
  8
0
 10
131.0849035856586
 20
72.4439655819001
 30
-83.2285677585744
 70
   192
  0
VERTEX
  5
1621
  8
0
 10
152.0331166386051
 20
70.948046978642
 30
-28.7494044007915
 70
   192
  0
VERTEX
  5
1622
  8
0
 10
144.04382828478
 20
70.948046978642
 30
-56.49754279004313
 70
   192
  0
VERTEX
  5
1623
  8
0
 10
131.0378728924658
 20
70.948046978642
 30
-82.27802061344174
 70
   192
  0
VERTEX
  5
1624
  8
0
 10
132.533282466304
 20
74.66649950979739
 30
-85.7251726862968
 70
   192
  0
VERTEX
  5
1625
  8
0
 10
153.2536710288014
 20
74.48023879796266
 30
35.96421493013986
 70
   192
  0
VERTEX
  5
1626
  8
0
 10
151.5418893487893
 20
73.02901587470798
 30
35.562509158003
 70
   192
  0
VERTEX
  5
1627
  8
0
 10
132.9594331430689
 20
74.86601062273279
 30
-86.25671112522076
 70
   192
  0
VERTEX
  5
1628
  8
0
 10
131.5684583831787
 20
73.73249466516148
 30
-84.39505940175127
 70
   192
  0
VERTEX
  5
1629
  8
0
 10
150.6352929381763
 20
70.94804697864193
 30
35.34975713746544
 70
   192
  0
VERTEX
  5
162A
  8
0
 10
0.0
 20
0.0
 30
0.0
 70
   128
 71
     1
 72
     2
 73
     3
  0
VERTEX
  5
162B
  8
0
 10
0.0
 20
0.0
 30
0.0
 70
   128
 71
     3
 72
     4
 73
     1
  0
VERTEX
  5
162C
  8
0
 10
0.0
 20
0.0
 30
0.0
 70
   128
 71
     4
 72
     5
 73
     1
  0
VERTEX
  5
162D
  8
0
 10
0.0
 20
0.0
 30
0.0
 70
   128
 71
     6
 72
     7
 73
     8
  0
VERTEX
  5
162E
  8
0
 10
0.0
 20
0.0
 30
0.0
 70
   128
 71
     9
 72
     6
 73
     8
  0
VERTEX
  5
162F
  8
0
 10
0.0
 20
0.0
 30
0.0
 70
   128
 71
     8
 72
    10
 73
     9
  0
VERTEX
  5
1630
  8
0
 10
0.0
 20
0.0
 30
0.0
 70
   128
 71
    10
 72
    11
 73
     9
  0
VERTEX
  5
1631
  8
0
 10
0.0
 20
0.0
 30
0.0
 70
   128
 71
    11
 72
    12
 73
     9
  0
VERTEX
  5
1632
  8
0
 10
0.0
 20
0.0
 30
0.0
 70
   128
 71
    13
 72
    14
 73
    15
  0
VERTEX
  5
1633
  8
0
 10
0.0
 20
0.0
 30
0.0
 70
   128
 71
     1
 72
     5
 73
    14
  0
VERTEX
  5
1634
  8
0
 10
0.0
 20
0.0
 30
0.0
 70
   128
 71
    16
 72
     1
 73
    14
  0
VERTEX
  5
1635
  8
0
 10
0.0
 20
0.0
 30
0.0
 70
   128
 71
    16
 72
    14
 73
    13
  0
VERTEX
  5
1636
  8
0
 10
0.0
 20
0.0
 30
0.0
 70
   128
 71
    13
 72
    15
 73
    17
  0
VERTEX
  5
1637
  8
0
 10
0.0
 20
0.0
 30
0.0
 70
   128
 71
    18
 72
     6
 73
     9
  0
VERTEX
  5
1638
  8
0
 10
0.0
 20
0.0
 30
0.0
 70
   128
 71
    15
 72
    18
 73
     9
  0
VERTEX
  5
1639
  8
0
 10
0.0
 20
0.0
 30
0.0
 70
   128
 71
    17
 72
    15
 73
     9
  0
SEQEND
  5
1797
  8
0
  0
POLYLINE
  5
163A
  8
0
 66
     1
 10
0.0
 20
0.0
 30
0.0
 70
    64
 71
    12
 72
    10
  0
VERTEX
  5
163B
  8
0
 10
131.6927212940776
 20
73.5638995399175
 30
-87.6442637273153
 70
   192
  0
VERTEX
  5
163C
  8
0
 10
131.6297353593324
 20
73.51874218862858
 30
-87.39755345897761
 70
   192
  0
VERTEX
  5
163D
  8
0
 10
131.5322603241542
 20
73.42492397003714
 30
-87.18429101912568
 70
   192
  0
VERTEX
  5
163E
  8
0
 10
131.4087895534947
 20
73.28229498792774
 30
-87.00005952413683
 70
   192
  0
VERTEX
  5
163F
  8
0
 10
131.5720150702541
 20
73.93525001786709
 30
-86.62896100030963
 70
   192
  0
VERTEX
  5
1640
  8
0
 10
131.9662526127056
 20
74.4205402164411
 30
-86.18199664141626
 70
   192
  0
VERTEX
  5
1641
  8
0
 10
132.533282466304
 20
74.66649950979739
 30
-85.7251726862968
 70
   192
  0
VERTEX
  5
1642
  8
0
 10
132.9594331430689
 20
74.86601062273279
 30
-86.25671112522076
 70
   192
  0
VERTEX
  5
1643
  8
0
 10
133.3191793972184
 20
74.970670365094
 30
-86.81790620973715
 70
   192
  0
VERTEX
  5
1644
  8
0
 10
133.5942503674002
 20
74.99999999999999
 30
-87.38696139116352
 70
   192
  0
VERTEX
  5
1645
  8
0
 10
132.7710596404709
 20
74.81932668294114
 30
-87.49835011516936
 70
   192
  0
VERTEX
  5
1646
  8
0
 10
132.096597512748
 20
74.30994957926178
 30
-87.58961386892611
 70
   192
  0
VERTEX
  5
1647
  8
0
 10
0.0
 20
0.0
 30
0.0
 70
   128
 71
     8
 72
     7
 73
     6
  0
VERTEX
  5
1648
  8
0
 10
0.0
 20
0.0
 30
0.0
 70
   128
 71
     6
 72
     9
 73
     8
  0
VERTEX
  5
1649
  8
0
 10
0.0
 20
0.0
 30
0.0
 70
   128
 71
     6
 72
    11
 73
    10
  0
VERTEX
  5
164A
  8
0
 10
0.0
 20
0.0
 30
0.0
 70
   128
 71
     6
 72
    10
 73
     9
  0
VERTEX
  5
164B
  8
0
 10
0.0
 20
0.0
 30
0.0
 70
   128
 71
     6
 72
     5
 73
    12
  0
VERTEX
  5
164C
  8
0
 10
0.0
 20
0.0
 30
0.0
 70
   128
 71
     6
 72
    12
 73
    11
  0
VERTEX
  5
164D
  8
0
 10
0.0
 20
0.0
 30
0.0
 70
   128
 71
     2
 72
     1
 73
    12
  0
VERTEX
  5
164E
  8
0
 10
0.0
 20
0.0
 30
0.0
 70
   128
 71
     2
 72
    12
 73
     5
  0
VERTEX
  5
164F
  8
0
 10
0.0
 20
0.0
 30
0.0
 70
   128
 71
     5
 72
     3
 73
     2
  0
VERTEX
  5
1650
  8
0
 10
0.0
 20
0.0
 30
0.0
 70
   128
 71
     5
 72
     4
 73
     3
  0
SEQEND
  5
1798
  8
0
  0
POLYLINE
  5
1651
  8
0
 66
     1
 10
0.0
 20
0.0
 30
0.0
 70
    64
 71
    12
 72
    10
  0
VERTEX
  5
1652
  8
0
 10
-25.83759517775185
 20
70.0
 30
-194.0
 70
   192
  0
VERTEX
  5
1653
  8
0
 10
-30.82829218030463
 20
70.21754584381453
 30
-192.6656140701263
 70
   192
  0
VERTEX
  5
1654
  8
0
 10
-34.54462250637162
 20
70.37981350196368
 30
-188.9170626892537
 70
   192
  0
VERTEX
  5
1655
  8
0
 10
-35.83766785592732
 20
70.43577871373832
 30
-184.0
 70
   192
  0
VERTEX
  5
1656
  8
0
 10
-35.03413342253327
 20
72.74754489035405
 30
-184.0
 70
   192
  0
VERTEX
  5
1657
  8
0
 10
-33.2296962142068
 20
74.40100695590056
 30
-184.0
 70
   192
  0
VERTEX
  5
1658
  8
0
 10
-30.8566943654686
 20
75.0
 30
-184.0
 70
   192
  0
VERTEX
  5
1659
  8
0
 10
-30.21555673874778
 20
75.00000000000001
 30
-186.4452083820542
 70
   192
  0
VERTEX
  5
165A
  8
0
 10
-28.29214385858529
 20
75.00000000000003
 30
-188.3613020955135
 70
   192
  0
VERTEX
  5
165B
  8
0
 10
-25.83759517775185
 20
75.0
 30
-189.0
 70
   192
  0
VERTEX
  5
165C
  8
0
 10
-25.83759517775185
 20
74.3301270189222
 30
-191.5
 70
   192
  0
VERTEX
  5
165D
  8
0
 10
-25.83759517775185
 20
72.5
 30
-193.3301270189222
 70
   192
  0
VERTEX
  5
165E
  8
0
 10
0.0
 20
0.0
 30
0.0
 70
   128
 71
     8
 72
     7
 73
     6
  0
VERTEX
  5
165F
  8
0
 10
0.0
 20
0.0
 30
0.0
 70
   128
 71
     6
 72
    11
 73
     9
  0
VERTEX
  5
1660
  8
0
 10
0.0
 20
0.0
 30
0.0
 70
   128
 71
     6
 72
     9
 73
     8
  0
VERTEX
  5
1661
  8
0
 10
0.0
 20
0.0
 30
0.0
 70
   128
 71
    11
 72
    10
 73
     9
  0
VERTEX
  5
1662
  8
0
 10
0.0
 20
0.0
 30
0.0
 70
   128
 71
     6
 72
     5
 73
    12
  0
VERTEX
  5
1663
  8
0
 10
0.0
 20
0.0
 30
0.0
 70
   128
 71
     6
 72
    12
 73
    11
  0
VERTEX
  5
1664
  8
0
 10
0.0
 20
0.0
 30
0.0
 70
   128
 71
     2
 72
     1
 73
    12
  0
VERTEX
  5
1665
  8
0
 10
0.0
 20
0.0
 30
0.0
 70
   128
 71
    12
 72
     5
 73
     3
  0
VERTEX
  5
1666
  8
0
 10
0.0
 20
0.0
 30
0.0
 70
   128
 71
    12
 72
     3
 73
     2
  0
VERTEX
  5
1667
  8
0
 10
0.0
 20
0.0
 30
0.0
 70
   128
 71
     5
 72
     4
 73
     3
  0
SEQEND
  5
1799
  8
0
  0
POLYLINE
  5
1668
  8
0
 66
     1
 10
0.0
 20
0.0
 30
0.0
 70
    64
 71
     9
 72
     7
  0
VERTEX
  5
1669
  8
0
 10
131.408789553495
 20
73.28229498792771
 30
-87.0000595241368
 70
   192
  0
VERTEX
  5
166A
  8
0
 10
130.7833883364809
 20
72.77988008738164
 30
-85.40582486298835
 70
   192
  0
VERTEX
  5
166B
  8
0
 10
130.657436137344
 20
71.9954875390984
 30
-83.81786612985394
 70
   192
  0
VERTEX
  5
166C
  8
0
 10
131.0378728924658
 20
70.948046978642
 30
-82.27802061344171
 70
   192
  0
VERTEX
  5
166D
  8
0
 10
131.0849035856586
 20
72.4439655819001
 30
-83.2285677585744
 70
   192
  0
VERTEX
  5
166E
  8
0
 10
131.5684583831787
 20
73.73249466516148
 30
-84.39505940175127
 70
   192
  0
VERTEX
  5
166F
  8
0
 10
132.5332824663039
 20
74.66649950979749
 30
-85.72517268629676
 70
   192
  0
VERTEX
  5
1670
  8
0
 10
131.9662526127056
 20
74.4205402164411
 30
-86.18199664141626
 70
   192
  0
VERTEX
  5
1671
  8
0
 10
131.5720150702541
 20
73.93525001786709
 30
-86.62896100030963
 70
   192
  0
VERTEX
  5
1672
  8
0
 10
0.0
 20
0.0
 30
0.0
 70
   128
 71
     5
 72
     4
 73
     8
  0
VERTEX
  5
1673
  8
0
 10
0.0
 20
0.0
 30
0.0
 70
   128
 71
     8
 72
     6
 73
     5
  0
VERTEX
  5
1674
  8
0
 10
0.0
 20
0.0
 30
0.0
 70
   128
 71
     8
 72
     7
 73
     6
  0
VERTEX
  5
1675
  8
0
 10
0.0
 20
0.0
 30
0.0
 70
   128
 71
     4
 72
     9
 73
     8
  0
VERTEX
  5
1676
  8
0
 10
0.0
 20
0.0
 30
0.0
 70
   128
 71
     2
 72
     1
 73
     9
  0
VERTEX
  5
1677
  8
0
 10
0.0
 20
0.0
 30
0.0
 70
   128
 71
     9
 72
     3
 73
     2
  0
VERTEX
  5
1678
  8
0
 10
0.0
 20
0.0
 30
0.0
 70
   128
 71
     9
 72
     4
 73
     3
  0
SEQEND
  5
179A
  8
0
  0
POLYLINE
  5
1679
  8
0
 66
     1
 10
0.0
 20
0.0
 30
0.0
 70
    64
 71
     8
 72
     6
  0
VERTEX
  5
167A
  8
0
 10
-35.03413342253327
 20
72.74754489035405
 30
-184.0
 70
   192
  0
VERTEX
  5
167B
  8
0
 10
-33.2296962142068
 20
74.40100695590056
 30
-184.0
 70
   192
  0
VERTEX
  5
167C
  8
0
 10
-33.2296962142068
 20
74.40100695590056
 30
-181.6590212458495
 70
   192
  0
VERTEX
  5
167D
  8
0
 10
-35.03413342253327
 20
72.74754489035405
 30
-181.6590212458495
 70
   192
  0
VERTEX
  5
167E
  8
0
 10
-30.8566943654686
 20
75.0
 30
-184.0
 70
   192
  0
VERTEX
  5
167F
  8
0
 10
-30.85669436546864
 20
75.0
 30
-181.6590212458495
 70
   192
  0
VERTEX
  5
1680
  8
0
 10
-35.83766785592732
 20
70.43577871373832
 30
-184.0
 70
   192
  0
VERTEX
  5
1681
  8
0
 10
-35.83766785592732
 20
70.43577871373832
 30
-181.6590212458495
 70
   192
  0
VERTEX
  5
1682
  8
0
 10
0.0
 20
0.0
 30
0.0
 70
   128
 71
     1
 72
     2
 73
    -3
  0
VERTEX
  5
1683
  8
0
 10
0.0
 20
0.0
 30
0.0
 70
   128
 71
     4
 72
    -1
 73
     3
  0
VERTEX
  5
1684
  8
0
 10
0.0
 20
0.0
 30
0.0
 70
   128
 71
     2
 72
     5
 73
    -6
  0
VERTEX
  5
1685
  8
0
 10
0.0
 20
0.0
 30
0.0
 70
   128
 71
     3
 72
    -2
 73
     6
  0
VERTEX
  5
1686
  8
0
 10
0.0
 20
0.0
 30
0.0
 70
   128
 71
     7
 72
     1
 73
    -4
  0
VERTEX
  5
1687
  8
0
 10
0.0
 20
0.0
 30
0.0
 70
   128
 71
     8
 72
    -7
 73
     4
  0
SEQEND
  5
179B
  8
0
  0
POLYLINE
  5
1688
  8
0
 66
     1
 10
0.0
 20
0.0
 30
0.0
 70
    64
 71
    12
 72
    10
  0
VERTEX
  5
1689
  8
0
 10
131.408789553495
 20
73.28229498792771
 30
-87.0000595241368
 70
   192
  0
VERTEX
  5
168A
  8
0
 10
129.0598653297365
 20
65.2112167285828
 30
-86.84480089497761
 70
   192
  0
VERTEX
  5
168B
  8
0
 10
126.7030976365231
 20
57.23871291572986
 30
-86.65875444553626
 70
   192
  0
VERTEX
  5
168C
  8
0
 10
124.3566890995056
 20
49.41030259003436
 30
-86.39987048334625
 70
   192
  0
VERTEX
  5
168D
  8
0
 10
124.2804737310071
 20
49.46599435197692
 30
-85.1395334205168
 70
   192
  0
VERTEX
  5
168E
  8
0
 10
124.5097577013133
 20
49.42998112958238
 30
-83.89715997607323
 70
   192
  0
VERTEX
  5
168F
  8
0
 10
125.0298910499344
 20
49.3045639658956
 30
-82.7521308491991
 70
   192
  0
VERTEX
  5
1690
  8
0
 10
127.0928517678799
 20
56.37530992174172
 30
-82.78165828003736
 70
   192
  0
VERTEX
  5
1691
  8
0
 10
129.0996556698968
 20
63.58990970874956
 30
-82.58494104110605
 70
   192
  0
VERTEX
  5
1692
  8
0
 10
131.0378728924658
 20
70.948046978642
 30
-82.27802061344171
 70
   192
  0
VERTEX
  5
1693
  8
0
 10
130.657436137344
 20
71.9954875390984
 30
-83.81786612985394
 70
   192
  0
VERTEX
  5
1694
  8
0
 10
130.7833883364809
 20
72.77988008738164
 30
-85.40582486298835
 70
   192
  0
VERTEX
  5
1695
  8
0
 10
0.0
 20
0.0
 30
0.0
 70
   128
 71
     8
 72
     7
 73
     6
  0
VERTEX
  5
1696
  8
0
 10
0.0
 20
0.0
 30
0.0
 70
   128
 71
     6
 72
     9
 73
     8
  0
VERTEX
  5
1697
  8
0
 10
0.0
 20
0.0
 30
0.0
 70
   128
 71
     6
 72
    11
 73
    10
  0
VERTEX
  5
1698
  8
0
 10
0.0
 20
0.0
 30
0.0
 70
   128
 71
     6
 72
    10
 73
     9
  0
VERTEX
  5
1699
  8
0
 10
0.0
 20
0.0
 30
0.0
 70
   128
 71
     6
 72
     5
 73
    12
  0
VERTEX
  5
169A
  8
0
 10
0.0
 20
0.0
 30
0.0
 70
   128
 71
     6
 72
    12
 73
    11
  0
VERTEX
  5
169B
  8
0
 10
0.0
 20
0.0
 30
0.0
 70
   128
 71
     2
 72
     1
 73
    12
  0
VERTEX
  5
169C
  8
0
 10
0.0
 20
0.0
 30
0.0
 70
   128
 71
    12
 72
     5
 73
     3
  0
VERTEX
  5
169D
  8
0
 10
0.0
 20
0.0
 30
0.0
 70
   128
 71
    12
 72
     3
 73
     2
  0
VERTEX
  5
169E
  8
0
 10
0.0
 20
0.0
 30
0.0
 70
   128
 71
     5
 72
     4
 73
     3
  0
SEQEND
  5
179C
  8
0
  0
POLYLINE
  5
169F
  8
0
 66
     1
 10
0.0
 20
0.0
 30
0.0
 70
    64
 71
    12
 72
    10
  0
VERTEX
  5
16A0
  8
0
 10
-35.03413342253327
 20
72.74754489035405
 30
-181.6590212458495
 70
   192
  0
VERTEX
  5
16A1
  8
0
 10
-33.2296962142068
 20
74.40100695590056
 30
-181.6590212458495
 70
   192
  0
VERTEX
  5
16A2
  8
0
 10
-40.28313280737898
 20
72.74754489035402
 30
-157.1239524867934
 70
   192
  0
VERTEX
  5
16A3
  8
0
 10
-38.63664361743499
 20
74.40100695590054
 30
-156.3856659664027
 70
   192
  0
VERTEX
  5
16A4
  8
0
 10
-30.8566943654686
 20
75.0
 30
-181.6590212458495
 70
   192
  0
VERTEX
  5
16A5
  8
0
 10
-31.48882476619733
 20
75.0
 30
-172.676021849984
 70
   192
  0
VERTEX
  5
16A6
  8
0
 10
-33.37275671516692
 20
75.0
 30
-163.8700768466754
 70
   192
  0
VERTEX
  5
16A7
  8
0
 10
-36.47135802387956
 20
75.0
 30
-155.4147508967614
 70
   192
  0
VERTEX
  5
16A8
  8
0
 10
-35.83766785592732
 20
70.43577871373832
 30
-181.6590212458495
 70
   192
  0
VERTEX
  5
16A9
  8
0
 10
-36.42071090860943
 20
70.43577871373832
 30
-173.3735861774378
 70
   192
  0
VERTEX
  5
16AA
  8
0
 10
-41.01633136492707
 20
70.4357787137383
 30
-157.452719061827
 70
   192
  0
VERTEX
  5
16AB
  8
0
 10
-38.1583483221974
 20
70.43577871373832
 30
-165.2514565494987
 70
   192
  0
VERTEX
  5
16AC
  8
0
 10
0.0
 20
0.0
 30
0.0
 70
   128
 71
     1
 72
    -2
 73
     3
  0
VERTEX
  5
16AD
  8
0
 10
0.0
 20
0.0
 30
0.0
 70
   128
 71
    -3
 72
     2
 73
     4
  0
VERTEX
  5
16AE
  8
0
 10
0.0
 20
0.0
 30
0.0
 70
   128
 71
     2
 72
     5
 73
     6
  0
VERTEX
  5
16AF
  8
0
 10
0.0
 20
0.0
 30
0.0
 70
   128
 71
     6
 72
     7
 73
     2
  0
VERTEX
  5
16B0
  8
0
 10
0.0
 20
0.0
 30
0.0
 70
   128
 71
     2
 72
     7
 73
     8
  0
VERTEX
  5
16B1
  8
0
 10
0.0
 20
0.0
 30
0.0
 70
   128
 71
     4
 72
     2
 73
     8
  0
VERTEX
  5
16B2
  8
0
 10
0.0
 20
0.0
 30
0.0
 70
   128
 71
     9
 72
     1
 73
    10
  0
VERTEX
  5
16B3
  8
0
 10
0.0
 20
0.0
 30
0.0
 70
   128
 71
     3
 72
    11
 73
    12
  0
VERTEX
  5
16B4
  8
0
 10
0.0
 20
0.0
 30
0.0
 70
   128
 71
    10
 72
     1
 73
    -3
  0
VERTEX
  5
16B5
  8
0
 10
0.0
 20
0.0
 30
0.0
 70
   128
 71
    12
 72
   -10
 73
     3
  0
SEQEND
  5
179D
  8
0
  0
POLYLINE
  5
16B6
  8
0
 66
     1
 10
0.0
 20
0.0
 30
0.0
 70
    64
 71
    13
 72
    11
  0
VERTEX
  5
16B7
  8
0
 10
124.5097577013133
 20
49.42998112958238
 30
-83.89715997607323
 70
   192
  0
VERTEX
  5
16B8
  8
0
 10
125.0298910499344
 20
49.30456396589565
 30
-82.7521308491991
 70
   192
  0
VERTEX
  5
16B9
  8
0
 10
114.7467798327235
 20
31.99345741213582
 30
-87.35084732487876
 70
   192
  0
VERTEX
  5
16BA
  8
0
 10
124.2804737310071
 20
49.46599435197692
 30
-85.1395334205168
 70
   192
  0
VERTEX
  5
16BB
  8
0
 10
110.7822657905819
 20
30.40758016074362
 30
-93.40126085751007
 70
   192
  0
VERTEX
  5
16BC
  8
0
 10
124.3566890995264
 20
49.4103025900281
 30
-86.3998704833419
 70
   192
  0
VERTEX
  5
16BD
  8
0
 10
93.37624536554318
 20
30.42773268788559
 30
-110.8147246436326
 70
   192
  0
VERTEX
  5
16BE
  8
0
 10
99.67586972729876
 20
25.23622730880789
 30
-99.70667589501014
 70
   192
  0
VERTEX
  5
16BF
  8
0
 10
87.32713350071147
 20
32.02747003081095
 30
-114.7828733973617
 70
   192
  0
VERTEX
  5
16C0
  8
0
 10
85.13953342053637
 20
49.46599435198043
 30
-124.2804737309933
 70
   192
  0
VERTEX
  5
16C1
  8
0
 10
86.39987048336464
 20
49.41030259003778
 30
-124.3566890994907
 70
   192
  0
VERTEX
  5
16C2
  8
0
 10
83.89715997609416
 20
49.4299811295861
 30
-124.5097577013
 70
   192
  0
VERTEX
  5
16C3
  8
0
 10
82.7521308492213
 20
49.3045639658997
 30
-125.029891049921
 70
   192
  0
VERTEX
  5
16C4
  8
0
 10
0.0
 20
0.0
 30
0.0
 70
   128
 71
     1
 72
     2
 73
     3
  0
VERTEX
  5
16C5
  8
0
 10
0.0
 20
0.0
 30
0.0
 70
   128
 71
     3
 72
     4
 73
     1
  0
VERTEX
  5
16C6
  8
0
 10
0.0
 20
0.0
 30
0.0
 70
   128
 71
     3
 72
     5
 73
     4
  0
VERTEX
  5
16C7
  8
0
 10
0.0
 20
0.0
 30
0.0
 70
   128
 71
     5
 72
     6
 73
     4
  0
VERTEX
  5
16C8
  8
0
 10
0.0
 20
0.0
 30
0.0
 70
   128
 71
     7
 72
     8
 73
     9
  0
VERTEX
  5
16C9
  8
0
 10
0.0
 20
0.0
 30
0.0
 70
   128
 71
    10
 72
    11
 73
     7
  0
VERTEX
  5
16CA
  8
0
 10
0.0
 20
0.0
 30
0.0
 70
   128
 71
     7
 72
    12
 73
    10
  0
VERTEX
  5
16CB
  8
0
 10
0.0
 20
0.0
 30
0.0
 70
   128
 71
     7
 72
     9
 73
    12
  0
VERTEX
  5
16CC
  8
0
 10
0.0
 20
0.0
 30
0.0
 70
   128
 71
     9
 72
    13
 73
    12
  0
VERTEX
  5
16CD
  8
0
 10
0.0
 20
0.0
 30
0.0
 70
   128
 71
     5
 72
     3
 73
     8
  0
VERTEX
  5
16CE
  8
0
 10
0.0
 20
0.0
 30
0.0
 70
   128
 71
     5
 72
     8
 73
     7
  0
SEQEND
  5
179E
  8
0
  0
POLYLINE
  5
16CF
  8
0
 66
     1
 10
0.0
 20
0.0
 30
0.0
 70
    64
 71
     9
 72
     7
  0
VERTEX
  5
16D0
  8
0
 10
-38.63664361743499
 20
74.40100695590054
 30
-156.3856659664027
 70
   192
  0
VERTEX
  5
16D1
  8
0
 10
-36.47135802387965
 20
75.0
 30
-155.4147508967615
 70
   192
  0
VERTEX
  5
16D2
  8
0
 10
-36.47135802387965
 20
74.5174911124692
 30
-153.2717917163845
 70
   192
  0
VERTEX
  5
16D3
  8
0
 10
-36.47135802387965
 20
73.16309038049529
 30
-151.5424312760667
 70
   192
  0
VERTEX
  5
16D4
  8
0
 10
-36.47135802387965
 20
71.19820196026052
 30
-150.5604422886868
 70
   192
  0
VERTEX
  5
16D5
  8
0
 10
-39.44473302992274
 20
71.53156994100392
 30
-151.6981214305312
 70
   192
  0
VERTEX
  5
16D6
  8
0
 10
-40.28313280737898
 20
72.74754489035402
 30
-157.1239524867934
 70
   192
  0
VERTEX
  5
16D7
  8
0
 10
-41.19945162087671
 20
71.23721436519325
 30
-154.3590844946274
 70
   192
  0
VERTEX
  5
16D8
  8
0
 10
-41.01633136492712
 20
70.43577871373829
 30
-157.452719061827
 70
   192
  0
VERTEX
  5
16D9
  8
0
 10
0.0
 20
0.0
 30
0.0
 70
   128
 71
     1
 72
     2
 73
     3
  0
VERTEX
  5
16DA
  8
0
 10
0.0
 20
0.0
 30
0.0
 70
   128
 71
     3
 72
     4
 73
     1
  0
VERTEX
  5
16DB
  8
0
 10
0.0
 20
0.0
 30
0.0
 70
   128
 71
     1
 72
     4
 73
     5
  0
VERTEX
  5
16DC
  8
0
 10
0.0
 20
0.0
 30
0.0
 70
   128
 71
     1
 72
     5
 73
     6
  0
VERTEX
  5
16DD
  8
0
 10
0.0
 20
0.0
 30
0.0
 70
   128
 71
     7
 72
     1
 73
     6
  0
VERTEX
  5
16DE
  8
0
 10
0.0
 20
0.0
 30
0.0
 70
   128
 71
     7
 72
     6
 73
     8
  0
VERTEX
  5
16DF
  8
0
 10
0.0
 20
0.0
 30
0.0
 70
   128
 71
     8
 72
     9
 73
     7
  0
SEQEND
  5
179F
  8
0
  0
POLYLINE
  5
16E0
  8
0
 66
     1
 10
0.0
 20
0.0
 30
0.0
 70
    64
 71
    12
 72
    10
  0
VERTEX
  5
16E1
  8
0
 10
86.3998704833603
 20
49.41030259003151
 30
-124.3566890995114
 70
   192
  0
VERTEX
  5
16E2
  8
0
 10
86.65875250975094
 20
57.23864652507923
 30
-126.7030786356371
 70
   192
  0
VERTEX
  5
16E3
  8
0
 10
86.84480039677051
 20
65.21117484754959
 30
-129.0598527023516
 70
   192
  0
VERTEX
  5
16E4
  8
0
 10
87.00005952413251
 20
73.2822949879279
 30
-131.4087895534986
 70
   192
  0
VERTEX
  5
16E5
  8
0
 10
85.31165107079057
 20
72.74109036100289
 30
-130.7626699592545
 70
   192
  0
VERTEX
  5
16E6
  8
0
 10
83.70556422814484
 20
71.92978876193588
 30
-130.6670405176101
 70
   192
  0
VERTEX
  5
16E7
  8
0
 10
82.2780206134367
 20
70.948046978642
 30
-131.037872892469
 70
   192
  0
VERTEX
  5
16E8
  8
0
 10
82.58537377133385
 20
63.5779518535395
 30
-129.0964203764702
 70
   192
  0
VERTEX
  5
16E9
  8
0
 10
82.78176194528798
 20
56.36799888269562
 30
-127.0907692911742
 70
   192
  0
VERTEX
  5
16EA
  8
0
 10
82.75213084922132
 20
49.3045639658997
 30
-125.029891049921
 70
   192
  0
VERTEX
  5
16EB
  8
0
 10
83.89715997609416
 20
49.4299811295861
 30
-124.5097577013
 70
   192
  0
VERTEX
  5
16EC
  8
0
 10
85.13953342053637
 20
49.46599435198043
 30
-124.2804737309933
 70
   192
  0
VERTEX
  5
16ED
  8
0
 10
0.0
 20
0.0
 30
0.0
 70
   128
 71
     8
 72
     7
 73
     6
  0
VERTEX
  5
16EE
  8
0
 10
0.0
 20
0.0
 30
0.0
 70
   128
 71
     6
 72
     9
 73
     8
  0
VERTEX
  5
16EF
  8
0
 10
0.0
 20
0.0
 30
0.0
 70
   128
 71
     6
 72
    11
 73
    10
  0
VERTEX
  5
16F0
  8
0
 10
0.0
 20
0.0
 30
0.0
 70
   128
 71
     6
 72
    10
 73
     9
  0
VERTEX
  5
16F1
  8
0
 10
0.0
 20
0.0
 30
0.0
 70
   128
 71
     6
 72
     5
 73
    12
  0
VERTEX
  5
16F2
  8
0
 10
0.0
 20
0.0
 30
0.0
 70
   128
 71
     6
 72
    12
 73
    11
  0
VERTEX
  5
16F3
  8
0
 10
0.0
 20
0.0
 30
0.0
 70
   128
 71
     2
 72
     1
 73
    12
  0
VERTEX
  5
16F4
  8
0
 10
0.0
 20
0.0
 30
0.0
 70
   128
 71
    12
 72
     3
 73
     2
  0
VERTEX
  5
16F5
  8
0
 10
0.0
 20
0.0
 30
0.0
 70
   128
 71
    12
 72
     5
 73
     4
  0
VERTEX
  5
16F6
  8
0
 10
0.0
 20
0.0
 30
0.0
 70
   128
 71
    12
 72
     4
 73
     3
  0
SEQEND
  5
17A0
  8
0
  0
POLYLINE
  5
16F7
  8
0
 66
     1
 10
0.0
 20
0.0
 30
0.0
 70
    64
 71
    15
 72
    13
  0
VERTEX
  5
16F8
  8
0
 10
86.81790620973152
 20
74.97067036509438
 30
-133.319179397226
 70
   192
  0
VERTEX
  5
16F9
  8
0
 10
6.291625298084905
 20
75.0
 30
-159.5127587483736
 70
   192
  0
VERTEX
  5
16FA
  8
0
 10
48.59898836598374
 20
75.0
 30
-152.0593406608463
 70
   192
  0
VERTEX
  5
16FB
  8
0
 10
87.38696139115662
 20
75.0
 30
-133.5942503674048
 70
   192
  0
VERTEX
  5
16FC
  8
0
 10
86.2567111252161
 20
74.86601062273266
 30
-132.9594331430705
 70
   192
  0
VERTEX
  5
16FD
  8
0
 10
83.22865652989117
 20
72.44408881939279
 30
-131.0849208586419
 70
   192
  0
VERTEX
  5
16FE
  8
0
 10
82.2780206134367
 20
70.948046978642
 30
-131.037872892469
 70
   192
  0
VERTEX
  5
16FF
  8
0
 10
45.27436593555199
 20
70.948046978642
 30
-147.9554953267424
 70
   192
  0
VERTEX
  5
1700
  8
0
 10
5.14001884805155
 20
70.948046978642
 30
-154.6420932815177
 70
   192
  0
VERTEX
  5
1701
  8
0
 10
-35.5625091580031
 20
73.02901587470798
 30
-151.5418893487893
 70
   192
  0
VERTEX
  5
1702
  8
0
 10
-35.96421493013996
 20
74.48023879796266
 30
-153.2536710288014
 70
   192
  0
VERTEX
  5
1703
  8
0
 10
84.3951661677001
 20
73.73259176193856
 30
-131.5685187327041
 70
   192
  0
VERTEX
  5
1704
  8
0
 10
-36.47135802387965
 20
75.0
 30
-155.4147508967615
 70
   192
  0
VERTEX
  5
1705
  8
0
 10
85.7251726862922
 20
74.6664995097977
 30
-132.533282466308
 70
   192
  0
VERTEX
  5
1706
  8
0
 10
-35.34975713746564
 20
70.948046978642
 30
-150.6352929381762
 70
   192
  0
VERTEX
  5
1707
  8
0
 10
0.0
 20
0.0
 30
0.0
 70
   128
 71
     1
 72
     2
 73
     3
  0
VERTEX
  5
1708
  8
0
 10
0.0
 20
0.0
 30
0.0
 70
   128
 71
     3
 72
     4
 73
     1
  0
VERTEX
  5
1709
  8
0
 10
0.0
 20
0.0
 30
0.0
 70
   128
 71
     1
 72
     5
 73
     2
  0
VERTEX
  5
170A
  8
0
 10
0.0
 20
0.0
 30
0.0
 70
   128
 71
     6
 72
     7
 73
     8
  0
VERTEX
  5
170B
  8
0
 10
0.0
 20
0.0
 30
0.0
 70
   128
 71
     8
 72
     9
 73
     6
  0
VERTEX
  5
170C
  8
0
 10
0.0
 20
0.0
 30
0.0
 70
   128
 71
    10
 72
    11
 73
    12
  0
VERTEX
  5
170D
  8
0
 10
0.0
 20
0.0
 30
0.0
 70
   128
 71
    13
 72
     2
 73
    14
  0
VERTEX
  5
170E
  8
0
 10
0.0
 20
0.0
 30
0.0
 70
   128
 71
    11
 72
    13
 73
    14
  0
VERTEX
  5
170F
  8
0
 10
0.0
 20
0.0
 30
0.0
 70
   128
 71
    15
 72
    10
 73
     9
  0
VERTEX
  5
1710
  8
0
 10
0.0
 20
0.0
 30
0.0
 70
   128
 71
    14
 72
     2
 73
     5
  0
VERTEX
  5
1711
  8
0
 10
0.0
 20
0.0
 30
0.0
 70
   128
 71
    12
 72
    11
 73
    14
  0
VERTEX
  5
1712
  8
0
 10
0.0
 20
0.0
 30
0.0
 70
   128
 71
     9
 72
    10
 73
    12
  0
VERTEX
  5
1713
  8
0
 10
0.0
 20
0.0
 30
0.0
 70
   128
 71
     6
 72
     9
 73
    12
  0
SEQEND
  5
17A1
  8
0
  0
POLYLINE
  5
1714
  8
0
 66
     1
 10
0.0
 20
0.0
 30
0.0
 70
    64
 71
     9
 72
     7
  0
VERTEX
  5
1715
  8
0
 10
87.00005952413251
 20
73.28229498792788
 30
-131.4087895534987
 70
   192
  0
VERTEX
  5
1716
  8
0
 10
86.62896100030528
 20
73.9352500178673
 30
-131.5720150702581
 70
   192
  0
VERTEX
  5
1717
  8
0
 10
86.18199664141186
 20
74.42054021644132
 30
-131.9662526127096
 70
   192
  0
VERTEX
  5
1718
  8
0
 10
85.7251726862922
 20
74.6664995097977
 30
-132.533282466308
 70
   192
  0
VERTEX
  5
1719
  8
0
 10
84.3951661677001
 20
73.73259176193856
 30
-131.5685187327041
 70
   192
  0
VERTEX
  5
171A
  8
0
 10
83.22865652989117
 20
72.44408881939279
 30
-131.0849208586419
 70
   192
  0
VERTEX
  5
171B
  8
0
 10
82.2780206134367
 20
70.948046978642
 30
-131.037872892469
 70
   192
  0
VERTEX
  5
171C
  8
0
 10
83.70556422814484
 20
71.92978876193588
 30
-130.6670405176101
 70
   192
  0
VERTEX
  5
171D
  8
0
 10
85.31165107079057
 20
72.74109036100289
 30
-130.7626699592545
 70
   192
  0
VERTEX
  5
171E
  8
0
 10
0.0
 20
0.0
 30
0.0
 70
   128
 71
     8
 72
     7
 73
     6
  0
VERTEX
  5
171F
  8
0
 10
0.0
 20
0.0
 30
0.0
 70
   128
 71
     6
 72
     5
 73
     9
  0
VERTEX
  5
1720
  8
0
 10
0.0
 20
0.0
 30
0.0
 70
   128
 71
     6
 72
     9
 73
     8
  0
VERTEX
  5
1721
  8
0
 10
0.0
 20
0.0
 30
0.0
 70
   128
 71
     2
 72
     1
 73
     9
  0
VERTEX
  5
1722
  8
0
 10
0.0
 20
0.0
 30
0.0
 70
   128
 71
     9
 72
     3
 73
     2
  0
VERTEX
  5
1723
  8
0
 10
0.0
 20
0.0
 30
0.0
 70
   128
 71
     9
 72
     5
 73
     3
  0
VERTEX
  5
1724
  8
0
 10
0.0
 20
0.0
 30
0.0
 70
   128
 71
     5
 72
     4
 73
     3
  0
SEQEND
  5
17A2
  8
0
  0
POLYLINE
  5
1725
  8
0
 66
     1
 10
0.0
 20
0.0
 30
0.0
 70
    64
 71
    12
 72
    10
  0
VERTEX
  5
1726
  8
0
 10
87.00005952413251
 20
73.2822949879279
 30
-131.4087895534986
 70
   192
  0
VERTEX
  5
1727
  8
0
 10
87.18854906684787
 20
73.42690388111592
 30
-131.5345688384427
 70
   192
  0
VERTEX
  5
1728
  8
0
 10
87.40339851138145
 20
73.51999506506466
 30
-131.6317616872249
 70
   192
  0
VERTEX
  5
1729
  8
0
 10
87.64426372731046
 20
73.56389953991746
 30
-131.6927212940815
 70
   192
  0
VERTEX
  5
172A
  8
0
 10
87.58961386892105
 20
74.30994957926207
 30
-132.0965975127521
 70
   192
  0
VERTEX
  5
172B
  8
0
 10
87.49835011516393
 20
74.81932668294147
 30
-132.7710596404754
 70
   192
  0
VERTEX
  5
172C
  8
0
 10
87.38696139115669
 20
75.0
 30
-133.594250367405
 70
   192
  0
VERTEX
  5
172D
  8
0
 10
86.81790620973152
 20
74.97067036509438
 30
-133.319179397226
 70
   192
  0
VERTEX
  5
172E
  8
0
 10
86.2567111252161
 20
74.86601062273266
 30
-132.9594331430705
 70
   192
  0
VERTEX
  5
172F
  8
0
 10
85.72517268629221
 20
74.66649950979766
 30
-132.533282466308
 70
   192
  0
VERTEX
  5
1730
  8
0
 10
86.18199664141186
 20
74.42054021644132
 30
-131.9662526127096
 70
   192
  0
VERTEX
  5
1731
  8
0
 10
86.62896100030528
 20
73.9352500178673
 30
-131.5720150702581
 70
   192
  0
VERTEX
  5
1732
  8
0
 10
0.0
 20
0.0
 30
0.0
 70
   128
 71
     8
 72
     7
 73
     6
  0
VERTEX
  5
1733
  8
0
 10
0.0
 20
0.0
 30
0.0
 70
   128
 71
     8
 72
     6
 73
    11
  0
VERTEX
  5
1734
  8
0
 10
0.0
 20
0.0
 30
0.0
 70
   128
 71
    11
 72
     9
 73
     8
  0
VERTEX
  5
1735
  8
0
 10
0.0
 20
0.0
 30
0.0
 70
   128
 71
    11
 72
    10
 73
     9
  0
VERTEX
  5
1736
  8
0
 10
0.0
 20
0.0
 30
0.0
 70
   128
 71
     6
 72
     5
 73
    12
  0
VERTEX
  5
1737
  8
0
 10
0.0
 20
0.0
 30
0.0
 70
   128
 71
     6
 72
    12
 73
    11
  0
VERTEX
  5
1738
  8
0
 10
0.0
 20
0.0
 30
0.0
 70
   128
 71
     2
 72
     1
 73
    12
  0
VERTEX
  5
1739
  8
0
 10
0.0
 20
0.0
 30
0.0
 70
   128
 71
    12
 72
     3
 73
     2
  0
VERTEX
  5
173A
  8
0
 10
0.0
 20
0.0
 30
0.0
 70
   128
 71
    12
 72
     5
 73
     4
  0
VERTEX
  5
173B
  8
0
 10
0.0
 20
0.0
 30
0.0
 70
   128
 71
    12
 72
     4
 73
     3
  0
SEQEND
  5
17A3
  8
0
  0
ENDBLK
  5
173D
  8
0
  0
ENDSEC
  0
SECTION
  2
ENTITIES
  0
INSERT
  5
BE
  8
0
  2
*X1
 10
0.0
 20
0.0
 30
0.0
  0
ENDSEC
  0
EOF
