  0
SECTION
  2
HEADER
  9
$ACADVER
  1
AC1009
  9
$DWGCODEPAGE
  3
ansi_1250
  9
$INSBASE
 10
0.0
 20
0.0
 30
0.0
  9
$EXTMIN
 10
-161.0
 20
-102.0
 30
-239.0
  9
$EXTMAX
 10
239.0
 20
0.0000000000000568
 30
161.0
  9
$LIMMIN
 10
0.0
 20
0.0
  9
$LIMMAX
 10
420.0
 20
297.0
  9
$ORTHOMODE
 70
     0
  9
$REGENMODE
 70
     1
  9
$FILLMODE
 70
     1
  9
$QTEXTMODE
 70
     0
  9
$MIRRTEXT
 70
     0
  9
$DRAGMODE
 70
     2
  9
$LTSCALE
 40
1.0
  9
$OSMODE
 70
   511
  9
$ATTMODE
 70
     1
  9
$TEXTSIZE
 40
2.5
  9
$TRACEWID
 40
1.0
  9
$TEXTSTYLE
  7
STANDARD
  9
$CLAYER
  8
0
  9
$CELTYPE
  6
BYLAYER
  9
$CECOLOR
 62
   256
  9
$DIMSCALE
 40
1.0
  9
$DIMASZ
 40
2.5
  9
$DIMEXO
 40
0.625
  9
$DIMDLI
 40
3.75
  9
$DIMRND
 40
0.0
  9
$DIMDLE
 40
0.0
  9
$DIMEXE
 40
1.25
  9
$DIMTP
 40
0.0
  9
$DIMTM
 40
0.0
  9
$DIMTXT
 40
2.5
  9
$DIMCEN
 40
-2.5
  9
$DIMTSZ
 40
0.0
  9
$DIMTOL
 70
     0
  9
$DIMLIM
 70
     0
  9
$DIMTIH
 70
     0
  9
$DIMTOH
 70
     0
  9
$DIMSE1
 70
     0
  9
$DIMSE2
 70
     0
  9
$DIMTAD
 70
     1
  9
$DIMZIN
 70
     8
  9
$DIMBLK
  1

  9
$DIMASO
 70
     1
  9
$DIMSHO
 70
     1
  9
$DIMPOST
  1

  9
$DIMAPOST
  1

  9
$DIMALT
 70
     0
  9
$DIMALTD
 70
     3
  9
$DIMALTF
 40
0.03937007874016
  9
$DIMLFAC
 40
1.0
  9
$DIMTOFL
 70
     1
  9
$DIMTVP
 40
0.0
  9
$DIMTIX
 70
     0
  9
$DIMSOXD
 70
     0
  9
$DIMSAH
 70
     0
  9
$DIMBLK1
  1

  9
$DIMBLK2
  1

  9
$DIMSTYLE
  2
ISO-25
  9
$DIMCLRD
 70
     0
  9
$DIMCLRE
 70
     0
  9
$DIMCLRT
 70
     0
  9
$DIMTFAC
 40
1.0
  9
$DIMGAP
 40
0.625
  9
$LUNITS
 70
     2
  9
$LUPREC
 70
     3
  9
$SKETCHINC
 40
1.0
  9
$FILLETRAD
 40
10.0
  9
$AUNITS
 70
     0
  9
$AUPREC
 70
     0
  9
$MENU
  1
.
  9
$ELEVATION
 40
0.0
  9
$PELEVATION
 40
0.0
  9
$THICKNESS
 40
0.0
  9
$LIMCHECK
 70
     0
  9
$CHAMFERA
 40
10.0
  9
$CHAMFERB
 40
10.0
  9
$SKPOLY
 70
     0
  9
$TDCREATE
 40
2455022.720692848
  9
$TDUPDATE
 40
2460413.564630348
  9
$TDINDWG
 40
0.0002578935
  9
$TDUSRTIMER
 40
0.0002578935
  9
$USRTIMER
 70
     1
  9
$ANGBASE
 50
0.0
  9
$ANGDIR
 70
     0
  9
$PDMODE
 70
     0
  9
$PDSIZE
 40
0.0
  9
$PLINEWID
 40
0.0
  9
$COORDS
 70
     1
  9
$SPLFRAME
 70
     0
  9
$SPLINETYPE
 70
     6
  9
$SPLINESEGS
 70
     8
  9
$ATTDIA
 70
     0
  9
$ATTREQ
 70
     1
  9
$HANDLING
 70
     1
  9
$HANDSEED
  5
1754
  9
$SURFTAB1
 70
     6
  9
$SURFTAB2
 70
     6
  9
$SURFTYPE
 70
     6
  9
$SURFU
 70
     6
  9
$SURFV
 70
     6
  9
$UCSNAME
  2

  9
$UCSORG
 10
0.0
 20
0.0
 30
0.0
  9
$UCSXDIR
 10
1.0
 20
0.0
 30
0.0
  9
$UCSYDIR
 10
0.0
 20
1.0
 30
0.0
  9
$PUCSNAME
  2

  9
$PUCSORG
 10
0.0
 20
0.0
 30
0.0
  9
$PUCSXDIR
 10
1.0
 20
0.0
 30
0.0
  9
$PUCSYDIR
 10
0.0
 20
1.0
 30
0.0
  9
$USERI1
 70
     0
  9
$USERI2
 70
     0
  9
$USERI3
 70
     0
  9
$USERI4
 70
     0
  9
$USERI5
 70
     0
  9
$USERR1
 40
0.0
  9
$USERR2
 40
0.0
  9
$USERR3
 40
0.0
  9
$USERR4
 40
0.0
  9
$USERR5
 40
0.0
  9
$WORLDVIEW
 70
     1
  9
$SHADEDGE
 70
     3
  9
$SHADEDIF
 70
    70
  9
$TILEMODE
 70
     1
  9
$MAXACTVP
 70
    64
  9
$PLIMCHECK
 70
     0
  9
$PEXTMIN
 10
1.000000000000000E+20
 20
1.000000000000000E+20
 30
1.000000000000000E+20
  9
$PEXTMAX
 10
-1.000000000000000E+20
 20
-1.000000000000000E+20
 30
-1.000000000000000E+20
  9
$PLIMMIN
 10
0.0
 20
0.0
  9
$PLIMMAX
 10
0.0
 20
0.0
  9
$UNITMODE
 70
     0
  9
$VISRETAIN
 70
     1
  9
$PLINEGEN
 70
     0
  9
$PSLTSCALE
 70
     1
  0
ENDSEC
  0
SECTION
  2
TABLES
  0
TABLE
  2
VPORT
 70
     1
  0
VPORT
  2
*ACTIVE
 70
     0
 10
0.0
 20
0.0
 11
1.0
 21
1.0
 12
173.1869158878504
 22
-50.99999999999997
 13
0.0
 23
0.0
 14
10.0
 24
10.0
 15
10.0
 25
10.0
 16
0.0
 26
0.0
 36
1.0
 17
-134.1869158878504
 27
0.0
 37
0.0
 40
215.8260869565217
 41
1.89041095890411
 42
50.0
 43
0.0
 44
0.0
 50
0.0
 51
0.0
 71
    16
 72
  1000
 73
     1
 74
     3
 75
     0
 76
     0
 77
     0
 78
     0
  0
ENDTAB
  0
TABLE
  2
LTYPE
 70
     1
  0
LTYPE
  2
CONTINUOUS
 70
     0
  3
Solid line
 72
    65
 73
     0
 40
0.0
  0
ENDTAB
  0
TABLE
  2
LAYER
 70
     1
  0
LAYER
  2
0
 70
     0
 62
     7
  6
CONTINUOUS
  0
ENDTAB
  0
TABLE
  2
STYLE
 70
     2
  0
STYLE
  2
STANDARD
 70
     0
 40
0.0
 41
1.0
 50
0.0
 71
     0
 42
2.5
  3
arial.ttf
  4

  0
STYLE
  2
ANNOTATIVE
 70
     0
 40
0.0
 41
1.0
 50
0.0
 71
     0
 42
2.5
  3
arial.ttf
  4

  0
ENDTAB
  0
TABLE
  2
VIEW
 70
     0
  0
ENDTAB
  0
TABLE
  2
UCS
 70
     0
  0
ENDTAB
  0
TABLE
  2
APPID
 70
     2
  0
APPID
  2
ACAD
 70
     0
  0
APPID
  2
ACADANNOTATIVE
 70
     0
  0
ENDTAB
  0
TABLE
  2
DIMSTYLE
 70
     2
  0
DIMSTYLE
  2
ISO-25
 70
     0
  3

  4

  5

  6

  7

 40
1.0
 41
2.5
 42
0.625
 43
3.75
 44
1.25
 45
0.0
 46
0.0
 47
0.0
 48
0.0
140
2.5
141
-2.5
142
0.0
143
0.03937007874016
144
1.0
145
0.0
146
1.0
147
0.625
 71
     0
 72
     0
 73
     0
 74
     0
 75
     0
 76
     0
 77
     1
 78
     8
170
     0
171
     3
172
     1
173
     0
174
     0
175
     0
176
     0
177
     0
178
     0
  0
DIMSTYLE
  2
ANNOTATIVE
 70
     0
  3

  4

  5

  6

  7

 40
0.0
 41
2.5
 42
0.625
 43
3.75
 44
1.25
 45
0.0
 46
0.0
 47
0.0
 48
0.0
140
2.5
141
-2.5
142
0.0
143
0.03937007874016
144
1.0
145
0.0
146
1.0
147
0.625
 71
     0
 72
     0
 73
     0
 74
     0
 75
     0
 76
     0
 77
     1
 78
     8
170
     0
171
     3
172
     1
173
     0
174
     0
175
     0
176
     0
177
     0
178
     0
  0
ENDTAB
  0
ENDSEC
  0
SECTION
  2
BLOCKS
  0
BLOCK
  8
0
  2
$MODEL_SPACE
 70
     0
 10
0.0
 20
0.0
 30
0.0
  3
$MODEL_SPACE
  1

  0
ENDBLK
  5
21
  8
0
  0
BLOCK
 67
     1
  8
0
  2
$PAPER_SPACE
 70
     0
 10
0.0
 20
0.0
 30
0.0
  3
$PAPER_SPACE
  1

  0
ENDBLK
  5
1D
 67
     1
  8
0
  0
BLOCK
  8
0
  2
*X1
 70
     1
 10
0.0
 20
0.0
 30
0.0
  3
*X1
  1

  0
POLYLINE
  5
C11
  8
0
 66
     1
 10
0.0
 20
0.0
 30
0.0
 70
    64
 71
    15
 72
    13
  0
VERTEX
  5
C12
  8
0
 10
34.7956649695826
 20
-81.0650009380403
 30
3.9597095669674
 70
   192
  0
VERTEX
  5
C13
  8
0
 10
22.0
 20
-91.9991247258351
 30
0.0000000000000103
 70
   192
  0
VERTEX
  5
C14
  8
0
 10
19.05224738021465
 20
-91.99785565486188
 30
11.000762779769
 70
   192
  0
VERTEX
  5
C15
  8
0
 10
34.91862967153197
 20
-81.06449350673418
 30
2.738936429346394
 70
   192
  0
VERTEX
  5
C16
  8
0
 10
35.0014947325203
 20
-81.06418904795048
 30
1.418462451152564
 70
   192
  0
VERTEX
  5
C17
  8
0
 10
35.03186982552209
 20
-81.0640875616892
 30
0.0000000000000104
 70
   192
  0
VERTEX
  5
C18
  8
0
 10
11.00512596775094
 20
-91.99816544473069
 30
19.04940011569878
 70
   192
  0
VERTEX
  5
C19
  8
0
 10
0.0000000000014685
 20
-91.9991247258351
 30
22.0
 70
   192
  0
VERTEX
  5
C1A
  8
0
 10
22.56935501296119
 20
-81.08616657803752
 30
26.7990188383047
 70
   192
  0
VERTEX
  5
C1B
  8
0
 10
-10.99910521266499
 20
-91.99774452156353
 30
19.05333426635036
 70
   192
  0
VERTEX
  5
C1C
  8
0
 10
-2.01753677134384
 20
-81.06428793838238
 30
34.9701661995385
 70
   192
  0
VERTEX
  5
C1D
  8
0
 10
-22.0
 20
-91.9991247258351
 30
-0.000000000000013
 70
   192
  0
VERTEX
  5
C1E
  8
0
 10
-35.03186982552214
 20
-81.0640875616892
 30
-0.0000000000149238
 70
   192
  0
VERTEX
  5
C1F
  8
0
 10
-25.48355131900576
 20
-81.08672212008267
 30
24.04968826694703
 70
   192
  0
VERTEX
  5
C20
  8
0
 10
-19.04138581690252
 20
-91.99834680018398
 30
11.01887466356027
 70
   192
  0
VERTEX
  5
C21
  8
0
 10
0.0
 20
0.0
 30
0.0
 70
   128
 71
     1
 72
     2
 73
     3
  0
VERTEX
  5
C22
  8
0
 10
0.0
 20
0.0
 30
0.0
 70
   128
 71
     1
 72
     4
 73
     2
  0
VERTEX
  5
C23
  8
0
 10
0.0
 20
0.0
 30
0.0
 70
   128
 71
     4
 72
     5
 73
     2
  0
VERTEX
  5
C24
  8
0
 10
0.0
 20
0.0
 30
0.0
 70
   128
 71
     5
 72
     6
 73
     2
  0
VERTEX
  5
C25
  8
0
 10
0.0
 20
0.0
 30
0.0
 70
   128
 71
     7
 72
     8
 73
     9
  0
VERTEX
  5
C26
  8
0
 10
0.0
 20
0.0
 30
0.0
 70
   128
 71
     8
 72
    10
 73
    11
  0
VERTEX
  5
C27
  8
0
 10
0.0
 20
0.0
 30
0.0
 70
   128
 71
    12
 72
    13
 73
    14
  0
VERTEX
  5
C28
  8
0
 10
0.0
 20
0.0
 30
0.0
 70
   128
 71
    15
 72
    12
 73
    14
  0
VERTEX
  5
C29
  8
0
 10
0.0
 20
0.0
 30
0.0
 70
   128
 71
     9
 72
     1
 73
     3
  0
VERTEX
  5
C2A
  8
0
 10
0.0
 20
0.0
 30
0.0
 70
   128
 71
     7
 72
     9
 73
     3
  0
VERTEX
  5
C2B
  8
0
 10
0.0
 20
0.0
 30
0.0
 70
   128
 71
     8
 72
    11
 73
     9
  0
VERTEX
  5
C2C
  8
0
 10
0.0
 20
0.0
 30
0.0
 70
   128
 71
    14
 72
    11
 73
    10
  0
VERTEX
  5
C2D
  8
0
 10
0.0
 20
0.0
 30
0.0
 70
   128
 71
    15
 72
    14
 73
    10
  0
SEQEND
  5
16E3
  8
0
  0
POLYLINE
  5
C2E
  8
0
 66
     1
 10
0.0
 20
0.0
 30
0.0
 70
    64
 71
    29
 72
    27
  0
VERTEX
  5
C2F
  8
0
 10
153.5082269150365
 20
-15.90473940631001
 30
89.05139891308609
 70
   192
  0
VERTEX
  5
C30
  8
0
 10
140.4981691982304
 20
-15.32561521928275
 30
131.1120707441266
 70
   192
  0
VERTEX
  5
C31
  8
0
 10
138.3412035320769
 20
-15.92661395866177
 30
133.0663917539832
 70
   192
  0
VERTEX
  5
C32
  8
0
 10
135.9154181892076
 20
-17.24400256259663
 30
134.2003423973855
 70
   192
  0
VERTEX
  5
C33
  8
0
 10
132.2343523871783
 20
-49.2870862225165
 30
-0.0000000000054312
 70
   192
  0
VERTEX
  5
C34
  8
0
 10
155.8053424208865
 20
-16.2496916296019
 30
-0.0000000000017642
 70
   192
  0
VERTEX
  5
C35
  8
0
 10
155.3642188853706
 20
-16.1744595382186
 30
45.37327664585562
 70
   192
  0
VERTEX
  5
C36
  8
0
 10
63.0581151461795
 20
-89.12863475459353
 30
6.072928489233503
 70
   192
  0
VERTEX
  5
C37
  8
0
 10
63.33762112398581
 20
-89.10305692496591
 30
-0.0000000000025271
 70
   192
  0
VERTEX
  5
C38
  8
0
 10
100.7354685374691
 20
-74.05118569232228
 30
-0.0000000000052157
 70
   192
  0
VERTEX
  5
C39
  8
0
 10
-90.0256087245517
 20
-79.66063533084497
 30
0.0000000000004507
 70
   192
  0
VERTEX
  5
C3A
  8
0
 10
-63.3376211239859
 20
-89.1030569249661
 30
0.0000000000002191
 70
   192
  0
VERTEX
  5
C3B
  8
0
 10
-134.902796385645
 20
-45.09758300959598
 30
45.62362705454659
 70
   192
  0
VERTEX
  5
C3C
  8
0
 10
-114.1243156078497
 20
-65.25389527671548
 30
0.0000000000006065
 70
   192
  0
VERTEX
  5
C3D
  8
0
 10
-134.9422006037392
 20
-46.3757604388901
 30
0.0000000000005722
 70
   192
  0
VERTEX
  5
C3E
  8
0
 10
-134.828480270664
 20
-39.78775079422251
 30
90.21746817647517
 70
   192
  0
VERTEX
  5
C3F
  8
0
 10
-9.081051452699496
 20
-89.16409875148372
 30
62.71250903974857
 70
   192
  0
VERTEX
  5
C40
  8
0
 10
70.2282336438074
 20
-43.15054121950394
 30
134.8708979390419
 70
   192
  0
VERTEX
  5
C41
  8
0
 10
1.57245241312213
 20
-46.37283453276999
 30
134.9420780409054
 70
   192
  0
VERTEX
  5
C42
  8
0
 10
-67.10338504251054
 20
-43.49628654650341
 30
134.8758840928782
 70
   192
  0
VERTEX
  5
C43
  8
0
 10
133.5201215192532
 20
-18.97415592769725
 30
134.6164425345814
 70
   192
  0
VERTEX
  5
C44
  8
0
 10
62.2344657454946
 20
-89.21534986114521
 30
12.04981977649709
 70
   192
  0
VERTEX
  5
C45
  8
0
 10
34.48292852549295
 20
-89.95176583278115
 30
53.60053037702451
 70
   192
  0
VERTEX
  5
C46
  8
0
 10
60.862048986457
 20
-89.3635817164131
 30
17.96373490997915
 70
   192
  0
VERTEX
  5
C47
  8
0
 10
-134.1782568155887
 20
-19.99359867329548
 30
132.7546472928171
 70
   192
  0
VERTEX
  5
C48
  8
0
 10
-131.0100044283992
 20
-20.99711665541775
 30
134.640705449464
 70
   192
  0
VERTEX
  5
C49
  8
0
 10
-132.7493078002142
 20
-19.99545882442142
 30
134.1812082186404
 70
   192
  0
VERTEX
  5
C4A
  8
0
 10
-48.22926242088383
 20
-90.13656152261348
 30
41.80697920625823
 70
   192
  0
VERTEX
  5
C4B
  8
0
 10
-134.6407126362528
 20
-20.9971224265917
 30
131.0099977622542
 70
   192
  0
VERTEX
  5
C4C
  8
0
 10
0.0
 20
0.0
 30
0.0
 70
   128
 71
     1
 72
     2
 73
     3
  0
VERTEX
  5
C4D
  8
0
 10
0.0
 20
0.0
 30
0.0
 70
   128
 71
     1
 72
     3
 73
     4
  0
VERTEX
  5
C4E
  8
0
 10
0.0
 20
0.0
 30
0.0
 70
   128
 71
     5
 72
     6
 73
     7
  0
VERTEX
  5
C4F
  8
0
 10
0.0
 20
0.0
 30
0.0
 70
   128
 71
     8
 72
     9
 73
    10
  0
VERTEX
  5
C50
  8
0
 10
0.0
 20
0.0
 30
0.0
 70
   128
 71
    11
 72
    12
 73
    13
  0
VERTEX
  5
C51
  8
0
 10
0.0
 20
0.0
 30
0.0
 70
   128
 71
    13
 72
    14
 73
    11
  0
VERTEX
  5
C52
  8
0
 10
0.0
 20
0.0
 30
0.0
 70
   128
 71
    13
 72
    15
 73
    14
  0
VERTEX
  5
C53
  8
0
 10
0.0
 20
0.0
 30
0.0
 70
   128
 71
    12
 72
    16
 73
    13
  0
VERTEX
  5
C54
  8
0
 10
0.0
 20
0.0
 30
0.0
 70
   128
 71
    17
 72
    18
 73
    19
  0
VERTEX
  5
C55
  8
0
 10
0.0
 20
0.0
 30
0.0
 70
   128
 71
    20
 72
    17
 73
    19
  0
VERTEX
  5
C56
  8
0
 10
0.0
 20
0.0
 30
0.0
 70
   128
 71
    10
 72
     5
 73
     7
  0
VERTEX
  5
C57
  8
0
 10
0.0
 20
0.0
 30
0.0
 70
   128
 71
    10
 72
     7
 73
     1
  0
VERTEX
  5
C58
  8
0
 10
0.0
 20
0.0
 30
0.0
 70
   128
 71
    10
 72
     1
 73
     4
  0
VERTEX
  5
C59
  8
0
 10
0.0
 20
0.0
 30
0.0
 70
   128
 71
    10
 72
     4
 73
    21
  0
VERTEX
  5
C5A
  8
0
 10
0.0
 20
0.0
 30
0.0
 70
   128
 71
    10
 72
    21
 73
    22
  0
VERTEX
  5
C5B
  8
0
 10
0.0
 20
0.0
 30
0.0
 70
   128
 71
    22
 72
     8
 73
    10
  0
VERTEX
  5
C5C
  8
0
 10
0.0
 20
0.0
 30
0.0
 70
   128
 71
    21
 72
    18
 73
    17
  0
VERTEX
  5
C5D
  8
0
 10
0.0
 20
0.0
 30
0.0
 70
   128
 71
    21
 72
    17
 73
    23
  0
VERTEX
  5
C5E
  8
0
 10
0.0
 20
0.0
 30
0.0
 70
   128
 71
    21
 72
    23
 73
    24
  0
VERTEX
  5
C5F
  8
0
 10
0.0
 20
0.0
 30
0.0
 70
   128
 71
    21
 72
    24
 73
    22
  0
VERTEX
  5
C60
  8
0
 10
0.0
 20
0.0
 30
0.0
 70
   128
 71
    25
 72
    26
 73
    27
  0
VERTEX
  5
C61
  8
0
 10
0.0
 20
0.0
 30
0.0
 70
   128
 71
    16
 72
    12
 73
    28
  0
VERTEX
  5
C62
  8
0
 10
0.0
 20
0.0
 30
0.0
 70
   128
 71
    16
 72
    28
 73
    17
  0
VERTEX
  5
C63
  8
0
 10
0.0
 20
0.0
 30
0.0
 70
   128
 71
    16
 72
    17
 73
    20
  0
VERTEX
  5
C64
  8
0
 10
0.0
 20
0.0
 30
0.0
 70
   128
 71
    20
 72
    26
 73
    29
  0
VERTEX
  5
C65
  8
0
 10
0.0
 20
0.0
 30
0.0
 70
   128
 71
    20
 72
    29
 73
    16
  0
VERTEX
  5
C66
  8
0
 10
0.0
 20
0.0
 30
0.0
 70
   128
 71
    26
 72
    25
 73
    29
  0
SEQEND
  5
16E4
  8
0
  0
POLYLINE
  5
C67
  8
0
 66
     1
 10
0.0
 20
0.0
 30
0.0
 70
    64
 71
    27
 72
    28
  0
VERTEX
  5
C68
  8
0
 10
-83.85209348287532
 20
-68.19626222420854
 30
0.0000000000000383
 70
   192
  0
VERTEX
  5
C69
  8
0
 10
-37.9216177902786
 20
-79.90483076744259
 30
-0.000000000000011
 70
   192
  0
VERTEX
  5
C6A
  8
0
 10
-37.89035079434858
 20
-79.90491392970212
 30
-1.505298761330625
 70
   192
  0
VERTEX
  5
C6B
  8
0
 10
-133.86573733797
 20
-1.261351710660265
 30
-130.211648784445
 70
   192
  0
VERTEX
  5
C6C
  8
0
 10
-145.1291127508833
 20
-1.537531592662849
 30
-101.4085327279009
 70
   192
  0
VERTEX
  5
C6D
  8
0
 10
-87.18371321468072
 20
-56.3601289489936
 30
-87.18372441129186
 70
   192
  0
VERTEX
  5
C6E
  8
0
 10
-147.9874559548466
 20
-1.78856948179742
 30
-39.28857302299655
 70
   192
  0
VERTEX
  5
C6F
  8
0
 10
-121.9341923010885
 20
-41.2385959774555
 30
0.0000000000000516
 70
   192
  0
VERTEX
  5
C70
  8
0
 10
-148.0830053507283
 20
-1.806777560410664
 30
-25.53388958512578
 70
   192
  0
VERTEX
  5
C71
  8
0
 10
-148.1817606020923
 20
-1.817701633464451
 30
-12.26199560603279
 70
   192
  0
VERTEX
  5
C72
  8
0
 10
-148.2381908663642
 20
-1.82134285490609
 30
0.0000000000000036
 70
   192
  0
VERTEX
  5
C73
  8
0
 10
-0.0000000000099279
 20
-56.36012894899367
 30
-104.2454956827698
 70
   192
  0
VERTEX
  5
C74
  8
0
 10
-106.4389785189309
 20
-1.49260499340853
 30
-144.2248432863069
 70
   192
  0
VERTEX
  5
C75
  8
0
 10
112.7409135158804
 20
-1.428522967510894
 30
-142.6945196907857
 70
   192
  0
VERTEX
  5
C76
  8
0
 10
81.63041910698175
 20
-1.665459065447604
 30
-147.0740884474187
 70
   192
  0
VERTEX
  5
C77
  8
0
 10
87.1837244112868
 20
-56.36012894899356
 30
-87.18371321468062
 70
   192
  0
VERTEX
  5
C78
  8
0
 10
18.8963586464407
 20
-1.81294128482535
 30
-148.1313515753168
 70
   192
  0
VERTEX
  5
C79
  8
0
 10
27.61702268040895
 20
-79.9232181795957
 30
-26.10688467196864
 70
   192
  0
VERTEX
  5
C7A
  8
0
 10
37.92161779027995
 20
-79.9048307674428
 30
-0.0000000000000401
 70
   192
  0
VERTEX
  5
C7B
  8
0
 10
83.85209348287464
 20
-68.19626222420823
 30
-0.0000000000037949
 70
   192
  0
VERTEX
  5
C7C
  8
0
 10
121.9341923010872
 20
-41.23859597745514
 30
-0.0000000000043157
 70
   192
  0
VERTEX
  5
C7D
  8
0
 10
148.2381908663642
 20
-1.821342854905935
 30
0.0000000000000095
 70
   192
  0
VERTEX
  5
C7E
  8
0
 10
137.7278243889097
 20
-1.298710107696808
 30
-124.765446473346
 70
   192
  0
VERTEX
  5
C7F
  8
0
 10
-37.80270715150099
 20
-79.90516326604535
 30
-2.941074396173672
 70
   192
  0
VERTEX
  5
C80
  8
0
 10
-37.6679228785821
 20
-79.9055785508571
 30
-4.303753674839496
 70
   192
  0
VERTEX
  5
C81
  8
0
 10
-24.46940120216054
 20
-79.9227411303088
 30
-29.07089554055257
 70
   192
  0
VERTEX
  5
C82
  8
0
 10
2.166303590202775
 20
-79.90500241276409
 30
-37.85688125522559
 70
   192
  0
VERTEX
  5
C83
  8
0
 10
0.0
 20
0.0
 30
0.0
 70
   128
 71
     1
 72
     2
 73
     3
  0
VERTEX
  5
C84
  8
0
 10
0.0
 20
0.0
 30
0.0
 70
   128
 71
     4
 72
     5
 73
     6
  0
VERTEX
  5
C85
  8
0
 10
0.0
 20
0.0
 30
0.0
 70
   128
 71
     6
 72
     5
 73
     7
  0
VERTEX
  5
C86
  8
0
 10
0.0
 20
0.0
 30
0.0
 70
   128
 71
     8
 72
     6
 73
     7
  0
VERTEX
  5
C87
  8
0
 10
0.0
 20
0.0
 30
0.0
 70
   128
 71
     7
 72
     9
 73
     8
  0
VERTEX
  5
C88
  8
0
 10
0.0
 20
0.0
 30
0.0
 70
   128
 71
     9
 72
    10
 73
     8
  0
VERTEX
  5
C89
  8
0
 10
0.0
 20
0.0
 30
0.0
 70
   128
 71
    10
 72
    11
 73
     8
  0
VERTEX
  5
C8A
  8
0
 10
0.0
 20
0.0
 30
0.0
 70
   128
 71
     6
 72
    12
 73
    13
  0
VERTEX
  5
C8B
  8
0
 10
0.0
 20
0.0
 30
0.0
 70
   128
 71
    14
 72
    15
 73
    16
  0
VERTEX
  5
C8C
  8
0
 10
0.0
 20
0.0
 30
0.0
 70
   128
 71
    16
 72
    15
 73
    17
  0
VERTEX
  5
C8D
  8
0
 10
0.0
 20
0.0
 30
0.0
 70
   128
 71
    12
 72
    16
 73
    17
  0
VERTEX
  5
C8E
  8
0
 10
0.0
 20
0.0
 30
0.0
 70
   128
 71
    18
 72
    19
 73
    20
  0
VERTEX
  5
C8F
  8
0
 10
0.0
 20
0.0
 30
0.0
 70
   128
 71
    16
 72
    18
 73
    20
  0
VERTEX
  5
C90
  8
0
 10
0.0
 20
0.0
 30
0.0
 70
   128
 71
    21
 72
    22
 73
    23
  0
VERTEX
  5
C91
  8
0
 10
0.0
 20
0.0
 30
0.0
 70
   128
 71
     6
 72
     8
 73
     1
  0
VERTEX
  5
C92
  8
0
 10
0.0
 20
0.0
 30
0.0
 70
   128
 71
     3
 72
    24
 73
     6
  0
VERTEX
  5
C93
  8
0
 10
0.0
 20
0.0
 30
0.0
 70
   128
 71
     1
 72
     3
 73
     6
  0
VERTEX
  5
C94
  8
0
 10
0.0
 20
0.0
 30
0.0
 70
   128
 71
    24
 72
    25
 73
     6
  0
VERTEX
  5
C95
  8
0
 10
0.0
 20
0.0
 30
0.0
 70
   128
 71
    21
 72
    16
 73
    20
  0
VERTEX
  5
C96
  8
0
 10
0.0
 20
0.0
 30
0.0
 70
   128
 71
     6
 72
    25
 73
    26
  0
VERTEX
  5
C97
  8
0
 10
0.0
 20
0.0
 30
0.0
 70
   128
 71
     4
 72
     6
 73
    13
  0
VERTEX
  5
C98
  8
0
 10
0.0
 20
0.0
 30
0.0
 70
   128
 71
     6
 72
    26
 73
    27
  0
VERTEX
  5
C99
  8
0
 10
0.0
 20
0.0
 30
0.0
 70
   128
 71
    12
 72
     6
 73
    27
  0
VERTEX
  5
C9A
  8
0
 10
0.0
 20
0.0
 30
0.0
 70
   128
 71
    13
 72
    12
 73
    17
  0
VERTEX
  5
C9B
  8
0
 10
0.0
 20
0.0
 30
0.0
 70
   128
 71
    12
 72
    27
 73
    18
  0
VERTEX
  5
C9C
  8
0
 10
0.0
 20
0.0
 30
0.0
 70
   128
 71
    16
 72
    12
 73
    18
  0
VERTEX
  5
C9D
  8
0
 10
0.0
 20
0.0
 30
0.0
 70
   128
 71
    16
 72
    21
 73
    23
  0
VERTEX
  5
C9E
  8
0
 10
0.0
 20
0.0
 30
0.0
 70
   128
 71
    14
 72
    16
 73
    23
  0
SEQEND
  5
16E5
  8
0
  0
POLYLINE
  5
C9F
  8
0
 66
     1
 10
0.0
 20
0.0
 30
0.0
 70
    64
 71
    19
 72
    17
  0
VERTEX
  5
CA0
  8
0
 10
57.46919822092029
 20
-90.94084386805733
 30
16.90657949065744
 70
   192
  0
VERTEX
  5
CA1
  8
0
 10
60.862048986457
 20
-89.36358171641304
 30
17.96373490997913
 70
   192
  0
VERTEX
  5
CA2
  8
0
 10
34.48292852549295
 20
-89.95176583278115
 30
53.60053037702451
 70
   192
  0
VERTEX
  5
CA3
  8
0
 10
54.92210820035376
 20
-93.75341085175037
 30
16.05889489000457
 70
   192
  0
VERTEX
  5
CA4
  8
0
 10
42.06793574173597
 20
-98.25789979419162
 30
36.44593035942206
 70
   192
  0
VERTEX
  5
CA5
  8
0
 10
53.6058166595821
 20
-97.37611339129859
 30
15.54882363767035
 70
   192
  0
VERTEX
  5
CA6
  8
0
 10
-54.92202993881314
 20
-93.7534192638799
 30
-16.0591600110564
 70
   192
  0
VERTEX
  5
CA7
  8
0
 10
-53.60574028997433
 20
-97.37612342746614
 30
-15.54908057323994
 70
   192
  0
VERTEX
  5
CA8
  8
0
 10
-62.23666894604428
 20
-89.2151308620858
 30
-12.03701839338125
 70
   192
  0
VERTEX
  5
CA9
  8
0
 10
-57.46911759424979
 20
-90.94085171284812
 30
-16.90685876403038
 70
   192
  0
VERTEX
  5
CAA
  8
0
 10
-60.8619654934443
 20
-89.3635905620546
 30
-17.96403203484135
 70
   192
  0
VERTEX
  5
CAB
  8
0
 10
-63.06111138519093
 20
-89.12831606519549
 30
-6.042042173454503
 70
   192
  0
VERTEX
  5
CAC
  8
0
 10
-63.3376211239859
 20
-89.1030569249661
 30
0.0000000000002191
 70
   192
  0
VERTEX
  5
CAD
  8
0
 10
-9.081051452699496
 20
-89.16409875148372
 30
62.71250903974857
 70
   192
  0
VERTEX
  5
CAE
  8
0
 10
0.000000000000003
 20
-97.0797075669255
 30
55.8675803089267
 70
   192
  0
VERTEX
  5
CAF
  8
0
 10
23.77517134261988
 20
-97.75176212854589
 30
50.42521909302292
 70
   192
  0
VERTEX
  5
CB0
  8
0
 10
-32.2618725239468
 20
-98.13991644926955
 30
45.38176862280014
 70
   192
  0
VERTEX
  5
CB1
  8
0
 10
-48.22926242088383
 20
-90.13656152261348
 30
41.80697920625823
 70
   192
  0
VERTEX
  5
CB2
  8
0
 10
-52.82072692562964
 20
-97.47750031801843
 30
17.98125583382839
 70
   192
  0
VERTEX
  5
CB3
  8
0
 10
0.0
 20
0.0
 30
0.0
 70
   128
 71
     1
 72
     2
 73
     3
  0
VERTEX
  5
CB4
  8
0
 10
0.0
 20
0.0
 30
0.0
 70
   128
 71
     3
 72
     4
 73
     1
  0
VERTEX
  5
CB5
  8
0
 10
0.0
 20
0.0
 30
0.0
 70
   128
 71
     3
 72
     5
 73
     4
  0
VERTEX
  5
CB6
  8
0
 10
0.0
 20
0.0
 30
0.0
 70
   128
 71
     5
 72
     6
 73
     4
  0
VERTEX
  5
CB7
  8
0
 10
0.0
 20
0.0
 30
0.0
 70
   128
 71
     7
 72
     8
 73
     9
  0
VERTEX
  5
CB8
  8
0
 10
0.0
 20
0.0
 30
0.0
 70
   128
 71
     9
 72
    10
 73
     7
  0
VERTEX
  5
CB9
  8
0
 10
0.0
 20
0.0
 30
0.0
 70
   128
 71
     9
 72
    11
 73
    10
  0
VERTEX
  5
CBA
  8
0
 10
0.0
 20
0.0
 30
0.0
 70
   128
 71
     8
 72
    12
 73
     9
  0
VERTEX
  5
CBB
  8
0
 10
0.0
 20
0.0
 30
0.0
 70
   128
 71
     8
 72
    13
 73
    12
  0
VERTEX
  5
CBC
  8
0
 10
0.0
 20
0.0
 30
0.0
 70
   128
 71
     3
 72
    14
 73
    15
  0
VERTEX
  5
CBD
  8
0
 10
0.0
 20
0.0
 30
0.0
 70
   128
 71
     3
 72
    15
 73
    16
  0
VERTEX
  5
CBE
  8
0
 10
0.0
 20
0.0
 30
0.0
 70
   128
 71
     3
 72
    16
 73
     5
  0
VERTEX
  5
CBF
  8
0
 10
0.0
 20
0.0
 30
0.0
 70
   128
 71
    14
 72
    17
 73
    15
  0
VERTEX
  5
CC0
  8
0
 10
0.0
 20
0.0
 30
0.0
 70
   128
 71
    14
 72
    18
 73
    17
  0
VERTEX
  5
CC1
  8
0
 10
0.0
 20
0.0
 30
0.0
 70
   128
 71
    19
 72
    17
 73
    18
  0
VERTEX
  5
CC2
  8
0
 10
0.0
 20
0.0
 30
0.0
 70
   128
 71
    19
 72
    18
 73
    13
  0
VERTEX
  5
CC3
  8
0
 10
0.0
 20
0.0
 30
0.0
 70
   128
 71
    13
 72
     8
 73
    19
  0
SEQEND
  5
16E6
  8
0
  0
POLYLINE
  5
CC4
  8
0
 66
     1
 10
0.0
 20
0.0
 30
0.0
 70
    64
 71
    12
 72
    10
  0
VERTEX
  5
CC5
  8
0
 10
0.0000000000014685
 20
-91.9991247258351
 30
22.0
 70
   192
  0
VERTEX
  5
CC6
  8
0
 10
0.0000000000000027
 20
-102.0
 30
22.0
 70
   192
  0
VERTEX
  5
CC7
  8
0
 10
-15.55634918610404
 20
-102.0
 30
15.55634918610405
 70
   192
  0
VERTEX
  5
CC8
  8
0
 10
-10.99910521266499
 20
-91.99774452156353
 30
19.05333426635036
 70
   192
  0
VERTEX
  5
CC9
  8
0
 10
-22.0
 20
-102.0
 30
0.0000000000000024
 70
   192
  0
VERTEX
  5
CCA
  8
0
 10
-22.0
 20
-91.9991247258351
 30
-0.000000000000013
 70
   192
  0
VERTEX
  5
CCB
  8
0
 10
-19.04138581690252
 20
-91.99834680018398
 30
11.01887466356027
 70
   192
  0
VERTEX
  5
CCC
  8
0
 10
-15.55634918610405
 20
-102.0
 30
-15.55634918610404
 70
   192
  0
VERTEX
  5
CCD
  8
0
 10
-19.04890957466451
 20
-91.99781873127012
 30
-11.00676754081919
 70
   192
  0
VERTEX
  5
CCE
  8
0
 10
-0.0000000000000024
 20
-102.0
 30
-22.0
 70
   192
  0
VERTEX
  5
CCF
  8
0
 10
0.0
 20
-91.999124725835
 30
-22.0
 70
   192
  0
VERTEX
  5
CD0
  8
0
 10
-11.00067446289442
 20
-91.99816958038008
 30
-19.05190613740064
 70
   192
  0
VERTEX
  5
CD1
  8
0
 10
0.0
 20
0.0
 30
0.0
 70
   128
 71
     1
 72
     2
 73
     3
  0
VERTEX
  5
CD2
  8
0
 10
0.0
 20
0.0
 30
0.0
 70
   128
 71
     4
 72
     1
 73
     3
  0
VERTEX
  5
CD3
  8
0
 10
0.0
 20
0.0
 30
0.0
 70
   128
 71
     5
 72
     6
 73
     7
  0
VERTEX
  5
CD4
  8
0
 10
0.0
 20
0.0
 30
0.0
 70
   128
 71
     3
 72
     5
 73
     7
  0
VERTEX
  5
CD5
  8
0
 10
0.0
 20
0.0
 30
0.0
 70
   128
 71
     6
 72
     5
 73
     8
  0
VERTEX
  5
CD6
  8
0
 10
0.0
 20
0.0
 30
0.0
 70
   128
 71
     9
 72
     6
 73
     8
  0
VERTEX
  5
CD7
  8
0
 10
0.0
 20
0.0
 30
0.0
 70
   128
 71
    10
 72
    11
 73
    12
  0
VERTEX
  5
CD8
  8
0
 10
0.0
 20
0.0
 30
0.0
 70
   128
 71
     8
 72
    10
 73
    12
  0
VERTEX
  5
CD9
  8
0
 10
0.0
 20
0.0
 30
0.0
 70
   128
 71
     3
 72
     7
 73
     4
  0
VERTEX
  5
CDA
  8
0
 10
0.0
 20
0.0
 30
0.0
 70
   128
 71
     8
 72
    12
 73
     9
  0
SEQEND
  5
16E7
  8
0
  0
POLYLINE
  5
CDB
  8
0
 66
     1
 10
0.0
 20
0.0
 30
0.0
 70
    64
 71
    12
 72
    10
  0
VERTEX
  5
CDC
  8
0
 10
-159.2887943712595
 20
-1.965095187125415
 30
156.2892512857905
 70
   192
  0
VERTEX
  5
CDD
  8
0
 10
-159.1787802385488
 20
-1.957002368570732
 30
157.0930068037587
 70
   192
  0
VERTEX
  5
CDE
  8
0
 10
-158.8722447038648
 20
-1.952187246874042
 30
157.8134629481632
 70
   192
  0
VERTEX
  5
CDF
  8
0
 10
-158.4100517196805
 20
-1.95064465615391
 30
158.4100517196805
 70
   192
  0
VERTEX
  5
CE0
  8
0
 10
-158.2092141159
 20
-0.9716384267198304
 30
158.2092141159
 70
   192
  0
VERTEX
  5
CE1
  8
0
 10
-157.693276168691
 20
-0.259781170863804
 30
157.693276168691
 70
   192
  0
VERTEX
  5
CE2
  8
0
 10
-156.9962688420725
 20
-0.0000000000000067
 30
156.9962688420725
 70
   192
  0
VERTEX
  5
CE3
  8
0
 10
-157.1543968460638
 20
-0.0000000000000017
 30
156.7905091892515
 70
   192
  0
VERTEX
  5
CE4
  8
0
 10
-157.2554234472261
 20
-0.0000000000000012
 30
156.5465876415998
 70
   192
  0
VERTEX
  5
CE5
  8
0
 10
-157.289098980947
 20
0.0
 30
156.2892512857905
 70
   192
  0
VERTEX
  5
CE6
  8
0
 10
-158.2790054515131
 20
-0.2621607728183344
 30
156.2892512857905
 70
   192
  0
VERTEX
  5
CE7
  8
0
 10
-159.0093972767377
 20
-0.9799148204686359
 30
156.2892512857905
 70
   192
  0
VERTEX
  5
CE8
  8
0
 10
0.0
 20
0.0
 30
0.0
 70
   128
 71
     6
 72
     7
 73
     8
  0
VERTEX
  5
CE9
  8
0
 10
0.0
 20
0.0
 30
0.0
 70
   128
 71
     9
 72
    11
 73
     6
  0
VERTEX
  5
CEA
  8
0
 10
0.0
 20
0.0
 30
0.0
 70
   128
 71
     8
 72
     9
 73
     6
  0
VERTEX
  5
CEB
  8
0
 10
0.0
 20
0.0
 30
0.0
 70
   128
 71
     9
 72
    10
 73
    11
  0
VERTEX
  5
CEC
  8
0
 10
0.0
 20
0.0
 30
0.0
 70
   128
 71
    12
 72
     5
 73
     6
  0
VERTEX
  5
CED
  8
0
 10
0.0
 20
0.0
 30
0.0
 70
   128
 71
    11
 72
    12
 73
     6
  0
VERTEX
  5
CEE
  8
0
 10
0.0
 20
0.0
 30
0.0
 70
   128
 71
    12
 72
     1
 73
     2
  0
VERTEX
  5
CEF
  8
0
 10
0.0
 20
0.0
 30
0.0
 70
   128
 71
     3
 72
     5
 73
    12
  0
VERTEX
  5
CF0
  8
0
 10
0.0
 20
0.0
 30
0.0
 70
   128
 71
     2
 72
     3
 73
    12
  0
VERTEX
  5
CF1
  8
0
 10
0.0
 20
0.0
 30
0.0
 70
   128
 71
     3
 72
     4
 73
     5
  0
SEQEND
  5
16E8
  8
0
  0
POLYLINE
  5
CF2
  8
0
 66
     1
 10
0.0
 20
0.0
 30
0.0
 70
    64
 71
    25
 72
    23
  0
VERTEX
  5
CF3
  8
0
 10
-38.79110377465061
 20
0.0000000000000117
 30
150.7358843951382
 70
   192
  0
VERTEX
  5
CF4
  8
0
 10
98.21416532519348
 20
-0.0000000000000013
 30
148.2504859835689
 70
   192
  0
VERTEX
  5
CF5
  8
0
 10
-19.15717922438909
 20
-1.812728206394011
 30
148.1293902571852
 70
   192
  0
VERTEX
  5
CF6
  8
0
 10
130.2946914134593
 20
0.0000000000000104
 30
136.9562100510655
 70
   192
  0
VERTEX
  5
CF7
  8
0
 10
133.6433174381985
 20
-1.260507036757933
 30
130.4680169799754
 70
   192
  0
VERTEX
  5
CF8
  8
0
 10
105.9263981061411
 20
-1.497442659874773
 30
144.3282112278867
 70
   192
  0
VERTEX
  5
CF9
  8
0
 10
146.7004535799205
 20
0.0000000000000091
 30
107.2684697243949
 70
   192
  0
VERTEX
  5
CFA
  8
0
 10
150.7371457277765
 20
-0.0000000000000039
 30
38.6263066304244
 70
   192
  0
VERTEX
  5
CFB
  8
0
 10
149.6100309037614
 20
-0.2197953585206367
 30
38.61768543664781
 70
   192
  0
VERTEX
  5
CFC
  8
0
 10
145.1285911555238
 20
-1.537503841813675
 30
101.4118475012283
 70
   192
  0
VERTEX
  5
CFD
  8
0
 10
148.6480724843053
 20
-0.8469747676643995
 30
38.61032750845597
 70
   192
  0
VERTEX
  5
CFE
  8
0
 10
147.9922264665322
 20
-1.789637478704947
 30
38.60531100482538
 70
   192
  0
VERTEX
  5
CFF
  8
0
 10
-148.2381908663642
 20
-1.82134285490609
 30
0.0000000000000036
 70
   192
  0
VERTEX
  5
D00
  8
0
 10
-148.1817606020923
 20
-1.817701633464451
 30
-12.26199560603279
 70
   192
  0
VERTEX
  5
D01
  8
0
 10
-148.6433891336328
 20
-0.8464329139728184
 30
-39.29362178270271
 70
   192
  0
VERTEX
  5
D02
  8
0
 10
-148.0830053507283
 20
-1.806777560410664
 30
-25.53388958512578
 70
   192
  0
VERTEX
  5
D03
  8
0
 10
-147.9874559548466
 20
-1.78856948179742
 30
-39.28857302299655
 70
   192
  0
VERTEX
  5
D04
  8
0
 10
-149.605149238788
 20
-0.2196491895732287
 30
-39.30102451185709
 70
   192
  0
VERTEX
  5
D05
  8
0
 10
-150.7319030518715
 20
0.0
 30
-39.3096972081534
 70
   192
  0
VERTEX
  5
D06
  8
0
 10
-148.241142684445
 20
-0.0000000000000104
 30
98.28315615747726
 70
   192
  0
VERTEX
  5
D07
  8
0
 10
-137.785265748347
 20
-1.29963446383865
 30
124.666782176879
 70
   192
  0
VERTEX
  5
D08
  8
0
 10
-136.8330616359569
 20
-0.0000000000000091
 30
130.4523393448674
 70
   192
  0
VERTEX
  5
D09
  8
0
 10
-107.1975891640429
 20
-0.0000000000000117
 30
146.7155383450184
 70
   192
  0
VERTEX
  5
D0A
  8
0
 10
-112.8766589847483
 20
-1.427062173862065
 30
142.6554882587938
 70
   192
  0
VERTEX
  5
D0B
  8
0
 10
-81.81220517808273
 20
-1.664575286259836
 30
147.0638962695657
 70
   192
  0
VERTEX
  5
D0C
  8
0
 10
0.0
 20
0.0
 30
0.0
 70
   128
 71
     1
 72
     2
 73
     3
  0
VERTEX
  5
D0D
  8
0
 10
0.0
 20
0.0
 30
0.0
 70
   128
 71
     4
 72
     5
 73
     6
  0
VERTEX
  5
D0E
  8
0
 10
0.0
 20
0.0
 30
0.0
 70
   128
 71
     2
 72
     4
 73
     6
  0
VERTEX
  5
D0F
  8
0
 10
0.0
 20
0.0
 30
0.0
 70
   128
 71
     4
 72
     7
 73
     5
  0
VERTEX
  5
D10
  8
0
 10
0.0
 20
0.0
 30
0.0
 70
   128
 71
     7
 72
     8
 73
     9
  0
VERTEX
  5
D11
  8
0
 10
0.0
 20
0.0
 30
0.0
 70
   128
 71
    10
 72
     9
 73
    11
  0
VERTEX
  5
D12
  8
0
 10
0.0
 20
0.0
 30
0.0
 70
   128
 71
    11
 72
    12
 73
    10
  0
VERTEX
  5
D13
  8
0
 10
0.0
 20
0.0
 30
0.0
 70
   128
 71
    13
 72
    14
 73
    15
  0
VERTEX
  5
D14
  8
0
 10
0.0
 20
0.0
 30
0.0
 70
   128
 71
    14
 72
    16
 73
    15
  0
VERTEX
  5
D15
  8
0
 10
0.0
 20
0.0
 30
0.0
 70
   128
 71
    16
 72
    17
 73
    15
  0
VERTEX
  5
D16
  8
0
 10
0.0
 20
0.0
 30
0.0
 70
   128
 71
    18
 72
    19
 73
    20
  0
VERTEX
  5
D17
  8
0
 10
0.0
 20
0.0
 30
0.0
 70
   128
 71
    21
 72
    22
 73
    23
  0
VERTEX
  5
D18
  8
0
 10
0.0
 20
0.0
 30
0.0
 70
   128
 71
    24
 72
    21
 73
    23
  0
VERTEX
  5
D19
  8
0
 10
0.0
 20
0.0
 30
0.0
 70
   128
 71
    23
 72
     1
 73
    25
  0
VERTEX
  5
D1A
  8
0
 10
0.0
 20
0.0
 30
0.0
 70
   128
 71
     3
 72
    25
 73
     1
  0
VERTEX
  5
D1B
  8
0
 10
0.0
 20
0.0
 30
0.0
 70
   128
 71
     6
 72
     3
 73
     2
  0
VERTEX
  5
D1C
  8
0
 10
0.0
 20
0.0
 30
0.0
 70
   128
 71
    25
 72
    24
 73
    23
  0
VERTEX
  5
D1D
  8
0
 10
0.0
 20
0.0
 30
0.0
 70
   128
 71
     5
 72
     7
 73
     9
  0
VERTEX
  5
D1E
  8
0
 10
0.0
 20
0.0
 30
0.0
 70
   128
 71
    10
 72
     5
 73
     9
  0
VERTEX
  5
D1F
  8
0
 10
0.0
 20
0.0
 30
0.0
 70
   128
 71
    18
 72
    20
 73
    22
  0
VERTEX
  5
D20
  8
0
 10
0.0
 20
0.0
 30
0.0
 70
   128
 71
    15
 72
    18
 73
    22
  0
VERTEX
  5
D21
  8
0
 10
0.0
 20
0.0
 30
0.0
 70
   128
 71
    13
 72
    15
 73
    22
  0
VERTEX
  5
D22
  8
0
 10
0.0
 20
0.0
 30
0.0
 70
   128
 71
    21
 72
    13
 73
    22
  0
SEQEND
  5
16E9
  8
0
  0
POLYLINE
  5
D23
  8
0
 66
     1
 10
0.0
 20
0.0
 30
0.0
 70
    64
 71
    10
 72
     8
  0
VERTEX
  5
D24
  8
0
 10
169.0
 20
-13.0
 30
-186.5
 70
   192
  0
VERTEX
  5
D25
  8
0
 10
169.0
 20
-13.0
 30
-151.5
 70
   192
  0
VERTEX
  5
D26
  8
0
 10
169.0
 20
0.0
 30
-151.5
 70
   192
  0
VERTEX
  5
D27
  8
0
 10
169.0
 20
0.0
 30
-186.5
 70
   192
  0
VERTEX
  5
D28
  8
0
 10
151.5
 20
0.0
 30
-169.0
 70
   192
  0
VERTEX
  5
D29
  8
0
 10
151.5
 20
-13.0
 30
-169.0
 70
   192
  0
VERTEX
  5
D2A
  8
0
 10
156.6256313292354
 20
0.0
 30
-181.3743686707646
 70
   192
  0
VERTEX
  5
D2B
  8
0
 10
156.6256313292354
 20
-13.0
 30
-181.3743686707646
 70
   192
  0
VERTEX
  5
D2C
  8
0
 10
156.6256313292354
 20
0.0
 30
-156.6256313292354
 70
   192
  0
VERTEX
  5
D2D
  8
0
 10
156.6256313292354
 20
-13.0
 30
-156.6256313292354
 70
   192
  0
VERTEX
  5
D2E
  8
0
 10
0.0
 20
0.0
 30
0.0
 70
   128
 71
     8
 72
     1
 73
    -4
  0
VERTEX
  5
D2F
  8
0
 10
0.0
 20
0.0
 30
0.0
 70
   128
 71
     7
 72
    -8
 73
     4
  0
VERTEX
  5
D30
  8
0
 10
0.0
 20
0.0
 30
0.0
 70
   128
 71
     6
 72
     8
 73
    -7
  0
VERTEX
  5
D31
  8
0
 10
0.0
 20
0.0
 30
0.0
 70
   128
 71
     5
 72
    -6
 73
     7
  0
VERTEX
  5
D32
  8
0
 10
0.0
 20
0.0
 30
0.0
 70
   128
 71
    10
 72
     6
 73
    -5
  0
VERTEX
  5
D33
  8
0
 10
0.0
 20
0.0
 30
0.0
 70
   128
 71
     9
 72
   -10
 73
     5
  0
VERTEX
  5
D34
  8
0
 10
0.0
 20
0.0
 30
0.0
 70
   128
 71
     2
 72
    10
 73
    -9
  0
VERTEX
  5
D35
  8
0
 10
0.0
 20
0.0
 30
0.0
 70
   128
 71
     3
 72
    -2
 73
     9
  0
SEQEND
  5
16EA
  8
0
  0
POLYLINE
  5
D36
  8
0
 66
     1
 10
0.0
 20
0.0
 30
0.0
 70
    64
 71
    12
 72
    10
  0
VERTEX
  5
D37
  8
0
 10
23.77517134261988
 20
-97.75176212854589
 30
50.42521909302292
 70
   192
  0
VERTEX
  5
D38
  8
0
 10
0.000000000000003
 20
-97.0797075669255
 30
55.8675803089267
 70
   192
  0
VERTEX
  5
D39
  8
0
 10
0.0
 20
-102.0
 30
55.0
 70
   192
  0
VERTEX
  5
D3A
  8
0
 10
38.89087296526012
 20
-102.0
 30
38.89087296526012
 70
   192
  0
VERTEX
  5
D3B
  8
0
 10
55.00000000000001
 20
-102.0
 30
0.0
 70
   192
  0
VERTEX
  5
D3C
  8
0
 10
53.6058166595821
 20
-97.37611339129859
 30
15.54882363767035
 70
   192
  0
VERTEX
  5
D3D
  8
0
 10
42.06793574173597
 20
-98.25789979419162
 30
36.44593035942206
 70
   192
  0
VERTEX
  5
D3E
  8
0
 10
38.89087296526012
 20
-102.0
 30
-38.89087296526012
 70
   192
  0
VERTEX
  5
D3F
  8
0
 10
0.0
 20
-102.0
 30
-55.00000000000001
 70
   192
  0
VERTEX
  5
D40
  8
0
 10
0.0000000000000068
 20
-97.0797075669256
 30
-55.86758030892671
 70
   192
  0
VERTEX
  5
D41
  8
0
 10
32.24518347076857
 20
-98.13929672876495
 30
-45.39376228251819
 70
   192
  0
VERTEX
  5
D42
  8
0
 10
52.80502113812871
 20
-97.47948994063181
 30
-18.02624167745542
 70
   192
  0
VERTEX
  5
D43
  8
0
 10
0.0
 20
0.0
 30
0.0
 70
   128
 71
     1
 72
     2
 73
     3
  0
VERTEX
  5
D44
  8
0
 10
0.0
 20
0.0
 30
0.0
 70
   128
 71
     1
 72
     3
 73
     4
  0
VERTEX
  5
D45
  8
0
 10
0.0
 20
0.0
 30
0.0
 70
   128
 71
     4
 72
     5
 73
     6
  0
VERTEX
  5
D46
  8
0
 10
0.0
 20
0.0
 30
0.0
 70
   128
 71
     4
 72
     6
 73
     7
  0
VERTEX
  5
D47
  8
0
 10
0.0
 20
0.0
 30
0.0
 70
   128
 71
     8
 72
     9
 73
    10
  0
VERTEX
  5
D48
  8
0
 10
0.0
 20
0.0
 30
0.0
 70
   128
 71
     8
 72
    10
 73
    11
  0
VERTEX
  5
D49
  8
0
 10
0.0
 20
0.0
 30
0.0
 70
   128
 71
     1
 72
     4
 73
     7
  0
VERTEX
  5
D4A
  8
0
 10
0.0
 20
0.0
 30
0.0
 70
   128
 71
     6
 72
     5
 73
    12
  0
VERTEX
  5
D4B
  8
0
 10
0.0
 20
0.0
 30
0.0
 70
   128
 71
    12
 72
     5
 73
     8
  0
VERTEX
  5
D4C
  8
0
 10
0.0
 20
0.0
 30
0.0
 70
   128
 71
    12
 72
     8
 73
    11
  0
SEQEND
  5
16EB
  8
0
  0
POLYLINE
  5
D4D
  8
0
 66
     1
 10
0.0
 20
0.0
 30
0.0
 70
    64
 71
     8
 72
     6
  0
VERTEX
  5
D4E
  8
0
 10
218.0
 20
-35.07179676972449
 30
-53.0
 70
   192
  0
VERTEX
  5
D4F
  8
0
 10
218.0
 20
-38.0
 30
-55.92820323027551
 70
   192
  0
VERTEX
  5
D50
  8
0
 10
239.0
 20
-38.0
 30
-55.92820323027551
 70
   192
  0
VERTEX
  5
D51
  8
0
 10
239.0
 20
-35.07179676972449
 30
-53.0
 70
   192
  0
VERTEX
  5
D52
  8
0
 10
218.0
 20
-42.0
 30
-57.0
 70
   192
  0
VERTEX
  5
D53
  8
0
 10
239.0
 20
-42.0
 30
-57.0
 70
   192
  0
VERTEX
  5
D54
  8
0
 10
218.0
 20
-34.0
 30
-49.0
 70
   192
  0
VERTEX
  5
D55
  8
0
 10
239.0
 20
-34.0
 30
-49.0
 70
   192
  0
VERTEX
  5
D56
  8
0
 10
0.0
 20
0.0
 30
0.0
 70
   128
 71
     1
 72
     2
 73
    -3
  0
VERTEX
  5
D57
  8
0
 10
0.0
 20
0.0
 30
0.0
 70
   128
 71
     4
 72
    -1
 73
     3
  0
VERTEX
  5
D58
  8
0
 10
0.0
 20
0.0
 30
0.0
 70
   128
 71
     2
 72
     5
 73
    -6
  0
VERTEX
  5
D59
  8
0
 10
0.0
 20
0.0
 30
0.0
 70
   128
 71
     3
 72
    -2
 73
     6
  0
VERTEX
  5
D5A
  8
0
 10
0.0
 20
0.0
 30
0.0
 70
   128
 71
     7
 72
     1
 73
    -4
  0
VERTEX
  5
D5B
  8
0
 10
0.0
 20
0.0
 30
0.0
 70
   128
 71
     8
 72
    -7
 73
     4
  0
SEQEND
  5
16EC
  8
0
  0
POLYLINE
  5
D5C
  8
0
 66
     1
 10
0.0
 20
0.0
 30
0.0
 70
    64
 71
    10
 72
     8
  0
VERTEX
  5
D5D
  8
0
 10
71.0
 20
-42.0
 30
-239.0
 70
   192
  0
VERTEX
  5
D5E
  8
0
 10
87.0
 20
-42.0
 30
-239.0
 70
   192
  0
VERTEX
  5
D5F
  8
0
 10
87.0
 20
-42.0
 30
-218.0
 70
   192
  0
VERTEX
  5
D60
  8
0
 10
71.0
 20
-42.0
 30
-218.0
 70
   192
  0
VERTEX
  5
D61
  8
0
 10
79.0
 20
-49.99999999999999
 30
-218.0
 70
   192
  0
VERTEX
  5
D62
  8
0
 10
79.0
 20
-49.99999999999999
 30
-239.0
 70
   192
  0
VERTEX
  5
D63
  8
0
 10
73.34314575050763
 20
-47.65685424949238
 30
-218.0
 70
   192
  0
VERTEX
  5
D64
  8
0
 10
73.34314575050763
 20
-47.65685424949238
 30
-239.0
 70
   192
  0
VERTEX
  5
D65
  8
0
 10
84.65685424949237
 20
-47.65685424949238
 30
-218.0
 70
   192
  0
VERTEX
  5
D66
  8
0
 10
84.65685424949237
 20
-47.65685424949238
 30
-239.0
 70
   192
  0
VERTEX
  5
D67
  8
0
 10
0.0
 20
0.0
 30
0.0
 70
   128
 71
     8
 72
     1
 73
    -4
  0
VERTEX
  5
D68
  8
0
 10
0.0
 20
0.0
 30
0.0
 70
   128
 71
     7
 72
    -8
 73
     4
  0
VERTEX
  5
D69
  8
0
 10
0.0
 20
0.0
 30
0.0
 70
   128
 71
     6
 72
     8
 73
    -7
  0
VERTEX
  5
D6A
  8
0
 10
0.0
 20
0.0
 30
0.0
 70
   128
 71
     5
 72
    -6
 73
     7
  0
VERTEX
  5
D6B
  8
0
 10
0.0
 20
0.0
 30
0.0
 70
   128
 71
    10
 72
     6
 73
    -5
  0
VERTEX
  5
D6C
  8
0
 10
0.0
 20
0.0
 30
0.0
 70
   128
 71
     9
 72
   -10
 73
     5
  0
VERTEX
  5
D6D
  8
0
 10
0.0
 20
0.0
 30
0.0
 70
   128
 71
     2
 72
    10
 73
    -9
  0
VERTEX
  5
D6E
  8
0
 10
0.0
 20
0.0
 30
0.0
 70
   128
 71
     3
 72
    -2
 73
     9
  0
SEQEND
  5
16ED
  8
0
  0
POLYLINE
  5
D6F
  8
0
 66
     1
 10
0.0
 20
0.0
 30
0.0
 70
    64
 71
    20
 72
    18
  0
VERTEX
  5
D70
  8
0
 10
-34.92583394506822
 20
-81.06469735042708
 30
-2.644124471396361
 70
   192
  0
VERTEX
  5
D71
  8
0
 10
-34.79536044053665
 20
-81.06500224479569
 30
-3.96227503498918
 70
   192
  0
VERTEX
  5
D72
  8
0
 10
-35.66396901723836
 20
-80.47617067303452
 30
-4.06564402216596
 70
   192
  0
VERTEX
  5
D73
  8
0
 10
-36.63589886652819
 20
-80.08388033281844
 30
-4.181183123621055
 70
   192
  0
VERTEX
  5
D74
  8
0
 10
-37.80270715150099
 20
-79.90516326604535
 30
-2.941074396173672
 70
   192
  0
VERTEX
  5
D75
  8
0
 10
-37.66792287858211
 20
-79.90557855085719
 30
-4.303753674839506
 70
   192
  0
VERTEX
  5
D76
  8
0
 10
-37.89035079434858
 20
-79.90491392970212
 30
-1.505298761330625
 70
   192
  0
VERTEX
  5
D77
  8
0
 10
-35.00500958613765
 20
-81.06439245605893
 30
-1.32264026649703
 70
   192
  0
VERTEX
  5
D78
  8
0
 10
-37.9216177902786
 20
-79.90483076744259
 30
-0.000000000000011
 70
   192
  0
VERTEX
  5
D79
  8
0
 10
-35.03186982552214
 20
-81.0640875616892
 30
-0.0000000000149238
 70
   192
  0
VERTEX
  5
D7A
  8
0
 10
-27.63967867572471
 20
-79.92321452609742
 30
26.08283868559001
 70
   192
  0
VERTEX
  5
D7B
  8
0
 10
-25.48355131900576
 20
-81.08672212008267
 30
24.04968826694703
 70
   192
  0
VERTEX
  5
D7C
  8
0
 10
24.47509337247669
 20
-79.92274353891989
 30
29.06613817119052
 70
   192
  0
VERTEX
  5
D7D
  8
0
 10
22.56935501296119
 20
-81.08616657803752
 30
26.7990188383047
 70
   192
  0
VERTEX
  5
D7E
  8
0
 10
-2.01753677134384
 20
-81.06428793838238
 30
34.9701661995385
 70
   192
  0
VERTEX
  5
D7F
  8
0
 10
-2.190561474814213
 20
-79.90500651031411
 30
37.85542957697221
 70
   192
  0
VERTEX
  5
D80
  8
0
 10
37.66824876252415
 20
-79.9055775038058
 30
4.300972299690915
 70
   192
  0
VERTEX
  5
D81
  8
0
 10
36.63621708633296
 20
-80.0838797920521
 30
4.178479233669149
 70
   192
  0
VERTEX
  5
D82
  8
0
 10
35.66428005094483
 20
-80.47617002852785
 30
4.063013188937315
 70
   192
  0
VERTEX
  5
D83
  8
0
 10
34.79566496958259
 20
-81.06500093804028
 30
3.959709566967408
 70
   192
  0
VERTEX
  5
D84
  8
0
 10
0.0
 20
0.0
 30
0.0
 70
   128
 71
     1
 72
     2
 73
     3
  0
VERTEX
  5
D85
  8
0
 10
0.0
 20
0.0
 30
0.0
 70
   128
 71
     3
 72
     4
 73
     1
  0
VERTEX
  5
D86
  8
0
 10
0.0
 20
0.0
 30
0.0
 70
   128
 71
     4
 72
     5
 73
     1
  0
VERTEX
  5
D87
  8
0
 10
0.0
 20
0.0
 30
0.0
 70
   128
 71
     4
 72
     6
 73
     5
  0
VERTEX
  5
D88
  8
0
 10
0.0
 20
0.0
 30
0.0
 70
   128
 71
     7
 72
     8
 73
     1
  0
VERTEX
  5
D89
  8
0
 10
0.0
 20
0.0
 30
0.0
 70
   128
 71
     5
 72
     7
 73
     1
  0
VERTEX
  5
D8A
  8
0
 10
0.0
 20
0.0
 30
0.0
 70
   128
 71
     9
 72
    10
 73
     8
  0
VERTEX
  5
D8B
  8
0
 10
0.0
 20
0.0
 30
0.0
 70
   128
 71
     7
 72
     9
 73
     8
  0
VERTEX
  5
D8C
  8
0
 10
0.0
 20
0.0
 30
0.0
 70
   128
 71
    11
 72
    12
 73
    10
  0
VERTEX
  5
D8D
  8
0
 10
0.0
 20
0.0
 30
0.0
 70
   128
 71
     9
 72
    11
 73
    10
  0
VERTEX
  5
D8E
  8
0
 10
0.0
 20
0.0
 30
0.0
 70
   128
 71
    13
 72
    14
 73
    15
  0
VERTEX
  5
D8F
  8
0
 10
0.0
 20
0.0
 30
0.0
 70
   128
 71
    16
 72
    13
 73
    15
  0
VERTEX
  5
D90
  8
0
 10
0.0
 20
0.0
 30
0.0
 70
   128
 71
    13
 72
    17
 73
    18
  0
VERTEX
  5
D91
  8
0
 10
0.0
 20
0.0
 30
0.0
 70
   128
 71
    18
 72
    19
 73
    13
  0
VERTEX
  5
D92
  8
0
 10
0.0
 20
0.0
 30
0.0
 70
   128
 71
    19
 72
    14
 73
    13
  0
VERTEX
  5
D93
  8
0
 10
0.0
 20
0.0
 30
0.0
 70
   128
 71
    19
 72
    20
 73
    14
  0
VERTEX
  5
D94
  8
0
 10
0.0
 20
0.0
 30
0.0
 70
   128
 71
    15
 72
    12
 73
    16
  0
VERTEX
  5
D95
  8
0
 10
0.0
 20
0.0
 30
0.0
 70
   128
 71
    16
 72
    12
 73
    11
  0
SEQEND
  5
16EE
  8
0
  0
POLYLINE
  5
D96
  8
0
 66
     1
 10
0.0
 20
0.0
 30
0.0
 70
    64
 71
    20
 72
    18
  0
VERTEX
  5
D97
  8
0
 10
35.0014947325203
 20
-81.06418904795048
 30
1.418462451152564
 70
   192
  0
VERTEX
  5
D98
  8
0
 10
34.91862967153197
 20
-81.06449350673418
 30
2.738936429346394
 70
   192
  0
VERTEX
  5
D99
  8
0
 10
35.66428005094483
 20
-80.47617002852785
 30
4.063013188937315
 70
   192
  0
VERTEX
  5
D9A
  8
0
 10
34.79566496958259
 20
-81.06500093804028
 30
3.959709566967408
 70
   192
  0
VERTEX
  5
D9B
  8
0
 10
36.63621708633296
 20
-80.0838797920521
 30
4.178479233669149
 70
   192
  0
VERTEX
  5
D9C
  8
0
 10
37.66824876252415
 20
-79.90557750380577
 30
4.300972299690908
 70
   192
  0
VERTEX
  5
D9D
  8
0
 10
37.80801905619547
 20
-79.90514416231636
 30
2.87349166226573
 70
   192
  0
VERTEX
  5
D9E
  8
0
 10
37.89293716890263
 20
-79.90490360058705
 30
1.439885790368952
 70
   192
  0
VERTEX
  5
D9F
  8
0
 10
37.92161779027995
 20
-79.9048307674428
 30
-0.0000000000000401
 70
   192
  0
VERTEX
  5
DA0
  8
0
 10
27.61702268040895
 20
-79.9232181795957
 30
-26.10688467196864
 70
   192
  0
VERTEX
  5
DA1
  8
0
 10
-24.46940120216054
 20
-79.9227411303088
 30
-29.07089554055257
 70
   192
  0
VERTEX
  5
DA2
  8
0
 10
-22.56575614298811
 20
-81.08616459640774
 30
-26.80203394660306
 70
   192
  0
VERTEX
  5
DA3
  8
0
 10
1.993939157843073
 20
-81.06428275917483
 30
-34.9715958509557
 70
   192
  0
VERTEX
  5
DA4
  8
0
 10
2.166303590202775
 20
-79.90500241276409
 30
-37.85688125522559
 70
   192
  0
VERTEX
  5
DA5
  8
0
 10
-37.6679228785821
 20
-79.9055785508571
 30
-4.303753674839496
 70
   192
  0
VERTEX
  5
DA6
  8
0
 10
-36.63589886652819
 20
-80.08388033281844
 30
-4.181183123621055
 70
   192
  0
VERTEX
  5
DA7
  8
0
 10
-35.66396901723836
 20
-80.47617067303452
 30
-4.06564402216596
 70
   192
  0
VERTEX
  5
DA8
  8
0
 10
-34.7953604405367
 20
-81.06500224479574
 30
-3.962275034989179
 70
   192
  0
VERTEX
  5
DA9
  8
0
 10
25.46274878785825
 20
-81.08672629619764
 30
-24.07174984861768
 70
   192
  0
VERTEX
  5
DAA
  8
0
 10
35.03186982552209
 20
-81.0640875616892
 30
0.0000000000000104
 70
   192
  0
VERTEX
  5
DAB
  8
0
 10
0.0
 20
0.0
 30
0.0
 70
   128
 71
     1
 72
     2
 73
     3
  0
VERTEX
  5
DAC
  8
0
 10
0.0
 20
0.0
 30
0.0
 70
   128
 71
     2
 72
     4
 73
     3
  0
VERTEX
  5
DAD
  8
0
 10
0.0
 20
0.0
 30
0.0
 70
   128
 71
     5
 72
     6
 73
     7
  0
VERTEX
  5
DAE
  8
0
 10
0.0
 20
0.0
 30
0.0
 70
   128
 71
     7
 72
     8
 73
     5
  0
VERTEX
  5
DAF
  8
0
 10
0.0
 20
0.0
 30
0.0
 70
   128
 71
     8
 72
     9
 73
     5
  0
VERTEX
  5
DB0
  8
0
 10
0.0
 20
0.0
 30
0.0
 70
   128
 71
     9
 72
    10
 73
     5
  0
VERTEX
  5
DB1
  8
0
 10
0.0
 20
0.0
 30
0.0
 70
   128
 71
    11
 72
    12
 73
    13
  0
VERTEX
  5
DB2
  8
0
 10
0.0
 20
0.0
 30
0.0
 70
   128
 71
    14
 72
    11
 73
    13
  0
VERTEX
  5
DB3
  8
0
 10
0.0
 20
0.0
 30
0.0
 70
   128
 71
    11
 72
    15
 73
    16
  0
VERTEX
  5
DB4
  8
0
 10
0.0
 20
0.0
 30
0.0
 70
   128
 71
    16
 72
    17
 73
    11
  0
VERTEX
  5
DB5
  8
0
 10
0.0
 20
0.0
 30
0.0
 70
   128
 71
    17
 72
    12
 73
    11
  0
VERTEX
  5
DB6
  8
0
 10
0.0
 20
0.0
 30
0.0
 70
   128
 71
    17
 72
    18
 73
    12
  0
VERTEX
  5
DB7
  8
0
 10
0.0
 20
0.0
 30
0.0
 70
   128
 71
    13
 72
    19
 73
    20
  0
VERTEX
  5
DB8
  8
0
 10
0.0
 20
0.0
 30
0.0
 70
   128
 71
     3
 72
    13
 73
    20
  0
VERTEX
  5
DB9
  8
0
 10
0.0
 20
0.0
 30
0.0
 70
   128
 71
    20
 72
     1
 73
     3
  0
VERTEX
  5
DBA
  8
0
 10
0.0
 20
0.0
 30
0.0
 70
   128
 71
     3
 72
     5
 73
    13
  0
VERTEX
  5
DBB
  8
0
 10
0.0
 20
0.0
 30
0.0
 70
   128
 71
    13
 72
     5
 73
    10
  0
VERTEX
  5
DBC
  8
0
 10
0.0
 20
0.0
 30
0.0
 70
   128
 71
    14
 72
    13
 73
    10
  0
SEQEND
  5
16EF
  8
0
  0
POLYLINE
  5
DBD
  8
0
 66
     1
 10
0.0
 20
0.0
 30
0.0
 70
    64
 71
    26
 72
    24
  0
VERTEX
  5
DBE
  8
0
 10
219.559716455132
 20
-53.43661612355631
 30
-78.94519650016969
 70
   192
  0
VERTEX
  5
DBF
  8
0
 10
218.7242832809108
 20
-37.49560153278096
 30
-83.82023044831303
 70
   192
  0
VERTEX
  5
DC0
  8
0
 10
218.1779872734254
 20
-27.07165274199534
 30
-86.4348363345249
 70
   192
  0
VERTEX
  5
DC1
  8
0
 10
217.9958886042635
 20
-23.5970031450665
 30
-86.42977161673309
 70
   192
  0
VERTEX
  5
DC2
  8
0
 10
217.9958886042635
 20
-23.5970031450665
 30
-77.9475656154346
 70
   192
  0
VERTEX
  5
DC3
  8
0
 10
217.9761444441709
 20
-23.22026212755449
 30
-77.69977794905584
 70
   192
  0
VERTEX
  5
DC4
  8
0
 10
217.9565708650947
 20
-22.84677598973161
 30
-77.44707655167794
 70
   192
  0
VERTEX
  5
DC5
  8
0
 10
217.9371728827725
 20
-22.47664043757055
 30
-77.18952617813531
 70
   192
  0
VERTEX
  5
DC6
  8
0
 10
217.9371728827725
 20
-22.47664043757055
 30
-207.9508775352265
 70
   192
  0
VERTEX
  5
DC7
  8
0
 10
222.0000000000002
 20
-100.0
 30
-212.0137046524542
 70
   192
  0
VERTEX
  5
DC8
  8
0
 10
222.0
 20
-100.0
 30
138.0137046524542
 70
   192
  0
VERTEX
  5
DC9
  8
0
 10
217.9371728827722
 20
-22.47664043757057
 30
133.9508775352267
 70
   192
  0
VERTEX
  5
DCA
  8
0
 10
217.9371728827725
 20
-22.47664043757055
 30
59.18952617813522
 70
   192
  0
VERTEX
  5
DCB
  8
0
 10
217.9565708650947
 20
-22.84677598973159
 30
59.44707655167787
 70
   192
  0
VERTEX
  5
DCC
  8
0
 10
217.9761444441709
 20
-23.22026212755446
 30
59.69977794905577
 70
   192
  0
VERTEX
  5
DCD
  8
0
 10
217.9958886042635
 20
-23.5970031450666
 30
59.9475656154346
 70
   192
  0
VERTEX
  5
DCE
  8
0
 10
217.9958886042635
 20
-23.5970031450665
 30
68.4297716167329
 70
   192
  0
VERTEX
  5
DCF
  8
0
 10
218.1779872734252
 20
-27.07165274199522
 30
68.43483633452476
 70
   192
  0
VERTEX
  5
DD0
  8
0
 10
218.7242832809106
 20
-37.49560153278086
 30
65.82023044831288
 70
   192
  0
VERTEX
  5
DD1
  8
0
 10
219.559716455132
 20
-53.43661612355631
 30
60.9451965001697
 70
   192
  0
VERTEX
  5
DD2
  8
0
 10
220.1386470637417
 20
-64.4832701991534
 30
54.53704537979488
 70
   192
  0
VERTEX
  5
DD3
  8
0
 10
220.5293891524487
 20
-71.93907340341451
 30
44.13088034798353
 70
   192
  0
VERTEX
  5
DD4
  8
0
 10
220.666088911131
 20
-74.5474601840102
 30
31.65258251481335
 70
   192
  0
VERTEX
  5
DD5
  8
0
 10
220.666088911131
 20
-74.5474601840102
 30
-49.6525825148133
 70
   192
  0
VERTEX
  5
DD6
  8
0
 10
220.5287059402329
 20
-71.92603693774325
 30
-62.16089800128255
 70
   192
  0
VERTEX
  5
DD7
  8
0
 10
220.1369939810317
 20
-64.45172750200223
 30
-72.56558219643973
 70
   192
  0
VERTEX
  5
DD8
  8
0
 10
0.0
 20
0.0
 30
0.0
 70
   128
 71
   -17
 72
    13
 73
   -14
  0
VERTEX
  5
DD9
  8
0
 10
0.0
 20
0.0
 30
0.0
 70
   128
 71
    14
 72
   -15
 73
   -17
  0
VERTEX
  5
DDA
  8
0
 10
0.0
 20
0.0
 30
0.0
 70
   128
 71
    15
 72
    16
 73
   -17
  0
VERTEX
  5
DDB
  8
0
 10
0.0
 20
0.0
 30
0.0
 70
   128
 71
    12
 72
   -13
 73
   -17
  0
VERTEX
  5
DDC
  8
0
 10
0.0
 20
0.0
 30
0.0
 70
   128
 71
    17
 72
   -18
 73
   -12
  0
VERTEX
  5
DDD
  8
0
 10
0.0
 20
0.0
 30
0.0
 70
   128
 71
    18
 72
   -19
 73
   -12
  0
VERTEX
  5
DDE
  8
0
 10
0.0
 20
0.0
 30
0.0
 70
   128
 71
   -20
 72
    11
 73
   -12
  0
VERTEX
  5
DDF
  8
0
 10
0.0
 20
0.0
 30
0.0
 70
   128
 71
    19
 72
   -20
 73
   -12
  0
VERTEX
  5
DE0
  8
0
 10
0.0
 20
0.0
 30
0.0
 70
   128
 71
    20
 72
   -21
 73
   -11
  0
VERTEX
  5
DE1
  8
0
 10
0.0
 20
0.0
 30
0.0
 70
   128
 71
    21
 72
   -22
 73
   -11
  0
VERTEX
  5
DE2
  8
0
 10
0.0
 20
0.0
 30
0.0
 70
   128
 71
    22
 72
   -23
 73
   -11
  0
VERTEX
  5
DE3
  8
0
 10
0.0
 20
0.0
 30
0.0
 70
   128
 71
   -24
 72
    10
 73
   -11
  0
VERTEX
  5
DE4
  8
0
 10
0.0
 20
0.0
 30
0.0
 70
   128
 71
    23
 72
   -24
 73
   -11
  0
VERTEX
  5
DE5
  8
0
 10
0.0
 20
0.0
 30
0.0
 70
   128
 71
    24
 72
   -25
 73
   -10
  0
VERTEX
  5
DE6
  8
0
 10
0.0
 20
0.0
 30
0.0
 70
   128
 71
    25
 72
   -26
 73
   -10
  0
VERTEX
  5
DE7
  8
0
 10
0.0
 20
0.0
 30
0.0
 70
   128
 71
    26
 72
    -1
 73
   -10
  0
VERTEX
  5
DE8
  8
0
 10
0.0
 20
0.0
 30
0.0
 70
   128
 71
   -10
 72
     1
 73
    -2
  0
VERTEX
  5
DE9
  8
0
 10
0.0
 20
0.0
 30
0.0
 70
   128
 71
     9
 72
   -10
 73
    -2
  0
VERTEX
  5
DEA
  8
0
 10
0.0
 20
0.0
 30
0.0
 70
   128
 71
     2
 72
    -3
 73
    -9
  0
VERTEX
  5
DEB
  8
0
 10
0.0
 20
0.0
 30
0.0
 70
   128
 71
     3
 72
    -4
 73
    -9
  0
VERTEX
  5
DEC
  8
0
 10
0.0
 20
0.0
 30
0.0
 70
   128
 71
    -4
 72
    -6
 73
    -9
  0
VERTEX
  5
DED
  8
0
 10
0.0
 20
0.0
 30
0.0
 70
   128
 71
     4
 72
     5
 73
    -6
  0
VERTEX
  5
DEE
  8
0
 10
0.0
 20
0.0
 30
0.0
 70
   128
 71
     6
 72
    -7
 73
    -9
  0
VERTEX
  5
DEF
  8
0
 10
0.0
 20
0.0
 30
0.0
 70
   128
 71
     7
 72
     8
 73
    -9
  0
SEQEND
  5
16F0
  8
0
  0
POLYLINE
  5
DF0
  8
0
 66
     1
 10
0.0
 20
0.0
 30
0.0
 70
    64
 71
    16
 72
    14
  0
VERTEX
  5
DF1
  8
0
 10
213.6041546626582
 20
-14.75132918679387
 30
-58.9876149100864
 70
   192
  0
VERTEX
  5
DF2
  8
0
 10
212.0580069598645
 20
-13.8823529411765
 30
-49.0
 70
   192
  0
VERTEX
  5
DF3
  8
0
 10
212.7989737376899
 20
-14.25380292860603
 30
-207.9508775352265
 70
   192
  0
VERTEX
  5
DF4
  8
0
 10
207.9508775352265
 20
-13.0
 30
-207.9508775352265
 70
   192
  0
VERTEX
  5
DF5
  8
0
 10
212.0580069598645
 20
-13.8823529411765
 30
31.0
 70
   192
  0
VERTEX
  5
DF6
  8
0
 10
207.9508775352265
 20
-12.99999999999999
 30
133.9508775352266
 70
   192
  0
VERTEX
  5
DF7
  8
0
 10
213.6019810866812
 20
-14.74984631668003
 30
40.979261686482
 70
   192
  0
VERTEX
  5
DF8
  8
0
 10
212.7989737376899
 20
-14.25380292860603
 30
133.9508775352266
 70
   192
  0
VERTEX
  5
DF9
  8
0
 10
216.2696915478724
 20
-17.45046691384497
 30
50.53843969463342
 70
   192
  0
VERTEX
  5
DFA
  8
0
 10
216.2718178729935
 20
-17.45365426046964
 30
-68.54632614228487
 70
   192
  0
VERTEX
  5
DFB
  8
0
 10
216.4313584967908
 20
-17.70080735766795
 30
-207.9508775352265
 70
   192
  0
VERTEX
  5
DFC
  8
0
 10
217.9371728827725
 20
-22.47664043757055
 30
-77.18952617813531
 70
   192
  0
VERTEX
  5
DFD
  8
0
 10
217.9371728827725
 20
-22.47664043757055
 30
-207.9508775352265
 70
   192
  0
VERTEX
  5
DFE
  8
0
 10
217.9371728827725
 20
-22.47664043757055
 30
59.1895261781352
 70
   192
  0
VERTEX
  5
DFF
  8
0
 10
217.9371728827725
 20
-22.47664043757055
 30
133.9508775352266
 70
   192
  0
VERTEX
  5
E00
  8
0
 10
216.4313584967908
 20
-17.70080735766795
 30
133.9508775352266
 70
   192
  0
VERTEX
  5
E01
  8
0
 10
0.0
 20
0.0
 30
0.0
 70
   128
 71
     1
 72
     2
 73
     3
  0
VERTEX
  5
E02
  8
0
 10
0.0
 20
0.0
 30
0.0
 70
   128
 71
     4
 72
     3
 73
     2
  0
VERTEX
  5
E03
  8
0
 10
0.0
 20
0.0
 30
0.0
 70
   128
 71
     2
 72
    -5
 73
     4
  0
VERTEX
  5
E04
  8
0
 10
0.0
 20
0.0
 30
0.0
 70
   128
 71
     6
 72
    -4
 73
     5
  0
VERTEX
  5
E05
  8
0
 10
0.0
 20
0.0
 30
0.0
 70
   128
 71
     7
 72
     8
 73
     6
  0
VERTEX
  5
E06
  8
0
 10
0.0
 20
0.0
 30
0.0
 70
   128
 71
     5
 72
     7
 73
     6
  0
VERTEX
  5
E07
  8
0
 10
0.0
 20
0.0
 30
0.0
 70
   128
 71
     9
 72
     8
 73
     7
  0
VERTEX
  5
E08
  8
0
 10
0.0
 20
0.0
 30
0.0
 70
   128
 71
    10
 72
     1
 73
     3
  0
VERTEX
  5
E09
  8
0
 10
0.0
 20
0.0
 30
0.0
 70
   128
 71
    11
 72
    10
 73
     3
  0
VERTEX
  5
E0A
  8
0
 10
0.0
 20
0.0
 30
0.0
 70
   128
 71
    12
 72
    10
 73
    11
  0
VERTEX
  5
E0B
  8
0
 10
0.0
 20
0.0
 30
0.0
 70
   128
 71
    13
 72
    12
 73
    11
  0
VERTEX
  5
E0C
  8
0
 10
0.0
 20
0.0
 30
0.0
 70
   128
 71
    14
 72
    15
 73
    16
  0
VERTEX
  5
E0D
  8
0
 10
0.0
 20
0.0
 30
0.0
 70
   128
 71
     8
 72
     9
 73
    14
  0
VERTEX
  5
E0E
  8
0
 10
0.0
 20
0.0
 30
0.0
 70
   128
 71
    16
 72
     8
 73
    14
  0
SEQEND
  5
16F1
  8
0
  0
POLYLINE
  5
E0F
  8
0
 66
     1
 10
0.0
 20
0.0
 30
0.0
 70
    64
 71
    22
 72
    20
  0
VERTEX
  5
E10
  8
0
 10
48.85537645510719
 20
-52.8147378247721
 30
-219.527125194508
 70
   192
  0
VERTEX
  5
E11
  8
0
 10
44.09339808347977
 20
-37.19158332574836
 30
-218.7083503618185
 70
   192
  0
VERTEX
  5
E12
  8
0
 10
41.55114427744898
 20
-26.99564819023703
 30
-218.1740040436524
 70
   192
  0
VERTEX
  5
E13
  8
0
 10
41.57022838326685
 20
-23.5970031450665
 30
-217.9958886042635
 70
   192
  0
VERTEX
  5
E14
  8
0
 10
50.0524343845654
 20
-23.5970031450665
 30
-217.9958886042635
 70
   192
  0
VERTEX
  5
E15
  8
0
 10
50.30022205094413
 20
-23.22026212755449
 30
-217.9761444441709
 70
   192
  0
VERTEX
  5
E16
  8
0
 10
50.55292344832203
 20
-22.84677598973161
 30
-217.9565708650947
 70
   192
  0
VERTEX
  5
E17
  8
0
 10
50.8104738218647
 20
-22.47664043757055
 30
-217.9371728827725
 70
   192
  0
VERTEX
  5
E18
  8
0
 10
-133.9508775352266
 20
-22.47664043757055
 30
-217.9371728827725
 70
   192
  0
VERTEX
  5
E19
  8
0
 10
-138.0137046524543
 20
-100.0
 30
-222.0000000000002
 70
   192
  0
VERTEX
  5
E1A
  8
0
 10
212.0137046524545
 20
-100.0
 30
-222.0
 70
   192
  0
VERTEX
  5
E1B
  8
0
 10
207.9508775352267
 20
-22.47664043757056
 30
-217.9371728827722
 70
   192
  0
VERTEX
  5
E1C
  8
0
 10
107.1895261781352
 20
-22.47664043757055
 30
-217.9371728827725
 70
   192
  0
VERTEX
  5
E1D
  8
0
 10
107.4470765516779
 20
-22.84677598973158
 30
-217.9565708650949
 70
   192
  0
VERTEX
  5
E1E
  8
0
 10
107.6997779490558
 20
-23.22026212755446
 30
-217.9761444441711
 70
   192
  0
VERTEX
  5
E1F
  8
0
 10
107.9475656154346
 20
-23.59700314506665
 30
-217.9958886042635
 70
   192
  0
VERTEX
  5
E20
  8
0
 10
116.429771616733
 20
-23.5970031450665
 30
-217.9958886042635
 70
   192
  0
VERTEX
  5
E21
  8
0
 10
116.448855722551
 20
-26.99564819023707
 30
-218.1740040436524
 70
   192
  0
VERTEX
  5
E22
  8
0
 10
113.9066019165202
 20
-37.19158332574842
 30
-218.7083503618185
 70
   192
  0
VERTEX
  5
E23
  8
0
 10
109.1446235448928
 20
-52.8147378247721
 30
-219.527125194508
 70
   192
  0
VERTEX
  5
E24
  8
0
 10
91.86925275144223
 20
-71.8515365771631
 30
-220.5248015417791
 70
   192
  0
VERTEX
  5
E25
  8
0
 10
66.09582513574912
 20
-71.83631305956793
 30
-220.5240037110291
 70
   192
  0
VERTEX
  5
E26
  8
0
 10
0.0
 20
0.0
 30
0.0
 70
   128
 71
   -17
 72
    13
 73
   -14
  0
VERTEX
  5
E27
  8
0
 10
0.0
 20
0.0
 30
0.0
 70
   128
 71
    14
 72
   -15
 73
   -17
  0
VERTEX
  5
E28
  8
0
 10
0.0
 20
0.0
 30
0.0
 70
   128
 71
    15
 72
    16
 73
   -17
  0
VERTEX
  5
E29
  8
0
 10
0.0
 20
0.0
 30
0.0
 70
   128
 71
    12
 72
   -13
 73
   -17
  0
VERTEX
  5
E2A
  8
0
 10
0.0
 20
0.0
 30
0.0
 70
   128
 71
    17
 72
   -18
 73
   -12
  0
VERTEX
  5
E2B
  8
0
 10
0.0
 20
0.0
 30
0.0
 70
   128
 71
    18
 72
   -19
 73
   -12
  0
VERTEX
  5
E2C
  8
0
 10
0.0
 20
0.0
 30
0.0
 70
   128
 71
    19
 72
   -20
 73
   -12
  0
VERTEX
  5
E2D
  8
0
 10
0.0
 20
0.0
 30
0.0
 70
   128
 71
   -21
 72
    11
 73
   -12
  0
VERTEX
  5
E2E
  8
0
 10
0.0
 20
0.0
 30
0.0
 70
   128
 71
    20
 72
   -21
 73
   -12
  0
VERTEX
  5
E2F
  8
0
 10
0.0
 20
0.0
 30
0.0
 70
   128
 71
    21
 72
   -22
 73
   -11
  0
VERTEX
  5
E30
  8
0
 10
0.0
 20
0.0
 30
0.0
 70
   128
 71
    10
 72
   -11
 73
   -22
  0
VERTEX
  5
E31
  8
0
 10
0.0
 20
0.0
 30
0.0
 70
   128
 71
    -1
 72
     9
 73
   -10
  0
VERTEX
  5
E32
  8
0
 10
0.0
 20
0.0
 30
0.0
 70
   128
 71
    22
 72
    -1
 73
   -10
  0
VERTEX
  5
E33
  8
0
 10
0.0
 20
0.0
 30
0.0
 70
   128
 71
    -9
 72
     1
 73
    -2
  0
VERTEX
  5
E34
  8
0
 10
0.0
 20
0.0
 30
0.0
 70
   128
 71
     2
 72
    -3
 73
    -9
  0
VERTEX
  5
E35
  8
0
 10
0.0
 20
0.0
 30
0.0
 70
   128
 71
     3
 72
    -4
 73
    -9
  0
VERTEX
  5
E36
  8
0
 10
0.0
 20
0.0
 30
0.0
 70
   128
 71
    -4
 72
    -6
 73
    -9
  0
VERTEX
  5
E37
  8
0
 10
0.0
 20
0.0
 30
0.0
 70
   128
 71
     4
 72
     5
 73
    -6
  0
VERTEX
  5
E38
  8
0
 10
0.0
 20
0.0
 30
0.0
 70
   128
 71
     6
 72
    -7
 73
    -9
  0
VERTEX
  5
E39
  8
0
 10
0.0
 20
0.0
 30
0.0
 70
   128
 71
     7
 72
     8
 73
    -9
  0
SEQEND
  5
16F2
  8
0
  0
POLYLINE
  5
E3A
  8
0
 66
     1
 10
0.0
 20
0.0
 30
0.0
 70
    64
 71
    12
 72
    10
  0
VERTEX
  5
E3B
  8
0
 10
-133.9508775352266
 20
-13.0
 30
-207.9508775352265
 70
   192
  0
VERTEX
  5
E3C
  8
0
 10
-133.9508775352266
 20
-14.25380292860603
 30
-212.7989737376899
 70
   192
  0
VERTEX
  5
E3D
  8
0
 10
69.01094481673195
 20
-14.75158545017027
 30
-213.6045285518527
 70
   192
  0
VERTEX
  5
E3E
  8
0
 10
88.98156595765248
 20
-14.75025590875273
 30
-213.6025790110909
 70
   192
  0
VERTEX
  5
E3F
  8
0
 10
207.9508775352265
 20
-12.99999999999999
 30
-207.9508775352265
 70
   192
  0
VERTEX
  5
E40
  8
0
 10
207.9508775352265
 20
-14.25380292860603
 30
-212.7989737376899
 70
   192
  0
VERTEX
  5
E41
  8
0
 10
-133.9508775352266
 20
-17.70080735766795
 30
-216.4313584967908
 70
   192
  0
VERTEX
  5
E42
  8
0
 10
50.81047382186469
 20
-22.47664043757055
 30
-217.9371728827725
 70
   192
  0
VERTEX
  5
E43
  8
0
 10
-133.9508775352266
 20
-22.47664043757055
 30
-217.9371728827725
 70
   192
  0
VERTEX
  5
E44
  8
0
 10
107.1895261781352
 20
-22.47664043757055
 30
-217.9371728827725
 70
   192
  0
VERTEX
  5
E45
  8
0
 10
207.9508775352265
 20
-22.47664043757055
 30
-217.9371728827725
 70
   192
  0
VERTEX
  5
E46
  8
0
 10
207.9508775352265
 20
-17.70080735766795
 30
-216.4313584967908
 70
   192
  0
VERTEX
  5
E47
  8
0
 10
0.0
 20
0.0
 30
0.0
 70
   128
 71
     1
 72
     2
 73
     3
  0
VERTEX
  5
E48
  8
0
 10
0.0
 20
0.0
 30
0.0
 70
   128
 71
     3
 72
     4
 73
     1
  0
VERTEX
  5
E49
  8
0
 10
0.0
 20
0.0
 30
0.0
 70
   128
 71
     5
 72
     1
 73
     4
  0
VERTEX
  5
E4A
  8
0
 10
0.0
 20
0.0
 30
0.0
 70
   128
 71
     4
 72
     6
 73
     5
  0
VERTEX
  5
E4B
  8
0
 10
0.0
 20
0.0
 30
0.0
 70
   128
 71
     3
 72
     2
 73
     7
  0
VERTEX
  5
E4C
  8
0
 10
0.0
 20
0.0
 30
0.0
 70
   128
 71
     8
 72
     3
 73
     7
  0
VERTEX
  5
E4D
  8
0
 10
0.0
 20
0.0
 30
0.0
 70
   128
 71
     7
 72
     9
 73
     8
  0
VERTEX
  5
E4E
  8
0
 10
0.0
 20
0.0
 30
0.0
 70
   128
 71
    10
 72
    11
 73
    12
  0
VERTEX
  5
E4F
  8
0
 10
0.0
 20
0.0
 30
0.0
 70
   128
 71
     6
 72
     4
 73
    10
  0
VERTEX
  5
E50
  8
0
 10
0.0
 20
0.0
 30
0.0
 70
   128
 71
    12
 72
     6
 73
    10
  0
SEQEND
  5
16F3
  8
0
  0
POLYLINE
  5
E51
  8
0
 66
     1
 10
0.0
 20
0.0
 30
0.0
 70
    64
 71
    32
 72
    32
  0
VERTEX
  5
E52
  8
0
 10
239.0
 20
-100.0
 30
-237.0
 70
   192
  0
VERTEX
  5
E53
  8
0
 10
238.7320508075689
 20
-100.0
 30
-238.0
 70
   192
  0
VERTEX
  5
E54
  8
0
 10
238.0
 20
-100.0
 30
-238.7320508075689
 70
   192
  0
VERTEX
  5
E55
  8
0
 10
237.0
 20
-100.0
 30
-239.0
 70
   192
  0
VERTEX
  5
E56
  8
0
 10
-158.999695343912
 20
-100.0
 30
-239.0
 70
   192
  0
VERTEX
  5
E57
  8
0
 10
-159.9779276862579
 20
-100.0
 30
-238.7445208382053
 70
   192
  0
VERTEX
  5
E58
  8
0
 10
-160.7444819215645
 20
-100.0
 30
-237.9780833528216
 70
   192
  0
VERTEX
  5
E59
  8
0
 10
-161.0
 20
-100.0
 30
-237.0
 70
   192
  0
VERTEX
  5
E5A
  8
0
 10
-161.0
 20
-100.0
 30
158.000456914531
 70
   192
  0
VERTEX
  5
E5B
  8
0
 10
-160.6168607035802
 20
-100.0
 30
159.4674428143205
 70
   192
  0
VERTEX
  5
E5C
  8
0
 10
-159.4674428143204
 20
-100.0
 30
160.6168607035801
 70
   192
  0
VERTEX
  5
E5D
  8
0
 10
-158.000456914531
 20
-100.0
 30
161.0
 70
   192
  0
VERTEX
  5
E5E
  8
0
 10
237.0
 20
-100.0
 30
161.0
 70
   192
  0
VERTEX
  5
E5F
  8
0
 10
237.9780833528219
 20
-100.0
 30
160.7444819215645
 70
   192
  0
VERTEX
  5
E60
  8
0
 10
238.7445208382055
 20
-100.0
 30
159.9779276862578
 70
   192
  0
VERTEX
  5
E61
  8
0
 10
239.0
 20
-100.0
 30
158.999695343912
 70
   192
  0
VERTEX
  5
E62
  8
0
 10
212.0137046524545
 20
-100.0
 30
-222.0
 70
   192
  0
VERTEX
  5
E63
  8
0
 10
216.8999411184205
 20
-100.0
 30
-220.7249852796051
 70
   192
  0
VERTEX
  5
E64
  8
0
 10
220.7249852796051
 20
-100.0
 30
-216.8999411184206
 70
   192
  0
VERTEX
  5
E65
  8
0
 10
222.0
 20
-100.0
 30
-212.0137046524545
 70
   192
  0
VERTEX
  5
E66
  8
0
 10
222.0
 20
-100.0
 30
138.0137046524542
 70
   192
  0
VERTEX
  5
E67
  8
0
 10
220.7249852796052
 20
-100.0
 30
142.8999411184205
 70
   192
  0
VERTEX
  5
E68
  8
0
 10
216.8999411184207
 20
-100.0
 30
146.7249852796051
 70
   192
  0
VERTEX
  5
E69
  8
0
 10
212.0137046524545
 20
-100.0
 30
148.0
 70
   192
  0
VERTEX
  5
E6A
  8
0
 10
-138.0137046524542
 20
-100.0
 30
148.0
 70
   192
  0
VERTEX
  5
E6B
  8
0
 10
-142.8999411184206
 20
-100.0
 30
146.7249852796052
 70
   192
  0
VERTEX
  5
E6C
  8
0
 10
-146.7249852796052
 20
-100.0
 30
142.8999411184206
 70
   192
  0
VERTEX
  5
E6D
  8
0
 10
-148.0
 20
-100.0
 30
138.0137046524542
 70
   192
  0
VERTEX
  5
E6E
  8
0
 10
-148.0
 20
-100.0
 30
-212.0137046524545
 70
   192
  0
VERTEX
  5
E6F
  8
0
 10
-146.7249852796051
 20
-100.0
 30
-216.8999411184207
 70
   192
  0
VERTEX
  5
E70
  8
0
 10
-142.8999411184205
 20
-100.0
 30
-220.7249852796052
 70
   192
  0
VERTEX
  5
E71
  8
0
 10
-138.0137046524542
 20
-100.0
 30
-222.0
 70
   192
  0
VERTEX
  5
E72
  8
0
 10
0.0
 20
0.0
 30
0.0
 70
   128
 71
    18
 72
   -17
 73
    -1
  0
VERTEX
  5
E73
  8
0
 10
0.0
 20
0.0
 30
0.0
 70
   128
 71
    -1
 72
    19
 73
   -18
  0
VERTEX
  5
E74
  8
0
 10
0.0
 20
0.0
 30
0.0
 70
   128
 71
    -1
 72
    20
 73
   -19
  0
VERTEX
  5
E75
  8
0
 10
0.0
 20
0.0
 30
0.0
 70
   128
 71
     1
 72
   -16
 73
   -21
  0
VERTEX
  5
E76
  8
0
 10
0.0
 20
0.0
 30
0.0
 70
   128
 71
    -1
 72
    21
 73
   -20
  0
VERTEX
  5
E77
  8
0
 10
0.0
 20
0.0
 30
0.0
 70
   128
 71
   -16
 72
    22
 73
   -21
  0
VERTEX
  5
E78
  8
0
 10
0.0
 20
0.0
 30
0.0
 70
   128
 71
   -16
 72
    23
 73
   -22
  0
VERTEX
  5
E79
  8
0
 10
0.0
 20
0.0
 30
0.0
 70
   128
 71
   -16
 72
    24
 73
   -23
  0
VERTEX
  5
E7A
  8
0
 10
0.0
 20
0.0
 30
0.0
 70
   128
 71
    16
 72
    15
 73
   -14
  0
VERTEX
  5
E7B
  8
0
 10
0.0
 20
0.0
 30
0.0
 70
   128
 71
   -16
 72
    14
 73
   -13
  0
VERTEX
  5
E7C
  8
0
 10
0.0
 20
0.0
 30
0.0
 70
   128
 71
   -16
 72
    13
 73
   -12
  0
VERTEX
  5
E7D
  8
0
 10
0.0
 20
0.0
 30
0.0
 70
   128
 71
   -16
 72
   -12
 73
   -25
  0
VERTEX
  5
E7E
  8
0
 10
0.0
 20
0.0
 30
0.0
 70
   128
 71
   -16
 72
    25
 73
   -24
  0
VERTEX
  5
E7F
  8
0
 10
0.0
 20
0.0
 30
0.0
 70
   128
 71
   -12
 72
    26
 73
   -25
  0
VERTEX
  5
E80
  8
0
 10
0.0
 20
0.0
 30
0.0
 70
   128
 71
   -12
 72
    27
 73
   -26
  0
VERTEX
  5
E81
  8
0
 10
0.0
 20
0.0
 30
0.0
 70
   128
 71
   -12
 72
    28
 73
   -27
  0
VERTEX
  5
E82
  8
0
 10
0.0
 20
0.0
 30
0.0
 70
   128
 71
    12
 72
    11
 73
   -10
  0
VERTEX
  5
E83
  8
0
 10
0.0
 20
0.0
 30
0.0
 70
   128
 71
   -12
 72
    10
 73
    -9
  0
VERTEX
  5
E84
  8
0
 10
0.0
 20
0.0
 30
0.0
 70
   128
 71
   -12
 72
     9
 73
    -8
  0
VERTEX
  5
E85
  8
0
 10
0.0
 20
0.0
 30
0.0
 70
   128
 71
   -12
 72
    -8
 73
   -29
  0
VERTEX
  5
E86
  8
0
 10
0.0
 20
0.0
 30
0.0
 70
   128
 71
   -12
 72
    29
 73
   -28
  0
VERTEX
  5
E87
  8
0
 10
0.0
 20
0.0
 30
0.0
 70
   128
 71
    -8
 72
    30
 73
   -29
  0
VERTEX
  5
E88
  8
0
 10
0.0
 20
0.0
 30
0.0
 70
   128
 71
    -8
 72
    31
 73
   -30
  0
VERTEX
  5
E89
  8
0
 10
0.0
 20
0.0
 30
0.0
 70
   128
 71
    -8
 72
    32
 73
   -31
  0
VERTEX
  5
E8A
  8
0
 10
0.0
 20
0.0
 30
0.0
 70
   128
 71
     8
 72
     7
 73
    -6
  0
VERTEX
  5
E8B
  8
0
 10
0.0
 20
0.0
 30
0.0
 70
   128
 71
    -8
 72
     6
 73
    -5
  0
VERTEX
  5
E8C
  8
0
 10
0.0
 20
0.0
 30
0.0
 70
   128
 71
    -8
 72
     5
 73
    -4
  0
VERTEX
  5
E8D
  8
0
 10
0.0
 20
0.0
 30
0.0
 70
   128
 71
    -8
 72
     4
 73
    -3
  0
VERTEX
  5
E8E
  8
0
 10
0.0
 20
0.0
 30
0.0
 70
   128
 71
    -8
 72
     3
 73
    -2
  0
VERTEX
  5
E8F
  8
0
 10
0.0
 20
0.0
 30
0.0
 70
   128
 71
    -8
 72
     2
 73
    -1
  0
VERTEX
  5
E90
  8
0
 10
0.0
 20
0.0
 30
0.0
 70
   128
 71
    -8
 72
    -1
 73
   -17
  0
VERTEX
  5
E91
  8
0
 10
0.0
 20
0.0
 30
0.0
 70
   128
 71
    -8
 72
    17
 73
   -32
  0
SEQEND
  5
16F4
  8
0
  0
POLYLINE
  5
E92
  8
0
 66
     1
 10
0.0
 20
0.0
 30
0.0
 70
    64
 71
    34
 72
    36
  0
VERTEX
  5
E93
  8
0
 10
-157.289098980947
 20
0.0
 30
156.2892512857905
 70
   192
  0
VERTEX
  5
E94
  8
0
 10
-157.2554234472261
 20
-0.0000000000000012
 30
156.5465876415998
 70
   192
  0
VERTEX
  5
E95
  8
0
 10
-157.1543968460638
 20
-0.0000000000000017
 30
156.7905091892515
 70
   192
  0
VERTEX
  5
E96
  8
0
 10
-156.9962688420725
 20
-0.0000000000000017
 30
156.9962688420725
 70
   192
  0
VERTEX
  5
E97
  8
0
 10
-156.7905091892515
 20
-0.0000000000000017
 30
157.1543968460637
 70
   192
  0
VERTEX
  5
E98
  8
0
 10
-156.5465876415998
 20
-0.0000000000000012
 30
157.2554234472261
 70
   192
  0
VERTEX
  5
E99
  8
0
 10
-156.2892512857905
 20
0.0
 30
157.289098980947
 70
   192
  0
VERTEX
  5
E9A
  8
0
 10
237.0
 20
0.0
 30
157.289098980947
 70
   192
  0
VERTEX
  5
E9B
  8
0
 10
237.0
 20
0.0
 30
-237.0
 70
   192
  0
VERTEX
  5
E9C
  8
0
 10
-157.289098980947
 20
0.0
 30
-237.0
 70
   192
  0
VERTEX
  5
E9D
  8
0
 10
-150.7319030518715
 20
0.0
 30
-39.3096972081534
 70
   192
  0
VERTEX
  5
E9E
  8
0
 10
-146.6224854659022
 20
0.0000000000000026
 30
-107.6308148607127
 70
   192
  0
VERTEX
  5
E9F
  8
0
 10
-130.3773590735531
 20
0.0000000000000065
 30
-136.8917965106851
 70
   192
  0
VERTEX
  5
EA0
  8
0
 10
-98.44712042819783
 20
0.0000000000000026
 30
-148.2188069068416
 70
   192
  0
VERTEX
  5
EA1
  8
0
 10
38.43604219487766
 20
0.0000000000000069
 30
-150.7386000340568
 70
   192
  0
VERTEX
  5
EA2
  8
0
 10
106.7603824317605
 20
-0.0000000000000091
 30
-146.8073949549219
 70
   192
  0
VERTEX
  5
EA3
  8
0
 10
136.5134634975754
 20
0.0000000000000065
 30
-130.8537884905193
 70
   192
  0
VERTEX
  5
EA4
  8
0
 10
148.1723758928522
 20
0.0000000000000104
 30
-98.78370305269776
 70
   192
  0
VERTEX
  5
EA5
  8
0
 10
150.7371457277765
 20
-0.0000000000000039
 30
38.6263066304244
 70
   192
  0
VERTEX
  5
EA6
  8
0
 10
146.7004535799205
 20
0.0000000000000091
 30
107.2684697243949
 70
   192
  0
VERTEX
  5
EA7
  8
0
 10
130.2946914134593
 20
0.0000000000000104
 30
136.9562100510655
 70
   192
  0
VERTEX
  5
EA8
  8
0
 10
98.21416532519348
 20
-0.0000000000000013
 30
148.2504859835689
 70
   192
  0
VERTEX
  5
EA9
  8
0
 10
-38.79110377465061
 20
0.0000000000000117
 30
150.7358843951382
 70
   192
  0
VERTEX
  5
EAA
  8
0
 10
-107.1975891640429
 20
-0.0000000000000117
 30
146.7155383450184
 70
   192
  0
VERTEX
  5
EAB
  8
0
 10
-136.8330616359569
 20
-0.0000000000000091
 30
130.4523393448674
 70
   192
  0
VERTEX
  5
EAC
  8
0
 10
-148.241142684445
 20
-0.0000000000000104
 30
98.28315615747726
 70
   192
  0
VERTEX
  5
EAD
  8
0
 10
169.0
 20
0.0
 30
-186.5
 70
   192
  0
VERTEX
  5
EAE
  8
0
 10
181.3743686707646
 20
0.0
 30
-181.3743686707646
 70
   192
  0
VERTEX
  5
EAF
  8
0
 10
186.5
 20
0.0
 30
-169.0
 70
   192
  0
VERTEX
  5
EB0
  8
0
 10
181.3743686707646
 20
0.0
 30
-156.6256313292354
 70
   192
  0
VERTEX
  5
EB1
  8
0
 10
169.0
 20
0.0
 30
-151.5
 70
   192
  0
VERTEX
  5
EB2
  8
0
 10
156.6256313292354
 20
0.0
 30
-156.6256313292354
 70
   192
  0
VERTEX
  5
EB3
  8
0
 10
151.5
 20
0.0
 30
-169.0
 70
   192
  0
VERTEX
  5
EB4
  8
0
 10
156.6256313292354
 20
0.0
 30
-181.3743686707646
 70
   192
  0
VERTEX
  5
EB5
  8
0
 10
0.0
 20
0.0
 30
0.0
 70
   128
 71
    10
 72
    -1
 73
   -11
  0
VERTEX
  5
EB6
  8
0
 10
0.0
 20
0.0
 30
0.0
 70
   128
 71
    11
 72
   -12
 73
   -10
  0
VERTEX
  5
EB7
  8
0
 10
0.0
 20
0.0
 30
0.0
 70
   128
 71
    12
 72
   -13
 73
   -10
  0
VERTEX
  5
EB8
  8
0
 10
0.0
 20
0.0
 30
0.0
 70
   128
 71
    13
 72
   -14
 73
   -10
  0
VERTEX
  5
EB9
  8
0
 10
0.0
 20
0.0
 30
0.0
 70
   128
 71
    14
 72
   -15
 73
   -10
  0
VERTEX
  5
EBA
  8
0
 10
0.0
 20
0.0
 30
0.0
 70
   128
 71
   -16
 72
    33
 73
   -34
  0
VERTEX
  5
EBB
  8
0
 10
0.0
 20
0.0
 30
0.0
 70
   128
 71
    15
 72
   -16
 73
   -34
  0
VERTEX
  5
EBC
  8
0
 10
0.0
 20
0.0
 30
0.0
 70
   128
 71
   -10
 72
   -15
 73
   -34
  0
VERTEX
  5
EBD
  8
0
 10
0.0
 20
0.0
 30
0.0
 70
   128
 71
   -34
 72
     9
 73
   -10
  0
VERTEX
  5
EBE
  8
0
 10
0.0
 20
0.0
 30
0.0
 70
   128
 71
    34
 72
   -27
 73
    -9
  0
VERTEX
  5
EBF
  8
0
 10
0.0
 20
0.0
 30
0.0
 70
   128
 71
   -17
 72
    32
 73
   -33
  0
VERTEX
  5
EC0
  8
0
 10
0.0
 20
0.0
 30
0.0
 70
   128
 71
    16
 72
   -17
 73
   -33
  0
VERTEX
  5
EC1
  8
0
 10
0.0
 20
0.0
 30
0.0
 70
   128
 71
    17
 72
   -18
 73
   -32
  0
VERTEX
  5
EC2
  8
0
 10
0.0
 20
0.0
 30
0.0
 70
   128
 71
    -9
 72
    27
 73
   -28
  0
VERTEX
  5
EC3
  8
0
 10
0.0
 20
0.0
 30
0.0
 70
   128
 71
    28
 72
   -29
 73
    -9
  0
VERTEX
  5
EC4
  8
0
 10
0.0
 20
0.0
 30
0.0
 70
   128
 71
    29
 72
   -30
 73
    -9
  0
VERTEX
  5
EC5
  8
0
 10
0.0
 20
0.0
 30
0.0
 70
   128
 71
     8
 72
    -9
 73
   -30
  0
VERTEX
  5
EC6
  8
0
 10
0.0
 20
0.0
 30
0.0
 70
   128
 71
   -19
 72
    -8
 73
   -30
  0
VERTEX
  5
EC7
  8
0
 10
0.0
 20
0.0
 30
0.0
 70
   128
 71
    30
 72
   -31
 73
   -19
  0
VERTEX
  5
EC8
  8
0
 10
0.0
 20
0.0
 30
0.0
 70
   128
 71
   -32
 72
    18
 73
   -19
  0
VERTEX
  5
EC9
  8
0
 10
0.0
 20
0.0
 30
0.0
 70
   128
 71
    31
 72
   -32
 73
   -19
  0
VERTEX
  5
ECA
  8
0
 10
0.0
 20
0.0
 30
0.0
 70
   128
 71
    19
 72
   -20
 73
    -8
  0
VERTEX
  5
ECB
  8
0
 10
0.0
 20
0.0
 30
0.0
 70
   128
 71
    20
 72
   -21
 73
    -8
  0
VERTEX
  5
ECC
  8
0
 10
0.0
 20
0.0
 30
0.0
 70
   128
 71
    21
 72
   -22
 73
    -8
  0
VERTEX
  5
ECD
  8
0
 10
0.0
 20
0.0
 30
0.0
 70
   128
 71
    22
 72
   -23
 73
    -8
  0
VERTEX
  5
ECE
  8
0
 10
0.0
 20
0.0
 30
0.0
 70
   128
 71
   -23
 72
     7
 73
    -8
  0
VERTEX
  5
ECF
  8
0
 10
0.0
 20
0.0
 30
0.0
 70
   128
 71
    23
 72
   -24
 73
    -7
  0
VERTEX
  5
ED0
  8
0
 10
0.0
 20
0.0
 30
0.0
 70
   128
 71
    24
 72
   -25
 73
    -7
  0
VERTEX
  5
ED1
  8
0
 10
0.0
 20
0.0
 30
0.0
 70
   128
 71
    25
 72
   -26
 73
    -7
  0
VERTEX
  5
ED2
  8
0
 10
0.0
 20
0.0
 30
0.0
 70
   128
 71
     5
 72
     6
 73
    -7
  0
VERTEX
  5
ED3
  8
0
 10
0.0
 20
0.0
 30
0.0
 70
   128
 71
     4
 72
    -5
 73
    -7
  0
VERTEX
  5
ED4
  8
0
 10
0.0
 20
0.0
 30
0.0
 70
   128
 71
     3
 72
    -4
 73
    -7
  0
VERTEX
  5
ED5
  8
0
 10
0.0
 20
0.0
 30
0.0
 70
   128
 71
     2
 72
    -3
 73
    -7
  0
VERTEX
  5
ED6
  8
0
 10
0.0
 20
0.0
 30
0.0
 70
   128
 71
     1
 72
    -2
 73
    -7
  0
VERTEX
  5
ED7
  8
0
 10
0.0
 20
0.0
 30
0.0
 70
   128
 71
   -11
 72
    -1
 73
    -7
  0
VERTEX
  5
ED8
  8
0
 10
0.0
 20
0.0
 30
0.0
 70
   128
 71
    26
 72
   -11
 73
    -7
  0
SEQEND
  5
16F5
  8
0
  0
POLYLINE
  5
ED9
  8
0
 66
     1
 10
0.0
 20
0.0
 30
0.0
 70
    64
 71
     4
 72
     2
  0
VERTEX
  5
EDA
  8
0
 10
-161.0000000000001
 20
-100.0
 30
158.0004569145306
 70
   192
  0
VERTEX
  5
EDB
  8
0
 10
-159.2887943712597
 20
-1.965095187125414
 30
156.2892512857903
 70
   192
  0
VERTEX
  5
EDC
  8
0
 10
-159.2887943712595
 20
-1.965095187125435
 30
-237.0
 70
   192
  0
VERTEX
  5
EDD
  8
0
 10
-161.0
 20
-100.0
 30
-237.0
 70
   192
  0
VERTEX
  5
EDE
  8
0
 10
0.0
 20
0.0
 30
0.0
 70
   128
 71
     3
 72
     4
 73
    -1
  0
VERTEX
  5
EDF
  8
0
 10
0.0
 20
0.0
 30
0.0
 70
   128
 71
     2
 72
    -3
 73
     1
  0
SEQEND
  5
16F6
  8
0
  0
POLYLINE
  5
EE0
  8
0
 66
     1
 10
0.0
 20
0.0
 30
0.0
 70
    64
 71
     4
 72
     2
  0
VERTEX
  5
EE1
  8
0
 10
237.0
 20
-100.0
 30
161.0
 70
   192
  0
VERTEX
  5
EE2
  8
0
 10
237.0
 20
-1.965095187125428
 30
159.2887943712596
 70
   192
  0
VERTEX
  5
EE3
  8
0
 10
-156.2892512857905
 20
-1.965095187125435
 30
159.2887943712595
 70
   192
  0
VERTEX
  5
EE4
  8
0
 10
-158.0004569145308
 20
-100.0
 30
160.9999999999998
 70
   192
  0
VERTEX
  5
EE5
  8
0
 10
0.0
 20
0.0
 30
0.0
 70
   128
 71
     3
 72
     4
 73
    -1
  0
VERTEX
  5
EE6
  8
0
 10
0.0
 20
0.0
 30
0.0
 70
   128
 71
     2
 72
    -3
 73
     1
  0
SEQEND
  5
16F7
  8
0
  0
POLYLINE
  5
EE7
  8
0
 66
     1
 10
0.0
 20
0.0
 30
0.0
 70
    64
 71
    16
 72
    16
  0
VERTEX
  5
EE8
  8
0
 10
239.0
 20
-100.0
 30
-237.0
 70
   192
  0
VERTEX
  5
EE9
  8
0
 10
239.0
 20
-100.0
 30
158.999695343912
 70
   192
  0
VERTEX
  5
EEA
  8
0
 10
239.0
 20
-2.0
 30
157.289098980947
 70
   192
  0
VERTEX
  5
EEB
  8
0
 10
239.0
 20
-2.0
 30
-237.0
 70
   192
  0
VERTEX
  5
EEC
  8
0
 10
239.0
 20
-34.0
 30
31.0
 70
   192
  0
VERTEX
  5
EED
  8
0
 10
239.0
 20
-36.34314575050762
 30
36.65685424949238
 70
   192
  0
VERTEX
  5
EEE
  8
0
 10
239.0
 20
-42.0
 30
39.0
 70
   192
  0
VERTEX
  5
EEF
  8
0
 10
239.0
 20
-47.65685424949238
 30
36.65685424949238
 70
   192
  0
VERTEX
  5
EF0
  8
0
 10
239.0
 20
-50.0
 30
31.0
 70
   192
  0
VERTEX
  5
EF1
  8
0
 10
239.0
 20
-50.0
 30
-49.0
 70
   192
  0
VERTEX
  5
EF2
  8
0
 10
239.0
 20
-48.92820323027551
 30
-53.0
 70
   192
  0
VERTEX
  5
EF3
  8
0
 10
239.0
 20
-46.0
 30
-55.92820323027551
 70
   192
  0
VERTEX
  5
EF4
  8
0
 10
239.0
 20
-42.0
 30
-57.0
 70
   192
  0
VERTEX
  5
EF5
  8
0
 10
239.0
 20
-38.0
 30
-55.92820323027551
 70
   192
  0
VERTEX
  5
EF6
  8
0
 10
239.0
 20
-35.07179676972449
 30
-53.0
 70
   192
  0
VERTEX
  5
EF7
  8
0
 10
239.0
 20
-34.0
 30
-49.0
 70
   192
  0
VERTEX
  5
EF8
  8
0
 10
0.0
 20
0.0
 30
0.0
 70
   128
 71
     6
 72
    -5
 73
    -3
  0
VERTEX
  5
EF9
  8
0
 10
0.0
 20
0.0
 30
0.0
 70
   128
 71
    -3
 72
     7
 73
    -6
  0
VERTEX
  5
EFA
  8
0
 10
0.0
 20
0.0
 30
0.0
 70
   128
 71
    -3
 72
     8
 73
    -7
  0
VERTEX
  5
EFB
  8
0
 10
0.0
 20
0.0
 30
0.0
 70
   128
 71
    -3
 72
     9
 73
    -8
  0
VERTEX
  5
EFC
  8
0
 10
0.0
 20
0.0
 30
0.0
 70
   128
 71
    -9
 72
     3
 73
    -2
  0
VERTEX
  5
EFD
  8
0
 10
0.0
 20
0.0
 30
0.0
 70
   128
 71
     2
 72
    -1
 73
   -10
  0
VERTEX
  5
EFE
  8
0
 10
0.0
 20
0.0
 30
0.0
 70
   128
 71
    -2
 72
    10
 73
    -9
  0
VERTEX
  5
EFF
  8
0
 10
0.0
 20
0.0
 30
0.0
 70
   128
 71
    -1
 72
    11
 73
   -10
  0
VERTEX
  5
F00
  8
0
 10
0.0
 20
0.0
 30
0.0
 70
   128
 71
    -1
 72
    12
 73
   -11
  0
VERTEX
  5
F01
  8
0
 10
0.0
 20
0.0
 30
0.0
 70
   128
 71
     1
 72
    -4
 73
   -13
  0
VERTEX
  5
F02
  8
0
 10
0.0
 20
0.0
 30
0.0
 70
   128
 71
    -1
 72
    13
 73
   -12
  0
VERTEX
  5
F03
  8
0
 10
0.0
 20
0.0
 30
0.0
 70
   128
 71
    -4
 72
    14
 73
   -13
  0
VERTEX
  5
F04
  8
0
 10
0.0
 20
0.0
 30
0.0
 70
   128
 71
    -4
 72
    15
 73
   -14
  0
VERTEX
  5
F05
  8
0
 10
0.0
 20
0.0
 30
0.0
 70
   128
 71
    -4
 72
    16
 73
   -15
  0
VERTEX
  5
F06
  8
0
 10
0.0
 20
0.0
 30
0.0
 70
   128
 71
     4
 72
    -3
 73
    -5
  0
VERTEX
  5
F07
  8
0
 10
0.0
 20
0.0
 30
0.0
 70
   128
 71
    -4
 72
     5
 73
   -16
  0
SEQEND
  5
16F8
  8
0
  0
POLYLINE
  5
F08
  8
0
 66
     1
 10
0.0
 20
0.0
 30
0.0
 70
    64
 71
    12
 72
    12
  0
VERTEX
  5
F09
  8
0
 10
-158.999695343912
 20
-100.0
 30
-239.0
 70
   192
  0
VERTEX
  5
F0A
  8
0
 10
237.0
 20
-100.0
 30
-239.0
 70
   192
  0
VERTEX
  5
F0B
  8
0
 10
237.0
 20
-2.0
 30
-239.0
 70
   192
  0
VERTEX
  5
F0C
  8
0
 10
-157.289098980947
 20
-2.0
 30
-239.0
 70
   192
  0
VERTEX
  5
F0D
  8
0
 10
87.0
 20
-42.0
 30
-239.0
 70
   192
  0
VERTEX
  5
F0E
  8
0
 10
84.65685424949237
 20
-47.65685424949238
 30
-239.0
 70
   192
  0
VERTEX
  5
F0F
  8
0
 10
79.0
 20
-49.99999999999999
 30
-239.0
 70
   192
  0
VERTEX
  5
F10
  8
0
 10
73.34314575050763
 20
-47.65685424949238
 30
-239.0
 70
   192
  0
VERTEX
  5
F11
  8
0
 10
71.0
 20
-42.0
 30
-239.0
 70
   192
  0
VERTEX
  5
F12
  8
0
 10
73.34314575050763
 20
-36.34314575050762
 30
-239.0
 70
   192
  0
VERTEX
  5
F13
  8
0
 10
79.0
 20
-34.00000000000001
 30
-239.0
 70
   192
  0
VERTEX
  5
F14
  8
0
 10
84.65685424949237
 20
-36.34314575050762
 30
-239.0
 70
   192
  0
VERTEX
  5
F15
  8
0
 10
0.0
 20
0.0
 30
0.0
 70
   128
 71
     6
 72
    -5
 73
    -3
  0
VERTEX
  5
F16
  8
0
 10
0.0
 20
0.0
 30
0.0
 70
   128
 71
    -6
 72
     3
 73
    -2
  0
VERTEX
  5
F17
  8
0
 10
0.0
 20
0.0
 30
0.0
 70
   128
 71
    -2
 72
     7
 73
    -6
  0
VERTEX
  5
F18
  8
0
 10
0.0
 20
0.0
 30
0.0
 70
   128
 71
    -7
 72
     2
 73
    -1
  0
VERTEX
  5
F19
  8
0
 10
0.0
 20
0.0
 30
0.0
 70
   128
 71
    -1
 72
     8
 73
    -7
  0
VERTEX
  5
F1A
  8
0
 10
0.0
 20
0.0
 30
0.0
 70
   128
 71
     1
 72
    -4
 73
    -9
  0
VERTEX
  5
F1B
  8
0
 10
0.0
 20
0.0
 30
0.0
 70
   128
 71
    -1
 72
     9
 73
    -8
  0
VERTEX
  5
F1C
  8
0
 10
0.0
 20
0.0
 30
0.0
 70
   128
 71
    -4
 72
    10
 73
    -9
  0
VERTEX
  5
F1D
  8
0
 10
0.0
 20
0.0
 30
0.0
 70
   128
 71
    -4
 72
    11
 73
   -10
  0
VERTEX
  5
F1E
  8
0
 10
0.0
 20
0.0
 30
0.0
 70
   128
 71
     4
 72
    -3
 73
   -11
  0
VERTEX
  5
F1F
  8
0
 10
0.0
 20
0.0
 30
0.0
 70
   128
 71
    -3
 72
    12
 73
   -11
  0
VERTEX
  5
F20
  8
0
 10
0.0
 20
0.0
 30
0.0
 70
   128
 71
    -3
 72
     5
 73
   -12
  0
SEQEND
  5
16F9
  8
0
  0
POLYLINE
  5
F21
  8
0
 66
     1
 10
0.0
 20
0.0
 30
0.0
 70
    64
 71
    27
 72
    28
  0
VERTEX
  5
F22
  8
0
 10
83.85209348287464
 20
-68.19626222420823
 30
-0.0000000000037949
 70
   192
  0
VERTEX
  5
F23
  8
0
 10
37.92161779027995
 20
-79.9048307674428
 30
-0.0000000000000401
 70
   192
  0
VERTEX
  5
F24
  8
0
 10
37.89293716890263
 20
-79.90490360058705
 30
1.439885790368952
 70
   192
  0
VERTEX
  5
F25
  8
0
 10
37.80801905619547
 20
-79.90514416231636
 30
2.87349166226573
 70
   192
  0
VERTEX
  5
F26
  8
0
 10
37.66824876252415
 20
-79.9055775038058
 30
4.300972299690915
 70
   192
  0
VERTEX
  5
F27
  8
0
 10
145.1285911555238
 20
-1.537503841813675
 30
101.4118475012283
 70
   192
  0
VERTEX
  5
F28
  8
0
 10
121.9341923010872
 20
-41.23859597745514
 30
-0.0000000000043157
 70
   192
  0
VERTEX
  5
F29
  8
0
 10
87.18407277272726
 20
-56.35985724798847
 30
87.18408396939498
 70
   192
  0
VERTEX
  5
F2A
  8
0
 10
133.6433174381985
 20
-1.260507036757933
 30
130.4680169799754
 70
   192
  0
VERTEX
  5
F2B
  8
0
 10
147.992226466532
 20
-1.789637478704865
 30
38.6053110048253
 70
   192
  0
VERTEX
  5
F2C
  8
0
 10
148.0864316039471
 20
-1.807252184091933
 30
25.0500629508222
 70
   192
  0
VERTEX
  5
F2D
  8
0
 10
148.1835271244635
 20
-1.817820282834072
 30
12.01595477415809
 70
   192
  0
VERTEX
  5
F2E
  8
0
 10
148.2381908663642
 20
-1.821342854905935
 30
0.0000000000000095
 70
   192
  0
VERTEX
  5
F2F
  8
0
 10
0.0000000001266692
 20
-56.35985724798856
 30
104.2458785307432
 70
   192
  0
VERTEX
  5
F30
  8
0
 10
105.9263981061411
 20
-1.497442659874773
 30
144.3282112278867
 70
   192
  0
VERTEX
  5
F31
  8
0
 10
-112.8766589847483
 20
-1.427062173862065
 30
142.6554882587938
 70
   192
  0
VERTEX
  5
F32
  8
0
 10
-81.81220517808273
 20
-1.664575286259836
 30
147.0638962695657
 70
   192
  0
VERTEX
  5
F33
  8
0
 10
-87.18408396939112
 20
-56.35985724798842
 30
87.18407277271639
 70
   192
  0
VERTEX
  5
F34
  8
0
 10
-19.15717922438909
 20
-1.812728206394011
 30
148.1293902571852
 70
   192
  0
VERTEX
  5
F35
  8
0
 10
-27.63967867572471
 20
-79.92321452609742
 30
26.08283868559001
 70
   192
  0
VERTEX
  5
F36
  8
0
 10
-37.9216177902786
 20
-79.90483076744259
 30
-0.000000000000011
 70
   192
  0
VERTEX
  5
F37
  8
0
 10
-83.85209348287532
 20
-68.19626222420854
 30
0.0000000000000383
 70
   192
  0
VERTEX
  5
F38
  8
0
 10
-121.9341923010885
 20
-41.2385959774555
 30
0.0000000000000516
 70
   192
  0
VERTEX
  5
F39
  8
0
 10
-148.2381908663642
 20
-1.82134285490609
 30
0.0000000000000036
 70
   192
  0
VERTEX
  5
F3A
  8
0
 10
-137.785265748347
 20
-1.29963446383865
 30
124.666782176879
 70
   192
  0
VERTEX
  5
F3B
  8
0
 10
24.47509337247669
 20
-79.92274353891989
 30
29.06613817119052
 70
   192
  0
VERTEX
  5
F3C
  8
0
 10
-2.190561474814213
 20
-79.90500651031411
 30
37.85542957697221
 70
   192
  0
VERTEX
  5
F3D
  8
0
 10
0.0
 20
0.0
 30
0.0
 70
   128
 71
     1
 72
     2
 73
     3
  0
VERTEX
  5
F3E
  8
0
 10
0.0
 20
0.0
 30
0.0
 70
   128
 71
     3
 72
     4
 73
     1
  0
VERTEX
  5
F3F
  8
0
 10
0.0
 20
0.0
 30
0.0
 70
   128
 71
     4
 72
     5
 73
     1
  0
VERTEX
  5
F40
  8
0
 10
0.0
 20
0.0
 30
0.0
 70
   128
 71
     6
 72
     7
 73
     8
  0
VERTEX
  5
F41
  8
0
 10
0.0
 20
0.0
 30
0.0
 70
   128
 71
     9
 72
     6
 73
     8
  0
VERTEX
  5
F42
  8
0
 10
0.0
 20
0.0
 30
0.0
 70
   128
 71
     6
 72
    10
 73
     7
  0
VERTEX
  5
F43
  8
0
 10
0.0
 20
0.0
 30
0.0
 70
   128
 71
    10
 72
    11
 73
     7
  0
VERTEX
  5
F44
  8
0
 10
0.0
 20
0.0
 30
0.0
 70
   128
 71
    11
 72
    12
 73
     7
  0
VERTEX
  5
F45
  8
0
 10
0.0
 20
0.0
 30
0.0
 70
   128
 71
    12
 72
    13
 73
     7
  0
VERTEX
  5
F46
  8
0
 10
0.0
 20
0.0
 30
0.0
 70
   128
 71
     8
 72
    14
 73
    15
  0
VERTEX
  5
F47
  8
0
 10
0.0
 20
0.0
 30
0.0
 70
   128
 71
    16
 72
    17
 73
    18
  0
VERTEX
  5
F48
  8
0
 10
0.0
 20
0.0
 30
0.0
 70
   128
 71
    18
 72
    17
 73
    19
  0
VERTEX
  5
F49
  8
0
 10
0.0
 20
0.0
 30
0.0
 70
   128
 71
    14
 72
    18
 73
    19
  0
VERTEX
  5
F4A
  8
0
 10
0.0
 20
0.0
 30
0.0
 70
   128
 71
    20
 72
    21
 73
    22
  0
VERTEX
  5
F4B
  8
0
 10
0.0
 20
0.0
 30
0.0
 70
   128
 71
    18
 72
    20
 73
    22
  0
VERTEX
  5
F4C
  8
0
 10
0.0
 20
0.0
 30
0.0
 70
   128
 71
    23
 72
    24
 73
    25
  0
VERTEX
  5
F4D
  8
0
 10
0.0
 20
0.0
 30
0.0
 70
   128
 71
     7
 72
     1
 73
     8
  0
VERTEX
  5
F4E
  8
0
 10
0.0
 20
0.0
 30
0.0
 70
   128
 71
    23
 72
    18
 73
    22
  0
VERTEX
  5
F4F
  8
0
 10
0.0
 20
0.0
 30
0.0
 70
   128
 71
     1
 72
     5
 73
    26
  0
VERTEX
  5
F50
  8
0
 10
0.0
 20
0.0
 30
0.0
 70
   128
 71
     8
 72
     1
 73
    26
  0
VERTEX
  5
F51
  8
0
 10
0.0
 20
0.0
 30
0.0
 70
   128
 71
     9
 72
     8
 73
    15
  0
VERTEX
  5
F52
  8
0
 10
0.0
 20
0.0
 30
0.0
 70
   128
 71
     8
 72
    26
 73
    27
  0
VERTEX
  5
F53
  8
0
 10
0.0
 20
0.0
 30
0.0
 70
   128
 71
    14
 72
     8
 73
    27
  0
VERTEX
  5
F54
  8
0
 10
0.0
 20
0.0
 30
0.0
 70
   128
 71
    15
 72
    14
 73
    19
  0
VERTEX
  5
F55
  8
0
 10
0.0
 20
0.0
 30
0.0
 70
   128
 71
    14
 72
    27
 73
    20
  0
VERTEX
  5
F56
  8
0
 10
0.0
 20
0.0
 30
0.0
 70
   128
 71
    18
 72
    14
 73
    20
  0
VERTEX
  5
F57
  8
0
 10
0.0
 20
0.0
 30
0.0
 70
   128
 71
    18
 72
    23
 73
    25
  0
VERTEX
  5
F58
  8
0
 10
0.0
 20
0.0
 30
0.0
 70
   128
 71
    16
 72
    18
 73
    25
  0
SEQEND
  5
16FA
  8
0
  0
POLYLINE
  5
F59
  8
0
 66
     1
 10
0.0
 20
0.0
 30
0.0
 70
    64
 71
    20
 72
    20
  0
VERTEX
  5
F5A
  8
0
 10
207.9508775352265
 20
-13.0
 30
133.9508775352266
 70
   192
  0
VERTEX
  5
F5B
  8
0
 10
207.9508775352265
 20
-13.0
 30
-207.9508775352265
 70
   192
  0
VERTEX
  5
F5C
  8
0
 10
-133.9508775352266
 20
-13.0
 30
-207.9508775352265
 70
   192
  0
VERTEX
  5
F5D
  8
0
 10
-133.9508775352266
 20
-13.0
 30
-144.298199671653
 70
   192
  0
VERTEX
  5
F5E
  8
0
 10
-66.50928819232828
 20
-13.0
 30
-160.1392288887408
 70
   192
  0
VERTEX
  5
F5F
  8
0
 10
3.44994868832138
 20
-13.0
 30
-161.1305871081945
 70
   192
  0
VERTEX
  5
F60
  8
0
 10
73.39322259669868
 20
-13.0
 30
-159.8380839932778
 70
   192
  0
VERTEX
  5
F61
  8
0
 10
139.1065209040442
 20
-13.0
 30
-139.8890515276034
 70
   192
  0
VERTEX
  5
F62
  8
0
 10
159.7946758175334
 20
-13.0
 30
-74.22921210532498
 70
   192
  0
VERTEX
  5
F63
  8
0
 10
161.1287016691713
 20
-13.0
 30
-3.897513348131458
 70
   192
  0
VERTEX
  5
F64
  8
0
 10
160.1415669561462
 20
-13.0
 30
66.44458775738016
 70
   192
  0
VERTEX
  5
F65
  8
0
 10
144.2981787358552
 20
-13.0
 30
133.9508775352266
 70
   192
  0
VERTEX
  5
F66
  8
0
 10
169.0
 20
-13.0
 30
-151.5
 70
   192
  0
VERTEX
  5
F67
  8
0
 10
156.6256313292354
 20
-13.0
 30
-156.6256313292354
 70
   192
  0
VERTEX
  5
F68
  8
0
 10
151.5
 20
-13.0
 30
-169.0
 70
   192
  0
VERTEX
  5
F69
  8
0
 10
156.6256313292354
 20
-13.0
 30
-181.3743686707646
 70
   192
  0
VERTEX
  5
F6A
  8
0
 10
169.0
 20
-13.0
 30
-186.5
 70
   192
  0
VERTEX
  5
F6B
  8
0
 10
181.3743686707646
 20
-13.0
 30
-181.3743686707646
 70
   192
  0
VERTEX
  5
F6C
  8
0
 10
186.5
 20
-13.0
 30
-169.0
 70
   192
  0
VERTEX
  5
F6D
  8
0
 10
181.3743686707646
 20
-13.0
 30
-156.6256313292354
 70
   192
  0
VERTEX
  5
F6E
  8
0
 10
0.0
 20
0.0
 30
0.0
 70
   128
 71
     5
 72
     4
 73
    -3
  0
VERTEX
  5
F6F
  8
0
 10
0.0
 20
0.0
 30
0.0
 70
   128
 71
    -3
 72
     6
 73
    -5
  0
VERTEX
  5
F70
  8
0
 10
0.0
 20
0.0
 30
0.0
 70
   128
 71
     3
 72
    -2
 73
    -7
  0
VERTEX
  5
F71
  8
0
 10
0.0
 20
0.0
 30
0.0
 70
   128
 71
    -3
 72
     7
 73
    -6
  0
VERTEX
  5
F72
  8
0
 10
0.0
 20
0.0
 30
0.0
 70
   128
 71
    15
 72
   -14
 73
    -8
  0
VERTEX
  5
F73
  8
0
 10
0.0
 20
0.0
 30
0.0
 70
   128
 71
    -8
 72
    16
 73
   -15
  0
VERTEX
  5
F74
  8
0
 10
0.0
 20
0.0
 30
0.0
 70
   128
 71
   -16
 72
     8
 73
    -7
  0
VERTEX
  5
F75
  8
0
 10
0.0
 20
0.0
 30
0.0
 70
   128
 71
    -7
 72
    -2
 73
   -16
  0
VERTEX
  5
F76
  8
0
 10
0.0
 20
0.0
 30
0.0
 70
   128
 71
    -2
 72
    17
 73
   -16
  0
VERTEX
  5
F77
  8
0
 10
0.0
 20
0.0
 30
0.0
 70
   128
 71
    -2
 72
    18
 73
   -17
  0
VERTEX
  5
F78
  8
0
 10
0.0
 20
0.0
 30
0.0
 70
   128
 71
    -2
 72
    19
 73
   -18
  0
VERTEX
  5
F79
  8
0
 10
0.0
 20
0.0
 30
0.0
 70
   128
 71
    -2
 72
    20
 73
   -19
  0
VERTEX
  5
F7A
  8
0
 10
0.0
 20
0.0
 30
0.0
 70
   128
 71
   -20
 72
     2
 73
    -1
  0
VERTEX
  5
F7B
  8
0
 10
0.0
 20
0.0
 30
0.0
 70
   128
 71
    -1
 72
    13
 73
   -20
  0
VERTEX
  5
F7C
  8
0
 10
0.0
 20
0.0
 30
0.0
 70
   128
 71
    14
 72
   -13
 73
    -9
  0
VERTEX
  5
F7D
  8
0
 10
0.0
 20
0.0
 30
0.0
 70
   128
 71
   -14
 72
     9
 73
    -8
  0
VERTEX
  5
F7E
  8
0
 10
0.0
 20
0.0
 30
0.0
 70
   128
 71
   -13
 72
    -1
 73
   -10
  0
VERTEX
  5
F7F
  8
0
 10
0.0
 20
0.0
 30
0.0
 70
   128
 71
   -13
 72
    10
 73
    -9
  0
VERTEX
  5
F80
  8
0
 10
0.0
 20
0.0
 30
0.0
 70
   128
 71
    -1
 72
    11
 73
   -10
  0
VERTEX
  5
F81
  8
0
 10
0.0
 20
0.0
 30
0.0
 70
   128
 71
     1
 72
    12
 73
   -11
  0
SEQEND
  5
16FB
  8
0
  0
POLYLINE
  5
F82
  8
0
 66
     1
 10
0.0
 20
0.0
 30
0.0
 70
    64
 71
     8
 72
     6
  0
VERTEX
  5
F83
  8
0
 10
-143.9371728827724
 20
-22.47664043757055
 30
-207.9508775352265
 70
   192
  0
VERTEX
  5
F84
  8
0
 10
-143.9371728827724
 20
-22.47664043757055
 30
-136.7376330972788
 70
   192
  0
VERTEX
  5
F85
  8
0
 10
-145.211921430275
 20
-46.80029171495102
 30
-71.87643861573137
 70
   192
  0
VERTEX
  5
F86
  8
0
 10
-145.3839477028987
 20
-50.08274853676321
 30
-1.719049002680658
 70
   192
  0
VERTEX
  5
F87
  8
0
 10
-145.2316679584684
 20
-47.17707791851706
 30
68.46147610546006
 70
   192
  0
VERTEX
  5
F88
  8
0
 10
-144.0464336836792
 20
-24.5614607142867
 30
134.0601383361336
 70
   192
  0
VERTEX
  5
F89
  8
0
 10
-147.9999999999999
 20
-100.0
 30
138.0137046524543
 70
   192
  0
VERTEX
  5
F8A
  8
0
 10
-148.0
 20
-100.0
 30
-212.0137046524545
 70
   192
  0
VERTEX
  5
F8B
  8
0
 10
0.0
 20
0.0
 30
0.0
 70
   128
 71
     1
 72
     2
 73
    -3
  0
VERTEX
  5
F8C
  8
0
 10
0.0
 20
0.0
 30
0.0
 70
   128
 71
     8
 72
    -1
 73
    -3
  0
VERTEX
  5
F8D
  8
0
 10
0.0
 20
0.0
 30
0.0
 70
   128
 71
    -4
 72
     7
 73
    -8
  0
VERTEX
  5
F8E
  8
0
 10
0.0
 20
0.0
 30
0.0
 70
   128
 71
     3
 72
    -4
 73
    -8
  0
VERTEX
  5
F8F
  8
0
 10
0.0
 20
0.0
 30
0.0
 70
   128
 71
     4
 72
    -5
 73
    -7
  0
VERTEX
  5
F90
  8
0
 10
0.0
 20
0.0
 30
0.0
 70
   128
 71
     5
 72
     6
 73
    -7
  0
SEQEND
  5
16FC
  8
0
  0
POLYLINE
  5
F91
  8
0
 66
     1
 10
0.0
 20
0.0
 30
0.0
 70
    64
 71
     8
 72
     6
  0
VERTEX
  5
F92
  8
0
 10
-138.0137046524543
 20
-100.0
 30
147.9999999999999
 70
   192
  0
VERTEX
  5
F93
  8
0
 10
-134.0601380057478
 20
-24.56145441014955
 30
144.0464333532934
 70
   192
  0
VERTEX
  5
F94
  8
0
 10
-68.46151563139503
 20
-47.17704332073001
 30
145.2316661452751
 70
   192
  0
VERTEX
  5
F95
  8
0
 10
1.719006787390377
 20
-50.08275075027577
 30
145.383947818904
 70
   192
  0
VERTEX
  5
F96
  8
0
 10
71.87641039492063
 20
-46.80033153226606
 30
145.211923517012
 70
   192
  0
VERTEX
  5
F97
  8
0
 10
136.7376355994162
 20
-22.47664043757055
 30
143.9371728827724
 70
   192
  0
VERTEX
  5
F98
  8
0
 10
207.9508775352265
 20
-22.47664043757055
 30
143.9371728827724
 70
   192
  0
VERTEX
  5
F99
  8
0
 10
212.0137046524542
 20
-100.0
 30
147.9999999999999
 70
   192
  0
VERTEX
  5
F9A
  8
0
 10
0.0
 20
0.0
 30
0.0
 70
   128
 71
     1
 72
     2
 73
    -3
  0
VERTEX
  5
F9B
  8
0
 10
0.0
 20
0.0
 30
0.0
 70
   128
 71
     3
 72
    -4
 73
    -1
  0
VERTEX
  5
F9C
  8
0
 10
0.0
 20
0.0
 30
0.0
 70
   128
 71
    -5
 72
     8
 73
    -1
  0
VERTEX
  5
F9D
  8
0
 10
0.0
 20
0.0
 30
0.0
 70
   128
 71
     4
 72
    -5
 73
    -1
  0
VERTEX
  5
F9E
  8
0
 10
0.0
 20
0.0
 30
0.0
 70
   128
 71
     6
 72
     7
 73
    -8
  0
VERTEX
  5
F9F
  8
0
 10
0.0
 20
0.0
 30
0.0
 70
   128
 71
     5
 72
    -6
 73
    -8
  0
SEQEND
  5
16FD
  8
0
  0
POLYLINE
  5
FA0
  8
0
 66
     1
 10
0.0
 20
0.0
 30
0.0
 70
    64
 71
    24
 72
    22
  0
VERTEX
  5
FA1
  8
0
 10
-134.9015022207343
 20
-45.04086771510438
 30
-46.70157016994541
 70
   192
  0
VERTEX
  5
FA2
  8
0
 10
-134.8231213553032
 20
-39.30121012349262
 30
-92.24704350580035
 70
   192
  0
VERTEX
  5
FA3
  8
0
 10
-114.1243156078497
 20
-65.25389527671548
 30
0.0000000000006065
 70
   192
  0
VERTEX
  5
FA4
  8
0
 10
-134.9422006037392
 20
-46.3757604388901
 30
0.0000000000005722
 70
   192
  0
VERTEX
  5
FA5
  8
0
 10
-90.0256087245517
 20
-79.66063533084497
 30
0.0000000000004507
 70
   192
  0
VERTEX
  5
FA6
  8
0
 10
-63.06111138519093
 20
-89.12831606519549
 30
-6.042042173454503
 70
   192
  0
VERTEX
  5
FA7
  8
0
 10
-63.3376211239859
 20
-89.1030569249661
 30
0.0000000000002191
 70
   192
  0
VERTEX
  5
FA8
  8
0
 10
-62.23666894604428
 20
-89.2151308620858
 30
-12.03701839338125
 70
   192
  0
VERTEX
  5
FA9
  8
0
 10
100.7354685374691
 20
-74.05118569232228
 30
-0.0000000000052157
 70
   192
  0
VERTEX
  5
FAA
  8
0
 10
63.33762112398581
 20
-89.10305692496591
 30
-0.0000000000025271
 70
   192
  0
VERTEX
  5
FAB
  8
0
 10
48.21117664116056
 20
-90.13686390574433
 30
-41.82806946920491
 70
   192
  0
VERTEX
  5
FAC
  8
0
 10
151.4621603397607
 20
-15.72854792750487
 30
-103.5279207704061
 70
   192
  0
VERTEX
  5
FAD
  8
0
 10
155.8053424208865
 20
-16.2496916296019
 30
-0.0000000000017642
 70
   192
  0
VERTEX
  5
FAE
  8
0
 10
132.2343523871783
 20
-49.2870862225165
 30
-0.0000000000054312
 70
   192
  0
VERTEX
  5
FAF
  8
0
 10
9.05604790021127
 20
-89.16373537821391
 30
-62.71595446891958
 70
   192
  0
VERTEX
  5
FB0
  8
0
 10
-134.6164357828162
 20
-18.97415602841695
 30
-133.5201258832736
 70
   192
  0
VERTEX
  5
FB1
  8
0
 10
-134.1988454236153
 20
-17.24108850141266
 30
-135.9200713390513
 70
   192
  0
VERTEX
  5
FB2
  8
0
 10
-133.0495701783157
 20
-15.91539080858272
 30
-138.36706875865
 70
   192
  0
VERTEX
  5
FB3
  8
0
 10
-131.112062118432
 20
-15.3256142257394
 30
-140.4981975385902
 70
   192
  0
VERTEX
  5
FB4
  8
0
 10
-30.14821474226248
 20
-16.21531555757261
 30
-155.5511006731353
 70
   192
  0
VERTEX
  5
FB5
  8
0
 10
-34.49257310656611
 20
-89.95208725517085
 30
-53.59451236002933
 70
   192
  0
VERTEX
  5
FB6
  8
0
 10
-60.8619654934443
 20
-89.3635905620546
 30
-17.96403203484135
 70
   192
  0
VERTEX
  5
FB7
  8
0
 10
73.04718744518934
 20
-16.04030448059109
 30
-154.6297407876714
 70
   192
  0
VERTEX
  5
FB8
  8
0
 10
123.4885758670417
 20
-15.41831160931249
 30
-145.1163143805099
 70
   192
  0
VERTEX
  5
FB9
  8
0
 10
0.0
 20
0.0
 30
0.0
 70
   128
 71
     1
 72
     2
 73
     3
  0
VERTEX
  5
FBA
  8
0
 10
0.0
 20
0.0
 30
0.0
 70
   128
 71
     3
 72
     4
 73
     1
  0
VERTEX
  5
FBB
  8
0
 10
0.0
 20
0.0
 30
0.0
 70
   128
 71
     2
 72
     5
 73
     3
  0
VERTEX
  5
FBC
  8
0
 10
0.0
 20
0.0
 30
0.0
 70
   128
 71
     2
 72
     6
 73
     5
  0
VERTEX
  5
FBD
  8
0
 10
0.0
 20
0.0
 30
0.0
 70
   128
 71
     6
 72
     7
 73
     5
  0
VERTEX
  5
FBE
  8
0
 10
0.0
 20
0.0
 30
0.0
 70
   128
 71
     2
 72
     8
 73
     6
  0
VERTEX
  5
FBF
  8
0
 10
0.0
 20
0.0
 30
0.0
 70
   128
 71
     9
 72
    10
 73
    11
  0
VERTEX
  5
FC0
  8
0
 10
0.0
 20
0.0
 30
0.0
 70
   128
 71
    12
 72
    13
 73
    14
  0
VERTEX
  5
FC1
  8
0
 10
0.0
 20
0.0
 30
0.0
 70
   128
 71
    15
 72
    16
 73
    17
  0
VERTEX
  5
FC2
  8
0
 10
0.0
 20
0.0
 30
0.0
 70
   128
 71
    15
 72
    17
 73
    18
  0
VERTEX
  5
FC3
  8
0
 10
0.0
 20
0.0
 30
0.0
 70
   128
 71
    15
 72
    18
 73
    19
  0
VERTEX
  5
FC4
  8
0
 10
0.0
 20
0.0
 30
0.0
 70
   128
 71
    15
 72
    19
 73
    20
  0
VERTEX
  5
FC5
  8
0
 10
0.0
 20
0.0
 30
0.0
 70
   128
 71
    15
 72
    21
 73
    22
  0
VERTEX
  5
FC6
  8
0
 10
0.0
 20
0.0
 30
0.0
 70
   128
 71
    15
 72
    22
 73
     8
  0
VERTEX
  5
FC7
  8
0
 10
0.0
 20
0.0
 30
0.0
 70
   128
 71
    15
 72
     8
 73
     2
  0
VERTEX
  5
FC8
  8
0
 10
0.0
 20
0.0
 30
0.0
 70
   128
 71
    15
 72
     2
 73
    16
  0
VERTEX
  5
FC9
  8
0
 10
0.0
 20
0.0
 30
0.0
 70
   128
 71
    23
 72
    15
 73
    20
  0
VERTEX
  5
FCA
  8
0
 10
0.0
 20
0.0
 30
0.0
 70
   128
 71
    12
 72
    23
 73
    24
  0
VERTEX
  5
FCB
  8
0
 10
0.0
 20
0.0
 30
0.0
 70
   128
 71
    12
 72
    14
 73
     9
  0
VERTEX
  5
FCC
  8
0
 10
0.0
 20
0.0
 30
0.0
 70
   128
 71
    12
 72
     9
 73
    11
  0
VERTEX
  5
FCD
  8
0
 10
0.0
 20
0.0
 30
0.0
 70
   128
 71
    12
 72
    11
 73
    15
  0
VERTEX
  5
FCE
  8
0
 10
0.0
 20
0.0
 30
0.0
 70
   128
 71
    12
 72
    15
 73
    23
  0
SEQEND
  5
16FE
  8
0
  0
POLYLINE
  5
FCF
  8
0
 66
     1
 10
0.0
 20
0.0
 30
0.0
 70
    64
 71
     8
 72
     6
  0
VERTEX
  5
FD0
  8
0
 10
212.9361456931223
 20
-22.28596738430465
 30
142.5901633169098
 70
   192
  0
VERTEX
  5
FD1
  8
0
 10
216.5901633169097
 20
-22.28596738430465
 30
138.9361456931224
 70
   192
  0
VERTEX
  5
FD2
  8
0
 10
220.7249852796052
 20
-100.0
 30
142.8999411184205
 70
   192
  0
VERTEX
  5
FD3
  8
0
 10
216.8999411184207
 20
-100.0
 30
146.7249852796051
 70
   192
  0
VERTEX
  5
FD4
  8
0
 10
212.0137046524542
 20
-100.0
 30
147.9999999999999
 70
   192
  0
VERTEX
  5
FD5
  8
0
 10
207.9508775352266
 20
-22.47664043757058
 30
143.9371728827723
 70
   192
  0
VERTEX
  5
FD6
  8
0
 10
217.9371728827722
 20
-22.47664043757056
 30
133.9508775352266
 70
   192
  0
VERTEX
  5
FD7
  8
0
 10
221.9999999999998
 20
-100.0
 30
138.0137046524543
 70
   192
  0
VERTEX
  5
FD8
  8
0
 10
0.0
 20
0.0
 30
0.0
 70
   128
 71
     1
 72
     2
 73
    -3
  0
VERTEX
  5
FD9
  8
0
 10
0.0
 20
0.0
 30
0.0
 70
   128
 71
     4
 72
    -1
 73
     3
  0
VERTEX
  5
FDA
  8
0
 10
0.0
 20
0.0
 30
0.0
 70
   128
 71
     5
 72
     6
 73
     1
  0
VERTEX
  5
FDB
  8
0
 10
0.0
 20
0.0
 30
0.0
 70
   128
 71
     2
 72
     7
 73
     8
  0
VERTEX
  5
FDC
  8
0
 10
0.0
 20
0.0
 30
0.0
 70
   128
 71
     3
 72
     2
 73
     8
  0
VERTEX
  5
FDD
  8
0
 10
0.0
 20
0.0
 30
0.0
 70
   128
 71
     5
 72
     1
 73
     4
  0
SEQEND
  5
16FF
  8
0
  0
POLYLINE
  5
FDE
  8
0
 66
     1
 10
0.0
 20
0.0
 30
0.0
 70
    64
 71
     8
 72
     6
  0
VERTEX
  5
FDF
  8
0
 10
-146.7249852796052
 20
-100.0
 30
142.8999411184206
 70
   192
  0
VERTEX
  5
FE0
  8
0
 10
-147.9999999999999
 20
-100.0
 30
138.0137046524543
 70
   192
  0
VERTEX
  5
FE1
  8
0
 10
-144.0464336836792
 20
-24.5614607142867
 30
134.0601383361336
 70
   192
  0
VERTEX
  5
FE2
  8
0
 10
-142.6523811124331
 20
-23.39433938870134
 30
138.9870032437571
 70
   192
  0
VERTEX
  5
FE3
  8
0
 10
-138.9774345922295
 20
-23.39563922883472
 30
142.6580273563858
 70
   192
  0
VERTEX
  5
FE4
  8
0
 10
-134.0601380057478
 20
-24.56145441014955
 30
144.0464333532934
 70
   192
  0
VERTEX
  5
FE5
  8
0
 10
-142.8999411184206
 20
-100.0
 30
146.7249852796052
 70
   192
  0
VERTEX
  5
FE6
  8
0
 10
-138.0137046524543
 20
-100.0
 30
147.9999999999999
 70
   192
  0
VERTEX
  5
FE7
  8
0
 10
0.0
 20
0.0
 30
0.0
 70
   128
 71
     1
 72
     2
 73
     3
  0
VERTEX
  5
FE8
  8
0
 10
0.0
 20
0.0
 30
0.0
 70
   128
 71
     1
 72
     3
 73
     4
  0
VERTEX
  5
FE9
  8
0
 10
0.0
 20
0.0
 30
0.0
 70
   128
 71
     4
 72
     5
 73
     6
  0
VERTEX
  5
FEA
  8
0
 10
0.0
 20
0.0
 30
0.0
 70
   128
 71
     1
 72
     4
 73
     6
  0
VERTEX
  5
FEB
  8
0
 10
0.0
 20
0.0
 30
0.0
 70
   128
 71
     7
 72
     1
 73
     6
  0
VERTEX
  5
FEC
  8
0
 10
0.0
 20
0.0
 30
0.0
 70
   128
 71
     6
 72
     8
 73
     7
  0
SEQEND
  5
1700
  8
0
  0
POLYLINE
  5
FED
  8
0
 66
     1
 10
0.0
 20
0.0
 30
0.0
 70
    64
 71
     8
 72
     6
  0
VERTEX
  5
FEE
  8
0
 10
-146.7249852796051
 20
-100.0
 30
-216.8999411184207
 70
   192
  0
VERTEX
  5
FEF
  8
0
 10
-142.8999411184205
 20
-100.0
 30
-220.7249852796052
 70
   192
  0
VERTEX
  5
FF0
  8
0
 10
-138.9361456931224
 20
-22.28596738430465
 30
-216.5901633169097
 70
   192
  0
VERTEX
  5
FF1
  8
0
 10
-142.5901633169098
 20
-22.28596738430465
 30
-212.9361456931223
 70
   192
  0
VERTEX
  5
FF2
  8
0
 10
-138.0137046524543
 20
-100.0
 30
-222.0000000000002
 70
   192
  0
VERTEX
  5
FF3
  8
0
 10
-133.9508775352266
 20
-22.47664043757057
 30
-217.9371728827726
 70
   192
  0
VERTEX
  5
FF4
  8
0
 10
-147.9999999999999
 20
-100.0
 30
-212.0137046524543
 70
   192
  0
VERTEX
  5
FF5
  8
0
 10
-143.9371728827724
 20
-22.47664043757056
 30
-207.9508775352265
 70
   192
  0
VERTEX
  5
FF6
  8
0
 10
0.0
 20
0.0
 30
0.0
 70
   128
 71
     1
 72
     2
 73
    -3
  0
VERTEX
  5
FF7
  8
0
 10
0.0
 20
0.0
 30
0.0
 70
   128
 71
     4
 72
    -1
 73
     3
  0
VERTEX
  5
FF8
  8
0
 10
0.0
 20
0.0
 30
0.0
 70
   128
 71
     2
 72
     5
 73
     6
  0
VERTEX
  5
FF9
  8
0
 10
0.0
 20
0.0
 30
0.0
 70
   128
 71
     3
 72
     2
 73
     6
  0
VERTEX
  5
FFA
  8
0
 10
0.0
 20
0.0
 30
0.0
 70
   128
 71
     7
 72
     1
 73
     4
  0
VERTEX
  5
FFB
  8
0
 10
0.0
 20
0.0
 30
0.0
 70
   128
 71
     8
 72
     7
 73
     4
  0
SEQEND
  5
1701
  8
0
  0
POLYLINE
  5
FFC
  8
0
 66
     1
 10
0.0
 20
0.0
 30
0.0
 70
    64
 71
     8
 72
     6
  0
VERTEX
  5
FFD
  8
0
 10
216.8999411184205
 20
-100.0
 30
-220.7249852796051
 70
   192
  0
VERTEX
  5
FFE
  8
0
 10
220.7249852796051
 20
-100.0
 30
-216.8999411184206
 70
   192
  0
VERTEX
  5
FFF
  8
0
 10
216.5901633169097
 20
-22.28596738430465
 30
-212.9361456931223
 70
   192
  0
VERTEX
  5
1000
  8
0
 10
212.9361456931223
 20
-22.28596738430465
 30
-216.5901633169097
 70
   192
  0
VERTEX
  5
1001
  8
0
 10
222.0000000000002
 20
-100.0
 30
-212.0137046524542
 70
   192
  0
VERTEX
  5
1002
  8
0
 10
217.9371728827726
 20
-22.47664043757057
 30
-207.9508775352266
 70
   192
  0
VERTEX
  5
1003
  8
0
 10
212.0137046524543
 20
-100.0
 30
-221.9999999999998
 70
   192
  0
VERTEX
  5
1004
  8
0
 10
207.9508775352265
 20
-22.47664043757056
 30
-217.9371728827722
 70
   192
  0
VERTEX
  5
1005
  8
0
 10
0.0
 20
0.0
 30
0.0
 70
   128
 71
     1
 72
     2
 73
    -3
  0
VERTEX
  5
1006
  8
0
 10
0.0
 20
0.0
 30
0.0
 70
   128
 71
     4
 72
    -1
 73
     3
  0
VERTEX
  5
1007
  8
0
 10
0.0
 20
0.0
 30
0.0
 70
   128
 71
     2
 72
     5
 73
     6
  0
VERTEX
  5
1008
  8
0
 10
0.0
 20
0.0
 30
0.0
 70
   128
 71
     3
 72
     2
 73
     6
  0
VERTEX
  5
1009
  8
0
 10
0.0
 20
0.0
 30
0.0
 70
   128
 71
     7
 72
     1
 73
     4
  0
VERTEX
  5
100A
  8
0
 10
0.0
 20
0.0
 30
0.0
 70
   128
 71
     8
 72
     7
 73
     4
  0
SEQEND
  5
1702
  8
0
  0
POLYLINE
  5
100B
  8
0
 66
     1
 10
0.0
 20
0.0
 30
0.0
 70
    64
 71
     8
 72
     6
  0
VERTEX
  5
100C
  8
0
 10
-142.4313584967908
 20
-17.70080735766795
 30
-207.9508775352265
 70
   192
  0
VERTEX
  5
100D
  8
0
 10
-138.7989737376899
 20
-14.25380292860605
 30
-207.9508775352265
 70
   192
  0
VERTEX
  5
100E
  8
0
 10
-138.8533967734521
 20
-14.28418023489723
 30
-142.2357315982409
 70
   192
  0
VERTEX
  5
100F
  8
0
 10
-143.9371728827724
 20
-22.47664043757055
 30
-207.9508775352265
 70
   192
  0
VERTEX
  5
1010
  8
0
 10
-142.4735342812446
 20
-17.76891093536283
 30
-139.469976328215
 70
   192
  0
VERTEX
  5
1011
  8
0
 10
-133.9508775352266
 20
-13.0
 30
-207.9508775352265
 70
   192
  0
VERTEX
  5
1012
  8
0
 10
-133.9508775352266
 20
-13.0
 30
-144.298199671653
 70
   192
  0
VERTEX
  5
1013
  8
0
 10
-143.9371728827724
 20
-22.47664043757055
 30
-136.7376330972788
 70
   192
  0
VERTEX
  5
1014
  8
0
 10
0.0
 20
0.0
 30
0.0
 70
   128
 71
     1
 72
     2
 73
     3
  0
VERTEX
  5
1015
  8
0
 10
0.0
 20
0.0
 30
0.0
 70
   128
 71
     4
 72
     1
 73
     5
  0
VERTEX
  5
1016
  8
0
 10
0.0
 20
0.0
 30
0.0
 70
   128
 71
     2
 72
     6
 73
     7
  0
VERTEX
  5
1017
  8
0
 10
0.0
 20
0.0
 30
0.0
 70
   128
 71
     3
 72
     2
 73
     7
  0
VERTEX
  5
1018
  8
0
 10
0.0
 20
0.0
 30
0.0
 70
   128
 71
     5
 72
     1
 73
     3
  0
VERTEX
  5
1019
  8
0
 10
0.0
 20
0.0
 30
0.0
 70
   128
 71
     8
 72
     4
 73
     5
  0
SEQEND
  5
1703
  8
0
  0
POLYLINE
  5
101A
  8
0
 66
     1
 10
0.0
 20
0.0
 30
0.0
 70
    64
 71
     9
 72
     7
  0
VERTEX
  5
101B
  8
0
 10
-142.4313584967908
 20
-17.70080735766795
 30
-207.9508775352265
 70
   192
  0
VERTEX
  5
101C
  8
0
 10
-143.9371728827723
 20
-22.47664043757056
 30
-207.9508775352265
 70
   192
  0
VERTEX
  5
101D
  8
0
 10
-142.5901633169098
 20
-22.28596738430465
 30
-212.9361456931223
 70
   192
  0
VERTEX
  5
101E
  8
0
 10
-138.9361456931224
 20
-22.28596738430465
 30
-216.5901633169097
 70
   192
  0
VERTEX
  5
101F
  8
0
 10
-133.9508775352266
 20
-14.25380292860603
 30
-212.7989737376899
 70
   192
  0
VERTEX
  5
1020
  8
0
 10
-133.9508775352266
 20
-13.00000000000001
 30
-207.9508775352265
 70
   192
  0
VERTEX
  5
1021
  8
0
 10
-138.7989737376899
 20
-14.25380292860605
 30
-207.9508775352265
 70
   192
  0
VERTEX
  5
1022
  8
0
 10
-133.9508775352266
 20
-22.47664043757056
 30
-217.9371728827722
 70
   192
  0
VERTEX
  5
1023
  8
0
 10
-133.9508775352266
 20
-17.70080735766795
 30
-216.4313584967908
 70
   192
  0
VERTEX
  5
1024
  8
0
 10
0.0
 20
0.0
 30
0.0
 70
   128
 71
     1
 72
     2
 73
     3
  0
VERTEX
  5
1025
  8
0
 10
0.0
 20
0.0
 30
0.0
 70
   128
 71
     3
 72
     4
 73
     1
  0
VERTEX
  5
1026
  8
0
 10
0.0
 20
0.0
 30
0.0
 70
   128
 71
     5
 72
     6
 73
     7
  0
VERTEX
  5
1027
  8
0
 10
0.0
 20
0.0
 30
0.0
 70
   128
 71
     4
 72
     8
 73
     9
  0
VERTEX
  5
1028
  8
0
 10
0.0
 20
0.0
 30
0.0
 70
   128
 71
     7
 72
     1
 73
     4
  0
VERTEX
  5
1029
  8
0
 10
0.0
 20
0.0
 30
0.0
 70
   128
 71
     5
 72
     7
 73
     4
  0
VERTEX
  5
102A
  8
0
 10
0.0
 20
0.0
 30
0.0
 70
   128
 71
     9
 72
     5
 73
     4
  0
SEQEND
  5
1704
  8
0
  0
POLYLINE
  5
102B
  8
0
 66
     1
 10
0.0
 20
0.0
 30
0.0
 70
    64
 71
     9
 72
     7
  0
VERTEX
  5
102C
  8
0
 10
212.7989737376899
 20
-14.25380292860603
 30
-207.9508775352265
 70
   192
  0
VERTEX
  5
102D
  8
0
 10
207.9508775352265
 20
-12.99999999999999
 30
-207.9508775352265
 70
   192
  0
VERTEX
  5
102E
  8
0
 10
207.9508775352265
 20
-14.25380292860603
 30
-212.7989737376899
 70
   192
  0
VERTEX
  5
102F
  8
0
 10
207.9508775352265
 20
-17.70080735766795
 30
-216.4313584967908
 70
   192
  0
VERTEX
  5
1030
  8
0
 10
216.5901633169097
 20
-22.28596738430465
 30
-212.9361456931223
 70
   192
  0
VERTEX
  5
1031
  8
0
 10
217.9371728827722
 20
-22.47664043757056
 30
-207.9508775352265
 70
   192
  0
VERTEX
  5
1032
  8
0
 10
216.4313584967908
 20
-17.70080735766795
 30
-207.9508775352265
 70
   192
  0
VERTEX
  5
1033
  8
0
 10
212.9361456931223
 20
-22.28596738430465
 30
-216.5901633169097
 70
   192
  0
VERTEX
  5
1034
  8
0
 10
207.9508775352265
 20
-22.47664043757057
 30
-217.9371728827722
 70
   192
  0
VERTEX
  5
1035
  8
0
 10
0.0
 20
0.0
 30
0.0
 70
   128
 71
     1
 72
     2
 73
     3
  0
VERTEX
  5
1036
  8
0
 10
0.0
 20
0.0
 30
0.0
 70
   128
 71
     3
 72
     4
 73
     1
  0
VERTEX
  5
1037
  8
0
 10
0.0
 20
0.0
 30
0.0
 70
   128
 71
     5
 72
     6
 73
     7
  0
VERTEX
  5
1038
  8
0
 10
0.0
 20
0.0
 30
0.0
 70
   128
 71
     8
 72
     5
 73
     7
  0
VERTEX
  5
1039
  8
0
 10
0.0
 20
0.0
 30
0.0
 70
   128
 71
     8
 72
     7
 73
     1
  0
VERTEX
  5
103A
  8
0
 10
0.0
 20
0.0
 30
0.0
 70
   128
 71
     9
 72
     8
 73
     1
  0
VERTEX
  5
103B
  8
0
 10
0.0
 20
0.0
 30
0.0
 70
   128
 71
     4
 72
     9
 73
     1
  0
SEQEND
  5
1705
  8
0
  0
POLYLINE
  5
103C
  8
0
 66
     1
 10
0.0
 20
0.0
 30
0.0
 70
    64
 71
     9
 72
     7
  0
VERTEX
  5
103D
  8
0
 10
216.4313584967908
 20
-17.70080735766795
 30
133.9508775352266
 70
   192
  0
VERTEX
  5
103E
  8
0
 10
217.9371728827722
 20
-22.47664043757057
 30
133.9508775352266
 70
   192
  0
VERTEX
  5
103F
  8
0
 10
216.5901633169097
 20
-22.28596738430465
 30
138.9361456931224
 70
   192
  0
VERTEX
  5
1040
  8
0
 10
212.9361456931223
 20
-22.28596738430465
 30
142.5901633169098
 70
   192
  0
VERTEX
  5
1041
  8
0
 10
207.9508775352265
 20
-14.25380292860605
 30
138.7989737376899
 70
   192
  0
VERTEX
  5
1042
  8
0
 10
207.9508775352265
 20
-12.99999999999999
 30
133.9508775352266
 70
   192
  0
VERTEX
  5
1043
  8
0
 10
212.7989737376899
 20
-14.25380292860603
 30
133.9508775352266
 70
   192
  0
VERTEX
  5
1044
  8
0
 10
207.9508775352265
 20
-22.47664043757056
 30
143.9371728827723
 70
   192
  0
VERTEX
  5
1045
  8
0
 10
207.9508775352265
 20
-17.70080735766795
 30
142.4313584967908
 70
   192
  0
VERTEX
  5
1046
  8
0
 10
0.0
 20
0.0
 30
0.0
 70
   128
 71
     1
 72
     2
 73
     3
  0
VERTEX
  5
1047
  8
0
 10
0.0
 20
0.0
 30
0.0
 70
   128
 71
     3
 72
     4
 73
     1
  0
VERTEX
  5
1048
  8
0
 10
0.0
 20
0.0
 30
0.0
 70
   128
 71
     5
 72
     6
 73
     7
  0
VERTEX
  5
1049
  8
0
 10
0.0
 20
0.0
 30
0.0
 70
   128
 71
     7
 72
     1
 73
     4
  0
VERTEX
  5
104A
  8
0
 10
0.0
 20
0.0
 30
0.0
 70
   128
 71
     4
 72
     8
 73
     9
  0
VERTEX
  5
104B
  8
0
 10
0.0
 20
0.0
 30
0.0
 70
   128
 71
     7
 72
     4
 73
     9
  0
VERTEX
  5
104C
  8
0
 10
0.0
 20
0.0
 30
0.0
 70
   128
 71
     9
 72
     5
 73
     7
  0
SEQEND
  5
1706
  8
0
  0
POLYLINE
  5
104D
  8
0
 66
     1
 10
0.0
 20
0.0
 30
0.0
 70
    64
 71
     8
 72
     6
  0
VERTEX
  5
104E
  8
0
 10
144.2981787358552
 20
-13.0
 30
133.9508775352266
 70
   192
  0
VERTEX
  5
104F
  8
0
 10
207.9508775352265
 20
-13.0
 30
133.9508775352266
 70
   192
  0
VERTEX
  5
1050
  8
0
 10
207.9508775352265
 20
-14.25380292860605
 30
138.7989737376899
 70
   192
  0
VERTEX
  5
1051
  8
0
 10
207.9508775352265
 20
-17.70080735766795
 30
142.4313584967908
 70
   192
  0
VERTEX
  5
1052
  8
0
 10
142.2311587564807
 20
-14.28866546391222
 30
138.8613416508965
 70
   192
  0
VERTEX
  5
1053
  8
0
 10
207.9508775352265
 20
-22.47664043757055
 30
143.9371728827724
 70
   192
  0
VERTEX
  5
1054
  8
0
 10
139.4571329310999
 20
-17.78574032283366
 30
142.483842696307
 70
   192
  0
VERTEX
  5
1055
  8
0
 10
136.7376355994163
 20
-22.47664043757055
 30
143.9371728827724
 70
   192
  0
VERTEX
  5
1056
  8
0
 10
0.0
 20
0.0
 30
0.0
 70
   128
 71
     1
 72
     2
 73
     3
  0
VERTEX
  5
1057
  8
0
 10
0.0
 20
0.0
 30
0.0
 70
   128
 71
     4
 72
     5
 73
     1
  0
VERTEX
  5
1058
  8
0
 10
0.0
 20
0.0
 30
0.0
 70
   128
 71
     3
 72
     4
 73
     1
  0
VERTEX
  5
1059
  8
0
 10
0.0
 20
0.0
 30
0.0
 70
   128
 71
     6
 72
     7
 73
     5
  0
VERTEX
  5
105A
  8
0
 10
0.0
 20
0.0
 30
0.0
 70
   128
 71
     4
 72
     6
 73
     5
  0
VERTEX
  5
105B
  8
0
 10
0.0
 20
0.0
 30
0.0
 70
   128
 71
     6
 72
     8
 73
     7
  0
SEQEND
  5
1707
  8
0
  0
POLYLINE
  5
105C
  8
0
 66
     1
 10
0.0
 20
0.0
 30
0.0
 70
    64
 71
    12
 72
    10
  0
VERTEX
  5
105D
  8
0
 10
-134.6164357828162
 20
-18.97415602841695
 30
-133.5201258832736
 70
   192
  0
VERTEX
  5
105E
  8
0
 10
-134.1988454236153
 20
-17.24108850141266
 30
-135.9200713390513
 70
   192
  0
VERTEX
  5
105F
  8
0
 10
-133.0495701783157
 20
-15.91539080858272
 30
-138.36706875865
 70
   192
  0
VERTEX
  5
1060
  8
0
 10
-131.112062118432
 20
-15.32561422573945
 30
-140.4981975385903
 70
   192
  0
VERTEX
  5
1061
  8
0
 10
-131.9002138123637
 20
-14.07457662215766
 30
-141.5532073502177
 70
   192
  0
VERTEX
  5
1062
  8
0
 10
-132.87630450053
 20
-13.27494365673777
 30
-142.8597899040361
 70
   192
  0
VERTEX
  5
1063
  8
0
 10
-133.9508775352266
 20
-13.0
 30
-144.298199671653
 70
   192
  0
VERTEX
  5
1064
  8
0
 10
-138.8533967734521
 20
-14.28418023489723
 30
-142.2357315982409
 70
   192
  0
VERTEX
  5
1065
  8
0
 10
-142.4735342812446
 20
-17.76891093536283
 30
-139.469976328215
 70
   192
  0
VERTEX
  5
1066
  8
0
 10
-143.9371728827724
 20
-22.47664043757056
 30
-136.7376330972788
 70
   192
  0
VERTEX
  5
1067
  8
0
 10
-142.3456403702201
 20
-19.52631201382789
 30
-134.2918400126578
 70
   192
  0
VERTEX
  5
1068
  8
0
 10
-138.6494075832709
 20
-18.13736631457061
 30
-133.0159049091232
 70
   192
  0
VERTEX
  5
1069
  8
0
 10
0.0
 20
0.0
 30
0.0
 70
   128
 71
     8
 72
     7
 73
     6
  0
VERTEX
  5
106A
  8
0
 10
0.0
 20
0.0
 30
0.0
 70
   128
 71
     6
 72
     9
 73
     8
  0
VERTEX
  5
106B
  8
0
 10
0.0
 20
0.0
 30
0.0
 70
   128
 71
     6
 72
    11
 73
    10
  0
VERTEX
  5
106C
  8
0
 10
0.0
 20
0.0
 30
0.0
 70
   128
 71
     6
 72
    10
 73
     9
  0
VERTEX
  5
106D
  8
0
 10
0.0
 20
0.0
 30
0.0
 70
   128
 71
     6
 72
     5
 73
    12
  0
VERTEX
  5
106E
  8
0
 10
0.0
 20
0.0
 30
0.0
 70
   128
 71
     6
 72
    12
 73
    11
  0
VERTEX
  5
106F
  8
0
 10
0.0
 20
0.0
 30
0.0
 70
   128
 71
     2
 72
     1
 73
    12
  0
VERTEX
  5
1070
  8
0
 10
0.0
 20
0.0
 30
0.0
 70
   128
 71
     2
 72
    12
 73
     5
  0
VERTEX
  5
1071
  8
0
 10
0.0
 20
0.0
 30
0.0
 70
   128
 71
     5
 72
     3
 73
     2
  0
VERTEX
  5
1072
  8
0
 10
0.0
 20
0.0
 30
0.0
 70
   128
 71
     5
 72
     4
 73
     3
  0
SEQEND
  5
1708
  8
0
  0
POLYLINE
  5
1073
  8
0
 66
     1
 10
0.0
 20
0.0
 30
0.0
 70
    64
 71
    22
 72
    20
  0
VERTEX
  5
1074
  8
0
 10
151.4621603397607
 20
-15.72854792750487
 30
-103.5279207704061
 70
   192
  0
VERTEX
  5
1075
  8
0
 10
139.1065209040442
 20
-13.0
 30
-139.8890515276034
 70
   192
  0
VERTEX
  5
1076
  8
0
 10
159.7946758175334
 20
-13.0
 30
-74.22921210532498
 70
   192
  0
VERTEX
  5
1077
  8
0
 10
161.1287016691713
 20
-13.0
 30
-3.897513348131458
 70
   192
  0
VERTEX
  5
1078
  8
0
 10
160.1415669561462
 20
-13.0
 30
66.44458775738016
 70
   192
  0
VERTEX
  5
1079
  8
0
 10
155.3642188853706
 20
-16.1744595382186
 30
45.37327664585562
 70
   192
  0
VERTEX
  5
107A
  8
0
 10
155.8053424208865
 20
-16.2496916296019
 30
-0.0000000000017642
 70
   192
  0
VERTEX
  5
107B
  8
0
 10
153.5082269150365
 20
-15.90473940631001
 30
89.05139891308609
 70
   192
  0
VERTEX
  5
107C
  8
0
 10
141.5531809600043
 20
-14.07457710062557
 30
131.9002199643746
 70
   192
  0
VERTEX
  5
107D
  8
0
 10
140.4981691982304
 20
-15.32561521928276
 30
131.1120707441266
 70
   192
  0
VERTEX
  5
107E
  8
0
 10
142.8597660785604
 20
-13.27494378209929
 30
132.8763077007295
 70
   192
  0
VERTEX
  5
107F
  8
0
 10
144.2981787358552
 20
-13.0
 30
133.9508775352266
 70
   192
  0
VERTEX
  5
1080
  8
0
 10
-66.50928819232828
 20
-13.0
 30
-160.1392288887408
 70
   192
  0
VERTEX
  5
1081
  8
0
 10
3.44994868832138
 20
-13.0
 30
-161.1305871081945
 70
   192
  0
VERTEX
  5
1082
  8
0
 10
-132.87630450053
 20
-13.27494365673777
 30
-142.8597899040361
 70
   192
  0
VERTEX
  5
1083
  8
0
 10
-133.9508775352266
 20
-12.99999999999999
 30
-144.298199671653
 70
   192
  0
VERTEX
  5
1084
  8
0
 10
-30.14821474226248
 20
-16.21531555757261
 30
-155.5511006731353
 70
   192
  0
VERTEX
  5
1085
  8
0
 10
-131.9002138123637
 20
-14.07457662215766
 30
-141.5532073502177
 70
   192
  0
VERTEX
  5
1086
  8
0
 10
-131.112062118432
 20
-15.3256142257394
 30
-140.4981975385902
 70
   192
  0
VERTEX
  5
1087
  8
0
 10
73.04718744518934
 20
-16.04030448059109
 30
-154.6297407876714
 70
   192
  0
VERTEX
  5
1088
  8
0
 10
73.39322259669868
 20
-13.0
 30
-159.8380839932778
 70
   192
  0
VERTEX
  5
1089
  8
0
 10
123.4885758670417
 20
-15.41831160931249
 30
-145.1163143805099
 70
   192
  0
VERTEX
  5
108A
  8
0
 10
0.0
 20
0.0
 30
0.0
 70
   128
 71
     1
 72
     2
 73
     3
  0
VERTEX
  5
108B
  8
0
 10
0.0
 20
0.0
 30
0.0
 70
   128
 71
     4
 72
     5
 73
     6
  0
VERTEX
  5
108C
  8
0
 10
0.0
 20
0.0
 30
0.0
 70
   128
 71
     4
 72
     6
 73
     7
  0
VERTEX
  5
108D
  8
0
 10
0.0
 20
0.0
 30
0.0
 70
   128
 71
     8
 72
     6
 73
     9
  0
VERTEX
  5
108E
  8
0
 10
0.0
 20
0.0
 30
0.0
 70
   128
 71
     9
 72
    10
 73
     8
  0
VERTEX
  5
108F
  8
0
 10
0.0
 20
0.0
 30
0.0
 70
   128
 71
     6
 72
     5
 73
    11
  0
VERTEX
  5
1090
  8
0
 10
0.0
 20
0.0
 30
0.0
 70
   128
 71
     6
 72
    11
 73
     9
  0
VERTEX
  5
1091
  8
0
 10
0.0
 20
0.0
 30
0.0
 70
   128
 71
     5
 72
    12
 73
    11
  0
VERTEX
  5
1092
  8
0
 10
0.0
 20
0.0
 30
0.0
 70
   128
 71
    13
 72
    14
 73
    15
  0
VERTEX
  5
1093
  8
0
 10
0.0
 20
0.0
 30
0.0
 70
   128
 71
    15
 72
    16
 73
    13
  0
VERTEX
  5
1094
  8
0
 10
0.0
 20
0.0
 30
0.0
 70
   128
 71
    14
 72
    17
 73
    18
  0
VERTEX
  5
1095
  8
0
 10
0.0
 20
0.0
 30
0.0
 70
   128
 71
    14
 72
    18
 73
    15
  0
VERTEX
  5
1096
  8
0
 10
0.0
 20
0.0
 30
0.0
 70
   128
 71
    17
 72
    19
 73
    18
  0
VERTEX
  5
1097
  8
0
 10
0.0
 20
0.0
 30
0.0
 70
   128
 71
    20
 72
    14
 73
    21
  0
VERTEX
  5
1098
  8
0
 10
0.0
 20
0.0
 30
0.0
 70
   128
 71
    21
 72
     2
 73
    22
  0
VERTEX
  5
1099
  8
0
 10
0.0
 20
0.0
 30
0.0
 70
   128
 71
    21
 72
    22
 73
    20
  0
VERTEX
  5
109A
  8
0
 10
0.0
 20
0.0
 30
0.0
 70
   128
 71
    22
 72
     2
 73
     1
  0
VERTEX
  5
109B
  8
0
 10
0.0
 20
0.0
 30
0.0
 70
   128
 71
     1
 72
     3
 73
     4
  0
VERTEX
  5
109C
  8
0
 10
0.0
 20
0.0
 30
0.0
 70
   128
 71
     1
 72
     4
 73
     7
  0
VERTEX
  5
109D
  8
0
 10
0.0
 20
0.0
 30
0.0
 70
   128
 71
    20
 72
    17
 73
    14
  0
SEQEND
  5
1709
  8
0
  0
POLYLINE
  5
109E
  8
0
 66
     1
 10
0.0
 20
0.0
 30
0.0
 70
    64
 71
    16
 72
    14
  0
VERTEX
  5
109F
  8
0
 10
-138.6494075832709
 20
-18.13736631457061
 30
-133.0159049091232
 70
   192
  0
VERTEX
  5
10A0
  8
0
 10
-134.6164357828162
 20
-18.97415602841697
 30
-133.5201258832737
 70
   192
  0
VERTEX
  5
10A1
  8
0
 10
-134.8231213553032
 20
-39.30121012349262
 30
-92.24704350580035
 70
   192
  0
VERTEX
  5
10A2
  8
0
 10
-145.211921430275
 20
-46.80029171495102
 30
-71.87643861573137
 70
   192
  0
VERTEX
  5
10A3
  8
0
 10
-142.3456403702201
 20
-19.52631201382789
 30
-134.2918400126578
 70
   192
  0
VERTEX
  5
10A4
  8
0
 10
-143.9371728827724
 20
-22.47664043757055
 30
-136.7376330972788
 70
   192
  0
VERTEX
  5
10A5
  8
0
 10
-134.9015022207343
 20
-45.04086771510438
 30
-46.70157016994541
 70
   192
  0
VERTEX
  5
10A6
  8
0
 10
-145.3839477028987
 20
-50.08274853676321
 30
-1.719049002680658
 70
   192
  0
VERTEX
  5
10A7
  8
0
 10
-134.9422006037392
 20
-46.3757604388901
 30
0.0000000000005722
 70
   192
  0
VERTEX
  5
10A8
  8
0
 10
-134.902796385645
 20
-45.09758300959598
 30
45.62362705454659
 70
   192
  0
VERTEX
  5
10A9
  8
0
 10
-145.2316679584684
 20
-47.17707791851706
 30
68.46147610546006
 70
   192
  0
VERTEX
  5
10AA
  8
0
 10
-142.4288161948006
 20
-21.51181149622715
 30
131.7037672248638
 70
   192
  0
VERTEX
  5
10AB
  8
0
 10
-144.0464336836793
 20
-24.56146071428669
 30
134.0601383361336
 70
   192
  0
VERTEX
  5
10AC
  8
0
 10
-134.828480270664
 20
-39.78775079422251
 30
90.21746817647517
 70
   192
  0
VERTEX
  5
10AD
  8
0
 10
-138.6885731214353
 20
-20.09443035931474
 30
130.490859985034
 70
   192
  0
VERTEX
  5
10AE
  8
0
 10
-134.6407126362528
 20
-20.9971224265917
 30
131.0099977622542
 70
   192
  0
VERTEX
  5
10AF
  8
0
 10
0.0
 20
0.0
 30
0.0
 70
   128
 71
     1
 72
     2
 73
     3
  0
VERTEX
  5
10B0
  8
0
 10
0.0
 20
0.0
 30
0.0
 70
   128
 71
     3
 72
     4
 73
     5
  0
VERTEX
  5
10B1
  8
0
 10
0.0
 20
0.0
 30
0.0
 70
   128
 71
     3
 72
     5
 73
     1
  0
VERTEX
  5
10B2
  8
0
 10
0.0
 20
0.0
 30
0.0
 70
   128
 71
     4
 72
     6
 73
     5
  0
VERTEX
  5
10B3
  8
0
 10
0.0
 20
0.0
 30
0.0
 70
   128
 71
     7
 72
     8
 73
     4
  0
VERTEX
  5
10B4
  8
0
 10
0.0
 20
0.0
 30
0.0
 70
   128
 71
     4
 72
     3
 73
     7
  0
VERTEX
  5
10B5
  8
0
 10
0.0
 20
0.0
 30
0.0
 70
   128
 71
     9
 72
    10
 73
    11
  0
VERTEX
  5
10B6
  8
0
 10
0.0
 20
0.0
 30
0.0
 70
   128
 71
     9
 72
    11
 73
     8
  0
VERTEX
  5
10B7
  8
0
 10
0.0
 20
0.0
 30
0.0
 70
   128
 71
    12
 72
    13
 73
    11
  0
VERTEX
  5
10B8
  8
0
 10
0.0
 20
0.0
 30
0.0
 70
   128
 71
    11
 72
    14
 73
    15
  0
VERTEX
  5
10B9
  8
0
 10
0.0
 20
0.0
 30
0.0
 70
   128
 71
    11
 72
    15
 73
    12
  0
VERTEX
  5
10BA
  8
0
 10
0.0
 20
0.0
 30
0.0
 70
   128
 71
    14
 72
    16
 73
    15
  0
VERTEX
  5
10BB
  8
0
 10
0.0
 20
0.0
 30
0.0
 70
   128
 71
    11
 72
    10
 73
    14
  0
VERTEX
  5
10BC
  8
0
 10
0.0
 20
0.0
 30
0.0
 70
   128
 71
     8
 72
     7
 73
     9
  0
SEQEND
  5
170A
  8
0
  0
POLYLINE
  5
10BD
  8
0
 66
     1
 10
0.0
 20
0.0
 30
0.0
 70
    64
 71
    12
 72
    10
  0
VERTEX
  5
10BE
  8
0
 10
140.4981691982304
 20
-15.32561521928275
 30
131.1120707441266
 70
   192
  0
VERTEX
  5
10BF
  8
0
 10
138.3412035320769
 20
-15.92661395866177
 30
133.0663917539832
 70
   192
  0
VERTEX
  5
10C0
  8
0
 10
135.9154181892076
 20
-17.24400256259663
 30
134.2003423973855
 70
   192
  0
VERTEX
  5
10C1
  8
0
 10
133.5201215192531
 20
-18.97415592769729
 30
134.6164425345814
 70
   192
  0
VERTEX
  5
10C2
  8
0
 10
133.0159029822033
 20
-18.13737067991012
 30
138.6494130226804
 70
   192
  0
VERTEX
  5
10C3
  8
0
 10
134.2918405202078
 20
-19.52631610519332
 30
142.3456422967641
 70
   192
  0
VERTEX
  5
10C4
  8
0
 10
136.7376355994162
 20
-22.47664043757055
 30
143.9371728827724
 70
   192
  0
VERTEX
  5
10C5
  8
0
 10
139.4571329310999
 20
-17.78574032283366
 30
142.483842696307
 70
   192
  0
VERTEX
  5
10C6
  8
0
 10
142.2311587564807
 20
-14.28866546391222
 30
138.8613416508965
 70
   192
  0
VERTEX
  5
10C7
  8
0
 10
144.2981787358552
 20
-13.0
 30
133.9508775352266
 70
   192
  0
VERTEX
  5
10C8
  8
0
 10
142.8597660785604
 20
-13.27494378209929
 30
132.8763077007295
 70
   192
  0
VERTEX
  5
10C9
  8
0
 10
141.5531809600043
 20
-14.07457710062557
 30
131.9002199643746
 70
   192
  0
VERTEX
  5
10CA
  8
0
 10
0.0
 20
0.0
 30
0.0
 70
   128
 71
     8
 72
     7
 73
     6
  0
VERTEX
  5
10CB
  8
0
 10
0.0
 20
0.0
 30
0.0
 70
   128
 71
     8
 72
     6
 73
    11
  0
VERTEX
  5
10CC
  8
0
 10
0.0
 20
0.0
 30
0.0
 70
   128
 71
    11
 72
     9
 73
     8
  0
VERTEX
  5
10CD
  8
0
 10
0.0
 20
0.0
 30
0.0
 70
   128
 71
    11
 72
    10
 73
     9
  0
VERTEX
  5
10CE
  8
0
 10
0.0
 20
0.0
 30
0.0
 70
   128
 71
     6
 72
     5
 73
    12
  0
VERTEX
  5
10CF
  8
0
 10
0.0
 20
0.0
 30
0.0
 70
   128
 71
     6
 72
    12
 73
    11
  0
VERTEX
  5
10D0
  8
0
 10
0.0
 20
0.0
 30
0.0
 70
   128
 71
     2
 72
     1
 73
    12
  0
VERTEX
  5
10D1
  8
0
 10
0.0
 20
0.0
 30
0.0
 70
   128
 71
    12
 72
     3
 73
     2
  0
VERTEX
  5
10D2
  8
0
 10
0.0
 20
0.0
 30
0.0
 70
   128
 71
    12
 72
     5
 73
     4
  0
VERTEX
  5
10D3
  8
0
 10
0.0
 20
0.0
 30
0.0
 70
   128
 71
    12
 72
     4
 73
     3
  0
SEQEND
  5
170B
  8
0
  0
POLYLINE
  5
10D4
  8
0
 66
     1
 10
0.0
 20
0.0
 30
0.0
 70
    64
 71
    12
 72
    10
  0
VERTEX
  5
10D5
  8
0
 10
-144.0464336836792
 20
-24.5614607142867
 30
134.0601383361336
 70
   192
  0
VERTEX
  5
10D6
  8
0
 10
-142.6523811124331
 20
-23.39433938870134
 30
138.9870032437571
 70
   192
  0
VERTEX
  5
10D7
  8
0
 10
-138.9774345922295
 20
-23.39563922883472
 30
142.6580273563858
 70
   192
  0
VERTEX
  5
10D8
  8
0
 10
-134.0601380057478
 20
-24.56145441014953
 30
144.0464333532935
 70
   192
  0
VERTEX
  5
10D9
  8
0
 10
-131.7037690451324
 20
-21.51180110128264
 30
142.4288138772039
 70
   192
  0
VERTEX
  5
10DA
  8
0
 10
-130.4908643028852
 20
-20.0944198436909
 30
138.6885671996277
 70
   192
  0
VERTEX
  5
10DB
  8
0
 10
-131.0100044283992
 20
-20.99711665541775
 30
134.640705449464
 70
   192
  0
VERTEX
  5
10DC
  8
0
 10
-132.7493078002142
 20
-19.99545882442142
 30
134.1812082186404
 70
   192
  0
VERTEX
  5
10DD
  8
0
 10
-134.1782568155887
 20
-19.99359867329548
 30
132.7546472928171
 70
   192
  0
VERTEX
  5
10DE
  8
0
 10
-134.6407126362528
 20
-20.99712242659163
 30
131.0099977622542
 70
   192
  0
VERTEX
  5
10DF
  8
0
 10
-138.6885731214353
 20
-20.09443035931474
 30
130.490859985034
 70
   192
  0
VERTEX
  5
10E0
  8
0
 10
-142.4288161948006
 20
-21.51181149622715
 30
131.7037672248638
 70
   192
  0
VERTEX
  5
10E1
  8
0
 10
0.0
 20
0.0
 30
0.0
 70
   128
 71
     8
 72
     7
 73
     6
  0
VERTEX
  5
10E2
  8
0
 10
0.0
 20
0.0
 30
0.0
 70
   128
 71
     6
 72
    11
 73
     9
  0
VERTEX
  5
10E3
  8
0
 10
0.0
 20
0.0
 30
0.0
 70
   128
 71
     6
 72
     9
 73
     8
  0
VERTEX
  5
10E4
  8
0
 10
0.0
 20
0.0
 30
0.0
 70
   128
 71
    11
 72
    10
 73
     9
  0
VERTEX
  5
10E5
  8
0
 10
0.0
 20
0.0
 30
0.0
 70
   128
 71
     6
 72
     5
 73
    12
  0
VERTEX
  5
10E6
  8
0
 10
0.0
 20
0.0
 30
0.0
 70
   128
 71
     6
 72
    12
 73
    11
  0
VERTEX
  5
10E7
  8
0
 10
0.0
 20
0.0
 30
0.0
 70
   128
 71
     2
 72
     1
 73
    12
  0
VERTEX
  5
10E8
  8
0
 10
0.0
 20
0.0
 30
0.0
 70
   128
 71
    12
 72
     5
 73
     3
  0
VERTEX
  5
10E9
  8
0
 10
0.0
 20
0.0
 30
0.0
 70
   128
 71
    12
 72
     3
 73
     2
  0
VERTEX
  5
10EA
  8
0
 10
0.0
 20
0.0
 30
0.0
 70
   128
 71
     5
 72
     4
 73
     3
  0
SEQEND
  5
170C
  8
0
  0
POLYLINE
  5
10EB
  8
0
 66
     1
 10
0.0
 20
0.0
 30
0.0
 70
    64
 71
    14
 72
    12
  0
VERTEX
  5
10EC
  8
0
 10
134.2918405202078
 20
-19.52631610519332
 30
142.3456422967641
 70
   192
  0
VERTEX
  5
10ED
  8
0
 10
136.7376355994161
 20
-22.4766404375706
 30
143.9371728827724
 70
   192
  0
VERTEX
  5
10EE
  8
0
 10
71.87641039492063
 20
-46.80033153226606
 30
145.211923517012
 70
   192
  0
VERTEX
  5
10EF
  8
0
 10
70.2282336438074
 20
-43.15054121950394
 30
134.8708979390419
 70
   192
  0
VERTEX
  5
10F0
  8
0
 10
133.0159029822033
 20
-18.13737067991012
 30
138.6494130226804
 70
   192
  0
VERTEX
  5
10F1
  8
0
 10
133.5201215192532
 20
-18.97415592769725
 30
134.6164425345814
 70
   192
  0
VERTEX
  5
10F2
  8
0
 10
1.719006787390377
 20
-50.08275075027577
 30
145.383947818904
 70
   192
  0
VERTEX
  5
10F3
  8
0
 10
-68.46151563139503
 20
-47.17704332073001
 30
145.2316661452751
 70
   192
  0
VERTEX
  5
10F4
  8
0
 10
-67.10338504251054
 20
-43.49628654650341
 30
134.8758840928782
 70
   192
  0
VERTEX
  5
10F5
  8
0
 10
1.57245241312213
 20
-46.37283453276999
 30
134.9420780409054
 70
   192
  0
VERTEX
  5
10F6
  8
0
 10
-130.4908643028852
 20
-20.0944198436909
 30
138.6885671996277
 70
   192
  0
VERTEX
  5
10F7
  8
0
 10
-131.0100044283993
 20
-20.99711665541769
 30
134.640705449464
 70
   192
  0
VERTEX
  5
10F8
  8
0
 10
-131.7037690451324
 20
-21.51180110128264
 30
142.4288138772039
 70
   192
  0
VERTEX
  5
10F9
  8
0
 10
-134.0601380057478
 20
-24.56145441014955
 30
144.0464333532934
 70
   192
  0
VERTEX
  5
10FA
  8
0
 10
0.0
 20
0.0
 30
0.0
 70
   128
 71
     1
 72
     2
 73
     3
  0
VERTEX
  5
10FB
  8
0
 10
0.0
 20
0.0
 30
0.0
 70
   128
 71
     3
 72
     4
 73
     5
  0
VERTEX
  5
10FC
  8
0
 10
0.0
 20
0.0
 30
0.0
 70
   128
 71
     3
 72
     5
 73
     1
  0
VERTEX
  5
10FD
  8
0
 10
0.0
 20
0.0
 30
0.0
 70
   128
 71
     4
 72
     6
 73
     5
  0
VERTEX
  5
10FE
  8
0
 10
0.0
 20
0.0
 30
0.0
 70
   128
 71
     7
 72
     8
 73
     9
  0
VERTEX
  5
10FF
  8
0
 10
0.0
 20
0.0
 30
0.0
 70
   128
 71
     7
 72
     9
 73
    10
  0
VERTEX
  5
1100
  8
0
 10
0.0
 20
0.0
 30
0.0
 70
   128
 71
    11
 72
    12
 73
     9
  0
VERTEX
  5
1101
  8
0
 10
0.0
 20
0.0
 30
0.0
 70
   128
 71
     9
 72
     8
 73
    13
  0
VERTEX
  5
1102
  8
0
 10
0.0
 20
0.0
 30
0.0
 70
   128
 71
     9
 72
    13
 73
    11
  0
VERTEX
  5
1103
  8
0
 10
0.0
 20
0.0
 30
0.0
 70
   128
 71
     8
 72
    14
 73
    13
  0
VERTEX
  5
1104
  8
0
 10
0.0
 20
0.0
 30
0.0
 70
   128
 71
    10
 72
     4
 73
     3
  0
VERTEX
  5
1105
  8
0
 10
0.0
 20
0.0
 30
0.0
 70
   128
 71
    10
 72
     3
 73
     7
  0
SEQEND
  5
170D
  8
0
  0
POLYLINE
  5
1106
  8
0
 66
     1
 10
0.0
 20
0.0
 30
0.0
 70
    64
 71
    31
 72
    31
  0
VERTEX
  5
1107
  8
0
 10
51.4834544569602
 20
-23.1054067434747
 30
-218.0
 70
   192
  0
VERTEX
  5
1108
  8
0
 10
60.16235568659783
 20
-20.62686565921269
 30
-218.0
 70
   192
  0
VERTEX
  5
1109
  8
0
 10
69.02537514673492
 20
-18.81074430252433
 30
-218.0
 70
   192
  0
VERTEX
  5
110A
  8
0
 10
77.97245403025761
 20
-17.52155745803941
 30
-218.0
 70
   192
  0
VERTEX
  5
110B
  8
0
 10
78.65739534902431
 20
-17.50239558542245
 30
-218.0
 70
   192
  0
VERTEX
  5
110C
  8
0
 10
79.34260465100151
 20
-17.50239558542281
 30
-218.0
 70
   192
  0
VERTEX
  5
110D
  8
0
 10
80.0275459697682
 20
-17.52155745804045
 30
-218.0
 70
   192
  0
VERTEX
  5
110E
  8
0
 10
88.97886794874924
 20
-18.81155923077422
 30
-218.0
 70
   192
  0
VERTEX
  5
110F
  8
0
 10
97.83784428340313
 20
-20.62690916682605
 30
-218.0
 70
   192
  0
VERTEX
  5
1110
  8
0
 10
106.5165455430396
 20
-23.1054067434746
 30
-218.0
 70
   192
  0
VERTEX
  5
1111
  8
0
 10
106.9633580707431
 20
-23.38948327065516
 30
-218.0
 70
   192
  0
VERTEX
  5
1112
  8
0
 10
107.4351709362198
 20
-23.62986783827846
 30
-218.0
 70
   192
  0
VERTEX
  5
1113
  8
0
 10
107.9475656154348
 20
-23.75401101379535
 30
-218.0
 70
   192
  0
VERTEX
  5
1114
  8
0
 10
116.429771616733
 20
-23.75401101379534
 30
-218.0
 70
   192
  0
VERTEX
  5
1115
  8
0
 10
106.1871722620673
 20
-51.89532145726024
 30
-218.0
 70
   192
  0
VERTEX
  5
1116
  8
0
 10
95.59470451890603
 20
-65.69969418115004
 30
-218.0
 70
   192
  0
VERTEX
  5
1117
  8
0
 10
78.99999999999997
 20
-70.93198441776569
 30
-218.0
 70
   192
  0
VERTEX
  5
1118
  8
0
 10
62.40529548109392
 20
-65.69969418115
 30
-218.0
 70
   192
  0
VERTEX
  5
1119
  8
0
 10
51.8128277379326
 20
-51.8953214572602
 30
-218.0
 70
   192
  0
VERTEX
  5
111A
  8
0
 10
41.57022838326686
 20
-23.75401101379535
 30
-218.0
 70
   192
  0
VERTEX
  5
111B
  8
0
 10
50.0524343845652
 20
-23.7540110137953
 30
-218.0
 70
   192
  0
VERTEX
  5
111C
  8
0
 10
50.56506439515603
 20
-23.62977019382104
 30
-218.0
 70
   192
  0
VERTEX
  5
111D
  8
0
 10
51.03674833913988
 20
-23.38942725739776
 30
-218.0
 70
   192
  0
VERTEX
  5
111E
  8
0
 10
71.0
 20
-42.0
 30
-218.0
 70
   192
  0
VERTEX
  5
111F
  8
0
 10
73.34314575050763
 20
-47.65685424949238
 30
-218.0
 70
   192
  0
VERTEX
  5
1120
  8
0
 10
79.0
 20
-49.99999999999999
 30
-218.0
 70
   192
  0
VERTEX
  5
1121
  8
0
 10
84.65685424949237
 20
-47.65685424949238
 30
-218.0
 70
   192
  0
VERTEX
  5
1122
  8
0
 10
87.0
 20
-42.0
 30
-218.0
 70
   192
  0
VERTEX
  5
1123
  8
0
 10
84.65685424949237
 20
-36.34314575050762
 30
-218.0
 70
   192
  0
VERTEX
  5
1124
  8
0
 10
79.0
 20
-34.00000000000001
 30
-218.0
 70
   192
  0
VERTEX
  5
1125
  8
0
 10
73.34314575050763
 20
-36.34314575050762
 30
-218.0
 70
   192
  0
VERTEX
  5
1126
  8
0
 10
0.0
 20
0.0
 30
0.0
 70
   128
 71
    21
 72
   -20
 73
   -13
  0
VERTEX
  5
1127
  8
0
 10
0.0
 20
0.0
 30
0.0
 70
   128
 71
   -13
 72
    22
 73
   -21
  0
VERTEX
  5
1128
  8
0
 10
0.0
 20
0.0
 30
0.0
 70
   128
 71
   -13
 72
    23
 73
   -22
  0
VERTEX
  5
1129
  8
0
 10
0.0
 20
0.0
 30
0.0
 70
   128
 71
   -13
 72
     2
 73
    -1
  0
VERTEX
  5
112A
  8
0
 10
0.0
 20
0.0
 30
0.0
 70
   128
 71
   -13
 72
     1
 73
   -23
  0
VERTEX
  5
112B
  8
0
 10
0.0
 20
0.0
 30
0.0
 70
   128
 71
   -13
 72
     3
 73
    -2
  0
VERTEX
  5
112C
  8
0
 10
0.0
 20
0.0
 30
0.0
 70
   128
 71
   -13
 72
     5
 73
    -4
  0
VERTEX
  5
112D
  8
0
 10
0.0
 20
0.0
 30
0.0
 70
   128
 71
   -13
 72
     4
 73
    -3
  0
VERTEX
  5
112E
  8
0
 10
0.0
 20
0.0
 30
0.0
 70
   128
 71
   -13
 72
     6
 73
    -5
  0
VERTEX
  5
112F
  8
0
 10
0.0
 20
0.0
 30
0.0
 70
   128
 71
     8
 72
     7
 73
    -6
  0
VERTEX
  5
1130
  8
0
 10
0.0
 20
0.0
 30
0.0
 70
   128
 71
    -6
 72
     9
 73
    -8
  0
VERTEX
  5
1131
  8
0
 10
0.0
 20
0.0
 30
0.0
 70
   128
 71
    -6
 72
   -11
 73
    -9
  0
VERTEX
  5
1132
  8
0
 10
0.0
 20
0.0
 30
0.0
 70
   128
 71
    11
 72
    10
 73
    -9
  0
VERTEX
  5
1133
  8
0
 10
0.0
 20
0.0
 30
0.0
 70
   128
 71
    -6
 72
    12
 73
   -11
  0
VERTEX
  5
1134
  8
0
 10
0.0
 20
0.0
 30
0.0
 70
   128
 71
    -6
 72
    13
 73
   -12
  0
VERTEX
  5
1135
  8
0
 10
0.0
 20
0.0
 30
0.0
 70
   128
 71
    25
 72
   -24
 73
   -19
  0
VERTEX
  5
1136
  8
0
 10
0.0
 20
0.0
 30
0.0
 70
   128
 71
   -25
 72
    19
 73
   -18
  0
VERTEX
  5
1137
  8
0
 10
0.0
 20
0.0
 30
0.0
 70
   128
 71
    18
 72
   -17
 73
   -26
  0
VERTEX
  5
1138
  8
0
 10
0.0
 20
0.0
 30
0.0
 70
   128
 71
   -18
 72
    26
 73
   -25
  0
VERTEX
  5
1139
  8
0
 10
0.0
 20
0.0
 30
0.0
 70
   128
 71
    17
 72
   -16
 73
   -27
  0
VERTEX
  5
113A
  8
0
 10
0.0
 20
0.0
 30
0.0
 70
   128
 71
   -17
 72
    27
 73
   -26
  0
VERTEX
  5
113B
  8
0
 10
0.0
 20
0.0
 30
0.0
 70
   128
 71
    16
 72
   -15
 73
   -28
  0
VERTEX
  5
113C
  8
0
 10
0.0
 20
0.0
 30
0.0
 70
   128
 71
   -16
 72
    28
 73
   -27
  0
VERTEX
  5
113D
  8
0
 10
0.0
 20
0.0
 30
0.0
 70
   128
 71
    15
 72
    14
 73
   -13
  0
VERTEX
  5
113E
  8
0
 10
0.0
 20
0.0
 30
0.0
 70
   128
 71
   -15
 72
   -13
 73
   -29
  0
VERTEX
  5
113F
  8
0
 10
0.0
 20
0.0
 30
0.0
 70
   128
 71
   -15
 72
    29
 73
   -28
  0
VERTEX
  5
1140
  8
0
 10
0.0
 20
0.0
 30
0.0
 70
   128
 71
   -13
 72
    30
 73
   -29
  0
VERTEX
  5
1141
  8
0
 10
0.0
 20
0.0
 30
0.0
 70
   128
 71
   -30
 72
   -13
 73
   -20
  0
VERTEX
  5
1142
  8
0
 10
0.0
 20
0.0
 30
0.0
 70
   128
 71
   -20
 72
    31
 73
   -30
  0
VERTEX
  5
1143
  8
0
 10
0.0
 20
0.0
 30
0.0
 70
   128
 71
    20
 72
   -19
 73
   -24
  0
VERTEX
  5
1144
  8
0
 10
0.0
 20
0.0
 30
0.0
 70
   128
 71
   -20
 72
    24
 73
   -31
  0
SEQEND
  5
170E
  8
0
  0
POLYLINE
  5
1145
  8
0
 66
     1
 10
0.0
 20
0.0
 30
0.0
 70
    64
 71
     6
 72
     4
  0
VERTEX
  5
1146
  8
0
 10
79.38455623306758
 20
-14.50269172663874
 30
-214.9407921099353
 70
   192
  0
VERTEX
  5
1147
  8
0
 10
78.61544376693345
 20
-14.50269172663872
 30
-214.9407921099353
 70
   192
  0
VERTEX
  5
1148
  8
0
 10
78.61544375908937
 20
-14.50268892241322
 30
-215.0
 70
   192
  0
VERTEX
  5
1149
  8
0
 10
79.38455624091011
 20
-14.50268892241321
 30
-215.0
 70
   192
  0
VERTEX
  5
114A
  8
0
 10
77.8466320747498
 20
-14.52419714678014
 30
-215.0000000000035
 70
   192
  0
VERTEX
  5
114B
  8
0
 10
80.1533679252497
 20
-14.52419714678012
 30
-215.0000000000035
 70
   192
  0
VERTEX
  5
114C
  8
0
 10
0.0
 20
0.0
 30
0.0
 70
   128
 71
     1
 72
     2
 73
    -3
  0
VERTEX
  5
114D
  8
0
 10
0.0
 20
0.0
 30
0.0
 70
   128
 71
     4
 72
    -1
 73
     3
  0
VERTEX
  5
114E
  8
0
 10
0.0
 20
0.0
 30
0.0
 70
   128
 71
     3
 72
     2
 73
     5
  0
VERTEX
  5
114F
  8
0
 10
0.0
 20
0.0
 30
0.0
 70
   128
 71
     6
 72
     1
 73
     4
  0
SEQEND
  5
170F
  8
0
  0
POLYLINE
  5
1150
  8
0
 66
     1
 10
0.0
 20
0.0
 30
0.0
 70
    64
 71
     7
 72
     5
  0
VERTEX
  5
1151
  8
0
 10
51.8128277379326
 20
-51.8953214572602
 30
-218.0
 70
   192
  0
VERTEX
  5
1152
  8
0
 10
41.57022838326685
 20
-23.75401101379535
 30
-218.0
 70
   192
  0
VERTEX
  5
1153
  8
0
 10
42.38131806570964
 20
-26.84446607777385
 30
-218.0444484318627
 70
   192
  0
VERTEX
  5
1154
  8
0
 10
45.58278023839156
 20
-36.42423813452776
 30
-218.1735720450061
 70
   192
  0
VERTEX
  5
1155
  8
0
 10
51.53344566465136
 20
-51.99700821592214
 30
-218.0452196795902
 70
   192
  0
VERTEX
  5
1156
  8
0
 10
51.27933072704415
 20
-52.08949848929358
 30
-218.1767890795162
 70
   192
  0
VERTEX
  5
1157
  8
0
 10
51.0734649172263
 20
-52.1644275163204
 30
-218.382809147561
 70
   192
  0
VERTEX
  5
1158
  8
0
 10
0.0
 20
0.0
 30
0.0
 70
   128
 71
     1
 72
     2
 73
     3
  0
VERTEX
  5
1159
  8
0
 10
0.0
 20
0.0
 30
0.0
 70
   128
 71
     4
 72
     5
 73
     1
  0
VERTEX
  5
115A
  8
0
 10
0.0
 20
0.0
 30
0.0
 70
   128
 71
     1
 72
     3
 73
     4
  0
VERTEX
  5
115B
  8
0
 10
0.0
 20
0.0
 30
0.0
 70
   128
 71
     6
 72
     5
 73
     4
  0
VERTEX
  5
115C
  8
0
 10
0.0
 20
0.0
 30
0.0
 70
   128
 71
     4
 72
     7
 73
     6
  0
SEQEND
  5
1710
  8
0
  0
POLYLINE
  5
115D
  8
0
 66
     1
 10
0.0
 20
0.0
 30
0.0
 70
    64
 71
    16
 72
    17
  0
VERTEX
  5
115E
  8
0
 10
51.27933072704415
 20
-52.08949848929358
 30
-218.1767890795162
 70
   192
  0
VERTEX
  5
115F
  8
0
 10
78.99999999999997
 20
-71.7126607713349
 30
-218.3750644585416
 70
   192
  0
VERTEX
  5
1160
  8
0
 10
78.99999999999997
 20
-71.49428472385456
 30
-218.1730668915974
 70
   192
  0
VERTEX
  5
1161
  8
0
 10
51.53344566465136
 20
-51.99700821592214
 30
-218.0452196795902
 70
   192
  0
VERTEX
  5
1162
  8
0
 10
78.99999999999999
 20
-71.22615009523108
 30
-218.0442455575822
 70
   192
  0
VERTEX
  5
1163
  8
0
 10
95.59470451890603
 20
-65.69969418115004
 30
-218.0
 70
   192
  0
VERTEX
  5
1164
  8
0
 10
78.99999999999997
 20
-70.93198441776569
 30
-218.0
 70
   192
  0
VERTEX
  5
1165
  8
0
 10
106.1871722620672
 20
-51.8953214572602
 30
-218.0
 70
   192
  0
VERTEX
  5
1166
  8
0
 10
106.4665543353484
 20
-51.99700821592215
 30
-218.0452196795902
 70
   192
  0
VERTEX
  5
1167
  8
0
 10
106.7206692729557
 20
-52.0894984892936
 30
-218.1767890795162
 70
   192
  0
VERTEX
  5
1168
  8
0
 10
62.40529548109392
 20
-65.69969418115
 30
-218.0
 70
   192
  0
VERTEX
  5
1169
  8
0
 10
51.81282773793266
 20
-51.89532145726017
 30
-218.0
 70
   192
  0
VERTEX
  5
116A
  8
0
 10
51.07346491722632
 20
-52.16442751632038
 30
-218.382809147561
 70
   192
  0
VERTEX
  5
116B
  8
0
 10
90.73700373390288
 20
-69.45864684653525
 30
-218.6323748340709
 70
   192
  0
VERTEX
  5
116C
  8
0
 10
106.9265350827736
 20
-52.1644275163204
 30
-218.382809147561
 70
   192
  0
VERTEX
  5
116D
  8
0
 10
67.22626032019954
 20
-69.44223741998427
 30
-218.6321384355415
 70
   192
  0
VERTEX
  5
116E
  8
0
 10
0.0
 20
0.0
 30
0.0
 70
   128
 71
     1
 72
     2
 73
     3
  0
VERTEX
  5
116F
  8
0
 10
0.0
 20
0.0
 30
0.0
 70
   128
 71
     4
 72
     3
 73
     5
  0
VERTEX
  5
1170
  8
0
 10
0.0
 20
0.0
 30
0.0
 70
   128
 71
     6
 72
     7
 73
     5
  0
VERTEX
  5
1171
  8
0
 10
0.0
 20
0.0
 30
0.0
 70
   128
 71
     5
 72
     8
 73
     6
  0
VERTEX
  5
1172
  8
0
 10
0.0
 20
0.0
 30
0.0
 70
   128
 71
     3
 72
     4
 73
     1
  0
VERTEX
  5
1173
  8
0
 10
0.0
 20
0.0
 30
0.0
 70
   128
 71
     9
 72
     5
 73
     3
  0
VERTEX
  5
1174
  8
0
 10
0.0
 20
0.0
 30
0.0
 70
   128
 71
     9
 72
     3
 73
    10
  0
VERTEX
  5
1175
  8
0
 10
0.0
 20
0.0
 30
0.0
 70
   128
 71
    11
 72
    12
 73
     4
  0
VERTEX
  5
1176
  8
0
 10
0.0
 20
0.0
 30
0.0
 70
   128
 71
    11
 72
     4
 73
     5
  0
VERTEX
  5
1177
  8
0
 10
0.0
 20
0.0
 30
0.0
 70
   128
 71
     5
 72
     7
 73
    11
  0
VERTEX
  5
1178
  8
0
 10
0.0
 20
0.0
 30
0.0
 70
   128
 71
     8
 72
     5
 73
     9
  0
VERTEX
  5
1179
  8
0
 10
0.0
 20
0.0
 30
0.0
 70
   128
 71
     2
 72
     1
 73
    13
  0
VERTEX
  5
117A
  8
0
 10
0.0
 20
0.0
 30
0.0
 70
   128
 71
    10
 72
     3
 73
     2
  0
VERTEX
  5
117B
  8
0
 10
0.0
 20
0.0
 30
0.0
 70
   128
 71
    10
 72
     2
 73
    14
  0
VERTEX
  5
117C
  8
0
 10
0.0
 20
0.0
 30
0.0
 70
   128
 71
    10
 72
    14
 73
    15
  0
VERTEX
  5
117D
  8
0
 10
0.0
 20
0.0
 30
0.0
 70
   128
 71
    14
 72
     2
 73
    13
  0
VERTEX
  5
117E
  8
0
 10
0.0
 20
0.0
 30
0.0
 70
   128
 71
    14
 72
    13
 73
    16
  0
SEQEND
  5
1711
  8
0
  0
POLYLINE
  5
117F
  8
0
 66
     1
 10
0.0
 20
0.0
 30
0.0
 70
    64
 71
     7
 72
     5
  0
VERTEX
  5
1180
  8
0
 10
115.6186764565903
 20
-26.84448267302702
 30
-218.0444482672982
 70
   192
  0
VERTEX
  5
1181
  8
0
 10
116.429771616733
 20
-23.75401101379535
 30
-218.0
 70
   192
  0
VERTEX
  5
1182
  8
0
 10
106.1871722620672
 20
-51.8953214572602
 30
-218.0
 70
   192
  0
VERTEX
  5
1183
  8
0
 10
112.4171524643287
 20
-36.42423888016323
 30
-218.1734375355059
 70
   192
  0
VERTEX
  5
1184
  8
0
 10
106.7206692729557
 20
-52.0894984892936
 30
-218.1767890795162
 70
   192
  0
VERTEX
  5
1185
  8
0
 10
106.9265350827735
 20
-52.16442751632039
 30
-218.3828091475611
 70
   192
  0
VERTEX
  5
1186
  8
0
 10
106.4665543353484
 20
-51.99700821592215
 30
-218.0452196795902
 70
   192
  0
VERTEX
  5
1187
  8
0
 10
0.0
 20
0.0
 30
0.0
 70
   128
 71
     1
 72
     2
 73
     3
  0
VERTEX
  5
1188
  8
0
 10
0.0
 20
0.0
 30
0.0
 70
   128
 71
     4
 72
     1
 73
     3
  0
VERTEX
  5
1189
  8
0
 10
0.0
 20
0.0
 30
0.0
 70
   128
 71
     5
 72
     6
 73
     4
  0
VERTEX
  5
118A
  8
0
 10
0.0
 20
0.0
 30
0.0
 70
   128
 71
     4
 72
     7
 73
     5
  0
VERTEX
  5
118B
  8
0
 10
0.0
 20
0.0
 30
0.0
 70
   128
 71
     4
 72
     3
 73
     7
  0
SEQEND
  5
1712
  8
0
  0
POLYLINE
  5
118C
  8
0
 66
     1
 10
0.0
 20
0.0
 30
0.0
 70
    64
 71
     9
 72
     7
  0
VERTEX
  5
118D
  8
0
 10
50.8104738218647
 20
-22.47664043757055
 30
-217.9371728827725
 70
   192
  0
VERTEX
  5
118E
  8
0
 10
50.55292344832203
 20
-22.84677598973161
 30
-217.9565708650947
 70
   192
  0
VERTEX
  5
118F
  8
0
 10
50.30022205094413
 20
-23.22026212755449
 30
-217.9761444441709
 70
   192
  0
VERTEX
  5
1190
  8
0
 10
50.0524343845654
 20
-23.59700314506665
 30
-217.9958886042635
 70
   192
  0
VERTEX
  5
1191
  8
0
 10
50.36356329727073
 20
-23.4767108555851
 30
-217.9923135999823
 70
   192
  0
VERTEX
  5
1192
  8
0
 10
50.77203141083553
 20
-23.21130249234394
 30
-217.9864210148945
 70
   192
  0
VERTEX
  5
1193
  8
0
 10
51.2815602664315
 20
-22.8068713435932
 30
-217.9782738878165
 70
   192
  0
VERTEX
  5
1194
  8
0
 10
51.12472911218744
 20
-22.69720963658687
 30
-217.9593110119584
 70
   192
  0
VERTEX
  5
1195
  8
0
 10
50.96766078311634
 20
-22.58710496850561
 30
-217.9456072294364
 70
   192
  0
VERTEX
  5
1196
  8
0
 10
0.0
 20
0.0
 30
0.0
 70
   128
 71
     6
 72
     7
 73
     8
  0
VERTEX
  5
1197
  8
0
 10
0.0
 20
0.0
 30
0.0
 70
   128
 71
     9
 72
     5
 73
     6
  0
VERTEX
  5
1198
  8
0
 10
0.0
 20
0.0
 30
0.0
 70
   128
 71
     8
 72
     9
 73
     6
  0
VERTEX
  5
1199
  8
0
 10
0.0
 20
0.0
 30
0.0
 70
   128
 71
     9
 72
     1
 73
     2
  0
VERTEX
  5
119A
  8
0
 10
0.0
 20
0.0
 30
0.0
 70
   128
 71
     3
 72
     5
 73
     9
  0
VERTEX
  5
119B
  8
0
 10
0.0
 20
0.0
 30
0.0
 70
   128
 71
     2
 72
     3
 73
     9
  0
VERTEX
  5
119C
  8
0
 10
0.0
 20
0.0
 30
0.0
 70
   128
 71
     3
 72
     4
 73
     5
  0
SEQEND
  5
1713
  8
0
  0
POLYLINE
  5
119D
  8
0
 66
     1
 10
0.0
 20
0.0
 30
0.0
 70
    64
 71
    18
 72
    16
  0
VERTEX
  5
119E
  8
0
 10
50.8104738218647
 20
-22.47664043757056
 30
-217.9371728827725
 70
   192
  0
VERTEX
  5
119F
  8
0
 10
50.96766078311634
 20
-22.58710496850561
 30
-217.9456072294364
 70
   192
  0
VERTEX
  5
11A0
  8
0
 10
51.12472911218744
 20
-22.69720963658687
 30
-217.9593110119584
 70
   192
  0
VERTEX
  5
11A1
  8
0
 10
51.28156026643151
 20
-22.8068713435932
 30
-217.9782738878164
 70
   192
  0
VERTEX
  5
11A2
  8
0
 10
59.74686621930012
 20
-18.65834585523836
 30
-217.2253888065686
 70
   192
  0
VERTEX
  5
11A3
  8
0
 10
68.62118499218745
 20
-16.0053825506876
 30
-215.9916381327703
 70
   192
  0
VERTEX
  5
11A4
  8
0
 10
77.8466320747498
 20
-14.52419714678014
 30
-215.0000000000035
 70
   192
  0
VERTEX
  5
11A5
  8
0
 10
78.61544376693345
 20
-14.50269172663872
 30
-214.9407921099353
 70
   192
  0
VERTEX
  5
11A6
  8
0
 10
79.38455623306758
 20
-14.50269172663874
 30
-214.9407921099353
 70
   192
  0
VERTEX
  5
11A7
  8
0
 10
80.1533679252497
 20
-14.52419714678012
 30
-215.0000000000035
 70
   192
  0
VERTEX
  5
11A8
  8
0
 10
89.38894716679631
 20
-16.00784942607318
 30
-215.9931021571419
 70
   192
  0
VERTEX
  5
11A9
  8
0
 10
98.24994584691201
 20
-18.65717981501727
 30
-217.2249753271473
 70
   192
  0
VERTEX
  5
11AA
  8
0
 10
106.7184397335684
 20
-22.8068713435932
 30
-217.9782738878165
 70
   192
  0
VERTEX
  5
11AB
  8
0
 10
106.8752708878124
 20
-22.69720963658683
 30
-217.9593110119584
 70
   192
  0
VERTEX
  5
11AC
  8
0
 10
107.0323392168835
 20
-22.58710496850558
 30
-217.9456072294364
 70
   192
  0
VERTEX
  5
11AD
  8
0
 10
107.1895261781352
 20
-22.47664043757052
 30
-217.9371728827725
 70
   192
  0
VERTEX
  5
11AE
  8
0
 10
88.98156595765248
 20
-14.75025590875273
 30
-213.6025790110909
 70
   192
  0
VERTEX
  5
11AF
  8
0
 10
69.01094481673195
 20
-14.75158545017027
 30
-213.6045285518527
 70
   192
  0
VERTEX
  5
11B0
  8
0
 10
0.0
 20
0.0
 30
0.0
 70
   128
 71
    17
 72
    11
 73
    12
  0
VERTEX
  5
11B1
  8
0
 10
0.0
 20
0.0
 30
0.0
 70
   128
 71
    12
 72
    13
 73
    17
  0
VERTEX
  5
11B2
  8
0
 10
0.0
 20
0.0
 30
0.0
 70
   128
 71
    13
 72
    14
 73
    17
  0
VERTEX
  5
11B3
  8
0
 10
0.0
 20
0.0
 30
0.0
 70
   128
 71
    14
 72
    15
 73
    17
  0
VERTEX
  5
11B4
  8
0
 10
0.0
 20
0.0
 30
0.0
 70
   128
 71
    15
 72
    16
 73
    17
  0
VERTEX
  5
11B5
  8
0
 10
0.0
 20
0.0
 30
0.0
 70
   128
 71
     6
 72
     7
 73
     8
  0
VERTEX
  5
11B6
  8
0
 10
0.0
 20
0.0
 30
0.0
 70
   128
 71
    11
 72
     6
 73
     8
  0
VERTEX
  5
11B7
  8
0
 10
0.0
 20
0.0
 30
0.0
 70
   128
 71
     8
 72
     9
 73
    11
  0
VERTEX
  5
11B8
  8
0
 10
0.0
 20
0.0
 30
0.0
 70
   128
 71
     9
 72
    10
 73
    11
  0
VERTEX
  5
11B9
  8
0
 10
0.0
 20
0.0
 30
0.0
 70
   128
 71
    17
 72
    18
 73
     6
  0
VERTEX
  5
11BA
  8
0
 10
0.0
 20
0.0
 30
0.0
 70
   128
 71
    11
 72
    17
 73
     6
  0
VERTEX
  5
11BB
  8
0
 10
0.0
 20
0.0
 30
0.0
 70
   128
 71
    18
 72
     1
 73
     2
  0
VERTEX
  5
11BC
  8
0
 10
0.0
 20
0.0
 30
0.0
 70
   128
 71
     2
 72
     3
 73
    18
  0
VERTEX
  5
11BD
  8
0
 10
0.0
 20
0.0
 30
0.0
 70
   128
 71
     3
 72
     4
 73
    18
  0
VERTEX
  5
11BE
  8
0
 10
0.0
 20
0.0
 30
0.0
 70
   128
 71
     4
 72
     5
 73
    18
  0
VERTEX
  5
11BF
  8
0
 10
0.0
 20
0.0
 30
0.0
 70
   128
 71
     5
 72
     6
 73
    18
  0
SEQEND
  5
1714
  8
0
  0
POLYLINE
  5
11C0
  8
0
 66
     1
 10
0.0
 20
0.0
 30
0.0
 70
    64
 71
     9
 72
     7
  0
VERTEX
  5
11C1
  8
0
 10
107.1895261781352
 20
-22.47664043757052
 30
-217.9371728827725
 70
   192
  0
VERTEX
  5
11C2
  8
0
 10
107.0323392168835
 20
-22.58710496850558
 30
-217.9456072294364
 70
   192
  0
VERTEX
  5
11C3
  8
0
 10
106.8752708878124
 20
-22.69720963658683
 30
-217.9593110119584
 70
   192
  0
VERTEX
  5
11C4
  8
0
 10
106.7184397335684
 20
-22.80687134359316
 30
-217.9782738878164
 70
   192
  0
VERTEX
  5
11C5
  8
0
 10
107.2279685891846
 20
-23.21130249235272
 30
-217.9864210148928
 70
   192
  0
VERTEX
  5
11C6
  8
0
 10
107.6364367027522
 20
-23.47671085559215
 30
-217.9923135999815
 70
   192
  0
VERTEX
  5
11C7
  8
0
 10
107.9475656154346
 20
-23.59700314506665
 30
-217.9958886042635
 70
   192
  0
VERTEX
  5
11C8
  8
0
 10
107.6997779490558
 20
-23.22026212755446
 30
-217.9761444441711
 70
   192
  0
VERTEX
  5
11C9
  8
0
 10
107.4470765516779
 20
-22.84677598973158
 30
-217.9565708650949
 70
   192
  0
VERTEX
  5
11CA
  8
0
 10
0.0
 20
0.0
 30
0.0
 70
   128
 71
     6
 72
     7
 73
     8
  0
VERTEX
  5
11CB
  8
0
 10
0.0
 20
0.0
 30
0.0
 70
   128
 71
     9
 72
     5
 73
     6
  0
VERTEX
  5
11CC
  8
0
 10
0.0
 20
0.0
 30
0.0
 70
   128
 71
     8
 72
     9
 73
     6
  0
VERTEX
  5
11CD
  8
0
 10
0.0
 20
0.0
 30
0.0
 70
   128
 71
     9
 72
     1
 73
     2
  0
VERTEX
  5
11CE
  8
0
 10
0.0
 20
0.0
 30
0.0
 70
   128
 71
     3
 72
     5
 73
     9
  0
VERTEX
  5
11CF
  8
0
 10
0.0
 20
0.0
 30
0.0
 70
   128
 71
     2
 72
     3
 73
     9
  0
VERTEX
  5
11D0
  8
0
 10
0.0
 20
0.0
 30
0.0
 70
   128
 71
     3
 72
     4
 73
     5
  0
SEQEND
  5
1715
  8
0
  0
POLYLINE
  5
11D1
  8
0
 66
     1
 10
0.0
 20
0.0
 30
0.0
 70
    64
 71
    12
 72
    10
  0
VERTEX
  5
11D2
  8
0
 10
80.1533679252497
 20
-14.52419714678012
 30
-215.0000000000035
 70
   192
  0
VERTEX
  5
11D3
  8
0
 10
89.38894716679631
 20
-16.00784942607318
 30
-215.9931021571419
 70
   192
  0
VERTEX
  5
11D4
  8
0
 10
98.24994584691201
 20
-18.65717981501727
 30
-217.2249753271473
 70
   192
  0
VERTEX
  5
11D5
  8
0
 10
106.7184397335684
 20
-22.8068713435932
 30
-217.9782738878163
 70
   192
  0
VERTEX
  5
11D6
  8
0
 10
106.6513226455298
 20
-22.90611554009039
 30
-217.9903374640495
 70
   192
  0
VERTEX
  5
11D7
  8
0
 10
106.5839884219363
 20
-23.00568080897477
 30
-217.9975833926806
 70
   192
  0
VERTEX
  5
11D8
  8
0
 10
106.5165455430396
 20
-23.1054067434746
 30
-218.0
 70
   192
  0
VERTEX
  5
11D9
  8
0
 10
97.83784428340313
 20
-20.62690916682605
 30
-218.0
 70
   192
  0
VERTEX
  5
11DA
  8
0
 10
88.97886794874924
 20
-18.81155923077422
 30
-218.0
 70
   192
  0
VERTEX
  5
11DB
  8
0
 10
80.0275459697682
 20
-17.52155745804045
 30
-218.0
 70
   192
  0
VERTEX
  5
11DC
  8
0
 10
80.09045694750905
 20
-16.02287730241128
 30
-217.5980762113539
 70
   192
  0
VERTEX
  5
11DD
  8
0
 10
80.13651097956921
 20
-14.92576728419492
 30
-216.500000000002
 70
   192
  0
VERTEX
  5
11DE
  8
0
 10
0.0
 20
0.0
 30
0.0
 70
   128
 71
     8
 72
     7
 73
     6
  0
VERTEX
  5
11DF
  8
0
 10
0.0
 20
0.0
 30
0.0
 70
   128
 71
     6
 72
     9
 73
     8
  0
VERTEX
  5
11E0
  8
0
 10
0.0
 20
0.0
 30
0.0
 70
   128
 71
     6
 72
    11
 73
    10
  0
VERTEX
  5
11E1
  8
0
 10
0.0
 20
0.0
 30
0.0
 70
   128
 71
     6
 72
    10
 73
     9
  0
VERTEX
  5
11E2
  8
0
 10
0.0
 20
0.0
 30
0.0
 70
   128
 71
     6
 72
     5
 73
    12
  0
VERTEX
  5
11E3
  8
0
 10
0.0
 20
0.0
 30
0.0
 70
   128
 71
     6
 72
    12
 73
    11
  0
VERTEX
  5
11E4
  8
0
 10
0.0
 20
0.0
 30
0.0
 70
   128
 71
     2
 72
     1
 73
    12
  0
VERTEX
  5
11E5
  8
0
 10
0.0
 20
0.0
 30
0.0
 70
   128
 71
     2
 72
    12
 73
     5
  0
VERTEX
  5
11E6
  8
0
 10
0.0
 20
0.0
 30
0.0
 70
   128
 71
     5
 72
     3
 73
     2
  0
VERTEX
  5
11E7
  8
0
 10
0.0
 20
0.0
 30
0.0
 70
   128
 71
     5
 72
     4
 73
     3
  0
SEQEND
  5
1716
  8
0
  0
POLYLINE
  5
11E8
  8
0
 66
     1
 10
0.0
 20
0.0
 30
0.0
 70
    64
 71
    12
 72
    10
  0
VERTEX
  5
11E9
  8
0
 10
106.7184397335684
 20
-22.8068713435932
 30
-217.9782738878165
 70
   192
  0
VERTEX
  5
11EA
  8
0
 10
107.2279685891846
 20
-23.21130249235272
 30
-217.9864210148928
 70
   192
  0
VERTEX
  5
11EB
  8
0
 10
107.6364367027522
 20
-23.47671085559215
 30
-217.9923135999815
 70
   192
  0
VERTEX
  5
11EC
  8
0
 10
107.9475656154348
 20
-23.59700314506664
 30
-217.9958886042637
 70
   192
  0
VERTEX
  5
11ED
  8
0
 10
107.9475656154348
 20
-23.64931252368793
 30
-217.9981724810573
 70
   192
  0
VERTEX
  5
11EE
  8
0
 10
107.9475656154348
 20
-23.70165379448354
 30
-217.9995430854692
 70
   192
  0
VERTEX
  5
11EF
  8
0
 10
107.9475656154348
 20
-23.75401101379535
 30
-218.0
 70
   192
  0
VERTEX
  5
11F0
  8
0
 10
107.4351709362198
 20
-23.62986783827846
 30
-218.0
 70
   192
  0
VERTEX
  5
11F1
  8
0
 10
106.9633580707431
 20
-23.38948327065516
 30
-218.0
 70
   192
  0
VERTEX
  5
11F2
  8
0
 10
106.5165455430397
 20
-23.10540674347466
 30
-218.0
 70
   192
  0
VERTEX
  5
11F3
  8
0
 10
106.5839884219363
 20
-23.00568080897477
 30
-217.9975833926806
 70
   192
  0
VERTEX
  5
11F4
  8
0
 10
106.6513226455298
 20
-22.90611554009039
 30
-217.9903374640495
 70
   192
  0
VERTEX
  5
11F5
  8
0
 10
0.0
 20
0.0
 30
0.0
 70
   128
 71
     8
 72
     7
 73
     6
  0
VERTEX
  5
11F6
  8
0
 10
0.0
 20
0.0
 30
0.0
 70
   128
 71
     6
 72
    11
 73
     9
  0
VERTEX
  5
11F7
  8
0
 10
0.0
 20
0.0
 30
0.0
 70
   128
 71
     6
 72
     9
 73
     8
  0
VERTEX
  5
11F8
  8
0
 10
0.0
 20
0.0
 30
0.0
 70
   128
 71
    11
 72
    10
 73
     9
  0
VERTEX
  5
11F9
  8
0
 10
0.0
 20
0.0
 30
0.0
 70
   128
 71
     6
 72
     5
 73
    12
  0
VERTEX
  5
11FA
  8
0
 10
0.0
 20
0.0
 30
0.0
 70
   128
 71
     6
 72
    12
 73
    11
  0
VERTEX
  5
11FB
  8
0
 10
0.0
 20
0.0
 30
0.0
 70
   128
 71
     2
 72
     1
 73
    12
  0
VERTEX
  5
11FC
  8
0
 10
0.0
 20
0.0
 30
0.0
 70
   128
 71
    12
 72
     5
 73
     3
  0
VERTEX
  5
11FD
  8
0
 10
0.0
 20
0.0
 30
0.0
 70
   128
 71
    12
 72
     3
 73
     2
  0
VERTEX
  5
11FE
  8
0
 10
0.0
 20
0.0
 30
0.0
 70
   128
 71
     5
 72
     4
 73
     3
  0
SEQEND
  5
1717
  8
0
  0
POLYLINE
  5
11FF
  8
0
 66
     1
 10
0.0
 20
0.0
 30
0.0
 70
    64
 71
    12
 72
    10
  0
VERTEX
  5
1200
  8
0
 10
80.09045694750905
 20
-16.02287730241128
 30
-217.5980762113539
 70
   192
  0
VERTEX
  5
1201
  8
0
 10
80.13651097956921
 20
-14.92576728419492
 30
-216.500000000002
 70
   192
  0
VERTEX
  5
1202
  8
0
 10
77.9095430525183
 20
-16.02287730241017
 30
-217.5980762113539
 70
   192
  0
VERTEX
  5
1203
  8
0
 10
77.86348902045928
 20
-14.92576728419376
 30
-216.500000000002
 70
   192
  0
VERTEX
  5
1204
  8
0
 10
80.15336792524998
 20
-14.5241971467801
 30
-215.0000000000035
 70
   192
  0
VERTEX
  5
1205
  8
0
 10
79.38455624091011
 20
-14.50268892241321
 30
-215.0
 70
   192
  0
VERTEX
  5
1206
  8
0
 10
78.61544375908937
 20
-14.50268892241322
 30
-215.0
 70
   192
  0
VERTEX
  5
1207
  8
0
 10
77.8466320747498
 20
-14.52419714678015
 30
-215.0
 70
   192
  0
VERTEX
  5
1208
  8
0
 10
80.0275459697682
 20
-17.52155745804045
 30
-218.0
 70
   192
  0
VERTEX
  5
1209
  8
0
 10
79.34260465100151
 20
-17.50239558542281
 30
-218.0
 70
   192
  0
VERTEX
  5
120A
  8
0
 10
77.9724540302576
 20
-17.5215574580394
 30
-218.0
 70
   192
  0
VERTEX
  5
120B
  8
0
 10
78.65739534902431
 20
-17.50239558542245
 30
-218.0
 70
   192
  0
VERTEX
  5
120C
  8
0
 10
0.0
 20
0.0
 30
0.0
 70
   128
 71
     1
 72
    -2
 73
     3
  0
VERTEX
  5
120D
  8
0
 10
0.0
 20
0.0
 30
0.0
 70
   128
 71
    -3
 72
     2
 73
     4
  0
VERTEX
  5
120E
  8
0
 10
0.0
 20
0.0
 30
0.0
 70
   128
 71
     2
 72
     5
 73
     6
  0
VERTEX
  5
120F
  8
0
 10
0.0
 20
0.0
 30
0.0
 70
   128
 71
     2
 72
     6
 73
    -7
  0
VERTEX
  5
1210
  8
0
 10
0.0
 20
0.0
 30
0.0
 70
   128
 71
     4
 72
    -2
 73
     7
  0
VERTEX
  5
1211
  8
0
 10
0.0
 20
0.0
 30
0.0
 70
   128
 71
     7
 72
     8
 73
     4
  0
VERTEX
  5
1212
  8
0
 10
0.0
 20
0.0
 30
0.0
 70
   128
 71
     9
 72
     1
 73
    10
  0
VERTEX
  5
1213
  8
0
 10
0.0
 20
0.0
 30
0.0
 70
   128
 71
     3
 72
    11
 73
    12
  0
VERTEX
  5
1214
  8
0
 10
0.0
 20
0.0
 30
0.0
 70
   128
 71
    10
 72
     1
 73
    -3
  0
VERTEX
  5
1215
  8
0
 10
0.0
 20
0.0
 30
0.0
 70
   128
 71
    12
 72
   -10
 73
     3
  0
SEQEND
  5
1718
  8
0
  0
POLYLINE
  5
1216
  8
0
 66
     1
 10
0.0
 20
0.0
 30
0.0
 70
    64
 71
     8
 72
     6
  0
VERTEX
  5
1217
  8
0
 10
107.9475656154348
 20
-23.64931252368793
 30
-217.9981724810573
 70
   192
  0
VERTEX
  5
1218
  8
0
 10
107.9475656154348
 20
-23.70165379448354
 30
-217.9995430854692
 70
   192
  0
VERTEX
  5
1219
  8
0
 10
116.429771616733
 20
-23.70165379448349
 30
-217.9995430854692
 70
   192
  0
VERTEX
  5
121A
  8
0
 10
116.429771616733
 20
-23.64931252368783
 30
-217.9981724810573
 70
   192
  0
VERTEX
  5
121B
  8
0
 10
107.9475656154348
 20
-23.75401101379535
 30
-218.0
 70
   192
  0
VERTEX
  5
121C
  8
0
 10
116.429771616733
 20
-23.75401101379535
 30
-218.0
 70
   192
  0
VERTEX
  5
121D
  8
0
 10
107.9475656154348
 20
-23.59700314506664
 30
-217.9958886042637
 70
   192
  0
VERTEX
  5
121E
  8
0
 10
116.429771616733
 20
-23.59700314506649
 30
-217.9958886042637
 70
   192
  0
VERTEX
  5
121F
  8
0
 10
0.0
 20
0.0
 30
0.0
 70
   128
 71
     1
 72
     2
 73
    -3
  0
VERTEX
  5
1220
  8
0
 10
0.0
 20
0.0
 30
0.0
 70
   128
 71
     4
 72
    -1
 73
     3
  0
VERTEX
  5
1221
  8
0
 10
0.0
 20
0.0
 30
0.0
 70
   128
 71
     2
 72
     5
 73
    -6
  0
VERTEX
  5
1222
  8
0
 10
0.0
 20
0.0
 30
0.0
 70
   128
 71
     3
 72
    -2
 73
     6
  0
VERTEX
  5
1223
  8
0
 10
0.0
 20
0.0
 30
0.0
 70
   128
 71
     7
 72
     1
 73
    -4
  0
VERTEX
  5
1224
  8
0
 10
0.0
 20
0.0
 30
0.0
 70
   128
 71
     8
 72
    -7
 73
     4
  0
SEQEND
  5
1719
  8
0
  0
POLYLINE
  5
1225
  8
0
 66
     1
 10
0.0
 20
0.0
 30
0.0
 70
    64
 71
    12
 72
    10
  0
VERTEX
  5
1226
  8
0
 10
77.9724540302576
 20
-17.5215574580394
 30
-218.0
 70
   192
  0
VERTEX
  5
1227
  8
0
 10
69.02537514673492
 20
-18.81074430252433
 30
-218.0
 70
   192
  0
VERTEX
  5
1228
  8
0
 10
60.16235568659783
 20
-20.62686565921269
 30
-218.0
 70
   192
  0
VERTEX
  5
1229
  8
0
 10
51.4834544569602
 20
-23.1054067434747
 30
-218.0
 70
   192
  0
VERTEX
  5
122A
  8
0
 10
51.41601157806354
 20
-23.00568080897481
 30
-217.9975833926806
 70
   192
  0
VERTEX
  5
122B
  8
0
 10
51.34867735447007
 20
-22.90611554009041
 30
-217.9903374640495
 70
   192
  0
VERTEX
  5
122C
  8
0
 10
51.2815602664315
 20
-22.8068713435932
 30
-217.9782738878165
 70
   192
  0
VERTEX
  5
122D
  8
0
 10
59.74686621930012
 20
-18.65834585523836
 30
-217.2253888065686
 70
   192
  0
VERTEX
  5
122E
  8
0
 10
68.62118499218745
 20
-16.0053825506876
 30
-215.9916381327703
 70
   192
  0
VERTEX
  5
122F
  8
0
 10
77.84663207477892
 20
-14.52419714677892
 30
-215.0000000000035
 70
   192
  0
VERTEX
  5
1230
  8
0
 10
77.86348902045928
 20
-14.92576728419376
 30
-216.500000000002
 70
   192
  0
VERTEX
  5
1231
  8
0
 10
77.9095430525183
 20
-16.02287730241017
 30
-217.5980762113539
 70
   192
  0
VERTEX
  5
1232
  8
0
 10
0.0
 20
0.0
 30
0.0
 70
   128
 71
     8
 72
     7
 73
     6
  0
VERTEX
  5
1233
  8
0
 10
0.0
 20
0.0
 30
0.0
 70
   128
 71
     6
 72
     9
 73
     8
  0
VERTEX
  5
1234
  8
0
 10
0.0
 20
0.0
 30
0.0
 70
   128
 71
     6
 72
    11
 73
    10
  0
VERTEX
  5
1235
  8
0
 10
0.0
 20
0.0
 30
0.0
 70
   128
 71
     6
 72
    10
 73
     9
  0
VERTEX
  5
1236
  8
0
 10
0.0
 20
0.0
 30
0.0
 70
   128
 71
     6
 72
     5
 73
    12
  0
VERTEX
  5
1237
  8
0
 10
0.0
 20
0.0
 30
0.0
 70
   128
 71
     6
 72
    12
 73
    11
  0
VERTEX
  5
1238
  8
0
 10
0.0
 20
0.0
 30
0.0
 70
   128
 71
     2
 72
     1
 73
    12
  0
VERTEX
  5
1239
  8
0
 10
0.0
 20
0.0
 30
0.0
 70
   128
 71
     2
 72
    12
 73
     5
  0
VERTEX
  5
123A
  8
0
 10
0.0
 20
0.0
 30
0.0
 70
   128
 71
     5
 72
     3
 73
     2
  0
VERTEX
  5
123B
  8
0
 10
0.0
 20
0.0
 30
0.0
 70
   128
 71
     5
 72
     4
 73
     3
  0
SEQEND
  5
171A
  8
0
  0
POLYLINE
  5
123C
  8
0
 66
     1
 10
0.0
 20
0.0
 30
0.0
 70
    64
 71
    12
 72
    10
  0
VERTEX
  5
123D
  8
0
 10
116.429771616733
 20
-23.5970031450665
 30
-217.9958886042635
 70
   192
  0
VERTEX
  5
123E
  8
0
 10
116.448855722551
 20
-26.99564819023707
 30
-218.1740040436524
 70
   192
  0
VERTEX
  5
123F
  8
0
 10
113.9066019165202
 20
-37.19158332574842
 30
-218.7083503618185
 70
   192
  0
VERTEX
  5
1240
  8
0
 10
109.1446235448928
 20
-52.81473782477212
 30
-219.5271251945082
 70
   192
  0
VERTEX
  5
1241
  8
0
 10
108.3104855616185
 20
-52.5551985498855
 30
-219.382675227495
 70
   192
  0
VERTEX
  5
1242
  8
0
 10
107.5490114329881
 20
-52.33194574282902
 30
-218.98982927946
 70
   192
  0
VERTEX
  5
1243
  8
0
 10
106.9265350827736
 20
-52.1644275163204
 30
-218.382809147561
 70
   192
  0
VERTEX
  5
1244
  8
0
 10
112.4171524643287
 20
-36.42423888016323
 30
-218.1734375355059
 70
   192
  0
VERTEX
  5
1245
  8
0
 10
115.6186764565903
 20
-26.84448267302702
 30
-218.0444482672982
 70
   192
  0
VERTEX
  5
1246
  8
0
 10
116.429771616733
 20
-23.75401101379535
 30
-218.0
 70
   192
  0
VERTEX
  5
1247
  8
0
 10
116.429771616733
 20
-23.70165379448349
 30
-217.9995430854692
 70
   192
  0
VERTEX
  5
1248
  8
0
 10
116.429771616733
 20
-23.64931252368783
 30
-217.9981724810573
 70
   192
  0
VERTEX
  5
1249
  8
0
 10
0.0
 20
0.0
 30
0.0
 70
   128
 71
     8
 72
     7
 73
     6
  0
VERTEX
  5
124A
  8
0
 10
0.0
 20
0.0
 30
0.0
 70
   128
 71
     6
 72
    11
 73
     9
  0
VERTEX
  5
124B
  8
0
 10
0.0
 20
0.0
 30
0.0
 70
   128
 71
     6
 72
     9
 73
     8
  0
VERTEX
  5
124C
  8
0
 10
0.0
 20
0.0
 30
0.0
 70
   128
 71
    11
 72
    10
 73
     9
  0
VERTEX
  5
124D
  8
0
 10
0.0
 20
0.0
 30
0.0
 70
   128
 71
     6
 72
     5
 73
    12
  0
VERTEX
  5
124E
  8
0
 10
0.0
 20
0.0
 30
0.0
 70
   128
 71
     6
 72
    12
 73
    11
  0
VERTEX
  5
124F
  8
0
 10
0.0
 20
0.0
 30
0.0
 70
   128
 71
     2
 72
     1
 73
    12
  0
VERTEX
  5
1250
  8
0
 10
0.0
 20
0.0
 30
0.0
 70
   128
 71
    12
 72
     5
 73
     3
  0
VERTEX
  5
1251
  8
0
 10
0.0
 20
0.0
 30
0.0
 70
   128
 71
    12
 72
     3
 73
     2
  0
VERTEX
  5
1252
  8
0
 10
0.0
 20
0.0
 30
0.0
 70
   128
 71
     5
 72
     4
 73
     3
  0
SEQEND
  5
171B
  8
0
  0
POLYLINE
  5
1253
  8
0
 66
     1
 10
0.0
 20
0.0
 30
0.0
 70
    64
 71
    12
 72
    10
  0
VERTEX
  5
1254
  8
0
 10
51.4834544569602
 20
-23.1054067434747
 30
-218.0
 70
   192
  0
VERTEX
  5
1255
  8
0
 10
51.03674833913988
 20
-23.38942725739776
 30
-218.0
 70
   192
  0
VERTEX
  5
1256
  8
0
 10
50.56506439515603
 20
-23.62977019382104
 30
-218.0
 70
   192
  0
VERTEX
  5
1257
  8
0
 10
50.0524343845652
 20
-23.7540110137953
 30
-218.0
 70
   192
  0
VERTEX
  5
1258
  8
0
 10
50.0524343845652
 20
-23.70165379448351
 30
-217.9995430854692
 70
   192
  0
VERTEX
  5
1259
  8
0
 10
50.0524343845652
 20
-23.64931252368791
 30
-217.9981724810573
 70
   192
  0
VERTEX
  5
125A
  8
0
 10
50.0524343845654
 20
-23.59700314506665
 30
-217.9958886042635
 70
   192
  0
VERTEX
  5
125B
  8
0
 10
50.36356329727073
 20
-23.4767108555851
 30
-217.9923135999823
 70
   192
  0
VERTEX
  5
125C
  8
0
 10
50.77203141083553
 20
-23.21130249234394
 30
-217.9864210148945
 70
   192
  0
VERTEX
  5
125D
  8
0
 10
51.28156026643151
 20
-22.80687134359322
 30
-217.9782738878163
 70
   192
  0
VERTEX
  5
125E
  8
0
 10
51.34867735447007
 20
-22.90611554009041
 30
-217.9903374640495
 70
   192
  0
VERTEX
  5
125F
  8
0
 10
51.41601157806354
 20
-23.00568080897481
 30
-217.9975833926806
 70
   192
  0
VERTEX
  5
1260
  8
0
 10
0.0
 20
0.0
 30
0.0
 70
   128
 71
     8
 72
     7
 73
     6
  0
VERTEX
  5
1261
  8
0
 10
0.0
 20
0.0
 30
0.0
 70
   128
 71
     6
 72
    11
 73
     9
  0
VERTEX
  5
1262
  8
0
 10
0.0
 20
0.0
 30
0.0
 70
   128
 71
     6
 72
     9
 73
     8
  0
VERTEX
  5
1263
  8
0
 10
0.0
 20
0.0
 30
0.0
 70
   128
 71
    11
 72
    10
 73
     9
  0
VERTEX
  5
1264
  8
0
 10
0.0
 20
0.0
 30
0.0
 70
   128
 71
     6
 72
     5
 73
    12
  0
VERTEX
  5
1265
  8
0
 10
0.0
 20
0.0
 30
0.0
 70
   128
 71
     6
 72
    12
 73
    11
  0
VERTEX
  5
1266
  8
0
 10
0.0
 20
0.0
 30
0.0
 70
   128
 71
     2
 72
     1
 73
    12
  0
VERTEX
  5
1267
  8
0
 10
0.0
 20
0.0
 30
0.0
 70
   128
 71
    12
 72
     5
 73
     3
  0
VERTEX
  5
1268
  8
0
 10
0.0
 20
0.0
 30
0.0
 70
   128
 71
    12
 72
     3
 73
     2
  0
VERTEX
  5
1269
  8
0
 10
0.0
 20
0.0
 30
0.0
 70
   128
 71
     5
 72
     4
 73
     3
  0
SEQEND
  5
171C
  8
0
  0
POLYLINE
  5
126A
  8
0
 66
     1
 10
0.0
 20
0.0
 30
0.0
 70
    64
 71
    12
 72
    10
  0
VERTEX
  5
126B
  8
0
 10
107.5490114329881
 20
-52.33194574282902
 30
-218.98982927946
 70
   192
  0
VERTEX
  5
126C
  8
0
 10
106.9265350827735
 20
-52.16442751632032
 30
-218.3828091475611
 70
   192
  0
VERTEX
  5
126D
  8
0
 10
90.73700373390288
 20
-69.45864684653525
 30
-218.6323748340709
 70
   192
  0
VERTEX
  5
126E
  8
0
 10
108.3104855616185
 20
-52.5551985498855
 30
-219.382675227495
 70
   192
  0
VERTEX
  5
126F
  8
0
 10
91.86925275144223
 20
-71.8515365771631
 30
-220.5248015417791
 70
   192
  0
VERTEX
  5
1270
  8
0
 10
109.1446235448928
 20
-52.8147378247721
 30
-219.527125194508
 70
   192
  0
VERTEX
  5
1271
  8
0
 10
49.68951443838142
 20
-52.55519854988555
 30
-219.382675227495
 70
   192
  0
VERTEX
  5
1272
  8
0
 10
48.85537645510721
 20
-52.81473782477216
 30
-219.5271251945082
 70
   192
  0
VERTEX
  5
1273
  8
0
 10
66.09582513574912
 20
-71.83631305956793
 30
-220.5240037110291
 70
   192
  0
VERTEX
  5
1274
  8
0
 10
50.45098856701179
 20
-52.33194574282908
 30
-218.9898292794599
 70
   192
  0
VERTEX
  5
1275
  8
0
 10
67.22626032019954
 20
-69.44223741998427
 30
-218.6321384355415
 70
   192
  0
VERTEX
  5
1276
  8
0
 10
51.0734649172263
 20
-52.1644275163204
 30
-218.382809147561
 70
   192
  0
VERTEX
  5
1277
  8
0
 10
0.0
 20
0.0
 30
0.0
 70
   128
 71
     1
 72
     2
 73
     3
  0
VERTEX
  5
1278
  8
0
 10
0.0
 20
0.0
 30
0.0
 70
   128
 71
     3
 72
     4
 73
     1
  0
VERTEX
  5
1279
  8
0
 10
0.0
 20
0.0
 30
0.0
 70
   128
 71
     3
 72
     5
 73
     4
  0
VERTEX
  5
127A
  8
0
 10
0.0
 20
0.0
 30
0.0
 70
   128
 71
     5
 72
     6
 73
     4
  0
VERTEX
  5
127B
  8
0
 10
0.0
 20
0.0
 30
0.0
 70
   128
 71
     7
 72
     8
 73
     9
  0
VERTEX
  5
127C
  8
0
 10
0.0
 20
0.0
 30
0.0
 70
   128
 71
     9
 72
    10
 73
     7
  0
VERTEX
  5
127D
  8
0
 10
0.0
 20
0.0
 30
0.0
 70
   128
 71
     9
 72
    11
 73
    10
  0
VERTEX
  5
127E
  8
0
 10
0.0
 20
0.0
 30
0.0
 70
   128
 71
    11
 72
    12
 73
    10
  0
VERTEX
  5
127F
  8
0
 10
0.0
 20
0.0
 30
0.0
 70
   128
 71
     9
 72
     3
 73
    11
  0
VERTEX
  5
1280
  8
0
 10
0.0
 20
0.0
 30
0.0
 70
   128
 71
     5
 72
     3
 73
     9
  0
SEQEND
  5
171D
  8
0
  0
POLYLINE
  5
1281
  8
0
 66
     1
 10
0.0
 20
0.0
 30
0.0
 70
    64
 71
     8
 72
     6
  0
VERTEX
  5
1282
  8
0
 10
41.57022838326684
 20
-23.64931252368783
 30
-217.9981724810573
 70
   192
  0
VERTEX
  5
1283
  8
0
 10
41.57022838326685
 20
-23.70165379448349
 30
-217.9995430854692
 70
   192
  0
VERTEX
  5
1284
  8
0
 10
50.0524343845652
 20
-23.70165379448351
 30
-217.9995430854692
 70
   192
  0
VERTEX
  5
1285
  8
0
 10
50.0524343845652
 20
-23.64931252368791
 30
-217.9981724810573
 70
   192
  0
VERTEX
  5
1286
  8
0
 10
41.57022838326685
 20
-23.75401101379535
 30
-218.0
 70
   192
  0
VERTEX
  5
1287
  8
0
 10
50.0524343845652
 20
-23.7540110137953
 30
-218.0
 70
   192
  0
VERTEX
  5
1288
  8
0
 10
41.57022838326688
 20
-23.5970031450665
 30
-217.9958886042635
 70
   192
  0
VERTEX
  5
1289
  8
0
 10
50.0524343845652
 20
-23.59700314506664
 30
-217.9958886042637
 70
   192
  0
VERTEX
  5
128A
  8
0
 10
0.0
 20
0.0
 30
0.0
 70
   128
 71
     1
 72
     2
 73
    -3
  0
VERTEX
  5
128B
  8
0
 10
0.0
 20
0.0
 30
0.0
 70
   128
 71
     4
 72
    -1
 73
     3
  0
VERTEX
  5
128C
  8
0
 10
0.0
 20
0.0
 30
0.0
 70
   128
 71
     2
 72
     5
 73
    -6
  0
VERTEX
  5
128D
  8
0
 10
0.0
 20
0.0
 30
0.0
 70
   128
 71
     3
 72
    -2
 73
     6
  0
VERTEX
  5
128E
  8
0
 10
0.0
 20
0.0
 30
0.0
 70
   128
 71
     7
 72
     1
 73
    -4
  0
VERTEX
  5
128F
  8
0
 10
0.0
 20
0.0
 30
0.0
 70
   128
 71
     8
 72
    -7
 73
     4
  0
SEQEND
  5
171E
  8
0
  0
POLYLINE
  5
1290
  8
0
 66
     1
 10
0.0
 20
0.0
 30
0.0
 70
    64
 71
    12
 72
    10
  0
VERTEX
  5
1291
  8
0
 10
48.85537645510719
 20
-52.8147378247721
 30
-219.527125194508
 70
   192
  0
VERTEX
  5
1292
  8
0
 10
44.09339808347977
 20
-37.19158332574836
 30
-218.7083503618185
 70
   192
  0
VERTEX
  5
1293
  8
0
 10
41.55114427744898
 20
-26.99564819023703
 30
-218.1740040436524
 70
   192
  0
VERTEX
  5
1294
  8
0
 10
41.57022838326684
 20
-23.59700314506649
 30
-217.9958886042637
 70
   192
  0
VERTEX
  5
1295
  8
0
 10
41.57022838326684
 20
-23.64931252368783
 30
-217.9981724810573
 70
   192
  0
VERTEX
  5
1296
  8
0
 10
41.57022838326685
 20
-23.70165379448349
 30
-217.9995430854692
 70
   192
  0
VERTEX
  5
1297
  8
0
 10
41.57022838326685
 20
-23.75401101379535
 30
-218.0
 70
   192
  0
VERTEX
  5
1298
  8
0
 10
42.38131806570964
 20
-26.84446607777385
 30
-218.0444484318627
 70
   192
  0
VERTEX
  5
1299
  8
0
 10
45.58278023839156
 20
-36.42423813452776
 30
-218.1735720450061
 70
   192
  0
VERTEX
  5
129A
  8
0
 10
51.07346491722632
 20
-52.16442751632039
 30
-218.382809147561
 70
   192
  0
VERTEX
  5
129B
  8
0
 10
50.45098856701179
 20
-52.33194574282908
 30
-218.9898292794599
 70
   192
  0
VERTEX
  5
129C
  8
0
 10
49.68951443838142
 20
-52.55519854988555
 30
-219.382675227495
 70
   192
  0
VERTEX
  5
129D
  8
0
 10
0.0
 20
0.0
 30
0.0
 70
   128
 71
     8
 72
     7
 73
     6
  0
VERTEX
  5
129E
  8
0
 10
0.0
 20
0.0
 30
0.0
 70
   128
 71
     6
 72
    11
 73
     9
  0
VERTEX
  5
129F
  8
0
 10
0.0
 20
0.0
 30
0.0
 70
   128
 71
     6
 72
     9
 73
     8
  0
VERTEX
  5
12A0
  8
0
 10
0.0
 20
0.0
 30
0.0
 70
   128
 71
    11
 72
    10
 73
     9
  0
VERTEX
  5
12A1
  8
0
 10
0.0
 20
0.0
 30
0.0
 70
   128
 71
     6
 72
     5
 73
    12
  0
VERTEX
  5
12A2
  8
0
 10
0.0
 20
0.0
 30
0.0
 70
   128
 71
     6
 72
    12
 73
    11
  0
VERTEX
  5
12A3
  8
0
 10
0.0
 20
0.0
 30
0.0
 70
   128
 71
     2
 72
     1
 73
    12
  0
VERTEX
  5
12A4
  8
0
 10
0.0
 20
0.0
 30
0.0
 70
   128
 71
    12
 72
     5
 73
     3
  0
VERTEX
  5
12A5
  8
0
 10
0.0
 20
0.0
 30
0.0
 70
   128
 71
    12
 72
     3
 73
     2
  0
VERTEX
  5
12A6
  8
0
 10
0.0
 20
0.0
 30
0.0
 70
   128
 71
     5
 72
     4
 73
     3
  0
SEQEND
  5
171F
  8
0
  0
POLYLINE
  5
12A7
  8
0
 66
     1
 10
0.0
 20
0.0
 30
0.0
 70
    64
 71
    10
 72
     8
  0
VERTEX
  5
12A8
  8
0
 10
87.0
 20
-42.0
 30
-239.0
 70
   192
  0
VERTEX
  5
12A9
  8
0
 10
71.0
 20
-42.0
 30
-239.0
 70
   192
  0
VERTEX
  5
12AA
  8
0
 10
71.0
 20
-42.0
 30
-218.0
 70
   192
  0
VERTEX
  5
12AB
  8
0
 10
87.0
 20
-42.0
 30
-218.0
 70
   192
  0
VERTEX
  5
12AC
  8
0
 10
79.0
 20
-34.00000000000001
 30
-218.0
 70
   192
  0
VERTEX
  5
12AD
  8
0
 10
79.0
 20
-34.00000000000001
 30
-239.0
 70
   192
  0
VERTEX
  5
12AE
  8
0
 10
84.65685424949237
 20
-36.34314575050762
 30
-218.0
 70
   192
  0
VERTEX
  5
12AF
  8
0
 10
84.65685424949237
 20
-36.34314575050762
 30
-239.0
 70
   192
  0
VERTEX
  5
12B0
  8
0
 10
73.34314575050763
 20
-36.34314575050762
 30
-218.0
 70
   192
  0
VERTEX
  5
12B1
  8
0
 10
73.34314575050763
 20
-36.34314575050762
 30
-239.0
 70
   192
  0
VERTEX
  5
12B2
  8
0
 10
0.0
 20
0.0
 30
0.0
 70
   128
 71
     8
 72
     1
 73
    -4
  0
VERTEX
  5
12B3
  8
0
 10
0.0
 20
0.0
 30
0.0
 70
   128
 71
     7
 72
    -8
 73
     4
  0
VERTEX
  5
12B4
  8
0
 10
0.0
 20
0.0
 30
0.0
 70
   128
 71
     6
 72
     8
 73
    -7
  0
VERTEX
  5
12B5
  8
0
 10
0.0
 20
0.0
 30
0.0
 70
   128
 71
     5
 72
    -6
 73
     7
  0
VERTEX
  5
12B6
  8
0
 10
0.0
 20
0.0
 30
0.0
 70
   128
 71
    10
 72
     6
 73
    -5
  0
VERTEX
  5
12B7
  8
0
 10
0.0
 20
0.0
 30
0.0
 70
   128
 71
     9
 72
   -10
 73
     5
  0
VERTEX
  5
12B8
  8
0
 10
0.0
 20
0.0
 30
0.0
 70
   128
 71
     3
 72
     2
 73
   -10
  0
VERTEX
  5
12B9
  8
0
 10
0.0
 20
0.0
 30
0.0
 70
   128
 71
     9
 72
    -3
 73
    10
  0
SEQEND
  5
1720
  8
0
  0
POLYLINE
  5
12BA
  8
0
 66
     1
 10
0.0
 20
0.0
 30
0.0
 70
    64
 71
    42
 72
    42
  0
VERTEX
  5
12BB
  8
0
 10
218.0
 20
-23.1054067434747
 30
-76.5165455430398
 70
   192
  0
VERTEX
  5
12BC
  8
0
 10
218.0
 20
-23.38948327065528
 30
-76.96335807074314
 70
   192
  0
VERTEX
  5
12BD
  8
0
 10
218.0
 20
-23.6298678382786
 30
-77.43517093621982
 70
   192
  0
VERTEX
  5
12BE
  8
0
 10
218.0
 20
-23.7540110137953
 30
-77.94756561543481
 70
   192
  0
VERTEX
  5
12BF
  8
0
 10
218.0
 20
-23.75401101379535
 30
-86.429771616733
 70
   192
  0
VERTEX
  5
12C0
  8
0
 10
218.0
 20
-52.50854843088422
 30
-75.96397589681878
 70
   192
  0
VERTEX
  5
12C1
  8
0
 10
218.0
 20
-62.14675027808998
 30
-70.01904447885863
 70
   192
  0
VERTEX
  5
12C2
  8
0
 10
218.0
 20
-68.64203541041309
 30
-60.74281596390967
 70
   192
  0
VERTEX
  5
12C3
  8
0
 10
218.0
 20
-70.93198441776539
 30
-49.65258251481331
 70
   192
  0
VERTEX
  5
12C4
  8
0
 10
218.0
 20
-70.93198441776539
 30
31.65258251481335
 70
   192
  0
VERTEX
  5
12C5
  8
0
 10
218.0
 20
-68.64203541041314
 30
42.74281596390971
 70
   192
  0
VERTEX
  5
12C6
  8
0
 10
218.0
 20
-62.14675027809005
 30
52.01904447885865
 70
   192
  0
VERTEX
  5
12C7
  8
0
 10
218.0
 20
-52.50854843088429
 30
57.96397589681875
 70
   192
  0
VERTEX
  5
12C8
  8
0
 10
218.0
 20
-23.75401101379535
 30
68.4297716167329
 70
   192
  0
VERTEX
  5
12C9
  8
0
 10
218.0
 20
-23.75401101379535
 30
59.9475656154347
 70
   192
  0
VERTEX
  5
12CA
  8
0
 10
218.0
 20
-23.629770193821
 30
59.43493560484396
 70
   192
  0
VERTEX
  5
12CB
  8
0
 10
218.0
 20
-23.38942725739785
 30
58.96325166086007
 70
   192
  0
VERTEX
  5
12CC
  8
0
 10
218.0
 20
-23.10540674347465
 30
58.5165455430397
 70
   192
  0
VERTEX
  5
12CD
  8
0
 10
218.0
 20
-20.62686565921268
 30
49.83764431340217
 70
   192
  0
VERTEX
  5
12CE
  8
0
 10
218.0
 20
-18.81074430252433
 30
40.97462485326507
 70
   192
  0
VERTEX
  5
12CF
  8
0
 10
218.0
 20
-17.52155745803935
 30
32.02754596974225
 70
   192
  0
VERTEX
  5
12D0
  8
0
 10
218.0
 20
-17.50958187321437
 30
31.68514230289032
 70
   192
  0
VERTEX
  5
12D1
  8
0
 10
218.0
 20
-17.50239558542257
 30
31.34260465098424
 70
   192
  0
VERTEX
  5
12D2
  8
0
 10
218.0
 20
-17.5
 30
31.0
 70
   192
  0
VERTEX
  5
12D3
  8
0
 10
218.0
 20
-17.5
 30
-49.0
 70
   192
  0
VERTEX
  5
12D4
  8
0
 10
218.0
 20
-17.50239558542263
 30
-49.34260465098897
 70
   192
  0
VERTEX
  5
12D5
  8
0
 10
218.0
 20
-17.50958187321464
 30
-49.68514230289976
 70
   192
  0
VERTEX
  5
12D6
  8
0
 10
218.0
 20
-17.52155745804
 30
-50.0275459697564
 70
   192
  0
VERTEX
  5
12D7
  8
0
 10
218.0
 20
-18.81155923077282
 30
-58.97886794874191
 70
   192
  0
VERTEX
  5
12D8
  8
0
 10
217.9999999999999
 20
-20.62690916682564
 30
-67.83784428340007
 70
   192
  0
VERTEX
  5
12D9
  8
0
 10
218.0
 20
-50.0
 30
-49.0
 70
   192
  0
VERTEX
  5
12DA
  8
0
 10
218.0
 20
-48.92820323027551
 30
-53.0
 70
   192
  0
VERTEX
  5
12DB
  8
0
 10
218.0
 20
-46.0
 30
-55.92820323027551
 70
   192
  0
VERTEX
  5
12DC
  8
0
 10
218.0
 20
-42.0
 30
-57.0
 70
   192
  0
VERTEX
  5
12DD
  8
0
 10
218.0
 20
-38.0
 30
-55.92820323027551
 70
   192
  0
VERTEX
  5
12DE
  8
0
 10
218.0
 20
-35.07179676972449
 30
-53.0
 70
   192
  0
VERTEX
  5
12DF
  8
0
 10
218.0
 20
-34.0
 30
-49.0
 70
   192
  0
VERTEX
  5
12E0
  8
0
 10
218.0
 20
-34.00000000000001
 30
31.0
 70
   192
  0
VERTEX
  5
12E1
  8
0
 10
218.0
 20
-36.34314575050762
 30
36.65685424949238
 70
   192
  0
VERTEX
  5
12E2
  8
0
 10
218.0
 20
-42.0
 30
39.0
 70
   192
  0
VERTEX
  5
12E3
  8
0
 10
218.0
 20
-47.65685424949238
 30
36.65685424949238
 70
   192
  0
VERTEX
  5
12E4
  8
0
 10
218.0
 20
-50.0
 30
31.0
 70
   192
  0
VERTEX
  5
12E5
  8
0
 10
0.0
 20
0.0
 30
0.0
 70
   128
 71
    13
 72
    14
 73
   -15
  0
VERTEX
  5
12E6
  8
0
 10
0.0
 20
0.0
 30
0.0
 70
   128
 71
    12
 72
   -13
 73
   -15
  0
VERTEX
  5
12E7
  8
0
 10
0.0
 20
0.0
 30
0.0
 70
   128
 71
    15
 72
   -16
 73
   -12
  0
VERTEX
  5
12E8
  8
0
 10
0.0
 20
0.0
 30
0.0
 70
   128
 71
   -19
 72
    11
 73
   -12
  0
VERTEX
  5
12E9
  8
0
 10
0.0
 20
0.0
 30
0.0
 70
   128
 71
   -17
 72
   -19
 73
   -12
  0
VERTEX
  5
12EA
  8
0
 10
0.0
 20
0.0
 30
0.0
 70
   128
 71
    16
 72
   -17
 73
   -12
  0
VERTEX
  5
12EB
  8
0
 10
0.0
 20
0.0
 30
0.0
 70
   128
 71
    17
 72
    18
 73
   -19
  0
VERTEX
  5
12EC
  8
0
 10
0.0
 20
0.0
 30
0.0
 70
   128
 71
   -20
 72
    39
 73
   -40
  0
VERTEX
  5
12ED
  8
0
 10
0.0
 20
0.0
 30
0.0
 70
   128
 71
    19
 72
   -20
 73
   -40
  0
VERTEX
  5
12EE
  8
0
 10
0.0
 20
0.0
 30
0.0
 70
   128
 71
   -11
 72
   -19
 73
   -40
  0
VERTEX
  5
12EF
  8
0
 10
0.0
 20
0.0
 30
0.0
 70
   128
 71
    40
 72
   -41
 73
   -11
  0
VERTEX
  5
12F0
  8
0
 10
0.0
 20
0.0
 30
0.0
 70
   128
 71
    41
 72
   -42
 73
   -11
  0
VERTEX
  5
12F1
  8
0
 10
0.0
 20
0.0
 30
0.0
 70
   128
 71
     9
 72
    10
 73
   -11
  0
VERTEX
  5
12F2
  8
0
 10
0.0
 20
0.0
 30
0.0
 70
   128
 71
   -31
 72
    -9
 73
   -11
  0
VERTEX
  5
12F3
  8
0
 10
0.0
 20
0.0
 30
0.0
 70
   128
 71
    42
 72
   -31
 73
   -11
  0
VERTEX
  5
12F4
  8
0
 10
0.0
 20
0.0
 30
0.0
 70
   128
 71
     7
 72
     8
 73
    -9
  0
VERTEX
  5
12F5
  8
0
 10
0.0
 20
0.0
 30
0.0
 70
   128
 71
     6
 72
    -7
 73
    -9
  0
VERTEX
  5
12F6
  8
0
 10
0.0
 20
0.0
 30
0.0
 70
   128
 71
   -31
 72
    -6
 73
    -9
  0
VERTEX
  5
12F7
  8
0
 10
0.0
 20
0.0
 30
0.0
 70
   128
 71
   -22
 72
    38
 73
   -39
  0
VERTEX
  5
12F8
  8
0
 10
0.0
 20
0.0
 30
0.0
 70
   128
 71
    21
 72
   -22
 73
   -39
  0
VERTEX
  5
12F9
  8
0
 10
0.0
 20
0.0
 30
0.0
 70
   128
 71
    20
 72
   -21
 73
   -39
  0
VERTEX
  5
12FA
  8
0
 10
0.0
 20
0.0
 30
0.0
 70
   128
 71
    22
 72
   -23
 73
   -38
  0
VERTEX
  5
12FB
  8
0
 10
0.0
 20
0.0
 30
0.0
 70
   128
 71
    23
 72
   -24
 73
   -38
  0
VERTEX
  5
12FC
  8
0
 10
0.0
 20
0.0
 30
0.0
 70
   128
 71
   -25
 72
    37
 73
   -38
  0
VERTEX
  5
12FD
  8
0
 10
0.0
 20
0.0
 30
0.0
 70
   128
 71
    24
 72
   -25
 73
   -38
  0
VERTEX
  5
12FE
  8
0
 10
0.0
 20
0.0
 30
0.0
 70
   128
 71
    25
 72
   -26
 73
   -37
  0
VERTEX
  5
12FF
  8
0
 10
0.0
 20
0.0
 30
0.0
 70
   128
 71
   -27
 72
   -29
 73
   -37
  0
VERTEX
  5
1300
  8
0
 10
0.0
 20
0.0
 30
0.0
 70
   128
 71
    26
 72
   -27
 73
   -37
  0
VERTEX
  5
1301
  8
0
 10
0.0
 20
0.0
 30
0.0
 70
   128
 71
    27
 72
    28
 73
   -29
  0
VERTEX
  5
1302
  8
0
 10
0.0
 20
0.0
 30
0.0
 70
   128
 71
    29
 72
   -30
 73
   -37
  0
VERTEX
  5
1303
  8
0
 10
0.0
 20
0.0
 30
0.0
 70
   128
 71
   -30
 72
    -2
 73
   -37
  0
VERTEX
  5
1304
  8
0
 10
0.0
 20
0.0
 30
0.0
 70
   128
 71
    30
 72
     1
 73
    -2
  0
VERTEX
  5
1305
  8
0
 10
0.0
 20
0.0
 30
0.0
 70
   128
 71
     2
 72
    -3
 73
   -37
  0
VERTEX
  5
1306
  8
0
 10
0.0
 20
0.0
 30
0.0
 70
   128
 71
     3
 72
    -4
 73
   -37
  0
VERTEX
  5
1307
  8
0
 10
0.0
 20
0.0
 30
0.0
 70
   128
 71
    -6
 72
    31
 73
   -32
  0
VERTEX
  5
1308
  8
0
 10
0.0
 20
0.0
 30
0.0
 70
   128
 71
    32
 72
   -33
 73
    -6
  0
VERTEX
  5
1309
  8
0
 10
0.0
 20
0.0
 30
0.0
 70
   128
 71
    33
 72
   -34
 73
    -6
  0
VERTEX
  5
130A
  8
0
 10
0.0
 20
0.0
 30
0.0
 70
   128
 71
     4
 72
     5
 73
    -6
  0
VERTEX
  5
130B
  8
0
 10
0.0
 20
0.0
 30
0.0
 70
   128
 71
   -35
 72
    -4
 73
    -6
  0
VERTEX
  5
130C
  8
0
 10
0.0
 20
0.0
 30
0.0
 70
   128
 71
    34
 72
   -35
 73
    -6
  0
VERTEX
  5
130D
  8
0
 10
0.0
 20
0.0
 30
0.0
 70
   128
 71
    35
 72
   -36
 73
    -4
  0
VERTEX
  5
130E
  8
0
 10
0.0
 20
0.0
 30
0.0
 70
   128
 71
    36
 72
   -37
 73
    -4
  0
SEQEND
  5
1721
  8
0
  0
POLYLINE
  5
130F
  8
0
 66
     1
 10
0.0
 20
0.0
 30
0.0
 70
    64
 71
     8
 72
     6
  0
VERTEX
  5
1310
  8
0
 10
218.0
 20
-46.0
 30
-55.92820323027551
 70
   192
  0
VERTEX
  5
1311
  8
0
 10
218.0
 20
-48.92820323027551
 30
-53.0
 70
   192
  0
VERTEX
  5
1312
  8
0
 10
239.0
 20
-48.92820323027551
 30
-53.0
 70
   192
  0
VERTEX
  5
1313
  8
0
 10
239.0
 20
-46.0
 30
-55.92820323027551
 70
   192
  0
VERTEX
  5
1314
  8
0
 10
218.0
 20
-50.0
 30
-49.0
 70
   192
  0
VERTEX
  5
1315
  8
0
 10
239.0
 20
-50.0
 30
-49.0
 70
   192
  0
VERTEX
  5
1316
  8
0
 10
218.0
 20
-42.0
 30
-57.0
 70
   192
  0
VERTEX
  5
1317
  8
0
 10
239.0
 20
-42.0
 30
-57.0
 70
   192
  0
VERTEX
  5
1318
  8
0
 10
0.0
 20
0.0
 30
0.0
 70
   128
 71
     1
 72
     2
 73
    -3
  0
VERTEX
  5
1319
  8
0
 10
0.0
 20
0.0
 30
0.0
 70
   128
 71
     4
 72
    -1
 73
     3
  0
VERTEX
  5
131A
  8
0
 10
0.0
 20
0.0
 30
0.0
 70
   128
 71
     2
 72
     5
 73
    -6
  0
VERTEX
  5
131B
  8
0
 10
0.0
 20
0.0
 30
0.0
 70
   128
 71
     3
 72
    -2
 73
     6
  0
VERTEX
  5
131C
  8
0
 10
0.0
 20
0.0
 30
0.0
 70
   128
 71
     7
 72
     1
 73
    -4
  0
VERTEX
  5
131D
  8
0
 10
0.0
 20
0.0
 30
0.0
 70
   128
 71
     8
 72
    -7
 73
     4
  0
SEQEND
  5
1722
  8
0
  0
POLYLINE
  5
131E
  8
0
 66
     1
 10
0.0
 20
0.0
 30
0.0
 70
    64
 71
     4
 72
     2
  0
VERTEX
  5
131F
  8
0
 10
218.0
 20
-50.00000000000001
 30
31.0
 70
   192
  0
VERTEX
  5
1320
  8
0
 10
218.0
 20
-50.0
 30
-49.0
 70
   192
  0
VERTEX
  5
1321
  8
0
 10
239.0
 20
-50.0
 30
-49.0
 70
   192
  0
VERTEX
  5
1322
  8
0
 10
239.0
 20
-50.0
 30
31.0
 70
   192
  0
VERTEX
  5
1323
  8
0
 10
0.0
 20
0.0
 30
0.0
 70
   128
 71
     1
 72
     4
 73
    -3
  0
VERTEX
  5
1324
  8
0
 10
0.0
 20
0.0
 30
0.0
 70
   128
 71
    -1
 72
     3
 73
     2
  0
SEQEND
  5
1723
  8
0
  0
POLYLINE
  5
1325
  8
0
 66
     1
 10
0.0
 20
0.0
 30
0.0
 70
    64
 71
    10
 72
     8
  0
VERTEX
  5
1326
  8
0
 10
218.0
 20
-34.0
 30
31.0
 70
   192
  0
VERTEX
  5
1327
  8
0
 10
218.0
 20
-50.0
 30
31.0
 70
   192
  0
VERTEX
  5
1328
  8
0
 10
239.0
 20
-50.0
 30
31.0
 70
   192
  0
VERTEX
  5
1329
  8
0
 10
239.0
 20
-34.0
 30
31.0
 70
   192
  0
VERTEX
  5
132A
  8
0
 10
239.0
 20
-42.0
 30
39.0
 70
   192
  0
VERTEX
  5
132B
  8
0
 10
218.0
 20
-42.0
 30
39.0
 70
   192
  0
VERTEX
  5
132C
  8
0
 10
239.0
 20
-36.34314575050762
 30
36.65685424949238
 70
   192
  0
VERTEX
  5
132D
  8
0
 10
218.0
 20
-36.34314575050762
 30
36.65685424949238
 70
   192
  0
VERTEX
  5
132E
  8
0
 10
239.0
 20
-47.65685424949238
 30
36.65685424949238
 70
   192
  0
VERTEX
  5
132F
  8
0
 10
218.0
 20
-47.65685424949238
 30
36.65685424949238
 70
   192
  0
VERTEX
  5
1330
  8
0
 10
0.0
 20
0.0
 30
0.0
 70
   128
 71
     1
 72
     4
 73
    -7
  0
VERTEX
  5
1331
  8
0
 10
0.0
 20
0.0
 30
0.0
 70
   128
 71
     8
 72
    -1
 73
     7
  0
VERTEX
  5
1332
  8
0
 10
0.0
 20
0.0
 30
0.0
 70
   128
 71
     7
 72
     5
 73
    -6
  0
VERTEX
  5
1333
  8
0
 10
0.0
 20
0.0
 30
0.0
 70
   128
 71
     8
 72
    -7
 73
     6
  0
VERTEX
  5
1334
  8
0
 10
0.0
 20
0.0
 30
0.0
 70
   128
 71
     5
 72
     9
 73
   -10
  0
VERTEX
  5
1335
  8
0
 10
0.0
 20
0.0
 30
0.0
 70
   128
 71
     6
 72
    -5
 73
    10
  0
VERTEX
  5
1336
  8
0
 10
0.0
 20
0.0
 30
0.0
 70
   128
 71
     9
 72
     3
 73
    -2
  0
VERTEX
  5
1337
  8
0
 10
0.0
 20
0.0
 30
0.0
 70
   128
 71
    10
 72
    -9
 73
     2
  0
SEQEND
  5
1724
  8
0
  0
POLYLINE
  5
1338
  8
0
 66
     1
 10
0.0
 20
0.0
 30
0.0
 70
    64
 71
     4
 72
     2
  0
VERTEX
  5
1339
  8
0
 10
218.0
 20
-34.0
 30
-49.0
 70
   192
  0
VERTEX
  5
133A
  8
0
 10
218.0
 20
-34.0
 30
31.0
 70
   192
  0
VERTEX
  5
133B
  8
0
 10
239.0
 20
-34.00000000000001
 30
31.0
 70
   192
  0
VERTEX
  5
133C
  8
0
 10
239.0
 20
-34.0
 30
-49.0
 70
   192
  0
VERTEX
  5
133D
  8
0
 10
0.0
 20
0.0
 30
0.0
 70
   128
 71
     1
 72
     4
 73
    -3
  0
VERTEX
  5
133E
  8
0
 10
0.0
 20
0.0
 30
0.0
 70
   128
 71
    -1
 72
     3
 73
     2
  0
SEQEND
  5
1725
  8
0
  0
POLYLINE
  5
133F
  8
0
 66
     1
 10
0.0
 20
0.0
 30
0.0
 70
    64
 71
     4
 72
     2
  0
VERTEX
  5
1340
  8
0
 10
214.932997557111
 20
-14.5
 30
-49.0
 70
   192
  0
VERTEX
  5
1341
  8
0
 10
215.0
 20
-14.5
 30
-49.0
 70
   192
  0
VERTEX
  5
1342
  8
0
 10
215.0
 20
-14.5
 30
31.0
 70
   192
  0
VERTEX
  5
1343
  8
0
 10
214.932997557111
 20
-14.5
 30
31.0
 70
   192
  0
VERTEX
  5
1344
  8
0
 10
0.0
 20
0.0
 30
0.0
 70
   128
 71
     3
 72
     4
 73
    -1
  0
VERTEX
  5
1345
  8
0
 10
0.0
 20
0.0
 30
0.0
 70
   128
 71
     2
 72
    -3
 73
     1
  0
SEQEND
  5
1726
  8
0
  0
POLYLINE
  5
1346
  8
0
 66
     1
 10
0.0
 20
0.0
 30
0.0
 70
    64
 71
     7
 72
     5
  0
VERTEX
  5
1347
  8
0
 10
214.9404422729876
 20
-14.50266791976601
 30
31.38304183449796
 70
   192
  0
VERTEX
  5
1348
  8
0
 10
214.932997557111
 20
-14.5
 30
31.0
 70
   192
  0
VERTEX
  5
1349
  8
0
 10
215.0
 20
-14.5
 30
31.0
 70
   192
  0
VERTEX
  5
134A
  8
0
 10
215.0
 20
-14.50268892241309
 30
31.38455624090069
 70
   192
  0
VERTEX
  5
134B
  8
0
 10
214.9627764206173
 20
-14.51071298326066
 30
31.7675233161644
 70
   192
  0
VERTEX
  5
134C
  8
0
 10
215.0
 20
-14.51075516381205
 30
31.76903727875445
 70
   192
  0
VERTEX
  5
134D
  8
0
 10
215.0
 20
-14.52419714677892
 30
32.15336792522091
 70
   192
  0
VERTEX
  5
134E
  8
0
 10
0.0
 20
0.0
 30
0.0
 70
   128
 71
     1
 72
     2
 73
     3
  0
VERTEX
  5
134F
  8
0
 10
0.0
 20
0.0
 30
0.0
 70
   128
 71
     4
 72
     1
 73
     3
  0
VERTEX
  5
1350
  8
0
 10
0.0
 20
0.0
 30
0.0
 70
   128
 71
     5
 72
     1
 73
     4
  0
VERTEX
  5
1351
  8
0
 10
0.0
 20
0.0
 30
0.0
 70
   128
 71
     6
 72
     5
 73
     4
  0
VERTEX
  5
1352
  8
0
 10
0.0
 20
0.0
 30
0.0
 70
   128
 71
     7
 72
     5
 73
     6
  0
SEQEND
  5
1727
  8
0
  0
POLYLINE
  5
1353
  8
0
 66
     1
 10
0.0
 20
0.0
 30
0.0
 70
    64
 71
     7
 72
     5
  0
VERTEX
  5
1354
  8
0
 10
215.0
 20
-14.51075516381234
 30
-49.76903727876498
 70
   192
  0
VERTEX
  5
1355
  8
0
 10
214.9627764206175
 20
-14.51071298326096
 30
-49.76752331617509
 70
   192
  0
VERTEX
  5
1356
  8
0
 10
215.0
 20
-14.5241971467796
 30
-50.1533679252367
 70
   192
  0
VERTEX
  5
1357
  8
0
 10
214.9404422729878
 20
-14.50266791976608
 30
-49.38304183450339
 70
   192
  0
VERTEX
  5
1358
  8
0
 10
215.0
 20
-14.50268892241315
 30
-49.38455624090597
 70
   192
  0
VERTEX
  5
1359
  8
0
 10
214.932997557111
 20
-14.5
 30
-49.0
 70
   192
  0
VERTEX
  5
135A
  8
0
 10
215.0
 20
-14.5
 30
-49.00000000000001
 70
   192
  0
VERTEX
  5
135B
  8
0
 10
0.0
 20
0.0
 30
0.0
 70
   128
 71
     1
 72
     2
 73
     3
  0
VERTEX
  5
135C
  8
0
 10
0.0
 20
0.0
 30
0.0
 70
   128
 71
     4
 72
     2
 73
     1
  0
VERTEX
  5
135D
  8
0
 10
0.0
 20
0.0
 30
0.0
 70
   128
 71
     5
 72
     4
 73
     1
  0
VERTEX
  5
135E
  8
0
 10
0.0
 20
0.0
 30
0.0
 70
   128
 71
     6
 72
     4
 73
     5
  0
VERTEX
  5
135F
  8
0
 10
0.0
 20
0.0
 30
0.0
 70
   128
 71
     7
 72
     6
 73
     5
  0
SEQEND
  5
1728
  8
0
  0
POLYLINE
  5
1360
  8
0
 66
     1
 10
0.0
 20
0.0
 30
0.0
 70
    64
 71
     7
 72
     5
  0
VERTEX
  5
1361
  8
0
 10
218.1807122292397
 20
-52.70465681282713
 30
-76.50277924797251
 70
   192
  0
VERTEX
  5
1362
  8
0
 10
218.0462474716258
 20
-52.61135727076077
 30
-76.24644086289973
 70
   192
  0
VERTEX
  5
1363
  8
0
 10
218.1773364200702
 20
-36.70592768078895
 30
-82.32052671945978
 70
   192
  0
VERTEX
  5
1364
  8
0
 10
218.390956962717
 20
-52.7798173212345
 30
-76.7092810476565
 70
   192
  0
VERTEX
  5
1365
  8
0
 10
218.0
 20
-52.50854843088426
 30
-75.96397589681868
 70
   192
  0
VERTEX
  5
1366
  8
0
 10
218.0454402701617
 20
-26.91691174359759
 30
-85.59571456809323
 70
   192
  0
VERTEX
  5
1367
  8
0
 10
218.0
 20
-23.75401101379535
 30
-86.42977161673303
 70
   192
  0
VERTEX
  5
1368
  8
0
 10
0.0
 20
0.0
 30
0.0
 70
   128
 71
     1
 72
     2
 73
     3
  0
VERTEX
  5
1369
  8
0
 10
0.0
 20
0.0
 30
0.0
 70
   128
 71
     3
 72
     4
 73
     1
  0
VERTEX
  5
136A
  8
0
 10
0.0
 20
0.0
 30
0.0
 70
   128
 71
     3
 72
     2
 73
     5
  0
VERTEX
  5
136B
  8
0
 10
0.0
 20
0.0
 30
0.0
 70
   128
 71
     5
 72
     6
 73
     3
  0
VERTEX
  5
136C
  8
0
 10
0.0
 20
0.0
 30
0.0
 70
   128
 71
     6
 72
     5
 73
     7
  0
SEQEND
  5
1729
  8
0
  0
POLYLINE
  5
136D
  8
0
 66
     1
 10
0.0
 20
0.0
 30
0.0
 70
    64
 71
    12
 72
    10
  0
VERTEX
  5
136E
  8
0
 10
218.0
 20
-62.14675027808998
 30
-70.01904447885863
 70
   192
  0
VERTEX
  5
136F
  8
0
 10
218.0
 20
-52.5085484308842
 30
-75.96397589681871
 70
   192
  0
VERTEX
  5
1370
  8
0
 10
218.0462474716258
 20
-52.61135727076077
 30
-76.24644086289973
 70
   192
  0
VERTEX
  5
1371
  8
0
 10
218.1807122292397
 20
-52.70465681282713
 30
-76.50277924797251
 70
   192
  0
VERTEX
  5
1372
  8
0
 10
218.3187036327558
 20
-71.66399210896802
 30
-49.6525825148133
 70
   192
  0
VERTEX
  5
1373
  8
0
 10
218.0831313160424
 20
-71.3311733659815
 30
-49.6525825148133
 70
   192
  0
VERTEX
  5
1374
  8
0
 10
218.390956962717
 20
-52.77981732123451
 30
-76.70928104765653
 70
   192
  0
VERTEX
  5
1375
  8
0
 10
218.0
 20
-68.64203541041309
 30
-60.74281596390967
 70
   192
  0
VERTEX
  5
1376
  8
0
 10
218.0
 20
-70.93198441776539
 30
-49.6525825148133
 70
   192
  0
VERTEX
  5
1377
  8
0
 10
218.536375807085
 20
-62.85941912450114
 30
-70.56426202093327
 70
   192
  0
VERTEX
  5
1378
  8
0
 10
218.6332271578752
 20
-69.5237301784943
 30
-61.04601524832758
 70
   192
  0
VERTEX
  5
1379
  8
0
 10
218.667550076717
 20
-71.8751053265088
 30
-49.6525825148133
 70
   192
  0
VERTEX
  5
137A
  8
0
 10
0.0
 20
0.0
 30
0.0
 70
   128
 71
     1
 72
     2
 73
     3
  0
VERTEX
  5
137B
  8
0
 10
0.0
 20
0.0
 30
0.0
 70
   128
 71
     4
 72
     5
 73
     6
  0
VERTEX
  5
137C
  8
0
 10
0.0
 20
0.0
 30
0.0
 70
   128
 71
     7
 72
     5
 73
     4
  0
VERTEX
  5
137D
  8
0
 10
0.0
 20
0.0
 30
0.0
 70
   128
 71
     8
 72
     6
 73
     9
  0
VERTEX
  5
137E
  8
0
 10
0.0
 20
0.0
 30
0.0
 70
   128
 71
     4
 72
     6
 73
     8
  0
VERTEX
  5
137F
  8
0
 10
0.0
 20
0.0
 30
0.0
 70
   128
 71
     4
 72
     8
 73
     1
  0
VERTEX
  5
1380
  8
0
 10
0.0
 20
0.0
 30
0.0
 70
   128
 71
     4
 72
     1
 73
     3
  0
VERTEX
  5
1381
  8
0
 10
0.0
 20
0.0
 30
0.0
 70
   128
 71
     7
 72
    10
 73
    11
  0
VERTEX
  5
1382
  8
0
 10
0.0
 20
0.0
 30
0.0
 70
   128
 71
     7
 72
    11
 73
    12
  0
VERTEX
  5
1383
  8
0
 10
0.0
 20
0.0
 30
0.0
 70
   128
 71
     7
 72
    12
 73
     5
  0
SEQEND
  5
172A
  8
0
  0
POLYLINE
  5
1384
  8
0
 66
     1
 10
0.0
 20
0.0
 30
0.0
 70
    64
 71
     8
 72
     6
  0
VERTEX
  5
1385
  8
0
 10
218.3187036327558
 20
-71.66399210896802
 30
-49.6525825148133
 70
   192
  0
VERTEX
  5
1386
  8
0
 10
218.3187036327558
 20
-71.66399210896802
 30
31.65258251481335
 70
   192
  0
VERTEX
  5
1387
  8
0
 10
218.0831313160424
 20
-71.3311733659815
 30
31.65258251481335
 70
   192
  0
VERTEX
  5
1388
  8
0
 10
218.0831313160424
 20
-71.3311733659815
 30
-49.6525825148133
 70
   192
  0
VERTEX
  5
1389
  8
0
 10
218.667550076717
 20
-71.87510532650886
 30
-49.6525825148133
 70
   192
  0
VERTEX
  5
138A
  8
0
 10
218.667550076717
 20
-71.87510532650883
 30
31.65258251481335
 70
   192
  0
VERTEX
  5
138B
  8
0
 10
218.0
 20
-70.93198441776539
 30
31.65258251481335
 70
   192
  0
VERTEX
  5
138C
  8
0
 10
218.0
 20
-70.93198441776536
 30
-49.6525825148133
 70
   192
  0
VERTEX
  5
138D
  8
0
 10
0.0
 20
0.0
 30
0.0
 70
   128
 71
     1
 72
     2
 73
    -3
  0
VERTEX
  5
138E
  8
0
 10
0.0
 20
0.0
 30
0.0
 70
   128
 71
    -1
 72
     3
 73
     4
  0
VERTEX
  5
138F
  8
0
 10
0.0
 20
0.0
 30
0.0
 70
   128
 71
     5
 72
     6
 73
    -2
  0
VERTEX
  5
1390
  8
0
 10
0.0
 20
0.0
 30
0.0
 70
   128
 71
    -5
 72
     2
 73
     1
  0
VERTEX
  5
1391
  8
0
 10
0.0
 20
0.0
 30
0.0
 70
   128
 71
     4
 72
     3
 73
    -7
  0
VERTEX
  5
1392
  8
0
 10
0.0
 20
0.0
 30
0.0
 70
   128
 71
    -4
 72
     7
 73
     8
  0
SEQEND
  5
172B
  8
0
  0
POLYLINE
  5
1393
  8
0
 66
     1
 10
0.0
 20
0.0
 30
0.0
 70
    64
 71
    12
 72
    10
  0
VERTEX
  5
1394
  8
0
 10
218.0462474716258
 20
-52.6113572707608
 30
58.2464408628998
 70
   192
  0
VERTEX
  5
1395
  8
0
 10
218.0
 20
-52.5085484308843
 30
57.9639758968188
 70
   192
  0
VERTEX
  5
1396
  8
0
 10
218.0
 20
-62.14675027809005
 30
52.01904447885865
 70
   192
  0
VERTEX
  5
1397
  8
0
 10
218.3187036327558
 20
-71.66399210896802
 30
31.65258251481335
 70
   192
  0
VERTEX
  5
1398
  8
0
 10
218.390956962717
 20
-52.7798173212345
 30
58.7092810476565
 70
   192
  0
VERTEX
  5
1399
  8
0
 10
218.1807122292398
 20
-52.70465681282715
 30
58.50277924797254
 70
   192
  0
VERTEX
  5
139A
  8
0
 10
218.0831313160424
 20
-71.3311733659815
 30
31.65258251481335
 70
   192
  0
VERTEX
  5
139B
  8
0
 10
218.0
 20
-68.64203541041314
 30
42.74281596390971
 70
   192
  0
VERTEX
  5
139C
  8
0
 10
218.0
 20
-70.93198441776545
 30
31.65258251481335
 70
   192
  0
VERTEX
  5
139D
  8
0
 10
218.667550076717
 20
-71.87510532650886
 30
31.65258251481335
 70
   192
  0
VERTEX
  5
139E
  8
0
 10
218.6333298243932
 20
-69.53092805845804
 30
43.03061002067646
 70
   192
  0
VERTEX
  5
139F
  8
0
 10
218.5365526519786
 20
-62.87156965943917
 30
52.55219244016848
 70
   192
  0
VERTEX
  5
13A0
  8
0
 10
0.0
 20
0.0
 30
0.0
 70
   128
 71
     1
 72
     2
 73
     3
  0
VERTEX
  5
13A1
  8
0
 10
0.0
 20
0.0
 30
0.0
 70
   128
 71
     4
 72
     5
 73
     6
  0
VERTEX
  5
13A2
  8
0
 10
0.0
 20
0.0
 30
0.0
 70
   128
 71
     4
 72
     6
 73
     7
  0
VERTEX
  5
13A3
  8
0
 10
0.0
 20
0.0
 30
0.0
 70
   128
 71
     3
 72
     7
 73
     6
  0
VERTEX
  5
13A4
  8
0
 10
0.0
 20
0.0
 30
0.0
 70
   128
 71
     3
 72
     6
 73
     1
  0
VERTEX
  5
13A5
  8
0
 10
0.0
 20
0.0
 30
0.0
 70
   128
 71
     8
 72
     9
 73
     7
  0
VERTEX
  5
13A6
  8
0
 10
0.0
 20
0.0
 30
0.0
 70
   128
 71
     7
 72
     3
 73
     8
  0
VERTEX
  5
13A7
  8
0
 10
0.0
 20
0.0
 30
0.0
 70
   128
 71
     4
 72
    10
 73
    11
  0
VERTEX
  5
13A8
  8
0
 10
0.0
 20
0.0
 30
0.0
 70
   128
 71
     4
 72
    11
 73
    12
  0
VERTEX
  5
13A9
  8
0
 10
0.0
 20
0.0
 30
0.0
 70
   128
 71
     4
 72
    12
 73
     5
  0
SEQEND
  5
172C
  8
0
  0
POLYLINE
  5
13AA
  8
0
 66
     1
 10
0.0
 20
0.0
 30
0.0
 70
    64
 71
     7
 72
     5
  0
VERTEX
  5
13AB
  8
0
 10
218.1807122292398
 20
-52.70465681282715
 30
58.50277924797254
 70
   192
  0
VERTEX
  5
13AC
  8
0
 10
218.390956962717
 20
-52.77981732123451
 30
58.70928104765651
 70
   192
  0
VERTEX
  5
13AD
  8
0
 10
218.1771943078866
 20
-36.70592738305454
 30
64.32045556487896
 70
   192
  0
VERTEX
  5
13AE
  8
0
 10
218.0462474716258
 20
-52.6113572707608
 30
58.2464408628998
 70
   192
  0
VERTEX
  5
13AF
  8
0
 10
218.0
 20
-52.50854843088429
 30
57.96397589681877
 70
   192
  0
VERTEX
  5
13B0
  8
0
 10
218.0454400893319
 20
-26.91692846881291
 30
67.5957090331358
 70
   192
  0
VERTEX
  5
13B1
  8
0
 10
218.0
 20
-23.75401101379535
 30
68.4297716167329
 70
   192
  0
VERTEX
  5
13B2
  8
0
 10
0.0
 20
0.0
 30
0.0
 70
   128
 71
     1
 72
     2
 73
     3
  0
VERTEX
  5
13B3
  8
0
 10
0.0
 20
0.0
 30
0.0
 70
   128
 71
     3
 72
     4
 73
     1
  0
VERTEX
  5
13B4
  8
0
 10
0.0
 20
0.0
 30
0.0
 70
   128
 71
     5
 72
     4
 73
     3
  0
VERTEX
  5
13B5
  8
0
 10
0.0
 20
0.0
 30
0.0
 70
   128
 71
     3
 72
     6
 73
     7
  0
VERTEX
  5
13B6
  8
0
 10
0.0
 20
0.0
 30
0.0
 70
   128
 71
     7
 72
     5
 73
     3
  0
SEQEND
  5
172D
  8
0
  0
POLYLINE
  5
13B7
  8
0
 66
     1
 10
0.0
 20
0.0
 30
0.0
 70
    64
 71
     9
 72
     7
  0
VERTEX
  5
13B8
  8
0
 10
217.9371728827725
 20
-22.47664043757055
 30
-77.18952617813531
 70
   192
  0
VERTEX
  5
13B9
  8
0
 10
217.9565708650947
 20
-22.84677598973161
 30
-77.44707655167794
 70
   192
  0
VERTEX
  5
13BA
  8
0
 10
217.9761444441709
 20
-23.22026212755449
 30
-77.69977794905584
 70
   192
  0
VERTEX
  5
13BB
  8
0
 10
217.9958886042635
 20
-23.59700314506665
 30
-77.9475656154346
 70
   192
  0
VERTEX
  5
13BC
  8
0
 10
217.9923135999822
 20
-23.47671085558772
 30
-77.63643670274094
 70
   192
  0
VERTEX
  5
13BD
  8
0
 10
217.9864210148941
 20
-23.21130249234698
 30
-77.22796858917499
 70
   192
  0
VERTEX
  5
13BE
  8
0
 10
217.9782738878165
 20
-22.8068713435932
 30
-76.7184397335685
 70
   192
  0
VERTEX
  5
13BF
  8
0
 10
217.9593110119584
 20
-22.6972096365869
 30
-76.87527088781259
 70
   192
  0
VERTEX
  5
13C0
  8
0
 10
217.9456072294364
 20
-22.58710496850564
 30
-77.03233921688368
 70
   192
  0
VERTEX
  5
13C1
  8
0
 10
0.0
 20
0.0
 30
0.0
 70
   128
 71
     6
 72
     7
 73
     8
  0
VERTEX
  5
13C2
  8
0
 10
0.0
 20
0.0
 30
0.0
 70
   128
 71
     9
 72
     5
 73
     6
  0
VERTEX
  5
13C3
  8
0
 10
0.0
 20
0.0
 30
0.0
 70
   128
 71
     8
 72
     9
 73
     6
  0
VERTEX
  5
13C4
  8
0
 10
0.0
 20
0.0
 30
0.0
 70
   128
 71
     9
 72
     1
 73
     2
  0
VERTEX
  5
13C5
  8
0
 10
0.0
 20
0.0
 30
0.0
 70
   128
 71
     3
 72
     5
 73
     9
  0
VERTEX
  5
13C6
  8
0
 10
0.0
 20
0.0
 30
0.0
 70
   128
 71
     2
 72
     3
 73
     9
  0
VERTEX
  5
13C7
  8
0
 10
0.0
 20
0.0
 30
0.0
 70
   128
 71
     3
 72
     4
 73
     5
  0
SEQEND
  5
172E
  8
0
  0
POLYLINE
  5
13C8
  8
0
 66
     1
 10
0.0
 20
0.0
 30
0.0
 70
    64
 71
    15
 72
    13
  0
VERTEX
  5
13C9
  8
0
 10
217.9371728827725
 20
-22.47664043757059
 30
-77.18952617813534
 70
   192
  0
VERTEX
  5
13CA
  8
0
 10
217.9456072294364
 20
-22.58710496850564
 30
-77.03233921688368
 70
   192
  0
VERTEX
  5
13CB
  8
0
 10
217.9593110119584
 20
-22.6972096365869
 30
-76.87527088781259
 70
   192
  0
VERTEX
  5
13CC
  8
0
 10
217.9782738878164
 20
-22.80687134359323
 30
-76.71843973356852
 70
   192
  0
VERTEX
  5
13CD
  8
0
 10
217.2245990677968
 20
-18.65609846431006
 30
-68.24693932933488
 70
   192
  0
VERTEX
  5
13CE
  8
0
 10
215.9929909736787
 20
-16.00771605429563
 30
-59.38846887667745
 70
   192
  0
VERTEX
  5
13CF
  8
0
 10
215.0
 20
-14.5241971467796
 30
-50.1533679252367
 70
   192
  0
VERTEX
  5
13D0
  8
0
 10
214.9627764206175
 20
-14.51071298326096
 30
-49.76752331617509
 70
   192
  0
VERTEX
  5
13D1
  8
0
 10
214.9404422729878
 20
-14.50266791976608
 30
-49.38304183450339
 70
   192
  0
VERTEX
  5
13D2
  8
0
 10
214.932997557111
 20
-14.5
 30
-49.0
 70
   192
  0
VERTEX
  5
13D3
  8
0
 10
213.948719853358
 20
-14.4304543431073
 30
-49.00000000000003
 70
   192
  0
VERTEX
  5
13D4
  8
0
 10
212.9839999323114
 20
-14.22319925768422
 30
-49.00000000000004
 70
   192
  0
VERTEX
  5
13D5
  8
0
 10
212.0580069598645
 20
-13.88235294117651
 30
-49.00000000000004
 70
   192
  0
VERTEX
  5
13D6
  8
0
 10
213.6041546626582
 20
-14.75132918679387
 30
-58.9876149100864
 70
   192
  0
VERTEX
  5
13D7
  8
0
 10
216.2718178729935
 20
-17.45365426046964
 30
-68.54632614228487
 70
   192
  0
VERTEX
  5
13D8
  8
0
 10
0.0
 20
0.0
 30
0.0
 70
   128
 71
    11
 72
     7
 73
     8
  0
VERTEX
  5
13D9
  8
0
 10
0.0
 20
0.0
 30
0.0
 70
   128
 71
     8
 72
    10
 73
    11
  0
VERTEX
  5
13DA
  8
0
 10
0.0
 20
0.0
 30
0.0
 70
   128
 71
     8
 72
     9
 73
    10
  0
VERTEX
  5
13DB
  8
0
 10
0.0
 20
0.0
 30
0.0
 70
   128
 71
    11
 72
     6
 73
     7
  0
VERTEX
  5
13DC
  8
0
 10
0.0
 20
0.0
 30
0.0
 70
   128
 71
    12
 72
     5
 73
     6
  0
VERTEX
  5
13DD
  8
0
 10
0.0
 20
0.0
 30
0.0
 70
   128
 71
     6
 72
    11
 73
    12
  0
VERTEX
  5
13DE
  8
0
 10
0.0
 20
0.0
 30
0.0
 70
   128
 71
    13
 72
    14
 73
     5
  0
VERTEX
  5
13DF
  8
0
 10
0.0
 20
0.0
 30
0.0
 70
   128
 71
    12
 72
    13
 73
     5
  0
VERTEX
  5
13E0
  8
0
 10
0.0
 20
0.0
 30
0.0
 70
   128
 71
    14
 72
    15
 73
     5
  0
VERTEX
  5
13E1
  8
0
 10
0.0
 20
0.0
 30
0.0
 70
   128
 71
    15
 72
     1
 73
     2
  0
VERTEX
  5
13E2
  8
0
 10
0.0
 20
0.0
 30
0.0
 70
   128
 71
     2
 72
     3
 73
    15
  0
VERTEX
  5
13E3
  8
0
 10
0.0
 20
0.0
 30
0.0
 70
   128
 71
     3
 72
     4
 73
    15
  0
VERTEX
  5
13E4
  8
0
 10
0.0
 20
0.0
 30
0.0
 70
   128
 71
     4
 72
     5
 73
    15
  0
SEQEND
  5
172F
  8
0
  0
POLYLINE
  5
13E5
  8
0
 66
     1
 10
0.0
 20
0.0
 30
0.0
 70
    64
 71
     8
 72
     6
  0
VERTEX
  5
13E6
  8
0
 10
213.948719853358
 20
-14.4304543431073
 30
-49.00000000000003
 70
   192
  0
VERTEX
  5
13E7
  8
0
 10
213.948719853358
 20
-14.4304543431073
 30
30.99999999999995
 70
   192
  0
VERTEX
  5
13E8
  8
0
 10
212.9839999323114
 20
-14.22319925768422
 30
30.99999999999994
 70
   192
  0
VERTEX
  5
13E9
  8
0
 10
212.9839999323114
 20
-14.22319925768422
 30
-49.00000000000004
 70
   192
  0
VERTEX
  5
13EA
  8
0
 10
214.932997557111
 20
-14.50000000000001
 30
-49.00000000000002
 70
   192
  0
VERTEX
  5
13EB
  8
0
 10
214.932997557111
 20
-14.49999999999998
 30
31.0
 70
   192
  0
VERTEX
  5
13EC
  8
0
 10
212.0580069598645
 20
-13.88235294117651
 30
30.99999999999992
 70
   192
  0
VERTEX
  5
13ED
  8
0
 10
212.0580069598645
 20
-13.8823529411765
 30
-49.0
 70
   192
  0
VERTEX
  5
13EE
  8
0
 10
0.0
 20
0.0
 30
0.0
 70
   128
 71
     1
 72
     2
 73
    -3
  0
VERTEX
  5
13EF
  8
0
 10
0.0
 20
0.0
 30
0.0
 70
   128
 71
    -1
 72
     3
 73
     4
  0
VERTEX
  5
13F0
  8
0
 10
0.0
 20
0.0
 30
0.0
 70
   128
 71
     5
 72
     6
 73
    -2
  0
VERTEX
  5
13F1
  8
0
 10
0.0
 20
0.0
 30
0.0
 70
   128
 71
    -5
 72
     2
 73
     1
  0
VERTEX
  5
13F2
  8
0
 10
0.0
 20
0.0
 30
0.0
 70
   128
 71
     4
 72
     3
 73
    -7
  0
VERTEX
  5
13F3
  8
0
 10
0.0
 20
0.0
 30
0.0
 70
   128
 71
    -4
 72
     7
 73
     8
  0
SEQEND
  5
1730
  8
0
  0
POLYLINE
  5
13F4
  8
0
 66
     1
 10
0.0
 20
0.0
 30
0.0
 70
    64
 71
    15
 72
    13
  0
VERTEX
  5
13F5
  8
0
 10
214.932997557111
 20
-14.5
 30
31.0
 70
   192
  0
VERTEX
  5
13F6
  8
0
 10
214.9404422729876
 20
-14.50266791976601
 30
31.38304183449796
 70
   192
  0
VERTEX
  5
13F7
  8
0
 10
214.9627764206173
 20
-14.51071298326066
 30
31.7675233161644
 70
   192
  0
VERTEX
  5
13F8
  8
0
 10
215.0
 20
-14.52419714677892
 30
32.15336792522091
 70
   192
  0
VERTEX
  5
13F9
  8
0
 10
215.9918525152253
 20
-16.00571633708116
 30
41.38014822191974
 70
   192
  0
VERTEX
  5
13FA
  8
0
 10
217.2258288667342
 20
-18.65961347563996
 30
50.25665193622506
 70
   192
  0
VERTEX
  5
13FB
  8
0
 10
217.9782738878165
 20
-22.80687134359325
 30
58.7184397335684
 70
   192
  0
VERTEX
  5
13FC
  8
0
 10
217.9593110119584
 20
-22.6972096365869
 30
58.87527088781248
 70
   192
  0
VERTEX
  5
13FD
  8
0
 10
217.9456072294364
 20
-22.58710496850565
 30
59.03233921688357
 70
   192
  0
VERTEX
  5
13FE
  8
0
 10
217.9371728827725
 20
-22.47664043757058
 30
59.18952617813523
 70
   192
  0
VERTEX
  5
13FF
  8
0
 10
216.2696915478724
 20
-17.45046691384497
 30
50.53843969463342
 70
   192
  0
VERTEX
  5
1400
  8
0
 10
213.6019810866812
 20
-14.74984631668003
 30
40.979261686482
 70
   192
  0
VERTEX
  5
1401
  8
0
 10
212.0580069598645
 20
-13.88235294117648
 30
31.0
 70
   192
  0
VERTEX
  5
1402
  8
0
 10
212.9839999323114
 20
-14.22319925768422
 30
30.99999999999994
 70
   192
  0
VERTEX
  5
1403
  8
0
 10
213.948719853358
 20
-14.4304543431073
 30
30.99999999999995
 70
   192
  0
VERTEX
  5
1404
  8
0
 10
0.0
 20
0.0
 30
0.0
 70
   128
 71
    11
 72
     6
 73
     7
  0
VERTEX
  5
1405
  8
0
 10
0.0
 20
0.0
 30
0.0
 70
   128
 71
     7
 72
     8
 73
    11
  0
VERTEX
  5
1406
  8
0
 10
0.0
 20
0.0
 30
0.0
 70
   128
 71
     8
 72
     9
 73
    11
  0
VERTEX
  5
1407
  8
0
 10
0.0
 20
0.0
 30
0.0
 70
   128
 71
     9
 72
    10
 73
    11
  0
VERTEX
  5
1408
  8
0
 10
0.0
 20
0.0
 30
0.0
 70
   128
 71
    11
 72
    12
 73
     6
  0
VERTEX
  5
1409
  8
0
 10
0.0
 20
0.0
 30
0.0
 70
   128
 71
    13
 72
    14
 73
     6
  0
VERTEX
  5
140A
  8
0
 10
0.0
 20
0.0
 30
0.0
 70
   128
 71
    12
 72
    13
 73
     6
  0
VERTEX
  5
140B
  8
0
 10
0.0
 20
0.0
 30
0.0
 70
   128
 71
    14
 72
    15
 73
     5
  0
VERTEX
  5
140C
  8
0
 10
0.0
 20
0.0
 30
0.0
 70
   128
 71
     5
 72
     6
 73
    14
  0
VERTEX
  5
140D
  8
0
 10
0.0
 20
0.0
 30
0.0
 70
   128
 71
     1
 72
     2
 73
     3
  0
VERTEX
  5
140E
  8
0
 10
0.0
 20
0.0
 30
0.0
 70
   128
 71
     4
 72
     5
 73
    15
  0
VERTEX
  5
140F
  8
0
 10
0.0
 20
0.0
 30
0.0
 70
   128
 71
    15
 72
     1
 73
     3
  0
VERTEX
  5
1410
  8
0
 10
0.0
 20
0.0
 30
0.0
 70
   128
 71
     3
 72
     4
 73
    15
  0
SEQEND
  5
1731
  8
0
  0
POLYLINE
  5
1411
  8
0
 66
     1
 10
0.0
 20
0.0
 30
0.0
 70
    64
 71
     9
 72
     7
  0
VERTEX
  5
1412
  8
0
 10
217.9371728827725
 20
-22.47664043757058
 30
59.18952617813523
 70
   192
  0
VERTEX
  5
1413
  8
0
 10
217.9456072294364
 20
-22.58710496850565
 30
59.03233921688357
 70
   192
  0
VERTEX
  5
1414
  8
0
 10
217.9593110119584
 20
-22.6972096365869
 30
58.87527088781248
 70
   192
  0
VERTEX
  5
1415
  8
0
 10
217.9782738878165
 20
-22.80687134359324
 30
58.71843973356839
 70
   192
  0
VERTEX
  5
1416
  8
0
 10
217.9864210148929
 20
-23.21130249234846
 30
59.22796858917708
 70
   192
  0
VERTEX
  5
1417
  8
0
 10
217.9923135999815
 20
-23.47671085558873
 30
59.63643670274351
 70
   192
  0
VERTEX
  5
1418
  8
0
 10
217.9958886042635
 20
-23.5970031450666
 30
59.9475656154346
 70
   192
  0
VERTEX
  5
1419
  8
0
 10
217.9761444441709
 20
-23.22026212755446
 30
59.69977794905577
 70
   192
  0
VERTEX
  5
141A
  8
0
 10
217.9565708650947
 20
-22.84677598973159
 30
59.44707655167787
 70
   192
  0
VERTEX
  5
141B
  8
0
 10
0.0
 20
0.0
 30
0.0
 70
   128
 71
     6
 72
     7
 73
     8
  0
VERTEX
  5
141C
  8
0
 10
0.0
 20
0.0
 30
0.0
 70
   128
 71
     9
 72
     5
 73
     6
  0
VERTEX
  5
141D
  8
0
 10
0.0
 20
0.0
 30
0.0
 70
   128
 71
     8
 72
     9
 73
     6
  0
VERTEX
  5
141E
  8
0
 10
0.0
 20
0.0
 30
0.0
 70
   128
 71
     9
 72
     1
 73
     2
  0
VERTEX
  5
141F
  8
0
 10
0.0
 20
0.0
 30
0.0
 70
   128
 71
     3
 72
     5
 73
     9
  0
VERTEX
  5
1420
  8
0
 10
0.0
 20
0.0
 30
0.0
 70
   128
 71
     2
 72
     3
 73
     9
  0
VERTEX
  5
1421
  8
0
 10
0.0
 20
0.0
 30
0.0
 70
   128
 71
     3
 72
     4
 73
     5
  0
SEQEND
  5
1732
  8
0
  0
POLYLINE
  5
1422
  8
0
 66
     1
 10
0.0
 20
0.0
 30
0.0
 70
    64
 71
    12
 72
    10
  0
VERTEX
  5
1423
  8
0
 10
216.5
 20
-14.90192378864668
 30
31.0
 70
   192
  0
VERTEX
  5
1424
  8
0
 10
217.5980762113533
 20
-16.0
 30
31.0
 70
   192
  0
VERTEX
  5
1425
  8
0
 10
216.5
 20
-14.92576728419258
 30
32.13651097954059
 70
   192
  0
VERTEX
  5
1426
  8
0
 10
217.5980762113533
 20
-16.02287730240913
 30
32.09045694748157
 70
   192
  0
VERTEX
  5
1427
  8
0
 10
218.0
 20
-17.5
 30
31.0
 70
   192
  0
VERTEX
  5
1428
  8
0
 10
218.0
 20
-17.50239558542257
 30
31.34260465098424
 70
   192
  0
VERTEX
  5
1429
  8
0
 10
218.0
 20
-17.50958187321437
 30
31.68514230289032
 70
   192
  0
VERTEX
  5
142A
  8
0
 10
218.0
 20
-17.52155745803935
 30
32.02754596974225
 70
   192
  0
VERTEX
  5
142B
  8
0
 10
215.0
 20
-14.5
 30
31.0
 70
   192
  0
VERTEX
  5
142C
  8
0
 10
215.0
 20
-14.50268892241309
 30
31.38455624090069
 70
   192
  0
VERTEX
  5
142D
  8
0
 10
215.0
 20
-14.52419714677892
 30
32.1533679252209
 70
   192
  0
VERTEX
  5
142E
  8
0
 10
215.0
 20
-14.51075516381205
 30
31.76903727875445
 70
   192
  0
VERTEX
  5
142F
  8
0
 10
0.0
 20
0.0
 30
0.0
 70
   128
 71
     1
 72
    -2
 73
     3
  0
VERTEX
  5
1430
  8
0
 10
0.0
 20
0.0
 30
0.0
 70
   128
 71
    -3
 72
     2
 73
     4
  0
VERTEX
  5
1431
  8
0
 10
0.0
 20
0.0
 30
0.0
 70
   128
 71
     2
 72
     5
 73
     6
  0
VERTEX
  5
1432
  8
0
 10
0.0
 20
0.0
 30
0.0
 70
   128
 71
     2
 72
     6
 73
    -7
  0
VERTEX
  5
1433
  8
0
 10
0.0
 20
0.0
 30
0.0
 70
   128
 71
     4
 72
    -2
 73
     7
  0
VERTEX
  5
1434
  8
0
 10
0.0
 20
0.0
 30
0.0
 70
   128
 71
     7
 72
     8
 73
     4
  0
VERTEX
  5
1435
  8
0
 10
0.0
 20
0.0
 30
0.0
 70
   128
 71
     9
 72
     1
 73
    10
  0
VERTEX
  5
1436
  8
0
 10
0.0
 20
0.0
 30
0.0
 70
   128
 71
     3
 72
    11
 73
    12
  0
VERTEX
  5
1437
  8
0
 10
0.0
 20
0.0
 30
0.0
 70
   128
 71
    10
 72
     1
 73
    -3
  0
VERTEX
  5
1438
  8
0
 10
0.0
 20
0.0
 30
0.0
 70
   128
 71
    12
 72
   -10
 73
     3
  0
SEQEND
  5
1733
  8
0
  0
POLYLINE
  5
1439
  8
0
 66
     1
 10
0.0
 20
0.0
 30
0.0
 70
    64
 71
     8
 72
     6
  0
VERTEX
  5
143A
  8
0
 10
216.5
 20
-14.90192378864668
 30
-49.0
 70
   192
  0
VERTEX
  5
143B
  8
0
 10
217.5980762113533
 20
-16.0
 30
-49.0
 70
   192
  0
VERTEX
  5
143C
  8
0
 10
217.5980762113533
 20
-16.0
 30
31.0
 70
   192
  0
VERTEX
  5
143D
  8
0
 10
216.5
 20
-14.90192378864668
 30
31.0
 70
   192
  0
VERTEX
  5
143E
  8
0
 10
218.0
 20
-17.5
 30
-49.0
 70
   192
  0
VERTEX
  5
143F
  8
0
 10
218.0
 20
-17.5
 30
31.0
 70
   192
  0
VERTEX
  5
1440
  8
0
 10
215.0
 20
-14.50000000000002
 30
-49.0
 70
   192
  0
VERTEX
  5
1441
  8
0
 10
215.0
 20
-14.5
 30
31.0
 70
   192
  0
VERTEX
  5
1442
  8
0
 10
0.0
 20
0.0
 30
0.0
 70
   128
 71
     1
 72
     2
 73
    -3
  0
VERTEX
  5
1443
  8
0
 10
0.0
 20
0.0
 30
0.0
 70
   128
 71
     4
 72
    -1
 73
     3
  0
VERTEX
  5
1444
  8
0
 10
0.0
 20
0.0
 30
0.0
 70
   128
 71
     2
 72
     5
 73
    -6
  0
VERTEX
  5
1445
  8
0
 10
0.0
 20
0.0
 30
0.0
 70
   128
 71
     3
 72
    -2
 73
     6
  0
VERTEX
  5
1446
  8
0
 10
0.0
 20
0.0
 30
0.0
 70
   128
 71
     7
 72
     1
 73
    -4
  0
VERTEX
  5
1447
  8
0
 10
0.0
 20
0.0
 30
0.0
 70
   128
 71
     8
 72
    -7
 73
     4
  0
SEQEND
  5
1734
  8
0
  0
POLYLINE
  5
1448
  8
0
 66
     1
 10
0.0
 20
0.0
 30
0.0
 70
    64
 71
    12
 72
    10
  0
VERTEX
  5
1449
  8
0
 10
215.0
 20
-14.52419714677892
 30
32.15336792522091
 70
   192
  0
VERTEX
  5
144A
  8
0
 10
215.9918525152253
 20
-16.00571633708116
 30
41.38014822191974
 70
   192
  0
VERTEX
  5
144B
  8
0
 10
217.2258288667342
 20
-18.65961347563996
 30
50.25665193622506
 70
   192
  0
VERTEX
  5
144C
  8
0
 10
217.9782738878163
 20
-22.80687134359326
 30
58.71843973356837
 70
   192
  0
VERTEX
  5
144D
  8
0
 10
217.9903374640495
 20
-22.90611554009044
 30
58.65132264552983
 70
   192
  0
VERTEX
  5
144E
  8
0
 10
217.9975833926806
 20
-23.00568080897481
 30
58.58398842193638
 70
   192
  0
VERTEX
  5
144F
  8
0
 10
218.0
 20
-23.10540674347465
 30
58.5165455430397
 70
   192
  0
VERTEX
  5
1450
  8
0
 10
218.0
 20
-20.62686565921268
 30
49.83764431340217
 70
   192
  0
VERTEX
  5
1451
  8
0
 10
218.0
 20
-18.81074430252433
 30
40.97462485326507
 70
   192
  0
VERTEX
  5
1452
  8
0
 10
218.0
 20
-17.52155745803935
 30
32.02754596974225
 70
   192
  0
VERTEX
  5
1453
  8
0
 10
217.5980762113533
 20
-16.02287730240913
 30
32.09045694748157
 70
   192
  0
VERTEX
  5
1454
  8
0
 10
216.5
 20
-14.92576728419258
 30
32.13651097954059
 70
   192
  0
VERTEX
  5
1455
  8
0
 10
0.0
 20
0.0
 30
0.0
 70
   128
 71
     8
 72
     7
 73
     6
  0
VERTEX
  5
1456
  8
0
 10
0.0
 20
0.0
 30
0.0
 70
   128
 71
     6
 72
     9
 73
     8
  0
VERTEX
  5
1457
  8
0
 10
0.0
 20
0.0
 30
0.0
 70
   128
 71
     6
 72
    11
 73
    10
  0
VERTEX
  5
1458
  8
0
 10
0.0
 20
0.0
 30
0.0
 70
   128
 71
     6
 72
    10
 73
     9
  0
VERTEX
  5
1459
  8
0
 10
0.0
 20
0.0
 30
0.0
 70
   128
 71
     6
 72
     5
 73
    12
  0
VERTEX
  5
145A
  8
0
 10
0.0
 20
0.0
 30
0.0
 70
   128
 71
     6
 72
    12
 73
    11
  0
VERTEX
  5
145B
  8
0
 10
0.0
 20
0.0
 30
0.0
 70
   128
 71
     2
 72
     1
 73
    12
  0
VERTEX
  5
145C
  8
0
 10
0.0
 20
0.0
 30
0.0
 70
   128
 71
     2
 72
    12
 73
     5
  0
VERTEX
  5
145D
  8
0
 10
0.0
 20
0.0
 30
0.0
 70
   128
 71
     5
 72
     3
 73
     2
  0
VERTEX
  5
145E
  8
0
 10
0.0
 20
0.0
 30
0.0
 70
   128
 71
     5
 72
     4
 73
     3
  0
SEQEND
  5
1735
  8
0
  0
POLYLINE
  5
145F
  8
0
 66
     1
 10
0.0
 20
0.0
 30
0.0
 70
    64
 71
    12
 72
    10
  0
VERTEX
  5
1460
  8
0
 10
216.5
 20
-14.92576728419326
 30
-50.13651097955642
 70
   192
  0
VERTEX
  5
1461
  8
0
 10
217.5980762113533
 20
-16.0228773024098
 30
-50.09045694749669
 70
   192
  0
VERTEX
  5
1462
  8
0
 10
216.5
 20
-14.90192378864668
 30
-49.0
 70
   192
  0
VERTEX
  5
1463
  8
0
 10
217.5980762113533
 20
-16.0
 30
-49.0
 70
   192
  0
VERTEX
  5
1464
  8
0
 10
218.0
 20
-17.52155745804
 30
-50.0275459697564
 70
   192
  0
VERTEX
  5
1465
  8
0
 10
218.0
 20
-17.50958187321464
 30
-49.68514230289976
 70
   192
  0
VERTEX
  5
1466
  8
0
 10
218.0
 20
-17.50239558542263
 30
-49.34260465098897
 70
   192
  0
VERTEX
  5
1467
  8
0
 10
218.0
 20
-17.5
 30
-49.0
 70
   192
  0
VERTEX
  5
1468
  8
0
 10
215.0
 20
-14.5
 30
-49.0
 70
   192
  0
VERTEX
  5
1469
  8
0
 10
215.0
 20
-14.50268892241315
 30
-49.38455624090597
 70
   192
  0
VERTEX
  5
146A
  8
0
 10
215.0
 20
-14.51075516381234
 30
-49.76903727876498
 70
   192
  0
VERTEX
  5
146B
  8
0
 10
215.0
 20
-14.52419714677958
 30
-50.15336792523672
 70
   192
  0
VERTEX
  5
146C
  8
0
 10
0.0
 20
0.0
 30
0.0
 70
   128
 71
     1
 72
    -2
 73
     3
  0
VERTEX
  5
146D
  8
0
 10
0.0
 20
0.0
 30
0.0
 70
   128
 71
    -3
 72
     2
 73
     4
  0
VERTEX
  5
146E
  8
0
 10
0.0
 20
0.0
 30
0.0
 70
   128
 71
     2
 72
     5
 73
     6
  0
VERTEX
  5
146F
  8
0
 10
0.0
 20
0.0
 30
0.0
 70
   128
 71
     2
 72
     6
 73
    -7
  0
VERTEX
  5
1470
  8
0
 10
0.0
 20
0.0
 30
0.0
 70
   128
 71
     4
 72
    -2
 73
     7
  0
VERTEX
  5
1471
  8
0
 10
0.0
 20
0.0
 30
0.0
 70
   128
 71
     7
 72
     8
 73
     4
  0
VERTEX
  5
1472
  8
0
 10
0.0
 20
0.0
 30
0.0
 70
   128
 71
     3
 72
     9
 73
    10
  0
VERTEX
  5
1473
  8
0
 10
0.0
 20
0.0
 30
0.0
 70
   128
 71
    11
 72
     1
 73
    -3
  0
VERTEX
  5
1474
  8
0
 10
0.0
 20
0.0
 30
0.0
 70
   128
 71
    10
 72
   -11
 73
     3
  0
VERTEX
  5
1475
  8
0
 10
0.0
 20
0.0
 30
0.0
 70
   128
 71
    11
 72
    12
 73
     1
  0
SEQEND
  5
1736
  8
0
  0
POLYLINE
  5
1476
  8
0
 66
     1
 10
0.0
 20
0.0
 30
0.0
 70
    64
 71
    12
 72
    10
  0
VERTEX
  5
1477
  8
0
 10
217.9782738878165
 20
-22.80687134359325
 30
58.7184397335684
 70
   192
  0
VERTEX
  5
1478
  8
0
 10
217.9864210148929
 20
-23.21130249234846
 30
59.22796858917708
 70
   192
  0
VERTEX
  5
1479
  8
0
 10
217.9923135999815
 20
-23.47671085558873
 30
59.63643670274351
 70
   192
  0
VERTEX
  5
147A
  8
0
 10
217.9958886042637
 20
-23.59700314506659
 30
59.94756561543478
 70
   192
  0
VERTEX
  5
147B
  8
0
 10
217.9981724810573
 20
-23.64931252368789
 30
59.94756561543478
 70
   192
  0
VERTEX
  5
147C
  8
0
 10
217.9995430854692
 20
-23.70165379448352
 30
59.94756561543478
 70
   192
  0
VERTEX
  5
147D
  8
0
 10
218.0
 20
-23.75401101379535
 30
59.9475656154347
 70
   192
  0
VERTEX
  5
147E
  8
0
 10
218.0
 20
-23.629770193821
 30
59.43493560484396
 70
   192
  0
VERTEX
  5
147F
  8
0
 10
218.0
 20
-23.38942725739785
 30
58.96325166086007
 70
   192
  0
VERTEX
  5
1480
  8
0
 10
218.0
 20
-23.10540674347468
 30
58.51654554303973
 70
   192
  0
VERTEX
  5
1481
  8
0
 10
217.9975833926806
 20
-23.00568080897481
 30
58.58398842193638
 70
   192
  0
VERTEX
  5
1482
  8
0
 10
217.9903374640495
 20
-22.90611554009044
 30
58.65132264552983
 70
   192
  0
VERTEX
  5
1483
  8
0
 10
0.0
 20
0.0
 30
0.0
 70
   128
 71
     8
 72
     7
 73
     6
  0
VERTEX
  5
1484
  8
0
 10
0.0
 20
0.0
 30
0.0
 70
   128
 71
     6
 72
    11
 73
     9
  0
VERTEX
  5
1485
  8
0
 10
0.0
 20
0.0
 30
0.0
 70
   128
 71
     6
 72
     9
 73
     8
  0
VERTEX
  5
1486
  8
0
 10
0.0
 20
0.0
 30
0.0
 70
   128
 71
    11
 72
    10
 73
     9
  0
VERTEX
  5
1487
  8
0
 10
0.0
 20
0.0
 30
0.0
 70
   128
 71
     6
 72
     5
 73
    12
  0
VERTEX
  5
1488
  8
0
 10
0.0
 20
0.0
 30
0.0
 70
   128
 71
     6
 72
    12
 73
    11
  0
VERTEX
  5
1489
  8
0
 10
0.0
 20
0.0
 30
0.0
 70
   128
 71
     2
 72
     1
 73
    12
  0
VERTEX
  5
148A
  8
0
 10
0.0
 20
0.0
 30
0.0
 70
   128
 71
    12
 72
     5
 73
     3
  0
VERTEX
  5
148B
  8
0
 10
0.0
 20
0.0
 30
0.0
 70
   128
 71
    12
 72
     3
 73
     2
  0
VERTEX
  5
148C
  8
0
 10
0.0
 20
0.0
 30
0.0
 70
   128
 71
     5
 72
     4
 73
     3
  0
SEQEND
  5
1737
  8
0
  0
POLYLINE
  5
148D
  8
0
 66
     1
 10
0.0
 20
0.0
 30
0.0
 70
    64
 71
    12
 72
    10
  0
VERTEX
  5
148E
  8
0
 10
218.0
 20
-17.52155745804
 30
-50.0275459697564
 70
   192
  0
VERTEX
  5
148F
  8
0
 10
218.0
 20
-18.81155923077282
 30
-58.97886794874191
 70
   192
  0
VERTEX
  5
1490
  8
0
 10
217.9999999999999
 20
-20.62690916682564
 30
-67.83784428340007
 70
   192
  0
VERTEX
  5
1491
  8
0
 10
218.0
 20
-23.1054067434747
 30
-76.5165455430398
 70
   192
  0
VERTEX
  5
1492
  8
0
 10
217.9975833926806
 20
-23.00568080897481
 30
-76.58398842193645
 70
   192
  0
VERTEX
  5
1493
  8
0
 10
217.9903374640495
 20
-22.90611554009041
 30
-76.65132264552993
 70
   192
  0
VERTEX
  5
1494
  8
0
 10
217.9782738878165
 20
-22.8068713435932
 30
-76.7184397335685
 70
   192
  0
VERTEX
  5
1495
  8
0
 10
217.2245990677968
 20
-18.65609846431006
 30
-68.24693932933488
 70
   192
  0
VERTEX
  5
1496
  8
0
 10
215.9929909736787
 20
-16.00771605429563
 30
-59.38846887667745
 70
   192
  0
VERTEX
  5
1497
  8
0
 10
215.0
 20
-14.5241971467796
 30
-50.15336792523699
 70
   192
  0
VERTEX
  5
1498
  8
0
 10
216.5
 20
-14.92576728419326
 30
-50.13651097955642
 70
   192
  0
VERTEX
  5
1499
  8
0
 10
217.5980762113533
 20
-16.0228773024098
 30
-50.09045694749669
 70
   192
  0
VERTEX
  5
149A
  8
0
 10
0.0
 20
0.0
 30
0.0
 70
   128
 71
     8
 72
     7
 73
     6
  0
VERTEX
  5
149B
  8
0
 10
0.0
 20
0.0
 30
0.0
 70
   128
 71
     6
 72
     9
 73
     8
  0
VERTEX
  5
149C
  8
0
 10
0.0
 20
0.0
 30
0.0
 70
   128
 71
     6
 72
    11
 73
    10
  0
VERTEX
  5
149D
  8
0
 10
0.0
 20
0.0
 30
0.0
 70
   128
 71
     6
 72
    10
 73
     9
  0
VERTEX
  5
149E
  8
0
 10
0.0
 20
0.0
 30
0.0
 70
   128
 71
     6
 72
     5
 73
    12
  0
VERTEX
  5
149F
  8
0
 10
0.0
 20
0.0
 30
0.0
 70
   128
 71
     6
 72
    12
 73
    11
  0
VERTEX
  5
14A0
  8
0
 10
0.0
 20
0.0
 30
0.0
 70
   128
 71
     2
 72
     1
 73
    12
  0
VERTEX
  5
14A1
  8
0
 10
0.0
 20
0.0
 30
0.0
 70
   128
 71
     2
 72
    12
 73
     5
  0
VERTEX
  5
14A2
  8
0
 10
0.0
 20
0.0
 30
0.0
 70
   128
 71
     5
 72
     3
 73
     2
  0
VERTEX
  5
14A3
  8
0
 10
0.0
 20
0.0
 30
0.0
 70
   128
 71
     5
 72
     4
 73
     3
  0
SEQEND
  5
1738
  8
0
  0
POLYLINE
  5
14A4
  8
0
 66
     1
 10
0.0
 20
0.0
 30
0.0
 70
    64
 71
     8
 72
     6
  0
VERTEX
  5
14A5
  8
0
 10
217.9981724810573
 20
-23.64931252368789
 30
59.94756561543478
 70
   192
  0
VERTEX
  5
14A6
  8
0
 10
217.9995430854692
 20
-23.70165379448352
 30
59.94756561543478
 70
   192
  0
VERTEX
  5
14A7
  8
0
 10
217.9995430854692
 20
-23.70165379448349
 30
68.4297716167329
 70
   192
  0
VERTEX
  5
14A8
  8
0
 10
217.9981724810573
 20
-23.64931252368783
 30
68.4297716167329
 70
   192
  0
VERTEX
  5
14A9
  8
0
 10
218.0
 20
-23.75401101379535
 30
59.94756561543477
 70
   192
  0
VERTEX
  5
14AA
  8
0
 10
218.0
 20
-23.75401101379535
 30
68.4297716167329
 70
   192
  0
VERTEX
  5
14AB
  8
0
 10
217.9958886042637
 20
-23.59700314506659
 30
59.94756561543478
 70
   192
  0
VERTEX
  5
14AC
  8
0
 10
217.9958886042637
 20
-23.59700314506649
 30
68.4297716167329
 70
   192
  0
VERTEX
  5
14AD
  8
0
 10
0.0
 20
0.0
 30
0.0
 70
   128
 71
     1
 72
     2
 73
    -3
  0
VERTEX
  5
14AE
  8
0
 10
0.0
 20
0.0
 30
0.0
 70
   128
 71
     4
 72
    -1
 73
     3
  0
VERTEX
  5
14AF
  8
0
 10
0.0
 20
0.0
 30
0.0
 70
   128
 71
     2
 72
     5
 73
    -6
  0
VERTEX
  5
14B0
  8
0
 10
0.0
 20
0.0
 30
0.0
 70
   128
 71
     3
 72
    -2
 73
     6
  0
VERTEX
  5
14B1
  8
0
 10
0.0
 20
0.0
 30
0.0
 70
   128
 71
     7
 72
     1
 73
    -4
  0
VERTEX
  5
14B2
  8
0
 10
0.0
 20
0.0
 30
0.0
 70
   128
 71
     8
 72
    -7
 73
     4
  0
SEQEND
  5
1739
  8
0
  0
POLYLINE
  5
14B3
  8
0
 66
     1
 10
0.0
 20
0.0
 30
0.0
 70
    64
 71
    12
 72
    10
  0
VERTEX
  5
14B4
  8
0
 10
218.0
 20
-23.1054067434747
 30
-76.5165455430398
 70
   192
  0
VERTEX
  5
14B5
  8
0
 10
218.0
 20
-23.38948327065528
 30
-76.96335807074314
 70
   192
  0
VERTEX
  5
14B6
  8
0
 10
218.0
 20
-23.6298678382786
 30
-77.43517093621982
 70
   192
  0
VERTEX
  5
14B7
  8
0
 10
218.0
 20
-23.7540110137953
 30
-77.94756561543481
 70
   192
  0
VERTEX
  5
14B8
  8
0
 10
217.9995430854692
 20
-23.70165379448351
 30
-77.94756561543481
 70
   192
  0
VERTEX
  5
14B9
  8
0
 10
217.9981724810573
 20
-23.64931252368791
 30
-77.94756561543481
 70
   192
  0
VERTEX
  5
14BA
  8
0
 10
217.9958886042635
 20
-23.59700314506665
 30
-77.9475656154346
 70
   192
  0
VERTEX
  5
14BB
  8
0
 10
217.9923135999822
 20
-23.47671085558772
 30
-77.63643670274094
 70
   192
  0
VERTEX
  5
14BC
  8
0
 10
217.9864210148941
 20
-23.21130249234698
 30
-77.22796858917499
 70
   192
  0
VERTEX
  5
14BD
  8
0
 10
217.9782738878163
 20
-22.80687134359322
 30
-76.71843973356849
 70
   192
  0
VERTEX
  5
14BE
  8
0
 10
217.9903374640495
 20
-22.90611554009041
 30
-76.65132264552993
 70
   192
  0
VERTEX
  5
14BF
  8
0
 10
217.9975833926806
 20
-23.00568080897481
 30
-76.58398842193645
 70
   192
  0
VERTEX
  5
14C0
  8
0
 10
0.0
 20
0.0
 30
0.0
 70
   128
 71
     8
 72
     7
 73
     6
  0
VERTEX
  5
14C1
  8
0
 10
0.0
 20
0.0
 30
0.0
 70
   128
 71
     6
 72
    11
 73
     9
  0
VERTEX
  5
14C2
  8
0
 10
0.0
 20
0.0
 30
0.0
 70
   128
 71
     6
 72
     9
 73
     8
  0
VERTEX
  5
14C3
  8
0
 10
0.0
 20
0.0
 30
0.0
 70
   128
 71
    11
 72
    10
 73
     9
  0
VERTEX
  5
14C4
  8
0
 10
0.0
 20
0.0
 30
0.0
 70
   128
 71
     6
 72
     5
 73
    12
  0
VERTEX
  5
14C5
  8
0
 10
0.0
 20
0.0
 30
0.0
 70
   128
 71
     6
 72
    12
 73
    11
  0
VERTEX
  5
14C6
  8
0
 10
0.0
 20
0.0
 30
0.0
 70
   128
 71
     2
 72
     1
 73
    12
  0
VERTEX
  5
14C7
  8
0
 10
0.0
 20
0.0
 30
0.0
 70
   128
 71
    12
 72
     5
 73
     3
  0
VERTEX
  5
14C8
  8
0
 10
0.0
 20
0.0
 30
0.0
 70
   128
 71
    12
 72
     3
 73
     2
  0
VERTEX
  5
14C9
  8
0
 10
0.0
 20
0.0
 30
0.0
 70
   128
 71
     5
 72
     4
 73
     3
  0
SEQEND
  5
173A
  8
0
  0
POLYLINE
  5
14CA
  8
0
 66
     1
 10
0.0
 20
0.0
 30
0.0
 70
    64
 71
    12
 72
    10
  0
VERTEX
  5
14CB
  8
0
 10
217.9958886042635
 20
-23.5970031450665
 30
68.4297716167329
 70
   192
  0
VERTEX
  5
14CC
  8
0
 10
218.1779872734252
 20
-27.07165274199522
 30
68.43483633452476
 70
   192
  0
VERTEX
  5
14CD
  8
0
 10
218.7242832809106
 20
-37.49560153278086
 30
65.82023044831288
 70
   192
  0
VERTEX
  5
14CE
  8
0
 10
219.5597164551317
 20
-53.43661612355636
 30
60.94519650016969
 70
   192
  0
VERTEX
  5
14CF
  8
0
 10
219.4120552313889
 20
-53.17353884351333
 30
60.10191169855616
 70
   192
  0
VERTEX
  5
14D0
  8
0
 10
219.0105401253665
 20
-52.94790248080474
 30
59.33378631792881
 70
   192
  0
VERTEX
  5
14D1
  8
0
 10
218.390956962717
 20
-52.7798173212345
 30
58.7092810476565
 70
   192
  0
VERTEX
  5
14D2
  8
0
 10
218.1771943078866
 20
-36.70592738305454
 30
64.32045556487896
 70
   192
  0
VERTEX
  5
14D3
  8
0
 10
218.0454400893319
 20
-26.91692846881291
 30
67.5957090331358
 70
   192
  0
VERTEX
  5
14D4
  8
0
 10
218.0
 20
-23.75401101379535
 30
68.4297716167329
 70
   192
  0
VERTEX
  5
14D5
  8
0
 10
217.9995430854692
 20
-23.70165379448349
 30
68.4297716167329
 70
   192
  0
VERTEX
  5
14D6
  8
0
 10
217.9981724810573
 20
-23.64931252368783
 30
68.4297716167329
 70
   192
  0
VERTEX
  5
14D7
  8
0
 10
0.0
 20
0.0
 30
0.0
 70
   128
 71
     8
 72
     7
 73
     6
  0
VERTEX
  5
14D8
  8
0
 10
0.0
 20
0.0
 30
0.0
 70
   128
 71
     6
 72
    11
 73
     9
  0
VERTEX
  5
14D9
  8
0
 10
0.0
 20
0.0
 30
0.0
 70
   128
 71
     6
 72
     9
 73
     8
  0
VERTEX
  5
14DA
  8
0
 10
0.0
 20
0.0
 30
0.0
 70
   128
 71
    11
 72
    10
 73
     9
  0
VERTEX
  5
14DB
  8
0
 10
0.0
 20
0.0
 30
0.0
 70
   128
 71
     6
 72
     5
 73
    12
  0
VERTEX
  5
14DC
  8
0
 10
0.0
 20
0.0
 30
0.0
 70
   128
 71
     6
 72
    12
 73
    11
  0
VERTEX
  5
14DD
  8
0
 10
0.0
 20
0.0
 30
0.0
 70
   128
 71
     2
 72
     1
 73
    12
  0
VERTEX
  5
14DE
  8
0
 10
0.0
 20
0.0
 30
0.0
 70
   128
 71
    12
 72
     5
 73
     3
  0
VERTEX
  5
14DF
  8
0
 10
0.0
 20
0.0
 30
0.0
 70
   128
 71
    12
 72
     3
 73
     2
  0
VERTEX
  5
14E0
  8
0
 10
0.0
 20
0.0
 30
0.0
 70
   128
 71
     5
 72
     4
 73
     3
  0
SEQEND
  5
173B
  8
0
  0
POLYLINE
  5
14E1
  8
0
 66
     1
 10
0.0
 20
0.0
 30
0.0
 70
    64
 71
     8
 72
     6
  0
VERTEX
  5
14E2
  8
0
 10
217.9981724810573
 20
-23.64931252368783
 30
-86.42977161673303
 70
   192
  0
VERTEX
  5
14E3
  8
0
 10
217.9995430854692
 20
-23.70165379448349
 30
-86.42977161673302
 70
   192
  0
VERTEX
  5
14E4
  8
0
 10
217.9995430854692
 20
-23.70165379448351
 30
-77.94756561543481
 70
   192
  0
VERTEX
  5
14E5
  8
0
 10
217.9981724810573
 20
-23.64931252368791
 30
-77.94756561543481
 70
   192
  0
VERTEX
  5
14E6
  8
0
 10
218.0
 20
-23.75401101379535
 30
-86.429771616733
 70
   192
  0
VERTEX
  5
14E7
  8
0
 10
218.0
 20
-23.7540110137953
 30
-77.94756561543481
 70
   192
  0
VERTEX
  5
14E8
  8
0
 10
217.9958886042635
 20
-23.5970031450665
 30
-86.42977161673309
 70
   192
  0
VERTEX
  5
14E9
  8
0
 10
217.9958886042637
 20
-23.59700314506664
 30
-77.94756561543481
 70
   192
  0
VERTEX
  5
14EA
  8
0
 10
0.0
 20
0.0
 30
0.0
 70
   128
 71
     1
 72
     2
 73
    -3
  0
VERTEX
  5
14EB
  8
0
 10
0.0
 20
0.0
 30
0.0
 70
   128
 71
     4
 72
    -1
 73
     3
  0
VERTEX
  5
14EC
  8
0
 10
0.0
 20
0.0
 30
0.0
 70
   128
 71
     2
 72
     5
 73
    -6
  0
VERTEX
  5
14ED
  8
0
 10
0.0
 20
0.0
 30
0.0
 70
   128
 71
     3
 72
    -2
 73
     6
  0
VERTEX
  5
14EE
  8
0
 10
0.0
 20
0.0
 30
0.0
 70
   128
 71
     7
 72
     1
 73
    -4
  0
VERTEX
  5
14EF
  8
0
 10
0.0
 20
0.0
 30
0.0
 70
   128
 71
     8
 72
    -7
 73
     4
  0
SEQEND
  5
173C
  8
0
  0
POLYLINE
  5
14F0
  8
0
 66
     1
 10
0.0
 20
0.0
 30
0.0
 70
    64
 71
    12
 72
    10
  0
VERTEX
  5
14F1
  8
0
 10
219.559716455132
 20
-53.43661612355631
 30
60.9451965001697
 70
   192
  0
VERTEX
  5
14F2
  8
0
 10
220.1386470637417
 20
-64.4832701991534
 30
54.53704537979488
 70
   192
  0
VERTEX
  5
14F3
  8
0
 10
220.5293891524487
 20
-71.93907340341451
 30
44.13088034798353
 70
   192
  0
VERTEX
  5
14F4
  8
0
 10
220.6660889111307
 20
-74.54746018401022
 30
31.65258251481335
 70
   192
  0
VERTEX
  5
14F5
  8
0
 10
220.3773362837062
 20
-73.41163596661836
 30
31.65258251481335
 70
   192
  0
VERTEX
  5
14F6
  8
0
 10
219.6754522271639
 20
-72.47310866076613
 30
31.65258251481335
 70
   192
  0
VERTEX
  5
14F7
  8
0
 10
218.667550076717
 20
-71.8751053265088
 30
31.65258251481335
 70
   192
  0
VERTEX
  5
14F8
  8
0
 10
218.6333298243932
 20
-69.53092805845804
 30
43.03061002067646
 70
   192
  0
VERTEX
  5
14F9
  8
0
 10
218.5365526519786
 20
-62.87156965943917
 30
52.55219244016848
 70
   192
  0
VERTEX
  5
14FA
  8
0
 10
218.390956962717
 20
-52.77981732123455
 30
58.7092810476565
 70
   192
  0
VERTEX
  5
14FB
  8
0
 10
219.0105401253665
 20
-52.94790248080474
 30
59.33378631792881
 70
   192
  0
VERTEX
  5
14FC
  8
0
 10
219.4120552313889
 20
-53.17353884351333
 30
60.10191169855616
 70
   192
  0
VERTEX
  5
14FD
  8
0
 10
0.0
 20
0.0
 30
0.0
 70
   128
 71
     8
 72
     7
 73
     6
  0
VERTEX
  5
14FE
  8
0
 10
0.0
 20
0.0
 30
0.0
 70
   128
 71
     8
 72
     6
 73
    11
  0
VERTEX
  5
14FF
  8
0
 10
0.0
 20
0.0
 30
0.0
 70
   128
 71
    11
 72
     9
 73
     8
  0
VERTEX
  5
1500
  8
0
 10
0.0
 20
0.0
 30
0.0
 70
   128
 71
    11
 72
    10
 73
     9
  0
VERTEX
  5
1501
  8
0
 10
0.0
 20
0.0
 30
0.0
 70
   128
 71
     6
 72
     5
 73
    12
  0
VERTEX
  5
1502
  8
0
 10
0.0
 20
0.0
 30
0.0
 70
   128
 71
     6
 72
    12
 73
    11
  0
VERTEX
  5
1503
  8
0
 10
0.0
 20
0.0
 30
0.0
 70
   128
 71
     2
 72
     1
 73
    12
  0
VERTEX
  5
1504
  8
0
 10
0.0
 20
0.0
 30
0.0
 70
   128
 71
    12
 72
     3
 73
     2
  0
VERTEX
  5
1505
  8
0
 10
0.0
 20
0.0
 30
0.0
 70
   128
 71
    12
 72
     5
 73
     4
  0
VERTEX
  5
1506
  8
0
 10
0.0
 20
0.0
 30
0.0
 70
   128
 71
    12
 72
     4
 73
     3
  0
SEQEND
  5
173D
  8
0
  0
POLYLINE
  5
1507
  8
0
 66
     1
 10
0.0
 20
0.0
 30
0.0
 70
    64
 71
    12
 72
    10
  0
VERTEX
  5
1508
  8
0
 10
218.0
 20
-23.75401101379535
 30
-86.429771616733
 70
   192
  0
VERTEX
  5
1509
  8
0
 10
218.0454402701617
 20
-26.91691174359759
 30
-85.59571456809323
 70
   192
  0
VERTEX
  5
150A
  8
0
 10
218.1773364200702
 20
-36.70592768078895
 30
-82.32052671945978
 70
   192
  0
VERTEX
  5
150B
  8
0
 10
218.3909569627169
 20
-52.77981732123452
 30
-76.70928104765656
 70
   192
  0
VERTEX
  5
150C
  8
0
 10
219.0105401253665
 20
-52.94790248080471
 30
-77.33378631792885
 70
   192
  0
VERTEX
  5
150D
  8
0
 10
219.4120552313888
 20
-53.17353884351331
 30
-78.10191169855618
 70
   192
  0
VERTEX
  5
150E
  8
0
 10
219.559716455132
 20
-53.43661612355631
 30
-78.94519650016969
 70
   192
  0
VERTEX
  5
150F
  8
0
 10
218.7242832809108
 20
-37.49560153278096
 30
-83.82023044831303
 70
   192
  0
VERTEX
  5
1510
  8
0
 10
218.1779872734254
 20
-27.07165274199534
 30
-86.4348363345249
 70
   192
  0
VERTEX
  5
1511
  8
0
 10
217.9958886042637
 20
-23.59700314506649
 30
-86.42977161673305
 70
   192
  0
VERTEX
  5
1512
  8
0
 10
217.9981724810573
 20
-23.64931252368783
 30
-86.42977161673303
 70
   192
  0
VERTEX
  5
1513
  8
0
 10
217.9995430854692
 20
-23.70165379448349
 30
-86.42977161673302
 70
   192
  0
VERTEX
  5
1514
  8
0
 10
0.0
 20
0.0
 30
0.0
 70
   128
 71
     8
 72
     7
 73
     6
  0
VERTEX
  5
1515
  8
0
 10
0.0
 20
0.0
 30
0.0
 70
   128
 71
     6
 72
    11
 73
     9
  0
VERTEX
  5
1516
  8
0
 10
0.0
 20
0.0
 30
0.0
 70
   128
 71
     6
 72
     9
 73
     8
  0
VERTEX
  5
1517
  8
0
 10
0.0
 20
0.0
 30
0.0
 70
   128
 71
    11
 72
    10
 73
     9
  0
VERTEX
  5
1518
  8
0
 10
0.0
 20
0.0
 30
0.0
 70
   128
 71
     6
 72
     5
 73
    12
  0
VERTEX
  5
1519
  8
0
 10
0.0
 20
0.0
 30
0.0
 70
   128
 71
     6
 72
    12
 73
    11
  0
VERTEX
  5
151A
  8
0
 10
0.0
 20
0.0
 30
0.0
 70
   128
 71
     2
 72
     1
 73
    12
  0
VERTEX
  5
151B
  8
0
 10
0.0
 20
0.0
 30
0.0
 70
   128
 71
    12
 72
     5
 73
     3
  0
VERTEX
  5
151C
  8
0
 10
0.0
 20
0.0
 30
0.0
 70
   128
 71
    12
 72
     3
 73
     2
  0
VERTEX
  5
151D
  8
0
 10
0.0
 20
0.0
 30
0.0
 70
   128
 71
     5
 72
     4
 73
     3
  0
SEQEND
  5
173E
  8
0
  0
POLYLINE
  5
151E
  8
0
 66
     1
 10
0.0
 20
0.0
 30
0.0
 70
    64
 71
     8
 72
     6
  0
VERTEX
  5
151F
  8
0
 10
220.3773362837062
 20
-73.41163596661836
 30
31.65258251481335
 70
   192
  0
VERTEX
  5
1520
  8
0
 10
219.6754522271639
 20
-72.47310866076613
 30
31.65258251481335
 70
   192
  0
VERTEX
  5
1521
  8
0
 10
219.6754522271639
 20
-72.47310866076613
 30
-49.6525825148133
 70
   192
  0
VERTEX
  5
1522
  8
0
 10
220.3773362837062
 20
-73.41163596661836
 30
-49.6525825148133
 70
   192
  0
VERTEX
  5
1523
  8
0
 10
218.667550076717
 20
-71.87510532650889
 30
31.65258251481335
 70
   192
  0
VERTEX
  5
1524
  8
0
 10
218.667550076717
 20
-71.8751053265088
 30
-49.6525825148133
 70
   192
  0
VERTEX
  5
1525
  8
0
 10
220.6660889111307
 20
-74.54746018401022
 30
31.65258251481335
 70
   192
  0
VERTEX
  5
1526
  8
0
 10
220.6660889111307
 20
-74.54746018401022
 30
-49.6525825148133
 70
   192
  0
VERTEX
  5
1527
  8
0
 10
0.0
 20
0.0
 30
0.0
 70
   128
 71
     1
 72
     2
 73
    -3
  0
VERTEX
  5
1528
  8
0
 10
0.0
 20
0.0
 30
0.0
 70
   128
 71
     4
 72
    -1
 73
     3
  0
VERTEX
  5
1529
  8
0
 10
0.0
 20
0.0
 30
0.0
 70
   128
 71
     2
 72
     5
 73
    -6
  0
VERTEX
  5
152A
  8
0
 10
0.0
 20
0.0
 30
0.0
 70
   128
 71
     3
 72
    -2
 73
     6
  0
VERTEX
  5
152B
  8
0
 10
0.0
 20
0.0
 30
0.0
 70
   128
 71
     7
 72
     1
 73
    -4
  0
VERTEX
  5
152C
  8
0
 10
0.0
 20
0.0
 30
0.0
 70
   128
 71
     8
 72
    -7
 73
     4
  0
SEQEND
  5
173F
  8
0
  0
POLYLINE
  5
152D
  8
0
 66
     1
 10
0.0
 20
0.0
 30
0.0
 70
    64
 71
    12
 72
    10
  0
VERTEX
  5
152E
  8
0
 10
218.390956962717
 20
-52.7798173212345
 30
-76.7092810476565
 70
   192
  0
VERTEX
  5
152F
  8
0
 10
218.536375807085
 20
-62.85941912450114
 30
-70.56426202093327
 70
   192
  0
VERTEX
  5
1530
  8
0
 10
218.6332271578752
 20
-69.5237301784943
 30
-61.04601524832758
 70
   192
  0
VERTEX
  5
1531
  8
0
 10
218.667550076717
 20
-71.87510532650889
 30
-49.6525825148133
 70
   192
  0
VERTEX
  5
1532
  8
0
 10
219.6754522271639
 20
-72.47310866076613
 30
-49.6525825148133
 70
   192
  0
VERTEX
  5
1533
  8
0
 10
220.3773362837062
 20
-73.41163596661836
 30
-49.6525825148133
 70
   192
  0
VERTEX
  5
1534
  8
0
 10
220.666088911131
 20
-74.5474601840102
 30
-49.6525825148133
 70
   192
  0
VERTEX
  5
1535
  8
0
 10
220.5287059402329
 20
-71.92603693774325
 30
-62.16089800128255
 70
   192
  0
VERTEX
  5
1536
  8
0
 10
220.1369939810317
 20
-64.45172750200223
 30
-72.56558219643973
 70
   192
  0
VERTEX
  5
1537
  8
0
 10
219.5597164551317
 20
-53.43661612355632
 30
-78.94519650016969
 70
   192
  0
VERTEX
  5
1538
  8
0
 10
219.4120552313888
 20
-53.17353884351331
 30
-78.10191169855618
 70
   192
  0
VERTEX
  5
1539
  8
0
 10
219.0105401253665
 20
-52.94790248080471
 30
-77.33378631792885
 70
   192
  0
VERTEX
  5
153A
  8
0
 10
0.0
 20
0.0
 30
0.0
 70
   128
 71
     8
 72
     7
 73
     6
  0
VERTEX
  5
153B
  8
0
 10
0.0
 20
0.0
 30
0.0
 70
   128
 71
     8
 72
     6
 73
    11
  0
VERTEX
  5
153C
  8
0
 10
0.0
 20
0.0
 30
0.0
 70
   128
 71
    11
 72
     9
 73
     8
  0
VERTEX
  5
153D
  8
0
 10
0.0
 20
0.0
 30
0.0
 70
   128
 71
    11
 72
    10
 73
     9
  0
VERTEX
  5
153E
  8
0
 10
0.0
 20
0.0
 30
0.0
 70
   128
 71
     6
 72
     5
 73
    12
  0
VERTEX
  5
153F
  8
0
 10
0.0
 20
0.0
 30
0.0
 70
   128
 71
     6
 72
    12
 73
    11
  0
VERTEX
  5
1540
  8
0
 10
0.0
 20
0.0
 30
0.0
 70
   128
 71
     2
 72
     1
 73
    12
  0
VERTEX
  5
1541
  8
0
 10
0.0
 20
0.0
 30
0.0
 70
   128
 71
    12
 72
     3
 73
     2
  0
VERTEX
  5
1542
  8
0
 10
0.0
 20
0.0
 30
0.0
 70
   128
 71
    12
 72
     5
 73
     4
  0
VERTEX
  5
1543
  8
0
 10
0.0
 20
0.0
 30
0.0
 70
   128
 71
    12
 72
     4
 73
     3
  0
SEQEND
  5
1740
  8
0
  0
POLYLINE
  5
1544
  8
0
 66
     1
 10
0.0
 20
0.0
 30
0.0
 70
    64
 71
    12
 72
    10
  0
VERTEX
  5
1545
  8
0
 10
-23.75903176704047
 20
-97.75099635559529
 30
-50.43297469084652
 70
   192
  0
VERTEX
  5
1546
  8
0
 10
-0.0000000000000054
 20
-97.0797075669256
 30
-55.8675803089267
 70
   192
  0
VERTEX
  5
1547
  8
0
 10
0.0000000000000067
 20
-102.0
 30
-55.0
 70
   192
  0
VERTEX
  5
1548
  8
0
 10
-38.89087296526011
 20
-102.0
 30
-38.89087296526012
 70
   192
  0
VERTEX
  5
1549
  8
0
 10
-55.0
 20
-102.0
 30
-0.0000000000000061
 70
   192
  0
VERTEX
  5
154A
  8
0
 10
-53.6057402899712
 20
-97.3761234274665
 30
-15.5490805732505
 70
   192
  0
VERTEX
  5
154B
  8
0
 10
-42.05831703789814
 20
-98.25810222855
 30
-36.45697534586191
 70
   192
  0
VERTEX
  5
154C
  8
0
 10
-38.89087296526012
 20
-102.0
 30
38.89087296526011
 70
   192
  0
VERTEX
  5
154D
  8
0
 10
-0.0000000000000061
 20
-102.0
 30
55.0
 70
   192
  0
VERTEX
  5
154E
  8
0
 10
0.0
 20
-97.0797075669255
 30
55.86758030892673
 70
   192
  0
VERTEX
  5
154F
  8
0
 10
-32.2618725239468
 20
-98.13991644926955
 30
45.38176862280014
 70
   192
  0
VERTEX
  5
1550
  8
0
 10
-52.82072692562964
 20
-97.47750031801843
 30
17.98125583382839
 70
   192
  0
VERTEX
  5
1551
  8
0
 10
0.0
 20
0.0
 30
0.0
 70
   128
 71
     1
 72
     2
 73
     3
  0
VERTEX
  5
1552
  8
0
 10
0.0
 20
0.0
 30
0.0
 70
   128
 71
     1
 72
     3
 73
     4
  0
VERTEX
  5
1553
  8
0
 10
0.0
 20
0.0
 30
0.0
 70
   128
 71
     4
 72
     5
 73
     6
  0
VERTEX
  5
1554
  8
0
 10
0.0
 20
0.0
 30
0.0
 70
   128
 71
     4
 72
     6
 73
     7
  0
VERTEX
  5
1555
  8
0
 10
0.0
 20
0.0
 30
0.0
 70
   128
 71
     8
 72
     9
 73
    10
  0
VERTEX
  5
1556
  8
0
 10
0.0
 20
0.0
 30
0.0
 70
   128
 71
     8
 72
    10
 73
    11
  0
VERTEX
  5
1557
  8
0
 10
0.0
 20
0.0
 30
0.0
 70
   128
 71
     1
 72
     4
 73
     7
  0
VERTEX
  5
1558
  8
0
 10
0.0
 20
0.0
 30
0.0
 70
   128
 71
     6
 72
     5
 73
    12
  0
VERTEX
  5
1559
  8
0
 10
0.0
 20
0.0
 30
0.0
 70
   128
 71
    12
 72
     5
 73
     8
  0
VERTEX
  5
155A
  8
0
 10
0.0
 20
0.0
 30
0.0
 70
   128
 71
    12
 72
     8
 73
    11
  0
SEQEND
  5
1741
  8
0
  0
POLYLINE
  5
155B
  8
0
 66
     1
 10
0.0
 20
0.0
 30
0.0
 70
    64
 71
    16
 72
    16
  0
VERTEX
  5
155C
  8
0
 10
0.0000000000000067
 20
-102.0
 30
-55.0
 70
   192
  0
VERTEX
  5
155D
  8
0
 10
-38.89087296526011
 20
-102.0
 30
-38.89087296526012
 70
   192
  0
VERTEX
  5
155E
  8
0
 10
-55.0
 20
-102.0
 30
-0.0000000000000061
 70
   192
  0
VERTEX
  5
155F
  8
0
 10
-38.89087296526012
 20
-102.0
 30
38.89087296526011
 70
   192
  0
VERTEX
  5
1560
  8
0
 10
0.0
 20
-102.0
 30
55.0
 70
   192
  0
VERTEX
  5
1561
  8
0
 10
38.89087296526012
 20
-102.0
 30
38.89087296526012
 70
   192
  0
VERTEX
  5
1562
  8
0
 10
55.00000000000001
 20
-102.0
 30
0.0
 70
   192
  0
VERTEX
  5
1563
  8
0
 10
38.89087296526012
 20
-102.0
 30
-38.89087296526012
 70
   192
  0
VERTEX
  5
1564
  8
0
 10
0.0000000000000027
 20
-102.0
 30
22.0
 70
   192
  0
VERTEX
  5
1565
  8
0
 10
-15.55634918610404
 20
-102.0
 30
15.55634918610405
 70
   192
  0
VERTEX
  5
1566
  8
0
 10
-22.0
 20
-102.0
 30
0.0000000000000024
 70
   192
  0
VERTEX
  5
1567
  8
0
 10
-15.55634918610405
 20
-102.0
 30
-15.55634918610404
 70
   192
  0
VERTEX
  5
1568
  8
0
 10
0.0
 20
-102.0
 30
-22.0
 70
   192
  0
VERTEX
  5
1569
  8
0
 10
15.55634918610405
 20
-102.0
 30
-15.55634918610405
 70
   192
  0
VERTEX
  5
156A
  8
0
 10
22.0
 20
-102.0
 30
0.0
 70
   192
  0
VERTEX
  5
156B
  8
0
 10
15.55634918610405
 20
-102.0
 30
15.55634918610405
 70
   192
  0
VERTEX
  5
156C
  8
0
 10
0.0
 20
0.0
 30
0.0
 70
   128
 71
    10
 72
    -9
 73
    -5
  0
VERTEX
  5
156D
  8
0
 10
0.0
 20
0.0
 30
0.0
 70
   128
 71
   -10
 72
     5
 73
    -4
  0
VERTEX
  5
156E
  8
0
 10
0.0
 20
0.0
 30
0.0
 70
   128
 71
     4
 72
    -3
 73
   -11
  0
VERTEX
  5
156F
  8
0
 10
0.0
 20
0.0
 30
0.0
 70
   128
 71
    -4
 72
    11
 73
   -10
  0
VERTEX
  5
1570
  8
0
 10
0.0
 20
0.0
 30
0.0
 70
   128
 71
     3
 72
    -2
 73
   -12
  0
VERTEX
  5
1571
  8
0
 10
0.0
 20
0.0
 30
0.0
 70
   128
 71
    -3
 72
    12
 73
   -11
  0
VERTEX
  5
1572
  8
0
 10
0.0
 20
0.0
 30
0.0
 70
   128
 71
     2
 72
    -1
 73
   -13
  0
VERTEX
  5
1573
  8
0
 10
0.0
 20
0.0
 30
0.0
 70
   128
 71
    -2
 72
    13
 73
   -12
  0
VERTEX
  5
1574
  8
0
 10
0.0
 20
0.0
 30
0.0
 70
   128
 71
     1
 72
    -8
 73
   -14
  0
VERTEX
  5
1575
  8
0
 10
0.0
 20
0.0
 30
0.0
 70
   128
 71
    -1
 72
    14
 73
   -13
  0
VERTEX
  5
1576
  8
0
 10
0.0
 20
0.0
 30
0.0
 70
   128
 71
     8
 72
    -7
 73
   -15
  0
VERTEX
  5
1577
  8
0
 10
0.0
 20
0.0
 30
0.0
 70
   128
 71
    -8
 72
    15
 73
   -14
  0
VERTEX
  5
1578
  8
0
 10
0.0
 20
0.0
 30
0.0
 70
   128
 71
     7
 72
    -6
 73
   -16
  0
VERTEX
  5
1579
  8
0
 10
0.0
 20
0.0
 30
0.0
 70
   128
 71
    -7
 72
    16
 73
   -15
  0
VERTEX
  5
157A
  8
0
 10
0.0
 20
0.0
 30
0.0
 70
   128
 71
     6
 72
    -5
 73
    -9
  0
VERTEX
  5
157B
  8
0
 10
0.0
 20
0.0
 30
0.0
 70
   128
 71
    -6
 72
     9
 73
   -16
  0
SEQEND
  5
1742
  8
0
  0
POLYLINE
  5
157C
  8
0
 66
     1
 10
0.0
 20
0.0
 30
0.0
 70
    64
 71
    10
 72
     8
  0
VERTEX
  5
157D
  8
0
 10
169.0
 20
-13.0
 30
-151.5
 70
   192
  0
VERTEX
  5
157E
  8
0
 10
169.0
 20
-13.0
 30
-186.5
 70
   192
  0
VERTEX
  5
157F
  8
0
 10
169.0
 20
0.0
 30
-186.5
 70
   192
  0
VERTEX
  5
1580
  8
0
 10
169.0
 20
0.0
 30
-151.5
 70
   192
  0
VERTEX
  5
1581
  8
0
 10
186.5
 20
0.0
 30
-169.0
 70
   192
  0
VERTEX
  5
1582
  8
0
 10
186.5
 20
-13.0
 30
-169.0
 70
   192
  0
VERTEX
  5
1583
  8
0
 10
181.3743686707646
 20
0.0
 30
-156.6256313292354
 70
   192
  0
VERTEX
  5
1584
  8
0
 10
181.3743686707646
 20
-13.0
 30
-156.6256313292354
 70
   192
  0
VERTEX
  5
1585
  8
0
 10
181.3743686707646
 20
0.0
 30
-181.3743686707646
 70
   192
  0
VERTEX
  5
1586
  8
0
 10
181.3743686707646
 20
-13.0
 30
-181.3743686707646
 70
   192
  0
VERTEX
  5
1587
  8
0
 10
0.0
 20
0.0
 30
0.0
 70
   128
 71
     8
 72
     1
 73
    -4
  0
VERTEX
  5
1588
  8
0
 10
0.0
 20
0.0
 30
0.0
 70
   128
 71
     7
 72
    -8
 73
     4
  0
VERTEX
  5
1589
  8
0
 10
0.0
 20
0.0
 30
0.0
 70
   128
 71
     6
 72
     8
 73
    -7
  0
VERTEX
  5
158A
  8
0
 10
0.0
 20
0.0
 30
0.0
 70
   128
 71
     5
 72
    -6
 73
     7
  0
VERTEX
  5
158B
  8
0
 10
0.0
 20
0.0
 30
0.0
 70
   128
 71
    10
 72
     6
 73
    -5
  0
VERTEX
  5
158C
  8
0
 10
0.0
 20
0.0
 30
0.0
 70
   128
 71
     9
 72
   -10
 73
     5
  0
VERTEX
  5
158D
  8
0
 10
0.0
 20
0.0
 30
0.0
 70
   128
 71
     3
 72
     2
 73
   -10
  0
VERTEX
  5
158E
  8
0
 10
0.0
 20
0.0
 30
0.0
 70
   128
 71
     9
 72
    -3
 73
    10
  0
SEQEND
  5
1743
  8
0
  0
POLYLINE
  5
158F
  8
0
 66
     1
 10
0.0
 20
0.0
 30
0.0
 70
    64
 71
    25
 72
    23
  0
VERTEX
  5
1590
  8
0
 10
38.43604219487766
 20
0.0000000000000069
 30
-150.7386000340568
 70
   192
  0
VERTEX
  5
1591
  8
0
 10
-98.44712042819783
 20
0.0000000000000026
 30
-148.2188069068416
 70
   192
  0
VERTEX
  5
1592
  8
0
 10
18.8963586464407
 20
-1.81294128482535
 30
-148.1313515753168
 70
   192
  0
VERTEX
  5
1593
  8
0
 10
-130.3773590735531
 20
0.0000000000000065
 30
-136.8917965106851
 70
   192
  0
VERTEX
  5
1594
  8
0
 10
-133.86573733797
 20
-1.261351710660265
 30
-130.211648784445
 70
   192
  0
VERTEX
  5
1595
  8
0
 10
-106.4389785189309
 20
-1.49260499340853
 30
-144.2248432863069
 70
   192
  0
VERTEX
  5
1596
  8
0
 10
-146.6224854659022
 20
0.0000000000000026
 30
-107.6308148607127
 70
   192
  0
VERTEX
  5
1597
  8
0
 10
-150.7319030518715
 20
0.0
 30
-39.3096972081534
 70
   192
  0
VERTEX
  5
1598
  8
0
 10
-149.605149238788
 20
-0.2196491895732287
 30
-39.30102451185709
 70
   192
  0
VERTEX
  5
1599
  8
0
 10
-145.1291127508833
 20
-1.537531592662849
 30
-101.4085327279009
 70
   192
  0
VERTEX
  5
159A
  8
0
 10
-148.6433891336328
 20
-0.8464329139728184
 30
-39.29362178270271
 70
   192
  0
VERTEX
  5
159B
  8
0
 10
-147.9874559548465
 20
-1.788569481797385
 30
-39.28857302299652
 70
   192
  0
VERTEX
  5
159C
  8
0
 10
148.2381908663642
 20
-1.821342854905935
 30
0.0000000000000095
 70
   192
  0
VERTEX
  5
159D
  8
0
 10
148.1835271244635
 20
-1.817820282834072
 30
12.01595477415809
 70
   192
  0
VERTEX
  5
159E
  8
0
 10
148.6480724843053
 20
-0.8469747676643995
 30
38.61032750845597
 70
   192
  0
VERTEX
  5
159F
  8
0
 10
148.0864316039471
 20
-1.807252184091933
 30
25.0500629508222
 70
   192
  0
VERTEX
  5
15A0
  8
0
 10
147.9922264665322
 20
-1.789637478704947
 30
38.60531100482538
 70
   192
  0
VERTEX
  5
15A1
  8
0
 10
149.6100309037614
 20
-0.2197953585206367
 30
38.61768543664781
 70
   192
  0
VERTEX
  5
15A2
  8
0
 10
150.7371457277765
 20
-0.0000000000000018
 30
38.6263066304243
 70
   192
  0
VERTEX
  5
15A3
  8
0
 10
148.1723758928522
 20
0.0000000000000104
 30
-98.78370305269776
 70
   192
  0
VERTEX
  5
15A4
  8
0
 10
137.7278243889097
 20
-1.298710107696808
 30
-124.765446473346
 70
   192
  0
VERTEX
  5
15A5
  8
0
 10
136.5134634975754
 20
0.0000000000000065
 30
-130.8537884905193
 70
   192
  0
VERTEX
  5
15A6
  8
0
 10
106.7603824317605
 20
-0.0000000000000091
 30
-146.8073949549219
 70
   192
  0
VERTEX
  5
15A7
  8
0
 10
112.7409135158804
 20
-1.428522967510894
 30
-142.6945196907857
 70
   192
  0
VERTEX
  5
15A8
  8
0
 10
81.63041910698175
 20
-1.665459065447604
 30
-147.0740884474187
 70
   192
  0
VERTEX
  5
15A9
  8
0
 10
0.0
 20
0.0
 30
0.0
 70
   128
 71
     1
 72
     2
 73
     3
  0
VERTEX
  5
15AA
  8
0
 10
0.0
 20
0.0
 30
0.0
 70
   128
 71
     4
 72
     5
 73
     6
  0
VERTEX
  5
15AB
  8
0
 10
0.0
 20
0.0
 30
0.0
 70
   128
 71
     2
 72
     4
 73
     6
  0
VERTEX
  5
15AC
  8
0
 10
0.0
 20
0.0
 30
0.0
 70
   128
 71
     4
 72
     7
 73
     5
  0
VERTEX
  5
15AD
  8
0
 10
0.0
 20
0.0
 30
0.0
 70
   128
 71
     7
 72
     8
 73
     9
  0
VERTEX
  5
15AE
  8
0
 10
0.0
 20
0.0
 30
0.0
 70
   128
 71
    10
 72
     9
 73
    11
  0
VERTEX
  5
15AF
  8
0
 10
0.0
 20
0.0
 30
0.0
 70
   128
 71
    11
 72
    12
 73
    10
  0
VERTEX
  5
15B0
  8
0
 10
0.0
 20
0.0
 30
0.0
 70
   128
 71
    13
 72
    14
 73
    15
  0
VERTEX
  5
15B1
  8
0
 10
0.0
 20
0.0
 30
0.0
 70
   128
 71
    14
 72
    16
 73
    15
  0
VERTEX
  5
15B2
  8
0
 10
0.0
 20
0.0
 30
0.0
 70
   128
 71
    16
 72
    17
 73
    15
  0
VERTEX
  5
15B3
  8
0
 10
0.0
 20
0.0
 30
0.0
 70
   128
 71
    18
 72
    19
 73
    20
  0
VERTEX
  5
15B4
  8
0
 10
0.0
 20
0.0
 30
0.0
 70
   128
 71
    21
 72
    22
 73
    23
  0
VERTEX
  5
15B5
  8
0
 10
0.0
 20
0.0
 30
0.0
 70
   128
 71
    24
 72
    21
 73
    23
  0
VERTEX
  5
15B6
  8
0
 10
0.0
 20
0.0
 30
0.0
 70
   128
 71
    23
 72
     1
 73
    25
  0
VERTEX
  5
15B7
  8
0
 10
0.0
 20
0.0
 30
0.0
 70
   128
 71
     3
 72
    25
 73
     1
  0
VERTEX
  5
15B8
  8
0
 10
0.0
 20
0.0
 30
0.0
 70
   128
 71
     6
 72
     3
 73
     2
  0
VERTEX
  5
15B9
  8
0
 10
0.0
 20
0.0
 30
0.0
 70
   128
 71
    25
 72
    24
 73
    23
  0
VERTEX
  5
15BA
  8
0
 10
0.0
 20
0.0
 30
0.0
 70
   128
 71
     5
 72
     7
 73
     9
  0
VERTEX
  5
15BB
  8
0
 10
0.0
 20
0.0
 30
0.0
 70
   128
 71
    10
 72
     5
 73
     9
  0
VERTEX
  5
15BC
  8
0
 10
0.0
 20
0.0
 30
0.0
 70
   128
 71
    18
 72
    20
 73
    22
  0
VERTEX
  5
15BD
  8
0
 10
0.0
 20
0.0
 30
0.0
 70
   128
 71
    15
 72
    18
 73
    22
  0
VERTEX
  5
15BE
  8
0
 10
0.0
 20
0.0
 30
0.0
 70
   128
 71
    13
 72
    15
 73
    22
  0
VERTEX
  5
15BF
  8
0
 10
0.0
 20
0.0
 30
0.0
 70
   128
 71
    21
 72
    13
 73
    22
  0
SEQEND
  5
1744
  8
0
  0
POLYLINE
  5
15C0
  8
0
 66
     1
 10
0.0
 20
0.0
 30
0.0
 70
    64
 71
    11
 72
     9
  0
VERTEX
  5
15C1
  8
0
 10
-158.000456914531
 20
-100.0
 30
161.0
 70
   192
  0
VERTEX
  5
15C2
  8
0
 10
-156.2892512857904
 20
-1.965095187125456
 30
159.2887943712594
 70
   192
  0
VERTEX
  5
15C3
  8
0
 10
-157.0930068037592
 20
-1.95700236857077
 30
159.1787802385488
 70
   192
  0
VERTEX
  5
15C4
  8
0
 10
-159.1787802385488
 20
-1.957002368570732
 30
157.0930068037587
 70
   192
  0
VERTEX
  5
15C5
  8
0
 10
-159.2887943712595
 20
-1.965095187125415
 30
156.2892512857905
 70
   192
  0
VERTEX
  5
15C6
  8
0
 10
-161.0000000000001
 20
-100.0
 30
158.0004569145306
 70
   192
  0
VERTEX
  5
15C7
  8
0
 10
-159.4674428143204
 20
-100.0
 30
160.6168607035801
 70
   192
  0
VERTEX
  5
15C8
  8
0
 10
-157.8134629481636
 20
-1.952187246874051
 30
158.8722447038646
 70
   192
  0
VERTEX
  5
15C9
  8
0
 10
-158.4100517196805
 20
-1.95064465615391
 30
158.4100517196805
 70
   192
  0
VERTEX
  5
15CA
  8
0
 10
-160.6168607035802
 20
-100.0
 30
159.4674428143205
 70
   192
  0
VERTEX
  5
15CB
  8
0
 10
-158.8722447038648
 20
-1.952187246874042
 30
157.8134629481632
 70
   192
  0
VERTEX
  5
15CC
  8
0
 10
0.0
 20
0.0
 30
0.0
 70
   128
 71
     1
 72
     2
 73
     3
  0
VERTEX
  5
15CD
  8
0
 10
0.0
 20
0.0
 30
0.0
 70
   128
 71
     4
 72
     5
 73
     6
  0
VERTEX
  5
15CE
  8
0
 10
0.0
 20
0.0
 30
0.0
 70
   128
 71
     7
 72
     8
 73
     9
  0
VERTEX
  5
15CF
  8
0
 10
0.0
 20
0.0
 30
0.0
 70
   128
 71
     7
 72
     9
 73
    10
  0
VERTEX
  5
15D0
  8
0
 10
0.0
 20
0.0
 30
0.0
 70
   128
 71
     3
 72
     8
 73
     7
  0
VERTEX
  5
15D1
  8
0
 10
0.0
 20
0.0
 30
0.0
 70
   128
 71
     1
 72
     3
 73
     7
  0
VERTEX
  5
15D2
  8
0
 10
0.0
 20
0.0
 30
0.0
 70
   128
 71
     6
 72
    10
 73
     9
  0
VERTEX
  5
15D3
  8
0
 10
0.0
 20
0.0
 30
0.0
 70
   128
 71
     6
 72
     9
 73
    11
  0
VERTEX
  5
15D4
  8
0
 10
0.0
 20
0.0
 30
0.0
 70
   128
 71
    11
 72
     4
 73
     6
  0
SEQEND
  5
1745
  8
0
  0
POLYLINE
  5
15D5
  8
0
 66
     1
 10
0.0
 20
0.0
 30
0.0
 70
    64
 71
     8
 72
     6
  0
VERTEX
  5
15D6
  8
0
 10
238.0
 20
-1.969771545336283
 30
159.0208859887885
 70
   192
  0
VERTEX
  5
15D7
  8
0
 10
238.7445208382055
 20
-100.0
 30
159.9779276862578
 70
   192
  0
VERTEX
  5
15D8
  8
0
 10
238.7320508075689
 20
-1.982547593562716
 30
158.2889466761034
 70
   192
  0
VERTEX
  5
15D9
  8
0
 10
237.0
 20
-1.965095187125433
 30
159.2887943712598
 70
   192
  0
VERTEX
  5
15DA
  8
0
 10
237.9780833528219
 20
-100.0
 30
160.7444819215645
 70
   192
  0
VERTEX
  5
15DB
  8
0
 10
237.0
 20
-100.0
 30
161.0
 70
   192
  0
VERTEX
  5
15DC
  8
0
 10
239.0
 20
-100.0
 30
158.999695343912
 70
   192
  0
VERTEX
  5
15DD
  8
0
 10
239.0
 20
-2.000000000000005
 30
157.2890989809467
 70
   192
  0
VERTEX
  5
15DE
  8
0
 10
0.0
 20
0.0
 30
0.0
 70
   128
 71
     1
 72
     2
 73
     3
  0
VERTEX
  5
15DF
  8
0
 10
0.0
 20
0.0
 30
0.0
 70
   128
 71
     4
 72
     5
 73
     1
  0
VERTEX
  5
15E0
  8
0
 10
0.0
 20
0.0
 30
0.0
 70
   128
 71
     4
 72
     6
 73
     5
  0
VERTEX
  5
15E1
  8
0
 10
0.0
 20
0.0
 30
0.0
 70
   128
 71
     1
 72
     5
 73
     2
  0
VERTEX
  5
15E2
  8
0
 10
0.0
 20
0.0
 30
0.0
 70
   128
 71
     3
 72
     2
 73
     7
  0
VERTEX
  5
15E3
  8
0
 10
0.0
 20
0.0
 30
0.0
 70
   128
 71
     3
 72
     7
 73
     8
  0
SEQEND
  5
1746
  8
0
  0
POLYLINE
  5
15E4
  8
0
 66
     1
 10
0.0
 20
0.0
 30
0.0
 70
    64
 71
     8
 72
     6
  0
VERTEX
  5
15E5
  8
0
 10
238.0
 20
-100.0
 30
-238.7320508075689
 70
   192
  0
VERTEX
  5
15E6
  8
0
 10
238.0
 20
-2.0
 30
-238.7320508075689
 70
   192
  0
VERTEX
  5
15E7
  8
0
 10
238.7320508075689
 20
-2.0
 30
-238.0
 70
   192
  0
VERTEX
  5
15E8
  8
0
 10
238.7320508075689
 20
-100.0
 30
-238.0
 70
   192
  0
VERTEX
  5
15E9
  8
0
 10
237.0
 20
-100.0
 30
-239.0
 70
   192
  0
VERTEX
  5
15EA
  8
0
 10
237.0
 20
-2.0
 30
-239.0
 70
   192
  0
VERTEX
  5
15EB
  8
0
 10
239.0
 20
-2.0
 30
-237.0
 70
   192
  0
VERTEX
  5
15EC
  8
0
 10
239.0
 20
-100.0
 30
-237.0
 70
   192
  0
VERTEX
  5
15ED
  8
0
 10
0.0
 20
0.0
 30
0.0
 70
   128
 71
     1
 72
     2
 73
    -3
  0
VERTEX
  5
15EE
  8
0
 10
0.0
 20
0.0
 30
0.0
 70
   128
 71
    -1
 72
     3
 73
     4
  0
VERTEX
  5
15EF
  8
0
 10
0.0
 20
0.0
 30
0.0
 70
   128
 71
     5
 72
     6
 73
    -2
  0
VERTEX
  5
15F0
  8
0
 10
0.0
 20
0.0
 30
0.0
 70
   128
 71
    -5
 72
     2
 73
     1
  0
VERTEX
  5
15F1
  8
0
 10
0.0
 20
0.0
 30
0.0
 70
   128
 71
     4
 72
     3
 73
    -7
  0
VERTEX
  5
15F2
  8
0
 10
0.0
 20
0.0
 30
0.0
 70
   128
 71
    -4
 72
     7
 73
     8
  0
SEQEND
  5
1747
  8
0
  0
POLYLINE
  5
15F3
  8
0
 66
     1
 10
0.0
 20
0.0
 30
0.0
 70
    64
 71
     8
 72
     6
  0
VERTEX
  5
15F4
  8
0
 10
-157.289098980947
 20
-2.0
 30
-239.0
 70
   192
  0
VERTEX
  5
15F5
  8
0
 10
-158.9996953439124
 20
-99.99999999999997
 30
-239.0
 70
   192
  0
VERTEX
  5
15F6
  8
0
 10
-159.9779276862579
 20
-100.0
 30
-238.7445208382053
 70
   192
  0
VERTEX
  5
15F7
  8
0
 10
-158.2889466761034
 20
-1.982547593562716
 30
-238.7320508075689
 70
   192
  0
VERTEX
  5
15F8
  8
0
 10
-159.0208859887885
 20
-1.969771545336283
 30
-238.0
 70
   192
  0
VERTEX
  5
15F9
  8
0
 10
-160.7444819215645
 20
-100.0
 30
-237.9780833528216
 70
   192
  0
VERTEX
  5
15FA
  8
0
 10
-159.2887943712596
 20
-1.965095187125442
 30
-237.0
 70
   192
  0
VERTEX
  5
15FB
  8
0
 10
-161.0
 20
-100.0
 30
-237.0
 70
   192
  0
VERTEX
  5
15FC
  8
0
 10
0.0
 20
0.0
 30
0.0
 70
   128
 71
     1
 72
     2
 73
     3
  0
VERTEX
  5
15FD
  8
0
 10
0.0
 20
0.0
 30
0.0
 70
   128
 71
     1
 72
     3
 73
     4
  0
VERTEX
  5
15FE
  8
0
 10
0.0
 20
0.0
 30
0.0
 70
   128
 71
     5
 72
     4
 73
     3
  0
VERTEX
  5
15FF
  8
0
 10
0.0
 20
0.0
 30
0.0
 70
   128
 71
     3
 72
     6
 73
     7
  0
VERTEX
  5
1600
  8
0
 10
0.0
 20
0.0
 30
0.0
 70
   128
 71
     3
 72
     7
 73
     5
  0
VERTEX
  5
1601
  8
0
 10
0.0
 20
0.0
 30
0.0
 70
   128
 71
     6
 72
     8
 73
     7
  0
SEQEND
  5
1748
  8
0
  0
POLYLINE
  5
1602
  8
0
 66
     1
 10
0.0
 20
0.0
 30
0.0
 70
    64
 71
     9
 72
     7
  0
VERTEX
  5
1603
  8
0
 10
-157.289098980947
 20
-2.0
 30
-239.0
 70
   192
  0
VERTEX
  5
1604
  8
0
 10
-157.289098980947
 20
-0.2679491924311213
 30
-238.0
 70
   192
  0
VERTEX
  5
1605
  8
0
 10
-157.289098980947
 20
-0.9999999999999993
 30
-238.7320508075689
 70
   192
  0
VERTEX
  5
1606
  8
0
 10
-158.2790054515131
 20
-0.2621607728183384
 30
-237.0
 70
   192
  0
VERTEX
  5
1607
  8
0
 10
-159.0093972767378
 20
-0.9799148204686496
 30
-237.0
 70
   192
  0
VERTEX
  5
1608
  8
0
 10
-157.289098980947
 20
0.0000000000000018
 30
-237.0
 70
   192
  0
VERTEX
  5
1609
  8
0
 10
-159.0208859887885
 20
-1.969771545336283
 30
-238.0
 70
   192
  0
VERTEX
  5
160A
  8
0
 10
-159.2887943712598
 20
-1.965095187125433
 30
-237.0
 70
   192
  0
VERTEX
  5
160B
  8
0
 10
-158.2889466761034
 20
-1.982547593562716
 30
-238.7320508075689
 70
   192
  0
VERTEX
  5
160C
  8
0
 10
0.0
 20
0.0
 30
0.0
 70
   128
 71
    -1
 72
     2
 73
     3
  0
VERTEX
  5
160D
  8
0
 10
0.0
 20
0.0
 30
0.0
 70
   128
 71
     4
 72
     1
 73
     5
  0
VERTEX
  5
160E
  8
0
 10
0.0
 20
0.0
 30
0.0
 70
   128
 71
     6
 72
    -2
 73
     1
  0
VERTEX
  5
160F
  8
0
 10
0.0
 20
0.0
 30
0.0
 70
   128
 71
     6
 72
     1
 73
     4
  0
VERTEX
  5
1610
  8
0
 10
0.0
 20
0.0
 30
0.0
 70
   128
 71
     7
 72
     8
 73
     5
  0
VERTEX
  5
1611
  8
0
 10
0.0
 20
0.0
 30
0.0
 70
   128
 71
     5
 72
     1
 73
     9
  0
VERTEX
  5
1612
  8
0
 10
0.0
 20
0.0
 30
0.0
 70
   128
 71
     5
 72
     9
 73
     7
  0
SEQEND
  5
1749
  8
0
  0
POLYLINE
  5
1613
  8
0
 66
     1
 10
0.0
 20
0.0
 30
0.0
 70
    64
 71
     8
 72
     6
  0
VERTEX
  5
1614
  8
0
 10
-158.2790054515131
 20
-0.2621607728183344
 30
156.2892512857905
 70
   192
  0
VERTEX
  5
1615
  8
0
 10
-158.2790054515131
 20
-0.2621607728183384
 30
-237.0
 70
   192
  0
VERTEX
  5
1616
  8
0
 10
-159.0093972767378
 20
-0.9799148204686496
 30
-237.0
 70
   192
  0
VERTEX
  5
1617
  8
0
 10
-159.0093972767377
 20
-0.9799148204686359
 30
156.2892512857905
 70
   192
  0
VERTEX
  5
1618
  8
0
 10
-157.289098980947
 20
0.0000000000000018
 30
156.2892512857905
 70
   192
  0
VERTEX
  5
1619
  8
0
 10
-157.289098980947
 20
0.0
 30
-237.0
 70
   192
  0
VERTEX
  5
161A
  8
0
 10
-159.2887943712598
 20
-1.965095187125435
 30
-237.0
 70
   192
  0
VERTEX
  5
161B
  8
0
 10
-159.2887943712595
 20
-1.965095187125435
 30
156.2892512857906
 70
   192
  0
VERTEX
  5
161C
  8
0
 10
0.0
 20
0.0
 30
0.0
 70
   128
 71
     1
 72
     2
 73
    -3
  0
VERTEX
  5
161D
  8
0
 10
0.0
 20
0.0
 30
0.0
 70
   128
 71
    -1
 72
     3
 73
     4
  0
VERTEX
  5
161E
  8
0
 10
0.0
 20
0.0
 30
0.0
 70
   128
 71
     5
 72
     6
 73
    -2
  0
VERTEX
  5
161F
  8
0
 10
0.0
 20
0.0
 30
0.0
 70
   128
 71
    -5
 72
     2
 73
     1
  0
VERTEX
  5
1620
  8
0
 10
0.0
 20
0.0
 30
0.0
 70
   128
 71
     4
 72
     3
 73
    -7
  0
VERTEX
  5
1621
  8
0
 10
0.0
 20
0.0
 30
0.0
 70
   128
 71
    -4
 72
     7
 73
     8
  0
SEQEND
  5
174A
  8
0
  0
POLYLINE
  5
1622
  8
0
 66
     1
 10
0.0
 20
0.0
 30
0.0
 70
    64
 71
     8
 72
     6
  0
VERTEX
  5
1623
  8
0
 10
237.0
 20
-0.9999999999999993
 30
-238.7320508075689
 70
   192
  0
VERTEX
  5
1624
  8
0
 10
-157.289098980947
 20
-0.9999999999999993
 30
-238.7320508075689
 70
   192
  0
VERTEX
  5
1625
  8
0
 10
-157.289098980947
 20
-0.2679491924311213
 30
-238.0
 70
   192
  0
VERTEX
  5
1626
  8
0
 10
237.0
 20
-0.2679491924311213
 30
-238.0
 70
   192
  0
VERTEX
  5
1627
  8
0
 10
237.0
 20
-2.0
 30
-239.0
 70
   192
  0
VERTEX
  5
1628
  8
0
 10
-157.289098980947
 20
-2.0
 30
-239.0
 70
   192
  0
VERTEX
  5
1629
  8
0
 10
-157.289098980947
 20
0.0000000000000018
 30
-237.0
 70
   192
  0
VERTEX
  5
162A
  8
0
 10
237.0
 20
0.0
 30
-237.0
 70
   192
  0
VERTEX
  5
162B
  8
0
 10
0.0
 20
0.0
 30
0.0
 70
   128
 71
     1
 72
     2
 73
    -3
  0
VERTEX
  5
162C
  8
0
 10
0.0
 20
0.0
 30
0.0
 70
   128
 71
    -1
 72
     3
 73
     4
  0
VERTEX
  5
162D
  8
0
 10
0.0
 20
0.0
 30
0.0
 70
   128
 71
     5
 72
     6
 73
    -2
  0
VERTEX
  5
162E
  8
0
 10
0.0
 20
0.0
 30
0.0
 70
   128
 71
    -5
 72
     2
 73
     1
  0
VERTEX
  5
162F
  8
0
 10
0.0
 20
0.0
 30
0.0
 70
   128
 71
     4
 72
     3
 73
    -7
  0
VERTEX
  5
1630
  8
0
 10
0.0
 20
0.0
 30
0.0
 70
   128
 71
    -4
 72
     7
 73
     8
  0
SEQEND
  5
174B
  8
0
  0
POLYLINE
  5
1631
  8
0
 66
     1
 10
0.0
 20
0.0
 30
0.0
 70
    64
 71
    12
 72
    10
  0
VERTEX
  5
1632
  8
0
 10
-156.9962688420725
 20
-0.0000000000000067
 30
156.9962688420725
 70
   192
  0
VERTEX
  5
1633
  8
0
 10
-157.693276168691
 20
-0.259781170863804
 30
157.693276168691
 70
   192
  0
VERTEX
  5
1634
  8
0
 10
-158.2092141159
 20
-0.9716384267198304
 30
158.2092141159
 70
   192
  0
VERTEX
  5
1635
  8
0
 10
-158.4100517196803
 20
-1.950644656153917
 30
158.4100517196803
 70
   192
  0
VERTEX
  5
1636
  8
0
 10
-157.8134629481636
 20
-1.952187246874051
 30
158.8722447038646
 70
   192
  0
VERTEX
  5
1637
  8
0
 10
-157.0930068037592
 20
-1.95700236857077
 30
159.1787802385488
 70
   192
  0
VERTEX
  5
1638
  8
0
 10
-156.2892512857905
 20
-1.965095187125425
 30
159.2887943712595
 70
   192
  0
VERTEX
  5
1639
  8
0
 10
-156.2892512857905
 20
-0.9799148204686405
 30
159.0093972767378
 70
   192
  0
VERTEX
  5
163A
  8
0
 10
-156.2892512857905
 20
-0.2621607728183357
 30
158.2790054515131
 70
   192
  0
VERTEX
  5
163B
  8
0
 10
-156.2892512857905
 20
0.0000000000000018
 30
157.289098980947
 70
   192
  0
VERTEX
  5
163C
  8
0
 10
-156.5465876415998
 20
-0.0000000000000012
 30
157.2554234472261
 70
   192
  0
VERTEX
  5
163D
  8
0
 10
-156.7905091892515
 20
-0.0000000000000017
 30
157.1543968460637
 70
   192
  0
VERTEX
  5
163E
  8
0
 10
0.0
 20
0.0
 30
0.0
 70
   128
 71
     6
 72
     7
 73
     8
  0
VERTEX
  5
163F
  8
0
 10
0.0
 20
0.0
 30
0.0
 70
   128
 71
     9
 72
    11
 73
     6
  0
VERTEX
  5
1640
  8
0
 10
0.0
 20
0.0
 30
0.0
 70
   128
 71
     8
 72
     9
 73
     6
  0
VERTEX
  5
1641
  8
0
 10
0.0
 20
0.0
 30
0.0
 70
   128
 71
     9
 72
    10
 73
    11
  0
VERTEX
  5
1642
  8
0
 10
0.0
 20
0.0
 30
0.0
 70
   128
 71
    12
 72
     5
 73
     6
  0
VERTEX
  5
1643
  8
0
 10
0.0
 20
0.0
 30
0.0
 70
   128
 71
    11
 72
    12
 73
     6
  0
VERTEX
  5
1644
  8
0
 10
0.0
 20
0.0
 30
0.0
 70
   128
 71
    12
 72
     1
 73
     2
  0
VERTEX
  5
1645
  8
0
 10
0.0
 20
0.0
 30
0.0
 70
   128
 71
     3
 72
     5
 73
    12
  0
VERTEX
  5
1646
  8
0
 10
0.0
 20
0.0
 30
0.0
 70
   128
 71
     2
 72
     3
 73
    12
  0
VERTEX
  5
1647
  8
0
 10
0.0
 20
0.0
 30
0.0
 70
   128
 71
     3
 72
     4
 73
     5
  0
SEQEND
  5
174C
  8
0
  0
POLYLINE
  5
1648
  8
0
 66
     1
 10
0.0
 20
0.0
 30
0.0
 70
    64
 71
     9
 72
     7
  0
VERTEX
  5
1649
  8
0
 10
237.0
 20
-2.0
 30
-239.0
 70
   192
  0
VERTEX
  5
164A
  8
0
 10
238.7320508075689
 20
-2.0
 30
-238.0
 70
   192
  0
VERTEX
  5
164B
  8
0
 10
238.0
 20
-2.0
 30
-238.7320508075689
 70
   192
  0
VERTEX
  5
164C
  8
0
 10
238.7320508075689
 20
-0.9999999999999993
 30
-237.0
 70
   192
  0
VERTEX
  5
164D
  8
0
 10
238.0
 20
-0.2679491924311213
 30
-237.0
 70
   192
  0
VERTEX
  5
164E
  8
0
 10
239.0
 20
-2.0
 30
-237.0
 70
   192
  0
VERTEX
  5
164F
  8
0
 10
237.0
 20
-0.2679491924311213
 30
-238.0
 70
   192
  0
VERTEX
  5
1650
  8
0
 10
237.0
 20
0.0000000000000018
 30
-237.0
 70
   192
  0
VERTEX
  5
1651
  8
0
 10
237.0
 20
-0.9999999999999993
 30
-238.7320508075689
 70
   192
  0
VERTEX
  5
1652
  8
0
 10
0.0
 20
0.0
 30
0.0
 70
   128
 71
    -1
 72
     2
 73
     3
  0
VERTEX
  5
1653
  8
0
 10
0.0
 20
0.0
 30
0.0
 70
   128
 71
     4
 72
     1
 73
     5
  0
VERTEX
  5
1654
  8
0
 10
0.0
 20
0.0
 30
0.0
 70
   128
 71
     6
 72
    -2
 73
     1
  0
VERTEX
  5
1655
  8
0
 10
0.0
 20
0.0
 30
0.0
 70
   128
 71
     6
 72
     1
 73
     4
  0
VERTEX
  5
1656
  8
0
 10
0.0
 20
0.0
 30
0.0
 70
   128
 71
     7
 72
     8
 73
     5
  0
VERTEX
  5
1657
  8
0
 10
0.0
 20
0.0
 30
0.0
 70
   128
 71
     5
 72
     1
 73
     9
  0
VERTEX
  5
1658
  8
0
 10
0.0
 20
0.0
 30
0.0
 70
   128
 71
     5
 72
     9
 73
     7
  0
SEQEND
  5
174D
  8
0
  0
POLYLINE
  5
1659
  8
0
 66
     1
 10
0.0
 20
0.0
 30
0.0
 70
    64
 71
     8
 72
     6
  0
VERTEX
  5
165A
  8
0
 10
237.0
 20
-0.2621607728183357
 30
158.2790054515131
 70
   192
  0
VERTEX
  5
165B
  8
0
 10
-156.2892512857905
 20
-0.2621607728183357
 30
158.2790054515131
 70
   192
  0
VERTEX
  5
165C
  8
0
 10
-156.2892512857905
 20
-0.9799148204686405
 30
159.0093972767378
 70
   192
  0
VERTEX
  5
165D
  8
0
 10
237.0
 20
-0.9799148204686405
 30
159.0093972767378
 70
   192
  0
VERTEX
  5
165E
  8
0
 10
237.0
 20
0.0000000000000018
 30
157.289098980947
 70
   192
  0
VERTEX
  5
165F
  8
0
 10
-156.2892512857906
 20
0.0
 30
157.289098980947
 70
   192
  0
VERTEX
  5
1660
  8
0
 10
-156.2892512857905
 20
-1.965095187125419
 30
159.2887943712598
 70
   192
  0
VERTEX
  5
1661
  8
0
 10
237.0
 20
-1.965095187125435
 30
159.2887943712595
 70
   192
  0
VERTEX
  5
1662
  8
0
 10
0.0
 20
0.0
 30
0.0
 70
   128
 71
     1
 72
     2
 73
    -3
  0
VERTEX
  5
1663
  8
0
 10
0.0
 20
0.0
 30
0.0
 70
   128
 71
    -1
 72
     3
 73
     4
  0
VERTEX
  5
1664
  8
0
 10
0.0
 20
0.0
 30
0.0
 70
   128
 71
     5
 72
     6
 73
    -2
  0
VERTEX
  5
1665
  8
0
 10
0.0
 20
0.0
 30
0.0
 70
   128
 71
    -5
 72
     2
 73
     1
  0
VERTEX
  5
1666
  8
0
 10
0.0
 20
0.0
 30
0.0
 70
   128
 71
     4
 72
     3
 73
    -7
  0
VERTEX
  5
1667
  8
0
 10
0.0
 20
0.0
 30
0.0
 70
   128
 71
    -4
 72
     7
 73
     8
  0
SEQEND
  5
174E
  8
0
  0
POLYLINE
  5
1668
  8
0
 66
     1
 10
0.0
 20
0.0
 30
0.0
 70
    64
 71
     8
 72
     6
  0
VERTEX
  5
1669
  8
0
 10
238.7320508075689
 20
-0.9999999999999993
 30
157.289098980947
 70
   192
  0
VERTEX
  5
166A
  8
0
 10
238.7320508075689
 20
-0.9999999999999993
 30
-237.0
 70
   192
  0
VERTEX
  5
166B
  8
0
 10
238.0
 20
-0.2679491924311213
 30
-237.0
 70
   192
  0
VERTEX
  5
166C
  8
0
 10
238.0
 20
-0.2679491924311213
 30
157.289098980947
 70
   192
  0
VERTEX
  5
166D
  8
0
 10
239.0
 20
-2.0
 30
157.289098980947
 70
   192
  0
VERTEX
  5
166E
  8
0
 10
239.0
 20
-2.0
 30
-237.0
 70
   192
  0
VERTEX
  5
166F
  8
0
 10
237.0
 20
0.0000000000000018
 30
-237.0
 70
   192
  0
VERTEX
  5
1670
  8
0
 10
237.0
 20
0.0
 30
157.289098980947
 70
   192
  0
VERTEX
  5
1671
  8
0
 10
0.0
 20
0.0
 30
0.0
 70
   128
 71
     1
 72
     2
 73
    -3
  0
VERTEX
  5
1672
  8
0
 10
0.0
 20
0.0
 30
0.0
 70
   128
 71
    -1
 72
     3
 73
     4
  0
VERTEX
  5
1673
  8
0
 10
0.0
 20
0.0
 30
0.0
 70
   128
 71
     5
 72
     6
 73
    -2
  0
VERTEX
  5
1674
  8
0
 10
0.0
 20
0.0
 30
0.0
 70
   128
 71
    -5
 72
     2
 73
     1
  0
VERTEX
  5
1675
  8
0
 10
0.0
 20
0.0
 30
0.0
 70
   128
 71
     4
 72
     3
 73
    -7
  0
VERTEX
  5
1676
  8
0
 10
0.0
 20
0.0
 30
0.0
 70
   128
 71
    -4
 72
     7
 73
     8
  0
SEQEND
  5
174F
  8
0
  0
POLYLINE
  5
1677
  8
0
 66
     1
 10
0.0
 20
0.0
 30
0.0
 70
    64
 71
     9
 72
     7
  0
VERTEX
  5
1678
  8
0
 10
238.7320508075689
 20
-1.982547593562716
 30
158.2889466761034
 70
   192
  0
VERTEX
  5
1679
  8
0
 10
239.0
 20
-2.0
 30
157.289098980947
 70
   192
  0
VERTEX
  5
167A
  8
0
 10
238.7320508075689
 20
-0.9999999999999993
 30
157.289098980947
 70
   192
  0
VERTEX
  5
167B
  8
0
 10
238.0
 20
-1.969771545336283
 30
159.0208859887885
 70
   192
  0
VERTEX
  5
167C
  8
0
 10
238.0
 20
-0.2679491924311213
 30
157.289098980947
 70
   192
  0
VERTEX
  5
167D
  8
0
 10
237.0
 20
0.0000000000000018
 30
157.289098980947
 70
   192
  0
VERTEX
  5
167E
  8
0
 10
237.0
 20
-0.2621607728183357
 30
158.2790054515131
 70
   192
  0
VERTEX
  5
167F
  8
0
 10
237.0
 20
-0.9799148204686405
 30
159.0093972767378
 70
   192
  0
VERTEX
  5
1680
  8
0
 10
237.0
 20
-1.965095187125419
 30
159.2887943712598
 70
   192
  0
VERTEX
  5
1681
  8
0
 10
0.0
 20
0.0
 30
0.0
 70
   128
 71
     1
 72
     2
 73
     3
  0
VERTEX
  5
1682
  8
0
 10
0.0
 20
0.0
 30
0.0
 70
   128
 71
    -3
 72
     4
 73
     1
  0
VERTEX
  5
1683
  8
0
 10
0.0
 20
0.0
 30
0.0
 70
   128
 71
     5
 72
     6
 73
     7
  0
VERTEX
  5
1684
  8
0
 10
0.0
 20
0.0
 30
0.0
 70
   128
 71
    -4
 72
     3
 73
     5
  0
VERTEX
  5
1685
  8
0
 10
0.0
 20
0.0
 30
0.0
 70
   128
 71
     8
 72
     9
 73
     4
  0
VERTEX
  5
1686
  8
0
 10
0.0
 20
0.0
 30
0.0
 70
   128
 71
     8
 72
     4
 73
    -5
  0
VERTEX
  5
1687
  8
0
 10
0.0
 20
0.0
 30
0.0
 70
   128
 71
     5
 72
     7
 73
    -8
  0
SEQEND
  5
1750
  8
0
  0
POLYLINE
  5
1688
  8
0
 66
     1
 10
0.0
 20
0.0
 30
0.0
 70
    64
 71
    15
 72
    13
  0
VERTEX
  5
1689
  8
0
 10
-34.79536044053665
 20
-81.06500224479569
 30
-3.96227503498918
 70
   192
  0
VERTEX
  5
168A
  8
0
 10
-22.0
 20
-91.9991247258351
 30
-0.000000000000013
 70
   192
  0
VERTEX
  5
168B
  8
0
 10
-19.04890957466451
 20
-91.99781873127012
 30
-11.00676754081919
 70
   192
  0
VERTEX
  5
168C
  8
0
 10
-34.92583394506822
 20
-81.06469735042708
 30
-2.644124471396361
 70
   192
  0
VERTEX
  5
168D
  8
0
 10
-35.00500958613765
 20
-81.06439245605893
 30
-1.32264026649703
 70
   192
  0
VERTEX
  5
168E
  8
0
 10
-35.03186982552214
 20
-81.0640875616892
 30
-0.0000000000149238
 70
   192
  0
VERTEX
  5
168F
  8
0
 10
-11.00067446289442
 20
-91.99816958038008
 30
-19.05190613740064
 70
   192
  0
VERTEX
  5
1690
  8
0
 10
-0.0000000000048147
 20
-91.999124725835
 30
-22.0
 70
   192
  0
VERTEX
  5
1691
  8
0
 10
-22.56575614298811
 20
-81.08616459640774
 30
-26.80203394660306
 70
   192
  0
VERTEX
  5
1692
  8
0
 10
1.993939157843073
 20
-81.06428275917483
 30
-34.9715958509557
 70
   192
  0
VERTEX
  5
1693
  8
0
 10
11.01157344452127
 20
-91.9979630116967
 30
-19.04599851736385
 70
   192
  0
VERTEX
  5
1694
  8
0
 10
22.0
 20
-91.9991247258351
 30
0.0000000000000103
 70
   192
  0
VERTEX
  5
1695
  8
0
 10
35.03186982552209
 20
-81.0640875616892
 30
0.0000000000000104
 70
   192
  0
VERTEX
  5
1696
  8
0
 10
25.46274878785825
 20
-81.08672629619764
 30
-24.07174984861768
 70
   192
  0
VERTEX
  5
1697
  8
0
 10
19.04545671914616
 20
-91.99827432022964
 30
-11.01184626587446
 70
   192
  0
VERTEX
  5
1698
  8
0
 10
0.0
 20
0.0
 30
0.0
 70
   128
 71
     1
 72
     2
 73
     3
  0
VERTEX
  5
1699
  8
0
 10
0.0
 20
0.0
 30
0.0
 70
   128
 71
     1
 72
     4
 73
     2
  0
VERTEX
  5
169A
  8
0
 10
0.0
 20
0.0
 30
0.0
 70
   128
 71
     2
 72
     4
 73
     5
  0
VERTEX
  5
169B
  8
0
 10
0.0
 20
0.0
 30
0.0
 70
   128
 71
     5
 72
     6
 73
     2
  0
VERTEX
  5
169C
  8
0
 10
0.0
 20
0.0
 30
0.0
 70
   128
 71
     7
 72
     8
 73
     9
  0
VERTEX
  5
169D
  8
0
 10
0.0
 20
0.0
 30
0.0
 70
   128
 71
    10
 72
     8
 73
    11
  0
VERTEX
  5
169E
  8
0
 10
0.0
 20
0.0
 30
0.0
 70
   128
 71
    12
 72
    13
 73
    14
  0
VERTEX
  5
169F
  8
0
 10
0.0
 20
0.0
 30
0.0
 70
   128
 71
    15
 72
    12
 73
    14
  0
VERTEX
  5
16A0
  8
0
 10
0.0
 20
0.0
 30
0.0
 70
   128
 71
     7
 72
     9
 73
     3
  0
VERTEX
  5
16A1
  8
0
 10
0.0
 20
0.0
 30
0.0
 70
   128
 71
     9
 72
     1
 73
     3
  0
VERTEX
  5
16A2
  8
0
 10
0.0
 20
0.0
 30
0.0
 70
   128
 71
     8
 72
    10
 73
     9
  0
VERTEX
  5
16A3
  8
0
 10
0.0
 20
0.0
 30
0.0
 70
   128
 71
    15
 72
    14
 73
    11
  0
VERTEX
  5
16A4
  8
0
 10
0.0
 20
0.0
 30
0.0
 70
   128
 71
    14
 72
    10
 73
    11
  0
SEQEND
  5
1751
  8
0
  0
POLYLINE
  5
16A5
  8
0
 66
     1
 10
0.0
 20
0.0
 30
0.0
 70
    64
 71
    12
 72
    10
  0
VERTEX
  5
16A6
  8
0
 10
-0.0000000000048147
 20
-91.999124725835
 30
-22.0
 70
   192
  0
VERTEX
  5
16A7
  8
0
 10
0.0
 20
-102.0
 30
-22.0
 70
   192
  0
VERTEX
  5
16A8
  8
0
 10
15.55634918610405
 20
-102.0
 30
-15.55634918610405
 70
   192
  0
VERTEX
  5
16A9
  8
0
 10
11.01157344452127
 20
-91.9979630116967
 30
-19.04599851736385
 70
   192
  0
VERTEX
  5
16AA
  8
0
 10
22.0
 20
-102.0
 30
0.0
 70
   192
  0
VERTEX
  5
16AB
  8
0
 10
22.0
 20
-91.9991247258351
 30
0.0000000000000103
 70
   192
  0
VERTEX
  5
16AC
  8
0
 10
19.04545671914616
 20
-91.99827432022964
 30
-11.01184626587446
 70
   192
  0
VERTEX
  5
16AD
  8
0
 10
15.55634918610405
 20
-102.0
 30
15.55634918610405
 70
   192
  0
VERTEX
  5
16AE
  8
0
 10
19.05224738021465
 20
-91.99785565486188
 30
11.000762779769
 70
   192
  0
VERTEX
  5
16AF
  8
0
 10
0.0000000000000027
 20
-102.0
 30
22.0
 70
   192
  0
VERTEX
  5
16B0
  8
0
 10
0.0000000000000027
 20
-91.9991247258351
 30
22.0
 70
   192
  0
VERTEX
  5
16B1
  8
0
 10
11.00512596775094
 20
-91.99816544473069
 30
19.04940011569878
 70
   192
  0
VERTEX
  5
16B2
  8
0
 10
0.0
 20
0.0
 30
0.0
 70
   128
 71
     1
 72
     2
 73
     3
  0
VERTEX
  5
16B3
  8
0
 10
0.0
 20
0.0
 30
0.0
 70
   128
 71
     4
 72
     1
 73
     3
  0
VERTEX
  5
16B4
  8
0
 10
0.0
 20
0.0
 30
0.0
 70
   128
 71
     5
 72
     6
 73
     7
  0
VERTEX
  5
16B5
  8
0
 10
0.0
 20
0.0
 30
0.0
 70
   128
 71
     3
 72
     5
 73
     7
  0
VERTEX
  5
16B6
  8
0
 10
0.0
 20
0.0
 30
0.0
 70
   128
 71
     6
 72
     5
 73
     8
  0
VERTEX
  5
16B7
  8
0
 10
0.0
 20
0.0
 30
0.0
 70
   128
 71
     9
 72
     6
 73
     8
  0
VERTEX
  5
16B8
  8
0
 10
0.0
 20
0.0
 30
0.0
 70
   128
 71
    10
 72
    11
 73
    12
  0
VERTEX
  5
16B9
  8
0
 10
0.0
 20
0.0
 30
0.0
 70
   128
 71
     8
 72
    10
 73
    12
  0
VERTEX
  5
16BA
  8
0
 10
0.0
 20
0.0
 30
0.0
 70
   128
 71
     3
 72
     7
 73
     4
  0
VERTEX
  5
16BB
  8
0
 10
0.0
 20
0.0
 30
0.0
 70
   128
 71
     8
 72
    12
 73
     9
  0
SEQEND
  5
1752
  8
0
  0
POLYLINE
  5
16BC
  8
0
 66
     1
 10
0.0
 20
0.0
 30
0.0
 70
    64
 71
    19
 72
    17
  0
VERTEX
  5
16BD
  8
0
 10
-57.46911759424979
 20
-90.94085171284812
 30
-16.90685876403038
 70
   192
  0
VERTEX
  5
16BE
  8
0
 10
-60.86196549344893
 20
-89.363590562054
 30
-17.96403203482569
 70
   192
  0
VERTEX
  5
16BF
  8
0
 10
-34.49257310656611
 20
-89.95208725517085
 30
-53.59451236002933
 70
   192
  0
VERTEX
  5
16C0
  8
0
 10
-54.92202993881314
 20
-93.7534192638799
 30
-16.0591600110564
 70
   192
  0
VERTEX
  5
16C1
  8
0
 10
-42.05831703789814
 20
-98.25810222855
 30
-36.45697534586191
 70
   192
  0
VERTEX
  5
16C2
  8
0
 10
-53.6057402899712
 20
-97.3761234274665
 30
-15.5490805732505
 70
   192
  0
VERTEX
  5
16C3
  8
0
 10
54.92210820035376
 20
-93.75341085175037
 30
16.05889489000457
 70
   192
  0
VERTEX
  5
16C4
  8
0
 10
53.60581665958218
 20
-97.3761133912986
 30
15.54882363767035
 70
   192
  0
VERTEX
  5
16C5
  8
0
 10
62.2344657454946
 20
-89.21534986114521
 30
12.04981977649709
 70
   192
  0
VERTEX
  5
16C6
  8
0
 10
57.46919822092029
 20
-90.94084386805733
 30
16.90657949065744
 70
   192
  0
VERTEX
  5
16C7
  8
0
 10
60.862048986457
 20
-89.3635817164131
 30
17.96373490997915
 70
   192
  0
VERTEX
  5
16C8
  8
0
 10
63.0581151461795
 20
-89.12863475459353
 30
6.072928489233503
 70
   192
  0
VERTEX
  5
16C9
  8
0
 10
63.33762112398581
 20
-89.10305692496591
 30
-0.0000000000025271
 70
   192
  0
VERTEX
  5
16CA
  8
0
 10
9.05604790021127
 20
-89.16373537821391
 30
-62.71595446891958
 70
   192
  0
VERTEX
  5
16CB
  8
0
 10
32.24518347076857
 20
-98.13929672876495
 30
-45.39376228251819
 70
   192
  0
VERTEX
  5
16CC
  8
0
 10
-0.0000000000000054
 20
-97.0797075669256
 30
-55.8675803089267
 70
   192
  0
VERTEX
  5
16CD
  8
0
 10
48.21117664116056
 20
-90.13686390574433
 30
-41.82806946920491
 70
   192
  0
VERTEX
  5
16CE
  8
0
 10
52.80502113812871
 20
-97.47948994063181
 30
-18.02624167745542
 70
   192
  0
VERTEX
  5
16CF
  8
0
 10
-23.75903176704047
 20
-97.75099635559529
 30
-50.43297469084652
 70
   192
  0
VERTEX
  5
16D0
  8
0
 10
0.0
 20
0.0
 30
0.0
 70
   128
 71
     1
 72
     2
 73
     3
  0
VERTEX
  5
16D1
  8
0
 10
0.0
 20
0.0
 30
0.0
 70
   128
 71
     3
 72
     4
 73
     1
  0
VERTEX
  5
16D2
  8
0
 10
0.0
 20
0.0
 30
0.0
 70
   128
 71
     3
 72
     5
 73
     4
  0
VERTEX
  5
16D3
  8
0
 10
0.0
 20
0.0
 30
0.0
 70
   128
 71
     5
 72
     6
 73
     4
  0
VERTEX
  5
16D4
  8
0
 10
0.0
 20
0.0
 30
0.0
 70
   128
 71
     7
 72
     8
 73
     9
  0
VERTEX
  5
16D5
  8
0
 10
0.0
 20
0.0
 30
0.0
 70
   128
 71
     9
 72
    10
 73
     7
  0
VERTEX
  5
16D6
  8
0
 10
0.0
 20
0.0
 30
0.0
 70
   128
 71
     9
 72
    11
 73
    10
  0
VERTEX
  5
16D7
  8
0
 10
0.0
 20
0.0
 30
0.0
 70
   128
 71
     8
 72
    12
 73
     9
  0
VERTEX
  5
16D8
  8
0
 10
0.0
 20
0.0
 30
0.0
 70
   128
 71
     8
 72
    13
 73
    12
  0
VERTEX
  5
16D9
  8
0
 10
0.0
 20
0.0
 30
0.0
 70
   128
 71
    14
 72
    15
 73
    16
  0
VERTEX
  5
16DA
  8
0
 10
0.0
 20
0.0
 30
0.0
 70
   128
 71
    17
 72
    18
 73
    15
  0
VERTEX
  5
16DB
  8
0
 10
0.0
 20
0.0
 30
0.0
 70
   128
 71
    14
 72
    17
 73
    15
  0
VERTEX
  5
16DC
  8
0
 10
0.0
 20
0.0
 30
0.0
 70
   128
 71
     3
 72
    14
 73
    16
  0
VERTEX
  5
16DD
  8
0
 10
0.0
 20
0.0
 30
0.0
 70
   128
 71
     3
 72
    16
 73
    19
  0
VERTEX
  5
16DE
  8
0
 10
0.0
 20
0.0
 30
0.0
 70
   128
 71
     5
 72
     3
 73
    19
  0
VERTEX
  5
16DF
  8
0
 10
0.0
 20
0.0
 30
0.0
 70
   128
 71
    17
 72
    13
 73
     8
  0
VERTEX
  5
16E0
  8
0
 10
0.0
 20
0.0
 30
0.0
 70
   128
 71
    17
 72
     8
 73
    18
  0
SEQEND
  5
1753
  8
0
  0
ENDBLK
  5
16E2
  8
0
  0
ENDSEC
  0
SECTION
  2
ENTITIES
  0
INSERT
  5
BE
  8
0
  2
*X1
 10
0.0
 20
0.0
 30
0.0
  0
ENDSEC
  0
EOF
