  0
SECTION
  2
HEADER
  9
$ACADVER
  1
AC1009
  9
$DWGCODEPAGE
  3
ansi_1250
  9
$INSBASE
 10
0.0
 20
0.0
 30
0.0
  9
$EXTMIN
 10
-200.0
 20
-102.0
 30
-244.0
  9
$EXTMAX
 10
200.0
 20
0.0000000000000568
 30
156.0
  9
$LIMMIN
 10
0.0
 20
0.0
  9
$LIMMAX
 10
420.0
 20
297.0
  9
$ORTHOMODE
 70
     0
  9
$REGENMODE
 70
     1
  9
$FILLMODE
 70
     1
  9
$QTEXTMODE
 70
     0
  9
$MIRRTEXT
 70
     0
  9
$DRAGMODE
 70
     2
  9
$LTSCALE
 40
1.0
  9
$OSMODE
 70
   511
  9
$ATTMODE
 70
     1
  9
$TEXTSIZE
 40
2.5
  9
$TRACEWID
 40
1.0
  9
$TEXTSTYLE
  7
STANDARD
  9
$CLAYER
  8
0
  9
$CELTYPE
  6
BYLAYER
  9
$CECOLOR
 62
   256
  9
$DIMSCALE
 40
1.0
  9
$DIMASZ
 40
2.5
  9
$DIMEXO
 40
0.625
  9
$DIMDLI
 40
3.75
  9
$DIMRND
 40
0.0
  9
$DIMDLE
 40
0.0
  9
$DIMEXE
 40
1.25
  9
$DIMTP
 40
0.0
  9
$DIMTM
 40
0.0
  9
$DIMTXT
 40
2.5
  9
$DIMCEN
 40
-2.5
  9
$DIMTSZ
 40
0.0
  9
$DIMTOL
 70
     0
  9
$DIMLIM
 70
     0
  9
$DIMTIH
 70
     0
  9
$DIMTOH
 70
     0
  9
$DIMSE1
 70
     0
  9
$DIMSE2
 70
     0
  9
$DIMTAD
 70
     1
  9
$DIMZIN
 70
     8
  9
$DIMBLK
  1

  9
$DIMASO
 70
     1
  9
$DIMSHO
 70
     1
  9
$DIMPOST
  1

  9
$DIMAPOST
  1

  9
$DIMALT
 70
     0
  9
$DIMALTD
 70
     3
  9
$DIMALTF
 40
0.03937007874016
  9
$DIMLFAC
 40
1.0
  9
$DIMTOFL
 70
     1
  9
$DIMTVP
 40
0.0
  9
$DIMTIX
 70
     0
  9
$DIMSOXD
 70
     0
  9
$DIMSAH
 70
     0
  9
$DIMBLK1
  1

  9
$DIMBLK2
  1

  9
$DIMSTYLE
  2
ISO-25
  9
$DIMCLRD
 70
     0
  9
$DIMCLRE
 70
     0
  9
$DIMCLRT
 70
     0
  9
$DIMTFAC
 40
1.0
  9
$DIMGAP
 40
0.625
  9
$LUNITS
 70
     2
  9
$LUPREC
 70
     3
  9
$SKETCHINC
 40
1.0
  9
$FILLETRAD
 40
10.0
  9
$AUNITS
 70
     0
  9
$AUPREC
 70
     0
  9
$MENU
  1
.
  9
$ELEVATION
 40
0.0
  9
$PELEVATION
 40
0.0
  9
$THICKNESS
 40
0.0
  9
$LIMCHECK
 70
     0
  9
$CHAMFERA
 40
10.0
  9
$CHAMFERB
 40
10.0
  9
$SKPOLY
 70
     0
  9
$TDCREATE
 40
2455022.720692848
  9
$TDUPDATE
 40
2460413.564863635
  9
$TDINDWG
 40
0.0002214583
  9
$TDUSRTIMER
 40
0.0002214583
  9
$USRTIMER
 70
     1
  9
$ANGBASE
 50
0.0
  9
$ANGDIR
 70
     0
  9
$PDMODE
 70
     0
  9
$PDSIZE
 40
0.0
  9
$PLINEWID
 40
0.0
  9
$COORDS
 70
     1
  9
$SPLFRAME
 70
     0
  9
$SPLINETYPE
 70
     6
  9
$SPLINESEGS
 70
     8
  9
$ATTDIA
 70
     0
  9
$ATTREQ
 70
     1
  9
$HANDLING
 70
     1
  9
$HANDSEED
  5
199A
  9
$SURFTAB1
 70
     6
  9
$SURFTAB2
 70
     6
  9
$SURFTYPE
 70
     6
  9
$SURFU
 70
     6
  9
$SURFV
 70
     6
  9
$UCSNAME
  2

  9
$UCSORG
 10
0.0
 20
0.0
 30
0.0
  9
$UCSXDIR
 10
1.0
 20
0.0
 30
0.0
  9
$UCSYDIR
 10
0.0
 20
1.0
 30
0.0
  9
$PUCSNAME
  2

  9
$PUCSORG
 10
0.0
 20
0.0
 30
0.0
  9
$PUCSXDIR
 10
1.0
 20
0.0
 30
0.0
  9
$PUCSYDIR
 10
0.0
 20
1.0
 30
0.0
  9
$USERI1
 70
     0
  9
$USERI2
 70
     0
  9
$USERI3
 70
     0
  9
$USERI4
 70
     0
  9
$USERI5
 70
     0
  9
$USERR1
 40
0.0
  9
$USERR2
 40
0.0
  9
$USERR3
 40
0.0
  9
$USERR4
 40
0.0
  9
$USERR5
 40
0.0
  9
$WORLDVIEW
 70
     1
  9
$SHADEDGE
 70
     3
  9
$SHADEDIF
 70
    70
  9
$TILEMODE
 70
     1
  9
$MAXACTVP
 70
    64
  9
$PLIMCHECK
 70
     0
  9
$PEXTMIN
 10
1.000000000000000E+20
 20
1.000000000000000E+20
 30
1.000000000000000E+20
  9
$PEXTMAX
 10
-1.000000000000000E+20
 20
-1.000000000000000E+20
 30
-1.000000000000000E+20
  9
$PLIMMIN
 10
0.0
 20
0.0
  9
$PLIMMAX
 10
0.0
 20
0.0
  9
$UNITMODE
 70
     0
  9
$VISRETAIN
 70
     1
  9
$PLINEGEN
 70
     0
  9
$PSLTSCALE
 70
     1
  0
ENDSEC
  0
SECTION
  2
TABLES
  0
TABLE
  2
VPORT
 70
     1
  0
VPORT
  2
*ACTIVE
 70
     0
 10
0.0
 20
0.0
 11
1.0
 21
1.0
 12
0.0
 22
0.0
 13
0.0
 23
0.0
 14
10.0
 24
10.0
 15
10.0
 25
10.0
 16
0.0
 26
0.0
 36
1.0
 17
0.0
 27
-50.99999999999997
 37
0.0
 40
215.8260869565217
 41
1.89041095890411
 42
50.0
 43
0.0
 44
0.0
 50
0.0
 51
0.0
 71
    16
 72
  1000
 73
     1
 74
     3
 75
     0
 76
     0
 77
     0
 78
     0
  0
ENDTAB
  0
TABLE
  2
LTYPE
 70
     1
  0
LTYPE
  2
CONTINUOUS
 70
     0
  3
Solid line
 72
    65
 73
     0
 40
0.0
  0
ENDTAB
  0
TABLE
  2
LAYER
 70
     1
  0
LAYER
  2
0
 70
     0
 62
     7
  6
CONTINUOUS
  0
ENDTAB
  0
TABLE
  2
STYLE
 70
     2
  0
STYLE
  2
STANDARD
 70
     0
 40
0.0
 41
1.0
 50
0.0
 71
     0
 42
2.5
  3
arial.ttf
  4

  0
STYLE
  2
ANNOTATIVE
 70
     0
 40
0.0
 41
1.0
 50
0.0
 71
     0
 42
2.5
  3
arial.ttf
  4

  0
ENDTAB
  0
TABLE
  2
VIEW
 70
     0
  0
ENDTAB
  0
TABLE
  2
UCS
 70
     0
  0
ENDTAB
  0
TABLE
  2
APPID
 70
     2
  0
APPID
  2
ACAD
 70
     0
  0
APPID
  2
ACADANNOTATIVE
 70
     0
  0
ENDTAB
  0
TABLE
  2
DIMSTYLE
 70
     2
  0
DIMSTYLE
  2
ISO-25
 70
     0
  3

  4

  5

  6

  7

 40
1.0
 41
2.5
 42
0.625
 43
3.75
 44
1.25
 45
0.0
 46
0.0
 47
0.0
 48
0.0
140
2.5
141
-2.5
142
0.0
143
0.03937007874016
144
1.0
145
0.0
146
1.0
147
0.625
 71
     0
 72
     0
 73
     0
 74
     0
 75
     0
 76
     0
 77
     1
 78
     8
170
     0
171
     3
172
     1
173
     0
174
     0
175
     0
176
     0
177
     0
178
     0
  0
DIMSTYLE
  2
ANNOTATIVE
 70
     0
  3

  4

  5

  6

  7

 40
0.0
 41
2.5
 42
0.625
 43
3.75
 44
1.25
 45
0.0
 46
0.0
 47
0.0
 48
0.0
140
2.5
141
-2.5
142
0.0
143
0.03937007874016
144
1.0
145
0.0
146
1.0
147
0.625
 71
     0
 72
     0
 73
     0
 74
     0
 75
     0
 76
     0
 77
     1
 78
     8
170
     0
171
     3
172
     1
173
     0
174
     0
175
     0
176
     0
177
     0
178
     0
  0
ENDTAB
  0
ENDSEC
  0
SECTION
  2
BLOCKS
  0
BLOCK
  8
0
  2
$MODEL_SPACE
 70
     0
 10
0.0
 20
0.0
 30
0.0
  3
$MODEL_SPACE
  1

  0
ENDBLK
  5
21
  8
0
  0
BLOCK
 67
     1
  8
0
  2
$PAPER_SPACE
 70
     0
 10
0.0
 20
0.0
 30
0.0
  3
$PAPER_SPACE
  1

  0
ENDBLK
  5
1D
 67
     1
  8
0
  0
BLOCK
  8
0
  2
*X1
 70
     1
 10
0.0
 20
0.0
 30
0.0
  3
*X1
  1

  0
POLYLINE
  5
D34
  8
0
 66
     1
 10
0.0
 20
0.0
 30
0.0
 70
    64
 71
    15
 72
    13
  0
VERTEX
  5
D35
  8
0
 10
34.78968383823945
 20
-81.0690797377092
 30
3.968900654614265
 70
   192
  0
VERTEX
  5
D36
  8
0
 10
22.0
 20
-91.9991247258351
 30
0.0000000000000103
 70
   192
  0
VERTEX
  5
D37
  8
0
 10
19.05224636920654
 20
-91.99785567193464
 30
11.00076453073143
 70
   192
  0
VERTEX
  5
D38
  8
0
 10
34.92060734792155
 20
-81.06877528605098
 30
2.648553921894639
 70
   192
  0
VERTEX
  5
D39
  8
0
 10
35.00005661674649
 20
-81.06847083439271
 30
1.324857186247822
 70
   192
  0
VERTEX
  5
D3A
  8
0
 10
35.0270088758879
 20
-81.0681663827344
 30
0.0000000000000104
 70
   192
  0
VERTEX
  5
D3B
  8
0
 10
11.00555982671153
 20
-91.99786257328016
 30
19.04890724137301
 70
   192
  0
VERTEX
  5
D3C
  8
0
 10
0.0000000000014691
 20
-91.9991247258351
 30
22.0
 70
   192
  0
VERTEX
  5
D3D
  8
0
 10
22.56387665087157
 20
-81.08403026326748
 30
26.80709052377542
 70
   192
  0
VERTEX
  5
D3E
  8
0
 10
-10.99963623667255
 20
-91.99737655811512
 30
19.05290513645325
 70
   192
  0
VERTEX
  5
D3F
  8
0
 10
-2.02207326699079
 20
-81.0634721244492
 30
34.9708678547975
 70
   192
  0
VERTEX
  5
D40
  8
0
 10
-22.0
 20
-91.9991247258351
 30
0.0000000000000692
 70
   192
  0
VERTEX
  5
D41
  8
0
 10
-35.02700887588795
 20
-81.0681663827344
 30
-0.0000000000148648
 70
   192
  0
VERTEX
  5
D42
  8
0
 10
-25.48465943939183
 20
-81.08566052405719
 30
24.05035697634967
 70
   192
  0
VERTEX
  5
D43
  8
0
 10
-19.04138511751011
 20
-91.99834681194407
 30
11.01887587221511
 70
   192
  0
VERTEX
  5
D44
  8
0
 10
0.0
 20
0.0
 30
0.0
 70
   128
 71
     1
 72
     2
 73
     3
  0
VERTEX
  5
D45
  8
0
 10
0.0
 20
0.0
 30
0.0
 70
   128
 71
     1
 72
     4
 73
     2
  0
VERTEX
  5
D46
  8
0
 10
0.0
 20
0.0
 30
0.0
 70
   128
 71
     4
 72
     5
 73
     2
  0
VERTEX
  5
D47
  8
0
 10
0.0
 20
0.0
 30
0.0
 70
   128
 71
     5
 72
     6
 73
     2
  0
VERTEX
  5
D48
  8
0
 10
0.0
 20
0.0
 30
0.0
 70
   128
 71
     7
 72
     8
 73
     9
  0
VERTEX
  5
D49
  8
0
 10
0.0
 20
0.0
 30
0.0
 70
   128
 71
     8
 72
    10
 73
    11
  0
VERTEX
  5
D4A
  8
0
 10
0.0
 20
0.0
 30
0.0
 70
   128
 71
    12
 72
    13
 73
    14
  0
VERTEX
  5
D4B
  8
0
 10
0.0
 20
0.0
 30
0.0
 70
   128
 71
    15
 72
    12
 73
    14
  0
VERTEX
  5
D4C
  8
0
 10
0.0
 20
0.0
 30
0.0
 70
   128
 71
     9
 72
     1
 73
     3
  0
VERTEX
  5
D4D
  8
0
 10
0.0
 20
0.0
 30
0.0
 70
   128
 71
     7
 72
     9
 73
     3
  0
VERTEX
  5
D4E
  8
0
 10
0.0
 20
0.0
 30
0.0
 70
   128
 71
     8
 72
    11
 73
     9
  0
VERTEX
  5
D4F
  8
0
 10
0.0
 20
0.0
 30
0.0
 70
   128
 71
    14
 72
    11
 73
    10
  0
VERTEX
  5
D50
  8
0
 10
0.0
 20
0.0
 30
0.0
 70
   128
 71
    15
 72
    14
 73
    10
  0
SEQEND
  5
1921
  8
0
  0
POLYLINE
  5
D51
  8
0
 66
     1
 10
0.0
 20
0.0
 30
0.0
 70
    64
 71
    44
 72
    45
  0
VERTEX
  5
D52
  8
0
 10
103.8260639186462
 20
-78.71897555574365
 30
-0.0000000000048244
 70
   192
  0
VERTEX
  5
D53
  8
0
 10
140.8086405376224
 20
-60.24310162619925
 30
-0.0000000000056411
 70
   192
  0
VERTEX
  5
D54
  8
0
 10
106.3454757400738
 20
-64.17571221717586
 30
95.28007707219214
 70
   192
  0
VERTEX
  5
D55
  8
0
 10
63.43204526886483
 20
-89.92445515544772
 30
6.89797690131718
 70
   192
  0
VERTEX
  5
D56
  8
0
 10
63.79540072148361
 20
-89.89995406163641
 30
-0.0000000000020823
 70
   192
  0
VERTEX
  5
D57
  8
0
 10
62.35625699316825
 20
-90.00292009669029
 30
13.68124325711161
 70
   192
  0
VERTEX
  5
D58
  8
0
 10
60.5339256646138
 20
-90.12468674321619
 30
20.4339657229986
 70
   192
  0
VERTEX
  5
D59
  8
0
 10
161.717487586284
 20
-16.98529762712424
 30
128.8325770610703
 70
   192
  0
VERTEX
  5
D5A
  8
0
 10
158.339789432555
 20
-18.7683176475764
 30
129.284352080761
 70
   192
  0
VERTEX
  5
D5B
  8
0
 10
173.4548516331515
 20
-18.5647668727879
 30
114.599432052334
 70
   192
  0
VERTEX
  5
D5C
  8
0
 10
168.8563527190964
 20
-14.95473474761794
 30
125.2337151923538
 70
   192
  0
VERTEX
  5
D5D
  8
0
 10
168.354020778526
 20
-14.96241016927952
 30
125.695032577116
 70
   192
  0
VERTEX
  5
D5E
  8
0
 10
165.1732749866419
 20
-15.62619068685318
 30
127.6744852182843
 70
   192
  0
VERTEX
  5
D5F
  8
0
 10
169.3509572243077
 20
-14.94741678443453
 30
124.7686440261519
 70
   192
  0
VERTEX
  5
D60
  8
0
 10
173.0437263695572
 20
-16.88226432345606
 30
117.9271993268999
 70
   192
  0
VERTEX
  5
D61
  8
0
 10
171.9054463822889
 20
-15.56687698662383
 30
121.2593673473025
 70
   192
  0
VERTEX
  5
D62
  8
0
 10
169.8378338505255
 20
-14.94041907528402
 30
124.2998496280484
 70
   192
  0
VERTEX
  5
D63
  8
0
 10
173.6636017598587
 20
-31.05474408691552
 30
77.84807280019427
 70
   192
  0
VERTEX
  5
D64
  8
0
 10
173.7218861683767
 20
-34.41832632235224
 30
39.22821295251651
 70
   192
  0
VERTEX
  5
D65
  8
0
 10
173.7277218292385
 20
-35.0080126716173
 30
-0.0000000000036976
 70
   192
  0
VERTEX
  5
D66
  8
0
 10
0.0000000001328381
 20
-62.61096947185636
 30
115.1997106490761
 70
   192
  0
VERTEX
  5
D67
  8
0
 10
81.70673673122657
 20
-43.78912357621484
 30
129.8771814183452
 70
   192
  0
VERTEX
  5
D68
  8
0
 10
0.3893806589846416
 20
-48.38860415191712
 30
130.0236984805744
 70
   192
  0
VERTEX
  5
D69
  8
0
 10
-169.3509630952379
 20
-14.94741778894789
 30
124.7686434653351
 70
   192
  0
VERTEX
  5
D6A
  8
0
 10
-169.837839764209
 20
-14.94042008306216
 30
124.2998509108506
 70
   192
  0
VERTEX
  5
D6B
  8
0
 10
-171.9023535418848
 20
-15.56558210269798
 30
121.264729076384
 70
   192
  0
VERTEX
  5
D6C
  8
0
 10
-173.0414203801888
 20
-16.87711203130871
 30
117.9382650743719
 70
   192
  0
VERTEX
  5
D6D
  8
0
 10
-168.8563591647412
 20
-14.95473573355585
 30
125.2337123656304
 70
   192
  0
VERTEX
  5
D6E
  8
0
 10
-161.7235120988863
 20
-16.98253671322785
 30
128.8311630699089
 70
   192
  0
VERTEX
  5
D6F
  8
0
 10
-165.1761828280881
 20
-15.62526447924919
 30
127.6731647441264
 70
   192
  0
VERTEX
  5
D70
  8
0
 10
-168.3540284285215
 20
-14.96241111328424
 30
125.6950270670916
 70
   192
  0
VERTEX
  5
D71
  8
0
 10
-173.454861494907
 20
-18.56476702451875
 30
114.5994803352164
 70
   192
  0
VERTEX
  5
D72
  8
0
 10
-158.339776632009
 20
-18.76831909583915
 30
129.284347363807
 70
   192
  0
VERTEX
  5
D73
  8
0
 10
-173.7218682536986
 20
-34.41847759797537
 30
39.22881442045659
 70
   192
  0
VERTEX
  5
D74
  8
0
 10
-173.7277218292385
 20
-35.0080126716182
 30
0.000000000000357
 70
   192
  0
VERTEX
  5
D75
  8
0
 10
-140.8086405498099
 20
-60.24310163021184
 30
0.0000000000004808
 70
   192
  0
VERTEX
  5
D76
  8
0
 10
-173.6636306793456
 20
-31.05471640389423
 30
77.84851433499054
 70
   192
  0
VERTEX
  5
D77
  8
0
 10
-106.3454665659334
 20
-64.17570988114794
 30
95.28007492392501
 70
   192
  0
VERTEX
  5
D78
  8
0
 10
-103.8260638642513
 20
-78.71897560053313
 30
0.0000000000003177
 70
   192
  0
VERTEX
  5
D79
  8
0
 10
-63.79540072148361
 20
-89.89995406163641
 30
0.0000000000002741
 70
   192
  0
VERTEX
  5
D7A
  8
0
 10
-48.8508743492879
 20
-90.37518927460155
 30
41.30251016417665
 70
   192
  0
VERTEX
  5
D7B
  8
0
 10
-10.36662800332762
 20
-89.04561317440191
 30
62.44570062104238
 70
   192
  0
VERTEX
  5
D7C
  8
0
 10
32.9293493452955
 20
-89.82526374795793
 30
54.49944838783874
 70
   192
  0
VERTEX
  5
D7D
  8
0
 10
-80.85131665111939
 20
-43.89458701034898
 30
129.8793866291132
 70
   192
  0
VERTEX
  5
D7E
  8
0
 10
0.0
 20
0.0
 30
0.0
 70
   128
 71
     1
 72
     2
 73
     3
  0
VERTEX
  5
D7F
  8
0
 10
0.0
 20
0.0
 30
0.0
 70
   128
 71
     3
 72
     4
 73
     5
  0
VERTEX
  5
D80
  8
0
 10
0.0
 20
0.0
 30
0.0
 70
   128
 71
     3
 72
     5
 73
     1
  0
VERTEX
  5
D81
  8
0
 10
0.0
 20
0.0
 30
0.0
 70
   128
 71
     3
 72
     6
 73
     4
  0
VERTEX
  5
D82
  8
0
 10
0.0
 20
0.0
 30
0.0
 70
   128
 71
     3
 72
     7
 73
     6
  0
VERTEX
  5
D83
  8
0
 10
0.0
 20
0.0
 30
0.0
 70
   128
 71
     8
 72
     9
 73
    10
  0
VERTEX
  5
D84
  8
0
 10
0.0
 20
0.0
 30
0.0
 70
   128
 71
     8
 72
    10
 73
    11
  0
VERTEX
  5
D85
  8
0
 10
0.0
 20
0.0
 30
0.0
 70
   128
 71
    11
 72
    12
 73
    13
  0
VERTEX
  5
D86
  8
0
 10
0.0
 20
0.0
 30
0.0
 70
   128
 71
    11
 72
    13
 73
     8
  0
VERTEX
  5
D87
  8
0
 10
0.0
 20
0.0
 30
0.0
 70
   128
 71
    10
 72
    14
 73
    11
  0
VERTEX
  5
D88
  8
0
 10
0.0
 20
0.0
 30
0.0
 70
   128
 71
    10
 72
    15
 73
    16
  0
VERTEX
  5
D89
  8
0
 10
0.0
 20
0.0
 30
0.0
 70
   128
 71
    10
 72
    16
 73
    17
  0
VERTEX
  5
D8A
  8
0
 10
0.0
 20
0.0
 30
0.0
 70
   128
 71
    10
 72
    17
 73
    14
  0
VERTEX
  5
D8B
  8
0
 10
0.0
 20
0.0
 30
0.0
 70
   128
 71
     9
 72
    18
 73
    10
  0
VERTEX
  5
D8C
  8
0
 10
0.0
 20
0.0
 30
0.0
 70
   128
 71
     2
 72
    19
 73
    18
  0
VERTEX
  5
D8D
  8
0
 10
0.0
 20
0.0
 30
0.0
 70
   128
 71
     2
 72
    20
 73
    19
  0
VERTEX
  5
D8E
  8
0
 10
0.0
 20
0.0
 30
0.0
 70
   128
 71
    21
 72
     3
 73
    22
  0
VERTEX
  5
D8F
  8
0
 10
0.0
 20
0.0
 30
0.0
 70
   128
 71
    21
 72
    22
 73
    23
  0
VERTEX
  5
D90
  8
0
 10
0.0
 20
0.0
 30
0.0
 70
   128
 71
    24
 72
    25
 73
    26
  0
VERTEX
  5
D91
  8
0
 10
0.0
 20
0.0
 30
0.0
 70
   128
 71
    24
 72
    26
 73
    27
  0
VERTEX
  5
D92
  8
0
 10
0.0
 20
0.0
 30
0.0
 70
   128
 71
    27
 72
    28
 73
    24
  0
VERTEX
  5
D93
  8
0
 10
0.0
 20
0.0
 30
0.0
 70
   128
 71
    27
 72
    29
 73
    30
  0
VERTEX
  5
D94
  8
0
 10
0.0
 20
0.0
 30
0.0
 70
   128
 71
    27
 72
    30
 73
    31
  0
VERTEX
  5
D95
  8
0
 10
0.0
 20
0.0
 30
0.0
 70
   128
 71
    27
 72
    31
 73
    28
  0
VERTEX
  5
D96
  8
0
 10
0.0
 20
0.0
 30
0.0
 70
   128
 71
    27
 72
    32
 73
    33
  0
VERTEX
  5
D97
  8
0
 10
0.0
 20
0.0
 30
0.0
 70
   128
 71
    27
 72
    33
 73
    29
  0
VERTEX
  5
D98
  8
0
 10
0.0
 20
0.0
 30
0.0
 70
   128
 71
    34
 72
    35
 73
    36
  0
VERTEX
  5
D99
  8
0
 10
0.0
 20
0.0
 30
0.0
 70
   128
 71
    36
 72
    37
 73
    34
  0
VERTEX
  5
D9A
  8
0
 10
0.0
 20
0.0
 30
0.0
 70
   128
 71
    37
 72
    36
 73
    38
  0
VERTEX
  5
D9B
  8
0
 10
0.0
 20
0.0
 30
0.0
 70
   128
 71
    39
 72
    40
 73
    41
  0
VERTEX
  5
D9C
  8
0
 10
0.0
 20
0.0
 30
0.0
 70
   128
 71
    38
 72
    36
 73
    39
  0
VERTEX
  5
D9D
  8
0
 10
0.0
 20
0.0
 30
0.0
 70
   128
 71
    22
 72
     3
 73
     2
  0
VERTEX
  5
D9E
  8
0
 10
0.0
 20
0.0
 30
0.0
 70
   128
 71
    22
 72
     2
 73
    18
  0
VERTEX
  5
D9F
  8
0
 10
0.0
 20
0.0
 30
0.0
 70
   128
 71
    22
 72
    18
 73
     9
  0
VERTEX
  5
DA0
  8
0
 10
0.0
 20
0.0
 30
0.0
 70
   128
 71
    42
 72
    43
 73
     7
  0
VERTEX
  5
DA1
  8
0
 10
0.0
 20
0.0
 30
0.0
 70
   128
 71
    42
 72
     7
 73
     3
  0
VERTEX
  5
DA2
  8
0
 10
0.0
 20
0.0
 30
0.0
 70
   128
 71
    42
 72
     3
 73
    21
  0
VERTEX
  5
DA3
  8
0
 10
0.0
 20
0.0
 30
0.0
 70
   128
 71
    44
 72
    38
 73
    21
  0
VERTEX
  5
DA4
  8
0
 10
0.0
 20
0.0
 30
0.0
 70
   128
 71
    44
 72
    21
 73
    23
  0
VERTEX
  5
DA5
  8
0
 10
0.0
 20
0.0
 30
0.0
 70
   128
 71
    33
 72
    32
 73
    37
  0
VERTEX
  5
DA6
  8
0
 10
0.0
 20
0.0
 30
0.0
 70
   128
 71
    33
 72
    37
 73
    38
  0
VERTEX
  5
DA7
  8
0
 10
0.0
 20
0.0
 30
0.0
 70
   128
 71
    33
 72
    38
 73
    44
  0
VERTEX
  5
DA8
  8
0
 10
0.0
 20
0.0
 30
0.0
 70
   128
 71
    39
 72
    41
 73
    42
  0
VERTEX
  5
DA9
  8
0
 10
0.0
 20
0.0
 30
0.0
 70
   128
 71
    39
 72
    42
 73
    21
  0
VERTEX
  5
DAA
  8
0
 10
0.0
 20
0.0
 30
0.0
 70
   128
 71
    39
 72
    21
 73
    38
  0
SEQEND
  5
1922
  8
0
  0
POLYLINE
  5
DAB
  8
0
 66
     1
 10
0.0
 20
0.0
 30
0.0
 70
    64
 71
    29
 72
    32
  0
VERTEX
  5
DAC
  8
0
 10
-94.7002853907602
 20
-68.24635860771053
 30
0.0000000000000465
 70
   192
  0
VERTEX
  5
DAD
  8
0
 10
-37.9392371413753
 20
-79.90749977900309
 30
-0.000000000000011
 70
   192
  0
VERTEX
  5
DAE
  8
0
 10
-37.90805830712453
 20
-79.90758894724871
 30
-1.502926578550896
 70
   192
  0
VERTEX
  5
DAF
  8
0
 10
-186.608348311211
 20
-1.12413727966232
 30
-51.944877094465
 70
   192
  0
VERTEX
  5
DB0
  8
0
 10
-186.9331351625806
 20
-1.144591200337999
 30
-35.38139500352076
 70
   192
  0
VERTEX
  5
DB1
  8
0
 10
-117.7268952447621
 20
-56.55957000787564
 30
-50.04939997090126
 70
   192
  0
VERTEX
  5
DB2
  8
0
 10
-145.4551976565836
 20
-41.45301879227276
 30
0.000000000000059
 70
   192
  0
VERTEX
  5
DB3
  8
0
 10
-187.0495486661811
 20
-1.157066521711901
 30
-17.6205322131153
 70
   192
  0
VERTEX
  5
DB4
  8
0
 10
-187.1058587979395
 20
-1.161291877004018
 30
0.0000000000000029
 70
   192
  0
VERTEX
  5
DB5
  8
0
 10
-97.29481641524094
 20
-56.41412780757562
 30
-85.59674595033569
 70
   192
  0
VERTEX
  5
DB6
  8
0
 10
-0.0000000000091522
 20
-56.20257551622996
 30
-102.2996528994242
 70
   192
  0
VERTEX
  5
DB7
  8
0
 10
-109.3941326946587
 20
-1.661116113843334
 30
-140.1865512720824
 70
   192
  0
VERTEX
  5
DB8
  8
0
 10
25.28085022151483
 20
-1.921271046863148
 30
-143.0384037267758
 70
   192
  0
VERTEX
  5
DB9
  8
0
 10
97.29481674263744
 20
-56.41412780757526
 30
-85.59673350906901
 70
   192
  0
VERTEX
  5
DBA
  8
0
 10
92.59637854438091
 20
-1.752389030787026
 30
-141.4822814955156
 70
   192
  0
VERTEX
  5
DBB
  8
0
 10
117.7269242004805
 20
-56.55957000787531
 30
-50.04941502825624
 70
   192
  0
VERTEX
  5
DBC
  8
0
 10
37.9392371413752
 20
-79.90749977900309
 30
-0.0000000000000484
 70
   192
  0
VERTEX
  5
DBD
  8
0
 10
94.70028539075906
 20
-68.24635860771058
 30
-0.0000000000039709
 70
   192
  0
VERTEX
  5
DBE
  8
0
 10
27.62541485498472
 20
-79.92214770913849
 30
-26.09987611228453
 70
   192
  0
VERTEX
  5
DBF
  8
0
 10
145.4551976565824
 20
-41.45301879227259
 30
-0.0000000000045155
 70
   192
  0
VERTEX
  5
DC0
  8
0
 10
187.1058587979395
 20
-1.161291877003957
 30
-0.0000000000000076
 70
   192
  0
VERTEX
  5
DC1
  8
0
 10
185.7574860333828
 20
-1.093369755378909
 30
-67.95434748616626
 70
   192
  0
VERTEX
  5
DC2
  8
0
 10
157.9282743264621
 20
-1.155354421934561
 30
-126.9648800450243
 70
   192
  0
VERTEX
  5
DC3
  8
0
 10
179.1855293976835
 20
-1.000244222388325
 30
-101.2008612323359
 70
   192
  0
VERTEX
  5
DC4
  8
0
 10
-37.8202224734131
 20
-79.90785006335368
 30
-2.941892409570674
 70
   192
  0
VERTEX
  5
DC5
  8
0
 10
-37.684280643224
 20
-79.9082735444053
 30
-4.313553624051564
 70
   192
  0
VERTEX
  5
DC6
  8
0
 10
-24.4660737770549
 20
-79.92083659594606
 30
-29.07152040707278
 70
   192
  0
VERTEX
  5
DC7
  8
0
 10
-170.552027324468
 20
-1.014350858560616
 30
-116.1859152812971
 70
   192
  0
VERTEX
  5
DC8
  8
0
 10
2.173732477308203
 20
-79.9044619535612
 30
-37.8532266025728
 70
   192
  0
VERTEX
  5
DC9
  8
0
 10
0.0
 20
0.0
 30
0.0
 70
   128
 71
     1
 72
     2
 73
     3
  0
VERTEX
  5
DCA
  8
0
 10
0.0
 20
0.0
 30
0.0
 70
   128
 71
     4
 72
     5
 73
     6
  0
VERTEX
  5
DCB
  8
0
 10
0.0
 20
0.0
 30
0.0
 70
   128
 71
     7
 72
     5
 73
     8
  0
VERTEX
  5
DCC
  8
0
 10
0.0
 20
0.0
 30
0.0
 70
   128
 71
     8
 72
     9
 73
     7
  0
VERTEX
  5
DCD
  8
0
 10
0.0
 20
0.0
 30
0.0
 70
   128
 71
    10
 72
    11
 73
    12
  0
VERTEX
  5
DCE
  8
0
 10
0.0
 20
0.0
 30
0.0
 70
   128
 71
    13
 72
    11
 73
    14
  0
VERTEX
  5
DCF
  8
0
 10
0.0
 20
0.0
 30
0.0
 70
   128
 71
    15
 72
    13
 73
    14
  0
VERTEX
  5
DD0
  8
0
 10
0.0
 20
0.0
 30
0.0
 70
   128
 71
    16
 72
    17
 73
    18
  0
VERTEX
  5
DD1
  8
0
 10
0.0
 20
0.0
 30
0.0
 70
   128
 71
    14
 72
    19
 73
    17
  0
VERTEX
  5
DD2
  8
0
 10
0.0
 20
0.0
 30
0.0
 70
   128
 71
    16
 72
    14
 73
    17
  0
VERTEX
  5
DD3
  8
0
 10
0.0
 20
0.0
 30
0.0
 70
   128
 71
    20
 72
    21
 73
    22
  0
VERTEX
  5
DD4
  8
0
 10
0.0
 20
0.0
 30
0.0
 70
   128
 71
    16
 72
    20
 73
    22
  0
VERTEX
  5
DD5
  8
0
 10
0.0
 20
0.0
 30
0.0
 70
   128
 71
    23
 72
    14
 73
    16
  0
VERTEX
  5
DD6
  8
0
 10
0.0
 20
0.0
 30
0.0
 70
   128
 71
    24
 72
    23
 73
    16
  0
VERTEX
  5
DD7
  8
0
 10
0.0
 20
0.0
 30
0.0
 70
   128
 71
    25
 72
     7
 73
     1
  0
VERTEX
  5
DD8
  8
0
 10
0.0
 20
0.0
 30
0.0
 70
   128
 71
     1
 72
     3
 73
    25
  0
VERTEX
  5
DD9
  8
0
 10
0.0
 20
0.0
 30
0.0
 70
   128
 71
     6
 72
     5
 73
     7
  0
VERTEX
  5
DDA
  8
0
 10
0.0
 20
0.0
 30
0.0
 70
   128
 71
    26
 72
     6
 73
     7
  0
VERTEX
  5
DDB
  8
0
 10
0.0
 20
0.0
 30
0.0
 70
   128
 71
    25
 72
    26
 73
     7
  0
VERTEX
  5
DDC
  8
0
 10
0.0
 20
0.0
 30
0.0
 70
   128
 71
    20
 72
    16
 73
    18
  0
VERTEX
  5
DDD
  8
0
 10
0.0
 20
0.0
 30
0.0
 70
   128
 71
     6
 72
    26
 73
    27
  0
VERTEX
  5
DDE
  8
0
 10
0.0
 20
0.0
 30
0.0
 70
   128
 71
    10
 72
     6
 73
    27
  0
VERTEX
  5
DDF
  8
0
 10
0.0
 20
0.0
 30
0.0
 70
   128
 71
     6
 72
    10
 73
    28
  0
VERTEX
  5
DE0
  8
0
 10
0.0
 20
0.0
 30
0.0
 70
   128
 71
     4
 72
     6
 73
    28
  0
VERTEX
  5
DE1
  8
0
 10
0.0
 20
0.0
 30
0.0
 70
   128
 71
    28
 72
    10
 73
    12
  0
VERTEX
  5
DE2
  8
0
 10
0.0
 20
0.0
 30
0.0
 70
   128
 71
    10
 72
    27
 73
    29
  0
VERTEX
  5
DE3
  8
0
 10
0.0
 20
0.0
 30
0.0
 70
   128
 71
    11
 72
    10
 73
    29
  0
VERTEX
  5
DE4
  8
0
 10
0.0
 20
0.0
 30
0.0
 70
   128
 71
    12
 72
    11
 73
    13
  0
VERTEX
  5
DE5
  8
0
 10
0.0
 20
0.0
 30
0.0
 70
   128
 71
    11
 72
    29
 73
    19
  0
VERTEX
  5
DE6
  8
0
 10
0.0
 20
0.0
 30
0.0
 70
   128
 71
    14
 72
    11
 73
    19
  0
VERTEX
  5
DE7
  8
0
 10
0.0
 20
0.0
 30
0.0
 70
   128
 71
    15
 72
    14
 73
    23
  0
VERTEX
  5
DE8
  8
0
 10
0.0
 20
0.0
 30
0.0
 70
   128
 71
    24
 72
    16
 73
    22
  0
SEQEND
  5
1923
  8
0
  0
POLYLINE
  5
DE9
  8
0
 66
     1
 10
0.0
 20
0.0
 30
0.0
 70
    64
 71
    19
 72
    17
  0
VERTEX
  5
DEA
  8
0
 10
56.93456807514156
 20
-91.59398429646835
 30
19.18518028883337
 70
   192
  0
VERTEX
  5
DEB
  8
0
 10
60.53392566461382
 20
-90.12468674321622
 30
20.43396572299857
 70
   192
  0
VERTEX
  5
DEC
  8
0
 10
32.9293493452955
 20
-89.82526374795793
 30
54.49944838783874
 70
   192
  0
VERTEX
  5
DED
  8
0
 10
54.20171857726326
 20
-94.46334203778106
 30
18.19928212381707
 70
   192
  0
VERTEX
  5
DEE
  8
0
 10
41.07840513210145
 20
-98.4995726158411
 30
37.49452953466806
 70
   192
  0
VERTEX
  5
DEF
  8
0
 10
52.79104362590309
 20
-98.2543325708019
 30
17.64065668793125
 70
   192
  0
VERTEX
  5
DF0
  8
0
 10
-54.21107273147587
 20
-94.4627645362812
 30
-18.17155767749148
 70
   192
  0
VERTEX
  5
DF1
  8
0
 10
-52.80016881955103
 20
-98.25364993688629
 30
-17.61370567131647
 70
   192
  0
VERTEX
  5
DF2
  8
0
 10
-62.37045078294027
 20
-90.00192679289503
 30
-13.61301642364271
 70
   192
  0
VERTEX
  5
DF3
  8
0
 10
-56.94429837947968
 20
-91.59343831797177
 30
-19.1559892088919
 70
   192
  0
VERTEX
  5
DF4
  8
0
 10
-60.5441443215523
 20
-90.12406431044299
 30
-20.40286933518355
 70
   192
  0
VERTEX
  5
DF5
  8
0
 10
-63.43876712455235
 20
-89.92394138464579
 30
-6.836867086222107
 70
   192
  0
VERTEX
  5
DF6
  8
0
 10
-53.44258638116416
 20
-98.20443178804715
 30
15.58731638620554
 70
   192
  0
VERTEX
  5
DF7
  8
0
 10
-63.79540072148361
 20
-89.89995406163641
 30
0.0000000000002741
 70
   192
  0
VERTEX
  5
DF8
  8
0
 10
-10.36662800332762
 20
-89.04561317440191
 30
62.44570062104238
 70
   192
  0
VERTEX
  5
DF9
  8
0
 10
-32.89062001886802
 20
-98.15286510753977
 30
44.92535137740534
 70
   192
  0
VERTEX
  5
DFA
  8
0
 10
0.0000000000000031
 20
-96.92253411614631
 30
55.89529422895021
 70
   192
  0
VERTEX
  5
DFB
  8
0
 10
22.03685668351702
 20
-97.52342451309319
 30
51.25272096815827
 70
   192
  0
VERTEX
  5
DFC
  8
0
 10
-48.8508743492879
 20
-90.37518927460155
 30
41.30251016417665
 70
   192
  0
VERTEX
  5
DFD
  8
0
 10
0.0
 20
0.0
 30
0.0
 70
   128
 71
     1
 72
     2
 73
     3
  0
VERTEX
  5
DFE
  8
0
 10
0.0
 20
0.0
 30
0.0
 70
   128
 71
     3
 72
     4
 73
     1
  0
VERTEX
  5
DFF
  8
0
 10
0.0
 20
0.0
 30
0.0
 70
   128
 71
     3
 72
     5
 73
     4
  0
VERTEX
  5
E00
  8
0
 10
0.0
 20
0.0
 30
0.0
 70
   128
 71
     5
 72
     6
 73
     4
  0
VERTEX
  5
E01
  8
0
 10
0.0
 20
0.0
 30
0.0
 70
   128
 71
     7
 72
     8
 73
     9
  0
VERTEX
  5
E02
  8
0
 10
0.0
 20
0.0
 30
0.0
 70
   128
 71
     9
 72
    10
 73
     7
  0
VERTEX
  5
E03
  8
0
 10
0.0
 20
0.0
 30
0.0
 70
   128
 71
     9
 72
    11
 73
    10
  0
VERTEX
  5
E04
  8
0
 10
0.0
 20
0.0
 30
0.0
 70
   128
 71
     8
 72
    12
 73
     9
  0
VERTEX
  5
E05
  8
0
 10
0.0
 20
0.0
 30
0.0
 70
   128
 71
     8
 72
    13
 73
    14
  0
VERTEX
  5
E06
  8
0
 10
0.0
 20
0.0
 30
0.0
 70
   128
 71
     8
 72
    14
 73
    12
  0
VERTEX
  5
E07
  8
0
 10
0.0
 20
0.0
 30
0.0
 70
   128
 71
    15
 72
    16
 73
    17
  0
VERTEX
  5
E08
  8
0
 10
0.0
 20
0.0
 30
0.0
 70
   128
 71
     3
 72
    18
 73
     5
  0
VERTEX
  5
E09
  8
0
 10
0.0
 20
0.0
 30
0.0
 70
   128
 71
    19
 72
    13
 73
    16
  0
VERTEX
  5
E0A
  8
0
 10
0.0
 20
0.0
 30
0.0
 70
   128
 71
     3
 72
    15
 73
    17
  0
VERTEX
  5
E0B
  8
0
 10
0.0
 20
0.0
 30
0.0
 70
   128
 71
     3
 72
    17
 73
    18
  0
VERTEX
  5
E0C
  8
0
 10
0.0
 20
0.0
 30
0.0
 70
   128
 71
    15
 72
    19
 73
    16
  0
VERTEX
  5
E0D
  8
0
 10
0.0
 20
0.0
 30
0.0
 70
   128
 71
    19
 72
    14
 73
    13
  0
SEQEND
  5
1924
  8
0
  0
POLYLINE
  5
E0E
  8
0
 66
     1
 10
0.0
 20
0.0
 30
0.0
 70
    64
 71
    12
 72
    10
  0
VERTEX
  5
E0F
  8
0
 10
0.0000000000014691
 20
-91.9991247258351
 30
22.0
 70
   192
  0
VERTEX
  5
E10
  8
0
 10
0.0000000000000027
 20
-102.0
 30
22.0
 70
   192
  0
VERTEX
  5
E11
  8
0
 10
-15.55634918610404
 20
-102.0
 30
15.55634918610405
 70
   192
  0
VERTEX
  5
E12
  8
0
 10
-10.99963623667255
 20
-91.99737655811512
 30
19.05290513645325
 70
   192
  0
VERTEX
  5
E13
  8
0
 10
-22.0
 20
-102.0
 30
0.0000000000000024
 70
   192
  0
VERTEX
  5
E14
  8
0
 10
-22.0
 20
-91.9991247258351
 30
0.0000000000000692
 70
   192
  0
VERTEX
  5
E15
  8
0
 10
-19.04138511751011
 20
-91.99834681194407
 30
11.01887587221511
 70
   192
  0
VERTEX
  5
E16
  8
0
 10
-15.55634918610405
 20
-102.0
 30
-15.55634918610404
 70
   192
  0
VERTEX
  5
E17
  8
0
 10
-19.04890985958015
 20
-91.99781872651359
 30
-11.00676704760418
 70
   192
  0
VERTEX
  5
E18
  8
0
 10
-0.0000000000000024
 20
-102.0
 30
-22.0
 70
   192
  0
VERTEX
  5
E19
  8
0
 10
0.0
 20
-91.9991247258351
 30
-22.0
 70
   192
  0
VERTEX
  5
E1A
  8
0
 10
-11.00113760930398
 20
-91.99781432609139
 30
-19.05146748384551
 70
   192
  0
VERTEX
  5
E1B
  8
0
 10
0.0
 20
0.0
 30
0.0
 70
   128
 71
     1
 72
     2
 73
     3
  0
VERTEX
  5
E1C
  8
0
 10
0.0
 20
0.0
 30
0.0
 70
   128
 71
     4
 72
     1
 73
     3
  0
VERTEX
  5
E1D
  8
0
 10
0.0
 20
0.0
 30
0.0
 70
   128
 71
     5
 72
     6
 73
     7
  0
VERTEX
  5
E1E
  8
0
 10
0.0
 20
0.0
 30
0.0
 70
   128
 71
     3
 72
     5
 73
     7
  0
VERTEX
  5
E1F
  8
0
 10
0.0
 20
0.0
 30
0.0
 70
   128
 71
     6
 72
     5
 73
     8
  0
VERTEX
  5
E20
  8
0
 10
0.0
 20
0.0
 30
0.0
 70
   128
 71
     9
 72
     6
 73
     8
  0
VERTEX
  5
E21
  8
0
 10
0.0
 20
0.0
 30
0.0
 70
   128
 71
    10
 72
    11
 73
    12
  0
VERTEX
  5
E22
  8
0
 10
0.0
 20
0.0
 30
0.0
 70
   128
 71
     8
 72
    10
 73
    12
  0
VERTEX
  5
E23
  8
0
 10
0.0
 20
0.0
 30
0.0
 70
   128
 71
     3
 72
     7
 73
     4
  0
VERTEX
  5
E24
  8
0
 10
0.0
 20
0.0
 30
0.0
 70
   128
 71
     8
 72
    12
 73
     9
  0
SEQEND
  5
1925
  8
0
  0
POLYLINE
  5
E25
  8
0
 66
     1
 10
0.0
 20
0.0
 30
0.0
 70
    64
 71
    12
 72
    10
  0
VERTEX
  5
E26
  8
0
 10
195.2892512857905
 20
-1.965095187125415
 30
154.2887943712595
 70
   192
  0
VERTEX
  5
E27
  8
0
 10
196.0930068037585
 20
-1.957002368570734
 30
154.178780238549
 70
   192
  0
VERTEX
  5
E28
  8
0
 10
196.813462948163
 20
-1.952187246874043
 30
153.8722447038649
 70
   192
  0
VERTEX
  5
E29
  8
0
 10
197.41005171968
 20
-1.95064465615391
 30
153.4100517196805
 70
   192
  0
VERTEX
  5
E2A
  8
0
 10
197.2092141159
 20
-0.9716384267198264
 30
153.2092141159
 70
   192
  0
VERTEX
  5
E2B
  8
0
 10
196.693276168691
 20
-0.2597811708638029
 30
152.693276168691
 70
   192
  0
VERTEX
  5
E2C
  8
0
 10
195.9962688420725
 20
-0.0000000000000067
 30
151.9962688420725
 70
   192
  0
VERTEX
  5
E2D
  8
0
 10
195.7905091892516
 20
-0.0000000000000017
 30
152.1543968460638
 70
   192
  0
VERTEX
  5
E2E
  8
0
 10
195.5465876415998
 20
-0.0000000000000012
 30
152.2554234472262
 70
   192
  0
VERTEX
  5
E2F
  8
0
 10
195.2892512857905
 20
0.0
 30
152.289098980947
 70
   192
  0
VERTEX
  5
E30
  8
0
 10
195.2892512857905
 20
-0.2621607728183344
 30
153.2790054515131
 70
   192
  0
VERTEX
  5
E31
  8
0
 10
195.2892512857905
 20
-0.9799148204686359
 30
154.0093972767377
 70
   192
  0
VERTEX
  5
E32
  8
0
 10
0.0
 20
0.0
 30
0.0
 70
   128
 71
     6
 72
     7
 73
     8
  0
VERTEX
  5
E33
  8
0
 10
0.0
 20
0.0
 30
0.0
 70
   128
 71
     9
 72
    11
 73
     6
  0
VERTEX
  5
E34
  8
0
 10
0.0
 20
0.0
 30
0.0
 70
   128
 71
     8
 72
     9
 73
     6
  0
VERTEX
  5
E35
  8
0
 10
0.0
 20
0.0
 30
0.0
 70
   128
 71
     9
 72
    10
 73
    11
  0
VERTEX
  5
E36
  8
0
 10
0.0
 20
0.0
 30
0.0
 70
   128
 71
    12
 72
     5
 73
     6
  0
VERTEX
  5
E37
  8
0
 10
0.0
 20
0.0
 30
0.0
 70
   128
 71
    11
 72
    12
 73
     6
  0
VERTEX
  5
E38
  8
0
 10
0.0
 20
0.0
 30
0.0
 70
   128
 71
    12
 72
     1
 73
     2
  0
VERTEX
  5
E39
  8
0
 10
0.0
 20
0.0
 30
0.0
 70
   128
 71
     3
 72
     5
 73
    12
  0
VERTEX
  5
E3A
  8
0
 10
0.0
 20
0.0
 30
0.0
 70
   128
 71
     2
 72
     3
 73
    12
  0
VERTEX
  5
E3B
  8
0
 10
0.0
 20
0.0
 30
0.0
 70
   128
 71
     3
 72
     4
 73
     5
  0
SEQEND
  5
1926
  8
0
  0
POLYLINE
  5
E3C
  8
0
 66
     1
 10
0.0
 20
0.0
 30
0.0
 70
    64
 71
    12
 72
    10
  0
VERTEX
  5
E3D
  8
0
 10
-198.2887943712595
 20
-1.965095187125415
 30
151.2892512857905
 70
   192
  0
VERTEX
  5
E3E
  8
0
 10
-198.1787802385489
 20
-1.957002368570733
 30
152.0930068037586
 70
   192
  0
VERTEX
  5
E3F
  8
0
 10
-197.8722447038649
 20
-1.952187246874042
 30
152.813462948163
 70
   192
  0
VERTEX
  5
E40
  8
0
 10
-197.4100517196805
 20
-1.95064465615391
 30
153.4100517196805
 70
   192
  0
VERTEX
  5
E41
  8
0
 10
-197.2092141159
 20
-0.9716384267198315
 30
153.2092141159
 70
   192
  0
VERTEX
  5
E42
  8
0
 10
-196.693276168691
 20
-0.2597811708638045
 30
152.693276168691
 70
   192
  0
VERTEX
  5
E43
  8
0
 10
-195.9962688420725
 20
-0.0000000000000067
 30
151.9962688420725
 70
   192
  0
VERTEX
  5
E44
  8
0
 10
-196.154396846064
 20
-0.0000000000000017
 30
151.7905091892516
 70
   192
  0
VERTEX
  5
E45
  8
0
 10
-196.2554234472263
 20
-0.0000000000000012
 30
151.5465876415999
 70
   192
  0
VERTEX
  5
E46
  8
0
 10
-196.289098980947
 20
0.0
 30
151.2892512857905
 70
   192
  0
VERTEX
  5
E47
  8
0
 10
-197.2790054515131
 20
-0.2621607728183344
 30
151.2892512857905
 70
   192
  0
VERTEX
  5
E48
  8
0
 10
-198.0093972767377
 20
-0.9799148204686359
 30
151.2892512857905
 70
   192
  0
VERTEX
  5
E49
  8
0
 10
0.0
 20
0.0
 30
0.0
 70
   128
 71
     6
 72
     7
 73
     8
  0
VERTEX
  5
E4A
  8
0
 10
0.0
 20
0.0
 30
0.0
 70
   128
 71
     9
 72
    11
 73
     6
  0
VERTEX
  5
E4B
  8
0
 10
0.0
 20
0.0
 30
0.0
 70
   128
 71
     8
 72
     9
 73
     6
  0
VERTEX
  5
E4C
  8
0
 10
0.0
 20
0.0
 30
0.0
 70
   128
 71
     9
 72
    10
 73
    11
  0
VERTEX
  5
E4D
  8
0
 10
0.0
 20
0.0
 30
0.0
 70
   128
 71
    12
 72
     5
 73
     6
  0
VERTEX
  5
E4E
  8
0
 10
0.0
 20
0.0
 30
0.0
 70
   128
 71
    11
 72
    12
 73
     6
  0
VERTEX
  5
E4F
  8
0
 10
0.0
 20
0.0
 30
0.0
 70
   128
 71
    12
 72
     1
 73
     2
  0
VERTEX
  5
E50
  8
0
 10
0.0
 20
0.0
 30
0.0
 70
   128
 71
     3
 72
     5
 73
    12
  0
VERTEX
  5
E51
  8
0
 10
0.0
 20
0.0
 30
0.0
 70
   128
 71
     2
 72
     3
 73
    12
  0
VERTEX
  5
E52
  8
0
 10
0.0
 20
0.0
 30
0.0
 70
   128
 71
     3
 72
     4
 73
     5
  0
SEQEND
  5
1927
  8
0
  0
POLYLINE
  5
E53
  8
0
 66
     1
 10
0.0
 20
0.0
 30
0.0
 70
    64
 71
    23
 72
    21
  0
VERTEX
  5
E54
  8
0
 10
172.4929146103488
 20
-1.002437477822786
 30
113.6817126134433
 70
   192
  0
VERTEX
  5
E55
  8
0
 10
188.1687571725676
 20
-0.1332459008641802
 30
48.53374733136835
 70
   192
  0
VERTEX
  5
E56
  8
0
 10
187.3634393505026
 20
-0.5211472900585772
 30
48.51204196542966
 70
   192
  0
VERTEX
  5
E57
  8
0
 10
186.7081694436908
 20
-1.129246654216758
 30
48.49438077288397
 70
   192
  0
VERTEX
  5
E58
  8
0
 10
-187.1058587979395
 20
-1.161291877004018
 30
0.0000000000000029
 70
   192
  0
VERTEX
  5
E59
  8
0
 10
-187.0495486661811
 20
-1.157066521711901
 30
-17.6205322131153
 70
   192
  0
VERTEX
  5
E5A
  8
0
 10
-187.263010238016
 20
-0.5186935769028329
 30
-51.9667832388221
 70
   192
  0
VERTEX
  5
E5B
  8
0
 10
-186.9331351625806
 20
-1.144591200337999
 30
-35.38139500352076
 70
   192
  0
VERTEX
  5
E5C
  8
0
 10
-186.608348311211
 20
-1.12413727966232
 30
-51.944877094465
 70
   192
  0
VERTEX
  5
E5D
  8
0
 10
-188.066649412372
 20
-0.132604032463298
 30
-51.99367442501093
 70
   192
  0
VERTEX
  5
E5E
  8
0
 10
-188.9482219708355
 20
0.0
 30
-52.0231733998806
 70
   192
  0
VERTEX
  5
E5F
  8
0
 10
-182.4948352429333
 20
0.0000000000000087
 30
98.63963220922372
 70
   192
  0
VERTEX
  5
E60
  8
0
 10
-160.0327791362544
 20
-0.0000000000000039
 30
128.4335773881937
 70
   192
  0
VERTEX
  5
E61
  8
0
 10
-157.0877660057405
 20
-1.16664465741454
 30
127.4661037905091
 70
   192
  0
VERTEX
  5
E62
  8
0
 10
-178.9194385416301
 20
-0.998897429635449
 30
101.8732136814814
 70
   192
  0
VERTEX
  5
E63
  8
0
 10
-124.3962160527969
 20
-0.0000000000000226
 30
140.8442050360427
 70
   192
  0
VERTEX
  5
E64
  8
0
 10
112.0940273753548
 20
-1.643298495303735
 30
139.8972102249895
 70
   192
  0
VERTEX
  5
E65
  8
0
 10
170.4341959574939
 20
-0.0000000000000065
 30
119.7455061696509
 70
   192
  0
VERTEX
  5
E66
  8
0
 10
189.0525860440965
 20
0.0000000000000013
 30
48.5575687700238
 70
   192
  0
VERTEX
  5
E67
  8
0
 10
-185.7172119396819
 20
-1.092206201946735
 30
68.4526164169268
 70
   192
  0
VERTEX
  5
E68
  8
0
 10
-49.47929380142087
 20
0.0000000000000091
 30
145.5247999691933
 70
   192
  0
VERTEX
  5
E69
  8
0
 10
-23.37994549537864
 20
-1.923285711151973
 30
143.0626521763001
 70
   192
  0
VERTEX
  5
E6A
  8
0
 10
100.9144375302496
 20
-0.0000000000000013
 30
143.6550628486825
 70
   192
  0
VERTEX
  5
E6B
  8
0
 10
0.0
 20
0.0
 30
0.0
 70
   128
 71
     1
 72
     2
 73
     3
  0
VERTEX
  5
E6C
  8
0
 10
0.0
 20
0.0
 30
0.0
 70
   128
 71
     3
 72
     4
 73
     1
  0
VERTEX
  5
E6D
  8
0
 10
0.0
 20
0.0
 30
0.0
 70
   128
 71
     5
 72
     6
 73
     7
  0
VERTEX
  5
E6E
  8
0
 10
0.0
 20
0.0
 30
0.0
 70
   128
 71
     6
 72
     8
 73
     7
  0
VERTEX
  5
E6F
  8
0
 10
0.0
 20
0.0
 30
0.0
 70
   128
 71
     8
 72
     9
 73
     7
  0
VERTEX
  5
E70
  8
0
 10
0.0
 20
0.0
 30
0.0
 70
   128
 71
    10
 72
    11
 73
    12
  0
VERTEX
  5
E71
  8
0
 10
0.0
 20
0.0
 30
0.0
 70
   128
 71
    13
 72
    14
 73
    15
  0
VERTEX
  5
E72
  8
0
 10
0.0
 20
0.0
 30
0.0
 70
   128
 71
    13
 72
    16
 73
    14
  0
VERTEX
  5
E73
  8
0
 10
0.0
 20
0.0
 30
0.0
 70
   128
 71
    17
 72
    18
 73
     2
  0
VERTEX
  5
E74
  8
0
 10
0.0
 20
0.0
 30
0.0
 70
   128
 71
     1
 72
    17
 73
     2
  0
VERTEX
  5
E75
  8
0
 10
0.0
 20
0.0
 30
0.0
 70
   128
 71
    19
 72
     2
 73
    18
  0
VERTEX
  5
E76
  8
0
 10
0.0
 20
0.0
 30
0.0
 70
   128
 71
    10
 72
    12
 73
    20
  0
VERTEX
  5
E77
  8
0
 10
0.0
 20
0.0
 30
0.0
 70
   128
 71
     5
 72
     7
 73
    10
  0
VERTEX
  5
E78
  8
0
 10
0.0
 20
0.0
 30
0.0
 70
   128
 71
    20
 72
     5
 73
    10
  0
VERTEX
  5
E79
  8
0
 10
0.0
 20
0.0
 30
0.0
 70
   128
 71
    15
 72
    20
 73
    12
  0
VERTEX
  5
E7A
  8
0
 10
0.0
 20
0.0
 30
0.0
 70
   128
 71
    13
 72
    15
 73
    12
  0
VERTEX
  5
E7B
  8
0
 10
0.0
 20
0.0
 30
0.0
 70
   128
 71
    21
 72
    22
 73
    14
  0
VERTEX
  5
E7C
  8
0
 10
0.0
 20
0.0
 30
0.0
 70
   128
 71
    22
 72
    23
 73
    18
  0
VERTEX
  5
E7D
  8
0
 10
0.0
 20
0.0
 30
0.0
 70
   128
 71
    17
 72
    22
 73
    18
  0
VERTEX
  5
E7E
  8
0
 10
0.0
 20
0.0
 30
0.0
 70
   128
 71
    23
 72
    22
 73
    21
  0
VERTEX
  5
E7F
  8
0
 10
0.0
 20
0.0
 30
0.0
 70
   128
 71
    14
 72
    16
 73
    21
  0
SEQEND
  5
1928
  8
0
  0
POLYLINE
  5
E80
  8
0
 66
     1
 10
0.0
 20
0.0
 30
0.0
 70
    64
 71
    10
 72
     8
  0
VERTEX
  5
E81
  8
0
 10
0.0000000000000021
 20
-13.0
 30
-201.5
 70
   192
  0
VERTEX
  5
E82
  8
0
 10
-0.0000000000000019
 20
-13.0
 30
-166.5
 70
   192
  0
VERTEX
  5
E83
  8
0
 10
-0.0000000000000019
 20
0.0
 30
-166.5
 70
   192
  0
VERTEX
  5
E84
  8
0
 10
0.0000000000000021
 20
0.0
 30
-201.5
 70
   192
  0
VERTEX
  5
E85
  8
0
 10
-17.50000000000001
 20
0.0
 30
-184.0
 70
   192
  0
VERTEX
  5
E86
  8
0
 10
-17.50000000000001
 20
-13.0
 30
-184.0
 70
   192
  0
VERTEX
  5
E87
  8
0
 10
-12.37436867076459
 20
0.0
 30
-196.3743686707646
 70
   192
  0
VERTEX
  5
E88
  8
0
 10
-12.37436867076459
 20
-13.0
 30
-196.3743686707646
 70
   192
  0
VERTEX
  5
E89
  8
0
 10
-12.37436867076459
 20
0.0
 30
-171.6256313292354
 70
   192
  0
VERTEX
  5
E8A
  8
0
 10
-12.37436867076459
 20
-13.0
 30
-171.6256313292354
 70
   192
  0
VERTEX
  5
E8B
  8
0
 10
0.0
 20
0.0
 30
0.0
 70
   128
 71
     8
 72
     1
 73
    -4
  0
VERTEX
  5
E8C
  8
0
 10
0.0
 20
0.0
 30
0.0
 70
   128
 71
     7
 72
    -8
 73
     4
  0
VERTEX
  5
E8D
  8
0
 10
0.0
 20
0.0
 30
0.0
 70
   128
 71
     6
 72
     8
 73
    -7
  0
VERTEX
  5
E8E
  8
0
 10
0.0
 20
0.0
 30
0.0
 70
   128
 71
     5
 72
    -6
 73
     7
  0
VERTEX
  5
E8F
  8
0
 10
0.0
 20
0.0
 30
0.0
 70
   128
 71
    10
 72
     6
 73
    -5
  0
VERTEX
  5
E90
  8
0
 10
0.0
 20
0.0
 30
0.0
 70
   128
 71
     9
 72
   -10
 73
     5
  0
VERTEX
  5
E91
  8
0
 10
0.0
 20
0.0
 30
0.0
 70
   128
 71
     2
 72
    10
 73
    -9
  0
VERTEX
  5
E92
  8
0
 10
0.0
 20
0.0
 30
0.0
 70
   128
 71
     3
 72
    -2
 73
     9
  0
SEQEND
  5
1929
  8
0
  0
POLYLINE
  5
E93
  8
0
 66
     1
 10
0.0
 20
0.0
 30
0.0
 70
    64
 71
    12
 72
    10
  0
VERTEX
  5
E94
  8
0
 10
22.03685668351702
 20
-97.52342451309319
 30
51.25272096815827
 70
   192
  0
VERTEX
  5
E95
  8
0
 10
0.0000000000000031
 20
-96.92253411614631
 30
55.89529422895021
 70
   192
  0
VERTEX
  5
E96
  8
0
 10
0.0
 20
-102.0
 30
55.0
 70
   192
  0
VERTEX
  5
E97
  8
0
 10
38.89087296526012
 20
-102.0
 30
38.89087296526012
 70
   192
  0
VERTEX
  5
E98
  8
0
 10
55.00000000000001
 20
-102.0
 30
0.0
 70
   192
  0
VERTEX
  5
E99
  8
0
 10
52.79104362590309
 20
-98.2543325708019
 30
17.64065668793125
 70
   192
  0
VERTEX
  5
E9A
  8
0
 10
41.07840513210145
 20
-98.4995726158411
 30
37.49452953466806
 70
   192
  0
VERTEX
  5
E9B
  8
0
 10
38.89087296526012
 20
-102.0
 30
-38.89087296526012
 70
   192
  0
VERTEX
  5
E9C
  8
0
 10
0.0
 20
-102.0
 30
-55.00000000000001
 70
   192
  0
VERTEX
  5
E9D
  8
0
 10
0.0000000000000068
 20
-96.92253411614641
 30
-55.89529422895014
 70
   192
  0
VERTEX
  5
E9E
  8
0
 10
32.86196074775154
 20
-98.1512803679344
 30
-44.94666562038779
 70
   192
  0
VERTEX
  5
E9F
  8
0
 10
53.00044660815642
 20
-98.23985165617127
 30
-17.00952549928542
 70
   192
  0
VERTEX
  5
EA0
  8
0
 10
0.0
 20
0.0
 30
0.0
 70
   128
 71
     1
 72
     2
 73
     3
  0
VERTEX
  5
EA1
  8
0
 10
0.0
 20
0.0
 30
0.0
 70
   128
 71
     1
 72
     3
 73
     4
  0
VERTEX
  5
EA2
  8
0
 10
0.0
 20
0.0
 30
0.0
 70
   128
 71
     4
 72
     5
 73
     6
  0
VERTEX
  5
EA3
  8
0
 10
0.0
 20
0.0
 30
0.0
 70
   128
 71
     4
 72
     6
 73
     7
  0
VERTEX
  5
EA4
  8
0
 10
0.0
 20
0.0
 30
0.0
 70
   128
 71
     8
 72
     9
 73
    10
  0
VERTEX
  5
EA5
  8
0
 10
0.0
 20
0.0
 30
0.0
 70
   128
 71
     8
 72
    10
 73
    11
  0
VERTEX
  5
EA6
  8
0
 10
0.0
 20
0.0
 30
0.0
 70
   128
 71
     1
 72
     4
 73
     7
  0
VERTEX
  5
EA7
  8
0
 10
0.0
 20
0.0
 30
0.0
 70
   128
 71
     6
 72
     5
 73
    12
  0
VERTEX
  5
EA8
  8
0
 10
0.0
 20
0.0
 30
0.0
 70
   128
 71
    12
 72
     5
 73
     8
  0
VERTEX
  5
EA9
  8
0
 10
0.0
 20
0.0
 30
0.0
 70
   128
 71
    12
 72
     8
 73
    11
  0
SEQEND
  5
192A
  8
0
  0
POLYLINE
  5
EAA
  8
0
 66
     1
 10
0.0
 20
0.0
 30
0.0
 70
    64
 71
    10
 72
     8
  0
VERTEX
  5
EAB
  8
0
 10
-148.0
 20
-42.0
 30
-244.0
 70
   192
  0
VERTEX
  5
EAC
  8
0
 10
-132.0
 20
-42.0
 30
-244.0
 70
   192
  0
VERTEX
  5
EAD
  8
0
 10
-132.0
 20
-42.0
 30
-223.0
 70
   192
  0
VERTEX
  5
EAE
  8
0
 10
-148.0
 20
-42.0
 30
-223.0
 70
   192
  0
VERTEX
  5
EAF
  8
0
 10
-140.0
 20
-50.00000000000001
 30
-223.0
 70
   192
  0
VERTEX
  5
EB0
  8
0
 10
-140.0
 20
-50.00000000000001
 30
-244.0
 70
   192
  0
VERTEX
  5
EB1
  8
0
 10
-145.6568542494924
 20
-47.65685424949238
 30
-223.0
 70
   192
  0
VERTEX
  5
EB2
  8
0
 10
-145.6568542494924
 20
-47.65685424949238
 30
-244.0
 70
   192
  0
VERTEX
  5
EB3
  8
0
 10
-134.3431457505076
 20
-47.65685424949238
 30
-223.0
 70
   192
  0
VERTEX
  5
EB4
  8
0
 10
-134.3431457505076
 20
-47.65685424949238
 30
-244.0
 70
   192
  0
VERTEX
  5
EB5
  8
0
 10
0.0
 20
0.0
 30
0.0
 70
   128
 71
     8
 72
     1
 73
    -4
  0
VERTEX
  5
EB6
  8
0
 10
0.0
 20
0.0
 30
0.0
 70
   128
 71
     7
 72
    -8
 73
     4
  0
VERTEX
  5
EB7
  8
0
 10
0.0
 20
0.0
 30
0.0
 70
   128
 71
     6
 72
     8
 73
    -7
  0
VERTEX
  5
EB8
  8
0
 10
0.0
 20
0.0
 30
0.0
 70
   128
 71
     5
 72
    -6
 73
     7
  0
VERTEX
  5
EB9
  8
0
 10
0.0
 20
0.0
 30
0.0
 70
   128
 71
    10
 72
     6
 73
    -5
  0
VERTEX
  5
EBA
  8
0
 10
0.0
 20
0.0
 30
0.0
 70
   128
 71
     9
 72
   -10
 73
     5
  0
VERTEX
  5
EBB
  8
0
 10
0.0
 20
0.0
 30
0.0
 70
   128
 71
     2
 72
    10
 73
    -9
  0
VERTEX
  5
EBC
  8
0
 10
0.0
 20
0.0
 30
0.0
 70
   128
 71
     3
 72
    -2
 73
     9
  0
SEQEND
  5
192B
  8
0
  0
POLYLINE
  5
EBD
  8
0
 66
     1
 10
0.0
 20
0.0
 30
0.0
 70
    64
 71
    10
 72
     8
  0
VERTEX
  5
EBE
  8
0
 10
132.0
 20
-42.0
 30
-244.0
 70
   192
  0
VERTEX
  5
EBF
  8
0
 10
148.0
 20
-42.0
 30
-244.0
 70
   192
  0
VERTEX
  5
EC0
  8
0
 10
148.0
 20
-42.0
 30
-223.0
 70
   192
  0
VERTEX
  5
EC1
  8
0
 10
132.0
 20
-42.0
 30
-223.0
 70
   192
  0
VERTEX
  5
EC2
  8
0
 10
140.0
 20
-50.00000000000001
 30
-223.0
 70
   192
  0
VERTEX
  5
EC3
  8
0
 10
140.0
 20
-50.00000000000001
 30
-244.0
 70
   192
  0
VERTEX
  5
EC4
  8
0
 10
134.3431457505076
 20
-47.65685424949238
 30
-223.0
 70
   192
  0
VERTEX
  5
EC5
  8
0
 10
134.3431457505076
 20
-47.65685424949238
 30
-244.0
 70
   192
  0
VERTEX
  5
EC6
  8
0
 10
145.6568542494924
 20
-47.65685424949238
 30
-223.0
 70
   192
  0
VERTEX
  5
EC7
  8
0
 10
145.6568542494924
 20
-47.65685424949238
 30
-244.0
 70
   192
  0
VERTEX
  5
EC8
  8
0
 10
0.0
 20
0.0
 30
0.0
 70
   128
 71
     8
 72
     1
 73
    -4
  0
VERTEX
  5
EC9
  8
0
 10
0.0
 20
0.0
 30
0.0
 70
   128
 71
     7
 72
    -8
 73
     4
  0
VERTEX
  5
ECA
  8
0
 10
0.0
 20
0.0
 30
0.0
 70
   128
 71
     6
 72
     8
 73
    -7
  0
VERTEX
  5
ECB
  8
0
 10
0.0
 20
0.0
 30
0.0
 70
   128
 71
     5
 72
    -6
 73
     7
  0
VERTEX
  5
ECC
  8
0
 10
0.0
 20
0.0
 30
0.0
 70
   128
 71
    10
 72
     6
 73
    -5
  0
VERTEX
  5
ECD
  8
0
 10
0.0
 20
0.0
 30
0.0
 70
   128
 71
     9
 72
   -10
 73
     5
  0
VERTEX
  5
ECE
  8
0
 10
0.0
 20
0.0
 30
0.0
 70
   128
 71
     2
 72
    10
 73
    -9
  0
VERTEX
  5
ECF
  8
0
 10
0.0
 20
0.0
 30
0.0
 70
   128
 71
     3
 72
    -2
 73
     9
  0
SEQEND
  5
192C
  8
0
  0
POLYLINE
  5
ED0
  8
0
 66
     1
 10
0.0
 20
0.0
 30
0.0
 70
    64
 71
    20
 72
    18
  0
VERTEX
  5
ED1
  8
0
 10
-34.92060618356355
 20
-81.06877527432101
 30
-2.648568475357787
 70
   192
  0
VERTEX
  5
ED2
  8
0
 10
-34.78968123391695
 20
-81.069079720114
 30
-3.968922634063585
 70
   192
  0
VERTEX
  5
ED3
  8
0
 10
-35.66479694403823
 20
-80.47677576549088
 30
-4.073223592020724
 70
   192
  0
VERTEX
  5
ED4
  8
0
 10
-36.64439036226006
 20
-80.08393450189523
 30
-4.189853979086369
 70
   192
  0
VERTEX
  5
ED5
  8
0
 10
-37.8202224734131
 20
-79.90785006335368
 30
-2.941892409570674
 70
   192
  0
VERTEX
  5
ED6
  8
0
 10
-37.684280643224
 20
-79.90827354440535
 30
-4.313553624051562
 70
   192
  0
VERTEX
  5
ED7
  8
0
 10
-37.90805830712453
 20
-79.90758894724871
 30
-1.502926578550896
 70
   192
  0
VERTEX
  5
ED8
  8
0
 10
-35.00005632620819
 20
-81.06847082852849
 30
-1.324864374064676
 70
   192
  0
VERTEX
  5
ED9
  8
0
 10
-37.9392371413753
 20
-79.90749977900309
 30
-0.000000000000011
 70
   192
  0
VERTEX
  5
EDA
  8
0
 10
-35.02700887588795
 20
-81.0681663827344
 30
-0.0000000000148648
 70
   192
  0
VERTEX
  5
EDB
  8
0
 10
-27.64732076129112
 20
-79.92215084896202
 30
26.07664880470271
 70
   192
  0
VERTEX
  5
EDC
  8
0
 10
-25.48465943939183
 20
-81.08566052405719
 30
24.05035697634967
 70
   192
  0
VERTEX
  5
EDD
  8
0
 10
24.47097961878229
 20
-79.92083974752751
 30
29.06742606345167
 70
   192
  0
VERTEX
  5
EDE
  8
0
 10
22.56387665087157
 20
-81.08403026326748
 30
26.80709052377542
 70
   192
  0
VERTEX
  5
EDF
  8
0
 10
-2.02207326699079
 20
-81.0634721244492
 30
34.9708678547975
 70
   192
  0
VERTEX
  5
EE0
  8
0
 10
-2.19713194250878
 20
-79.90446403308222
 30
37.85181826041831
 70
   192
  0
VERTEX
  5
EE1
  8
0
 10
37.68428346942409
 20
-79.9082735339319
 30
4.313529800035756
 70
   192
  0
VERTEX
  5
EE2
  8
0
 10
36.6443931066767
 20
-80.08393449965055
 30
4.189830816900963
 70
   192
  0
VERTEX
  5
EE3
  8
0
 10
35.66479961324421
 20
-80.4767757727944
 30
4.073201054060867
 70
   192
  0
VERTEX
  5
EE4
  8
0
 10
34.78968383823944
 20
-81.06907973770919
 30
3.968900654614255
 70
   192
  0
VERTEX
  5
EE5
  8
0
 10
0.0
 20
0.0
 30
0.0
 70
   128
 71
     1
 72
     2
 73
     3
  0
VERTEX
  5
EE6
  8
0
 10
0.0
 20
0.0
 30
0.0
 70
   128
 71
     3
 72
     4
 73
     1
  0
VERTEX
  5
EE7
  8
0
 10
0.0
 20
0.0
 30
0.0
 70
   128
 71
     4
 72
     5
 73
     1
  0
VERTEX
  5
EE8
  8
0
 10
0.0
 20
0.0
 30
0.0
 70
   128
 71
     4
 72
     6
 73
     5
  0
VERTEX
  5
EE9
  8
0
 10
0.0
 20
0.0
 30
0.0
 70
   128
 71
     7
 72
     8
 73
     1
  0
VERTEX
  5
EEA
  8
0
 10
0.0
 20
0.0
 30
0.0
 70
   128
 71
     5
 72
     7
 73
     1
  0
VERTEX
  5
EEB
  8
0
 10
0.0
 20
0.0
 30
0.0
 70
   128
 71
     9
 72
    10
 73
     8
  0
VERTEX
  5
EEC
  8
0
 10
0.0
 20
0.0
 30
0.0
 70
   128
 71
     7
 72
     9
 73
     8
  0
VERTEX
  5
EED
  8
0
 10
0.0
 20
0.0
 30
0.0
 70
   128
 71
    11
 72
    12
 73
    10
  0
VERTEX
  5
EEE
  8
0
 10
0.0
 20
0.0
 30
0.0
 70
   128
 71
     9
 72
    11
 73
    10
  0
VERTEX
  5
EEF
  8
0
 10
0.0
 20
0.0
 30
0.0
 70
   128
 71
    13
 72
    14
 73
    15
  0
VERTEX
  5
EF0
  8
0
 10
0.0
 20
0.0
 30
0.0
 70
   128
 71
    16
 72
    13
 73
    15
  0
VERTEX
  5
EF1
  8
0
 10
0.0
 20
0.0
 30
0.0
 70
   128
 71
    13
 72
    17
 73
    18
  0
VERTEX
  5
EF2
  8
0
 10
0.0
 20
0.0
 30
0.0
 70
   128
 71
    18
 72
    19
 73
    13
  0
VERTEX
  5
EF3
  8
0
 10
0.0
 20
0.0
 30
0.0
 70
   128
 71
    19
 72
    14
 73
    13
  0
VERTEX
  5
EF4
  8
0
 10
0.0
 20
0.0
 30
0.0
 70
   128
 71
    19
 72
    20
 73
    14
  0
VERTEX
  5
EF5
  8
0
 10
0.0
 20
0.0
 30
0.0
 70
   128
 71
    15
 72
    12
 73
    16
  0
VERTEX
  5
EF6
  8
0
 10
0.0
 20
0.0
 30
0.0
 70
   128
 71
    16
 72
    12
 73
    11
  0
SEQEND
  5
192D
  8
0
  0
POLYLINE
  5
EF7
  8
0
 66
     1
 10
0.0
 20
0.0
 30
0.0
 70
    64
 71
    20
 72
    18
  0
VERTEX
  5
EF8
  8
0
 10
172.9508775352265
 20
-13.0
 30
-212.9508775352265
 70
   192
  0
VERTEX
  5
EF9
  8
0
 10
7.864266649873549
 20
-13.0
 30
-212.9508775352265
 70
   192
  0
VERTEX
  5
EFA
  8
0
 10
2.690432454175717
 20
-13.08517682408222
 30
-214.2534513904024
 70
   192
  0
VERTEX
  5
EFB
  8
0
 10
-149.9890551777253
 20
-14.75158544909127
 30
-218.6045285502793
 70
   192
  0
VERTEX
  5
EFC
  8
0
 10
-130.0184340442681
 20
-14.75025590857664
 30
-218.6025790108338
 70
   192
  0
VERTEX
  5
EFD
  8
0
 10
-172.9508775352265
 20
-14.25380292860603
 30
-217.7989737376899
 70
   192
  0
VERTEX
  5
EFE
  8
0
 10
130.0109448124657
 20
-14.75158545083755
 30
-218.6045285528256
 70
   192
  0
VERTEX
  5
EFF
  8
0
 10
149.9815659592037
 20
-14.7502559090598
 30
-218.602579011539
 70
   192
  0
VERTEX
  5
F00
  8
0
 10
172.9508775352265
 20
-14.25380292860603
 30
-217.7989737376899
 70
   192
  0
VERTEX
  5
F01
  8
0
 10
-2.699879344966842
 20
-13.08472117646063
 30
-214.2523694210036
 70
   192
  0
VERTEX
  5
F02
  8
0
 10
-172.9508775352265
 20
-13.0
 30
-212.9508775352265
 70
   192
  0
VERTEX
  5
F03
  8
0
 10
-7.864266649873549
 20
-13.0
 30
-212.9508775352265
 70
   192
  0
VERTEX
  5
F04
  8
0
 10
-172.9508775352265
 20
-22.47664043757057
 30
-222.9371728827722
 70
   192
  0
VERTEX
  5
F05
  8
0
 10
-168.1895261781355
 20
-22.47664043757055
 30
-222.9371728827725
 70
   192
  0
VERTEX
  5
F06
  8
0
 10
-172.9508775352265
 20
-17.70080735766795
 30
-221.4313584967908
 70
   192
  0
VERTEX
  5
F07
  8
0
 10
111.8104738218645
 20
-22.47664043757055
 30
-222.9371728827725
 70
   192
  0
VERTEX
  5
F08
  8
0
 10
-111.8104738218648
 20
-22.47664043757055
 30
-222.9371728827725
 70
   192
  0
VERTEX
  5
F09
  8
0
 10
168.189526178135
 20
-22.47664043757055
 30
-222.9371728827725
 70
   192
  0
VERTEX
  5
F0A
  8
0
 10
172.9508775352265
 20
-22.47664043757055
 30
-222.9371728827725
 70
   192
  0
VERTEX
  5
F0B
  8
0
 10
172.9508775352265
 20
-17.70080735766795
 30
-221.4313584967908
 70
   192
  0
VERTEX
  5
F0C
  8
0
 10
0.0
 20
0.0
 30
0.0
 70
   128
 71
     1
 72
     2
 73
     3
  0
VERTEX
  5
F0D
  8
0
 10
0.0
 20
0.0
 30
0.0
 70
   128
 71
     4
 72
     5
 73
     6
  0
VERTEX
  5
F0E
  8
0
 10
0.0
 20
0.0
 30
0.0
 70
   128
 71
     7
 72
     6
 73
     5
  0
VERTEX
  5
F0F
  8
0
 10
0.0
 20
0.0
 30
0.0
 70
   128
 71
     7
 72
     8
 73
     6
  0
VERTEX
  5
F10
  8
0
 10
0.0
 20
0.0
 30
0.0
 70
   128
 71
     8
 72
     9
 73
     6
  0
VERTEX
  5
F11
  8
0
 10
0.0
 20
0.0
 30
0.0
 70
   128
 71
    10
 72
    11
 73
     6
  0
VERTEX
  5
F12
  8
0
 10
0.0
 20
0.0
 30
0.0
 70
   128
 71
    10
 72
    12
 73
    11
  0
VERTEX
  5
F13
  8
0
 10
0.0
 20
0.0
 30
0.0
 70
   128
 71
     9
 72
     1
 73
     3
  0
VERTEX
  5
F14
  8
0
 10
0.0
 20
0.0
 30
0.0
 70
   128
 71
     3
 72
    10
 73
     9
  0
VERTEX
  5
F15
  8
0
 10
0.0
 20
0.0
 30
0.0
 70
   128
 71
    10
 72
     6
 73
     9
  0
VERTEX
  5
F16
  8
0
 10
0.0
 20
0.0
 30
0.0
 70
   128
 71
    13
 72
    14
 73
    15
  0
VERTEX
  5
F17
  8
0
 10
0.0
 20
0.0
 30
0.0
 70
   128
 71
     4
 72
     6
 73
    15
  0
VERTEX
  5
F18
  8
0
 10
0.0
 20
0.0
 30
0.0
 70
   128
 71
    14
 72
     4
 73
    15
  0
VERTEX
  5
F19
  8
0
 10
0.0
 20
0.0
 30
0.0
 70
   128
 71
    16
 72
     7
 73
     5
  0
VERTEX
  5
F1A
  8
0
 10
0.0
 20
0.0
 30
0.0
 70
   128
 71
    17
 72
    16
 73
     5
  0
VERTEX
  5
F1B
  8
0
 10
0.0
 20
0.0
 30
0.0
 70
   128
 71
    18
 72
    19
 73
    20
  0
VERTEX
  5
F1C
  8
0
 10
0.0
 20
0.0
 30
0.0
 70
   128
 71
     9
 72
     8
 73
    18
  0
VERTEX
  5
F1D
  8
0
 10
0.0
 20
0.0
 30
0.0
 70
   128
 71
    20
 72
     9
 73
    18
  0
SEQEND
  5
192E
  8
0
  0
POLYLINE
  5
F1E
  8
0
 66
     1
 10
0.0
 20
0.0
 30
0.0
 70
    64
 71
    21
 72
    19
  0
VERTEX
  5
F1F
  8
0
 10
-67.7274550095049
 20
-13.0
 30
-155.3946005644439
 70
   192
  0
VERTEX
  5
F20
  8
0
 10
-12.12180393420094
 20
-13.0
 30
-156.558027232344
 70
   192
  0
VERTEX
  5
F21
  8
0
 10
-4.30362581654249
 20
-13.88015985767724
 30
-153.5129081440447
 70
   192
  0
VERTEX
  5
F22
  8
0
 10
-171.7992585455993
 20
-13.22689856173176
 30
-126.2751621980109
 70
   192
  0
VERTEX
  5
F23
  8
0
 10
-123.0744175471296
 20
-13.0
 30
-150.3446889204171
 70
   192
  0
VERTEX
  5
F24
  8
0
 10
-172.9508775352265
 20
-12.99999999999999
 30
-127.434935230201
 70
   192
  0
VERTEX
  5
F25
  8
0
 10
-170.7347397867752
 20
-13.8904332611551
 30
-125.2031061101339
 70
   192
  0
VERTEX
  5
F26
  8
0
 10
-130.9845495025096
 20
-15.65262494202499
 30
-143.5375953006192
 70
   192
  0
VERTEX
  5
F27
  8
0
 10
-169.8378338505255
 20
-14.94041907528394
 30
-124.2998496280484
 70
   192
  0
VERTEX
  5
F28
  8
0
 10
-87.55241948257446
 20
-16.14665082206389
 30
-149.1554071265881
 70
   192
  0
VERTEX
  5
F29
  8
0
 10
0.0330057518155871
 20
-16.43187622352351
 30
-151.2334946830044
 70
   192
  0
VERTEX
  5
F2A
  8
0
 10
4.289671641732312
 20
-13.88141725631722
 30
-153.5109259965552
 70
   192
  0
VERTEX
  5
F2B
  8
0
 10
12.12201771144278
 20
-13.0
 30
-156.5581216640795
 70
   192
  0
VERTEX
  5
F2C
  8
0
 10
67.75697934188815
 20
-13.0
 30
-155.3907743041973
 70
   192
  0
VERTEX
  5
F2D
  8
0
 10
123.0979728329626
 20
-13.0
 30
-150.3398617075191
 70
   192
  0
VERTEX
  5
F2E
  8
0
 10
130.9869729027589
 20
-15.65261689430634
 30
-143.5369172718755
 70
   192
  0
VERTEX
  5
F2F
  8
0
 10
87.63153052779202
 20
-16.14621510259295
 30
-149.1467419449828
 70
   192
  0
VERTEX
  5
F30
  8
0
 10
170.7347439136556
 20
-13.89043373943853
 30
-125.2031093771466
 70
   192
  0
VERTEX
  5
F31
  8
0
 10
169.8378397642089
 20
-14.94042008306231
 30
-124.2998509108515
 70
   192
  0
VERTEX
  5
F32
  8
0
 10
171.7992606653489
 20
-13.22689868600209
 30
-126.2751679344328
 70
   192
  0
VERTEX
  5
F33
  8
0
 10
172.9508775352265
 20
-13.0
 30
-127.434943690055
 70
   192
  0
VERTEX
  5
F34
  8
0
 10
0.0
 20
0.0
 30
0.0
 70
   128
 71
     1
 72
     2
 73
     3
  0
VERTEX
  5
F35
  8
0
 10
0.0
 20
0.0
 30
0.0
 70
   128
 71
     1
 72
     3
 73
     4
  0
VERTEX
  5
F36
  8
0
 10
0.0
 20
0.0
 30
0.0
 70
   128
 71
     4
 72
     5
 73
     1
  0
VERTEX
  5
F37
  8
0
 10
0.0
 20
0.0
 30
0.0
 70
   128
 71
     4
 72
     6
 73
     5
  0
VERTEX
  5
F38
  8
0
 10
0.0
 20
0.0
 30
0.0
 70
   128
 71
     7
 72
     4
 73
     3
  0
VERTEX
  5
F39
  8
0
 10
0.0
 20
0.0
 30
0.0
 70
   128
 71
     8
 72
     9
 73
     7
  0
VERTEX
  5
F3A
  8
0
 10
0.0
 20
0.0
 30
0.0
 70
   128
 71
     7
 72
    10
 73
     8
  0
VERTEX
  5
F3B
  8
0
 10
0.0
 20
0.0
 30
0.0
 70
   128
 71
     7
 72
    11
 73
    10
  0
VERTEX
  5
F3C
  8
0
 10
0.0
 20
0.0
 30
0.0
 70
   128
 71
    12
 72
    13
 73
    14
  0
VERTEX
  5
F3D
  8
0
 10
0.0
 20
0.0
 30
0.0
 70
   128
 71
    14
 72
    15
 73
    16
  0
VERTEX
  5
F3E
  8
0
 10
0.0
 20
0.0
 30
0.0
 70
   128
 71
    14
 72
    16
 73
    17
  0
VERTEX
  5
F3F
  8
0
 10
0.0
 20
0.0
 30
0.0
 70
   128
 71
    18
 72
    19
 73
    16
  0
VERTEX
  5
F40
  8
0
 10
0.0
 20
0.0
 30
0.0
 70
   128
 71
    16
 72
    15
 73
    20
  0
VERTEX
  5
F41
  8
0
 10
0.0
 20
0.0
 30
0.0
 70
   128
 71
    16
 72
    20
 73
    18
  0
VERTEX
  5
F42
  8
0
 10
0.0
 20
0.0
 30
0.0
 70
   128
 71
    15
 72
    21
 73
    20
  0
VERTEX
  5
F43
  8
0
 10
0.0
 20
0.0
 30
0.0
 70
   128
 71
    12
 72
    14
 73
    17
  0
VERTEX
  5
F44
  8
0
 10
0.0
 20
0.0
 30
0.0
 70
   128
 71
    17
 72
    11
 73
     7
  0
VERTEX
  5
F45
  8
0
 10
0.0
 20
0.0
 30
0.0
 70
   128
 71
    17
 72
     7
 73
    12
  0
VERTEX
  5
F46
  8
0
 10
0.0
 20
0.0
 30
0.0
 70
   128
 71
    12
 72
     7
 73
     3
  0
SEQEND
  5
192F
  8
0
  0
POLYLINE
  5
F47
  8
0
 66
     1
 10
0.0
 20
0.0
 30
0.0
 70
    64
 71
    20
 72
    18
  0
VERTEX
  5
F48
  8
0
 10
35.0270088758879
 20
-81.0681663827344
 30
0.0000000000000104
 70
   192
  0
VERTEX
  5
F49
  8
0
 10
35.00005661674649
 20
-81.06847083439271
 30
1.324857186247822
 70
   192
  0
VERTEX
  5
F4A
  8
0
 10
35.66479961324421
 20
-80.4767757727944
 30
4.073201054060867
 70
   192
  0
VERTEX
  5
F4B
  8
0
 10
34.92060734792155
 20
-81.06877528605098
 30
2.648553921894639
 70
   192
  0
VERTEX
  5
F4C
  8
0
 10
34.78968383823944
 20
-81.06907973770919
 30
3.968900654614255
 70
   192
  0
VERTEX
  5
F4D
  8
0
 10
36.6443931066767
 20
-80.08393449965055
 30
4.189830816900963
 70
   192
  0
VERTEX
  5
F4E
  8
0
 10
37.68428346942409
 20
-79.90827353393193
 30
4.313529800035749
 70
   192
  0
VERTEX
  5
F4F
  8
0
 10
37.82494765248936
 20
-79.90783316066762
 30
2.88191861258003
 70
   192
  0
VERTEX
  5
F50
  8
0
 10
37.91038747212468
 20
-79.90757974885372
 30
1.444126300133486
 70
   192
  0
VERTEX
  5
F51
  8
0
 10
37.9392371413752
 20
-79.90749977900309
 30
-0.0000000000000484
 70
   192
  0
VERTEX
  5
F52
  8
0
 10
27.62541485498472
 20
-79.92214770913849
 30
-26.09987611228453
 70
   192
  0
VERTEX
  5
F53
  8
0
 10
-24.4660737770549
 20
-79.92083659594606
 30
-29.07152040707278
 70
   192
  0
VERTEX
  5
F54
  8
0
 10
-22.56112966041374
 20
-81.0840279030703
 30
-26.80939223706929
 70
   192
  0
VERTEX
  5
F55
  8
0
 10
1.99897323918824
 20
-81.06346948603894
 30
-34.97226766318587
 70
   192
  0
VERTEX
  5
F56
  8
0
 10
2.173732477308203
 20
-79.9044619535612
 30
-37.8532266025728
 70
   192
  0
VERTEX
  5
F57
  8
0
 10
-37.684280643224
 20
-79.9082735444053
 30
-4.313553624051564
 70
   192
  0
VERTEX
  5
F58
  8
0
 10
-36.64439036226006
 20
-80.08393450189523
 30
-4.189853979086369
 70
   192
  0
VERTEX
  5
F59
  8
0
 10
-35.66479694403823
 20
-80.47677576549088
 30
-4.073223592020724
 70
   192
  0
VERTEX
  5
F5A
  8
0
 10
-34.78968123391694
 20
-81.06907972011399
 30
-3.96892263406361
 70
   192
  0
VERTEX
  5
F5B
  8
0
 10
25.46439193677566
 20
-81.0856561105878
 30
-24.07186672274097
 70
   192
  0
VERTEX
  5
F5C
  8
0
 10
0.0
 20
0.0
 30
0.0
 70
   128
 71
     1
 72
     2
 73
     3
  0
VERTEX
  5
F5D
  8
0
 10
0.0
 20
0.0
 30
0.0
 70
   128
 71
     2
 72
     4
 73
     3
  0
VERTEX
  5
F5E
  8
0
 10
0.0
 20
0.0
 30
0.0
 70
   128
 71
     4
 72
     5
 73
     3
  0
VERTEX
  5
F5F
  8
0
 10
0.0
 20
0.0
 30
0.0
 70
   128
 71
     6
 72
     7
 73
     8
  0
VERTEX
  5
F60
  8
0
 10
0.0
 20
0.0
 30
0.0
 70
   128
 71
     8
 72
     9
 73
     6
  0
VERTEX
  5
F61
  8
0
 10
0.0
 20
0.0
 30
0.0
 70
   128
 71
     9
 72
    10
 73
     6
  0
VERTEX
  5
F62
  8
0
 10
0.0
 20
0.0
 30
0.0
 70
   128
 71
    10
 72
    11
 73
     6
  0
VERTEX
  5
F63
  8
0
 10
0.0
 20
0.0
 30
0.0
 70
   128
 71
    12
 72
    13
 73
    14
  0
VERTEX
  5
F64
  8
0
 10
0.0
 20
0.0
 30
0.0
 70
   128
 71
    15
 72
    12
 73
    14
  0
VERTEX
  5
F65
  8
0
 10
0.0
 20
0.0
 30
0.0
 70
   128
 71
    12
 72
    16
 73
    17
  0
VERTEX
  5
F66
  8
0
 10
0.0
 20
0.0
 30
0.0
 70
   128
 71
    17
 72
    18
 73
    12
  0
VERTEX
  5
F67
  8
0
 10
0.0
 20
0.0
 30
0.0
 70
   128
 71
    18
 72
    13
 73
    12
  0
VERTEX
  5
F68
  8
0
 10
0.0
 20
0.0
 30
0.0
 70
   128
 71
    18
 72
    19
 73
    13
  0
VERTEX
  5
F69
  8
0
 10
0.0
 20
0.0
 30
0.0
 70
   128
 71
     3
 72
    14
 73
    20
  0
VERTEX
  5
F6A
  8
0
 10
0.0
 20
0.0
 30
0.0
 70
   128
 71
    20
 72
     1
 73
     3
  0
VERTEX
  5
F6B
  8
0
 10
0.0
 20
0.0
 30
0.0
 70
   128
 71
     3
 72
     6
 73
    14
  0
VERTEX
  5
F6C
  8
0
 10
0.0
 20
0.0
 30
0.0
 70
   128
 71
    14
 72
     6
 73
    11
  0
VERTEX
  5
F6D
  8
0
 10
0.0
 20
0.0
 30
0.0
 70
   128
 71
    15
 72
    14
 73
    11
  0
SEQEND
  5
1930
  8
0
  0
POLYLINE
  5
F6E
  8
0
 66
     1
 10
0.0
 20
0.0
 30
0.0
 70
    64
 71
    30
 72
    28
  0
VERTEX
  5
F6F
  8
0
 10
-109.8553764551074
 20
-52.8147378247721
 30
-224.527125194508
 70
   192
  0
VERTEX
  5
F70
  8
0
 10
-127.130747248556
 20
-71.85153657716224
 30
-225.524801541779
 70
   192
  0
VERTEX
  5
F71
  8
0
 10
-152.9041748642494
 20
-71.83631305956855
 30
-225.5240037110292
 70
   192
  0
VERTEX
  5
F72
  8
0
 10
-170.144623544893
 20
-52.8147378247721
 30
-224.527125194508
 70
   192
  0
VERTEX
  5
F73
  8
0
 10
-171.5211369280159
 20
-48.46911195146754
 30
-224.2993805928933
 70
   192
  0
VERTEX
  5
F74
  8
0
 10
-172.7776042344663
 20
-44.40435436943316
 30
-224.0863556746951
 70
   192
  0
VERTEX
  5
F75
  8
0
 10
-173.9035338666415
 20
-40.65440611372935
 30
-223.8898292141875
 70
   192
  0
VERTEX
  5
F76
  8
0
 10
-177.0137046524542
 20
-100.0
 30
-227.0000000000002
 70
   192
  0
VERTEX
  5
F77
  8
0
 10
177.0137046524545
 20
-100.0
 30
-227.0
 70
   192
  0
VERTEX
  5
F78
  8
0
 10
173.9035338666416
 20
-40.65440611372921
 30
-223.8898292141871
 70
   192
  0
VERTEX
  5
F79
  8
0
 10
172.777604234466
 20
-44.40435436943298
 30
-224.0863556746951
 70
   192
  0
VERTEX
  5
F7A
  8
0
 10
171.5211369280157
 20
-48.46911195146738
 30
-224.2993805928933
 70
   192
  0
VERTEX
  5
F7B
  8
0
 10
170.1446235448925
 20
-52.8147378247721
 30
-224.527125194508
 70
   192
  0
VERTEX
  5
F7C
  8
0
 10
152.8692527514401
 20
-71.85153657716391
 30
-225.5248015417793
 70
   192
  0
VERTEX
  5
F7D
  8
0
 10
127.0958251357482
 20
-71.8363130595676
 30
-225.5240037110292
 70
   192
  0
VERTEX
  5
F7E
  8
0
 10
109.855376455107
 20
-52.81473782477219
 30
-224.527125194508
 70
   192
  0
VERTEX
  5
F7F
  8
0
 10
105.0933980834797
 20
-37.19158332574851
 30
-223.7083503618184
 70
   192
  0
VERTEX
  5
F80
  8
0
 10
102.551144277449
 20
-26.99564819023713
 30
-223.1740040436524
 70
   192
  0
VERTEX
  5
F81
  8
0
 10
102.5702283832668
 20
-23.59700314506645
 30
-222.9958886042635
 70
   192
  0
VERTEX
  5
F82
  8
0
 10
111.0524343845652
 20
-23.5970031450665
 30
-222.9958886042635
 70
   192
  0
VERTEX
  5
F83
  8
0
 10
111.3002220509439
 20
-23.22026212755449
 30
-222.9761444441709
 70
   192
  0
VERTEX
  5
F84
  8
0
 10
111.5529234483218
 20
-22.84677598973161
 30
-222.9565708650947
 70
   192
  0
VERTEX
  5
F85
  8
0
 10
111.8104738218644
 20
-22.47664043757055
 30
-222.9371728827725
 70
   192
  0
VERTEX
  5
F86
  8
0
 10
-111.8104738218648
 20
-22.47664043757055
 30
-222.9371728827725
 70
   192
  0
VERTEX
  5
F87
  8
0
 10
-111.5529234483222
 20
-22.84677598973161
 30
-222.9565708650949
 70
   192
  0
VERTEX
  5
F88
  8
0
 10
-111.3002220509443
 20
-23.2202621275545
 30
-222.976144444171
 70
   192
  0
VERTEX
  5
F89
  8
0
 10
-111.0524343845654
 20
-23.59700314506665
 30
-222.9958886042635
 70
   192
  0
VERTEX
  5
F8A
  8
0
 10
-102.570228383267
 20
-23.5970031450665
 30
-222.9958886042635
 70
   192
  0
VERTEX
  5
F8B
  8
0
 10
-102.5511442774491
 20
-26.99564819023707
 30
-223.1740040436522
 70
   192
  0
VERTEX
  5
F8C
  8
0
 10
-105.0933980834799
 20
-37.19158332574842
 30
-223.7083503618183
 70
   192
  0
VERTEX
  5
F8D
  8
0
 10
0.0
 20
0.0
 30
0.0
 70
   128
 71
   -28
 72
    24
 73
   -25
  0
VERTEX
  5
F8E
  8
0
 10
0.0
 20
0.0
 30
0.0
 70
   128
 71
    25
 72
   -26
 73
   -28
  0
VERTEX
  5
F8F
  8
0
 10
0.0
 20
0.0
 30
0.0
 70
   128
 71
    26
 72
    27
 73
   -28
  0
VERTEX
  5
F90
  8
0
 10
0.0
 20
0.0
 30
0.0
 70
   128
 71
    23
 72
   -24
 73
   -28
  0
VERTEX
  5
F91
  8
0
 10
0.0
 20
0.0
 30
0.0
 70
   128
 71
    28
 72
   -29
 73
   -23
  0
VERTEX
  5
F92
  8
0
 10
0.0
 20
0.0
 30
0.0
 70
   128
 71
   -30
 72
    18
 73
   -19
  0
VERTEX
  5
F93
  8
0
 10
0.0
 20
0.0
 30
0.0
 70
   128
 71
    29
 72
   -30
 73
   -19
  0
VERTEX
  5
F94
  8
0
 10
0.0
 20
0.0
 30
0.0
 70
   128
 71
   -19
 72
   -21
 73
   -29
  0
VERTEX
  5
F95
  8
0
 10
0.0
 20
0.0
 30
0.0
 70
   128
 71
    19
 72
    20
 73
   -21
  0
VERTEX
  5
F96
  8
0
 10
0.0
 20
0.0
 30
0.0
 70
   128
 71
    21
 72
   -22
 73
   -29
  0
VERTEX
  5
F97
  8
0
 10
0.0
 20
0.0
 30
0.0
 70
   128
 71
    22
 72
   -23
 73
   -29
  0
VERTEX
  5
F98
  8
0
 10
0.0
 20
0.0
 30
0.0
 70
   128
 71
    30
 72
    -1
 73
   -18
  0
VERTEX
  5
F99
  8
0
 10
0.0
 20
0.0
 30
0.0
 70
   128
 71
     9
 72
    10
 73
   -11
  0
VERTEX
  5
F9A
  8
0
 10
0.0
 20
0.0
 30
0.0
 70
   128
 71
    11
 72
   -12
 73
    -9
  0
VERTEX
  5
F9B
  8
0
 10
0.0
 20
0.0
 30
0.0
 70
   128
 71
    12
 72
   -13
 73
    -9
  0
VERTEX
  5
F9C
  8
0
 10
0.0
 20
0.0
 30
0.0
 70
   128
 71
    13
 72
   -14
 73
    -9
  0
VERTEX
  5
F9D
  8
0
 10
0.0
 20
0.0
 30
0.0
 70
   128
 71
    14
 72
   -15
 73
    -9
  0
VERTEX
  5
F9E
  8
0
 10
0.0
 20
0.0
 30
0.0
 70
   128
 71
     8
 72
    -9
 73
   -15
  0
VERTEX
  5
F9F
  8
0
 10
0.0
 20
0.0
 30
0.0
 70
   128
 71
    15
 72
   -16
 73
    -8
  0
VERTEX
  5
FA0
  8
0
 10
0.0
 20
0.0
 30
0.0
 70
   128
 71
    16
 72
   -17
 73
    -8
  0
VERTEX
  5
FA1
  8
0
 10
0.0
 20
0.0
 30
0.0
 70
   128
 71
   -18
 72
     1
 73
    -2
  0
VERTEX
  5
FA2
  8
0
 10
0.0
 20
0.0
 30
0.0
 70
   128
 71
    -8
 72
    17
 73
   -18
  0
VERTEX
  5
FA3
  8
0
 10
0.0
 20
0.0
 30
0.0
 70
   128
 71
    -2
 72
    -8
 73
   -18
  0
VERTEX
  5
FA4
  8
0
 10
0.0
 20
0.0
 30
0.0
 70
   128
 71
     2
 72
    -3
 73
    -8
  0
VERTEX
  5
FA5
  8
0
 10
0.0
 20
0.0
 30
0.0
 70
   128
 71
     3
 72
    -4
 73
    -8
  0
VERTEX
  5
FA6
  8
0
 10
0.0
 20
0.0
 30
0.0
 70
   128
 71
     4
 72
    -5
 73
    -8
  0
VERTEX
  5
FA7
  8
0
 10
0.0
 20
0.0
 30
0.0
 70
   128
 71
     5
 72
    -6
 73
    -8
  0
VERTEX
  5
FA8
  8
0
 10
0.0
 20
0.0
 30
0.0
 70
   128
 71
     6
 72
     7
 73
    -8
  0
SEQEND
  5
1931
  8
0
  0
POLYLINE
  5
FA9
  8
0
 66
     1
 10
0.0
 20
0.0
 30
0.0
 70
    64
 71
     6
 72
     4
  0
VERTEX
  5
FAA
  8
0
 10
168.189526178135
 20
-22.47664043757055
 30
-222.9371728827725
 70
   192
  0
VERTEX
  5
FAB
  8
0
 10
168.4470765516777
 20
-22.8467759897316
 30
-222.9565708650947
 70
   192
  0
VERTEX
  5
FAC
  8
0
 10
168.6997779490557
 20
-23.22026212755448
 30
-222.9761444441708
 70
   192
  0
VERTEX
  5
FAD
  8
0
 10
168.9475656154345
 20
-23.59700314506665
 30
-222.9958886042635
 70
   192
  0
VERTEX
  5
FAE
  8
0
 10
173.009593256718
 20
-23.5970031450665
 30
-222.9958886042635
 70
   192
  0
VERTEX
  5
FAF
  8
0
 10
172.9508775352267
 20
-22.47664043757056
 30
-222.9371728827722
 70
   192
  0
VERTEX
  5
FB0
  8
0
 10
0.0
 20
0.0
 30
0.0
 70
   128
 71
     6
 72
     1
 73
    -2
  0
VERTEX
  5
FB1
  8
0
 10
0.0
 20
0.0
 30
0.0
 70
   128
 71
     2
 72
    -3
 73
    -6
  0
VERTEX
  5
FB2
  8
0
 10
0.0
 20
0.0
 30
0.0
 70
   128
 71
     4
 72
     5
 73
    -6
  0
VERTEX
  5
FB3
  8
0
 10
0.0
 20
0.0
 30
0.0
 70
   128
 71
     3
 72
    -4
 73
    -6
  0
SEQEND
  5
1932
  8
0
  0
POLYLINE
  5
FB4
  8
0
 66
     1
 10
0.0
 20
0.0
 30
0.0
 70
    64
 71
     6
 72
     4
  0
VERTEX
  5
FB5
  8
0
 10
-172.9508775352266
 20
-22.47664043757057
 30
-222.9371728827726
 70
   192
  0
VERTEX
  5
FB6
  8
0
 10
-173.009593256718
 20
-23.59700314506648
 30
-222.9958886042639
 70
   192
  0
VERTEX
  5
FB7
  8
0
 10
-168.9475656154345
 20
-23.5970031450665
 30
-222.9958886042635
 70
   192
  0
VERTEX
  5
FB8
  8
0
 10
-168.6997779490558
 20
-23.22026212755447
 30
-222.9761444441709
 70
   192
  0
VERTEX
  5
FB9
  8
0
 10
-168.4470765516781
 20
-22.84677598973159
 30
-222.9565708650947
 70
   192
  0
VERTEX
  5
FBA
  8
0
 10
-168.1895261781355
 20
-22.47664043757055
 30
-222.9371728827725
 70
   192
  0
VERTEX
  5
FBB
  8
0
 10
0.0
 20
0.0
 30
0.0
 70
   128
 71
     2
 72
     3
 73
    -4
  0
VERTEX
  5
FBC
  8
0
 10
0.0
 20
0.0
 30
0.0
 70
   128
 71
     1
 72
    -2
 73
    -4
  0
VERTEX
  5
FBD
  8
0
 10
0.0
 20
0.0
 30
0.0
 70
   128
 71
     4
 72
    -5
 73
    -1
  0
VERTEX
  5
FBE
  8
0
 10
0.0
 20
0.0
 30
0.0
 70
   128
 71
     5
 72
     6
 73
    -1
  0
SEQEND
  5
1933
  8
0
  0
POLYLINE
  5
FBF
  8
0
 66
     1
 10
0.0
 20
0.0
 30
0.0
 70
    64
 71
    32
 72
    32
  0
VERTEX
  5
FC0
  8
0
 10
-197.9996953439125
 20
-100.0
 30
-244.0
 70
   192
  0
VERTEX
  5
FC1
  8
0
 10
-198.9779276862579
 20
-100.0
 30
-243.7445208382055
 70
   192
  0
VERTEX
  5
FC2
  8
0
 10
-199.7444819215645
 20
-100.0
 30
-242.9780833528218
 70
   192
  0
VERTEX
  5
FC3
  8
0
 10
-200.0
 20
-100.0
 30
-242.0
 70
   192
  0
VERTEX
  5
FC4
  8
0
 10
-200.0
 20
-100.0
 30
153.000456914531
 70
   192
  0
VERTEX
  5
FC5
  8
0
 10
-199.6168607035803
 20
-100.0
 30
154.4674428143204
 70
   192
  0
VERTEX
  5
FC6
  8
0
 10
-198.4674428143206
 20
-100.0
 30
155.6168607035801
 70
   192
  0
VERTEX
  5
FC7
  8
0
 10
-197.000456914531
 20
-100.0
 30
156.0
 70
   192
  0
VERTEX
  5
FC8
  8
0
 10
197.000456914531
 20
-100.0
 30
156.0
 70
   192
  0
VERTEX
  5
FC9
  8
0
 10
198.4674428143202
 20
-100.0
 30
155.6168607035801
 70
   192
  0
VERTEX
  5
FCA
  8
0
 10
199.6168607035799
 20
-100.0
 30
154.4674428143204
 70
   192
  0
VERTEX
  5
FCB
  8
0
 10
200.0
 20
-100.0
 30
153.000456914531
 70
   192
  0
VERTEX
  5
FCC
  8
0
 10
200.0
 20
-100.0
 30
-242.0
 70
   192
  0
VERTEX
  5
FCD
  8
0
 10
199.7444819215644
 20
-100.0
 30
-242.9780833528217
 70
   192
  0
VERTEX
  5
FCE
  8
0
 10
198.9779276862577
 20
-100.0
 30
-243.7445208382055
 70
   192
  0
VERTEX
  5
FCF
  8
0
 10
197.999695343912
 20
-100.0
 30
-244.0
 70
   192
  0
VERTEX
  5
FD0
  8
0
 10
177.0137046524545
 20
-100.0
 30
-227.0
 70
   192
  0
VERTEX
  5
FD1
  8
0
 10
181.8999411184206
 20
-100.0
 30
-225.7249852796051
 70
   192
  0
VERTEX
  5
FD2
  8
0
 10
185.7249852796051
 20
-100.0
 30
-221.8999411184205
 70
   192
  0
VERTEX
  5
FD3
  8
0
 10
187.0
 20
-100.0
 30
-217.013704652454
 70
   192
  0
VERTEX
  5
FD4
  8
0
 10
187.0
 20
-100.0
 30
133.0137046524542
 70
   192
  0
VERTEX
  5
FD5
  8
0
 10
185.7249852796051
 20
-100.0
 30
137.8999411184205
 70
   192
  0
VERTEX
  5
FD6
  8
0
 10
181.8999411184207
 20
-100.0
 30
141.7249852796051
 70
   192
  0
VERTEX
  5
FD7
  8
0
 10
177.0137046524545
 20
-100.0
 30
143.0
 70
   192
  0
VERTEX
  5
FD8
  8
0
 10
-177.0137046524545
 20
-100.0
 30
143.0
 70
   192
  0
VERTEX
  5
FD9
  8
0
 10
-181.8999411184207
 20
-100.0
 30
141.7249852796051
 70
   192
  0
VERTEX
  5
FDA
  8
0
 10
-185.7249852796052
 20
-100.0
 30
137.8999411184205
 70
   192
  0
VERTEX
  5
FDB
  8
0
 10
-187.0
 20
-100.0
 30
133.0137046524542
 70
   192
  0
VERTEX
  5
FDC
  8
0
 10
-187.0
 20
-100.0
 30
-217.013704652454
 70
   192
  0
VERTEX
  5
FDD
  8
0
 10
-185.7249852796052
 20
-100.0
 30
-221.8999411184205
 70
   192
  0
VERTEX
  5
FDE
  8
0
 10
-181.8999411184207
 20
-100.0
 30
-225.7249852796052
 70
   192
  0
VERTEX
  5
FDF
  8
0
 10
-177.0137046524545
 20
-100.0
 30
-227.0
 70
   192
  0
VERTEX
  5
FE0
  8
0
 10
0.0
 20
0.0
 30
0.0
 70
   128
 71
    18
 72
   -17
 73
   -13
  0
VERTEX
  5
FE1
  8
0
 10
0.0
 20
0.0
 30
0.0
 70
   128
 71
   -13
 72
    19
 73
   -18
  0
VERTEX
  5
FE2
  8
0
 10
0.0
 20
0.0
 30
0.0
 70
   128
 71
   -13
 72
    20
 73
   -19
  0
VERTEX
  5
FE3
  8
0
 10
0.0
 20
0.0
 30
0.0
 70
   128
 71
    13
 72
   -12
 73
   -21
  0
VERTEX
  5
FE4
  8
0
 10
0.0
 20
0.0
 30
0.0
 70
   128
 71
   -13
 72
    21
 73
   -20
  0
VERTEX
  5
FE5
  8
0
 10
0.0
 20
0.0
 30
0.0
 70
   128
 71
   -12
 72
    22
 73
   -21
  0
VERTEX
  5
FE6
  8
0
 10
0.0
 20
0.0
 30
0.0
 70
   128
 71
   -12
 72
    23
 73
   -22
  0
VERTEX
  5
FE7
  8
0
 10
0.0
 20
0.0
 30
0.0
 70
   128
 71
   -12
 72
    24
 73
   -23
  0
VERTEX
  5
FE8
  8
0
 10
0.0
 20
0.0
 30
0.0
 70
   128
 71
    12
 72
    11
 73
   -10
  0
VERTEX
  5
FE9
  8
0
 10
0.0
 20
0.0
 30
0.0
 70
   128
 71
   -12
 72
    10
 73
    -9
  0
VERTEX
  5
FEA
  8
0
 10
0.0
 20
0.0
 30
0.0
 70
   128
 71
   -12
 72
     9
 73
    -8
  0
VERTEX
  5
FEB
  8
0
 10
0.0
 20
0.0
 30
0.0
 70
   128
 71
   -12
 72
    -8
 73
   -25
  0
VERTEX
  5
FEC
  8
0
 10
0.0
 20
0.0
 30
0.0
 70
   128
 71
   -12
 72
    25
 73
   -24
  0
VERTEX
  5
FED
  8
0
 10
0.0
 20
0.0
 30
0.0
 70
   128
 71
    -8
 72
    26
 73
   -25
  0
VERTEX
  5
FEE
  8
0
 10
0.0
 20
0.0
 30
0.0
 70
   128
 71
    -8
 72
    27
 73
   -26
  0
VERTEX
  5
FEF
  8
0
 10
0.0
 20
0.0
 30
0.0
 70
   128
 71
    -8
 72
    28
 73
   -27
  0
VERTEX
  5
FF0
  8
0
 10
0.0
 20
0.0
 30
0.0
 70
   128
 71
     8
 72
     7
 73
    -6
  0
VERTEX
  5
FF1
  8
0
 10
0.0
 20
0.0
 30
0.0
 70
   128
 71
    -8
 72
     6
 73
    -5
  0
VERTEX
  5
FF2
  8
0
 10
0.0
 20
0.0
 30
0.0
 70
   128
 71
    -8
 72
     5
 73
    -4
  0
VERTEX
  5
FF3
  8
0
 10
0.0
 20
0.0
 30
0.0
 70
   128
 71
    -8
 72
    -4
 73
   -29
  0
VERTEX
  5
FF4
  8
0
 10
0.0
 20
0.0
 30
0.0
 70
   128
 71
    -8
 72
    29
 73
   -28
  0
VERTEX
  5
FF5
  8
0
 10
0.0
 20
0.0
 30
0.0
 70
   128
 71
    -4
 72
    30
 73
   -29
  0
VERTEX
  5
FF6
  8
0
 10
0.0
 20
0.0
 30
0.0
 70
   128
 71
    -4
 72
    31
 73
   -30
  0
VERTEX
  5
FF7
  8
0
 10
0.0
 20
0.0
 30
0.0
 70
   128
 71
    -4
 72
    32
 73
   -31
  0
VERTEX
  5
FF8
  8
0
 10
0.0
 20
0.0
 30
0.0
 70
   128
 71
     4
 72
     3
 73
    -2
  0
VERTEX
  5
FF9
  8
0
 10
0.0
 20
0.0
 30
0.0
 70
   128
 71
    -4
 72
     2
 73
    -1
  0
VERTEX
  5
FFA
  8
0
 10
0.0
 20
0.0
 30
0.0
 70
   128
 71
    -4
 72
     1
 73
   -16
  0
VERTEX
  5
FFB
  8
0
 10
0.0
 20
0.0
 30
0.0
 70
   128
 71
    -4
 72
    16
 73
   -15
  0
VERTEX
  5
FFC
  8
0
 10
0.0
 20
0.0
 30
0.0
 70
   128
 71
    -4
 72
    15
 73
   -14
  0
VERTEX
  5
FFD
  8
0
 10
0.0
 20
0.0
 30
0.0
 70
   128
 71
    -4
 72
    14
 73
   -13
  0
VERTEX
  5
FFE
  8
0
 10
0.0
 20
0.0
 30
0.0
 70
   128
 71
    -4
 72
   -13
 73
   -17
  0
VERTEX
  5
FFF
  8
0
 10
0.0
 20
0.0
 30
0.0
 70
   128
 71
    -4
 72
    17
 73
   -32
  0
SEQEND
  5
1934
  8
0
  0
POLYLINE
  5
1000
  8
0
 66
     1
 10
0.0
 20
0.0
 30
0.0
 70
    64
 71
    38
 72
    40
  0
VERTEX
  5
1001
  8
0
 10
-195.2892512857905
 20
0.0
 30
152.289098980947
 70
   192
  0
VERTEX
  5
1002
  8
0
 10
195.2892512857905
 20
0.0
 30
152.289098980947
 70
   192
  0
VERTEX
  5
1003
  8
0
 10
195.5465876415998
 20
-0.0000000000000012
 30
152.2554234472262
 70
   192
  0
VERTEX
  5
1004
  8
0
 10
195.7905091892516
 20
-0.0000000000000017
 30
152.1543968460638
 70
   192
  0
VERTEX
  5
1005
  8
0
 10
195.9962688420725
 20
-0.0000000000000017
 30
151.9962688420725
 70
   192
  0
VERTEX
  5
1006
  8
0
 10
196.1543968460638
 20
-0.0000000000000017
 30
151.7905091892515
 70
   192
  0
VERTEX
  5
1007
  8
0
 10
196.2554234472262
 20
-0.0000000000000012
 30
151.5465876415999
 70
   192
  0
VERTEX
  5
1008
  8
0
 10
196.289098980947
 20
0.0
 30
151.2892512857905
 70
   192
  0
VERTEX
  5
1009
  8
0
 10
196.289098980947
 20
0.0
 30
-242.0
 70
   192
  0
VERTEX
  5
100A
  8
0
 10
-196.289098980947
 20
0.0
 30
-242.0
 70
   192
  0
VERTEX
  5
100B
  8
0
 10
-196.289098980947
 20
0.0
 30
151.2892512857905
 70
   192
  0
VERTEX
  5
100C
  8
0
 10
-196.2554234472263
 20
-0.0000000000000012
 30
151.5465876415999
 70
   192
  0
VERTEX
  5
100D
  8
0
 10
-196.154396846064
 20
-0.0000000000000017
 30
151.7905091892516
 70
   192
  0
VERTEX
  5
100E
  8
0
 10
-195.9962688420725
 20
-0.0000000000000017
 30
151.9962688420725
 70
   192
  0
VERTEX
  5
100F
  8
0
 10
-195.7905091892515
 20
-0.0000000000000017
 30
152.1543968460637
 70
   192
  0
VERTEX
  5
1010
  8
0
 10
-195.5465876415999
 20
-0.0000000000000012
 30
152.2554234472261
 70
   192
  0
VERTEX
  5
1011
  8
0
 10
-188.9482219708355
 20
0.0
 30
-52.0231733998806
 70
   192
  0
VERTEX
  5
1012
  8
0
 10
-168.3293165627345
 20
0.0000000000000061
 30
-121.8991840438525
 70
   192
  0
VERTEX
  5
1013
  8
0
 10
-98.87607723451886
 20
0.0000000000000052
 30
-143.8087897915545
 70
   192
  0
VERTEX
  5
1014
  8
0
 10
49.53587867463714
 20
-0.0000000000000043
 30
-145.5240097522706
 70
   192
  0
VERTEX
  5
1015
  8
0
 10
123.4400801586161
 20
-0.0000000000000061
 30
-141.007281998605
 70
   192
  0
VERTEX
  5
1016
  8
0
 10
158.7096145223761
 20
0.0000000000000091
 30
-129.2612704104098
 70
   192
  0
VERTEX
  5
1017
  8
0
 10
181.7947544704027
 20
0.0000000000000013
 30
-100.6281929166446
 70
   192
  0
VERTEX
  5
1018
  8
0
 10
189.0525860440965
 20
0.0000000000000013
 30
48.5575687700238
 70
   192
  0
VERTEX
  5
1019
  8
0
 10
170.4341959574939
 20
-0.0000000000000065
 30
119.7455061696509
 70
   192
  0
VERTEX
  5
101A
  8
0
 10
100.9144375302496
 20
-0.0000000000000013
 30
143.6550628486825
 70
   192
  0
VERTEX
  5
101B
  8
0
 10
-49.47929380142087
 20
0.0000000000000091
 30
145.5247999691933
 70
   192
  0
VERTEX
  5
101C
  8
0
 10
-124.3962160527969
 20
-0.0000000000000226
 30
140.8442050360427
 70
   192
  0
VERTEX
  5
101D
  8
0
 10
-160.0327791362544
 20
-0.0000000000000039
 30
128.4335773881937
 70
   192
  0
VERTEX
  5
101E
  8
0
 10
-182.4948352429333
 20
0.0000000000000087
 30
98.63963220922372
 70
   192
  0
VERTEX
  5
101F
  8
0
 10
0.0
 20
0.0
 30
-201.5
 70
   192
  0
VERTEX
  5
1020
  8
0
 10
12.37436867076459
 20
0.0
 30
-196.3743686707646
 70
   192
  0
VERTEX
  5
1021
  8
0
 10
17.50000000000002
 20
0.0
 30
-184.0
 70
   192
  0
VERTEX
  5
1022
  8
0
 10
12.37436867076459
 20
0.0
 30
-171.6256313292354
 70
   192
  0
VERTEX
  5
1023
  8
0
 10
0.0
 20
0.0
 30
-166.5
 70
   192
  0
VERTEX
  5
1024
  8
0
 10
-12.37436867076459
 20
0.0
 30
-171.6256313292354
 70
   192
  0
VERTEX
  5
1025
  8
0
 10
-17.50000000000001
 20
0.0
 30
-184.0
 70
   192
  0
VERTEX
  5
1026
  8
0
 10
-12.37436867076459
 20
0.0
 30
-196.3743686707646
 70
   192
  0
VERTEX
  5
1027
  8
0
 10
0.0
 20
0.0
 30
0.0
 70
   128
 71
   -10
 72
    17
 73
   -18
  0
VERTEX
  5
1028
  8
0
 10
0.0
 20
0.0
 30
0.0
 70
   128
 71
    18
 72
   -19
 73
   -10
  0
VERTEX
  5
1029
  8
0
 10
0.0
 20
0.0
 30
0.0
 70
   128
 71
    -9
 72
    31
 73
   -32
  0
VERTEX
  5
102A
  8
0
 10
0.0
 20
0.0
 30
0.0
 70
   128
 71
   -33
 72
   -20
 73
    -9
  0
VERTEX
  5
102B
  8
0
 10
0.0
 20
0.0
 30
0.0
 70
   128
 71
    32
 72
   -33
 73
    -9
  0
VERTEX
  5
102C
  8
0
 10
0.0
 20
0.0
 30
0.0
 70
   128
 71
    33
 72
   -34
 73
   -20
  0
VERTEX
  5
102D
  8
0
 10
0.0
 20
0.0
 30
0.0
 70
   128
 71
    34
 72
   -35
 73
   -20
  0
VERTEX
  5
102E
  8
0
 10
0.0
 20
0.0
 30
0.0
 70
   128
 71
    35
 72
   -36
 73
   -20
  0
VERTEX
  5
102F
  8
0
 10
0.0
 20
0.0
 30
0.0
 70
   128
 71
    19
 72
   -20
 73
   -36
  0
VERTEX
  5
1030
  8
0
 10
0.0
 20
0.0
 30
0.0
 70
   128
 71
    36
 72
   -37
 73
   -19
  0
VERTEX
  5
1031
  8
0
 10
0.0
 20
0.0
 30
0.0
 70
   128
 71
   -38
 72
   -10
 73
   -19
  0
VERTEX
  5
1032
  8
0
 10
0.0
 20
0.0
 30
0.0
 70
   128
 71
    37
 72
   -38
 73
   -19
  0
VERTEX
  5
1033
  8
0
 10
0.0
 20
0.0
 30
0.0
 70
   128
 71
    38
 72
   -31
 73
   -10
  0
VERTEX
  5
1034
  8
0
 10
0.0
 20
0.0
 30
0.0
 70
   128
 71
   -31
 72
     9
 73
   -10
  0
VERTEX
  5
1035
  8
0
 10
0.0
 20
0.0
 30
0.0
 70
   128
 71
    20
 72
   -21
 73
    -9
  0
VERTEX
  5
1036
  8
0
 10
0.0
 20
0.0
 30
0.0
 70
   128
 71
    21
 72
   -22
 73
    -9
  0
VERTEX
  5
1037
  8
0
 10
0.0
 20
0.0
 30
0.0
 70
   128
 71
    22
 72
   -23
 73
    -9
  0
VERTEX
  5
1038
  8
0
 10
0.0
 20
0.0
 30
0.0
 70
   128
 71
    23
 72
   -24
 73
    -9
  0
VERTEX
  5
1039
  8
0
 10
0.0
 20
0.0
 30
0.0
 70
   128
 71
   -24
 72
     8
 73
    -9
  0
VERTEX
  5
103A
  8
0
 10
0.0
 20
0.0
 30
0.0
 70
   128
 71
    24
 72
   -25
 73
    -8
  0
VERTEX
  5
103B
  8
0
 10
0.0
 20
0.0
 30
0.0
 70
   128
 71
     6
 72
     7
 73
    -8
  0
VERTEX
  5
103C
  8
0
 10
0.0
 20
0.0
 30
0.0
 70
   128
 71
     5
 72
    -6
 73
    -8
  0
VERTEX
  5
103D
  8
0
 10
0.0
 20
0.0
 30
0.0
 70
   128
 71
     4
 72
    -5
 73
    -8
  0
VERTEX
  5
103E
  8
0
 10
0.0
 20
0.0
 30
0.0
 70
   128
 71
     3
 72
    -4
 73
    -8
  0
VERTEX
  5
103F
  8
0
 10
0.0
 20
0.0
 30
0.0
 70
   128
 71
     2
 72
    -3
 73
    -8
  0
VERTEX
  5
1040
  8
0
 10
0.0
 20
0.0
 30
0.0
 70
   128
 71
   -26
 72
    -2
 73
    -8
  0
VERTEX
  5
1041
  8
0
 10
0.0
 20
0.0
 30
0.0
 70
   128
 71
    25
 72
   -26
 73
    -8
  0
VERTEX
  5
1042
  8
0
 10
0.0
 20
0.0
 30
0.0
 70
   128
 71
    26
 72
   -27
 73
    -2
  0
VERTEX
  5
1043
  8
0
 10
0.0
 20
0.0
 30
0.0
 70
   128
 71
   -27
 72
     1
 73
    -2
  0
VERTEX
  5
1044
  8
0
 10
0.0
 20
0.0
 30
0.0
 70
   128
 71
    27
 72
   -28
 73
    -1
  0
VERTEX
  5
1045
  8
0
 10
0.0
 20
0.0
 30
0.0
 70
   128
 71
    28
 72
   -29
 73
    -1
  0
VERTEX
  5
1046
  8
0
 10
0.0
 20
0.0
 30
0.0
 70
   128
 71
    29
 72
   -30
 73
    -1
  0
VERTEX
  5
1047
  8
0
 10
0.0
 20
0.0
 30
0.0
 70
   128
 71
    15
 72
    16
 73
    -1
  0
VERTEX
  5
1048
  8
0
 10
0.0
 20
0.0
 30
0.0
 70
   128
 71
    14
 72
   -15
 73
    -1
  0
VERTEX
  5
1049
  8
0
 10
0.0
 20
0.0
 30
0.0
 70
   128
 71
    13
 72
   -14
 73
    -1
  0
VERTEX
  5
104A
  8
0
 10
0.0
 20
0.0
 30
0.0
 70
   128
 71
    12
 72
   -13
 73
    -1
  0
VERTEX
  5
104B
  8
0
 10
0.0
 20
0.0
 30
0.0
 70
   128
 71
    11
 72
   -12
 73
    -1
  0
VERTEX
  5
104C
  8
0
 10
0.0
 20
0.0
 30
0.0
 70
   128
 71
   -17
 72
   -11
 73
    -1
  0
VERTEX
  5
104D
  8
0
 10
0.0
 20
0.0
 30
0.0
 70
   128
 71
    30
 72
   -17
 73
    -1
  0
VERTEX
  5
104E
  8
0
 10
0.0
 20
0.0
 30
0.0
 70
   128
 71
   -17
 72
    10
 73
   -11
  0
SEQEND
  5
1935
  8
0
  0
POLYLINE
  5
104F
  8
0
 66
     1
 10
0.0
 20
0.0
 30
0.0
 70
    64
 71
     4
 72
     2
  0
VERTEX
  5
1050
  8
0
 10
-200.0000000000001
 20
-100.0
 30
153.0004569145306
 70
   192
  0
VERTEX
  5
1051
  8
0
 10
-198.2887943712597
 20
-1.965095187125414
 30
151.2892512857902
 70
   192
  0
VERTEX
  5
1052
  8
0
 10
-198.2887943712595
 20
-1.965095187125435
 30
-242.0
 70
   192
  0
VERTEX
  5
1053
  8
0
 10
-200.0
 20
-100.0
 30
-242.0
 70
   192
  0
VERTEX
  5
1054
  8
0
 10
0.0
 20
0.0
 30
0.0
 70
   128
 71
     3
 72
     4
 73
    -1
  0
VERTEX
  5
1055
  8
0
 10
0.0
 20
0.0
 30
0.0
 70
   128
 71
     2
 72
    -3
 73
     1
  0
SEQEND
  5
1936
  8
0
  0
POLYLINE
  5
1056
  8
0
 66
     1
 10
0.0
 20
0.0
 30
0.0
 70
    64
 71
     4
 72
     2
  0
VERTEX
  5
1057
  8
0
 10
197.0004569145306
 20
-100.0
 30
156.0000000000001
 70
   192
  0
VERTEX
  5
1058
  8
0
 10
195.2892512857903
 20
-1.965095187125414
 30
154.2887943712597
 70
   192
  0
VERTEX
  5
1059
  8
0
 10
-195.2892512857905
 20
-1.965095187125435
 30
154.2887943712595
 70
   192
  0
VERTEX
  5
105A
  8
0
 10
-197.0004569145308
 20
-100.0
 30
155.9999999999998
 70
   192
  0
VERTEX
  5
105B
  8
0
 10
0.0
 20
0.0
 30
0.0
 70
   128
 71
     3
 72
     4
 73
    -1
  0
VERTEX
  5
105C
  8
0
 10
0.0
 20
0.0
 30
0.0
 70
   128
 71
     2
 72
    -3
 73
     1
  0
SEQEND
  5
1937
  8
0
  0
POLYLINE
  5
105D
  8
0
 66
     1
 10
0.0
 20
0.0
 30
0.0
 70
    64
 71
     4
 72
     2
  0
VERTEX
  5
105E
  8
0
 10
200.0
 20
-100.0
 30
-242.0
 70
   192
  0
VERTEX
  5
105F
  8
0
 10
198.2887943712596
 20
-1.965095187125428
 30
-242.0
 70
   192
  0
VERTEX
  5
1060
  8
0
 10
198.2887943712595
 20
-1.965095187125435
 30
151.2892512857905
 70
   192
  0
VERTEX
  5
1061
  8
0
 10
199.9999999999998
 20
-100.0
 30
153.0004569145308
 70
   192
  0
VERTEX
  5
1062
  8
0
 10
0.0
 20
0.0
 30
0.0
 70
   128
 71
     3
 72
     4
 73
    -1
  0
VERTEX
  5
1063
  8
0
 10
0.0
 20
0.0
 30
0.0
 70
   128
 71
     2
 72
    -3
 73
     1
  0
SEQEND
  5
1938
  8
0
  0
POLYLINE
  5
1064
  8
0
 66
     1
 10
0.0
 20
0.0
 30
0.0
 70
    64
 71
    20
 72
    22
  0
VERTEX
  5
1065
  8
0
 10
-197.9996953439125
 20
-100.0
 30
-244.0
 70
   192
  0
VERTEX
  5
1066
  8
0
 10
197.999695343912
 20
-100.0
 30
-244.0
 70
   192
  0
VERTEX
  5
1067
  8
0
 10
196.289098980947
 20
-2.0
 30
-244.0
 70
   192
  0
VERTEX
  5
1068
  8
0
 10
-196.289098980947
 20
-1.999999999999998
 30
-244.0
 70
   192
  0
VERTEX
  5
1069
  8
0
 10
148.0
 20
-42.0
 30
-244.0
 70
   192
  0
VERTEX
  5
106A
  8
0
 10
145.6568542494924
 20
-47.65685424949238
 30
-244.0
 70
   192
  0
VERTEX
  5
106B
  8
0
 10
140.0
 20
-50.00000000000001
 30
-244.0
 70
   192
  0
VERTEX
  5
106C
  8
0
 10
134.3431457505076
 20
-47.65685424949238
 30
-244.0
 70
   192
  0
VERTEX
  5
106D
  8
0
 10
132.0
 20
-42.0
 30
-244.0
 70
   192
  0
VERTEX
  5
106E
  8
0
 10
134.3431457505076
 20
-36.34314575050762
 30
-244.0
 70
   192
  0
VERTEX
  5
106F
  8
0
 10
140.0
 20
-33.99999999999999
 30
-244.0
 70
   192
  0
VERTEX
  5
1070
  8
0
 10
145.6568542494924
 20
-36.34314575050762
 30
-244.0
 70
   192
  0
VERTEX
  5
1071
  8
0
 10
-132.0
 20
-42.0
 30
-244.0
 70
   192
  0
VERTEX
  5
1072
  8
0
 10
-134.3431457505076
 20
-47.65685424949238
 30
-244.0
 70
   192
  0
VERTEX
  5
1073
  8
0
 10
-140.0
 20
-50.00000000000001
 30
-244.0
 70
   192
  0
VERTEX
  5
1074
  8
0
 10
-145.6568542494924
 20
-47.65685424949238
 30
-244.0
 70
   192
  0
VERTEX
  5
1075
  8
0
 10
-148.0
 20
-42.0
 30
-244.0
 70
   192
  0
VERTEX
  5
1076
  8
0
 10
-145.6568542494924
 20
-36.34314575050762
 30
-244.0
 70
   192
  0
VERTEX
  5
1077
  8
0
 10
-140.0
 20
-33.99999999999999
 30
-244.0
 70
   192
  0
VERTEX
  5
1078
  8
0
 10
-134.3431457505076
 20
-36.34314575050762
 30
-244.0
 70
   192
  0
VERTEX
  5
1079
  8
0
 10
0.0
 20
0.0
 30
0.0
 70
   128
 71
     6
 72
    -5
 73
    -3
  0
VERTEX
  5
107A
  8
0
 10
0.0
 20
0.0
 30
0.0
 70
   128
 71
    -6
 72
     3
 73
    -2
  0
VERTEX
  5
107B
  8
0
 10
0.0
 20
0.0
 30
0.0
 70
   128
 71
    -2
 72
     7
 73
    -6
  0
VERTEX
  5
107C
  8
0
 10
0.0
 20
0.0
 30
0.0
 70
   128
 71
    -2
 72
     8
 73
    -7
  0
VERTEX
  5
107D
  8
0
 10
0.0
 20
0.0
 30
0.0
 70
   128
 71
    10
 72
    -9
 73
   -13
  0
VERTEX
  5
107E
  8
0
 10
0.0
 20
0.0
 30
0.0
 70
   128
 71
    14
 72
   -13
 73
    -9
  0
VERTEX
  5
107F
  8
0
 10
0.0
 20
0.0
 30
0.0
 70
   128
 71
    -8
 72
     2
 73
    -1
  0
VERTEX
  5
1080
  8
0
 10
0.0
 20
0.0
 30
0.0
 70
   128
 71
    -8
 72
    -1
 73
   -14
  0
VERTEX
  5
1081
  8
0
 10
0.0
 20
0.0
 30
0.0
 70
   128
 71
   -14
 72
     9
 73
    -8
  0
VERTEX
  5
1082
  8
0
 10
0.0
 20
0.0
 30
0.0
 70
   128
 71
    -1
 72
    15
 73
   -14
  0
VERTEX
  5
1083
  8
0
 10
0.0
 20
0.0
 30
0.0
 70
   128
 71
    -1
 72
    16
 73
   -15
  0
VERTEX
  5
1084
  8
0
 10
0.0
 20
0.0
 30
0.0
 70
   128
 71
     1
 72
    -4
 73
   -16
  0
VERTEX
  5
1085
  8
0
 10
0.0
 20
0.0
 30
0.0
 70
   128
 71
    -4
 72
    17
 73
   -16
  0
VERTEX
  5
1086
  8
0
 10
0.0
 20
0.0
 30
0.0
 70
   128
 71
    -4
 72
    18
 73
   -17
  0
VERTEX
  5
1087
  8
0
 10
0.0
 20
0.0
 30
0.0
 70
   128
 71
    -4
 72
    19
 73
   -18
  0
VERTEX
  5
1088
  8
0
 10
0.0
 20
0.0
 30
0.0
 70
   128
 71
    -4
 72
    20
 73
   -19
  0
VERTEX
  5
1089
  8
0
 10
0.0
 20
0.0
 30
0.0
 70
   128
 71
   -20
 72
     4
 73
    -3
  0
VERTEX
  5
108A
  8
0
 10
0.0
 20
0.0
 30
0.0
 70
   128
 71
   -20
 72
    -3
 73
   -10
  0
VERTEX
  5
108B
  8
0
 10
0.0
 20
0.0
 30
0.0
 70
   128
 71
   -10
 72
    13
 73
   -20
  0
VERTEX
  5
108C
  8
0
 10
0.0
 20
0.0
 30
0.0
 70
   128
 71
    -3
 72
    11
 73
   -10
  0
VERTEX
  5
108D
  8
0
 10
0.0
 20
0.0
 30
0.0
 70
   128
 71
    -3
 72
    12
 73
   -11
  0
VERTEX
  5
108E
  8
0
 10
0.0
 20
0.0
 30
0.0
 70
   128
 71
    -3
 72
     5
 73
   -12
  0
SEQEND
  5
1939
  8
0
  0
POLYLINE
  5
108F
  8
0
 66
     1
 10
0.0
 20
0.0
 30
0.0
 70
    64
 71
    28
 72
    31
  0
VERTEX
  5
1090
  8
0
 10
94.70028539075906
 20
-68.24635860771058
 30
-0.0000000000039709
 70
   192
  0
VERTEX
  5
1091
  8
0
 10
97.29527733503272
 20
-56.41384149365538
 30
85.59711351525705
 70
   192
  0
VERTEX
  5
1092
  8
0
 10
117.727432784541
 20
-56.55928573204932
 30
50.04962383254676
 70
   192
  0
VERTEX
  5
1093
  8
0
 10
37.9392371413752
 20
-79.90749977900309
 30
-0.0000000000000484
 70
   192
  0
VERTEX
  5
1094
  8
0
 10
37.91038747212468
 20
-79.90757974885372
 30
1.444126300133486
 70
   192
  0
VERTEX
  5
1095
  8
0
 10
37.82494765248936
 20
-79.90783316066762
 30
2.88191861258003
 70
   192
  0
VERTEX
  5
1096
  8
0
 10
37.68428346942409
 20
-79.9082735339319
 30
4.313529800035756
 70
   192
  0
VERTEX
  5
1097
  8
0
 10
145.4551976565824
 20
-41.45301879227259
 30
-0.0000000000045155
 70
   192
  0
VERTEX
  5
1098
  8
0
 10
186.7081694436905
 20
-1.129246654216526
 30
48.4943807728841
 70
   192
  0
VERTEX
  5
1099
  8
0
 10
186.9577360232498
 20
-1.146896630132022
 30
32.87973079587265
 70
   192
  0
VERTEX
  5
109A
  8
0
 10
187.0553993266938
 20
-1.157652348049765
 30
16.33632300007476
 70
   192
  0
VERTEX
  5
109B
  8
0
 10
187.1058587979395
 20
-1.161291877003957
 30
-0.0000000000000076
 70
   192
  0
VERTEX
  5
109C
  8
0
 10
0.0000000001214067
 20
-56.20228623780897
 30
102.3000417249403
 70
   192
  0
VERTEX
  5
109D
  8
0
 10
112.0940273753548
 20
-1.643298495303735
 30
139.8972102249895
 70
   192
  0
VERTEX
  5
109E
  8
0
 10
-97.29527766241964
 20
-56.41384149365478
 30
85.59710107391055
 70
   192
  0
VERTEX
  5
109F
  8
0
 10
-23.37994549537864
 20
-1.923285711151973
 30
143.0626521763001
 70
   192
  0
VERTEX
  5
10A0
  8
0
 10
-117.7274617405438
 20
-56.55928573204902
 30
50.04963888970732
 70
   192
  0
VERTEX
  5
10A1
  8
0
 10
-37.9392371413753
 20
-79.90749977900309
 30
-0.000000000000011
 70
   192
  0
VERTEX
  5
10A2
  8
0
 10
-94.7002853907602
 20
-68.24635860771053
 30
0.0000000000000465
 70
   192
  0
VERTEX
  5
10A3
  8
0
 10
-27.64732076129112
 20
-79.92215084896202
 30
26.07664880470271
 70
   192
  0
VERTEX
  5
10A4
  8
0
 10
-145.4551976565836
 20
-41.45301879227276
 30
0.000000000000059
 70
   192
  0
VERTEX
  5
10A5
  8
0
 10
-187.1058587979395
 20
-1.161291877004018
 30
0.0000000000000029
 70
   192
  0
VERTEX
  5
10A6
  8
0
 10
-185.7172119396819
 20
-1.092206201946735
 30
68.4526164169268
 70
   192
  0
VERTEX
  5
10A7
  8
0
 10
-157.0877660057405
 20
-1.16664465741454
 30
127.4661037905091
 70
   192
  0
VERTEX
  5
10A8
  8
0
 10
-178.9194385416301
 20
-0.998897429635449
 30
101.8732136814814
 70
   192
  0
VERTEX
  5
10A9
  8
0
 10
24.47097961878229
 20
-79.92083974752751
 30
29.06742606345167
 70
   192
  0
VERTEX
  5
10AA
  8
0
 10
172.4929146103488
 20
-1.002437477822786
 30
113.6817126134433
 70
   192
  0
VERTEX
  5
10AB
  8
0
 10
-2.19713194250878
 20
-79.90446403308222
 30
37.85181826041831
 70
   192
  0
VERTEX
  5
10AC
  8
0
 10
0.0
 20
0.0
 30
0.0
 70
   128
 71
     1
 72
     2
 73
     3
  0
VERTEX
  5
10AD
  8
0
 10
0.0
 20
0.0
 30
0.0
 70
   128
 71
     1
 72
     4
 73
     5
  0
VERTEX
  5
10AE
  8
0
 10
0.0
 20
0.0
 30
0.0
 70
   128
 71
     5
 72
     6
 73
     1
  0
VERTEX
  5
10AF
  8
0
 10
0.0
 20
0.0
 30
0.0
 70
   128
 71
     6
 72
     7
 73
     1
  0
VERTEX
  5
10B0
  8
0
 10
0.0
 20
0.0
 30
0.0
 70
   128
 71
     8
 72
     3
 73
     9
  0
VERTEX
  5
10B1
  8
0
 10
0.0
 20
0.0
 30
0.0
 70
   128
 71
     9
 72
    10
 73
     8
  0
VERTEX
  5
10B2
  8
0
 10
0.0
 20
0.0
 30
0.0
 70
   128
 71
    10
 72
    11
 73
     8
  0
VERTEX
  5
10B3
  8
0
 10
0.0
 20
0.0
 30
0.0
 70
   128
 71
    11
 72
    12
 73
     8
  0
VERTEX
  5
10B4
  8
0
 10
0.0
 20
0.0
 30
0.0
 70
   128
 71
     2
 72
    13
 73
    14
  0
VERTEX
  5
10B5
  8
0
 10
0.0
 20
0.0
 30
0.0
 70
   128
 71
    13
 72
    15
 73
    16
  0
VERTEX
  5
10B6
  8
0
 10
0.0
 20
0.0
 30
0.0
 70
   128
 71
    17
 72
    18
 73
    19
  0
VERTEX
  5
10B7
  8
0
 10
0.0
 20
0.0
 30
0.0
 70
   128
 71
    15
 72
    20
 73
    18
  0
VERTEX
  5
10B8
  8
0
 10
0.0
 20
0.0
 30
0.0
 70
   128
 71
    17
 72
    15
 73
    18
  0
VERTEX
  5
10B9
  8
0
 10
0.0
 20
0.0
 30
0.0
 70
   128
 71
    21
 72
    22
 73
    23
  0
VERTEX
  5
10BA
  8
0
 10
0.0
 20
0.0
 30
0.0
 70
   128
 71
    17
 72
    21
 73
    23
  0
VERTEX
  5
10BB
  8
0
 10
0.0
 20
0.0
 30
0.0
 70
   128
 71
    24
 72
    15
 73
    17
  0
VERTEX
  5
10BC
  8
0
 10
0.0
 20
0.0
 30
0.0
 70
   128
 71
    25
 72
    24
 73
    17
  0
VERTEX
  5
10BD
  8
0
 10
0.0
 20
0.0
 30
0.0
 70
   128
 71
     8
 72
     1
 73
     3
  0
VERTEX
  5
10BE
  8
0
 10
0.0
 20
0.0
 30
0.0
 70
   128
 71
    21
 72
    17
 73
    19
  0
VERTEX
  5
10BF
  8
0
 10
0.0
 20
0.0
 30
0.0
 70
   128
 71
     1
 72
     7
 73
    26
  0
VERTEX
  5
10C0
  8
0
 10
0.0
 20
0.0
 30
0.0
 70
   128
 71
     2
 72
     1
 73
    26
  0
VERTEX
  5
10C1
  8
0
 10
0.0
 20
0.0
 30
0.0
 70
   128
 71
     3
 72
     2
 73
    27
  0
VERTEX
  5
10C2
  8
0
 10
0.0
 20
0.0
 30
0.0
 70
   128
 71
     9
 72
     3
 73
    27
  0
VERTEX
  5
10C3
  8
0
 10
0.0
 20
0.0
 30
0.0
 70
   128
 71
    27
 72
     2
 73
    14
  0
VERTEX
  5
10C4
  8
0
 10
0.0
 20
0.0
 30
0.0
 70
   128
 71
     2
 72
    26
 73
    28
  0
VERTEX
  5
10C5
  8
0
 10
0.0
 20
0.0
 30
0.0
 70
   128
 71
    13
 72
     2
 73
    28
  0
VERTEX
  5
10C6
  8
0
 10
0.0
 20
0.0
 30
0.0
 70
   128
 71
    14
 72
    13
 73
    16
  0
VERTEX
  5
10C7
  8
0
 10
0.0
 20
0.0
 30
0.0
 70
   128
 71
    13
 72
    28
 73
    20
  0
VERTEX
  5
10C8
  8
0
 10
0.0
 20
0.0
 30
0.0
 70
   128
 71
    15
 72
    13
 73
    20
  0
VERTEX
  5
10C9
  8
0
 10
0.0
 20
0.0
 30
0.0
 70
   128
 71
    16
 72
    15
 73
    24
  0
VERTEX
  5
10CA
  8
0
 10
0.0
 20
0.0
 30
0.0
 70
   128
 71
    25
 72
    17
 73
    23
  0
SEQEND
  5
193A
  8
0
  0
POLYLINE
  5
10CB
  8
0
 66
     1
 10
0.0
 20
0.0
 30
0.0
 70
    64
 71
    24
 72
    24
  0
VERTEX
  5
10CC
  8
0
 10
172.9508775352265
 20
-13.0
 30
-127.434943690055
 70
   192
  0
VERTEX
  5
10CD
  8
0
 10
172.9508775352265
 20
-13.0
 30
-212.9508775352265
 70
   192
  0
VERTEX
  5
10CE
  8
0
 10
7.864266649873549
 20
-13.0
 30
-212.9508775352265
 70
   192
  0
VERTEX
  5
10CF
  8
0
 10
2.648530590398139
 20
-13.0
 30
-213.8829007276366
 70
   192
  0
VERTEX
  5
10D0
  8
0
 10
-2.648614585106121
 20
-13.0
 30
-213.8829005346419
 70
   192
  0
VERTEX
  5
10D1
  8
0
 10
-7.864266649873549
 20
-13.0
 30
-212.9508775352265
 70
   192
  0
VERTEX
  5
10D2
  8
0
 10
-172.9508775352265
 20
-13.0
 30
-212.9508775352265
 70
   192
  0
VERTEX
  5
10D3
  8
0
 10
-172.9508775352265
 20
-13.0
 30
-127.434935230201
 70
   192
  0
VERTEX
  5
10D4
  8
0
 10
-123.0744175471296
 20
-13.0
 30
-150.3446889204171
 70
   192
  0
VERTEX
  5
10D5
  8
0
 10
-67.7274550095049
 20
-13.0
 30
-155.3946005644439
 70
   192
  0
VERTEX
  5
10D6
  8
0
 10
-12.12180393420094
 20
-13.0
 30
-156.558027232344
 70
   192
  0
VERTEX
  5
10D7
  8
0
 10
-4.145860504684151
 20
-13.0
 30
-154.2879043984271
 70
   192
  0
VERTEX
  5
10D8
  8
0
 10
4.146098968889619
 20
-13.0
 30
-154.2879204714582
 70
   192
  0
VERTEX
  5
10D9
  8
0
 10
12.12201771144278
 20
-13.0
 30
-156.5581216640795
 70
   192
  0
VERTEX
  5
10DA
  8
0
 10
67.75697934188815
 20
-13.0
 30
-155.3907743041973
 70
   192
  0
VERTEX
  5
10DB
  8
0
 10
123.0979728329626
 20
-13.0
 30
-150.3398617075191
 70
   192
  0
VERTEX
  5
10DC
  8
0
 10
-0.0000000000000019
 20
-13.0
 30
-166.5
 70
   192
  0
VERTEX
  5
10DD
  8
0
 10
-12.37436867076459
 20
-13.0
 30
-171.6256313292354
 70
   192
  0
VERTEX
  5
10DE
  8
0
 10
-17.50000000000001
 20
-13.0
 30
-184.0
 70
   192
  0
VERTEX
  5
10DF
  8
0
 10
-12.37436867076459
 20
-13.0
 30
-196.3743686707646
 70
   192
  0
VERTEX
  5
10E0
  8
0
 10
0.0
 20
-13.0
 30
-201.5
 70
   192
  0
VERTEX
  5
10E1
  8
0
 10
12.37436867076459
 20
-13.0
 30
-196.3743686707646
 70
   192
  0
VERTEX
  5
10E2
  8
0
 10
17.50000000000002
 20
-13.0
 30
-184.0
 70
   192
  0
VERTEX
  5
10E3
  8
0
 10
12.37436867076459
 20
-13.0
 30
-171.6256313292354
 70
   192
  0
VERTEX
  5
10E4
  8
0
 10
0.0
 20
0.0
 30
0.0
 70
   128
 71
     9
 72
     8
 73
    -7
  0
VERTEX
  5
10E5
  8
0
 10
0.0
 20
0.0
 30
0.0
 70
   128
 71
     7
 72
    -6
 73
   -10
  0
VERTEX
  5
10E6
  8
0
 10
0.0
 20
0.0
 30
0.0
 70
   128
 71
    -7
 72
    10
 73
    -9
  0
VERTEX
  5
10E7
  8
0
 10
0.0
 20
0.0
 30
0.0
 70
   128
 71
    14
 72
    13
 73
   -12
  0
VERTEX
  5
10E8
  8
0
 10
0.0
 20
0.0
 30
0.0
 70
   128
 71
   -14
 72
   -12
 73
   -17
  0
VERTEX
  5
10E9
  8
0
 10
0.0
 20
0.0
 30
0.0
 70
   128
 71
    22
 72
   -21
 73
    -3
  0
VERTEX
  5
10EA
  8
0
 10
0.0
 20
0.0
 30
0.0
 70
   128
 71
    -3
 72
    23
 73
   -22
  0
VERTEX
  5
10EB
  8
0
 10
0.0
 20
0.0
 30
0.0
 70
   128
 71
   -23
 72
    -3
 73
   -15
  0
VERTEX
  5
10EC
  8
0
 10
0.0
 20
0.0
 30
0.0
 70
   128
 71
    15
 72
   -14
 73
   -23
  0
VERTEX
  5
10ED
  8
0
 10
0.0
 20
0.0
 30
0.0
 70
   128
 71
   -14
 72
    24
 73
   -23
  0
VERTEX
  5
10EE
  8
0
 10
0.0
 20
0.0
 30
0.0
 70
   128
 71
   -14
 72
    17
 73
   -24
  0
VERTEX
  5
10EF
  8
0
 10
0.0
 20
0.0
 30
0.0
 70
   128
 71
     3
 72
    -2
 73
   -16
  0
VERTEX
  5
10F0
  8
0
 10
0.0
 20
0.0
 30
0.0
 70
   128
 71
    -3
 72
    16
 73
   -15
  0
VERTEX
  5
10F1
  8
0
 10
0.0
 20
0.0
 30
0.0
 70
   128
 71
     2
 72
     1
 73
   -16
  0
VERTEX
  5
10F2
  8
0
 10
0.0
 20
0.0
 30
0.0
 70
   128
 71
    18
 72
   -17
 73
   -11
  0
VERTEX
  5
10F3
  8
0
 10
0.0
 20
0.0
 30
0.0
 70
   128
 71
   -11
 72
    19
 73
   -18
  0
VERTEX
  5
10F4
  8
0
 10
0.0
 20
0.0
 30
0.0
 70
   128
 71
   -19
 72
    11
 73
   -10
  0
VERTEX
  5
10F5
  8
0
 10
0.0
 20
0.0
 30
0.0
 70
   128
 71
   -10
 72
    -6
 73
   -19
  0
VERTEX
  5
10F6
  8
0
 10
0.0
 20
0.0
 30
0.0
 70
   128
 71
    -6
 72
    20
 73
   -19
  0
VERTEX
  5
10F7
  8
0
 10
0.0
 20
0.0
 30
0.0
 70
   128
 71
     6
 72
     5
 73
    -4
  0
VERTEX
  5
10F8
  8
0
 10
0.0
 20
0.0
 30
0.0
 70
   128
 71
    -6
 72
     4
 73
    -3
  0
VERTEX
  5
10F9
  8
0
 10
0.0
 20
0.0
 30
0.0
 70
   128
 71
    -6
 72
    -3
 73
   -21
  0
VERTEX
  5
10FA
  8
0
 10
0.0
 20
0.0
 30
0.0
 70
   128
 71
    -6
 72
    21
 73
   -20
  0
VERTEX
  5
10FB
  8
0
 10
0.0
 20
0.0
 30
0.0
 70
   128
 71
   -17
 72
    12
 73
   -11
  0
SEQEND
  5
193B
  8
0
  0
POLYLINE
  5
10FC
  8
0
 66
     1
 10
0.0
 20
0.0
 30
0.0
 70
    64
 71
     5
 72
     3
  0
VERTEX
  5
10FD
  8
0
 10
-172.9508775352265
 20
-13.0
 30
128.9508775352266
 70
   192
  0
VERTEX
  5
10FE
  8
0
 10
-171.3702037733935
 20
-13.0
 30
128.9508775352266
 70
   192
  0
VERTEX
  5
10FF
  8
0
 10
-171.902929823992
 20
-13.0
 30
128.4516502326986
 70
   192
  0
VERTEX
  5
1100
  8
0
 10
-172.4298303723693
 20
-13.0
 30
127.9463486423383
 70
   192
  0
VERTEX
  5
1101
  8
0
 10
-172.9508775352265
 20
-13.0
 30
127.434943690054
 70
   192
  0
VERTEX
  5
1102
  8
0
 10
0.0
 20
0.0
 30
0.0
 70
   128
 71
     3
 72
     2
 73
    -1
  0
VERTEX
  5
1103
  8
0
 10
0.0
 20
0.0
 30
0.0
 70
   128
 71
    -1
 72
     4
 73
    -3
  0
VERTEX
  5
1104
  8
0
 10
0.0
 20
0.0
 30
0.0
 70
   128
 71
     1
 72
     5
 73
    -4
  0
SEQEND
  5
193C
  8
0
  0
POLYLINE
  5
1105
  8
0
 66
     1
 10
0.0
 20
0.0
 30
0.0
 70
    64
 71
     5
 72
     3
  0
VERTEX
  5
1106
  8
0
 10
172.9508775352265
 20
-13.0
 30
128.9508775352266
 70
   192
  0
VERTEX
  5
1107
  8
0
 10
172.9508775352265
 20
-13.0
 30
127.4349352302012
 70
   192
  0
VERTEX
  5
1108
  8
0
 10
172.4298294972865
 20
-13.0
 30
127.9463430982363
 70
   192
  0
VERTEX
  5
1109
  8
0
 10
171.9029279589818
 20
-13.0
 30
128.4516475072074
 70
   192
  0
VERTEX
  5
110A
  8
0
 10
171.3702008075705
 20
-13.0
 30
128.9508775352266
 70
   192
  0
VERTEX
  5
110B
  8
0
 10
0.0
 20
0.0
 30
0.0
 70
   128
 71
     3
 72
     2
 73
    -1
  0
VERTEX
  5
110C
  8
0
 10
0.0
 20
0.0
 30
0.0
 70
   128
 71
    -1
 72
     4
 73
    -3
  0
VERTEX
  5
110D
  8
0
 10
0.0
 20
0.0
 30
0.0
 70
   128
 71
     1
 72
     5
 73
    -4
  0
SEQEND
  5
193D
  8
0
  0
POLYLINE
  5
110E
  8
0
 66
     1
 10
0.0
 20
0.0
 30
0.0
 70
    64
 71
     8
 72
     6
  0
VERTEX
  5
110F
  8
0
 10
-182.9371728827725
 20
-22.47664043757055
 30
-212.9508775352265
 70
   192
  0
VERTEX
  5
1110
  8
0
 10
-182.9371728827725
 20
-22.47664043757055
 30
-117.0403257211352
 70
   192
  0
VERTEX
  5
1111
  8
0
 10
-183.7770001604977
 20
-38.5014995179281
 30
-39.82831701679506
 70
   192
  0
VERTEX
  5
1112
  8
0
 10
-183.7773767139887
 20
-38.50868458656473
 30
39.61220011078059
 70
   192
  0
VERTEX
  5
1113
  8
0
 10
-182.9371728827725
 20
-22.47664043757055
 30
117.0403883692236
 70
   192
  0
VERTEX
  5
1114
  8
0
 10
-182.9371728827725
 20
-22.47664043757055
 30
128.9508775352266
 70
   192
  0
VERTEX
  5
1115
  8
0
 10
-187.0000000000002
 20
-100.0
 30
133.0137046524543
 70
   192
  0
VERTEX
  5
1116
  8
0
 10
-187.0
 20
-100.0
 30
-217.013704652454
 70
   192
  0
VERTEX
  5
1117
  8
0
 10
0.0
 20
0.0
 30
0.0
 70
   128
 71
     1
 72
     2
 73
    -3
  0
VERTEX
  5
1118
  8
0
 10
0.0
 20
0.0
 30
0.0
 70
   128
 71
     8
 72
    -1
 73
    -3
  0
VERTEX
  5
1119
  8
0
 10
0.0
 20
0.0
 30
0.0
 70
   128
 71
     7
 72
    -8
 73
    -3
  0
VERTEX
  5
111A
  8
0
 10
0.0
 20
0.0
 30
0.0
 70
   128
 71
     3
 72
    -4
 73
    -7
  0
VERTEX
  5
111B
  8
0
 10
0.0
 20
0.0
 30
0.0
 70
   128
 71
     5
 72
     6
 73
    -7
  0
VERTEX
  5
111C
  8
0
 10
0.0
 20
0.0
 30
0.0
 70
   128
 71
     4
 72
    -5
 73
    -7
  0
SEQEND
  5
193E
  8
0
  0
POLYLINE
  5
111D
  8
0
 66
     1
 10
0.0
 20
0.0
 30
0.0
 70
    64
 71
     9
 72
     7
  0
VERTEX
  5
111E
  8
0
 10
-172.9508775352265
 20
-22.47664043757055
 30
138.9371728827724
 70
   192
  0
VERTEX
  5
111F
  8
0
 10
-160.87306100018
 20
-22.47664043757055
 30
138.9371728827724
 70
   192
  0
VERTEX
  5
1120
  8
0
 10
-82.09172537098806
 20
-47.55478771934208
 30
140.2514628903431
 70
   192
  0
VERTEX
  5
1121
  8
0
 10
0.3834867991963251
 20
-52.07381199407435
 30
140.4882949171079
 70
   192
  0
VERTEX
  5
1122
  8
0
 10
82.93017980637282
 20
-47.45301171449616
 30
140.2461290359448
 70
   192
  0
VERTEX
  5
1123
  8
0
 10
160.873078318014
 20
-22.47664043757055
 30
138.9371728827724
 70
   192
  0
VERTEX
  5
1124
  8
0
 10
172.9508775352265
 20
-22.47664043757055
 30
138.9371728827724
 70
   192
  0
VERTEX
  5
1125
  8
0
 10
177.0137046524542
 20
-100.0
 30
142.9999999999999
 70
   192
  0
VERTEX
  5
1126
  8
0
 10
-177.0137046524545
 20
-100.0
 30
143.0
 70
   192
  0
VERTEX
  5
1127
  8
0
 10
0.0
 20
0.0
 30
0.0
 70
   128
 71
     1
 72
     2
 73
    -3
  0
VERTEX
  5
1128
  8
0
 10
0.0
 20
0.0
 30
0.0
 70
   128
 71
     9
 72
    -1
 73
    -3
  0
VERTEX
  5
1129
  8
0
 10
0.0
 20
0.0
 30
0.0
 70
   128
 71
    -4
 72
     8
 73
    -9
  0
VERTEX
  5
112A
  8
0
 10
0.0
 20
0.0
 30
0.0
 70
   128
 71
     3
 72
    -4
 73
    -9
  0
VERTEX
  5
112B
  8
0
 10
0.0
 20
0.0
 30
0.0
 70
   128
 71
     4
 72
    -5
 73
    -8
  0
VERTEX
  5
112C
  8
0
 10
0.0
 20
0.0
 30
0.0
 70
   128
 71
     6
 72
     7
 73
    -8
  0
VERTEX
  5
112D
  8
0
 10
0.0
 20
0.0
 30
0.0
 70
   128
 71
     5
 72
    -6
 73
    -8
  0
SEQEND
  5
193F
  8
0
  0
POLYLINE
  5
112E
  8
0
 66
     1
 10
0.0
 20
0.0
 30
0.0
 70
    64
 71
     8
 72
     6
  0
VERTEX
  5
112F
  8
0
 10
182.9371728827725
 20
-22.47664043757055
 30
128.9508775352266
 70
   192
  0
VERTEX
  5
1130
  8
0
 10
182.9371728827725
 20
-22.47664043757055
 30
117.040325721136
 70
   192
  0
VERTEX
  5
1131
  8
0
 10
183.7773674286603
 20
-38.50850741194293
 30
39.61210155587989
 70
   192
  0
VERTEX
  5
1132
  8
0
 10
183.7770095517446
 20
-38.50167871359915
 30
-39.82834539257805
 70
   192
  0
VERTEX
  5
1133
  8
0
 10
182.9371728827725
 20
-22.47664043757055
 30
-117.0403883692252
 70
   192
  0
VERTEX
  5
1134
  8
0
 10
182.9371728827725
 20
-22.47664043757055
 30
-212.9508775352265
 70
   192
  0
VERTEX
  5
1135
  8
0
 10
186.9999999999997
 20
-100.0
 30
-217.0137046524542
 70
   192
  0
VERTEX
  5
1136
  8
0
 10
187.0
 20
-100.0
 30
133.0137046524542
 70
   192
  0
VERTEX
  5
1137
  8
0
 10
0.0
 20
0.0
 30
0.0
 70
   128
 71
     1
 72
     2
 73
    -3
  0
VERTEX
  5
1138
  8
0
 10
0.0
 20
0.0
 30
0.0
 70
   128
 71
     8
 72
    -1
 73
    -3
  0
VERTEX
  5
1139
  8
0
 10
0.0
 20
0.0
 30
0.0
 70
   128
 71
     3
 72
    -4
 73
    -8
  0
VERTEX
  5
113A
  8
0
 10
0.0
 20
0.0
 30
0.0
 70
   128
 71
     6
 72
     7
 73
    -8
  0
VERTEX
  5
113B
  8
0
 10
0.0
 20
0.0
 30
0.0
 70
   128
 71
     5
 72
    -6
 73
    -8
  0
VERTEX
  5
113C
  8
0
 10
0.0
 20
0.0
 30
0.0
 70
   128
 71
     4
 72
    -5
 73
    -8
  0
SEQEND
  5
1940
  8
0
  0
POLYLINE
  5
113D
  8
0
 66
     1
 10
0.0
 20
0.0
 30
0.0
 70
    64
 71
    34
 72
    35
  0
VERTEX
  5
113E
  8
0
 10
-103.8260638642513
 20
-78.71897560053313
 30
0.0000000000003177
 70
   192
  0
VERTEX
  5
113F
  8
0
 10
-140.8086405498099
 20
-60.24310163021184
 30
0.0000000000004808
 70
   192
  0
VERTEX
  5
1140
  8
0
 10
-106.3460472485056
 20
-64.17531742193842
 30
-95.2805498546598
 70
   192
  0
VERTEX
  5
1141
  8
0
 10
-63.43876712455235
 20
-89.92394138464579
 30
-6.836867086222107
 70
   192
  0
VERTEX
  5
1142
  8
0
 10
-63.79540072148361
 20
-89.89995406163641
 30
0.0000000000002741
 70
   192
  0
VERTEX
  5
1143
  8
0
 10
-62.37045078294027
 20
-90.00192679289503
 30
-13.61301642364271
 70
   192
  0
VERTEX
  5
1144
  8
0
 10
-60.5441443215523
 20
-90.12406431044299
 30
-20.40286933518355
 70
   192
  0
VERTEX
  5
1145
  8
0
 10
-173.4548516331515
 20
-18.56476687278785
 30
-114.5994320523336
 70
   192
  0
VERTEX
  5
1146
  8
0
 10
-173.0437263736658
 20
-16.88226432856355
 30
-117.9271993297562
 70
   192
  0
VERTEX
  5
1147
  8
0
 10
-171.9054463837143
 20
-15.56687698836532
 30
-121.2593673487093
 70
   192
  0
VERTEX
  5
1148
  8
0
 10
-169.8378338505255
 20
-14.94041907528394
 30
-124.2998496280484
 70
   192
  0
VERTEX
  5
1149
  8
0
 10
-173.7218685000485
 20
-34.41514216857554
 30
-39.3238902950245
 70
   192
  0
VERTEX
  5
114A
  8
0
 10
-173.6633262290306
 20
-31.04065254822418
 30
-77.93001221163999
 70
   192
  0
VERTEX
  5
114B
  8
0
 10
-173.7277218292385
 20
-35.0080126716182
 30
0.000000000000357
 70
   192
  0
VERTEX
  5
114C
  8
0
 10
-87.55241948257446
 20
-16.14665082206389
 30
-149.1554071265881
 70
   192
  0
VERTEX
  5
114D
  8
0
 10
-0.0000000000245798
 20
-62.61055458157719
 30
-115.2002152146149
 70
   192
  0
VERTEX
  5
114E
  8
0
 10
-130.9845495025096
 20
-15.65262494202499
 30
-143.5375953006192
 70
   192
  0
VERTEX
  5
114F
  8
0
 10
103.8260639186462
 20
-78.71897555574365
 30
-0.0000000000048244
 70
   192
  0
VERTEX
  5
1150
  8
0
 10
63.79540072148361
 20
-89.89995406163641
 30
-0.0000000000020823
 70
   192
  0
VERTEX
  5
1151
  8
0
 10
173.7218501229393
 20
-34.41529591137721
 30
-39.32441544060002
 70
   192
  0
VERTEX
  5
1152
  8
0
 10
140.8086405376224
 20
-60.24310162619925
 30
-0.0000000000056411
 70
   192
  0
VERTEX
  5
1153
  8
0
 10
173.7277218292385
 20
-35.0080126716173
 30
-0.0000000000036976
 70
   192
  0
VERTEX
  5
1154
  8
0
 10
173.6633535802703
 20
-31.04062847579628
 30
-77.93043520672245
 70
   192
  0
VERTEX
  5
1155
  8
0
 10
173.454861494907
 20
-18.56476702451885
 30
-114.599480335218
 70
   192
  0
VERTEX
  5
1156
  8
0
 10
106.3460380742615
 20
-64.1753150858695
 30
-95.28054770639336
 70
   192
  0
VERTEX
  5
1157
  8
0
 10
48.83032115729502
 20
-90.37493986467094
 30
-41.32652765705708
 70
   192
  0
VERTEX
  5
1158
  8
0
 10
87.63153052779202
 20
-16.14621510259295
 30
-149.1467419449828
 70
   192
  0
VERTEX
  5
1159
  8
0
 10
130.9869729027589
 20
-15.65261689430634
 30
-143.5369172718755
 70
   192
  0
VERTEX
  5
115A
  8
0
 10
0.0330057518155871
 20
-16.43187622352351
 30
-151.2334946830044
 70
   192
  0
VERTEX
  5
115B
  8
0
 10
10.34085524614623
 20
-89.04520119903336
 30
-62.44976620064764
 70
   192
  0
VERTEX
  5
115C
  8
0
 10
-32.94484824489619
 20
-89.82596767192305
 30
-54.49048748578365
 70
   192
  0
VERTEX
  5
115D
  8
0
 10
169.837839764209
 20
-14.94042008306234
 30
-124.2998509108514
 70
   192
  0
VERTEX
  5
115E
  8
0
 10
171.9023535432829
 20
-15.56558210447185
 30
-121.2647290777703
 70
   192
  0
VERTEX
  5
115F
  8
0
 10
173.0414203843143
 20
-16.87711203633577
 30
-117.9382650772936
 70
   192
  0
VERTEX
  5
1160
  8
0
 10
0.0
 20
0.0
 30
0.0
 70
   128
 71
     1
 72
     2
 73
     3
  0
VERTEX
  5
1161
  8
0
 10
0.0
 20
0.0
 30
0.0
 70
   128
 71
     3
 72
     4
 73
     5
  0
VERTEX
  5
1162
  8
0
 10
0.0
 20
0.0
 30
0.0
 70
   128
 71
     3
 72
     5
 73
     1
  0
VERTEX
  5
1163
  8
0
 10
0.0
 20
0.0
 30
0.0
 70
   128
 71
     3
 72
     6
 73
     4
  0
VERTEX
  5
1164
  8
0
 10
0.0
 20
0.0
 30
0.0
 70
   128
 71
     3
 72
     7
 73
     6
  0
VERTEX
  5
1165
  8
0
 10
0.0
 20
0.0
 30
0.0
 70
   128
 71
     8
 72
     9
 73
    10
  0
VERTEX
  5
1166
  8
0
 10
0.0
 20
0.0
 30
0.0
 70
   128
 71
     8
 72
    10
 73
    11
  0
VERTEX
  5
1167
  8
0
 10
0.0
 20
0.0
 30
0.0
 70
   128
 71
     2
 72
    12
 73
    13
  0
VERTEX
  5
1168
  8
0
 10
0.0
 20
0.0
 30
0.0
 70
   128
 71
     2
 72
    14
 73
    12
  0
VERTEX
  5
1169
  8
0
 10
0.0
 20
0.0
 30
0.0
 70
   128
 71
    15
 72
    16
 73
     3
  0
VERTEX
  5
116A
  8
0
 10
0.0
 20
0.0
 30
0.0
 70
   128
 71
     3
 72
    17
 73
    15
  0
VERTEX
  5
116B
  8
0
 10
0.0
 20
0.0
 30
0.0
 70
   128
 71
    18
 72
    19
 73
    20
  0
VERTEX
  5
116C
  8
0
 10
0.0
 20
0.0
 30
0.0
 70
   128
 71
    20
 72
    21
 73
    18
  0
VERTEX
  5
116D
  8
0
 10
0.0
 20
0.0
 30
0.0
 70
   128
 71
    20
 72
    22
 73
    21
  0
VERTEX
  5
116E
  8
0
 10
0.0
 20
0.0
 30
0.0
 70
   128
 71
    19
 72
    23
 73
    20
  0
VERTEX
  5
116F
  8
0
 10
0.0
 20
0.0
 30
0.0
 70
   128
 71
    24
 72
    23
 73
    25
  0
VERTEX
  5
1170
  8
0
 10
0.0
 20
0.0
 30
0.0
 70
   128
 71
    23
 72
    19
 73
    26
  0
VERTEX
  5
1171
  8
0
 10
0.0
 20
0.0
 30
0.0
 70
   128
 71
    25
 72
    27
 73
    28
  0
VERTEX
  5
1172
  8
0
 10
0.0
 20
0.0
 30
0.0
 70
   128
 71
    29
 72
    27
 73
    25
  0
VERTEX
  5
1173
  8
0
 10
0.0
 20
0.0
 30
0.0
 70
   128
 71
    29
 72
    25
 73
    16
  0
VERTEX
  5
1174
  8
0
 10
0.0
 20
0.0
 30
0.0
 70
   128
 71
     8
 72
    11
 73
    17
  0
VERTEX
  5
1175
  8
0
 10
0.0
 20
0.0
 30
0.0
 70
   128
 71
    17
 72
    13
 73
     8
  0
VERTEX
  5
1176
  8
0
 10
0.0
 20
0.0
 30
0.0
 70
   128
 71
    17
 72
     3
 73
     2
  0
VERTEX
  5
1177
  8
0
 10
0.0
 20
0.0
 30
0.0
 70
   128
 71
    17
 72
     2
 73
    13
  0
VERTEX
  5
1178
  8
0
 10
0.0
 20
0.0
 30
0.0
 70
   128
 71
    30
 72
    31
 73
     7
  0
VERTEX
  5
1179
  8
0
 10
0.0
 20
0.0
 30
0.0
 70
   128
 71
    30
 72
     7
 73
     3
  0
VERTEX
  5
117A
  8
0
 10
0.0
 20
0.0
 30
0.0
 70
   128
 71
    30
 72
     3
 73
    16
  0
VERTEX
  5
117B
  8
0
 10
0.0
 20
0.0
 30
0.0
 70
   128
 71
    29
 72
    16
 73
    15
  0
VERTEX
  5
117C
  8
0
 10
0.0
 20
0.0
 30
0.0
 70
   128
 71
    32
 72
    33
 73
    34
  0
VERTEX
  5
117D
  8
0
 10
0.0
 20
0.0
 30
0.0
 70
   128
 71
    32
 72
    34
 73
    24
  0
VERTEX
  5
117E
  8
0
 10
0.0
 20
0.0
 30
0.0
 70
   128
 71
    32
 72
    24
 73
    25
  0
VERTEX
  5
117F
  8
0
 10
0.0
 20
0.0
 30
0.0
 70
   128
 71
    32
 72
    25
 73
    28
  0
VERTEX
  5
1180
  8
0
 10
0.0
 20
0.0
 30
0.0
 70
   128
 71
    25
 72
    23
 73
    26
  0
VERTEX
  5
1181
  8
0
 10
0.0
 20
0.0
 30
0.0
 70
   128
 71
    26
 72
    30
 73
    16
  0
VERTEX
  5
1182
  8
0
 10
0.0
 20
0.0
 30
0.0
 70
   128
 71
    26
 72
    16
 73
    25
  0
SEQEND
  5
1941
  8
0
  0
POLYLINE
  5
1183
  8
0
 66
     1
 10
0.0
 20
0.0
 30
0.0
 70
    64
 71
     8
 72
     6
  0
VERTEX
  5
1184
  8
0
 10
185.7249852796051
 20
-100.0
 30
137.8999411184205
 70
   192
  0
VERTEX
  5
1185
  8
0
 10
181.8999411184207
 20
-100.0
 30
141.7249852796051
 70
   192
  0
VERTEX
  5
1186
  8
0
 10
177.9361456931223
 20
-22.28596738430465
 30
137.5901633169098
 70
   192
  0
VERTEX
  5
1187
  8
0
 10
181.5901633169097
 20
-22.28596738430465
 30
133.9361456931224
 70
   192
  0
VERTEX
  5
1188
  8
0
 10
177.0137046524542
 20
-100.0
 30
142.9999999999999
 70
   192
  0
VERTEX
  5
1189
  8
0
 10
172.9508775352266
 20
-22.47664043757058
 30
138.9371728827723
 70
   192
  0
VERTEX
  5
118A
  8
0
 10
186.9999999999998
 20
-100.0
 30
133.0137046524543
 70
   192
  0
VERTEX
  5
118B
  8
0
 10
182.9371728827722
 20
-22.47664043757056
 30
128.9508775352266
 70
   192
  0
VERTEX
  5
118C
  8
0
 10
0.0
 20
0.0
 30
0.0
 70
   128
 71
     1
 72
     2
 73
    -3
  0
VERTEX
  5
118D
  8
0
 10
0.0
 20
0.0
 30
0.0
 70
   128
 71
     4
 72
    -1
 73
     3
  0
VERTEX
  5
118E
  8
0
 10
0.0
 20
0.0
 30
0.0
 70
   128
 71
     2
 72
     5
 73
     6
  0
VERTEX
  5
118F
  8
0
 10
0.0
 20
0.0
 30
0.0
 70
   128
 71
     3
 72
     2
 73
     6
  0
VERTEX
  5
1190
  8
0
 10
0.0
 20
0.0
 30
0.0
 70
   128
 71
     7
 72
     1
 73
     4
  0
VERTEX
  5
1191
  8
0
 10
0.0
 20
0.0
 30
0.0
 70
   128
 71
     8
 72
     7
 73
     4
  0
SEQEND
  5
1942
  8
0
  0
POLYLINE
  5
1192
  8
0
 66
     1
 10
0.0
 20
0.0
 30
0.0
 70
    64
 71
     8
 72
     6
  0
VERTEX
  5
1193
  8
0
 10
-181.8999411184207
 20
-100.0
 30
141.7249852796051
 70
   192
  0
VERTEX
  5
1194
  8
0
 10
-185.7249852796052
 20
-100.0
 30
137.8999411184205
 70
   192
  0
VERTEX
  5
1195
  8
0
 10
-181.5901633169097
 20
-22.28596738430465
 30
133.9361456931224
 70
   192
  0
VERTEX
  5
1196
  8
0
 10
-177.9361456931223
 20
-22.28596738430465
 30
137.5901633169098
 70
   192
  0
VERTEX
  5
1197
  8
0
 10
-187.0000000000002
 20
-100.0
 30
133.0137046524543
 70
   192
  0
VERTEX
  5
1198
  8
0
 10
-182.9371728827726
 20
-22.47664043757057
 30
128.9508775352266
 70
   192
  0
VERTEX
  5
1199
  8
0
 10
-177.0137046524543
 20
-100.0
 30
142.9999999999999
 70
   192
  0
VERTEX
  5
119A
  8
0
 10
-172.9508775352265
 20
-22.47664043757056
 30
138.9371728827724
 70
   192
  0
VERTEX
  5
119B
  8
0
 10
0.0
 20
0.0
 30
0.0
 70
   128
 71
     1
 72
     2
 73
    -3
  0
VERTEX
  5
119C
  8
0
 10
0.0
 20
0.0
 30
0.0
 70
   128
 71
     4
 72
    -1
 73
     3
  0
VERTEX
  5
119D
  8
0
 10
0.0
 20
0.0
 30
0.0
 70
   128
 71
     2
 72
     5
 73
     6
  0
VERTEX
  5
119E
  8
0
 10
0.0
 20
0.0
 30
0.0
 70
   128
 71
     3
 72
     2
 73
     6
  0
VERTEX
  5
119F
  8
0
 10
0.0
 20
0.0
 30
0.0
 70
   128
 71
     7
 72
     1
 73
     4
  0
VERTEX
  5
11A0
  8
0
 10
0.0
 20
0.0
 30
0.0
 70
   128
 71
     8
 72
     7
 73
     4
  0
SEQEND
  5
1943
  8
0
  0
POLYLINE
  5
11A1
  8
0
 66
     1
 10
0.0
 20
0.0
 30
0.0
 70
    64
 71
    15
 72
    13
  0
VERTEX
  5
11A2
  8
0
 10
-177.0137046524542
 20
-100.0
 30
-227.0000000000002
 70
   192
  0
VERTEX
  5
11A3
  8
0
 10
-173.9035338666416
 20
-40.65440611372935
 30
-223.8898292141875
 70
   192
  0
VERTEX
  5
11A4
  8
0
 10
-175.293863048237
 20
-36.97034233876434
 30
-223.5707247278764
 70
   192
  0
VERTEX
  5
11A5
  8
0
 10
-174.0214891660081
 20
-24.22356709046489
 30
-222.9807254471194
 70
   192
  0
VERTEX
  5
11A6
  8
0
 10
-173.009593256718
 20
-23.5970031450665
 30
-222.9958886042635
 70
   192
  0
VERTEX
  5
11A7
  8
0
 10
-172.9508775352266
 20
-22.47664043757057
 30
-222.9371728827726
 70
   192
  0
VERTEX
  5
11A8
  8
0
 10
-185.7249852796052
 20
-100.0
 30
-221.8999411184205
 70
   192
  0
VERTEX
  5
11A9
  8
0
 10
-181.8999411184207
 20
-100.0
 30
-225.7249852796052
 70
   192
  0
VERTEX
  5
11AA
  8
0
 10
-177.9361456931223
 20
-22.28596738430465
 30
-221.5901633169097
 70
   192
  0
VERTEX
  5
11AB
  8
0
 10
-181.5901633169097
 20
-22.28596738430465
 30
-217.9361456931223
 70
   192
  0
VERTEX
  5
11AC
  8
0
 10
-176.2090408146035
 20
-29.29760767850045
 30
-222.8649575698975
 70
   192
  0
VERTEX
  5
11AD
  8
0
 10
-175.0900139844911
 20
-26.12596443381263
 30
-222.9370409990951
 70
   192
  0
VERTEX
  5
11AE
  8
0
 10
-176.208950153771
 20
-33.14811673282006
 30
-223.1256213197124
 70
   192
  0
VERTEX
  5
11AF
  8
0
 10
-187.0000000000003
 20
-99.99999999999994
 30
-217.0137046524543
 70
   192
  0
VERTEX
  5
11B0
  8
0
 10
-182.9371728827722
 20
-22.47664043757056
 30
-212.9508775352265
 70
   192
  0
VERTEX
  5
11B1
  8
0
 10
0.0
 20
0.0
 30
0.0
 70
   128
 71
     1
 72
     2
 73
     3
  0
VERTEX
  5
11B2
  8
0
 10
0.0
 20
0.0
 30
0.0
 70
   128
 71
     4
 72
     5
 73
     6
  0
VERTEX
  5
11B3
  8
0
 10
0.0
 20
0.0
 30
0.0
 70
   128
 71
     7
 72
     8
 73
    -9
  0
VERTEX
  5
11B4
  8
0
 10
0.0
 20
0.0
 30
0.0
 70
   128
 71
    10
 72
    -7
 73
     9
  0
VERTEX
  5
11B5
  8
0
 10
0.0
 20
0.0
 30
0.0
 70
   128
 71
    11
 72
    12
 73
     9
  0
VERTEX
  5
11B6
  8
0
 10
0.0
 20
0.0
 30
0.0
 70
   128
 71
    12
 72
     4
 73
     9
  0
VERTEX
  5
11B7
  8
0
 10
0.0
 20
0.0
 30
0.0
 70
   128
 71
     4
 72
     6
 73
     9
  0
VERTEX
  5
11B8
  8
0
 10
0.0
 20
0.0
 30
0.0
 70
   128
 71
     1
 72
     3
 73
    13
  0
VERTEX
  5
11B9
  8
0
 10
0.0
 20
0.0
 30
0.0
 70
   128
 71
     8
 72
     1
 73
    13
  0
VERTEX
  5
11BA
  8
0
 10
0.0
 20
0.0
 30
0.0
 70
   128
 71
    13
 72
     9
 73
     8
  0
VERTEX
  5
11BB
  8
0
 10
0.0
 20
0.0
 30
0.0
 70
   128
 71
    13
 72
    11
 73
     9
  0
VERTEX
  5
11BC
  8
0
 10
0.0
 20
0.0
 30
0.0
 70
   128
 71
    14
 72
     7
 73
    10
  0
VERTEX
  5
11BD
  8
0
 10
0.0
 20
0.0
 30
0.0
 70
   128
 71
    15
 72
    14
 73
    10
  0
SEQEND
  5
1944
  8
0
  0
POLYLINE
  5
11BE
  8
0
 66
     1
 10
0.0
 20
0.0
 30
0.0
 70
    64
 71
    15
 72
    13
  0
VERTEX
  5
11BF
  8
0
 10
172.9508775352267
 20
-22.47664043757056
 30
-222.9371728827722
 70
   192
  0
VERTEX
  5
11C0
  8
0
 10
173.009593256718
 20
-23.59700314506649
 30
-222.9958886042635
 70
   192
  0
VERTEX
  5
11C1
  8
0
 10
174.0214830218276
 20
-24.22356667896706
 30
-222.9807356126877
 70
   192
  0
VERTEX
  5
11C2
  8
0
 10
181.5901633169097
 20
-22.28596738430465
 30
-217.9361456931223
 70
   192
  0
VERTEX
  5
11C3
  8
0
 10
177.9361456931223
 20
-22.28596738430465
 30
-221.5901633169097
 70
   192
  0
VERTEX
  5
11C4
  8
0
 10
181.8999411184206
 20
-100.0
 30
-225.7249852796051
 70
   192
  0
VERTEX
  5
11C5
  8
0
 10
185.7249852796051
 20
-100.0
 30
-221.8999411184205
 70
   192
  0
VERTEX
  5
11C6
  8
0
 10
175.0900096543905
 20
-26.12594344220172
 30
-222.9370308636703
 70
   192
  0
VERTEX
  5
11C7
  8
0
 10
176.2090408146035
 20
-29.29760767850035
 30
-222.8649575698975
 70
   192
  0
VERTEX
  5
11C8
  8
0
 10
176.2011128064038
 20
-33.20152151978627
 30
-223.1313933833396
 70
   192
  0
VERTEX
  5
11C9
  8
0
 10
175.2943778940232
 20
-36.96870749377307
 30
-223.5705388457504
 70
   192
  0
VERTEX
  5
11CA
  8
0
 10
173.9035338666415
 20
-40.65440611372919
 30
-223.8898292141875
 70
   192
  0
VERTEX
  5
11CB
  8
0
 10
177.0137046524543
 20
-100.0
 30
-226.9999999999998
 70
   192
  0
VERTEX
  5
11CC
  8
0
 10
182.9371728827721
 20
-22.47664043757059
 30
-212.9508775352265
 70
   192
  0
VERTEX
  5
11CD
  8
0
 10
187.0
 20
-100.0
 30
-217.013704652454
 70
   192
  0
VERTEX
  5
11CE
  8
0
 10
0.0
 20
0.0
 30
0.0
 70
   128
 71
     1
 72
     2
 73
     3
  0
VERTEX
  5
11CF
  8
0
 10
0.0
 20
0.0
 30
0.0
 70
   128
 71
     4
 72
     5
 73
    -6
  0
VERTEX
  5
11D0
  8
0
 10
0.0
 20
0.0
 30
0.0
 70
   128
 71
     7
 72
    -4
 73
     6
  0
VERTEX
  5
11D1
  8
0
 10
0.0
 20
0.0
 30
0.0
 70
   128
 71
     5
 72
     1
 73
     3
  0
VERTEX
  5
11D2
  8
0
 10
0.0
 20
0.0
 30
0.0
 70
   128
 71
     3
 72
     8
 73
     5
  0
VERTEX
  5
11D3
  8
0
 10
0.0
 20
0.0
 30
0.0
 70
   128
 71
     8
 72
     9
 73
     5
  0
VERTEX
  5
11D4
  8
0
 10
0.0
 20
0.0
 30
0.0
 70
   128
 71
     9
 72
    10
 73
     5
  0
VERTEX
  5
11D5
  8
0
 10
0.0
 20
0.0
 30
0.0
 70
   128
 71
     6
 72
     5
 73
    10
  0
VERTEX
  5
11D6
  8
0
 10
0.0
 20
0.0
 30
0.0
 70
   128
 71
    10
 72
    11
 73
     6
  0
VERTEX
  5
11D7
  8
0
 10
0.0
 20
0.0
 30
0.0
 70
   128
 71
    12
 72
    13
 73
     6
  0
VERTEX
  5
11D8
  8
0
 10
0.0
 20
0.0
 30
0.0
 70
   128
 71
    11
 72
    12
 73
     6
  0
VERTEX
  5
11D9
  8
0
 10
0.0
 20
0.0
 30
0.0
 70
   128
 71
    14
 72
     4
 73
     7
  0
VERTEX
  5
11DA
  8
0
 10
0.0
 20
0.0
 30
0.0
 70
   128
 71
    15
 72
    14
 73
     7
  0
SEQEND
  5
1945
  8
0
  0
POLYLINE
  5
11DB
  8
0
 66
     1
 10
0.0
 20
0.0
 30
0.0
 70
    64
 71
     8
 72
     6
  0
VERTEX
  5
11DC
  8
0
 10
-181.4313584967908
 20
-17.70080735766795
 30
-212.9508775352265
 70
   192
  0
VERTEX
  5
11DD
  8
0
 10
-177.7989737376899
 20
-14.25380292860603
 30
-212.9508775352265
 70
   192
  0
VERTEX
  5
11DE
  8
0
 10
-178.0622574811761
 20
-14.40501345071528
 30
-124.5248640292159
 70
   192
  0
VERTEX
  5
11DF
  8
0
 10
-182.9371728827725
 20
-22.47664043757055
 30
-212.9508775352265
 70
   192
  0
VERTEX
  5
11E0
  8
0
 10
-181.5216063632913
 20
-17.84804785347619
 30
-120.8416242474036
 70
   192
  0
VERTEX
  5
11E1
  8
0
 10
-172.9508775352265
 20
-13.0
 30
-212.9508775352265
 70
   192
  0
VERTEX
  5
11E2
  8
0
 10
-172.9508775352265
 20
-13.0
 30
-127.434935230201
 70
   192
  0
VERTEX
  5
11E3
  8
0
 10
-182.9371728827725
 20
-22.47664043757055
 30
-117.0403257211352
 70
   192
  0
VERTEX
  5
11E4
  8
0
 10
0.0
 20
0.0
 30
0.0
 70
   128
 71
     1
 72
     2
 73
     3
  0
VERTEX
  5
11E5
  8
0
 10
0.0
 20
0.0
 30
0.0
 70
   128
 71
     4
 72
     1
 73
     5
  0
VERTEX
  5
11E6
  8
0
 10
0.0
 20
0.0
 30
0.0
 70
   128
 71
     2
 72
     6
 73
     7
  0
VERTEX
  5
11E7
  8
0
 10
0.0
 20
0.0
 30
0.0
 70
   128
 71
     3
 72
     2
 73
     7
  0
VERTEX
  5
11E8
  8
0
 10
0.0
 20
0.0
 30
0.0
 70
   128
 71
     5
 72
     1
 73
     3
  0
VERTEX
  5
11E9
  8
0
 10
0.0
 20
0.0
 30
0.0
 70
   128
 71
     8
 72
     4
 73
     5
  0
SEQEND
  5
1946
  8
0
  0
POLYLINE
  5
11EA
  8
0
 66
     1
 10
0.0
 20
0.0
 30
0.0
 70
    64
 71
     9
 72
     7
  0
VERTEX
  5
11EB
  8
0
 10
-181.4313584967908
 20
-17.70080735766795
 30
-212.9508775352265
 70
   192
  0
VERTEX
  5
11EC
  8
0
 10
-182.9371728827722
 20
-22.47664043757057
 30
-212.9508775352265
 70
   192
  0
VERTEX
  5
11ED
  8
0
 10
-181.5901633169097
 20
-22.28596738430465
 30
-217.9361456931223
 70
   192
  0
VERTEX
  5
11EE
  8
0
 10
-177.9361456931223
 20
-22.28596738430465
 30
-221.5901633169097
 70
   192
  0
VERTEX
  5
11EF
  8
0
 10
-172.9508775352265
 20
-14.25380292860603
 30
-217.7989737376899
 70
   192
  0
VERTEX
  5
11F0
  8
0
 10
-172.9508775352265
 20
-12.99999999999999
 30
-212.9508775352265
 70
   192
  0
VERTEX
  5
11F1
  8
0
 10
-177.7989737376899
 20
-14.25380292860603
 30
-212.9508775352265
 70
   192
  0
VERTEX
  5
11F2
  8
0
 10
-172.9508775352265
 20
-22.47664043757056
 30
-222.9371728827722
 70
   192
  0
VERTEX
  5
11F3
  8
0
 10
-172.9508775352265
 20
-17.70080735766795
 30
-221.4313584967908
 70
   192
  0
VERTEX
  5
11F4
  8
0
 10
0.0
 20
0.0
 30
0.0
 70
   128
 71
     1
 72
     2
 73
     3
  0
VERTEX
  5
11F5
  8
0
 10
0.0
 20
0.0
 30
0.0
 70
   128
 71
     3
 72
     4
 73
     1
  0
VERTEX
  5
11F6
  8
0
 10
0.0
 20
0.0
 30
0.0
 70
   128
 71
     5
 72
     6
 73
     7
  0
VERTEX
  5
11F7
  8
0
 10
0.0
 20
0.0
 30
0.0
 70
   128
 71
     4
 72
     8
 73
     9
  0
VERTEX
  5
11F8
  8
0
 10
0.0
 20
0.0
 30
0.0
 70
   128
 71
     7
 72
     1
 73
     4
  0
VERTEX
  5
11F9
  8
0
 10
0.0
 20
0.0
 30
0.0
 70
   128
 71
     5
 72
     7
 73
     4
  0
VERTEX
  5
11FA
  8
0
 10
0.0
 20
0.0
 30
0.0
 70
   128
 71
     9
 72
     5
 73
     4
  0
SEQEND
  5
1947
  8
0
  0
POLYLINE
  5
11FB
  8
0
 66
     1
 10
0.0
 20
0.0
 30
0.0
 70
    64
 71
     9
 72
     7
  0
VERTEX
  5
11FC
  8
0
 10
177.7989737376899
 20
-14.25380292860603
 30
-212.9508775352265
 70
   192
  0
VERTEX
  5
11FD
  8
0
 10
172.9508775352265
 20
-12.99999999999999
 30
-212.9508775352265
 70
   192
  0
VERTEX
  5
11FE
  8
0
 10
172.9508775352265
 20
-14.25380292860603
 30
-217.7989737376899
 70
   192
  0
VERTEX
  5
11FF
  8
0
 10
172.9508775352265
 20
-17.70080735766795
 30
-221.4313584967908
 70
   192
  0
VERTEX
  5
1200
  8
0
 10
181.5901633169097
 20
-22.28596738430465
 30
-217.9361456931223
 70
   192
  0
VERTEX
  5
1201
  8
0
 10
182.9371728827722
 20
-22.47664043757056
 30
-212.9508775352265
 70
   192
  0
VERTEX
  5
1202
  8
0
 10
181.4313584967908
 20
-17.70080735766795
 30
-212.9508775352265
 70
   192
  0
VERTEX
  5
1203
  8
0
 10
177.9361456931223
 20
-22.28596738430465
 30
-221.5901633169097
 70
   192
  0
VERTEX
  5
1204
  8
0
 10
172.9508775352265
 20
-22.47664043757057
 30
-222.9371728827722
 70
   192
  0
VERTEX
  5
1205
  8
0
 10
0.0
 20
0.0
 30
0.0
 70
   128
 71
     1
 72
     2
 73
     3
  0
VERTEX
  5
1206
  8
0
 10
0.0
 20
0.0
 30
0.0
 70
   128
 71
     3
 72
     4
 73
     1
  0
VERTEX
  5
1207
  8
0
 10
0.0
 20
0.0
 30
0.0
 70
   128
 71
     5
 72
     6
 73
     7
  0
VERTEX
  5
1208
  8
0
 10
0.0
 20
0.0
 30
0.0
 70
   128
 71
     8
 72
     5
 73
     7
  0
VERTEX
  5
1209
  8
0
 10
0.0
 20
0.0
 30
0.0
 70
   128
 71
     8
 72
     7
 73
     1
  0
VERTEX
  5
120A
  8
0
 10
0.0
 20
0.0
 30
0.0
 70
   128
 71
     9
 72
     8
 73
     1
  0
VERTEX
  5
120B
  8
0
 10
0.0
 20
0.0
 30
0.0
 70
   128
 71
     4
 72
     9
 73
     1
  0
SEQEND
  5
1948
  8
0
  0
POLYLINE
  5
120C
  8
0
 66
     1
 10
0.0
 20
0.0
 30
0.0
 70
    64
 71
     8
 72
     6
  0
VERTEX
  5
120D
  8
0
 10
172.9508775352265
 20
-13.0
 30
-127.434943690055
 70
   192
  0
VERTEX
  5
120E
  8
0
 10
172.9508775352265
 20
-13.0
 30
-212.9508775352265
 70
   192
  0
VERTEX
  5
120F
  8
0
 10
177.7989737376899
 20
-14.25380292860603
 30
-212.9508775352265
 70
   192
  0
VERTEX
  5
1210
  8
0
 10
181.4313584967908
 20
-17.70080735766795
 30
-212.9508775352265
 70
   192
  0
VERTEX
  5
1211
  8
0
 10
178.0013547213941
 20
-14.36908615191581
 30
-124.5714700607587
 70
   192
  0
VERTEX
  5
1212
  8
0
 10
181.4129287683184
 20
-17.67140693296501
 30
-121.0060088262688
 70
   192
  0
VERTEX
  5
1213
  8
0
 10
182.9371728827725
 20
-22.47664043757055
 30
-117.0403883692252
 70
   192
  0
VERTEX
  5
1214
  8
0
 10
182.9371728827725
 20
-22.47664043757055
 30
-212.9508775352265
 70
   192
  0
VERTEX
  5
1215
  8
0
 10
0.0
 20
0.0
 30
0.0
 70
   128
 71
     1
 72
     2
 73
     3
  0
VERTEX
  5
1216
  8
0
 10
0.0
 20
0.0
 30
0.0
 70
   128
 71
     4
 72
     5
 73
     1
  0
VERTEX
  5
1217
  8
0
 10
0.0
 20
0.0
 30
0.0
 70
   128
 71
     3
 72
     4
 73
     1
  0
VERTEX
  5
1218
  8
0
 10
0.0
 20
0.0
 30
0.0
 70
   128
 71
     4
 72
     6
 73
     5
  0
VERTEX
  5
1219
  8
0
 10
0.0
 20
0.0
 30
0.0
 70
   128
 71
     7
 72
     6
 73
     4
  0
VERTEX
  5
121A
  8
0
 10
0.0
 20
0.0
 30
0.0
 70
   128
 71
     8
 72
     7
 73
     4
  0
SEQEND
  5
1949
  8
0
  0
POLYLINE
  5
121B
  8
0
 66
     1
 10
0.0
 20
0.0
 30
0.0
 70
    64
 71
     8
 72
     6
  0
VERTEX
  5
121C
  8
0
 10
-177.7989737376899
 20
-14.25380292860604
 30
128.9508775352266
 70
   192
  0
VERTEX
  5
121D
  8
0
 10
-181.4313584967908
 20
-17.70080735766795
 30
128.9508775352266
 70
   192
  0
VERTEX
  5
121E
  8
0
 10
-178.0013547190761
 20
-14.36908615055935
 30
124.571470062143
 70
   192
  0
VERTEX
  5
121F
  8
0
 10
-172.9508775352265
 20
-13.0
 30
127.434943690054
 70
   192
  0
VERTEX
  5
1220
  8
0
 10
-172.9508775352265
 20
-13.0
 30
128.9508775352266
 70
   192
  0
VERTEX
  5
1221
  8
0
 10
-181.412928775052
 20
-17.67140694366031
 30
121.0060088162604
 70
   192
  0
VERTEX
  5
1222
  8
0
 10
-182.9371728827725
 20
-22.47664043757055
 30
117.0403883692236
 70
   192
  0
VERTEX
  5
1223
  8
0
 10
-182.9371728827725
 20
-22.47664043757055
 30
128.9508775352266
 70
   192
  0
VERTEX
  5
1224
  8
0
 10
0.0
 20
0.0
 30
0.0
 70
   128
 71
     1
 72
     2
 73
     3
  0
VERTEX
  5
1225
  8
0
 10
0.0
 20
0.0
 30
0.0
 70
   128
 71
     3
 72
     4
 73
     5
  0
VERTEX
  5
1226
  8
0
 10
0.0
 20
0.0
 30
0.0
 70
   128
 71
     1
 72
     3
 73
     5
  0
VERTEX
  5
1227
  8
0
 10
0.0
 20
0.0
 30
0.0
 70
   128
 71
     2
 72
     6
 73
     3
  0
VERTEX
  5
1228
  8
0
 10
0.0
 20
0.0
 30
0.0
 70
   128
 71
     7
 72
     6
 73
     2
  0
VERTEX
  5
1229
  8
0
 10
0.0
 20
0.0
 30
0.0
 70
   128
 71
     8
 72
     7
 73
     2
  0
SEQEND
  5
194A
  8
0
  0
POLYLINE
  5
122A
  8
0
 66
     1
 10
0.0
 20
0.0
 30
0.0
 70
    64
 71
     9
 72
     7
  0
VERTEX
  5
122B
  8
0
 10
-177.7989737376899
 20
-14.25380292860604
 30
128.9508775352266
 70
   192
  0
VERTEX
  5
122C
  8
0
 10
-172.9508775352265
 20
-12.99999999999999
 30
128.9508775352266
 70
   192
  0
VERTEX
  5
122D
  8
0
 10
-172.9508775352265
 20
-14.25380292860603
 30
133.79897373769
 70
   192
  0
VERTEX
  5
122E
  8
0
 10
-172.9508775352265
 20
-17.70080735766794
 30
137.4313584967909
 70
   192
  0
VERTEX
  5
122F
  8
0
 10
-181.5901633169097
 20
-22.28596738430465
 30
133.9361456931224
 70
   192
  0
VERTEX
  5
1230
  8
0
 10
-182.9371728827722
 20
-22.47664043757056
 30
128.9508775352266
 70
   192
  0
VERTEX
  5
1231
  8
0
 10
-181.4313584967908
 20
-17.70080735766795
 30
128.9508775352266
 70
   192
  0
VERTEX
  5
1232
  8
0
 10
-172.9508775352265
 20
-22.47664043757056
 30
138.9371728827724
 70
   192
  0
VERTEX
  5
1233
  8
0
 10
-177.9361456931223
 20
-22.28596738430465
 30
137.5901633169098
 70
   192
  0
VERTEX
  5
1234
  8
0
 10
0.0
 20
0.0
 30
0.0
 70
   128
 71
     1
 72
     2
 73
     3
  0
VERTEX
  5
1235
  8
0
 10
0.0
 20
0.0
 30
0.0
 70
   128
 71
     3
 72
     4
 73
     1
  0
VERTEX
  5
1236
  8
0
 10
0.0
 20
0.0
 30
0.0
 70
   128
 71
     5
 72
     6
 73
     7
  0
VERTEX
  5
1237
  8
0
 10
0.0
 20
0.0
 30
0.0
 70
   128
 71
     1
 72
     4
 73
     8
  0
VERTEX
  5
1238
  8
0
 10
0.0
 20
0.0
 30
0.0
 70
   128
 71
     7
 72
     1
 73
     8
  0
VERTEX
  5
1239
  8
0
 10
0.0
 20
0.0
 30
0.0
 70
   128
 71
     5
 72
     7
 73
     8
  0
VERTEX
  5
123A
  8
0
 10
0.0
 20
0.0
 30
0.0
 70
   128
 71
     9
 72
     5
 73
     8
  0
SEQEND
  5
194B
  8
0
  0
POLYLINE
  5
123B
  8
0
 66
     1
 10
0.0
 20
0.0
 30
0.0
 70
    64
 71
     8
 72
     6
  0
VERTEX
  5
123C
  8
0
 10
-172.9508775352265
 20
-17.70080735766794
 30
137.4313584967909
 70
   192
  0
VERTEX
  5
123D
  8
0
 10
-172.9508775352265
 20
-14.25380292860603
 30
133.79897373769
 70
   192
  0
VERTEX
  5
123E
  8
0
 10
-168.3930147024749
 20
-14.31345136861623
 30
133.9050998540111
 70
   192
  0
VERTEX
  5
123F
  8
0
 10
-172.9508775352265
 20
-22.47664043757055
 30
138.9371728827724
 70
   192
  0
VERTEX
  5
1240
  8
0
 10
-164.3934517984624
 20
-17.979348136962
 30
137.5993286466583
 70
   192
  0
VERTEX
  5
1241
  8
0
 10
-172.9508775352265
 20
-13.0
 30
128.9508775352266
 70
   192
  0
VERTEX
  5
1242
  8
0
 10
-171.3702037733935
 20
-13.0
 30
128.9508775352266
 70
   192
  0
VERTEX
  5
1243
  8
0
 10
-160.87306100018
 20
-22.47664043757055
 30
138.9371728827724
 70
   192
  0
VERTEX
  5
1244
  8
0
 10
0.0
 20
0.0
 30
0.0
 70
   128
 71
     1
 72
     2
 73
     3
  0
VERTEX
  5
1245
  8
0
 10
0.0
 20
0.0
 30
0.0
 70
   128
 71
     4
 72
     1
 73
     5
  0
VERTEX
  5
1246
  8
0
 10
0.0
 20
0.0
 30
0.0
 70
   128
 71
     2
 72
     6
 73
     7
  0
VERTEX
  5
1247
  8
0
 10
0.0
 20
0.0
 30
0.0
 70
   128
 71
     3
 72
     2
 73
     7
  0
VERTEX
  5
1248
  8
0
 10
0.0
 20
0.0
 30
0.0
 70
   128
 71
     5
 72
     1
 73
     3
  0
VERTEX
  5
1249
  8
0
 10
0.0
 20
0.0
 30
0.0
 70
   128
 71
     8
 72
     4
 73
     5
  0
SEQEND
  5
194C
  8
0
  0
POLYLINE
  5
124A
  8
0
 66
     1
 10
0.0
 20
0.0
 30
0.0
 70
    64
 71
     8
 72
     6
  0
VERTEX
  5
124B
  8
0
 10
181.4313584967908
 20
-17.70080735766795
 30
128.9508775352266
 70
   192
  0
VERTEX
  5
124C
  8
0
 10
177.7989737376899
 20
-14.25380292860603
 30
128.9508775352266
 70
   192
  0
VERTEX
  5
124D
  8
0
 10
178.0622574850092
 20
-14.40501345299483
 30
124.5248640264747
 70
   192
  0
VERTEX
  5
124E
  8
0
 10
182.9371728827725
 20
-22.47664043757055
 30
128.9508775352266
 70
   192
  0
VERTEX
  5
124F
  8
0
 10
181.5216063840814
 20
-17.84804788806321
 30
120.8416242155117
 70
   192
  0
VERTEX
  5
1250
  8
0
 10
172.9508775352265
 20
-13.0
 30
128.9508775352266
 70
   192
  0
VERTEX
  5
1251
  8
0
 10
172.9508775352265
 20
-13.0
 30
127.4349352302012
 70
   192
  0
VERTEX
  5
1252
  8
0
 10
182.9371728827725
 20
-22.47664043757055
 30
117.040325721136
 70
   192
  0
VERTEX
  5
1253
  8
0
 10
0.0
 20
0.0
 30
0.0
 70
   128
 71
     1
 72
     2
 73
     3
  0
VERTEX
  5
1254
  8
0
 10
0.0
 20
0.0
 30
0.0
 70
   128
 71
     4
 72
     1
 73
     5
  0
VERTEX
  5
1255
  8
0
 10
0.0
 20
0.0
 30
0.0
 70
   128
 71
     2
 72
     6
 73
     7
  0
VERTEX
  5
1256
  8
0
 10
0.0
 20
0.0
 30
0.0
 70
   128
 71
     3
 72
     2
 73
     7
  0
VERTEX
  5
1257
  8
0
 10
0.0
 20
0.0
 30
0.0
 70
   128
 71
     5
 72
     1
 73
     3
  0
VERTEX
  5
1258
  8
0
 10
0.0
 20
0.0
 30
0.0
 70
   128
 71
     8
 72
     4
 73
     5
  0
SEQEND
  5
194D
  8
0
  0
POLYLINE
  5
1259
  8
0
 66
     1
 10
0.0
 20
0.0
 30
0.0
 70
    64
 71
     9
 72
     7
  0
VERTEX
  5
125A
  8
0
 10
181.4313584967908
 20
-17.70080735766795
 30
128.9508775352266
 70
   192
  0
VERTEX
  5
125B
  8
0
 10
182.9371728827722
 20
-22.47664043757057
 30
128.9508775352266
 70
   192
  0
VERTEX
  5
125C
  8
0
 10
181.5901633169097
 20
-22.28596738430465
 30
133.9361456931224
 70
   192
  0
VERTEX
  5
125D
  8
0
 10
177.9361456931223
 20
-22.28596738430465
 30
137.5901633169098
 70
   192
  0
VERTEX
  5
125E
  8
0
 10
172.9508775352265
 20
-14.25380292860605
 30
133.7989737376899
 70
   192
  0
VERTEX
  5
125F
  8
0
 10
172.9508775352265
 20
-12.99999999999999
 30
128.9508775352266
 70
   192
  0
VERTEX
  5
1260
  8
0
 10
177.7989737376899
 20
-14.25380292860603
 30
128.9508775352266
 70
   192
  0
VERTEX
  5
1261
  8
0
 10
172.9508775352265
 20
-22.47664043757056
 30
138.9371728827724
 70
   192
  0
VERTEX
  5
1262
  8
0
 10
172.9508775352265
 20
-17.70080735766795
 30
137.4313584967908
 70
   192
  0
VERTEX
  5
1263
  8
0
 10
0.0
 20
0.0
 30
0.0
 70
   128
 71
     1
 72
     2
 73
     3
  0
VERTEX
  5
1264
  8
0
 10
0.0
 20
0.0
 30
0.0
 70
   128
 71
     3
 72
     4
 73
     1
  0
VERTEX
  5
1265
  8
0
 10
0.0
 20
0.0
 30
0.0
 70
   128
 71
     5
 72
     6
 73
     7
  0
VERTEX
  5
1266
  8
0
 10
0.0
 20
0.0
 30
0.0
 70
   128
 71
     7
 72
     1
 73
     4
  0
VERTEX
  5
1267
  8
0
 10
0.0
 20
0.0
 30
0.0
 70
   128
 71
     4
 72
     8
 73
     9
  0
VERTEX
  5
1268
  8
0
 10
0.0
 20
0.0
 30
0.0
 70
   128
 71
     7
 72
     4
 73
     9
  0
VERTEX
  5
1269
  8
0
 10
0.0
 20
0.0
 30
0.0
 70
   128
 71
     9
 72
     5
 73
     7
  0
SEQEND
  5
194E
  8
0
  0
POLYLINE
  5
126A
  8
0
 66
     1
 10
0.0
 20
0.0
 30
0.0
 70
    64
 71
     8
 72
     6
  0
VERTEX
  5
126B
  8
0
 10
172.9508775352265
 20
-14.25380292860605
 30
133.7989737376899
 70
   192
  0
VERTEX
  5
126C
  8
0
 10
172.9508775352265
 20
-17.70080735766795
 30
137.4313584967908
 70
   192
  0
VERTEX
  5
126D
  8
0
 10
168.3874990538682
 20
-14.31735718280683
 30
133.9118990600119
 70
   192
  0
VERTEX
  5
126E
  8
0
 10
171.3702008075705
 20
-13.0
 30
128.9508775352266
 70
   192
  0
VERTEX
  5
126F
  8
0
 10
172.9508775352265
 20
-13.0
 30
128.9508775352266
 70
   192
  0
VERTEX
  5
1270
  8
0
 10
172.9508775352265
 20
-22.47664043757055
 30
138.9371728827724
 70
   192
  0
VERTEX
  5
1271
  8
0
 10
164.3887718751989
 20
-17.98461820946552
 30
137.6022422126842
 70
   192
  0
VERTEX
  5
1272
  8
0
 10
160.8730783180139
 20
-22.47664043757055
 30
138.9371728827724
 70
   192
  0
VERTEX
  5
1273
  8
0
 10
0.0
 20
0.0
 30
0.0
 70
   128
 71
     1
 72
     2
 73
     3
  0
VERTEX
  5
1274
  8
0
 10
0.0
 20
0.0
 30
0.0
 70
   128
 71
     3
 72
     4
 73
     5
  0
VERTEX
  5
1275
  8
0
 10
0.0
 20
0.0
 30
0.0
 70
   128
 71
     1
 72
     3
 73
     5
  0
VERTEX
  5
1276
  8
0
 10
0.0
 20
0.0
 30
0.0
 70
   128
 71
     6
 72
     7
 73
     3
  0
VERTEX
  5
1277
  8
0
 10
0.0
 20
0.0
 30
0.0
 70
   128
 71
     2
 72
     6
 73
     3
  0
VERTEX
  5
1278
  8
0
 10
0.0
 20
0.0
 30
0.0
 70
   128
 71
     6
 72
     8
 73
     7
  0
SEQEND
  5
194F
  8
0
  0
POLYLINE
  5
1279
  8
0
 66
     1
 10
0.0
 20
0.0
 30
0.0
 70
    64
 71
    12
 72
    10
  0
VERTEX
  5
127A
  8
0
 10
-173.4548516331515
 20
-18.56476687278785
 30
-114.5994320523336
 70
   192
  0
VERTEX
  5
127B
  8
0
 10
-173.0437263736658
 20
-16.88226432856355
 30
-117.9271993297562
 70
   192
  0
VERTEX
  5
127C
  8
0
 10
-171.9054463837143
 20
-15.56687698836532
 30
-121.2593673487093
 70
   192
  0
VERTEX
  5
127D
  8
0
 10
-169.8378338505255
 20
-14.94041907528391
 30
-124.2998496280484
 70
   192
  0
VERTEX
  5
127E
  8
0
 10
-170.7347397867752
 20
-13.8904332611551
 30
-125.2031061101339
 70
   192
  0
VERTEX
  5
127F
  8
0
 10
-171.7992585455993
 20
-13.22689856173176
 30
-126.2751621980109
 70
   192
  0
VERTEX
  5
1280
  8
0
 10
-172.9508775352265
 20
-13.0
 30
-127.434935230201
 70
   192
  0
VERTEX
  5
1281
  8
0
 10
-178.0622574811761
 20
-14.40501345071528
 30
-124.5248640292159
 70
   192
  0
VERTEX
  5
1282
  8
0
 10
-181.5216063632913
 20
-17.84804785347619
 30
-120.8416242474036
 70
   192
  0
VERTEX
  5
1283
  8
0
 10
-182.9371728827724
 20
-22.47664043757056
 30
-117.0403257211352
 70
   192
  0
VERTEX
  5
1284
  8
0
 10
-181.2881590852722
 20
-19.11650558988788
 30
-115.132179124682
 70
   192
  0
VERTEX
  5
1285
  8
0
 10
-177.5098912665356
 20
-17.55780433819006
 30
-114.1595955393958
 70
   192
  0
VERTEX
  5
1286
  8
0
 10
0.0
 20
0.0
 30
0.0
 70
   128
 71
     8
 72
     7
 73
     6
  0
VERTEX
  5
1287
  8
0
 10
0.0
 20
0.0
 30
0.0
 70
   128
 71
     6
 72
     9
 73
     8
  0
VERTEX
  5
1288
  8
0
 10
0.0
 20
0.0
 30
0.0
 70
   128
 71
     6
 72
    11
 73
    10
  0
VERTEX
  5
1289
  8
0
 10
0.0
 20
0.0
 30
0.0
 70
   128
 71
     6
 72
    10
 73
     9
  0
VERTEX
  5
128A
  8
0
 10
0.0
 20
0.0
 30
0.0
 70
   128
 71
     6
 72
     5
 73
    12
  0
VERTEX
  5
128B
  8
0
 10
0.0
 20
0.0
 30
0.0
 70
   128
 71
     6
 72
    12
 73
    11
  0
VERTEX
  5
128C
  8
0
 10
0.0
 20
0.0
 30
0.0
 70
   128
 71
     2
 72
     1
 73
    12
  0
VERTEX
  5
128D
  8
0
 10
0.0
 20
0.0
 30
0.0
 70
   128
 71
     2
 72
    12
 73
     5
  0
VERTEX
  5
128E
  8
0
 10
0.0
 20
0.0
 30
0.0
 70
   128
 71
     5
 72
     3
 73
     2
  0
VERTEX
  5
128F
  8
0
 10
0.0
 20
0.0
 30
0.0
 70
   128
 71
     5
 72
     4
 73
     3
  0
SEQEND
  5
1950
  8
0
  0
POLYLINE
  5
1290
  8
0
 66
     1
 10
0.0
 20
0.0
 30
0.0
 70
    64
 71
    15
 72
    13
  0
VERTEX
  5
1291
  8
0
 10
-173.7277218292385
 20
-35.0080126716182
 30
0.000000000000357
 70
   192
  0
VERTEX
  5
1292
  8
0
 10
-173.7218682536986
 20
-34.41847759797537
 30
39.22881442045659
 70
   192
  0
VERTEX
  5
1293
  8
0
 10
-183.7773767139887
 20
-38.50868458656473
 30
39.61220011078059
 70
   192
  0
VERTEX
  5
1294
  8
0
 10
-181.288162036673
 20
-19.11651291124341
 30
115.1322343925884
 70
   192
  0
VERTEX
  5
1295
  8
0
 10
-182.9371728827724
 20
-22.47664043757054
 30
117.0403883692236
 70
   192
  0
VERTEX
  5
1296
  8
0
 10
-173.6636306793456
 20
-31.05471640389423
 30
77.84851433499054
 70
   192
  0
VERTEX
  5
1297
  8
0
 10
-177.509899434154
 20
-17.55781225084999
 30
114.1596454146648
 70
   192
  0
VERTEX
  5
1298
  8
0
 10
-173.454861494907
 20
-18.56476702451875
 30
114.5994803352164
 70
   192
  0
VERTEX
  5
1299
  8
0
 10
-173.6633262290306
 20
-31.04065254822418
 30
-77.93001221163999
 70
   192
  0
VERTEX
  5
129A
  8
0
 10
-173.7218685000485
 20
-34.41514216857554
 30
-39.3238902950245
 70
   192
  0
VERTEX
  5
129B
  8
0
 10
-177.5098912665356
 20
-17.55780433819006
 30
-114.1595955393958
 70
   192
  0
VERTEX
  5
129C
  8
0
 10
-173.4548516331514
 20
-18.56476687278782
 30
-114.5994320523334
 70
   192
  0
VERTEX
  5
129D
  8
0
 10
-183.7770001604977
 20
-38.5014995179281
 30
-39.82831701679506
 70
   192
  0
VERTEX
  5
129E
  8
0
 10
-181.2881590852722
 20
-19.11650558988788
 30
-115.132179124682
 70
   192
  0
VERTEX
  5
129F
  8
0
 10
-182.9371728827725
 20
-22.47664043757055
 30
-117.0403257211352
 70
   192
  0
VERTEX
  5
12A0
  8
0
 10
0.0
 20
0.0
 30
0.0
 70
   128
 71
     1
 72
     2
 73
     3
  0
VERTEX
  5
12A1
  8
0
 10
0.0
 20
0.0
 30
0.0
 70
   128
 71
     4
 72
     5
 73
     3
  0
VERTEX
  5
12A2
  8
0
 10
0.0
 20
0.0
 30
0.0
 70
   128
 71
     3
 72
     6
 73
     7
  0
VERTEX
  5
12A3
  8
0
 10
0.0
 20
0.0
 30
0.0
 70
   128
 71
     3
 72
     7
 73
     4
  0
VERTEX
  5
12A4
  8
0
 10
0.0
 20
0.0
 30
0.0
 70
   128
 71
     6
 72
     8
 73
     7
  0
VERTEX
  5
12A5
  8
0
 10
0.0
 20
0.0
 30
0.0
 70
   128
 71
     3
 72
     2
 73
     6
  0
VERTEX
  5
12A6
  8
0
 10
0.0
 20
0.0
 30
0.0
 70
   128
 71
     9
 72
    10
 73
    11
  0
VERTEX
  5
12A7
  8
0
 10
0.0
 20
0.0
 30
0.0
 70
   128
 71
    11
 72
    12
 73
     9
  0
VERTEX
  5
12A8
  8
0
 10
0.0
 20
0.0
 30
0.0
 70
   128
 71
    10
 72
    13
 73
    14
  0
VERTEX
  5
12A9
  8
0
 10
0.0
 20
0.0
 30
0.0
 70
   128
 71
    10
 72
    14
 73
    11
  0
VERTEX
  5
12AA
  8
0
 10
0.0
 20
0.0
 30
0.0
 70
   128
 71
    13
 72
    15
 73
    14
  0
VERTEX
  5
12AB
  8
0
 10
0.0
 20
0.0
 30
0.0
 70
   128
 71
    10
 72
     1
 73
     3
  0
VERTEX
  5
12AC
  8
0
 10
0.0
 20
0.0
 30
0.0
 70
   128
 71
    10
 72
     3
 73
    13
  0
SEQEND
  5
1951
  8
0
  0
POLYLINE
  5
12AD
  8
0
 66
     1
 10
0.0
 20
0.0
 30
0.0
 70
    64
 71
    12
 72
    10
  0
VERTEX
  5
12AE
  8
0
 10
169.837839764209
 20
-14.94042008306234
 30
-124.2998509108514
 70
   192
  0
VERTEX
  5
12AF
  8
0
 10
171.9023535432829
 20
-15.56558210447185
 30
-121.2647290777703
 70
   192
  0
VERTEX
  5
12B0
  8
0
 10
173.0414203843143
 20
-16.87711203633577
 30
-117.9382650772936
 70
   192
  0
VERTEX
  5
12B1
  8
0
 10
173.454861494907
 20
-18.56476702451894
 30
-114.5994803352179
 70
   192
  0
VERTEX
  5
12B2
  8
0
 10
177.509899434154
 20
-17.55781225085007
 30
-114.1596454146664
 70
   192
  0
VERTEX
  5
12B3
  8
0
 10
181.288162036673
 20
-19.1165129112434
 30
-115.1322343925901
 70
   192
  0
VERTEX
  5
12B4
  8
0
 10
182.9371728827725
 20
-22.47664043757055
 30
-117.0403883692252
 70
   192
  0
VERTEX
  5
12B5
  8
0
 10
181.4129287683184
 20
-17.67140693296501
 30
-121.0060088262688
 70
   192
  0
VERTEX
  5
12B6
  8
0
 10
178.0013547213941
 20
-14.36908615191581
 30
-124.5714700607587
 70
   192
  0
VERTEX
  5
12B7
  8
0
 10
172.9508775352265
 20
-12.99999999999999
 30
-127.434943690055
 70
   192
  0
VERTEX
  5
12B8
  8
0
 10
171.7992606653489
 20
-13.22689868600209
 30
-126.2751679344328
 70
   192
  0
VERTEX
  5
12B9
  8
0
 10
170.7347439136556
 20
-13.89043373943853
 30
-125.2031093771466
 70
   192
  0
VERTEX
  5
12BA
  8
0
 10
0.0
 20
0.0
 30
0.0
 70
   128
 71
     8
 72
     7
 73
     6
  0
VERTEX
  5
12BB
  8
0
 10
0.0
 20
0.0
 30
0.0
 70
   128
 71
     6
 72
    11
 73
     9
  0
VERTEX
  5
12BC
  8
0
 10
0.0
 20
0.0
 30
0.0
 70
   128
 71
     6
 72
     9
 73
     8
  0
VERTEX
  5
12BD
  8
0
 10
0.0
 20
0.0
 30
0.0
 70
   128
 71
    11
 72
    10
 73
     9
  0
VERTEX
  5
12BE
  8
0
 10
0.0
 20
0.0
 30
0.0
 70
   128
 71
     6
 72
     5
 73
    12
  0
VERTEX
  5
12BF
  8
0
 10
0.0
 20
0.0
 30
0.0
 70
   128
 71
     6
 72
    12
 73
    11
  0
VERTEX
  5
12C0
  8
0
 10
0.0
 20
0.0
 30
0.0
 70
   128
 71
     2
 72
     1
 73
    12
  0
VERTEX
  5
12C1
  8
0
 10
0.0
 20
0.0
 30
0.0
 70
   128
 71
    12
 72
     3
 73
     2
  0
VERTEX
  5
12C2
  8
0
 10
0.0
 20
0.0
 30
0.0
 70
   128
 71
    12
 72
     5
 73
     4
  0
VERTEX
  5
12C3
  8
0
 10
0.0
 20
0.0
 30
0.0
 70
   128
 71
    12
 72
     4
 73
     3
  0
SEQEND
  5
1952
  8
0
  0
POLYLINE
  5
12C4
  8
0
 66
     1
 10
0.0
 20
0.0
 30
0.0
 70
    64
 71
    12
 72
    10
  0
VERTEX
  5
12C5
  8
0
 10
-182.9371728827725
 20
-22.47664043757055
 30
117.0403883692236
 70
   192
  0
VERTEX
  5
12C6
  8
0
 10
-181.412928775052
 20
-17.67140694366031
 30
121.0060088162604
 70
   192
  0
VERTEX
  5
12C7
  8
0
 10
-178.0013547190761
 20
-14.36908615055935
 30
124.571470062143
 70
   192
  0
VERTEX
  5
12C8
  8
0
 10
-172.9508775352265
 20
-12.99999999999998
 30
127.434943690054
 70
   192
  0
VERTEX
  5
12C9
  8
0
 10
-171.7992606653489
 20
-13.22689868600206
 30
126.2751679344319
 70
   192
  0
VERTEX
  5
12CA
  8
0
 10
-170.7347439136557
 20
-13.89043373943844
 30
125.2031093771457
 70
   192
  0
VERTEX
  5
12CB
  8
0
 10
-169.837839764209
 20
-14.94042008306216
 30
124.2998509108506
 70
   192
  0
VERTEX
  5
12CC
  8
0
 10
-171.9023535418848
 20
-15.56558210269798
 30
121.264729076384
 70
   192
  0
VERTEX
  5
12CD
  8
0
 10
-173.0414203801888
 20
-16.87711203130871
 30
117.9382650743719
 70
   192
  0
VERTEX
  5
12CE
  8
0
 10
-173.454861494907
 20
-18.5647670245188
 30
114.5994803352164
 70
   192
  0
VERTEX
  5
12CF
  8
0
 10
-177.509899434154
 20
-17.55781225084999
 30
114.1596454146648
 70
   192
  0
VERTEX
  5
12D0
  8
0
 10
-181.288162036673
 20
-19.11651291124341
 30
115.1322343925884
 70
   192
  0
VERTEX
  5
12D1
  8
0
 10
0.0
 20
0.0
 30
0.0
 70
   128
 71
     8
 72
     7
 73
     6
  0
VERTEX
  5
12D2
  8
0
 10
0.0
 20
0.0
 30
0.0
 70
   128
 71
     6
 72
     9
 73
     8
  0
VERTEX
  5
12D3
  8
0
 10
0.0
 20
0.0
 30
0.0
 70
   128
 71
     6
 72
    11
 73
    10
  0
VERTEX
  5
12D4
  8
0
 10
0.0
 20
0.0
 30
0.0
 70
   128
 71
     6
 72
    10
 73
     9
  0
VERTEX
  5
12D5
  8
0
 10
0.0
 20
0.0
 30
0.0
 70
   128
 71
     6
 72
     5
 73
    12
  0
VERTEX
  5
12D6
  8
0
 10
0.0
 20
0.0
 30
0.0
 70
   128
 71
     6
 72
    12
 73
    11
  0
VERTEX
  5
12D7
  8
0
 10
0.0
 20
0.0
 30
0.0
 70
   128
 71
     2
 72
     1
 73
    12
  0
VERTEX
  5
12D8
  8
0
 10
0.0
 20
0.0
 30
0.0
 70
   128
 71
    12
 72
     5
 73
     3
  0
VERTEX
  5
12D9
  8
0
 10
0.0
 20
0.0
 30
0.0
 70
   128
 71
    12
 72
     3
 73
     2
  0
VERTEX
  5
12DA
  8
0
 10
0.0
 20
0.0
 30
0.0
 70
   128
 71
     5
 72
     4
 73
     3
  0
SEQEND
  5
1953
  8
0
  0
POLYLINE
  5
12DB
  8
0
 66
     1
 10
0.0
 20
0.0
 30
0.0
 70
    64
 71
    15
 72
    13
  0
VERTEX
  5
12DC
  8
0
 10
173.6636017598587
 20
-31.05474408691552
 30
77.84807280019427
 70
   192
  0
VERTEX
  5
12DD
  8
0
 10
173.7218861683767
 20
-34.41832632235224
 30
39.22821295251651
 70
   192
  0
VERTEX
  5
12DE
  8
0
 10
177.5098912665357
 20
-17.55780433819013
 30
114.1595955393966
 70
   192
  0
VERTEX
  5
12DF
  8
0
 10
173.4548516331515
 20
-18.56476687278785
 30
114.5994320523341
 70
   192
  0
VERTEX
  5
12E0
  8
0
 10
183.7773674286603
 20
-38.50850741194293
 30
39.61210155587989
 70
   192
  0
VERTEX
  5
12E1
  8
0
 10
181.2881590852723
 20
-19.11650558988793
 30
115.1321791246828
 70
   192
  0
VERTEX
  5
12E2
  8
0
 10
182.9371728827725
 20
-22.47664043757055
 30
117.040325721136
 70
   192
  0
VERTEX
  5
12E3
  8
0
 10
181.288162036673
 20
-19.1165129112434
 30
-115.1322343925901
 70
   192
  0
VERTEX
  5
12E4
  8
0
 10
182.9371728827724
 20
-22.47664043757048
 30
-117.0403883692253
 70
   192
  0
VERTEX
  5
12E5
  8
0
 10
183.7770095517446
 20
-38.50167871359915
 30
-39.82834539257805
 70
   192
  0
VERTEX
  5
12E6
  8
0
 10
173.6633535802703
 20
-31.04062847579628
 30
-77.93043520672245
 70
   192
  0
VERTEX
  5
12E7
  8
0
 10
177.509899434154
 20
-17.55781225085007
 30
-114.1596454146664
 70
   192
  0
VERTEX
  5
12E8
  8
0
 10
173.454861494907
 20
-18.56476702451885
 30
-114.599480335218
 70
   192
  0
VERTEX
  5
12E9
  8
0
 10
173.7218501229393
 20
-34.41529591137721
 30
-39.32441544060002
 70
   192
  0
VERTEX
  5
12EA
  8
0
 10
173.7277218292385
 20
-35.0080126716173
 30
-0.0000000000036976
 70
   192
  0
VERTEX
  5
12EB
  8
0
 10
0.0
 20
0.0
 30
0.0
 70
   128
 71
     1
 72
     2
 73
     3
  0
VERTEX
  5
12EC
  8
0
 10
0.0
 20
0.0
 30
0.0
 70
   128
 71
     3
 72
     4
 73
     1
  0
VERTEX
  5
12ED
  8
0
 10
0.0
 20
0.0
 30
0.0
 70
   128
 71
     2
 72
     5
 73
     6
  0
VERTEX
  5
12EE
  8
0
 10
0.0
 20
0.0
 30
0.0
 70
   128
 71
     2
 72
     6
 73
     3
  0
VERTEX
  5
12EF
  8
0
 10
0.0
 20
0.0
 30
0.0
 70
   128
 71
     5
 72
     7
 73
     6
  0
VERTEX
  5
12F0
  8
0
 10
0.0
 20
0.0
 30
0.0
 70
   128
 71
     8
 72
     9
 73
    10
  0
VERTEX
  5
12F1
  8
0
 10
0.0
 20
0.0
 30
0.0
 70
   128
 71
    10
 72
    11
 73
    12
  0
VERTEX
  5
12F2
  8
0
 10
0.0
 20
0.0
 30
0.0
 70
   128
 71
    10
 72
    12
 73
     8
  0
VERTEX
  5
12F3
  8
0
 10
0.0
 20
0.0
 30
0.0
 70
   128
 71
    11
 72
    13
 73
    12
  0
VERTEX
  5
12F4
  8
0
 10
0.0
 20
0.0
 30
0.0
 70
   128
 71
    10
 72
    14
 73
    11
  0
VERTEX
  5
12F5
  8
0
 10
0.0
 20
0.0
 30
0.0
 70
   128
 71
    15
 72
    10
 73
     5
  0
VERTEX
  5
12F6
  8
0
 10
0.0
 20
0.0
 30
0.0
 70
   128
 71
     5
 72
     2
 73
    15
  0
VERTEX
  5
12F7
  8
0
 10
0.0
 20
0.0
 30
0.0
 70
   128
 71
    10
 72
    15
 73
    14
  0
SEQEND
  5
1954
  8
0
  0
POLYLINE
  5
12F8
  8
0
 66
     1
 10
0.0
 20
0.0
 30
0.0
 70
    64
 71
    12
 72
    10
  0
VERTEX
  5
12F9
  8
0
 10
-172.9508775352265
 20
-13.0
 30
127.434943690054
 70
   192
  0
VERTEX
  5
12FA
  8
0
 10
-172.4298303723693
 20
-13.0
 30
127.9463486423383
 70
   192
  0
VERTEX
  5
12FB
  8
0
 10
-171.902929823992
 20
-13.0
 30
128.4516502326986
 70
   192
  0
VERTEX
  5
12FC
  8
0
 10
-171.3702037733935
 20
-13.0
 30
128.9508775352266
 70
   192
  0
VERTEX
  5
12FD
  8
0
 10
-170.2529811375265
 20
-13.22961217232495
 30
127.7448767474466
 70
   192
  0
VERTEX
  5
12FE
  8
0
 10
-169.2212678071235
 20
-13.90087477273988
 30
126.6311801132358
 70
   192
  0
VERTEX
  5
12FF
  8
0
 10
-168.3540284285215
 20
-14.96241111328424
 30
125.6950270670916
 70
   192
  0
VERTEX
  5
1300
  8
0
 10
-168.8563591647412
 20
-14.95473573355585
 30
125.2337123656304
 70
   192
  0
VERTEX
  5
1301
  8
0
 10
-169.3509630952379
 20
-14.94741778894789
 30
124.7686434653351
 70
   192
  0
VERTEX
  5
1302
  8
0
 10
-169.837839764209
 20
-14.94042008306214
 30
124.2998509108506
 70
   192
  0
VERTEX
  5
1303
  8
0
 10
-170.7347439136557
 20
-13.89043373943844
 30
125.2031093771457
 70
   192
  0
VERTEX
  5
1304
  8
0
 10
-171.7992606653489
 20
-13.22689868600206
 30
126.2751679344319
 70
   192
  0
VERTEX
  5
1305
  8
0
 10
0.0
 20
0.0
 30
0.0
 70
   128
 71
     8
 72
     7
 73
     6
  0
VERTEX
  5
1306
  8
0
 10
0.0
 20
0.0
 30
0.0
 70
   128
 71
     8
 72
     6
 73
    11
  0
VERTEX
  5
1307
  8
0
 10
0.0
 20
0.0
 30
0.0
 70
   128
 71
    11
 72
     9
 73
     8
  0
VERTEX
  5
1308
  8
0
 10
0.0
 20
0.0
 30
0.0
 70
   128
 71
    11
 72
    10
 73
     9
  0
VERTEX
  5
1309
  8
0
 10
0.0
 20
0.0
 30
0.0
 70
   128
 71
     6
 72
     5
 73
    12
  0
VERTEX
  5
130A
  8
0
 10
0.0
 20
0.0
 30
0.0
 70
   128
 71
     6
 72
    12
 73
    11
  0
VERTEX
  5
130B
  8
0
 10
0.0
 20
0.0
 30
0.0
 70
   128
 71
     2
 72
     1
 73
    12
  0
VERTEX
  5
130C
  8
0
 10
0.0
 20
0.0
 30
0.0
 70
   128
 71
    12
 72
     3
 73
     2
  0
VERTEX
  5
130D
  8
0
 10
0.0
 20
0.0
 30
0.0
 70
   128
 71
    12
 72
     5
 73
     4
  0
VERTEX
  5
130E
  8
0
 10
0.0
 20
0.0
 30
0.0
 70
   128
 71
    12
 72
     4
 73
     3
  0
SEQEND
  5
1955
  8
0
  0
POLYLINE
  5
130F
  8
0
 66
     1
 10
0.0
 20
0.0
 30
0.0
 70
    64
 71
    12
 72
    10
  0
VERTEX
  5
1310
  8
0
 10
173.4548516331515
 20
-18.5647668727879
 30
114.599432052334
 70
   192
  0
VERTEX
  5
1311
  8
0
 10
173.0437263695572
 20
-16.88226432345606
 30
117.9271993268999
 70
   192
  0
VERTEX
  5
1312
  8
0
 10
171.9054463822889
 20
-15.56687698662383
 30
121.2593673473025
 70
   192
  0
VERTEX
  5
1313
  8
0
 10
169.8378338505255
 20
-14.94041907528397
 30
124.2998496280483
 70
   192
  0
VERTEX
  5
1314
  8
0
 10
170.7347397867752
 20
-13.89043326115511
 30
125.2031061101339
 70
   192
  0
VERTEX
  5
1315
  8
0
 10
171.7992585455993
 20
-13.22689856173175
 30
126.275162198011
 70
   192
  0
VERTEX
  5
1316
  8
0
 10
172.9508775352265
 20
-13.0
 30
127.4349352302012
 70
   192
  0
VERTEX
  5
1317
  8
0
 10
178.0622574850092
 20
-14.40501345299483
 30
124.5248640264747
 70
   192
  0
VERTEX
  5
1318
  8
0
 10
181.5216063840814
 20
-17.84804788806321
 30
120.8416242155117
 70
   192
  0
VERTEX
  5
1319
  8
0
 10
182.9371728827724
 20
-22.47664043757053
 30
117.040325721136
 70
   192
  0
VERTEX
  5
131A
  8
0
 10
181.2881590852723
 20
-19.11650558988793
 30
115.1321791246828
 70
   192
  0
VERTEX
  5
131B
  8
0
 10
177.5098912665357
 20
-17.55780433819013
 30
114.1595955393966
 70
   192
  0
VERTEX
  5
131C
  8
0
 10
0.0
 20
0.0
 30
0.0
 70
   128
 71
     8
 72
     7
 73
     6
  0
VERTEX
  5
131D
  8
0
 10
0.0
 20
0.0
 30
0.0
 70
   128
 71
     6
 72
     9
 73
     8
  0
VERTEX
  5
131E
  8
0
 10
0.0
 20
0.0
 30
0.0
 70
   128
 71
     6
 72
    11
 73
    10
  0
VERTEX
  5
131F
  8
0
 10
0.0
 20
0.0
 30
0.0
 70
   128
 71
     6
 72
    10
 73
     9
  0
VERTEX
  5
1320
  8
0
 10
0.0
 20
0.0
 30
0.0
 70
   128
 71
     6
 72
     5
 73
    12
  0
VERTEX
  5
1321
  8
0
 10
0.0
 20
0.0
 30
0.0
 70
   128
 71
     6
 72
    12
 73
    11
  0
VERTEX
  5
1322
  8
0
 10
0.0
 20
0.0
 30
0.0
 70
   128
 71
     2
 72
     1
 73
    12
  0
VERTEX
  5
1323
  8
0
 10
0.0
 20
0.0
 30
0.0
 70
   128
 71
     2
 72
    12
 73
     5
  0
VERTEX
  5
1324
  8
0
 10
0.0
 20
0.0
 30
0.0
 70
   128
 71
     5
 72
     3
 73
     2
  0
VERTEX
  5
1325
  8
0
 10
0.0
 20
0.0
 30
0.0
 70
   128
 71
     5
 72
     4
 73
     3
  0
SEQEND
  5
1956
  8
0
  0
POLYLINE
  5
1326
  8
0
 66
     1
 10
0.0
 20
0.0
 30
0.0
 70
    64
 71
    12
 72
    10
  0
VERTEX
  5
1327
  8
0
 10
-171.3702037733935
 20
-13.0
 30
128.9508775352266
 70
   192
  0
VERTEX
  5
1328
  8
0
 10
-168.3930147024749
 20
-14.31345136861623
 30
133.9050998540111
 70
   192
  0
VERTEX
  5
1329
  8
0
 10
-164.3934517984624
 20
-17.979348136962
 30
137.5993286466583
 70
   192
  0
VERTEX
  5
132A
  8
0
 10
-160.87306100018
 20
-22.47664043757055
 30
138.9371728827724
 70
   192
  0
VERTEX
  5
132B
  8
0
 10
-158.8153065116377
 20
-19.14236781462522
 30
137.2413982934519
 70
   192
  0
VERTEX
  5
132C
  8
0
 10
-157.7994262114529
 20
-17.65528225678082
 30
133.3704884938865
 70
   192
  0
VERTEX
  5
132D
  8
0
 10
-158.339776632009
 20
-18.76831909583915
 30
129.284347363807
 70
   192
  0
VERTEX
  5
132E
  8
0
 10
-161.7235120988863
 20
-16.98253671322785
 30
128.8311630699089
 70
   192
  0
VERTEX
  5
132F
  8
0
 10
-165.1761828280881
 20
-15.62526447924919
 30
127.6731647441264
 70
   192
  0
VERTEX
  5
1330
  8
0
 10
-168.3540284285213
 20
-14.9624111132842
 30
125.6950270670917
 70
   192
  0
VERTEX
  5
1331
  8
0
 10
-169.2212678071235
 20
-13.90087477273988
 30
126.6311801132358
 70
   192
  0
VERTEX
  5
1332
  8
0
 10
-170.2529811375265
 20
-13.22961217232495
 30
127.7448767474466
 70
   192
  0
VERTEX
  5
1333
  8
0
 10
0.0
 20
0.0
 30
0.0
 70
   128
 71
     8
 72
     7
 73
     6
  0
VERTEX
  5
1334
  8
0
 10
0.0
 20
0.0
 30
0.0
 70
   128
 71
     8
 72
     6
 73
    11
  0
VERTEX
  5
1335
  8
0
 10
0.0
 20
0.0
 30
0.0
 70
   128
 71
    11
 72
     9
 73
     8
  0
VERTEX
  5
1336
  8
0
 10
0.0
 20
0.0
 30
0.0
 70
   128
 71
    11
 72
    10
 73
     9
  0
VERTEX
  5
1337
  8
0
 10
0.0
 20
0.0
 30
0.0
 70
   128
 71
     6
 72
     5
 73
    12
  0
VERTEX
  5
1338
  8
0
 10
0.0
 20
0.0
 30
0.0
 70
   128
 71
     6
 72
    12
 73
    11
  0
VERTEX
  5
1339
  8
0
 10
0.0
 20
0.0
 30
0.0
 70
   128
 71
     2
 72
     1
 73
    12
  0
VERTEX
  5
133A
  8
0
 10
0.0
 20
0.0
 30
0.0
 70
   128
 71
    12
 72
     3
 73
     2
  0
VERTEX
  5
133B
  8
0
 10
0.0
 20
0.0
 30
0.0
 70
   128
 71
    12
 72
     5
 73
     4
  0
VERTEX
  5
133C
  8
0
 10
0.0
 20
0.0
 30
0.0
 70
   128
 71
    12
 72
     4
 73
     3
  0
SEQEND
  5
1957
  8
0
  0
POLYLINE
  5
133D
  8
0
 66
     1
 10
0.0
 20
0.0
 30
0.0
 70
    64
 71
    12
 72
    10
  0
VERTEX
  5
133E
  8
0
 10
169.8378338505255
 20
-14.94041907528402
 30
124.2998496280484
 70
   192
  0
VERTEX
  5
133F
  8
0
 10
169.3509572243077
 20
-14.94741678443453
 30
124.7686440261519
 70
   192
  0
VERTEX
  5
1340
  8
0
 10
168.8563527190964
 20
-14.95473474761794
 30
125.2337151923538
 70
   192
  0
VERTEX
  5
1341
  8
0
 10
168.3540207785261
 20
-14.96241016927945
 30
125.6950325771158
 70
   192
  0
VERTEX
  5
1342
  8
0
 10
169.221261579529
 20
-13.9008743243562
 30
126.6311841205327
 70
   192
  0
VERTEX
  5
1343
  8
0
 10
170.2529764984893
 20
-13.22961205576857
 30
127.7448788551831
 70
   192
  0
VERTEX
  5
1344
  8
0
 10
171.3702008075705
 20
-13.0
 30
128.9508775352266
 70
   192
  0
VERTEX
  5
1345
  8
0
 10
171.9029279589818
 20
-13.0
 30
128.4516475072074
 70
   192
  0
VERTEX
  5
1346
  8
0
 10
172.4298294972865
 20
-13.0
 30
127.9463430982363
 70
   192
  0
VERTEX
  5
1347
  8
0
 10
172.9508775352265
 20
-13.0
 30
127.4349352302011
 70
   192
  0
VERTEX
  5
1348
  8
0
 10
171.7992585455993
 20
-13.22689856173175
 30
126.275162198011
 70
   192
  0
VERTEX
  5
1349
  8
0
 10
170.7347397867752
 20
-13.89043326115511
 30
125.2031061101339
 70
   192
  0
VERTEX
  5
134A
  8
0
 10
0.0
 20
0.0
 30
0.0
 70
   128
 71
     8
 72
     7
 73
     6
  0
VERTEX
  5
134B
  8
0
 10
0.0
 20
0.0
 30
0.0
 70
   128
 71
     8
 72
     6
 73
    11
  0
VERTEX
  5
134C
  8
0
 10
0.0
 20
0.0
 30
0.0
 70
   128
 71
    11
 72
     9
 73
     8
  0
VERTEX
  5
134D
  8
0
 10
0.0
 20
0.0
 30
0.0
 70
   128
 71
    11
 72
    10
 73
     9
  0
VERTEX
  5
134E
  8
0
 10
0.0
 20
0.0
 30
0.0
 70
   128
 71
     6
 72
     5
 73
    12
  0
VERTEX
  5
134F
  8
0
 10
0.0
 20
0.0
 30
0.0
 70
   128
 71
     6
 72
    12
 73
    11
  0
VERTEX
  5
1350
  8
0
 10
0.0
 20
0.0
 30
0.0
 70
   128
 71
     2
 72
     1
 73
    12
  0
VERTEX
  5
1351
  8
0
 10
0.0
 20
0.0
 30
0.0
 70
   128
 71
    12
 72
     3
 73
     2
  0
VERTEX
  5
1352
  8
0
 10
0.0
 20
0.0
 30
0.0
 70
   128
 71
    12
 72
     5
 73
     4
  0
VERTEX
  5
1353
  8
0
 10
0.0
 20
0.0
 30
0.0
 70
   128
 71
    12
 72
     4
 73
     3
  0
SEQEND
  5
1958
  8
0
  0
POLYLINE
  5
1354
  8
0
 66
     1
 10
0.0
 20
0.0
 30
0.0
 70
    64
 71
    14
 72
    12
  0
VERTEX
  5
1355
  8
0
 10
0.3893806589846416
 20
-48.38860415191712
 30
130.0236984805744
 70
   192
  0
VERTEX
  5
1356
  8
0
 10
81.70673673122657
 20
-43.78912357621484
 30
129.8771814183452
 70
   192
  0
VERTEX
  5
1357
  8
0
 10
82.93017980637282
 20
-47.45301171449616
 30
140.2461290359448
 70
   192
  0
VERTEX
  5
1358
  8
0
 10
0.3834867991963251
 20
-52.07381199407435
 30
140.4882949171079
 70
   192
  0
VERTEX
  5
1359
  8
0
 10
158.8153223171747
 20
-19.14237035234098
 30
137.241399724172
 70
   192
  0
VERTEX
  5
135A
  8
0
 10
160.873078318014
 20
-22.47664043757053
 30
138.9371728827724
 70
   192
  0
VERTEX
  5
135B
  8
0
 10
157.7994403814798
 20
-17.6552844713327
 30
133.3704924867261
 70
   192
  0
VERTEX
  5
135C
  8
0
 10
158.339789432555
 20
-18.7683176475764
 30
129.284352080761
 70
   192
  0
VERTEX
  5
135D
  8
0
 10
-157.7994262114529
 20
-17.65528225678082
 30
133.3704884938865
 70
   192
  0
VERTEX
  5
135E
  8
0
 10
-158.339776632009
 20
-18.76831909583912
 30
129.284347363807
 70
   192
  0
VERTEX
  5
135F
  8
0
 10
-80.85131665111939
 20
-43.89458701034898
 30
129.8793866291132
 70
   192
  0
VERTEX
  5
1360
  8
0
 10
-82.09172537098806
 20
-47.55478771934208
 30
140.2514628903431
 70
   192
  0
VERTEX
  5
1361
  8
0
 10
-158.8153065116377
 20
-19.14236781462522
 30
137.2413982934519
 70
   192
  0
VERTEX
  5
1362
  8
0
 10
-160.87306100018
 20
-22.47664043757055
 30
138.9371728827724
 70
   192
  0
VERTEX
  5
1363
  8
0
 10
0.0
 20
0.0
 30
0.0
 70
   128
 71
     1
 72
     2
 73
     3
  0
VERTEX
  5
1364
  8
0
 10
0.0
 20
0.0
 30
0.0
 70
   128
 71
     1
 72
     3
 73
     4
  0
VERTEX
  5
1365
  8
0
 10
0.0
 20
0.0
 30
0.0
 70
   128
 71
     5
 72
     6
 73
     3
  0
VERTEX
  5
1366
  8
0
 10
0.0
 20
0.0
 30
0.0
 70
   128
 71
     3
 72
     2
 73
     7
  0
VERTEX
  5
1367
  8
0
 10
0.0
 20
0.0
 30
0.0
 70
   128
 71
     3
 72
     7
 73
     5
  0
VERTEX
  5
1368
  8
0
 10
0.0
 20
0.0
 30
0.0
 70
   128
 71
     2
 72
     8
 73
     7
  0
VERTEX
  5
1369
  8
0
 10
0.0
 20
0.0
 30
0.0
 70
   128
 71
     9
 72
    10
 73
    11
  0
VERTEX
  5
136A
  8
0
 10
0.0
 20
0.0
 30
0.0
 70
   128
 71
    11
 72
    12
 73
    13
  0
VERTEX
  5
136B
  8
0
 10
0.0
 20
0.0
 30
0.0
 70
   128
 71
    11
 72
    13
 73
     9
  0
VERTEX
  5
136C
  8
0
 10
0.0
 20
0.0
 30
0.0
 70
   128
 71
    12
 72
    14
 73
    13
  0
VERTEX
  5
136D
  8
0
 10
0.0
 20
0.0
 30
0.0
 70
   128
 71
    11
 72
     4
 73
    12
  0
VERTEX
  5
136E
  8
0
 10
0.0
 20
0.0
 30
0.0
 70
   128
 71
     1
 72
     4
 73
    11
  0
SEQEND
  5
1959
  8
0
  0
POLYLINE
  5
136F
  8
0
 66
     1
 10
0.0
 20
0.0
 30
0.0
 70
    64
 71
    12
 72
    10
  0
VERTEX
  5
1370
  8
0
 10
168.354020778526
 20
-14.96241016927952
 30
125.695032577116
 70
   192
  0
VERTEX
  5
1371
  8
0
 10
165.1732749866419
 20
-15.62619068685318
 30
127.6744852182843
 70
   192
  0
VERTEX
  5
1372
  8
0
 10
161.717487586284
 20
-16.98529762712424
 30
128.8325770610703
 70
   192
  0
VERTEX
  5
1373
  8
0
 10
158.3397894325554
 20
-18.7683176475764
 30
129.2843520807612
 70
   192
  0
VERTEX
  5
1374
  8
0
 10
157.7994403814798
 20
-17.6552844713327
 30
133.3704924867261
 70
   192
  0
VERTEX
  5
1375
  8
0
 10
158.8153223171747
 20
-19.14237035234098
 30
137.241399724172
 70
   192
  0
VERTEX
  5
1376
  8
0
 10
160.873078318014
 20
-22.47664043757055
 30
138.9371728827724
 70
   192
  0
VERTEX
  5
1377
  8
0
 10
164.3887718751989
 20
-17.98461820946552
 30
137.6022422126842
 70
   192
  0
VERTEX
  5
1378
  8
0
 10
168.3874990538682
 20
-14.31735718280683
 30
133.9118990600119
 70
   192
  0
VERTEX
  5
1379
  8
0
 10
171.3702008075705
 20
-13.0
 30
128.9508775352266
 70
   192
  0
VERTEX
  5
137A
  8
0
 10
170.2529764984893
 20
-13.22961205576857
 30
127.7448788551831
 70
   192
  0
VERTEX
  5
137B
  8
0
 10
169.221261579529
 20
-13.9008743243562
 30
126.6311841205327
 70
   192
  0
VERTEX
  5
137C
  8
0
 10
0.0
 20
0.0
 30
0.0
 70
   128
 71
     8
 72
     7
 73
     6
  0
VERTEX
  5
137D
  8
0
 10
0.0
 20
0.0
 30
0.0
 70
   128
 71
     6
 72
    11
 73
     9
  0
VERTEX
  5
137E
  8
0
 10
0.0
 20
0.0
 30
0.0
 70
   128
 71
     6
 72
     9
 73
     8
  0
VERTEX
  5
137F
  8
0
 10
0.0
 20
0.0
 30
0.0
 70
   128
 71
    11
 72
    10
 73
     9
  0
VERTEX
  5
1380
  8
0
 10
0.0
 20
0.0
 30
0.0
 70
   128
 71
     6
 72
     5
 73
    12
  0
VERTEX
  5
1381
  8
0
 10
0.0
 20
0.0
 30
0.0
 70
   128
 71
     6
 72
    12
 73
    11
  0
VERTEX
  5
1382
  8
0
 10
0.0
 20
0.0
 30
0.0
 70
   128
 71
     2
 72
     1
 73
    12
  0
VERTEX
  5
1383
  8
0
 10
0.0
 20
0.0
 30
0.0
 70
   128
 71
    12
 72
     3
 73
     2
  0
VERTEX
  5
1384
  8
0
 10
0.0
 20
0.0
 30
0.0
 70
   128
 71
    12
 72
     5
 73
     4
  0
VERTEX
  5
1385
  8
0
 10
0.0
 20
0.0
 30
0.0
 70
   128
 71
    12
 72
     4
 73
     3
  0
SEQEND
  5
195A
  8
0
  0
POLYLINE
  5
1386
  8
0
 66
     1
 10
0.0
 20
0.0
 30
0.0
 70
    64
 71
    34
 72
    34
  0
VERTEX
  5
1387
  8
0
 10
-168.947565615435
 20
-23.75401101379535
 30
-223.0
 70
   192
  0
VERTEX
  5
1388
  8
0
 10
-168.4349356048441
 20
-23.629770193821
 30
-223.0
 70
   192
  0
VERTEX
  5
1389
  8
0
 10
-167.9632516608602
 20
-23.38942725739771
 30
-223.0
 70
   192
  0
VERTEX
  5
138A
  8
0
 10
-167.51654554304
 20
-23.10540674347465
 30
-223.0
 70
   192
  0
VERTEX
  5
138B
  8
0
 10
-158.8376443134025
 20
-20.62686565921274
 30
-223.0
 70
   192
  0
VERTEX
  5
138C
  8
0
 10
-149.9746248532656
 20
-18.81074430252438
 30
-223.0
 70
   192
  0
VERTEX
  5
138D
  8
0
 10
-141.027545969743
 20
-17.52155745803944
 30
-223.0
 70
   192
  0
VERTEX
  5
138E
  8
0
 10
-140.3426046509759
 20
-17.50239558542245
 30
-223.0
 70
   192
  0
VERTEX
  5
138F
  8
0
 10
-139.6573953489984
 20
-17.50239558542281
 30
-223.0
 70
   192
  0
VERTEX
  5
1390
  8
0
 10
-138.9724540302314
 20
-17.52155745804045
 30
-223.0
 70
   192
  0
VERTEX
  5
1391
  8
0
 10
-130.0211320512503
 20
-18.81155923077432
 30
-223.0
 70
   192
  0
VERTEX
  5
1392
  8
0
 10
-121.1621557165968
 20
-20.62690916682611
 30
-223.0
 70
   192
  0
VERTEX
  5
1393
  8
0
 10
-112.4834544569602
 20
-23.10540674347465
 30
-223.0
 70
   192
  0
VERTEX
  5
1394
  8
0
 10
-112.0366419292569
 20
-23.38948327065518
 30
-223.0
 70
   192
  0
VERTEX
  5
1395
  8
0
 10
-111.5648290637802
 20
-23.62986783827846
 30
-222.9999999999999
 70
   192
  0
VERTEX
  5
1396
  8
0
 10
-111.0524343845652
 20
-23.75401101379535
 30
-223.0
 70
   192
  0
VERTEX
  5
1397
  8
0
 10
-102.570228383267
 20
-23.75401101379535
 30
-223.0
 70
   192
  0
VERTEX
  5
1398
  8
0
 10
-112.8128277379327
 20
-51.89532145726015
 30
-223.0
 70
   192
  0
VERTEX
  5
1399
  8
0
 10
-123.4052954810939
 20
-65.69969418115002
 30
-223.0
 70
   192
  0
VERTEX
  5
139A
  8
0
 10
-140.0000000000001
 20
-70.9319844177657
 30
-223.0
 70
   192
  0
VERTEX
  5
139B
  8
0
 10
-156.5947045189062
 20
-65.69969418114997
 30
-223.0
 70
   192
  0
VERTEX
  5
139C
  8
0
 10
-167.1871722620675
 20
-51.89532145726011
 30
-223.0
 70
   192
  0
VERTEX
  5
139D
  8
0
 10
-175.3408582712945
 20
-29.4932532615861
 30
-223.0
 70
   192
  0
VERTEX
  5
139E
  8
0
 10
-174.5092231733353
 20
-26.31707165582809
 30
-223.0000000000001
 70
   192
  0
VERTEX
  5
139F
  8
0
 10
-173.7283918352817
 20
-24.39477617430354
 30
-223.0000000000001
 70
   192
  0
VERTEX
  5
13A0
  8
0
 10
-173.009593256718
 20
-23.75401101379535
 30
-223.0
 70
   192
  0
VERTEX
  5
13A1
  8
0
 10
-148.0
 20
-42.0
 30
-223.0
 70
   192
  0
VERTEX
  5
13A2
  8
0
 10
-145.6568542494924
 20
-47.65685424949238
 30
-223.0
 70
   192
  0
VERTEX
  5
13A3
  8
0
 10
-140.0
 20
-50.00000000000001
 30
-223.0
 70
   192
  0
VERTEX
  5
13A4
  8
0
 10
-134.3431457505076
 20
-47.65685424949238
 30
-223.0
 70
   192
  0
VERTEX
  5
13A5
  8
0
 10
-132.0
 20
-42.0
 30
-223.0
 70
   192
  0
VERTEX
  5
13A6
  8
0
 10
-134.3431457505076
 20
-36.34314575050762
 30
-223.0
 70
   192
  0
VERTEX
  5
13A7
  8
0
 10
-140.0
 20
-33.99999999999999
 30
-223.0
 70
   192
  0
VERTEX
  5
13A8
  8
0
 10
-145.6568542494924
 20
-36.34314575050762
 30
-223.0
 70
   192
  0
VERTEX
  5
13A9
  8
0
 10
0.0
 20
0.0
 30
0.0
 70
   128
 71
     1
 72
    26
 73
   -25
  0
VERTEX
  5
13AA
  8
0
 10
0.0
 20
0.0
 30
0.0
 70
   128
 71
    -1
 72
   -25
 73
   -11
  0
VERTEX
  5
13AB
  8
0
 10
0.0
 20
0.0
 30
0.0
 70
   128
 71
   -11
 72
     2
 73
    -1
  0
VERTEX
  5
13AC
  8
0
 10
0.0
 20
0.0
 30
0.0
 70
   128
 71
   -11
 72
     3
 73
    -2
  0
VERTEX
  5
13AD
  8
0
 10
0.0
 20
0.0
 30
0.0
 70
   128
 71
   -11
 72
     5
 73
    -4
  0
VERTEX
  5
13AE
  8
0
 10
0.0
 20
0.0
 30
0.0
 70
   128
 71
   -11
 72
     4
 73
    -3
  0
VERTEX
  5
13AF
  8
0
 10
0.0
 20
0.0
 30
0.0
 70
   128
 71
   -11
 72
     6
 73
    -5
  0
VERTEX
  5
13B0
  8
0
 10
0.0
 20
0.0
 30
0.0
 70
   128
 71
   -11
 72
     8
 73
    -7
  0
VERTEX
  5
13B1
  8
0
 10
0.0
 20
0.0
 30
0.0
 70
   128
 71
   -11
 72
     7
 73
    -6
  0
VERTEX
  5
13B2
  8
0
 10
0.0
 20
0.0
 30
0.0
 70
   128
 71
   -11
 72
     9
 73
    -8
  0
VERTEX
  5
13B3
  8
0
 10
0.0
 20
0.0
 30
0.0
 70
   128
 71
    11
 72
    10
 73
    -9
  0
VERTEX
  5
13B4
  8
0
 10
0.0
 20
0.0
 30
0.0
 70
   128
 71
   -25
 72
    12
 73
   -11
  0
VERTEX
  5
13B5
  8
0
 10
0.0
 20
0.0
 30
0.0
 70
   128
 71
   -25
 72
   -14
 73
   -12
  0
VERTEX
  5
13B6
  8
0
 10
0.0
 20
0.0
 30
0.0
 70
   128
 71
    14
 72
    13
 73
   -12
  0
VERTEX
  5
13B7
  8
0
 10
0.0
 20
0.0
 30
0.0
 70
   128
 71
   -25
 72
    15
 73
   -14
  0
VERTEX
  5
13B8
  8
0
 10
0.0
 20
0.0
 30
0.0
 70
   128
 71
   -25
 72
    16
 73
   -15
  0
VERTEX
  5
13B9
  8
0
 10
0.0
 20
0.0
 30
0.0
 70
   128
 71
    28
 72
   -27
 73
   -22
  0
VERTEX
  5
13BA
  8
0
 10
0.0
 20
0.0
 30
0.0
 70
   128
 71
   -28
 72
    22
 73
   -21
  0
VERTEX
  5
13BB
  8
0
 10
0.0
 20
0.0
 30
0.0
 70
   128
 71
    21
 72
   -20
 73
   -29
  0
VERTEX
  5
13BC
  8
0
 10
0.0
 20
0.0
 30
0.0
 70
   128
 71
   -21
 72
    29
 73
   -28
  0
VERTEX
  5
13BD
  8
0
 10
0.0
 20
0.0
 30
0.0
 70
   128
 71
    20
 72
   -19
 73
   -30
  0
VERTEX
  5
13BE
  8
0
 10
0.0
 20
0.0
 30
0.0
 70
   128
 71
   -20
 72
    30
 73
   -29
  0
VERTEX
  5
13BF
  8
0
 10
0.0
 20
0.0
 30
0.0
 70
   128
 71
    19
 72
   -18
 73
   -31
  0
VERTEX
  5
13C0
  8
0
 10
0.0
 20
0.0
 30
0.0
 70
   128
 71
   -19
 72
    31
 73
   -30
  0
VERTEX
  5
13C1
  8
0
 10
0.0
 20
0.0
 30
0.0
 70
   128
 71
    18
 72
    17
 73
   -16
  0
VERTEX
  5
13C2
  8
0
 10
0.0
 20
0.0
 30
0.0
 70
   128
 71
   -18
 72
   -16
 73
   -32
  0
VERTEX
  5
13C3
  8
0
 10
0.0
 20
0.0
 30
0.0
 70
   128
 71
   -18
 72
    32
 73
   -31
  0
VERTEX
  5
13C4
  8
0
 10
0.0
 20
0.0
 30
0.0
 70
   128
 71
   -16
 72
    33
 73
   -32
  0
VERTEX
  5
13C5
  8
0
 10
0.0
 20
0.0
 30
0.0
 70
   128
 71
   -33
 72
   -16
 73
   -25
  0
VERTEX
  5
13C6
  8
0
 10
0.0
 20
0.0
 30
0.0
 70
   128
 71
   -25
 72
    34
 73
   -33
  0
VERTEX
  5
13C7
  8
0
 10
0.0
 20
0.0
 30
0.0
 70
   128
 71
    25
 72
    24
 73
   -23
  0
VERTEX
  5
13C8
  8
0
 10
0.0
 20
0.0
 30
0.0
 70
   128
 71
   -25
 72
    23
 73
   -22
  0
VERTEX
  5
13C9
  8
0
 10
0.0
 20
0.0
 30
0.0
 70
   128
 71
   -25
 72
   -22
 73
   -27
  0
VERTEX
  5
13CA
  8
0
 10
0.0
 20
0.0
 30
0.0
 70
   128
 71
   -25
 72
    27
 73
   -34
  0
SEQEND
  5
195B
  8
0
  0
POLYLINE
  5
13CB
  8
0
 66
     1
 10
0.0
 20
0.0
 30
0.0
 70
    64
 71
    34
 72
    34
  0
VERTEX
  5
13CC
  8
0
 10
112.48345445696
 20
-23.1054067434747
 30
-223.0
 70
   192
  0
VERTEX
  5
13CD
  8
0
 10
112.0366419292565
 20
-23.38948327065528
 30
-223.0
 70
   192
  0
VERTEX
  5
13CE
  8
0
 10
111.56482906378
 20
-23.62986783827861
 30
-223.0
 70
   192
  0
VERTEX
  5
13CF
  8
0
 10
111.052434384565
 20
-23.7540110137953
 30
-223.0
 70
   192
  0
VERTEX
  5
13D0
  8
0
 10
102.5702283832668
 20
-23.75401101379535
 30
-223.0
 70
   192
  0
VERTEX
  5
13D1
  8
0
 10
112.8128277379326
 20
-51.89532145726012
 30
-223.0
 70
   192
  0
VERTEX
  5
13D2
  8
0
 10
123.4052954810939
 20
-65.69969418115
 30
-223.0
 70
   192
  0
VERTEX
  5
13D3
  8
0
 10
140.0
 20
-70.9319844177657
 30
-223.0
 70
   192
  0
VERTEX
  5
13D4
  8
0
 10
156.5947045189061
 20
-65.69969418115001
 30
-223.0
 70
   192
  0
VERTEX
  5
13D5
  8
0
 10
167.1871722620673
 20
-51.89532145726015
 30
-223.0
 70
   192
  0
VERTEX
  5
13D6
  8
0
 10
175.3408582712944
 20
-29.4932532615861
 30
-223.0
 70
   192
  0
VERTEX
  5
13D7
  8
0
 10
174.5092231733352
 20
-26.31707165582811
 30
-223.0000000000001
 70
   192
  0
VERTEX
  5
13D8
  8
0
 10
173.7283918352816
 20
-24.39477617430355
 30
-223.0000000000001
 70
   192
  0
VERTEX
  5
13D9
  8
0
 10
173.009593256718
 20
-23.7540110137953
 30
-223.0
 70
   192
  0
VERTEX
  5
13DA
  8
0
 10
168.9475656154345
 20
-23.75401101379535
 30
-223.0
 70
   192
  0
VERTEX
  5
13DB
  8
0
 10
168.4349356048439
 20
-23.62977019382103
 30
-222.9999999999999
 70
   192
  0
VERTEX
  5
13DC
  8
0
 10
167.96325166086
 20
-23.38942725739786
 30
-223.0
 70
   192
  0
VERTEX
  5
13DD
  8
0
 10
167.5165455430395
 20
-23.10540674347465
 30
-223.0
 70
   192
  0
VERTEX
  5
13DE
  8
0
 10
158.8376443134087
 20
-20.62686565921415
 30
-223.0
 70
   192
  0
VERTEX
  5
13DF
  8
0
 10
149.9746248532784
 20
-18.81074430252688
 30
-223.0
 70
   192
  0
VERTEX
  5
13E0
  8
0
 10
141.0275459697626
 20
-17.5215574580402
 30
-223.0
 70
   192
  0
VERTEX
  5
13E1
  8
0
 10
140.3426046509974
 20
-17.50239558542275
 30
-223.0
 70
   192
  0
VERTEX
  5
13E2
  8
0
 10
139.6573953490218
 20
-17.50239558542248
 30
-223.0
 70
   192
  0
VERTEX
  5
13E3
  8
0
 10
138.9724540302566
 20
-17.52155745803946
 30
-223.0
 70
   192
  0
VERTEX
  5
13E4
  8
0
 10
130.0211320512667
 20
-18.81155923077112
 30
-223.0
 70
   192
  0
VERTEX
  5
13E5
  8
0
 10
121.1621557166041
 20
-20.62690916682467
 30
-223.0
 70
   192
  0
VERTEX
  5
13E6
  8
0
 10
132.0
 20
-42.0
 30
-223.0
 70
   192
  0
VERTEX
  5
13E7
  8
0
 10
134.3431457505076
 20
-36.34314575050762
 30
-223.0
 70
   192
  0
VERTEX
  5
13E8
  8
0
 10
140.0
 20
-33.99999999999999
 30
-223.0
 70
   192
  0
VERTEX
  5
13E9
  8
0
 10
145.6568542494924
 20
-36.34314575050762
 30
-223.0
 70
   192
  0
VERTEX
  5
13EA
  8
0
 10
148.0
 20
-42.0
 30
-223.0
 70
   192
  0
VERTEX
  5
13EB
  8
0
 10
145.6568542494924
 20
-47.65685424949238
 30
-223.0
 70
   192
  0
VERTEX
  5
13EC
  8
0
 10
140.0
 20
-50.00000000000001
 30
-223.0
 70
   192
  0
VERTEX
  5
13ED
  8
0
 10
134.3431457505076
 20
-47.65685424949238
 30
-223.0
 70
   192
  0
VERTEX
  5
13EE
  8
0
 10
0.0
 20
0.0
 30
0.0
 70
   128
 71
    13
 72
    14
 73
   -15
  0
VERTEX
  5
13EF
  8
0
 10
0.0
 20
0.0
 30
0.0
 70
   128
 71
   -25
 72
   -13
 73
   -15
  0
VERTEX
  5
13F0
  8
0
 10
0.0
 20
0.0
 30
0.0
 70
   128
 71
    15
 72
   -16
 73
   -25
  0
VERTEX
  5
13F1
  8
0
 10
0.0
 20
0.0
 30
0.0
 70
   128
 71
    16
 72
   -17
 73
   -25
  0
VERTEX
  5
13F2
  8
0
 10
0.0
 20
0.0
 30
0.0
 70
   128
 71
    18
 72
   -19
 73
   -25
  0
VERTEX
  5
13F3
  8
0
 10
0.0
 20
0.0
 30
0.0
 70
   128
 71
    17
 72
   -18
 73
   -25
  0
VERTEX
  5
13F4
  8
0
 10
0.0
 20
0.0
 30
0.0
 70
   128
 71
    19
 72
   -20
 73
   -25
  0
VERTEX
  5
13F5
  8
0
 10
0.0
 20
0.0
 30
0.0
 70
   128
 71
    21
 72
   -22
 73
   -25
  0
VERTEX
  5
13F6
  8
0
 10
0.0
 20
0.0
 30
0.0
 70
   128
 71
    20
 72
   -21
 73
   -25
  0
VERTEX
  5
13F7
  8
0
 10
0.0
 20
0.0
 30
0.0
 70
   128
 71
    22
 72
   -23
 73
   -25
  0
VERTEX
  5
13F8
  8
0
 10
0.0
 20
0.0
 30
0.0
 70
   128
 71
    23
 72
    24
 73
   -25
  0
VERTEX
  5
13F9
  8
0
 10
0.0
 20
0.0
 30
0.0
 70
   128
 71
    25
 72
   -26
 73
   -13
  0
VERTEX
  5
13FA
  8
0
 10
0.0
 20
0.0
 30
0.0
 70
   128
 71
   -26
 72
    -2
 73
   -13
  0
VERTEX
  5
13FB
  8
0
 10
0.0
 20
0.0
 30
0.0
 70
   128
 71
    26
 72
     1
 73
    -2
  0
VERTEX
  5
13FC
  8
0
 10
0.0
 20
0.0
 30
0.0
 70
   128
 71
     2
 72
    -3
 73
   -13
  0
VERTEX
  5
13FD
  8
0
 10
0.0
 20
0.0
 30
0.0
 70
   128
 71
     3
 72
    -4
 73
   -13
  0
VERTEX
  5
13FE
  8
0
 10
0.0
 20
0.0
 30
0.0
 70
   128
 71
    -6
 72
    27
 73
   -28
  0
VERTEX
  5
13FF
  8
0
 10
0.0
 20
0.0
 30
0.0
 70
   128
 71
     5
 72
    -6
 73
   -28
  0
VERTEX
  5
1400
  8
0
 10
0.0
 20
0.0
 30
0.0
 70
   128
 71
     4
 72
    -5
 73
   -28
  0
VERTEX
  5
1401
  8
0
 10
0.0
 20
0.0
 30
0.0
 70
   128
 71
    28
 72
   -29
 73
    -4
  0
VERTEX
  5
1402
  8
0
 10
0.0
 20
0.0
 30
0.0
 70
   128
 71
   -13
 72
    -4
 73
   -29
  0
VERTEX
  5
1403
  8
0
 10
0.0
 20
0.0
 30
0.0
 70
   128
 71
    29
 72
   -30
 73
   -13
  0
VERTEX
  5
1404
  8
0
 10
0.0
 20
0.0
 30
0.0
 70
   128
 71
    11
 72
    12
 73
   -13
  0
VERTEX
  5
1405
  8
0
 10
0.0
 20
0.0
 30
0.0
 70
   128
 71
    10
 72
   -11
 73
   -13
  0
VERTEX
  5
1406
  8
0
 10
0.0
 20
0.0
 30
0.0
 70
   128
 71
   -31
 72
   -10
 73
   -13
  0
VERTEX
  5
1407
  8
0
 10
0.0
 20
0.0
 30
0.0
 70
   128
 71
    30
 72
   -31
 73
   -13
  0
VERTEX
  5
1408
  8
0
 10
0.0
 20
0.0
 30
0.0
 70
   128
 71
   -32
 72
     9
 73
   -10
  0
VERTEX
  5
1409
  8
0
 10
0.0
 20
0.0
 30
0.0
 70
   128
 71
    31
 72
   -32
 73
   -10
  0
VERTEX
  5
140A
  8
0
 10
0.0
 20
0.0
 30
0.0
 70
   128
 71
   -33
 72
     8
 73
    -9
  0
VERTEX
  5
140B
  8
0
 10
0.0
 20
0.0
 30
0.0
 70
   128
 71
    32
 72
   -33
 73
    -9
  0
VERTEX
  5
140C
  8
0
 10
0.0
 20
0.0
 30
0.0
 70
   128
 71
   -34
 72
     7
 73
    -8
  0
VERTEX
  5
140D
  8
0
 10
0.0
 20
0.0
 30
0.0
 70
   128
 71
    33
 72
   -34
 73
    -8
  0
VERTEX
  5
140E
  8
0
 10
0.0
 20
0.0
 30
0.0
 70
   128
 71
   -27
 72
     6
 73
    -7
  0
VERTEX
  5
140F
  8
0
 10
0.0
 20
0.0
 30
0.0
 70
   128
 71
    34
 72
   -27
 73
    -7
  0
SEQEND
  5
195C
  8
0
  0
POLYLINE
  5
1410
  8
0
 66
     1
 10
0.0
 20
0.0
 30
0.0
 70
    64
 71
     6
 72
     4
  0
VERTEX
  5
1411
  8
0
 10
-139.6154437669303
 20
-14.50269172663876
 30
-219.9407921099353
 70
   192
  0
VERTEX
  5
1412
  8
0
 10
-140.3845562330625
 20
-14.50269172663866
 30
-219.940792109935
 70
   192
  0
VERTEX
  5
1413
  8
0
 10
-140.3845562409061
 20
-14.50268892241316
 30
-220.0
 70
   192
  0
VERTEX
  5
1414
  8
0
 10
-139.6154437590873
 20
-14.50268892241325
 30
-220.0
 70
   192
  0
VERTEX
  5
1415
  8
0
 10
-141.1533679252438
 20
-14.52419714677984
 30
-220.0000000000025
 70
   192
  0
VERTEX
  5
1416
  8
0
 10
-138.8466320747496
 20
-14.52419714678012
 30
-220.0000000000035
 70
   192
  0
VERTEX
  5
1417
  8
0
 10
0.0
 20
0.0
 30
0.0
 70
   128
 71
     1
 72
     2
 73
    -3
  0
VERTEX
  5
1418
  8
0
 10
0.0
 20
0.0
 30
0.0
 70
   128
 71
     4
 72
    -1
 73
     3
  0
VERTEX
  5
1419
  8
0
 10
0.0
 20
0.0
 30
0.0
 70
   128
 71
     3
 72
     2
 73
     5
  0
VERTEX
  5
141A
  8
0
 10
0.0
 20
0.0
 30
0.0
 70
   128
 71
     6
 72
     1
 73
     4
  0
SEQEND
  5
195D
  8
0
  0
POLYLINE
  5
141B
  8
0
 66
     1
 10
0.0
 20
0.0
 30
0.0
 70
    64
 71
     6
 72
     4
  0
VERTEX
  5
141C
  8
0
 10
140.3845562330634
 20
-14.50269172663866
 30
-219.9407921099349
 70
   192
  0
VERTEX
  5
141D
  8
0
 10
139.6154437669309
 20
-14.50269172663874
 30
-219.9407921099352
 70
   192
  0
VERTEX
  5
141E
  8
0
 10
139.6154437590865
 20
-14.50268892241326
 30
-220.0
 70
   192
  0
VERTEX
  5
141F
  8
0
 10
140.3845562409057
 20
-14.50268892241315
 30
-220.0
 70
   192
  0
VERTEX
  5
1420
  8
0
 10
138.8466320747486
 20
-14.52419714678012
 30
-220.0000000000035
 70
   192
  0
VERTEX
  5
1421
  8
0
 10
141.1533679252436
 20
-14.5241971467798
 30
-220.0000000000025
 70
   192
  0
VERTEX
  5
1422
  8
0
 10
0.0
 20
0.0
 30
0.0
 70
   128
 71
     1
 72
     2
 73
    -3
  0
VERTEX
  5
1423
  8
0
 10
0.0
 20
0.0
 30
0.0
 70
   128
 71
     4
 72
    -1
 73
     3
  0
VERTEX
  5
1424
  8
0
 10
0.0
 20
0.0
 30
0.0
 70
   128
 71
     3
 72
     2
 73
     5
  0
VERTEX
  5
1425
  8
0
 10
0.0
 20
0.0
 30
0.0
 70
   128
 71
     6
 72
     1
 73
     4
  0
SEQEND
  5
195E
  8
0
  0
POLYLINE
  5
1426
  8
0
 66
     1
 10
0.0
 20
0.0
 30
0.0
 70
    64
 71
    10
 72
     8
  0
VERTEX
  5
1427
  8
0
 10
-174.4191523190357
 20
-33.03905531750886
 30
-223.0619924436486
 70
   192
  0
VERTEX
  5
1428
  8
0
 10
-167.4665543353487
 20
-51.99700821592206
 30
-223.0452196795902
 70
   192
  0
VERTEX
  5
1429
  8
0
 10
-167.1871722620675
 20
-51.8953214572601
 30
-223.0
 70
   192
  0
VERTEX
  5
142A
  8
0
 10
-169.4389224621031
 20
-47.86825573324597
 30
-223.3258729971575
 70
   192
  0
VERTEX
  5
142B
  8
0
 10
-167.926535082774
 20
-52.16442751632029
 30
-223.382809147561
 70
   192
  0
VERTEX
  5
142C
  8
0
 10
-167.720669272956
 20
-52.0894984892935
 30
-223.1767890795162
 70
   192
  0
VERTEX
  5
142D
  8
0
 10
-170.8430642831509
 20
-43.85724727888482
 30
-223.2726167676079
 70
   192
  0
VERTEX
  5
142E
  8
0
 10
-172.1272358548835
 20
-40.16489437899205
 30
-223.223485152481
 70
   192
  0
VERTEX
  5
142F
  8
0
 10
-175.3408582712944
 20
-29.49325326158606
 30
-223.0
 70
   192
  0
VERTEX
  5
1430
  8
0
 10
-173.3041272739214
 20
-36.65201389691507
 30
-223.1545719268718
 70
   192
  0
VERTEX
  5
1431
  8
0
 10
0.0
 20
0.0
 30
0.0
 70
   128
 71
     1
 72
     2
 73
     3
  0
VERTEX
  5
1432
  8
0
 10
0.0
 20
0.0
 30
0.0
 70
   128
 71
     4
 72
     5
 73
     6
  0
VERTEX
  5
1433
  8
0
 10
0.0
 20
0.0
 30
0.0
 70
   128
 71
     6
 72
     7
 73
     4
  0
VERTEX
  5
1434
  8
0
 10
0.0
 20
0.0
 30
0.0
 70
   128
 71
     6
 72
     8
 73
     7
  0
VERTEX
  5
1435
  8
0
 10
0.0
 20
0.0
 30
0.0
 70
   128
 71
     3
 72
     9
 73
     1
  0
VERTEX
  5
1436
  8
0
 10
0.0
 20
0.0
 30
0.0
 70
   128
 71
     2
 72
     1
 73
    10
  0
VERTEX
  5
1437
  8
0
 10
0.0
 20
0.0
 30
0.0
 70
   128
 71
     8
 72
     6
 73
     2
  0
VERTEX
  5
1438
  8
0
 10
0.0
 20
0.0
 30
0.0
 70
   128
 71
     2
 72
    10
 73
     8
  0
SEQEND
  5
195F
  8
0
  0
POLYLINE
  5
1439
  8
0
 66
     1
 10
0.0
 20
0.0
 30
0.0
 70
    64
 71
    16
 72
    17
  0
VERTEX
  5
143A
  8
0
 10
-167.720669272956
 20
-52.0894984892935
 30
-223.1767890795162
 70
   192
  0
VERTEX
  5
143B
  8
0
 10
-140.0
 20
-71.712660772978
 30
-223.3750644605942
 70
   192
  0
VERTEX
  5
143C
  8
0
 10
-140.0
 20
-71.49428472530403
 30
-223.173066892583
 70
   192
  0
VERTEX
  5
143D
  8
0
 10
-167.4665543353487
 20
-51.99700821592206
 30
-223.0452196795902
 70
   192
  0
VERTEX
  5
143E
  8
0
 10
-140.0
 20
-71.2261500960687
 30
-223.04424555784
 70
   192
  0
VERTEX
  5
143F
  8
0
 10
-123.4052954810939
 20
-65.69969418115002
 30
-223.0
 70
   192
  0
VERTEX
  5
1440
  8
0
 10
-140.0000000000001
 20
-70.9319844177657
 30
-223.0
 70
   192
  0
VERTEX
  5
1441
  8
0
 10
-112.8128277379328
 20
-51.8953214572601
 30
-223.0
 70
   192
  0
VERTEX
  5
1442
  8
0
 10
-112.5334456646516
 20
-51.99700821592205
 30
-223.0452196795902
 70
   192
  0
VERTEX
  5
1443
  8
0
 10
-112.2793307270443
 20
-52.08949848929349
 30
-223.1767890795162
 70
   192
  0
VERTEX
  5
1444
  8
0
 10
-156.5947045189062
 20
-65.69969418114997
 30
-223.0
 70
   192
  0
VERTEX
  5
1445
  8
0
 10
-167.1871722620674
 20
-51.89532145726005
 30
-223.0
 70
   192
  0
VERTEX
  5
1446
  8
0
 10
-167.9265350827738
 20
-52.1644275163203
 30
-223.3828091475611
 70
   192
  0
VERTEX
  5
1447
  8
0
 10
-128.2629966099635
 20
-69.45864699492077
 30
-223.6323748373307
 70
   192
  0
VERTEX
  5
1448
  8
0
 10
-112.0734649172264
 20
-52.16442751632029
 30
-223.382809147561
 70
   192
  0
VERTEX
  5
1449
  8
0
 10
-151.7737406093015
 20
-69.44223702006079
 30
-223.6321384322719
 70
   192
  0
VERTEX
  5
144A
  8
0
 10
0.0
 20
0.0
 30
0.0
 70
   128
 71
     1
 72
     2
 73
     3
  0
VERTEX
  5
144B
  8
0
 10
0.0
 20
0.0
 30
0.0
 70
   128
 71
     4
 72
     3
 73
     5
  0
VERTEX
  5
144C
  8
0
 10
0.0
 20
0.0
 30
0.0
 70
   128
 71
     6
 72
     7
 73
     5
  0
VERTEX
  5
144D
  8
0
 10
0.0
 20
0.0
 30
0.0
 70
   128
 71
     5
 72
     8
 73
     6
  0
VERTEX
  5
144E
  8
0
 10
0.0
 20
0.0
 30
0.0
 70
   128
 71
     3
 72
     4
 73
     1
  0
VERTEX
  5
144F
  8
0
 10
0.0
 20
0.0
 30
0.0
 70
   128
 71
     9
 72
     5
 73
     3
  0
VERTEX
  5
1450
  8
0
 10
0.0
 20
0.0
 30
0.0
 70
   128
 71
     9
 72
     3
 73
    10
  0
VERTEX
  5
1451
  8
0
 10
0.0
 20
0.0
 30
0.0
 70
   128
 71
    11
 72
    12
 73
     4
  0
VERTEX
  5
1452
  8
0
 10
0.0
 20
0.0
 30
0.0
 70
   128
 71
    11
 72
     4
 73
     5
  0
VERTEX
  5
1453
  8
0
 10
0.0
 20
0.0
 30
0.0
 70
   128
 71
     5
 72
     7
 73
    11
  0
VERTEX
  5
1454
  8
0
 10
0.0
 20
0.0
 30
0.0
 70
   128
 71
     8
 72
     5
 73
     9
  0
VERTEX
  5
1455
  8
0
 10
0.0
 20
0.0
 30
0.0
 70
   128
 71
     2
 72
     1
 73
    13
  0
VERTEX
  5
1456
  8
0
 10
0.0
 20
0.0
 30
0.0
 70
   128
 71
    10
 72
     3
 73
     2
  0
VERTEX
  5
1457
  8
0
 10
0.0
 20
0.0
 30
0.0
 70
   128
 71
    10
 72
     2
 73
    14
  0
VERTEX
  5
1458
  8
0
 10
0.0
 20
0.0
 30
0.0
 70
   128
 71
    10
 72
    14
 73
    15
  0
VERTEX
  5
1459
  8
0
 10
0.0
 20
0.0
 30
0.0
 70
   128
 71
    14
 72
     2
 73
    13
  0
VERTEX
  5
145A
  8
0
 10
0.0
 20
0.0
 30
0.0
 70
   128
 71
    14
 72
    13
 73
    16
  0
SEQEND
  5
1960
  8
0
  0
POLYLINE
  5
145B
  8
0
 66
     1
 10
0.0
 20
0.0
 30
0.0
 70
    64
 71
     7
 72
     5
  0
VERTEX
  5
145C
  8
0
 10
-103.3813235526495
 20
-26.84448270218067
 30
-223.0444482676957
 70
   192
  0
VERTEX
  5
145D
  8
0
 10
-102.570228383267
 20
-23.75401101379535
 30
-223.0
 70
   192
  0
VERTEX
  5
145E
  8
0
 10
-112.8128277379328
 20
-51.89532145726011
 30
-223.0
 70
   192
  0
VERTEX
  5
145F
  8
0
 10
-106.5828475563298
 20
-36.42423893932479
 30
-223.1734375360655
 70
   192
  0
VERTEX
  5
1460
  8
0
 10
-112.2793307270443
 20
-52.08949848929349
 30
-223.1767890795162
 70
   192
  0
VERTEX
  5
1461
  8
0
 10
-112.0734649172265
 20
-52.16442751632029
 30
-223.3828091475611
 70
   192
  0
VERTEX
  5
1462
  8
0
 10
-112.5334456646516
 20
-51.99700821592205
 30
-223.0452196795902
 70
   192
  0
VERTEX
  5
1463
  8
0
 10
0.0
 20
0.0
 30
0.0
 70
   128
 71
     1
 72
     2
 73
     3
  0
VERTEX
  5
1464
  8
0
 10
0.0
 20
0.0
 30
0.0
 70
   128
 71
     4
 72
     1
 73
     3
  0
VERTEX
  5
1465
  8
0
 10
0.0
 20
0.0
 30
0.0
 70
   128
 71
     5
 72
     6
 73
     4
  0
VERTEX
  5
1466
  8
0
 10
0.0
 20
0.0
 30
0.0
 70
   128
 71
     4
 72
     7
 73
     5
  0
VERTEX
  5
1467
  8
0
 10
0.0
 20
0.0
 30
0.0
 70
   128
 71
     4
 72
     3
 73
     7
  0
SEQEND
  5
1961
  8
0
  0
POLYLINE
  5
1468
  8
0
 66
     1
 10
0.0
 20
0.0
 30
0.0
 70
    64
 71
     7
 72
     5
  0
VERTEX
  5
1469
  8
0
 10
112.2793307270441
 20
-52.08949848929361
 30
-223.1767890795162
 70
   192
  0
VERTEX
  5
146A
  8
0
 10
112.5334456646512
 20
-51.99700821592219
 30
-223.0452196795902
 70
   192
  0
VERTEX
  5
146B
  8
0
 10
106.5827802540381
 20
-36.42423817928824
 30
-223.1735720454229
 70
   192
  0
VERTEX
  5
146C
  8
0
 10
112.0734649172262
 20
-52.1644275163204
 30
-223.382809147561
 70
   192
  0
VERTEX
  5
146D
  8
0
 10
112.8128277379324
 20
-51.89532145726027
 30
-223.0
 70
   192
  0
VERTEX
  5
146E
  8
0
 10
103.3813180633624
 20
-26.84446607176199
 30
-223.0444484319088
 70
   192
  0
VERTEX
  5
146F
  8
0
 10
102.5702283832668
 20
-23.75401101379533
 30
-223.0
 70
   192
  0
VERTEX
  5
1470
  8
0
 10
0.0
 20
0.0
 30
0.0
 70
   128
 71
     1
 72
     2
 73
     3
  0
VERTEX
  5
1471
  8
0
 10
0.0
 20
0.0
 30
0.0
 70
   128
 71
     3
 72
     4
 73
     1
  0
VERTEX
  5
1472
  8
0
 10
0.0
 20
0.0
 30
0.0
 70
   128
 71
     3
 72
     2
 73
     5
  0
VERTEX
  5
1473
  8
0
 10
0.0
 20
0.0
 30
0.0
 70
   128
 71
     5
 72
     6
 73
     3
  0
VERTEX
  5
1474
  8
0
 10
0.0
 20
0.0
 30
0.0
 70
   128
 71
     6
 72
     5
 73
     7
  0
SEQEND
  5
1962
  8
0
  0
POLYLINE
  5
1475
  8
0
 66
     1
 10
0.0
 20
0.0
 30
0.0
 70
    64
 71
    16
 72
    17
  0
VERTEX
  5
1476
  8
0
 10
156.5947045189061
 20
-65.69969418115001
 30
-223.0
 70
   192
  0
VERTEX
  5
1477
  8
0
 10
140.0
 20
-70.9319844177657
 30
-223.0
 70
   192
  0
VERTEX
  5
1478
  8
0
 10
140.0
 20
-71.2261500949368
 30
-223.0442455574916
 70
   192
  0
VERTEX
  5
1479
  8
0
 10
167.1871722620675
 20
-51.8953214572602
 30
-223.0
 70
   192
  0
VERTEX
  5
147A
  8
0
 10
112.5334456646512
 20
-51.99700821592219
 30
-223.0452196795902
 70
   192
  0
VERTEX
  5
147B
  8
0
 10
140.0
 20
-71.49428472334523
 30
-223.1730668912511
 70
   192
  0
VERTEX
  5
147C
  8
0
 10
112.2793307270441
 20
-52.08949848929361
 30
-223.1767890795162
 70
   192
  0
VERTEX
  5
147D
  8
0
 10
140.0
 20
-71.71266077075748
 30
-223.3750644578203
 70
   192
  0
VERTEX
  5
147E
  8
0
 10
167.4665543353487
 20
-51.99700821592212
 30
-223.0452196795901
 70
   192
  0
VERTEX
  5
147F
  8
0
 10
167.7206692729559
 20
-52.08949848929354
 30
-223.1767890795161
 70
   192
  0
VERTEX
  5
1480
  8
0
 10
151.7370036028019
 20
-69.45864690208116
 30
-223.6323748329251
 70
   192
  0
VERTEX
  5
1481
  8
0
 10
167.9265350827735
 20
-52.1644275163204
 30
-223.382809147561
 70
   192
  0
VERTEX
  5
1482
  8
0
 10
112.0734649172263
 20
-52.16442751632039
 30
-223.3828091475611
 70
   192
  0
VERTEX
  5
1483
  8
0
 10
123.4052954810939
 20
-65.69969418115
 30
-223.0
 70
   192
  0
VERTEX
  5
1484
  8
0
 10
112.8128277379326
 20
-51.8953214572601
 30
-223.0
 70
   192
  0
VERTEX
  5
1485
  8
0
 10
128.2262600574749
 20
-69.44223730783587
 30
-223.6321384366856
 70
   192
  0
VERTEX
  5
1486
  8
0
 10
0.0
 20
0.0
 30
0.0
 70
   128
 71
     1
 72
     2
 73
     3
  0
VERTEX
  5
1487
  8
0
 10
0.0
 20
0.0
 30
0.0
 70
   128
 71
     3
 72
     4
 73
     1
  0
VERTEX
  5
1488
  8
0
 10
0.0
 20
0.0
 30
0.0
 70
   128
 71
     5
 72
     6
 73
     3
  0
VERTEX
  5
1489
  8
0
 10
0.0
 20
0.0
 30
0.0
 70
   128
 71
     7
 72
     8
 73
     6
  0
VERTEX
  5
148A
  8
0
 10
0.0
 20
0.0
 30
0.0
 70
   128
 71
     9
 72
     3
 73
     6
  0
VERTEX
  5
148B
  8
0
 10
0.0
 20
0.0
 30
0.0
 70
   128
 71
     9
 72
     6
 73
    10
  0
VERTEX
  5
148C
  8
0
 10
0.0
 20
0.0
 30
0.0
 70
   128
 71
     5
 72
     7
 73
     6
  0
VERTEX
  5
148D
  8
0
 10
0.0
 20
0.0
 30
0.0
 70
   128
 71
     6
 72
     8
 73
    11
  0
VERTEX
  5
148E
  8
0
 10
0.0
 20
0.0
 30
0.0
 70
   128
 71
     6
 72
    11
 73
    12
  0
VERTEX
  5
148F
  8
0
 10
0.0
 20
0.0
 30
0.0
 70
   128
 71
     6
 72
    12
 73
    10
  0
VERTEX
  5
1490
  8
0
 10
0.0
 20
0.0
 30
0.0
 70
   128
 71
    13
 72
     8
 73
     7
  0
VERTEX
  5
1491
  8
0
 10
0.0
 20
0.0
 30
0.0
 70
   128
 71
     3
 72
     9
 73
     4
  0
VERTEX
  5
1492
  8
0
 10
0.0
 20
0.0
 30
0.0
 70
   128
 71
    14
 72
    15
 73
     5
  0
VERTEX
  5
1493
  8
0
 10
0.0
 20
0.0
 30
0.0
 70
   128
 71
    14
 72
     5
 73
     3
  0
VERTEX
  5
1494
  8
0
 10
0.0
 20
0.0
 30
0.0
 70
   128
 71
     3
 72
     2
 73
    14
  0
VERTEX
  5
1495
  8
0
 10
0.0
 20
0.0
 30
0.0
 70
   128
 71
    13
 72
    16
 73
    11
  0
VERTEX
  5
1496
  8
0
 10
0.0
 20
0.0
 30
0.0
 70
   128
 71
    13
 72
    11
 73
     8
  0
SEQEND
  5
1963
  8
0
  0
POLYLINE
  5
1497
  8
0
 66
     1
 10
0.0
 20
0.0
 30
0.0
 70
    64
 71
    10
 72
     8
  0
VERTEX
  5
1498
  8
0
 10
167.7206692729559
 20
-52.08949848929354
 30
-223.1767890795161
 70
   192
  0
VERTEX
  5
1499
  8
0
 10
167.9265350827737
 20
-52.16442751632033
 30
-223.3828091475609
 70
   192
  0
VERTEX
  5
149A
  8
0
 10
169.4389224621031
 20
-47.86825573324531
 30
-223.3258729971575
 70
   192
  0
VERTEX
  5
149B
  8
0
 10
167.1871722620675
 20
-51.8953214572602
 30
-223.0
 70
   192
  0
VERTEX
  5
149C
  8
0
 10
167.4665543353487
 20
-51.99700821592212
 30
-223.0452196795901
 70
   192
  0
VERTEX
  5
149D
  8
0
 10
174.419004331875
 20
-33.03956393586202
 30
-223.0620055620745
 70
   192
  0
VERTEX
  5
149E
  8
0
 10
170.8430642831511
 20
-43.85724727888413
 30
-223.2726167676078
 70
   192
  0
VERTEX
  5
149F
  8
0
 10
172.1272358548835
 20
-40.1648943789919
 30
-223.223485152481
 70
   192
  0
VERTEX
  5
14A0
  8
0
 10
173.3040082536773
 20
-36.65226965476825
 30
-223.1548398341741
 70
   192
  0
VERTEX
  5
14A1
  8
0
 10
175.340858271294
 20
-29.49325326158595
 30
-223.0
 70
   192
  0
VERTEX
  5
14A2
  8
0
 10
0.0
 20
0.0
 30
0.0
 70
   128
 71
     1
 72
     2
 73
     3
  0
VERTEX
  5
14A3
  8
0
 10
0.0
 20
0.0
 30
0.0
 70
   128
 71
     4
 72
     5
 73
     6
  0
VERTEX
  5
14A4
  8
0
 10
0.0
 20
0.0
 30
0.0
 70
   128
 71
     5
 72
     3
 73
     7
  0
VERTEX
  5
14A5
  8
0
 10
0.0
 20
0.0
 30
0.0
 70
   128
 71
     5
 72
     1
 73
     3
  0
VERTEX
  5
14A6
  8
0
 10
0.0
 20
0.0
 30
0.0
 70
   128
 71
     8
 72
     9
 73
     6
  0
VERTEX
  5
14A7
  8
0
 10
0.0
 20
0.0
 30
0.0
 70
   128
 71
     6
 72
     7
 73
     8
  0
VERTEX
  5
14A8
  8
0
 10
0.0
 20
0.0
 30
0.0
 70
   128
 71
     6
 72
     5
 73
     7
  0
VERTEX
  5
14A9
  8
0
 10
0.0
 20
0.0
 30
0.0
 70
   128
 71
     6
 72
    10
 73
     4
  0
SEQEND
  5
1964
  8
0
  0
POLYLINE
  5
14AA
  8
0
 66
     1
 10
0.0
 20
0.0
 30
0.0
 70
    64
 71
     9
 72
     7
  0
VERTEX
  5
14AB
  8
0
 10
-168.1895261781355
 20
-22.47664043757055
 30
-222.9371728827725
 70
   192
  0
VERTEX
  5
14AC
  8
0
 10
-168.4470765516781
 20
-22.84677598973159
 30
-222.9565708650947
 70
   192
  0
VERTEX
  5
14AD
  8
0
 10
-168.6997779490558
 20
-23.22026212755447
 30
-222.9761444441709
 70
   192
  0
VERTEX
  5
14AE
  8
0
 10
-168.9475656154345
 20
-23.5970031450666
 30
-222.9958886042635
 70
   192
  0
VERTEX
  5
14AF
  8
0
 10
-168.6364367027231
 20
-23.47671085558318
 30
-222.9923135999831
 70
   192
  0
VERTEX
  5
14B0
  8
0
 10
-168.2279685891597
 20
-23.21130249234132
 30
-222.986421014896
 70
   192
  0
VERTEX
  5
14B1
  8
0
 10
-167.7184397335685
 20
-22.8068713435932
 30
-222.9782738878165
 70
   192
  0
VERTEX
  5
14B2
  8
0
 10
-167.8752708878127
 20
-22.69720963658692
 30
-222.9593110119584
 70
   192
  0
VERTEX
  5
14B3
  8
0
 10
-168.0323392168838
 20
-22.58710496850563
 30
-222.9456072294364
 70
   192
  0
VERTEX
  5
14B4
  8
0
 10
0.0
 20
0.0
 30
0.0
 70
   128
 71
     6
 72
     7
 73
     8
  0
VERTEX
  5
14B5
  8
0
 10
0.0
 20
0.0
 30
0.0
 70
   128
 71
     9
 72
     5
 73
     6
  0
VERTEX
  5
14B6
  8
0
 10
0.0
 20
0.0
 30
0.0
 70
   128
 71
     8
 72
     9
 73
     6
  0
VERTEX
  5
14B7
  8
0
 10
0.0
 20
0.0
 30
0.0
 70
   128
 71
     9
 72
     1
 73
     2
  0
VERTEX
  5
14B8
  8
0
 10
0.0
 20
0.0
 30
0.0
 70
   128
 71
     3
 72
     5
 73
     9
  0
VERTEX
  5
14B9
  8
0
 10
0.0
 20
0.0
 30
0.0
 70
   128
 71
     2
 72
     3
 73
     9
  0
VERTEX
  5
14BA
  8
0
 10
0.0
 20
0.0
 30
0.0
 70
   128
 71
     3
 72
     4
 73
     5
  0
SEQEND
  5
1965
  8
0
  0
POLYLINE
  5
14BB
  8
0
 66
     1
 10
0.0
 20
0.0
 30
0.0
 70
    64
 71
    18
 72
    16
  0
VERTEX
  5
14BC
  8
0
 10
-168.1895261781355
 20
-22.47664043757056
 30
-222.9371728827725
 70
   192
  0
VERTEX
  5
14BD
  8
0
 10
-168.0323392168838
 20
-22.58710496850563
 30
-222.9456072294364
 70
   192
  0
VERTEX
  5
14BE
  8
0
 10
-167.8752708878127
 20
-22.69720963658692
 30
-222.9593110119584
 70
   192
  0
VERTEX
  5
14BF
  8
0
 10
-167.7184397335686
 20
-22.80687134359327
 30
-222.9782738878165
 70
   192
  0
VERTEX
  5
14C0
  8
0
 10
-159.2531337633643
 20
-18.65834584905117
 30
-222.2253888044447
 70
   192
  0
VERTEX
  5
14C1
  8
0
 10
-150.3788150071365
 20
-16.00538255063389
 30
-220.9916381329777
 70
   192
  0
VERTEX
  5
14C2
  8
0
 10
-141.1533679252438
 20
-14.52419714677984
 30
-220.0000000000025
 70
   192
  0
VERTEX
  5
14C3
  8
0
 10
-140.3845562330625
 20
-14.50269172663866
 30
-219.940792109935
 70
   192
  0
VERTEX
  5
14C4
  8
0
 10
-139.6154437669303
 20
-14.50269172663876
 30
-219.9407921099353
 70
   192
  0
VERTEX
  5
14C5
  8
0
 10
-138.8466320747496
 20
-14.52419714678012
 30
-220.0000000000035
 70
   192
  0
VERTEX
  5
14C6
  8
0
 10
-129.6110528297038
 20
-16.00784942706961
 30
-220.9931021580498
 70
   192
  0
VERTEX
  5
14C7
  8
0
 10
-120.7500541213028
 20
-18.65717982650603
 30
-222.2249753311613
 70
   192
  0
VERTEX
  5
14C8
  8
0
 10
-112.2815602664316
 20
-22.8068713435932
 30
-222.9782738878165
 70
   192
  0
VERTEX
  5
14C9
  8
0
 10
-112.1247291121875
 20
-22.69720963658686
 30
-222.9593110119584
 70
   192
  0
VERTEX
  5
14CA
  8
0
 10
-111.9676607831165
 20
-22.5871049685056
 30
-222.9456072294364
 70
   192
  0
VERTEX
  5
14CB
  8
0
 10
-111.8104738218648
 20
-22.47664043757055
 30
-222.9371728827725
 70
   192
  0
VERTEX
  5
14CC
  8
0
 10
-130.0184340442681
 20
-14.75025590857664
 30
-218.6025790108338
 70
   192
  0
VERTEX
  5
14CD
  8
0
 10
-149.9890551777253
 20
-14.75158544909127
 30
-218.6045285502793
 70
   192
  0
VERTEX
  5
14CE
  8
0
 10
0.0
 20
0.0
 30
0.0
 70
   128
 71
    17
 72
    11
 73
    12
  0
VERTEX
  5
14CF
  8
0
 10
0.0
 20
0.0
 30
0.0
 70
   128
 71
    12
 72
    13
 73
    17
  0
VERTEX
  5
14D0
  8
0
 10
0.0
 20
0.0
 30
0.0
 70
   128
 71
    13
 72
    14
 73
    17
  0
VERTEX
  5
14D1
  8
0
 10
0.0
 20
0.0
 30
0.0
 70
   128
 71
    14
 72
    15
 73
    17
  0
VERTEX
  5
14D2
  8
0
 10
0.0
 20
0.0
 30
0.0
 70
   128
 71
    15
 72
    16
 73
    17
  0
VERTEX
  5
14D3
  8
0
 10
0.0
 20
0.0
 30
0.0
 70
   128
 71
     6
 72
     7
 73
     8
  0
VERTEX
  5
14D4
  8
0
 10
0.0
 20
0.0
 30
0.0
 70
   128
 71
    11
 72
     6
 73
     8
  0
VERTEX
  5
14D5
  8
0
 10
0.0
 20
0.0
 30
0.0
 70
   128
 71
     8
 72
     9
 73
    11
  0
VERTEX
  5
14D6
  8
0
 10
0.0
 20
0.0
 30
0.0
 70
   128
 71
     9
 72
    10
 73
    11
  0
VERTEX
  5
14D7
  8
0
 10
0.0
 20
0.0
 30
0.0
 70
   128
 71
    17
 72
    18
 73
     6
  0
VERTEX
  5
14D8
  8
0
 10
0.0
 20
0.0
 30
0.0
 70
   128
 71
    11
 72
    17
 73
     6
  0
VERTEX
  5
14D9
  8
0
 10
0.0
 20
0.0
 30
0.0
 70
   128
 71
    18
 72
     1
 73
     2
  0
VERTEX
  5
14DA
  8
0
 10
0.0
 20
0.0
 30
0.0
 70
   128
 71
     2
 72
     3
 73
    18
  0
VERTEX
  5
14DB
  8
0
 10
0.0
 20
0.0
 30
0.0
 70
   128
 71
     3
 72
     4
 73
    18
  0
VERTEX
  5
14DC
  8
0
 10
0.0
 20
0.0
 30
0.0
 70
   128
 71
     4
 72
     5
 73
    18
  0
VERTEX
  5
14DD
  8
0
 10
0.0
 20
0.0
 30
0.0
 70
   128
 71
     5
 72
     6
 73
    18
  0
SEQEND
  5
1966
  8
0
  0
POLYLINE
  5
14DE
  8
0
 66
     1
 10
0.0
 20
0.0
 30
0.0
 70
    64
 71
     9
 72
     7
  0
VERTEX
  5
14DF
  8
0
 10
-111.8104738218648
 20
-22.47664043757055
 30
-222.9371728827725
 70
   192
  0
VERTEX
  5
14E0
  8
0
 10
-111.9676607831165
 20
-22.5871049685056
 30
-222.9456072294364
 70
   192
  0
VERTEX
  5
14E1
  8
0
 10
-112.1247291121875
 20
-22.69720963658686
 30
-222.9593110119584
 70
   192
  0
VERTEX
  5
14E2
  8
0
 10
-112.2815602664316
 20
-22.80687134359318
 30
-222.9782738878164
 70
   192
  0
VERTEX
  5
14E3
  8
0
 10
-111.7720314108274
 20
-23.21130249234617
 30
-222.9864210148928
 70
   192
  0
VERTEX
  5
14E4
  8
0
 10
-111.363563297262
 20
-23.47671085558723
 30
-222.9923135999814
 70
   192
  0
VERTEX
  5
14E5
  8
0
 10
-111.0524343845654
 20
-23.59700314506665
 30
-222.9958886042635
 70
   192
  0
VERTEX
  5
14E6
  8
0
 10
-111.3002220509443
 20
-23.2202621275545
 30
-222.976144444171
 70
   192
  0
VERTEX
  5
14E7
  8
0
 10
-111.5529234483222
 20
-22.84677598973161
 30
-222.9565708650949
 70
   192
  0
VERTEX
  5
14E8
  8
0
 10
0.0
 20
0.0
 30
0.0
 70
   128
 71
     6
 72
     7
 73
     8
  0
VERTEX
  5
14E9
  8
0
 10
0.0
 20
0.0
 30
0.0
 70
   128
 71
     9
 72
     5
 73
     6
  0
VERTEX
  5
14EA
  8
0
 10
0.0
 20
0.0
 30
0.0
 70
   128
 71
     8
 72
     9
 73
     6
  0
VERTEX
  5
14EB
  8
0
 10
0.0
 20
0.0
 30
0.0
 70
   128
 71
     9
 72
     1
 73
     2
  0
VERTEX
  5
14EC
  8
0
 10
0.0
 20
0.0
 30
0.0
 70
   128
 71
     3
 72
     5
 73
     9
  0
VERTEX
  5
14ED
  8
0
 10
0.0
 20
0.0
 30
0.0
 70
   128
 71
     2
 72
     3
 73
     9
  0
VERTEX
  5
14EE
  8
0
 10
0.0
 20
0.0
 30
0.0
 70
   128
 71
     3
 72
     4
 73
     5
  0
SEQEND
  5
1967
  8
0
  0
POLYLINE
  5
14EF
  8
0
 66
     1
 10
0.0
 20
0.0
 30
0.0
 70
    64
 71
     9
 72
     7
  0
VERTEX
  5
14F0
  8
0
 10
111.8104738218644
 20
-22.47664043757055
 30
-222.9371728827725
 70
   192
  0
VERTEX
  5
14F1
  8
0
 10
111.5529234483218
 20
-22.84677598973161
 30
-222.9565708650947
 70
   192
  0
VERTEX
  5
14F2
  8
0
 10
111.3002220509439
 20
-23.22026212755449
 30
-222.9761444441709
 70
   192
  0
VERTEX
  5
14F3
  8
0
 10
111.0524343845652
 20
-23.59700314506665
 30
-222.9958886042635
 70
   192
  0
VERTEX
  5
14F4
  8
0
 10
111.3635632972532
 20
-23.47671085558956
 30
-222.9923135999828
 70
   192
  0
VERTEX
  5
14F5
  8
0
 10
111.7720314108199
 20
-23.21130249234952
 30
-222.9864210148954
 70
   192
  0
VERTEX
  5
14F6
  8
0
 10
112.2815602664312
 20
-22.80687134359325
 30
-222.9782738878165
 70
   192
  0
VERTEX
  5
14F7
  8
0
 10
112.1247291121871
 20
-22.69720963658691
 30
-222.9593110119584
 70
   192
  0
VERTEX
  5
14F8
  8
0
 10
111.967660783116
 20
-22.58710496850565
 30
-222.9456072294364
 70
   192
  0
VERTEX
  5
14F9
  8
0
 10
0.0
 20
0.0
 30
0.0
 70
   128
 71
     6
 72
     7
 73
     8
  0
VERTEX
  5
14FA
  8
0
 10
0.0
 20
0.0
 30
0.0
 70
   128
 71
     9
 72
     5
 73
     6
  0
VERTEX
  5
14FB
  8
0
 10
0.0
 20
0.0
 30
0.0
 70
   128
 71
     8
 72
     9
 73
     6
  0
VERTEX
  5
14FC
  8
0
 10
0.0
 20
0.0
 30
0.0
 70
   128
 71
     9
 72
     1
 73
     2
  0
VERTEX
  5
14FD
  8
0
 10
0.0
 20
0.0
 30
0.0
 70
   128
 71
     3
 72
     5
 73
     9
  0
VERTEX
  5
14FE
  8
0
 10
0.0
 20
0.0
 30
0.0
 70
   128
 71
     2
 72
     3
 73
     9
  0
VERTEX
  5
14FF
  8
0
 10
0.0
 20
0.0
 30
0.0
 70
   128
 71
     3
 72
     4
 73
     5
  0
SEQEND
  5
1968
  8
0
  0
POLYLINE
  5
1500
  8
0
 66
     1
 10
0.0
 20
0.0
 30
0.0
 70
    64
 71
    18
 72
    16
  0
VERTEX
  5
1501
  8
0
 10
111.8104738218644
 20
-22.47664043757059
 30
-222.9371728827725
 70
   192
  0
VERTEX
  5
1502
  8
0
 10
111.967660783116
 20
-22.58710496850565
 30
-222.9456072294364
 70
   192
  0
VERTEX
  5
1503
  8
0
 10
112.1247291121871
 20
-22.69720963658691
 30
-222.9593110119584
 70
   192
  0
VERTEX
  5
1504
  8
0
 10
112.2815602664312
 20
-22.80687134359324
 30
-222.9782738878164
 70
   192
  0
VERTEX
  5
1505
  8
0
 10
120.7530319041665
 20
-18.65610902665604
 30
-222.2246025795637
 70
   192
  0
VERTEX
  5
1506
  8
0
 10
129.6115353038798
 20
-16.00771488256352
 30
-220.9929898949317
 70
   192
  0
VERTEX
  5
1507
  8
0
 10
138.8466320747486
 20
-14.52419714678012
 30
-220.0000000000035
 70
   192
  0
VERTEX
  5
1508
  8
0
 10
139.6154437669309
 20
-14.50269172663874
 30
-219.9407921099352
 70
   192
  0
VERTEX
  5
1509
  8
0
 10
140.3845562330634
 20
-14.50269172663866
 30
-219.9407921099349
 70
   192
  0
VERTEX
  5
150A
  8
0
 10
141.1533679252436
 20
-14.5241971467798
 30
-220.0000000000025
 70
   192
  0
VERTEX
  5
150B
  8
0
 10
150.3793106674186
 20
-16.00552022227623
 30
-220.9917516654363
 70
   192
  0
VERTEX
  5
150C
  8
0
 10
159.2561059713832
 20
-18.65941507209286
 30
-222.2257607234606
 70
   192
  0
VERTEX
  5
150D
  8
0
 10
167.7184397335685
 20
-22.80687134359325
 30
-222.9782738878165
 70
   192
  0
VERTEX
  5
150E
  8
0
 10
167.8752708878124
 20
-22.69720963658676
 30
-222.9593110119584
 70
   192
  0
VERTEX
  5
150F
  8
0
 10
168.0323392168834
 20
-22.58710496850555
 30
-222.9456072294364
 70
   192
  0
VERTEX
  5
1510
  8
0
 10
168.189526178135
 20
-22.47664043757054
 30
-222.9371728827725
 70
   192
  0
VERTEX
  5
1511
  8
0
 10
149.9815659592037
 20
-14.7502559090598
 30
-218.602579011539
 70
   192
  0
VERTEX
  5
1512
  8
0
 10
130.0109448124657
 20
-14.75158545083755
 30
-218.6045285528256
 70
   192
  0
VERTEX
  5
1513
  8
0
 10
0.0
 20
0.0
 30
0.0
 70
   128
 71
    17
 72
    11
 73
    12
  0
VERTEX
  5
1514
  8
0
 10
0.0
 20
0.0
 30
0.0
 70
   128
 71
    12
 72
    13
 73
    17
  0
VERTEX
  5
1515
  8
0
 10
0.0
 20
0.0
 30
0.0
 70
   128
 71
    13
 72
    14
 73
    17
  0
VERTEX
  5
1516
  8
0
 10
0.0
 20
0.0
 30
0.0
 70
   128
 71
    14
 72
    15
 73
    17
  0
VERTEX
  5
1517
  8
0
 10
0.0
 20
0.0
 30
0.0
 70
   128
 71
    15
 72
    16
 73
    17
  0
VERTEX
  5
1518
  8
0
 10
0.0
 20
0.0
 30
0.0
 70
   128
 71
     6
 72
     7
 73
     8
  0
VERTEX
  5
1519
  8
0
 10
0.0
 20
0.0
 30
0.0
 70
   128
 71
    11
 72
     6
 73
     8
  0
VERTEX
  5
151A
  8
0
 10
0.0
 20
0.0
 30
0.0
 70
   128
 71
     8
 72
     9
 73
    11
  0
VERTEX
  5
151B
  8
0
 10
0.0
 20
0.0
 30
0.0
 70
   128
 71
     9
 72
    10
 73
    11
  0
VERTEX
  5
151C
  8
0
 10
0.0
 20
0.0
 30
0.0
 70
   128
 71
    17
 72
    18
 73
     6
  0
VERTEX
  5
151D
  8
0
 10
0.0
 20
0.0
 30
0.0
 70
   128
 71
    11
 72
    17
 73
     6
  0
VERTEX
  5
151E
  8
0
 10
0.0
 20
0.0
 30
0.0
 70
   128
 71
    18
 72
     1
 73
     2
  0
VERTEX
  5
151F
  8
0
 10
0.0
 20
0.0
 30
0.0
 70
   128
 71
     2
 72
     3
 73
    18
  0
VERTEX
  5
1520
  8
0
 10
0.0
 20
0.0
 30
0.0
 70
   128
 71
     3
 72
     4
 73
    18
  0
VERTEX
  5
1521
  8
0
 10
0.0
 20
0.0
 30
0.0
 70
   128
 71
     4
 72
     5
 73
    18
  0
VERTEX
  5
1522
  8
0
 10
0.0
 20
0.0
 30
0.0
 70
   128
 71
     5
 72
     6
 73
    18
  0
SEQEND
  5
1969
  8
0
  0
POLYLINE
  5
1523
  8
0
 66
     1
 10
0.0
 20
0.0
 30
0.0
 70
    64
 71
     9
 72
     7
  0
VERTEX
  5
1524
  8
0
 10
168.189526178135
 20
-22.47664043757054
 30
-222.9371728827725
 70
   192
  0
VERTEX
  5
1525
  8
0
 10
168.0323392168834
 20
-22.58710496850555
 30
-222.9456072294364
 70
   192
  0
VERTEX
  5
1526
  8
0
 10
167.8752708878124
 20
-22.69720963658676
 30
-222.9593110119584
 70
   192
  0
VERTEX
  5
1527
  8
0
 10
167.7184397335684
 20
-22.80687134359305
 30
-222.9782738878164
 70
   192
  0
VERTEX
  5
1528
  8
0
 10
168.2279685891847
 20
-23.21130249235228
 30
-222.9864210148939
 70
   192
  0
VERTEX
  5
1529
  8
0
 10
168.6364367027523
 20
-23.47671085559127
 30
-222.9923135999821
 70
   192
  0
VERTEX
  5
152A
  8
0
 10
168.9475656154345
 20
-23.59700314506665
 30
-222.9958886042635
 70
   192
  0
VERTEX
  5
152B
  8
0
 10
168.6997779490557
 20
-23.22026212755448
 30
-222.9761444441708
 70
   192
  0
VERTEX
  5
152C
  8
0
 10
168.4470765516777
 20
-22.8467759897316
 30
-222.9565708650947
 70
   192
  0
VERTEX
  5
152D
  8
0
 10
0.0
 20
0.0
 30
0.0
 70
   128
 71
     6
 72
     7
 73
     8
  0
VERTEX
  5
152E
  8
0
 10
0.0
 20
0.0
 30
0.0
 70
   128
 71
     9
 72
     5
 73
     6
  0
VERTEX
  5
152F
  8
0
 10
0.0
 20
0.0
 30
0.0
 70
   128
 71
     8
 72
     9
 73
     6
  0
VERTEX
  5
1530
  8
0
 10
0.0
 20
0.0
 30
0.0
 70
   128
 71
     9
 72
     1
 73
     2
  0
VERTEX
  5
1531
  8
0
 10
0.0
 20
0.0
 30
0.0
 70
   128
 71
     3
 72
     5
 73
     9
  0
VERTEX
  5
1532
  8
0
 10
0.0
 20
0.0
 30
0.0
 70
   128
 71
     2
 72
     3
 73
     9
  0
VERTEX
  5
1533
  8
0
 10
0.0
 20
0.0
 30
0.0
 70
   128
 71
     3
 72
     4
 73
     5
  0
SEQEND
  5
196A
  8
0
  0
POLYLINE
  5
1534
  8
0
 66
     1
 10
0.0
 20
0.0
 30
0.0
 70
    64
 71
    12
 72
    10
  0
VERTEX
  5
1535
  8
0
 10
-138.8634890204303
 20
-14.92576728419492
 30
-221.500000000002
 70
   192
  0
VERTEX
  5
1536
  8
0
 10
-141.1365109795414
 20
-14.92576728419343
 30
-221.5000000000014
 70
   192
  0
VERTEX
  5
1537
  8
0
 10
-141.0904569474823
 20
-16.02287730240988
 30
-222.5980762113537
 70
   192
  0
VERTEX
  5
1538
  8
0
 10
-138.9095430524905
 20
-16.02287730241128
 30
-222.5980762113539
 70
   192
  0
VERTEX
  5
1539
  8
0
 10
-138.8466320747495
 20
-14.5241971467801
 30
-220.0000000000035
 70
   192
  0
VERTEX
  5
153A
  8
0
 10
-139.6154437590873
 20
-14.50268892241325
 30
-220.0
 70
   192
  0
VERTEX
  5
153B
  8
0
 10
-140.3845562409061
 20
-14.50268892241316
 30
-220.0
 70
   192
  0
VERTEX
  5
153C
  8
0
 10
-141.1533679252217
 20
-14.52419714677892
 30
-220.0000000000025
 70
   192
  0
VERTEX
  5
153D
  8
0
 10
-141.027545969743
 20
-17.5215574580394
 30
-223.0
 70
   192
  0
VERTEX
  5
153E
  8
0
 10
-140.3426046509759
 20
-17.50239558542245
 30
-223.0
 70
   192
  0
VERTEX
  5
153F
  8
0
 10
-139.6573953489984
 20
-17.50239558542281
 30
-223.0
 70
   192
  0
VERTEX
  5
1540
  8
0
 10
-138.9724540302314
 20
-17.52155745804051
 30
-223.0
 70
   192
  0
VERTEX
  5
1541
  8
0
 10
0.0
 20
0.0
 30
0.0
 70
   128
 71
     1
 72
     2
 73
    -3
  0
VERTEX
  5
1542
  8
0
 10
0.0
 20
0.0
 30
0.0
 70
   128
 71
     4
 72
    -1
 73
     3
  0
VERTEX
  5
1543
  8
0
 10
0.0
 20
0.0
 30
0.0
 70
   128
 71
     1
 72
     5
 73
     6
  0
VERTEX
  5
1544
  8
0
 10
0.0
 20
0.0
 30
0.0
 70
   128
 71
     1
 72
     6
 73
    -7
  0
VERTEX
  5
1545
  8
0
 10
0.0
 20
0.0
 30
0.0
 70
   128
 71
     2
 72
    -1
 73
     7
  0
VERTEX
  5
1546
  8
0
 10
0.0
 20
0.0
 30
0.0
 70
   128
 71
     7
 72
     8
 73
     2
  0
VERTEX
  5
1547
  8
0
 10
0.0
 20
0.0
 30
0.0
 70
   128
 71
     3
 72
     9
 73
    10
  0
VERTEX
  5
1548
  8
0
 10
0.0
 20
0.0
 30
0.0
 70
   128
 71
    11
 72
     4
 73
    -3
  0
VERTEX
  5
1549
  8
0
 10
0.0
 20
0.0
 30
0.0
 70
   128
 71
    10
 72
   -11
 73
     3
  0
VERTEX
  5
154A
  8
0
 10
0.0
 20
0.0
 30
0.0
 70
   128
 71
    11
 72
    12
 73
     4
  0
SEQEND
  5
196B
  8
0
  0
POLYLINE
  5
154B
  8
0
 66
     1
 10
0.0
 20
0.0
 30
0.0
 70
    64
 71
    12
 72
    10
  0
VERTEX
  5
154C
  8
0
 10
-138.8466320747496
 20
-14.52419714678012
 30
-220.0000000000035
 70
   192
  0
VERTEX
  5
154D
  8
0
 10
-129.6110528297038
 20
-16.00784942706961
 30
-220.9931021580498
 70
   192
  0
VERTEX
  5
154E
  8
0
 10
-120.7500541213028
 20
-18.65717982650603
 30
-222.2249753311613
 70
   192
  0
VERTEX
  5
154F
  8
0
 10
-112.2815602664316
 20
-22.80687134359324
 30
-222.9782738878163
 70
   192
  0
VERTEX
  5
1550
  8
0
 10
-112.3486773544701
 20
-22.9061155400904
 30
-222.9903374640495
 70
   192
  0
VERTEX
  5
1551
  8
0
 10
-112.4160115780636
 20
-23.00568080897477
 30
-222.9975833926806
 70
   192
  0
VERTEX
  5
1552
  8
0
 10
-112.4834544569602
 20
-23.10540674347465
 30
-223.0
 70
   192
  0
VERTEX
  5
1553
  8
0
 10
-121.1621557165968
 20
-20.62690916682611
 30
-223.0
 70
   192
  0
VERTEX
  5
1554
  8
0
 10
-130.0211320512503
 20
-18.81155923077432
 30
-223.0
 70
   192
  0
VERTEX
  5
1555
  8
0
 10
-138.9724540302314
 20
-17.52155745804045
 30
-223.0
 70
   192
  0
VERTEX
  5
1556
  8
0
 10
-138.9095430524905
 20
-16.02287730241128
 30
-222.5980762113539
 70
   192
  0
VERTEX
  5
1557
  8
0
 10
-138.8634890204303
 20
-14.92576728419492
 30
-221.500000000002
 70
   192
  0
VERTEX
  5
1558
  8
0
 10
0.0
 20
0.0
 30
0.0
 70
   128
 71
     8
 72
     7
 73
     6
  0
VERTEX
  5
1559
  8
0
 10
0.0
 20
0.0
 30
0.0
 70
   128
 71
     6
 72
     9
 73
     8
  0
VERTEX
  5
155A
  8
0
 10
0.0
 20
0.0
 30
0.0
 70
   128
 71
     6
 72
    11
 73
    10
  0
VERTEX
  5
155B
  8
0
 10
0.0
 20
0.0
 30
0.0
 70
   128
 71
     6
 72
    10
 73
     9
  0
VERTEX
  5
155C
  8
0
 10
0.0
 20
0.0
 30
0.0
 70
   128
 71
     6
 72
     5
 73
    12
  0
VERTEX
  5
155D
  8
0
 10
0.0
 20
0.0
 30
0.0
 70
   128
 71
     6
 72
    12
 73
    11
  0
VERTEX
  5
155E
  8
0
 10
0.0
 20
0.0
 30
0.0
 70
   128
 71
     2
 72
     1
 73
    12
  0
VERTEX
  5
155F
  8
0
 10
0.0
 20
0.0
 30
0.0
 70
   128
 71
     2
 72
    12
 73
     5
  0
VERTEX
  5
1560
  8
0
 10
0.0
 20
0.0
 30
0.0
 70
   128
 71
     5
 72
     3
 73
     2
  0
VERTEX
  5
1561
  8
0
 10
0.0
 20
0.0
 30
0.0
 70
   128
 71
     5
 72
     4
 73
     3
  0
SEQEND
  5
196C
  8
0
  0
POLYLINE
  5
1562
  8
0
 66
     1
 10
0.0
 20
0.0
 30
0.0
 70
    64
 71
    12
 72
    10
  0
VERTEX
  5
1563
  8
0
 10
-141.027545969743
 20
-17.5215574580394
 30
-223.0
 70
   192
  0
VERTEX
  5
1564
  8
0
 10
-149.9746248532656
 20
-18.81074430252438
 30
-223.0
 70
   192
  0
VERTEX
  5
1565
  8
0
 10
-158.8376443134025
 20
-20.62686565921274
 30
-223.0
 70
   192
  0
VERTEX
  5
1566
  8
0
 10
-167.51654554304
 20
-23.10540674347465
 30
-223.0
 70
   192
  0
VERTEX
  5
1567
  8
0
 10
-167.5839884219367
 20
-23.0056808089748
 30
-222.9975833926806
 70
   192
  0
VERTEX
  5
1568
  8
0
 10
-167.6513226455301
 20
-22.90611554009045
 30
-222.9903374640495
 70
   192
  0
VERTEX
  5
1569
  8
0
 10
-167.7184397335685
 20
-22.8068713435932
 30
-222.9782738878165
 70
   192
  0
VERTEX
  5
156A
  8
0
 10
-159.2531337633643
 20
-18.65834584905117
 30
-222.2253888044447
 70
   192
  0
VERTEX
  5
156B
  8
0
 10
-150.3788150071365
 20
-16.00538255063389
 30
-220.9916381329777
 70
   192
  0
VERTEX
  5
156C
  8
0
 10
-141.1533679252217
 20
-14.52419714677892
 30
-220.0000000000025
 70
   192
  0
VERTEX
  5
156D
  8
0
 10
-141.1365109795414
 20
-14.92576728419343
 30
-221.5000000000014
 70
   192
  0
VERTEX
  5
156E
  8
0
 10
-141.0904569474823
 20
-16.02287730240988
 30
-222.5980762113537
 70
   192
  0
VERTEX
  5
156F
  8
0
 10
0.0
 20
0.0
 30
0.0
 70
   128
 71
     8
 72
     7
 73
     6
  0
VERTEX
  5
1570
  8
0
 10
0.0
 20
0.0
 30
0.0
 70
   128
 71
     6
 72
     9
 73
     8
  0
VERTEX
  5
1571
  8
0
 10
0.0
 20
0.0
 30
0.0
 70
   128
 71
     6
 72
    11
 73
    10
  0
VERTEX
  5
1572
  8
0
 10
0.0
 20
0.0
 30
0.0
 70
   128
 71
     6
 72
    10
 73
     9
  0
VERTEX
  5
1573
  8
0
 10
0.0
 20
0.0
 30
0.0
 70
   128
 71
     6
 72
     5
 73
    12
  0
VERTEX
  5
1574
  8
0
 10
0.0
 20
0.0
 30
0.0
 70
   128
 71
     6
 72
    12
 73
    11
  0
VERTEX
  5
1575
  8
0
 10
0.0
 20
0.0
 30
0.0
 70
   128
 71
     2
 72
     1
 73
    12
  0
VERTEX
  5
1576
  8
0
 10
0.0
 20
0.0
 30
0.0
 70
   128
 71
     2
 72
    12
 73
     5
  0
VERTEX
  5
1577
  8
0
 10
0.0
 20
0.0
 30
0.0
 70
   128
 71
     5
 72
     3
 73
     2
  0
VERTEX
  5
1578
  8
0
 10
0.0
 20
0.0
 30
0.0
 70
   128
 71
     5
 72
     4
 73
     3
  0
SEQEND
  5
196D
  8
0
  0
POLYLINE
  5
1579
  8
0
 66
     1
 10
0.0
 20
0.0
 30
0.0
 70
    64
 71
    12
 72
    10
  0
VERTEX
  5
157A
  8
0
 10
-112.2815602664316
 20
-22.8068713435932
 30
-222.9782738878165
 70
   192
  0
VERTEX
  5
157B
  8
0
 10
-111.7720314108274
 20
-23.21130249234617
 30
-222.9864210148928
 70
   192
  0
VERTEX
  5
157C
  8
0
 10
-111.363563297262
 20
-23.47671085558723
 30
-222.9923135999814
 70
   192
  0
VERTEX
  5
157D
  8
0
 10
-111.0524343845651
 20
-23.59700314506664
 30
-222.9958886042637
 70
   192
  0
VERTEX
  5
157E
  8
0
 10
-111.0524343845652
 20
-23.64931252368793
 30
-222.9981724810573
 70
   192
  0
VERTEX
  5
157F
  8
0
 10
-111.0524343845652
 20
-23.70165379448354
 30
-222.9995430854692
 70
   192
  0
VERTEX
  5
1580
  8
0
 10
-111.0524343845652
 20
-23.75401101379535
 30
-223.0
 70
   192
  0
VERTEX
  5
1581
  8
0
 10
-111.5648290637802
 20
-23.62986783827846
 30
-222.9999999999999
 70
   192
  0
VERTEX
  5
1582
  8
0
 10
-112.0366419292569
 20
-23.38948327065518
 30
-223.0
 70
   192
  0
VERTEX
  5
1583
  8
0
 10
-112.4834544569602
 20
-23.10540674347464
 30
-223.0
 70
   192
  0
VERTEX
  5
1584
  8
0
 10
-112.4160115780636
 20
-23.00568080897477
 30
-222.9975833926806
 70
   192
  0
VERTEX
  5
1585
  8
0
 10
-112.3486773544701
 20
-22.9061155400904
 30
-222.9903374640495
 70
   192
  0
VERTEX
  5
1586
  8
0
 10
0.0
 20
0.0
 30
0.0
 70
   128
 71
     8
 72
     7
 73
     6
  0
VERTEX
  5
1587
  8
0
 10
0.0
 20
0.0
 30
0.0
 70
   128
 71
     6
 72
    11
 73
     9
  0
VERTEX
  5
1588
  8
0
 10
0.0
 20
0.0
 30
0.0
 70
   128
 71
     6
 72
     9
 73
     8
  0
VERTEX
  5
1589
  8
0
 10
0.0
 20
0.0
 30
0.0
 70
   128
 71
    11
 72
    10
 73
     9
  0
VERTEX
  5
158A
  8
0
 10
0.0
 20
0.0
 30
0.0
 70
   128
 71
     6
 72
     5
 73
    12
  0
VERTEX
  5
158B
  8
0
 10
0.0
 20
0.0
 30
0.0
 70
   128
 71
     6
 72
    12
 73
    11
  0
VERTEX
  5
158C
  8
0
 10
0.0
 20
0.0
 30
0.0
 70
   128
 71
     2
 72
     1
 73
    12
  0
VERTEX
  5
158D
  8
0
 10
0.0
 20
0.0
 30
0.0
 70
   128
 71
    12
 72
     5
 73
     3
  0
VERTEX
  5
158E
  8
0
 10
0.0
 20
0.0
 30
0.0
 70
   128
 71
    12
 72
     3
 73
     2
  0
VERTEX
  5
158F
  8
0
 10
0.0
 20
0.0
 30
0.0
 70
   128
 71
     5
 72
     4
 73
     3
  0
SEQEND
  5
196E
  8
0
  0
POLYLINE
  5
1590
  8
0
 66
     1
 10
0.0
 20
0.0
 30
0.0
 70
    64
 71
    12
 72
    10
  0
VERTEX
  5
1591
  8
0
 10
-167.51654554304
 20
-23.10540674347465
 30
-223.0
 70
   192
  0
VERTEX
  5
1592
  8
0
 10
-167.9632516608602
 20
-23.38942725739771
 30
-223.0
 70
   192
  0
VERTEX
  5
1593
  8
0
 10
-168.4349356048441
 20
-23.629770193821
 30
-223.0
 70
   192
  0
VERTEX
  5
1594
  8
0
 10
-168.947565615435
 20
-23.75401101379535
 30
-223.0
 70
   192
  0
VERTEX
  5
1595
  8
0
 10
-168.947565615435
 20
-23.70165379448352
 30
-222.9995430854692
 70
   192
  0
VERTEX
  5
1596
  8
0
 10
-168.947565615435
 20
-23.64931252368789
 30
-222.9981724810573
 70
   192
  0
VERTEX
  5
1597
  8
0
 10
-168.9475656154345
 20
-23.5970031450666
 30
-222.9958886042635
 70
   192
  0
VERTEX
  5
1598
  8
0
 10
-168.6364367027231
 20
-23.47671085558318
 30
-222.9923135999831
 70
   192
  0
VERTEX
  5
1599
  8
0
 10
-168.2279685891597
 20
-23.21130249234132
 30
-222.986421014896
 70
   192
  0
VERTEX
  5
159A
  8
0
 10
-167.7184397335686
 20
-22.8068713435933
 30
-222.9782738878163
 70
   192
  0
VERTEX
  5
159B
  8
0
 10
-167.6513226455301
 20
-22.90611554009045
 30
-222.9903374640495
 70
   192
  0
VERTEX
  5
159C
  8
0
 10
-167.5839884219367
 20
-23.0056808089748
 30
-222.9975833926806
 70
   192
  0
VERTEX
  5
159D
  8
0
 10
0.0
 20
0.0
 30
0.0
 70
   128
 71
     8
 72
     7
 73
     6
  0
VERTEX
  5
159E
  8
0
 10
0.0
 20
0.0
 30
0.0
 70
   128
 71
     6
 72
    11
 73
     9
  0
VERTEX
  5
159F
  8
0
 10
0.0
 20
0.0
 30
0.0
 70
   128
 71
     6
 72
     9
 73
     8
  0
VERTEX
  5
15A0
  8
0
 10
0.0
 20
0.0
 30
0.0
 70
   128
 71
    11
 72
    10
 73
     9
  0
VERTEX
  5
15A1
  8
0
 10
0.0
 20
0.0
 30
0.0
 70
   128
 71
     6
 72
     5
 73
    12
  0
VERTEX
  5
15A2
  8
0
 10
0.0
 20
0.0
 30
0.0
 70
   128
 71
     6
 72
    12
 73
    11
  0
VERTEX
  5
15A3
  8
0
 10
0.0
 20
0.0
 30
0.0
 70
   128
 71
     2
 72
     1
 73
    12
  0
VERTEX
  5
15A4
  8
0
 10
0.0
 20
0.0
 30
0.0
 70
   128
 71
    12
 72
     5
 73
     3
  0
VERTEX
  5
15A5
  8
0
 10
0.0
 20
0.0
 30
0.0
 70
   128
 71
    12
 72
     3
 73
     2
  0
VERTEX
  5
15A6
  8
0
 10
0.0
 20
0.0
 30
0.0
 70
   128
 71
     5
 72
     4
 73
     3
  0
SEQEND
  5
196F
  8
0
  0
POLYLINE
  5
15A7
  8
0
 66
     1
 10
0.0
 20
0.0
 30
0.0
 70
    64
 71
     8
 72
     6
  0
VERTEX
  5
15A8
  8
0
 10
-111.0524343845652
 20
-23.64931252368793
 30
-222.9981724810573
 70
   192
  0
VERTEX
  5
15A9
  8
0
 10
-111.0524343845652
 20
-23.70165379448354
 30
-222.9995430854692
 70
   192
  0
VERTEX
  5
15AA
  8
0
 10
-102.570228383267
 20
-23.70165379448349
 30
-222.9995430854692
 70
   192
  0
VERTEX
  5
15AB
  8
0
 10
-102.570228383267
 20
-23.64931252368783
 30
-222.9981724810573
 70
   192
  0
VERTEX
  5
15AC
  8
0
 10
-111.0524343845652
 20
-23.75401101379535
 30
-223.0
 70
   192
  0
VERTEX
  5
15AD
  8
0
 10
-102.570228383267
 20
-23.75401101379535
 30
-223.0
 70
   192
  0
VERTEX
  5
15AE
  8
0
 10
-111.0524343845651
 20
-23.59700314506664
 30
-222.9958886042637
 70
   192
  0
VERTEX
  5
15AF
  8
0
 10
-102.570228383267
 20
-23.59700314506649
 30
-222.9958886042637
 70
   192
  0
VERTEX
  5
15B0
  8
0
 10
0.0
 20
0.0
 30
0.0
 70
   128
 71
     1
 72
     2
 73
    -3
  0
VERTEX
  5
15B1
  8
0
 10
0.0
 20
0.0
 30
0.0
 70
   128
 71
     4
 72
    -1
 73
     3
  0
VERTEX
  5
15B2
  8
0
 10
0.0
 20
0.0
 30
0.0
 70
   128
 71
     2
 72
     5
 73
    -6
  0
VERTEX
  5
15B3
  8
0
 10
0.0
 20
0.0
 30
0.0
 70
   128
 71
     3
 72
    -2
 73
     6
  0
VERTEX
  5
15B4
  8
0
 10
0.0
 20
0.0
 30
0.0
 70
   128
 71
     7
 72
     1
 73
    -4
  0
VERTEX
  5
15B5
  8
0
 10
0.0
 20
0.0
 30
0.0
 70
   128
 71
     8
 72
    -7
 73
     4
  0
SEQEND
  5
1970
  8
0
  0
POLYLINE
  5
15B6
  8
0
 66
     1
 10
0.0
 20
0.0
 30
0.0
 70
    64
 71
     8
 72
     6
  0
VERTEX
  5
15B7
  8
0
 10
-173.009593256718
 20
-23.64931252368783
 30
-222.9981724810573
 70
   192
  0
VERTEX
  5
15B8
  8
0
 10
-173.009593256718
 20
-23.70165379448349
 30
-222.9995430854692
 70
   192
  0
VERTEX
  5
15B9
  8
0
 10
-168.947565615435
 20
-23.70165379448352
 30
-222.9995430854692
 70
   192
  0
VERTEX
  5
15BA
  8
0
 10
-168.947565615435
 20
-23.64931252368789
 30
-222.9981724810573
 70
   192
  0
VERTEX
  5
15BB
  8
0
 10
-173.009593256718
 20
-23.75401101379535
 30
-223.0
 70
   192
  0
VERTEX
  5
15BC
  8
0
 10
-168.947565615435
 20
-23.75401101379535
 30
-223.0
 70
   192
  0
VERTEX
  5
15BD
  8
0
 10
-173.009593256718
 20
-23.5970031450665
 30
-222.9958886042635
 70
   192
  0
VERTEX
  5
15BE
  8
0
 10
-168.947565615435
 20
-23.59700314506659
 30
-222.9958886042637
 70
   192
  0
VERTEX
  5
15BF
  8
0
 10
0.0
 20
0.0
 30
0.0
 70
   128
 71
     1
 72
     2
 73
    -3
  0
VERTEX
  5
15C0
  8
0
 10
0.0
 20
0.0
 30
0.0
 70
   128
 71
     4
 72
    -1
 73
     3
  0
VERTEX
  5
15C1
  8
0
 10
0.0
 20
0.0
 30
0.0
 70
   128
 71
     2
 72
     5
 73
    -6
  0
VERTEX
  5
15C2
  8
0
 10
0.0
 20
0.0
 30
0.0
 70
   128
 71
     3
 72
    -2
 73
     6
  0
VERTEX
  5
15C3
  8
0
 10
0.0
 20
0.0
 30
0.0
 70
   128
 71
     7
 72
     1
 73
    -4
  0
VERTEX
  5
15C4
  8
0
 10
0.0
 20
0.0
 30
0.0
 70
   128
 71
     8
 72
    -7
 73
     4
  0
SEQEND
  5
1971
  8
0
  0
POLYLINE
  5
15C5
  8
0
 66
     1
 10
0.0
 20
0.0
 30
0.0
 70
    64
 71
    12
 72
    10
  0
VERTEX
  5
15C6
  8
0
 10
-102.570228383267
 20
-23.5970031450665
 30
-222.9958886042635
 70
   192
  0
VERTEX
  5
15C7
  8
0
 10
-102.5511442774491
 20
-26.99564819023707
 30
-223.1740040436522
 70
   192
  0
VERTEX
  5
15C8
  8
0
 10
-105.0933980834799
 20
-37.19158332574842
 30
-223.7083503618183
 70
   192
  0
VERTEX
  5
15C9
  8
0
 10
-109.8553764551074
 20
-52.81473782477216
 30
-224.5271251945082
 70
   192
  0
VERTEX
  5
15CA
  8
0
 10
-110.6895144383816
 20
-52.55519854988553
 30
-224.382675227495
 70
   192
  0
VERTEX
  5
15CB
  8
0
 10
-111.450988567012
 20
-52.33194574282905
 30
-223.9898292794599
 70
   192
  0
VERTEX
  5
15CC
  8
0
 10
-112.0734649172264
 20
-52.16442751632029
 30
-223.382809147561
 70
   192
  0
VERTEX
  5
15CD
  8
0
 10
-106.5828475563298
 20
-36.42423893932479
 30
-223.1734375360655
 70
   192
  0
VERTEX
  5
15CE
  8
0
 10
-103.3813235526495
 20
-26.84448270218067
 30
-223.0444482676957
 70
   192
  0
VERTEX
  5
15CF
  8
0
 10
-102.570228383267
 20
-23.75401101379535
 30
-223.0
 70
   192
  0
VERTEX
  5
15D0
  8
0
 10
-102.570228383267
 20
-23.70165379448349
 30
-222.9995430854692
 70
   192
  0
VERTEX
  5
15D1
  8
0
 10
-102.570228383267
 20
-23.64931252368783
 30
-222.9981724810573
 70
   192
  0
VERTEX
  5
15D2
  8
0
 10
0.0
 20
0.0
 30
0.0
 70
   128
 71
     8
 72
     7
 73
     6
  0
VERTEX
  5
15D3
  8
0
 10
0.0
 20
0.0
 30
0.0
 70
   128
 71
     6
 72
    11
 73
     9
  0
VERTEX
  5
15D4
  8
0
 10
0.0
 20
0.0
 30
0.0
 70
   128
 71
     6
 72
     9
 73
     8
  0
VERTEX
  5
15D5
  8
0
 10
0.0
 20
0.0
 30
0.0
 70
   128
 71
    11
 72
    10
 73
     9
  0
VERTEX
  5
15D6
  8
0
 10
0.0
 20
0.0
 30
0.0
 70
   128
 71
     6
 72
     5
 73
    12
  0
VERTEX
  5
15D7
  8
0
 10
0.0
 20
0.0
 30
0.0
 70
   128
 71
     6
 72
    12
 73
    11
  0
VERTEX
  5
15D8
  8
0
 10
0.0
 20
0.0
 30
0.0
 70
   128
 71
     2
 72
     1
 73
    12
  0
VERTEX
  5
15D9
  8
0
 10
0.0
 20
0.0
 30
0.0
 70
   128
 71
    12
 72
     5
 73
     3
  0
VERTEX
  5
15DA
  8
0
 10
0.0
 20
0.0
 30
0.0
 70
   128
 71
    12
 72
     3
 73
     2
  0
VERTEX
  5
15DB
  8
0
 10
0.0
 20
0.0
 30
0.0
 70
   128
 71
     5
 72
     4
 73
     3
  0
SEQEND
  5
1972
  8
0
  0
POLYLINE
  5
15DC
  8
0
 66
     1
 10
0.0
 20
0.0
 30
0.0
 70
    64
 71
    12
 72
    10
  0
VERTEX
  5
15DD
  8
0
 10
-173.009593256718
 20
-23.75401101379535
 30
-223.0
 70
   192
  0
VERTEX
  5
15DE
  8
0
 10
-173.7283918352817
 20
-24.39477617430354
 30
-223.0000000000001
 70
   192
  0
VERTEX
  5
15DF
  8
0
 10
-174.5092231733353
 20
-26.31707165582809
 30
-223.0000000000001
 70
   192
  0
VERTEX
  5
15E0
  8
0
 10
-175.3408582712945
 20
-29.49325326158605
 30
-223.0
 70
   192
  0
VERTEX
  5
15E1
  8
0
 10
-175.6341811355026
 20
-29.4271527355589
 30
-222.9848940379504
 70
   192
  0
VERTEX
  5
15E2
  8
0
 10
-175.9245500503407
 20
-29.36171788422349
 30
-222.9397282785278
 70
   192
  0
VERTEX
  5
15E3
  8
0
 10
-176.2090408146035
 20
-29.29760767850045
 30
-222.8649575698975
 70
   192
  0
VERTEX
  5
15E4
  8
0
 10
-175.0900139844911
 20
-26.12596443381263
 30
-222.9370409990951
 70
   192
  0
VERTEX
  5
15E5
  8
0
 10
-174.0214891660081
 20
-24.22356709046489
 30
-222.9807254471194
 70
   192
  0
VERTEX
  5
15E6
  8
0
 10
-173.009593256718
 20
-23.59700314506649
 30
-222.9958886042637
 70
   192
  0
VERTEX
  5
15E7
  8
0
 10
-173.009593256718
 20
-23.64931252368783
 30
-222.9981724810573
 70
   192
  0
VERTEX
  5
15E8
  8
0
 10
-173.009593256718
 20
-23.70165379448349
 30
-222.9995430854692
 70
   192
  0
VERTEX
  5
15E9
  8
0
 10
0.0
 20
0.0
 30
0.0
 70
   128
 71
     8
 72
     7
 73
     6
  0
VERTEX
  5
15EA
  8
0
 10
0.0
 20
0.0
 30
0.0
 70
   128
 71
     6
 72
    11
 73
     9
  0
VERTEX
  5
15EB
  8
0
 10
0.0
 20
0.0
 30
0.0
 70
   128
 71
     6
 72
     9
 73
     8
  0
VERTEX
  5
15EC
  8
0
 10
0.0
 20
0.0
 30
0.0
 70
   128
 71
    11
 72
    10
 73
     9
  0
VERTEX
  5
15ED
  8
0
 10
0.0
 20
0.0
 30
0.0
 70
   128
 71
     6
 72
     5
 73
    12
  0
VERTEX
  5
15EE
  8
0
 10
0.0
 20
0.0
 30
0.0
 70
   128
 71
     6
 72
    12
 73
    11
  0
VERTEX
  5
15EF
  8
0
 10
0.0
 20
0.0
 30
0.0
 70
   128
 71
     2
 72
     1
 73
    12
  0
VERTEX
  5
15F0
  8
0
 10
0.0
 20
0.0
 30
0.0
 70
   128
 71
    12
 72
     5
 73
     3
  0
VERTEX
  5
15F1
  8
0
 10
0.0
 20
0.0
 30
0.0
 70
   128
 71
    12
 72
     3
 73
     2
  0
VERTEX
  5
15F2
  8
0
 10
0.0
 20
0.0
 30
0.0
 70
   128
 71
     5
 72
     4
 73
     3
  0
SEQEND
  5
1973
  8
0
  0
POLYLINE
  5
15F3
  8
0
 66
     1
 10
0.0
 20
0.0
 30
0.0
 70
    64
 71
    12
 72
    10
  0
VERTEX
  5
15F4
  8
0
 10
-111.450988567012
 20
-52.33194574282905
 30
-223.9898292794599
 70
   192
  0
VERTEX
  5
15F5
  8
0
 10
-112.0734649172265
 20
-52.16442751632035
 30
-223.382809147561
 70
   192
  0
VERTEX
  5
15F6
  8
0
 10
-128.2629966099635
 20
-69.45864699492077
 30
-223.6323748373307
 70
   192
  0
VERTEX
  5
15F7
  8
0
 10
-110.6895144383816
 20
-52.55519854988553
 30
-224.382675227495
 70
   192
  0
VERTEX
  5
15F8
  8
0
 10
-127.130747248556
 20
-71.85153657716224
 30
-225.524801541779
 70
   192
  0
VERTEX
  5
15F9
  8
0
 10
-109.8553764551074
 20
-52.8147378247721
 30
-224.527125194508
 70
   192
  0
VERTEX
  5
15FA
  8
0
 10
-169.3104855616188
 20
-52.55519854988547
 30
-224.382675227495
 70
   192
  0
VERTEX
  5
15FB
  8
0
 10
-170.144623544893
 20
-52.81473782477207
 30
-224.5271251945082
 70
   192
  0
VERTEX
  5
15FC
  8
0
 10
-152.9041748642494
 20
-71.83631305956855
 30
-225.5240037110292
 70
   192
  0
VERTEX
  5
15FD
  8
0
 10
-168.5490114329884
 20
-52.33194574282901
 30
-223.9898292794599
 70
   192
  0
VERTEX
  5
15FE
  8
0
 10
-151.7737406093015
 20
-69.44223702006079
 30
-223.6321384322719
 70
   192
  0
VERTEX
  5
15FF
  8
0
 10
-167.926535082774
 20
-52.16442751632029
 30
-223.382809147561
 70
   192
  0
VERTEX
  5
1600
  8
0
 10
0.0
 20
0.0
 30
0.0
 70
   128
 71
     1
 72
     2
 73
     3
  0
VERTEX
  5
1601
  8
0
 10
0.0
 20
0.0
 30
0.0
 70
   128
 71
     3
 72
     4
 73
     1
  0
VERTEX
  5
1602
  8
0
 10
0.0
 20
0.0
 30
0.0
 70
   128
 71
     3
 72
     5
 73
     4
  0
VERTEX
  5
1603
  8
0
 10
0.0
 20
0.0
 30
0.0
 70
   128
 71
     5
 72
     6
 73
     4
  0
VERTEX
  5
1604
  8
0
 10
0.0
 20
0.0
 30
0.0
 70
   128
 71
     7
 72
     8
 73
     9
  0
VERTEX
  5
1605
  8
0
 10
0.0
 20
0.0
 30
0.0
 70
   128
 71
     9
 72
    10
 73
     7
  0
VERTEX
  5
1606
  8
0
 10
0.0
 20
0.0
 30
0.0
 70
   128
 71
     9
 72
    11
 73
    10
  0
VERTEX
  5
1607
  8
0
 10
0.0
 20
0.0
 30
0.0
 70
   128
 71
    11
 72
    12
 73
    10
  0
VERTEX
  5
1608
  8
0
 10
0.0
 20
0.0
 30
0.0
 70
   128
 71
     9
 72
     3
 73
    11
  0
VERTEX
  5
1609
  8
0
 10
0.0
 20
0.0
 30
0.0
 70
   128
 71
     5
 72
     3
 73
     9
  0
SEQEND
  5
1974
  8
0
  0
POLYLINE
  5
160A
  8
0
 66
     1
 10
0.0
 20
0.0
 30
0.0
 70
    64
 71
    12
 72
    10
  0
VERTEX
  5
160B
  8
0
 10
-175.3408582712945
 20
-29.4932532615861
 30
-223.0
 70
   192
  0
VERTEX
  5
160C
  8
0
 10
-174.4191523190357
 20
-33.03905531750886
 30
-223.0619924436486
 70
   192
  0
VERTEX
  5
160D
  8
0
 10
-173.3041272739214
 20
-36.65201389691507
 30
-223.1545719268718
 70
   192
  0
VERTEX
  5
160E
  8
0
 10
-172.1272358548836
 20
-40.16489437899206
 30
-223.2234851524809
 70
   192
  0
VERTEX
  5
160F
  8
0
 10
-172.6686797484801
 20
-40.30601907308277
 30
-223.5808926549808
 70
   192
  0
VERTEX
  5
1610
  8
0
 10
-173.2706064938386
 20
-40.47189788584663
 30
-223.8066939055012
 70
   192
  0
VERTEX
  5
1611
  8
0
 10
-173.9035338666415
 20
-40.65440611372935
 30
-223.8898292141875
 70
   192
  0
VERTEX
  5
1612
  8
0
 10
-175.293863048237
 20
-36.97034233876434
 30
-223.5707247278764
 70
   192
  0
VERTEX
  5
1613
  8
0
 10
-176.208950153771
 20
-33.14811673282006
 30
-223.1256213197124
 70
   192
  0
VERTEX
  5
1614
  8
0
 10
-176.2090408146035
 20
-29.2976076785005
 30
-222.8649575698975
 70
   192
  0
VERTEX
  5
1615
  8
0
 10
-175.9245500503407
 20
-29.36171788422349
 30
-222.9397282785278
 70
   192
  0
VERTEX
  5
1616
  8
0
 10
-175.6341811355026
 20
-29.4271527355589
 30
-222.9848940379504
 70
   192
  0
VERTEX
  5
1617
  8
0
 10
0.0
 20
0.0
 30
0.0
 70
   128
 71
     8
 72
     7
 73
     6
  0
VERTEX
  5
1618
  8
0
 10
0.0
 20
0.0
 30
0.0
 70
   128
 71
     8
 72
     6
 73
    11
  0
VERTEX
  5
1619
  8
0
 10
0.0
 20
0.0
 30
0.0
 70
   128
 71
    11
 72
     9
 73
     8
  0
VERTEX
  5
161A
  8
0
 10
0.0
 20
0.0
 30
0.0
 70
   128
 71
    11
 72
    10
 73
     9
  0
VERTEX
  5
161B
  8
0
 10
0.0
 20
0.0
 30
0.0
 70
   128
 71
     6
 72
     5
 73
    12
  0
VERTEX
  5
161C
  8
0
 10
0.0
 20
0.0
 30
0.0
 70
   128
 71
     6
 72
    12
 73
    11
  0
VERTEX
  5
161D
  8
0
 10
0.0
 20
0.0
 30
0.0
 70
   128
 71
     2
 72
     1
 73
    12
  0
VERTEX
  5
161E
  8
0
 10
0.0
 20
0.0
 30
0.0
 70
   128
 71
    12
 72
     3
 73
     2
  0
VERTEX
  5
161F
  8
0
 10
0.0
 20
0.0
 30
0.0
 70
   128
 71
    12
 72
     5
 73
     4
  0
VERTEX
  5
1620
  8
0
 10
0.0
 20
0.0
 30
0.0
 70
   128
 71
    12
 72
     4
 73
     3
  0
SEQEND
  5
1975
  8
0
  0
POLYLINE
  5
1621
  8
0
 66
     1
 10
0.0
 20
0.0
 30
0.0
 70
    64
 71
    12
 72
    10
  0
VERTEX
  5
1622
  8
0
 10
-170.144623544893
 20
-52.8147378247721
 30
-224.527125194508
 70
   192
  0
VERTEX
  5
1623
  8
0
 10
-171.5211369280159
 20
-48.46911195146754
 30
-224.2993805928933
 70
   192
  0
VERTEX
  5
1624
  8
0
 10
-172.7776042344663
 20
-44.40435436943316
 30
-224.0863556746951
 70
   192
  0
VERTEX
  5
1625
  8
0
 10
-173.9035338666415
 20
-40.65440611372935
 30
-223.8898292141872
 70
   192
  0
VERTEX
  5
1626
  8
0
 10
-173.2706064938386
 20
-40.47189788584663
 30
-223.8066939055012
 70
   192
  0
VERTEX
  5
1627
  8
0
 10
-172.6686797484801
 20
-40.30601907308277
 30
-223.5808926549808
 70
   192
  0
VERTEX
  5
1628
  8
0
 10
-172.1272358548835
 20
-40.16489437899205
 30
-223.223485152481
 70
   192
  0
VERTEX
  5
1629
  8
0
 10
-170.8430642831509
 20
-43.85724727888482
 30
-223.2726167676079
 70
   192
  0
VERTEX
  5
162A
  8
0
 10
-169.4389224621031
 20
-47.86825573324597
 30
-223.3258729971575
 70
   192
  0
VERTEX
  5
162B
  8
0
 10
-167.9265350827739
 20
-52.16442751632032
 30
-223.3828091475611
 70
   192
  0
VERTEX
  5
162C
  8
0
 10
-168.5490114329884
 20
-52.33194574282901
 30
-223.9898292794599
 70
   192
  0
VERTEX
  5
162D
  8
0
 10
-169.3104855616188
 20
-52.55519854988547
 30
-224.382675227495
 70
   192
  0
VERTEX
  5
162E
  8
0
 10
0.0
 20
0.0
 30
0.0
 70
   128
 71
     8
 72
     7
 73
     6
  0
VERTEX
  5
162F
  8
0
 10
0.0
 20
0.0
 30
0.0
 70
   128
 71
     6
 72
    11
 73
     9
  0
VERTEX
  5
1630
  8
0
 10
0.0
 20
0.0
 30
0.0
 70
   128
 71
     6
 72
     9
 73
     8
  0
VERTEX
  5
1631
  8
0
 10
0.0
 20
0.0
 30
0.0
 70
   128
 71
    11
 72
    10
 73
     9
  0
VERTEX
  5
1632
  8
0
 10
0.0
 20
0.0
 30
0.0
 70
   128
 71
     6
 72
     5
 73
    12
  0
VERTEX
  5
1633
  8
0
 10
0.0
 20
0.0
 30
0.0
 70
   128
 71
     6
 72
    12
 73
    11
  0
VERTEX
  5
1634
  8
0
 10
0.0
 20
0.0
 30
0.0
 70
   128
 71
     2
 72
     1
 73
    12
  0
VERTEX
  5
1635
  8
0
 10
0.0
 20
0.0
 30
0.0
 70
   128
 71
    12
 72
     5
 73
     3
  0
VERTEX
  5
1636
  8
0
 10
0.0
 20
0.0
 30
0.0
 70
   128
 71
    12
 72
     3
 73
     2
  0
VERTEX
  5
1637
  8
0
 10
0.0
 20
0.0
 30
0.0
 70
   128
 71
     5
 72
     4
 73
     3
  0
SEQEND
  5
1976
  8
0
  0
POLYLINE
  5
1638
  8
0
 66
     1
 10
0.0
 20
0.0
 30
0.0
 70
    64
 71
    12
 72
    10
  0
VERTEX
  5
1639
  8
0
 10
167.7184397335685
 20
-22.80687134359325
 30
-222.9782738878165
 70
   192
  0
VERTEX
  5
163A
  8
0
 10
168.2279685891847
 20
-23.21130249235228
 30
-222.9864210148939
 70
   192
  0
VERTEX
  5
163B
  8
0
 10
168.6364367027523
 20
-23.47671085559127
 30
-222.9923135999821
 70
   192
  0
VERTEX
  5
163C
  8
0
 10
168.9475656154349
 20
-23.59700314506664
 30
-222.9958886042637
 70
   192
  0
VERTEX
  5
163D
  8
0
 10
168.9475656154349
 20
-23.64931252368793
 30
-222.9981724810573
 70
   192
  0
VERTEX
  5
163E
  8
0
 10
168.9475656154349
 20
-23.70165379448354
 30
-222.9995430854692
 70
   192
  0
VERTEX
  5
163F
  8
0
 10
168.9475656154345
 20
-23.75401101379535
 30
-223.0
 70
   192
  0
VERTEX
  5
1640
  8
0
 10
168.4349356048439
 20
-23.62977019382103
 30
-222.9999999999999
 70
   192
  0
VERTEX
  5
1641
  8
0
 10
167.96325166086
 20
-23.38942725739786
 30
-223.0
 70
   192
  0
VERTEX
  5
1642
  8
0
 10
167.5165455430395
 20
-23.10540674347465
 30
-223.0
 70
   192
  0
VERTEX
  5
1643
  8
0
 10
167.5839884219362
 20
-23.00568080897473
 30
-222.9975833926806
 70
   192
  0
VERTEX
  5
1644
  8
0
 10
167.6513226455297
 20
-22.90611554009031
 30
-222.9903374640495
 70
   192
  0
VERTEX
  5
1645
  8
0
 10
0.0
 20
0.0
 30
0.0
 70
   128
 71
     8
 72
     7
 73
     6
  0
VERTEX
  5
1646
  8
0
 10
0.0
 20
0.0
 30
0.0
 70
   128
 71
     6
 72
    11
 73
     9
  0
VERTEX
  5
1647
  8
0
 10
0.0
 20
0.0
 30
0.0
 70
   128
 71
     6
 72
     9
 73
     8
  0
VERTEX
  5
1648
  8
0
 10
0.0
 20
0.0
 30
0.0
 70
   128
 71
    11
 72
    10
 73
     9
  0
VERTEX
  5
1649
  8
0
 10
0.0
 20
0.0
 30
0.0
 70
   128
 71
     6
 72
     5
 73
    12
  0
VERTEX
  5
164A
  8
0
 10
0.0
 20
0.0
 30
0.0
 70
   128
 71
     6
 72
    12
 73
    11
  0
VERTEX
  5
164B
  8
0
 10
0.0
 20
0.0
 30
0.0
 70
   128
 71
     2
 72
     1
 73
    12
  0
VERTEX
  5
164C
  8
0
 10
0.0
 20
0.0
 30
0.0
 70
   128
 71
    12
 72
     5
 73
     3
  0
VERTEX
  5
164D
  8
0
 10
0.0
 20
0.0
 30
0.0
 70
   128
 71
    12
 72
     3
 73
     2
  0
VERTEX
  5
164E
  8
0
 10
0.0
 20
0.0
 30
0.0
 70
   128
 71
     5
 72
     4
 73
     3
  0
SEQEND
  5
1977
  8
0
  0
POLYLINE
  5
164F
  8
0
 66
     1
 10
0.0
 20
0.0
 30
0.0
 70
    64
 71
     8
 72
     6
  0
VERTEX
  5
1650
  8
0
 10
168.9475656154349
 20
-23.64931252368793
 30
-222.9981724810573
 70
   192
  0
VERTEX
  5
1651
  8
0
 10
168.9475656154349
 20
-23.70165379448354
 30
-222.9995430854692
 70
   192
  0
VERTEX
  5
1652
  8
0
 10
173.009593256718
 20
-23.70165379448346
 30
-222.9995430854692
 70
   192
  0
VERTEX
  5
1653
  8
0
 10
173.009593256718
 20
-23.64931252368781
 30
-222.9981724810573
 70
   192
  0
VERTEX
  5
1654
  8
0
 10
168.9475656154349
 20
-23.75401101379535
 30
-223.0
 70
   192
  0
VERTEX
  5
1655
  8
0
 10
173.009593256718
 20
-23.75401101379535
 30
-223.0
 70
   192
  0
VERTEX
  5
1656
  8
0
 10
168.9475656154349
 20
-23.59700314506664
 30
-222.9958886042637
 70
   192
  0
VERTEX
  5
1657
  8
0
 10
173.009593256718
 20
-23.59700314506649
 30
-222.9958886042637
 70
   192
  0
VERTEX
  5
1658
  8
0
 10
0.0
 20
0.0
 30
0.0
 70
   128
 71
     1
 72
     2
 73
    -3
  0
VERTEX
  5
1659
  8
0
 10
0.0
 20
0.0
 30
0.0
 70
   128
 71
     4
 72
    -1
 73
     3
  0
VERTEX
  5
165A
  8
0
 10
0.0
 20
0.0
 30
0.0
 70
   128
 71
     2
 72
     5
 73
    -6
  0
VERTEX
  5
165B
  8
0
 10
0.0
 20
0.0
 30
0.0
 70
   128
 71
     3
 72
    -2
 73
     6
  0
VERTEX
  5
165C
  8
0
 10
0.0
 20
0.0
 30
0.0
 70
   128
 71
     7
 72
     1
 73
    -4
  0
VERTEX
  5
165D
  8
0
 10
0.0
 20
0.0
 30
0.0
 70
   128
 71
     8
 72
    -7
 73
     4
  0
SEQEND
  5
1978
  8
0
  0
POLYLINE
  5
165E
  8
0
 66
     1
 10
0.0
 20
0.0
 30
0.0
 70
    64
 71
    12
 72
    10
  0
VERTEX
  5
165F
  8
0
 10
167.5165455430395
 20
-23.10540674347465
 30
-223.0
 70
   192
  0
VERTEX
  5
1660
  8
0
 10
158.8376443134087
 20
-20.62686565921415
 30
-223.0
 70
   192
  0
VERTEX
  5
1661
  8
0
 10
149.9746248532784
 20
-18.81074430252688
 30
-223.0
 70
   192
  0
VERTEX
  5
1662
  8
0
 10
141.0275459697626
 20
-17.5215574580402
 30
-223.0
 70
   192
  0
VERTEX
  5
1663
  8
0
 10
141.0904569475031
 20
-16.02287730241073
 30
-222.5980762113537
 70
   192
  0
VERTEX
  5
1664
  8
0
 10
141.1365109795631
 20
-14.92576728419431
 30
-221.5000000000014
 70
   192
  0
VERTEX
  5
1665
  8
0
 10
141.1533679252436
 20
-14.5241971467798
 30
-220.0000000000025
 70
   192
  0
VERTEX
  5
1666
  8
0
 10
150.3793106674186
 20
-16.00552022227623
 30
-220.9917516654363
 70
   192
  0
VERTEX
  5
1667
  8
0
 10
159.2561059713832
 20
-18.65941507209286
 30
-222.2257607234606
 70
   192
  0
VERTEX
  5
1668
  8
0
 10
167.7184397335682
 20
-22.80687134359309
 30
-222.9782738878163
 70
   192
  0
VERTEX
  5
1669
  8
0
 10
167.6513226455297
 20
-22.90611554009031
 30
-222.9903374640495
 70
   192
  0
VERTEX
  5
166A
  8
0
 10
167.5839884219362
 20
-23.00568080897473
 30
-222.9975833926806
 70
   192
  0
VERTEX
  5
166B
  8
0
 10
0.0
 20
0.0
 30
0.0
 70
   128
 71
     8
 72
     7
 73
     6
  0
VERTEX
  5
166C
  8
0
 10
0.0
 20
0.0
 30
0.0
 70
   128
 71
     8
 72
     6
 73
    11
  0
VERTEX
  5
166D
  8
0
 10
0.0
 20
0.0
 30
0.0
 70
   128
 71
    11
 72
     9
 73
     8
  0
VERTEX
  5
166E
  8
0
 10
0.0
 20
0.0
 30
0.0
 70
   128
 71
    11
 72
    10
 73
     9
  0
VERTEX
  5
166F
  8
0
 10
0.0
 20
0.0
 30
0.0
 70
   128
 71
     6
 72
     5
 73
    12
  0
VERTEX
  5
1670
  8
0
 10
0.0
 20
0.0
 30
0.0
 70
   128
 71
     6
 72
    12
 73
    11
  0
VERTEX
  5
1671
  8
0
 10
0.0
 20
0.0
 30
0.0
 70
   128
 71
     2
 72
     1
 73
    12
  0
VERTEX
  5
1672
  8
0
 10
0.0
 20
0.0
 30
0.0
 70
   128
 71
    12
 72
     3
 73
     2
  0
VERTEX
  5
1673
  8
0
 10
0.0
 20
0.0
 30
0.0
 70
   128
 71
    12
 72
     5
 73
     4
  0
VERTEX
  5
1674
  8
0
 10
0.0
 20
0.0
 30
0.0
 70
   128
 71
    12
 72
     4
 73
     3
  0
SEQEND
  5
1979
  8
0
  0
POLYLINE
  5
1675
  8
0
 66
     1
 10
0.0
 20
0.0
 30
0.0
 70
    64
 71
    12
 72
    10
  0
VERTEX
  5
1676
  8
0
 10
173.009593256718
 20
-23.5970031450665
 30
-222.9958886042635
 70
   192
  0
VERTEX
  5
1677
  8
0
 10
174.0214830218276
 20
-24.22356667896706
 30
-222.9807356126877
 70
   192
  0
VERTEX
  5
1678
  8
0
 10
175.0900096543905
 20
-26.12594344220172
 30
-222.9370308636703
 70
   192
  0
VERTEX
  5
1679
  8
0
 10
176.2090408146034
 20
-29.2976076785003
 30
-222.8649575698973
 70
   192
  0
VERTEX
  5
167A
  8
0
 10
175.9245500503405
 20
-29.36171788422332
 30
-222.9397282785277
 70
   192
  0
VERTEX
  5
167B
  8
0
 10
175.6341811355022
 20
-29.42715273555876
 30
-222.9848940379503
 70
   192
  0
VERTEX
  5
167C
  8
0
 10
175.340858271294
 20
-29.49325326158595
 30
-223.0
 70
   192
  0
VERTEX
  5
167D
  8
0
 10
174.5092231733352
 20
-26.31707165582811
 30
-223.0000000000001
 70
   192
  0
VERTEX
  5
167E
  8
0
 10
173.7283918352816
 20
-24.39477617430355
 30
-223.0000000000001
 70
   192
  0
VERTEX
  5
167F
  8
0
 10
173.009593256718
 20
-23.7540110137953
 30
-223.0
 70
   192
  0
VERTEX
  5
1680
  8
0
 10
173.009593256718
 20
-23.70165379448346
 30
-222.9995430854692
 70
   192
  0
VERTEX
  5
1681
  8
0
 10
173.009593256718
 20
-23.64931252368781
 30
-222.9981724810573
 70
   192
  0
VERTEX
  5
1682
  8
0
 10
0.0
 20
0.0
 30
0.0
 70
   128
 71
     8
 72
     7
 73
     6
  0
VERTEX
  5
1683
  8
0
 10
0.0
 20
0.0
 30
0.0
 70
   128
 71
     6
 72
    11
 73
     9
  0
VERTEX
  5
1684
  8
0
 10
0.0
 20
0.0
 30
0.0
 70
   128
 71
     6
 72
     9
 73
     8
  0
VERTEX
  5
1685
  8
0
 10
0.0
 20
0.0
 30
0.0
 70
   128
 71
    11
 72
    10
 73
     9
  0
VERTEX
  5
1686
  8
0
 10
0.0
 20
0.0
 30
0.0
 70
   128
 71
     6
 72
     5
 73
    12
  0
VERTEX
  5
1687
  8
0
 10
0.0
 20
0.0
 30
0.0
 70
   128
 71
     6
 72
    12
 73
    11
  0
VERTEX
  5
1688
  8
0
 10
0.0
 20
0.0
 30
0.0
 70
   128
 71
     2
 72
     1
 73
    12
  0
VERTEX
  5
1689
  8
0
 10
0.0
 20
0.0
 30
0.0
 70
   128
 71
    12
 72
     5
 73
     3
  0
VERTEX
  5
168A
  8
0
 10
0.0
 20
0.0
 30
0.0
 70
   128
 71
    12
 72
     3
 73
     2
  0
VERTEX
  5
168B
  8
0
 10
0.0
 20
0.0
 30
0.0
 70
   128
 71
     5
 72
     4
 73
     3
  0
SEQEND
  5
197A
  8
0
  0
POLYLINE
  5
168C
  8
0
 66
     1
 10
0.0
 20
0.0
 30
0.0
 70
    64
 71
    12
 72
    10
  0
VERTEX
  5
168D
  8
0
 10
138.8634890204582
 20
-14.92576728419376
 30
-221.500000000002
 70
   192
  0
VERTEX
  5
168E
  8
0
 10
138.9095430525173
 20
-16.02287730241017
 30
-222.5980762113539
 70
   192
  0
VERTEX
  5
168F
  8
0
 10
141.1365109795631
 20
-14.92576728419431
 30
-221.5000000000014
 70
   192
  0
VERTEX
  5
1690
  8
0
 10
141.0904569475031
 20
-16.02287730241073
 30
-222.5980762113537
 70
   192
  0
VERTEX
  5
1691
  8
0
 10
138.9724540302566
 20
-17.5215574580394
 30
-223.0
 70
   192
  0
VERTEX
  5
1692
  8
0
 10
139.6573953490218
 20
-17.50239558542248
 30
-223.0
 70
   192
  0
VERTEX
  5
1693
  8
0
 10
140.3426046509974
 20
-17.50239558542275
 30
-223.0
 70
   192
  0
VERTEX
  5
1694
  8
0
 10
141.0275459697626
 20
-17.5215574580402
 30
-223.0
 70
   192
  0
VERTEX
  5
1695
  8
0
 10
138.8466320747486
 20
-14.52419714678021
 30
-220.0
 70
   192
  0
VERTEX
  5
1696
  8
0
 10
139.6154437590865
 20
-14.50268892241326
 30
-220.0
 70
   192
  0
VERTEX
  5
1697
  8
0
 10
141.1533679252437
 20
-14.52419714677982
 30
-220.0000000000025
 70
   192
  0
VERTEX
  5
1698
  8
0
 10
140.3845562409057
 20
-14.50268892241315
 30
-220.0
 70
   192
  0
VERTEX
  5
1699
  8
0
 10
0.0
 20
0.0
 30
0.0
 70
   128
 71
     1
 72
    -2
 73
     3
  0
VERTEX
  5
169A
  8
0
 10
0.0
 20
0.0
 30
0.0
 70
   128
 71
     2
 72
     4
 73
    -3
  0
VERTEX
  5
169B
  8
0
 10
0.0
 20
0.0
 30
0.0
 70
   128
 71
     2
 72
     5
 73
     6
  0
VERTEX
  5
169C
  8
0
 10
0.0
 20
0.0
 30
0.0
 70
   128
 71
     2
 72
     6
 73
    -7
  0
VERTEX
  5
169D
  8
0
 10
0.0
 20
0.0
 30
0.0
 70
   128
 71
     4
 72
    -2
 73
     7
  0
VERTEX
  5
169E
  8
0
 10
0.0
 20
0.0
 30
0.0
 70
   128
 71
     7
 72
     8
 73
     4
  0
VERTEX
  5
169F
  8
0
 10
0.0
 20
0.0
 30
0.0
 70
   128
 71
     9
 72
     1
 73
    10
  0
VERTEX
  5
16A0
  8
0
 10
0.0
 20
0.0
 30
0.0
 70
   128
 71
     3
 72
    11
 73
    12
  0
VERTEX
  5
16A1
  8
0
 10
0.0
 20
0.0
 30
0.0
 70
   128
 71
    10
 72
     1
 73
    -3
  0
VERTEX
  5
16A2
  8
0
 10
0.0
 20
0.0
 30
0.0
 70
   128
 71
    12
 72
   -10
 73
     3
  0
SEQEND
  5
197B
  8
0
  0
POLYLINE
  5
16A3
  8
0
 66
     1
 10
0.0
 20
0.0
 30
0.0
 70
    64
 71
    12
 72
    10
  0
VERTEX
  5
16A4
  8
0
 10
176.2090408146035
 20
-29.29760767850035
 30
-222.8649575698975
 70
   192
  0
VERTEX
  5
16A5
  8
0
 10
176.2011128064038
 20
-33.20152151978627
 30
-223.1313933833396
 70
   192
  0
VERTEX
  5
16A6
  8
0
 10
175.2943778940232
 20
-36.96870749377307
 30
-223.5705388457504
 70
   192
  0
VERTEX
  5
16A7
  8
0
 10
173.9035338666415
 20
-40.65440611372922
 30
-223.8898292141872
 70
   192
  0
VERTEX
  5
16A8
  8
0
 10
173.2706064938386
 20
-40.4718978858465
 30
-223.8066939055012
 70
   192
  0
VERTEX
  5
16A9
  8
0
 10
172.6686797484801
 20
-40.30601907308264
 30
-223.5808926549807
 70
   192
  0
VERTEX
  5
16AA
  8
0
 10
172.1272358548835
 20
-40.1648943789919
 30
-223.223485152481
 70
   192
  0
VERTEX
  5
16AB
  8
0
 10
173.3040082536773
 20
-36.65226965476825
 30
-223.1548398341741
 70
   192
  0
VERTEX
  5
16AC
  8
0
 10
174.419004331875
 20
-33.03956393586202
 30
-223.0620055620745
 70
   192
  0
VERTEX
  5
16AD
  8
0
 10
175.340858271294
 20
-29.49325326158595
 30
-223.0
 70
   192
  0
VERTEX
  5
16AE
  8
0
 10
175.6341811355022
 20
-29.42715273555876
 30
-222.9848940379503
 70
   192
  0
VERTEX
  5
16AF
  8
0
 10
175.9245500503405
 20
-29.36171788422332
 30
-222.9397282785277
 70
   192
  0
VERTEX
  5
16B0
  8
0
 10
0.0
 20
0.0
 30
0.0
 70
   128
 71
     8
 72
     7
 73
     6
  0
VERTEX
  5
16B1
  8
0
 10
0.0
 20
0.0
 30
0.0
 70
   128
 71
     8
 72
     6
 73
    11
  0
VERTEX
  5
16B2
  8
0
 10
0.0
 20
0.0
 30
0.0
 70
   128
 71
    11
 72
     9
 73
     8
  0
VERTEX
  5
16B3
  8
0
 10
0.0
 20
0.0
 30
0.0
 70
   128
 71
    11
 72
    10
 73
     9
  0
VERTEX
  5
16B4
  8
0
 10
0.0
 20
0.0
 30
0.0
 70
   128
 71
     6
 72
     5
 73
    12
  0
VERTEX
  5
16B5
  8
0
 10
0.0
 20
0.0
 30
0.0
 70
   128
 71
     6
 72
    12
 73
    11
  0
VERTEX
  5
16B6
  8
0
 10
0.0
 20
0.0
 30
0.0
 70
   128
 71
     2
 72
     1
 73
    12
  0
VERTEX
  5
16B7
  8
0
 10
0.0
 20
0.0
 30
0.0
 70
   128
 71
    12
 72
     3
 73
     2
  0
VERTEX
  5
16B8
  8
0
 10
0.0
 20
0.0
 30
0.0
 70
   128
 71
    12
 72
     5
 73
     4
  0
VERTEX
  5
16B9
  8
0
 10
0.0
 20
0.0
 30
0.0
 70
   128
 71
    12
 72
     4
 73
     3
  0
SEQEND
  5
197C
  8
0
  0
POLYLINE
  5
16BA
  8
0
 66
     1
 10
0.0
 20
0.0
 30
0.0
 70
    64
 71
    12
 72
    10
  0
VERTEX
  5
16BB
  8
0
 10
138.9724540302566
 20
-17.5215574580394
 30
-223.0
 70
   192
  0
VERTEX
  5
16BC
  8
0
 10
130.0211320512667
 20
-18.81155923077112
 30
-223.0
 70
   192
  0
VERTEX
  5
16BD
  8
0
 10
121.1621557166041
 20
-20.62690916682467
 30
-223.0
 70
   192
  0
VERTEX
  5
16BE
  8
0
 10
112.48345445696
 20
-23.1054067434747
 30
-223.0
 70
   192
  0
VERTEX
  5
16BF
  8
0
 10
112.4160115780633
 20
-23.0056808089748
 30
-222.9975833926806
 70
   192
  0
VERTEX
  5
16C0
  8
0
 10
112.3486773544699
 20
-22.9061155400904
 30
-222.9903374640495
 70
   192
  0
VERTEX
  5
16C1
  8
0
 10
112.2815602664312
 20
-22.80687134359325
 30
-222.9782738878165
 70
   192
  0
VERTEX
  5
16C2
  8
0
 10
120.7530319041665
 20
-18.65610902665604
 30
-222.2246025795637
 70
   192
  0
VERTEX
  5
16C3
  8
0
 10
129.6115353038798
 20
-16.00771488256352
 30
-220.9929898949317
 70
   192
  0
VERTEX
  5
16C4
  8
0
 10
138.8466320747778
 20
-14.52419714677892
 30
-220.0000000000035
 70
   192
  0
VERTEX
  5
16C5
  8
0
 10
138.8634890204582
 20
-14.92576728419376
 30
-221.500000000002
 70
   192
  0
VERTEX
  5
16C6
  8
0
 10
138.9095430525173
 20
-16.02287730241017
 30
-222.5980762113539
 70
   192
  0
VERTEX
  5
16C7
  8
0
 10
0.0
 20
0.0
 30
0.0
 70
   128
 71
     8
 72
     7
 73
     6
  0
VERTEX
  5
16C8
  8
0
 10
0.0
 20
0.0
 30
0.0
 70
   128
 71
     6
 72
     9
 73
     8
  0
VERTEX
  5
16C9
  8
0
 10
0.0
 20
0.0
 30
0.0
 70
   128
 71
     6
 72
    11
 73
    10
  0
VERTEX
  5
16CA
  8
0
 10
0.0
 20
0.0
 30
0.0
 70
   128
 71
     6
 72
    10
 73
     9
  0
VERTEX
  5
16CB
  8
0
 10
0.0
 20
0.0
 30
0.0
 70
   128
 71
     6
 72
     5
 73
    12
  0
VERTEX
  5
16CC
  8
0
 10
0.0
 20
0.0
 30
0.0
 70
   128
 71
     6
 72
    12
 73
    11
  0
VERTEX
  5
16CD
  8
0
 10
0.0
 20
0.0
 30
0.0
 70
   128
 71
     2
 72
     1
 73
    12
  0
VERTEX
  5
16CE
  8
0
 10
0.0
 20
0.0
 30
0.0
 70
   128
 71
     2
 72
    12
 73
     5
  0
VERTEX
  5
16CF
  8
0
 10
0.0
 20
0.0
 30
0.0
 70
   128
 71
     5
 72
     3
 73
     2
  0
VERTEX
  5
16D0
  8
0
 10
0.0
 20
0.0
 30
0.0
 70
   128
 71
     5
 72
     4
 73
     3
  0
SEQEND
  5
197D
  8
0
  0
POLYLINE
  5
16D1
  8
0
 66
     1
 10
0.0
 20
0.0
 30
0.0
 70
    64
 71
    12
 72
    10
  0
VERTEX
  5
16D2
  8
0
 10
173.9035338666415
 20
-40.65440611372919
 30
-223.8898292141875
 70
   192
  0
VERTEX
  5
16D3
  8
0
 10
172.777604234466
 20
-44.40435436943298
 30
-224.0863556746951
 70
   192
  0
VERTEX
  5
16D4
  8
0
 10
171.5211369280157
 20
-48.46911195146738
 30
-224.2993805928933
 70
   192
  0
VERTEX
  5
16D5
  8
0
 10
170.1446235448925
 20
-52.81473782477216
 30
-224.5271251945082
 70
   192
  0
VERTEX
  5
16D6
  8
0
 10
169.3104855616183
 20
-52.55519854988555
 30
-224.382675227495
 70
   192
  0
VERTEX
  5
16D7
  8
0
 10
168.5490114329879
 20
-52.33194574282909
 30
-223.9898292794599
 70
   192
  0
VERTEX
  5
16D8
  8
0
 10
167.9265350827735
 20
-52.1644275163204
 30
-223.382809147561
 70
   192
  0
VERTEX
  5
16D9
  8
0
 10
169.4389224621031
 20
-47.86825573324531
 30
-223.3258729971575
 70
   192
  0
VERTEX
  5
16DA
  8
0
 10
170.8430642831511
 20
-43.85724727888413
 30
-223.2726167676078
 70
   192
  0
VERTEX
  5
16DB
  8
0
 10
172.1272358548836
 20
-40.16489437899193
 30
-223.2234851524809
 70
   192
  0
VERTEX
  5
16DC
  8
0
 10
172.6686797484801
 20
-40.30601907308264
 30
-223.5808926549807
 70
   192
  0
VERTEX
  5
16DD
  8
0
 10
173.2706064938386
 20
-40.4718978858465
 30
-223.8066939055012
 70
   192
  0
VERTEX
  5
16DE
  8
0
 10
0.0
 20
0.0
 30
0.0
 70
   128
 71
     8
 72
     7
 73
     6
  0
VERTEX
  5
16DF
  8
0
 10
0.0
 20
0.0
 30
0.0
 70
   128
 71
     6
 72
    11
 73
     9
  0
VERTEX
  5
16E0
  8
0
 10
0.0
 20
0.0
 30
0.0
 70
   128
 71
     6
 72
     9
 73
     8
  0
VERTEX
  5
16E1
  8
0
 10
0.0
 20
0.0
 30
0.0
 70
   128
 71
    11
 72
    10
 73
     9
  0
VERTEX
  5
16E2
  8
0
 10
0.0
 20
0.0
 30
0.0
 70
   128
 71
     6
 72
     5
 73
    12
  0
VERTEX
  5
16E3
  8
0
 10
0.0
 20
0.0
 30
0.0
 70
   128
 71
     6
 72
    12
 73
    11
  0
VERTEX
  5
16E4
  8
0
 10
0.0
 20
0.0
 30
0.0
 70
   128
 71
     2
 72
     1
 73
    12
  0
VERTEX
  5
16E5
  8
0
 10
0.0
 20
0.0
 30
0.0
 70
   128
 71
    12
 72
     5
 73
     3
  0
VERTEX
  5
16E6
  8
0
 10
0.0
 20
0.0
 30
0.0
 70
   128
 71
    12
 72
     3
 73
     2
  0
VERTEX
  5
16E7
  8
0
 10
0.0
 20
0.0
 30
0.0
 70
   128
 71
     5
 72
     4
 73
     3
  0
SEQEND
  5
197E
  8
0
  0
POLYLINE
  5
16E8
  8
0
 66
     1
 10
0.0
 20
0.0
 30
0.0
 70
    64
 71
    12
 72
    10
  0
VERTEX
  5
16E9
  8
0
 10
112.48345445696
 20
-23.1054067434747
 30
-223.0
 70
   192
  0
VERTEX
  5
16EA
  8
0
 10
112.0366419292565
 20
-23.38948327065528
 30
-223.0
 70
   192
  0
VERTEX
  5
16EB
  8
0
 10
111.56482906378
 20
-23.62986783827861
 30
-223.0
 70
   192
  0
VERTEX
  5
16EC
  8
0
 10
111.052434384565
 20
-23.7540110137953
 30
-223.0
 70
   192
  0
VERTEX
  5
16ED
  8
0
 10
111.052434384565
 20
-23.70165379448351
 30
-222.9995430854692
 70
   192
  0
VERTEX
  5
16EE
  8
0
 10
111.052434384565
 20
-23.64931252368791
 30
-222.9981724810573
 70
   192
  0
VERTEX
  5
16EF
  8
0
 10
111.0524343845652
 20
-23.59700314506665
 30
-222.9958886042635
 70
   192
  0
VERTEX
  5
16F0
  8
0
 10
111.3635632972532
 20
-23.47671085558956
 30
-222.9923135999828
 70
   192
  0
VERTEX
  5
16F1
  8
0
 10
111.7720314108199
 20
-23.21130249234952
 30
-222.9864210148954
 70
   192
  0
VERTEX
  5
16F2
  8
0
 10
112.2815602664313
 20
-22.8068713435932
 30
-222.9782738878163
 70
   192
  0
VERTEX
  5
16F3
  8
0
 10
112.3486773544699
 20
-22.9061155400904
 30
-222.9903374640495
 70
   192
  0
VERTEX
  5
16F4
  8
0
 10
112.4160115780633
 20
-23.0056808089748
 30
-222.9975833926806
 70
   192
  0
VERTEX
  5
16F5
  8
0
 10
0.0
 20
0.0
 30
0.0
 70
   128
 71
     8
 72
     7
 73
     6
  0
VERTEX
  5
16F6
  8
0
 10
0.0
 20
0.0
 30
0.0
 70
   128
 71
     6
 72
    11
 73
     9
  0
VERTEX
  5
16F7
  8
0
 10
0.0
 20
0.0
 30
0.0
 70
   128
 71
     6
 72
     9
 73
     8
  0
VERTEX
  5
16F8
  8
0
 10
0.0
 20
0.0
 30
0.0
 70
   128
 71
    11
 72
    10
 73
     9
  0
VERTEX
  5
16F9
  8
0
 10
0.0
 20
0.0
 30
0.0
 70
   128
 71
     6
 72
     5
 73
    12
  0
VERTEX
  5
16FA
  8
0
 10
0.0
 20
0.0
 30
0.0
 70
   128
 71
     6
 72
    12
 73
    11
  0
VERTEX
  5
16FB
  8
0
 10
0.0
 20
0.0
 30
0.0
 70
   128
 71
     2
 72
     1
 73
    12
  0
VERTEX
  5
16FC
  8
0
 10
0.0
 20
0.0
 30
0.0
 70
   128
 71
    12
 72
     5
 73
     3
  0
VERTEX
  5
16FD
  8
0
 10
0.0
 20
0.0
 30
0.0
 70
   128
 71
    12
 72
     3
 73
     2
  0
VERTEX
  5
16FE
  8
0
 10
0.0
 20
0.0
 30
0.0
 70
   128
 71
     5
 72
     4
 73
     3
  0
SEQEND
  5
197F
  8
0
  0
POLYLINE
  5
16FF
  8
0
 66
     1
 10
0.0
 20
0.0
 30
0.0
 70
    64
 71
    12
 72
    10
  0
VERTEX
  5
1700
  8
0
 10
168.5490114329879
 20
-52.33194574282909
 30
-223.9898292794599
 70
   192
  0
VERTEX
  5
1701
  8
0
 10
167.9265350827734
 20
-52.1644275163204
 30
-223.3828091475611
 70
   192
  0
VERTEX
  5
1702
  8
0
 10
151.7370036028019
 20
-69.45864690208116
 30
-223.6323748329251
 70
   192
  0
VERTEX
  5
1703
  8
0
 10
169.3104855616183
 20
-52.55519854988555
 30
-224.382675227495
 70
   192
  0
VERTEX
  5
1704
  8
0
 10
152.8692527514401
 20
-71.85153657716391
 30
-225.5248015417793
 70
   192
  0
VERTEX
  5
1705
  8
0
 10
170.1446235448925
 20
-52.8147378247721
 30
-224.527125194508
 70
   192
  0
VERTEX
  5
1706
  8
0
 10
110.6895144383812
 20
-52.55519854988553
 30
-224.382675227495
 70
   192
  0
VERTEX
  5
1707
  8
0
 10
109.855376455107
 20
-52.81473782477217
 30
-224.5271251945082
 70
   192
  0
VERTEX
  5
1708
  8
0
 10
127.0958251357482
 20
-71.8363130595676
 30
-225.5240037110292
 70
   192
  0
VERTEX
  5
1709
  8
0
 10
111.4509885670116
 20
-52.33194574282903
 30
-223.9898292794599
 70
   192
  0
VERTEX
  5
170A
  8
0
 10
128.2262600574749
 20
-69.44223730783587
 30
-223.6321384366856
 70
   192
  0
VERTEX
  5
170B
  8
0
 10
112.0734649172262
 20
-52.1644275163204
 30
-223.382809147561
 70
   192
  0
VERTEX
  5
170C
  8
0
 10
0.0
 20
0.0
 30
0.0
 70
   128
 71
     1
 72
     2
 73
     3
  0
VERTEX
  5
170D
  8
0
 10
0.0
 20
0.0
 30
0.0
 70
   128
 71
     3
 72
     4
 73
     1
  0
VERTEX
  5
170E
  8
0
 10
0.0
 20
0.0
 30
0.0
 70
   128
 71
     3
 72
     5
 73
     4
  0
VERTEX
  5
170F
  8
0
 10
0.0
 20
0.0
 30
0.0
 70
   128
 71
     5
 72
     6
 73
     4
  0
VERTEX
  5
1710
  8
0
 10
0.0
 20
0.0
 30
0.0
 70
   128
 71
     7
 72
     8
 73
     9
  0
VERTEX
  5
1711
  8
0
 10
0.0
 20
0.0
 30
0.0
 70
   128
 71
     9
 72
    10
 73
     7
  0
VERTEX
  5
1712
  8
0
 10
0.0
 20
0.0
 30
0.0
 70
   128
 71
     9
 72
    11
 73
    10
  0
VERTEX
  5
1713
  8
0
 10
0.0
 20
0.0
 30
0.0
 70
   128
 71
    11
 72
    12
 73
    10
  0
VERTEX
  5
1714
  8
0
 10
0.0
 20
0.0
 30
0.0
 70
   128
 71
     9
 72
     3
 73
    11
  0
VERTEX
  5
1715
  8
0
 10
0.0
 20
0.0
 30
0.0
 70
   128
 71
     5
 72
     3
 73
     9
  0
SEQEND
  5
1980
  8
0
  0
POLYLINE
  5
1716
  8
0
 66
     1
 10
0.0
 20
0.0
 30
0.0
 70
    64
 71
     8
 72
     6
  0
VERTEX
  5
1717
  8
0
 10
102.5702283832668
 20
-23.64931252368779
 30
-222.9981724810573
 70
   192
  0
VERTEX
  5
1718
  8
0
 10
102.5702283832668
 20
-23.70165379448347
 30
-222.9995430854692
 70
   192
  0
VERTEX
  5
1719
  8
0
 10
111.052434384565
 20
-23.70165379448351
 30
-222.9995430854692
 70
   192
  0
VERTEX
  5
171A
  8
0
 10
111.052434384565
 20
-23.64931252368791
 30
-222.9981724810573
 70
   192
  0
VERTEX
  5
171B
  8
0
 10
102.5702283832668
 20
-23.75401101379535
 30
-223.0
 70
   192
  0
VERTEX
  5
171C
  8
0
 10
111.052434384565
 20
-23.7540110137953
 30
-223.0
 70
   192
  0
VERTEX
  5
171D
  8
0
 10
102.5702283832668
 20
-23.5970031450665
 30
-222.9958886042635
 70
   192
  0
VERTEX
  5
171E
  8
0
 10
111.052434384565
 20
-23.59700314506664
 30
-222.9958886042637
 70
   192
  0
VERTEX
  5
171F
  8
0
 10
0.0
 20
0.0
 30
0.0
 70
   128
 71
     1
 72
     2
 73
    -3
  0
VERTEX
  5
1720
  8
0
 10
0.0
 20
0.0
 30
0.0
 70
   128
 71
     4
 72
    -1
 73
     3
  0
VERTEX
  5
1721
  8
0
 10
0.0
 20
0.0
 30
0.0
 70
   128
 71
     2
 72
     5
 73
    -6
  0
VERTEX
  5
1722
  8
0
 10
0.0
 20
0.0
 30
0.0
 70
   128
 71
     3
 72
    -2
 73
     6
  0
VERTEX
  5
1723
  8
0
 10
0.0
 20
0.0
 30
0.0
 70
   128
 71
     7
 72
     1
 73
    -4
  0
VERTEX
  5
1724
  8
0
 10
0.0
 20
0.0
 30
0.0
 70
   128
 71
     8
 72
    -7
 73
     4
  0
SEQEND
  5
1981
  8
0
  0
POLYLINE
  5
1725
  8
0
 66
     1
 10
0.0
 20
0.0
 30
0.0
 70
    64
 71
    12
 72
    10
  0
VERTEX
  5
1726
  8
0
 10
109.855376455107
 20
-52.81473782477219
 30
-224.527125194508
 70
   192
  0
VERTEX
  5
1727
  8
0
 10
105.0933980834797
 20
-37.19158332574851
 30
-223.7083503618184
 70
   192
  0
VERTEX
  5
1728
  8
0
 10
102.551144277449
 20
-26.99564819023713
 30
-223.1740040436524
 70
   192
  0
VERTEX
  5
1729
  8
0
 10
102.5702283832668
 20
-23.59700314506644
 30
-222.9958886042637
 70
   192
  0
VERTEX
  5
172A
  8
0
 10
102.5702283832668
 20
-23.64931252368779
 30
-222.9981724810573
 70
   192
  0
VERTEX
  5
172B
  8
0
 10
102.5702283832668
 20
-23.70165379448347
 30
-222.9995430854692
 70
   192
  0
VERTEX
  5
172C
  8
0
 10
102.5702283832668
 20
-23.75401101379535
 30
-223.0
 70
   192
  0
VERTEX
  5
172D
  8
0
 10
103.3813180633624
 20
-26.84446607176199
 30
-223.0444484319088
 70
   192
  0
VERTEX
  5
172E
  8
0
 10
106.5827802540381
 20
-36.42423817928824
 30
-223.1735720454229
 70
   192
  0
VERTEX
  5
172F
  8
0
 10
112.0734649172262
 20
-52.16442751632033
 30
-223.3828091475609
 70
   192
  0
VERTEX
  5
1730
  8
0
 10
111.4509885670116
 20
-52.33194574282903
 30
-223.9898292794599
 70
   192
  0
VERTEX
  5
1731
  8
0
 10
110.6895144383812
 20
-52.55519854988553
 30
-224.382675227495
 70
   192
  0
VERTEX
  5
1732
  8
0
 10
0.0
 20
0.0
 30
0.0
 70
   128
 71
     8
 72
     7
 73
     6
  0
VERTEX
  5
1733
  8
0
 10
0.0
 20
0.0
 30
0.0
 70
   128
 71
     6
 72
    11
 73
     9
  0
VERTEX
  5
1734
  8
0
 10
0.0
 20
0.0
 30
0.0
 70
   128
 71
     6
 72
     9
 73
     8
  0
VERTEX
  5
1735
  8
0
 10
0.0
 20
0.0
 30
0.0
 70
   128
 71
    11
 72
    10
 73
     9
  0
VERTEX
  5
1736
  8
0
 10
0.0
 20
0.0
 30
0.0
 70
   128
 71
     6
 72
     5
 73
    12
  0
VERTEX
  5
1737
  8
0
 10
0.0
 20
0.0
 30
0.0
 70
   128
 71
     6
 72
    12
 73
    11
  0
VERTEX
  5
1738
  8
0
 10
0.0
 20
0.0
 30
0.0
 70
   128
 71
     2
 72
     1
 73
    12
  0
VERTEX
  5
1739
  8
0
 10
0.0
 20
0.0
 30
0.0
 70
   128
 71
    12
 72
     5
 73
     3
  0
VERTEX
  5
173A
  8
0
 10
0.0
 20
0.0
 30
0.0
 70
   128
 71
    12
 72
     3
 73
     2
  0
VERTEX
  5
173B
  8
0
 10
0.0
 20
0.0
 30
0.0
 70
   128
 71
     5
 72
     4
 73
     3
  0
SEQEND
  5
1982
  8
0
  0
POLYLINE
  5
173C
  8
0
 66
     1
 10
0.0
 20
0.0
 30
0.0
 70
    64
 71
    10
 72
     8
  0
VERTEX
  5
173D
  8
0
 10
148.0
 20
-42.0
 30
-244.0
 70
   192
  0
VERTEX
  5
173E
  8
0
 10
132.0
 20
-42.0
 30
-244.0
 70
   192
  0
VERTEX
  5
173F
  8
0
 10
132.0
 20
-42.0
 30
-223.0
 70
   192
  0
VERTEX
  5
1740
  8
0
 10
148.0
 20
-42.0
 30
-223.0
 70
   192
  0
VERTEX
  5
1741
  8
0
 10
140.0
 20
-33.99999999999999
 30
-223.0
 70
   192
  0
VERTEX
  5
1742
  8
0
 10
140.0
 20
-33.99999999999999
 30
-244.0
 70
   192
  0
VERTEX
  5
1743
  8
0
 10
145.6568542494924
 20
-36.34314575050762
 30
-223.0
 70
   192
  0
VERTEX
  5
1744
  8
0
 10
145.6568542494924
 20
-36.34314575050762
 30
-244.0
 70
   192
  0
VERTEX
  5
1745
  8
0
 10
134.3431457505076
 20
-36.34314575050762
 30
-223.0
 70
   192
  0
VERTEX
  5
1746
  8
0
 10
134.3431457505076
 20
-36.34314575050762
 30
-244.0
 70
   192
  0
VERTEX
  5
1747
  8
0
 10
0.0
 20
0.0
 30
0.0
 70
   128
 71
     8
 72
     1
 73
    -4
  0
VERTEX
  5
1748
  8
0
 10
0.0
 20
0.0
 30
0.0
 70
   128
 71
     7
 72
    -8
 73
     4
  0
VERTEX
  5
1749
  8
0
 10
0.0
 20
0.0
 30
0.0
 70
   128
 71
     6
 72
     8
 73
    -7
  0
VERTEX
  5
174A
  8
0
 10
0.0
 20
0.0
 30
0.0
 70
   128
 71
     5
 72
    -6
 73
     7
  0
VERTEX
  5
174B
  8
0
 10
0.0
 20
0.0
 30
0.0
 70
   128
 71
    10
 72
     6
 73
    -5
  0
VERTEX
  5
174C
  8
0
 10
0.0
 20
0.0
 30
0.0
 70
   128
 71
     9
 72
   -10
 73
     5
  0
VERTEX
  5
174D
  8
0
 10
0.0
 20
0.0
 30
0.0
 70
   128
 71
     3
 72
     2
 73
   -10
  0
VERTEX
  5
174E
  8
0
 10
0.0
 20
0.0
 30
0.0
 70
   128
 71
     9
 72
    -3
 73
    10
  0
SEQEND
  5
1983
  8
0
  0
POLYLINE
  5
174F
  8
0
 66
     1
 10
0.0
 20
0.0
 30
0.0
 70
    64
 71
    10
 72
     8
  0
VERTEX
  5
1750
  8
0
 10
-132.0
 20
-42.0
 30
-244.0
 70
   192
  0
VERTEX
  5
1751
  8
0
 10
-148.0
 20
-42.0
 30
-244.0
 70
   192
  0
VERTEX
  5
1752
  8
0
 10
-148.0
 20
-42.0
 30
-223.0
 70
   192
  0
VERTEX
  5
1753
  8
0
 10
-132.0
 20
-42.0
 30
-223.0
 70
   192
  0
VERTEX
  5
1754
  8
0
 10
-140.0
 20
-33.99999999999999
 30
-223.0
 70
   192
  0
VERTEX
  5
1755
  8
0
 10
-140.0
 20
-33.99999999999999
 30
-244.0
 70
   192
  0
VERTEX
  5
1756
  8
0
 10
-134.3431457505076
 20
-36.34314575050762
 30
-223.0
 70
   192
  0
VERTEX
  5
1757
  8
0
 10
-134.3431457505076
 20
-36.34314575050762
 30
-244.0
 70
   192
  0
VERTEX
  5
1758
  8
0
 10
-145.6568542494924
 20
-36.34314575050762
 30
-223.0
 70
   192
  0
VERTEX
  5
1759
  8
0
 10
-145.6568542494924
 20
-36.34314575050762
 30
-244.0
 70
   192
  0
VERTEX
  5
175A
  8
0
 10
0.0
 20
0.0
 30
0.0
 70
   128
 71
     8
 72
     1
 73
    -4
  0
VERTEX
  5
175B
  8
0
 10
0.0
 20
0.0
 30
0.0
 70
   128
 71
     7
 72
    -8
 73
     4
  0
VERTEX
  5
175C
  8
0
 10
0.0
 20
0.0
 30
0.0
 70
   128
 71
     6
 72
     8
 73
    -7
  0
VERTEX
  5
175D
  8
0
 10
0.0
 20
0.0
 30
0.0
 70
   128
 71
     5
 72
    -6
 73
     7
  0
VERTEX
  5
175E
  8
0
 10
0.0
 20
0.0
 30
0.0
 70
   128
 71
    10
 72
     6
 73
    -5
  0
VERTEX
  5
175F
  8
0
 10
0.0
 20
0.0
 30
0.0
 70
   128
 71
     9
 72
   -10
 73
     5
  0
VERTEX
  5
1760
  8
0
 10
0.0
 20
0.0
 30
0.0
 70
   128
 71
     3
 72
     2
 73
   -10
  0
VERTEX
  5
1761
  8
0
 10
0.0
 20
0.0
 30
0.0
 70
   128
 71
     9
 72
    -3
 73
    10
  0
SEQEND
  5
1984
  8
0
  0
POLYLINE
  5
1762
  8
0
 66
     1
 10
0.0
 20
0.0
 30
0.0
 70
    64
 71
    12
 72
    10
  0
VERTEX
  5
1763
  8
0
 10
-22.04808831473975
 20
-97.5240522944975
 30
-51.24777265411569
 70
   192
  0
VERTEX
  5
1764
  8
0
 10
-0.000000000027376
 20
-96.92253411614641
 30
-55.8952942289501
 70
   192
  0
VERTEX
  5
1765
  8
0
 10
0.0000000000000067
 20
-102.0
 30
-55.0
 70
   192
  0
VERTEX
  5
1766
  8
0
 10
-38.89087296526011
 20
-102.0
 30
-38.89087296526012
 70
   192
  0
VERTEX
  5
1767
  8
0
 10
-55.0
 20
-102.0
 30
-0.0000000000000061
 70
   192
  0
VERTEX
  5
1768
  8
0
 10
-52.8001688195511
 20
-98.2536499368863
 30
-17.6137056713165
 70
   192
  0
VERTEX
  5
1769
  8
0
 10
-41.08181789479458
 20
-98.4996569315512
 30
-37.49076817213332
 70
   192
  0
VERTEX
  5
176A
  8
0
 10
-38.89087296526012
 20
-102.0
 30
38.89087296526011
 70
   192
  0
VERTEX
  5
176B
  8
0
 10
-0.0000000000000061
 20
-102.0
 30
55.0
 70
   192
  0
VERTEX
  5
176C
  8
0
 10
0.0
 20
-96.9225341161463
 30
55.89529422895016
 70
   192
  0
VERTEX
  5
176D
  8
0
 10
-32.89062001886802
 20
-98.15286510753977
 30
44.92535137740534
 70
   192
  0
VERTEX
  5
176E
  8
0
 10
-53.44258638116416
 20
-98.20443178804715
 30
15.58731638620554
 70
   192
  0
VERTEX
  5
176F
  8
0
 10
0.0
 20
0.0
 30
0.0
 70
   128
 71
     1
 72
     2
 73
     3
  0
VERTEX
  5
1770
  8
0
 10
0.0
 20
0.0
 30
0.0
 70
   128
 71
     1
 72
     3
 73
     4
  0
VERTEX
  5
1771
  8
0
 10
0.0
 20
0.0
 30
0.0
 70
   128
 71
     4
 72
     5
 73
     6
  0
VERTEX
  5
1772
  8
0
 10
0.0
 20
0.0
 30
0.0
 70
   128
 71
     4
 72
     6
 73
     7
  0
VERTEX
  5
1773
  8
0
 10
0.0
 20
0.0
 30
0.0
 70
   128
 71
     8
 72
     9
 73
    10
  0
VERTEX
  5
1774
  8
0
 10
0.0
 20
0.0
 30
0.0
 70
   128
 71
     8
 72
    10
 73
    11
  0
VERTEX
  5
1775
  8
0
 10
0.0
 20
0.0
 30
0.0
 70
   128
 71
     1
 72
     4
 73
     7
  0
VERTEX
  5
1776
  8
0
 10
0.0
 20
0.0
 30
0.0
 70
   128
 71
     6
 72
     5
 73
    12
  0
VERTEX
  5
1777
  8
0
 10
0.0
 20
0.0
 30
0.0
 70
   128
 71
    12
 72
     5
 73
     8
  0
VERTEX
  5
1778
  8
0
 10
0.0
 20
0.0
 30
0.0
 70
   128
 71
    12
 72
     8
 73
    11
  0
SEQEND
  5
1985
  8
0
  0
POLYLINE
  5
1779
  8
0
 66
     1
 10
0.0
 20
0.0
 30
0.0
 70
    64
 71
    16
 72
    16
  0
VERTEX
  5
177A
  8
0
 10
0.0000000000000067
 20
-102.0
 30
-55.0
 70
   192
  0
VERTEX
  5
177B
  8
0
 10
-38.89087296526011
 20
-102.0
 30
-38.89087296526012
 70
   192
  0
VERTEX
  5
177C
  8
0
 10
-55.0
 20
-102.0
 30
-0.0000000000000061
 70
   192
  0
VERTEX
  5
177D
  8
0
 10
-38.89087296526012
 20
-102.0
 30
38.89087296526011
 70
   192
  0
VERTEX
  5
177E
  8
0
 10
0.0
 20
-102.0
 30
55.0
 70
   192
  0
VERTEX
  5
177F
  8
0
 10
38.89087296526012
 20
-102.0
 30
38.89087296526012
 70
   192
  0
VERTEX
  5
1780
  8
0
 10
55.00000000000001
 20
-102.0
 30
0.0
 70
   192
  0
VERTEX
  5
1781
  8
0
 10
38.89087296526012
 20
-102.0
 30
-38.89087296526012
 70
   192
  0
VERTEX
  5
1782
  8
0
 10
0.0000000000000027
 20
-102.0
 30
22.0
 70
   192
  0
VERTEX
  5
1783
  8
0
 10
-15.55634918610404
 20
-102.0
 30
15.55634918610405
 70
   192
  0
VERTEX
  5
1784
  8
0
 10
-22.0
 20
-102.0
 30
0.0000000000000024
 70
   192
  0
VERTEX
  5
1785
  8
0
 10
-15.55634918610405
 20
-102.0
 30
-15.55634918610404
 70
   192
  0
VERTEX
  5
1786
  8
0
 10
0.0
 20
-102.0
 30
-22.0
 70
   192
  0
VERTEX
  5
1787
  8
0
 10
15.55634918610405
 20
-102.0
 30
-15.55634918610405
 70
   192
  0
VERTEX
  5
1788
  8
0
 10
22.0
 20
-102.0
 30
0.0
 70
   192
  0
VERTEX
  5
1789
  8
0
 10
15.55634918610405
 20
-102.0
 30
15.55634918610405
 70
   192
  0
VERTEX
  5
178A
  8
0
 10
0.0
 20
0.0
 30
0.0
 70
   128
 71
    10
 72
    -9
 73
    -5
  0
VERTEX
  5
178B
  8
0
 10
0.0
 20
0.0
 30
0.0
 70
   128
 71
   -10
 72
     5
 73
    -4
  0
VERTEX
  5
178C
  8
0
 10
0.0
 20
0.0
 30
0.0
 70
   128
 71
     4
 72
    -3
 73
   -11
  0
VERTEX
  5
178D
  8
0
 10
0.0
 20
0.0
 30
0.0
 70
   128
 71
    -4
 72
    11
 73
   -10
  0
VERTEX
  5
178E
  8
0
 10
0.0
 20
0.0
 30
0.0
 70
   128
 71
     3
 72
    -2
 73
   -12
  0
VERTEX
  5
178F
  8
0
 10
0.0
 20
0.0
 30
0.0
 70
   128
 71
    -3
 72
    12
 73
   -11
  0
VERTEX
  5
1790
  8
0
 10
0.0
 20
0.0
 30
0.0
 70
   128
 71
     2
 72
    -1
 73
   -13
  0
VERTEX
  5
1791
  8
0
 10
0.0
 20
0.0
 30
0.0
 70
   128
 71
    -2
 72
    13
 73
   -12
  0
VERTEX
  5
1792
  8
0
 10
0.0
 20
0.0
 30
0.0
 70
   128
 71
     1
 72
    -8
 73
   -14
  0
VERTEX
  5
1793
  8
0
 10
0.0
 20
0.0
 30
0.0
 70
   128
 71
    -1
 72
    14
 73
   -13
  0
VERTEX
  5
1794
  8
0
 10
0.0
 20
0.0
 30
0.0
 70
   128
 71
     8
 72
    -7
 73
   -15
  0
VERTEX
  5
1795
  8
0
 10
0.0
 20
0.0
 30
0.0
 70
   128
 71
    -8
 72
    15
 73
   -14
  0
VERTEX
  5
1796
  8
0
 10
0.0
 20
0.0
 30
0.0
 70
   128
 71
     7
 72
    -6
 73
   -16
  0
VERTEX
  5
1797
  8
0
 10
0.0
 20
0.0
 30
0.0
 70
   128
 71
    -7
 72
    16
 73
   -15
  0
VERTEX
  5
1798
  8
0
 10
0.0
 20
0.0
 30
0.0
 70
   128
 71
     6
 72
    -5
 73
    -9
  0
VERTEX
  5
1799
  8
0
 10
0.0
 20
0.0
 30
0.0
 70
   128
 71
    -6
 72
     9
 73
   -16
  0
SEQEND
  5
1986
  8
0
  0
POLYLINE
  5
179A
  8
0
 66
     1
 10
0.0
 20
0.0
 30
0.0
 70
    64
 71
    10
 72
     8
  0
VERTEX
  5
179B
  8
0
 10
0.0
 20
-13.0
 30
-166.5
 70
   192
  0
VERTEX
  5
179C
  8
0
 10
0.0000000000000021
 20
-13.0
 30
-201.5
 70
   192
  0
VERTEX
  5
179D
  8
0
 10
0.0000000000000021
 20
0.0
 30
-201.5
 70
   192
  0
VERTEX
  5
179E
  8
0
 10
0.0
 20
0.0
 30
-166.5
 70
   192
  0
VERTEX
  5
179F
  8
0
 10
17.50000000000002
 20
0.0
 30
-184.0
 70
   192
  0
VERTEX
  5
17A0
  8
0
 10
17.50000000000002
 20
-13.0
 30
-184.0
 70
   192
  0
VERTEX
  5
17A1
  8
0
 10
12.37436867076459
 20
0.0
 30
-171.6256313292354
 70
   192
  0
VERTEX
  5
17A2
  8
0
 10
12.37436867076459
 20
-13.0
 30
-171.6256313292354
 70
   192
  0
VERTEX
  5
17A3
  8
0
 10
12.37436867076459
 20
0.0
 30
-196.3743686707646
 70
   192
  0
VERTEX
  5
17A4
  8
0
 10
12.37436867076459
 20
-13.0
 30
-196.3743686707646
 70
   192
  0
VERTEX
  5
17A5
  8
0
 10
0.0
 20
0.0
 30
0.0
 70
   128
 71
     8
 72
     1
 73
    -4
  0
VERTEX
  5
17A6
  8
0
 10
0.0
 20
0.0
 30
0.0
 70
   128
 71
     7
 72
    -8
 73
     4
  0
VERTEX
  5
17A7
  8
0
 10
0.0
 20
0.0
 30
0.0
 70
   128
 71
     6
 72
     8
 73
    -7
  0
VERTEX
  5
17A8
  8
0
 10
0.0
 20
0.0
 30
0.0
 70
   128
 71
     5
 72
    -6
 73
     7
  0
VERTEX
  5
17A9
  8
0
 10
0.0
 20
0.0
 30
0.0
 70
   128
 71
    10
 72
     6
 73
    -5
  0
VERTEX
  5
17AA
  8
0
 10
0.0
 20
0.0
 30
0.0
 70
   128
 71
     9
 72
   -10
 73
     5
  0
VERTEX
  5
17AB
  8
0
 10
0.0
 20
0.0
 30
0.0
 70
   128
 71
     3
 72
     2
 73
   -10
  0
VERTEX
  5
17AC
  8
0
 10
0.0
 20
0.0
 30
0.0
 70
   128
 71
     9
 72
    -3
 73
    10
  0
SEQEND
  5
1987
  8
0
  0
POLYLINE
  5
17AD
  8
0
 66
     1
 10
0.0
 20
0.0
 30
0.0
 70
    64
 71
    24
 72
    22
  0
VERTEX
  5
17AE
  8
0
 10
49.53587867463714
 20
-0.0000000000000043
 30
-145.5240097522706
 70
   192
  0
VERTEX
  5
17AF
  8
0
 10
-98.87607723451886
 20
0.0000000000000052
 30
-143.8087897915545
 70
   192
  0
VERTEX
  5
17B0
  8
0
 10
25.28085022151483
 20
-1.921271046863148
 30
-143.0384037267758
 70
   192
  0
VERTEX
  5
17B1
  8
0
 10
-168.3293165627345
 20
0.0000000000000061
 30
-121.8991840438525
 70
   192
  0
VERTEX
  5
17B2
  8
0
 10
-109.3941326946587
 20
-1.661116113843334
 30
-140.1865512720824
 70
   192
  0
VERTEX
  5
17B3
  8
0
 10
-188.9482219708355
 20
0.0
 30
-52.0231733998806
 70
   192
  0
VERTEX
  5
17B4
  8
0
 10
-188.066649412372
 20
-0.132604032463298
 30
-51.99367442501093
 70
   192
  0
VERTEX
  5
17B5
  8
0
 10
-170.552027324468
 20
-1.014350858560616
 30
-116.1859152812971
 70
   192
  0
VERTEX
  5
17B6
  8
0
 10
-187.263010238016
 20
-0.5186935769028329
 30
-51.9667832388221
 70
   192
  0
VERTEX
  5
17B7
  8
0
 10
-186.6083483112109
 20
-1.124137279662208
 30
-51.94487709446501
 70
   192
  0
VERTEX
  5
17B8
  8
0
 10
187.1058587979395
 20
-1.161291877003942
 30
-0.0000000000000076
 70
   192
  0
VERTEX
  5
17B9
  8
0
 10
187.0553993266938
 20
-1.157652348049765
 30
16.33632300007476
 70
   192
  0
VERTEX
  5
17BA
  8
0
 10
187.3634393505026
 20
-0.5211472900585772
 30
48.51204196542966
 70
   192
  0
VERTEX
  5
17BB
  8
0
 10
186.9577360232498
 20
-1.146896630132022
 30
32.87973079587265
 70
   192
  0
VERTEX
  5
17BC
  8
0
 10
186.7081694436908
 20
-1.129246654216758
 30
48.49438077288397
 70
   192
  0
VERTEX
  5
17BD
  8
0
 10
188.1687571725676
 20
-0.1332459008641802
 30
48.53374733136835
 70
   192
  0
VERTEX
  5
17BE
  8
0
 10
189.0525860440969
 20
-0.0000000000000089
 30
48.557568770008
 70
   192
  0
VERTEX
  5
17BF
  8
0
 10
181.7947544704027
 20
0.0000000000000013
 30
-100.6281929166446
 70
   192
  0
VERTEX
  5
17C0
  8
0
 10
158.7096145223761
 20
0.0000000000000091
 30
-129.2612704104098
 70
   192
  0
VERTEX
  5
17C1
  8
0
 10
157.9282743264621
 20
-1.155354421934561
 30
-126.9648800450243
 70
   192
  0
VERTEX
  5
17C2
  8
0
 10
179.1855293976835
 20
-1.000244222388325
 30
-101.2008612323359
 70
   192
  0
VERTEX
  5
17C3
  8
0
 10
123.4400801586161
 20
-0.0000000000000061
 30
-141.007281998605
 70
   192
  0
VERTEX
  5
17C4
  8
0
 10
92.59637854438091
 20
-1.752389030787026
 30
-141.4822814955156
 70
   192
  0
VERTEX
  5
17C5
  8
0
 10
185.7574860333828
 20
-1.093369755378909
 30
-67.95434748616626
 70
   192
  0
VERTEX
  5
17C6
  8
0
 10
0.0
 20
0.0
 30
0.0
 70
   128
 71
     1
 72
     2
 73
     3
  0
VERTEX
  5
17C7
  8
0
 10
0.0
 20
0.0
 30
0.0
 70
   128
 71
     2
 72
     4
 73
     5
  0
VERTEX
  5
17C8
  8
0
 10
0.0
 20
0.0
 30
0.0
 70
   128
 71
     4
 72
     6
 73
     7
  0
VERTEX
  5
17C9
  8
0
 10
0.0
 20
0.0
 30
0.0
 70
   128
 71
     8
 72
     7
 73
     9
  0
VERTEX
  5
17CA
  8
0
 10
0.0
 20
0.0
 30
0.0
 70
   128
 71
     9
 72
    10
 73
     8
  0
VERTEX
  5
17CB
  8
0
 10
0.0
 20
0.0
 30
0.0
 70
   128
 71
    11
 72
    12
 73
    13
  0
VERTEX
  5
17CC
  8
0
 10
0.0
 20
0.0
 30
0.0
 70
   128
 71
    12
 72
    14
 73
    13
  0
VERTEX
  5
17CD
  8
0
 10
0.0
 20
0.0
 30
0.0
 70
   128
 71
    14
 72
    15
 73
    13
  0
VERTEX
  5
17CE
  8
0
 10
0.0
 20
0.0
 30
0.0
 70
   128
 71
    16
 72
    17
 73
    18
  0
VERTEX
  5
17CF
  8
0
 10
0.0
 20
0.0
 30
0.0
 70
   128
 71
    19
 72
    20
 73
    21
  0
VERTEX
  5
17D0
  8
0
 10
0.0
 20
0.0
 30
0.0
 70
   128
 71
    18
 72
    19
 73
    21
  0
VERTEX
  5
17D1
  8
0
 10
0.0
 20
0.0
 30
0.0
 70
   128
 71
    19
 72
    22
 73
    20
  0
VERTEX
  5
17D2
  8
0
 10
0.0
 20
0.0
 30
0.0
 70
   128
 71
    22
 72
     1
 73
    23
  0
VERTEX
  5
17D3
  8
0
 10
0.0
 20
0.0
 30
0.0
 70
   128
 71
     3
 72
    23
 73
     1
  0
VERTEX
  5
17D4
  8
0
 10
0.0
 20
0.0
 30
0.0
 70
   128
 71
     5
 72
     3
 73
     2
  0
VERTEX
  5
17D5
  8
0
 10
0.0
 20
0.0
 30
0.0
 70
   128
 71
    18
 72
    21
 73
    24
  0
VERTEX
  5
17D6
  8
0
 10
0.0
 20
0.0
 30
0.0
 70
   128
 71
    16
 72
    18
 73
    24
  0
VERTEX
  5
17D7
  8
0
 10
0.0
 20
0.0
 30
0.0
 70
   128
 71
    11
 72
    13
 73
    16
  0
VERTEX
  5
17D8
  8
0
 10
0.0
 20
0.0
 30
0.0
 70
   128
 71
    24
 72
    11
 73
    16
  0
VERTEX
  5
17D9
  8
0
 10
0.0
 20
0.0
 30
0.0
 70
   128
 71
    23
 72
    20
 73
    22
  0
VERTEX
  5
17DA
  8
0
 10
0.0
 20
0.0
 30
0.0
 70
   128
 71
     4
 72
     7
 73
     8
  0
VERTEX
  5
17DB
  8
0
 10
0.0
 20
0.0
 30
0.0
 70
   128
 71
     5
 72
     4
 73
     8
  0
SEQEND
  5
1988
  8
0
  0
POLYLINE
  5
17DC
  8
0
 66
     1
 10
0.0
 20
0.0
 30
0.0
 70
    64
 71
    11
 72
     9
  0
VERTEX
  5
17DD
  8
0
 10
200.0
 20
-100.0
 30
153.000456914531
 70
   192
  0
VERTEX
  5
17DE
  8
0
 10
198.2887943712594
 20
-1.96509518712547
 30
151.2892512857904
 70
   192
  0
VERTEX
  5
17DF
  8
0
 10
198.1787802385486
 20
-1.957002368570762
 30
152.0930068037598
 70
   192
  0
VERTEX
  5
17E0
  8
0
 10
196.0930068037585
 20
-1.957002368570734
 30
154.178780238549
 70
   192
  0
VERTEX
  5
17E1
  8
0
 10
195.2892512857905
 20
-1.965095187125415
 30
154.2887943712595
 70
   192
  0
VERTEX
  5
17E2
  8
0
 10
197.0004569145306
 20
-100.0
 30
156.0000000000001
 70
   192
  0
VERTEX
  5
17E3
  8
0
 10
199.6168607035799
 20
-100.0
 30
154.4674428143204
 70
   192
  0
VERTEX
  5
17E4
  8
0
 10
197.8722447038642
 20
-1.952187246874047
 30
152.8134629481642
 70
   192
  0
VERTEX
  5
17E5
  8
0
 10
197.41005171968
 20
-1.95064465615391
 30
153.4100517196805
 70
   192
  0
VERTEX
  5
17E6
  8
0
 10
198.4674428143202
 20
-100.0
 30
155.6168607035801
 70
   192
  0
VERTEX
  5
17E7
  8
0
 10
196.813462948163
 20
-1.952187246874043
 30
153.8722447038649
 70
   192
  0
VERTEX
  5
17E8
  8
0
 10
0.0
 20
0.0
 30
0.0
 70
   128
 71
     1
 72
     2
 73
     3
  0
VERTEX
  5
17E9
  8
0
 10
0.0
 20
0.0
 30
0.0
 70
   128
 71
     4
 72
     5
 73
     6
  0
VERTEX
  5
17EA
  8
0
 10
0.0
 20
0.0
 30
0.0
 70
   128
 71
     7
 72
     8
 73
     9
  0
VERTEX
  5
17EB
  8
0
 10
0.0
 20
0.0
 30
0.0
 70
   128
 71
     7
 72
     9
 73
    10
  0
VERTEX
  5
17EC
  8
0
 10
0.0
 20
0.0
 30
0.0
 70
   128
 71
     3
 72
     8
 73
     7
  0
VERTEX
  5
17ED
  8
0
 10
0.0
 20
0.0
 30
0.0
 70
   128
 71
     1
 72
     3
 73
     7
  0
VERTEX
  5
17EE
  8
0
 10
0.0
 20
0.0
 30
0.0
 70
   128
 71
     6
 72
    10
 73
     9
  0
VERTEX
  5
17EF
  8
0
 10
0.0
 20
0.0
 30
0.0
 70
   128
 71
     6
 72
     9
 73
    11
  0
VERTEX
  5
17F0
  8
0
 10
0.0
 20
0.0
 30
0.0
 70
   128
 71
    11
 72
     4
 73
     6
  0
SEQEND
  5
1989
  8
0
  0
POLYLINE
  5
17F1
  8
0
 66
     1
 10
0.0
 20
0.0
 30
0.0
 70
    64
 71
    11
 72
     9
  0
VERTEX
  5
17F2
  8
0
 10
-197.000456914531
 20
-100.0
 30
156.0
 70
   192
  0
VERTEX
  5
17F3
  8
0
 10
-195.2892512857904
 20
-1.965095187125456
 30
154.2887943712594
 70
   192
  0
VERTEX
  5
17F4
  8
0
 10
-196.0930068037592
 20
-1.95700236857077
 30
154.1787802385487
 70
   192
  0
VERTEX
  5
17F5
  8
0
 10
-198.1787802385489
 20
-1.957002368570733
 30
152.0930068037586
 70
   192
  0
VERTEX
  5
17F6
  8
0
 10
-198.2887943712595
 20
-1.965095187125415
 30
151.2892512857905
 70
   192
  0
VERTEX
  5
17F7
  8
0
 10
-200.0000000000001
 20
-100.0
 30
153.0004569145306
 70
   192
  0
VERTEX
  5
17F8
  8
0
 10
-198.4674428143206
 20
-100.0
 30
155.6168607035801
 70
   192
  0
VERTEX
  5
17F9
  8
0
 10
-196.8134629481636
 20
-1.952187246874051
 30
153.8722447038645
 70
   192
  0
VERTEX
  5
17FA
  8
0
 10
-197.4100517196805
 20
-1.95064465615391
 30
153.4100517196805
 70
   192
  0
VERTEX
  5
17FB
  8
0
 10
-199.6168607035803
 20
-100.0
 30
154.4674428143204
 70
   192
  0
VERTEX
  5
17FC
  8
0
 10
-197.8722447038649
 20
-1.952187246874042
 30
152.813462948163
 70
   192
  0
VERTEX
  5
17FD
  8
0
 10
0.0
 20
0.0
 30
0.0
 70
   128
 71
     1
 72
     2
 73
     3
  0
VERTEX
  5
17FE
  8
0
 10
0.0
 20
0.0
 30
0.0
 70
   128
 71
     4
 72
     5
 73
     6
  0
VERTEX
  5
17FF
  8
0
 10
0.0
 20
0.0
 30
0.0
 70
   128
 71
     7
 72
     8
 73
     9
  0
VERTEX
  5
1800
  8
0
 10
0.0
 20
0.0
 30
0.0
 70
   128
 71
     7
 72
     9
 73
    10
  0
VERTEX
  5
1801
  8
0
 10
0.0
 20
0.0
 30
0.0
 70
   128
 71
     3
 72
     8
 73
     7
  0
VERTEX
  5
1802
  8
0
 10
0.0
 20
0.0
 30
0.0
 70
   128
 71
     1
 72
     3
 73
     7
  0
VERTEX
  5
1803
  8
0
 10
0.0
 20
0.0
 30
0.0
 70
   128
 71
     6
 72
    10
 73
     9
  0
VERTEX
  5
1804
  8
0
 10
0.0
 20
0.0
 30
0.0
 70
   128
 71
     6
 72
     9
 73
    11
  0
VERTEX
  5
1805
  8
0
 10
0.0
 20
0.0
 30
0.0
 70
   128
 71
    11
 72
     4
 73
     6
  0
SEQEND
  5
198A
  8
0
  0
POLYLINE
  5
1806
  8
0
 66
     1
 10
0.0
 20
0.0
 30
0.0
 70
    64
 71
     8
 72
     6
  0
VERTEX
  5
1807
  8
0
 10
198.0208859887885
 20
-1.969771545336283
 30
-243.0
 70
   192
  0
VERTEX
  5
1808
  8
0
 10
198.9779276862577
 20
-100.0
 30
-243.7445208382055
 70
   192
  0
VERTEX
  5
1809
  8
0
 10
197.2889466761034
 20
-1.982547593562716
 30
-243.7320508075689
 70
   192
  0
VERTEX
  5
180A
  8
0
 10
198.2887943712598
 20
-1.965095187125433
 30
-242.0
 70
   192
  0
VERTEX
  5
180B
  8
0
 10
199.7444819215644
 20
-100.0
 30
-242.9780833528217
 70
   192
  0
VERTEX
  5
180C
  8
0
 10
200.0
 20
-100.0
 30
-242.0
 70
   192
  0
VERTEX
  5
180D
  8
0
 10
197.999695343912
 20
-100.0
 30
-244.0
 70
   192
  0
VERTEX
  5
180E
  8
0
 10
196.2890989809467
 20
-2.000000000000005
 30
-244.0
 70
   192
  0
VERTEX
  5
180F
  8
0
 10
0.0
 20
0.0
 30
0.0
 70
   128
 71
     1
 72
     2
 73
     3
  0
VERTEX
  5
1810
  8
0
 10
0.0
 20
0.0
 30
0.0
 70
   128
 71
     4
 72
     5
 73
     1
  0
VERTEX
  5
1811
  8
0
 10
0.0
 20
0.0
 30
0.0
 70
   128
 71
     4
 72
     6
 73
     5
  0
VERTEX
  5
1812
  8
0
 10
0.0
 20
0.0
 30
0.0
 70
   128
 71
     1
 72
     5
 73
     2
  0
VERTEX
  5
1813
  8
0
 10
0.0
 20
0.0
 30
0.0
 70
   128
 71
     3
 72
     2
 73
     7
  0
VERTEX
  5
1814
  8
0
 10
0.0
 20
0.0
 30
0.0
 70
   128
 71
     3
 72
     7
 73
     8
  0
SEQEND
  5
198B
  8
0
  0
POLYLINE
  5
1815
  8
0
 66
     1
 10
0.0
 20
0.0
 30
0.0
 70
    64
 71
     8
 72
     6
  0
VERTEX
  5
1816
  8
0
 10
-196.289098980947
 20
-2.0
 30
-244.0
 70
   192
  0
VERTEX
  5
1817
  8
0
 10
-197.9996953439124
 20
-100.0
 30
-244.0
 70
   192
  0
VERTEX
  5
1818
  8
0
 10
-198.9779276862579
 20
-100.0
 30
-243.7445208382055
 70
   192
  0
VERTEX
  5
1819
  8
0
 10
-197.2889466761034
 20
-1.982547593562716
 30
-243.7320508075689
 70
   192
  0
VERTEX
  5
181A
  8
0
 10
-198.0208859887885
 20
-1.969771545336283
 30
-243.0
 70
   192
  0
VERTEX
  5
181B
  8
0
 10
-199.7444819215645
 20
-100.0
 30
-242.9780833528218
 70
   192
  0
VERTEX
  5
181C
  8
0
 10
-198.2887943712596
 20
-1.965095187125442
 30
-242.0
 70
   192
  0
VERTEX
  5
181D
  8
0
 10
-200.0
 20
-100.0
 30
-242.0
 70
   192
  0
VERTEX
  5
181E
  8
0
 10
0.0
 20
0.0
 30
0.0
 70
   128
 71
     1
 72
     2
 73
     3
  0
VERTEX
  5
181F
  8
0
 10
0.0
 20
0.0
 30
0.0
 70
   128
 71
     1
 72
     3
 73
     4
  0
VERTEX
  5
1820
  8
0
 10
0.0
 20
0.0
 30
0.0
 70
   128
 71
     5
 72
     4
 73
     3
  0
VERTEX
  5
1821
  8
0
 10
0.0
 20
0.0
 30
0.0
 70
   128
 71
     3
 72
     6
 73
     7
  0
VERTEX
  5
1822
  8
0
 10
0.0
 20
0.0
 30
0.0
 70
   128
 71
     3
 72
     7
 73
     5
  0
VERTEX
  5
1823
  8
0
 10
0.0
 20
0.0
 30
0.0
 70
   128
 71
     6
 72
     8
 73
     7
  0
SEQEND
  5
198C
  8
0
  0
POLYLINE
  5
1824
  8
0
 66
     1
 10
0.0
 20
0.0
 30
0.0
 70
    64
 71
     9
 72
     7
  0
VERTEX
  5
1825
  8
0
 10
-196.289098980947
 20
-2.0
 30
-244.0
 70
   192
  0
VERTEX
  5
1826
  8
0
 10
-196.289098980947
 20
-0.2679491924311213
 30
-243.0
 70
   192
  0
VERTEX
  5
1827
  8
0
 10
-196.289098980947
 20
-0.9999999999999993
 30
-243.7320508075689
 70
   192
  0
VERTEX
  5
1828
  8
0
 10
-197.2790054515131
 20
-0.2621607728183384
 30
-242.0
 70
   192
  0
VERTEX
  5
1829
  8
0
 10
-198.0093972767377
 20
-0.9799148204686496
 30
-242.0
 70
   192
  0
VERTEX
  5
182A
  8
0
 10
-196.289098980947
 20
0.0000000000000018
 30
-242.0
 70
   192
  0
VERTEX
  5
182B
  8
0
 10
-198.0208859887885
 20
-1.969771545336283
 30
-243.0
 70
   192
  0
VERTEX
  5
182C
  8
0
 10
-198.2887943712598
 20
-1.965095187125433
 30
-242.0
 70
   192
  0
VERTEX
  5
182D
  8
0
 10
-197.2889466761034
 20
-1.982547593562716
 30
-243.7320508075689
 70
   192
  0
VERTEX
  5
182E
  8
0
 10
0.0
 20
0.0
 30
0.0
 70
   128
 71
    -1
 72
     2
 73
     3
  0
VERTEX
  5
182F
  8
0
 10
0.0
 20
0.0
 30
0.0
 70
   128
 71
     4
 72
     1
 73
     5
  0
VERTEX
  5
1830
  8
0
 10
0.0
 20
0.0
 30
0.0
 70
   128
 71
     6
 72
    -2
 73
     1
  0
VERTEX
  5
1831
  8
0
 10
0.0
 20
0.0
 30
0.0
 70
   128
 71
     6
 72
     1
 73
     4
  0
VERTEX
  5
1832
  8
0
 10
0.0
 20
0.0
 30
0.0
 70
   128
 71
     7
 72
     8
 73
     5
  0
VERTEX
  5
1833
  8
0
 10
0.0
 20
0.0
 30
0.0
 70
   128
 71
     5
 72
     1
 73
     9
  0
VERTEX
  5
1834
  8
0
 10
0.0
 20
0.0
 30
0.0
 70
   128
 71
     5
 72
     9
 73
     7
  0
SEQEND
  5
198D
  8
0
  0
POLYLINE
  5
1835
  8
0
 66
     1
 10
0.0
 20
0.0
 30
0.0
 70
    64
 71
     8
 72
     6
  0
VERTEX
  5
1836
  8
0
 10
-197.2790054515131
 20
-0.2621607728183344
 30
151.2892512857905
 70
   192
  0
VERTEX
  5
1837
  8
0
 10
-197.2790054515131
 20
-0.2621607728183384
 30
-242.0
 70
   192
  0
VERTEX
  5
1838
  8
0
 10
-198.0093972767377
 20
-0.9799148204686496
 30
-242.0
 70
   192
  0
VERTEX
  5
1839
  8
0
 10
-198.0093972767377
 20
-0.9799148204686359
 30
151.2892512857905
 70
   192
  0
VERTEX
  5
183A
  8
0
 10
-196.289098980947
 20
0.0000000000000018
 30
151.2892512857905
 70
   192
  0
VERTEX
  5
183B
  8
0
 10
-196.289098980947
 20
0.0
 30
-242.0
 70
   192
  0
VERTEX
  5
183C
  8
0
 10
-198.2887943712598
 20
-1.965095187125435
 30
-242.0
 70
   192
  0
VERTEX
  5
183D
  8
0
 10
-198.2887943712595
 20
-1.965095187125435
 30
151.2892512857906
 70
   192
  0
VERTEX
  5
183E
  8
0
 10
0.0
 20
0.0
 30
0.0
 70
   128
 71
     1
 72
     2
 73
    -3
  0
VERTEX
  5
183F
  8
0
 10
0.0
 20
0.0
 30
0.0
 70
   128
 71
    -1
 72
     3
 73
     4
  0
VERTEX
  5
1840
  8
0
 10
0.0
 20
0.0
 30
0.0
 70
   128
 71
     5
 72
     6
 73
    -2
  0
VERTEX
  5
1841
  8
0
 10
0.0
 20
0.0
 30
0.0
 70
   128
 71
    -5
 72
     2
 73
     1
  0
VERTEX
  5
1842
  8
0
 10
0.0
 20
0.0
 30
0.0
 70
   128
 71
     4
 72
     3
 73
    -7
  0
VERTEX
  5
1843
  8
0
 10
0.0
 20
0.0
 30
0.0
 70
   128
 71
    -4
 72
     7
 73
     8
  0
SEQEND
  5
198E
  8
0
  0
POLYLINE
  5
1844
  8
0
 66
     1
 10
0.0
 20
0.0
 30
0.0
 70
    64
 71
     8
 72
     6
  0
VERTEX
  5
1845
  8
0
 10
196.289098980947
 20
-0.9999999999999993
 30
-243.7320508075689
 70
   192
  0
VERTEX
  5
1846
  8
0
 10
-196.289098980947
 20
-0.9999999999999993
 30
-243.7320508075689
 70
   192
  0
VERTEX
  5
1847
  8
0
 10
-196.289098980947
 20
-0.2679491924311213
 30
-243.0
 70
   192
  0
VERTEX
  5
1848
  8
0
 10
196.289098980947
 20
-0.2679491924311213
 30
-243.0
 70
   192
  0
VERTEX
  5
1849
  8
0
 10
196.289098980947
 20
-2.0
 30
-244.0
 70
   192
  0
VERTEX
  5
184A
  8
0
 10
-196.289098980947
 20
-2.0
 30
-244.0
 70
   192
  0
VERTEX
  5
184B
  8
0
 10
-196.289098980947
 20
0.0000000000000018
 30
-242.0
 70
   192
  0
VERTEX
  5
184C
  8
0
 10
196.289098980947
 20
0.0
 30
-242.0
 70
   192
  0
VERTEX
  5
184D
  8
0
 10
0.0
 20
0.0
 30
0.0
 70
   128
 71
     1
 72
     2
 73
    -3
  0
VERTEX
  5
184E
  8
0
 10
0.0
 20
0.0
 30
0.0
 70
   128
 71
    -1
 72
     3
 73
     4
  0
VERTEX
  5
184F
  8
0
 10
0.0
 20
0.0
 30
0.0
 70
   128
 71
     5
 72
     6
 73
    -2
  0
VERTEX
  5
1850
  8
0
 10
0.0
 20
0.0
 30
0.0
 70
   128
 71
    -5
 72
     2
 73
     1
  0
VERTEX
  5
1851
  8
0
 10
0.0
 20
0.0
 30
0.0
 70
   128
 71
     4
 72
     3
 73
    -7
  0
VERTEX
  5
1852
  8
0
 10
0.0
 20
0.0
 30
0.0
 70
   128
 71
    -4
 72
     7
 73
     8
  0
SEQEND
  5
198F
  8
0
  0
POLYLINE
  5
1853
  8
0
 66
     1
 10
0.0
 20
0.0
 30
0.0
 70
    64
 71
    12
 72
    10
  0
VERTEX
  5
1854
  8
0
 10
-195.9962688420725
 20
-0.0000000000000067
 30
151.9962688420725
 70
   192
  0
VERTEX
  5
1855
  8
0
 10
-196.693276168691
 20
-0.2597811708638045
 30
152.693276168691
 70
   192
  0
VERTEX
  5
1856
  8
0
 10
-197.2092141159
 20
-0.9716384267198315
 30
153.2092141159
 70
   192
  0
VERTEX
  5
1857
  8
0
 10
-197.4100517196803
 20
-1.950644656153919
 30
153.4100517196803
 70
   192
  0
VERTEX
  5
1858
  8
0
 10
-196.8134629481636
 20
-1.952187246874051
 30
153.8722447038645
 70
   192
  0
VERTEX
  5
1859
  8
0
 10
-196.0930068037592
 20
-1.95700236857077
 30
154.1787802385487
 70
   192
  0
VERTEX
  5
185A
  8
0
 10
-195.2892512857905
 20
-1.965095187125425
 30
154.2887943712595
 70
   192
  0
VERTEX
  5
185B
  8
0
 10
-195.2892512857905
 20
-0.9799148204686421
 30
154.0093972767377
 70
   192
  0
VERTEX
  5
185C
  8
0
 10
-195.2892512857905
 20
-0.2621607728183362
 30
153.2790054515131
 70
   192
  0
VERTEX
  5
185D
  8
0
 10
-195.2892512857905
 20
0.0000000000000018
 30
152.289098980947
 70
   192
  0
VERTEX
  5
185E
  8
0
 10
-195.5465876415999
 20
-0.0000000000000012
 30
152.2554234472261
 70
   192
  0
VERTEX
  5
185F
  8
0
 10
-195.7905091892515
 20
-0.0000000000000017
 30
152.1543968460637
 70
   192
  0
VERTEX
  5
1860
  8
0
 10
0.0
 20
0.0
 30
0.0
 70
   128
 71
     6
 72
     7
 73
     8
  0
VERTEX
  5
1861
  8
0
 10
0.0
 20
0.0
 30
0.0
 70
   128
 71
     9
 72
    11
 73
     6
  0
VERTEX
  5
1862
  8
0
 10
0.0
 20
0.0
 30
0.0
 70
   128
 71
     8
 72
     9
 73
     6
  0
VERTEX
  5
1863
  8
0
 10
0.0
 20
0.0
 30
0.0
 70
   128
 71
     9
 72
    10
 73
    11
  0
VERTEX
  5
1864
  8
0
 10
0.0
 20
0.0
 30
0.0
 70
   128
 71
    12
 72
     5
 73
     6
  0
VERTEX
  5
1865
  8
0
 10
0.0
 20
0.0
 30
0.0
 70
   128
 71
    11
 72
    12
 73
     6
  0
VERTEX
  5
1866
  8
0
 10
0.0
 20
0.0
 30
0.0
 70
   128
 71
    12
 72
     1
 73
     2
  0
VERTEX
  5
1867
  8
0
 10
0.0
 20
0.0
 30
0.0
 70
   128
 71
     3
 72
     5
 73
    12
  0
VERTEX
  5
1868
  8
0
 10
0.0
 20
0.0
 30
0.0
 70
   128
 71
     2
 72
     3
 73
    12
  0
VERTEX
  5
1869
  8
0
 10
0.0
 20
0.0
 30
0.0
 70
   128
 71
     3
 72
     4
 73
     5
  0
SEQEND
  5
1990
  8
0
  0
POLYLINE
  5
186A
  8
0
 66
     1
 10
0.0
 20
0.0
 30
0.0
 70
    64
 71
     9
 72
     7
  0
VERTEX
  5
186B
  8
0
 10
196.289098980947
 20
-2.0
 30
-244.0
 70
   192
  0
VERTEX
  5
186C
  8
0
 10
198.0208859887885
 20
-1.969771545336283
 30
-243.0
 70
   192
  0
VERTEX
  5
186D
  8
0
 10
197.2889466761034
 20
-1.982547593562716
 30
-243.7320508075689
 70
   192
  0
VERTEX
  5
186E
  8
0
 10
198.0093972767377
 20
-0.9799148204686408
 30
-242.0
 70
   192
  0
VERTEX
  5
186F
  8
0
 10
197.2790054515131
 20
-0.2621607728183359
 30
-242.0
 70
   192
  0
VERTEX
  5
1870
  8
0
 10
198.2887943712598
 20
-1.965095187125419
 30
-242.0
 70
   192
  0
VERTEX
  5
1871
  8
0
 10
196.289098980947
 20
-0.2679491924311213
 30
-243.0
 70
   192
  0
VERTEX
  5
1872
  8
0
 10
196.289098980947
 20
0.0000000000000018
 30
-242.0
 70
   192
  0
VERTEX
  5
1873
  8
0
 10
196.289098980947
 20
-0.9999999999999993
 30
-243.7320508075689
 70
   192
  0
VERTEX
  5
1874
  8
0
 10
0.0
 20
0.0
 30
0.0
 70
   128
 71
    -1
 72
     2
 73
     3
  0
VERTEX
  5
1875
  8
0
 10
0.0
 20
0.0
 30
0.0
 70
   128
 71
     4
 72
     1
 73
     5
  0
VERTEX
  5
1876
  8
0
 10
0.0
 20
0.0
 30
0.0
 70
   128
 71
     6
 72
    -2
 73
     1
  0
VERTEX
  5
1877
  8
0
 10
0.0
 20
0.0
 30
0.0
 70
   128
 71
     6
 72
     1
 73
     4
  0
VERTEX
  5
1878
  8
0
 10
0.0
 20
0.0
 30
0.0
 70
   128
 71
     7
 72
     8
 73
     5
  0
VERTEX
  5
1879
  8
0
 10
0.0
 20
0.0
 30
0.0
 70
   128
 71
     5
 72
     1
 73
     9
  0
VERTEX
  5
187A
  8
0
 10
0.0
 20
0.0
 30
0.0
 70
   128
 71
     5
 72
     9
 73
     7
  0
SEQEND
  5
1991
  8
0
  0
POLYLINE
  5
187B
  8
0
 66
     1
 10
0.0
 20
0.0
 30
0.0
 70
    64
 71
     8
 72
     6
  0
VERTEX
  5
187C
  8
0
 10
195.2892512857905
 20
-0.2621607728183344
 30
153.2790054515131
 70
   192
  0
VERTEX
  5
187D
  8
0
 10
-195.2892512857905
 20
-0.2621607728183362
 30
153.2790054515131
 70
   192
  0
VERTEX
  5
187E
  8
0
 10
-195.2892512857905
 20
-0.9799148204686421
 30
154.0093972767377
 70
   192
  0
VERTEX
  5
187F
  8
0
 10
195.2892512857905
 20
-0.9799148204686359
 30
154.0093972767377
 70
   192
  0
VERTEX
  5
1880
  8
0
 10
195.2892512857905
 20
0.0000000000000018
 30
152.289098980947
 70
   192
  0
VERTEX
  5
1881
  8
0
 10
-195.2892512857905
 20
0.0
 30
152.289098980947
 70
   192
  0
VERTEX
  5
1882
  8
0
 10
-195.2892512857905
 20
-1.965095187125421
 30
154.2887943712598
 70
   192
  0
VERTEX
  5
1883
  8
0
 10
195.2892512857905
 20
-1.965095187125435
 30
154.2887943712595
 70
   192
  0
VERTEX
  5
1884
  8
0
 10
0.0
 20
0.0
 30
0.0
 70
   128
 71
     1
 72
     2
 73
    -3
  0
VERTEX
  5
1885
  8
0
 10
0.0
 20
0.0
 30
0.0
 70
   128
 71
    -1
 72
     3
 73
     4
  0
VERTEX
  5
1886
  8
0
 10
0.0
 20
0.0
 30
0.0
 70
   128
 71
     5
 72
     6
 73
    -2
  0
VERTEX
  5
1887
  8
0
 10
0.0
 20
0.0
 30
0.0
 70
   128
 71
    -5
 72
     2
 73
     1
  0
VERTEX
  5
1888
  8
0
 10
0.0
 20
0.0
 30
0.0
 70
   128
 71
     4
 72
     3
 73
    -7
  0
VERTEX
  5
1889
  8
0
 10
0.0
 20
0.0
 30
0.0
 70
   128
 71
    -4
 72
     7
 73
     8
  0
SEQEND
  5
1992
  8
0
  0
POLYLINE
  5
188A
  8
0
 66
     1
 10
0.0
 20
0.0
 30
0.0
 70
    64
 71
     8
 72
     6
  0
VERTEX
  5
188B
  8
0
 10
197.2790054515131
 20
-0.2621607728183359
 30
-242.0
 70
   192
  0
VERTEX
  5
188C
  8
0
 10
197.2790054515131
 20
-0.2621607728183384
 30
151.2892512857905
 70
   192
  0
VERTEX
  5
188D
  8
0
 10
198.0093972767377
 20
-0.9799148204686499
 30
151.2892512857905
 70
   192
  0
VERTEX
  5
188E
  8
0
 10
198.0093972767377
 20
-0.9799148204686408
 30
-242.0
 70
   192
  0
VERTEX
  5
188F
  8
0
 10
196.289098980947
 20
0.0000000000000018
 30
-242.0
 70
   192
  0
VERTEX
  5
1890
  8
0
 10
196.289098980947
 20
0.0
 30
151.2892512857906
 70
   192
  0
VERTEX
  5
1891
  8
0
 10
198.2887943712598
 20
-1.965095187125435
 30
151.2892512857905
 70
   192
  0
VERTEX
  5
1892
  8
0
 10
198.2887943712595
 20
-1.965095187125435
 30
-242.0
 70
   192
  0
VERTEX
  5
1893
  8
0
 10
0.0
 20
0.0
 30
0.0
 70
   128
 71
     1
 72
     2
 73
    -3
  0
VERTEX
  5
1894
  8
0
 10
0.0
 20
0.0
 30
0.0
 70
   128
 71
    -1
 72
     3
 73
     4
  0
VERTEX
  5
1895
  8
0
 10
0.0
 20
0.0
 30
0.0
 70
   128
 71
     5
 72
     6
 73
    -2
  0
VERTEX
  5
1896
  8
0
 10
0.0
 20
0.0
 30
0.0
 70
   128
 71
    -5
 72
     2
 73
     1
  0
VERTEX
  5
1897
  8
0
 10
0.0
 20
0.0
 30
0.0
 70
   128
 71
     4
 72
     3
 73
    -7
  0
VERTEX
  5
1898
  8
0
 10
0.0
 20
0.0
 30
0.0
 70
   128
 71
    -4
 72
     7
 73
     8
  0
SEQEND
  5
1993
  8
0
  0
POLYLINE
  5
1899
  8
0
 66
     1
 10
0.0
 20
0.0
 30
0.0
 70
    64
 71
    12
 72
    10
  0
VERTEX
  5
189A
  8
0
 10
195.9962688420725
 20
-0.0000000000000067
 30
151.9962688420725
 70
   192
  0
VERTEX
  5
189B
  8
0
 10
196.693276168691
 20
-0.2597811708638029
 30
152.693276168691
 70
   192
  0
VERTEX
  5
189C
  8
0
 10
197.2092141159
 20
-0.9716384267198264
 30
153.2092141159
 70
   192
  0
VERTEX
  5
189D
  8
0
 10
197.4100517196803
 20
-1.95064465615391
 30
153.4100517196803
 70
   192
  0
VERTEX
  5
189E
  8
0
 10
197.8722447038642
 20
-1.952187246874047
 30
152.8134629481642
 70
   192
  0
VERTEX
  5
189F
  8
0
 10
198.1787802385486
 20
-1.957002368570762
 30
152.0930068037598
 70
   192
  0
VERTEX
  5
18A0
  8
0
 10
198.2887943712595
 20
-1.96509518712544
 30
151.2892512857905
 70
   192
  0
VERTEX
  5
18A1
  8
0
 10
198.0093972767377
 20
-0.9799148204686499
 30
151.2892512857905
 70
   192
  0
VERTEX
  5
18A2
  8
0
 10
197.2790054515131
 20
-0.2621607728183384
 30
151.2892512857905
 70
   192
  0
VERTEX
  5
18A3
  8
0
 10
196.289098980947
 20
0.0000000000000018
 30
151.2892512857905
 70
   192
  0
VERTEX
  5
18A4
  8
0
 10
196.2554234472262
 20
-0.0000000000000012
 30
151.5465876415999
 70
   192
  0
VERTEX
  5
18A5
  8
0
 10
196.1543968460638
 20
-0.0000000000000017
 30
151.7905091892515
 70
   192
  0
VERTEX
  5
18A6
  8
0
 10
0.0
 20
0.0
 30
0.0
 70
   128
 71
     6
 72
     7
 73
     8
  0
VERTEX
  5
18A7
  8
0
 10
0.0
 20
0.0
 30
0.0
 70
   128
 71
     9
 72
    11
 73
     6
  0
VERTEX
  5
18A8
  8
0
 10
0.0
 20
0.0
 30
0.0
 70
   128
 71
     8
 72
     9
 73
     6
  0
VERTEX
  5
18A9
  8
0
 10
0.0
 20
0.0
 30
0.0
 70
   128
 71
     9
 72
    10
 73
    11
  0
VERTEX
  5
18AA
  8
0
 10
0.0
 20
0.0
 30
0.0
 70
   128
 71
    12
 72
     5
 73
     6
  0
VERTEX
  5
18AB
  8
0
 10
0.0
 20
0.0
 30
0.0
 70
   128
 71
    11
 72
    12
 73
     6
  0
VERTEX
  5
18AC
  8
0
 10
0.0
 20
0.0
 30
0.0
 70
   128
 71
    12
 72
     1
 73
     2
  0
VERTEX
  5
18AD
  8
0
 10
0.0
 20
0.0
 30
0.0
 70
   128
 71
     3
 72
     5
 73
    12
  0
VERTEX
  5
18AE
  8
0
 10
0.0
 20
0.0
 30
0.0
 70
   128
 71
     2
 72
     3
 73
    12
  0
VERTEX
  5
18AF
  8
0
 10
0.0
 20
0.0
 30
0.0
 70
   128
 71
     3
 72
     4
 73
     5
  0
SEQEND
  5
1994
  8
0
  0
POLYLINE
  5
18B0
  8
0
 66
     1
 10
0.0
 20
0.0
 30
0.0
 70
    64
 71
    15
 72
    13
  0
VERTEX
  5
18B1
  8
0
 10
-34.78968123391695
 20
-81.069079720114
 30
-3.968922634063585
 70
   192
  0
VERTEX
  5
18B2
  8
0
 10
-22.0
 20
-91.9991247258351
 30
0.0000000000000692
 70
   192
  0
VERTEX
  5
18B3
  8
0
 10
-19.04890985958015
 20
-91.99781872651359
 30
-11.00676704760418
 70
   192
  0
VERTEX
  5
18B4
  8
0
 10
-34.92060618356355
 20
-81.06877527432101
 30
-2.648568475357787
 70
   192
  0
VERTEX
  5
18B5
  8
0
 10
-35.00005632620819
 20
-81.06847082852849
 30
-1.324864374064676
 70
   192
  0
VERTEX
  5
18B6
  8
0
 10
-35.02700887588795
 20
-81.0681663827344
 30
-0.0000000000148648
 70
   192
  0
VERTEX
  5
18B7
  8
0
 10
-11.00113760930398
 20
-91.99781432609139
 30
-19.05146748384551
 70
   192
  0
VERTEX
  5
18B8
  8
0
 10
-0.0000000000048341
 20
-91.9991247258351
 30
-22.0
 70
   192
  0
VERTEX
  5
18B9
  8
0
 10
-22.56112966041374
 20
-81.0840279030703
 30
-26.80939223706929
 70
   192
  0
VERTEX
  5
18BA
  8
0
 10
1.99897323918824
 20
-81.06346948603894
 30
-34.97226766318587
 70
   192
  0
VERTEX
  5
18BB
  8
0
 10
11.01223381292552
 20
-91.99746768321835
 30
-19.04567399881396
 70
   192
  0
VERTEX
  5
18BC
  8
0
 10
22.0
 20
-91.9991247258351
 30
0.0000000000000103
 70
   192
  0
VERTEX
  5
18BD
  8
0
 10
35.0270088758879
 20
-81.0681663827344
 30
0.0000000000000104
 70
   192
  0
VERTEX
  5
18BE
  8
0
 10
25.46439193677566
 20
-81.0856561105878
 30
-24.07186672274097
 70
   192
  0
VERTEX
  5
18BF
  8
0
 10
19.0454582365914
 20
-91.99827429724829
 30
-11.01184363510111
 70
   192
  0
VERTEX
  5
18C0
  8
0
 10
0.0
 20
0.0
 30
0.0
 70
   128
 71
     1
 72
     2
 73
     3
  0
VERTEX
  5
18C1
  8
0
 10
0.0
 20
0.0
 30
0.0
 70
   128
 71
     1
 72
     4
 73
     2
  0
VERTEX
  5
18C2
  8
0
 10
0.0
 20
0.0
 30
0.0
 70
   128
 71
     2
 72
     4
 73
     5
  0
VERTEX
  5
18C3
  8
0
 10
0.0
 20
0.0
 30
0.0
 70
   128
 71
     5
 72
     6
 73
     2
  0
VERTEX
  5
18C4
  8
0
 10
0.0
 20
0.0
 30
0.0
 70
   128
 71
     7
 72
     8
 73
     9
  0
VERTEX
  5
18C5
  8
0
 10
0.0
 20
0.0
 30
0.0
 70
   128
 71
    10
 72
     8
 73
    11
  0
VERTEX
  5
18C6
  8
0
 10
0.0
 20
0.0
 30
0.0
 70
   128
 71
    12
 72
    13
 73
    14
  0
VERTEX
  5
18C7
  8
0
 10
0.0
 20
0.0
 30
0.0
 70
   128
 71
    15
 72
    12
 73
    14
  0
VERTEX
  5
18C8
  8
0
 10
0.0
 20
0.0
 30
0.0
 70
   128
 71
     7
 72
     9
 73
     3
  0
VERTEX
  5
18C9
  8
0
 10
0.0
 20
0.0
 30
0.0
 70
   128
 71
     9
 72
     1
 73
     3
  0
VERTEX
  5
18CA
  8
0
 10
0.0
 20
0.0
 30
0.0
 70
   128
 71
     8
 72
    10
 73
     9
  0
VERTEX
  5
18CB
  8
0
 10
0.0
 20
0.0
 30
0.0
 70
   128
 71
    15
 72
    14
 73
    11
  0
VERTEX
  5
18CC
  8
0
 10
0.0
 20
0.0
 30
0.0
 70
   128
 71
    14
 72
    10
 73
    11
  0
SEQEND
  5
1995
  8
0
  0
POLYLINE
  5
18CD
  8
0
 66
     1
 10
0.0
 20
0.0
 30
0.0
 70
    64
 71
    12
 72
    10
  0
VERTEX
  5
18CE
  8
0
 10
-0.0000000000048341
 20
-91.9991247258351
 30
-22.0
 70
   192
  0
VERTEX
  5
18CF
  8
0
 10
0.0
 20
-102.0
 30
-22.0
 70
   192
  0
VERTEX
  5
18D0
  8
0
 10
15.55634918610405
 20
-102.0
 30
-15.55634918610405
 70
   192
  0
VERTEX
  5
18D1
  8
0
 10
11.01223381292552
 20
-91.99746768321835
 30
-19.04567399881396
 70
   192
  0
VERTEX
  5
18D2
  8
0
 10
22.0
 20
-102.0
 30
0.0
 70
   192
  0
VERTEX
  5
18D3
  8
0
 10
22.0
 20
-91.9991247258351
 30
0.0000000000000103
 70
   192
  0
VERTEX
  5
18D4
  8
0
 10
19.0454582365914
 20
-91.99827429724829
 30
-11.01184363510111
 70
   192
  0
VERTEX
  5
18D5
  8
0
 10
15.55634918610405
 20
-102.0
 30
15.55634918610405
 70
   192
  0
VERTEX
  5
18D6
  8
0
 10
19.05224636920654
 20
-91.99785567193464
 30
11.00076453073143
 70
   192
  0
VERTEX
  5
18D7
  8
0
 10
0.0000000000000027
 20
-102.0
 30
22.0
 70
   192
  0
VERTEX
  5
18D8
  8
0
 10
0.0000000000000027
 20
-91.9991247258351
 30
22.0
 70
   192
  0
VERTEX
  5
18D9
  8
0
 10
11.00555982671153
 20
-91.99786257328016
 30
19.04890724137301
 70
   192
  0
VERTEX
  5
18DA
  8
0
 10
0.0
 20
0.0
 30
0.0
 70
   128
 71
     1
 72
     2
 73
     3
  0
VERTEX
  5
18DB
  8
0
 10
0.0
 20
0.0
 30
0.0
 70
   128
 71
     4
 72
     1
 73
     3
  0
VERTEX
  5
18DC
  8
0
 10
0.0
 20
0.0
 30
0.0
 70
   128
 71
     5
 72
     6
 73
     7
  0
VERTEX
  5
18DD
  8
0
 10
0.0
 20
0.0
 30
0.0
 70
   128
 71
     3
 72
     5
 73
     7
  0
VERTEX
  5
18DE
  8
0
 10
0.0
 20
0.0
 30
0.0
 70
   128
 71
     6
 72
     5
 73
     8
  0
VERTEX
  5
18DF
  8
0
 10
0.0
 20
0.0
 30
0.0
 70
   128
 71
     9
 72
     6
 73
     8
  0
VERTEX
  5
18E0
  8
0
 10
0.0
 20
0.0
 30
0.0
 70
   128
 71
    10
 72
    11
 73
    12
  0
VERTEX
  5
18E1
  8
0
 10
0.0
 20
0.0
 30
0.0
 70
   128
 71
     8
 72
    10
 73
    12
  0
VERTEX
  5
18E2
  8
0
 10
0.0
 20
0.0
 30
0.0
 70
   128
 71
     3
 72
     7
 73
     4
  0
VERTEX
  5
18E3
  8
0
 10
0.0
 20
0.0
 30
0.0
 70
   128
 71
     8
 72
    12
 73
     9
  0
SEQEND
  5
1996
  8
0
  0
POLYLINE
  5
18E4
  8
0
 66
     1
 10
0.0
 20
0.0
 30
0.0
 70
    64
 71
    19
 72
    17
  0
VERTEX
  5
18E5
  8
0
 10
-56.94429837947968
 20
-91.59343831797177
 30
-19.1559892088919
 70
   192
  0
VERTEX
  5
18E6
  8
0
 10
-60.54414432155222
 20
-90.12406431044296
 30
-20.40286933518376
 70
   192
  0
VERTEX
  5
18E7
  8
0
 10
-32.94484824489619
 20
-89.82596767192305
 30
-54.49048748578365
 70
   192
  0
VERTEX
  5
18E8
  8
0
 10
-54.21107273147587
 20
-94.4627645362812
 30
-18.17155767749148
 70
   192
  0
VERTEX
  5
18E9
  8
0
 10
-41.08181789479458
 20
-98.4996569315512
 30
-37.49076817213332
 70
   192
  0
VERTEX
  5
18EA
  8
0
 10
-52.8001688195511
 20
-98.2536499368863
 30
-17.6137056713165
 70
   192
  0
VERTEX
  5
18EB
  8
0
 10
54.20171857726326
 20
-94.46334203778106
 30
18.19928212381707
 70
   192
  0
VERTEX
  5
18EC
  8
0
 10
52.79104362590303
 20
-98.25433257080189
 30
17.64065668793125
 70
   192
  0
VERTEX
  5
18ED
  8
0
 10
62.35625699316825
 20
-90.00292009669029
 30
13.68124325711161
 70
   192
  0
VERTEX
  5
18EE
  8
0
 10
56.93456807514156
 20
-91.59398429646835
 30
19.18518028883337
 70
   192
  0
VERTEX
  5
18EF
  8
0
 10
60.5339256646138
 20
-90.12468674321619
 30
20.4339657229986
 70
   192
  0
VERTEX
  5
18F0
  8
0
 10
63.43204526886483
 20
-89.92445515544772
 30
6.89797690131718
 70
   192
  0
VERTEX
  5
18F1
  8
0
 10
53.00044660815642
 20
-98.23985165617127
 30
-17.00952549928542
 70
   192
  0
VERTEX
  5
18F2
  8
0
 10
63.79540072148361
 20
-89.89995406163641
 30
-0.0000000000020823
 70
   192
  0
VERTEX
  5
18F3
  8
0
 10
10.34085524614623
 20
-89.04520119903336
 30
-62.44976620064764
 70
   192
  0
VERTEX
  5
18F4
  8
0
 10
32.86196074775154
 20
-98.1512803679344
 30
-44.94666562038779
 70
   192
  0
VERTEX
  5
18F5
  8
0
 10
-0.000000000027376
 20
-96.92253411614641
 30
-55.8952942289501
 70
   192
  0
VERTEX
  5
18F6
  8
0
 10
-22.04808831473975
 20
-97.5240522944975
 30
-51.24777265411569
 70
   192
  0
VERTEX
  5
18F7
  8
0
 10
48.83032115729502
 20
-90.37493986467094
 30
-41.32652765705708
 70
   192
  0
VERTEX
  5
18F8
  8
0
 10
0.0
 20
0.0
 30
0.0
 70
   128
 71
     1
 72
     2
 73
     3
  0
VERTEX
  5
18F9
  8
0
 10
0.0
 20
0.0
 30
0.0
 70
   128
 71
     3
 72
     4
 73
     1
  0
VERTEX
  5
18FA
  8
0
 10
0.0
 20
0.0
 30
0.0
 70
   128
 71
     3
 72
     5
 73
     4
  0
VERTEX
  5
18FB
  8
0
 10
0.0
 20
0.0
 30
0.0
 70
   128
 71
     5
 72
     6
 73
     4
  0
VERTEX
  5
18FC
  8
0
 10
0.0
 20
0.0
 30
0.0
 70
   128
 71
     7
 72
     8
 73
     9
  0
VERTEX
  5
18FD
  8
0
 10
0.0
 20
0.0
 30
0.0
 70
   128
 71
     9
 72
    10
 73
     7
  0
VERTEX
  5
18FE
  8
0
 10
0.0
 20
0.0
 30
0.0
 70
   128
 71
     9
 72
    11
 73
    10
  0
VERTEX
  5
18FF
  8
0
 10
0.0
 20
0.0
 30
0.0
 70
   128
 71
     8
 72
    12
 73
     9
  0
VERTEX
  5
1900
  8
0
 10
0.0
 20
0.0
 30
0.0
 70
   128
 71
     8
 72
    13
 73
    14
  0
VERTEX
  5
1901
  8
0
 10
0.0
 20
0.0
 30
0.0
 70
   128
 71
     8
 72
    14
 73
    12
  0
VERTEX
  5
1902
  8
0
 10
0.0
 20
0.0
 30
0.0
 70
   128
 71
    15
 72
    16
 73
    17
  0
VERTEX
  5
1903
  8
0
 10
0.0
 20
0.0
 30
0.0
 70
   128
 71
     3
 72
    18
 73
     5
  0
VERTEX
  5
1904
  8
0
 10
0.0
 20
0.0
 30
0.0
 70
   128
 71
    19
 72
    13
 73
    16
  0
VERTEX
  5
1905
  8
0
 10
0.0
 20
0.0
 30
0.0
 70
   128
 71
    15
 72
    19
 73
    16
  0
VERTEX
  5
1906
  8
0
 10
0.0
 20
0.0
 30
0.0
 70
   128
 71
     3
 72
    15
 73
    17
  0
VERTEX
  5
1907
  8
0
 10
0.0
 20
0.0
 30
0.0
 70
   128
 71
     3
 72
    17
 73
    18
  0
VERTEX
  5
1908
  8
0
 10
0.0
 20
0.0
 30
0.0
 70
   128
 71
    19
 72
    14
 73
    13
  0
SEQEND
  5
1997
  8
0
  0
POLYLINE
  5
1909
  8
0
 66
     1
 10
0.0
 20
0.0
 30
0.0
 70
    64
 71
     6
 72
     4
  0
VERTEX
  5
190A
  8
0
 10
7.864266649873549
 20
-13.0
 30
-212.9508775352265
 70
   192
  0
VERTEX
  5
190B
  8
0
 10
2.648530590398139
 20
-13.0
 30
-213.8829007276366
 70
   192
  0
VERTEX
  5
190C
  8
0
 10
-2.648614585106121
 20
-13.0
 30
-213.8829005346419
 70
   192
  0
VERTEX
  5
190D
  8
0
 10
-7.864266649873549
 20
-13.0
 30
-212.9508775352265
 70
   192
  0
VERTEX
  5
190E
  8
0
 10
-2.699879344966842
 20
-13.08472117646063
 30
-214.2523694210036
 70
   192
  0
VERTEX
  5
190F
  8
0
 10
2.690432454175717
 20
-13.08517682408222
 30
-214.2534513904024
 70
   192
  0
VERTEX
  5
1910
  8
0
 10
0.0
 20
0.0
 30
0.0
 70
   128
 71
     5
 72
     1
 73
     2
  0
VERTEX
  5
1911
  8
0
 10
0.0
 20
0.0
 30
0.0
 70
   128
 71
     2
 72
     3
 73
     5
  0
VERTEX
  5
1912
  8
0
 10
0.0
 20
0.0
 30
0.0
 70
   128
 71
     3
 72
     4
 73
     5
  0
VERTEX
  5
1913
  8
0
 10
0.0
 20
0.0
 30
0.0
 70
   128
 71
     5
 72
     6
 73
     1
  0
SEQEND
  5
1998
  8
0
  0
POLYLINE
  5
1914
  8
0
 66
     1
 10
0.0
 20
0.0
 30
0.0
 70
    64
 71
     6
 72
     4
  0
VERTEX
  5
1915
  8
0
 10
-12.12180393420094
 20
-13.0
 30
-156.558027232344
 70
   192
  0
VERTEX
  5
1916
  8
0
 10
-4.145860504684151
 20
-13.0
 30
-154.2879043984271
 70
   192
  0
VERTEX
  5
1917
  8
0
 10
4.146098968889619
 20
-13.0
 30
-154.2879204714582
 70
   192
  0
VERTEX
  5
1918
  8
0
 10
12.12201771144278
 20
-13.0
 30
-156.5581216640795
 70
   192
  0
VERTEX
  5
1919
  8
0
 10
4.289671641732312
 20
-13.88141725631722
 30
-153.5109259965552
 70
   192
  0
VERTEX
  5
191A
  8
0
 10
-4.30362581654249
 20
-13.88015985767724
 30
-153.5129081440447
 70
   192
  0
VERTEX
  5
191B
  8
0
 10
0.0
 20
0.0
 30
0.0
 70
   128
 71
     3
 72
     4
 73
     5
  0
VERTEX
  5
191C
  8
0
 10
0.0
 20
0.0
 30
0.0
 70
   128
 71
     6
 72
     2
 73
     3
  0
VERTEX
  5
191D
  8
0
 10
0.0
 20
0.0
 30
0.0
 70
   128
 71
     5
 72
     6
 73
     3
  0
VERTEX
  5
191E
  8
0
 10
0.0
 20
0.0
 30
0.0
 70
   128
 71
     6
 72
     1
 73
     2
  0
SEQEND
  5
1999
  8
0
  0
ENDBLK
  5
1920
  8
0
  0
ENDSEC
  0
SECTION
  2
ENTITIES
  0
INSERT
  5
BE
  8
0
  2
*X1
 10
0.0
 20
0.0
 30
0.0
  0
ENDSEC
  0
EOF
