  0
SECTION
  2
HEADER
  9
$ACADVER
  1
AC1009
  9
$DWGCODEPAGE
  3
ansi_1250
  9
$INSBASE
 10
0.0
 20
0.0
 30
0.0
  9
$EXTMIN
 10
-109.8409130316167
 20
-92.00000000000006
 30
-109.7754347592997
  9
$EXTMAX
 10
210.0906996084036
 20
0.0000000000000284
 30
109.7678874385022
  9
$LIMMIN
 10
0.0
 20
0.0
  9
$LIMMAX
 10
420.0
 20
297.0
  9
$ORTHOMODE
 70
     0
  9
$REGENMODE
 70
     1
  9
$FILLMODE
 70
     1
  9
$QTEXTMODE
 70
     0
  9
$MIRRTEXT
 70
     0
  9
$DRAGMODE
 70
     2
  9
$LTSCALE
 40
1.0
  9
$OSMODE
 70
   511
  9
$ATTMODE
 70
     1
  9
$TEXTSIZE
 40
2.5
  9
$TRACEWID
 40
1.0
  9
$TEXTSTYLE
  7
STANDARD
  9
$CLAYER
  8
0
  9
$CELTYPE
  6
BYLAYER
  9
$CECOLOR
 62
   256
  9
$DIMSCALE
 40
1.0
  9
$DIMASZ
 40
2.5
  9
$DIMEXO
 40
0.625
  9
$DIMDLI
 40
3.75
  9
$DIMRND
 40
0.0
  9
$DIMDLE
 40
0.0
  9
$DIMEXE
 40
1.25
  9
$DIMTP
 40
0.0
  9
$DIMTM
 40
0.0
  9
$DIMTXT
 40
2.5
  9
$DIMCEN
 40
-2.5
  9
$DIMTSZ
 40
0.0
  9
$DIMTOL
 70
     0
  9
$DIMLIM
 70
     0
  9
$DIMTIH
 70
     0
  9
$DIMTOH
 70
     0
  9
$DIMSE1
 70
     0
  9
$DIMSE2
 70
     0
  9
$DIMTAD
 70
     1
  9
$DIMZIN
 70
     8
  9
$DIMBLK
  1

  9
$DIMASO
 70
     1
  9
$DIMSHO
 70
     1
  9
$DIMPOST
  1

  9
$DIMAPOST
  1

  9
$DIMALT
 70
     0
  9
$DIMALTD
 70
     3
  9
$DIMALTF
 40
0.03937007874016
  9
$DIMLFAC
 40
1.0
  9
$DIMTOFL
 70
     1
  9
$DIMTVP
 40
0.0
  9
$DIMTIX
 70
     0
  9
$DIMSOXD
 70
     0
  9
$DIMSAH
 70
     0
  9
$DIMBLK1
  1

  9
$DIMBLK2
  1

  9
$DIMSTYLE
  2
ISO-25
  9
$DIMCLRD
 70
     0
  9
$DIMCLRE
 70
     0
  9
$DIMCLRT
 70
     0
  9
$DIMTFAC
 40
1.0
  9
$DIMGAP
 40
0.625
  9
$LUNITS
 70
     2
  9
$LUPREC
 70
     3
  9
$SKETCHINC
 40
1.0
  9
$FILLETRAD
 40
10.0
  9
$AUNITS
 70
     0
  9
$AUPREC
 70
     0
  9
$MENU
  1
.
  9
$ELEVATION
 40
0.0
  9
$PELEVATION
 40
0.0
  9
$THICKNESS
 40
0.0
  9
$LIMCHECK
 70
     0
  9
$CHAMFERA
 40
10.0
  9
$CHAMFERB
 40
10.0
  9
$SKPOLY
 70
     0
  9
$TDCREATE
 40
2455022.720692848
  9
$TDUPDATE
 40
2460413.564358264
  9
$TDINDWG
 40
0.0002750463
  9
$TDUSRTIMER
 40
0.0002750463
  9
$USRTIMER
 70
     1
  9
$ANGBASE
 50
0.0
  9
$ANGDIR
 70
     0
  9
$PDMODE
 70
     0
  9
$PDSIZE
 40
0.0
  9
$PLINEWID
 40
0.0
  9
$COORDS
 70
     1
  9
$SPLFRAME
 70
     0
  9
$SPLINETYPE
 70
     6
  9
$SPLINESEGS
 70
     8
  9
$ATTDIA
 70
     0
  9
$ATTREQ
 70
     1
  9
$HANDLING
 70
     1
  9
$HANDSEED
  5
656
  9
$SURFTAB1
 70
     6
  9
$SURFTAB2
 70
     6
  9
$SURFTYPE
 70
     6
  9
$SURFU
 70
     6
  9
$SURFV
 70
     6
  9
$UCSNAME
  2

  9
$UCSORG
 10
0.0
 20
0.0
 30
0.0
  9
$UCSXDIR
 10
1.0
 20
0.0
 30
0.0
  9
$UCSYDIR
 10
0.0
 20
1.0
 30
0.0
  9
$PUCSNAME
  2

  9
$PUCSORG
 10
0.0
 20
0.0
 30
0.0
  9
$PUCSXDIR
 10
1.0
 20
0.0
 30
0.0
  9
$PUCSYDIR
 10
0.0
 20
1.0
 30
0.0
  9
$USERI1
 70
     0
  9
$USERI2
 70
     0
  9
$USERI3
 70
     0
  9
$USERI4
 70
     0
  9
$USERI5
 70
     0
  9
$USERR1
 40
0.0
  9
$USERR2
 40
0.0
  9
$USERR3
 40
0.0
  9
$USERR4
 40
0.0
  9
$USERR5
 40
0.0
  9
$WORLDVIEW
 70
     1
  9
$SHADEDGE
 70
     3
  9
$SHADEDIF
 70
    70
  9
$TILEMODE
 70
     1
  9
$MAXACTVP
 70
    64
  9
$PLIMCHECK
 70
     0
  9
$PEXTMIN
 10
1.000000000000000E+20
 20
1.000000000000000E+20
 30
1.000000000000000E+20
  9
$PEXTMAX
 10
-1.000000000000000E+20
 20
-1.000000000000000E+20
 30
-1.000000000000000E+20
  9
$PLIMMIN
 10
0.0
 20
0.0
  9
$PLIMMAX
 10
0.0
 20
0.0
  9
$UNITMODE
 70
     0
  9
$VISRETAIN
 70
     1
  9
$PLINEGEN
 70
     0
  9
$PSLTSCALE
 70
     1
  0
ENDSEC
  0
SECTION
  2
TABLES
  0
TABLE
  2
VPORT
 70
     1
  0
VPORT
  2
*ACTIVE
 70
     0
 10
0.0
 20
0.0
 11
1.0
 21
1.0
 12
184.3118091762439
 22
-46.0
 13
0.0
 23
0.0
 14
10.0
 24
10.0
 15
10.0
 25
10.0
 16
0.0
 26
0.0
 36
1.0
 17
-134.1869158878504
 27
0.0
 37
0.0
 40
172.6239701244631
 41
1.89041095890411
 42
50.0
 43
0.0
 44
0.0
 50
0.0
 51
0.0
 71
    16
 72
  1000
 73
     1
 74
     3
 75
     0
 76
     0
 77
     0
 78
     0
  0
ENDTAB
  0
TABLE
  2
LTYPE
 70
     1
  0
LTYPE
  2
CONTINUOUS
 70
     0
  3
Solid line
 72
    65
 73
     0
 40
0.0
  0
ENDTAB
  0
TABLE
  2
LAYER
 70
     1
  0
LAYER
  2
0
 70
     0
 62
     7
  6
CONTINUOUS
  0
ENDTAB
  0
TABLE
  2
STYLE
 70
     2
  0
STYLE
  2
STANDARD
 70
     0
 40
0.0
 41
1.0
 50
0.0
 71
     0
 42
2.5
  3
arial.ttf
  4

  0
STYLE
  2
ANNOTATIVE
 70
     0
 40
0.0
 41
1.0
 50
0.0
 71
     0
 42
2.5
  3
arial.ttf
  4

  0
ENDTAB
  0
TABLE
  2
VIEW
 70
     0
  0
ENDTAB
  0
TABLE
  2
UCS
 70
     0
  0
ENDTAB
  0
TABLE
  2
APPID
 70
     2
  0
APPID
  2
ACAD
 70
     0
  0
APPID
  2
ACADANNOTATIVE
 70
     0
  0
ENDTAB
  0
TABLE
  2
DIMSTYLE
 70
     2
  0
DIMSTYLE
  2
ISO-25
 70
     0
  3

  4

  5

  6

  7

 40
1.0
 41
2.5
 42
0.625
 43
3.75
 44
1.25
 45
0.0
 46
0.0
 47
0.0
 48
0.0
140
2.5
141
-2.5
142
0.0
143
0.03937007874016
144
1.0
145
0.0
146
1.0
147
0.625
 71
     0
 72
     0
 73
     0
 74
     0
 75
     0
 76
     0
 77
     1
 78
     8
170
     0
171
     3
172
     1
173
     0
174
     0
175
     0
176
     0
177
     0
178
     0
  0
DIMSTYLE
  2
ANNOTATIVE
 70
     0
  3

  4

  5

  6

  7

 40
0.0
 41
2.5
 42
0.625
 43
3.75
 44
1.25
 45
0.0
 46
0.0
 47
0.0
 48
0.0
140
2.5
141
-2.5
142
0.0
143
0.03937007874016
144
1.0
145
0.0
146
1.0
147
0.625
 71
     0
 72
     0
 73
     0
 74
     0
 75
     0
 76
     0
 77
     1
 78
     8
170
     0
171
     3
172
     1
173
     0
174
     0
175
     0
176
     0
177
     0
178
     0
  0
ENDTAB
  0
ENDSEC
  0
SECTION
  2
BLOCKS
  0
BLOCK
  8
0
  2
$MODEL_SPACE
 70
     0
 10
0.0
 20
0.0
 30
0.0
  3
$MODEL_SPACE
  1

  0
ENDBLK
  5
21
  8
0
  0
BLOCK
 67
     1
  8
0
  2
$PAPER_SPACE
 70
     0
 10
0.0
 20
0.0
 30
0.0
  3
$PAPER_SPACE
  1

  0
ENDBLK
  5
1D
 67
     1
  8
0
  0
BLOCK
  8
0
  2
*X1
 70
     1
 10
0.0
 20
0.0
 30
0.0
  3
*X1
  1

  0
POLYLINE
  5
392
  8
0
 66
     1
 10
0.0
 20
0.0
 30
0.0
 70
    64
 71
    31
 72
    29
  0
VERTEX
  5
393
  8
0
 10
32.85971263566937
 20
0.0
 30
-108.4297351357801
 70
   192
  0
VERTEX
  5
394
  8
0
 10
85.909364358133
 20
-0.000000000000002
 30
-101.4294973348194
 70
   192
  0
VERTEX
  5
395
  8
0
 10
86.05888522736068
 20
-0.1101814510910222
 30
-102.108984888897
 70
   192
  0
VERTEX
  5
396
  8
0
 10
86.1360316798804
 20
-0.5956742026920873
 30
-102.4595717641553
 70
   192
  0
VERTEX
  5
397
  8
0
 10
78.84181487601992
 20
-1.285112372756412
 30
-103.8748312947872
 70
   192
  0
VERTEX
  5
398
  8
0
 10
86.1148177000694
 20
-1.293344964738226
 30
-102.3631662568414
 70
   192
  0
VERTEX
  5
399
  8
0
 10
71.56280607613826
 20
-1.277060019480994
 30
-105.2080085455072
 70
   192
  0
VERTEX
  5
39A
  8
0
 10
64.2834550507509
 20
-1.269235960831872
 30
-106.3658330395074
 70
   192
  0
VERTEX
  5
39B
  8
0
 10
3.867858184827897
 20
-1.237704172129226
 30
-109.2079779358569
 70
   192
  0
VERTEX
  5
39C
  8
0
 10
-51.86476558368397
 20
0.0
 30
95.35552667953291
 70
   192
  0
VERTEX
  5
39D
  8
0
 10
-92.49845906270086
 20
0.0
 30
61.11884119366773
 70
   192
  0
VERTEX
  5
39E
  8
0
 10
-72.34055012203017
 20
-1.277873203803967
 30
84.2281754337539
 70
   192
  0
VERTEX
  5
39F
  8
0
 10
0.0159993292600446
 20
-1.230846106708634
 30
108.9310497039802
 70
   192
  0
VERTEX
  5
3A0
  8
0
 10
0.0239949456838915
 20
-1.230849679526192
 30
108.9316949954534
 70
   192
  0
VERTEX
  5
3A1
  8
0
 10
0.0196845710352563
 20
-0.5615367918409607
 30
108.9850455860797
 70
   192
  0
VERTEX
  5
3A2
  8
0
 10
0.0489257267431516
 20
-0.1023334794226075
 30
108.6231204508467
 70
   192
  0
VERTEX
  5
3A3
  8
0
 10
0.1023507316790974
 20
0.0000000000000002
 30
107.9618657340554
 70
   192
  0
VERTEX
  5
3A4
  8
0
 10
-96.4701086598784
 20
-1.259752209362716
 30
56.40193999493708
 70
   192
  0
VERTEX
  5
3A5
  8
0
 10
-108.4589119018157
 20
0.0
 30
10.25251086852242
 70
   192
  0
VERTEX
  5
3A6
  8
0
 10
-107.9615156201787
 20
-1.201817272575589
 30
22.85496702111881
 70
   192
  0
VERTEX
  5
3A7
  8
0
 10
-69.80905709512035
 20
0.0
 30
-84.99970917995837
 70
   192
  0
VERTEX
  5
3A8
  8
0
 10
-20.40971744680111
 20
0.0
 30
-105.2072812155853
 70
   192
  0
VERTEX
  5
3A9
  8
0
 10
-53.5980777423156
 20
-1.234651403264485
 30
-95.66143967068781
 70
   192
  0
VERTEX
  5
3AA
  8
0
 10
-101.7789764873149
 20
0.0
 30
-42.73698368128914
 70
   192
  0
VERTEX
  5
3AB
  8
0
 10
-108.1213198012732
 20
-1.170072505346853
 30
-22.16610557182929
 70
   192
  0
VERTEX
  5
3AC
  8
0
 10
-88.41109830245004
 20
-1.279126281180474
 30
68.45150419558253
 70
   192
  0
VERTEX
  5
3AD
  8
0
 10
-45.88151000597141
 20
-1.255033696648429
 30
98.94680680933905
 70
   192
  0
VERTEX
  5
3AE
  8
0
 10
-18.27890152270253
 20
-1.23345519633207
 30
106.5897176780854
 70
   192
  0
VERTEX
  5
3AF
  8
0
 10
-0.0000522740385939
 20
-1.23083884976892
 30
108.9297529510164
 70
   192
  0
VERTEX
  5
3B0
  8
0
 10
0.0075666527134613
 20
-1.230842338606293
 30
108.9303687859996
 70
   192
  0
VERTEX
  5
3B1
  8
0
 10
-83.83567812930296
 20
-1.223233460844492
 30
-73.92474766971988
 70
   192
  0
VERTEX
  5
3B2
  8
0
 10
0.0
 20
0.0
 30
0.0
 70
   128
 71
     1
 72
     2
 73
     3
  0
VERTEX
  5
3B3
  8
0
 10
0.0
 20
0.0
 30
0.0
 70
   128
 71
     3
 72
     4
 73
     1
  0
VERTEX
  5
3B4
  8
0
 10
0.0
 20
0.0
 30
0.0
 70
   128
 71
     4
 72
     5
 73
     1
  0
VERTEX
  5
3B5
  8
0
 10
0.0
 20
0.0
 30
0.0
 70
   128
 71
     4
 72
     6
 73
     5
  0
VERTEX
  5
3B6
  8
0
 10
0.0
 20
0.0
 30
0.0
 70
   128
 71
     5
 72
     7
 73
     1
  0
VERTEX
  5
3B7
  8
0
 10
0.0
 20
0.0
 30
0.0
 70
   128
 71
     7
 72
     8
 73
     1
  0
VERTEX
  5
3B8
  8
0
 10
0.0
 20
0.0
 30
0.0
 70
   128
 71
     8
 72
     9
 73
     1
  0
VERTEX
  5
3B9
  8
0
 10
0.0
 20
0.0
 30
0.0
 70
   128
 71
    10
 72
    11
 73
    12
  0
VERTEX
  5
3BA
  8
0
 10
0.0
 20
0.0
 30
0.0
 70
   128
 71
    13
 72
    14
 73
    15
  0
VERTEX
  5
3BB
  8
0
 10
0.0
 20
0.0
 30
0.0
 70
   128
 71
    16
 72
    17
 73
    10
  0
VERTEX
  5
3BC
  8
0
 10
0.0
 20
0.0
 30
0.0
 70
   128
 71
    18
 72
    11
 73
    19
  0
VERTEX
  5
3BD
  8
0
 10
0.0
 20
0.0
 30
0.0
 70
   128
 71
    20
 72
    18
 73
    19
  0
VERTEX
  5
3BE
  8
0
 10
0.0
 20
0.0
 30
0.0
 70
   128
 71
    21
 72
    22
 73
    23
  0
VERTEX
  5
3BF
  8
0
 10
0.0
 20
0.0
 30
0.0
 70
   128
 71
    19
 72
    24
 73
    25
  0
VERTEX
  5
3C0
  8
0
 10
0.0
 20
0.0
 30
0.0
 70
   128
 71
    20
 72
    19
 73
    25
  0
VERTEX
  5
3C1
  8
0
 10
0.0
 20
0.0
 30
0.0
 70
   128
 71
    22
 72
     1
 73
     9
  0
VERTEX
  5
3C2
  8
0
 10
0.0
 20
0.0
 30
0.0
 70
   128
 71
    23
 72
    22
 73
     9
  0
VERTEX
  5
3C3
  8
0
 10
0.0
 20
0.0
 30
0.0
 70
   128
 71
    12
 72
    11
 73
    18
  0
VERTEX
  5
3C4
  8
0
 10
0.0
 20
0.0
 30
0.0
 70
   128
 71
    26
 72
    12
 73
    18
  0
VERTEX
  5
3C5
  8
0
 10
0.0
 20
0.0
 30
0.0
 70
   128
 71
    12
 72
    27
 73
    28
  0
VERTEX
  5
3C6
  8
0
 10
0.0
 20
0.0
 30
0.0
 70
   128
 71
    28
 72
    29
 73
    12
  0
VERTEX
  5
3C7
  8
0
 10
0.0
 20
0.0
 30
0.0
 70
   128
 71
    29
 72
    30
 73
    12
  0
VERTEX
  5
3C8
  8
0
 10
0.0
 20
0.0
 30
0.0
 70
   128
 71
    15
 72
    12
 73
    30
  0
VERTEX
  5
3C9
  8
0
 10
0.0
 20
0.0
 30
0.0
 70
   128
 71
    30
 72
    13
 73
    15
  0
VERTEX
  5
3CA
  8
0
 10
0.0
 20
0.0
 30
0.0
 70
   128
 71
    16
 72
    10
 73
    12
  0
VERTEX
  5
3CB
  8
0
 10
0.0
 20
0.0
 30
0.0
 70
   128
 71
    15
 72
    16
 73
    12
  0
VERTEX
  5
3CC
  8
0
 10
0.0
 20
0.0
 30
0.0
 70
   128
 71
    24
 72
    21
 73
    31
  0
VERTEX
  5
3CD
  8
0
 10
0.0
 20
0.0
 30
0.0
 70
   128
 71
    25
 72
    24
 73
    31
  0
VERTEX
  5
3CE
  8
0
 10
0.0
 20
0.0
 30
0.0
 70
   128
 71
    31
 72
    21
 73
    23
  0
SEQEND
  5
646
  8
0
  0
POLYLINE
  5
3CF
  8
0
 66
     1
 10
0.0
 20
0.0
 30
0.0
 70
    64
 71
    27
 72
    30
  0
VERTEX
  5
3D0
  8
0
 10
95.2913109112715
 20
-59.31143196285522
 30
-0.0000000001741439
 70
   192
  0
VERTEX
  5
3D1
  8
0
 10
37.89769825488276
 20
-69.8835829093137
 30
-0.0000000001915912
 70
   192
  0
VERTEX
  5
3D2
  8
0
 10
31.77765980661
 20
-69.83625656268585
 30
20.43636657668245
 70
   192
  0
VERTEX
  5
3D3
  8
0
 10
108.8507931067561
 20
-49.11686291903447
 30
34.34128127881856
 70
   192
  0
VERTEX
  5
3D4
  8
0
 10
80.7646307039957
 20
-48.16144849587667
 30
56.91415880590742
 70
   192
  0
VERTEX
  5
3D5
  8
0
 10
178.6489093876894
 20
-4.037161283498567
 30
42.98340042356507
 70
   192
  0
VERTEX
  5
3D6
  8
0
 10
197.04642181587
 20
-3.49790469849731
 30
-0.0000000000016232
 70
   192
  0
VERTEX
  5
3D7
  8
0
 10
149.1525800977276
 20
-36.84420425204925
 30
-0.0000000000936598
 70
   192
  0
VERTEX
  5
3D8
  8
0
 10
43.48673854167359
 20
-5.989838337370063
 30
97.45091629205247
 70
   192
  0
VERTEX
  5
3D9
  8
0
 10
14.75678388907914
 20
-45.98564820249857
 30
77.54682064282227
 70
   192
  0
VERTEX
  5
3DA
  8
0
 10
-50.21345436150173
 20
-45.40443182759766
 30
63.57975649352337
 70
   192
  0
VERTEX
  5
3DB
  8
0
 10
-54.25758068050035
 20
-6.572341164605406
 30
83.81732831540768
 70
   192
  0
VERTEX
  5
3DC
  8
0
 10
-6.368605090706365
 20
-6.381595965276002
 30
97.5919148792701
 70
   192
  0
VERTEX
  5
3DD
  8
0
 10
-5.83550673434404
 20
-69.7325328259574
 30
36.94985552218075
 70
   192
  0
VERTEX
  5
3DE
  8
0
 10
-21.91292754063826
 20
-69.73676298062512
 30
30.354916069004
 70
   192
  0
VERTEX
  5
3DF
  8
0
 10
-71.44975851399964
 20
-45.57793594567323
 30
36.99526533306725
 70
   192
  0
VERTEX
  5
3E0
  8
0
 10
-65.50944475912877
 20
-56.93644164678417
 30
-0.0000000000000062
 70
   192
  0
VERTEX
  5
3E1
  8
0
 10
-33.0283146666131
 20
-69.73788909086826
 30
17.63706197714716
 70
   192
  0
VERTEX
  5
3E2
  8
0
 10
-37.41658136924455
 20
-69.7340729280708
 30
-0.0000000000001277
 70
   192
  0
VERTEX
  5
3E3
  8
0
 10
-86.9957638955348
 20
-34.77054698105118
 30
-0.0000000000000073
 70
   192
  0
VERTEX
  5
3E4
  8
0
 10
-98.9123279514891
 20
-6.29277142350675
 30
-0.0000001595187507
 70
   192
  0
VERTEX
  5
3E5
  8
0
 10
-98.91232793415719
 20
-6.29277142122022
 30
0.0017299305007985
 70
   192
  0
VERTEX
  5
3E6
  8
0
 10
-88.72904634774288
 20
-6.407374227265707
 30
48.55676427316458
 70
   192
  0
VERTEX
  5
3E7
  8
0
 10
-98.91232790227868
 20
-6.292771419967877
 30
0.0034599466539104
 70
   192
  0
VERTEX
  5
3E8
  8
0
 10
-98.9123278534766
 20
-6.29277141890054
 30
0.0051899243890425
 70
   192
  0
VERTEX
  5
3E9
  8
0
 10
15.56280951848516
 20
-69.75936117830574
 30
34.15458495896213
 70
   192
  0
VERTEX
  5
3EA
  8
0
 10
138.8766402024985
 20
-4.835375159270445
 30
71.5163006313433
 70
   192
  0
VERTEX
  5
3EB
  8
0
 10
0.0
 20
0.0
 30
0.0
 70
   128
 71
     1
 72
     2
 73
     3
  0
VERTEX
  5
3EC
  8
0
 10
0.0
 20
0.0
 30
0.0
 70
   128
 71
     1
 72
     3
 73
     4
  0
VERTEX
  5
3ED
  8
0
 10
0.0
 20
0.0
 30
0.0
 70
   128
 71
     3
 72
     5
 73
     4
  0
VERTEX
  5
3EE
  8
0
 10
0.0
 20
0.0
 30
0.0
 70
   128
 71
     6
 72
     7
 73
     8
  0
VERTEX
  5
3EF
  8
0
 10
0.0
 20
0.0
 30
0.0
 70
   128
 71
     9
 72
     5
 73
    10
  0
VERTEX
  5
3F0
  8
0
 10
0.0
 20
0.0
 30
0.0
 70
   128
 71
    10
 72
    11
 73
    12
  0
VERTEX
  5
3F1
  8
0
 10
0.0
 20
0.0
 30
0.0
 70
   128
 71
    10
 72
    12
 73
    13
  0
VERTEX
  5
3F2
  8
0
 10
0.0
 20
0.0
 30
0.0
 70
   128
 71
    11
 72
    10
 73
    14
  0
VERTEX
  5
3F3
  8
0
 10
0.0
 20
0.0
 30
0.0
 70
   128
 71
    11
 72
    14
 73
    15
  0
VERTEX
  5
3F4
  8
0
 10
0.0
 20
0.0
 30
0.0
 70
   128
 71
    16
 72
    11
 73
    17
  0
VERTEX
  5
3F5
  8
0
 10
0.0
 20
0.0
 30
0.0
 70
   128
 71
    18
 72
    19
 73
    17
  0
VERTEX
  5
3F6
  8
0
 10
0.0
 20
0.0
 30
0.0
 70
   128
 71
    20
 72
    21
 73
    22
  0
VERTEX
  5
3F7
  8
0
 10
0.0
 20
0.0
 30
0.0
 70
   128
 71
    23
 72
    11
 73
    16
  0
VERTEX
  5
3F8
  8
0
 10
0.0
 20
0.0
 30
0.0
 70
   128
 71
     1
 72
     4
 73
     8
  0
VERTEX
  5
3F9
  8
0
 10
0.0
 20
0.0
 30
0.0
 70
   128
 71
    24
 72
    25
 73
    16
  0
VERTEX
  5
3FA
  8
0
 10
0.0
 20
0.0
 30
0.0
 70
   128
 71
    24
 72
    16
 73
    20
  0
VERTEX
  5
3FB
  8
0
 10
0.0
 20
0.0
 30
0.0
 70
   128
 71
    20
 72
    22
 73
    24
  0
VERTEX
  5
3FC
  8
0
 10
0.0
 20
0.0
 30
0.0
 70
   128
 71
    16
 72
    17
 73
    20
  0
VERTEX
  5
3FD
  8
0
 10
0.0
 20
0.0
 30
0.0
 70
   128
 71
    26
 72
    10
 73
     5
  0
VERTEX
  5
3FE
  8
0
 10
0.0
 20
0.0
 30
0.0
 70
   128
 71
    26
 72
     5
 73
     3
  0
VERTEX
  5
3FF
  8
0
 10
0.0
 20
0.0
 30
0.0
 70
   128
 71
     9
 72
    27
 73
     4
  0
VERTEX
  5
400
  8
0
 10
0.0
 20
0.0
 30
0.0
 70
   128
 71
     9
 72
     4
 73
     5
  0
VERTEX
  5
401
  8
0
 10
0.0
 20
0.0
 30
0.0
 70
   128
 71
    27
 72
     6
 73
     8
  0
VERTEX
  5
402
  8
0
 10
0.0
 20
0.0
 30
0.0
 70
   128
 71
    27
 72
     8
 73
     4
  0
VERTEX
  5
403
  8
0
 10
0.0
 20
0.0
 30
0.0
 70
   128
 71
    13
 72
     9
 73
    10
  0
VERTEX
  5
404
  8
0
 10
0.0
 20
0.0
 30
0.0
 70
   128
 71
    14
 72
    10
 73
    26
  0
VERTEX
  5
405
  8
0
 10
0.0
 20
0.0
 30
0.0
 70
   128
 71
    23
 72
    12
 73
    11
  0
VERTEX
  5
406
  8
0
 10
0.0
 20
0.0
 30
0.0
 70
   128
 71
    18
 72
    17
 73
    11
  0
VERTEX
  5
407
  8
0
 10
0.0
 20
0.0
 30
0.0
 70
   128
 71
    18
 72
    11
 73
    15
  0
VERTEX
  5
408
  8
0
 10
0.0
 20
0.0
 30
0.0
 70
   128
 71
    25
 72
    23
 73
    16
  0
SEQEND
  5
647
  8
0
  0
POLYLINE
  5
409
  8
0
 66
     1
 10
0.0
 20
0.0
 30
0.0
 70
    64
 71
    24
 72
    22
  0
VERTEX
  5
40A
  8
0
 10
20.51172437640002
 20
-92.00000000000001
 30
-58.22752510604231
 70
   192
  0
VERTEX
  5
40B
  8
0
 10
64.2834550507509
 20
-1.269235960831872
 30
-106.3658330395074
 70
   192
  0
VERTEX
  5
40C
  8
0
 10
55.93066106603423
 20
-35.22316301521152
 30
-94.6805628593026
 70
   192
  0
VERTEX
  5
40D
  8
0
 10
44.29900306865301
 20
-65.72962966625393
 30
-77.78865978220394
 70
   192
  0
VERTEX
  5
40E
  8
0
 10
30.37032836372615
 20
-92.0
 30
-56.00504929081829
 70
   192
  0
VERTEX
  5
40F
  8
0
 10
10.36692292853353
 20
-92.00000000000001
 30
-59.55758907881646
 70
   192
  0
VERTEX
  5
410
  8
0
 10
3.867858184827897
 20
-1.237704172129226
 30
-109.2079779358569
 70
   192
  0
VERTEX
  5
411
  8
0
 10
-0.0000000000065175
 20
-92.0
 30
-60.0
 70
   192
  0
VERTEX
  5
412
  8
0
 10
-60.00000000000002
 20
-92.0
 30
0.0000000001923313
 70
   192
  0
VERTEX
  5
413
  8
0
 10
-107.9615156201787
 20
-1.201817272575589
 30
22.85496702111881
 70
   192
  0
VERTEX
  5
414
  8
0
 10
-108.1213198012732
 20
-1.170072505346853
 30
-22.16610557182929
 70
   192
  0
VERTEX
  5
415
  8
0
 10
-18.27890152270253
 20
-1.23345519633207
 30
106.5897176780854
 70
   192
  0
VERTEX
  5
416
  8
0
 10
0.0000000000000005
 20
-92.0
 30
60.0
 70
   192
  0
VERTEX
  5
417
  8
0
 10
-0.0000000000617664
 20
-64.74658127582633
 30
81.51311292173148
 70
   192
  0
VERTEX
  5
418
  8
0
 10
-0.0000000001194605
 20
-34.1831177386566
 30
97.9885438044743
 70
   192
  0
VERTEX
  5
419
  8
0
 10
-0.0000522740385939
 20
-1.23083884976892
 30
108.9297529510164
 70
   192
  0
VERTEX
  5
41A
  8
0
 10
-45.88151000597141
 20
-1.255033696648429
 30
98.94680680933905
 70
   192
  0
VERTEX
  5
41B
  8
0
 10
-41.79620357925536
 20
-92.0
 30
43.0475842231224
 70
   192
  0
VERTEX
  5
41C
  8
0
 10
-72.34055012203017
 20
-1.277873203803967
 30
84.2281754337539
 70
   192
  0
VERTEX
  5
41D
  8
0
 10
-88.41109830245004
 20
-1.279126281180474
 30
68.45150419558253
 70
   192
  0
VERTEX
  5
41E
  8
0
 10
-83.83567812930296
 20
-1.223233460844492
 30
-73.92474766971988
 70
   192
  0
VERTEX
  5
41F
  8
0
 10
-53.5980777423156
 20
-1.234651403264485
 30
-95.66143967068781
 70
   192
  0
VERTEX
  5
420
  8
0
 10
-41.79359460091882
 20
-92.0
 30
-43.05011775045674
 70
   192
  0
VERTEX
  5
421
  8
0
 10
-96.4701086598784
 20
-1.259752209362716
 30
56.40193999493708
 70
   192
  0
VERTEX
  5
422
  8
0
 10
0.0
 20
0.0
 30
0.0
 70
   128
 71
     1
 72
     2
 73
     3
  0
VERTEX
  5
423
  8
0
 10
0.0
 20
0.0
 30
0.0
 70
   128
 71
     3
 72
     4
 73
     1
  0
VERTEX
  5
424
  8
0
 10
0.0
 20
0.0
 30
0.0
 70
   128
 71
     4
 72
     5
 73
     1
  0
VERTEX
  5
425
  8
0
 10
0.0
 20
0.0
 30
0.0
 70
   128
 71
     6
 72
     7
 73
     2
  0
VERTEX
  5
426
  8
0
 10
0.0
 20
0.0
 30
0.0
 70
   128
 71
     1
 72
     6
 73
     2
  0
VERTEX
  5
427
  8
0
 10
0.0
 20
0.0
 30
0.0
 70
   128
 71
     6
 72
     8
 73
     7
  0
VERTEX
  5
428
  8
0
 10
0.0
 20
0.0
 30
0.0
 70
   128
 71
     9
 72
    10
 73
    11
  0
VERTEX
  5
429
  8
0
 10
0.0
 20
0.0
 30
0.0
 70
   128
 71
    12
 72
    13
 73
    14
  0
VERTEX
  5
42A
  8
0
 10
0.0
 20
0.0
 30
0.0
 70
   128
 71
    14
 72
    15
 73
    12
  0
VERTEX
  5
42B
  8
0
 10
0.0
 20
0.0
 30
0.0
 70
   128
 71
    15
 72
    16
 73
    12
  0
VERTEX
  5
42C
  8
0
 10
0.0
 20
0.0
 30
0.0
 70
   128
 71
    17
 72
    18
 73
    13
  0
VERTEX
  5
42D
  8
0
 10
0.0
 20
0.0
 30
0.0
 70
   128
 71
    12
 72
    17
 73
    13
  0
VERTEX
  5
42E
  8
0
 10
0.0
 20
0.0
 30
0.0
 70
   128
 71
    18
 72
    17
 73
    19
  0
VERTEX
  5
42F
  8
0
 10
0.0
 20
0.0
 30
0.0
 70
   128
 71
    19
 72
    20
 73
    18
  0
VERTEX
  5
430
  8
0
 10
0.0
 20
0.0
 30
0.0
 70
   128
 71
    21
 72
    22
 73
    23
  0
VERTEX
  5
431
  8
0
 10
0.0
 20
0.0
 30
0.0
 70
   128
 71
    10
 72
     9
 73
    18
  0
VERTEX
  5
432
  8
0
 10
0.0
 20
0.0
 30
0.0
 70
   128
 71
    24
 72
    10
 73
    18
  0
VERTEX
  5
433
  8
0
 10
0.0
 20
0.0
 30
0.0
 70
   128
 71
    22
 72
     7
 73
     8
  0
VERTEX
  5
434
  8
0
 10
0.0
 20
0.0
 30
0.0
 70
   128
 71
    23
 72
    22
 73
     8
  0
VERTEX
  5
435
  8
0
 10
0.0
 20
0.0
 30
0.0
 70
   128
 71
    18
 72
    20
 73
    24
  0
VERTEX
  5
436
  8
0
 10
0.0
 20
0.0
 30
0.0
 70
   128
 71
    11
 72
    21
 73
    23
  0
VERTEX
  5
437
  8
0
 10
0.0
 20
0.0
 30
0.0
 70
   128
 71
     9
 72
    11
 73
    23
  0
SEQEND
  5
648
  8
0
  0
POLYLINE
  5
438
  8
0
 66
     1
 10
0.0
 20
0.0
 30
0.0
 70
    64
 71
    24
 72
    22
  0
VERTEX
  5
439
  8
0
 10
-6.353945971206764
 20
-6.381499061240484
 30
-97.59348664633221
 70
   192
  0
VERTEX
  5
43A
  8
0
 10
-7.167812888446488
 20
0.0
 30
-105.2494524749649
 70
   192
  0
VERTEX
  5
43B
  8
0
 10
-57.81879002169276
 20
0.0
 30
-90.45986266127952
 70
   192
  0
VERTEX
  5
43C
  8
0
 10
-54.22562811398057
 20
-6.572341242285128
 30
-83.83464315926668
 70
   192
  0
VERTEX
  5
43D
  8
0
 10
178.6345265338814
 20
-4.037528833952458
 30
-42.99902374931767
 70
   192
  0
VERTEX
  5
43E
  8
0
 10
197.04642181587
 20
-3.49790469849731
 30
-0.0000000000016232
 70
   192
  0
VERTEX
  5
43F
  8
0
 10
199.7376410144655
 20
-1.447928515056055
 30
-0.0000000000005102
 70
   192
  0
VERTEX
  5
440
  8
0
 10
203.0299145494459
 20
-0.2172703057237966
 30
0.0000000000008206
 70
   192
  0
VERTEX
  5
441
  8
0
 10
200.5957719688647
 20
0.0
 30
-26.78302550599406
 70
   192
  0
VERTEX
  5
442
  8
0
 10
206.414701418883
 20
0.0
 30
0.0000000000021657
 70
   192
  0
VERTEX
  5
443
  8
0
 10
185.4610637365116
 20
0.0
 30
-49.089708143984
 70
   192
  0
VERTEX
  5
444
  8
0
 10
-95.58860442671664
 20
0.0
 30
-52.00509508235294
 70
   192
  0
VERTEX
  5
445
  8
0
 10
-106.684137668495
 20
0.0
 30
0.0054519407385701
 70
   192
  0
VERTEX
  5
446
  8
0
 10
-102.9438183001908
 20
-0.44924217864295
 30
0.0053258407888331
 70
   192
  0
VERTEX
  5
447
  8
0
 10
-98.91232790227868
 20
-6.292771419967877
 30
0.0034599466539104
 70
   192
  0
VERTEX
  5
448
  8
0
 10
-100.1190228813527
 20
-2.744022827328337
 30
0.0052306065253315
 70
   192
  0
VERTEX
  5
449
  8
0
 10
-98.9123278534766
 20
-6.29277141890054
 30
0.0051899243890425
 70
   192
  0
VERTEX
  5
44A
  8
0
 10
-98.91232793415719
 20
-6.29277142122022
 30
0.0017299305007985
 70
   192
  0
VERTEX
  5
44B
  8
0
 10
-98.9123279514891
 20
-6.29277142350675
 30
-0.0000001595187507
 70
   192
  0
VERTEX
  5
44C
  8
0
 10
44.24245329635733
 20
0.0
 30
-105.4225890285884
 70
   192
  0
VERTEX
  5
44D
  8
0
 10
43.46383037721775
 20
-5.990047850665661
 30
-97.45309945670674
 70
   192
  0
VERTEX
  5
44E
  8
0
 10
-88.70935919551258
 20
-6.407571786112335
 30
-48.59637734962372
 70
   192
  0
VERTEX
  5
44F
  8
0
 10
142.720832202735
 20
0.0
 30
-79.37888066724288
 70
   192
  0
VERTEX
  5
450
  8
0
 10
138.7432994493688
 20
-4.837523248661596
 30
-71.58290560124021
 70
   192
  0
VERTEX
  5
451
  8
0
 10
0.0
 20
0.0
 30
0.0
 70
   128
 71
     1
 72
     2
 73
     3
  0
VERTEX
  5
452
  8
0
 10
0.0
 20
0.0
 30
0.0
 70
   128
 71
     4
 72
     1
 73
     3
  0
VERTEX
  5
453
  8
0
 10
0.0
 20
0.0
 30
0.0
 70
   128
 71
     5
 72
     6
 73
     7
  0
VERTEX
  5
454
  8
0
 10
0.0
 20
0.0
 30
0.0
 70
   128
 71
     7
 72
     8
 73
     5
  0
VERTEX
  5
455
  8
0
 10
0.0
 20
0.0
 30
0.0
 70
   128
 71
     8
 72
     9
 73
     5
  0
VERTEX
  5
456
  8
0
 10
0.0
 20
0.0
 30
0.0
 70
   128
 71
     8
 72
    10
 73
     9
  0
VERTEX
  5
457
  8
0
 10
0.0
 20
0.0
 30
0.0
 70
   128
 71
     9
 72
    11
 73
     5
  0
VERTEX
  5
458
  8
0
 10
0.0
 20
0.0
 30
0.0
 70
   128
 71
    12
 72
    13
 73
    14
  0
VERTEX
  5
459
  8
0
 10
0.0
 20
0.0
 30
0.0
 70
   128
 71
    15
 72
    14
 73
    16
  0
VERTEX
  5
45A
  8
0
 10
0.0
 20
0.0
 30
0.0
 70
   128
 71
    16
 72
    17
 73
    15
  0
VERTEX
  5
45B
  8
0
 10
0.0
 20
0.0
 30
0.0
 70
   128
 71
    15
 72
    18
 73
    14
  0
VERTEX
  5
45C
  8
0
 10
0.0
 20
0.0
 30
0.0
 70
   128
 71
    18
 72
    19
 73
    14
  0
VERTEX
  5
45D
  8
0
 10
0.0
 20
0.0
 30
0.0
 70
   128
 71
    20
 72
     2
 73
     1
  0
VERTEX
  5
45E
  8
0
 10
0.0
 20
0.0
 30
0.0
 70
   128
 71
    21
 72
    20
 73
     1
  0
VERTEX
  5
45F
  8
0
 10
0.0
 20
0.0
 30
0.0
 70
   128
 71
     3
 72
    12
 73
    22
  0
VERTEX
  5
460
  8
0
 10
0.0
 20
0.0
 30
0.0
 70
   128
 71
     4
 72
     3
 73
    22
  0
VERTEX
  5
461
  8
0
 10
0.0
 20
0.0
 30
0.0
 70
   128
 71
    23
 72
    20
 73
    21
  0
VERTEX
  5
462
  8
0
 10
0.0
 20
0.0
 30
0.0
 70
   128
 71
    24
 72
    23
 73
    21
  0
VERTEX
  5
463
  8
0
 10
0.0
 20
0.0
 30
0.0
 70
   128
 71
    11
 72
    23
 73
    24
  0
VERTEX
  5
464
  8
0
 10
0.0
 20
0.0
 30
0.0
 70
   128
 71
     5
 72
    11
 73
    24
  0
VERTEX
  5
465
  8
0
 10
0.0
 20
0.0
 30
0.0
 70
   128
 71
    12
 72
    14
 73
    19
  0
VERTEX
  5
466
  8
0
 10
0.0
 20
0.0
 30
0.0
 70
   128
 71
    22
 72
    12
 73
    19
  0
SEQEND
  5
649
  8
0
  0
POLYLINE
  5
467
  8
0
 66
     1
 10
0.0
 20
0.0
 30
0.0
 70
    64
 71
    19
 72
    17
  0
VERTEX
  5
468
  8
0
 10
37.89769825488276
 20
-69.8835829093137
 30
-0.0000000001915912
 70
   192
  0
VERTEX
  5
469
  8
0
 10
34.01076300489085
 20
-69.8518232973123
 30
-16.5489481144891
 70
   192
  0
VERTEX
  5
46A
  8
0
 10
34.96351672054301
 20
-71.03777257720148
 30
2.64247097702961
 70
   192
  0
VERTEX
  5
46B
  8
0
 10
21.85696151449319
 20
-69.78192339773378
 30
-30.6178211480474
 70
   192
  0
VERTEX
  5
46C
  8
0
 10
5.60885060513723
 20
-69.73908184699891
 30
-37.01898827036359
 70
   192
  0
VERTEX
  5
46D
  8
0
 10
5.494297298096351
 20
-69.9755811359145
 30
-36.28839277942559
 70
   192
  0
VERTEX
  5
46E
  8
0
 10
5.386343027602486
 20
-70.3237170959087
 30
-35.60284819733658
 70
   192
  0
VERTEX
  5
46F
  8
0
 10
27.46116927205397
 20
-70.95017701847239
 30
-21.96920340949951
 70
   192
  0
VERTEX
  5
470
  8
0
 10
5.287590891288993
 20
-70.7750951364818
 30
-34.97888503716408
 70
   192
  0
VERTEX
  5
471
  8
0
 10
0.0000000000012518
 20
-70.75951712908079
 30
35.39484273278109
 70
   192
  0
VERTEX
  5
472
  8
0
 10
-1.750522660019669
 20
-70.7567959093291
 30
35.35485738830744
 70
   192
  0
VERTEX
  5
473
  8
0
 10
15.56280951848516
 20
-69.75936117830574
 30
34.15458495896213
 70
   192
  0
VERTEX
  5
474
  8
0
 10
-5.618459303420164
 20
-70.31341174685254
 30
35.57457556722802
 70
   192
  0
VERTEX
  5
475
  8
0
 10
-3.593538174116885
 20
-70.75510170241141
 30
35.2173303281845
 70
   192
  0
VERTEX
  5
476
  8
0
 10
-5.52265877510618
 20
-70.7544345083277
 30
34.9674700019572
 70
   192
  0
VERTEX
  5
477
  8
0
 10
-5.72354375928307
 20
-69.97015880539534
 30
36.24045142657735
 70
   192
  0
VERTEX
  5
478
  8
0
 10
-5.835506734344037
 20
-69.73253282595738
 30
36.94985552218075
 70
   192
  0
VERTEX
  5
479
  8
0
 10
23.90037724356203
 20
-70.91285362009039
 30
25.85854200816035
 70
   192
  0
VERTEX
  5
47A
  8
0
 10
31.77765980661
 20
-69.83625656268585
 30
20.43636657668245
 70
   192
  0
VERTEX
  5
47B
  8
0
 10
0.0
 20
0.0
 30
0.0
 70
   128
 71
     1
 72
     2
 73
     3
  0
VERTEX
  5
47C
  8
0
 10
0.0
 20
0.0
 30
0.0
 70
   128
 71
     4
 72
     5
 73
     6
  0
VERTEX
  5
47D
  8
0
 10
0.0
 20
0.0
 30
0.0
 70
   128
 71
     6
 72
     7
 73
     4
  0
VERTEX
  5
47E
  8
0
 10
0.0
 20
0.0
 30
0.0
 70
   128
 71
     7
 72
     8
 73
     4
  0
VERTEX
  5
47F
  8
0
 10
0.0
 20
0.0
 30
0.0
 70
   128
 71
     7
 72
     9
 73
     8
  0
VERTEX
  5
480
  8
0
 10
0.0
 20
0.0
 30
0.0
 70
   128
 71
    10
 72
    11
 73
    12
  0
VERTEX
  5
481
  8
0
 10
0.0
 20
0.0
 30
0.0
 70
   128
 71
    13
 72
    11
 73
    14
  0
VERTEX
  5
482
  8
0
 10
0.0
 20
0.0
 30
0.0
 70
   128
 71
    14
 72
    15
 73
    13
  0
VERTEX
  5
483
  8
0
 10
0.0
 20
0.0
 30
0.0
 70
   128
 71
    13
 72
    16
 73
    11
  0
VERTEX
  5
484
  8
0
 10
0.0
 20
0.0
 30
0.0
 70
   128
 71
    16
 72
    12
 73
    11
  0
VERTEX
  5
485
  8
0
 10
0.0
 20
0.0
 30
0.0
 70
   128
 71
    16
 72
    17
 73
    12
  0
VERTEX
  5
486
  8
0
 10
0.0
 20
0.0
 30
0.0
 70
   128
 71
     3
 72
    18
 73
     1
  0
VERTEX
  5
487
  8
0
 10
0.0
 20
0.0
 30
0.0
 70
   128
 71
     3
 72
     2
 73
     4
  0
VERTEX
  5
488
  8
0
 10
0.0
 20
0.0
 30
0.0
 70
   128
 71
     8
 72
     3
 73
     4
  0
VERTEX
  5
489
  8
0
 10
0.0
 20
0.0
 30
0.0
 70
   128
 71
    18
 72
    19
 73
     1
  0
VERTEX
  5
48A
  8
0
 10
0.0
 20
0.0
 30
0.0
 70
   128
 71
    10
 72
    12
 73
    19
  0
VERTEX
  5
48B
  8
0
 10
0.0
 20
0.0
 30
0.0
 70
   128
 71
    18
 72
    10
 73
    19
  0
SEQEND
  5
64A
  8
0
  0
POLYLINE
  5
48C
  8
0
 66
     1
 10
0.0
 20
0.0
 30
0.0
 70
    64
 71
    13
 72
    11
  0
VERTEX
  5
48D
  8
0
 10
0.0000000000000027
 20
-81.99912472583509
 30
-22.0
 70
   192
  0
VERTEX
  5
48E
  8
0
 10
0.0000000000000043
 20
-70.75951712908066
 30
-35.39484273278128
 70
   192
  0
VERTEX
  5
48F
  8
0
 10
-24.03445012461787
 20
-70.77464747549915
 30
-25.95888999878355
 70
   192
  0
VERTEX
  5
490
  8
0
 10
-15.55634918610404
 20
-81.99912472583509
 30
-15.55634918610405
 70
   192
  0
VERTEX
  5
491
  8
0
 10
-22.0
 20
-81.99912472583509
 30
-0.0000000000000024
 70
   192
  0
VERTEX
  5
492
  8
0
 10
-35.28583912007909
 20
-70.76051290943478
 30
-2.760515024806828
 70
   192
  0
VERTEX
  5
493
  8
0
 10
-15.55634918610405
 20
-81.99912472583509
 30
15.55634918610404
 70
   192
  0
VERTEX
  5
494
  8
0
 10
-27.77456989814016
 20
-70.77637920307157
 30
21.90767019095167
 70
   192
  0
VERTEX
  5
495
  8
0
 10
-0.0000000000000024
 20
-81.99912472583509
 30
22.0
 70
   192
  0
VERTEX
  5
496
  8
0
 10
-5.52265877510618
 20
-70.7544345083277
 30
34.9674700019572
 70
   192
  0
VERTEX
  5
497
  8
0
 10
-3.593538174116885
 20
-70.75510170241141
 30
35.2173303281845
 70
   192
  0
VERTEX
  5
498
  8
0
 10
-1.750522660019669
 20
-70.7567959093291
 30
35.35485738830744
 70
   192
  0
VERTEX
  5
499
  8
0
 10
0.0000000000012518
 20
-70.75951712908079
 30
35.39484273278109
 70
   192
  0
VERTEX
  5
49A
  8
0
 10
0.0
 20
0.0
 30
0.0
 70
   128
 71
     1
 72
     2
 73
     3
  0
VERTEX
  5
49B
  8
0
 10
0.0
 20
0.0
 30
0.0
 70
   128
 71
     4
 72
     1
 73
     3
  0
VERTEX
  5
49C
  8
0
 10
0.0
 20
0.0
 30
0.0
 70
   128
 71
     5
 72
     4
 73
     6
  0
VERTEX
  5
49D
  8
0
 10
0.0
 20
0.0
 30
0.0
 70
   128
 71
     7
 72
     5
 73
     8
  0
VERTEX
  5
49E
  8
0
 10
0.0
 20
0.0
 30
0.0
 70
   128
 71
     9
 72
     7
 73
    10
  0
VERTEX
  5
49F
  8
0
 10
0.0
 20
0.0
 30
0.0
 70
   128
 71
    10
 72
    11
 73
     9
  0
VERTEX
  5
4A0
  8
0
 10
0.0
 20
0.0
 30
0.0
 70
   128
 71
    11
 72
    12
 73
     9
  0
VERTEX
  5
4A1
  8
0
 10
0.0
 20
0.0
 30
0.0
 70
   128
 71
    12
 72
    13
 73
     9
  0
VERTEX
  5
4A2
  8
0
 10
0.0
 20
0.0
 30
0.0
 70
   128
 71
     6
 72
     4
 73
     3
  0
VERTEX
  5
4A3
  8
0
 10
0.0
 20
0.0
 30
0.0
 70
   128
 71
     8
 72
     5
 73
     6
  0
VERTEX
  5
4A4
  8
0
 10
0.0
 20
0.0
 30
0.0
 70
   128
 71
    10
 72
     7
 73
     8
  0
SEQEND
  5
64B
  8
0
  0
POLYLINE
  5
4A5
  8
0
 66
     1
 10
0.0
 20
0.0
 30
0.0
 70
    64
 71
    10
 72
     8
  0
VERTEX
  5
4A6
  8
0
 10
0.0000000000000027
 20
-92.0
 30
-22.0
 70
   192
  0
VERTEX
  5
4A7
  8
0
 10
-0.0000000000000024
 20
-92.0
 30
22.0
 70
   192
  0
VERTEX
  5
4A8
  8
0
 10
-0.0000000000000024
 20
-81.99912472583509
 30
22.0
 70
   192
  0
VERTEX
  5
4A9
  8
0
 10
0.0000000000000027
 20
-81.99912472583509
 30
-22.0
 70
   192
  0
VERTEX
  5
4AA
  8
0
 10
-22.0
 20
-81.99912472583509
 30
-0.0000000000000024
 70
   192
  0
VERTEX
  5
4AB
  8
0
 10
-22.0
 20
-92.0
 30
-0.0000000000000024
 70
   192
  0
VERTEX
  5
4AC
  8
0
 10
-15.55634918610404
 20
-81.99912472583509
 30
-15.55634918610405
 70
   192
  0
VERTEX
  5
4AD
  8
0
 10
-15.55634918610404
 20
-92.0
 30
-15.55634918610405
 70
   192
  0
VERTEX
  5
4AE
  8
0
 10
-15.55634918610405
 20
-81.99912472583509
 30
15.55634918610404
 70
   192
  0
VERTEX
  5
4AF
  8
0
 10
-15.55634918610405
 20
-92.0
 30
15.55634918610404
 70
   192
  0
VERTEX
  5
4B0
  8
0
 10
0.0
 20
0.0
 30
0.0
 70
   128
 71
     8
 72
     1
 73
    -4
  0
VERTEX
  5
4B1
  8
0
 10
0.0
 20
0.0
 30
0.0
 70
   128
 71
     7
 72
    -8
 73
     4
  0
VERTEX
  5
4B2
  8
0
 10
0.0
 20
0.0
 30
0.0
 70
   128
 71
     6
 72
     8
 73
    -7
  0
VERTEX
  5
4B3
  8
0
 10
0.0
 20
0.0
 30
0.0
 70
   128
 71
     5
 72
    -6
 73
     7
  0
VERTEX
  5
4B4
  8
0
 10
0.0
 20
0.0
 30
0.0
 70
   128
 71
    10
 72
     6
 73
    -5
  0
VERTEX
  5
4B5
  8
0
 10
0.0
 20
0.0
 30
0.0
 70
   128
 71
     9
 72
   -10
 73
     5
  0
VERTEX
  5
4B6
  8
0
 10
0.0
 20
0.0
 30
0.0
 70
   128
 71
     2
 72
    10
 73
    -9
  0
VERTEX
  5
4B7
  8
0
 10
0.0
 20
0.0
 30
0.0
 70
   128
 71
     3
 72
    -2
 73
     9
  0
SEQEND
  5
64C
  8
0
  0
POLYLINE
  5
4B8
  8
0
 66
     1
 10
0.0
 20
0.0
 30
0.0
 70
    64
 71
    21
 72
    19
  0
VERTEX
  5
4B9
  8
0
 10
206.414701418883
 20
0.0
 30
0.0000000000021657
 70
   192
  0
VERTEX
  5
4BA
  8
0
 10
-106.684137668495
 20
0.0
 30
0.0054519407385701
 70
   192
  0
VERTEX
  5
4BB
  8
0
 10
-98.9123278534766
 20
-6.29277141890054
 30
0.0051899243890425
 70
   192
  0
VERTEX
  5
4BC
  8
0
 10
197.04642181587
 20
-3.49790469849731
 30
-0.0000000000016232
 70
   192
  0
VERTEX
  5
4BD
  8
0
 10
43.48673854167359
 20
-5.989838337370063
 30
97.45091629205247
 70
   192
  0
VERTEX
  5
4BE
  8
0
 10
44.26809642024977
 20
0.0
 30
105.4203150496559
 70
   192
  0
VERTEX
  5
4BF
  8
0
 10
138.8766402024985
 20
-4.835375159270445
 30
71.5163006313433
 70
   192
  0
VERTEX
  5
4C0
  8
0
 10
142.8619231653313
 20
0.0
 30
79.3096738916812
 70
   192
  0
VERTEX
  5
4C1
  8
0
 10
-54.25758068050035
 20
-6.572341164605406
 30
83.81732831540768
 70
   192
  0
VERTEX
  5
4C2
  8
0
 10
-57.84969552558047
 20
0.0
 30
90.44311449938532
 70
   192
  0
VERTEX
  5
4C3
  8
0
 10
-88.72904634774288
 20
-6.407374227265707
 30
48.55676427316458
 70
   192
  0
VERTEX
  5
4C4
  8
0
 10
-95.60804615540859
 20
0.0
 30
51.96629754883677
 70
   192
  0
VERTEX
  5
4C5
  8
0
 10
178.6489093876894
 20
-4.037161283498567
 30
42.98340042356507
 70
   192
  0
VERTEX
  5
4C6
  8
0
 10
185.4775250727286
 20
0.0
 30
49.07202396230847
 70
   192
  0
VERTEX
  5
4C7
  8
0
 10
-6.368605090706365
 20
-6.381595965276002
 30
97.5919148792701
 70
   192
  0
VERTEX
  5
4C8
  8
0
 10
-7.18020783381849
 20
0.0
 30
105.2480584204604
 70
   192
  0
VERTEX
  5
4C9
  8
0
 10
-102.9438183001908
 20
-0.44924217864295
 30
0.0053258407888331
 70
   192
  0
VERTEX
  5
4CA
  8
0
 10
-100.1190228813527
 20
-2.744022827328337
 30
0.0052306065253315
 70
   192
  0
VERTEX
  5
4CB
  8
0
 10
203.0299145494459
 20
-0.2172703057237966
 30
0.0000000000008206
 70
   192
  0
VERTEX
  5
4CC
  8
0
 10
199.7376410144655
 20
-1.447928515056055
 30
-0.0000000000005102
 70
   192
  0
VERTEX
  5
4CD
  8
0
 10
200.6293121401259
 20
0.0
 30
26.70831669304065
 70
   192
  0
VERTEX
  5
4CE
  8
0
 10
0.0
 20
0.0
 30
0.0
 70
   128
 71
     6
 72
     8
 73
     7
  0
VERTEX
  5
4CF
  8
0
 10
0.0
 20
0.0
 30
0.0
 70
   128
 71
     5
 72
     6
 73
     7
  0
VERTEX
  5
4D0
  8
0
 10
0.0
 20
0.0
 30
0.0
 70
   128
 71
     9
 72
    10
 73
    16
  0
VERTEX
  5
4D1
  8
0
 10
0.0
 20
0.0
 30
0.0
 70
   128
 71
    15
 72
     9
 73
    16
  0
VERTEX
  5
4D2
  8
0
 10
0.0
 20
0.0
 30
0.0
 70
   128
 71
     6
 72
     5
 73
    15
  0
VERTEX
  5
4D3
  8
0
 10
0.0
 20
0.0
 30
0.0
 70
   128
 71
    16
 72
     6
 73
    15
  0
VERTEX
  5
4D4
  8
0
 10
0.0
 20
0.0
 30
0.0
 70
   128
 71
    12
 72
    10
 73
     9
  0
VERTEX
  5
4D5
  8
0
 10
0.0
 20
0.0
 30
0.0
 70
   128
 71
    11
 72
    12
 73
     9
  0
VERTEX
  5
4D6
  8
0
 10
0.0
 20
0.0
 30
0.0
 70
   128
 71
    11
 72
     3
 73
    18
  0
VERTEX
  5
4D7
  8
0
 10
0.0
 20
0.0
 30
0.0
 70
   128
 71
    17
 72
    12
 73
    11
  0
VERTEX
  5
4D8
  8
0
 10
0.0
 20
0.0
 30
0.0
 70
   128
 71
    18
 72
    17
 73
    11
  0
VERTEX
  5
4D9
  8
0
 10
0.0
 20
0.0
 30
0.0
 70
   128
 71
    17
 72
     2
 73
    12
  0
VERTEX
  5
4DA
  8
0
 10
0.0
 20
0.0
 30
0.0
 70
   128
 71
    13
 72
    14
 73
    21
  0
VERTEX
  5
4DB
  8
0
 10
0.0
 20
0.0
 30
0.0
 70
   128
 71
     4
 72
    13
 73
    21
  0
VERTEX
  5
4DC
  8
0
 10
0.0
 20
0.0
 30
0.0
 70
   128
 71
    21
 72
     1
 73
    19
  0
VERTEX
  5
4DD
  8
0
 10
0.0
 20
0.0
 30
0.0
 70
   128
 71
    19
 72
    20
 73
    21
  0
VERTEX
  5
4DE
  8
0
 10
0.0
 20
0.0
 30
0.0
 70
   128
 71
    20
 72
     4
 73
    21
  0
VERTEX
  5
4DF
  8
0
 10
0.0
 20
0.0
 30
0.0
 70
   128
 71
     8
 72
    14
 73
    13
  0
VERTEX
  5
4E0
  8
0
 10
0.0
 20
0.0
 30
0.0
 70
   128
 71
     7
 72
     8
 73
    13
  0
SEQEND
  5
64D
  8
0
  0
POLYLINE
  5
4E1
  8
0
 66
     1
 10
0.0
 20
0.0
 30
0.0
 70
    64
 71
    24
 72
    27
  0
VERTEX
  5
4E2
  8
0
 10
-31.40408727206412
 20
-69.73859551235648
 30
-20.39364785524729
 70
   192
  0
VERTEX
  5
4E3
  8
0
 10
-50.21345436144721
 20
-45.40443182759747
 30
-63.5797564935171
 70
   192
  0
VERTEX
  5
4E4
  8
0
 10
-71.44975851394257
 20
-45.57793594567311
 30
-36.99526533305684
 70
   192
  0
VERTEX
  5
4E5
  8
0
 10
-65.50944475912877
 20
-56.93644164678417
 30
-0.0000000000000062
 70
   192
  0
VERTEX
  5
4E6
  8
0
 10
-37.41658136924455
 20
-69.7340729280708
 30
-0.0000000000001277
 70
   192
  0
VERTEX
  5
4E7
  8
0
 10
-98.9123279514891
 20
-6.29277142350675
 30
-0.0000001595187507
 70
   192
  0
VERTEX
  5
4E8
  8
0
 10
-86.9957638955348
 20
-34.77054698105118
 30
-0.0000000000000073
 70
   192
  0
VERTEX
  5
4E9
  8
0
 10
14.75678388904117
 20
-45.98564820250083
 30
-77.54682064280918
 70
   192
  0
VERTEX
  5
4EA
  8
0
 10
-6.353945971206764
 20
-6.381499061240484
 30
-97.59348664633221
 70
   192
  0
VERTEX
  5
4EB
  8
0
 10
-54.22562811398057
 20
-6.572341242285128
 30
-83.83464315926668
 70
   192
  0
VERTEX
  5
4EC
  8
0
 10
-15.92424931467812
 20
-69.73427374786307
 30
-33.86655398377928
 70
   192
  0
VERTEX
  5
4ED
  8
0
 10
5.60885060513723
 20
-69.73908184699891
 30
-37.01898827036359
 70
   192
  0
VERTEX
  5
4EE
  8
0
 10
108.8507931067231
 20
-49.11686291903803
 30
-34.34128127886947
 70
   192
  0
VERTEX
  5
4EF
  8
0
 10
34.01076300489085
 20
-69.8518232973123
 30
-16.5489481144891
 70
   192
  0
VERTEX
  5
4F0
  8
0
 10
37.89769825488276
 20
-69.8835829093137
 30
-0.0000000001915912
 70
   192
  0
VERTEX
  5
4F1
  8
0
 10
95.2913109112715
 20
-59.31143196285522
 30
-0.0000000001741439
 70
   192
  0
VERTEX
  5
4F2
  8
0
 10
149.1525800977276
 20
-36.84420425204925
 30
-0.0000000000936598
 70
   192
  0
VERTEX
  5
4F3
  8
0
 10
197.04642181587
 20
-3.49790469849731
 30
-0.0000000000016232
 70
   192
  0
VERTEX
  5
4F4
  8
0
 10
178.6345265338814
 20
-4.037528833952458
 30
-42.99902374931767
 70
   192
  0
VERTEX
  5
4F5
  8
0
 10
138.7432994493688
 20
-4.837523248661596
 30
-71.58290560124021
 70
   192
  0
VERTEX
  5
4F6
  8
0
 10
80.76463070389835
 20
-48.16144849588122
 30
-56.91415880593008
 70
   192
  0
VERTEX
  5
4F7
  8
0
 10
-88.70935919551258
 20
-6.407571786112335
 30
-48.59637734962372
 70
   192
  0
VERTEX
  5
4F8
  8
0
 10
43.46383037721775
 20
-5.990047850665661
 30
-97.45309945670674
 70
   192
  0
VERTEX
  5
4F9
  8
0
 10
21.85696151449319
 20
-69.78192339773378
 30
-30.6178211480474
 70
   192
  0
VERTEX
  5
4FA
  8
0
 10
0.0
 20
0.0
 30
0.0
 70
   128
 71
     1
 72
     2
 73
     3
  0
VERTEX
  5
4FB
  8
0
 10
0.0
 20
0.0
 30
0.0
 70
   128
 71
     4
 72
     5
 73
     1
  0
VERTEX
  5
4FC
  8
0
 10
0.0
 20
0.0
 30
0.0
 70
   128
 71
     4
 72
     1
 73
     3
  0
VERTEX
  5
4FD
  8
0
 10
0.0
 20
0.0
 30
0.0
 70
   128
 71
     3
 72
     6
 73
     7
  0
VERTEX
  5
4FE
  8
0
 10
0.0
 20
0.0
 30
0.0
 70
   128
 71
     2
 72
     8
 73
     9
  0
VERTEX
  5
4FF
  8
0
 10
0.0
 20
0.0
 30
0.0
 70
   128
 71
     2
 72
     9
 73
    10
  0
VERTEX
  5
500
  8
0
 10
0.0
 20
0.0
 30
0.0
 70
   128
 71
     8
 72
     2
 73
    11
  0
VERTEX
  5
501
  8
0
 10
0.0
 20
0.0
 30
0.0
 70
   128
 71
     8
 72
    11
 73
    12
  0
VERTEX
  5
502
  8
0
 10
0.0
 20
0.0
 30
0.0
 70
   128
 71
    13
 72
    14
 73
    15
  0
VERTEX
  5
503
  8
0
 10
0.0
 20
0.0
 30
0.0
 70
   128
 71
    13
 72
    15
 73
    16
  0
VERTEX
  5
504
  8
0
 10
0.0
 20
0.0
 30
0.0
 70
   128
 71
    17
 72
    18
 73
    19
  0
VERTEX
  5
505
  8
0
 10
0.0
 20
0.0
 30
0.0
 70
   128
 71
    17
 72
    19
 73
    13
  0
VERTEX
  5
506
  8
0
 10
0.0
 20
0.0
 30
0.0
 70
   128
 71
    20
 72
    21
 73
    13
  0
VERTEX
  5
507
  8
0
 10
0.0
 20
0.0
 30
0.0
 70
   128
 71
     3
 72
     7
 73
     4
  0
VERTEX
  5
508
  8
0
 10
0.0
 20
0.0
 30
0.0
 70
   128
 71
    16
 72
    17
 73
    13
  0
VERTEX
  5
509
  8
0
 10
0.0
 20
0.0
 30
0.0
 70
   128
 71
    11
 72
     2
 73
     1
  0
VERTEX
  5
50A
  8
0
 10
0.0
 20
0.0
 30
0.0
 70
   128
 71
    10
 72
    22
 73
     3
  0
VERTEX
  5
50B
  8
0
 10
0.0
 20
0.0
 30
0.0
 70
   128
 71
    10
 72
     3
 73
     2
  0
VERTEX
  5
50C
  8
0
 10
0.0
 20
0.0
 30
0.0
 70
   128
 71
    22
 72
     6
 73
     3
  0
VERTEX
  5
50D
  8
0
 10
0.0
 20
0.0
 30
0.0
 70
   128
 71
    23
 72
     9
 73
     8
  0
VERTEX
  5
50E
  8
0
 10
0.0
 20
0.0
 30
0.0
 70
   128
 71
    24
 72
    21
 73
     8
  0
VERTEX
  5
50F
  8
0
 10
0.0
 20
0.0
 30
0.0
 70
   128
 71
    24
 72
     8
 73
    12
  0
VERTEX
  5
510
  8
0
 10
0.0
 20
0.0
 30
0.0
 70
   128
 71
    20
 72
    23
 73
     8
  0
VERTEX
  5
511
  8
0
 10
0.0
 20
0.0
 30
0.0
 70
   128
 71
    20
 72
     8
 73
    21
  0
VERTEX
  5
512
  8
0
 10
0.0
 20
0.0
 30
0.0
 70
   128
 71
    14
 72
    13
 73
    21
  0
VERTEX
  5
513
  8
0
 10
0.0
 20
0.0
 30
0.0
 70
   128
 71
    14
 72
    21
 73
    24
  0
VERTEX
  5
514
  8
0
 10
0.0
 20
0.0
 30
0.0
 70
   128
 71
    19
 72
    20
 73
    13
  0
SEQEND
  5
64E
  8
0
  0
POLYLINE
  5
515
  8
0
 66
     1
 10
0.0
 20
0.0
 30
0.0
 70
    64
 71
    44
 72
    32
  0
VERTEX
  5
516
  8
0
 10
-58.73058661408765
 20
0.0
 30
-89.5315306958691
 70
   192
  0
VERTEX
  5
517
  8
0
 10
-57.81879002169276
 20
0.0
 30
-90.45986266127952
 70
   192
  0
VERTEX
  5
518
  8
0
 10
-53.07528923123176
 20
0.0
 30
-91.8449184872956
 70
   192
  0
VERTEX
  5
519
  8
0
 10
-92.01826991564023
 20
0.0
 30
-55.64017738194194
 70
   192
  0
VERTEX
  5
51A
  8
0
 10
-69.80905709512035
 20
0.0
 30
-84.99970917995837
 70
   192
  0
VERTEX
  5
51B
  8
0
 10
-95.91090705444412
 20
0.0
 30
-50.49429468999623
 70
   192
  0
VERTEX
  5
51C
  8
0
 10
-95.58860442671664
 20
0.0
 30
-52.00509508235294
 70
   192
  0
VERTEX
  5
51D
  8
0
 10
85.909364358133
 20
-0.000000000000002
 30
-101.4294973348194
 70
   192
  0
VERTEX
  5
51E
  8
0
 10
136.7969704796947
 20
0.0
 30
-85.03311766005686
 70
   192
  0
VERTEX
  5
51F
  8
0
 10
181.8641114823137
 20
0.0
 30
-56.39051735091209
 70
   192
  0
VERTEX
  5
520
  8
0
 10
189.0393919346159
 20
0.0
 30
-43.81569623280274
 70
   192
  0
VERTEX
  5
521
  8
0
 10
185.4610637365116
 20
0.0
 30
-49.089708143984
 70
   192
  0
VERTEX
  5
522
  8
0
 10
142.720832202735
 20
0.0
 30
-79.37888066724288
 70
   192
  0
VERTEX
  5
523
  8
0
 10
44.24245329635733
 20
0.0
 30
-105.4225890285884
 70
   192
  0
VERTEX
  5
524
  8
0
 10
-7.167812888446488
 20
0.0
 30
-105.2494524749649
 70
   192
  0
VERTEX
  5
525
  8
0
 10
-20.40971744680111
 20
0.0
 30
-105.2072812155853
 70
   192
  0
VERTEX
  5
526
  8
0
 10
32.85971263566937
 20
0.0
 30
-108.4297351357801
 70
   192
  0
VERTEX
  5
527
  8
0
 10
200.5957719688647
 20
0.0
 30
-26.78302550599406
 70
   192
  0
VERTEX
  5
528
  8
0
 10
201.7255488888406
 20
0.0
 30
-21.58295488755682
 70
   192
  0
VERTEX
  5
529
  8
0
 10
-106.684137668495
 20
0.0
 30
0.0054519407385701
 70
   192
  0
VERTEX
  5
52A
  8
0
 10
-96.11181053186544
 20
0.0
 30
49.60300694609955
 70
   192
  0
VERTEX
  5
52B
  8
0
 10
-108.4589119018157
 20
0.0
 30
10.25251086852242
 70
   192
  0
VERTEX
  5
52C
  8
0
 10
-101.7789764873149
 20
0.0
 30
-42.73698368128914
 70
   192
  0
VERTEX
  5
52D
  8
0
 10
-95.2585149293807
 20
0.0
 30
52.32247965896719
 70
   192
  0
VERTEX
  5
52E
  8
0
 10
-95.60804615540859
 20
0.0
 30
51.96629754883677
 70
   192
  0
VERTEX
  5
52F
  8
0
 10
-58.58813006992092
 20
0.0
 30
89.69062901422475
 70
   192
  0
VERTEX
  5
530
  8
0
 10
-92.49845906270086
 20
0.0
 30
61.11884119366773
 70
   192
  0
VERTEX
  5
531
  8
0
 10
-57.61294459958002
 20
0.0
 30
90.5122899409059
 70
   192
  0
VERTEX
  5
532
  8
0
 10
-57.84969552558047
 20
0.0
 30
90.44311449938532
 70
   192
  0
VERTEX
  5
533
  8
0
 10
208.0765522267343
 20
0.0
 30
-10.45269573944157
 70
   192
  0
VERTEX
  5
534
  8
0
 10
206.8579435590299
 20
0.0
 30
16.28848205764342
 70
   192
  0
VERTEX
  5
535
  8
0
 10
195.578265675071
 20
0.0
 30
40.59196138907261
 70
   192
  0
VERTEX
  5
536
  8
0
 10
155.2768782892319
 20
0.0
 30
75.5912395891535
 70
   192
  0
VERTEX
  5
537
  8
0
 10
105.8936084194648
 20
0.0
 30
96.22524720776023
 70
   192
  0
VERTEX
  5
538
  8
0
 10
59.59247054651966
 20
0.0
 30
101.361955140205
 70
   192
  0
VERTEX
  5
539
  8
0
 10
142.8619231653313
 20
0.0
 30
79.3096738916812
 70
   192
  0
VERTEX
  5
53A
  8
0
 10
185.4775250727286
 20
0.0
 30
49.07202396230847
 70
   192
  0
VERTEX
  5
53B
  8
0
 10
200.6293121401259
 20
0.0
 30
26.70831669304065
 70
   192
  0
VERTEX
  5
53C
  8
0
 10
206.414701418883
 20
0.0
 30
0.0000000000021657
 70
   192
  0
VERTEX
  5
53D
  8
0
 10
-7.18020783381849
 20
0.0
 30
105.2480584204604
 70
   192
  0
VERTEX
  5
53E
  8
0
 10
23.63404567762128
 20
0.0
 30
105.3512291569504
 70
   192
  0
VERTEX
  5
53F
  8
0
 10
44.26809642024977
 20
0.0
 30
105.4203150496559
 70
   192
  0
VERTEX
  5
540
  8
0
 10
0.1023507316790974
 20
0.0000000000000002
 30
107.9618657340554
 70
   192
  0
VERTEX
  5
541
  8
0
 10
-51.86476558368397
 20
0.0
 30
95.35552667953291
 70
   192
  0
VERTEX
  5
542
  8
0
 10
0.0
 20
0.0
 30
0.0
 70
   128
 71
     3
 72
     2
 73
     1
  0
VERTEX
  5
543
  8
0
 10
0.0
 20
0.0
 30
0.0
 70
   128
 71
     1
 72
     5
 73
     4
  0
VERTEX
  5
544
  8
0
 10
0.0
 20
0.0
 30
0.0
 70
   128
 71
     4
 72
     7
 73
     6
  0
VERTEX
  5
545
  8
0
 10
0.0
 20
0.0
 30
0.0
 70
   128
 71
    16
 72
     3
 73
   -15
  0
VERTEX
  5
546
  8
0
 10
0.0
 20
0.0
 30
0.0
 70
   128
 71
    17
 72
   -16
 73
   -15
  0
VERTEX
  5
547
  8
0
 10
0.0
 20
0.0
 30
0.0
 70
   128
 71
    15
 72
   -14
 73
   -17
  0
VERTEX
  5
548
  8
0
 10
0.0
 20
0.0
 30
0.0
 70
   128
 71
     8
 72
   -17
 73
   -14
  0
VERTEX
  5
549
  8
0
 10
0.0
 20
0.0
 30
0.0
 70
   128
 71
   -13
 72
     9
 73
    -8
  0
VERTEX
  5
54A
  8
0
 10
0.0
 20
0.0
 30
0.0
 70
   128
 71
    14
 72
   -13
 73
    -8
  0
VERTEX
  5
54B
  8
0
 10
0.0
 20
0.0
 30
0.0
 70
   128
 71
   -12
 72
    10
 73
    -9
  0
VERTEX
  5
54C
  8
0
 10
0.0
 20
0.0
 30
0.0
 70
   128
 71
    13
 72
   -12
 73
    -9
  0
VERTEX
  5
54D
  8
0
 10
0.0
 20
0.0
 30
0.0
 70
   128
 71
    12
 72
    11
 73
   -10
  0
VERTEX
  5
54E
  8
0
 10
0.0
 20
0.0
 30
0.0
 70
   128
 71
    11
 72
    19
 73
    18
  0
VERTEX
  5
54F
  8
0
 10
0.0
 20
0.0
 30
0.0
 70
   128
 71
    22
 72
    21
 73
   -20
  0
VERTEX
  5
550
  8
0
 10
0.0
 20
0.0
 30
0.0
 70
   128
 71
    23
 72
   -22
 73
   -20
  0
VERTEX
  5
551
  8
0
 10
0.0
 20
0.0
 30
0.0
 70
   128
 71
    20
 72
     6
 73
   -23
  0
VERTEX
  5
552
  8
0
 10
0.0
 20
0.0
 30
0.0
 70
   128
 71
    21
 72
    25
 73
    24
  0
VERTEX
  5
553
  8
0
 10
0.0
 20
0.0
 30
0.0
 70
   128
 71
    24
 72
    27
 73
    26
  0
VERTEX
  5
554
  8
0
 10
0.0
 20
0.0
 30
0.0
 70
   128
 71
    26
 72
    29
 73
    28
  0
VERTEX
  5
555
  8
0
 10
0.0
 20
0.0
 30
0.0
 70
   128
 71
    30
 72
    19
 73
   -39
  0
VERTEX
  5
556
  8
0
 10
0.0
 20
0.0
 30
0.0
 70
   128
 71
    31
 72
   -30
 73
   -39
  0
VERTEX
  5
557
  8
0
 10
0.0
 20
0.0
 30
0.0
 70
   128
 71
    39
 72
   -38
 73
   -31
  0
VERTEX
  5
558
  8
0
 10
0.0
 20
0.0
 30
0.0
 70
   128
 71
    32
 72
   -31
 73
   -38
  0
VERTEX
  5
559
  8
0
 10
0.0
 20
0.0
 30
0.0
 70
   128
 71
    38
 72
   -37
 73
   -32
  0
VERTEX
  5
55A
  8
0
 10
0.0
 20
0.0
 30
0.0
 70
   128
 71
    33
 72
   -32
 73
   -37
  0
VERTEX
  5
55B
  8
0
 10
0.0
 20
0.0
 30
0.0
 70
   128
 71
    37
 72
   -36
 73
   -33
  0
VERTEX
  5
55C
  8
0
 10
0.0
 20
0.0
 30
0.0
 70
   128
 71
    34
 72
   -33
 73
   -36
  0
VERTEX
  5
55D
  8
0
 10
0.0
 20
0.0
 30
0.0
 70
   128
 71
    36
 72
    35
 73
   -34
  0
VERTEX
  5
55E
  8
0
 10
0.0
 20
0.0
 30
0.0
 70
   128
 71
    43
 72
    41
 73
   -40
  0
VERTEX
  5
55F
  8
0
 10
0.0
 20
0.0
 30
0.0
 70
   128
 71
    42
 72
    35
 73
    41
  0
VERTEX
  5
560
  8
0
 10
0.0
 20
0.0
 30
0.0
 70
   128
 71
    44
 72
   -43
 73
   -40
  0
VERTEX
  5
561
  8
0
 10
0.0
 20
0.0
 30
0.0
 70
   128
 71
    40
 72
    28
 73
   -44
  0
SEQEND
  5
64F
  8
0
  0
POLYLINE
  5
562
  8
0
 66
     1
 10
0.0
 20
0.0
 30
0.0
 70
    64
 71
    28
 72
    26
  0
VERTEX
  5
563
  8
0
 10
0.0159993292600446
 20
-1.230846106708634
 30
108.9310497039802
 70
   192
  0
VERTEX
  5
564
  8
0
 10
0.0075666527134613
 20
-1.230842338606293
 30
108.9303687859996
 70
   192
  0
VERTEX
  5
565
  8
0
 10
-0.0000522740385939
 20
-1.23083884976892
 30
108.9297529510164
 70
   192
  0
VERTEX
  5
566
  8
0
 10
-0.0000000001194605
 20
-34.1831177386566
 30
97.9885438044743
 70
   192
  0
VERTEX
  5
567
  8
0
 10
59.4709818469621
 20
-1.290151896856
 30
106.9890800499925
 70
   192
  0
VERTEX
  5
568
  8
0
 10
26.23909525953209
 20
-1.2498309291554
 30
109.6110534553232
 70
   192
  0
VERTEX
  5
569
  8
0
 10
6.558467450100711
 20
-1.234325150457561
 30
109.3621180216212
 70
   192
  0
VERTEX
  5
56A
  8
0
 10
0.0239949456838915
 20
-1.230849679526192
 30
108.9316949954534
 70
   192
  0
VERTEX
  5
56B
  8
0
 10
-0.0000000000617664
 20
-64.74658127582633
 30
81.51311292173148
 70
   192
  0
VERTEX
  5
56C
  8
0
 10
151.6268755145482
 20
-1.466583289690633
 30
78.64186495682932
 70
   192
  0
VERTEX
  5
56D
  8
0
 10
49.33559172568969
 20
-92.0
 30
48.77727024941987
 70
   192
  0
VERTEX
  5
56E
  8
0
 10
82.49524108937123
 20
-92.0
 30
14.17838051774995
 70
   192
  0
VERTEX
  5
56F
  8
0
 10
196.2476288486977
 20
-1.59440780789082
 30
41.03794119603837
 70
   192
  0
VERTEX
  5
570
  8
0
 10
55.93066106603423
 20
-35.22316301521152
 30
-94.6805628593026
 70
   192
  0
VERTEX
  5
571
  8
0
 10
64.2834550507509
 20
-1.269235960831872
 30
-106.3658330395074
 70
   192
  0
VERTEX
  5
572
  8
0
 10
71.56280607613826
 20
-1.277060019480994
 30
-105.2080085455072
 70
   192
  0
VERTEX
  5
573
  8
0
 10
78.84181487601992
 20
-1.285112372756412
 30
-103.8748312947872
 70
   192
  0
VERTEX
  5
574
  8
0
 10
86.1148177000694
 20
-1.293344964738226
 30
-102.3631662568414
 70
   192
  0
VERTEX
  5
575
  8
0
 10
138.1688833894418
 20
-1.386349570472442
 30
-85.43042751890931
 70
   192
  0
VERTEX
  5
576
  8
0
 10
208.8391660275075
 20
-1.631964214967416
 30
-10.59204945801104
 70
   192
  0
VERTEX
  5
577
  8
0
 10
207.9922230247872
 20
-1.635101188371918
 30
14.86263517674811
 70
   192
  0
VERTEX
  5
578
  8
0
 10
83.82124641457837
 20
-92.0
 30
-9.707540690919256
 70
   192
  0
VERTEX
  5
579
  8
0
 10
0.0000000000000005
 20
-92.0
 30
60.0
 70
   192
  0
VERTEX
  5
57A
  8
0
 10
106.1662368732843
 20
-1.367562361929145
 30
97.11443721390316
 70
   192
  0
VERTEX
  5
57B
  8
0
 10
182.4360095381145
 20
-1.512857877638882
 30
-57.0310509044244
 70
   192
  0
VERTEX
  5
57C
  8
0
 10
72.38046609926845
 20
-92.0
 30
-30.93007619648517
 70
   192
  0
VERTEX
  5
57D
  8
0
 10
30.37032836372615
 20
-92.0
 30
-56.00504929081829
 70
   192
  0
VERTEX
  5
57E
  8
0
 10
44.29900306865301
 20
-65.72962966625393
 30
-77.78865978220394
 70
   192
  0
VERTEX
  5
57F
  8
0
 10
0.0
 20
0.0
 30
0.0
 70
   128
 71
     1
 72
     2
 73
     3
  0
VERTEX
  5
580
  8
0
 10
0.0
 20
0.0
 30
0.0
 70
   128
 71
     4
 72
     5
 73
     6
  0
VERTEX
  5
581
  8
0
 10
0.0
 20
0.0
 30
0.0
 70
   128
 71
     6
 72
     7
 73
     4
  0
VERTEX
  5
582
  8
0
 10
0.0
 20
0.0
 30
0.0
 70
   128
 71
     7
 72
     8
 73
     4
  0
VERTEX
  5
583
  8
0
 10
0.0
 20
0.0
 30
0.0
 70
   128
 71
     8
 72
     1
 73
     4
  0
VERTEX
  5
584
  8
0
 10
0.0
 20
0.0
 30
0.0
 70
   128
 71
     1
 72
     3
 73
     4
  0
VERTEX
  5
585
  8
0
 10
0.0
 20
0.0
 30
0.0
 70
   128
 71
     4
 72
     9
 73
     5
  0
VERTEX
  5
586
  8
0
 10
0.0
 20
0.0
 30
0.0
 70
   128
 71
    10
 72
    11
 73
    12
  0
VERTEX
  5
587
  8
0
 10
0.0
 20
0.0
 30
0.0
 70
   128
 71
    13
 72
    10
 73
    12
  0
VERTEX
  5
588
  8
0
 10
0.0
 20
0.0
 30
0.0
 70
   128
 71
    14
 72
    15
 73
    16
  0
VERTEX
  5
589
  8
0
 10
0.0
 20
0.0
 30
0.0
 70
   128
 71
    16
 72
    17
 73
    14
  0
VERTEX
  5
58A
  8
0
 10
0.0
 20
0.0
 30
0.0
 70
   128
 71
    17
 72
    18
 73
    14
  0
VERTEX
  5
58B
  8
0
 10
0.0
 20
0.0
 30
0.0
 70
   128
 71
    18
 72
    19
 73
    14
  0
VERTEX
  5
58C
  8
0
 10
0.0
 20
0.0
 30
0.0
 70
   128
 71
    20
 72
    21
 73
    22
  0
VERTEX
  5
58D
  8
0
 10
0.0
 20
0.0
 30
0.0
 70
   128
 71
     9
 72
    23
 73
    11
  0
VERTEX
  5
58E
  8
0
 10
0.0
 20
0.0
 30
0.0
 70
   128
 71
     5
 72
     9
 73
    11
  0
VERTEX
  5
58F
  8
0
 10
0.0
 20
0.0
 30
0.0
 70
   128
 71
    24
 72
     5
 73
    11
  0
VERTEX
  5
590
  8
0
 10
0.0
 20
0.0
 30
0.0
 70
   128
 71
    11
 72
    10
 73
    24
  0
VERTEX
  5
591
  8
0
 10
0.0
 20
0.0
 30
0.0
 70
   128
 71
    21
 72
    13
 73
    12
  0
VERTEX
  5
592
  8
0
 10
0.0
 20
0.0
 30
0.0
 70
   128
 71
    22
 72
    21
 73
    12
  0
VERTEX
  5
593
  8
0
 10
0.0
 20
0.0
 30
0.0
 70
   128
 71
    14
 72
    19
 73
    25
  0
VERTEX
  5
594
  8
0
 10
0.0
 20
0.0
 30
0.0
 70
   128
 71
    26
 72
    27
 73
    28
  0
VERTEX
  5
595
  8
0
 10
0.0
 20
0.0
 30
0.0
 70
   128
 71
    14
 72
    25
 73
    26
  0
VERTEX
  5
596
  8
0
 10
0.0
 20
0.0
 30
0.0
 70
   128
 71
    28
 72
    14
 73
    26
  0
VERTEX
  5
597
  8
0
 10
0.0
 20
0.0
 30
0.0
 70
   128
 71
    25
 72
    20
 73
    22
  0
VERTEX
  5
598
  8
0
 10
0.0
 20
0.0
 30
0.0
 70
   128
 71
    26
 72
    25
 73
    22
  0
SEQEND
  5
650
  8
0
  0
POLYLINE
  5
599
  8
0
 66
     1
 10
0.0
 20
0.0
 30
0.0
 70
    64
 71
    20
 72
    20
  0
VERTEX
  5
59A
  8
0
 10
30.37032836372615
 20
-92.0
 30
-56.00504929081829
 70
   192
  0
VERTEX
  5
59B
  8
0
 10
72.38046609926845
 20
-92.0
 30
-30.93007619648517
 70
   192
  0
VERTEX
  5
59C
  8
0
 10
83.82124641457837
 20
-92.0
 30
-9.707540690919256
 70
   192
  0
VERTEX
  5
59D
  8
0
 10
82.49524108937123
 20
-92.0
 30
14.17838051774995
 70
   192
  0
VERTEX
  5
59E
  8
0
 10
49.33559172568969
 20
-92.0
 30
48.77727024941987
 70
   192
  0
VERTEX
  5
59F
  8
0
 10
0.0000000000000005
 20
-92.0
 30
60.0
 70
   192
  0
VERTEX
  5
5A0
  8
0
 10
-41.79620357925536
 20
-92.0
 30
43.0475842231224
 70
   192
  0
VERTEX
  5
5A1
  8
0
 10
-60.00000000000002
 20
-92.0
 30
0.0000000001923313
 70
   192
  0
VERTEX
  5
5A2
  8
0
 10
-41.79359460091882
 20
-92.0
 30
-43.05011775045674
 70
   192
  0
VERTEX
  5
5A3
  8
0
 10
-0.0000000000065175
 20
-92.0
 30
-60.0
 70
   192
  0
VERTEX
  5
5A4
  8
0
 10
10.36692292853353
 20
-92.00000000000001
 30
-59.55758907881646
 70
   192
  0
VERTEX
  5
5A5
  8
0
 10
20.51172437640002
 20
-92.00000000000001
 30
-58.22752510604231
 70
   192
  0
VERTEX
  5
5A6
  8
0
 10
0.0
 20
-92.0
 30
22.0
 70
   192
  0
VERTEX
  5
5A7
  8
0
 10
15.55634918610405
 20
-92.0
 30
15.55634918610405
 70
   192
  0
VERTEX
  5
5A8
  8
0
 10
22.0
 20
-92.0
 30
0.0
 70
   192
  0
VERTEX
  5
5A9
  8
0
 10
15.55634918610405
 20
-92.0
 30
-15.55634918610405
 70
   192
  0
VERTEX
  5
5AA
  8
0
 10
0.0
 20
-92.0
 30
-22.0
 70
   192
  0
VERTEX
  5
5AB
  8
0
 10
-15.55634918610404
 20
-92.0
 30
-15.55634918610405
 70
   192
  0
VERTEX
  5
5AC
  8
0
 10
-22.0
 20
-92.0
 30
-0.0000000000000024
 70
   192
  0
VERTEX
  5
5AD
  8
0
 10
-15.55634918610405
 20
-92.0
 30
15.55634918610404
 70
   192
  0
VERTEX
  5
5AE
  8
0
 10
0.0
 20
0.0
 30
0.0
 70
   128
 71
   -11
 72
    17
 73
   -18
  0
VERTEX
  5
5AF
  8
0
 10
0.0
 20
0.0
 30
0.0
 70
   128
 71
    10
 72
   -11
 73
   -18
  0
VERTEX
  5
5B0
  8
0
 10
0.0
 20
0.0
 30
0.0
 70
   128
 71
     9
 72
   -10
 73
   -18
  0
VERTEX
  5
5B1
  8
0
 10
0.0
 20
0.0
 30
0.0
 70
   128
 71
   -19
 72
     8
 73
    -9
  0
VERTEX
  5
5B2
  8
0
 10
0.0
 20
0.0
 30
0.0
 70
   128
 71
    18
 72
   -19
 73
    -9
  0
VERTEX
  5
5B3
  8
0
 10
0.0
 20
0.0
 30
0.0
 70
   128
 71
   -20
 72
     7
 73
    -8
  0
VERTEX
  5
5B4
  8
0
 10
0.0
 20
0.0
 30
0.0
 70
   128
 71
    19
 72
   -20
 73
    -8
  0
VERTEX
  5
5B5
  8
0
 10
0.0
 20
0.0
 30
0.0
 70
   128
 71
   -13
 72
     6
 73
    -7
  0
VERTEX
  5
5B6
  8
0
 10
0.0
 20
0.0
 30
0.0
 70
   128
 71
    20
 72
   -13
 73
    -7
  0
VERTEX
  5
5B7
  8
0
 10
0.0
 20
0.0
 30
0.0
 70
   128
 71
    11
 72
   -12
 73
   -17
  0
VERTEX
  5
5B8
  8
0
 10
0.0
 20
0.0
 30
0.0
 70
   128
 71
    -6
 72
    13
 73
   -14
  0
VERTEX
  5
5B9
  8
0
 10
0.0
 20
0.0
 30
0.0
 70
   128
 71
     5
 72
    -6
 73
   -14
  0
VERTEX
  5
5BA
  8
0
 10
0.0
 20
0.0
 30
0.0
 70
   128
 71
   -15
 72
     4
 73
    -5
  0
VERTEX
  5
5BB
  8
0
 10
0.0
 20
0.0
 30
0.0
 70
   128
 71
    14
 72
   -15
 73
    -5
  0
VERTEX
  5
5BC
  8
0
 10
0.0
 20
0.0
 30
0.0
 70
   128
 71
     2
 72
     3
 73
    -4
  0
VERTEX
  5
5BD
  8
0
 10
0.0
 20
0.0
 30
0.0
 70
   128
 71
     1
 72
    -2
 73
    -4
  0
VERTEX
  5
5BE
  8
0
 10
0.0
 20
0.0
 30
0.0
 70
   128
 71
   -16
 72
    -1
 73
    -4
  0
VERTEX
  5
5BF
  8
0
 10
0.0
 20
0.0
 30
0.0
 70
   128
 71
    15
 72
   -16
 73
    -4
  0
VERTEX
  5
5C0
  8
0
 10
0.0
 20
0.0
 30
0.0
 70
   128
 71
   -17
 72
    12
 73
    -1
  0
VERTEX
  5
5C1
  8
0
 10
0.0
 20
0.0
 30
0.0
 70
   128
 71
    16
 72
   -17
 73
    -1
  0
SEQEND
  5
651
  8
0
  0
POLYLINE
  5
5C2
  8
0
 66
     1
 10
0.0
 20
0.0
 30
0.0
 70
    64
 71
    10
 72
     8
  0
VERTEX
  5
5C3
  8
0
 10
0.0
 20
-92.0
 30
22.0
 70
   192
  0
VERTEX
  5
5C4
  8
0
 10
0.0000000000000027
 20
-92.0
 30
-22.0
 70
   192
  0
VERTEX
  5
5C5
  8
0
 10
0.0000000000000027
 20
-81.99912472583509
 30
-22.0
 70
   192
  0
VERTEX
  5
5C6
  8
0
 10
0.0
 20
-81.99912472583509
 30
22.0
 70
   192
  0
VERTEX
  5
5C7
  8
0
 10
22.0
 20
-81.99912472583509
 30
0.0
 70
   192
  0
VERTEX
  5
5C8
  8
0
 10
22.0
 20
-92.0
 30
0.0
 70
   192
  0
VERTEX
  5
5C9
  8
0
 10
15.55634918610405
 20
-81.99912472583509
 30
15.55634918610405
 70
   192
  0
VERTEX
  5
5CA
  8
0
 10
15.55634918610405
 20
-92.0
 30
15.55634918610405
 70
   192
  0
VERTEX
  5
5CB
  8
0
 10
15.55634918610405
 20
-81.99912472583509
 30
-15.55634918610405
 70
   192
  0
VERTEX
  5
5CC
  8
0
 10
15.55634918610405
 20
-92.0
 30
-15.55634918610405
 70
   192
  0
VERTEX
  5
5CD
  8
0
 10
0.0
 20
0.0
 30
0.0
 70
   128
 71
     8
 72
     1
 73
    -4
  0
VERTEX
  5
5CE
  8
0
 10
0.0
 20
0.0
 30
0.0
 70
   128
 71
     7
 72
    -8
 73
     4
  0
VERTEX
  5
5CF
  8
0
 10
0.0
 20
0.0
 30
0.0
 70
   128
 71
     6
 72
     8
 73
    -7
  0
VERTEX
  5
5D0
  8
0
 10
0.0
 20
0.0
 30
0.0
 70
   128
 71
     5
 72
    -6
 73
     7
  0
VERTEX
  5
5D1
  8
0
 10
0.0
 20
0.0
 30
0.0
 70
   128
 71
    10
 72
     6
 73
    -5
  0
VERTEX
  5
5D2
  8
0
 10
0.0
 20
0.0
 30
0.0
 70
   128
 71
     9
 72
   -10
 73
     5
  0
VERTEX
  5
5D3
  8
0
 10
0.0
 20
0.0
 30
0.0
 70
   128
 71
     3
 72
     2
 73
   -10
  0
VERTEX
  5
5D4
  8
0
 10
0.0
 20
0.0
 30
0.0
 70
   128
 71
     9
 72
    -3
 73
    10
  0
SEQEND
  5
652
  8
0
  0
POLYLINE
  5
5D5
  8
0
 66
     1
 10
0.0
 20
0.0
 30
0.0
 70
    64
 71
    13
 72
    11
  0
VERTEX
  5
5D6
  8
0
 10
0.0
 20
-81.99912472583509
 30
22.0
 70
   192
  0
VERTEX
  5
5D7
  8
0
 10
0.0
 20
-70.7595171290808
 30
35.39484273278111
 70
   192
  0
VERTEX
  5
5D8
  8
0
 10
23.90037724356203
 20
-70.91285362009039
 30
25.85854200816035
 70
   192
  0
VERTEX
  5
5D9
  8
0
 10
15.55634918610405
 20
-81.99912472583509
 30
15.55634918610405
 70
   192
  0
VERTEX
  5
5DA
  8
0
 10
22.0
 20
-81.99912472583509
 30
0.0
 70
   192
  0
VERTEX
  5
5DB
  8
0
 10
34.96351672054301
 20
-71.03777257720148
 30
2.64247097702961
 70
   192
  0
VERTEX
  5
5DC
  8
0
 10
15.55634918610405
 20
-81.99912472583509
 30
-15.55634918610405
 70
   192
  0
VERTEX
  5
5DD
  8
0
 10
27.46116927205397
 20
-70.95017701847239
 30
-21.96920340949951
 70
   192
  0
VERTEX
  5
5DE
  8
0
 10
0.0000000000000027
 20
-81.99912472583507
 30
-21.99999999999999
 70
   192
  0
VERTEX
  5
5DF
  8
0
 10
5.28759089128897
 20
-70.77509513648181
 30
-34.9788850371641
 70
   192
  0
VERTEX
  5
5E0
  8
0
 10
3.532931513211731
 20
-70.76868276778987
 30
-35.20706308863551
 70
   192
  0
VERTEX
  5
5E1
  8
0
 10
1.768858676909499
 20
-70.76349009865615
 30
-35.3458344290775
 70
   192
  0
VERTEX
  5
5E2
  8
0
 10
0.0000000000000043
 20
-70.75951712908066
 30
-35.39484273278128
 70
   192
  0
VERTEX
  5
5E3
  8
0
 10
0.0
 20
0.0
 30
0.0
 70
   128
 71
     1
 72
     2
 73
     3
  0
VERTEX
  5
5E4
  8
0
 10
0.0
 20
0.0
 30
0.0
 70
   128
 71
     4
 72
     1
 73
     3
  0
VERTEX
  5
5E5
  8
0
 10
0.0
 20
0.0
 30
0.0
 70
   128
 71
     5
 72
     4
 73
     6
  0
VERTEX
  5
5E6
  8
0
 10
0.0
 20
0.0
 30
0.0
 70
   128
 71
     7
 72
     5
 73
     8
  0
VERTEX
  5
5E7
  8
0
 10
0.0
 20
0.0
 30
0.0
 70
   128
 71
     9
 72
     7
 73
    10
  0
VERTEX
  5
5E8
  8
0
 10
0.0
 20
0.0
 30
0.0
 70
   128
 71
    10
 72
    11
 73
     9
  0
VERTEX
  5
5E9
  8
0
 10
0.0
 20
0.0
 30
0.0
 70
   128
 71
    11
 72
    12
 73
     9
  0
VERTEX
  5
5EA
  8
0
 10
0.0
 20
0.0
 30
0.0
 70
   128
 71
    12
 72
    13
 73
     9
  0
VERTEX
  5
5EB
  8
0
 10
0.0
 20
0.0
 30
0.0
 70
   128
 71
     6
 72
     4
 73
     3
  0
VERTEX
  5
5EC
  8
0
 10
0.0
 20
0.0
 30
0.0
 70
   128
 71
     8
 72
     5
 73
     6
  0
VERTEX
  5
5ED
  8
0
 10
0.0
 20
0.0
 30
0.0
 70
   128
 71
    10
 72
     7
 73
     8
  0
SEQEND
  5
653
  8
0
  0
POLYLINE
  5
5EE
  8
0
 66
     1
 10
0.0
 20
0.0
 30
0.0
 70
    64
 71
    19
 72
    17
  0
VERTEX
  5
5EF
  8
0
 10
-37.41658136924455
 20
-69.7340729280708
 30
-0.0000000000001277
 70
   192
  0
VERTEX
  5
5F0
  8
0
 10
-33.0283146666131
 20
-69.73788909086826
 30
17.63706197714716
 70
   192
  0
VERTEX
  5
5F1
  8
0
 10
-35.28583912007909
 20
-70.76051290943478
 30
-2.760515024806828
 70
   192
  0
VERTEX
  5
5F2
  8
0
 10
-21.91292754063826
 20
-69.73676298062512
 30
30.354916069004
 70
   192
  0
VERTEX
  5
5F3
  8
0
 10
-5.83550673434404
 20
-69.7325328259574
 30
36.94985552218075
 70
   192
  0
VERTEX
  5
5F4
  8
0
 10
-5.72354375928307
 20
-69.97015880539534
 30
36.24045142657735
 70
   192
  0
VERTEX
  5
5F5
  8
0
 10
-5.618459303420164
 20
-70.31341174685254
 30
35.57457556722802
 70
   192
  0
VERTEX
  5
5F6
  8
0
 10
-27.77456989814016
 20
-70.77637920307157
 30
21.90767019095167
 70
   192
  0
VERTEX
  5
5F7
  8
0
 10
-5.522658775106175
 20
-70.75443450832772
 30
34.96747000195721
 70
   192
  0
VERTEX
  5
5F8
  8
0
 10
-0.0000000000237262
 20
-70.75951712908069
 30
-35.3948427327813
 70
   192
  0
VERTEX
  5
5F9
  8
0
 10
1.768858676909499
 20
-70.76349009865615
 30
-35.3458344290775
 70
   192
  0
VERTEX
  5
5FA
  8
0
 10
5.386343027602486
 20
-70.3237170959087
 30
-35.60284819733658
 70
   192
  0
VERTEX
  5
5FB
  8
0
 10
3.532931513211731
 20
-70.76868276778987
 30
-35.20706308863551
 70
   192
  0
VERTEX
  5
5FC
  8
0
 10
5.287590891288993
 20
-70.7750951364818
 30
-34.97888503716408
 70
   192
  0
VERTEX
  5
5FD
  8
0
 10
5.494297298096351
 20
-69.9755811359145
 30
-36.28839277942559
 70
   192
  0
VERTEX
  5
5FE
  8
0
 10
5.608850605137383
 20
-69.73908184699891
 30
-37.01898827036357
 70
   192
  0
VERTEX
  5
5FF
  8
0
 10
-15.92424931467812
 20
-69.73427374786307
 30
-33.86655398377928
 70
   192
  0
VERTEX
  5
600
  8
0
 10
-24.03445012461787
 20
-70.77464747549915
 30
-25.95888999878355
 70
   192
  0
VERTEX
  5
601
  8
0
 10
-31.40408727206412
 20
-69.73859551235648
 30
-20.39364785524729
 70
   192
  0
VERTEX
  5
602
  8
0
 10
0.0
 20
0.0
 30
0.0
 70
   128
 71
     1
 72
     2
 73
     3
  0
VERTEX
  5
603
  8
0
 10
0.0
 20
0.0
 30
0.0
 70
   128
 71
     4
 72
     5
 73
     6
  0
VERTEX
  5
604
  8
0
 10
0.0
 20
0.0
 30
0.0
 70
   128
 71
     6
 72
     7
 73
     4
  0
VERTEX
  5
605
  8
0
 10
0.0
 20
0.0
 30
0.0
 70
   128
 71
     7
 72
     8
 73
     4
  0
VERTEX
  5
606
  8
0
 10
0.0
 20
0.0
 30
0.0
 70
   128
 71
     7
 72
     9
 73
     8
  0
VERTEX
  5
607
  8
0
 10
0.0
 20
0.0
 30
0.0
 70
   128
 71
    10
 72
    11
 73
    12
  0
VERTEX
  5
608
  8
0
 10
0.0
 20
0.0
 30
0.0
 70
   128
 71
    11
 72
    13
 73
    12
  0
VERTEX
  5
609
  8
0
 10
0.0
 20
0.0
 30
0.0
 70
   128
 71
    13
 72
    14
 73
    12
  0
VERTEX
  5
60A
  8
0
 10
0.0
 20
0.0
 30
0.0
 70
   128
 71
    15
 72
    16
 73
    17
  0
VERTEX
  5
60B
  8
0
 10
0.0
 20
0.0
 30
0.0
 70
   128
 71
     3
 72
     2
 73
     4
  0
VERTEX
  5
60C
  8
0
 10
0.0
 20
0.0
 30
0.0
 70
   128
 71
     8
 72
     3
 73
     4
  0
VERTEX
  5
60D
  8
0
 10
0.0
 20
0.0
 30
0.0
 70
   128
 71
    18
 72
    19
 73
     1
  0
VERTEX
  5
60E
  8
0
 10
0.0
 20
0.0
 30
0.0
 70
   128
 71
     3
 72
    18
 73
     1
  0
VERTEX
  5
60F
  8
0
 10
0.0
 20
0.0
 30
0.0
 70
   128
 71
    18
 72
    10
 73
    12
  0
VERTEX
  5
610
  8
0
 10
0.0
 20
0.0
 30
0.0
 70
   128
 71
    15
 72
    19
 73
    18
  0
VERTEX
  5
611
  8
0
 10
0.0
 20
0.0
 30
0.0
 70
   128
 71
    12
 72
    15
 73
    18
  0
VERTEX
  5
612
  8
0
 10
0.0
 20
0.0
 30
0.0
 70
   128
 71
    15
 72
    17
 73
    19
  0
SEQEND
  5
654
  8
0
  0
POLYLINE
  5
613
  8
0
 66
     1
 10
0.0
 20
0.0
 30
0.0
 70
    64
 71
    25
 72
    23
  0
VERTEX
  5
614
  8
0
 10
105.8936084194648
 20
0.0
 30
96.22524720776023
 70
   192
  0
VERTEX
  5
615
  8
0
 10
0.1023507316790974
 20
0.0000000000000002
 30
107.9618657340554
 70
   192
  0
VERTEX
  5
616
  8
0
 10
0.0489257267431516
 20
-0.1023334794226075
 30
108.6231204508467
 70
   192
  0
VERTEX
  5
617
  8
0
 10
0.0196845710352563
 20
-0.5615367918409607
 30
108.9850455860797
 70
   192
  0
VERTEX
  5
618
  8
0
 10
0.0239949456838915
 20
-1.230849679526192
 30
108.9316949954534
 70
   192
  0
VERTEX
  5
619
  8
0
 10
6.558467450100711
 20
-1.234325150457561
 30
109.3621180216212
 70
   192
  0
VERTEX
  5
61A
  8
0
 10
26.23909525953209
 20
-1.2498309291554
 30
109.6110534553232
 70
   192
  0
VERTEX
  5
61B
  8
0
 10
59.4709818469621
 20
-1.290151896856
 30
106.9890800499925
 70
   192
  0
VERTEX
  5
61C
  8
0
 10
151.6268755145482
 20
-1.466583289690633
 30
78.64186495682932
 70
   192
  0
VERTEX
  5
61D
  8
0
 10
155.2768782892319
 20
0.0
 30
75.5912395891535
 70
   192
  0
VERTEX
  5
61E
  8
0
 10
106.1662368732843
 20
-1.367562361929145
 30
97.11443721390316
 70
   192
  0
VERTEX
  5
61F
  8
0
 10
138.1688833894418
 20
-1.386349570472442
 30
-85.43042751890931
 70
   192
  0
VERTEX
  5
620
  8
0
 10
86.1148177000694
 20
-1.293344964738226
 30
-102.3631662568414
 70
   192
  0
VERTEX
  5
621
  8
0
 10
86.1360316798804
 20
-0.5956742026920873
 30
-102.4595717641553
 70
   192
  0
VERTEX
  5
622
  8
0
 10
86.05888522736068
 20
-0.1101814510910222
 30
-102.108984888897
 70
   192
  0
VERTEX
  5
623
  8
0
 10
85.909364358133
 20
-0.000000000000002
 30
-101.4294973348194
 70
   192
  0
VERTEX
  5
624
  8
0
 10
136.7969704796947
 20
0.0
 30
-85.03311766005686
 70
   192
  0
VERTEX
  5
625
  8
0
 10
181.8641114823137
 20
0.0
 30
-56.39051735091209
 70
   192
  0
VERTEX
  5
626
  8
0
 10
207.9922230247872
 20
-1.635101188371918
 30
14.86263517674811
 70
   192
  0
VERTEX
  5
627
  8
0
 10
206.8579435590299
 20
0.0
 30
16.28848205764342
 70
   192
  0
VERTEX
  5
628
  8
0
 10
195.578265675071
 20
0.0
 30
40.59196138907261
 70
   192
  0
VERTEX
  5
629
  8
0
 10
196.2476288486977
 20
-1.59440780789082
 30
41.03794119603837
 70
   192
  0
VERTEX
  5
62A
  8
0
 10
208.0765522267343
 20
0.0
 30
-10.45269573944157
 70
   192
  0
VERTEX
  5
62B
  8
0
 10
208.8391660275075
 20
-1.631964214967416
 30
-10.59204945801104
 70
   192
  0
VERTEX
  5
62C
  8
0
 10
182.4360095381145
 20
-1.512857877638882
 30
-57.0310509044244
 70
   192
  0
VERTEX
  5
62D
  8
0
 10
0.0
 20
0.0
 30
0.0
 70
   128
 71
     1
 72
     2
 73
     3
  0
VERTEX
  5
62E
  8
0
 10
0.0
 20
0.0
 30
0.0
 70
   128
 71
     4
 72
     5
 73
     6
  0
VERTEX
  5
62F
  8
0
 10
0.0
 20
0.0
 30
0.0
 70
   128
 71
     7
 72
     3
 73
     4
  0
VERTEX
  5
630
  8
0
 10
0.0
 20
0.0
 30
0.0
 70
   128
 71
     4
 72
     6
 73
     7
  0
VERTEX
  5
631
  8
0
 10
0.0
 20
0.0
 30
0.0
 70
   128
 71
     7
 72
     8
 73
     3
  0
VERTEX
  5
632
  8
0
 10
0.0
 20
0.0
 30
0.0
 70
   128
 71
     9
 72
    10
 73
     1
  0
VERTEX
  5
633
  8
0
 10
0.0
 20
0.0
 30
0.0
 70
   128
 71
    11
 72
     9
 73
     1
  0
VERTEX
  5
634
  8
0
 10
0.0
 20
0.0
 30
0.0
 70
   128
 71
    12
 72
    13
 73
    14
  0
VERTEX
  5
635
  8
0
 10
0.0
 20
0.0
 30
0.0
 70
   128
 71
    15
 72
    16
 73
    17
  0
VERTEX
  5
636
  8
0
 10
0.0
 20
0.0
 30
0.0
 70
   128
 71
    17
 72
    18
 73
    15
  0
VERTEX
  5
637
  8
0
 10
0.0
 20
0.0
 30
0.0
 70
   128
 71
    19
 72
    20
 73
    21
  0
VERTEX
  5
638
  8
0
 10
0.0
 20
0.0
 30
0.0
 70
   128
 71
    22
 72
    19
 73
    21
  0
VERTEX
  5
639
  8
0
 10
0.0
 20
0.0
 30
0.0
 70
   128
 71
    23
 72
    24
 73
    25
  0
VERTEX
  5
63A
  8
0
 10
0.0
 20
0.0
 30
0.0
 70
   128
 71
    18
 72
    23
 73
    25
  0
VERTEX
  5
63B
  8
0
 10
0.0
 20
0.0
 30
0.0
 70
   128
 71
    15
 72
    18
 73
    25
  0
VERTEX
  5
63C
  8
0
 10
0.0
 20
0.0
 30
0.0
 70
   128
 71
    12
 72
    14
 73
    15
  0
VERTEX
  5
63D
  8
0
 10
0.0
 20
0.0
 30
0.0
 70
   128
 71
    25
 72
    12
 73
    15
  0
VERTEX
  5
63E
  8
0
 10
0.0
 20
0.0
 30
0.0
 70
   128
 71
     1
 72
     3
 73
     8
  0
VERTEX
  5
63F
  8
0
 10
0.0
 20
0.0
 30
0.0
 70
   128
 71
    11
 72
     1
 73
     8
  0
VERTEX
  5
640
  8
0
 10
0.0
 20
0.0
 30
0.0
 70
   128
 71
    21
 72
    10
 73
     9
  0
VERTEX
  5
641
  8
0
 10
0.0
 20
0.0
 30
0.0
 70
   128
 71
    22
 72
    21
 73
     9
  0
VERTEX
  5
642
  8
0
 10
0.0
 20
0.0
 30
0.0
 70
   128
 71
    23
 72
    20
 73
    19
  0
VERTEX
  5
643
  8
0
 10
0.0
 20
0.0
 30
0.0
 70
   128
 71
    24
 72
    23
 73
    19
  0
SEQEND
  5
655
  8
0
  0
ENDBLK
  5
645
  8
0
  0
ENDSEC
  0
SECTION
  2
ENTITIES
  0
INSERT
  5
BE
  8
0
  2
*X1
 10
0.0
 20
0.0
 30
0.0
  0
ENDSEC
  0
EOF
