  0
SECTION
  2
HEADER
  9
$ACADVER
  1
AC1009
  9
$DWGCODEPAGE
  3
ansi_1250
  9
$INSBASE
 10
0.0
 20
0.0
 30
0.0
  9
$EXTMIN
 10
-149.9644696862094
 20
-102.0000000000001
 30
-99.9644696862094
  9
$EXTMAX
 10
99.96446968620941
 20
0.0000000000000568
 30
149.9644696862093
  9
$LIMMIN
 10
0.0
 20
0.0
  9
$LIMMAX
 10
420.0
 20
297.0
  9
$ORTHOMODE
 70
     0
  9
$REGENMODE
 70
     1
  9
$FILLMODE
 70
     1
  9
$QTEXTMODE
 70
     0
  9
$MIRRTEXT
 70
     0
  9
$DRAGMODE
 70
     2
  9
$LTSCALE
 40
1.0
  9
$OSMODE
 70
   511
  9
$ATTMODE
 70
     1
  9
$TEXTSIZE
 40
2.5
  9
$TRACEWID
 40
1.0
  9
$TEXTSTYLE
  7
STANDARD
  9
$CLAYER
  8
0
  9
$CELTYPE
  6
BYLAYER
  9
$CECOLOR
 62
   256
  9
$DIMSCALE
 40
1.0
  9
$DIMASZ
 40
2.5
  9
$DIMEXO
 40
0.625
  9
$DIMDLI
 40
3.75
  9
$DIMRND
 40
0.0
  9
$DIMDLE
 40
0.0
  9
$DIMEXE
 40
1.25
  9
$DIMTP
 40
0.0
  9
$DIMTM
 40
0.0
  9
$DIMTXT
 40
2.5
  9
$DIMCEN
 40
-2.5
  9
$DIMTSZ
 40
0.0
  9
$DIMTOL
 70
     0
  9
$DIMLIM
 70
     0
  9
$DIMTIH
 70
     0
  9
$DIMTOH
 70
     0
  9
$DIMSE1
 70
     0
  9
$DIMSE2
 70
     0
  9
$DIMTAD
 70
     1
  9
$DIMZIN
 70
     8
  9
$DIMBLK
  1

  9
$DIMASO
 70
     1
  9
$DIMSHO
 70
     1
  9
$DIMPOST
  1

  9
$DIMAPOST
  1

  9
$DIMALT
 70
     0
  9
$DIMALTD
 70
     3
  9
$DIMALTF
 40
0.03937007874016
  9
$DIMLFAC
 40
1.0
  9
$DIMTOFL
 70
     1
  9
$DIMTVP
 40
0.0
  9
$DIMTIX
 70
     0
  9
$DIMSOXD
 70
     0
  9
$DIMSAH
 70
     0
  9
$DIMBLK1
  1

  9
$DIMBLK2
  1

  9
$DIMSTYLE
  2
ISO-25
  9
$DIMCLRD
 70
     0
  9
$DIMCLRE
 70
     0
  9
$DIMCLRT
 70
     0
  9
$DIMTFAC
 40
1.0
  9
$DIMGAP
 40
0.625
  9
$LUNITS
 70
     2
  9
$LUPREC
 70
     3
  9
$SKETCHINC
 40
1.0
  9
$FILLETRAD
 40
10.0
  9
$AUNITS
 70
     0
  9
$AUPREC
 70
     0
  9
$MENU
  1
.
  9
$ELEVATION
 40
0.0
  9
$PELEVATION
 40
0.0
  9
$THICKNESS
 40
0.0
  9
$LIMCHECK
 70
     0
  9
$CHAMFERA
 40
10.0
  9
$CHAMFERB
 40
10.0
  9
$SKPOLY
 70
     0
  9
$TDCREATE
 40
2455022.720692848
  9
$TDUPDATE
 40
2460413.554659109
  9
$TDINDWG
 40
0.0002910417
  9
$TDUSRTIMER
 40
0.0002910417
  9
$USRTIMER
 70
     1
  9
$ANGBASE
 50
0.0
  9
$ANGDIR
 70
     0
  9
$PDMODE
 70
     0
  9
$PDSIZE
 40
0.0
  9
$PLINEWID
 40
0.0
  9
$COORDS
 70
     1
  9
$SPLFRAME
 70
     0
  9
$SPLINETYPE
 70
     6
  9
$SPLINESEGS
 70
     8
  9
$ATTDIA
 70
     0
  9
$ATTREQ
 70
     1
  9
$HANDLING
 70
     1
  9
$HANDSEED
  5
172A
  9
$SURFTAB1
 70
     6
  9
$SURFTAB2
 70
     6
  9
$SURFTYPE
 70
     6
  9
$SURFU
 70
     6
  9
$SURFV
 70
     6
  9
$UCSNAME
  2

  9
$UCSORG
 10
0.0
 20
0.0
 30
0.0
  9
$UCSXDIR
 10
1.0
 20
0.0
 30
0.0
  9
$UCSYDIR
 10
0.0
 20
1.0
 30
0.0
  9
$PUCSNAME
  2

  9
$PUCSORG
 10
0.0
 20
0.0
 30
0.0
  9
$PUCSXDIR
 10
1.0
 20
0.0
 30
0.0
  9
$PUCSYDIR
 10
0.0
 20
1.0
 30
0.0
  9
$USERI1
 70
     0
  9
$USERI2
 70
     0
  9
$USERI3
 70
     0
  9
$USERI4
 70
     0
  9
$USERI5
 70
     0
  9
$USERR1
 40
0.0
  9
$USERR2
 40
0.0
  9
$USERR3
 40
0.0
  9
$USERR4
 40
0.0
  9
$USERR5
 40
0.0
  9
$WORLDVIEW
 70
     1
  9
$SHADEDGE
 70
     3
  9
$SHADEDIF
 70
    70
  9
$TILEMODE
 70
     1
  9
$MAXACTVP
 70
    64
  9
$PLIMCHECK
 70
     0
  9
$PEXTMIN
 10
1.000000000000000E+20
 20
1.000000000000000E+20
 30
1.000000000000000E+20
  9
$PEXTMAX
 10
-1.000000000000000E+20
 20
-1.000000000000000E+20
 30
-1.000000000000000E+20
  9
$PLIMMIN
 10
0.0
 20
0.0
  9
$PLIMMAX
 10
0.0
 20
0.0
  9
$UNITMODE
 70
     0
  9
$VISRETAIN
 70
     1
  9
$PLINEGEN
 70
     0
  9
$PSLTSCALE
 70
     1
  0
ENDSEC
  0
SECTION
  2
TABLES
  0
TABLE
  2
VPORT
 70
     1
  0
VPORT
  2
*ACTIVE
 70
     0
 10
0.0
 20
0.0
 11
1.0
 21
1.0
 12
109.1869158878504
 22
-51.00000000000003
 13
0.0
 23
0.0
 14
10.0
 24
10.0
 15
10.0
 25
10.0
 16
0.0
 26
0.0
 36
1.0
 17
-134.1869158878504
 27
0.0
 37
0.0
 40
134.8529625048573
 41
1.89041095890411
 42
50.0
 43
0.0
 44
0.0
 50
0.0
 51
0.0
 71
    16
 72
  1000
 73
     1
 74
     3
 75
     0
 76
     0
 77
     0
 78
     0
  0
ENDTAB
  0
TABLE
  2
LTYPE
 70
     1
  0
LTYPE
  2
CONTINUOUS
 70
     0
  3
Solid line
 72
    65
 73
     0
 40
0.0
  0
ENDTAB
  0
TABLE
  2
LAYER
 70
     1
  0
LAYER
  2
0
 70
     0
 62
     7
  6
CONTINUOUS
  0
ENDTAB
  0
TABLE
  2
STYLE
 70
     2
  0
STYLE
  2
STANDARD
 70
     0
 40
0.0
 41
1.0
 50
0.0
 71
     0
 42
2.5
  3
arial.ttf
  4

  0
STYLE
  2
ANNOTATIVE
 70
     0
 40
0.0
 41
1.0
 50
0.0
 71
     0
 42
2.5
  3
arial.ttf
  4

  0
ENDTAB
  0
TABLE
  2
VIEW
 70
     0
  0
ENDTAB
  0
TABLE
  2
UCS
 70
     0
  0
ENDTAB
  0
TABLE
  2
APPID
 70
     2
  0
APPID
  2
ACAD
 70
     0
  0
APPID
  2
ACADANNOTATIVE
 70
     0
  0
ENDTAB
  0
TABLE
  2
DIMSTYLE
 70
     2
  0
DIMSTYLE
  2
ISO-25
 70
     0
  3

  4

  5

  6

  7

 40
1.0
 41
2.5
 42
0.625
 43
3.75
 44
1.25
 45
0.0
 46
0.0
 47
0.0
 48
0.0
140
2.5
141
-2.5
142
0.0
143
0.03937007874016
144
1.0
145
0.0
146
1.0
147
0.625
 71
     0
 72
     0
 73
     0
 74
     0
 75
     0
 76
     0
 77
     1
 78
     8
170
     0
171
     3
172
     1
173
     0
174
     0
175
     0
176
     0
177
     0
178
     0
  0
DIMSTYLE
  2
ANNOTATIVE
 70
     0
  3

  4

  5

  6

  7

 40
0.0
 41
2.5
 42
0.625
 43
3.75
 44
1.25
 45
0.0
 46
0.0
 47
0.0
 48
0.0
140
2.5
141
-2.5
142
0.0
143
0.03937007874016
144
1.0
145
0.0
146
1.0
147
0.625
 71
     0
 72
     0
 73
     0
 74
     0
 75
     0
 76
     0
 77
     1
 78
     8
170
     0
171
     3
172
     1
173
     0
174
     0
175
     0
176
     0
177
     0
178
     0
  0
ENDTAB
  0
ENDSEC
  0
SECTION
  2
BLOCKS
  0
BLOCK
  8
0
  2
$MODEL_SPACE
 70
     0
 10
0.0
 20
0.0
 30
0.0
  3
$MODEL_SPACE
  1

  0
ENDBLK
  5
21
  8
0
  0
BLOCK
 67
     1
  8
0
  2
$PAPER_SPACE
 70
     0
 10
0.0
 20
0.0
 30
0.0
  3
$PAPER_SPACE
  1

  0
ENDBLK
  5
1D
 67
     1
  8
0
  0
BLOCK
  8
0
  2
*X1
 70
     1
 10
0.0
 20
0.0
 30
0.0
  3
*X1
  1

  0
POLYLINE
  5
BFC
  8
0
 66
     1
 10
0.0
 20
0.0
 30
0.0
 70
    64
 71
    12
 72
    10
  0
VERTEX
  5
BFD
  8
0
 10
-131.4365606427719
 20
-94.44000309497696
 30
127.7936038627972
 70
   192
  0
VERTEX
  5
BFE
  8
0
 10
-132.7962951046879
 20
-94.7549204008446
 30
122.8343481237704
 70
   192
  0
VERTEX
  5
BFF
  8
0
 10
-132.7875885416157
 20
-94.66061819885591
 30
122.8233772194522
 70
   192
  0
VERTEX
  5
C00
  8
0
 10
-132.7779773215265
 20
-94.5664037845278
 30
122.8124073122872
 70
   192
  0
VERTEX
  5
C01
  8
0
 10
-132.767462317991
 20
-94.47228572107454
 30
122.801439399338
 70
   192
  0
VERTEX
  5
C02
  8
0
 10
-131.3979348058453
 20
-94.05466790374379
 30
127.7531281249079
 70
   192
  0
VERTEX
  5
C03
  8
0
 10
-127.7531281249079
 20
-94.05466790374379
 30
131.3979348058453
 70
   192
  0
VERTEX
  5
C04
  8
0
 10
-127.7936038627972
 20
-94.44000309497697
 30
131.4365606427719
 70
   192
  0
VERTEX
  5
C05
  8
0
 10
-122.801439399338
 20
-94.47228572107454
 30
132.767462317991
 70
   192
  0
VERTEX
  5
C06
  8
0
 10
-122.8124073122872
 20
-94.5664037845278
 30
132.7779773215265
 70
   192
  0
VERTEX
  5
C07
  8
0
 10
-122.8233772194522
 20
-94.66061819885593
 30
132.7875885416157
 70
   192
  0
VERTEX
  5
C08
  8
0
 10
-122.8343481237704
 20
-94.75492040084461
 30
132.7962951046879
 70
   192
  0
VERTEX
  5
C09
  8
0
 10
0.0
 20
0.0
 30
0.0
 70
   128
 71
     1
 72
     2
 73
     3
  0
VERTEX
  5
C0A
  8
0
 10
0.0
 20
0.0
 30
0.0
 70
   128
 71
     3
 72
     4
 73
     1
  0
VERTEX
  5
C0B
  8
0
 10
0.0
 20
0.0
 30
0.0
 70
   128
 71
     4
 72
     5
 73
     6
  0
VERTEX
  5
C0C
  8
0
 10
0.0
 20
0.0
 30
0.0
 70
   128
 71
     1
 72
     4
 73
     6
  0
VERTEX
  5
C0D
  8
0
 10
0.0
 20
0.0
 30
0.0
 70
   128
 71
     7
 72
     8
 73
    -1
  0
VERTEX
  5
C0E
  8
0
 10
0.0
 20
0.0
 30
0.0
 70
   128
 71
     6
 72
    -7
 73
     1
  0
VERTEX
  5
C0F
  8
0
 10
0.0
 20
0.0
 30
0.0
 70
   128
 71
     9
 72
    10
 73
   -11
  0
VERTEX
  5
C10
  8
0
 10
0.0
 20
0.0
 30
0.0
 70
   128
 71
    11
 72
    12
 73
    -9
  0
VERTEX
  5
C11
  8
0
 10
0.0
 20
0.0
 30
0.0
 70
   128
 71
     7
 72
     9
 73
    12
  0
VERTEX
  5
C12
  8
0
 10
0.0
 20
0.0
 30
0.0
 70
   128
 71
     8
 72
     7
 73
    12
  0
SEQEND
  5
16BA
  8
0
  0
POLYLINE
  5
C13
  8
0
 66
     1
 10
0.0
 20
0.0
 30
0.0
 70
    64
 71
    12
 72
    10
  0
VERTEX
  5
C14
  8
0
 10
-122.9689325425356
 20
-96.2932273464666
 30
-82.93087952345314
 70
   192
  0
VERTEX
  5
C15
  8
0
 10
-122.9521950786859
 20
-96.16217294448754
 30
-82.91852999051014
 70
   192
  0
VERTEX
  5
C16
  8
0
 10
-122.9354605619538
 20
-96.03129508149644
 30
-82.90442854140927
 70
   192
  0
VERTEX
  5
C17
  8
0
 10
-131.5147586252984
 20
-95.44261315326618
 30
-77.86821631387463
 70
   192
  0
VERTEX
  5
C18
  8
0
 10
-131.5711450615371
 20
-95.97831004059907
 30
-77.9281882815625
 70
   192
  0
VERTEX
  5
C19
  8
0
 10
-127.9281882815624
 20
-95.97831004059907
 30
-81.57114506153718
 70
   192
  0
VERTEX
  5
C1A
  8
0
 10
-127.8682163138746
 20
-95.44261315326618
 30
-81.51475862529853
 70
   192
  0
VERTEX
  5
C1B
  8
0
 10
-132.8885776591209
 20
-95.90061680234953
 30
-72.91873193893792
 70
   192
  0
VERTEX
  5
C1C
  8
0
 10
-132.9044285414092
 20
-96.03129508149644
 30
-72.93546056195386
 70
   192
  0
VERTEX
  5
C1D
  8
0
 10
-132.91852999051
 20
-96.16217294448754
 30
-72.952195078686
 70
   192
  0
VERTEX
  5
C1E
  8
0
 10
-132.9308795234531
 20
-96.29322734646658
 30
-72.9689325425357
 70
   192
  0
VERTEX
  5
C1F
  8
0
 10
-122.9187319389378
 20
-95.90061680234955
 30
-82.88857765912103
 70
   192
  0
VERTEX
  5
C20
  8
0
 10
0.0
 20
0.0
 30
0.0
 70
   128
 71
     1
 72
     2
 73
    -3
  0
VERTEX
  5
C21
  8
0
 10
0.0
 20
0.0
 30
0.0
 70
   128
 71
     4
 72
     5
 73
    -6
  0
VERTEX
  5
C22
  8
0
 10
0.0
 20
0.0
 30
0.0
 70
   128
 71
     7
 72
    -4
 73
     6
  0
VERTEX
  5
C23
  8
0
 10
0.0
 20
0.0
 30
0.0
 70
   128
 71
     4
 72
     8
 73
     9
  0
VERTEX
  5
C24
  8
0
 10
0.0
 20
0.0
 30
0.0
 70
   128
 71
    10
 72
     5
 73
     4
  0
VERTEX
  5
C25
  8
0
 10
0.0
 20
0.0
 30
0.0
 70
   128
 71
     9
 72
    10
 73
     4
  0
VERTEX
  5
C26
  8
0
 10
0.0
 20
0.0
 30
0.0
 70
   128
 71
    10
 72
    11
 73
     5
  0
VERTEX
  5
C27
  8
0
 10
0.0
 20
0.0
 30
0.0
 70
   128
 71
    -1
 72
     3
 73
    12
  0
VERTEX
  5
C28
  8
0
 10
0.0
 20
0.0
 30
0.0
 70
   128
 71
     6
 72
     1
 73
    12
  0
VERTEX
  5
C29
  8
0
 10
0.0
 20
0.0
 30
0.0
 70
   128
 71
     7
 72
     6
 73
    12
  0
SEQEND
  5
16BB
  8
0
  0
POLYLINE
  5
C2A
  8
0
 66
     1
 10
0.0
 20
0.0
 30
0.0
 70
    64
 71
    12
 72
    10
  0
VERTEX
  5
C2B
  8
0
 10
81.51475862529853
 20
-95.44261315326618
 30
127.8682163138746
 70
   192
  0
VERTEX
  5
C2C
  8
0
 10
81.57114506153718
 20
-95.97831004059907
 30
127.9281882815624
 70
   192
  0
VERTEX
  5
C2D
  8
0
 10
77.9281882815625
 20
-95.97831004059907
 30
131.5711450615371
 70
   192
  0
VERTEX
  5
C2E
  8
0
 10
77.86821631387464
 20
-95.44261315326618
 30
131.5147586252984
 70
   192
  0
VERTEX
  5
C2F
  8
0
 10
82.88857765912103
 20
-95.90061680234955
 30
122.9187319389379
 70
   192
  0
VERTEX
  5
C30
  8
0
 10
82.90442854140927
 20
-96.03129508149644
 30
122.9354605619538
 70
   192
  0
VERTEX
  5
C31
  8
0
 10
82.91852999051014
 20
-96.16217294448754
 30
122.9521950786859
 70
   192
  0
VERTEX
  5
C32
  8
0
 10
82.93087952345314
 20
-96.2932273464666
 30
122.9689325425356
 70
   192
  0
VERTEX
  5
C33
  8
0
 10
72.9689325425357
 20
-96.2932273464666
 30
132.9308795234531
 70
   192
  0
VERTEX
  5
C34
  8
0
 10
72.952195078686
 20
-96.16217294448754
 30
132.91852999051
 70
   192
  0
VERTEX
  5
C35
  8
0
 10
72.93546056195387
 20
-96.03129508149644
 30
132.9044285414092
 70
   192
  0
VERTEX
  5
C36
  8
0
 10
72.91873193893794
 20
-95.90061680234955
 30
132.8885776591209
 70
   192
  0
VERTEX
  5
C37
  8
0
 10
0.0
 20
0.0
 30
0.0
 70
   128
 71
     1
 72
     2
 73
    -3
  0
VERTEX
  5
C38
  8
0
 10
0.0
 20
0.0
 30
0.0
 70
   128
 71
     4
 72
    -1
 73
     3
  0
VERTEX
  5
C39
  8
0
 10
0.0
 20
0.0
 30
0.0
 70
   128
 71
     1
 72
     5
 73
     6
  0
VERTEX
  5
C3A
  8
0
 10
0.0
 20
0.0
 30
0.0
 70
   128
 71
     7
 72
     2
 73
     1
  0
VERTEX
  5
C3B
  8
0
 10
0.0
 20
0.0
 30
0.0
 70
   128
 71
     6
 72
     7
 73
     1
  0
VERTEX
  5
C3C
  8
0
 10
0.0
 20
0.0
 30
0.0
 70
   128
 71
     7
 72
     8
 73
     2
  0
VERTEX
  5
C3D
  8
0
 10
0.0
 20
0.0
 30
0.0
 70
   128
 71
     9
 72
    10
 73
    11
  0
VERTEX
  5
C3E
  8
0
 10
0.0
 20
0.0
 30
0.0
 70
   128
 71
    12
 72
     4
 73
     3
  0
VERTEX
  5
C3F
  8
0
 10
0.0
 20
0.0
 30
0.0
 70
   128
 71
    11
 72
    12
 73
     3
  0
VERTEX
  5
C40
  8
0
 10
0.0
 20
0.0
 30
0.0
 70
   128
 71
     9
 72
    11
 73
     3
  0
SEQEND
  5
16BC
  8
0
  0
POLYLINE
  5
C41
  8
0
 66
     1
 10
0.0
 20
0.0
 30
0.0
 70
    64
 71
    12
 72
    10
  0
VERTEX
  5
C42
  8
0
 10
71.92770117149038
 20
-89.95779412099772
 30
-76.87722515444186
 70
   192
  0
VERTEX
  5
C43
  8
0
 10
71.73969278649535
 20
-89.35336607847637
 30
-71.7396927864954
 70
   192
  0
VERTEX
  5
C44
  8
0
 10
71.73853781585424
 20
-89.32947209113551
 30
-71.91944564596191
 70
   192
  0
VERTEX
  5
C45
  8
0
 10
71.7378446815174
 20
-89.30880888832179
 30
-72.09960085318303
 70
   192
  0
VERTEX
  5
C46
  8
0
 10
71.7376136114106
 20
-89.2913832647879
 30
-72.2800991670967
 70
   192
  0
VERTEX
  5
C47
  8
0
 10
71.91335865670793
 20
-90.10274513720596
 30
-77.21172167729632
 70
   192
  0
VERTEX
  5
C48
  8
0
 10
72.3966397898272
 20
-93.17794923131409
 30
-81.12575465084414
 70
   192
  0
VERTEX
  5
C49
  8
0
 10
72.44134963154578
 20
-93.02646107611729
 30
-81.01417664329836
 70
   192
  0
VERTEX
  5
C4A
  8
0
 10
73.06658794029657
 20
-97.74788408197585
 30
-83.04329472303498
 70
   192
  0
VERTEX
  5
C4B
  8
0
 10
73.09206050471444
 20
-97.74428674973935
 30
-83.04294682430636
 70
   192
  0
VERTEX
  5
C4C
  8
0
 10
73.11753340635049
 20
-97.74069875162117
 30
-83.04253339654888
 70
   192
  0
VERTEX
  5
C4D
  8
0
 10
73.1430064765962
 20
-97.73712011137073
 30
-83.04205444249908
 70
   192
  0
VERTEX
  5
C4E
  8
0
 10
0.0
 20
0.0
 30
0.0
 70
   128
 71
     1
 72
     2
 73
     3
  0
VERTEX
  5
C4F
  8
0
 10
0.0
 20
0.0
 30
0.0
 70
   128
 71
     3
 72
     4
 73
     1
  0
VERTEX
  5
C50
  8
0
 10
0.0
 20
0.0
 30
0.0
 70
   128
 71
     4
 72
     5
 73
     1
  0
VERTEX
  5
C51
  8
0
 10
0.0
 20
0.0
 30
0.0
 70
   128
 71
     5
 72
     6
 73
     1
  0
VERTEX
  5
C52
  8
0
 10
0.0
 20
0.0
 30
0.0
 70
   128
 71
     1
 72
     6
 73
     7
  0
VERTEX
  5
C53
  8
0
 10
0.0
 20
0.0
 30
0.0
 70
   128
 71
     8
 72
     1
 73
     7
  0
VERTEX
  5
C54
  8
0
 10
0.0
 20
0.0
 30
0.0
 70
   128
 71
     7
 72
     9
 73
    10
  0
VERTEX
  5
C55
  8
0
 10
0.0
 20
0.0
 30
0.0
 70
   128
 71
     8
 72
     7
 73
    10
  0
VERTEX
  5
C56
  8
0
 10
0.0
 20
0.0
 30
0.0
 70
   128
 71
    10
 72
    11
 73
     8
  0
VERTEX
  5
C57
  8
0
 10
0.0
 20
0.0
 30
0.0
 70
   128
 71
    11
 72
    12
 73
     8
  0
SEQEND
  5
16BD
  8
0
  0
POLYLINE
  5
C58
  8
0
 66
     1
 10
0.0
 20
0.0
 30
0.0
 70
    64
 71
    12
 72
    10
  0
VERTEX
  5
C59
  8
0
 10
71.91944564596191
 20
-89.32947209113551
 30
-71.73853781585424
 70
   192
  0
VERTEX
  5
C5A
  8
0
 10
71.73969278649535
 20
-89.35336607847637
 30
-71.7396927864954
 70
   192
  0
VERTEX
  5
C5B
  8
0
 10
71.92770117149038
 20
-89.95779412099772
 30
-76.87722515444186
 70
   192
  0
VERTEX
  5
C5C
  8
0
 10
81.67644221412368
 20
-97.23842303415667
 30
-77.99164349153183
 70
   192
  0
VERTEX
  5
C5D
  8
0
 10
83.04329472303496
 20
-97.74788408197584
 30
-73.06658794029659
 70
   192
  0
VERTEX
  5
C5E
  8
0
 10
81.12575465084414
 20
-93.17794923131409
 30
-72.3966397898272
 70
   192
  0
VERTEX
  5
C5F
  8
0
 10
78.05812729290858
 20
-97.23448906430826
 30
-81.63743423949154
 70
   192
  0
VERTEX
  5
C60
  8
0
 10
77.21172167729632
 20
-90.10274513720596
 30
-71.91335865670793
 70
   192
  0
VERTEX
  5
C61
  8
0
 10
72.2800991670967
 20
-89.2913832647879
 30
-71.7376136114106
 70
   192
  0
VERTEX
  5
C62
  8
0
 10
72.09960085318303
 20
-89.30880888832179
 30
-71.7378446815174
 70
   192
  0
VERTEX
  5
C63
  8
0
 10
72.44134963154578
 20
-93.02646107611729
 30
-81.01417664329836
 70
   192
  0
VERTEX
  5
C64
  8
0
 10
73.1430064765962
 20
-97.73712011137071
 30
-83.04205444249908
 70
   192
  0
VERTEX
  5
C65
  8
0
 10
0.0
 20
0.0
 30
0.0
 70
   128
 71
     1
 72
     2
 73
     3
  0
VERTEX
  5
C66
  8
0
 10
0.0
 20
0.0
 30
0.0
 70
   128
 71
     4
 72
     5
 73
     6
  0
VERTEX
  5
C67
  8
0
 10
0.0
 20
0.0
 30
0.0
 70
   128
 71
     7
 72
     4
 73
     6
  0
VERTEX
  5
C68
  8
0
 10
0.0
 20
0.0
 30
0.0
 70
   128
 71
     7
 72
     6
 73
     8
  0
VERTEX
  5
C69
  8
0
 10
0.0
 20
0.0
 30
0.0
 70
   128
 71
     7
 72
     8
 73
     9
  0
VERTEX
  5
C6A
  8
0
 10
0.0
 20
0.0
 30
0.0
 70
   128
 71
     9
 72
    10
 73
     3
  0
VERTEX
  5
C6B
  8
0
 10
0.0
 20
0.0
 30
0.0
 70
   128
 71
    10
 72
     1
 73
     3
  0
VERTEX
  5
C6C
  8
0
 10
0.0
 20
0.0
 30
0.0
 70
   128
 71
    11
 72
    12
 73
     7
  0
VERTEX
  5
C6D
  8
0
 10
0.0
 20
0.0
 30
0.0
 70
   128
 71
     3
 72
    11
 73
     7
  0
VERTEX
  5
C6E
  8
0
 10
0.0
 20
0.0
 30
0.0
 70
   128
 71
     9
 72
     3
 73
     7
  0
SEQEND
  5
16BE
  8
0
  0
POLYLINE
  5
C6F
  8
0
 66
     1
 10
0.0
 20
0.0
 30
0.0
 70
    64
 71
    12
 72
    10
  0
VERTEX
  5
C70
  8
0
 10
-121.8856303073366
 20
-85.87643612776588
 30
119.8748058343442
 70
   192
  0
VERTEX
  5
C71
  8
0
 10
-121.7907849298887
 20
-85.88610164367638
 30
119.8748554421094
 70
   192
  0
VERTEX
  5
C72
  8
0
 10
-121.8736473921486
 20
-85.73947078042643
 30
121.6836328074811
 70
   192
  0
VERTEX
  5
C73
  8
0
 10
-121.7788013040134
 20
-85.7491281731441
 30
121.6837896938436
 70
   192
  0
VERTEX
  5
C74
  8
0
 10
-121.6960359655528
 20
-85.89667033348059
 30
119.8749381167083
 70
   192
  0
VERTEX
  5
C75
  8
0
 10
-121.6934245738459
 20
-85.86682198968782
 30
120.4791124076545
 70
   192
  0
VERTEX
  5
C76
  8
0
 10
-121.6894287149813
 20
-85.82114911387134
 30
121.0822892791946
 70
   192
  0
VERTEX
  5
C77
  8
0
 10
-121.6840511552704
 20
-85.75968332511393
 30
121.6840511552703
 70
   192
  0
VERTEX
  5
C78
  8
0
 10
-121.9805634773336
 20
-85.86767466425457
 30
119.8747892979214
 70
   192
  0
VERTEX
  5
C79
  8
0
 10
-121.9779525501714
 20
-85.83783163023186
 30
120.4788561113271
 70
   192
  0
VERTEX
  5
C7A
  8
0
 10
-121.9685807990486
 20
-85.73071202472813
 30
121.6835805104425
 70
   192
  0
VERTEX
  5
C7B
  8
0
 10
-121.9739574021367
 20
-85.79216687923704
 30
121.081925682759
 70
   192
  0
VERTEX
  5
C7C
  8
0
 10
0.0
 20
0.0
 30
0.0
 70
   128
 71
     1
 72
    -2
 73
     3
  0
VERTEX
  5
C7D
  8
0
 10
0.0
 20
0.0
 30
0.0
 70
   128
 71
    -3
 72
     2
 73
     4
  0
VERTEX
  5
C7E
  8
0
 10
0.0
 20
0.0
 30
0.0
 70
   128
 71
     2
 72
     5
 73
     6
  0
VERTEX
  5
C7F
  8
0
 10
0.0
 20
0.0
 30
0.0
 70
   128
 71
     6
 72
     7
 73
     2
  0
VERTEX
  5
C80
  8
0
 10
0.0
 20
0.0
 30
0.0
 70
   128
 71
     2
 72
     7
 73
     8
  0
VERTEX
  5
C81
  8
0
 10
0.0
 20
0.0
 30
0.0
 70
   128
 71
     4
 72
     2
 73
     8
  0
VERTEX
  5
C82
  8
0
 10
0.0
 20
0.0
 30
0.0
 70
   128
 71
     9
 72
     1
 73
    10
  0
VERTEX
  5
C83
  8
0
 10
0.0
 20
0.0
 30
0.0
 70
   128
 71
     3
 72
    11
 73
    12
  0
VERTEX
  5
C84
  8
0
 10
0.0
 20
0.0
 30
0.0
 70
   128
 71
    10
 72
     1
 73
    -3
  0
VERTEX
  5
C85
  8
0
 10
0.0
 20
0.0
 30
0.0
 70
   128
 71
    12
 72
   -10
 73
     3
  0
SEQEND
  5
16BF
  8
0
  0
POLYLINE
  5
C86
  8
0
 66
     1
 10
0.0
 20
0.0
 30
0.0
 70
    64
 71
    12
 72
    10
  0
VERTEX
  5
C87
  8
0
 10
-121.9722256537602
 20
-87.29484147825576
 30
-71.70766543451217
 70
   192
  0
VERTEX
  5
C88
  8
0
 10
-121.8402903249844
 20
-87.30901426840855
 30
-71.70799856845376
 70
   192
  0
VERTEX
  5
C89
  8
0
 10
-121.9875546452729
 20
-87.4700526529937
 30
-69.40155038225672
 70
   192
  0
VERTEX
  5
C8A
  8
0
 10
-121.8556210786218
 20
-87.48424558432382
 30
-69.40161841968077
 70
   192
  0
VERTEX
  5
C8B
  8
0
 10
-121.7085537265138
 20
-87.32492245375566
 30
-71.70855372651387
 70
   192
  0
VERTEX
  5
C8C
  8
0
 10
-121.7159142037472
 20
-87.409053093506
 30
-70.94172663097558
 70
   192
  0
VERTEX
  5
C8D
  8
0
 10
-121.721027354376
 20
-87.46749667262544
 30
-70.17249705576941
 70
   192
  0
VERTEX
  5
C8E
  8
0
 10
-121.723887416681
 20
-87.50018733435932
 30
-69.4017318020764
 70
   192
  0
VERTEX
  5
C8F
  8
0
 10
-122.1196648858906
 20
-87.45761103944751
 30
-69.40152770178416
 70
   192
  0
VERTEX
  5
C90
  8
0
 10
-122.1168058095502
 20
-87.4249316473376
 30
-70.17202724551086
 70
   192
  0
VERTEX
  5
C91
  8
0
 10
-122.1116944216047
 20
-87.36650821578107
 30
-70.94099164015314
 70
   192
  0
VERTEX
  5
C92
  8
0
 10
-122.1043364817874
 20
-87.28240657882944
 30
-71.70755438334699
 70
   192
  0
VERTEX
  5
C93
  8
0
 10
0.0
 20
0.0
 30
0.0
 70
   128
 71
     1
 72
    -2
 73
     3
  0
VERTEX
  5
C94
  8
0
 10
0.0
 20
0.0
 30
0.0
 70
   128
 71
    -3
 72
     2
 73
     4
  0
VERTEX
  5
C95
  8
0
 10
0.0
 20
0.0
 30
0.0
 70
   128
 71
     2
 72
     5
 73
     6
  0
VERTEX
  5
C96
  8
0
 10
0.0
 20
0.0
 30
0.0
 70
   128
 71
     6
 72
     7
 73
     2
  0
VERTEX
  5
C97
  8
0
 10
0.0
 20
0.0
 30
0.0
 70
   128
 71
     2
 72
     7
 73
     8
  0
VERTEX
  5
C98
  8
0
 10
0.0
 20
0.0
 30
0.0
 70
   128
 71
     4
 72
     2
 73
     8
  0
VERTEX
  5
C99
  8
0
 10
0.0
 20
0.0
 30
0.0
 70
   128
 71
     3
 72
     9
 73
    10
  0
VERTEX
  5
C9A
  8
0
 10
0.0
 20
0.0
 30
0.0
 70
   128
 71
    11
 72
     1
 73
    -3
  0
VERTEX
  5
C9B
  8
0
 10
0.0
 20
0.0
 30
0.0
 70
   128
 71
    10
 72
   -11
 73
     3
  0
VERTEX
  5
C9C
  8
0
 10
0.0
 20
0.0
 30
0.0
 70
   128
 71
    11
 72
    12
 73
     1
  0
SEQEND
  5
16C0
  8
0
  0
POLYLINE
  5
C9D
  8
0
 66
     1
 10
0.0
 20
0.0
 30
0.0
 70
    64
 71
    12
 72
    10
  0
VERTEX
  5
C9E
  8
0
 10
-121.6836328074811
 20
-85.73947078042643
 30
121.8736473921486
 70
   192
  0
VERTEX
  5
C9F
  8
0
 10
-121.6837896938436
 20
-85.7491281731441
 30
121.7788013040133
 70
   192
  0
VERTEX
  5
CA0
  8
0
 10
-119.8748058343442
 20
-85.87643612776587
 30
121.8856303073368
 70
   192
  0
VERTEX
  5
CA1
  8
0
 10
-119.8748554421094
 20
-85.88610164367638
 30
121.7907849298887
 70
   192
  0
VERTEX
  5
CA2
  8
0
 10
-121.6840511552703
 20
-85.75968332511393
 30
121.6840511552704
 70
   192
  0
VERTEX
  5
CA3
  8
0
 10
-121.0822892791946
 20
-85.82114911387137
 30
121.6894287149813
 70
   192
  0
VERTEX
  5
CA4
  8
0
 10
-120.4791124076545
 20
-85.86682198968785
 30
121.6934245738459
 70
   192
  0
VERTEX
  5
CA5
  8
0
 10
-119.8749381167083
 20
-85.89667033348059
 30
121.6960359655528
 70
   192
  0
VERTEX
  5
CA6
  8
0
 10
-121.6835805104426
 20
-85.73071202472813
 30
121.9685807990485
 70
   192
  0
VERTEX
  5
CA7
  8
0
 10
-121.081925682759
 20
-85.79216687923703
 30
121.9739574021367
 70
   192
  0
VERTEX
  5
CA8
  8
0
 10
-119.8747892979215
 20
-85.86767466425458
 30
121.9805634773338
 70
   192
  0
VERTEX
  5
CA9
  8
0
 10
-120.4788561113271
 20
-85.83783163023185
 30
121.9779525501714
 70
   192
  0
VERTEX
  5
CAA
  8
0
 10
0.0
 20
0.0
 30
0.0
 70
   128
 71
     1
 72
    -2
 73
     3
  0
VERTEX
  5
CAB
  8
0
 10
0.0
 20
0.0
 30
0.0
 70
   128
 71
    -3
 72
     2
 73
     4
  0
VERTEX
  5
CAC
  8
0
 10
0.0
 20
0.0
 30
0.0
 70
   128
 71
     2
 72
     5
 73
     6
  0
VERTEX
  5
CAD
  8
0
 10
0.0
 20
0.0
 30
0.0
 70
   128
 71
     6
 72
     7
 73
     2
  0
VERTEX
  5
CAE
  8
0
 10
0.0
 20
0.0
 30
0.0
 70
   128
 71
     2
 72
     7
 73
     8
  0
VERTEX
  5
CAF
  8
0
 10
0.0
 20
0.0
 30
0.0
 70
   128
 71
     4
 72
     2
 73
     8
  0
VERTEX
  5
CB0
  8
0
 10
0.0
 20
0.0
 30
0.0
 70
   128
 71
     9
 72
     1
 73
    10
  0
VERTEX
  5
CB1
  8
0
 10
0.0
 20
0.0
 30
0.0
 70
   128
 71
     3
 72
    11
 73
    12
  0
VERTEX
  5
CB2
  8
0
 10
0.0
 20
0.0
 30
0.0
 70
   128
 71
    10
 72
     1
 73
    -3
  0
VERTEX
  5
CB3
  8
0
 10
0.0
 20
0.0
 30
0.0
 70
   128
 71
    12
 72
   -10
 73
     3
  0
SEQEND
  5
16C1
  8
0
  0
POLYLINE
  5
CB4
  8
0
 66
     1
 10
0.0
 20
0.0
 30
0.0
 70
    64
 71
    12
 72
    10
  0
VERTEX
  5
CB5
  8
0
 10
-119.8282049666706
 20
-87.4551467956183
 30
-71.98625055173243
 70
   192
  0
VERTEX
  5
CB6
  8
0
 10
-119.8283220496288
 20
-87.4693380134646
 30
-71.85431683517086
 70
   192
  0
VERTEX
  5
CB7
  8
0
 10
-121.707665434512
 20
-87.29484147825576
 30
-71.97222565376025
 70
   192
  0
VERTEX
  5
CB8
  8
0
 10
-121.7079985684536
 20
-87.30901426840856
 30
-71.84029032498442
 70
   192
  0
VERTEX
  5
CB9
  8
0
 10
-119.8285171649859
 20
-87.48527690802894
 30
-71.72258292340858
 70
   192
  0
VERTEX
  5
CBA
  8
0
 10
-120.4565867866061
 20
-87.44892489328973
 30
-71.71940253422262
 70
   192
  0
VERTEX
  5
CBB
  8
0
 10
-121.083422223285
 20
-87.3954600530708
 30
-71.71472496680624
 70
   192
  0
VERTEX
  5
CBC
  8
0
 10
-121.7085537265137
 20
-87.32492245375568
 30
-71.70855372651378
 70
   192
  0
VERTEX
  5
CBD
  8
0
 10
-121.7075543833469
 20
-87.28240657882944
 30
-72.1043364817874
 70
   192
  0
VERTEX
  5
CBE
  8
0
 10
-121.0826383849945
 20
-87.35291986134632
 30
-72.11050559463564
 70
   192
  0
VERTEX
  5
CBF
  8
0
 10
-120.456019040598
 20
-87.40636627034922
 30
-72.11518154952957
 70
   192
  0
VERTEX
  5
CC0
  8
0
 10
-119.8281659367272
 20
-87.44270575326695
 30
-72.11836084232327
 70
   192
  0
VERTEX
  5
CC1
  8
0
 10
0.0
 20
0.0
 30
0.0
 70
   128
 71
     1
 72
    -2
 73
     3
  0
VERTEX
  5
CC2
  8
0
 10
0.0
 20
0.0
 30
0.0
 70
   128
 71
    -3
 72
     2
 73
     4
  0
VERTEX
  5
CC3
  8
0
 10
0.0
 20
0.0
 30
0.0
 70
   128
 71
     2
 72
     5
 73
     6
  0
VERTEX
  5
CC4
  8
0
 10
0.0
 20
0.0
 30
0.0
 70
   128
 71
     6
 72
     7
 73
     2
  0
VERTEX
  5
CC5
  8
0
 10
0.0
 20
0.0
 30
0.0
 70
   128
 71
     2
 72
     7
 73
     8
  0
VERTEX
  5
CC6
  8
0
 10
0.0
 20
0.0
 30
0.0
 70
   128
 71
     4
 72
     2
 73
     8
  0
VERTEX
  5
CC7
  8
0
 10
0.0
 20
0.0
 30
0.0
 70
   128
 71
     3
 72
     9
 73
    10
  0
VERTEX
  5
CC8
  8
0
 10
0.0
 20
0.0
 30
0.0
 70
   128
 71
    11
 72
     1
 73
    -3
  0
VERTEX
  5
CC9
  8
0
 10
0.0
 20
0.0
 30
0.0
 70
   128
 71
    10
 72
   -11
 73
     3
  0
VERTEX
  5
CCA
  8
0
 10
0.0
 20
0.0
 30
0.0
 70
   128
 71
    11
 72
    12
 73
     1
  0
SEQEND
  5
16C2
  8
0
  0
POLYLINE
  5
CCB
  8
0
 66
     1
 10
0.0
 20
0.0
 30
0.0
 70
    64
 71
    12
 72
    10
  0
VERTEX
  5
CCC
  8
0
 10
69.40155038225681
 20
-87.4700526529937
 30
121.9875546452728
 70
   192
  0
VERTEX
  5
CCD
  8
0
 10
69.40161841968087
 20
-87.48424558432383
 30
121.8556210786217
 70
   192
  0
VERTEX
  5
CCE
  8
0
 10
71.70766543451217
 20
-87.29484147825576
 30
121.9722256537602
 70
   192
  0
VERTEX
  5
CCF
  8
0
 10
71.70799856845376
 20
-87.30901426840855
 30
121.8402903249844
 70
   192
  0
VERTEX
  5
CD0
  8
0
 10
69.4017318020765
 20
-87.50018733435935
 30
121.7238874166808
 70
   192
  0
VERTEX
  5
CD1
  8
0
 10
70.17249705576943
 20
-87.46749667262546
 30
121.7210273543758
 70
   192
  0
VERTEX
  5
CD2
  8
0
 10
70.94172663097558
 20
-87.409053093506
 30
121.715914203747
 70
   192
  0
VERTEX
  5
CD3
  8
0
 10
71.70855372651387
 20
-87.32492245375566
 30
121.7085537265138
 70
   192
  0
VERTEX
  5
CD4
  8
0
 10
69.4015277017842
 20
-87.45761103944753
 30
122.1196648858907
 70
   192
  0
VERTEX
  5
CD5
  8
0
 10
70.17202724551085
 20
-87.4249316473376
 30
122.1168058095502
 70
   192
  0
VERTEX
  5
CD6
  8
0
 10
71.70755438334704
 20
-87.28240657882942
 30
122.1043364817874
 70
   192
  0
VERTEX
  5
CD7
  8
0
 10
70.94099164015316
 20
-87.36650821578108
 30
122.1116944216047
 70
   192
  0
VERTEX
  5
CD8
  8
0
 10
0.0
 20
0.0
 30
0.0
 70
   128
 71
     1
 72
    -2
 73
     3
  0
VERTEX
  5
CD9
  8
0
 10
0.0
 20
0.0
 30
0.0
 70
   128
 71
    -3
 72
     2
 73
     4
  0
VERTEX
  5
CDA
  8
0
 10
0.0
 20
0.0
 30
0.0
 70
   128
 71
     2
 72
     5
 73
     6
  0
VERTEX
  5
CDB
  8
0
 10
0.0
 20
0.0
 30
0.0
 70
   128
 71
     6
 72
    -7
 73
     2
  0
VERTEX
  5
CDC
  8
0
 10
0.0
 20
0.0
 30
0.0
 70
   128
 71
     7
 72
     8
 73
     4
  0
VERTEX
  5
CDD
  8
0
 10
0.0
 20
0.0
 30
0.0
 70
   128
 71
    -2
 72
     7
 73
     4
  0
VERTEX
  5
CDE
  8
0
 10
0.0
 20
0.0
 30
0.0
 70
   128
 71
     9
 72
     1
 73
    10
  0
VERTEX
  5
CDF
  8
0
 10
0.0
 20
0.0
 30
0.0
 70
   128
 71
     3
 72
    11
 73
    12
  0
VERTEX
  5
CE0
  8
0
 10
0.0
 20
0.0
 30
0.0
 70
   128
 71
    10
 72
     1
 73
    -3
  0
VERTEX
  5
CE1
  8
0
 10
0.0
 20
0.0
 30
0.0
 70
   128
 71
    12
 72
   -10
 73
     3
  0
SEQEND
  5
16C3
  8
0
  0
POLYLINE
  5
CE2
  8
0
 66
     1
 10
0.0
 20
0.0
 30
0.0
 70
    64
 71
    15
 72
    13
  0
VERTEX
  5
CE3
  8
0
 10
71.7378446815174
 20
-89.30880888832179
 30
-72.09960085318303
 70
   192
  0
VERTEX
  5
CE4
  8
0
 10
71.73853781585424
 20
-89.32947209113551
 30
-71.91944564596191
 70
   192
  0
VERTEX
  5
CE5
  8
0
 10
69.34225331226276
 20
-89.52078522120345
 30
-72.11814637924593
 70
   192
  0
VERTEX
  5
CE6
  8
0
 10
69.34243169666577
 20
-89.54149397218734
 30
-71.93799515697333
 70
   192
  0
VERTEX
  5
CE7
  8
0
 10
71.73969278649535
 20
-89.35336607847636
 30
-71.7396927864954
 70
   192
  0
VERTEX
  5
CE8
  8
0
 10
70.94860640404193
 20
-89.45131112282381
 30
-71.7482618675243
 70
   192
  0
VERTEX
  5
CE9
  8
0
 10
70.15458434770977
 20
-89.52184634651918
 30
-71.75443289997692
 70
   192
  0
VERTEX
  5
CEA
  8
0
 10
69.3585832997176
 20
-89.56488676477676
 30
-71.75819844864787
 70
   192
  0
VERTEX
  5
CEB
  8
0
 10
69.35329855726506
 20
-89.56508034096694
 30
-71.75821538437003
 70
   192
  0
VERTEX
  5
CEC
  8
0
 10
69.34801377020808
 20
-89.5652727048791
 30
-71.75823221403162
 70
   192
  0
VERTEX
  5
CED
  8
0
 10
69.34272893882701
 20
-89.56546385650297
 30
-71.7582489376317
 70
   192
  0
VERTEX
  5
CEE
  8
0
 10
71.7376136114106
 20
-89.29138326478785
 30
-72.28009916709667
 70
   192
  0
VERTEX
  5
CEF
  8
0
 10
70.94178168792777
 20
-89.38982317142094
 30
-72.2887115429656
 70
   192
  0
VERTEX
  5
CF0
  8
0
 10
69.34219384427674
 20
-89.50334441328178
 30
-72.29864336469781
 70
   192
  0
VERTEX
  5
CF1
  8
0
 10
70.14298334999806
 20
-89.46050565281551
 30
-72.29489545879751
 70
   192
  0
VERTEX
  5
CF2
  8
0
 10
0.0
 20
0.0
 30
0.0
 70
   128
 71
     1
 72
    -2
 73
     3
  0
VERTEX
  5
CF3
  8
0
 10
0.0
 20
0.0
 30
0.0
 70
   128
 71
     2
 72
     4
 73
    -3
  0
VERTEX
  5
CF4
  8
0
 10
0.0
 20
0.0
 30
0.0
 70
   128
 71
     2
 72
     5
 73
     6
  0
VERTEX
  5
CF5
  8
0
 10
0.0
 20
0.0
 30
0.0
 70
   128
 71
     6
 72
     7
 73
     2
  0
VERTEX
  5
CF6
  8
0
 10
0.0
 20
0.0
 30
0.0
 70
   128
 71
     2
 72
     7
 73
     8
  0
VERTEX
  5
CF7
  8
0
 10
0.0
 20
0.0
 30
0.0
 70
   128
 71
     4
 72
     2
 73
     8
  0
VERTEX
  5
CF8
  8
0
 10
0.0
 20
0.0
 30
0.0
 70
   128
 71
     8
 72
     9
 73
     4
  0
VERTEX
  5
CF9
  8
0
 10
0.0
 20
0.0
 30
0.0
 70
   128
 71
     9
 72
    10
 73
     4
  0
VERTEX
  5
CFA
  8
0
 10
0.0
 20
0.0
 30
0.0
 70
   128
 71
    10
 72
    11
 73
     4
  0
VERTEX
  5
CFB
  8
0
 10
0.0
 20
0.0
 30
0.0
 70
   128
 71
    12
 72
     1
 73
    13
  0
VERTEX
  5
CFC
  8
0
 10
0.0
 20
0.0
 30
0.0
 70
   128
 71
     3
 72
    14
 73
    15
  0
VERTEX
  5
CFD
  8
0
 10
0.0
 20
0.0
 30
0.0
 70
   128
 71
    13
 72
     1
 73
    -3
  0
VERTEX
  5
CFE
  8
0
 10
0.0
 20
0.0
 30
0.0
 70
   128
 71
    15
 72
   -13
 73
     3
  0
SEQEND
  5
16C4
  8
0
  0
POLYLINE
  5
CFF
  8
0
 66
     1
 10
0.0
 20
0.0
 30
0.0
 70
    64
 71
    12
 72
    10
  0
VERTEX
  5
D00
  8
0
 10
71.84029032498442
 20
-87.30901426840856
 30
121.7079985684537
 70
   192
  0
VERTEX
  5
D01
  8
0
 10
71.85431683517093
 20
-87.46933801346458
 30
119.8283220496288
 70
   192
  0
VERTEX
  5
D02
  8
0
 10
71.98625055173247
 20
-87.45514679561829
 30
119.8282049666706
 70
   192
  0
VERTEX
  5
D03
  8
0
 10
71.97222565376025
 20
-87.29484147825578
 30
121.7076654345121
 70
   192
  0
VERTEX
  5
D04
  8
0
 10
71.70855372651378
 20
-87.32492245375568
 30
121.7085537265138
 70
   192
  0
VERTEX
  5
D05
  8
0
 10
71.71472496680624
 20
-87.3954600530708
 30
121.083422223285
 70
   192
  0
VERTEX
  5
D06
  8
0
 10
71.71940253422262
 20
-87.44892489328973
 30
120.4565867866061
 70
   192
  0
VERTEX
  5
D07
  8
0
 10
71.7225829234087
 20
-87.48527690802892
 30
119.8285171649859
 70
   192
  0
VERTEX
  5
D08
  8
0
 10
72.10433648178741
 20
-87.28240657882944
 30
121.707554383347
 70
   192
  0
VERTEX
  5
D09
  8
0
 10
72.11050559463564
 20
-87.35291986134632
 30
121.0826383849945
 70
   192
  0
VERTEX
  5
D0A
  8
0
 10
72.11836084232328
 20
-87.4427057532669
 30
119.8281659367271
 70
   192
  0
VERTEX
  5
D0B
  8
0
 10
72.11518154952957
 20
-87.40636627034922
 30
120.456019040598
 70
   192
  0
VERTEX
  5
D0C
  8
0
 10
0.0
 20
0.0
 30
0.0
 70
   128
 71
     1
 72
     2
 73
    -3
  0
VERTEX
  5
D0D
  8
0
 10
0.0
 20
0.0
 30
0.0
 70
   128
 71
     4
 72
    -1
 73
     3
  0
VERTEX
  5
D0E
  8
0
 10
0.0
 20
0.0
 30
0.0
 70
   128
 71
     1
 72
     5
 73
     6
  0
VERTEX
  5
D0F
  8
0
 10
0.0
 20
0.0
 30
0.0
 70
   128
 71
     6
 72
     7
 73
     1
  0
VERTEX
  5
D10
  8
0
 10
0.0
 20
0.0
 30
0.0
 70
   128
 71
     1
 72
     7
 73
     8
  0
VERTEX
  5
D11
  8
0
 10
0.0
 20
0.0
 30
0.0
 70
   128
 71
     2
 72
     1
 73
     8
  0
VERTEX
  5
D12
  8
0
 10
0.0
 20
0.0
 30
0.0
 70
   128
 71
     9
 72
     4
 73
    10
  0
VERTEX
  5
D13
  8
0
 10
0.0
 20
0.0
 30
0.0
 70
   128
 71
     3
 72
    11
 73
    12
  0
VERTEX
  5
D14
  8
0
 10
0.0
 20
0.0
 30
0.0
 70
   128
 71
    10
 72
     4
 73
    -3
  0
VERTEX
  5
D15
  8
0
 10
0.0
 20
0.0
 30
0.0
 70
   128
 71
    12
 72
   -10
 73
     3
  0
SEQEND
  5
16C5
  8
0
  0
POLYLINE
  5
D16
  8
0
 66
     1
 10
0.0
 20
0.0
 30
0.0
 70
    64
 71
    12
 72
    10
  0
VERTEX
  5
D17
  8
0
 10
72.11814637924593
 20
-89.52078522120345
 30
-69.34225331226266
 70
   192
  0
VERTEX
  5
D18
  8
0
 10
71.93799515697333
 20
-89.54149397218734
 30
-69.34243169666567
 70
   192
  0
VERTEX
  5
D19
  8
0
 10
72.09960085318303
 20
-89.30880888832179
 30
-71.7378446815174
 70
   192
  0
VERTEX
  5
D1A
  8
0
 10
71.91944564596191
 20
-89.32947209113551
 30
-71.73853781585424
 70
   192
  0
VERTEX
  5
D1B
  8
0
 10
71.75824893763169
 20
-89.56546385650299
 30
-69.34272893882691
 70
   192
  0
VERTEX
  5
D1C
  8
0
 10
71.75449861584231
 20
-89.52259748229777
 30
-70.14403463110774
 70
   192
  0
VERTEX
  5
D1D
  8
0
 10
71.74831071387645
 20
-89.45186943918364
 30
-70.94334787209604
 70
   192
  0
VERTEX
  5
D1E
  8
0
 10
71.73969278649541
 20
-89.35336607847636
 30
-71.73969278649535
 70
   192
  0
VERTEX
  5
D1F
  8
0
 10
72.2800991670967
 20
-89.2913832647879
 30
-71.7376136114106
 70
   192
  0
VERTEX
  5
D20
  8
0
 10
72.2887115429656
 20
-89.38982317142094
 30
-70.94178168792779
 70
   192
  0
VERTEX
  5
D21
  8
0
 10
72.29489545879751
 20
-89.46050565281551
 30
-70.14298334999805
 70
   192
  0
VERTEX
  5
D22
  8
0
 10
72.29864336469781
 20
-89.50334441328178
 30
-69.3421938442767
 70
   192
  0
VERTEX
  5
D23
  8
0
 10
0.0
 20
0.0
 30
0.0
 70
   128
 71
     1
 72
    -2
 73
     3
  0
VERTEX
  5
D24
  8
0
 10
0.0
 20
0.0
 30
0.0
 70
   128
 71
     2
 72
     4
 73
    -3
  0
VERTEX
  5
D25
  8
0
 10
0.0
 20
0.0
 30
0.0
 70
   128
 71
     2
 72
     5
 73
     6
  0
VERTEX
  5
D26
  8
0
 10
0.0
 20
0.0
 30
0.0
 70
   128
 71
     6
 72
     7
 73
     2
  0
VERTEX
  5
D27
  8
0
 10
0.0
 20
0.0
 30
0.0
 70
   128
 71
     2
 72
     7
 73
     8
  0
VERTEX
  5
D28
  8
0
 10
0.0
 20
0.0
 30
0.0
 70
   128
 71
     4
 72
     2
 73
     8
  0
VERTEX
  5
D29
  8
0
 10
0.0
 20
0.0
 30
0.0
 70
   128
 71
     3
 72
     9
 73
    10
  0
VERTEX
  5
D2A
  8
0
 10
0.0
 20
0.0
 30
0.0
 70
   128
 71
    11
 72
     1
 73
    -3
  0
VERTEX
  5
D2B
  8
0
 10
0.0
 20
0.0
 30
0.0
 70
   128
 71
    10
 72
   -11
 73
     3
  0
VERTEX
  5
D2C
  8
0
 10
0.0
 20
0.0
 30
0.0
 70
   128
 71
    11
 72
    12
 73
     1
  0
SEQEND
  5
16C6
  8
0
  0
POLYLINE
  5
D2D
  8
0
 66
     1
 10
0.0
 20
0.0
 30
0.0
 70
    64
 71
    23
 72
    30
  0
VERTEX
  5
D2E
  8
0
 10
26.28420222422749
 20
-80.01943531145669
 30
26.28420222422748
 70
   192
  0
VERTEX
  5
D2F
  8
0
 10
26.84932803042215
 20
-79.9124431699972
 30
26.84932803042214
 70
   192
  0
VERTEX
  5
D30
  8
0
 10
37.9706838412271
 20
-79.9124431699972
 30
0.0
 70
   192
  0
VERTEX
  5
D31
  8
0
 10
37.17147526165958
 20
-80.01943531145669
 30
-0.0000000000000023
 70
   192
  0
VERTEX
  5
D32
  8
0
 10
26.84932803042215
 20
-79.9124431699972
 30
-26.84932803042214
 70
   192
  0
VERTEX
  5
D33
  8
0
 10
26.28420222422749
 20
-80.01943531145669
 30
-26.28420222422749
 70
   192
  0
VERTEX
  5
D34
  8
0
 10
36.39985748882032
 20
-80.25350300385996
 30
-0.0000000000000022
 70
   192
  0
VERTEX
  5
D35
  8
0
 10
25.73858606456878
 20
-80.25350300385996
 30
25.73858606456877
 70
   192
  0
VERTEX
  5
D36
  8
0
 10
0.0
 20
-80.0835721431954
 30
-36.9101928122558
 70
   192
  0
VERTEX
  5
D37
  8
0
 10
25.73858606456878
 20
-80.25350300385996
 30
-25.73858606456878
 70
   192
  0
VERTEX
  5
D38
  8
0
 10
35.67589819205653
 20
-80.60855878626282
 30
-0.0000000000000022
 70
   192
  0
VERTEX
  5
D39
  8
0
 10
25.22666953652406
 20
-80.60855878626282
 30
25.22666953652406
 70
   192
  0
VERTEX
  5
D3A
  8
0
 10
0.0000000000000044
 20
-80.47727129355854
 30
35.91072929266151
 70
   192
  0
VERTEX
  5
D3B
  8
0
 10
25.22666953652406
 20
-80.60855878626282
 30
-25.22666953652406
 70
   192
  0
VERTEX
  5
D3C
  8
0
 10
35.01842557400909
 20
-81.0753686281752
 30
0.0000000000000039
 70
   192
  0
VERTEX
  5
D3D
  8
0
 10
24.76176618985825
 20
-81.0753686281752
 30
24.76176618985825
 70
   192
  0
VERTEX
  5
D3E
  8
0
 10
0.0
 20
-81.07536862817518
 30
-35.01842557400909
 70
   192
  0
VERTEX
  5
D3F
  8
0
 10
24.76176618985825
 20
-81.0753686281752
 30
-24.76176618985825
 70
   192
  0
VERTEX
  5
D40
  8
0
 10
0.0000000000000045
 20
-80.0835721431954
 30
36.9101928122558
 70
   192
  0
VERTEX
  5
D41
  8
0
 10
0.0
 20
-80.47727129355854
 30
-35.91072929266151
 70
   192
  0
VERTEX
  5
D42
  8
0
 10
-0.0000000000000043
 20
-81.0753686281752
 30
35.01842557400909
 70
   192
  0
VERTEX
  5
D43
  8
0
 10
0.0000000000000047
 20
-79.91244316999723
 30
37.9706838412271
 70
   192
  0
VERTEX
  5
D44
  8
0
 10
0.0000000000000127
 20
-79.9124431699972
 30
-37.9706838412271
 70
   192
  0
VERTEX
  5
D45
  8
0
 10
0.0
 20
0.0
 30
0.0
 70
   128
 71
     1
 72
     2
 73
    -3
  0
VERTEX
  5
D46
  8
0
 10
0.0
 20
0.0
 30
0.0
 70
   128
 71
    -1
 72
     3
 73
     4
  0
VERTEX
  5
D47
  8
0
 10
0.0
 20
0.0
 30
0.0
 70
   128
 71
     4
 72
     3
 73
    -5
  0
VERTEX
  5
D48
  8
0
 10
0.0
 20
0.0
 30
0.0
 70
   128
 71
    -4
 72
     5
 73
     6
  0
VERTEX
  5
D49
  8
0
 10
0.0
 20
0.0
 30
0.0
 70
   128
 71
     7
 72
     8
 73
    -1
  0
VERTEX
  5
D4A
  8
0
 10
0.0
 20
0.0
 30
0.0
 70
   128
 71
    -7
 72
     1
 73
     4
  0
VERTEX
  5
D4B
  8
0
 10
0.0
 20
0.0
 30
0.0
 70
   128
 71
     9
 72
    10
 73
     6
  0
VERTEX
  5
D4C
  8
0
 10
0.0
 20
0.0
 30
0.0
 70
   128
 71
    10
 72
     7
 73
    -4
  0
VERTEX
  5
D4D
  8
0
 10
0.0
 20
0.0
 30
0.0
 70
   128
 71
   -10
 72
     4
 73
     6
  0
VERTEX
  5
D4E
  8
0
 10
0.0
 20
0.0
 30
0.0
 70
   128
 71
    11
 72
    12
 73
    -8
  0
VERTEX
  5
D4F
  8
0
 10
0.0
 20
0.0
 30
0.0
 70
   128
 71
   -11
 72
     8
 73
     7
  0
VERTEX
  5
D50
  8
0
 10
0.0
 20
0.0
 30
0.0
 70
   128
 71
    13
 72
     8
 73
    12
  0
VERTEX
  5
D51
  8
0
 10
0.0
 20
0.0
 30
0.0
 70
   128
 71
    14
 72
    11
 73
    -7
  0
VERTEX
  5
D52
  8
0
 10
0.0
 20
0.0
 30
0.0
 70
   128
 71
   -14
 72
     7
 73
    10
  0
VERTEX
  5
D53
  8
0
 10
0.0
 20
0.0
 30
0.0
 70
   128
 71
    11
 72
    15
 73
   -16
  0
VERTEX
  5
D54
  8
0
 10
0.0
 20
0.0
 30
0.0
 70
   128
 71
   -11
 72
    16
 73
    12
  0
VERTEX
  5
D55
  8
0
 10
0.0
 20
0.0
 30
0.0
 70
   128
 71
    14
 72
    17
 73
    18
  0
VERTEX
  5
D56
  8
0
 10
0.0
 20
0.0
 30
0.0
 70
   128
 71
    14
 72
    18
 73
   -15
  0
VERTEX
  5
D57
  8
0
 10
0.0
 20
0.0
 30
0.0
 70
   128
 71
   -14
 72
    15
 73
    11
  0
VERTEX
  5
D58
  8
0
 10
0.0
 20
0.0
 30
0.0
 70
   128
 71
     1
 72
     8
 73
    13
  0
VERTEX
  5
D59
  8
0
 10
0.0
 20
0.0
 30
0.0
 70
   128
 71
     1
 72
    13
 73
    19
  0
VERTEX
  5
D5A
  8
0
 10
0.0
 20
0.0
 30
0.0
 70
   128
 71
    20
 72
    14
 73
    10
  0
VERTEX
  5
D5B
  8
0
 10
0.0
 20
0.0
 30
0.0
 70
   128
 71
    20
 72
    10
 73
     9
  0
VERTEX
  5
D5C
  8
0
 10
0.0
 20
0.0
 30
0.0
 70
   128
 71
    12
 72
    16
 73
    21
  0
VERTEX
  5
D5D
  8
0
 10
0.0
 20
0.0
 30
0.0
 70
   128
 71
    12
 72
    21
 73
    13
  0
VERTEX
  5
D5E
  8
0
 10
0.0
 20
0.0
 30
0.0
 70
   128
 71
    17
 72
    14
 73
    20
  0
VERTEX
  5
D5F
  8
0
 10
0.0
 20
0.0
 30
0.0
 70
   128
 71
     2
 72
     1
 73
    19
  0
VERTEX
  5
D60
  8
0
 10
0.0
 20
0.0
 30
0.0
 70
   128
 71
     2
 72
    19
 73
    22
  0
VERTEX
  5
D61
  8
0
 10
0.0
 20
0.0
 30
0.0
 70
   128
 71
     9
 72
     6
 73
     5
  0
VERTEX
  5
D62
  8
0
 10
0.0
 20
0.0
 30
0.0
 70
   128
 71
     9
 72
     5
 73
    23
  0
SEQEND
  5
16C7
  8
0
  0
POLYLINE
  5
D63
  8
0
 66
     1
 10
0.0
 20
0.0
 30
0.0
 70
    64
 71
    10
 72
     8
  0
VERTEX
  5
D64
  8
0
 10
0.0000000000000027
 20
-91.999124725835
 30
-22.0
 70
   192
  0
VERTEX
  5
D65
  8
0
 10
-0.0000000000000024
 20
-91.999124725835
 30
22.0
 70
   192
  0
VERTEX
  5
D66
  8
0
 10
0.0
 20
-81.0753686281752
 30
35.0184255740091
 70
   192
  0
VERTEX
  5
D67
  8
0
 10
0.0000000000000043
 20
-81.0753686281752
 30
-35.01842557400909
 70
   192
  0
VERTEX
  5
D68
  8
0
 10
-35.0184255740091
 20
-81.0753686281752
 30
0.0
 70
   192
  0
VERTEX
  5
D69
  8
0
 10
-22.0
 20
-91.999124725835
 30
-0.0000000000000024
 70
   192
  0
VERTEX
  5
D6A
  8
0
 10
-24.76176618985825
 20
-81.0753686281752
 30
-24.76176618985825
 70
   192
  0
VERTEX
  5
D6B
  8
0
 10
-15.55634918610404
 20
-91.999124725835
 30
-15.55634918610405
 70
   192
  0
VERTEX
  5
D6C
  8
0
 10
-24.76176618985825
 20
-81.0753686281752
 30
24.76176618985825
 70
   192
  0
VERTEX
  5
D6D
  8
0
 10
-15.55634918610405
 20
-91.999124725835
 30
15.55634918610404
 70
   192
  0
VERTEX
  5
D6E
  8
0
 10
0.0
 20
0.0
 30
0.0
 70
   128
 71
     8
 72
     1
 73
    -4
  0
VERTEX
  5
D6F
  8
0
 10
0.0
 20
0.0
 30
0.0
 70
   128
 71
     7
 72
    -8
 73
     4
  0
VERTEX
  5
D70
  8
0
 10
0.0
 20
0.0
 30
0.0
 70
   128
 71
     6
 72
     8
 73
    -7
  0
VERTEX
  5
D71
  8
0
 10
0.0
 20
0.0
 30
0.0
 70
   128
 71
     5
 72
    -6
 73
     7
  0
VERTEX
  5
D72
  8
0
 10
0.0
 20
0.0
 30
0.0
 70
   128
 71
    10
 72
     6
 73
    -5
  0
VERTEX
  5
D73
  8
0
 10
0.0
 20
0.0
 30
0.0
 70
   128
 71
     9
 72
   -10
 73
     5
  0
VERTEX
  5
D74
  8
0
 10
0.0
 20
0.0
 30
0.0
 70
   128
 71
     2
 72
    10
 73
    -9
  0
VERTEX
  5
D75
  8
0
 10
0.0
 20
0.0
 30
0.0
 70
   128
 71
     3
 72
    -2
 73
     9
  0
SEQEND
  5
16C8
  8
0
  0
POLYLINE
  5
D76
  8
0
 66
     1
 10
0.0
 20
0.0
 30
0.0
 70
    64
 71
    10
 72
     8
  0
VERTEX
  5
D77
  8
0
 10
0.0000000000000027
 20
-102.0
 30
-22.0
 70
   192
  0
VERTEX
  5
D78
  8
0
 10
-0.0000000000000024
 20
-102.0
 30
22.0
 70
   192
  0
VERTEX
  5
D79
  8
0
 10
-0.0000000000000024
 20
-91.999124725835
 30
22.0
 70
   192
  0
VERTEX
  5
D7A
  8
0
 10
0.0000000000000027
 20
-91.999124725835
 30
-22.0
 70
   192
  0
VERTEX
  5
D7B
  8
0
 10
-22.0
 20
-91.999124725835
 30
-0.0000000000000024
 70
   192
  0
VERTEX
  5
D7C
  8
0
 10
-22.0
 20
-102.0
 30
-0.0000000000000024
 70
   192
  0
VERTEX
  5
D7D
  8
0
 10
-15.55634918610404
 20
-91.999124725835
 30
-15.55634918610405
 70
   192
  0
VERTEX
  5
D7E
  8
0
 10
-15.55634918610404
 20
-102.0
 30
-15.55634918610405
 70
   192
  0
VERTEX
  5
D7F
  8
0
 10
-15.55634918610405
 20
-91.999124725835
 30
15.55634918610404
 70
   192
  0
VERTEX
  5
D80
  8
0
 10
-15.55634918610405
 20
-102.0
 30
15.55634918610404
 70
   192
  0
VERTEX
  5
D81
  8
0
 10
0.0
 20
0.0
 30
0.0
 70
   128
 71
     8
 72
     1
 73
    -4
  0
VERTEX
  5
D82
  8
0
 10
0.0
 20
0.0
 30
0.0
 70
   128
 71
     7
 72
    -8
 73
     4
  0
VERTEX
  5
D83
  8
0
 10
0.0
 20
0.0
 30
0.0
 70
   128
 71
     6
 72
     8
 73
    -7
  0
VERTEX
  5
D84
  8
0
 10
0.0
 20
0.0
 30
0.0
 70
   128
 71
     5
 72
    -6
 73
     7
  0
VERTEX
  5
D85
  8
0
 10
0.0
 20
0.0
 30
0.0
 70
   128
 71
    10
 72
     6
 73
    -5
  0
VERTEX
  5
D86
  8
0
 10
0.0
 20
0.0
 30
0.0
 70
   128
 71
     9
 72
   -10
 73
     5
  0
VERTEX
  5
D87
  8
0
 10
0.0
 20
0.0
 30
0.0
 70
   128
 71
     2
 72
    10
 73
    -9
  0
VERTEX
  5
D88
  8
0
 10
0.0
 20
0.0
 30
0.0
 70
   128
 71
     3
 72
    -2
 73
     9
  0
SEQEND
  5
16C9
  8
0
  0
POLYLINE
  5
D89
  8
0
 66
     1
 10
0.0
 20
0.0
 30
0.0
 70
    64
 71
    12
 72
    10
  0
VERTEX
  5
D8A
  8
0
 10
77.7343753198083
 20
-2.582480697119805
 30
-87.637056007224
 70
   192
  0
VERTEX
  5
D8B
  8
0
 10
80.35740748131053
 20
-2.490627402584046
 30
-87.30444371056129
 70
   192
  0
VERTEX
  5
D8C
  8
0
 10
82.73074640934585
 20
-2.434577286963707
 30
-86.33185654716716
 70
   192
  0
VERTEX
  5
D8D
  8
0
 10
84.7716744187942
 20
-2.415175156740875
 30
-84.7716744187942
 70
   192
  0
VERTEX
  5
D8E
  8
0
 10
85.16920980697394
 20
-1.173956296651209
 30
-85.16920980697394
 70
   192
  0
VERTEX
  5
D8F
  8
0
 10
85.91396476076439
 20
-0.3094488380587923
 30
-85.91396476076439
 70
   192
  0
VERTEX
  5
D90
  8
0
 10
86.85229691010619
 20
-0.0000000000000009
 30
-86.85229691010619
 70
   192
  0
VERTEX
  5
D91
  8
0
 10
84.20669796523306
 20
0.0000000000000004
 30
-88.88173733346294
 70
   192
  0
VERTEX
  5
D92
  8
0
 10
81.06363024069454
 20
0.0000000000000003
 30
-90.17632949345226
 70
   192
  0
VERTEX
  5
D93
  8
0
 10
77.7343753198083
 20
0.0
 30
-90.6078602134487
 70
   192
  0
VERTEX
  5
D94
  8
0
 10
77.7343753198083
 20
-0.3349492476209854
 30
-89.23036085328766
 70
   192
  0
VERTEX
  5
D95
  8
0
 10
77.7343753198083
 20
-1.26500299149604
 30
-88.16045640931618
 70
   192
  0
VERTEX
  5
D96
  8
0
 10
0.0
 20
0.0
 30
0.0
 70
   128
 71
     6
 72
     7
 73
     8
  0
VERTEX
  5
D97
  8
0
 10
0.0
 20
0.0
 30
0.0
 70
   128
 71
     9
 72
    11
 73
     6
  0
VERTEX
  5
D98
  8
0
 10
0.0
 20
0.0
 30
0.0
 70
   128
 71
     8
 72
     9
 73
     6
  0
VERTEX
  5
D99
  8
0
 10
0.0
 20
0.0
 30
0.0
 70
   128
 71
     9
 72
    10
 73
    11
  0
VERTEX
  5
D9A
  8
0
 10
0.0
 20
0.0
 30
0.0
 70
   128
 71
    12
 72
     5
 73
     6
  0
VERTEX
  5
D9B
  8
0
 10
0.0
 20
0.0
 30
0.0
 70
   128
 71
    11
 72
    12
 73
     6
  0
VERTEX
  5
D9C
  8
0
 10
0.0
 20
0.0
 30
0.0
 70
   128
 71
    12
 72
     1
 73
     2
  0
VERTEX
  5
D9D
  8
0
 10
0.0
 20
0.0
 30
0.0
 70
   128
 71
     3
 72
     5
 73
    12
  0
VERTEX
  5
D9E
  8
0
 10
0.0
 20
0.0
 30
0.0
 70
   128
 71
     2
 72
     3
 73
    12
  0
VERTEX
  5
D9F
  8
0
 10
0.0
 20
0.0
 30
0.0
 70
   128
 71
     3
 72
     4
 73
     5
  0
SEQEND
  5
16CA
  8
0
  0
POLYLINE
  5
DA0
  8
0
 66
     1
 10
0.0
 20
0.0
 30
0.0
 70
    64
 71
    12
 72
    10
  0
VERTEX
  5
DA1
  8
0
 10
87.637056007224
 20
-2.582480697119805
 30
127.7343753198082
 70
   192
  0
VERTEX
  5
DA2
  8
0
 10
87.30444371058563
 20
-2.49062740259235
 30
130.3574074812135
 70
   192
  0
VERTEX
  5
DA3
  8
0
 10
86.33185654721288
 20
-2.434577286959232
 30
132.7307464092681
 70
   192
  0
VERTEX
  5
DA4
  8
0
 10
84.7716744187942
 20
-2.415175156740875
 30
134.771674418794
 70
   192
  0
VERTEX
  5
DA5
  8
0
 10
85.16920980697394
 20
-1.173956296651208
 30
135.1692098069738
 70
   192
  0
VERTEX
  5
DA6
  8
0
 10
85.91396476076439
 20
-0.3094488380587923
 30
135.9139647607642
 70
   192
  0
VERTEX
  5
DA7
  8
0
 10
86.85229691010619
 20
-0.0000000000000009
 30
136.852296910106
 70
   192
  0
VERTEX
  5
DA8
  8
0
 10
88.8817373334629
 20
0.0000000000000004
 30
134.2066979652329
 70
   192
  0
VERTEX
  5
DA9
  8
0
 10
90.17632949345223
 20
0.0000000000000003
 30
131.0636302406944
 70
   192
  0
VERTEX
  5
DAA
  8
0
 10
90.6078602134487
 20
0.0
 30
127.7343753198082
 70
   192
  0
VERTEX
  5
DAB
  8
0
 10
89.23036085328766
 20
-0.3349492476209854
 30
127.7343753198082
 70
   192
  0
VERTEX
  5
DAC
  8
0
 10
88.16045640931618
 20
-1.265002991496039
 30
127.7343753198082
 70
   192
  0
VERTEX
  5
DAD
  8
0
 10
0.0
 20
0.0
 30
0.0
 70
   128
 71
     6
 72
     7
 73
     8
  0
VERTEX
  5
DAE
  8
0
 10
0.0
 20
0.0
 30
0.0
 70
   128
 71
     9
 72
    11
 73
     6
  0
VERTEX
  5
DAF
  8
0
 10
0.0
 20
0.0
 30
0.0
 70
   128
 71
     8
 72
     9
 73
     6
  0
VERTEX
  5
DB0
  8
0
 10
0.0
 20
0.0
 30
0.0
 70
   128
 71
     9
 72
    10
 73
    11
  0
VERTEX
  5
DB1
  8
0
 10
0.0
 20
0.0
 30
0.0
 70
   128
 71
    12
 72
     5
 73
     6
  0
VERTEX
  5
DB2
  8
0
 10
0.0
 20
0.0
 30
0.0
 70
   128
 71
    11
 72
    12
 73
     6
  0
VERTEX
  5
DB3
  8
0
 10
0.0
 20
0.0
 30
0.0
 70
   128
 71
    12
 72
     1
 73
     2
  0
VERTEX
  5
DB4
  8
0
 10
0.0
 20
0.0
 30
0.0
 70
   128
 71
     3
 72
     5
 73
    12
  0
VERTEX
  5
DB5
  8
0
 10
0.0
 20
0.0
 30
0.0
 70
   128
 71
     2
 72
     3
 73
    12
  0
VERTEX
  5
DB6
  8
0
 10
0.0
 20
0.0
 30
0.0
 70
   128
 71
     3
 72
     4
 73
     5
  0
SEQEND
  5
16CB
  8
0
  0
POLYLINE
  5
DB7
  8
0
 66
     1
 10
0.0
 20
0.0
 30
0.0
 70
    64
 71
    12
 72
    10
  0
VERTEX
  5
DB8
  8
0
 10
-137.637056007224
 20
-2.582480697119805
 30
-77.7343753198083
 70
   192
  0
VERTEX
  5
DB9
  8
0
 10
-137.3044437104355
 20
-2.490627402541182
 30
-80.35740748181078
 70
   192
  0
VERTEX
  5
DBA
  8
0
 10
-136.3318565469307
 20
-2.434577286986853
 30
-82.73074640974704
 70
   192
  0
VERTEX
  5
DBB
  8
0
 10
-134.771674418794
 20
-2.415175156740875
 30
-84.7716744187942
 70
   192
  0
VERTEX
  5
DBC
  8
0
 10
-135.1692098069739
 20
-1.173956296651223
 30
-85.16920980697392
 70
   192
  0
VERTEX
  5
DBD
  8
0
 10
-135.9139647607644
 20
-0.3094488380587963
 30
-85.91396476076439
 70
   192
  0
VERTEX
  5
DBE
  8
0
 10
-136.8522969101062
 20
-0.0000000000000009
 30
-86.85229691010619
 70
   192
  0
VERTEX
  5
DBF
  8
0
 10
-138.8817373334628
 20
0.0000000000000001
 30
-84.20669796523306
 70
   192
  0
VERTEX
  5
DC0
  8
0
 10
-140.1763294934521
 20
0.0
 30
-81.06363024069454
 70
   192
  0
VERTEX
  5
DC1
  8
0
 10
-140.6078602134486
 20
0.0
 30
-77.7343753198083
 70
   192
  0
VERTEX
  5
DC2
  8
0
 10
-139.2303608532876
 20
-0.3349492476209828
 30
-77.7343753198083
 70
   192
  0
VERTEX
  5
DC3
  8
0
 10
-138.1604564093161
 20
-1.265002991496031
 30
-77.7343753198083
 70
   192
  0
VERTEX
  5
DC4
  8
0
 10
0.0
 20
0.0
 30
0.0
 70
   128
 71
     6
 72
     7
 73
     8
  0
VERTEX
  5
DC5
  8
0
 10
0.0
 20
0.0
 30
0.0
 70
   128
 71
     9
 72
    11
 73
     6
  0
VERTEX
  5
DC6
  8
0
 10
0.0
 20
0.0
 30
0.0
 70
   128
 71
     8
 72
     9
 73
     6
  0
VERTEX
  5
DC7
  8
0
 10
0.0
 20
0.0
 30
0.0
 70
   128
 71
     9
 72
    10
 73
    11
  0
VERTEX
  5
DC8
  8
0
 10
0.0
 20
0.0
 30
0.0
 70
   128
 71
    12
 72
     5
 73
     6
  0
VERTEX
  5
DC9
  8
0
 10
0.0
 20
0.0
 30
0.0
 70
   128
 71
    11
 72
    12
 73
     6
  0
VERTEX
  5
DCA
  8
0
 10
0.0
 20
0.0
 30
0.0
 70
   128
 71
    12
 72
     1
 73
     2
  0
VERTEX
  5
DCB
  8
0
 10
0.0
 20
0.0
 30
0.0
 70
   128
 71
     3
 72
     5
 73
    12
  0
VERTEX
  5
DCC
  8
0
 10
0.0
 20
0.0
 30
0.0
 70
   128
 71
     2
 72
     3
 73
    12
  0
VERTEX
  5
DCD
  8
0
 10
0.0
 20
0.0
 30
0.0
 70
   128
 71
     3
 72
     4
 73
     5
  0
SEQEND
  5
16CC
  8
0
  0
POLYLINE
  5
DCE
  8
0
 66
     1
 10
0.0
 20
0.0
 30
0.0
 70
    64
 71
    12
 72
    10
  0
VERTEX
  5
DCF
  8
0
 10
-127.7343753198082
 20
-2.582480697119805
 30
137.637056007224
 70
   192
  0
VERTEX
  5
DD0
  8
0
 10
-130.3574074811389
 20
-2.490627402598752
 30
137.3044437106043
 70
   192
  0
VERTEX
  5
DD1
  8
0
 10
-132.7307464092084
 20
-2.434577286955771
 30
136.3318565472481
 70
   192
  0
VERTEX
  5
DD2
  8
0
 10
-134.771674418794
 20
-2.41517515674087
 30
134.771674418794
 70
   192
  0
VERTEX
  5
DD3
  8
0
 10
-135.1692098069738
 20
-1.173956296651225
 30
135.169209806974
 70
   192
  0
VERTEX
  5
DD4
  8
0
 10
-135.9139647607642
 20
-0.3094488380588039
 30
135.9139647607644
 70
   192
  0
VERTEX
  5
DD5
  8
0
 10
-136.852296910106
 20
-0.0000000000000107
 30
136.8522969101062
 70
   192
  0
VERTEX
  5
DD6
  8
0
 10
-134.2066979652329
 20
0.0000000000000004
 30
138.8817373334628
 70
   192
  0
VERTEX
  5
DD7
  8
0
 10
-131.0636302406944
 20
0.0000000000000003
 30
140.1763294934521
 70
   192
  0
VERTEX
  5
DD8
  8
0
 10
-127.7343753198082
 20
0.0
 30
140.6078602134486
 70
   192
  0
VERTEX
  5
DD9
  8
0
 10
-127.7343753198082
 20
-0.3349492476209828
 30
139.2303608532876
 70
   192
  0
VERTEX
  5
DDA
  8
0
 10
-127.7343753198082
 20
-1.26500299149603
 30
138.1604564093161
 70
   192
  0
VERTEX
  5
DDB
  8
0
 10
0.0
 20
0.0
 30
0.0
 70
   128
 71
     6
 72
     7
 73
     8
  0
VERTEX
  5
DDC
  8
0
 10
0.0
 20
0.0
 30
0.0
 70
   128
 71
     9
 72
    11
 73
     6
  0
VERTEX
  5
DDD
  8
0
 10
0.0
 20
0.0
 30
0.0
 70
   128
 71
     8
 72
     9
 73
     6
  0
VERTEX
  5
DDE
  8
0
 10
0.0
 20
0.0
 30
0.0
 70
   128
 71
     9
 72
    10
 73
    11
  0
VERTEX
  5
DDF
  8
0
 10
0.0
 20
0.0
 30
0.0
 70
   128
 71
    12
 72
     5
 73
     6
  0
VERTEX
  5
DE0
  8
0
 10
0.0
 20
0.0
 30
0.0
 70
   128
 71
    11
 72
    12
 73
     6
  0
VERTEX
  5
DE1
  8
0
 10
0.0
 20
0.0
 30
0.0
 70
   128
 71
    12
 72
     1
 73
     2
  0
VERTEX
  5
DE2
  8
0
 10
0.0
 20
0.0
 30
0.0
 70
   128
 71
     3
 72
     5
 73
    12
  0
VERTEX
  5
DE3
  8
0
 10
0.0
 20
0.0
 30
0.0
 70
   128
 71
     2
 72
     3
 73
    12
  0
VERTEX
  5
DE4
  8
0
 10
0.0
 20
0.0
 30
0.0
 70
   128
 71
     3
 72
     4
 73
     5
  0
SEQEND
  5
16CD
  8
0
  0
POLYLINE
  5
DE5
  8
0
 66
     1
 10
0.0
 20
0.0
 30
0.0
 70
    64
 71
    18
 72
    16
  0
VERTEX
  5
DE6
  8
0
 10
29.26020112564328
 20
-100.3884696366398
 30
52.54311929238172
 70
   192
  0
VERTEX
  5
DE7
  8
0
 10
0.0000000000000147
 20
-100.3884696366398
 30
60.1409906377219
 70
   192
  0
VERTEX
  5
DE8
  8
0
 10
0.0
 20
-102.0
 30
60.0
 70
   192
  0
VERTEX
  5
DE9
  8
0
 10
42.42640687119285
 20
-102.0
 30
42.42640687119285
 70
   192
  0
VERTEX
  5
DEA
  8
0
 10
60.00000000000001
 20
-102.0
 30
0.0
 70
   192
  0
VERTEX
  5
DEB
  8
0
 10
60.0760752585962
 20
-100.3884696366396
 30
2.793552650305635
 70
   192
  0
VERTEX
  5
DEC
  8
0
 10
51.12726684283937
 20
-100.3884696366398
 30
31.66924912383702
 70
   192
  0
VERTEX
  5
DED
  8
0
 10
60.13376743501583
 20
-100.3884696366396
 30
0.9314821229543107
 70
   192
  0
VERTEX
  5
DEE
  8
0
 10
60.07607525859675
 20
-100.3884696366398
 30
-2.793552650295479
 70
   192
  0
VERTEX
  5
DEF
  8
0
 10
60.133767435016
 20
-100.3884696366396
 30
-0.9314821229439633
 70
   192
  0
VERTEX
  5
DF0
  8
0
 10
51.6116371408392
 20
-100.3884696366398
 30
-30.87357553845846
 70
   192
  0
VERTEX
  5
DF1
  8
0
 10
42.42640687119286
 20
-102.0
 30
-42.42640687119286
 70
   192
  0
VERTEX
  5
DF2
  8
0
 10
0.0
 20
-102.0
 30
-60.00000000000001
 70
   192
  0
VERTEX
  5
DF3
  8
0
 10
2.7935526502809
 20
-100.3884696366398
 30
-60.0760752585974
 70
   192
  0
VERTEX
  5
DF4
  8
0
 10
30.87357553844593
 20
-100.3884696366398
 30
-51.6116371408467
 70
   192
  0
VERTEX
  5
DF5
  8
0
 10
1.86274090063454
 20
-100.38844146342
 30
-60.11213836083125
 70
   192
  0
VERTEX
  5
DF6
  8
0
 10
0.931482215386827
 20
-100.3884132902003
 30
-60.13378101643517
 70
   192
  0
VERTEX
  5
DF7
  8
0
 10
0.0000000000000074
 20
-100.3883851169806
 30
-60.14099803223386
 70
   192
  0
VERTEX
  5
DF8
  8
0
 10
0.0
 20
0.0
 30
0.0
 70
   128
 71
     1
 72
     2
 73
     3
  0
VERTEX
  5
DF9
  8
0
 10
0.0
 20
0.0
 30
0.0
 70
   128
 71
     3
 72
     4
 73
     1
  0
VERTEX
  5
DFA
  8
0
 10
0.0
 20
0.0
 30
0.0
 70
   128
 71
     4
 72
     5
 73
     6
  0
VERTEX
  5
DFB
  8
0
 10
0.0
 20
0.0
 30
0.0
 70
   128
 71
     4
 72
     6
 73
     7
  0
VERTEX
  5
DFC
  8
0
 10
0.0
 20
0.0
 30
0.0
 70
   128
 71
     8
 72
     6
 73
     5
  0
VERTEX
  5
DFD
  8
0
 10
0.0
 20
0.0
 30
0.0
 70
   128
 71
     5
 72
     9
 73
    10
  0
VERTEX
  5
DFE
  8
0
 10
0.0
 20
0.0
 30
0.0
 70
   128
 71
    11
 72
     9
 73
     5
  0
VERTEX
  5
DFF
  8
0
 10
0.0
 20
0.0
 30
0.0
 70
   128
 71
    11
 72
     5
 73
    12
  0
VERTEX
  5
E00
  8
0
 10
0.0
 20
0.0
 30
0.0
 70
   128
 71
    12
 72
    13
 73
    14
  0
VERTEX
  5
E01
  8
0
 10
0.0
 20
0.0
 30
0.0
 70
   128
 71
    12
 72
    14
 73
    15
  0
VERTEX
  5
E02
  8
0
 10
0.0
 20
0.0
 30
0.0
 70
   128
 71
    16
 72
    14
 73
    13
  0
VERTEX
  5
E03
  8
0
 10
0.0
 20
0.0
 30
0.0
 70
   128
 71
    13
 72
    17
 73
    16
  0
VERTEX
  5
E04
  8
0
 10
0.0
 20
0.0
 30
0.0
 70
   128
 71
    13
 72
    18
 73
    17
  0
VERTEX
  5
E05
  8
0
 10
0.0
 20
0.0
 30
0.0
 70
   128
 71
     1
 72
     4
 73
     7
  0
VERTEX
  5
E06
  8
0
 10
0.0
 20
0.0
 30
0.0
 70
   128
 71
     8
 72
     5
 73
    10
  0
VERTEX
  5
E07
  8
0
 10
0.0
 20
0.0
 30
0.0
 70
   128
 71
    11
 72
    12
 73
    15
  0
SEQEND
  5
16CE
  8
0
  0
POLYLINE
  5
E08
  8
0
 66
     1
 10
0.0
 20
0.0
 30
0.0
 70
    64
 71
    12
 72
    10
  0
VERTEX
  5
E09
  8
0
 10
81.75811749057962
 20
-97.96880188468369
 30
-78.08001767291039
 70
   192
  0
VERTEX
  5
E0A
  8
0
 10
83.10495345751366
 20
-98.28290151732602
 30
-73.1430064765962
 70
   192
  0
VERTEX
  5
E0B
  8
0
 10
83.08766843065115
 20
-98.10419746097745
 30
-73.11752245875081
 70
   192
  0
VERTEX
  5
E0C
  8
0
 10
83.06711326608288
 20
-97.9258387657578
 30
-73.09204682090346
 70
   192
  0
VERTEX
  5
E0D
  8
0
 10
81.67644221412368
 20
-97.23842303415667
 30
-77.99164349153183
 70
   192
  0
VERTEX
  5
E0E
  8
0
 10
83.04329472303496
 20
-97.74788408197584
 30
-73.06658794029659
 70
   192
  0
VERTEX
  5
E0F
  8
0
 10
78.05812729290858
 20
-97.23448906430826
 30
-81.63743423949154
 70
   192
  0
VERTEX
  5
E10
  8
0
 10
78.14665268413064
 20
-97.96637242875312
 30
-81.71925128771298
 70
   192
  0
VERTEX
  5
E11
  8
0
 10
73.19427918970386
 20
-98.09616787960096
 30
-83.08671761128856
 70
   192
  0
VERTEX
  5
E12
  8
0
 10
73.21989414717483
 20
-98.27625177345402
 30
-83.10407270719145
 70
   192
  0
VERTEX
  5
E13
  8
0
 10
73.16864711353824
 20
-97.9164373230395
 30
-83.06604255542733
 70
   192
  0
VERTEX
  5
E14
  8
0
 10
73.1430064765962
 20
-97.73712011137073
 30
-83.04205444249908
 70
   192
  0
VERTEX
  5
E15
  8
0
 10
0.0
 20
0.0
 30
0.0
 70
   128
 71
     1
 72
     2
 73
     3
  0
VERTEX
  5
E16
  8
0
 10
0.0
 20
0.0
 30
0.0
 70
   128
 71
     4
 72
     5
 73
     1
  0
VERTEX
  5
E17
  8
0
 10
0.0
 20
0.0
 30
0.0
 70
   128
 71
     3
 72
     4
 73
     1
  0
VERTEX
  5
E18
  8
0
 10
0.0
 20
0.0
 30
0.0
 70
   128
 71
     4
 72
     6
 73
     5
  0
VERTEX
  5
E19
  8
0
 10
0.0
 20
0.0
 30
0.0
 70
   128
 71
     7
 72
     8
 73
     1
  0
VERTEX
  5
E1A
  8
0
 10
0.0
 20
0.0
 30
0.0
 70
   128
 71
     5
 72
     7
 73
     1
  0
VERTEX
  5
E1B
  8
0
 10
0.0
 20
0.0
 30
0.0
 70
   128
 71
     9
 72
    10
 73
    11
  0
VERTEX
  5
E1C
  8
0
 10
0.0
 20
0.0
 30
0.0
 70
   128
 71
    10
 72
     8
 73
     7
  0
VERTEX
  5
E1D
  8
0
 10
0.0
 20
0.0
 30
0.0
 70
   128
 71
    11
 72
    10
 73
     7
  0
VERTEX
  5
E1E
  8
0
 10
0.0
 20
0.0
 30
0.0
 70
   128
 71
    12
 72
    11
 73
     7
  0
SEQEND
  5
16CF
  8
0
  0
POLYLINE
  5
E1F
  8
0
 66
     1
 10
0.0
 20
0.0
 30
0.0
 70
    64
 71
     9
 72
     7
  0
VERTEX
  5
E20
  8
0
 10
69.35058620805677
 20
-89.66456048188282
 30
-70.96256585817798
 70
   192
  0
VERTEX
  5
E21
  8
0
 10
69.34272893882692
 20
-89.56546385650299
 30
-71.7582489376317
 70
   192
  0
VERTEX
  5
E22
  8
0
 10
69.34801377020808
 20
-89.5652727048791
 30
-71.75823221403162
 70
   192
  0
VERTEX
  5
E23
  8
0
 10
69.35329855726506
 20
-89.56508034096694
 30
-71.75821538437003
 70
   192
  0
VERTEX
  5
E24
  8
0
 10
69.36116642971636
 20
-89.66417346764695
 30
-70.96253198368036
 70
   192
  0
VERTEX
  5
E25
  8
0
 10
69.3627175646054
 20
-89.73568411263163
 30
-70.16388721468994
 70
   192
  0
VERTEX
  5
E26
  8
0
 10
69.35742427201941
 20
-89.73587868696268
 30
-70.16390423065616
 70
   192
  0
VERTEX
  5
E27
  8
0
 10
69.36323481912646
 20
-89.77933178528119
 30
-69.36323481912653
 70
   192
  0
VERTEX
  5
E28
  8
0
 10
69.3585832997176
 20
-89.56488676477676
 30
-71.75819844864787
 70
   192
  0
VERTEX
  5
E29
  8
0
 10
0.0
 20
0.0
 30
0.0
 70
   128
 71
     1
 72
     2
 73
     3
  0
VERTEX
  5
E2A
  8
0
 10
0.0
 20
0.0
 30
0.0
 70
   128
 71
     1
 72
     3
 73
     4
  0
VERTEX
  5
E2B
  8
0
 10
0.0
 20
0.0
 30
0.0
 70
   128
 71
     5
 72
     6
 73
     7
  0
VERTEX
  5
E2C
  8
0
 10
0.0
 20
0.0
 30
0.0
 70
   128
 71
     6
 72
     8
 73
     7
  0
VERTEX
  5
E2D
  8
0
 10
0.0
 20
0.0
 30
0.0
 70
   128
 71
     1
 72
     4
 73
     9
  0
VERTEX
  5
E2E
  8
0
 10
0.0
 20
0.0
 30
0.0
 70
   128
 71
     1
 72
     9
 73
     5
  0
VERTEX
  5
E2F
  8
0
 10
0.0
 20
0.0
 30
0.0
 70
   128
 71
     5
 72
     7
 73
     1
  0
SEQEND
  5
16D0
  8
0
  0
POLYLINE
  5
E30
  8
0
 66
     1
 10
0.0
 20
0.0
 30
0.0
 70
    64
 71
     9
 72
     7
  0
VERTEX
  5
E31
  8
0
 10
78.41475198667911
 20
-68.20258349552665
 30
-68.5120712992634
 70
   192
  0
VERTEX
  5
E32
  8
0
 10
77.03611344659707
 20
-68.69436099291433
 30
-73.38988855440752
 70
   192
  0
VERTEX
  5
E33
  8
0
 10
73.44671424064776
 20
-68.69763943678913
 30
-77.0026151006402
 70
   192
  0
VERTEX
  5
E34
  8
0
 10
68.84295389038088
 20
-75.57380144952752
 30
-73.3184464585919
 70
   192
  0
VERTEX
  5
E35
  8
0
 10
68.88214239485603
 20
-76.79714783347173
 30
-68.8821423948561
 70
   192
  0
VERTEX
  5
E36
  8
0
 10
73.32175597547466
 20
-75.57305511739098
 30
-68.81329938654365
 70
   192
  0
VERTEX
  5
E37
  8
0
 10
76.74107618363796
 20
-72.49020909941251
 30
-68.68055592700846
 70
   192
  0
VERTEX
  5
E38
  8
0
 10
68.57748624850169
 20
-68.21156854337276
 30
-78.41326897483917
 70
   192
  0
VERTEX
  5
E39
  8
0
 10
68.73368807342612
 20
-72.49455835403012
 30
-76.73681285205934
 70
   192
  0
VERTEX
  5
E3A
  8
0
 10
0.0
 20
0.0
 30
0.0
 70
   128
 71
     1
 72
     2
 73
     3
  0
VERTEX
  5
E3B
  8
0
 10
0.0
 20
0.0
 30
0.0
 70
   128
 71
     4
 72
     5
 73
     6
  0
VERTEX
  5
E3C
  8
0
 10
0.0
 20
0.0
 30
0.0
 70
   128
 71
     1
 72
     3
 73
     7
  0
VERTEX
  5
E3D
  8
0
 10
0.0
 20
0.0
 30
0.0
 70
   128
 71
     3
 72
     8
 73
     9
  0
VERTEX
  5
E3E
  8
0
 10
0.0
 20
0.0
 30
0.0
 70
   128
 71
     6
 72
     7
 73
     3
  0
VERTEX
  5
E3F
  8
0
 10
0.0
 20
0.0
 30
0.0
 70
   128
 71
     4
 72
     6
 73
     3
  0
VERTEX
  5
E40
  8
0
 10
0.0
 20
0.0
 30
0.0
 70
   128
 71
     9
 72
     4
 73
     3
  0
SEQEND
  5
16D1
  8
0
  0
POLYLINE
  5
E41
  8
0
 66
     1
 10
0.0
 20
0.0
 30
0.0
 70
    64
 71
    15
 72
    13
  0
VERTEX
  5
E42
  8
0
 10
-0.0000000000000042
 20
-79.9124431699972
 30
-37.9706838412271
 70
   192
  0
VERTEX
  5
E43
  8
0
 10
0.0000000000000084
 20
-78.29544436746858
 30
-68.8248590161732
 70
   192
  0
VERTEX
  5
E44
  8
0
 10
-39.37478917513973
 20
-77.74651937177876
 30
-68.83315714337013
 70
   192
  0
VERTEX
  5
E45
  8
0
 10
-26.84932803042215
 20
-79.9124431699972
 30
-26.84932803042214
 70
   192
  0
VERTEX
  5
E46
  8
0
 10
-119.1963489995464
 20
-75.64704076343995
 30
-6.238600131025665
 70
   192
  0
VERTEX
  5
E47
  8
0
 10
-37.9706838412271
 20
-79.9124431699972
 30
0.0000000000000042
 70
   192
  0
VERTEX
  5
E48
  8
0
 10
-119.2625700304312
 20
-74.67953446487009
 30
-69.0719763130549
 70
   192
  0
VERTEX
  5
E49
  8
0
 10
-79.37628012677798
 20
-76.3934822874162
 30
-68.91208561659995
 70
   192
  0
VERTEX
  5
E4A
  8
0
 10
-26.84932803042214
 20
-79.9124431699972
 30
26.84932803042215
 70
   192
  0
VERTEX
  5
E4B
  8
0
 10
-119.2391541912788
 20
-74.98784163312867
 30
56.47641189022499
 70
   192
  0
VERTEX
  5
E4C
  8
0
 10
-119.4084392233128
 20
-73.0523513152833
 30
119.4084392233128
 70
   192
  0
VERTEX
  5
E4D
  8
0
 10
-79.37053290285962
 20
-74.39348836644007
 30
119.2857430646601
 70
   192
  0
VERTEX
  5
E4E
  8
0
 10
-39.78116397933681
 20
-75.31586240821284
 30
119.2165661903692
 70
   192
  0
VERTEX
  5
E4F
  8
0
 10
0.0000000000000047
 20
-79.9124431699972
 30
37.9706838412271
 70
   192
  0
VERTEX
  5
E50
  8
0
 10
0.0000000000133418
 20
-75.6556118939825
 30
119.1958632754712
 70
   192
  0
VERTEX
  5
E51
  8
0
 10
0.0
 20
0.0
 30
0.0
 70
   128
 71
     1
 72
     2
 73
     3
  0
VERTEX
  5
E52
  8
0
 10
0.0
 20
0.0
 30
0.0
 70
   128
 71
     4
 72
     1
 73
     3
  0
VERTEX
  5
E53
  8
0
 10
0.0
 20
0.0
 30
0.0
 70
   128
 71
     5
 72
     6
 73
     4
  0
VERTEX
  5
E54
  8
0
 10
0.0
 20
0.0
 30
0.0
 70
   128
 71
     7
 72
     5
 73
     4
  0
VERTEX
  5
E55
  8
0
 10
0.0
 20
0.0
 30
0.0
 70
   128
 71
     8
 72
     7
 73
     4
  0
VERTEX
  5
E56
  8
0
 10
0.0
 20
0.0
 30
0.0
 70
   128
 71
     9
 72
     6
 73
    10
  0
VERTEX
  5
E57
  8
0
 10
0.0
 20
0.0
 30
0.0
 70
   128
 71
    10
 72
    11
 73
     9
  0
VERTEX
  5
E58
  8
0
 10
0.0
 20
0.0
 30
0.0
 70
   128
 71
     9
 72
    11
 73
    12
  0
VERTEX
  5
E59
  8
0
 10
0.0
 20
0.0
 30
0.0
 70
   128
 71
    13
 72
    14
 73
     9
  0
VERTEX
  5
E5A
  8
0
 10
0.0
 20
0.0
 30
0.0
 70
   128
 71
    12
 72
    13
 73
     9
  0
VERTEX
  5
E5B
  8
0
 10
0.0
 20
0.0
 30
0.0
 70
   128
 71
    13
 72
    15
 73
    14
  0
VERTEX
  5
E5C
  8
0
 10
0.0
 20
0.0
 30
0.0
 70
   128
 71
     8
 72
     4
 73
     3
  0
VERTEX
  5
E5D
  8
0
 10
0.0
 20
0.0
 30
0.0
 70
   128
 71
    10
 72
     6
 73
     5
  0
SEQEND
  5
16D2
  8
0
  0
POLYLINE
  5
E5E
  8
0
 66
     1
 10
0.0
 20
0.0
 30
0.0
 70
    64
 71
    15
 72
    13
  0
VERTEX
  5
E5F
  8
0
 10
-42.36183488856812
 20
-90.65857935324767
 30
-69.41644436372984
 70
   192
  0
VERTEX
  5
E60
  8
0
 10
-3.231975606384225
 20
-91.27373171657061
 30
-69.5044747923471
 70
   192
  0
VERTEX
  5
E61
  8
0
 10
-42.96164506544032
 20
-91.27373171657061
 30
-54.73220930815175
 70
   192
  0
VERTEX
  5
E62
  8
0
 10
-119.8757701610905
 20
-88.62922048217428
 30
-6.25308634016885
 70
   192
  0
VERTEX
  5
E63
  8
0
 10
-119.851323885429
 20
-87.6617184166795
 30
-69.4129583354636
 70
   192
  0
VERTEX
  5
E64
  8
0
 10
-81.19405335380975
 20
-89.32415646896858
 30
-69.35802026703907
 70
   192
  0
VERTEX
  5
E65
  8
0
 10
-65.76306604860196
 20
-91.27373171657061
 30
22.72744654305497
 70
   192
  0
VERTEX
  5
E66
  8
0
 10
-119.8895316475832
 20
-86.0345352670927
 30
119.8895316475832
 70
   192
  0
VERTEX
  5
E67
  8
0
 10
-119.8542611483798
 20
-87.96585626031363
 30
56.9453013734006
 70
   192
  0
VERTEX
  5
E68
  8
0
 10
-40.37295841104149
 20
-91.27373171657061
 30
56.66870310515777
 70
   192
  0
VERTEX
  5
E69
  8
0
 10
0.0000000000000039
 20
-91.27373171657061
 30
69.57957805620988
 70
   192
  0
VERTEX
  5
E6A
  8
0
 10
0.0
 20
-88.63779584579201
 30
119.8762307066294
 70
   192
  0
VERTEX
  5
E6B
  8
0
 10
-40.06731325501013
 20
-88.29665309040048
 30
119.8621139959408
 70
   192
  0
VERTEX
  5
E6C
  8
0
 10
-66.74777354230501
 20
-91.27373171657061
 30
-19.64821644896483
 70
   192
  0
VERTEX
  5
E6D
  8
0
 10
-80.03322734782449
 20
-87.36745371517236
 30
119.8521551466139
 70
   192
  0
VERTEX
  5
E6E
  8
0
 10
0.0
 20
0.0
 30
0.0
 70
   128
 71
     1
 72
     2
 73
     3
  0
VERTEX
  5
E6F
  8
0
 10
0.0
 20
0.0
 30
0.0
 70
   128
 71
     4
 72
     5
 73
     6
  0
VERTEX
  5
E70
  8
0
 10
0.0
 20
0.0
 30
0.0
 70
   128
 71
     7
 72
     8
 73
     9
  0
VERTEX
  5
E71
  8
0
 10
0.0
 20
0.0
 30
0.0
 70
   128
 71
    10
 72
    11
 73
    12
  0
VERTEX
  5
E72
  8
0
 10
0.0
 20
0.0
 30
0.0
 70
   128
 71
    10
 72
    12
 73
    13
  0
VERTEX
  5
E73
  8
0
 10
0.0
 20
0.0
 30
0.0
 70
   128
 71
    14
 72
     7
 73
     9
  0
VERTEX
  5
E74
  8
0
 10
0.0
 20
0.0
 30
0.0
 70
   128
 71
     3
 72
    14
 73
     4
  0
VERTEX
  5
E75
  8
0
 10
0.0
 20
0.0
 30
0.0
 70
   128
 71
     3
 72
     4
 73
     6
  0
VERTEX
  5
E76
  8
0
 10
0.0
 20
0.0
 30
0.0
 70
   128
 71
     7
 72
    10
 73
    13
  0
VERTEX
  5
E77
  8
0
 10
0.0
 20
0.0
 30
0.0
 70
   128
 71
     7
 72
    13
 73
    15
  0
VERTEX
  5
E78
  8
0
 10
0.0
 20
0.0
 30
0.0
 70
   128
 71
     1
 72
     3
 73
     6
  0
VERTEX
  5
E79
  8
0
 10
0.0
 20
0.0
 30
0.0
 70
   128
 71
     4
 72
    14
 73
     9
  0
VERTEX
  5
E7A
  8
0
 10
0.0
 20
0.0
 30
0.0
 70
   128
 71
     8
 72
     7
 73
    15
  0
SEQEND
  5
16D3
  8
0
  0
POLYLINE
  5
E7B
  8
0
 66
     1
 10
0.0
 20
0.0
 30
0.0
 70
    64
 71
    12
 72
    10
  0
VERTEX
  5
E7C
  8
0
 10
69.5044747923471
 20
-91.2737317165705
 30
3.23197560640381
 70
   192
  0
VERTEX
  5
E7D
  8
0
 10
69.55123262691855
 20
-91.27478040705896
 30
1.077049722730354
 70
   192
  0
VERTEX
  5
E7E
  8
0
 10
69.55122530187074
 20
-91.2747602003329
 30
-1.077627875069423
 70
   192
  0
VERTEX
  5
E7F
  8
0
 10
69.50447479234698
 20
-91.27373171657045
 30
-3.231975606391984
 70
   192
  0
VERTEX
  5
E80
  8
0
 10
64.98242225614572
 20
-92.62900824175784
 30
-3.021699023028251
 70
   192
  0
VERTEX
  5
E81
  8
0
 10
61.5868815673447
 20
-95.91158694077959
 30
-2.863805524667125
 70
   192
  0
VERTEX
  5
E82
  8
0
 10
60.0760752585967
 20
-100.3884696366396
 30
-2.793552650295445
 70
   192
  0
VERTEX
  5
E83
  8
0
 10
60.133767435016
 20
-100.3884696366396
 30
-0.9314821229439633
 70
   192
  0
VERTEX
  5
E84
  8
0
 10
60.13376743501583
 20
-100.3884696366396
 30
0.9314821229543107
 70
   192
  0
VERTEX
  5
E85
  8
0
 10
60.07607525859756
 20
-100.3884696366397
 30
2.793552650305697
 70
   192
  0
VERTEX
  5
E86
  8
0
 10
61.58688156734477
 20
-95.91158694077959
 30
2.863805524677602
 70
   192
  0
VERTEX
  5
E87
  8
0
 10
64.98242225614581
 20
-92.62900824175782
 30
3.021699023039307
 70
   192
  0
VERTEX
  5
E88
  8
0
 10
0.0
 20
0.0
 30
0.0
 70
   128
 71
     8
 72
     7
 73
     6
  0
VERTEX
  5
E89
  8
0
 10
0.0
 20
0.0
 30
0.0
 70
   128
 71
     6
 72
    11
 73
    -9
  0
VERTEX
  5
E8A
  8
0
 10
0.0
 20
0.0
 30
0.0
 70
   128
 71
    -6
 72
     9
 73
     8
  0
VERTEX
  5
E8B
  8
0
 10
0.0
 20
0.0
 30
0.0
 70
   128
 71
    11
 72
    10
 73
     9
  0
VERTEX
  5
E8C
  8
0
 10
0.0
 20
0.0
 30
0.0
 70
   128
 71
     6
 72
     5
 73
   -12
  0
VERTEX
  5
E8D
  8
0
 10
0.0
 20
0.0
 30
0.0
 70
   128
 71
    -6
 72
    12
 73
    11
  0
VERTEX
  5
E8E
  8
0
 10
0.0
 20
0.0
 30
0.0
 70
   128
 71
     2
 72
     1
 73
    12
  0
VERTEX
  5
E8F
  8
0
 10
0.0
 20
0.0
 30
0.0
 70
   128
 71
    12
 72
     5
 73
     3
  0
VERTEX
  5
E90
  8
0
 10
0.0
 20
0.0
 30
0.0
 70
   128
 71
    12
 72
     3
 73
     2
  0
VERTEX
  5
E91
  8
0
 10
0.0
 20
0.0
 30
0.0
 70
   128
 71
     5
 72
     4
 73
     3
  0
SEQEND
  5
16D4
  8
0
  0
POLYLINE
  5
E92
  8
0
 66
     1
 10
0.0
 20
0.0
 30
0.0
 70
    64
 71
    15
 72
    16
  0
VERTEX
  5
E93
  8
0
 10
59.71161926284525
 20
-91.27373171657061
 30
-35.71890546320274
 70
   192
  0
VERTEX
  5
E94
  8
0
 10
69.50447479234698
 20
-91.27373171657045
 30
-3.231975606391984
 70
   192
  0
VERTEX
  5
E95
  8
0
 10
46.75068086494353
 20
-92.08942632026488
 30
-46.75068086495489
 70
   192
  0
VERTEX
  5
E96
  8
0
 10
44.65828612763667
 20
-94.06662906072955
 30
-44.65828612764751
 70
   192
  0
VERTEX
  5
E97
  8
0
 10
3.021699023012511
 20
-92.62900824175755
 30
-64.98242225614618
 70
   192
  0
VERTEX
  5
E98
  8
0
 10
43.18802081960246
 20
-96.95491609603322
 30
-43.18802081961295
 70
   192
  0
VERTEX
  5
E99
  8
0
 10
61.5868815673447
 20
-95.91158694077959
 30
-2.863805524667125
 70
   192
  0
VERTEX
  5
E9A
  8
0
 10
30.87357553844593
 20
-100.3884696366398
 30
-51.6116371408467
 70
   192
  0
VERTEX
  5
E9B
  8
0
 10
2.793552650280867
 20
-100.3884696366398
 30
-60.07607525859743
 70
   192
  0
VERTEX
  5
E9C
  8
0
 10
64.98242225614572
 20
-92.62900824175784
 30
-3.021699023028251
 70
   192
  0
VERTEX
  5
E9D
  8
0
 10
2.863805524652189
 20
-95.91158694077939
 30
-61.58688156734473
 70
   192
  0
VERTEX
  5
E9E
  8
0
 10
60.07607525859747
 20
-100.3884696366397
 30
-2.793552650295476
 70
   192
  0
VERTEX
  5
E9F
  8
0
 10
51.6116371408392
 20
-100.3884696366398
 30
-30.87357553845846
 70
   192
  0
VERTEX
  5
EA0
  8
0
 10
3.23197560637517
 20
-91.27373171657041
 30
-69.50447479234793
 70
   192
  0
VERTEX
  5
EA1
  8
0
 10
35.71890546320391
 20
-91.27373171657061
 30
-59.71161926284455
 70
   192
  0
VERTEX
  5
EA2
  8
0
 10
0.0
 20
0.0
 30
0.0
 70
   128
 71
     1
 72
     2
 73
     3
  0
VERTEX
  5
EA3
  8
0
 10
0.0
 20
0.0
 30
0.0
 70
   128
 71
     3
 72
     4
 73
     5
  0
VERTEX
  5
EA4
  8
0
 10
0.0
 20
0.0
 30
0.0
 70
   128
 71
     6
 72
     4
 73
     7
  0
VERTEX
  5
EA5
  8
0
 10
0.0
 20
0.0
 30
0.0
 70
   128
 71
     8
 72
     9
 73
     6
  0
VERTEX
  5
EA6
  8
0
 10
0.0
 20
0.0
 30
0.0
 70
   128
 71
     7
 72
     4
 73
     3
  0
VERTEX
  5
EA7
  8
0
 10
0.0
 20
0.0
 30
0.0
 70
   128
 71
    10
 72
     7
 73
     3
  0
VERTEX
  5
EA8
  8
0
 10
0.0
 20
0.0
 30
0.0
 70
   128
 71
     6
 72
    11
 73
     5
  0
VERTEX
  5
EA9
  8
0
 10
0.0
 20
0.0
 30
0.0
 70
   128
 71
     4
 72
     6
 73
     5
  0
VERTEX
  5
EAA
  8
0
 10
0.0
 20
0.0
 30
0.0
 70
   128
 71
    12
 72
    13
 73
     6
  0
VERTEX
  5
EAB
  8
0
 10
0.0
 20
0.0
 30
0.0
 70
   128
 71
     7
 72
    12
 73
     6
  0
VERTEX
  5
EAC
  8
0
 10
0.0
 20
0.0
 30
0.0
 70
   128
 71
    11
 72
     6
 73
     9
  0
VERTEX
  5
EAD
  8
0
 10
0.0
 20
0.0
 30
0.0
 70
   128
 71
     2
 72
    10
 73
     3
  0
VERTEX
  5
EAE
  8
0
 10
0.0
 20
0.0
 30
0.0
 70
   128
 71
     3
 72
     5
 73
    14
  0
VERTEX
  5
EAF
  8
0
 10
0.0
 20
0.0
 30
0.0
 70
   128
 71
    15
 72
     3
 73
    14
  0
VERTEX
  5
EB0
  8
0
 10
0.0
 20
0.0
 30
0.0
 70
   128
 71
     1
 72
     3
 73
    15
  0
VERTEX
  5
EB1
  8
0
 10
0.0
 20
0.0
 30
0.0
 70
   128
 71
     6
 72
    13
 73
     8
  0
SEQEND
  5
16D5
  8
0
  0
POLYLINE
  5
EB2
  8
0
 66
     1
 10
0.0
 20
0.0
 30
0.0
 70
    64
 71
    15
 72
    13
  0
VERTEX
  5
EB3
  8
0
 10
3.231975606393355
 20
-91.27373171657061
 30
-69.5044747923471
 70
   192
  0
VERTEX
  5
EB4
  8
0
 10
1.077623706921833
 20
-91.27476135466456
 30
-69.55122537127593
 70
   192
  0
VERTEX
  5
EB5
  8
0
 10
-1.077054727989349
 20
-91.2747810855434
 30
-69.55123257195987
 70
   192
  0
VERTEX
  5
EB6
  8
0
 10
-3.231975606365821
 20
-91.27373171657062
 30
-69.50447479234795
 70
   192
  0
VERTEX
  5
EB7
  8
0
 10
-3.021699023003774
 20
-92.62900824175767
 30
-64.9824222561463
 70
   192
  0
VERTEX
  5
EB8
  8
0
 10
-2.863805524643908
 20
-95.91158694077934
 30
-61.58688156734485
 70
   192
  0
VERTEX
  5
EB9
  8
0
 10
-2.793552650288745
 20
-100.3884696366396
 30
-60.076075258597
 70
   192
  0
VERTEX
  5
EBA
  8
0
 10
-1.862740900624195
 20
-100.38844146342
 30
-60.11213836083157
 70
   192
  0
VERTEX
  5
EBB
  8
0
 10
-0.9314822153583799
 20
-100.3884132902003
 30
-60.13378101643559
 70
   192
  0
VERTEX
  5
EBC
  8
0
 10
0.000000000023212
 20
-100.3883851169806
 30
-60.1409980322339
 70
   192
  0
VERTEX
  5
EBD
  8
0
 10
0.931482215386827
 20
-100.3884132902003
 30
-60.13378101643517
 70
   192
  0
VERTEX
  5
EBE
  8
0
 10
1.86274090063454
 20
-100.38844146342
 30
-60.11213836083125
 70
   192
  0
VERTEX
  5
EBF
  8
0
 10
2.7935526502809
 20
-100.3884696366398
 30
-60.07607525859735
 70
   192
  0
VERTEX
  5
EC0
  8
0
 10
2.863805524652189
 20
-95.91158694077939
 30
-61.58688156734473
 70
   192
  0
VERTEX
  5
EC1
  8
0
 10
3.021699023012511
 20
-92.62900824175755
 30
-64.98242225614618
 70
   192
  0
VERTEX
  5
EC2
  8
0
 10
0.0
 20
0.0
 30
0.0
 70
   128
 71
     8
 72
     7
 73
     6
  0
VERTEX
  5
EC3
  8
0
 10
0.0
 20
0.0
 30
0.0
 70
   128
 71
     6
 72
     9
 73
     8
  0
VERTEX
  5
EC4
  8
0
 10
0.0
 20
0.0
 30
0.0
 70
   128
 71
     6
 72
    14
 73
    10
  0
VERTEX
  5
EC5
  8
0
 10
0.0
 20
0.0
 30
0.0
 70
   128
 71
     6
 72
    10
 73
     9
  0
VERTEX
  5
EC6
  8
0
 10
0.0
 20
0.0
 30
0.0
 70
   128
 71
    14
 72
    11
 73
    10
  0
VERTEX
  5
EC7
  8
0
 10
0.0
 20
0.0
 30
0.0
 70
   128
 71
    14
 72
    12
 73
    11
  0
VERTEX
  5
EC8
  8
0
 10
0.0
 20
0.0
 30
0.0
 70
   128
 71
    14
 72
    13
 73
    12
  0
VERTEX
  5
EC9
  8
0
 10
0.0
 20
0.0
 30
0.0
 70
   128
 71
     6
 72
     5
 73
   -15
  0
VERTEX
  5
ECA
  8
0
 10
0.0
 20
0.0
 30
0.0
 70
   128
 71
    -6
 72
    15
 73
    14
  0
VERTEX
  5
ECB
  8
0
 10
0.0
 20
0.0
 30
0.0
 70
   128
 71
     2
 72
     1
 73
    15
  0
VERTEX
  5
ECC
  8
0
 10
0.0
 20
0.0
 30
0.0
 70
   128
 71
    15
 72
     5
 73
     3
  0
VERTEX
  5
ECD
  8
0
 10
0.0
 20
0.0
 30
0.0
 70
   128
 71
    15
 72
     3
 73
     2
  0
VERTEX
  5
ECE
  8
0
 10
0.0
 20
0.0
 30
0.0
 70
   128
 71
     5
 72
     4
 73
     3
  0
SEQEND
  5
16D6
  8
0
  0
POLYLINE
  5
ECF
  8
0
 66
     1
 10
0.0
 20
0.0
 30
0.0
 70
    64
 71
    42
 72
    61
  0
VERTEX
  5
ED0
  8
0
 10
-38.62489605262103
 20
-92.08942632026474
 30
-53.65975892227733
 70
   192
  0
VERTEX
  5
ED1
  8
0
 10
-61.65400478039012
 20
-92.08942632026474
 30
-23.87542705821896
 70
   192
  0
VERTEX
  5
ED2
  8
0
 10
-42.96164506544032
 20
-91.27373171657061
 30
-54.73220930815175
 70
   192
  0
VERTEX
  5
ED3
  8
0
 10
-64.69084747906942
 20
-92.08942632026474
 30
13.65088184376673
 70
   192
  0
VERTEX
  5
ED4
  8
0
 10
-46.75068086496218
 20
-92.08942632026474
 30
46.75068086493671
 70
   192
  0
VERTEX
  5
ED5
  8
0
 10
-65.76306604860196
 20
-91.27373171657061
 30
22.72744654305497
 70
   192
  0
VERTEX
  5
ED6
  8
0
 10
-66.74777354230501
 20
-91.27373171657061
 30
-19.64821644896483
 70
   192
  0
VERTEX
  5
ED7
  8
0
 10
-13.65088184380199
 20
-92.08942632026474
 30
64.69084747906197
 70
   192
  0
VERTEX
  5
ED8
  8
0
 10
23.87542705818536
 20
-92.08942632026474
 30
61.65400478040313
 70
   192
  0
VERTEX
  5
ED9
  8
0
 10
0.0
 20
-91.27373171657061
 30
69.5795780562099
 70
   192
  0
VERTEX
  5
EDA
  8
0
 10
-40.37295841104149
 20
-91.27373171657061
 30
56.66870310515777
 70
   192
  0
VERTEX
  5
EDB
  8
0
 10
53.65975892225629
 20
-92.08942632026474
 30
38.62489605265027
 70
   192
  0
VERTEX
  5
EDC
  8
0
 10
33.85232645112301
 20
-91.27373171657061
 30
60.7892891579331
 70
   192
  0
VERTEX
  5
EDD
  8
0
 10
-36.89618263638209
 20
-94.06662906072938
 30
-51.25813834484685
 70
   192
  0
VERTEX
  5
EDE
  8
0
 10
-58.89459009915662
 20
-94.06662906072938
 30
-22.80684758507947
 70
   192
  0
VERTEX
  5
EDF
  8
0
 10
-61.79551448470798
 20
-94.06662906072938
 30
13.03991676687273
 70
   192
  0
VERTEX
  5
EE0
  8
0
 10
-44.65828612765438
 20
-94.06662906072938
 30
44.65828612763004
 70
   192
  0
VERTEX
  5
EE1
  8
0
 10
-13.03991676690642
 20
-94.06662906072938
 30
61.79551448470087
 70
   192
  0
VERTEX
  5
EE2
  8
0
 10
22.80684758504738
 20
-94.06662906072938
 30
58.89459009916905
 70
   192
  0
VERTEX
  5
EE3
  8
0
 10
51.25813834482675
 20
-94.06662906072938
 30
36.89618263641002
 70
   192
  0
VERTEX
  5
EE4
  8
0
 10
64.98242225614581
 20
-92.62900824175782
 30
3.021699023039307
 70
   192
  0
VERTEX
  5
EE5
  8
0
 10
-35.68146568163539
 20
-96.9549160960331
 30
-49.57058897612596
 70
   192
  0
VERTEX
  5
EE6
  8
0
 10
-56.95562915456938
 20
-96.9549160960331
 30
-22.05598767312203
 70
   192
  0
VERTEX
  5
EE7
  8
0
 10
-2.863805524643908
 20
-95.91158694077934
 30
-61.58688156734485
 70
   192
  0
VERTEX
  5
EE8
  8
0
 10
-59.76104766976296
 20
-96.9549160960331
 30
12.61060926529974
 70
   192
  0
VERTEX
  5
EE9
  8
0
 10
-43.18802081961951
 20
-96.9549160960331
 30
43.18802081959598
 70
   192
  0
VERTEX
  5
EEA
  8
0
 10
-12.61060926533231
 20
-96.9549160960331
 30
59.76104766975609
 70
   192
  0
VERTEX
  5
EEB
  8
0
 10
22.05598767309098
 20
-96.9549160960331
 30
56.9556291545814
 70
   192
  0
VERTEX
  5
EEC
  8
0
 10
49.57058897610651
 20
-96.9549160960331
 30
35.6814656816624
 70
   192
  0
VERTEX
  5
EED
  8
0
 10
-60.12475960269994
 20
-100.3884696366398
 30
1.397153393187577
 70
   192
  0
VERTEX
  5
EEE
  8
0
 10
51.12726684283937
 20
-100.3884696366398
 30
31.66924912383702
 70
   192
  0
VERTEX
  5
EEF
  8
0
 10
60.07607525859628
 20
-100.3884696366398
 30
2.793552650305595
 70
   192
  0
VERTEX
  5
EF0
  8
0
 10
-3.021699023003774
 20
-92.62900824175767
 30
-64.9824222561463
 70
   192
  0
VERTEX
  5
EF1
  8
0
 10
61.58688156734477
 20
-95.91158694077959
 30
2.863805524677602
 70
   192
  0
VERTEX
  5
EF2
  8
0
 10
-2.793552650272817
 20
-100.3884696366396
 30
-60.07607525859733
 70
   192
  0
VERTEX
  5
EF3
  8
0
 10
-3.231975606384192
 20
-91.27373171657061
 30
-69.5044747923466
 70
   192
  0
VERTEX
  5
EF4
  8
0
 10
59.15123140423822
 20
-91.27373171657061
 30
36.63945285948558
 70
   192
  0
VERTEX
  5
EF5
  8
0
 10
69.5044747923471
 20
-91.27373171657045
 30
3.231975606403811
 70
   192
  0
VERTEX
  5
EF6
  8
0
 10
-43.98201864864544
 20
-100.3884696366398
 30
-41.01854203255838
 70
   192
  0
VERTEX
  5
EF7
  8
0
 10
-42.02923129053991
 20
-100.3884696366398
 30
43.01723459281006
 70
   192
  0
VERTEX
  5
EF8
  8
0
 10
0.0000000000000147
 20
-100.3884696366398
 30
60.1409906377219
 70
   192
  0
VERTEX
  5
EF9
  8
0
 10
29.26020112564328
 20
-100.3884696366398
 30
52.54311929238172
 70
   192
  0
VERTEX
  5
EFA
  8
0
 10
0.0
 20
0.0
 30
0.0
 70
   128
 71
     1
 72
     2
 73
     3
  0
VERTEX
  5
EFB
  8
0
 10
0.0
 20
0.0
 30
0.0
 70
   128
 71
     4
 72
     5
 73
     6
  0
VERTEX
  5
EFC
  8
0
 10
0.0
 20
0.0
 30
0.0
 70
   128
 71
     2
 72
     4
 73
     7
  0
VERTEX
  5
EFD
  8
0
 10
0.0
 20
0.0
 30
0.0
 70
   128
 71
     8
 72
     9
 73
    10
  0
VERTEX
  5
EFE
  8
0
 10
0.0
 20
0.0
 30
0.0
 70
   128
 71
     5
 72
     8
 73
    11
  0
VERTEX
  5
EFF
  8
0
 10
0.0
 20
0.0
 30
0.0
 70
   128
 71
     9
 72
    12
 73
    13
  0
VERTEX
  5
F00
  8
0
 10
0.0
 20
0.0
 30
0.0
 70
   128
 71
     1
 72
    14
 73
   -15
  0
VERTEX
  5
F01
  8
0
 10
0.0
 20
0.0
 30
0.0
 70
   128
 71
     2
 72
    -1
 73
    15
  0
VERTEX
  5
F02
  8
0
 10
0.0
 20
0.0
 30
0.0
 70
   128
 71
     4
 72
    16
 73
   -17
  0
VERTEX
  5
F03
  8
0
 10
0.0
 20
0.0
 30
0.0
 70
   128
 71
     5
 72
    -4
 73
    17
  0
VERTEX
  5
F04
  8
0
 10
0.0
 20
0.0
 30
0.0
 70
   128
 71
     2
 72
    15
 73
   -16
  0
VERTEX
  5
F05
  8
0
 10
0.0
 20
0.0
 30
0.0
 70
   128
 71
     4
 72
    -2
 73
    16
  0
VERTEX
  5
F06
  8
0
 10
0.0
 20
0.0
 30
0.0
 70
   128
 71
     8
 72
    18
 73
   -19
  0
VERTEX
  5
F07
  8
0
 10
0.0
 20
0.0
 30
0.0
 70
   128
 71
     9
 72
    -8
 73
    19
  0
VERTEX
  5
F08
  8
0
 10
0.0
 20
0.0
 30
0.0
 70
   128
 71
     5
 72
    17
 73
   -18
  0
VERTEX
  5
F09
  8
0
 10
0.0
 20
0.0
 30
0.0
 70
   128
 71
     8
 72
    -5
 73
    18
  0
VERTEX
  5
F0A
  8
0
 10
0.0
 20
0.0
 30
0.0
 70
   128
 71
    12
 72
    20
 73
    21
  0
VERTEX
  5
F0B
  8
0
 10
0.0
 20
0.0
 30
0.0
 70
   128
 71
     9
 72
    19
 73
   -20
  0
VERTEX
  5
F0C
  8
0
 10
0.0
 20
0.0
 30
0.0
 70
   128
 71
    12
 72
    -9
 73
    20
  0
VERTEX
  5
F0D
  8
0
 10
0.0
 20
0.0
 30
0.0
 70
   128
 71
    14
 72
    22
 73
   -23
  0
VERTEX
  5
F0E
  8
0
 10
0.0
 20
0.0
 30
0.0
 70
   128
 71
    15
 72
   -14
 73
    23
  0
VERTEX
  5
F0F
  8
0
 10
0.0
 20
0.0
 30
0.0
 70
   128
 71
    22
 72
    14
 73
    24
  0
VERTEX
  5
F10
  8
0
 10
0.0
 20
0.0
 30
0.0
 70
   128
 71
    16
 72
    25
 73
   -26
  0
VERTEX
  5
F11
  8
0
 10
0.0
 20
0.0
 30
0.0
 70
   128
 71
    17
 72
   -16
 73
    26
  0
VERTEX
  5
F12
  8
0
 10
0.0
 20
0.0
 30
0.0
 70
   128
 71
    15
 72
    23
 73
   -25
  0
VERTEX
  5
F13
  8
0
 10
0.0
 20
0.0
 30
0.0
 70
   128
 71
    16
 72
   -15
 73
    25
  0
VERTEX
  5
F14
  8
0
 10
0.0
 20
0.0
 30
0.0
 70
   128
 71
    18
 72
    27
 73
   -28
  0
VERTEX
  5
F15
  8
0
 10
0.0
 20
0.0
 30
0.0
 70
   128
 71
    19
 72
   -18
 73
    28
  0
VERTEX
  5
F16
  8
0
 10
0.0
 20
0.0
 30
0.0
 70
   128
 71
    17
 72
    26
 73
   -27
  0
VERTEX
  5
F17
  8
0
 10
0.0
 20
0.0
 30
0.0
 70
   128
 71
    18
 72
   -17
 73
    27
  0
VERTEX
  5
F18
  8
0
 10
0.0
 20
0.0
 30
0.0
 70
   128
 71
    19
 72
    28
 73
   -29
  0
VERTEX
  5
F19
  8
0
 10
0.0
 20
0.0
 30
0.0
 70
   128
 71
    20
 72
   -19
 73
    29
  0
VERTEX
  5
F1A
  8
0
 10
0.0
 20
0.0
 30
0.0
 70
   128
 71
    25
 72
    23
 73
    30
  0
VERTEX
  5
F1B
  8
0
 10
0.0
 20
0.0
 30
0.0
 70
   128
 71
    31
 72
    32
 73
    29
  0
VERTEX
  5
F1C
  8
0
 10
0.0
 20
0.0
 30
0.0
 70
   128
 71
    24
 72
    14
 73
     1
  0
VERTEX
  5
F1D
  8
0
 10
0.0
 20
0.0
 30
0.0
 70
   128
 71
    33
 72
    24
 73
     1
  0
VERTEX
  5
F1E
  8
0
 10
0.0
 20
0.0
 30
0.0
 70
   128
 71
    20
 72
    29
 73
    34
  0
VERTEX
  5
F1F
  8
0
 10
0.0
 20
0.0
 30
0.0
 70
   128
 71
    21
 72
    20
 73
    34
  0
VERTEX
  5
F20
  8
0
 10
0.0
 20
0.0
 30
0.0
 70
   128
 71
    24
 72
    35
 73
    22
  0
VERTEX
  5
F21
  8
0
 10
0.0
 20
0.0
 30
0.0
 70
   128
 71
    34
 72
    29
 73
    32
  0
VERTEX
  5
F22
  8
0
 10
0.0
 20
0.0
 30
0.0
 70
   128
 71
    33
 72
     1
 73
    36
  0
VERTEX
  5
F23
  8
0
 10
0.0
 20
0.0
 30
0.0
 70
   128
 71
    37
 72
    12
 73
    21
  0
VERTEX
  5
F24
  8
0
 10
0.0
 20
0.0
 30
0.0
 70
   128
 71
    38
 72
    37
 73
    21
  0
VERTEX
  5
F25
  8
0
 10
0.0
 20
0.0
 30
0.0
 70
   128
 71
     6
 72
     5
 73
    11
  0
VERTEX
  5
F26
  8
0
 10
0.0
 20
0.0
 30
0.0
 70
   128
 71
     3
 72
     2
 73
     7
  0
VERTEX
  5
F27
  8
0
 10
0.0
 20
0.0
 30
0.0
 70
   128
 71
    36
 72
     1
 73
     3
  0
VERTEX
  5
F28
  8
0
 10
0.0
 20
0.0
 30
0.0
 70
   128
 71
     7
 72
     4
 73
     6
  0
VERTEX
  5
F29
  8
0
 10
0.0
 20
0.0
 30
0.0
 70
   128
 71
    10
 72
     9
 73
    13
  0
VERTEX
  5
F2A
  8
0
 10
0.0
 20
0.0
 30
0.0
 70
   128
 71
    11
 72
     8
 73
    10
  0
VERTEX
  5
F2B
  8
0
 10
0.0
 20
0.0
 30
0.0
 70
   128
 71
    13
 72
    12
 73
    37
  0
VERTEX
  5
F2C
  8
0
 10
0.0
 20
0.0
 30
0.0
 70
   128
 71
    22
 72
    39
 73
    30
  0
VERTEX
  5
F2D
  8
0
 10
0.0
 20
0.0
 30
0.0
 70
   128
 71
    23
 72
    22
 73
    30
  0
VERTEX
  5
F2E
  8
0
 10
0.0
 20
0.0
 30
0.0
 70
   128
 71
    22
 72
    35
 73
    39
  0
VERTEX
  5
F2F
  8
0
 10
0.0
 20
0.0
 30
0.0
 70
   128
 71
    30
 72
    40
 73
    26
  0
VERTEX
  5
F30
  8
0
 10
0.0
 20
0.0
 30
0.0
 70
   128
 71
    25
 72
    30
 73
    26
  0
VERTEX
  5
F31
  8
0
 10
0.0
 20
0.0
 30
0.0
 70
   128
 71
    27
 72
    41
 73
    42
  0
VERTEX
  5
F32
  8
0
 10
0.0
 20
0.0
 30
0.0
 70
   128
 71
    28
 72
    27
 73
    42
  0
VERTEX
  5
F33
  8
0
 10
0.0
 20
0.0
 30
0.0
 70
   128
 71
    26
 72
    40
 73
    41
  0
VERTEX
  5
F34
  8
0
 10
0.0
 20
0.0
 30
0.0
 70
   128
 71
    27
 72
    26
 73
    41
  0
VERTEX
  5
F35
  8
0
 10
0.0
 20
0.0
 30
0.0
 70
   128
 71
    28
 72
    42
 73
    31
  0
VERTEX
  5
F36
  8
0
 10
0.0
 20
0.0
 30
0.0
 70
   128
 71
    29
 72
    28
 73
    31
  0
SEQEND
  5
16D7
  8
0
  0
POLYLINE
  5
F37
  8
0
 66
     1
 10
0.0
 20
0.0
 30
0.0
 70
    64
 71
    10
 72
     8
  0
VERTEX
  5
F38
  8
0
 10
23.16304506108886
 20
-88.5218733523478
 30
119.8706611210689
 70
   192
  0
VERTEX
  5
F39
  8
0
 10
0.0000000000128164
 20
-88.637795845792
 30
119.8762307066294
 70
   192
  0
VERTEX
  5
F3A
  8
0
 10
0.0
 20
-91.27373171657064
 30
69.5795780562099
 70
   192
  0
VERTEX
  5
F3B
  8
0
 10
33.85232645112301
 20
-91.27373171657061
 30
60.7892891579331
 70
   192
  0
VERTEX
  5
F3C
  8
0
 10
69.35802013050133
 20
-89.3242236409426
 30
81.192361992693
 70
   192
  0
VERTEX
  5
F3D
  8
0
 10
69.4129583354636
 20
-87.6617184166795
 30
119.851323885429
 70
   192
  0
VERTEX
  5
F3E
  8
0
 10
59.15123140423822
 20
-91.27373171657061
 30
36.63945285948558
 70
   192
  0
VERTEX
  5
F3F
  8
0
 10
69.41644142556595
 20
-90.65856256410132
 30
42.36249946443077
 70
   192
  0
VERTEX
  5
F40
  8
0
 10
46.30587712055974
 20
-88.18589016736023
 30
119.8588851756821
 70
   192
  0
VERTEX
  5
F41
  8
0
 10
69.50447479234568
 20
-91.27373171657061
 30
3.231975606403745
 70
   192
  0
VERTEX
  5
F42
  8
0
 10
0.0
 20
0.0
 30
0.0
 70
   128
 71
     1
 72
     2
 73
     3
  0
VERTEX
  5
F43
  8
0
 10
0.0
 20
0.0
 30
0.0
 70
   128
 71
     4
 72
     5
 73
     6
  0
VERTEX
  5
F44
  8
0
 10
0.0
 20
0.0
 30
0.0
 70
   128
 71
     4
 72
     7
 73
     8
  0
VERTEX
  5
F45
  8
0
 10
0.0
 20
0.0
 30
0.0
 70
   128
 71
     9
 72
     1
 73
     3
  0
VERTEX
  5
F46
  8
0
 10
0.0
 20
0.0
 30
0.0
 70
   128
 71
     9
 72
     3
 73
     4
  0
VERTEX
  5
F47
  8
0
 10
0.0
 20
0.0
 30
0.0
 70
   128
 71
     9
 72
     4
 73
     6
  0
VERTEX
  5
F48
  8
0
 10
0.0
 20
0.0
 30
0.0
 70
   128
 71
     5
 72
     4
 73
     8
  0
VERTEX
  5
F49
  8
0
 10
0.0
 20
0.0
 30
0.0
 70
   128
 71
     8
 72
     7
 73
    10
  0
SEQEND
  5
16D8
  8
0
  0
POLYLINE
  5
F4A
  8
0
 66
     1
 10
0.0
 20
0.0
 30
0.0
 70
    64
 71
    44
 72
    44
  0
VERTEX
  5
F4B
  8
0
 10
-148.9644696862094
 20
0.0
 30
-94.96690637813312
 70
   192
  0
VERTEX
  5
F4C
  8
0
 10
-148.4539349226075
 20
0.0
 30
-96.9223306318019
 70
   192
  0
VERTEX
  5
F4D
  8
0
 10
-146.9223306318017
 20
0.0
 30
-98.45393492260749
 70
   192
  0
VERTEX
  5
F4E
  8
0
 10
-144.966906378133
 20
0.0
 30
-98.96446968620938
 70
   192
  0
VERTEX
  5
F4F
  8
0
 10
94.966906378133
 20
0.0
 30
-98.9644696862094
 70
   192
  0
VERTEX
  5
F50
  8
0
 10
96.92233063180186
 20
0.0
 30
-98.45393492260753
 70
   192
  0
VERTEX
  5
F51
  8
0
 10
98.45393492260747
 20
0.0
 30
-96.92233063180193
 70
   192
  0
VERTEX
  5
F52
  8
0
 10
98.96446968620938
 20
0.0
 30
-94.96690637813312
 70
   192
  0
VERTEX
  5
F53
  8
0
 10
98.9644696862094
 20
0.0
 30
144.966906378133
 70
   192
  0
VERTEX
  5
F54
  8
0
 10
98.45393492260757
 20
0.0
 30
146.9223306318018
 70
   192
  0
VERTEX
  5
F55
  8
0
 10
96.9223306318019
 20
0.0
 30
148.4539349226075
 70
   192
  0
VERTEX
  5
F56
  8
0
 10
94.966906378133
 20
0.0
 30
148.9644696862092
 70
   192
  0
VERTEX
  5
F57
  8
0
 10
-144.966906378133
 20
0.0
 30
148.9644696862094
 70
   192
  0
VERTEX
  5
F58
  8
0
 10
-146.9223306318018
 20
0.0
 30
148.4539349226075
 70
   192
  0
VERTEX
  5
F59
  8
0
 10
-148.4539349226075
 20
0.0
 30
146.9223306318017
 70
   192
  0
VERTEX
  5
F5A
  8
0
 10
-148.9644696862094
 20
0.0
 30
144.966906378133
 70
   192
  0
VERTEX
  5
F5B
  8
0
 10
-127.7343753198082
 20
0.0
 30
-90.6078602134487
 70
   192
  0
VERTEX
  5
F5C
  8
0
 10
-131.0636302406944
 20
0.0
 30
-90.1763294934522
 70
   192
  0
VERTEX
  5
F5D
  8
0
 10
-134.206697965233
 20
0.0000000000000001
 30
-88.8817373334629
 70
   192
  0
VERTEX
  5
F5E
  8
0
 10
-136.8522969101062
 20
0.0000000000000002
 30
-86.85229691010619
 70
   192
  0
VERTEX
  5
F5F
  8
0
 10
-138.8817373334628
 20
0.0000000000000001
 30
-84.20669796523306
 70
   192
  0
VERTEX
  5
F60
  8
0
 10
-140.1763294934521
 20
0.0
 30
-81.06363024069454
 70
   192
  0
VERTEX
  5
F61
  8
0
 10
-140.6078602134486
 20
0.0
 30
-77.7343753198083
 70
   192
  0
VERTEX
  5
F62
  8
0
 10
-140.6078602134486
 20
0.0
 30
127.7343753198082
 70
   192
  0
VERTEX
  5
F63
  8
0
 10
-140.1763294934521
 20
0.0000000000000003
 30
131.0636302406944
 70
   192
  0
VERTEX
  5
F64
  8
0
 10
-138.8817373334628
 20
0.0000000000000004
 30
134.206697965233
 70
   192
  0
VERTEX
  5
F65
  8
0
 10
-136.852296910106
 20
0.0000000000000004
 30
136.8522969101062
 70
   192
  0
VERTEX
  5
F66
  8
0
 10
-134.2066979652329
 20
0.0000000000000004
 30
138.8817373334628
 70
   192
  0
VERTEX
  5
F67
  8
0
 10
-131.0636302406944
 20
0.0000000000000003
 30
140.1763294934521
 70
   192
  0
VERTEX
  5
F68
  8
0
 10
-127.7343753198082
 20
0.0
 30
140.6078602134486
 70
   192
  0
VERTEX
  5
F69
  8
0
 10
77.7343753198083
 20
0.0
 30
140.6078602134486
 70
   192
  0
VERTEX
  5
F6A
  8
0
 10
81.06363024069454
 20
0.0000000000000003
 30
140.1763294934521
 70
   192
  0
VERTEX
  5
F6B
  8
0
 10
84.2066979652331
 20
0.0000000000000004
 30
138.8817373334628
 70
   192
  0
VERTEX
  5
F6C
  8
0
 10
86.85229691010619
 20
0.0000000000000004
 30
136.852296910106
 70
   192
  0
VERTEX
  5
F6D
  8
0
 10
88.8817373334629
 20
0.0000000000000004
 30
134.2066979652329
 70
   192
  0
VERTEX
  5
F6E
  8
0
 10
90.17632949345223
 20
0.0000000000000003
 30
131.0636302406944
 70
   192
  0
VERTEX
  5
F6F
  8
0
 10
90.6078602134487
 20
0.0
 30
127.7343753198082
 70
   192
  0
VERTEX
  5
F70
  8
0
 10
90.6078602134487
 20
0.0
 30
-77.7343753198083
 70
   192
  0
VERTEX
  5
F71
  8
0
 10
90.17632949345222
 20
0.0000000000000003
 30
-81.06363024069454
 70
   192
  0
VERTEX
  5
F72
  8
0
 10
88.8817373334629
 20
0.0000000000000004
 30
-84.20669796523309
 70
   192
  0
VERTEX
  5
F73
  8
0
 10
86.85229691010619
 20
0.0000000000000004
 30
-86.85229691010619
 70
   192
  0
VERTEX
  5
F74
  8
0
 10
84.20669796523306
 20
0.0000000000000004
 30
-88.88173733346294
 70
   192
  0
VERTEX
  5
F75
  8
0
 10
81.06363024069454
 20
0.0000000000000003
 30
-90.17632949345226
 70
   192
  0
VERTEX
  5
F76
  8
0
 10
77.7343753198083
 20
0.0
 30
-90.6078602134487
 70
   192
  0
VERTEX
  5
F77
  8
0
 10
0.0
 20
0.0
 30
0.0
 70
   128
 71
    18
 72
   -17
 73
    -4
  0
VERTEX
  5
F78
  8
0
 10
0.0
 20
0.0
 30
0.0
 70
   128
 71
    -4
 72
    19
 73
   -18
  0
VERTEX
  5
F79
  8
0
 10
0.0
 20
0.0
 30
0.0
 70
   128
 71
     4
 72
    -3
 73
   -20
  0
VERTEX
  5
F7A
  8
0
 10
0.0
 20
0.0
 30
0.0
 70
   128
 71
    -4
 72
    20
 73
   -19
  0
VERTEX
  5
F7B
  8
0
 10
0.0
 20
0.0
 30
0.0
 70
   128
 71
     3
 72
     2
 73
    -1
  0
VERTEX
  5
F7C
  8
0
 10
0.0
 20
0.0
 30
0.0
 70
   128
 71
    -3
 72
    -1
 73
   -21
  0
VERTEX
  5
F7D
  8
0
 10
0.0
 20
0.0
 30
0.0
 70
   128
 71
    -3
 72
    21
 73
   -20
  0
VERTEX
  5
F7E
  8
0
 10
0.0
 20
0.0
 30
0.0
 70
   128
 71
    -1
 72
    22
 73
   -21
  0
VERTEX
  5
F7F
  8
0
 10
0.0
 20
0.0
 30
0.0
 70
   128
 71
    -1
 72
    23
 73
   -22
  0
VERTEX
  5
F80
  8
0
 10
0.0
 20
0.0
 30
0.0
 70
   128
 71
     1
 72
   -16
 73
   -24
  0
VERTEX
  5
F81
  8
0
 10
0.0
 20
0.0
 30
0.0
 70
   128
 71
    -1
 72
    24
 73
   -23
  0
VERTEX
  5
F82
  8
0
 10
0.0
 20
0.0
 30
0.0
 70
   128
 71
   -16
 72
    25
 73
   -24
  0
VERTEX
  5
F83
  8
0
 10
0.0
 20
0.0
 30
0.0
 70
   128
 71
   -16
 72
    26
 73
   -25
  0
VERTEX
  5
F84
  8
0
 10
0.0
 20
0.0
 30
0.0
 70
   128
 71
    16
 72
   -15
 73
   -27
  0
VERTEX
  5
F85
  8
0
 10
0.0
 20
0.0
 30
0.0
 70
   128
 71
   -16
 72
    27
 73
   -26
  0
VERTEX
  5
F86
  8
0
 10
0.0
 20
0.0
 30
0.0
 70
   128
 71
    15
 72
    14
 73
   -13
  0
VERTEX
  5
F87
  8
0
 10
0.0
 20
0.0
 30
0.0
 70
   128
 71
   -15
 72
   -13
 73
   -28
  0
VERTEX
  5
F88
  8
0
 10
0.0
 20
0.0
 30
0.0
 70
   128
 71
   -15
 72
    28
 73
   -27
  0
VERTEX
  5
F89
  8
0
 10
0.0
 20
0.0
 30
0.0
 70
   128
 71
   -13
 72
    29
 73
   -28
  0
VERTEX
  5
F8A
  8
0
 10
0.0
 20
0.0
 30
0.0
 70
   128
 71
   -13
 72
    30
 73
   -29
  0
VERTEX
  5
F8B
  8
0
 10
0.0
 20
0.0
 30
0.0
 70
   128
 71
    13
 72
   -12
 73
   -31
  0
VERTEX
  5
F8C
  8
0
 10
0.0
 20
0.0
 30
0.0
 70
   128
 71
   -13
 72
    31
 73
   -30
  0
VERTEX
  5
F8D
  8
0
 10
0.0
 20
0.0
 30
0.0
 70
   128
 71
   -12
 72
    32
 73
   -31
  0
VERTEX
  5
F8E
  8
0
 10
0.0
 20
0.0
 30
0.0
 70
   128
 71
   -12
 72
    33
 73
   -32
  0
VERTEX
  5
F8F
  8
0
 10
0.0
 20
0.0
 30
0.0
 70
   128
 71
    12
 72
    11
 73
   -10
  0
VERTEX
  5
F90
  8
0
 10
0.0
 20
0.0
 30
0.0
 70
   128
 71
   -12
 72
   -10
 73
   -34
  0
VERTEX
  5
F91
  8
0
 10
0.0
 20
0.0
 30
0.0
 70
   128
 71
   -12
 72
    34
 73
   -33
  0
VERTEX
  5
F92
  8
0
 10
0.0
 20
0.0
 30
0.0
 70
   128
 71
    10
 72
    -9
 73
   -35
  0
VERTEX
  5
F93
  8
0
 10
0.0
 20
0.0
 30
0.0
 70
   128
 71
   -10
 72
    35
 73
   -34
  0
VERTEX
  5
F94
  8
0
 10
0.0
 20
0.0
 30
0.0
 70
   128
 71
    -9
 72
    36
 73
   -35
  0
VERTEX
  5
F95
  8
0
 10
0.0
 20
0.0
 30
0.0
 70
   128
 71
    -9
 72
    37
 73
   -36
  0
VERTEX
  5
F96
  8
0
 10
0.0
 20
0.0
 30
0.0
 70
   128
 71
     9
 72
    -8
 73
   -38
  0
VERTEX
  5
F97
  8
0
 10
0.0
 20
0.0
 30
0.0
 70
   128
 71
    -9
 72
    38
 73
   -37
  0
VERTEX
  5
F98
  8
0
 10
0.0
 20
0.0
 30
0.0
 70
   128
 71
    -8
 72
    39
 73
   -38
  0
VERTEX
  5
F99
  8
0
 10
0.0
 20
0.0
 30
0.0
 70
   128
 71
    -8
 72
    40
 73
   -39
  0
VERTEX
  5
F9A
  8
0
 10
0.0
 20
0.0
 30
0.0
 70
   128
 71
     8
 72
     7
 73
    -6
  0
VERTEX
  5
F9B
  8
0
 10
0.0
 20
0.0
 30
0.0
 70
   128
 71
    -8
 72
    -6
 73
   -41
  0
VERTEX
  5
F9C
  8
0
 10
0.0
 20
0.0
 30
0.0
 70
   128
 71
    -8
 72
    41
 73
   -40
  0
VERTEX
  5
F9D
  8
0
 10
0.0
 20
0.0
 30
0.0
 70
   128
 71
     6
 72
    -5
 73
   -42
  0
VERTEX
  5
F9E
  8
0
 10
0.0
 20
0.0
 30
0.0
 70
   128
 71
    -6
 72
    42
 73
   -41
  0
VERTEX
  5
F9F
  8
0
 10
0.0
 20
0.0
 30
0.0
 70
   128
 71
    -5
 72
    43
 73
   -42
  0
VERTEX
  5
FA0
  8
0
 10
0.0
 20
0.0
 30
0.0
 70
   128
 71
    -5
 72
    44
 73
   -43
  0
VERTEX
  5
FA1
  8
0
 10
0.0
 20
0.0
 30
0.0
 70
   128
 71
     5
 72
    -4
 73
   -17
  0
VERTEX
  5
FA2
  8
0
 10
0.0
 20
0.0
 30
0.0
 70
   128
 71
    -5
 72
    17
 73
   -44
  0
SEQEND
  5
16D9
  8
0
  0
POLYLINE
  5
FA3
  8
0
 66
     1
 10
0.0
 20
0.0
 30
0.0
 70
    64
 71
    15
 72
    13
  0
VERTEX
  5
FA4
  8
0
 10
0.0000000000000126
 20
-79.9124431699972
 30
37.97068384122711
 70
   192
  0
VERTEX
  5
FA5
  8
0
 10
0.0
 20
-75.65561189398251
 30
119.1958632754712
 70
   192
  0
VERTEX
  5
FA6
  8
0
 10
23.00361081258369
 20
-75.54001685902618
 30
119.2022501497731
 70
   192
  0
VERTEX
  5
FA7
  8
0
 10
46.00227860455578
 20
-75.20515864224326
 30
119.2238913608734
 70
   192
  0
VERTEX
  5
FA8
  8
0
 10
68.882142394856
 20
-76.7971478334717
 30
-68.8821423948561
 70
   192
  0
VERTEX
  5
FA9
  8
0
 10
26.84932803042215
 20
-79.9124431699972
 30
-26.84932803042214
 70
   192
  0
VERTEX
  5
FAA
  8
0
 10
37.9706838412271
 20
-79.9124431699972
 30
0.0
 70
   192
  0
VERTEX
  5
FAB
  8
0
 10
68.82416783043719
 20
-78.28121366934829
 30
-6.127503972187172
 70
   192
  0
VERTEX
  5
FAC
  8
0
 10
45.78683312715327
 20
-77.56954295153686
 30
-68.83945396547938
 70
   192
  0
VERTEX
  5
FAD
  8
0
 10
22.94850690149436
 20
-78.10019656046143
 30
-68.82534979351297
 70
   192
  0
VERTEX
  5
FAE
  8
0
 10
0.0000000000000047
 20
-79.91244316999723
 30
-37.9706838412271
 70
   192
  0
VERTEX
  5
FAF
  8
0
 10
0.0000000000000084
 20
-78.29544436746858
 30
-68.8248590161732
 70
   192
  0
VERTEX
  5
FB0
  8
0
 10
69.071976313055
 20
-74.67953446487009
 30
119.262570030431
 70
   192
  0
VERTEX
  5
FB1
  8
0
 10
26.84932803042215
 20
-79.9124431699972
 30
26.84932803042214
 70
   192
  0
VERTEX
  5
FB2
  8
0
 10
68.85589034917027
 20
-77.242372565121
 30
56.26184951987953
 70
   192
  0
VERTEX
  5
FB3
  8
0
 10
0.0
 20
0.0
 30
0.0
 70
   128
 71
     1
 72
     2
 73
     3
  0
VERTEX
  5
FB4
  8
0
 10
0.0
 20
0.0
 30
0.0
 70
   128
 71
     3
 72
     4
 73
     1
  0
VERTEX
  5
FB5
  8
0
 10
0.0
 20
0.0
 30
0.0
 70
   128
 71
     5
 72
     6
 73
     7
  0
VERTEX
  5
FB6
  8
0
 10
0.0
 20
0.0
 30
0.0
 70
   128
 71
     8
 72
     5
 73
     7
  0
VERTEX
  5
FB7
  8
0
 10
0.0
 20
0.0
 30
0.0
 70
   128
 71
     6
 72
     5
 73
     9
  0
VERTEX
  5
FB8
  8
0
 10
0.0
 20
0.0
 30
0.0
 70
   128
 71
    10
 72
    11
 73
     6
  0
VERTEX
  5
FB9
  8
0
 10
0.0
 20
0.0
 30
0.0
 70
   128
 71
     9
 72
    10
 73
     6
  0
VERTEX
  5
FBA
  8
0
 10
0.0
 20
0.0
 30
0.0
 70
   128
 71
    10
 72
    12
 73
    11
  0
VERTEX
  5
FBB
  8
0
 10
0.0
 20
0.0
 30
0.0
 70
   128
 71
     1
 72
     4
 73
    13
  0
VERTEX
  5
FBC
  8
0
 10
0.0
 20
0.0
 30
0.0
 70
   128
 71
    14
 72
     1
 73
    13
  0
VERTEX
  5
FBD
  8
0
 10
0.0
 20
0.0
 30
0.0
 70
   128
 71
    15
 72
    14
 73
    13
  0
VERTEX
  5
FBE
  8
0
 10
0.0
 20
0.0
 30
0.0
 70
   128
 71
     7
 72
    14
 73
    15
  0
VERTEX
  5
FBF
  8
0
 10
0.0
 20
0.0
 30
0.0
 70
   128
 71
     8
 72
     7
 73
    15
  0
SEQEND
  5
16DA
  8
0
  0
POLYLINE
  5
FC0
  8
0
 66
     1
 10
0.0
 20
0.0
 30
0.0
 70
    64
 71
     6
 72
     4
  0
VERTEX
  5
FC1
  8
0
 10
78.71236313707934
 20
-66.08497012692497
 30
118.8096824496634
 70
   192
  0
VERTEX
  5
FC2
  8
0
 10
87.63705600722398
 20
-2.582480697119778
 30
127.7343753198081
 70
   192
  0
VERTEX
  5
FC3
  8
0
 10
87.637056007224
 20
-2.582480697119805
 30
-77.7343753198083
 70
   192
  0
VERTEX
  5
FC4
  8
0
 10
78.41475198667912
 20
-68.20258349552671
 30
-68.51207129926341
 70
   192
  0
VERTEX
  5
FC5
  8
0
 10
78.206195025487
 20
-69.68654338258553
 30
-6.03922400372141
 70
   192
  0
VERTEX
  5
FC6
  8
0
 10
78.35438799640765
 20
-68.63209560422642
 30
56.4046128617538
 70
   192
  0
VERTEX
  5
FC7
  8
0
 10
0.0
 20
0.0
 30
0.0
 70
   128
 71
     3
 72
     4
 73
    -5
  0
VERTEX
  5
FC8
  8
0
 10
0.0
 20
0.0
 30
0.0
 70
   128
 71
    -6
 72
     2
 73
    -3
  0
VERTEX
  5
FC9
  8
0
 10
0.0
 20
0.0
 30
0.0
 70
   128
 71
     5
 72
    -6
 73
    -3
  0
VERTEX
  5
FCA
  8
0
 10
0.0
 20
0.0
 30
0.0
 70
   128
 71
     6
 72
     1
 73
    -2
  0
SEQEND
  5
16DB
  8
0
  0
POLYLINE
  5
FCB
  8
0
 66
     1
 10
0.0
 20
0.0
 30
0.0
 70
    64
 71
     6
 72
     4
  0
VERTEX
  5
FCC
  8
0
 10
-119.03836812772
 20
-64.45778697733817
 30
128.9410488151358
 70
   192
  0
VERTEX
  5
FCD
  8
0
 10
-127.7343753198081
 20
-2.582480697119763
 30
137.6370560072239
 70
   192
  0
VERTEX
  5
FCE
  8
0
 10
77.7343753198083
 20
-2.582480697119805
 30
137.637056007224
 70
   192
  0
VERTEX
  5
FCF
  8
0
 10
68.80968244966368
 20
-66.08497012692503
 30
128.7123631370794
 70
   192
  0
VERTEX
  5
FD0
  8
0
 10
6.17614225811377
 20
-67.05251127840482
 30
128.5763840960413
 70
   192
  0
VERTEX
  5
FD1
  8
0
 10
-56.43909461788319
 20
-66.38888503061541
 30
128.669650682836
 70
   192
  0
VERTEX
  5
FD2
  8
0
 10
0.0
 20
0.0
 30
0.0
 70
   128
 71
     3
 72
     4
 73
    -5
  0
VERTEX
  5
FD3
  8
0
 10
0.0
 20
0.0
 30
0.0
 70
   128
 71
    -6
 72
     2
 73
    -3
  0
VERTEX
  5
FD4
  8
0
 10
0.0
 20
0.0
 30
0.0
 70
   128
 71
     5
 72
    -6
 73
    -3
  0
VERTEX
  5
FD5
  8
0
 10
0.0
 20
0.0
 30
0.0
 70
   128
 71
     6
 72
     1
 73
    -2
  0
SEQEND
  5
16DC
  8
0
  0
POLYLINE
  5
FD6
  8
0
 66
     1
 10
0.0
 20
0.0
 30
0.0
 70
    64
 71
     6
 72
     4
  0
VERTEX
  5
FD7
  8
0
 10
-128.7123631370792
 20
-66.08497012692501
 30
-68.80968244966363
 70
   192
  0
VERTEX
  5
FD8
  8
0
 10
-137.6370560072239
 20
-2.582480697119782
 30
-77.73437531980827
 70
   192
  0
VERTEX
  5
FD9
  8
0
 10
-137.637056007224
 20
-2.582480697119805
 30
127.7343753198082
 70
   192
  0
VERTEX
  5
FDA
  8
0
 10
-128.9410488151357
 20
-64.45778697733819
 30
119.0383681277201
 70
   192
  0
VERTEX
  5
FDB
  8
0
 10
-128.6696193506701
 20
-66.38910797055986
 30
56.42913323110914
 70
   192
  0
VERTEX
  5
FDC
  8
0
 10
-128.5763895892186
 20
-67.05247219241818
 30
-6.190394263033981
 70
   192
  0
VERTEX
  5
FDD
  8
0
 10
0.0
 20
0.0
 30
0.0
 70
   128
 71
     3
 72
     4
 73
    -5
  0
VERTEX
  5
FDE
  8
0
 10
0.0
 20
0.0
 30
0.0
 70
   128
 71
    -6
 72
     2
 73
    -3
  0
VERTEX
  5
FDF
  8
0
 10
0.0
 20
0.0
 30
0.0
 70
   128
 71
     5
 72
    -6
 73
    -3
  0
VERTEX
  5
FE0
  8
0
 10
0.0
 20
0.0
 30
0.0
 70
   128
 71
     6
 72
     1
 73
    -2
  0
SEQEND
  5
16DD
  8
0
  0
POLYLINE
  5
FE1
  8
0
 66
     1
 10
0.0
 20
0.0
 30
0.0
 70
    64
 71
     6
 72
     4
  0
VERTEX
  5
FE2
  8
0
 10
68.51207129926341
 20
-68.20258349552657
 30
-78.41475198667912
 70
   192
  0
VERTEX
  5
FE3
  8
0
 10
77.73437531980827
 20
-2.582480697119797
 30
-87.63705600722398
 70
   192
  0
VERTEX
  5
FE4
  8
0
 10
-127.7343753198082
 20
-2.582480697119805
 30
-87.637056007224
 70
   192
  0
VERTEX
  5
FE5
  8
0
 10
-118.8096824496636
 20
-66.084970126925
 30
-78.71236313707931
 70
   192
  0
VERTEX
  5
FE6
  8
0
 10
-56.38523758450238
 20
-68.6327452613079
 30
-78.35429669305917
 70
   192
  0
VERTEX
  5
FE7
  8
0
 10
6.074368388390958
 20
-69.68638295534556
 30
-78.20621757206519
 70
   192
  0
VERTEX
  5
FE8
  8
0
 10
0.0
 20
0.0
 30
0.0
 70
   128
 71
     3
 72
     4
 73
    -5
  0
VERTEX
  5
FE9
  8
0
 10
0.0
 20
0.0
 30
0.0
 70
   128
 71
    -6
 72
     2
 73
    -3
  0
VERTEX
  5
FEA
  8
0
 10
0.0
 20
0.0
 30
0.0
 70
   128
 71
     5
 72
    -6
 73
    -3
  0
VERTEX
  5
FEB
  8
0
 10
0.0
 20
0.0
 30
0.0
 70
   128
 71
     6
 72
     1
 73
    -2
  0
SEQEND
  5
16DE
  8
0
  0
POLYLINE
  5
FEC
  8
0
 66
     1
 10
0.0
 20
0.0
 30
0.0
 70
    64
 71
     4
 72
     2
  0
VERTEX
  5
FED
  8
0
 10
91.44112737674621
 20
-102.0
 30
146.4380815118416
 70
   192
  0
VERTEX
  5
FEE
  8
0
 10
-141.4411273767461
 20
-102.0
 30
146.4380815118415
 70
   192
  0
VERTEX
  5
FEF
  8
0
 10
-144.966906378133
 20
-1.0348994967025
 30
149.9638605132284
 70
   192
  0
VERTEX
  5
FF0
  8
0
 10
94.966906378133
 20
-1.034899496702501
 30
149.9638605132284
 70
   192
  0
VERTEX
  5
FF1
  8
0
 10
0.0
 20
0.0
 30
0.0
 70
   128
 71
     1
 72
     4
 73
    -3
  0
VERTEX
  5
FF2
  8
0
 10
0.0
 20
0.0
 30
0.0
 70
   128
 71
    -1
 72
     3
 73
     2
  0
SEQEND
  5
16DF
  8
0
  0
POLYLINE
  5
FF3
  8
0
 66
     1
 10
0.0
 20
0.0
 30
0.0
 70
    64
 71
     4
 72
     2
  0
VERTEX
  5
FF4
  8
0
 10
96.43808151184166
 20
-102.0
 30
-91.44112737674621
 70
   192
  0
VERTEX
  5
FF5
  8
0
 10
96.43808151184167
 20
-102.0
 30
141.4411273767461
 70
   192
  0
VERTEX
  5
FF6
  8
0
 10
99.9638605132285
 20
-1.0348994967025
 30
144.966906378133
 70
   192
  0
VERTEX
  5
FF7
  8
0
 10
99.9638605132285
 20
-1.034899496702495
 30
-94.966906378133
 70
   192
  0
VERTEX
  5
FF8
  8
0
 10
0.0
 20
0.0
 30
0.0
 70
   128
 71
     1
 72
     4
 73
    -3
  0
VERTEX
  5
FF9
  8
0
 10
0.0
 20
0.0
 30
0.0
 70
   128
 71
    -1
 72
     3
 73
     2
  0
SEQEND
  5
16E0
  8
0
  0
POLYLINE
  5
FFA
  8
0
 66
     1
 10
0.0
 20
0.0
 30
0.0
 70
    64
 71
     4
 72
     2
  0
VERTEX
  5
FFB
  8
0
 10
-141.441127376746
 20
-102.0
 30
-96.43808151184167
 70
   192
  0
VERTEX
  5
FFC
  8
0
 10
91.44112737674627
 20
-102.0
 30
-96.43808151184167
 70
   192
  0
VERTEX
  5
FFD
  8
0
 10
94.966906378133
 20
-1.0348994967025
 30
-99.9638605132285
 70
   192
  0
VERTEX
  5
FFE
  8
0
 10
-144.966906378133
 20
-1.0348994967025
 30
-99.9638605132285
 70
   192
  0
VERTEX
  5
FFF
  8
0
 10
0.0
 20
0.0
 30
0.0
 70
   128
 71
     1
 72
     4
 73
    -3
  0
VERTEX
  5
1000
  8
0
 10
0.0
 20
0.0
 30
0.0
 70
   128
 71
    -1
 72
     3
 73
     2
  0
SEQEND
  5
16E1
  8
0
  0
POLYLINE
  5
1001
  8
0
 66
     1
 10
0.0
 20
0.0
 30
0.0
 70
    64
 71
     4
 72
     2
  0
VERTEX
  5
1002
  8
0
 10
-146.4380815118416
 20
-102.0
 30
141.441127376746
 70
   192
  0
VERTEX
  5
1003
  8
0
 10
-146.4380815118415
 20
-102.0
 30
-91.44112737674627
 70
   192
  0
VERTEX
  5
1004
  8
0
 10
-149.9638605132284
 20
-1.0348994967025
 30
-94.9669063781331
 70
   192
  0
VERTEX
  5
1005
  8
0
 10
-149.9638605132284
 20
-1.034899496702503
 30
144.966906378133
 70
   192
  0
VERTEX
  5
1006
  8
0
 10
0.0
 20
0.0
 30
0.0
 70
   128
 71
     1
 72
     4
 73
    -3
  0
VERTEX
  5
1007
  8
0
 10
0.0
 20
0.0
 30
0.0
 70
   128
 71
    -1
 72
     3
 73
     2
  0
SEQEND
  5
16E2
  8
0
  0
POLYLINE
  5
1008
  8
0
 66
     1
 10
0.0
 20
0.0
 30
0.0
 70
    64
 71
    32
 72
    32
  0
VERTEX
  5
1009
  8
0
 10
91.4411273767462
 20
-102.0
 30
146.4380815118416
 70
   192
  0
VERTEX
  5
100A
  8
0
 10
93.88540769383232
 20
-102.0
 30
145.7999130573393
 70
   192
  0
VERTEX
  5
100B
  8
0
 10
95.79991305733938
 20
-102.0
 30
143.8854076938323
 70
   192
  0
VERTEX
  5
100C
  8
0
 10
96.43808151184169
 20
-102.0
 30
141.4411273767462
 70
   192
  0
VERTEX
  5
100D
  8
0
 10
96.43808151184169
 20
-102.0
 30
-91.4411273767462
 70
   192
  0
VERTEX
  5
100E
  8
0
 10
95.79991305733941
 20
-102.0
 30
-93.88540769383232
 70
   192
  0
VERTEX
  5
100F
  8
0
 10
93.88540769383235
 20
-102.0
 30
-95.79991305733938
 70
   192
  0
VERTEX
  5
1010
  8
0
 10
91.4411273767462
 20
-102.0
 30
-96.43808151184169
 70
   192
  0
VERTEX
  5
1011
  8
0
 10
-141.441127376746
 20
-102.0
 30
-96.43808151184169
 70
   192
  0
VERTEX
  5
1012
  8
0
 10
-143.8854076938322
 20
-102.0
 30
-95.7999130573394
 70
   192
  0
VERTEX
  5
1013
  8
0
 10
-145.7999130573393
 20
-102.0
 30
-93.8854076938323
 70
   192
  0
VERTEX
  5
1014
  8
0
 10
-146.4380815118416
 20
-102.0
 30
-91.4411273767462
 70
   192
  0
VERTEX
  5
1015
  8
0
 10
-146.4380815118416
 20
-102.0
 30
141.441127376746
 70
   192
  0
VERTEX
  5
1016
  8
0
 10
-145.7999130573393
 20
-102.0
 30
143.8854076938321
 70
   192
  0
VERTEX
  5
1017
  8
0
 10
-143.8854076938323
 20
-102.0
 30
145.7999130573392
 70
   192
  0
VERTEX
  5
1018
  8
0
 10
-141.4411273767462
 20
-102.0
 30
146.4380815118416
 70
   192
  0
VERTEX
  5
1019
  8
0
 10
-133.430157435957
 20
-102.0
 30
-73.4682104550396
 70
   192
  0
VERTEX
  5
101A
  8
0
 10
-132.1593630492309
 20
-102.0
 30
-78.34697988905285
 70
   192
  0
VERTEX
  5
101B
  8
0
 10
-128.3469798890527
 20
-102.0
 30
-82.15936304923099
 70
   192
  0
VERTEX
  5
101C
  8
0
 10
-123.4682104550394
 20
-102.0
 30
-83.43015743595708
 70
   192
  0
VERTEX
  5
101D
  8
0
 10
73.4682104550396
 20
-102.0
 30
-83.4301574359571
 70
   192
  0
VERTEX
  5
101E
  8
0
 10
78.34697988905285
 20
-102.0
 30
-82.15936304923099
 70
   192
  0
VERTEX
  5
101F
  8
0
 10
82.15936304923099
 20
-102.0
 30
-78.34697988905279
 70
   192
  0
VERTEX
  5
1020
  8
0
 10
83.43015743595707
 20
-102.0
 30
-73.46821045503955
 70
   192
  0
VERTEX
  5
1021
  8
0
 10
83.4301574359571
 20
-102.0
 30
123.4682104550394
 70
   192
  0
VERTEX
  5
1022
  8
0
 10
82.15936304923099
 20
-102.0
 30
128.3469798890527
 70
   192
  0
VERTEX
  5
1023
  8
0
 10
78.34697988905279
 20
-102.0
 30
132.1593630492309
 70
   192
  0
VERTEX
  5
1024
  8
0
 10
73.46821045503955
 20
-102.0
 30
133.430157435957
 70
   192
  0
VERTEX
  5
1025
  8
0
 10
-123.4682104550394
 20
-102.0
 30
133.430157435957
 70
   192
  0
VERTEX
  5
1026
  8
0
 10
-128.3469798890527
 20
-102.0
 30
132.159363049231
 70
   192
  0
VERTEX
  5
1027
  8
0
 10
-132.159363049231
 20
-102.0
 30
128.3469798890527
 70
   192
  0
VERTEX
  5
1028
  8
0
 10
-133.4301574359569
 20
-102.0
 30
123.4682104550394
 70
   192
  0
VERTEX
  5
1029
  8
0
 10
0.0
 20
0.0
 30
0.0
 70
   128
 71
    18
 72
   -17
 73
    -9
  0
VERTEX
  5
102A
  8
0
 10
0.0
 20
0.0
 30
0.0
 70
   128
 71
    -9
 72
    19
 73
   -18
  0
VERTEX
  5
102B
  8
0
 10
0.0
 20
0.0
 30
0.0
 70
   128
 71
    -9
 72
    20
 73
   -19
  0
VERTEX
  5
102C
  8
0
 10
0.0
 20
0.0
 30
0.0
 70
   128
 71
     9
 72
    -8
 73
   -21
  0
VERTEX
  5
102D
  8
0
 10
0.0
 20
0.0
 30
0.0
 70
   128
 71
    -9
 72
    21
 73
   -20
  0
VERTEX
  5
102E
  8
0
 10
0.0
 20
0.0
 30
0.0
 70
   128
 71
    -8
 72
    22
 73
   -21
  0
VERTEX
  5
102F
  8
0
 10
0.0
 20
0.0
 30
0.0
 70
   128
 71
    -8
 72
    23
 73
   -22
  0
VERTEX
  5
1030
  8
0
 10
0.0
 20
0.0
 30
0.0
 70
   128
 71
    -8
 72
    24
 73
   -23
  0
VERTEX
  5
1031
  8
0
 10
0.0
 20
0.0
 30
0.0
 70
   128
 71
     8
 72
     7
 73
    -6
  0
VERTEX
  5
1032
  8
0
 10
0.0
 20
0.0
 30
0.0
 70
   128
 71
    -8
 72
     6
 73
    -5
  0
VERTEX
  5
1033
  8
0
 10
0.0
 20
0.0
 30
0.0
 70
   128
 71
    -8
 72
     5
 73
    -4
  0
VERTEX
  5
1034
  8
0
 10
0.0
 20
0.0
 30
0.0
 70
   128
 71
    -8
 72
    -4
 73
   -25
  0
VERTEX
  5
1035
  8
0
 10
0.0
 20
0.0
 30
0.0
 70
   128
 71
    -8
 72
    25
 73
   -24
  0
VERTEX
  5
1036
  8
0
 10
0.0
 20
0.0
 30
0.0
 70
   128
 71
    -4
 72
    26
 73
   -25
  0
VERTEX
  5
1037
  8
0
 10
0.0
 20
0.0
 30
0.0
 70
   128
 71
    -4
 72
    27
 73
   -26
  0
VERTEX
  5
1038
  8
0
 10
0.0
 20
0.0
 30
0.0
 70
   128
 71
    -4
 72
    28
 73
   -27
  0
VERTEX
  5
1039
  8
0
 10
0.0
 20
0.0
 30
0.0
 70
   128
 71
     4
 72
     3
 73
    -2
  0
VERTEX
  5
103A
  8
0
 10
0.0
 20
0.0
 30
0.0
 70
   128
 71
    -4
 72
     2
 73
    -1
  0
VERTEX
  5
103B
  8
0
 10
0.0
 20
0.0
 30
0.0
 70
   128
 71
    -4
 72
     1
 73
   -16
  0
VERTEX
  5
103C
  8
0
 10
0.0
 20
0.0
 30
0.0
 70
   128
 71
    -4
 72
   -16
 73
   -29
  0
VERTEX
  5
103D
  8
0
 10
0.0
 20
0.0
 30
0.0
 70
   128
 71
    -4
 72
    29
 73
   -28
  0
VERTEX
  5
103E
  8
0
 10
0.0
 20
0.0
 30
0.0
 70
   128
 71
   -16
 72
    30
 73
   -29
  0
VERTEX
  5
103F
  8
0
 10
0.0
 20
0.0
 30
0.0
 70
   128
 71
   -16
 72
    31
 73
   -30
  0
VERTEX
  5
1040
  8
0
 10
0.0
 20
0.0
 30
0.0
 70
   128
 71
   -16
 72
    32
 73
   -31
  0
VERTEX
  5
1041
  8
0
 10
0.0
 20
0.0
 30
0.0
 70
   128
 71
    16
 72
    15
 73
   -14
  0
VERTEX
  5
1042
  8
0
 10
0.0
 20
0.0
 30
0.0
 70
   128
 71
   -16
 72
    14
 73
   -13
  0
VERTEX
  5
1043
  8
0
 10
0.0
 20
0.0
 30
0.0
 70
   128
 71
   -16
 72
    13
 73
   -12
  0
VERTEX
  5
1044
  8
0
 10
0.0
 20
0.0
 30
0.0
 70
   128
 71
   -16
 72
    12
 73
   -11
  0
VERTEX
  5
1045
  8
0
 10
0.0
 20
0.0
 30
0.0
 70
   128
 71
   -16
 72
    11
 73
   -10
  0
VERTEX
  5
1046
  8
0
 10
0.0
 20
0.0
 30
0.0
 70
   128
 71
   -16
 72
    10
 73
    -9
  0
VERTEX
  5
1047
  8
0
 10
0.0
 20
0.0
 30
0.0
 70
   128
 71
   -16
 72
    -9
 73
   -17
  0
VERTEX
  5
1048
  8
0
 10
0.0
 20
0.0
 30
0.0
 70
   128
 71
   -16
 72
    17
 73
   -32
  0
SEQEND
  5
16E3
  8
0
  0
POLYLINE
  5
1049
  8
0
 66
     1
 10
0.0
 20
0.0
 30
0.0
 70
    64
 71
    11
 72
     9
  0
VERTEX
  5
104A
  8
0
 10
-118.8096824496636
 20
-66.084970126925
 30
-78.71236313707931
 70
   192
  0
VERTEX
  5
104B
  8
0
 10
-127.7343753198083
 20
-2.582480697119806
 30
-87.63705600722395
 70
   192
  0
VERTEX
  5
104C
  8
0
 10
-130.3580359060664
 20
-2.490758414518143
 30
-87.30469562222484
 70
   192
  0
VERTEX
  5
104D
  8
0
 10
-132.7303193665047
 20
-2.43448081334952
 30
-86.33159714457506
 70
   192
  0
VERTEX
  5
104E
  8
0
 10
-134.771674418794
 20
-2.415175156740875
 30
-84.7716744187942
 70
   192
  0
VERTEX
  5
104F
  8
0
 10
-123.7064653642248
 20
-66.57784957490759
 30
-77.32259972347931
 70
   192
  0
VERTEX
  5
1050
  8
0
 10
-136.3318565469307
 20
-2.434577286986853
 30
-82.73074640974704
 70
   192
  0
VERTEX
  5
1051
  8
0
 10
-137.637056007224
 20
-2.582480697119805
 30
-77.7343753198083
 70
   192
  0
VERTEX
  5
1052
  8
0
 10
-128.7123631370792
 20
-66.08497012692501
 30
-68.80968244966363
 70
   192
  0
VERTEX
  5
1053
  8
0
 10
-127.3225997234793
 20
-66.57784957490759
 30
-73.70646536422475
 70
   192
  0
VERTEX
  5
1054
  8
0
 10
-137.3044437104355
 20
-2.490627402541182
 30
-80.35740748181078
 70
   192
  0
VERTEX
  5
1055
  8
0
 10
0.0
 20
0.0
 30
0.0
 70
   128
 71
     1
 72
     2
 73
     3
  0
VERTEX
  5
1056
  8
0
 10
0.0
 20
0.0
 30
0.0
 70
   128
 71
     4
 72
     5
 73
     6
  0
VERTEX
  5
1057
  8
0
 10
0.0
 20
0.0
 30
0.0
 70
   128
 71
     6
 72
     5
 73
     7
  0
VERTEX
  5
1058
  8
0
 10
0.0
 20
0.0
 30
0.0
 70
   128
 71
     8
 72
     9
 73
    10
  0
VERTEX
  5
1059
  8
0
 10
0.0
 20
0.0
 30
0.0
 70
   128
 71
    11
 72
     8
 73
    10
  0
VERTEX
  5
105A
  8
0
 10
0.0
 20
0.0
 30
0.0
 70
   128
 71
     6
 72
     1
 73
     3
  0
VERTEX
  5
105B
  8
0
 10
0.0
 20
0.0
 30
0.0
 70
   128
 71
     4
 72
     6
 73
     3
  0
VERTEX
  5
105C
  8
0
 10
0.0
 20
0.0
 30
0.0
 70
   128
 71
    10
 72
     6
 73
     7
  0
VERTEX
  5
105D
  8
0
 10
0.0
 20
0.0
 30
0.0
 70
   128
 71
    11
 72
    10
 73
     7
  0
SEQEND
  5
16E4
  8
0
  0
POLYLINE
  5
105E
  8
0
 66
     1
 10
0.0
 20
0.0
 30
0.0
 70
    64
 71
    14
 72
    12
  0
VERTEX
  5
105F
  8
0
 10
78.41475198667912
 20
-68.20258349552671
 30
-68.51207129926341
 70
   192
  0
VERTEX
  5
1060
  8
0
 10
87.63705600722399
 20
-2.582480697119806
 30
-77.73437531980828
 70
   192
  0
VERTEX
  5
1061
  8
0
 10
87.30469562212483
 20
-2.49075841448552
 30
-80.35803590645861
 70
   192
  0
VERTEX
  5
1062
  8
0
 10
86.3315971443962
 20
-2.43448081336717
 30
-82.73031936680957
 70
   192
  0
VERTEX
  5
1063
  8
0
 10
84.7716744187942
 20
-2.415175156740875
 30
-84.7716744187942
 70
   192
  0
VERTEX
  5
1064
  8
0
 10
77.03611344659707
 20
-68.69436099291433
 30
-73.38988855440752
 70
   192
  0
VERTEX
  5
1065
  8
0
 10
77.7343753198083
 20
-2.582480697119805
 30
-87.637056007224
 70
   192
  0
VERTEX
  5
1066
  8
0
 10
68.51207129926341
 20
-68.20258349552657
 30
-78.41475198667912
 70
   192
  0
VERTEX
  5
1067
  8
0
 10
68.53387642325414
 20
-68.20558527621209
 30
-78.41430564209071
 70
   192
  0
VERTEX
  5
1068
  8
0
 10
68.55568144156129
 20
-68.20858029699947
 30
-78.41381130401209
 70
   192
  0
VERTEX
  5
1069
  8
0
 10
68.57748624850169
 20
-68.21156854337276
 30
-78.41326897483917
 70
   192
  0
VERTEX
  5
106A
  8
0
 10
82.73074640934585
 20
-2.434577286963707
 30
-86.33185654716716
 70
   192
  0
VERTEX
  5
106B
  8
0
 10
73.44671424064776
 20
-68.69763943678913
 30
-77.0026151006402
 70
   192
  0
VERTEX
  5
106C
  8
0
 10
80.35740748131053
 20
-2.490627402584046
 30
-87.30444371056129
 70
   192
  0
VERTEX
  5
106D
  8
0
 10
0.0
 20
0.0
 30
0.0
 70
   128
 71
     1
 72
     2
 73
     3
  0
VERTEX
  5
106E
  8
0
 10
0.0
 20
0.0
 30
0.0
 70
   128
 71
     4
 72
     5
 73
     6
  0
VERTEX
  5
106F
  8
0
 10
0.0
 20
0.0
 30
0.0
 70
   128
 71
     7
 72
     8
 73
     9
  0
VERTEX
  5
1070
  8
0
 10
0.0
 20
0.0
 30
0.0
 70
   128
 71
     9
 72
    10
 73
     7
  0
VERTEX
  5
1071
  8
0
 10
0.0
 20
0.0
 30
0.0
 70
   128
 71
    10
 72
    11
 73
     7
  0
VERTEX
  5
1072
  8
0
 10
0.0
 20
0.0
 30
0.0
 70
   128
 71
    12
 72
    13
 73
     6
  0
VERTEX
  5
1073
  8
0
 10
0.0
 20
0.0
 30
0.0
 70
   128
 71
     5
 72
    12
 73
     6
  0
VERTEX
  5
1074
  8
0
 10
0.0
 20
0.0
 30
0.0
 70
   128
 71
     7
 72
    11
 73
    13
  0
VERTEX
  5
1075
  8
0
 10
0.0
 20
0.0
 30
0.0
 70
   128
 71
    14
 72
     7
 73
    13
  0
VERTEX
  5
1076
  8
0
 10
0.0
 20
0.0
 30
0.0
 70
   128
 71
     6
 72
     1
 73
     3
  0
VERTEX
  5
1077
  8
0
 10
0.0
 20
0.0
 30
0.0
 70
   128
 71
     4
 72
     6
 73
     3
  0
VERTEX
  5
1078
  8
0
 10
0.0
 20
0.0
 30
0.0
 70
   128
 71
    14
 72
    13
 73
    12
  0
SEQEND
  5
16E5
  8
0
  0
POLYLINE
  5
1079
  8
0
 66
     1
 10
0.0
 20
0.0
 30
0.0
 70
    64
 71
    11
 72
     9
  0
VERTEX
  5
107A
  8
0
 10
-128.9410488151357
 20
-64.45778697733819
 30
119.0383681277201
 70
   192
  0
VERTEX
  5
107B
  8
0
 10
-137.6370560072238
 20
-2.582480697119763
 30
127.7343753198082
 70
   192
  0
VERTEX
  5
107C
  8
0
 10
-137.3046956220817
 20
-2.490758414471561
 30
130.3580359066268
 70
   192
  0
VERTEX
  5
107D
  8
0
 10
-136.3315971443191
 20
-2.434480813374717
 30
132.7303193669404
 70
   192
  0
VERTEX
  5
107E
  8
0
 10
-134.771674418794
 20
-2.41517515674087
 30
134.771674418794
 70
   192
  0
VERTEX
  5
107F
  8
0
 10
-127.5512854015357
 20
-64.9506664253208
 30
123.9351510422813
 70
   192
  0
VERTEX
  5
1080
  8
0
 10
-132.7307464092084
 20
-2.434577286955771
 30
136.3318565472481
 70
   192
  0
VERTEX
  5
1081
  8
0
 10
-127.7343753198082
 20
-2.582480697119805
 30
137.637056007224
 70
   192
  0
VERTEX
  5
1082
  8
0
 10
-119.03836812772
 20
-64.45778697733817
 30
128.9410488151358
 70
   192
  0
VERTEX
  5
1083
  8
0
 10
-123.9351510422811
 20
-64.9506664253208
 30
127.5512854015359
 70
   192
  0
VERTEX
  5
1084
  8
0
 10
-130.3574074811389
 20
-2.490627402598752
 30
137.3044437106043
 70
   192
  0
VERTEX
  5
1085
  8
0
 10
0.0
 20
0.0
 30
0.0
 70
   128
 71
     1
 72
     2
 73
     3
  0
VERTEX
  5
1086
  8
0
 10
0.0
 20
0.0
 30
0.0
 70
   128
 71
     4
 72
     5
 73
     6
  0
VERTEX
  5
1087
  8
0
 10
0.0
 20
0.0
 30
0.0
 70
   128
 71
     6
 72
     5
 73
     7
  0
VERTEX
  5
1088
  8
0
 10
0.0
 20
0.0
 30
0.0
 70
   128
 71
     8
 72
     9
 73
    10
  0
VERTEX
  5
1089
  8
0
 10
0.0
 20
0.0
 30
0.0
 70
   128
 71
    11
 72
     8
 73
    10
  0
VERTEX
  5
108A
  8
0
 10
0.0
 20
0.0
 30
0.0
 70
   128
 71
     6
 72
     1
 73
     3
  0
VERTEX
  5
108B
  8
0
 10
0.0
 20
0.0
 30
0.0
 70
   128
 71
     4
 72
     6
 73
     3
  0
VERTEX
  5
108C
  8
0
 10
0.0
 20
0.0
 30
0.0
 70
   128
 71
    10
 72
     6
 73
     7
  0
VERTEX
  5
108D
  8
0
 10
0.0
 20
0.0
 30
0.0
 70
   128
 71
    11
 72
    10
 73
     7
  0
SEQEND
  5
16E6
  8
0
  0
POLYLINE
  5
108E
  8
0
 66
     1
 10
0.0
 20
0.0
 30
0.0
 70
    64
 71
    11
 72
     9
  0
VERTEX
  5
108F
  8
0
 10
68.80968244966368
 20
-66.08497012692503
 30
128.7123631370794
 70
   192
  0
VERTEX
  5
1090
  8
0
 10
77.73437531980834
 20
-2.582480697119792
 30
137.637056007224
 70
   192
  0
VERTEX
  5
1091
  8
0
 10
80.35803590652256
 20
-2.490758414480156
 30
137.3046956221083
 70
   192
  0
VERTEX
  5
1092
  8
0
 10
82.73031936685926
 20
-2.434480813370094
 30
136.3315971443668
 70
   192
  0
VERTEX
  5
1093
  8
0
 10
84.7716744187942
 20
-2.415175156740875
 30
134.771674418794
 70
   192
  0
VERTEX
  5
1094
  8
0
 10
73.70646536422487
 20
-66.57784957490759
 30
127.3225997234793
 70
   192
  0
VERTEX
  5
1095
  8
0
 10
86.33185654721288
 20
-2.434577286959232
 30
132.7307464092681
 70
   192
  0
VERTEX
  5
1096
  8
0
 10
87.637056007224
 20
-2.582480697119805
 30
127.7343753198082
 70
   192
  0
VERTEX
  5
1097
  8
0
 10
78.71236313707934
 20
-66.08497012692497
 30
118.8096824496634
 70
   192
  0
VERTEX
  5
1098
  8
0
 10
77.32259972347941
 20
-66.57784957490759
 30
123.7064653642248
 70
   192
  0
VERTEX
  5
1099
  8
0
 10
87.30444371058563
 20
-2.49062740259235
 30
130.3574074812135
 70
   192
  0
VERTEX
  5
109A
  8
0
 10
0.0
 20
0.0
 30
0.0
 70
   128
 71
     1
 72
     2
 73
     3
  0
VERTEX
  5
109B
  8
0
 10
0.0
 20
0.0
 30
0.0
 70
   128
 71
     4
 72
     5
 73
     6
  0
VERTEX
  5
109C
  8
0
 10
0.0
 20
0.0
 30
0.0
 70
   128
 71
     6
 72
     5
 73
     7
  0
VERTEX
  5
109D
  8
0
 10
0.0
 20
0.0
 30
0.0
 70
   128
 71
     8
 72
     9
 73
    10
  0
VERTEX
  5
109E
  8
0
 10
0.0
 20
0.0
 30
0.0
 70
   128
 71
    11
 72
     8
 73
    10
  0
VERTEX
  5
109F
  8
0
 10
0.0
 20
0.0
 30
0.0
 70
   128
 71
     6
 72
     1
 73
     3
  0
VERTEX
  5
10A0
  8
0
 10
0.0
 20
0.0
 30
0.0
 70
   128
 71
     4
 72
     6
 73
     3
  0
VERTEX
  5
10A1
  8
0
 10
0.0
 20
0.0
 30
0.0
 70
   128
 71
    10
 72
     6
 73
     7
  0
VERTEX
  5
10A2
  8
0
 10
0.0
 20
0.0
 30
0.0
 70
   128
 71
    11
 72
    10
 73
     7
  0
SEQEND
  5
16E7
  8
0
  0
POLYLINE
  5
10A3
  8
0
 66
     1
 10
0.0
 20
0.0
 30
0.0
 70
    64
 71
     9
 72
     7
  0
VERTEX
  5
10A4
  8
0
 10
-127.3225997234793
 20
-66.57784957490759
 30
-73.70646536422475
 70
   192
  0
VERTEX
  5
10A5
  8
0
 10
-128.7123631370793
 20
-66.08497012692494
 30
-68.80968244966363
 70
   192
  0
VERTEX
  5
10A6
  8
0
 10
-127.0542268757457
 20
-70.3512724946435
 30
-68.928617337316
 70
   192
  0
VERTEX
  5
10A7
  8
0
 10
-123.7064653642248
 20
-66.57784957490759
 30
-77.32259972347931
 70
   192
  0
VERTEX
  5
10A8
  8
0
 10
-123.6676303458093
 20
-73.43137397778841
 30
-69.02261764796403
 70
   192
  0
VERTEX
  5
10A9
  8
0
 10
-119.2625700304312
 20
-74.67953446487002
 30
-69.0719763130549
 70
   192
  0
VERTEX
  5
10AA
  8
0
 10
-119.1796054723664
 20
-73.48713049190556
 30
-73.55632667999512
 70
   192
  0
VERTEX
  5
10AB
  8
0
 10
-119.0169664920609
 20
-70.40068864749772
 30
-77.01833965935938
 70
   192
  0
VERTEX
  5
10AC
  8
0
 10
-118.8096824496636
 20
-66.084970126925
 30
-78.71236313707931
 70
   192
  0
VERTEX
  5
10AD
  8
0
 10
0.0
 20
0.0
 30
0.0
 70
   128
 71
     1
 72
     2
 73
     3
  0
VERTEX
  5
10AE
  8
0
 10
0.0
 20
0.0
 30
0.0
 70
   128
 71
     4
 72
     1
 73
     3
  0
VERTEX
  5
10AF
  8
0
 10
0.0
 20
0.0
 30
0.0
 70
   128
 71
     4
 72
     3
 73
     5
  0
VERTEX
  5
10B0
  8
0
 10
0.0
 20
0.0
 30
0.0
 70
   128
 71
     5
 72
     6
 73
     7
  0
VERTEX
  5
10B1
  8
0
 10
0.0
 20
0.0
 30
0.0
 70
   128
 71
     7
 72
     8
 73
     5
  0
VERTEX
  5
10B2
  8
0
 10
0.0
 20
0.0
 30
0.0
 70
   128
 71
     9
 72
     4
 73
     5
  0
VERTEX
  5
10B3
  8
0
 10
0.0
 20
0.0
 30
0.0
 70
   128
 71
     8
 72
     9
 73
     5
  0
SEQEND
  5
16E8
  8
0
  0
POLYLINE
  5
10B4
  8
0
 66
     1
 10
0.0
 20
0.0
 30
0.0
 70
    64
 71
    12
 72
    10
  0
VERTEX
  5
10B5
  8
0
 10
-119.2625700304312
 20
-74.67953446487009
 30
-69.0719763130549
 70
   192
  0
VERTEX
  5
10B6
  8
0
 10
-119.1963489995464
 20
-75.64704076343995
 30
-6.238600131025665
 70
   192
  0
VERTEX
  5
10B7
  8
0
 10
-119.2391541912788
 20
-74.98784163312867
 30
56.47641189022499
 70
   192
  0
VERTEX
  5
10B8
  8
0
 10
-119.4084392233128
 20
-73.05235131528323
 30
119.4084392233128
 70
   192
  0
VERTEX
  5
10B9
  8
0
 10
-123.8480528039314
 20
-71.82825859920243
 30
119.3395962150005
 70
   192
  0
VERTEX
  5
10BA
  8
0
 10
-127.2673730120946
 20
-68.74541258122397
 30
119.2068527554653
 70
   192
  0
VERTEX
  5
10BB
  8
0
 10
-128.9410488151358
 20
-64.4577869773382
 30
119.0383681277202
 70
   192
  0
VERTEX
  5
10BC
  8
0
 10
-128.6696193506701
 20
-66.38910797055986
 30
56.42913323110914
 70
   192
  0
VERTEX
  5
10BD
  8
0
 10
-128.5763895892186
 20
-67.05247219241818
 30
-6.190394263033981
 70
   192
  0
VERTEX
  5
10BE
  8
0
 10
-128.7123631370793
 20
-66.08497012692501
 30
-68.80968244966363
 70
   192
  0
VERTEX
  5
10BF
  8
0
 10
-127.0542268757457
 20
-70.3512724946435
 30
-68.928617337316
 70
   192
  0
VERTEX
  5
10C0
  8
0
 10
-123.6676303458093
 20
-73.43137397778841
 30
-69.02261764796403
 70
   192
  0
VERTEX
  5
10C1
  8
0
 10
0.0
 20
0.0
 30
0.0
 70
   128
 71
     8
 72
     7
 73
     6
  0
VERTEX
  5
10C2
  8
0
 10
0.0
 20
0.0
 30
0.0
 70
   128
 71
     6
 72
    11
 73
     9
  0
VERTEX
  5
10C3
  8
0
 10
0.0
 20
0.0
 30
0.0
 70
   128
 71
     6
 72
     9
 73
     8
  0
VERTEX
  5
10C4
  8
0
 10
0.0
 20
0.0
 30
0.0
 70
   128
 71
    11
 72
    10
 73
     9
  0
VERTEX
  5
10C5
  8
0
 10
0.0
 20
0.0
 30
0.0
 70
   128
 71
     6
 72
     5
 73
    12
  0
VERTEX
  5
10C6
  8
0
 10
0.0
 20
0.0
 30
0.0
 70
   128
 71
     6
 72
    12
 73
    11
  0
VERTEX
  5
10C7
  8
0
 10
0.0
 20
0.0
 30
0.0
 70
   128
 71
     2
 72
     1
 73
    12
  0
VERTEX
  5
10C8
  8
0
 10
0.0
 20
0.0
 30
0.0
 70
   128
 71
    12
 72
     5
 73
     3
  0
VERTEX
  5
10C9
  8
0
 10
0.0
 20
0.0
 30
0.0
 70
   128
 71
    12
 72
     3
 73
     2
  0
VERTEX
  5
10CA
  8
0
 10
0.0
 20
0.0
 30
0.0
 70
   128
 71
     5
 72
     4
 73
     3
  0
SEQEND
  5
16E9
  8
0
  0
POLYLINE
  5
10CB
  8
0
 66
     1
 10
0.0
 20
0.0
 30
0.0
 70
    64
 71
    15
 72
    13
  0
VERTEX
  5
10CC
  8
0
 10
-118.8096824496636
 20
-66.084970126925
 30
-78.7123631370793
 70
   192
  0
VERTEX
  5
10CD
  8
0
 10
-56.38523758450238
 20
-68.6327452613079
 30
-78.35429669305917
 70
   192
  0
VERTEX
  5
10CE
  8
0
 10
6.074368388390958
 20
-69.68638295534556
 30
-78.20621757206519
 70
   192
  0
VERTEX
  5
10CF
  8
0
 10
68.5120712992634
 20
-68.2025834955266
 30
-78.41475198667911
 70
   192
  0
VERTEX
  5
10D0
  8
0
 10
68.68055592700847
 20
-72.49020909941244
 30
-76.74107618363801
 70
   192
  0
VERTEX
  5
10D1
  8
0
 10
68.81329938654366
 20
-75.57305511739094
 30
-73.32175597547474
 70
   192
  0
VERTEX
  5
10D2
  8
0
 10
68.882142394856
 20
-76.7971478334717
 30
-68.8821423948561
 70
   192
  0
VERTEX
  5
10D3
  8
0
 10
45.78683312715327
 20
-77.56954295153686
 30
-68.83945396547938
 70
   192
  0
VERTEX
  5
10D4
  8
0
 10
22.94850690149436
 20
-78.10019656046143
 30
-68.82534979351297
 70
   192
  0
VERTEX
  5
10D5
  8
0
 10
0.0000000000000178
 20
-78.2954443674686
 30
-68.8248590161732
 70
   192
  0
VERTEX
  5
10D6
  8
0
 10
-39.37478917513973
 20
-77.74651937177876
 30
-68.83315714337013
 70
   192
  0
VERTEX
  5
10D7
  8
0
 10
-79.37628012677798
 20
-76.3934822874162
 30
-68.91208561659995
 70
   192
  0
VERTEX
  5
10D8
  8
0
 10
-119.2625700304312
 20
-74.67953446487002
 30
-69.0719763130549
 70
   192
  0
VERTEX
  5
10D9
  8
0
 10
-119.1796054723664
 20
-73.48713049190556
 30
-73.55632667999512
 70
   192
  0
VERTEX
  5
10DA
  8
0
 10
-119.0169664920609
 20
-70.40068864749772
 30
-77.01833965935938
 70
   192
  0
VERTEX
  5
10DB
  8
0
 10
0.0
 20
0.0
 30
0.0
 70
   128
 71
     8
 72
     7
 73
     6
  0
VERTEX
  5
10DC
  8
0
 10
0.0
 20
0.0
 30
0.0
 70
   128
 71
     6
 72
     9
 73
     8
  0
VERTEX
  5
10DD
  8
0
 10
0.0
 20
0.0
 30
0.0
 70
   128
 71
     6
 72
    10
 73
     9
  0
VERTEX
  5
10DE
  8
0
 10
0.0
 20
0.0
 30
0.0
 70
   128
 71
     6
 72
    14
 73
    11
  0
VERTEX
  5
10DF
  8
0
 10
0.0
 20
0.0
 30
0.0
 70
   128
 71
     6
 72
    11
 73
    10
  0
VERTEX
  5
10E0
  8
0
 10
0.0
 20
0.0
 30
0.0
 70
   128
 71
    14
 72
    12
 73
    11
  0
VERTEX
  5
10E1
  8
0
 10
0.0
 20
0.0
 30
0.0
 70
   128
 71
    14
 72
    13
 73
    12
  0
VERTEX
  5
10E2
  8
0
 10
0.0
 20
0.0
 30
0.0
 70
   128
 71
     6
 72
     5
 73
    15
  0
VERTEX
  5
10E3
  8
0
 10
0.0
 20
0.0
 30
0.0
 70
   128
 71
     6
 72
    15
 73
    14
  0
VERTEX
  5
10E4
  8
0
 10
0.0
 20
0.0
 30
0.0
 70
   128
 71
     2
 72
     1
 73
    15
  0
VERTEX
  5
10E5
  8
0
 10
0.0
 20
0.0
 30
0.0
 70
   128
 71
    15
 72
     5
 73
     3
  0
VERTEX
  5
10E6
  8
0
 10
0.0
 20
0.0
 30
0.0
 70
   128
 71
    15
 72
     3
 73
     2
  0
VERTEX
  5
10E7
  8
0
 10
0.0
 20
0.0
 30
0.0
 70
   128
 71
     5
 72
     4
 73
     3
  0
SEQEND
  5
16EA
  8
0
  0
POLYLINE
  5
10E8
  8
0
 66
     1
 10
0.0
 20
0.0
 30
0.0
 70
    64
 71
     9
 72
     7
  0
VERTEX
  5
10E9
  8
0
 10
-128.9410488151357
 20
-64.45778697733819
 30
119.0383681277202
 70
   192
  0
VERTEX
  5
10EA
  8
0
 10
-127.5512854015357
 20
-64.9506664253208
 30
123.9351510422813
 70
   192
  0
VERTEX
  5
10EB
  8
0
 10
-123.9351510422811
 20
-64.9506664253208
 30
127.5512854015359
 70
   192
  0
VERTEX
  5
10EC
  8
0
 10
-127.2673730120946
 20
-68.74541258122397
 30
119.2068527554653
 70
   192
  0
VERTEX
  5
10ED
  8
0
 10
-123.8480528039314
 20
-71.82825859920243
 30
119.3395962150005
 70
   192
  0
VERTEX
  5
10EE
  8
0
 10
-119.03836812772
 20
-64.45778697733816
 30
128.9410488151359
 70
   192
  0
VERTEX
  5
10EF
  8
0
 10
-119.2068527554651
 20
-68.74541258122402
 30
127.2673730120948
 70
   192
  0
VERTEX
  5
10F0
  8
0
 10
-119.3395962150003
 20
-71.8282585992025
 30
123.8480528039315
 70
   192
  0
VERTEX
  5
10F1
  8
0
 10
-119.4084392233128
 20
-73.05235131528323
 30
119.4084392233128
 70
   192
  0
VERTEX
  5
10F2
  8
0
 10
0.0
 20
0.0
 30
0.0
 70
   128
 71
     1
 72
     2
 73
     3
  0
VERTEX
  5
10F3
  8
0
 10
0.0
 20
0.0
 30
0.0
 70
   128
 71
     4
 72
     1
 73
     3
  0
VERTEX
  5
10F4
  8
0
 10
0.0
 20
0.0
 30
0.0
 70
   128
 71
     5
 72
     4
 73
     3
  0
VERTEX
  5
10F5
  8
0
 10
0.0
 20
0.0
 30
0.0
 70
   128
 71
     3
 72
     6
 73
     7
  0
VERTEX
  5
10F6
  8
0
 10
0.0
 20
0.0
 30
0.0
 70
   128
 71
     5
 72
     3
 73
     7
  0
VERTEX
  5
10F7
  8
0
 10
0.0
 20
0.0
 30
0.0
 70
   128
 71
     7
 72
     8
 73
     5
  0
VERTEX
  5
10F8
  8
0
 10
0.0
 20
0.0
 30
0.0
 70
   128
 71
     8
 72
     9
 73
     5
  0
SEQEND
  5
16EB
  8
0
  0
POLYLINE
  5
10F9
  8
0
 66
     1
 10
0.0
 20
0.0
 30
0.0
 70
    64
 71
     9
 72
     7
  0
VERTEX
  5
10FA
  8
0
 10
68.53387642325414
 20
-68.20558527621209
 30
-78.41430564209071
 70
   192
  0
VERTEX
  5
10FB
  8
0
 10
68.51207129926338
 20
-68.20258349552665
 30
-78.41475198667911
 70
   192
  0
VERTEX
  5
10FC
  8
0
 10
68.68055592700847
 20
-72.49020909941244
 30
-76.74107618363801
 70
   192
  0
VERTEX
  5
10FD
  8
0
 10
68.55568144156129
 20
-68.20858029699947
 30
-78.41381130401209
 70
   192
  0
VERTEX
  5
10FE
  8
0
 10
68.81329938654366
 20
-75.57305511739094
 30
-73.32175597547474
 70
   192
  0
VERTEX
  5
10FF
  8
0
 10
68.84295389038088
 20
-75.57380144952752
 30
-73.3184464585919
 70
   192
  0
VERTEX
  5
1100
  8
0
 10
68.73368807342612
 20
-72.49455835403012
 30
-76.73681285205934
 70
   192
  0
VERTEX
  5
1101
  8
0
 10
68.88214239485603
 20
-76.79714783347173
 30
-68.8821423948561
 70
   192
  0
VERTEX
  5
1102
  8
0
 10
68.57748624850166
 20
-68.21156854337268
 30
-78.41326897483917
 70
   192
  0
VERTEX
  5
1103
  8
0
 10
0.0
 20
0.0
 30
0.0
 70
   128
 71
     1
 72
     2
 73
     3
  0
VERTEX
  5
1104
  8
0
 10
0.0
 20
0.0
 30
0.0
 70
   128
 71
     3
 72
     4
 73
     1
  0
VERTEX
  5
1105
  8
0
 10
0.0
 20
0.0
 30
0.0
 70
   128
 71
     5
 72
     6
 73
     7
  0
VERTEX
  5
1106
  8
0
 10
0.0
 20
0.0
 30
0.0
 70
   128
 71
     5
 72
     8
 73
     6
  0
VERTEX
  5
1107
  8
0
 10
0.0
 20
0.0
 30
0.0
 70
   128
 71
     9
 72
     4
 73
     3
  0
VERTEX
  5
1108
  8
0
 10
0.0
 20
0.0
 30
0.0
 70
   128
 71
     7
 72
     9
 73
     3
  0
VERTEX
  5
1109
  8
0
 10
0.0
 20
0.0
 30
0.0
 70
   128
 71
     3
 72
     5
 73
     7
  0
SEQEND
  5
16EC
  8
0
  0
POLYLINE
  5
110A
  8
0
 66
     1
 10
0.0
 20
0.0
 30
0.0
 70
    64
 71
    15
 72
    13
  0
VERTEX
  5
110B
  8
0
 10
-119.4084392233128
 20
-73.0523513152833
 30
119.4084392233128
 70
   192
  0
VERTEX
  5
110C
  8
0
 10
-79.37053290285962
 20
-74.39348836644007
 30
119.2857430646601
 70
   192
  0
VERTEX
  5
110D
  8
0
 10
-39.78116397933681
 20
-75.31586240821284
 30
119.2165661903692
 70
   192
  0
VERTEX
  5
110E
  8
0
 10
0.0000000000133418
 20
-75.6556118939825
 30
119.1958632754712
 70
   192
  0
VERTEX
  5
110F
  8
0
 10
23.00361081258369
 20
-75.54001685902618
 30
119.2022501497731
 70
   192
  0
VERTEX
  5
1110
  8
0
 10
46.00227860455578
 20
-75.20515864224326
 30
119.2238913608734
 70
   192
  0
VERTEX
  5
1111
  8
0
 10
69.0719763130549
 20
-74.67953446487004
 30
119.262570030431
 70
   192
  0
VERTEX
  5
1112
  8
0
 10
69.02261764796403
 20
-73.43137397778847
 30
123.6676303458092
 70
   192
  0
VERTEX
  5
1113
  8
0
 10
68.928617337316
 20
-70.35127249464354
 30
127.0542268757457
 70
   192
  0
VERTEX
  5
1114
  8
0
 10
68.80968244966371
 20
-66.084970126925
 30
128.7123631370792
 70
   192
  0
VERTEX
  5
1115
  8
0
 10
6.17614225811377
 20
-67.05251127840482
 30
128.5763840960413
 70
   192
  0
VERTEX
  5
1116
  8
0
 10
-56.43909461788319
 20
-66.38888503061541
 30
128.669650682836
 70
   192
  0
VERTEX
  5
1117
  8
0
 10
-119.03836812772
 20
-64.45778697733819
 30
128.9410488151359
 70
   192
  0
VERTEX
  5
1118
  8
0
 10
-119.2068527554651
 20
-68.74541258122402
 30
127.2673730120948
 70
   192
  0
VERTEX
  5
1119
  8
0
 10
-119.3395962150003
 20
-71.8282585992025
 30
123.8480528039315
 70
   192
  0
VERTEX
  5
111A
  8
0
 10
0.0
 20
0.0
 30
0.0
 70
   128
 71
    11
 72
    10
 73
     9
  0
VERTEX
  5
111B
  8
0
 10
0.0
 20
0.0
 30
0.0
 70
   128
 71
     9
 72
    14
 73
    12
  0
VERTEX
  5
111C
  8
0
 10
0.0
 20
0.0
 30
0.0
 70
   128
 71
     9
 72
    12
 73
    11
  0
VERTEX
  5
111D
  8
0
 10
0.0
 20
0.0
 30
0.0
 70
   128
 71
    14
 72
    13
 73
    12
  0
VERTEX
  5
111E
  8
0
 10
0.0
 20
0.0
 30
0.0
 70
   128
 71
     9
 72
     8
 73
    15
  0
VERTEX
  5
111F
  8
0
 10
0.0
 20
0.0
 30
0.0
 70
   128
 71
     9
 72
    15
 73
    14
  0
VERTEX
  5
1120
  8
0
 10
0.0
 20
0.0
 30
0.0
 70
   128
 71
     2
 72
     1
 73
    15
  0
VERTEX
  5
1121
  8
0
 10
0.0
 20
0.0
 30
0.0
 70
   128
 71
    15
 72
     3
 73
     2
  0
VERTEX
  5
1122
  8
0
 10
0.0
 20
0.0
 30
0.0
 70
   128
 71
    15
 72
     8
 73
     4
  0
VERTEX
  5
1123
  8
0
 10
0.0
 20
0.0
 30
0.0
 70
   128
 71
    15
 72
     4
 73
     3
  0
VERTEX
  5
1124
  8
0
 10
0.0
 20
0.0
 30
0.0
 70
   128
 71
     8
 72
     5
 73
     4
  0
VERTEX
  5
1125
  8
0
 10
0.0
 20
0.0
 30
0.0
 70
   128
 71
     8
 72
     6
 73
     5
  0
VERTEX
  5
1126
  8
0
 10
0.0
 20
0.0
 30
0.0
 70
   128
 71
     8
 72
     7
 73
     6
  0
SEQEND
  5
16ED
  8
0
  0
POLYLINE
  5
1127
  8
0
 66
     1
 10
0.0
 20
0.0
 30
0.0
 70
    64
 71
    12
 72
    10
  0
VERTEX
  5
1128
  8
0
 10
78.4147519866791
 20
-68.2025834955267
 30
-68.5120712992634
 70
   192
  0
VERTEX
  5
1129
  8
0
 10
78.206195025487
 20
-69.68654338258553
 30
-6.03922400372141
 70
   192
  0
VERTEX
  5
112A
  8
0
 10
78.35438799640765
 20
-68.63209560422642
 30
56.4046128617538
 70
   192
  0
VERTEX
  5
112B
  8
0
 10
78.71236313707941
 20
-66.084970126925
 30
118.8096824496636
 70
   192
  0
VERTEX
  5
112C
  8
0
 10
77.01833965935948
 20
-70.40068864749772
 30
119.0169664920609
 70
   192
  0
VERTEX
  5
112D
  8
0
 10
73.55632667999522
 20
-73.48713049190556
 30
119.1796054723664
 70
   192
  0
VERTEX
  5
112E
  8
0
 10
69.071976313055
 20
-74.67953446487009
 30
119.262570030431
 70
   192
  0
VERTEX
  5
112F
  8
0
 10
68.85589034917027
 20
-77.242372565121
 30
56.26184951987953
 70
   192
  0
VERTEX
  5
1130
  8
0
 10
68.82416783043719
 20
-78.28121366934829
 30
-6.127503972187172
 70
   192
  0
VERTEX
  5
1131
  8
0
 10
68.882142394856
 20
-76.79714783347174
 30
-68.88214239485602
 70
   192
  0
VERTEX
  5
1132
  8
0
 10
73.32175597547466
 20
-75.57305511739098
 30
-68.81329938654365
 70
   192
  0
VERTEX
  5
1133
  8
0
 10
76.74107618363796
 20
-72.49020909941251
 30
-68.68055592700846
 70
   192
  0
VERTEX
  5
1134
  8
0
 10
0.0
 20
0.0
 30
0.0
 70
   128
 71
     8
 72
     7
 73
     6
  0
VERTEX
  5
1135
  8
0
 10
0.0
 20
0.0
 30
0.0
 70
   128
 71
     6
 72
    11
 73
     9
  0
VERTEX
  5
1136
  8
0
 10
0.0
 20
0.0
 30
0.0
 70
   128
 71
     6
 72
     9
 73
     8
  0
VERTEX
  5
1137
  8
0
 10
0.0
 20
0.0
 30
0.0
 70
   128
 71
    11
 72
    10
 73
     9
  0
VERTEX
  5
1138
  8
0
 10
0.0
 20
0.0
 30
0.0
 70
   128
 71
     6
 72
     5
 73
    12
  0
VERTEX
  5
1139
  8
0
 10
0.0
 20
0.0
 30
0.0
 70
   128
 71
     6
 72
    12
 73
    11
  0
VERTEX
  5
113A
  8
0
 10
0.0
 20
0.0
 30
0.0
 70
   128
 71
     2
 72
     1
 73
    12
  0
VERTEX
  5
113B
  8
0
 10
0.0
 20
0.0
 30
0.0
 70
   128
 71
    12
 72
     5
 73
     3
  0
VERTEX
  5
113C
  8
0
 10
0.0
 20
0.0
 30
0.0
 70
   128
 71
    12
 72
     3
 73
     2
  0
VERTEX
  5
113D
  8
0
 10
0.0
 20
0.0
 30
0.0
 70
   128
 71
     5
 72
     4
 73
     3
  0
SEQEND
  5
16EE
  8
0
  0
POLYLINE
  5
113E
  8
0
 66
     1
 10
0.0
 20
0.0
 30
0.0
 70
    64
 71
     9
 72
     7
  0
VERTEX
  5
113F
  8
0
 10
73.55632667999522
 20
-73.48713049190556
 30
119.1796054723664
 70
   192
  0
VERTEX
  5
1140
  8
0
 10
69.0719763130549
 20
-74.67953446487004
 30
119.262570030431
 70
   192
  0
VERTEX
  5
1141
  8
0
 10
69.02261764796403
 20
-73.43137397778847
 30
123.6676303458092
 70
   192
  0
VERTEX
  5
1142
  8
0
 10
68.928617337316
 20
-70.35127249464354
 30
127.0542268757457
 70
   192
  0
VERTEX
  5
1143
  8
0
 10
68.80968244966363
 20
-66.08497012692501
 30
128.7123631370793
 70
   192
  0
VERTEX
  5
1144
  8
0
 10
77.32259972347941
 20
-66.57784957490759
 30
123.7064653642248
 70
   192
  0
VERTEX
  5
1145
  8
0
 10
78.71236313707942
 20
-66.08497012692494
 30
118.8096824496636
 70
   192
  0
VERTEX
  5
1146
  8
0
 10
77.01833965935948
 20
-70.40068864749772
 30
119.0169664920609
 70
   192
  0
VERTEX
  5
1147
  8
0
 10
73.70646536422487
 20
-66.57784957490759
 30
127.3225997234793
 70
   192
  0
VERTEX
  5
1148
  8
0
 10
0.0
 20
0.0
 30
0.0
 70
   128
 71
     1
 72
     2
 73
     3
  0
VERTEX
  5
1149
  8
0
 10
0.0
 20
0.0
 30
0.0
 70
   128
 71
     3
 72
     4
 73
     1
  0
VERTEX
  5
114A
  8
0
 10
0.0
 20
0.0
 30
0.0
 70
   128
 71
     1
 72
     4
 73
     5
  0
VERTEX
  5
114B
  8
0
 10
0.0
 20
0.0
 30
0.0
 70
   128
 71
     6
 72
     7
 73
     8
  0
VERTEX
  5
114C
  8
0
 10
0.0
 20
0.0
 30
0.0
 70
   128
 71
     8
 72
     1
 73
     5
  0
VERTEX
  5
114D
  8
0
 10
0.0
 20
0.0
 30
0.0
 70
   128
 71
     6
 72
     8
 73
     5
  0
VERTEX
  5
114E
  8
0
 10
0.0
 20
0.0
 30
0.0
 70
   128
 71
     9
 72
     6
 73
     5
  0
SEQEND
  5
16EF
  8
0
  0
POLYLINE
  5
114F
  8
0
 66
     1
 10
0.0
 20
0.0
 30
0.0
 70
    64
 71
    12
 72
    10
  0
VERTEX
  5
1150
  8
0
 10
-119.8895316475832
 20
-86.03453526709269
 30
119.8895316475833
 70
   192
  0
VERTEX
  5
1151
  8
0
 10
-120.4928415570569
 20
-86.00439282522915
 30
119.8852502066384
 70
   192
  0
VERTEX
  5
1152
  8
0
 10
-121.0951481555149
 20
-85.95842727818639
 30
119.8803845775595
 70
   192
  0
VERTEX
  5
1153
  8
0
 10
-121.6960359655528
 20
-85.89667033348056
 30
119.8749381167083
 70
   192
  0
VERTEX
  5
1154
  8
0
 10
-121.7289301130953
 20
-87.79061058280456
 30
57.36705565475424
 70
   192
  0
VERTEX
  5
1155
  8
0
 10
-121.7406462266138
 20
-88.4575077737335
 30
-5.36094158953226
 70
   192
  0
VERTEX
  5
1156
  8
0
 10
-121.723887416681
 20
-87.50018733435941
 30
-69.4017318020764
 70
   192
  0
VERTEX
  5
1157
  8
0
 10
-121.1012462801202
 20
-87.57102832280596
 30
-69.40591753793807
 70
   192
  0
VERTEX
  5
1158
  8
0
 10
-120.4769039370339
 20
-87.62488534433494
 30
-69.40966064199979
 70
   192
  0
VERTEX
  5
1159
  8
0
 10
-119.851323885429
 20
-87.6617184166795
 30
-69.41295833546359
 70
   192
  0
VERTEX
  5
115A
  8
0
 10
-119.8757701610905
 20
-88.62922048217428
 30
-6.25308634016885
 70
   192
  0
VERTEX
  5
115B
  8
0
 10
-119.8542611483798
 20
-87.96585626031363
 30
56.9453013734006
 70
   192
  0
VERTEX
  5
115C
  8
0
 10
0.0
 20
0.0
 30
0.0
 70
   128
 71
     6
 72
     7
 73
     8
  0
VERTEX
  5
115D
  8
0
 10
0.0
 20
0.0
 30
0.0
 70
   128
 71
     9
 72
    11
 73
     6
  0
VERTEX
  5
115E
  8
0
 10
0.0
 20
0.0
 30
0.0
 70
   128
 71
     8
 72
     9
 73
     6
  0
VERTEX
  5
115F
  8
0
 10
0.0
 20
0.0
 30
0.0
 70
   128
 71
     9
 72
    10
 73
    11
  0
VERTEX
  5
1160
  8
0
 10
0.0
 20
0.0
 30
0.0
 70
   128
 71
    12
 72
     5
 73
     6
  0
VERTEX
  5
1161
  8
0
 10
0.0
 20
0.0
 30
0.0
 70
   128
 71
    11
 72
    12
 73
     6
  0
VERTEX
  5
1162
  8
0
 10
0.0
 20
0.0
 30
0.0
 70
   128
 71
    12
 72
     1
 73
     2
  0
VERTEX
  5
1163
  8
0
 10
0.0
 20
0.0
 30
0.0
 70
   128
 71
     3
 72
     5
 73
    12
  0
VERTEX
  5
1164
  8
0
 10
0.0
 20
0.0
 30
0.0
 70
   128
 71
     2
 72
     3
 73
    12
  0
VERTEX
  5
1165
  8
0
 10
0.0
 20
0.0
 30
0.0
 70
   128
 71
     3
 72
     4
 73
     5
  0
SEQEND
  5
16F0
  8
0
  0
POLYLINE
  5
1166
  8
0
 66
     1
 10
0.0
 20
0.0
 30
0.0
 70
    64
 71
    12
 72
    10
  0
VERTEX
  5
1167
  8
0
 10
-121.6934245738459
 20
-85.86682198968782
 30
120.4791124076545
 70
   192
  0
VERTEX
  5
1168
  8
0
 10
-121.6960359655528
 20
-85.89667033348061
 30
119.8749381167082
 70
   192
  0
VERTEX
  5
1169
  8
0
 10
-121.0951481555149
 20
-85.95842727818639
 30
119.8803845775595
 70
   192
  0
VERTEX
  5
116A
  8
0
 10
-121.0822892791946
 20
-85.82114911387137
 30
121.6894287149813
 70
   192
  0
VERTEX
  5
116B
  8
0
 10
-121.6894287149813
 20
-85.82114911387134
 30
121.0822892791946
 70
   192
  0
VERTEX
  5
116C
  8
0
 10
-121.6840511552704
 20
-85.75968332511403
 30
121.6840511552704
 70
   192
  0
VERTEX
  5
116D
  8
0
 10
-120.4928415570569
 20
-86.00439282522915
 30
119.8852502066384
 70
   192
  0
VERTEX
  5
116E
  8
0
 10
-120.4791124076545
 20
-85.86682198968785
 30
121.6934245738459
 70
   192
  0
VERTEX
  5
116F
  8
0
 10
-119.8803845775593
 20
-85.9584272781864
 30
121.0951481555149
 70
   192
  0
VERTEX
  5
1170
  8
0
 10
-119.8749381167081
 20
-85.89667033348059
 30
121.6960359655528
 70
   192
  0
VERTEX
  5
1171
  8
0
 10
-119.8852502066382
 20
-86.00439282522916
 30
120.492841557057
 70
   192
  0
VERTEX
  5
1172
  8
0
 10
-119.8895316475832
 20
-86.03453526709269
 30
119.8895316475833
 70
   192
  0
VERTEX
  5
1173
  8
0
 10
0.0
 20
0.0
 30
0.0
 70
   128
 71
     1
 72
     2
 73
     3
  0
VERTEX
  5
1174
  8
0
 10
0.0
 20
0.0
 30
0.0
 70
   128
 71
     3
 72
     4
 73
     5
  0
VERTEX
  5
1175
  8
0
 10
0.0
 20
0.0
 30
0.0
 70
   128
 71
     3
 72
     5
 73
     1
  0
VERTEX
  5
1176
  8
0
 10
0.0
 20
0.0
 30
0.0
 70
   128
 71
     4
 72
     6
 73
     5
  0
VERTEX
  5
1177
  8
0
 10
0.0
 20
0.0
 30
0.0
 70
   128
 71
     4
 72
     3
 73
     7
  0
VERTEX
  5
1178
  8
0
 10
0.0
 20
0.0
 30
0.0
 70
   128
 71
     4
 72
     7
 73
     8
  0
VERTEX
  5
1179
  8
0
 10
0.0
 20
0.0
 30
0.0
 70
   128
 71
     9
 72
    10
 73
     8
  0
VERTEX
  5
117A
  8
0
 10
0.0
 20
0.0
 30
0.0
 70
   128
 71
     8
 72
    11
 73
     9
  0
VERTEX
  5
117B
  8
0
 10
0.0
 20
0.0
 30
0.0
 70
   128
 71
     8
 72
     7
 73
    12
  0
VERTEX
  5
117C
  8
0
 10
0.0
 20
0.0
 30
0.0
 70
   128
 71
     8
 72
    12
 73
    11
  0
SEQEND
  5
16F1
  8
0
  0
POLYLINE
  5
117D
  8
0
 66
     1
 10
0.0
 20
0.0
 30
0.0
 70
    64
 71
    12
 72
    10
  0
VERTEX
  5
117E
  8
0
 10
-121.7159142037472
 20
-87.409053093506
 30
-70.94172663097558
 70
   192
  0
VERTEX
  5
117F
  8
0
 10
-121.7085537265138
 20
-87.3249224537557
 30
-71.7085537265138
 70
   192
  0
VERTEX
  5
1180
  8
0
 10
-121.083422223285
 20
-87.3954600530708
 30
-71.71472496680624
 70
   192
  0
VERTEX
  5
1181
  8
0
 10
-121.721027354376
 20
-87.46749667262544
 30
-70.17249705576941
 70
   192
  0
VERTEX
  5
1182
  8
0
 10
-121.723887416681
 20
-87.50018733435935
 30
-69.4017318020764
 70
   192
  0
VERTEX
  5
1183
  8
0
 10
-121.1012462801202
 20
-87.57102832280596
 30
-69.40591753793807
 70
   192
  0
VERTEX
  5
1184
  8
0
 10
-120.4565867866061
 20
-87.44892489328973
 30
-71.71940253422262
 70
   192
  0
VERTEX
  5
1185
  8
0
 10
-120.4769039370339
 20
-87.62488534433494
 30
-69.40966064199979
 70
   192
  0
VERTEX
  5
1186
  8
0
 10
-119.8448864192203
 20
-87.62875201639255
 30
-70.18467364893982
 70
   192
  0
VERTEX
  5
1187
  8
0
 10
-119.8513238854291
 20
-87.66171841667949
 30
-69.4129583354636
 70
   192
  0
VERTEX
  5
1188
  8
0
 10
-119.8372813197433
 20
-87.56991605931101
 30
-70.95483807436405
 70
   192
  0
VERTEX
  5
1189
  8
0
 10
-119.828517164986
 20
-87.485276908029
 30
-71.72258292340864
 70
   192
  0
VERTEX
  5
118A
  8
0
 10
0.0
 20
0.0
 30
0.0
 70
   128
 71
     1
 72
     2
 73
     3
  0
VERTEX
  5
118B
  8
0
 10
0.0
 20
0.0
 30
0.0
 70
   128
 71
     3
 72
     4
 73
     1
  0
VERTEX
  5
118C
  8
0
 10
0.0
 20
0.0
 30
0.0
 70
   128
 71
     5
 72
     4
 73
     3
  0
VERTEX
  5
118D
  8
0
 10
0.0
 20
0.0
 30
0.0
 70
   128
 71
     5
 72
     3
 73
     6
  0
VERTEX
  5
118E
  8
0
 10
0.0
 20
0.0
 30
0.0
 70
   128
 71
     6
 72
     3
 73
     7
  0
VERTEX
  5
118F
  8
0
 10
0.0
 20
0.0
 30
0.0
 70
   128
 71
     6
 72
     7
 73
     8
  0
VERTEX
  5
1190
  8
0
 10
0.0
 20
0.0
 30
0.0
 70
   128
 71
     9
 72
    10
 73
     8
  0
VERTEX
  5
1191
  8
0
 10
0.0
 20
0.0
 30
0.0
 70
   128
 71
     8
 72
    11
 73
     9
  0
VERTEX
  5
1192
  8
0
 10
0.0
 20
0.0
 30
0.0
 70
   128
 71
     8
 72
     7
 73
    12
  0
VERTEX
  5
1193
  8
0
 10
0.0
 20
0.0
 30
0.0
 70
   128
 71
     8
 72
    12
 73
    11
  0
SEQEND
  5
16F2
  8
0
  0
POLYLINE
  5
1194
  8
0
 66
     1
 10
0.0
 20
0.0
 30
0.0
 70
    64
 71
    15
 72
    13
  0
VERTEX
  5
1195
  8
0
 10
69.4129583354637
 20
-87.66171841667949
 30
119.851323885429
 70
   192
  0
VERTEX
  5
1196
  8
0
 10
69.4096606419999
 20
-87.62488534433493
 30
120.4769039370338
 70
   192
  0
VERTEX
  5
1197
  8
0
 10
69.40591753793817
 20
-87.57102832280594
 30
121.1012462801201
 70
   192
  0
VERTEX
  5
1198
  8
0
 10
69.40173180207651
 20
-87.50018733435935
 30
121.7238874166808
 70
   192
  0
VERTEX
  5
1199
  8
0
 10
5.370066118941716
 20
-88.45747785358176
 30
121.7406464589148
 70
   192
  0
VERTEX
  5
119A
  8
0
 10
-57.3562650780278
 20
-87.79086298010132
 30
121.7289368818042
 70
   192
  0
VERTEX
  5
119B
  8
0
 10
-119.8749381167082
 20
-85.8966703334806
 30
121.6960359655528
 70
   192
  0
VERTEX
  5
119C
  8
0
 10
-119.8803845775593
 20
-85.9584272781864
 30
121.0951481555149
 70
   192
  0
VERTEX
  5
119D
  8
0
 10
-119.8852502066382
 20
-86.00439282522916
 30
120.492841557057
 70
   192
  0
VERTEX
  5
119E
  8
0
 10
-119.8895316475831
 20
-86.0345352670927
 30
119.8895316475832
 70
   192
  0
VERTEX
  5
119F
  8
0
 10
-80.03322734782449
 20
-87.36745371517236
 30
119.8521551466139
 70
   192
  0
VERTEX
  5
11A0
  8
0
 10
-40.06731325501013
 20
-88.29665309040048
 30
119.8621139959408
 70
   192
  0
VERTEX
  5
11A1
  8
0
 10
0.0000000000128164
 20
-88.637795845792
 30
119.8762307066294
 70
   192
  0
VERTEX
  5
11A2
  8
0
 10
23.16304506108886
 20
-88.5218733523478
 30
119.8706611210689
 70
   192
  0
VERTEX
  5
11A3
  8
0
 10
46.30587712055974
 20
-88.18589016736023
 30
119.8588851756821
 70
   192
  0
VERTEX
  5
11A4
  8
0
 10
0.0
 20
0.0
 30
0.0
 70
   128
 71
     6
 72
     7
 73
     8
  0
VERTEX
  5
11A5
  8
0
 10
0.0
 20
0.0
 30
0.0
 70
   128
 71
    11
 72
     6
 73
     8
  0
VERTEX
  5
11A6
  8
0
 10
0.0
 20
0.0
 30
0.0
 70
   128
 71
     8
 72
     9
 73
    11
  0
VERTEX
  5
11A7
  8
0
 10
0.0
 20
0.0
 30
0.0
 70
   128
 71
     9
 72
    10
 73
    11
  0
VERTEX
  5
11A8
  8
0
 10
0.0
 20
0.0
 30
0.0
 70
   128
 71
    11
 72
    12
 73
     6
  0
VERTEX
  5
11A9
  8
0
 10
0.0
 20
0.0
 30
0.0
 70
   128
 71
    13
 72
     5
 73
     6
  0
VERTEX
  5
11AA
  8
0
 10
0.0
 20
0.0
 30
0.0
 70
   128
 71
    12
 72
    13
 73
     6
  0
VERTEX
  5
11AB
  8
0
 10
0.0
 20
0.0
 30
0.0
 70
   128
 71
    13
 72
    14
 73
     5
  0
VERTEX
  5
11AC
  8
0
 10
0.0
 20
0.0
 30
0.0
 70
   128
 71
    15
 72
     4
 73
     5
  0
VERTEX
  5
11AD
  8
0
 10
0.0
 20
0.0
 30
0.0
 70
   128
 71
    14
 72
    15
 73
     5
  0
VERTEX
  5
11AE
  8
0
 10
0.0
 20
0.0
 30
0.0
 70
   128
 71
    15
 72
     1
 73
     2
  0
VERTEX
  5
11AF
  8
0
 10
0.0
 20
0.0
 30
0.0
 70
   128
 71
     2
 72
     3
 73
    15
  0
VERTEX
  5
11B0
  8
0
 10
0.0
 20
0.0
 30
0.0
 70
   128
 71
     3
 72
     4
 73
    15
  0
SEQEND
  5
16F3
  8
0
  0
POLYLINE
  5
11B1
  8
0
 66
     1
 10
0.0
 20
0.0
 30
0.0
 70
    64
 71
    12
 72
    10
  0
VERTEX
  5
11B2
  8
0
 10
69.4096606419999
 20
-87.62488534433493
 30
120.4769039370338
 70
   192
  0
VERTEX
  5
11B3
  8
0
 10
69.4129583354637
 20
-87.66171841667949
 30
119.851323885429
 70
   192
  0
VERTEX
  5
11B4
  8
0
 10
70.18467364893986
 20
-87.62875201639255
 30
119.8448864192203
 70
   192
  0
VERTEX
  5
11B5
  8
0
 10
70.17249705576943
 20
-87.46749667262546
 30
121.7210273543758
 70
   192
  0
VERTEX
  5
11B6
  8
0
 10
69.40591753793817
 20
-87.57102832280594
 30
121.1012462801201
 70
   192
  0
VERTEX
  5
11B7
  8
0
 10
69.4017318020764
 20
-87.50018733435941
 30
121.7238874166807
 70
   192
  0
VERTEX
  5
11B8
  8
0
 10
70.95483807436412
 20
-87.56991605931101
 30
119.8372813197433
 70
   192
  0
VERTEX
  5
11B9
  8
0
 10
70.94172663097558
 20
-87.409053093506
 30
121.715914203747
 70
   192
  0
VERTEX
  5
11BA
  8
0
 10
71.71472496680624
 20
-87.3954600530708
 30
121.083422223285
 70
   192
  0
VERTEX
  5
11BB
  8
0
 10
71.70855372651384
 20
-87.3249224537557
 30
121.7085537265138
 70
   192
  0
VERTEX
  5
11BC
  8
0
 10
71.71940253422262
 20
-87.44892489328973
 30
120.4565867866061
 70
   192
  0
VERTEX
  5
11BD
  8
0
 10
71.7225829234087
 20
-87.48527690802896
 30
119.828517164986
 70
   192
  0
VERTEX
  5
11BE
  8
0
 10
0.0
 20
0.0
 30
0.0
 70
   128
 71
     1
 72
     2
 73
     3
  0
VERTEX
  5
11BF
  8
0
 10
0.0
 20
0.0
 30
0.0
 70
   128
 71
     3
 72
     4
 73
     5
  0
VERTEX
  5
11C0
  8
0
 10
0.0
 20
0.0
 30
0.0
 70
   128
 71
     3
 72
     5
 73
     1
  0
VERTEX
  5
11C1
  8
0
 10
0.0
 20
0.0
 30
0.0
 70
   128
 71
     4
 72
     6
 73
     5
  0
VERTEX
  5
11C2
  8
0
 10
0.0
 20
0.0
 30
0.0
 70
   128
 71
     4
 72
     3
 73
     7
  0
VERTEX
  5
11C3
  8
0
 10
0.0
 20
0.0
 30
0.0
 70
   128
 71
     4
 72
     7
 73
     8
  0
VERTEX
  5
11C4
  8
0
 10
0.0
 20
0.0
 30
0.0
 70
   128
 71
     9
 72
    10
 73
     8
  0
VERTEX
  5
11C5
  8
0
 10
0.0
 20
0.0
 30
0.0
 70
   128
 71
     8
 72
    11
 73
     9
  0
VERTEX
  5
11C6
  8
0
 10
0.0
 20
0.0
 30
0.0
 70
   128
 71
     8
 72
     7
 73
    12
  0
VERTEX
  5
11C7
  8
0
 10
0.0
 20
0.0
 30
0.0
 70
   128
 71
     8
 72
    12
 73
    11
  0
SEQEND
  5
16F4
  8
0
  0
POLYLINE
  5
11C8
  8
0
 66
     1
 10
0.0
 20
0.0
 30
0.0
 70
    64
 71
    18
 72
    16
  0
VERTEX
  5
11C9
  8
0
 10
69.36323481912652
 20
-89.7793317852812
 30
-69.36323481912652
 70
   192
  0
VERTEX
  5
11CA
  8
0
 10
47.41523626454339
 20
-90.51549973078056
 30
-69.40300978619686
 70
   192
  0
VERTEX
  5
11CB
  8
0
 10
25.37104422270404
 20
-91.04454207900493
 30
-69.46507764172455
 70
   192
  0
VERTEX
  5
11CC
  8
0
 10
3.231975606393355
 20
-91.27373171657061
 30
-69.5044747923471
 70
   192
  0
VERTEX
  5
11CD
  8
0
 10
1.077623706921833
 20
-91.27476135466456
 30
-69.55122537127593
 70
   192
  0
VERTEX
  5
11CE
  8
0
 10
-1.077054727989349
 20
-91.2747810855434
 30
-69.55123257195987
 70
   192
  0
VERTEX
  5
11CF
  8
0
 10
-3.231975606384225
 20
-91.27373171657061
 30
-69.5044747923471
 70
   192
  0
VERTEX
  5
11D0
  8
0
 10
-42.36183488856812
 20
-90.65857935324767
 30
-69.41644436372984
 70
   192
  0
VERTEX
  5
11D1
  8
0
 10
-81.19405335380975
 20
-89.32415646896858
 30
-69.35802026703907
 70
   192
  0
VERTEX
  5
11D2
  8
0
 10
-119.851323885429
 20
-87.6617184166795
 30
-69.4129583354636
 70
   192
  0
VERTEX
  5
11D3
  8
0
 10
-119.8448864192203
 20
-87.62875201639255
 30
-70.18467364893982
 70
   192
  0
VERTEX
  5
11D4
  8
0
 10
-119.8372813197433
 20
-87.56991605931101
 30
-70.95483807436405
 70
   192
  0
VERTEX
  5
11D5
  8
0
 10
-119.828517164986
 20
-87.48527690802896
 30
-71.7225829234086
 70
   192
  0
VERTEX
  5
11D6
  8
0
 10
-56.97715304606445
 20
-89.99383296161164
 30
-71.76564318133065
 70
   192
  0
VERTEX
  5
11D7
  8
0
 10
5.544133115285433
 20
-91.03231771304493
 30
-71.78396881673291
 70
   192
  0
VERTEX
  5
11D8
  8
0
 10
69.3427289388269
 20
-89.56546385650299
 30
-71.7582489376317
 70
   192
  0
VERTEX
  5
11D9
  8
0
 10
69.35058620805677
 20
-89.66456048188282
 30
-70.96256585817798
 70
   192
  0
VERTEX
  5
11DA
  8
0
 10
69.35742427201941
 20
-89.73587868696268
 30
-70.16390423065616
 70
   192
  0
VERTEX
  5
11DB
  8
0
 10
0.0
 20
0.0
 30
0.0
 70
   128
 71
    12
 72
    13
 73
    14
  0
VERTEX
  5
11DC
  8
0
 10
0.0
 20
0.0
 30
0.0
 70
   128
 71
    15
 72
    17
 73
    12
  0
VERTEX
  5
11DD
  8
0
 10
0.0
 20
0.0
 30
0.0
 70
   128
 71
    14
 72
    15
 73
    12
  0
VERTEX
  5
11DE
  8
0
 10
0.0
 20
0.0
 30
0.0
 70
   128
 71
    15
 72
    16
 73
    17
  0
VERTEX
  5
11DF
  8
0
 10
0.0
 20
0.0
 30
0.0
 70
   128
 71
    18
 72
    11
 73
    12
  0
VERTEX
  5
11E0
  8
0
 10
0.0
 20
0.0
 30
0.0
 70
   128
 71
    17
 72
    18
 73
    12
  0
VERTEX
  5
11E1
  8
0
 10
0.0
 20
0.0
 30
0.0
 70
   128
 71
    18
 72
     1
 73
     2
  0
VERTEX
  5
11E2
  8
0
 10
0.0
 20
0.0
 30
0.0
 70
   128
 71
     2
 72
     3
 73
    18
  0
VERTEX
  5
11E3
  8
0
 10
0.0
 20
0.0
 30
0.0
 70
   128
 71
     3
 72
     5
 73
    18
  0
VERTEX
  5
11E4
  8
0
 10
0.0
 20
0.0
 30
0.0
 70
   128
 71
     3
 72
     4
 73
     5
  0
VERTEX
  5
11E5
  8
0
 10
0.0
 20
0.0
 30
0.0
 70
   128
 71
     5
 72
     6
 73
    18
  0
VERTEX
  5
11E6
  8
0
 10
0.0
 20
0.0
 30
0.0
 70
   128
 71
    11
 72
    18
 73
     6
  0
VERTEX
  5
11E7
  8
0
 10
0.0
 20
0.0
 30
0.0
 70
   128
 71
     8
 72
    11
 73
     6
  0
VERTEX
  5
11E8
  8
0
 10
0.0
 20
0.0
 30
0.0
 70
   128
 71
     6
 72
     7
 73
     8
  0
VERTEX
  5
11E9
  8
0
 10
0.0
 20
0.0
 30
0.0
 70
   128
 71
     8
 72
     9
 73
    11
  0
VERTEX
  5
11EA
  8
0
 10
0.0
 20
0.0
 30
0.0
 70
   128
 71
     9
 72
    10
 73
    11
  0
SEQEND
  5
16F5
  8
0
  0
POLYLINE
  5
11EB
  8
0
 66
     1
 10
0.0
 20
0.0
 30
0.0
 70
    64
 71
    12
 72
    10
  0
VERTEX
  5
11EC
  8
0
 10
69.36116642971636
 20
-89.66417346764695
 30
-70.96253198368036
 70
   192
  0
VERTEX
  5
11ED
  8
0
 10
69.35858329971761
 20
-89.56488676477676
 30
-71.7581984486479
 70
   192
  0
VERTEX
  5
11EE
  8
0
 10
70.15458434770977
 20
-89.52184634651918
 30
-71.75443289997692
 70
   192
  0
VERTEX
  5
11EF
  8
0
 10
69.3627175646054
 20
-89.73568411263163
 30
-70.16388721468994
 70
   192
  0
VERTEX
  5
11F0
  8
0
 10
69.36323481912652
 20
-89.77933178528119
 30
-69.36323481912645
 70
   192
  0
VERTEX
  5
11F1
  8
0
 10
70.16390423065616
 20
-89.73587868696268
 30
-69.3574242720194
 70
   192
  0
VERTEX
  5
11F2
  8
0
 10
70.94860640404193
 20
-89.45131112282381
 30
-71.7482618675243
 70
   192
  0
VERTEX
  5
11F3
  8
0
 10
70.96256585817798
 20
-89.66456048188282
 30
-69.35058620805675
 70
   192
  0
VERTEX
  5
11F4
  8
0
 10
71.75449861584231
 20
-89.52259748229777
 30
-70.14403463110774
 70
   192
  0
VERTEX
  5
11F5
  8
0
 10
71.75824893763173
 20
-89.56546385650299
 30
-69.3427289388269
 70
   192
  0
VERTEX
  5
11F6
  8
0
 10
71.74831071387645
 20
-89.45186943918364
 30
-70.94334787209604
 70
   192
  0
VERTEX
  5
11F7
  8
0
 10
71.7396927864954
 20
-89.35336607847633
 30
-71.73969278649535
 70
   192
  0
VERTEX
  5
11F8
  8
0
 10
0.0
 20
0.0
 30
0.0
 70
   128
 71
     1
 72
     2
 73
     3
  0
VERTEX
  5
11F9
  8
0
 10
0.0
 20
0.0
 30
0.0
 70
   128
 71
     3
 72
     4
 73
     1
  0
VERTEX
  5
11FA
  8
0
 10
0.0
 20
0.0
 30
0.0
 70
   128
 71
     5
 72
     4
 73
     3
  0
VERTEX
  5
11FB
  8
0
 10
0.0
 20
0.0
 30
0.0
 70
   128
 71
     5
 72
     3
 73
     6
  0
VERTEX
  5
11FC
  8
0
 10
0.0
 20
0.0
 30
0.0
 70
   128
 71
     6
 72
     3
 73
     7
  0
VERTEX
  5
11FD
  8
0
 10
0.0
 20
0.0
 30
0.0
 70
   128
 71
     6
 72
     7
 73
     8
  0
VERTEX
  5
11FE
  8
0
 10
0.0
 20
0.0
 30
0.0
 70
   128
 71
     9
 72
    10
 73
     8
  0
VERTEX
  5
11FF
  8
0
 10
0.0
 20
0.0
 30
0.0
 70
   128
 71
     8
 72
    11
 73
     9
  0
VERTEX
  5
1200
  8
0
 10
0.0
 20
0.0
 30
0.0
 70
   128
 71
     8
 72
     7
 73
    12
  0
VERTEX
  5
1201
  8
0
 10
0.0
 20
0.0
 30
0.0
 70
   128
 71
     8
 72
    12
 73
    11
  0
SEQEND
  5
16F6
  8
0
  0
POLYLINE
  5
1202
  8
0
 66
     1
 10
0.0
 20
0.0
 30
0.0
 70
    64
 71
    18
 72
    16
  0
VERTEX
  5
1203
  8
0
 10
69.4129583354636
 20
-87.6617184166795
 30
119.851323885429
 70
   192
  0
VERTEX
  5
1204
  8
0
 10
69.35802013050133
 20
-89.3242236409426
 30
81.192361992693
 70
   192
  0
VERTEX
  5
1205
  8
0
 10
69.41644142556595
 20
-90.65856256410132
 30
42.36249946443077
 70
   192
  0
VERTEX
  5
1206
  8
0
 10
69.5044747923471
 20
-91.2737317165705
 30
3.23197560640381
 70
   192
  0
VERTEX
  5
1207
  8
0
 10
69.55123262691855
 20
-91.27478040705896
 30
1.077049722730354
 70
   192
  0
VERTEX
  5
1208
  8
0
 10
69.55122530187074
 20
-91.2747602003329
 30
-1.077627875069423
 70
   192
  0
VERTEX
  5
1209
  8
0
 10
69.504474792347
 20
-91.27373171657061
 30
-3.23197560639199
 70
   192
  0
VERTEX
  5
120A
  8
0
 10
69.46507667845313
 20
-91.04452609226439
 30
-25.37196376597887
 70
   192
  0
VERTEX
  5
120B
  8
0
 10
69.4030048992816
 20
-90.51543930916984
 30
-47.41733256780748
 70
   192
  0
VERTEX
  5
120C
  8
0
 10
69.36323481912652
 20
-89.7793317852812
 30
-69.36323481912652
 70
   192
  0
VERTEX
  5
120D
  8
0
 10
70.16390423065616
 20
-89.73587868696268
 30
-69.3574242720194
 70
   192
  0
VERTEX
  5
120E
  8
0
 10
70.96256585817798
 20
-89.66456048188282
 30
-69.35058620805675
 70
   192
  0
VERTEX
  5
120F
  8
0
 10
71.7582489376317
 20
-89.56546385650299
 30
-69.34272893882691
 70
   192
  0
VERTEX
  5
1210
  8
0
 10
71.78401008919573
 20
-91.02224532159002
 30
-7.620657022121724
 70
   192
  0
VERTEX
  5
1211
  8
0
 10
71.76565688219017
 20
-89.99461535435609
 30
56.9533755700587
 70
   192
  0
VERTEX
  5
1212
  8
0
 10
71.72258292340871
 20
-87.485276908029
 30
119.828517164986
 70
   192
  0
VERTEX
  5
1213
  8
0
 10
70.95483807436412
 20
-87.56991605931101
 30
119.8372813197433
 70
   192
  0
VERTEX
  5
1214
  8
0
 10
70.18467364893986
 20
-87.62875201639255
 30
119.8448864192203
 70
   192
  0
VERTEX
  5
1215
  8
0
 10
0.0
 20
0.0
 30
0.0
 70
   128
 71
    12
 72
    13
 73
    14
  0
VERTEX
  5
1216
  8
0
 10
0.0
 20
0.0
 30
0.0
 70
   128
 71
    15
 72
    17
 73
    12
  0
VERTEX
  5
1217
  8
0
 10
0.0
 20
0.0
 30
0.0
 70
   128
 71
    14
 72
    15
 73
    12
  0
VERTEX
  5
1218
  8
0
 10
0.0
 20
0.0
 30
0.0
 70
   128
 71
    15
 72
    16
 73
    17
  0
VERTEX
  5
1219
  8
0
 10
0.0
 20
0.0
 30
0.0
 70
   128
 71
    18
 72
    11
 73
    12
  0
VERTEX
  5
121A
  8
0
 10
0.0
 20
0.0
 30
0.0
 70
   128
 71
    17
 72
    18
 73
    12
  0
VERTEX
  5
121B
  8
0
 10
0.0
 20
0.0
 30
0.0
 70
   128
 71
     3
 72
     4
 73
     5
  0
VERTEX
  5
121C
  8
0
 10
0.0
 20
0.0
 30
0.0
 70
   128
 71
    18
 72
     1
 73
     2
  0
VERTEX
  5
121D
  8
0
 10
0.0
 20
0.0
 30
0.0
 70
   128
 71
     2
 72
     3
 73
    18
  0
VERTEX
  5
121E
  8
0
 10
0.0
 20
0.0
 30
0.0
 70
   128
 71
     5
 72
    11
 73
    18
  0
VERTEX
  5
121F
  8
0
 10
0.0
 20
0.0
 30
0.0
 70
   128
 71
     3
 72
     5
 73
    18
  0
VERTEX
  5
1220
  8
0
 10
0.0
 20
0.0
 30
0.0
 70
   128
 71
     5
 72
     6
 73
    11
  0
VERTEX
  5
1221
  8
0
 10
0.0
 20
0.0
 30
0.0
 70
   128
 71
     7
 72
     8
 73
    11
  0
VERTEX
  5
1222
  8
0
 10
0.0
 20
0.0
 30
0.0
 70
   128
 71
     6
 72
     7
 73
    11
  0
VERTEX
  5
1223
  8
0
 10
0.0
 20
0.0
 30
0.0
 70
   128
 71
     8
 72
     9
 73
    11
  0
VERTEX
  5
1224
  8
0
 10
0.0
 20
0.0
 30
0.0
 70
   128
 71
     9
 72
    10
 73
    11
  0
SEQEND
  5
16F7
  8
0
  0
POLYLINE
  5
1225
  8
0
 66
     1
 10
0.0
 20
0.0
 30
0.0
 70
    64
 71
     9
 72
     7
  0
VERTEX
  5
1226
  8
0
 10
59.71161926284525
 20
-91.27373171657061
 30
-35.71890546320274
 70
   192
  0
VERTEX
  5
1227
  8
0
 10
69.36323481912652
 20
-89.7793317852812
 30
-69.36323481912652
 70
   192
  0
VERTEX
  5
1228
  8
0
 10
69.4030048992816
 20
-90.51543930916984
 30
-47.41733256780748
 70
   192
  0
VERTEX
  5
1229
  8
0
 10
35.71890546320391
 20
-91.27373171657061
 30
-59.71161926284455
 70
   192
  0
VERTEX
  5
122A
  8
0
 10
47.41523626454339
 20
-90.51549973078056
 30
-69.40300978619686
 70
   192
  0
VERTEX
  5
122B
  8
0
 10
69.46507667845313
 20
-91.04452609226439
 30
-25.37196376597887
 70
   192
  0
VERTEX
  5
122C
  8
0
 10
69.504474792347
 20
-91.27373171657061
 30
-3.23197560639199
 70
   192
  0
VERTEX
  5
122D
  8
0
 10
3.231975606393316
 20
-91.27373171657061
 30
-69.50447479234617
 70
   192
  0
VERTEX
  5
122E
  8
0
 10
25.37104422270404
 20
-91.04454207900493
 30
-69.46507764172455
 70
   192
  0
VERTEX
  5
122F
  8
0
 10
0.0
 20
0.0
 30
0.0
 70
   128
 71
     1
 72
     2
 73
     3
  0
VERTEX
  5
1230
  8
0
 10
0.0
 20
0.0
 30
0.0
 70
   128
 71
     1
 72
     4
 73
     5
  0
VERTEX
  5
1231
  8
0
 10
0.0
 20
0.0
 30
0.0
 70
   128
 71
     1
 72
     5
 73
     2
  0
VERTEX
  5
1232
  8
0
 10
0.0
 20
0.0
 30
0.0
 70
   128
 71
     6
 72
     7
 73
     1
  0
VERTEX
  5
1233
  8
0
 10
0.0
 20
0.0
 30
0.0
 70
   128
 71
     4
 72
     8
 73
     9
  0
VERTEX
  5
1234
  8
0
 10
0.0
 20
0.0
 30
0.0
 70
   128
 71
     6
 72
     1
 73
     3
  0
VERTEX
  5
1235
  8
0
 10
0.0
 20
0.0
 30
0.0
 70
   128
 71
     5
 72
     4
 73
     9
  0
SEQEND
  5
16F8
  8
0
  0
POLYLINE
  5
1236
  8
0
 66
     1
 10
0.0
 20
0.0
 30
0.0
 70
    64
 71
    12
 72
    10
  0
VERTEX
  5
1237
  8
0
 10
-123.4682104550396
 20
-102.0
 30
133.430157435957
 70
   192
  0
VERTEX
  5
1238
  8
0
 10
-122.8343481237705
 20
-94.7549204008446
 30
132.7962951046879
 70
   192
  0
VERTEX
  5
1239
  8
0
 10
-121.9709506494008
 20
-94.8431104455834
 30
132.8040107338385
 70
   192
  0
VERTEX
  5
123A
  8
0
 10
-121.1055229641477
 20
-94.908641093494
 30
132.8097439226441
 70
   192
  0
VERTEX
  5
123B
  8
0
 10
-120.238664198877
 20
-94.95146697806629
 30
132.8134907020497
 70
   192
  0
VERTEX
  5
123C
  8
0
 10
-56.94771446924139
 20
-96.84747496026868
 30
132.9793699064471
 70
   192
  0
VERTEX
  5
123D
  8
0
 10
6.358051591002694
 20
-97.49416229562202
 30
133.0359477171363
 70
   192
  0
VERTEX
  5
123E
  8
0
 10
69.6591445639951
 20
-96.54469434907199
 30
132.952880035432
 70
   192
  0
VERTEX
  5
123F
  8
0
 10
70.76502514538076
 20
-96.4977903561494
 30
132.948776467777
 70
   192
  0
VERTEX
  5
1240
  8
0
 10
71.8687023619809
 20
-96.41393652523888
 30
132.9414402081791
 70
   192
  0
VERTEX
  5
1241
  8
0
 10
72.96893254253573
 20
-96.29322734646672
 30
132.9308795234531
 70
   192
  0
VERTEX
  5
1242
  8
0
 10
73.46821045503961
 20
-102.0
 30
133.4301574359569
 70
   192
  0
VERTEX
  5
1243
  8
0
 10
0.0
 20
0.0
 30
0.0
 70
   128
 71
     1
 72
     2
 73
    -3
  0
VERTEX
  5
1244
  8
0
 10
0.0
 20
0.0
 30
0.0
 70
   128
 71
     3
 72
    -4
 73
    -1
  0
VERTEX
  5
1245
  8
0
 10
0.0
 20
0.0
 30
0.0
 70
   128
 71
     4
 72
    -5
 73
    -1
  0
VERTEX
  5
1246
  8
0
 10
0.0
 20
0.0
 30
0.0
 70
   128
 71
     5
 72
    -6
 73
    -1
  0
VERTEX
  5
1247
  8
0
 10
0.0
 20
0.0
 30
0.0
 70
   128
 71
     6
 72
    -7
 73
    -1
  0
VERTEX
  5
1248
  8
0
 10
0.0
 20
0.0
 30
0.0
 70
   128
 71
    -7
 72
    12
 73
    -1
  0
VERTEX
  5
1249
  8
0
 10
0.0
 20
0.0
 30
0.0
 70
   128
 71
     7
 72
    -8
 73
   -12
  0
VERTEX
  5
124A
  8
0
 10
0.0
 20
0.0
 30
0.0
 70
   128
 71
     8
 72
    -9
 73
   -12
  0
VERTEX
  5
124B
  8
0
 10
0.0
 20
0.0
 30
0.0
 70
   128
 71
     9
 72
   -10
 73
   -12
  0
VERTEX
  5
124C
  8
0
 10
0.0
 20
0.0
 30
0.0
 70
   128
 71
    10
 72
    11
 73
   -12
  0
SEQEND
  5
16F9
  8
0
  0
POLYLINE
  5
124D
  8
0
 66
     1
 10
0.0
 20
0.0
 30
0.0
 70
    64
 71
    12
 72
    10
  0
VERTEX
  5
124E
  8
0
 10
83.43015743595699
 20
-102.0
 30
123.4682104550395
 70
   192
  0
VERTEX
  5
124F
  8
0
 10
82.93087952345306
 20
-96.2932273464666
 30
122.9689325425356
 70
   192
  0
VERTEX
  5
1250
  8
0
 10
82.9397339116988
 20
-96.39443346722318
 30
122.0720047335551
 70
   192
  0
VERTEX
  5
1251
  8
0
 10
82.94644520407881
 20
-96.47114389014598
 30
121.172632150494
 70
   192
  0
VERTEX
  5
1252
  8
0
 10
82.9510083711718
 20
-96.52330112868495
 30
120.2714887803434
 70
   192
  0
VERTEX
  5
1253
  8
0
 10
83.16977300482358
 20
-99.02379233331956
 30
56.95360908693451
 70
   192
  0
VERTEX
  5
1254
  8
0
 10
83.25886036269979
 20
-100.04206549336
 30
-6.380268211403417
 70
   192
  0
VERTEX
  5
1255
  8
0
 10
83.1315775004484
 20
-98.5872157205816
 30
-69.7038844342894
 70
   192
  0
VERTEX
  5
1256
  8
0
 10
83.12619660396801
 20
-98.52571179237421
 30
-70.85358390582273
 70
   192
  0
VERTEX
  5
1257
  8
0
 10
83.11731830984309
 20
-98.42423242616698
 30
-72.00042464289284
 70
   192
  0
VERTEX
  5
1258
  8
0
 10
83.10495345751369
 20
-98.28290151732608
 30
-73.14300647659621
 70
   192
  0
VERTEX
  5
1259
  8
0
 10
83.43015743595703
 20
-102.0
 30
-73.46821045503961
 70
   192
  0
VERTEX
  5
125A
  8
0
 10
0.0
 20
0.0
 30
0.0
 70
   128
 71
     1
 72
     2
 73
    -3
  0
VERTEX
  5
125B
  8
0
 10
0.0
 20
0.0
 30
0.0
 70
   128
 71
     3
 72
    -4
 73
    -1
  0
VERTEX
  5
125C
  8
0
 10
0.0
 20
0.0
 30
0.0
 70
   128
 71
     4
 72
    -5
 73
    -1
  0
VERTEX
  5
125D
  8
0
 10
0.0
 20
0.0
 30
0.0
 70
   128
 71
     5
 72
    -6
 73
    -1
  0
VERTEX
  5
125E
  8
0
 10
0.0
 20
0.0
 30
0.0
 70
   128
 71
     6
 72
    -7
 73
    -1
  0
VERTEX
  5
125F
  8
0
 10
0.0
 20
0.0
 30
0.0
 70
   128
 71
    -7
 72
    12
 73
    -1
  0
VERTEX
  5
1260
  8
0
 10
0.0
 20
0.0
 30
0.0
 70
   128
 71
     7
 72
    -8
 73
   -12
  0
VERTEX
  5
1261
  8
0
 10
0.0
 20
0.0
 30
0.0
 70
   128
 71
     8
 72
    -9
 73
   -12
  0
VERTEX
  5
1262
  8
0
 10
0.0
 20
0.0
 30
0.0
 70
   128
 71
     9
 72
   -10
 73
   -12
  0
VERTEX
  5
1263
  8
0
 10
0.0
 20
0.0
 30
0.0
 70
   128
 71
    10
 72
    11
 73
   -12
  0
SEQEND
  5
16FA
  8
0
  0
POLYLINE
  5
1264
  8
0
 66
     1
 10
0.0
 20
0.0
 30
0.0
 70
    64
 71
    12
 72
    10
  0
VERTEX
  5
1265
  8
0
 10
73.46821045503961
 20
-102.0
 30
-83.430157435957
 70
   192
  0
VERTEX
  5
1266
  8
0
 10
73.14300647659623
 20
-98.28290151732601
 30
-83.10495345751362
 70
   192
  0
VERTEX
  5
1267
  8
0
 10
72.00042464289281
 20
-98.42423242616688
 30
-83.11731830984309
 70
   192
  0
VERTEX
  5
1268
  8
0
 10
70.85358390582273
 20
-98.5257117923741
 30
-83.12619660396801
 70
   192
  0
VERTEX
  5
1269
  8
0
 10
69.7038844342894
 20
-98.58721572058161
 30
-83.13157750044849
 70
   192
  0
VERTEX
  5
126A
  8
0
 10
6.360636663896905
 20
-100.0421527524621
 30
-83.25886799688203
 70
   192
  0
VERTEX
  5
126B
  8
0
 10
-56.97643348115689
 20
-99.02305680717379
 30
-83.16970865462407
 70
   192
  0
VERTEX
  5
126C
  8
0
 10
-120.2714887803434
 20
-96.5233011286849
 30
-82.9510083711717
 70
   192
  0
VERTEX
  5
126D
  8
0
 10
-121.172632150494
 20
-96.47114389014598
 30
-82.94644520407881
 70
   192
  0
VERTEX
  5
126E
  8
0
 10
-122.0720047335551
 20
-96.39443346722318
 30
-82.9397339116988
 70
   192
  0
VERTEX
  5
126F
  8
0
 10
-122.9689325425356
 20
-96.29322734646672
 30
-82.93087952345317
 70
   192
  0
VERTEX
  5
1270
  8
0
 10
-123.4682104550395
 20
-102.0
 30
-83.43015743595703
 70
   192
  0
VERTEX
  5
1271
  8
0
 10
0.0
 20
0.0
 30
0.0
 70
   128
 71
     1
 72
     2
 73
    -3
  0
VERTEX
  5
1272
  8
0
 10
0.0
 20
0.0
 30
0.0
 70
   128
 71
     3
 72
    -4
 73
    -1
  0
VERTEX
  5
1273
  8
0
 10
0.0
 20
0.0
 30
0.0
 70
   128
 71
     4
 72
    -5
 73
    -1
  0
VERTEX
  5
1274
  8
0
 10
0.0
 20
0.0
 30
0.0
 70
   128
 71
     5
 72
    -6
 73
    -1
  0
VERTEX
  5
1275
  8
0
 10
0.0
 20
0.0
 30
0.0
 70
   128
 71
     6
 72
    -7
 73
    -1
  0
VERTEX
  5
1276
  8
0
 10
0.0
 20
0.0
 30
0.0
 70
   128
 71
    -7
 72
    12
 73
    -1
  0
VERTEX
  5
1277
  8
0
 10
0.0
 20
0.0
 30
0.0
 70
   128
 71
     7
 72
    -8
 73
   -12
  0
VERTEX
  5
1278
  8
0
 10
0.0
 20
0.0
 30
0.0
 70
   128
 71
     8
 72
    -9
 73
   -12
  0
VERTEX
  5
1279
  8
0
 10
0.0
 20
0.0
 30
0.0
 70
   128
 71
     9
 72
   -10
 73
   -12
  0
VERTEX
  5
127A
  8
0
 10
0.0
 20
0.0
 30
0.0
 70
   128
 71
    10
 72
    11
 73
   -12
  0
SEQEND
  5
16FB
  8
0
  0
POLYLINE
  5
127B
  8
0
 66
     1
 10
0.0
 20
0.0
 30
0.0
 70
    64
 71
    12
 72
    10
  0
VERTEX
  5
127C
  8
0
 10
-132.952880035432
 20
-96.54469434907199
 30
-69.65914456399501
 70
   192
  0
VERTEX
  5
127D
  8
0
 10
-133.0359497696369
 20
-97.49418575581198
 30
-6.349076712768355
 70
   192
  0
VERTEX
  5
127E
  8
0
 10
-132.9793513750894
 20
-96.84726314588212
 30
56.95764588478917
 70
   192
  0
VERTEX
  5
127F
  8
0
 10
-132.8134907020496
 20
-94.95146697806621
 30
120.238664198877
 70
   192
  0
VERTEX
  5
1280
  8
0
 10
-132.8097439226439
 20
-94.90864109349401
 30
121.1055229641477
 70
   192
  0
VERTEX
  5
1281
  8
0
 10
-132.8040107338383
 20
-94.84311044558342
 30
121.9709506494008
 70
   192
  0
VERTEX
  5
1282
  8
0
 10
-132.7962951046878
 20
-94.75492040084463
 30
122.8343481237704
 70
   192
  0
VERTEX
  5
1283
  8
0
 10
-133.4301574359569
 20
-102.0
 30
123.4682104550395
 70
   192
  0
VERTEX
  5
1284
  8
0
 10
-133.430157435957
 20
-102.0
 30
-73.4682104550396
 70
   192
  0
VERTEX
  5
1285
  8
0
 10
-132.930879523453
 20
-96.2932273464666
 30
-72.96893254253567
 70
   192
  0
VERTEX
  5
1286
  8
0
 10
-132.9414402081791
 20
-96.41393652523888
 30
-71.86870236198087
 70
   192
  0
VERTEX
  5
1287
  8
0
 10
-132.948776467777
 20
-96.49779035614938
 30
-70.76502514538069
 70
   192
  0
VERTEX
  5
1288
  8
0
 10
0.0
 20
0.0
 30
0.0
 70
   128
 71
     9
 72
    10
 73
   -11
  0
VERTEX
  5
1289
  8
0
 10
0.0
 20
0.0
 30
0.0
 70
   128
 71
    11
 72
   -12
 73
    -9
  0
VERTEX
  5
128A
  8
0
 10
0.0
 20
0.0
 30
0.0
 70
   128
 71
    12
 72
    -1
 73
    -9
  0
VERTEX
  5
128B
  8
0
 10
0.0
 20
0.0
 30
0.0
 70
   128
 71
    -9
 72
     1
 73
    -2
  0
VERTEX
  5
128C
  8
0
 10
0.0
 20
0.0
 30
0.0
 70
   128
 71
     2
 72
    -3
 73
    -9
  0
VERTEX
  5
128D
  8
0
 10
0.0
 20
0.0
 30
0.0
 70
   128
 71
    -3
 72
     8
 73
    -9
  0
VERTEX
  5
128E
  8
0
 10
0.0
 20
0.0
 30
0.0
 70
   128
 71
     3
 72
    -4
 73
    -8
  0
VERTEX
  5
128F
  8
0
 10
0.0
 20
0.0
 30
0.0
 70
   128
 71
     4
 72
    -5
 73
    -8
  0
VERTEX
  5
1290
  8
0
 10
0.0
 20
0.0
 30
0.0
 70
   128
 71
     5
 72
    -6
 73
    -8
  0
VERTEX
  5
1291
  8
0
 10
0.0
 20
0.0
 30
0.0
 70
   128
 71
     6
 72
     7
 73
    -8
  0
SEQEND
  5
16FC
  8
0
  0
POLYLINE
  5
1292
  8
0
 66
     1
 10
0.0
 20
0.0
 30
0.0
 70
    64
 71
    11
 72
     9
  0
VERTEX
  5
1293
  8
0
 10
73.2198941471749
 20
-98.27625177345408
 30
-83.10407270719145
 70
   192
  0
VERTEX
  5
1294
  8
0
 10
73.19426520636614
 20
-98.27846256177017
 30
-83.10443222191682
 70
   192
  0
VERTEX
  5
1295
  8
0
 10
73.46821045503961
 20
-102.0
 30
-83.430157435957
 70
   192
  0
VERTEX
  5
1296
  8
0
 10
73.16863592629664
 20
-98.28067914795106
 30
-83.10472580600526
 70
   192
  0
VERTEX
  5
1297
  8
0
 10
73.1430064765962
 20
-98.28290151732604
 30
-83.10495345751366
 70
   192
  0
VERTEX
  5
1298
  8
0
 10
78.34697988905285
 20
-102.0
 30
-82.15936304923099
 70
   192
  0
VERTEX
  5
1299
  8
0
 10
82.15936304923099
 20
-102.0
 30
-78.34697988905279
 70
   192
  0
VERTEX
  5
129A
  8
0
 10
81.75811749057962
 20
-97.96880188468369
 30
-78.08001767291039
 70
   192
  0
VERTEX
  5
129B
  8
0
 10
78.14665268413064
 20
-97.96637242875312
 30
-81.71925128771298
 70
   192
  0
VERTEX
  5
129C
  8
0
 10
83.43015743595703
 20
-102.0
 30
-73.46821045503961
 70
   192
  0
VERTEX
  5
129D
  8
0
 10
83.10495345751364
 20
-98.28290151732601
 30
-73.14300647659623
 70
   192
  0
VERTEX
  5
129E
  8
0
 10
0.0
 20
0.0
 30
0.0
 70
   128
 71
     1
 72
     2
 73
     3
  0
VERTEX
  5
129F
  8
0
 10
0.0
 20
0.0
 30
0.0
 70
   128
 71
     3
 72
     2
 73
     4
  0
VERTEX
  5
12A0
  8
0
 10
0.0
 20
0.0
 30
0.0
 70
   128
 71
     4
 72
     5
 73
     3
  0
VERTEX
  5
12A1
  8
0
 10
0.0
 20
0.0
 30
0.0
 70
   128
 71
     6
 72
     7
 73
     8
  0
VERTEX
  5
12A2
  8
0
 10
0.0
 20
0.0
 30
0.0
 70
   128
 71
     9
 72
     6
 73
     8
  0
VERTEX
  5
12A3
  8
0
 10
0.0
 20
0.0
 30
0.0
 70
   128
 71
     7
 72
    10
 73
    11
  0
VERTEX
  5
12A4
  8
0
 10
0.0
 20
0.0
 30
0.0
 70
   128
 71
     8
 72
     7
 73
    11
  0
VERTEX
  5
12A5
  8
0
 10
0.0
 20
0.0
 30
0.0
 70
   128
 71
     3
 72
     6
 73
     9
  0
VERTEX
  5
12A6
  8
0
 10
0.0
 20
0.0
 30
0.0
 70
   128
 71
     1
 72
     3
 73
     9
  0
SEQEND
  5
16FD
  8
0
  0
POLYLINE
  5
12A7
  8
0
 66
     1
 10
0.0
 20
0.0
 30
0.0
 70
    64
 71
     8
 72
     6
  0
VERTEX
  5
12A8
  8
0
 10
82.15936304923099
 20
-102.0
 30
128.3469798890527
 70
   192
  0
VERTEX
  5
12A9
  8
0
 10
78.34697988905279
 20
-102.0
 30
132.1593630492309
 70
   192
  0
VERTEX
  5
12AA
  8
0
 10
77.9281882815625
 20
-95.97831004059907
 30
131.5711450615371
 70
   192
  0
VERTEX
  5
12AB
  8
0
 10
81.57114506153718
 20
-95.97831004059907
 30
127.9281882815624
 70
   192
  0
VERTEX
  5
12AC
  8
0
 10
73.46821045503961
 20
-102.0
 30
133.4301574359569
 70
   192
  0
VERTEX
  5
12AD
  8
0
 10
72.96893254253568
 20
-96.2932273464666
 30
132.930879523453
 70
   192
  0
VERTEX
  5
12AE
  8
0
 10
83.43015743595699
 20
-102.0
 30
123.4682104550395
 70
   192
  0
VERTEX
  5
12AF
  8
0
 10
82.93087952345316
 20
-96.29322734646662
 30
122.9689325425356
 70
   192
  0
VERTEX
  5
12B0
  8
0
 10
0.0
 20
0.0
 30
0.0
 70
   128
 71
     1
 72
     2
 73
    -3
  0
VERTEX
  5
12B1
  8
0
 10
0.0
 20
0.0
 30
0.0
 70
   128
 71
     4
 72
    -1
 73
     3
  0
VERTEX
  5
12B2
  8
0
 10
0.0
 20
0.0
 30
0.0
 70
   128
 71
     2
 72
     5
 73
     6
  0
VERTEX
  5
12B3
  8
0
 10
0.0
 20
0.0
 30
0.0
 70
   128
 71
     3
 72
     2
 73
     6
  0
VERTEX
  5
12B4
  8
0
 10
0.0
 20
0.0
 30
0.0
 70
   128
 71
     7
 72
     1
 73
     4
  0
VERTEX
  5
12B5
  8
0
 10
0.0
 20
0.0
 30
0.0
 70
   128
 71
     8
 72
     7
 73
     4
  0
SEQEND
  5
16FE
  8
0
  0
POLYLINE
  5
12B6
  8
0
 66
     1
 10
0.0
 20
0.0
 30
0.0
 70
    64
 71
     8
 72
     6
  0
VERTEX
  5
12B7
  8
0
 10
-132.1593630492309
 20
-102.0
 30
-78.34697988905285
 70
   192
  0
VERTEX
  5
12B8
  8
0
 10
-128.3469798890527
 20
-102.0
 30
-82.15936304923099
 70
   192
  0
VERTEX
  5
12B9
  8
0
 10
-127.9281882815624
 20
-95.97831004059907
 30
-81.57114506153718
 70
   192
  0
VERTEX
  5
12BA
  8
0
 10
-131.5711450615371
 20
-95.97831004059907
 30
-77.9281882815625
 70
   192
  0
VERTEX
  5
12BB
  8
0
 10
-123.4682104550395
 20
-102.0
 30
-83.43015743595703
 70
   192
  0
VERTEX
  5
12BC
  8
0
 10
-122.9689325425356
 20
-96.2932273464666
 30
-82.9308795234531
 70
   192
  0
VERTEX
  5
12BD
  8
0
 10
-133.4301574359569
 20
-102.0
 30
-73.4682104550396
 70
   192
  0
VERTEX
  5
12BE
  8
0
 10
-132.9308795234531
 20
-96.29322734646662
 30
-72.9689325425357
 70
   192
  0
VERTEX
  5
12BF
  8
0
 10
0.0
 20
0.0
 30
0.0
 70
   128
 71
     1
 72
     2
 73
    -3
  0
VERTEX
  5
12C0
  8
0
 10
0.0
 20
0.0
 30
0.0
 70
   128
 71
     4
 72
    -1
 73
     3
  0
VERTEX
  5
12C1
  8
0
 10
0.0
 20
0.0
 30
0.0
 70
   128
 71
     2
 72
     5
 73
     6
  0
VERTEX
  5
12C2
  8
0
 10
0.0
 20
0.0
 30
0.0
 70
   128
 71
     3
 72
     2
 73
     6
  0
VERTEX
  5
12C3
  8
0
 10
0.0
 20
0.0
 30
0.0
 70
   128
 71
     7
 72
     1
 73
     4
  0
VERTEX
  5
12C4
  8
0
 10
0.0
 20
0.0
 30
0.0
 70
   128
 71
     8
 72
     7
 73
     4
  0
SEQEND
  5
16FF
  8
0
  0
POLYLINE
  5
12C5
  8
0
 66
     1
 10
0.0
 20
0.0
 30
0.0
 70
    64
 71
     8
 72
     6
  0
VERTEX
  5
12C6
  8
0
 10
-128.3469798890527
 20
-102.0
 30
132.159363049231
 70
   192
  0
VERTEX
  5
12C7
  8
0
 10
-132.159363049231
 20
-102.0
 30
128.3469798890527
 70
   192
  0
VERTEX
  5
12C8
  8
0
 10
-131.4365606427719
 20
-94.44000309497696
 30
127.7936038627972
 70
   192
  0
VERTEX
  5
12C9
  8
0
 10
-127.7936038627972
 20
-94.44000309497697
 30
131.4365606427719
 70
   192
  0
VERTEX
  5
12CA
  8
0
 10
-133.4301574359569
 20
-102.0
 30
123.4682104550395
 70
   192
  0
VERTEX
  5
12CB
  8
0
 10
-132.7962951046879
 20
-94.7549204008446
 30
122.8343481237705
 70
   192
  0
VERTEX
  5
12CC
  8
0
 10
-123.4682104550396
 20
-102.0
 30
133.430157435957
 70
   192
  0
VERTEX
  5
12CD
  8
0
 10
-122.8343481237704
 20
-94.75492040084453
 30
132.7962951046879
 70
   192
  0
VERTEX
  5
12CE
  8
0
 10
0.0
 20
0.0
 30
0.0
 70
   128
 71
     1
 72
     2
 73
    -3
  0
VERTEX
  5
12CF
  8
0
 10
0.0
 20
0.0
 30
0.0
 70
   128
 71
     4
 72
    -1
 73
     3
  0
VERTEX
  5
12D0
  8
0
 10
0.0
 20
0.0
 30
0.0
 70
   128
 71
     2
 72
     5
 73
     6
  0
VERTEX
  5
12D1
  8
0
 10
0.0
 20
0.0
 30
0.0
 70
   128
 71
     3
 72
     2
 73
     6
  0
VERTEX
  5
12D2
  8
0
 10
0.0
 20
0.0
 30
0.0
 70
   128
 71
     7
 72
     1
 73
     4
  0
VERTEX
  5
12D3
  8
0
 10
0.0
 20
0.0
 30
0.0
 70
   128
 71
     8
 72
     7
 73
     4
  0
SEQEND
  5
1700
  8
0
  0
POLYLINE
  5
12D4
  8
0
 66
     1
 10
0.0
 20
0.0
 30
0.0
 70
    64
 71
    15
 72
    13
  0
VERTEX
  5
12D5
  8
0
 10
83.04329472303498
 20
-97.74788408197585
 30
-73.06658794029657
 70
   192
  0
VERTEX
  5
12D6
  8
0
 10
83.06711326608288
 20
-97.9258387657578
 30
-73.09204682090346
 70
   192
  0
VERTEX
  5
12D7
  8
0
 10
83.13157750044849
 20
-98.58721572058172
 30
-69.7038844342894
 70
   192
  0
VERTEX
  5
12D8
  8
0
 10
83.11731830984309
 20
-98.42423242616698
 30
-72.00042464289284
 70
   192
  0
VERTEX
  5
12D9
  8
0
 10
83.08766843065115
 20
-98.10419746097745
 30
-73.11752245875081
 70
   192
  0
VERTEX
  5
12DA
  8
0
 10
83.10495345751366
 20
-98.28290151732601
 30
-73.1430064765962
 70
   192
  0
VERTEX
  5
12DB
  8
0
 10
83.12619660396801
 20
-98.52571179237421
 30
-70.85358390582273
 70
   192
  0
VERTEX
  5
12DC
  8
0
 10
81.3614360987426
 20
-93.72626790761824
 30
-69.52303913928299
 70
   192
  0
VERTEX
  5
12DD
  8
0
 10
77.39630700753425
 20
-90.40134024443795
 30
-69.39065119502855
 70
   192
  0
VERTEX
  5
12DE
  8
0
 10
81.12575465084414
 20
-93.17794923131409
 30
-72.3966397898272
 70
   192
  0
VERTEX
  5
12DF
  8
0
 10
77.21172167729632
 20
-90.10274513720596
 30
-71.91335865670793
 70
   192
  0
VERTEX
  5
12E0
  8
0
 10
72.29864336469781
 20
-89.50334441328178
 30
-69.3421938442767
 70
   192
  0
VERTEX
  5
12E1
  8
0
 10
72.29489545879751
 20
-89.46050565281551
 30
-70.14298334999805
 70
   192
  0
VERTEX
  5
12E2
  8
0
 10
72.2887115429656
 20
-89.38982317142094
 30
-70.94178168792779
 70
   192
  0
VERTEX
  5
12E3
  8
0
 10
72.28009916709667
 20
-89.29138326478785
 30
-71.7376136114106
 70
   192
  0
VERTEX
  5
12E4
  8
0
 10
0.0
 20
0.0
 30
0.0
 70
   128
 71
     1
 72
     2
 73
     3
  0
VERTEX
  5
12E5
  8
0
 10
0.0
 20
0.0
 30
0.0
 70
   128
 71
     4
 72
     2
 73
     5
  0
VERTEX
  5
12E6
  8
0
 10
0.0
 20
0.0
 30
0.0
 70
   128
 71
     5
 72
     6
 73
     4
  0
VERTEX
  5
12E7
  8
0
 10
0.0
 20
0.0
 30
0.0
 70
   128
 71
     4
 72
     7
 73
     2
  0
VERTEX
  5
12E8
  8
0
 10
0.0
 20
0.0
 30
0.0
 70
   128
 71
     7
 72
     3
 73
     2
  0
VERTEX
  5
12E9
  8
0
 10
0.0
 20
0.0
 30
0.0
 70
   128
 71
     8
 72
     9
 73
    10
  0
VERTEX
  5
12EA
  8
0
 10
0.0
 20
0.0
 30
0.0
 70
   128
 71
    10
 72
     9
 73
    11
  0
VERTEX
  5
12EB
  8
0
 10
0.0
 20
0.0
 30
0.0
 70
   128
 71
     9
 72
    12
 73
    13
  0
VERTEX
  5
12EC
  8
0
 10
0.0
 20
0.0
 30
0.0
 70
   128
 71
     9
 72
    13
 73
    14
  0
VERTEX
  5
12ED
  8
0
 10
0.0
 20
0.0
 30
0.0
 70
   128
 71
    11
 72
     9
 73
    14
  0
VERTEX
  5
12EE
  8
0
 10
0.0
 20
0.0
 30
0.0
 70
   128
 71
    14
 72
    15
 73
    11
  0
VERTEX
  5
12EF
  8
0
 10
0.0
 20
0.0
 30
0.0
 70
   128
 71
     3
 72
     8
 73
    10
  0
VERTEX
  5
12F0
  8
0
 10
0.0
 20
0.0
 30
0.0
 70
   128
 71
     1
 72
     3
 73
    10
  0
SEQEND
  5
1701
  8
0
  0
POLYLINE
  5
12F1
  8
0
 66
     1
 10
0.0
 20
0.0
 30
0.0
 70
    64
 71
    18
 72
    16
  0
VERTEX
  5
12F2
  8
0
 10
71.7582489376317
 20
-89.56546385650299
 30
-69.3427289388269
 70
   192
  0
VERTEX
  5
12F3
  8
0
 10
71.78401008919573
 20
-91.02224532159002
 30
-7.620657022121724
 70
   192
  0
VERTEX
  5
12F4
  8
0
 10
71.76565688219017
 20
-89.99461535435609
 30
56.9533755700587
 70
   192
  0
VERTEX
  5
12F5
  8
0
 10
71.7225829234087
 20
-87.48527690802892
 30
119.8285171649859
 70
   192
  0
VERTEX
  5
12F6
  8
0
 10
71.85431683517093
 20
-87.46933801346458
 30
119.8283220496288
 70
   192
  0
VERTEX
  5
12F7
  8
0
 10
71.98625055173247
 20
-87.45514679561829
 30
119.8282049666706
 70
   192
  0
VERTEX
  5
12F8
  8
0
 10
72.1183608423233
 20
-87.44270575326692
 30
119.8281659367271
 70
   192
  0
VERTEX
  5
12F9
  8
0
 10
77.21598608711577
 20
-88.34026269277199
 30
119.8875599356937
 70
   192
  0
VERTEX
  5
12FA
  8
0
 10
81.18101027291704
 20
-91.66399128166246
 30
120.0498273585353
 70
   192
  0
VERTEX
  5
12FB
  8
0
 10
82.9510083711717
 20
-96.5233011286849
 30
120.2714887803434
 70
   192
  0
VERTEX
  5
12FC
  8
0
 10
83.16977300482358
 20
-99.02379233331956
 30
56.95360908693451
 70
   192
  0
VERTEX
  5
12FD
  8
0
 10
83.25886036269979
 20
-100.04206549336
 30
-6.380268211403417
 70
   192
  0
VERTEX
  5
12FE
  8
0
 10
83.13157750044844
 20
-98.58721572058158
 30
-69.70388443428931
 70
   192
  0
VERTEX
  5
12FF
  8
0
 10
81.3614360987426
 20
-93.72626790761824
 30
-69.52303913928299
 70
   192
  0
VERTEX
  5
1300
  8
0
 10
77.39630700753425
 20
-90.40134024443795
 30
-69.39065119502855
 70
   192
  0
VERTEX
  5
1301
  8
0
 10
72.29864336469781
 20
-89.50334441328178
 30
-69.34219384427664
 70
   192
  0
VERTEX
  5
1302
  8
0
 10
72.11814637924593
 20
-89.52078522120345
 30
-69.34225331226266
 70
   192
  0
VERTEX
  5
1303
  8
0
 10
71.93799515697333
 20
-89.54149397218734
 30
-69.34243169666567
 70
   192
  0
VERTEX
  5
1304
  8
0
 10
0.0
 20
0.0
 30
0.0
 70
   128
 71
    11
 72
    10
 73
     9
  0
VERTEX
  5
1305
  8
0
 10
0.0
 20
0.0
 30
0.0
 70
   128
 71
     9
 72
    14
 73
    12
  0
VERTEX
  5
1306
  8
0
 10
0.0
 20
0.0
 30
0.0
 70
   128
 71
     9
 72
    12
 73
    11
  0
VERTEX
  5
1307
  8
0
 10
0.0
 20
0.0
 30
0.0
 70
   128
 71
    14
 72
    13
 73
    12
  0
VERTEX
  5
1308
  8
0
 10
0.0
 20
0.0
 30
0.0
 70
   128
 71
     9
 72
     8
 73
    15
  0
VERTEX
  5
1309
  8
0
 10
0.0
 20
0.0
 30
0.0
 70
   128
 71
     9
 72
    15
 73
    14
  0
VERTEX
  5
130A
  8
0
 10
0.0
 20
0.0
 30
0.0
 70
   128
 71
     8
 72
     7
 73
    16
  0
VERTEX
  5
130B
  8
0
 10
0.0
 20
0.0
 30
0.0
 70
   128
 71
     8
 72
    16
 73
    15
  0
VERTEX
  5
130C
  8
0
 10
0.0
 20
0.0
 30
0.0
 70
   128
 71
     7
 72
    17
 73
    16
  0
VERTEX
  5
130D
  8
0
 10
0.0
 20
0.0
 30
0.0
 70
   128
 71
     6
 72
     5
 73
    18
  0
VERTEX
  5
130E
  8
0
 10
0.0
 20
0.0
 30
0.0
 70
   128
 71
    18
 72
    17
 73
     7
  0
VERTEX
  5
130F
  8
0
 10
0.0
 20
0.0
 30
0.0
 70
   128
 71
    18
 72
     7
 73
     6
  0
VERTEX
  5
1310
  8
0
 10
0.0
 20
0.0
 30
0.0
 70
   128
 71
     2
 72
     1
 73
    18
  0
VERTEX
  5
1311
  8
0
 10
0.0
 20
0.0
 30
0.0
 70
   128
 71
    18
 72
     5
 73
     3
  0
VERTEX
  5
1312
  8
0
 10
0.0
 20
0.0
 30
0.0
 70
   128
 71
    18
 72
     3
 73
     2
  0
VERTEX
  5
1313
  8
0
 10
0.0
 20
0.0
 30
0.0
 70
   128
 71
     5
 72
     4
 73
     3
  0
SEQEND
  5
1702
  8
0
  0
POLYLINE
  5
1314
  8
0
 66
     1
 10
0.0
 20
0.0
 30
0.0
 70
    64
 71
    12
 72
    10
  0
VERTEX
  5
1315
  8
0
 10
73.16863592629664
 20
-98.28067914795106
 30
-83.10472580600526
 70
   192
  0
VERTEX
  5
1316
  8
0
 10
73.19427918970386
 20
-98.09616787960096
 30
-83.08671761128856
 70
   192
  0
VERTEX
  5
1317
  8
0
 10
73.16864711353824
 20
-97.9164373230395
 30
-83.06604255542733
 70
   192
  0
VERTEX
  5
1318
  8
0
 10
73.09204682090346
 20
-97.9258387657578
 30
-83.06711326608288
 70
   192
  0
VERTEX
  5
1319
  8
0
 10
73.11752245875081
 20
-98.10419746097745
 30
-83.08766843065115
 70
   192
  0
VERTEX
  5
131A
  8
0
 10
73.09206050471444
 20
-97.74428674973935
 30
-83.04294682430636
 70
   192
  0
VERTEX
  5
131B
  8
0
 10
73.06658794029659
 20
-97.74788408197584
 30
-83.04329472303496
 70
   192
  0
VERTEX
  5
131C
  8
0
 10
73.19426520636614
 20
-98.27846256177017
 30
-83.10443222191682
 70
   192
  0
VERTEX
  5
131D
  8
0
 10
73.21989414717491
 20
-98.27625177345408
 30
-83.10407270719145
 70
   192
  0
VERTEX
  5
131E
  8
0
 10
73.1430064765962
 20
-97.73712011137073
 30
-83.04205444249908
 70
   192
  0
VERTEX
  5
131F
  8
0
 10
73.11753340635049
 20
-97.74069875162117
 30
-83.04253339654888
 70
   192
  0
VERTEX
  5
1320
  8
0
 10
73.1430064765962
 20
-98.28290151732601
 30
-83.10495345751366
 70
   192
  0
VERTEX
  5
1321
  8
0
 10
0.0
 20
0.0
 30
0.0
 70
   128
 71
     1
 72
     2
 73
     3
  0
VERTEX
  5
1322
  8
0
 10
0.0
 20
0.0
 30
0.0
 70
   128
 71
     4
 72
     5
 73
     6
  0
VERTEX
  5
1323
  8
0
 10
0.0
 20
0.0
 30
0.0
 70
   128
 71
     6
 72
     7
 73
     4
  0
VERTEX
  5
1324
  8
0
 10
0.0
 20
0.0
 30
0.0
 70
   128
 71
     8
 72
     9
 73
     2
  0
VERTEX
  5
1325
  8
0
 10
0.0
 20
0.0
 30
0.0
 70
   128
 71
     2
 72
     1
 73
     8
  0
VERTEX
  5
1326
  8
0
 10
0.0
 20
0.0
 30
0.0
 70
   128
 71
    10
 72
    11
 73
     3
  0
VERTEX
  5
1327
  8
0
 10
0.0
 20
0.0
 30
0.0
 70
   128
 71
    12
 72
     1
 73
     3
  0
VERTEX
  5
1328
  8
0
 10
0.0
 20
0.0
 30
0.0
 70
   128
 71
    11
 72
    12
 73
     3
  0
VERTEX
  5
1329
  8
0
 10
0.0
 20
0.0
 30
0.0
 70
   128
 71
     5
 72
    12
 73
    11
  0
VERTEX
  5
132A
  8
0
 10
0.0
 20
0.0
 30
0.0
 70
   128
 71
     6
 72
     5
 73
    11
  0
SEQEND
  5
1703
  8
0
  0
POLYLINE
  5
132B
  8
0
 66
     1
 10
0.0
 20
0.0
 30
0.0
 70
    64
 71
    15
 72
    13
  0
VERTEX
  5
132C
  8
0
 10
82.91852999051014
 20
-96.16217294448754
 30
122.9521950786859
 70
   192
  0
VERTEX
  5
132D
  8
0
 10
82.94644520407881
 20
-96.47114389014598
 30
121.172632150494
 70
   192
  0
VERTEX
  5
132E
  8
0
 10
82.9397339116988
 20
-96.39443346722318
 30
122.0720047335551
 70
   192
  0
VERTEX
  5
132F
  8
0
 10
82.93087952345317
 20
-96.29322734646672
 30
122.9689325425356
 70
   192
  0
VERTEX
  5
1330
  8
0
 10
82.90442854140927
 20
-96.03129508149644
 30
122.9354605619538
 70
   192
  0
VERTEX
  5
1331
  8
0
 10
82.88857765912103
 20
-95.90061680234955
 30
122.9187319389379
 70
   192
  0
VERTEX
  5
1332
  8
0
 10
81.00900336798324
 20
-91.25526865258917
 30
122.3094779699958
 70
   192
  0
VERTEX
  5
1333
  8
0
 10
77.08055778071645
 20
-88.11585723123814
 30
121.8682744541047
 70
   192
  0
VERTEX
  5
1334
  8
0
 10
81.18101027291704
 20
-91.66399128166246
 30
120.0498273585353
 70
   192
  0
VERTEX
  5
1335
  8
0
 10
77.21598608711577
 20
-88.34026269277199
 30
119.8875599356937
 70
   192
  0
VERTEX
  5
1336
  8
0
 10
72.10433648178741
 20
-87.28240657882944
 30
121.707554383347
 70
   192
  0
VERTEX
  5
1337
  8
0
 10
72.11050559463564
 20
-87.35291986134632
 30
121.0826383849945
 70
   192
  0
VERTEX
  5
1338
  8
0
 10
72.11518154952957
 20
-87.40636627034922
 30
120.456019040598
 70
   192
  0
VERTEX
  5
1339
  8
0
 10
72.11836084232327
 20
-87.44270575326695
 30
119.8281659367272
 70
   192
  0
VERTEX
  5
133A
  8
0
 10
82.95100837117177
 20
-96.52330112868489
 30
120.2714887803434
 70
   192
  0
VERTEX
  5
133B
  8
0
 10
0.0
 20
0.0
 30
0.0
 70
   128
 71
     1
 72
     2
 73
     3
  0
VERTEX
  5
133C
  8
0
 10
0.0
 20
0.0
 30
0.0
 70
   128
 71
     3
 72
     4
 73
     1
  0
VERTEX
  5
133D
  8
0
 10
0.0
 20
0.0
 30
0.0
 70
   128
 71
     1
 72
     5
 73
     2
  0
VERTEX
  5
133E
  8
0
 10
0.0
 20
0.0
 30
0.0
 70
   128
 71
     5
 72
     6
 73
     2
  0
VERTEX
  5
133F
  8
0
 10
0.0
 20
0.0
 30
0.0
 70
   128
 71
     7
 72
     8
 73
     9
  0
VERTEX
  5
1340
  8
0
 10
0.0
 20
0.0
 30
0.0
 70
   128
 71
     9
 72
     8
 73
    10
  0
VERTEX
  5
1341
  8
0
 10
0.0
 20
0.0
 30
0.0
 70
   128
 71
     8
 72
    11
 73
    12
  0
VERTEX
  5
1342
  8
0
 10
0.0
 20
0.0
 30
0.0
 70
   128
 71
     8
 72
    12
 73
    13
  0
VERTEX
  5
1343
  8
0
 10
0.0
 20
0.0
 30
0.0
 70
   128
 71
    14
 72
    10
 73
     8
  0
VERTEX
  5
1344
  8
0
 10
0.0
 20
0.0
 30
0.0
 70
   128
 71
    13
 72
    14
 73
     8
  0
VERTEX
  5
1345
  8
0
 10
0.0
 20
0.0
 30
0.0
 70
   128
 71
     6
 72
     7
 73
     2
  0
VERTEX
  5
1346
  8
0
 10
0.0
 20
0.0
 30
0.0
 70
   128
 71
     2
 72
     7
 73
     9
  0
VERTEX
  5
1347
  8
0
 10
0.0
 20
0.0
 30
0.0
 70
   128
 71
    15
 72
     2
 73
     9
  0
SEQEND
  5
1704
  8
0
  0
POLYLINE
  5
1348
  8
0
 66
     1
 10
0.0
 20
0.0
 30
0.0
 70
    64
 71
    15
 72
    13
  0
VERTEX
  5
1349
  8
0
 10
73.11752245875081
 20
-98.10419746097745
 30
-83.08766843065115
 70
   192
  0
VERTEX
  5
134A
  8
0
 10
70.85358390582273
 20
-98.5257117923741
 30
-83.12619660396801
 70
   192
  0
VERTEX
  5
134B
  8
0
 10
72.00042464289281
 20
-98.42423242616688
 30
-83.11731830984309
 70
   192
  0
VERTEX
  5
134C
  8
0
 10
73.14300647659618
 20
-98.28290151732597
 30
-83.10495345751369
 70
   192
  0
VERTEX
  5
134D
  8
0
 10
73.09204682090346
 20
-97.9258387657578
 30
-83.06711326608288
 70
   192
  0
VERTEX
  5
134E
  8
0
 10
73.06658794029657
 20
-97.74788408197585
 30
-83.04329472303498
 70
   192
  0
VERTEX
  5
134F
  8
0
 10
71.91335865670793
 20
-90.10274513720596
 30
-77.21172167729632
 70
   192
  0
VERTEX
  5
1350
  8
0
 10
69.39065119502865
 20
-90.40134024443795
 30
-77.39630700753425
 70
   192
  0
VERTEX
  5
1351
  8
0
 10
69.52303913928307
 20
-93.72626790761824
 30
-81.3614360987426
 70
   192
  0
VERTEX
  5
1352
  8
0
 10
72.3966397898272
 20
-93.17794923131409
 30
-81.12575465084414
 70
   192
  0
VERTEX
  5
1353
  8
0
 10
71.7376136114106
 20
-89.29138326478785
 30
-72.28009916709667
 70
   192
  0
VERTEX
  5
1354
  8
0
 10
70.94178168792777
 20
-89.38982317142094
 30
-72.2887115429656
 70
   192
  0
VERTEX
  5
1355
  8
0
 10
70.14298334999806
 20
-89.46050565281551
 30
-72.29489545879751
 70
   192
  0
VERTEX
  5
1356
  8
0
 10
69.3421938442767
 20
-89.50334441328178
 30
-72.29864336469781
 70
   192
  0
VERTEX
  5
1357
  8
0
 10
69.7038844342894
 20
-98.58721572058158
 30
-83.13157750044844
 70
   192
  0
VERTEX
  5
1358
  8
0
 10
0.0
 20
0.0
 30
0.0
 70
   128
 71
     1
 72
     2
 73
     3
  0
VERTEX
  5
1359
  8
0
 10
0.0
 20
0.0
 30
0.0
 70
   128
 71
     3
 72
     4
 73
     1
  0
VERTEX
  5
135A
  8
0
 10
0.0
 20
0.0
 30
0.0
 70
   128
 71
     1
 72
     5
 73
     2
  0
VERTEX
  5
135B
  8
0
 10
0.0
 20
0.0
 30
0.0
 70
   128
 71
     5
 72
     6
 73
     2
  0
VERTEX
  5
135C
  8
0
 10
0.0
 20
0.0
 30
0.0
 70
   128
 71
     7
 72
     8
 73
     9
  0
VERTEX
  5
135D
  8
0
 10
0.0
 20
0.0
 30
0.0
 70
   128
 71
    10
 72
     7
 73
     9
  0
VERTEX
  5
135E
  8
0
 10
0.0
 20
0.0
 30
0.0
 70
   128
 71
     7
 72
    11
 73
    12
  0
VERTEX
  5
135F
  8
0
 10
0.0
 20
0.0
 30
0.0
 70
   128
 71
     7
 72
    12
 73
    13
  0
VERTEX
  5
1360
  8
0
 10
0.0
 20
0.0
 30
0.0
 70
   128
 71
    14
 72
     8
 73
     7
  0
VERTEX
  5
1361
  8
0
 10
0.0
 20
0.0
 30
0.0
 70
   128
 71
    13
 72
    14
 73
     7
  0
VERTEX
  5
1362
  8
0
 10
0.0
 20
0.0
 30
0.0
 70
   128
 71
     6
 72
    10
 73
     2
  0
VERTEX
  5
1363
  8
0
 10
0.0
 20
0.0
 30
0.0
 70
   128
 71
    10
 72
     9
 73
    15
  0
VERTEX
  5
1364
  8
0
 10
0.0
 20
0.0
 30
0.0
 70
   128
 71
     2
 72
    10
 73
    15
  0
SEQEND
  5
1705
  8
0
  0
POLYLINE
  5
1365
  8
0
 66
     1
 10
0.0
 20
0.0
 30
0.0
 70
    64
 71
    15
 72
    13
  0
VERTEX
  5
1366
  8
0
 10
82.88857765912103
 20
-95.90061680234955
 30
122.9187319389379
 70
   192
  0
VERTEX
  5
1367
  8
0
 10
81.51475862529853
 20
-95.44261315326618
 30
127.8682163138746
 70
   192
  0
VERTEX
  5
1368
  8
0
 10
77.86821631387464
 20
-95.44261315326618
 30
131.5147586252984
 70
   192
  0
VERTEX
  5
1369
  8
0
 10
71.84029032498442
 20
-87.30901426840856
 30
121.7079985684537
 70
   192
  0
VERTEX
  5
136A
  8
0
 10
71.86827445410475
 20
-88.11585723123815
 30
127.0805577807164
 70
   192
  0
VERTEX
  5
136B
  8
0
 10
71.70755438334704
 20
-87.28240657882942
 30
122.1043364817874
 70
   192
  0
VERTEX
  5
136C
  8
0
 10
71.70766543451217
 20
-87.29484147825576
 30
121.9722256537602
 70
   192
  0
VERTEX
  5
136D
  8
0
 10
71.70799856845376
 20
-87.30901426840855
 30
121.8402903249844
 70
   192
  0
VERTEX
  5
136E
  8
0
 10
71.70855372651387
 20
-87.32492245375566
 30
121.7085537265138
 70
   192
  0
VERTEX
  5
136F
  8
0
 10
71.97222565376025
 20
-87.29484147825578
 30
121.7076654345121
 70
   192
  0
VERTEX
  5
1370
  8
0
 10
72.10433648178739
 20
-87.28240657882944
 30
121.7075543833469
 70
   192
  0
VERTEX
  5
1371
  8
0
 10
72.91873193893794
 20
-95.90061680234955
 30
132.8885776591209
 70
   192
  0
VERTEX
  5
1372
  8
0
 10
72.30947796999588
 20
-91.25526865258918
 30
131.0090033679832
 70
   192
  0
VERTEX
  5
1373
  8
0
 10
81.00900336798324
 20
-91.25526865258917
 30
122.3094779699958
 70
   192
  0
VERTEX
  5
1374
  8
0
 10
77.08055778071645
 20
-88.11585723123814
 30
121.8682744541047
 70
   192
  0
VERTEX
  5
1375
  8
0
 10
0.0
 20
0.0
 30
0.0
 70
   128
 71
     1
 72
     2
 73
     3
  0
VERTEX
  5
1376
  8
0
 10
0.0
 20
0.0
 30
0.0
 70
   128
 71
     4
 72
     5
 73
     6
  0
VERTEX
  5
1377
  8
0
 10
0.0
 20
0.0
 30
0.0
 70
   128
 71
     6
 72
     7
 73
     4
  0
VERTEX
  5
1378
  8
0
 10
0.0
 20
0.0
 30
0.0
 70
   128
 71
     7
 72
     8
 73
     4
  0
VERTEX
  5
1379
  8
0
 10
0.0
 20
0.0
 30
0.0
 70
   128
 71
     8
 72
     9
 73
     4
  0
VERTEX
  5
137A
  8
0
 10
0.0
 20
0.0
 30
0.0
 70
   128
 71
     4
 72
    10
 73
     5
  0
VERTEX
  5
137B
  8
0
 10
0.0
 20
0.0
 30
0.0
 70
   128
 71
    10
 72
    11
 73
     5
  0
VERTEX
  5
137C
  8
0
 10
0.0
 20
0.0
 30
0.0
 70
   128
 71
    12
 72
    13
 73
     5
  0
VERTEX
  5
137D
  8
0
 10
0.0
 20
0.0
 30
0.0
 70
   128
 71
    14
 72
     1
 73
     3
  0
VERTEX
  5
137E
  8
0
 10
0.0
 20
0.0
 30
0.0
 70
   128
 71
    15
 72
    14
 73
     3
  0
VERTEX
  5
137F
  8
0
 10
0.0
 20
0.0
 30
0.0
 70
   128
 71
     5
 72
    11
 73
    15
  0
VERTEX
  5
1380
  8
0
 10
0.0
 20
0.0
 30
0.0
 70
   128
 71
     5
 72
    15
 73
     3
  0
VERTEX
  5
1381
  8
0
 10
0.0
 20
0.0
 30
0.0
 70
   128
 71
    12
 72
     5
 73
     3
  0
SEQEND
  5
1706
  8
0
  0
POLYLINE
  5
1382
  8
0
 66
     1
 10
0.0
 20
0.0
 30
0.0
 70
    64
 71
    18
 72
    16
  0
VERTEX
  5
1383
  8
0
 10
69.7038844342894
 20
-98.5872157205816
 30
-83.1315775004484
 70
   192
  0
VERTEX
  5
1384
  8
0
 10
6.360636663896905
 20
-100.0421527524621
 30
-83.25886799688203
 70
   192
  0
VERTEX
  5
1385
  8
0
 10
-56.97643348115689
 20
-99.02305680717379
 30
-83.16970865462407
 70
   192
  0
VERTEX
  5
1386
  8
0
 10
-120.2714887803434
 20
-96.52330112868489
 30
-82.95100837117177
 70
   192
  0
VERTEX
  5
1387
  8
0
 10
-120.0498273585353
 20
-91.66399128166246
 30
-81.18101027291704
 70
   192
  0
VERTEX
  5
1388
  8
0
 10
-119.8875599356937
 20
-88.34026269277199
 30
-77.21598608711577
 70
   192
  0
VERTEX
  5
1389
  8
0
 10
-119.8281659367271
 20
-87.4427057532669
 30
-72.1183608423233
 70
   192
  0
VERTEX
  5
138A
  8
0
 10
-119.8282049666706
 20
-87.4551467956183
 30
-71.98625055173243
 70
   192
  0
VERTEX
  5
138B
  8
0
 10
-119.8283220496288
 20
-87.4693380134646
 30
-71.85431683517086
 70
   192
  0
VERTEX
  5
138C
  8
0
 10
-119.828517164986
 20
-87.485276908029
 30
-71.7225829234086
 70
   192
  0
VERTEX
  5
138D
  8
0
 10
-56.97715304606445
 20
-89.99383296161164
 30
-71.76564318133065
 70
   192
  0
VERTEX
  5
138E
  8
0
 10
5.544133115285433
 20
-91.03231771304493
 30
-71.78396881673291
 70
   192
  0
VERTEX
  5
138F
  8
0
 10
69.34272893882701
 20
-89.56546385650297
 30
-71.7582489376317
 70
   192
  0
VERTEX
  5
1390
  8
0
 10
69.34243169666577
 20
-89.54149397218734
 30
-71.93799515697333
 70
   192
  0
VERTEX
  5
1391
  8
0
 10
69.34225331226276
 20
-89.52078522120345
 30
-72.11814637924593
 70
   192
  0
VERTEX
  5
1392
  8
0
 10
69.34219384427674
 20
-89.5033444132818
 30
-72.29864336469781
 70
   192
  0
VERTEX
  5
1393
  8
0
 10
69.39065119502865
 20
-90.40134024443795
 30
-77.39630700753425
 70
   192
  0
VERTEX
  5
1394
  8
0
 10
69.52303913928307
 20
-93.72626790761824
 30
-81.3614360987426
 70
   192
  0
VERTEX
  5
1395
  8
0
 10
0.0
 20
0.0
 30
0.0
 70
   128
 71
    11
 72
    10
 73
     9
  0
VERTEX
  5
1396
  8
0
 10
0.0
 20
0.0
 30
0.0
 70
   128
 71
     9
 72
    14
 73
    12
  0
VERTEX
  5
1397
  8
0
 10
0.0
 20
0.0
 30
0.0
 70
   128
 71
     9
 72
    12
 73
    11
  0
VERTEX
  5
1398
  8
0
 10
0.0
 20
0.0
 30
0.0
 70
   128
 71
    14
 72
    13
 73
    12
  0
VERTEX
  5
1399
  8
0
 10
0.0
 20
0.0
 30
0.0
 70
   128
 71
     8
 72
     7
 73
    15
  0
VERTEX
  5
139A
  8
0
 10
0.0
 20
0.0
 30
0.0
 70
   128
 71
     8
 72
    15
 73
    14
  0
VERTEX
  5
139B
  8
0
 10
0.0
 20
0.0
 30
0.0
 70
   128
 71
    14
 72
     9
 73
     8
  0
VERTEX
  5
139C
  8
0
 10
0.0
 20
0.0
 30
0.0
 70
   128
 71
     7
 72
    16
 73
    15
  0
VERTEX
  5
139D
  8
0
 10
0.0
 20
0.0
 30
0.0
 70
   128
 71
     7
 72
     6
 73
    17
  0
VERTEX
  5
139E
  8
0
 10
0.0
 20
0.0
 30
0.0
 70
   128
 71
     7
 72
    17
 73
    16
  0
VERTEX
  5
139F
  8
0
 10
0.0
 20
0.0
 30
0.0
 70
   128
 71
     6
 72
     5
 73
    18
  0
VERTEX
  5
13A0
  8
0
 10
0.0
 20
0.0
 30
0.0
 70
   128
 71
     6
 72
    18
 73
    17
  0
VERTEX
  5
13A1
  8
0
 10
0.0
 20
0.0
 30
0.0
 70
   128
 71
     2
 72
     1
 73
    18
  0
VERTEX
  5
13A2
  8
0
 10
0.0
 20
0.0
 30
0.0
 70
   128
 71
    18
 72
     5
 73
     3
  0
VERTEX
  5
13A3
  8
0
 10
0.0
 20
0.0
 30
0.0
 70
   128
 71
    18
 72
     3
 73
     2
  0
VERTEX
  5
13A4
  8
0
 10
0.0
 20
0.0
 30
0.0
 70
   128
 71
     5
 72
     4
 73
     3
  0
SEQEND
  5
1707
  8
0
  0
POLYLINE
  5
13A5
  8
0
 66
     1
 10
0.0
 20
0.0
 30
0.0
 70
    64
 71
    15
 72
    13
  0
VERTEX
  5
13A6
  8
0
 10
72.91873193893794
 20
-95.90061680234955
 30
132.8885776591209
 70
   192
  0
VERTEX
  5
13A7
  8
0
 10
72.93546056195387
 20
-96.03129508149644
 30
132.9044285414092
 70
   192
  0
VERTEX
  5
13A8
  8
0
 10
69.6591445639951
 20
-96.54469434907203
 30
132.9528800354319
 70
   192
  0
VERTEX
  5
13A9
  8
0
 10
71.8687023619809
 20
-96.41393652523888
 30
132.9414402081791
 70
   192
  0
VERTEX
  5
13AA
  8
0
 10
72.952195078686
 20
-96.16217294448754
 30
132.91852999051
 70
   192
  0
VERTEX
  5
13AB
  8
0
 10
72.9689325425357
 20
-96.2932273464666
 30
132.9308795234531
 70
   192
  0
VERTEX
  5
13AC
  8
0
 10
70.76502514538076
 20
-96.4977903561494
 30
132.948776467777
 70
   192
  0
VERTEX
  5
13AD
  8
0
 10
69.53033613288969
 20
-91.68214053494631
 30
131.1825981268307
 70
   192
  0
VERTEX
  5
13AE
  8
0
 10
69.43604181687729
 20
-88.35603719731816
 30
127.2173661774362
 70
   192
  0
VERTEX
  5
13AF
  8
0
 10
72.30947796999588
 20
-91.25526865258918
 30
131.0090033679832
 70
   192
  0
VERTEX
  5
13B0
  8
0
 10
71.86827445410475
 20
-88.11585723123815
 30
127.0805577807164
 70
   192
  0
VERTEX
  5
13B1
  8
0
 10
69.4015277017842
 20
-87.45761103944753
 30
122.1196648858907
 70
   192
  0
VERTEX
  5
13B2
  8
0
 10
70.17202724551085
 20
-87.4249316473376
 30
122.1168058095502
 70
   192
  0
VERTEX
  5
13B3
  8
0
 10
70.94099164015316
 20
-87.36650821578108
 30
122.1116944216047
 70
   192
  0
VERTEX
  5
13B4
  8
0
 10
71.707554383347
 20
-87.28240657882944
 30
122.1043364817874
 70
   192
  0
VERTEX
  5
13B5
  8
0
 10
0.0
 20
0.0
 30
0.0
 70
   128
 71
     1
 72
     2
 73
     3
  0
VERTEX
  5
13B6
  8
0
 10
0.0
 20
0.0
 30
0.0
 70
   128
 71
     4
 72
     2
 73
     5
  0
VERTEX
  5
13B7
  8
0
 10
0.0
 20
0.0
 30
0.0
 70
   128
 71
     5
 72
     6
 73
     4
  0
VERTEX
  5
13B8
  8
0
 10
0.0
 20
0.0
 30
0.0
 70
   128
 71
     4
 72
     7
 73
     2
  0
VERTEX
  5
13B9
  8
0
 10
0.0
 20
0.0
 30
0.0
 70
   128
 71
     7
 72
     3
 73
     2
  0
VERTEX
  5
13BA
  8
0
 10
0.0
 20
0.0
 30
0.0
 70
   128
 71
     8
 72
     9
 73
    10
  0
VERTEX
  5
13BB
  8
0
 10
0.0
 20
0.0
 30
0.0
 70
   128
 71
    10
 72
     9
 73
    11
  0
VERTEX
  5
13BC
  8
0
 10
0.0
 20
0.0
 30
0.0
 70
   128
 71
     9
 72
    12
 73
    13
  0
VERTEX
  5
13BD
  8
0
 10
0.0
 20
0.0
 30
0.0
 70
   128
 71
     9
 72
    13
 73
    14
  0
VERTEX
  5
13BE
  8
0
 10
0.0
 20
0.0
 30
0.0
 70
   128
 71
    11
 72
     9
 73
    14
  0
VERTEX
  5
13BF
  8
0
 10
0.0
 20
0.0
 30
0.0
 70
   128
 71
    14
 72
    15
 73
    11
  0
VERTEX
  5
13C0
  8
0
 10
0.0
 20
0.0
 30
0.0
 70
   128
 71
     3
 72
     8
 73
     1
  0
VERTEX
  5
13C1
  8
0
 10
0.0
 20
0.0
 30
0.0
 70
   128
 71
     8
 72
    10
 73
     1
  0
SEQEND
  5
1708
  8
0
  0
POLYLINE
  5
13C2
  8
0
 66
     1
 10
0.0
 20
0.0
 30
0.0
 70
    64
 71
    15
 72
    13
  0
VERTEX
  5
13C3
  8
0
 10
-122.9187319389378
 20
-95.90061680234955
 30
-82.88857765912103
 70
   192
  0
VERTEX
  5
13C4
  8
0
 10
-122.9354605619538
 20
-96.03129508149644
 30
-82.90442854140927
 70
   192
  0
VERTEX
  5
13C5
  8
0
 10
-120.2714887803434
 20
-96.52330112868493
 30
-82.9510083711718
 70
   192
  0
VERTEX
  5
13C6
  8
0
 10
-122.0720047335551
 20
-96.39443346722318
 30
-82.9397339116988
 70
   192
  0
VERTEX
  5
13C7
  8
0
 10
-122.9521950786859
 20
-96.16217294448754
 30
-82.91852999051014
 70
   192
  0
VERTEX
  5
13C8
  8
0
 10
-122.9689325425356
 20
-96.2932273464666
 30
-82.93087952345314
 70
   192
  0
VERTEX
  5
13C9
  8
0
 10
-121.172632150494
 20
-96.47114389014598
 30
-82.94644520407881
 70
   192
  0
VERTEX
  5
13CA
  8
0
 10
-120.0498273585353
 20
-91.66399128166246
 30
-81.18101027291704
 70
   192
  0
VERTEX
  5
13CB
  8
0
 10
-119.8875599356937
 20
-88.34026269277199
 30
-77.21598608711577
 70
   192
  0
VERTEX
  5
13CC
  8
0
 10
-121.8682744541046
 20
-88.11585723123814
 30
-77.08055778071645
 70
   192
  0
VERTEX
  5
13CD
  8
0
 10
-122.3094779699958
 20
-91.25526865258917
 30
-81.00900336798325
 70
   192
  0
VERTEX
  5
13CE
  8
0
 10
-119.8281659367272
 20
-87.44270575326695
 30
-72.11836084232327
 70
   192
  0
VERTEX
  5
13CF
  8
0
 10
-120.456019040598
 20
-87.40636627034922
 30
-72.11518154952957
 70
   192
  0
VERTEX
  5
13D0
  8
0
 10
-121.0826383849945
 20
-87.35291986134632
 30
-72.11050559463564
 70
   192
  0
VERTEX
  5
13D1
  8
0
 10
-121.707554383347
 20
-87.28240657882944
 30
-72.10433648178741
 70
   192
  0
VERTEX
  5
13D2
  8
0
 10
0.0
 20
0.0
 30
0.0
 70
   128
 71
     1
 72
     2
 73
     3
  0
VERTEX
  5
13D3
  8
0
 10
0.0
 20
0.0
 30
0.0
 70
   128
 71
     4
 72
     2
 73
     5
  0
VERTEX
  5
13D4
  8
0
 10
0.0
 20
0.0
 30
0.0
 70
   128
 71
     5
 72
     6
 73
     4
  0
VERTEX
  5
13D5
  8
0
 10
0.0
 20
0.0
 30
0.0
 70
   128
 71
     4
 72
     7
 73
     2
  0
VERTEX
  5
13D6
  8
0
 10
0.0
 20
0.0
 30
0.0
 70
   128
 71
     7
 72
     3
 73
     2
  0
VERTEX
  5
13D7
  8
0
 10
0.0
 20
0.0
 30
0.0
 70
   128
 71
     8
 72
     9
 73
    10
  0
VERTEX
  5
13D8
  8
0
 10
0.0
 20
0.0
 30
0.0
 70
   128
 71
    11
 72
     8
 73
    10
  0
VERTEX
  5
13D9
  8
0
 10
0.0
 20
0.0
 30
0.0
 70
   128
 71
     9
 72
    12
 73
    13
  0
VERTEX
  5
13DA
  8
0
 10
0.0
 20
0.0
 30
0.0
 70
   128
 71
     9
 72
    13
 73
    14
  0
VERTEX
  5
13DB
  8
0
 10
0.0
 20
0.0
 30
0.0
 70
   128
 71
    10
 72
     9
 73
    14
  0
VERTEX
  5
13DC
  8
0
 10
0.0
 20
0.0
 30
0.0
 70
   128
 71
    14
 72
    15
 73
    10
  0
VERTEX
  5
13DD
  8
0
 10
0.0
 20
0.0
 30
0.0
 70
   128
 71
     3
 72
     8
 73
     1
  0
VERTEX
  5
13DE
  8
0
 10
0.0
 20
0.0
 30
0.0
 70
   128
 71
     8
 72
    11
 73
     1
  0
SEQEND
  5
1709
  8
0
  0
POLYLINE
  5
13DF
  8
0
 66
     1
 10
0.0
 20
0.0
 30
0.0
 70
    64
 71
    18
 72
    16
  0
VERTEX
  5
13E0
  8
0
 10
69.4017318020764
 20
-87.50018733435941
 30
121.7238874166808
 70
   192
  0
VERTEX
  5
13E1
  8
0
 10
5.370066118941716
 20
-88.45747785358176
 30
121.7406464589148
 70
   192
  0
VERTEX
  5
13E2
  8
0
 10
-57.3562650780278
 20
-87.79086298010132
 30
121.7289368818042
 70
   192
  0
VERTEX
  5
13E3
  8
0
 10
-119.8749381167083
 20
-85.89667033348059
 30
121.6960359655528
 70
   192
  0
VERTEX
  5
13E4
  8
0
 10
-119.8748554421094
 20
-85.88610164367638
 30
121.7907849298887
 70
   192
  0
VERTEX
  5
13E5
  8
0
 10
-119.8748058343442
 20
-85.87643612776587
 30
121.8856303073368
 70
   192
  0
VERTEX
  5
13E6
  8
0
 10
-119.8747892979215
 20
-85.86767466425458
 30
121.9805634773338
 70
   192
  0
VERTEX
  5
13E7
  8
0
 10
-119.92353929085
 20
-86.7656599122901
 30
127.0782261942671
 70
   192
  0
VERTEX
  5
13E8
  8
0
 10
-120.0567267483992
 20
-90.09055866184698
 30
131.0433527558612
 70
   192
  0
VERTEX
  5
13E9
  8
0
 10
-120.238664198877
 20
-94.95146697806621
 30
132.8134907020496
 70
   192
  0
VERTEX
  5
13EA
  8
0
 10
-56.94771446924139
 20
-96.84747496026868
 30
132.9793699064471
 70
   192
  0
VERTEX
  5
13EB
  8
0
 10
6.358051591002694
 20
-97.49416229562202
 30
133.0359477171363
 70
   192
  0
VERTEX
  5
13EC
  8
0
 10
69.65914456399513
 20
-96.544694349072
 30
132.9528800354319
 70
   192
  0
VERTEX
  5
13ED
  8
0
 10
69.53033613288969
 20
-91.68214053494631
 30
131.1825981268307
 70
   192
  0
VERTEX
  5
13EE
  8
0
 10
69.43604181687729
 20
-88.35603719731816
 30
127.2173661774362
 70
   192
  0
VERTEX
  5
13EF
  8
0
 10
69.40152770178426
 20
-87.45761103944751
 30
122.1196648858906
 70
   192
  0
VERTEX
  5
13F0
  8
0
 10
69.40155038225681
 20
-87.4700526529937
 30
121.9875546452728
 70
   192
  0
VERTEX
  5
13F1
  8
0
 10
69.40161841968087
 20
-87.48424558432383
 30
121.8556210786217
 70
   192
  0
VERTEX
  5
13F2
  8
0
 10
0.0
 20
0.0
 30
0.0
 70
   128
 71
    11
 72
    10
 73
     9
  0
VERTEX
  5
13F3
  8
0
 10
0.0
 20
0.0
 30
0.0
 70
   128
 71
     9
 72
    14
 73
    12
  0
VERTEX
  5
13F4
  8
0
 10
0.0
 20
0.0
 30
0.0
 70
   128
 71
     9
 72
    12
 73
    11
  0
VERTEX
  5
13F5
  8
0
 10
0.0
 20
0.0
 30
0.0
 70
   128
 71
    14
 72
    13
 73
    12
  0
VERTEX
  5
13F6
  8
0
 10
0.0
 20
0.0
 30
0.0
 70
   128
 71
     9
 72
     8
 73
    15
  0
VERTEX
  5
13F7
  8
0
 10
0.0
 20
0.0
 30
0.0
 70
   128
 71
     9
 72
    15
 73
    14
  0
VERTEX
  5
13F8
  8
0
 10
0.0
 20
0.0
 30
0.0
 70
   128
 71
     8
 72
     7
 73
    16
  0
VERTEX
  5
13F9
  8
0
 10
0.0
 20
0.0
 30
0.0
 70
   128
 71
     8
 72
    16
 73
    15
  0
VERTEX
  5
13FA
  8
0
 10
0.0
 20
0.0
 30
0.0
 70
   128
 71
     7
 72
    17
 73
    16
  0
VERTEX
  5
13FB
  8
0
 10
0.0
 20
0.0
 30
0.0
 70
   128
 71
     6
 72
     5
 73
    18
  0
VERTEX
  5
13FC
  8
0
 10
0.0
 20
0.0
 30
0.0
 70
   128
 71
    18
 72
    17
 73
     7
  0
VERTEX
  5
13FD
  8
0
 10
0.0
 20
0.0
 30
0.0
 70
   128
 71
    18
 72
     7
 73
     6
  0
VERTEX
  5
13FE
  8
0
 10
0.0
 20
0.0
 30
0.0
 70
   128
 71
     2
 72
     1
 73
    18
  0
VERTEX
  5
13FF
  8
0
 10
0.0
 20
0.0
 30
0.0
 70
   128
 71
    18
 72
     5
 73
     3
  0
VERTEX
  5
1400
  8
0
 10
0.0
 20
0.0
 30
0.0
 70
   128
 71
    18
 72
     3
 73
     2
  0
VERTEX
  5
1401
  8
0
 10
0.0
 20
0.0
 30
0.0
 70
   128
 71
     5
 72
     4
 73
     3
  0
SEQEND
  5
170A
  8
0
  0
POLYLINE
  5
1402
  8
0
 66
     1
 10
0.0
 20
0.0
 30
0.0
 70
    64
 71
    15
 72
    13
  0
VERTEX
  5
1403
  8
0
 10
-121.8402903249844
 20
-87.30901426840855
 30
-71.70799856845376
 70
   192
  0
VERTEX
  5
1404
  8
0
 10
-121.8682744541046
 20
-88.11585723123814
 30
-77.08055778071645
 70
   192
  0
VERTEX
  5
1405
  8
0
 10
-121.7075543833469
 20
-87.28240657882944
 30
-72.1043364817874
 70
   192
  0
VERTEX
  5
1406
  8
0
 10
-121.707665434512
 20
-87.29484147825576
 30
-71.97222565376025
 70
   192
  0
VERTEX
  5
1407
  8
0
 10
-121.7079985684536
 20
-87.30901426840856
 30
-71.84029032498442
 70
   192
  0
VERTEX
  5
1408
  8
0
 10
-121.7085537265137
 20
-87.32492245375568
 30
-71.70855372651378
 70
   192
  0
VERTEX
  5
1409
  8
0
 10
-121.9722256537602
 20
-87.29484147825576
 30
-71.70766543451217
 70
   192
  0
VERTEX
  5
140A
  8
0
 10
-122.1043364817874
 20
-87.28240657882942
 30
-71.70755438334704
 70
   192
  0
VERTEX
  5
140B
  8
0
 10
-122.9187319389379
 20
-95.90061680234955
 30
-82.88857765912103
 70
   192
  0
VERTEX
  5
140C
  8
0
 10
-122.3094779699958
 20
-91.25526865258917
 30
-81.00900336798325
 70
   192
  0
VERTEX
  5
140D
  8
0
 10
-132.8885776591209
 20
-95.90061680234953
 30
-72.91873193893792
 70
   192
  0
VERTEX
  5
140E
  8
0
 10
-131.5147586252984
 20
-95.44261315326618
 30
-77.86821631387463
 70
   192
  0
VERTEX
  5
140F
  8
0
 10
-127.8682163138746
 20
-95.44261315326618
 30
-81.51475862529853
 70
   192
  0
VERTEX
  5
1410
  8
0
 10
-127.0805577807164
 20
-88.11585723123817
 30
-71.86827445410475
 70
   192
  0
VERTEX
  5
1411
  8
0
 10
-131.0090033679832
 20
-91.25526865258918
 30
-72.30947796999588
 70
   192
  0
VERTEX
  5
1412
  8
0
 10
0.0
 20
0.0
 30
0.0
 70
   128
 71
     1
 72
     2
 73
     3
  0
VERTEX
  5
1413
  8
0
 10
0.0
 20
0.0
 30
0.0
 70
   128
 71
     3
 72
     4
 73
     1
  0
VERTEX
  5
1414
  8
0
 10
0.0
 20
0.0
 30
0.0
 70
   128
 71
     4
 72
     5
 73
     1
  0
VERTEX
  5
1415
  8
0
 10
0.0
 20
0.0
 30
0.0
 70
   128
 71
     5
 72
     6
 73
     1
  0
VERTEX
  5
1416
  8
0
 10
0.0
 20
0.0
 30
0.0
 70
   128
 71
     1
 72
     7
 73
     2
  0
VERTEX
  5
1417
  8
0
 10
0.0
 20
0.0
 30
0.0
 70
   128
 71
     7
 72
     8
 73
     2
  0
VERTEX
  5
1418
  8
0
 10
0.0
 20
0.0
 30
0.0
 70
   128
 71
     9
 72
    10
 73
     2
  0
VERTEX
  5
1419
  8
0
 10
0.0
 20
0.0
 30
0.0
 70
   128
 71
    11
 72
    12
 73
    13
  0
VERTEX
  5
141A
  8
0
 10
0.0
 20
0.0
 30
0.0
 70
   128
 71
     9
 72
     2
 73
     8
  0
VERTEX
  5
141B
  8
0
 10
0.0
 20
0.0
 30
0.0
 70
   128
 71
     9
 72
     8
 73
    14
  0
VERTEX
  5
141C
  8
0
 10
0.0
 20
0.0
 30
0.0
 70
   128
 71
    11
 72
    13
 73
    15
  0
VERTEX
  5
141D
  8
0
 10
0.0
 20
0.0
 30
0.0
 70
   128
 71
     9
 72
    14
 73
    15
  0
VERTEX
  5
141E
  8
0
 10
0.0
 20
0.0
 30
0.0
 70
   128
 71
    13
 72
     9
 73
    15
  0
SEQEND
  5
170B
  8
0
  0
POLYLINE
  5
141F
  8
0
 66
     1
 10
0.0
 20
0.0
 30
0.0
 70
    64
 71
    15
 72
    13
  0
VERTEX
  5
1420
  8
0
 10
-122.8233772194522
 20
-94.66061819885593
 30
132.7875885416157
 70
   192
  0
VERTEX
  5
1421
  8
0
 10
-121.1055229641477
 20
-94.908641093494
 30
132.8097439226441
 70
   192
  0
VERTEX
  5
1422
  8
0
 10
-121.9709506494008
 20
-94.8431104455834
 30
132.8040107338385
 70
   192
  0
VERTEX
  5
1423
  8
0
 10
-122.8343481237704
 20
-94.75492040084461
 30
132.796295104688
 70
   192
  0
VERTEX
  5
1424
  8
0
 10
-122.8124073122872
 20
-94.5664037845278
 30
132.7779773215265
 70
   192
  0
VERTEX
  5
1425
  8
0
 10
-122.801439399338
 20
-94.47228572107454
 30
132.767462317991
 70
   192
  0
VERTEX
  5
1426
  8
0
 10
-122.2400676086829
 20
-89.7697519489151
 30
130.9180102049613
 70
   192
  0
VERTEX
  5
1427
  8
0
 10
-121.8323139751809
 20
-86.58114874271594
 30
126.9789770936742
 70
   192
  0
VERTEX
  5
1428
  8
0
 10
-120.0567267483992
 20
-90.09055866184698
 30
131.0433527558612
 70
   192
  0
VERTEX
  5
1429
  8
0
 10
-119.92353929085
 20
-86.7656599122901
 30
127.0782261942671
 70
   192
  0
VERTEX
  5
142A
  8
0
 10
-121.6835805104426
 20
-85.73071202472813
 30
121.9685807990485
 70
   192
  0
VERTEX
  5
142B
  8
0
 10
-121.081925682759
 20
-85.79216687923703
 30
121.9739574021367
 70
   192
  0
VERTEX
  5
142C
  8
0
 10
-120.4788561113271
 20
-85.83783163023185
 30
121.9779525501714
 70
   192
  0
VERTEX
  5
142D
  8
0
 10
-119.8747892979214
 20
-85.86767466425457
 30
121.9805634773336
 70
   192
  0
VERTEX
  5
142E
  8
0
 10
-120.238664198877
 20
-94.95146697806621
 30
132.8134907020496
 70
   192
  0
VERTEX
  5
142F
  8
0
 10
0.0
 20
0.0
 30
0.0
 70
   128
 71
     1
 72
     2
 73
     3
  0
VERTEX
  5
1430
  8
0
 10
0.0
 20
0.0
 30
0.0
 70
   128
 71
     3
 72
     4
 73
     1
  0
VERTEX
  5
1431
  8
0
 10
0.0
 20
0.0
 30
0.0
 70
   128
 71
     1
 72
     5
 73
     2
  0
VERTEX
  5
1432
  8
0
 10
0.0
 20
0.0
 30
0.0
 70
   128
 71
     5
 72
     6
 73
     2
  0
VERTEX
  5
1433
  8
0
 10
0.0
 20
0.0
 30
0.0
 70
   128
 71
     7
 72
     8
 73
     9
  0
VERTEX
  5
1434
  8
0
 10
0.0
 20
0.0
 30
0.0
 70
   128
 71
     8
 72
    10
 73
     9
  0
VERTEX
  5
1435
  8
0
 10
0.0
 20
0.0
 30
0.0
 70
   128
 71
     8
 72
    11
 73
    12
  0
VERTEX
  5
1436
  8
0
 10
0.0
 20
0.0
 30
0.0
 70
   128
 71
     8
 72
    12
 73
    13
  0
VERTEX
  5
1437
  8
0
 10
0.0
 20
0.0
 30
0.0
 70
   128
 71
    14
 72
    10
 73
     8
  0
VERTEX
  5
1438
  8
0
 10
0.0
 20
0.0
 30
0.0
 70
   128
 71
    13
 72
    14
 73
     8
  0
VERTEX
  5
1439
  8
0
 10
0.0
 20
0.0
 30
0.0
 70
   128
 71
     7
 72
     9
 73
    15
  0
VERTEX
  5
143A
  8
0
 10
0.0
 20
0.0
 30
0.0
 70
   128
 71
     6
 72
     7
 73
    15
  0
VERTEX
  5
143B
  8
0
 10
0.0
 20
0.0
 30
0.0
 70
   128
 71
     2
 72
     6
 73
    15
  0
SEQEND
  5
170C
  8
0
  0
POLYLINE
  5
143C
  8
0
 66
     1
 10
0.0
 20
0.0
 30
0.0
 70
    64
 71
    15
 72
    13
  0
VERTEX
  5
143D
  8
0
 10
-132.91852999051
 20
-96.16217294448754
 30
-72.952195078686
 70
   192
  0
VERTEX
  5
143E
  8
0
 10
-132.948776467777
 20
-96.49779035614938
 30
-70.76502514538069
 70
   192
  0
VERTEX
  5
143F
  8
0
 10
-132.9414402081791
 20
-96.41393652523888
 30
-71.86870236198087
 70
   192
  0
VERTEX
  5
1440
  8
0
 10
-132.9308795234531
 20
-96.29322734646672
 30
-72.96893254253573
 70
   192
  0
VERTEX
  5
1441
  8
0
 10
-132.9044285414092
 20
-96.03129508149644
 30
-72.93546056195386
 70
   192
  0
VERTEX
  5
1442
  8
0
 10
-132.8885776591209
 20
-95.90061680234955
 30
-72.91873193893792
 70
   192
  0
VERTEX
  5
1443
  8
0
 10
-131.0090033679832
 20
-91.25526865258918
 30
-72.30947796999588
 70
   192
  0
VERTEX
  5
1444
  8
0
 10
-127.0805577807164
 20
-88.11585723123817
 30
-71.86827445410475
 70
   192
  0
VERTEX
  5
1445
  8
0
 10
-127.2173661774362
 20
-88.35603719731817
 30
-69.4360418168772
 70
   192
  0
VERTEX
  5
1446
  8
0
 10
-131.1825981268307
 20
-91.68214053494631
 30
-69.53033613288959
 70
   192
  0
VERTEX
  5
1447
  8
0
 10
-122.1043364817874
 20
-87.28240657882944
 30
-71.70755438334699
 70
   192
  0
VERTEX
  5
1448
  8
0
 10
-122.1116944216047
 20
-87.36650821578107
 30
-70.94099164015314
 70
   192
  0
VERTEX
  5
1449
  8
0
 10
-122.1168058095502
 20
-87.4249316473376
 30
-70.17202724551086
 70
   192
  0
VERTEX
  5
144A
  8
0
 10
-122.1196648858907
 20
-87.45761103944753
 30
-69.4015277017842
 70
   192
  0
VERTEX
  5
144B
  8
0
 10
-132.9528800354319
 20
-96.544694349072
 30
-69.65914456399503
 70
   192
  0
VERTEX
  5
144C
  8
0
 10
0.0
 20
0.0
 30
0.0
 70
   128
 71
     1
 72
     2
 73
     3
  0
VERTEX
  5
144D
  8
0
 10
0.0
 20
0.0
 30
0.0
 70
   128
 71
     3
 72
     4
 73
     1
  0
VERTEX
  5
144E
  8
0
 10
0.0
 20
0.0
 30
0.0
 70
   128
 71
     1
 72
     5
 73
     2
  0
VERTEX
  5
144F
  8
0
 10
0.0
 20
0.0
 30
0.0
 70
   128
 71
     5
 72
     6
 73
     2
  0
VERTEX
  5
1450
  8
0
 10
0.0
 20
0.0
 30
0.0
 70
   128
 71
     7
 72
     8
 73
     9
  0
VERTEX
  5
1451
  8
0
 10
0.0
 20
0.0
 30
0.0
 70
   128
 71
    10
 72
     7
 73
     9
  0
VERTEX
  5
1452
  8
0
 10
0.0
 20
0.0
 30
0.0
 70
   128
 71
     8
 72
    11
 73
    12
  0
VERTEX
  5
1453
  8
0
 10
0.0
 20
0.0
 30
0.0
 70
   128
 71
     8
 72
    12
 73
    13
  0
VERTEX
  5
1454
  8
0
 10
0.0
 20
0.0
 30
0.0
 70
   128
 71
    14
 72
     9
 73
     8
  0
VERTEX
  5
1455
  8
0
 10
0.0
 20
0.0
 30
0.0
 70
   128
 71
    13
 72
    14
 73
     8
  0
VERTEX
  5
1456
  8
0
 10
0.0
 20
0.0
 30
0.0
 70
   128
 71
     6
 72
     7
 73
    10
  0
VERTEX
  5
1457
  8
0
 10
0.0
 20
0.0
 30
0.0
 70
   128
 71
     2
 72
     6
 73
    10
  0
VERTEX
  5
1458
  8
0
 10
0.0
 20
0.0
 30
0.0
 70
   128
 71
    15
 72
     2
 73
    10
  0
SEQEND
  5
170D
  8
0
  0
POLYLINE
  5
1459
  8
0
 66
     1
 10
0.0
 20
0.0
 30
0.0
 70
    64
 71
    15
 72
    13
  0
VERTEX
  5
145A
  8
0
 10
-121.6837896938436
 20
-85.7491281731441
 30
121.7788013040133
 70
   192
  0
VERTEX
  5
145B
  8
0
 10
-121.9685807990486
 20
-85.73071202472813
 30
121.6835805104425
 70
   192
  0
VERTEX
  5
145C
  8
0
 10
-121.8736473921486
 20
-85.73947078042643
 30
121.6836328074811
 70
   192
  0
VERTEX
  5
145D
  8
0
 10
-121.7788013040134
 20
-85.7491281731441
 30
121.6837896938436
 70
   192
  0
VERTEX
  5
145E
  8
0
 10
-121.6840511552704
 20
-85.75968332511393
 30
121.6840511552703
 70
   192
  0
VERTEX
  5
145F
  8
0
 10
-121.6836328074811
 20
-85.73947078042643
 30
121.8736473921486
 70
   192
  0
VERTEX
  5
1460
  8
0
 10
-121.6835805104425
 20
-85.73071202472813
 30
121.9685807990486
 70
   192
  0
VERTEX
  5
1461
  8
0
 10
-126.9789770936742
 20
-86.58114874271594
 30
121.8323139751809
 70
   192
  0
VERTEX
  5
1462
  8
0
 10
-121.8323139751809
 20
-86.58114874271594
 30
126.9789770936742
 70
   192
  0
VERTEX
  5
1463
  8
0
 10
-122.2400676086829
 20
-89.7697519489151
 30
130.9180102049613
 70
   192
  0
VERTEX
  5
1464
  8
0
 10
-122.801439399338
 20
-94.47228572107454
 30
132.767462317991
 70
   192
  0
VERTEX
  5
1465
  8
0
 10
-131.3979348058453
 20
-94.05466790374379
 30
127.7531281249079
 70
   192
  0
VERTEX
  5
1466
  8
0
 10
-132.767462317991
 20
-94.47228572107454
 30
122.801439399338
 70
   192
  0
VERTEX
  5
1467
  8
0
 10
-130.9180102049613
 20
-89.76975194891509
 30
122.2400676086829
 70
   192
  0
VERTEX
  5
1468
  8
0
 10
-127.7531281249079
 20
-94.05466790374379
 30
131.3979348058453
 70
   192
  0
VERTEX
  5
1469
  8
0
 10
0.0
 20
0.0
 30
0.0
 70
   128
 71
     1
 72
     2
 73
     3
  0
VERTEX
  5
146A
  8
0
 10
0.0
 20
0.0
 30
0.0
 70
   128
 71
     3
 72
     4
 73
     1
  0
VERTEX
  5
146B
  8
0
 10
0.0
 20
0.0
 30
0.0
 70
   128
 71
     4
 72
     5
 73
     1
  0
VERTEX
  5
146C
  8
0
 10
0.0
 20
0.0
 30
0.0
 70
   128
 71
     1
 72
     6
 73
     2
  0
VERTEX
  5
146D
  8
0
 10
0.0
 20
0.0
 30
0.0
 70
   128
 71
     2
 72
     6
 73
     7
  0
VERTEX
  5
146E
  8
0
 10
0.0
 20
0.0
 30
0.0
 70
   128
 71
     8
 72
     2
 73
    -7
  0
VERTEX
  5
146F
  8
0
 10
0.0
 20
0.0
 30
0.0
 70
   128
 71
     7
 72
     9
 73
    -8
  0
VERTEX
  5
1470
  8
0
 10
0.0
 20
0.0
 30
0.0
 70
   128
 71
     9
 72
    10
 73
    11
  0
VERTEX
  5
1471
  8
0
 10
0.0
 20
0.0
 30
0.0
 70
   128
 71
     8
 72
     9
 73
    11
  0
VERTEX
  5
1472
  8
0
 10
0.0
 20
0.0
 30
0.0
 70
   128
 71
    12
 72
    13
 73
    14
  0
VERTEX
  5
1473
  8
0
 10
0.0
 20
0.0
 30
0.0
 70
   128
 71
    14
 72
     8
 73
    11
  0
VERTEX
  5
1474
  8
0
 10
0.0
 20
0.0
 30
0.0
 70
   128
 71
    12
 72
    14
 73
    11
  0
VERTEX
  5
1475
  8
0
 10
0.0
 20
0.0
 30
0.0
 70
   128
 71
    15
 72
    12
 73
    11
  0
SEQEND
  5
170E
  8
0
  0
POLYLINE
  5
1476
  8
0
 66
     1
 10
0.0
 20
0.0
 30
0.0
 70
    64
 71
    18
 72
    16
  0
VERTEX
  5
1477
  8
0
 10
-132.952880035432
 20
-96.54469434907199
 30
-69.65914456399501
 70
   192
  0
VERTEX
  5
1478
  8
0
 10
-133.0359497696369
 20
-97.49418575581198
 30
-6.349076712768355
 70
   192
  0
VERTEX
  5
1479
  8
0
 10
-132.9793513750894
 20
-96.84726314588212
 30
56.95764588478917
 70
   192
  0
VERTEX
  5
147A
  8
0
 10
-132.8134907020496
 20
-94.95146697806621
 30
120.238664198877
 70
   192
  0
VERTEX
  5
147B
  8
0
 10
-131.0433527558611
 20
-90.09055866184691
 30
120.0567267483992
 70
   192
  0
VERTEX
  5
147C
  8
0
 10
-127.078226194267
 20
-86.76565991229003
 30
119.92353929085
 70
   192
  0
VERTEX
  5
147D
  8
0
 10
-121.9805634773336
 20
-85.8676746642546
 30
119.8747892979215
 70
   192
  0
VERTEX
  5
147E
  8
0
 10
-121.8856303073366
 20
-85.87643612776588
 30
119.8748058343442
 70
   192
  0
VERTEX
  5
147F
  8
0
 10
-121.7907849298887
 20
-85.88610164367638
 30
119.8748554421094
 70
   192
  0
VERTEX
  5
1480
  8
0
 10
-121.6960359655528
 20
-85.8966703334806
 30
119.8749381167082
 70
   192
  0
VERTEX
  5
1481
  8
0
 10
-121.7289301130953
 20
-87.79061058280456
 30
57.36705565475424
 70
   192
  0
VERTEX
  5
1482
  8
0
 10
-121.7406462266138
 20
-88.4575077737335
 30
-5.36094158953226
 70
   192
  0
VERTEX
  5
1483
  8
0
 10
-121.723887416681
 20
-87.50018733435932
 30
-69.4017318020764
 70
   192
  0
VERTEX
  5
1484
  8
0
 10
-121.8556210786218
 20
-87.48424558432382
 30
-69.40161841968077
 70
   192
  0
VERTEX
  5
1485
  8
0
 10
-121.9875546452729
 20
-87.4700526529937
 30
-69.40155038225672
 70
   192
  0
VERTEX
  5
1486
  8
0
 10
-122.1196648858906
 20
-87.45761103944751
 30
-69.40152770178416
 70
   192
  0
VERTEX
  5
1487
  8
0
 10
-127.2173661774362
 20
-88.35603719731817
 30
-69.4360418168772
 70
   192
  0
VERTEX
  5
1488
  8
0
 10
-131.1825981268307
 20
-91.68214053494631
 30
-69.53033613288959
 70
   192
  0
VERTEX
  5
1489
  8
0
 10
0.0
 20
0.0
 30
0.0
 70
   128
 71
    11
 72
    10
 73
     9
  0
VERTEX
  5
148A
  8
0
 10
0.0
 20
0.0
 30
0.0
 70
   128
 71
     9
 72
    14
 73
    12
  0
VERTEX
  5
148B
  8
0
 10
0.0
 20
0.0
 30
0.0
 70
   128
 71
     9
 72
    12
 73
    11
  0
VERTEX
  5
148C
  8
0
 10
0.0
 20
0.0
 30
0.0
 70
   128
 71
    14
 72
    13
 73
    12
  0
VERTEX
  5
148D
  8
0
 10
0.0
 20
0.0
 30
0.0
 70
   128
 71
     8
 72
     7
 73
    15
  0
VERTEX
  5
148E
  8
0
 10
0.0
 20
0.0
 30
0.0
 70
   128
 71
     8
 72
    15
 73
    14
  0
VERTEX
  5
148F
  8
0
 10
0.0
 20
0.0
 30
0.0
 70
   128
 71
    14
 72
     9
 73
     8
  0
VERTEX
  5
1490
  8
0
 10
0.0
 20
0.0
 30
0.0
 70
   128
 71
     7
 72
    16
 73
    15
  0
VERTEX
  5
1491
  8
0
 10
0.0
 20
0.0
 30
0.0
 70
   128
 71
     7
 72
     6
 73
    17
  0
VERTEX
  5
1492
  8
0
 10
0.0
 20
0.0
 30
0.0
 70
   128
 71
     7
 72
    17
 73
    16
  0
VERTEX
  5
1493
  8
0
 10
0.0
 20
0.0
 30
0.0
 70
   128
 71
     6
 72
     5
 73
    18
  0
VERTEX
  5
1494
  8
0
 10
0.0
 20
0.0
 30
0.0
 70
   128
 71
     6
 72
    18
 73
    17
  0
VERTEX
  5
1495
  8
0
 10
0.0
 20
0.0
 30
0.0
 70
   128
 71
     2
 72
     1
 73
    18
  0
VERTEX
  5
1496
  8
0
 10
0.0
 20
0.0
 30
0.0
 70
   128
 71
    18
 72
     5
 73
     3
  0
VERTEX
  5
1497
  8
0
 10
0.0
 20
0.0
 30
0.0
 70
   128
 71
    18
 72
     3
 73
     2
  0
VERTEX
  5
1498
  8
0
 10
0.0
 20
0.0
 30
0.0
 70
   128
 71
     5
 72
     4
 73
     3
  0
SEQEND
  5
170F
  8
0
  0
POLYLINE
  5
1499
  8
0
 66
     1
 10
0.0
 20
0.0
 30
0.0
 70
    64
 71
    15
 72
    13
  0
VERTEX
  5
149A
  8
0
 10
-132.767462317991
 20
-94.47228572107454
 30
122.801439399338
 70
   192
  0
VERTEX
  5
149B
  8
0
 10
-132.7779773215265
 20
-94.5664037845278
 30
122.8124073122872
 70
   192
  0
VERTEX
  5
149C
  8
0
 10
-132.8134907020495
 20
-94.95146697806629
 30
120.238664198877
 70
   192
  0
VERTEX
  5
149D
  8
0
 10
-132.8040107338383
 20
-94.84311044558342
 30
121.9709506494008
 70
   192
  0
VERTEX
  5
149E
  8
0
 10
-132.7875885416157
 20
-94.66061819885591
 30
122.8233772194522
 70
   192
  0
VERTEX
  5
149F
  8
0
 10
-132.7962951046879
 20
-94.7549204008446
 30
122.8343481237704
 70
   192
  0
VERTEX
  5
14A0
  8
0
 10
-132.8097439226439
 20
-94.90864109349401
 30
121.1055229641477
 70
   192
  0
VERTEX
  5
14A1
  8
0
 10
-131.0433527558611
 20
-90.09055866184691
 30
120.0567267483992
 70
   192
  0
VERTEX
  5
14A2
  8
0
 10
-127.078226194267
 20
-86.76565991229003
 30
119.92353929085
 70
   192
  0
VERTEX
  5
14A3
  8
0
 10
-130.9180102049613
 20
-89.76975194891509
 30
122.2400676086829
 70
   192
  0
VERTEX
  5
14A4
  8
0
 10
-126.9789770936742
 20
-86.58114874271594
 30
121.8323139751809
 70
   192
  0
VERTEX
  5
14A5
  8
0
 10
-121.9805634773336
 20
-85.86767466425457
 30
119.8747892979214
 70
   192
  0
VERTEX
  5
14A6
  8
0
 10
-121.9779525501714
 20
-85.83783163023186
 30
120.4788561113271
 70
   192
  0
VERTEX
  5
14A7
  8
0
 10
-121.9739574021367
 20
-85.79216687923704
 30
121.081925682759
 70
   192
  0
VERTEX
  5
14A8
  8
0
 10
-121.9685807990485
 20
-85.73071202472816
 30
121.6835805104426
 70
   192
  0
VERTEX
  5
14A9
  8
0
 10
0.0
 20
0.0
 30
0.0
 70
   128
 71
     1
 72
     2
 73
     3
  0
VERTEX
  5
14AA
  8
0
 10
0.0
 20
0.0
 30
0.0
 70
   128
 71
     4
 72
     2
 73
     5
  0
VERTEX
  5
14AB
  8
0
 10
0.0
 20
0.0
 30
0.0
 70
   128
 71
     5
 72
     6
 73
     4
  0
VERTEX
  5
14AC
  8
0
 10
0.0
 20
0.0
 30
0.0
 70
   128
 71
     4
 72
     7
 73
     2
  0
VERTEX
  5
14AD
  8
0
 10
0.0
 20
0.0
 30
0.0
 70
   128
 71
     7
 72
     3
 73
     2
  0
VERTEX
  5
14AE
  8
0
 10
0.0
 20
0.0
 30
0.0
 70
   128
 71
     8
 72
     9
 73
    10
  0
VERTEX
  5
14AF
  8
0
 10
0.0
 20
0.0
 30
0.0
 70
   128
 71
     9
 72
    11
 73
    10
  0
VERTEX
  5
14B0
  8
0
 10
0.0
 20
0.0
 30
0.0
 70
   128
 71
     9
 72
    12
 73
    13
  0
VERTEX
  5
14B1
  8
0
 10
0.0
 20
0.0
 30
0.0
 70
   128
 71
     9
 72
    13
 73
    14
  0
VERTEX
  5
14B2
  8
0
 10
0.0
 20
0.0
 30
0.0
 70
   128
 71
    11
 72
     9
 73
    14
  0
VERTEX
  5
14B3
  8
0
 10
0.0
 20
0.0
 30
0.0
 70
   128
 71
    14
 72
    15
 73
    11
  0
VERTEX
  5
14B4
  8
0
 10
0.0
 20
0.0
 30
0.0
 70
   128
 71
     3
 72
     8
 73
     1
  0
VERTEX
  5
14B5
  8
0
 10
0.0
 20
0.0
 30
0.0
 70
   128
 71
     8
 72
    10
 73
     1
  0
SEQEND
  5
1710
  8
0
  0
POLYLINE
  5
14B6
  8
0
 66
     1
 10
0.0
 20
0.0
 30
0.0
 70
    64
 71
    13
 72
    11
  0
VERTEX
  5
14B7
  8
0
 10
-0.9314822153583799
 20
-100.3884132902003
 30
-60.13378101643559
 70
   192
  0
VERTEX
  5
14B8
  8
0
 10
0.000000000023212
 20
-100.3883851169806
 30
-60.1409980322339
 70
   192
  0
VERTEX
  5
14B9
  8
0
 10
0.0000000000000073
 20
-102.0
 30
-60.0
 70
   192
  0
VERTEX
  5
14BA
  8
0
 10
-1.862740900624195
 20
-100.38844146342
 30
-60.11213836083157
 70
   192
  0
VERTEX
  5
14BB
  8
0
 10
-2.793552650288748
 20
-100.3884696366398
 30
-60.07607525859707
 70
   192
  0
VERTEX
  5
14BC
  8
0
 10
-42.42640687119286
 20
-102.0
 30
42.42640687119285
 70
   192
  0
VERTEX
  5
14BD
  8
0
 10
-0.0000000000000067
 20
-102.0
 30
60.0
 70
   192
  0
VERTEX
  5
14BE
  8
0
 10
0.0
 20
-100.3884696366398
 30
60.14099063772183
 70
   192
  0
VERTEX
  5
14BF
  8
0
 10
-42.02923129053991
 20
-100.3884696366398
 30
43.01723459281006
 70
   192
  0
VERTEX
  5
14C0
  8
0
 10
-42.42640687119285
 20
-102.0
 30
-42.42640687119286
 70
   192
  0
VERTEX
  5
14C1
  8
0
 10
-43.98201864864544
 20
-100.3884696366398
 30
-41.01854203255838
 70
   192
  0
VERTEX
  5
14C2
  8
0
 10
-60.0
 20
-102.0
 30
-0.0000000000000067
 70
   192
  0
VERTEX
  5
14C3
  8
0
 10
-60.12475960269994
 20
-100.3884696366398
 30
1.397153393187577
 70
   192
  0
VERTEX
  5
14C4
  8
0
 10
0.0
 20
0.0
 30
0.0
 70
   128
 71
     1
 72
     2
 73
     3
  0
VERTEX
  5
14C5
  8
0
 10
0.0
 20
0.0
 30
0.0
 70
   128
 71
     3
 72
     4
 73
     1
  0
VERTEX
  5
14C6
  8
0
 10
0.0
 20
0.0
 30
0.0
 70
   128
 71
     5
 72
     4
 73
     3
  0
VERTEX
  5
14C7
  8
0
 10
0.0
 20
0.0
 30
0.0
 70
   128
 71
     6
 72
     7
 73
     8
  0
VERTEX
  5
14C8
  8
0
 10
0.0
 20
0.0
 30
0.0
 70
   128
 71
     6
 72
     8
 73
     9
  0
VERTEX
  5
14C9
  8
0
 10
0.0
 20
0.0
 30
0.0
 70
   128
 71
     5
 72
     3
 73
    10
  0
VERTEX
  5
14CA
  8
0
 10
0.0
 20
0.0
 30
0.0
 70
   128
 71
     5
 72
    10
 73
    11
  0
VERTEX
  5
14CB
  8
0
 10
0.0
 20
0.0
 30
0.0
 70
   128
 71
    11
 72
    10
 73
    12
  0
VERTEX
  5
14CC
  8
0
 10
0.0
 20
0.0
 30
0.0
 70
   128
 71
    11
 72
    12
 73
    13
  0
VERTEX
  5
14CD
  8
0
 10
0.0
 20
0.0
 30
0.0
 70
   128
 71
    13
 72
    12
 73
     6
  0
VERTEX
  5
14CE
  8
0
 10
0.0
 20
0.0
 30
0.0
 70
   128
 71
    13
 72
     6
 73
     9
  0
SEQEND
  5
1711
  8
0
  0
POLYLINE
  5
14CF
  8
0
 66
     1
 10
0.0
 20
0.0
 30
0.0
 70
    64
 71
    16
 72
    16
  0
VERTEX
  5
14D0
  8
0
 10
0.0000000000000073
 20
-102.0
 30
-60.0
 70
   192
  0
VERTEX
  5
14D1
  8
0
 10
-42.42640687119285
 20
-102.0
 30
-42.42640687119286
 70
   192
  0
VERTEX
  5
14D2
  8
0
 10
-60.0
 20
-102.0
 30
-0.0000000000000067
 70
   192
  0
VERTEX
  5
14D3
  8
0
 10
-42.42640687119286
 20
-102.0
 30
42.42640687119285
 70
   192
  0
VERTEX
  5
14D4
  8
0
 10
0.0
 20
-102.0
 30
60.0
 70
   192
  0
VERTEX
  5
14D5
  8
0
 10
42.42640687119285
 20
-102.0
 30
42.42640687119285
 70
   192
  0
VERTEX
  5
14D6
  8
0
 10
60.00000000000001
 20
-102.0
 30
0.0
 70
   192
  0
VERTEX
  5
14D7
  8
0
 10
42.42640687119286
 20
-102.0
 30
-42.42640687119286
 70
   192
  0
VERTEX
  5
14D8
  8
0
 10
-0.0000000000000024
 20
-102.0
 30
22.0
 70
   192
  0
VERTEX
  5
14D9
  8
0
 10
-15.55634918610405
 20
-102.0
 30
15.55634918610404
 70
   192
  0
VERTEX
  5
14DA
  8
0
 10
-22.0
 20
-102.0
 30
-0.0000000000000024
 70
   192
  0
VERTEX
  5
14DB
  8
0
 10
-15.55634918610404
 20
-102.0
 30
-15.55634918610405
 70
   192
  0
VERTEX
  5
14DC
  8
0
 10
0.0
 20
-102.0
 30
-22.0
 70
   192
  0
VERTEX
  5
14DD
  8
0
 10
15.55634918610405
 20
-102.0
 30
-15.55634918610405
 70
   192
  0
VERTEX
  5
14DE
  8
0
 10
22.0
 20
-102.0
 30
0.0
 70
   192
  0
VERTEX
  5
14DF
  8
0
 10
15.55634918610405
 20
-102.0
 30
15.55634918610405
 70
   192
  0
VERTEX
  5
14E0
  8
0
 10
0.0
 20
0.0
 30
0.0
 70
   128
 71
    10
 72
    -9
 73
    -5
  0
VERTEX
  5
14E1
  8
0
 10
0.0
 20
0.0
 30
0.0
 70
   128
 71
   -10
 72
     5
 73
    -4
  0
VERTEX
  5
14E2
  8
0
 10
0.0
 20
0.0
 30
0.0
 70
   128
 71
     4
 72
    -3
 73
   -11
  0
VERTEX
  5
14E3
  8
0
 10
0.0
 20
0.0
 30
0.0
 70
   128
 71
    -4
 72
    11
 73
   -10
  0
VERTEX
  5
14E4
  8
0
 10
0.0
 20
0.0
 30
0.0
 70
   128
 71
     3
 72
    -2
 73
   -12
  0
VERTEX
  5
14E5
  8
0
 10
0.0
 20
0.0
 30
0.0
 70
   128
 71
    -3
 72
    12
 73
   -11
  0
VERTEX
  5
14E6
  8
0
 10
0.0
 20
0.0
 30
0.0
 70
   128
 71
     2
 72
    -1
 73
   -13
  0
VERTEX
  5
14E7
  8
0
 10
0.0
 20
0.0
 30
0.0
 70
   128
 71
    -2
 72
    13
 73
   -12
  0
VERTEX
  5
14E8
  8
0
 10
0.0
 20
0.0
 30
0.0
 70
   128
 71
     1
 72
    -8
 73
   -14
  0
VERTEX
  5
14E9
  8
0
 10
0.0
 20
0.0
 30
0.0
 70
   128
 71
    -1
 72
    14
 73
   -13
  0
VERTEX
  5
14EA
  8
0
 10
0.0
 20
0.0
 30
0.0
 70
   128
 71
     8
 72
    -7
 73
   -15
  0
VERTEX
  5
14EB
  8
0
 10
0.0
 20
0.0
 30
0.0
 70
   128
 71
    -8
 72
    15
 73
   -14
  0
VERTEX
  5
14EC
  8
0
 10
0.0
 20
0.0
 30
0.0
 70
   128
 71
     7
 72
    -6
 73
   -16
  0
VERTEX
  5
14ED
  8
0
 10
0.0
 20
0.0
 30
0.0
 70
   128
 71
    -7
 72
    16
 73
   -15
  0
VERTEX
  5
14EE
  8
0
 10
0.0
 20
0.0
 30
0.0
 70
   128
 71
     6
 72
    -5
 73
    -9
  0
VERTEX
  5
14EF
  8
0
 10
0.0
 20
0.0
 30
0.0
 70
   128
 71
    -6
 72
     9
 73
   -16
  0
SEQEND
  5
1712
  8
0
  0
POLYLINE
  5
14F0
  8
0
 66
     1
 10
0.0
 20
0.0
 30
0.0
 70
    64
 71
     8
 72
     6
  0
VERTEX
  5
14F1
  8
0
 10
-141.4411273767462
 20
-102.0
 30
146.4380815118416
 70
   192
  0
VERTEX
  5
14F2
  8
0
 10
-144.9669063781329
 20
-1.034899496702498
 30
149.9638605132284
 70
   192
  0
VERTEX
  5
14F3
  8
0
 10
-143.8854076938323
 20
-102.0
 30
145.7999130573392
 70
   192
  0
VERTEX
  5
14F4
  8
0
 10
-147.5063131001749
 20
-1.047932043657421
 30
149.2700352487273
 70
   192
  0
VERTEX
  5
14F5
  8
0
 10
-145.7999130573393
 20
-102.0
 30
143.8854076938321
 70
   192
  0
VERTEX
  5
14F6
  8
0
 10
-149.2700267446126
 20
-1.047931701319287
 30
147.5063294020724
 70
   192
  0
VERTEX
  5
14F7
  8
0
 10
-149.9638605132284
 20
-1.034899496702502
 30
144.966906378133
 70
   192
  0
VERTEX
  5
14F8
  8
0
 10
-146.4380815118416
 20
-102.0
 30
141.4411273767462
 70
   192
  0
VERTEX
  5
14F9
  8
0
 10
0.0
 20
0.0
 30
0.0
 70
   128
 71
     1
 72
     2
 73
     3
  0
VERTEX
  5
14FA
  8
0
 10
0.0
 20
0.0
 30
0.0
 70
   128
 71
     4
 72
     5
 73
     3
  0
VERTEX
  5
14FB
  8
0
 10
0.0
 20
0.0
 30
0.0
 70
   128
 71
     3
 72
     2
 73
     4
  0
VERTEX
  5
14FC
  8
0
 10
0.0
 20
0.0
 30
0.0
 70
   128
 71
     4
 72
     6
 73
     5
  0
VERTEX
  5
14FD
  8
0
 10
0.0
 20
0.0
 30
0.0
 70
   128
 71
     5
 72
     7
 73
     8
  0
VERTEX
  5
14FE
  8
0
 10
0.0
 20
0.0
 30
0.0
 70
   128
 71
     5
 72
     6
 73
     7
  0
SEQEND
  5
1713
  8
0
  0
POLYLINE
  5
14FF
  8
0
 66
     1
 10
0.0
 20
0.0
 30
0.0
 70
    64
 71
     8
 72
     6
  0
VERTEX
  5
1500
  8
0
 10
96.43808151184169
 20
-102.0
 30
141.4411273767462
 70
   192
  0
VERTEX
  5
1501
  8
0
 10
99.96386051322847
 20
-1.034899496702496
 30
144.9669063781329
 70
   192
  0
VERTEX
  5
1502
  8
0
 10
95.79991305733938
 20
-102.0
 30
143.8854076938323
 70
   192
  0
VERTEX
  5
1503
  8
0
 10
99.27003524880057
 20
-1.047932043661653
 30
147.5063131000055
 70
   192
  0
VERTEX
  5
1504
  8
0
 10
93.88540769383232
 20
-102.0
 30
145.7999130573393
 70
   192
  0
VERTEX
  5
1505
  8
0
 10
97.506329402306
 20
-1.047931701315056
 30
149.2700267444756
 70
   192
  0
VERTEX
  5
1506
  8
0
 10
94.966906378133
 20
-1.0348994967025
 30
149.9638605132284
 70
   192
  0
VERTEX
  5
1507
  8
0
 10
91.4411273767462
 20
-102.0
 30
146.4380815118416
 70
   192
  0
VERTEX
  5
1508
  8
0
 10
0.0
 20
0.0
 30
0.0
 70
   128
 71
     1
 72
     2
 73
     3
  0
VERTEX
  5
1509
  8
0
 10
0.0
 20
0.0
 30
0.0
 70
   128
 71
     4
 72
     5
 73
     3
  0
VERTEX
  5
150A
  8
0
 10
0.0
 20
0.0
 30
0.0
 70
   128
 71
     3
 72
     2
 73
     4
  0
VERTEX
  5
150B
  8
0
 10
0.0
 20
0.0
 30
0.0
 70
   128
 71
     4
 72
     6
 73
     5
  0
VERTEX
  5
150C
  8
0
 10
0.0
 20
0.0
 30
0.0
 70
   128
 71
     5
 72
     7
 73
     8
  0
VERTEX
  5
150D
  8
0
 10
0.0
 20
0.0
 30
0.0
 70
   128
 71
     5
 72
     6
 73
     7
  0
SEQEND
  5
1714
  8
0
  0
POLYLINE
  5
150E
  8
0
 66
     1
 10
0.0
 20
0.0
 30
0.0
 70
    64
 71
     8
 72
     6
  0
VERTEX
  5
150F
  8
0
 10
91.4411273767462
 20
-102.0
 30
-96.43808151184169
 70
   192
  0
VERTEX
  5
1510
  8
0
 10
94.96690637813306
 20
-1.034899496702502
 30
-99.96386051322847
 70
   192
  0
VERTEX
  5
1511
  8
0
 10
93.88540769383235
 20
-102.0
 30
-95.79991305733938
 70
   192
  0
VERTEX
  5
1512
  8
0
 10
97.5063130998362
 20
-1.047932043665882
 30
-99.27003524887364
 70
   192
  0
VERTEX
  5
1513
  8
0
 10
95.79991305733941
 20
-102.0
 30
-93.88540769383232
 70
   192
  0
VERTEX
  5
1514
  8
0
 10
99.2700267443386
 20
-1.047931701310827
 30
-97.50632940253948
 70
   192
  0
VERTEX
  5
1515
  8
0
 10
99.9638605132285
 20
-1.0348994967025
 30
-94.9669063781331
 70
   192
  0
VERTEX
  5
1516
  8
0
 10
96.43808151184169
 20
-102.0
 30
-91.4411273767462
 70
   192
  0
VERTEX
  5
1517
  8
0
 10
0.0
 20
0.0
 30
0.0
 70
   128
 71
     1
 72
     2
 73
     3
  0
VERTEX
  5
1518
  8
0
 10
0.0
 20
0.0
 30
0.0
 70
   128
 71
     4
 72
     5
 73
     3
  0
VERTEX
  5
1519
  8
0
 10
0.0
 20
0.0
 30
0.0
 70
   128
 71
     3
 72
     2
 73
     4
  0
VERTEX
  5
151A
  8
0
 10
0.0
 20
0.0
 30
0.0
 70
   128
 71
     4
 72
     6
 73
     5
  0
VERTEX
  5
151B
  8
0
 10
0.0
 20
0.0
 30
0.0
 70
   128
 71
     5
 72
     7
 73
     8
  0
VERTEX
  5
151C
  8
0
 10
0.0
 20
0.0
 30
0.0
 70
   128
 71
     5
 72
     6
 73
     7
  0
SEQEND
  5
1715
  8
0
  0
POLYLINE
  5
151D
  8
0
 66
     1
 10
0.0
 20
0.0
 30
0.0
 70
    64
 71
     8
 72
     6
  0
VERTEX
  5
151E
  8
0
 10
-146.4380815118416
 20
-102.0
 30
-91.4411273767462
 70
   192
  0
VERTEX
  5
151F
  8
0
 10
-149.9638605132284
 20
-1.034899496702498
 30
-94.96690637813306
 70
   192
  0
VERTEX
  5
1520
  8
0
 10
-145.7999130573393
 20
-102.0
 30
-93.8854076938323
 70
   192
  0
VERTEX
  5
1521
  8
0
 10
-149.2700352487456
 20
-1.047932043658479
 30
-97.50631310013267
 70
   192
  0
VERTEX
  5
1522
  8
0
 10
-143.8854076938322
 20
-102.0
 30
-95.7999130573394
 70
   192
  0
VERTEX
  5
1523
  8
0
 10
-147.5063294021308
 20
-1.047931701318229
 30
-99.27002674457849
 70
   192
  0
VERTEX
  5
1524
  8
0
 10
-144.966906378133
 20
-1.0348994967025
 30
-99.9638605132285
 70
   192
  0
VERTEX
  5
1525
  8
0
 10
-141.4411273767462
 20
-102.0
 30
-96.43808151184169
 70
   192
  0
VERTEX
  5
1526
  8
0
 10
0.0
 20
0.0
 30
0.0
 70
   128
 71
     1
 72
     2
 73
     3
  0
VERTEX
  5
1527
  8
0
 10
0.0
 20
0.0
 30
0.0
 70
   128
 71
     4
 72
     5
 73
     3
  0
VERTEX
  5
1528
  8
0
 10
0.0
 20
0.0
 30
0.0
 70
   128
 71
     3
 72
     2
 73
     4
  0
VERTEX
  5
1529
  8
0
 10
0.0
 20
0.0
 30
0.0
 70
   128
 71
     4
 72
     6
 73
     5
  0
VERTEX
  5
152A
  8
0
 10
0.0
 20
0.0
 30
0.0
 70
   128
 71
     5
 72
     7
 73
     8
  0
VERTEX
  5
152B
  8
0
 10
0.0
 20
0.0
 30
0.0
 70
   128
 71
     5
 72
     6
 73
     7
  0
SEQEND
  5
1716
  8
0
  0
POLYLINE
  5
152C
  8
0
 66
     1
 10
0.0
 20
0.0
 30
0.0
 70
    64
 71
    12
 72
    10
  0
VERTEX
  5
152D
  8
0
 10
98.9644696862094
 20
0.0000000000000007
 30
-94.9669063781331
 70
   192
  0
VERTEX
  5
152E
  8
0
 10
99.47451227597507
 20
-0.1398508521046338
 30
-94.9669063781331
 70
   192
  0
VERTEX
  5
152F
  8
0
 10
99.84189508416398
 20
-0.5202868867497527
 30
-94.9669063781331
 70
   192
  0
VERTEX
  5
1530
  8
0
 10
99.9638605132285
 20
-1.0348994967025
 30
-94.9669063781331
 70
   192
  0
VERTEX
  5
1531
  8
0
 10
99.2700267443386
 20
-1.047931701310827
 30
-97.50632940253948
 70
   192
  0
VERTEX
  5
1532
  8
0
 10
97.5063130998362
 20
-1.047932043665882
 30
-99.27003524887364
 70
   192
  0
VERTEX
  5
1533
  8
0
 10
94.966906378133
 20
-1.0348994967025
 30
-99.9638605132285
 70
   192
  0
VERTEX
  5
1534
  8
0
 10
94.966906378133
 20
-0.5202868867497525
 30
-99.84189508416398
 70
   192
  0
VERTEX
  5
1535
  8
0
 10
94.966906378133
 20
-0.1398508521046337
 30
-99.47451227597507
 70
   192
  0
VERTEX
  5
1536
  8
0
 10
94.966906378133
 20
0.0000000000000009
 30
-98.9644696862094
 70
   192
  0
VERTEX
  5
1537
  8
0
 10
96.92233063180186
 20
0.0
 30
-98.45393492260753
 70
   192
  0
VERTEX
  5
1538
  8
0
 10
98.45393492260747
 20
0.0
 30
-96.92233063180193
 70
   192
  0
VERTEX
  5
1539
  8
0
 10
0.0
 20
0.0
 30
0.0
 70
   128
 71
     6
 72
     7
 73
     8
  0
VERTEX
  5
153A
  8
0
 10
0.0
 20
0.0
 30
0.0
 70
   128
 71
     9
 72
    11
 73
     6
  0
VERTEX
  5
153B
  8
0
 10
0.0
 20
0.0
 30
0.0
 70
   128
 71
     8
 72
     9
 73
     6
  0
VERTEX
  5
153C
  8
0
 10
0.0
 20
0.0
 30
0.0
 70
   128
 71
     9
 72
    10
 73
    11
  0
VERTEX
  5
153D
  8
0
 10
0.0
 20
0.0
 30
0.0
 70
   128
 71
    12
 72
     5
 73
     6
  0
VERTEX
  5
153E
  8
0
 10
0.0
 20
0.0
 30
0.0
 70
   128
 71
    11
 72
    12
 73
     6
  0
VERTEX
  5
153F
  8
0
 10
0.0
 20
0.0
 30
0.0
 70
   128
 71
    12
 72
     1
 73
     2
  0
VERTEX
  5
1540
  8
0
 10
0.0
 20
0.0
 30
0.0
 70
   128
 71
     3
 72
     5
 73
    12
  0
VERTEX
  5
1541
  8
0
 10
0.0
 20
0.0
 30
0.0
 70
   128
 71
     2
 72
     3
 73
    12
  0
VERTEX
  5
1542
  8
0
 10
0.0
 20
0.0
 30
0.0
 70
   128
 71
     3
 72
     4
 73
     5
  0
SEQEND
  5
1717
  8
0
  0
POLYLINE
  5
1543
  8
0
 66
     1
 10
0.0
 20
0.0
 30
0.0
 70
    64
 71
     8
 72
     6
  0
VERTEX
  5
1544
  8
0
 10
-144.966906378133
 20
-0.1398508521046337
 30
-99.47451227597507
 70
   192
  0
VERTEX
  5
1545
  8
0
 10
94.966906378133
 20
-0.1398508521046337
 30
-99.47451227597507
 70
   192
  0
VERTEX
  5
1546
  8
0
 10
94.966906378133
 20
-0.5202868867497525
 30
-99.84189508416398
 70
   192
  0
VERTEX
  5
1547
  8
0
 10
-144.966906378133
 20
-0.5202868867497525
 30
-99.84189508416398
 70
   192
  0
VERTEX
  5
1548
  8
0
 10
-144.966906378133
 20
0.0000000000000009
 30
-98.9644696862094
 70
   192
  0
VERTEX
  5
1549
  8
0
 10
94.966906378133
 20
0.0
 30
-98.9644696862094
 70
   192
  0
VERTEX
  5
154A
  8
0
 10
94.966906378133
 20
-1.0348994967025
 30
-99.9638605132285
 70
   192
  0
VERTEX
  5
154B
  8
0
 10
-144.966906378133
 20
-1.0348994967025
 30
-99.96386051322848
 70
   192
  0
VERTEX
  5
154C
  8
0
 10
0.0
 20
0.0
 30
0.0
 70
   128
 71
     1
 72
     2
 73
    -3
  0
VERTEX
  5
154D
  8
0
 10
0.0
 20
0.0
 30
0.0
 70
   128
 71
    -1
 72
     3
 73
     4
  0
VERTEX
  5
154E
  8
0
 10
0.0
 20
0.0
 30
0.0
 70
   128
 71
     5
 72
     6
 73
    -2
  0
VERTEX
  5
154F
  8
0
 10
0.0
 20
0.0
 30
0.0
 70
   128
 71
    -5
 72
     2
 73
     1
  0
VERTEX
  5
1550
  8
0
 10
0.0
 20
0.0
 30
0.0
 70
   128
 71
     4
 72
     3
 73
    -7
  0
VERTEX
  5
1551
  8
0
 10
0.0
 20
0.0
 30
0.0
 70
   128
 71
    -4
 72
     7
 73
     8
  0
SEQEND
  5
1718
  8
0
  0
POLYLINE
  5
1552
  8
0
 66
     1
 10
0.0
 20
0.0
 30
0.0
 70
    64
 71
     8
 72
     6
  0
VERTEX
  5
1553
  8
0
 10
99.47451227597507
 20
-0.1398508521046338
 30
-94.9669063781331
 70
   192
  0
VERTEX
  5
1554
  8
0
 10
99.47451227597507
 20
-0.1398508521046338
 30
144.966906378133
 70
   192
  0
VERTEX
  5
1555
  8
0
 10
99.84189508416398
 20
-0.5202868867497527
 30
144.966906378133
 70
   192
  0
VERTEX
  5
1556
  8
0
 10
99.84189508416398
 20
-0.5202868867497527
 30
-94.9669063781331
 70
   192
  0
VERTEX
  5
1557
  8
0
 10
98.9644696862094
 20
0.0000000000000007
 30
-94.9669063781331
 70
   192
  0
VERTEX
  5
1558
  8
0
 10
98.96446968620941
 20
0.0
 30
144.966906378133
 70
   192
  0
VERTEX
  5
1559
  8
0
 10
99.9638605132285
 20
-1.0348994967025
 30
144.966906378133
 70
   192
  0
VERTEX
  5
155A
  8
0
 10
99.96386051322847
 20
-1.0348994967025
 30
-94.9669063781331
 70
   192
  0
VERTEX
  5
155B
  8
0
 10
0.0
 20
0.0
 30
0.0
 70
   128
 71
     1
 72
     2
 73
    -3
  0
VERTEX
  5
155C
  8
0
 10
0.0
 20
0.0
 30
0.0
 70
   128
 71
    -1
 72
     3
 73
     4
  0
VERTEX
  5
155D
  8
0
 10
0.0
 20
0.0
 30
0.0
 70
   128
 71
     5
 72
     6
 73
    -2
  0
VERTEX
  5
155E
  8
0
 10
0.0
 20
0.0
 30
0.0
 70
   128
 71
    -5
 72
     2
 73
     1
  0
VERTEX
  5
155F
  8
0
 10
0.0
 20
0.0
 30
0.0
 70
   128
 71
     4
 72
     3
 73
    -7
  0
VERTEX
  5
1560
  8
0
 10
0.0
 20
0.0
 30
0.0
 70
   128
 71
    -4
 72
     7
 73
     8
  0
SEQEND
  5
1719
  8
0
  0
POLYLINE
  5
1561
  8
0
 66
     1
 10
0.0
 20
0.0
 30
0.0
 70
    64
 71
    12
 72
    10
  0
VERTEX
  5
1562
  8
0
 10
-144.966906378133
 20
0.0000000000000009
 30
-98.9644696862094
 70
   192
  0
VERTEX
  5
1563
  8
0
 10
-144.966906378133
 20
-0.1398508521046337
 30
-99.47451227597507
 70
   192
  0
VERTEX
  5
1564
  8
0
 10
-144.966906378133
 20
-0.5202868867497525
 30
-99.84189508416398
 70
   192
  0
VERTEX
  5
1565
  8
0
 10
-144.966906378133
 20
-1.0348994967025
 30
-99.9638605132285
 70
   192
  0
VERTEX
  5
1566
  8
0
 10
-147.5063294021308
 20
-1.047931701318229
 30
-99.27002674457849
 70
   192
  0
VERTEX
  5
1567
  8
0
 10
-149.2700352487456
 20
-1.047932043658479
 30
-97.50631310013267
 70
   192
  0
VERTEX
  5
1568
  8
0
 10
-149.9638605132284
 20
-1.0348994967025
 30
-94.9669063781331
 70
   192
  0
VERTEX
  5
1569
  8
0
 10
-149.841895084164
 20
-0.5202868867497551
 30
-94.9669063781331
 70
   192
  0
VERTEX
  5
156A
  8
0
 10
-149.4745122759751
 20
-0.1398508521046344
 30
-94.9669063781331
 70
   192
  0
VERTEX
  5
156B
  8
0
 10
-148.9644696862094
 20
0.0000000000000009
 30
-94.9669063781331
 70
   192
  0
VERTEX
  5
156C
  8
0
 10
-148.4539349226075
 20
0.0
 30
-96.9223306318019
 70
   192
  0
VERTEX
  5
156D
  8
0
 10
-146.9223306318017
 20
0.0
 30
-98.45393492260749
 70
   192
  0
VERTEX
  5
156E
  8
0
 10
0.0
 20
0.0
 30
0.0
 70
   128
 71
     6
 72
     7
 73
     8
  0
VERTEX
  5
156F
  8
0
 10
0.0
 20
0.0
 30
0.0
 70
   128
 71
     9
 72
    11
 73
     6
  0
VERTEX
  5
1570
  8
0
 10
0.0
 20
0.0
 30
0.0
 70
   128
 71
     8
 72
     9
 73
     6
  0
VERTEX
  5
1571
  8
0
 10
0.0
 20
0.0
 30
0.0
 70
   128
 71
     9
 72
    10
 73
    11
  0
VERTEX
  5
1572
  8
0
 10
0.0
 20
0.0
 30
0.0
 70
   128
 71
    12
 72
     5
 73
     6
  0
VERTEX
  5
1573
  8
0
 10
0.0
 20
0.0
 30
0.0
 70
   128
 71
    11
 72
    12
 73
     6
  0
VERTEX
  5
1574
  8
0
 10
0.0
 20
0.0
 30
0.0
 70
   128
 71
    12
 72
     1
 73
     2
  0
VERTEX
  5
1575
  8
0
 10
0.0
 20
0.0
 30
0.0
 70
   128
 71
     3
 72
     5
 73
    12
  0
VERTEX
  5
1576
  8
0
 10
0.0
 20
0.0
 30
0.0
 70
   128
 71
     2
 72
     3
 73
    12
  0
VERTEX
  5
1577
  8
0
 10
0.0
 20
0.0
 30
0.0
 70
   128
 71
     3
 72
     4
 73
     5
  0
SEQEND
  5
171A
  8
0
  0
POLYLINE
  5
1578
  8
0
 66
     1
 10
0.0
 20
0.0
 30
0.0
 70
    64
 71
    12
 72
    10
  0
VERTEX
  5
1579
  8
0
 10
99.9638605132285
 20
-1.0348994967025
 30
144.966906378133
 70
   192
  0
VERTEX
  5
157A
  8
0
 10
99.84189508416398
 20
-0.5202868867497527
 30
144.966906378133
 70
   192
  0
VERTEX
  5
157B
  8
0
 10
99.47451227597507
 20
-0.1398508521046338
 30
144.966906378133
 70
   192
  0
VERTEX
  5
157C
  8
0
 10
98.9644696862094
 20
0.0000000000000007
 30
144.966906378133
 70
   192
  0
VERTEX
  5
157D
  8
0
 10
98.45393492260757
 20
0.0
 30
146.9223306318018
 70
   192
  0
VERTEX
  5
157E
  8
0
 10
96.9223306318019
 20
0.0
 30
148.4539349226075
 70
   192
  0
VERTEX
  5
157F
  8
0
 10
94.966906378133
 20
0.0
 30
148.9644696862092
 70
   192
  0
VERTEX
  5
1580
  8
0
 10
94.966906378133
 20
-0.1398508521046332
 30
149.4745122759749
 70
   192
  0
VERTEX
  5
1581
  8
0
 10
94.96690637813299
 20
-0.520286886749751
 30
149.8418950841638
 70
   192
  0
VERTEX
  5
1582
  8
0
 10
94.96690637813299
 20
-1.034899496702497
 30
149.9638605132283
 70
   192
  0
VERTEX
  5
1583
  8
0
 10
97.506329402306
 20
-1.047931701315056
 30
149.2700267444756
 70
   192
  0
VERTEX
  5
1584
  8
0
 10
99.27003524880057
 20
-1.047932043661653
 30
147.5063131000055
 70
   192
  0
VERTEX
  5
1585
  8
0
 10
0.0
 20
0.0
 30
0.0
 70
   128
 71
     6
 72
     7
 73
     8
  0
VERTEX
  5
1586
  8
0
 10
0.0
 20
0.0
 30
0.0
 70
   128
 71
     9
 72
    11
 73
     6
  0
VERTEX
  5
1587
  8
0
 10
0.0
 20
0.0
 30
0.0
 70
   128
 71
     8
 72
     9
 73
     6
  0
VERTEX
  5
1588
  8
0
 10
0.0
 20
0.0
 30
0.0
 70
   128
 71
     9
 72
    10
 73
    11
  0
VERTEX
  5
1589
  8
0
 10
0.0
 20
0.0
 30
0.0
 70
   128
 71
    12
 72
     5
 73
     6
  0
VERTEX
  5
158A
  8
0
 10
0.0
 20
0.0
 30
0.0
 70
   128
 71
    11
 72
    12
 73
     6
  0
VERTEX
  5
158B
  8
0
 10
0.0
 20
0.0
 30
0.0
 70
   128
 71
    12
 72
     1
 73
     2
  0
VERTEX
  5
158C
  8
0
 10
0.0
 20
0.0
 30
0.0
 70
   128
 71
     3
 72
     5
 73
    12
  0
VERTEX
  5
158D
  8
0
 10
0.0
 20
0.0
 30
0.0
 70
   128
 71
     2
 72
     3
 73
    12
  0
VERTEX
  5
158E
  8
0
 10
0.0
 20
0.0
 30
0.0
 70
   128
 71
     3
 72
     4
 73
     5
  0
SEQEND
  5
171B
  8
0
  0
POLYLINE
  5
158F
  8
0
 66
     1
 10
0.0
 20
0.0
 30
0.0
 70
    64
 71
     8
 72
     6
  0
VERTEX
  5
1590
  8
0
 10
-149.4745122759749
 20
-0.1398508521046335
 30
144.966906378133
 70
   192
  0
VERTEX
  5
1591
  8
0
 10
-149.4745122759751
 20
-0.1398508521046344
 30
-94.9669063781331
 70
   192
  0
VERTEX
  5
1592
  8
0
 10
-149.841895084164
 20
-0.5202868867497551
 30
-94.9669063781331
 70
   192
  0
VERTEX
  5
1593
  8
0
 10
-149.8418950841638
 20
-0.5202868867497523
 30
144.966906378133
 70
   192
  0
VERTEX
  5
1594
  8
0
 10
-148.9644696862092
 20
0.0000000000000009
 30
144.966906378133
 70
   192
  0
VERTEX
  5
1595
  8
0
 10
-148.9644696862094
 20
0.0
 30
-94.96690637813312
 70
   192
  0
VERTEX
  5
1596
  8
0
 10
-149.9638605132285
 20
-1.034899496702504
 30
-94.9669063781331
 70
   192
  0
VERTEX
  5
1597
  8
0
 10
-149.9638605132283
 20
-1.0348994967025
 30
144.966906378133
 70
   192
  0
VERTEX
  5
1598
  8
0
 10
0.0
 20
0.0
 30
0.0
 70
   128
 71
     1
 72
     2
 73
    -3
  0
VERTEX
  5
1599
  8
0
 10
0.0
 20
0.0
 30
0.0
 70
   128
 71
    -1
 72
     3
 73
     4
  0
VERTEX
  5
159A
  8
0
 10
0.0
 20
0.0
 30
0.0
 70
   128
 71
     5
 72
     6
 73
    -2
  0
VERTEX
  5
159B
  8
0
 10
0.0
 20
0.0
 30
0.0
 70
   128
 71
    -5
 72
     2
 73
     1
  0
VERTEX
  5
159C
  8
0
 10
0.0
 20
0.0
 30
0.0
 70
   128
 71
     4
 72
     3
 73
    -7
  0
VERTEX
  5
159D
  8
0
 10
0.0
 20
0.0
 30
0.0
 70
   128
 71
    -4
 72
     7
 73
     8
  0
SEQEND
  5
171C
  8
0
  0
POLYLINE
  5
159E
  8
0
 66
     1
 10
0.0
 20
0.0
 30
0.0
 70
    64
 71
     8
 72
     6
  0
VERTEX
  5
159F
  8
0
 10
94.966906378133
 20
-0.1398508521046332
 30
149.4745122759749
 70
   192
  0
VERTEX
  5
15A0
  8
0
 10
-144.966906378133
 20
-0.139850852104635
 30
149.4745122759751
 70
   192
  0
VERTEX
  5
15A1
  8
0
 10
-144.966906378133
 20
-0.5202868867497569
 30
149.841895084164
 70
   192
  0
VERTEX
  5
15A2
  8
0
 10
94.96690637813299
 20
-0.520286886749751
 30
149.8418950841638
 70
   192
  0
VERTEX
  5
15A3
  8
0
 10
94.966906378133
 20
0.0000000000000007
 30
148.9644696862092
 70
   192
  0
VERTEX
  5
15A4
  8
0
 10
-144.966906378133
 20
0.0
 30
148.9644696862092
 70
   192
  0
VERTEX
  5
15A5
  8
0
 10
-144.966906378133
 20
-1.034899496702507
 30
149.9638605132285
 70
   192
  0
VERTEX
  5
15A6
  8
0
 10
94.96690637813299
 20
-1.0348994967025
 30
149.9638605132284
 70
   192
  0
VERTEX
  5
15A7
  8
0
 10
0.0
 20
0.0
 30
0.0
 70
   128
 71
     1
 72
     2
 73
    -3
  0
VERTEX
  5
15A8
  8
0
 10
0.0
 20
0.0
 30
0.0
 70
   128
 71
    -1
 72
     3
 73
     4
  0
VERTEX
  5
15A9
  8
0
 10
0.0
 20
0.0
 30
0.0
 70
   128
 71
     5
 72
     6
 73
    -2
  0
VERTEX
  5
15AA
  8
0
 10
0.0
 20
0.0
 30
0.0
 70
   128
 71
    -5
 72
     2
 73
     1
  0
VERTEX
  5
15AB
  8
0
 10
0.0
 20
0.0
 30
0.0
 70
   128
 71
     4
 72
     3
 73
    -7
  0
VERTEX
  5
15AC
  8
0
 10
0.0
 20
0.0
 30
0.0
 70
   128
 71
    -4
 72
     7
 73
     8
  0
SEQEND
  5
171D
  8
0
  0
POLYLINE
  5
15AD
  8
0
 66
     1
 10
0.0
 20
0.0
 30
0.0
 70
    64
 71
    12
 72
    10
  0
VERTEX
  5
15AE
  8
0
 10
-148.9644696862092
 20
0.0000000000000009
 30
144.966906378133
 70
   192
  0
VERTEX
  5
15AF
  8
0
 10
-149.4745122759749
 20
-0.1398508521046335
 30
144.966906378133
 70
   192
  0
VERTEX
  5
15B0
  8
0
 10
-149.8418950841638
 20
-0.5202868867497523
 30
144.966906378133
 70
   192
  0
VERTEX
  5
15B1
  8
0
 10
-149.9638605132283
 20
-1.034899496702499
 30
144.966906378133
 70
   192
  0
VERTEX
  5
15B2
  8
0
 10
-149.2700267446126
 20
-1.047931701319287
 30
147.5063294020724
 70
   192
  0
VERTEX
  5
15B3
  8
0
 10
-147.5063131001749
 20
-1.047932043657421
 30
149.2700352487273
 70
   192
  0
VERTEX
  5
15B4
  8
0
 10
-144.966906378133
 20
-1.034899496702502
 30
149.9638605132284
 70
   192
  0
VERTEX
  5
15B5
  8
0
 10
-144.966906378133
 20
-0.5202868867497569
 30
149.841895084164
 70
   192
  0
VERTEX
  5
15B6
  8
0
 10
-144.966906378133
 20
-0.139850852104635
 30
149.4745122759751
 70
   192
  0
VERTEX
  5
15B7
  8
0
 10
-144.966906378133
 20
0.0000000000000007
 30
148.9644696862094
 70
   192
  0
VERTEX
  5
15B8
  8
0
 10
-146.9223306318018
 20
0.0
 30
148.4539349226075
 70
   192
  0
VERTEX
  5
15B9
  8
0
 10
-148.4539349226075
 20
0.0
 30
146.9223306318017
 70
   192
  0
VERTEX
  5
15BA
  8
0
 10
0.0
 20
0.0
 30
0.0
 70
   128
 71
     6
 72
     7
 73
     8
  0
VERTEX
  5
15BB
  8
0
 10
0.0
 20
0.0
 30
0.0
 70
   128
 71
     9
 72
    11
 73
     6
  0
VERTEX
  5
15BC
  8
0
 10
0.0
 20
0.0
 30
0.0
 70
   128
 71
     8
 72
     9
 73
     6
  0
VERTEX
  5
15BD
  8
0
 10
0.0
 20
0.0
 30
0.0
 70
   128
 71
     9
 72
    10
 73
    11
  0
VERTEX
  5
15BE
  8
0
 10
0.0
 20
0.0
 30
0.0
 70
   128
 71
    12
 72
     5
 73
     6
  0
VERTEX
  5
15BF
  8
0
 10
0.0
 20
0.0
 30
0.0
 70
   128
 71
    11
 72
    12
 73
     6
  0
VERTEX
  5
15C0
  8
0
 10
0.0
 20
0.0
 30
0.0
 70
   128
 71
    12
 72
     1
 73
     2
  0
VERTEX
  5
15C1
  8
0
 10
0.0
 20
0.0
 30
0.0
 70
   128
 71
     3
 72
     5
 73
    12
  0
VERTEX
  5
15C2
  8
0
 10
0.0
 20
0.0
 30
0.0
 70
   128
 71
     2
 72
     3
 73
    12
  0
VERTEX
  5
15C3
  8
0
 10
0.0
 20
0.0
 30
0.0
 70
   128
 71
     3
 72
     4
 73
     5
  0
SEQEND
  5
171E
  8
0
  0
POLYLINE
  5
15C4
  8
0
 66
     1
 10
0.0
 20
0.0
 30
0.0
 70
    64
 71
    12
 72
    10
  0
VERTEX
  5
15C5
  8
0
 10
-136.852296910106
 20
-0.0000000000000107
 30
136.8522969101062
 70
   192
  0
VERTEX
  5
15C6
  8
0
 10
-135.9139647607642
 20
-0.3094488380588039
 30
135.9139647607644
 70
   192
  0
VERTEX
  5
15C7
  8
0
 10
-135.1692098069738
 20
-1.173956296651225
 30
135.169209806974
 70
   192
  0
VERTEX
  5
15C8
  8
0
 10
-134.771674418794
 20
-2.415175156740884
 30
134.7716744187942
 70
   192
  0
VERTEX
  5
15C9
  8
0
 10
-136.3315971443191
 20
-2.434480813374717
 30
132.7303193669404
 70
   192
  0
VERTEX
  5
15CA
  8
0
 10
-137.3046956220817
 20
-2.490758414471561
 30
130.3580359066268
 70
   192
  0
VERTEX
  5
15CB
  8
0
 10
-137.637056007224
 20
-2.58248069711979
 30
127.7343753198082
 70
   192
  0
VERTEX
  5
15CC
  8
0
 10
-138.1604564093161
 20
-1.265002991496022
 30
127.7343753198082
 70
   192
  0
VERTEX
  5
15CD
  8
0
 10
-139.2303608532876
 20
-0.334949247620981
 30
127.7343753198082
 70
   192
  0
VERTEX
  5
15CE
  8
0
 10
-140.6078602134486
 20
0.0000000000000027
 30
127.7343753198082
 70
   192
  0
VERTEX
  5
15CF
  8
0
 10
-140.1763294934521
 20
0.0000000000000003
 30
131.0636302406944
 70
   192
  0
VERTEX
  5
15D0
  8
0
 10
-138.8817373334628
 20
0.0000000000000004
 30
134.206697965233
 70
   192
  0
VERTEX
  5
15D1
  8
0
 10
0.0
 20
0.0
 30
0.0
 70
   128
 71
     6
 72
     7
 73
     8
  0
VERTEX
  5
15D2
  8
0
 10
0.0
 20
0.0
 30
0.0
 70
   128
 71
     9
 72
    11
 73
     6
  0
VERTEX
  5
15D3
  8
0
 10
0.0
 20
0.0
 30
0.0
 70
   128
 71
     8
 72
     9
 73
     6
  0
VERTEX
  5
15D4
  8
0
 10
0.0
 20
0.0
 30
0.0
 70
   128
 71
     9
 72
    10
 73
    11
  0
VERTEX
  5
15D5
  8
0
 10
0.0
 20
0.0
 30
0.0
 70
   128
 71
    12
 72
     5
 73
     6
  0
VERTEX
  5
15D6
  8
0
 10
0.0
 20
0.0
 30
0.0
 70
   128
 71
    11
 72
    12
 73
     6
  0
VERTEX
  5
15D7
  8
0
 10
0.0
 20
0.0
 30
0.0
 70
   128
 71
    12
 72
     1
 73
     2
  0
VERTEX
  5
15D8
  8
0
 10
0.0
 20
0.0
 30
0.0
 70
   128
 71
     3
 72
     5
 73
    12
  0
VERTEX
  5
15D9
  8
0
 10
0.0
 20
0.0
 30
0.0
 70
   128
 71
     2
 72
     3
 73
    12
  0
VERTEX
  5
15DA
  8
0
 10
0.0
 20
0.0
 30
0.0
 70
   128
 71
     3
 72
     4
 73
     5
  0
SEQEND
  5
171F
  8
0
  0
POLYLINE
  5
15DB
  8
0
 66
     1
 10
0.0
 20
0.0
 30
0.0
 70
    64
 71
     8
 72
     6
  0
VERTEX
  5
15DC
  8
0
 10
-139.2303608532876
 20
-0.3349492476209828
 30
-77.7343753198083
 70
   192
  0
VERTEX
  5
15DD
  8
0
 10
-139.2303608532876
 20
-0.334949247620981
 30
127.7343753198082
 70
   192
  0
VERTEX
  5
15DE
  8
0
 10
-138.1604564093161
 20
-1.265002991496022
 30
127.7343753198082
 70
   192
  0
VERTEX
  5
15DF
  8
0
 10
-138.1604564093161
 20
-1.265002991496031
 30
-77.7343753198083
 70
   192
  0
VERTEX
  5
15E0
  8
0
 10
-140.6078602134486
 20
0.0000000000000027
 30
-77.7343753198083
 70
   192
  0
VERTEX
  5
15E1
  8
0
 10
-140.6078602134485
 20
0.0
 30
127.7343753198082
 70
   192
  0
VERTEX
  5
15E2
  8
0
 10
-137.6370560072239
 20
-2.582480697119773
 30
127.7343753198082
 70
   192
  0
VERTEX
  5
15E3
  8
0
 10
-137.6370560072241
 20
-2.582480697119805
 30
-77.73437531980827
 70
   192
  0
VERTEX
  5
15E4
  8
0
 10
0.0
 20
0.0
 30
0.0
 70
   128
 71
     1
 72
     2
 73
    -3
  0
VERTEX
  5
15E5
  8
0
 10
0.0
 20
0.0
 30
0.0
 70
   128
 71
    -1
 72
     3
 73
     4
  0
VERTEX
  5
15E6
  8
0
 10
0.0
 20
0.0
 30
0.0
 70
   128
 71
     5
 72
     6
 73
    -2
  0
VERTEX
  5
15E7
  8
0
 10
0.0
 20
0.0
 30
0.0
 70
   128
 71
    -5
 72
     2
 73
     1
  0
VERTEX
  5
15E8
  8
0
 10
0.0
 20
0.0
 30
0.0
 70
   128
 71
     4
 72
     3
 73
    -7
  0
VERTEX
  5
15E9
  8
0
 10
0.0
 20
0.0
 30
0.0
 70
   128
 71
    -4
 72
     7
 73
     8
  0
SEQEND
  5
1720
  8
0
  0
POLYLINE
  5
15EA
  8
0
 66
     1
 10
0.0
 20
0.0
 30
0.0
 70
    64
 71
     8
 72
     6
  0
VERTEX
  5
15EB
  8
0
 10
-127.7343753198082
 20
-0.3349492476209828
 30
139.2303608532876
 70
   192
  0
VERTEX
  5
15EC
  8
0
 10
77.7343753198083
 20
-0.3349492476209788
 30
139.2303608532876
 70
   192
  0
VERTEX
  5
15ED
  8
0
 10
77.7343753198083
 20
-1.265002991496014
 30
138.1604564093161
 70
   192
  0
VERTEX
  5
15EE
  8
0
 10
-127.7343753198082
 20
-1.26500299149603
 30
138.1604564093161
 70
   192
  0
VERTEX
  5
15EF
  8
0
 10
-127.7343753198082
 20
0.0000000000000027
 30
140.6078602134486
 70
   192
  0
VERTEX
  5
15F0
  8
0
 10
77.73437531980827
 20
0.0
 30
140.6078602134486
 70
   192
  0
VERTEX
  5
15F1
  8
0
 10
77.7343753198083
 20
-2.582480697119758
 30
137.6370560072239
 70
   192
  0
VERTEX
  5
15F2
  8
0
 10
-127.7343753198082
 20
-2.582480697119805
 30
137.637056007224
 70
   192
  0
VERTEX
  5
15F3
  8
0
 10
0.0
 20
0.0
 30
0.0
 70
   128
 71
     1
 72
     2
 73
    -3
  0
VERTEX
  5
15F4
  8
0
 10
0.0
 20
0.0
 30
0.0
 70
   128
 71
    -1
 72
     3
 73
     4
  0
VERTEX
  5
15F5
  8
0
 10
0.0
 20
0.0
 30
0.0
 70
   128
 71
     5
 72
     6
 73
    -2
  0
VERTEX
  5
15F6
  8
0
 10
0.0
 20
0.0
 30
0.0
 70
   128
 71
    -5
 72
     2
 73
     1
  0
VERTEX
  5
15F7
  8
0
 10
0.0
 20
0.0
 30
0.0
 70
   128
 71
     4
 72
     3
 73
    -7
  0
VERTEX
  5
15F8
  8
0
 10
0.0
 20
0.0
 30
0.0
 70
   128
 71
    -4
 72
     7
 73
     8
  0
SEQEND
  5
1721
  8
0
  0
POLYLINE
  5
15F9
  8
0
 66
     1
 10
0.0
 20
0.0
 30
0.0
 70
    64
 71
    12
 72
    10
  0
VERTEX
  5
15FA
  8
0
 10
-136.8522969101062
 20
-0.0000000000000009
 30
-86.85229691010619
 70
   192
  0
VERTEX
  5
15FB
  8
0
 10
-135.9139647607644
 20
-0.3094488380587963
 30
-85.91396476076439
 70
   192
  0
VERTEX
  5
15FC
  8
0
 10
-135.1692098069739
 20
-1.173956296651223
 30
-85.16920980697392
 70
   192
  0
VERTEX
  5
15FD
  8
0
 10
-134.7716744187942
 20
-2.415175156740888
 30
-84.77167441879415
 70
   192
  0
VERTEX
  5
15FE
  8
0
 10
-132.7303193665047
 20
-2.43448081334952
 30
-86.33159714457506
 70
   192
  0
VERTEX
  5
15FF
  8
0
 10
-130.3580359060664
 20
-2.490758414518143
 30
-87.30469562222484
 70
   192
  0
VERTEX
  5
1600
  8
0
 10
-127.7343753198082
 20
-2.58248069711982
 30
-87.637056007224
 70
   192
  0
VERTEX
  5
1601
  8
0
 10
-127.7343753198082
 20
-1.265002991496047
 30
-88.16045640931618
 70
   192
  0
VERTEX
  5
1602
  8
0
 10
-127.7343753198082
 20
-0.3349492476209877
 30
-89.23036085328766
 70
   192
  0
VERTEX
  5
1603
  8
0
 10
-127.7343753198082
 20
0.0000000000000027
 30
-90.6078602134487
 70
   192
  0
VERTEX
  5
1604
  8
0
 10
-131.0636302406944
 20
0.0
 30
-90.1763294934522
 70
   192
  0
VERTEX
  5
1605
  8
0
 10
-134.206697965233
 20
0.0000000000000001
 30
-88.8817373334629
 70
   192
  0
VERTEX
  5
1606
  8
0
 10
0.0
 20
0.0
 30
0.0
 70
   128
 71
     6
 72
     7
 73
     8
  0
VERTEX
  5
1607
  8
0
 10
0.0
 20
0.0
 30
0.0
 70
   128
 71
     9
 72
    11
 73
     6
  0
VERTEX
  5
1608
  8
0
 10
0.0
 20
0.0
 30
0.0
 70
   128
 71
     8
 72
     9
 73
     6
  0
VERTEX
  5
1609
  8
0
 10
0.0
 20
0.0
 30
0.0
 70
   128
 71
     9
 72
    10
 73
    11
  0
VERTEX
  5
160A
  8
0
 10
0.0
 20
0.0
 30
0.0
 70
   128
 71
    12
 72
     5
 73
     6
  0
VERTEX
  5
160B
  8
0
 10
0.0
 20
0.0
 30
0.0
 70
   128
 71
    11
 72
    12
 73
     6
  0
VERTEX
  5
160C
  8
0
 10
0.0
 20
0.0
 30
0.0
 70
   128
 71
    12
 72
     1
 73
     2
  0
VERTEX
  5
160D
  8
0
 10
0.0
 20
0.0
 30
0.0
 70
   128
 71
     3
 72
     5
 73
    12
  0
VERTEX
  5
160E
  8
0
 10
0.0
 20
0.0
 30
0.0
 70
   128
 71
     2
 72
     3
 73
    12
  0
VERTEX
  5
160F
  8
0
 10
0.0
 20
0.0
 30
0.0
 70
   128
 71
     3
 72
     4
 73
     5
  0
SEQEND
  5
1722
  8
0
  0
POLYLINE
  5
1610
  8
0
 66
     1
 10
0.0
 20
0.0
 30
0.0
 70
    64
 71
    12
 72
    10
  0
VERTEX
  5
1611
  8
0
 10
86.85229691010619
 20
-0.0000000000000009
 30
136.852296910106
 70
   192
  0
VERTEX
  5
1612
  8
0
 10
85.91396476076439
 20
-0.3094488380587923
 30
135.9139647607642
 70
   192
  0
VERTEX
  5
1613
  8
0
 10
85.16920980697394
 20
-1.173956296651208
 30
135.1692098069738
 70
   192
  0
VERTEX
  5
1614
  8
0
 10
84.77167441879416
 20
-2.415175156740862
 30
134.771674418794
 70
   192
  0
VERTEX
  5
1615
  8
0
 10
82.73031936685926
 20
-2.434480813370094
 30
136.3315971443668
 70
   192
  0
VERTEX
  5
1616
  8
0
 10
80.35803590652256
 20
-2.490758414480156
 30
137.3046956221083
 70
   192
  0
VERTEX
  5
1617
  8
0
 10
77.7343753198083
 20
-2.582480697119775
 30
137.637056007224
 70
   192
  0
VERTEX
  5
1618
  8
0
 10
77.7343753198083
 20
-1.265002991496014
 30
138.1604564093161
 70
   192
  0
VERTEX
  5
1619
  8
0
 10
77.7343753198083
 20
-0.3349492476209788
 30
139.2303608532876
 70
   192
  0
VERTEX
  5
161A
  8
0
 10
77.7343753198083
 20
0.0000000000000027
 30
140.6078602134486
 70
   192
  0
VERTEX
  5
161B
  8
0
 10
81.06363024069454
 20
0.0000000000000003
 30
140.1763294934521
 70
   192
  0
VERTEX
  5
161C
  8
0
 10
84.2066979652331
 20
0.0000000000000004
 30
138.8817373334628
 70
   192
  0
VERTEX
  5
161D
  8
0
 10
0.0
 20
0.0
 30
0.0
 70
   128
 71
     6
 72
     7
 73
     8
  0
VERTEX
  5
161E
  8
0
 10
0.0
 20
0.0
 30
0.0
 70
   128
 71
     9
 72
    11
 73
     6
  0
VERTEX
  5
161F
  8
0
 10
0.0
 20
0.0
 30
0.0
 70
   128
 71
     8
 72
     9
 73
     6
  0
VERTEX
  5
1620
  8
0
 10
0.0
 20
0.0
 30
0.0
 70
   128
 71
     9
 72
    10
 73
    11
  0
VERTEX
  5
1621
  8
0
 10
0.0
 20
0.0
 30
0.0
 70
   128
 71
    12
 72
     5
 73
     6
  0
VERTEX
  5
1622
  8
0
 10
0.0
 20
0.0
 30
0.0
 70
   128
 71
    11
 72
    12
 73
     6
  0
VERTEX
  5
1623
  8
0
 10
0.0
 20
0.0
 30
0.0
 70
   128
 71
    12
 72
     1
 73
     2
  0
VERTEX
  5
1624
  8
0
 10
0.0
 20
0.0
 30
0.0
 70
   128
 71
     3
 72
     5
 73
    12
  0
VERTEX
  5
1625
  8
0
 10
0.0
 20
0.0
 30
0.0
 70
   128
 71
     2
 72
     3
 73
    12
  0
VERTEX
  5
1626
  8
0
 10
0.0
 20
0.0
 30
0.0
 70
   128
 71
     3
 72
     4
 73
     5
  0
SEQEND
  5
1723
  8
0
  0
POLYLINE
  5
1627
  8
0
 66
     1
 10
0.0
 20
0.0
 30
0.0
 70
    64
 71
     8
 72
     6
  0
VERTEX
  5
1628
  8
0
 10
77.7343753198083
 20
-0.3349492476209854
 30
-89.23036085328766
 70
   192
  0
VERTEX
  5
1629
  8
0
 10
-127.7343753198082
 20
-0.3349492476209877
 30
-89.23036085328766
 70
   192
  0
VERTEX
  5
162A
  8
0
 10
-127.7343753198082
 20
-1.265002991496047
 30
-88.16045640931618
 70
   192
  0
VERTEX
  5
162B
  8
0
 10
77.7343753198083
 20
-1.26500299149604
 30
-88.16045640931618
 70
   192
  0
VERTEX
  5
162C
  8
0
 10
77.7343753198083
 20
0.0000000000000027
 30
-90.6078602134487
 70
   192
  0
VERTEX
  5
162D
  8
0
 10
-127.7343753198082
 20
0.0
 30
-90.60786021344867
 70
   192
  0
VERTEX
  5
162E
  8
0
 10
-127.7343753198082
 20
-2.582480697119818
 30
-87.63705600722399
 70
   192
  0
VERTEX
  5
162F
  8
0
 10
77.73437531980827
 20
-2.582480697119805
 30
-87.63705600722403
 70
   192
  0
VERTEX
  5
1630
  8
0
 10
0.0
 20
0.0
 30
0.0
 70
   128
 71
     1
 72
     2
 73
    -3
  0
VERTEX
  5
1631
  8
0
 10
0.0
 20
0.0
 30
0.0
 70
   128
 71
    -1
 72
     3
 73
     4
  0
VERTEX
  5
1632
  8
0
 10
0.0
 20
0.0
 30
0.0
 70
   128
 71
     5
 72
     6
 73
    -2
  0
VERTEX
  5
1633
  8
0
 10
0.0
 20
0.0
 30
0.0
 70
   128
 71
    -5
 72
     2
 73
     1
  0
VERTEX
  5
1634
  8
0
 10
0.0
 20
0.0
 30
0.0
 70
   128
 71
     4
 72
     3
 73
    -7
  0
VERTEX
  5
1635
  8
0
 10
0.0
 20
0.0
 30
0.0
 70
   128
 71
    -4
 72
     7
 73
     8
  0
SEQEND
  5
1724
  8
0
  0
POLYLINE
  5
1636
  8
0
 66
     1
 10
0.0
 20
0.0
 30
0.0
 70
    64
 71
     8
 72
     6
  0
VERTEX
  5
1637
  8
0
 10
89.23036085328766
 20
-0.3349492476209854
 30
127.7343753198082
 70
   192
  0
VERTEX
  5
1638
  8
0
 10
89.23036085328766
 20
-0.3349492476209854
 30
-77.7343753198083
 70
   192
  0
VERTEX
  5
1639
  8
0
 10
88.16045640931618
 20
-1.265002991496039
 30
-77.7343753198083
 70
   192
  0
VERTEX
  5
163A
  8
0
 10
88.16045640931618
 20
-1.265002991496039
 30
127.7343753198082
 70
   192
  0
VERTEX
  5
163B
  8
0
 10
90.6078602134487
 20
0.0000000000000027
 30
127.7343753198082
 70
   192
  0
VERTEX
  5
163C
  8
0
 10
90.60786021344867
 20
0.0
 30
-77.73437531980827
 70
   192
  0
VERTEX
  5
163D
  8
0
 10
87.63705600722399
 20
-2.582480697119803
 30
-77.7343753198083
 70
   192
  0
VERTEX
  5
163E
  8
0
 10
87.63705600722403
 20
-2.582480697119805
 30
127.7343753198082
 70
   192
  0
VERTEX
  5
163F
  8
0
 10
0.0
 20
0.0
 30
0.0
 70
   128
 71
     1
 72
     2
 73
    -3
  0
VERTEX
  5
1640
  8
0
 10
0.0
 20
0.0
 30
0.0
 70
   128
 71
    -1
 72
     3
 73
     4
  0
VERTEX
  5
1641
  8
0
 10
0.0
 20
0.0
 30
0.0
 70
   128
 71
     5
 72
     6
 73
    -2
  0
VERTEX
  5
1642
  8
0
 10
0.0
 20
0.0
 30
0.0
 70
   128
 71
    -5
 72
     2
 73
     1
  0
VERTEX
  5
1643
  8
0
 10
0.0
 20
0.0
 30
0.0
 70
   128
 71
     4
 72
     3
 73
    -7
  0
VERTEX
  5
1644
  8
0
 10
0.0
 20
0.0
 30
0.0
 70
   128
 71
    -4
 72
     7
 73
     8
  0
SEQEND
  5
1725
  8
0
  0
POLYLINE
  5
1645
  8
0
 66
     1
 10
0.0
 20
0.0
 30
0.0
 70
    64
 71
    12
 72
    10
  0
VERTEX
  5
1646
  8
0
 10
86.85229691010619
 20
-0.0000000000000009
 30
-86.85229691010619
 70
   192
  0
VERTEX
  5
1647
  8
0
 10
85.91396476076439
 20
-0.3094488380587923
 30
-85.91396476076439
 70
   192
  0
VERTEX
  5
1648
  8
0
 10
85.16920980697394
 20
-1.173956296651209
 30
-85.16920980697394
 70
   192
  0
VERTEX
  5
1649
  8
0
 10
84.77167441879418
 20
-2.415175156740863
 30
-84.77167441879416
 70
   192
  0
VERTEX
  5
164A
  8
0
 10
86.3315971443962
 20
-2.43448081336717
 30
-82.73031936680957
 70
   192
  0
VERTEX
  5
164B
  8
0
 10
87.30469562212483
 20
-2.49075841448552
 30
-80.35803590645861
 70
   192
  0
VERTEX
  5
164C
  8
0
 10
87.637056007224
 20
-2.582480697119805
 30
-77.7343753198083
 70
   192
  0
VERTEX
  5
164D
  8
0
 10
88.16045640931618
 20
-1.265002991496039
 30
-77.7343753198083
 70
   192
  0
VERTEX
  5
164E
  8
0
 10
89.23036085328766
 20
-0.3349492476209854
 30
-77.7343753198083
 70
   192
  0
VERTEX
  5
164F
  8
0
 10
90.6078602134487
 20
0.0000000000000027
 30
-77.7343753198083
 70
   192
  0
VERTEX
  5
1650
  8
0
 10
90.17632949345222
 20
0.0000000000000003
 30
-81.06363024069454
 70
   192
  0
VERTEX
  5
1651
  8
0
 10
88.8817373334629
 20
0.0000000000000004
 30
-84.20669796523309
 70
   192
  0
VERTEX
  5
1652
  8
0
 10
0.0
 20
0.0
 30
0.0
 70
   128
 71
     6
 72
     7
 73
     8
  0
VERTEX
  5
1653
  8
0
 10
0.0
 20
0.0
 30
0.0
 70
   128
 71
     9
 72
    11
 73
     6
  0
VERTEX
  5
1654
  8
0
 10
0.0
 20
0.0
 30
0.0
 70
   128
 71
     8
 72
     9
 73
     6
  0
VERTEX
  5
1655
  8
0
 10
0.0
 20
0.0
 30
0.0
 70
   128
 71
     9
 72
    10
 73
    11
  0
VERTEX
  5
1656
  8
0
 10
0.0
 20
0.0
 30
0.0
 70
   128
 71
    12
 72
     5
 73
     6
  0
VERTEX
  5
1657
  8
0
 10
0.0
 20
0.0
 30
0.0
 70
   128
 71
    11
 72
    12
 73
     6
  0
VERTEX
  5
1658
  8
0
 10
0.0
 20
0.0
 30
0.0
 70
   128
 71
    12
 72
     1
 73
     2
  0
VERTEX
  5
1659
  8
0
 10
0.0
 20
0.0
 30
0.0
 70
   128
 71
     3
 72
     5
 73
    12
  0
VERTEX
  5
165A
  8
0
 10
0.0
 20
0.0
 30
0.0
 70
   128
 71
     2
 72
     3
 73
    12
  0
VERTEX
  5
165B
  8
0
 10
0.0
 20
0.0
 30
0.0
 70
   128
 71
     3
 72
     4
 73
     5
  0
SEQEND
  5
1726
  8
0
  0
POLYLINE
  5
165C
  8
0
 66
     1
 10
0.0
 20
0.0
 30
0.0
 70
    64
 71
    10
 72
     8
  0
VERTEX
  5
165D
  8
0
 10
0.0
 20
-102.0
 30
22.0
 70
   192
  0
VERTEX
  5
165E
  8
0
 10
0.0000000000000027
 20
-102.0
 30
-22.0
 70
   192
  0
VERTEX
  5
165F
  8
0
 10
0.0000000000000027
 20
-91.999124725835
 30
-22.0
 70
   192
  0
VERTEX
  5
1660
  8
0
 10
0.0
 20
-91.999124725835
 30
22.0
 70
   192
  0
VERTEX
  5
1661
  8
0
 10
22.0
 20
-91.999124725835
 30
0.0
 70
   192
  0
VERTEX
  5
1662
  8
0
 10
22.0
 20
-102.0
 30
0.0
 70
   192
  0
VERTEX
  5
1663
  8
0
 10
15.55634918610405
 20
-91.999124725835
 30
15.55634918610405
 70
   192
  0
VERTEX
  5
1664
  8
0
 10
15.55634918610405
 20
-102.0
 30
15.55634918610405
 70
   192
  0
VERTEX
  5
1665
  8
0
 10
15.55634918610405
 20
-91.999124725835
 30
-15.55634918610405
 70
   192
  0
VERTEX
  5
1666
  8
0
 10
15.55634918610405
 20
-102.0
 30
-15.55634918610405
 70
   192
  0
VERTEX
  5
1667
  8
0
 10
0.0
 20
0.0
 30
0.0
 70
   128
 71
     8
 72
     1
 73
    -4
  0
VERTEX
  5
1668
  8
0
 10
0.0
 20
0.0
 30
0.0
 70
   128
 71
     7
 72
    -8
 73
     4
  0
VERTEX
  5
1669
  8
0
 10
0.0
 20
0.0
 30
0.0
 70
   128
 71
     6
 72
     8
 73
    -7
  0
VERTEX
  5
166A
  8
0
 10
0.0
 20
0.0
 30
0.0
 70
   128
 71
     5
 72
    -6
 73
     7
  0
VERTEX
  5
166B
  8
0
 10
0.0
 20
0.0
 30
0.0
 70
   128
 71
    10
 72
     6
 73
    -5
  0
VERTEX
  5
166C
  8
0
 10
0.0
 20
0.0
 30
0.0
 70
   128
 71
     9
 72
   -10
 73
     5
  0
VERTEX
  5
166D
  8
0
 10
0.0
 20
0.0
 30
0.0
 70
   128
 71
     3
 72
     2
 73
   -10
  0
VERTEX
  5
166E
  8
0
 10
0.0
 20
0.0
 30
0.0
 70
   128
 71
     9
 72
    -3
 73
    10
  0
SEQEND
  5
1727
  8
0
  0
POLYLINE
  5
166F
  8
0
 66
     1
 10
0.0
 20
0.0
 30
0.0
 70
    64
 71
    10
 72
     8
  0
VERTEX
  5
1670
  8
0
 10
0.0
 20
-91.999124725835
 30
22.0
 70
   192
  0
VERTEX
  5
1671
  8
0
 10
0.0000000000000027
 20
-91.99912472583503
 30
-22.00000000000003
 70
   192
  0
VERTEX
  5
1672
  8
0
 10
0.0000000000000043
 20
-81.0753686281752
 30
-35.01842557400909
 70
   192
  0
VERTEX
  5
1673
  8
0
 10
0.0
 20
-81.0753686281752
 30
35.01842557400909
 70
   192
  0
VERTEX
  5
1674
  8
0
 10
35.01842557400909
 20
-81.0753686281752
 30
0.0000000000000039
 70
   192
  0
VERTEX
  5
1675
  8
0
 10
22.0
 20
-91.999124725835
 30
0.0
 70
   192
  0
VERTEX
  5
1676
  8
0
 10
24.76176618985825
 20
-81.0753686281752
 30
24.76176618985825
 70
   192
  0
VERTEX
  5
1677
  8
0
 10
15.55634918610405
 20
-91.999124725835
 30
15.55634918610405
 70
   192
  0
VERTEX
  5
1678
  8
0
 10
24.76176618985825
 20
-81.0753686281752
 30
-24.76176618985825
 70
   192
  0
VERTEX
  5
1679
  8
0
 10
15.55634918610405
 20
-91.999124725835
 30
-15.55634918610405
 70
   192
  0
VERTEX
  5
167A
  8
0
 10
0.0
 20
0.0
 30
0.0
 70
   128
 71
     8
 72
     1
 73
    -4
  0
VERTEX
  5
167B
  8
0
 10
0.0
 20
0.0
 30
0.0
 70
   128
 71
     7
 72
    -8
 73
     4
  0
VERTEX
  5
167C
  8
0
 10
0.0
 20
0.0
 30
0.0
 70
   128
 71
     6
 72
     8
 73
    -7
  0
VERTEX
  5
167D
  8
0
 10
0.0
 20
0.0
 30
0.0
 70
   128
 71
     5
 72
    -6
 73
     7
  0
VERTEX
  5
167E
  8
0
 10
0.0
 20
0.0
 30
0.0
 70
   128
 71
    10
 72
     6
 73
    -5
  0
VERTEX
  5
167F
  8
0
 10
0.0
 20
0.0
 30
0.0
 70
   128
 71
     9
 72
   -10
 73
     5
  0
VERTEX
  5
1680
  8
0
 10
0.0
 20
0.0
 30
0.0
 70
   128
 71
     3
 72
     2
 73
   -10
  0
VERTEX
  5
1681
  8
0
 10
0.0
 20
0.0
 30
0.0
 70
   128
 71
     9
 72
    -3
 73
    10
  0
SEQEND
  5
1728
  8
0
  0
POLYLINE
  5
1682
  8
0
 66
     1
 10
0.0
 20
0.0
 30
0.0
 70
    64
 71
    23
 72
    30
  0
VERTEX
  5
1683
  8
0
 10
-26.28420222422749
 20
-80.01943531145669
 30
-26.28420222422748
 70
   192
  0
VERTEX
  5
1684
  8
0
 10
-26.84932803042215
 20
-79.9124431699972
 30
-26.84932803042214
 70
   192
  0
VERTEX
  5
1685
  8
0
 10
-37.9706838412271
 20
-79.9124431699972
 30
0.0000000000000042
 70
   192
  0
VERTEX
  5
1686
  8
0
 10
-37.17147526165958
 20
-80.01943531145669
 30
0.0000000000000068
 70
   192
  0
VERTEX
  5
1687
  8
0
 10
-26.28420222422748
 20
-80.01943531145669
 30
26.28420222422749
 70
   192
  0
VERTEX
  5
1688
  8
0
 10
-26.84932803042214
 20
-79.9124431699972
 30
26.84932803042215
 70
   192
  0
VERTEX
  5
1689
  8
0
 10
0.0000000000000047
 20
-79.9124431699972
 30
37.9706838412271
 70
   192
  0
VERTEX
  5
168A
  8
0
 10
-36.39985748882032
 20
-80.25350300385996
 30
0.0000000000000067
 70
   192
  0
VERTEX
  5
168B
  8
0
 10
-25.73858606456879
 20
-80.25350300385996
 30
-25.73858606456877
 70
   192
  0
VERTEX
  5
168C
  8
0
 10
0.0000000000000045
 20
-80.0835721431954
 30
36.9101928122558
 70
   192
  0
VERTEX
  5
168D
  8
0
 10
-25.73858606456877
 20
-80.25350300385996
 30
25.73858606456879
 70
   192
  0
VERTEX
  5
168E
  8
0
 10
-35.67589819205653
 20
-80.60855878626282
 30
0.0000000000000066
 70
   192
  0
VERTEX
  5
168F
  8
0
 10
-25.22666953652407
 20
-80.60855878626282
 30
-25.22666953652406
 70
   192
  0
VERTEX
  5
1690
  8
0
 10
0.0
 20
-80.47727129355854
 30
-35.91072929266151
 70
   192
  0
VERTEX
  5
1691
  8
0
 10
-25.22666953652406
 20
-80.60855878626282
 30
25.22666953652407
 70
   192
  0
VERTEX
  5
1692
  8
0
 10
-35.0184255740091
 20
-81.0753686281752
 30
0.0
 70
   192
  0
VERTEX
  5
1693
  8
0
 10
-24.76176618985825
 20
-81.0753686281752
 30
-24.76176618985825
 70
   192
  0
VERTEX
  5
1694
  8
0
 10
-24.76176618985825
 20
-81.0753686281752
 30
24.76176618985825
 70
   192
  0
VERTEX
  5
1695
  8
0
 10
0.0
 20
-80.0835721431954
 30
-36.9101928122558
 70
   192
  0
VERTEX
  5
1696
  8
0
 10
0.0000000000000044
 20
-80.47727129355854
 30
35.91072929266151
 70
   192
  0
VERTEX
  5
1697
  8
0
 10
0.0
 20
-81.0753686281752
 30
-35.01842557400909
 70
   192
  0
VERTEX
  5
1698
  8
0
 10
0.0000000000000043
 20
-81.07536862817518
 30
35.01842557400909
 70
   192
  0
VERTEX
  5
1699
  8
0
 10
0.0
 20
-79.91244316999723
 30
-37.9706838412271
 70
   192
  0
VERTEX
  5
169A
  8
0
 10
0.0
 20
0.0
 30
0.0
 70
   128
 71
     1
 72
     2
 73
    -3
  0
VERTEX
  5
169B
  8
0
 10
0.0
 20
0.0
 30
0.0
 70
   128
 71
    -1
 72
     3
 73
     4
  0
VERTEX
  5
169C
  8
0
 10
0.0
 20
0.0
 30
0.0
 70
   128
 71
     5
 72
     6
 73
     7
  0
VERTEX
  5
169D
  8
0
 10
0.0
 20
0.0
 30
0.0
 70
   128
 71
     4
 72
     3
 73
    -6
  0
VERTEX
  5
169E
  8
0
 10
0.0
 20
0.0
 30
0.0
 70
   128
 71
    -4
 72
     6
 73
     5
  0
VERTEX
  5
169F
  8
0
 10
0.0
 20
0.0
 30
0.0
 70
   128
 71
     8
 72
     9
 73
    -1
  0
VERTEX
  5
16A0
  8
0
 10
0.0
 20
0.0
 30
0.0
 70
   128
 71
    -8
 72
     1
 73
     4
  0
VERTEX
  5
16A1
  8
0
 10
0.0
 20
0.0
 30
0.0
 70
   128
 71
    10
 72
    11
 73
     5
  0
VERTEX
  5
16A2
  8
0
 10
0.0
 20
0.0
 30
0.0
 70
   128
 71
    11
 72
     8
 73
    -4
  0
VERTEX
  5
16A3
  8
0
 10
0.0
 20
0.0
 30
0.0
 70
   128
 71
   -11
 72
     4
 73
     5
  0
VERTEX
  5
16A4
  8
0
 10
0.0
 20
0.0
 30
0.0
 70
   128
 71
    12
 72
    13
 73
    -9
  0
VERTEX
  5
16A5
  8
0
 10
0.0
 20
0.0
 30
0.0
 70
   128
 71
   -12
 72
     9
 73
     8
  0
VERTEX
  5
16A6
  8
0
 10
0.0
 20
0.0
 30
0.0
 70
   128
 71
    14
 72
     9
 73
    13
  0
VERTEX
  5
16A7
  8
0
 10
0.0
 20
0.0
 30
0.0
 70
   128
 71
    15
 72
    12
 73
    -8
  0
VERTEX
  5
16A8
  8
0
 10
0.0
 20
0.0
 30
0.0
 70
   128
 71
   -15
 72
     8
 73
    11
  0
VERTEX
  5
16A9
  8
0
 10
0.0
 20
0.0
 30
0.0
 70
   128
 71
    12
 72
    16
 73
   -17
  0
VERTEX
  5
16AA
  8
0
 10
0.0
 20
0.0
 30
0.0
 70
   128
 71
   -12
 72
    17
 73
    13
  0
VERTEX
  5
16AB
  8
0
 10
0.0
 20
0.0
 30
0.0
 70
   128
 71
    15
 72
    18
 73
   -16
  0
VERTEX
  5
16AC
  8
0
 10
0.0
 20
0.0
 30
0.0
 70
   128
 71
   -15
 72
    16
 73
    12
  0
VERTEX
  5
16AD
  8
0
 10
0.0
 20
0.0
 30
0.0
 70
   128
 71
     1
 72
     9
 73
    14
  0
VERTEX
  5
16AE
  8
0
 10
0.0
 20
0.0
 30
0.0
 70
   128
 71
     1
 72
    14
 73
    19
  0
VERTEX
  5
16AF
  8
0
 10
0.0
 20
0.0
 30
0.0
 70
   128
 71
    20
 72
    15
 73
    11
  0
VERTEX
  5
16B0
  8
0
 10
0.0
 20
0.0
 30
0.0
 70
   128
 71
    20
 72
    11
 73
    10
  0
VERTEX
  5
16B1
  8
0
 10
0.0
 20
0.0
 30
0.0
 70
   128
 71
    13
 72
    17
 73
    21
  0
VERTEX
  5
16B2
  8
0
 10
0.0
 20
0.0
 30
0.0
 70
   128
 71
    13
 72
    21
 73
    14
  0
VERTEX
  5
16B3
  8
0
 10
0.0
 20
0.0
 30
0.0
 70
   128
 71
    22
 72
    18
 73
    15
  0
VERTEX
  5
16B4
  8
0
 10
0.0
 20
0.0
 30
0.0
 70
   128
 71
    22
 72
    15
 73
    20
  0
VERTEX
  5
16B5
  8
0
 10
0.0
 20
0.0
 30
0.0
 70
   128
 71
     2
 72
     1
 73
    19
  0
VERTEX
  5
16B6
  8
0
 10
0.0
 20
0.0
 30
0.0
 70
   128
 71
     2
 72
    19
 73
    23
  0
VERTEX
  5
16B7
  8
0
 10
0.0
 20
0.0
 30
0.0
 70
   128
 71
    10
 72
     5
 73
     7
  0
SEQEND
  5
1729
  8
0
  0
ENDBLK
  5
16B9
  8
0
  0
ENDSEC
  0
SECTION
  2
ENTITIES
  0
INSERT
  5
BE
  8
0
  2
*X1
 10
0.0
 20
0.0
 30
0.0
  0
ENDSEC
  0
EOF
