  0
SECTION
  2
HEADER
  9
$ACADVER
  1
AC1009
  9
$DWGCODEPAGE
  3
ansi_1250
  9
$INSBASE
 10
0.0
 20
0.0
 30
0.0
  9
$EXTMIN
 10
-154.9644696862094
 20
-102.0
 30
-124.9644696862094
  9
$EXTMAX
 10
94.96446968620941
 20
0.0
 30
124.9644696862094
  9
$LIMMIN
 10
0.0
 20
0.0
  9
$LIMMAX
 10
420.0
 20
297.0
  9
$ORTHOMODE
 70
     0
  9
$REGENMODE
 70
     1
  9
$FILLMODE
 70
     1
  9
$QTEXTMODE
 70
     0
  9
$MIRRTEXT
 70
     0
  9
$DRAGMODE
 70
     2
  9
$LTSCALE
 40
1.0
  9
$OSMODE
 70
   511
  9
$ATTMODE
 70
     1
  9
$TEXTSIZE
 40
2.5
  9
$TRACEWID
 40
1.0
  9
$TEXTSTYLE
  7
STANDARD
  9
$CLAYER
  8
0
  9
$CELTYPE
  6
BYLAYER
  9
$CECOLOR
 62
   256
  9
$DIMSCALE
 40
1.0
  9
$DIMASZ
 40
2.5
  9
$DIMEXO
 40
0.625
  9
$DIMDLI
 40
3.75
  9
$DIMRND
 40
0.0
  9
$DIMDLE
 40
0.0
  9
$DIMEXE
 40
1.25
  9
$DIMTP
 40
0.0
  9
$DIMTM
 40
0.0
  9
$DIMTXT
 40
2.5
  9
$DIMCEN
 40
-2.5
  9
$DIMTSZ
 40
0.0
  9
$DIMTOL
 70
     0
  9
$DIMLIM
 70
     0
  9
$DIMTIH
 70
     0
  9
$DIMTOH
 70
     0
  9
$DIMSE1
 70
     0
  9
$DIMSE2
 70
     0
  9
$DIMTAD
 70
     1
  9
$DIMZIN
 70
     8
  9
$DIMBLK
  1

  9
$DIMASO
 70
     1
  9
$DIMSHO
 70
     1
  9
$DIMPOST
  1

  9
$DIMAPOST
  1

  9
$DIMALT
 70
     0
  9
$DIMALTD
 70
     3
  9
$DIMALTF
 40
0.03937007874016
  9
$DIMLFAC
 40
1.0
  9
$DIMTOFL
 70
     1
  9
$DIMTVP
 40
0.0
  9
$DIMTIX
 70
     0
  9
$DIMSOXD
 70
     0
  9
$DIMSAH
 70
     0
  9
$DIMBLK1
  1

  9
$DIMBLK2
  1

  9
$DIMSTYLE
  2
ISO-25
  9
$DIMCLRD
 70
     0
  9
$DIMCLRE
 70
     0
  9
$DIMCLRT
 70
     0
  9
$DIMTFAC
 40
1.0
  9
$DIMGAP
 40
0.625
  9
$LUNITS
 70
     2
  9
$LUPREC
 70
     3
  9
$SKETCHINC
 40
1.0
  9
$FILLETRAD
 40
10.0
  9
$AUNITS
 70
     0
  9
$AUPREC
 70
     0
  9
$MENU
  1
.
  9
$ELEVATION
 40
0.0
  9
$PELEVATION
 40
0.0
  9
$THICKNESS
 40
0.0
  9
$LIMCHECK
 70
     0
  9
$CHAMFERA
 40
10.0
  9
$CHAMFERB
 40
10.0
  9
$SKPOLY
 70
     0
  9
$TDCREATE
 40
2455022.720692848
  9
$TDUPDATE
 40
2460413.557906389
  9
$TDINDWG
 40
0.0003792593
  9
$TDUSRTIMER
 40
0.0003792593
  9
$USRTIMER
 70
     1
  9
$ANGBASE
 50
0.0
  9
$ANGDIR
 70
     0
  9
$PDMODE
 70
     0
  9
$PDSIZE
 40
0.0
  9
$PLINEWID
 40
0.0
  9
$COORDS
 70
     1
  9
$SPLFRAME
 70
     0
  9
$SPLINETYPE
 70
     6
  9
$SPLINESEGS
 70
     8
  9
$ATTDIA
 70
     0
  9
$ATTREQ
 70
     1
  9
$HANDLING
 70
     1
  9
$HANDSEED
  5
CB0
  9
$SURFTAB1
 70
     6
  9
$SURFTAB2
 70
     6
  9
$SURFTYPE
 70
     6
  9
$SURFU
 70
     6
  9
$SURFV
 70
     6
  9
$UCSNAME
  2

  9
$UCSORG
 10
0.0
 20
0.0
 30
0.0
  9
$UCSXDIR
 10
1.0
 20
0.0
 30
0.0
  9
$UCSYDIR
 10
0.0
 20
1.0
 30
0.0
  9
$PUCSNAME
  2

  9
$PUCSORG
 10
0.0
 20
0.0
 30
0.0
  9
$PUCSXDIR
 10
1.0
 20
0.0
 30
0.0
  9
$PUCSYDIR
 10
0.0
 20
1.0
 30
0.0
  9
$USERI1
 70
     0
  9
$USERI2
 70
     0
  9
$USERI3
 70
     0
  9
$USERI4
 70
     0
  9
$USERI5
 70
     0
  9
$USERR1
 40
0.0
  9
$USERR2
 40
0.0
  9
$USERR3
 40
0.0
  9
$USERR4
 40
0.0
  9
$USERR5
 40
0.0
  9
$WORLDVIEW
 70
     1
  9
$SHADEDGE
 70
     3
  9
$SHADEDIF
 70
    70
  9
$TILEMODE
 70
     1
  9
$MAXACTVP
 70
    64
  9
$PLIMCHECK
 70
     0
  9
$PEXTMIN
 10
1.000000000000000E+20
 20
1.000000000000000E+20
 30
1.000000000000000E+20
  9
$PEXTMAX
 10
-1.000000000000000E+20
 20
-1.000000000000000E+20
 30
-1.000000000000000E+20
  9
$PLIMMIN
 10
0.0
 20
0.0
  9
$PLIMMAX
 10
0.0
 20
0.0
  9
$UNITMODE
 70
     0
  9
$VISRETAIN
 70
     1
  9
$PLINEGEN
 70
     0
  9
$PSLTSCALE
 70
     1
  0
ENDSEC
  0
SECTION
  2
TABLES
  0
TABLE
  2
VPORT
 70
     1
  0
VPORT
  2
*ACTIVE
 70
     0
 10
0.0
 20
0.0
 11
1.0
 21
1.0
 12
104.1869158878504
 22
-51.0
 13
0.0
 23
0.0
 14
10.0
 24
10.0
 15
10.0
 25
10.0
 16
0.0
 26
0.0
 36
1.0
 17
-134.1869158878504
 27
0.0
 37
0.0
 40
134.8529625048573
 41
1.89041095890411
 42
50.0
 43
0.0
 44
0.0
 50
0.0
 51
0.0
 71
    16
 72
  1000
 73
     1
 74
     3
 75
     0
 76
     0
 77
     0
 78
     0
  0
ENDTAB
  0
TABLE
  2
LTYPE
 70
     1
  0
LTYPE
  2
CONTINUOUS
 70
     0
  3
Solid line
 72
    65
 73
     0
 40
0.0
  0
ENDTAB
  0
TABLE
  2
LAYER
 70
     1
  0
LAYER
  2
0
 70
     0
 62
     7
  6
CONTINUOUS
  0
ENDTAB
  0
TABLE
  2
STYLE
 70
     2
  0
STYLE
  2
STANDARD
 70
     0
 40
0.0
 41
1.0
 50
0.0
 71
     0
 42
2.5
  3
arial.ttf
  4

  0
STYLE
  2
ANNOTATIVE
 70
     0
 40
0.0
 41
1.0
 50
0.0
 71
     0
 42
2.5
  3
arial.ttf
  4

  0
ENDTAB
  0
TABLE
  2
VIEW
 70
     0
  0
ENDTAB
  0
TABLE
  2
UCS
 70
     0
  0
ENDTAB
  0
TABLE
  2
APPID
 70
     2
  0
APPID
  2
ACAD
 70
     0
  0
APPID
  2
ACADANNOTATIVE
 70
     0
  0
ENDTAB
  0
TABLE
  2
DIMSTYLE
 70
     2
  0
DIMSTYLE
  2
ISO-25
 70
     0
  3

  4

  5

  6

  7

 40
1.0
 41
2.5
 42
0.625
 43
3.75
 44
1.25
 45
0.0
 46
0.0
 47
0.0
 48
0.0
140
2.5
141
-2.5
142
0.0
143
0.03937007874016
144
1.0
145
0.0
146
1.0
147
0.625
 71
     0
 72
     0
 73
     0
 74
     0
 75
     0
 76
     0
 77
     1
 78
     8
170
     0
171
     3
172
     1
173
     0
174
     0
175
     0
176
     0
177
     0
178
     0
  0
DIMSTYLE
  2
ANNOTATIVE
 70
     0
  3

  4

  5

  6

  7

 40
0.0
 41
2.5
 42
0.625
 43
3.75
 44
1.25
 45
0.0
 46
0.0
 47
0.0
 48
0.0
140
2.5
141
-2.5
142
0.0
143
0.03937007874016
144
1.0
145
0.0
146
1.0
147
0.625
 71
     0
 72
     0
 73
     0
 74
     0
 75
     0
 76
     0
 77
     1
 78
     8
170
     0
171
     3
172
     1
173
     0
174
     0
175
     0
176
     0
177
     0
178
     0
  0
ENDTAB
  0
ENDSEC
  0
SECTION
  2
BLOCKS
  0
BLOCK
  8
0
  2
$MODEL_SPACE
 70
     0
 10
0.0
 20
0.0
 30
0.0
  3
$MODEL_SPACE
  1

  0
ENDBLK
  5
21
  8
0
  0
BLOCK
 67
     1
  8
0
  2
$PAPER_SPACE
 70
     0
 10
0.0
 20
0.0
 30
0.0
  3
$PAPER_SPACE
  1

  0
ENDBLK
  5
1D
 67
     1
  8
0
  0
BLOCK
  8
0
  2
*X1
 70
     1
 10
0.0
 20
0.0
 30
0.0
  3
*X1
  1

  0
POLYLINE
  5
6BF
  8
0
 66
     1
 10
0.0
 20
0.0
 30
0.0
 70
    64
 71
     9
 72
     7
  0
VERTEX
  5
6C0
  8
0
 10
59.0792957981971
 20
-88.35774767487499
 30
31.26628527961975
 70
   192
  0
VERTEX
  5
6C1
  8
0
 10
46.49651218621108
 20
-88.0752238514726
 30
55.30679675000992
 70
   192
  0
VERTEX
  5
6C2
  8
0
 10
27.80815961790238
 20
-87.69991249121561
 30
74.60322730281378
 70
   192
  0
VERTEX
  5
6C3
  8
0
 10
4.239409634349995
 20
-87.28090292784991
 30
87.9281426064758
 70
   192
  0
VERTEX
  5
6C4
  8
0
 10
1.480596324966592
 20
-89.45767318240188
 30
81.28346219276683
 70
   192
  0
VERTEX
  5
6C5
  8
0
 10
-1.194388740497301
 20
-90.69676214155795
 30
74.80143135037464
 70
   192
  0
VERTEX
  5
6C6
  8
0
 10
-3.682950067033665
 20
-91.2914529143424
 30
68.7565001794934
 70
   192
  0
VERTEX
  5
6C7
  8
0
 10
21.47217300114602
 20
-90.80406988568191
 30
64.66913478518872
 70
   192
  0
VERTEX
  5
6C8
  8
0
 10
43.46389041593123
 20
-89.64612455233326
 30
51.50172827416112
 70
   192
  0
VERTEX
  5
6C9
  8
0
 10
0.0
 20
0.0
 30
0.0
 70
   128
 71
     6
 72
     7
 73
     8
  0
VERTEX
  5
6CA
  8
0
 10
0.0
 20
0.0
 30
0.0
 70
   128
 71
     9
 72
     5
 73
     6
  0
VERTEX
  5
6CB
  8
0
 10
0.0
 20
0.0
 30
0.0
 70
   128
 71
     8
 72
     9
 73
     6
  0
VERTEX
  5
6CC
  8
0
 10
0.0
 20
0.0
 30
0.0
 70
   128
 71
     9
 72
     1
 73
     2
  0
VERTEX
  5
6CD
  8
0
 10
0.0
 20
0.0
 30
0.0
 70
   128
 71
     2
 72
     3
 73
     9
  0
VERTEX
  5
6CE
  8
0
 10
0.0
 20
0.0
 30
0.0
 70
   128
 71
     4
 72
     5
 73
     9
  0
VERTEX
  5
6CF
  8
0
 10
0.0
 20
0.0
 30
0.0
 70
   128
 71
     3
 72
     4
 73
     9
  0
SEQEND
  5
C8C
  8
0
  0
POLYLINE
  5
6D0
  8
0
 66
     1
 10
0.0
 20
0.0
 30
0.0
 70
    64
 71
    26
 72
    24
  0
VERTEX
  5
6D1
  8
0
 10
-124.272705902218
 20
-85.54125240597298
 30
-0.1297716523151815
 70
   192
  0
VERTEX
  5
6D2
  8
0
 10
-100.0354445736111
 20
-89.67413008918417
 30
-3.645000637160261
 70
   192
  0
VERTEX
  5
6D3
  8
0
 10
-96.5771332545054
 20
-89.72953766202576
 30
21.97023914450389
 70
   192
  0
VERTEX
  5
6D4
  8
0
 10
-117.0728677221259
 20
-85.62365491679341
 30
-36.14522452943515
 70
   192
  0
VERTEX
  5
6D5
  8
0
 10
-98.21822783189796
 20
-85.84560659847475
 30
-65.08955451815504
 70
   192
  0
VERTEX
  5
6D6
  8
0
 10
-79.07909099146566
 20
-90.01949659770607
 30
-49.90948740373887
 70
   192
  0
VERTEX
  5
6D7
  8
0
 10
-93.92244738806102
 20
-89.77247561778603
 30
-28.75375178144798
 70
   192
  0
VERTEX
  5
6D8
  8
0
 10
-66.58678788360291
 20
-86.24182363801171
 30
-86.9221569554747
 70
   192
  0
VERTEX
  5
6D9
  8
0
 10
-63.34153269954215
 20
-88.71966888183437
 30
-78.84460633950536
 70
   192
  0
VERTEX
  5
6DA
  8
0
 10
-60.22531610761928
 20
-89.92117675492585
 30
-71.12820259152846
 70
   192
  0
VERTEX
  5
6DB
  8
0
 10
-57.4438058829268
 20
-90.40367040739089
 30
-64.2450930604696
 70
   192
  0
VERTEX
  5
6DC
  8
0
 10
-39.43576702921341
 20
-90.75021542884005
 30
69.10878974321363
 70
   192
  0
VERTEX
  5
6DD
  8
0
 10
-13.53149685494172
 20
-91.30574493482591
 30
67.6282837566237
 70
   192
  0
VERTEX
  5
6DE
  8
0
 10
-10.27023889158218
 20
-91.30565712140476
 30
68.18442699961463
 70
   192
  0
VERTEX
  5
6DF
  8
0
 10
1.480596324966592
 20
-89.45767318240188
 30
81.28346219276683
 70
   192
  0
VERTEX
  5
6E0
  8
0
 10
4.239409634349995
 20
-87.28090292784991
 30
87.9281426064758
 70
   192
  0
VERTEX
  5
6E1
  8
0
 10
-31.72709412909888
 20
-86.7210860830173
 30
94.31633569862281
 70
   192
  0
VERTEX
  5
6E2
  8
0
 10
-55.04260374179104
 20
-86.394671917816
 30
90.93134350775364
 70
   192
  0
VERTEX
  5
6E3
  8
0
 10
-67.39536400773768
 20
-86.23128602021605
 30
86.57679518283344
 70
   192
  0
VERTEX
  5
6E4
  8
0
 10
-98.77885141631378
 20
-85.83860475781489
 30
64.49735576035539
 70
   192
  0
VERTEX
  5
6E5
  8
0
 10
-84.01233780786839
 20
-89.93603833563466
 30
44.57300657067557
 70
   192
  0
VERTEX
  5
6E6
  8
0
 10
-64.05140470951264
 20
-90.28297080091852
 30
61.04842883068763
 70
   192
  0
VERTEX
  5
6E7
  8
0
 10
-117.3835770784973
 20
-85.62006955532208
 30
35.38696686485547
 70
   192
  0
VERTEX
  5
6E8
  8
0
 10
-7.032567264444269
 20
-91.30222994346684
 30
68.55452363325269
 70
   192
  0
VERTEX
  5
6E9
  8
0
 10
-3.682950067033665
 20
-91.2914529143424
 30
68.7565001794934
 70
   192
  0
VERTEX
  5
6EA
  8
0
 10
-1.194388740497301
 20
-90.69676214155795
 30
74.80143135037464
 70
   192
  0
VERTEX
  5
6EB
  8
0
 10
0.0
 20
0.0
 30
0.0
 70
   128
 71
     1
 72
     2
 73
     3
  0
VERTEX
  5
6EC
  8
0
 10
0.0
 20
0.0
 30
0.0
 70
   128
 71
     1
 72
     4
 73
     2
  0
VERTEX
  5
6ED
  8
0
 10
0.0
 20
0.0
 30
0.0
 70
   128
 71
     5
 72
     6
 73
     7
  0
VERTEX
  5
6EE
  8
0
 10
0.0
 20
0.0
 30
0.0
 70
   128
 71
     5
 72
     8
 73
     9
  0
VERTEX
  5
6EF
  8
0
 10
0.0
 20
0.0
 30
0.0
 70
   128
 71
    10
 72
     6
 73
     5
  0
VERTEX
  5
6F0
  8
0
 10
0.0
 20
0.0
 30
0.0
 70
   128
 71
     9
 72
    10
 73
     5
  0
VERTEX
  5
6F1
  8
0
 10
0.0
 20
0.0
 30
0.0
 70
   128
 71
    10
 72
    11
 73
     6
  0
VERTEX
  5
6F2
  8
0
 10
0.0
 20
0.0
 30
0.0
 70
   128
 71
    12
 72
    13
 73
    14
  0
VERTEX
  5
6F3
  8
0
 10
0.0
 20
0.0
 30
0.0
 70
   128
 71
    15
 72
    16
 73
    17
  0
VERTEX
  5
6F4
  8
0
 10
0.0
 20
0.0
 30
0.0
 70
   128
 71
    17
 72
    18
 73
    15
  0
VERTEX
  5
6F5
  8
0
 10
0.0
 20
0.0
 30
0.0
 70
   128
 71
    18
 72
    19
 73
    15
  0
VERTEX
  5
6F6
  8
0
 10
0.0
 20
0.0
 30
0.0
 70
   128
 71
    20
 72
    21
 73
    22
  0
VERTEX
  5
6F7
  8
0
 10
0.0
 20
0.0
 30
0.0
 70
   128
 71
    20
 72
    23
 73
    21
  0
VERTEX
  5
6F8
  8
0
 10
0.0
 20
0.0
 30
0.0
 70
   128
 71
     3
 72
    21
 73
    23
  0
VERTEX
  5
6F9
  8
0
 10
0.0
 20
0.0
 30
0.0
 70
   128
 71
     7
 72
     2
 73
     4
  0
VERTEX
  5
6FA
  8
0
 10
0.0
 20
0.0
 30
0.0
 70
   128
 71
    12
 72
    14
 73
    24
  0
VERTEX
  5
6FB
  8
0
 10
0.0
 20
0.0
 30
0.0
 70
   128
 71
    22
 72
    12
 73
    24
  0
VERTEX
  5
6FC
  8
0
 10
0.0
 20
0.0
 30
0.0
 70
   128
 71
    25
 72
    26
 73
    22
  0
VERTEX
  5
6FD
  8
0
 10
0.0
 20
0.0
 30
0.0
 70
   128
 71
    24
 72
    25
 73
    22
  0
VERTEX
  5
6FE
  8
0
 10
0.0
 20
0.0
 30
0.0
 70
   128
 71
    26
 72
    15
 73
    22
  0
VERTEX
  5
6FF
  8
0
 10
0.0
 20
0.0
 30
0.0
 70
   128
 71
     5
 72
     7
 73
     4
  0
VERTEX
  5
700
  8
0
 10
0.0
 20
0.0
 30
0.0
 70
   128
 71
     1
 72
     3
 73
    23
  0
VERTEX
  5
701
  8
0
 10
0.0
 20
0.0
 30
0.0
 70
   128
 71
    22
 72
    15
 73
    19
  0
VERTEX
  5
702
  8
0
 10
0.0
 20
0.0
 30
0.0
 70
   128
 71
    20
 72
    22
 73
    19
  0
SEQEND
  5
C8D
  8
0
  0
POLYLINE
  5
703
  8
0
 66
     1
 10
0.0
 20
0.0
 30
0.0
 70
    64
 71
    28
 72
    29
  0
VERTEX
  5
704
  8
0
 10
-70.55188594728118
 20
-59.75088930552063
 30
-97.86480250571032
 70
   192
  0
VERTEX
  5
705
  8
0
 10
-72.32971912133189
 20
-38.74594693521185
 30
-103.2115613642436
 70
   192
  0
VERTEX
  5
706
  8
0
 10
-105.3622550525943
 20
-38.38389770435488
 30
-82.31838811930311
 70
   192
  0
VERTEX
  5
707
  8
0
 10
-128.3779630575311
 20
-38.14657941533108
 30
-52.77318203780263
 70
   192
  0
VERTEX
  5
708
  8
0
 10
-122.0456246831669
 20
-67.4778078443184
 30
-38.38627851861718
 70
   192
  0
VERTEX
  5
709
  8
0
 10
-94.12961668572304
 20
-76.77631142126617
 30
-26.58444382419993
 70
   192
  0
VERTEX
  5
70A
  8
0
 10
-79.26837586379905
 20
-77.02421514823185
 30
-48.79204549714095
 70
   192
  0
VERTEX
  5
70B
  8
0
 10
-56.9903098266898
 20
-77.42148645596481
 30
-63.73790357091951
 70
   192
  0
VERTEX
  5
70C
  8
0
 10
-65.01355303883943
 20
-73.71628244626088
 30
-83.61266789256591
 70
   192
  0
VERTEX
  5
70D
  8
0
 10
-139.5391086794403
 20
-38.03566546474925
 30
21.63092022053019
 70
   192
  0
VERTEX
  5
70E
  8
0
 10
-122.4625985379275
 20
-67.47271592480399
 30
37.37322049291335
 70
   192
  0
VERTEX
  5
70F
  8
0
 10
-140.4419773692151
 20
-38.02705086490076
 30
-16.4180704362451
 70
   192
  0
VERTEX
  5
710
  8
0
 10
-94.41772374931173
 20
-76.7716240870335
 30
25.88272229488156
 70
   192
  0
VERTEX
  5
711
  8
0
 10
-99.44930935886663
 20
-76.69044483753845
 30
-0.3900926544379595
 70
   192
  0
VERTEX
  5
712
  8
0
 10
-100.8922936034009
 20
-38.43090412280367
 30
86.18929548935392
 70
   192
  0
VERTEX
  5
713
  8
0
 10
-69.36652692336817
 20
-68.15888457597161
 30
91.49732525779508
 70
   192
  0
VERTEX
  5
714
  8
0
 10
-126.0645205492971
 20
-38.17017075863428
 30
56.86914781019977
 70
   192
  0
VERTEX
  5
715
  8
0
 10
-57.72649497626218
 20
-77.40779781817143
 30
63.42555146060977
 70
   192
  0
VERTEX
  5
716
  8
0
 10
-79.77228094172888
 20
-77.01560298814634
 30
48.2818951155196
 70
   192
  0
VERTEX
  5
717
  8
0
 10
-67.6512364722572
 20
-38.79974537732726
 30
105.000614606745
 70
   192
  0
VERTEX
  5
718
  8
0
 10
-29.999994445042
 20
-39.26000296482295
 30
111.4823669399812
 70
   192
  0
VERTEX
  5
719
  8
0
 10
-2.835082227204387
 20
-39.62930555523554
 30
108.0685670928391
 70
   192
  0
VERTEX
  5
71A
  8
0
 10
11.69017908069798
 20
-39.8446438260177
 30
103.3050513734664
 70
   192
  0
VERTEX
  5
71B
  8
0
 10
9.101974109803411
 20
-60.89216012426572
 30
98.26909811911766
 70
   192
  0
VERTEX
  5
71C
  8
0
 10
3.014459274724342
 20
-74.85501622609134
 30
84.20115148594444
 70
   192
  0
VERTEX
  5
71D
  8
0
 10
-5.17550301229808
 20
-78.52018334677061
 30
64.3287246990804
 70
   192
  0
VERTEX
  5
71E
  8
0
 10
-31.57038103456723
 20
-77.92280288541626
 30
69.06140821395047
 70
   192
  0
VERTEX
  5
71F
  8
0
 10
-16.83343891755213
 20
-39.43442524395699
 30
110.6774361904068
 70
   192
  0
VERTEX
  5
720
  8
0
 10
0.0
 20
0.0
 30
0.0
 70
   128
 71
     1
 72
     2
 73
     3
  0
VERTEX
  5
721
  8
0
 10
0.0
 20
0.0
 30
0.0
 70
   128
 71
     3
 72
     4
 73
     1
  0
VERTEX
  5
722
  8
0
 10
0.0
 20
0.0
 30
0.0
 70
   128
 71
     5
 72
     6
 73
     7
  0
VERTEX
  5
723
  8
0
 10
0.0
 20
0.0
 30
0.0
 70
   128
 71
     7
 72
     8
 73
     9
  0
VERTEX
  5
724
  8
0
 10
0.0
 20
0.0
 30
0.0
 70
   128
 71
    10
 72
    11
 73
     5
  0
VERTEX
  5
725
  8
0
 10
0.0
 20
0.0
 30
0.0
 70
   128
 71
    12
 72
    10
 73
     5
  0
VERTEX
  5
726
  8
0
 10
0.0
 20
0.0
 30
0.0
 70
   128
 71
    11
 72
    13
 73
    14
  0
VERTEX
  5
727
  8
0
 10
0.0
 20
0.0
 30
0.0
 70
   128
 71
     5
 72
    11
 73
    14
  0
VERTEX
  5
728
  8
0
 10
0.0
 20
0.0
 30
0.0
 70
   128
 71
    14
 72
     6
 73
     5
  0
VERTEX
  5
729
  8
0
 10
0.0
 20
0.0
 30
0.0
 70
   128
 71
    15
 72
    16
 73
    11
  0
VERTEX
  5
72A
  8
0
 10
0.0
 20
0.0
 30
0.0
 70
   128
 71
    17
 72
    15
 73
    11
  0
VERTEX
  5
72B
  8
0
 10
0.0
 20
0.0
 30
0.0
 70
   128
 71
    16
 72
    18
 73
    19
  0
VERTEX
  5
72C
  8
0
 10
0.0
 20
0.0
 30
0.0
 70
   128
 71
    11
 72
    16
 73
    19
  0
VERTEX
  5
72D
  8
0
 10
0.0
 20
0.0
 30
0.0
 70
   128
 71
    19
 72
    13
 73
    11
  0
VERTEX
  5
72E
  8
0
 10
0.0
 20
0.0
 30
0.0
 70
   128
 71
    20
 72
    21
 73
    16
  0
VERTEX
  5
72F
  8
0
 10
0.0
 20
0.0
 30
0.0
 70
   128
 71
    22
 72
    23
 73
    24
  0
VERTEX
  5
730
  8
0
 10
0.0
 20
0.0
 30
0.0
 70
   128
 71
    25
 72
    26
 73
    27
  0
VERTEX
  5
731
  8
0
 10
0.0
 20
0.0
 30
0.0
 70
   128
 71
    18
 72
    16
 73
    25
  0
VERTEX
  5
732
  8
0
 10
0.0
 20
0.0
 30
0.0
 70
   128
 71
    27
 72
    18
 73
    25
  0
VERTEX
  5
733
  8
0
 10
0.0
 20
0.0
 30
0.0
 70
   128
 71
    16
 72
    15
 73
    20
  0
VERTEX
  5
734
  8
0
 10
0.0
 20
0.0
 30
0.0
 70
   128
 71
     5
 72
     7
 73
     9
  0
VERTEX
  5
735
  8
0
 10
0.0
 20
0.0
 30
0.0
 70
   128
 71
     9
 72
     1
 73
     5
  0
VERTEX
  5
736
  8
0
 10
0.0
 20
0.0
 30
0.0
 70
   128
 71
    16
 72
    21
 73
    28
  0
VERTEX
  5
737
  8
0
 10
0.0
 20
0.0
 30
0.0
 70
   128
 71
    24
 72
    16
 73
    28
  0
VERTEX
  5
738
  8
0
 10
0.0
 20
0.0
 30
0.0
 70
   128
 71
    28
 72
    22
 73
    24
  0
VERTEX
  5
739
  8
0
 10
0.0
 20
0.0
 30
0.0
 70
   128
 71
    24
 72
    25
 73
    16
  0
VERTEX
  5
73A
  8
0
 10
0.0
 20
0.0
 30
0.0
 70
   128
 71
     1
 72
     4
 73
    12
  0
VERTEX
  5
73B
  8
0
 10
0.0
 20
0.0
 30
0.0
 70
   128
 71
     5
 72
     1
 73
    12
  0
VERTEX
  5
73C
  8
0
 10
0.0
 20
0.0
 30
0.0
 70
   128
 71
    11
 72
    10
 73
    17
  0
SEQEND
  5
C8E
  8
0
  0
POLYLINE
  5
73D
  8
0
 66
     1
 10
0.0
 20
0.0
 30
0.0
 70
    64
 71
    39
 72
    58
  0
VERTEX
  5
73E
  8
0
 10
31.98223484310476
 20
0.0
 30
-107.3563799149233
 70
   192
  0
VERTEX
  5
73F
  8
0
 10
57.93240577188831
 20
-0.0794951465475602
 30
-87.9324057718883
 70
   192
  0
VERTEX
  5
740
  8
0
 10
17.58867508021891
 20
-0.0794951465475602
 30
-114.889224794031
 70
   192
  0
VERTEX
  5
741
  8
0
 10
84.889224794031
 20
-0.0794951465475602
 30
-47.58867508021889
 70
   192
  0
VERTEX
  5
742
  8
0
 10
93.9644696862094
 20
0.0
 30
0.0000000000000344
 70
   192
  0
VERTEX
  5
743
  8
0
 10
94.35520081469868
 20
-0.0794951465475602
 30
0.0000000000000076
 70
   192
  0
VERTEX
  5
744
  8
0
 10
77.3563799149233
 20
0.0
 30
61.98223484310473
 70
   192
  0
VERTEX
  5
745
  8
0
 10
57.93240577188831
 20
-0.0794951465475602
 30
87.93240577188831
 70
   192
  0
VERTEX
  5
746
  8
0
 10
84.889224794031
 20
-0.0794951465475602
 30
47.58867508021891
 70
   192
  0
VERTEX
  5
747
  8
0
 10
58.16476719210972
 20
-0.3053416295410045
 30
-88.16476719210971
 70
   192
  0
VERTEX
  5
748
  8
0
 10
17.71442817466716
 20
-0.3053416295410045
 30
-115.1928196201583
 70
   192
  0
VERTEX
  5
749
  8
0
 10
94.68380948654806
 20
-0.3053416295410045
 30
0.0000000000000076
 70
   192
  0
VERTEX
  5
74A
  8
0
 10
85.19281962015835
 20
-0.3053416295410045
 30
-47.71442817466714
 70
   192
  0
VERTEX
  5
74B
  8
0
 10
58.16476719210972
 20
-0.3053416295410045
 30
88.16476719210972
 70
   192
  0
VERTEX
  5
74C
  8
0
 10
85.19281962015835
 20
-0.3053416295410045
 30
47.71442817466716
 70
   192
  0
VERTEX
  5
74D
  8
0
 10
-30.0
 20
-0.1398508521046345
 30
124.4745122759751
 70
   192
  0
VERTEX
  5
74E
  8
0
 10
17.71442817466715
 20
-0.3053416295410045
 30
115.1928196201583
 70
   192
  0
VERTEX
  5
74F
  8
0
 10
17.5886750802189
 20
-0.0794951465475602
 30
114.889224794031
 70
   192
  0
VERTEX
  5
750
  8
0
 10
58.31625819167208
 20
-0.6416320504547032
 30
-88.31625819167206
 70
   192
  0
VERTEX
  5
751
  8
0
 10
17.79641451283756
 20
-0.6416320504547032
 30
-115.3907521496986
 70
   192
  0
VERTEX
  5
752
  8
0
 10
-30.0
 20
-0.5202868867497558
 30
-124.841895084164
 70
   192
  0
VERTEX
  5
753
  8
0
 10
94.8980501127066
 20
-0.6416320504547032
 30
0.0000000000000076
 70
   192
  0
VERTEX
  5
754
  8
0
 10
85.39075214969863
 20
-0.6416320504547032
 30
-47.79641451283754
 70
   192
  0
VERTEX
  5
755
  8
0
 10
58.31625819167208
 20
-0.6416320504547032
 30
88.31625819167208
 70
   192
  0
VERTEX
  5
756
  8
0
 10
85.39075214969863
 20
-0.6416320504547032
 30
47.79641451283756
 70
   192
  0
VERTEX
  5
757
  8
0
 10
17.79641451283755
 20
-0.6416320504547032
 30
115.3907521496986
 70
   192
  0
VERTEX
  5
758
  8
0
 10
78.22187775943088
 20
-1.034899496702502
 30
-62.48193025661424
 70
   192
  0
VERTEX
  5
759
  8
0
 10
94.9638605132284
 20
-1.034899496702502
 30
-0.0000000000000486
 70
   192
  0
VERTEX
  5
75A
  8
0
 10
32.48193025661427
 20
-1.034899496702502
 30
108.2218777594309
 70
   192
  0
VERTEX
  5
75B
  8
0
 10
-30.0
 20
-0.1398508521046345
 30
-124.4745122759751
 70
   192
  0
VERTEX
  5
75C
  8
0
 10
-30.0
 20
-0.5202868867497558
 30
124.841895084164
 70
   192
  0
VERTEX
  5
75D
  8
0
 10
-30.00000000000001
 20
-1.034899496702502
 30
-124.9638605132284
 70
   192
  0
VERTEX
  5
75E
  8
0
 10
-30.0
 20
-1.034899496702505
 30
124.9638605132285
 70
   192
  0
VERTEX
  5
75F
  8
0
 10
77.35637991492332
 20
0.0
 30
-61.98223484310466
 70
   192
  0
VERTEX
  5
760
  8
0
 10
-30.0
 20
0.0000000000000009
 30
-123.9644696862094
 70
   192
  0
VERTEX
  5
761
  8
0
 10
31.98223484310469
 20
0.0
 30
107.3563799149233
 70
   192
  0
VERTEX
  5
762
  8
0
 10
-30.0
 20
0.0
 30
123.9644696862094
 70
   192
  0
VERTEX
  5
763
  8
0
 10
32.48193025661418
 20
-1.034899496702502
 30
-108.2218777594309
 70
   192
  0
VERTEX
  5
764
  8
0
 10
78.22187775943092
 20
-1.034899496702502
 30
62.48193025661415
 70
   192
  0
VERTEX
  5
765
  8
0
 10
0.0
 20
0.0
 30
0.0
 70
   128
 71
     1
 72
     2
 73
     3
  0
VERTEX
  5
766
  8
0
 10
0.0
 20
0.0
 30
0.0
 70
   128
 71
     4
 72
     5
 73
     6
  0
VERTEX
  5
767
  8
0
 10
0.0
 20
0.0
 30
0.0
 70
   128
 71
     7
 72
     8
 73
     9
  0
VERTEX
  5
768
  8
0
 10
0.0
 20
0.0
 30
0.0
 70
   128
 71
    10
 72
    11
 73
    -3
  0
VERTEX
  5
769
  8
0
 10
0.0
 20
0.0
 30
0.0
 70
   128
 71
   -10
 72
     3
 73
     2
  0
VERTEX
  5
76A
  8
0
 10
0.0
 20
0.0
 30
0.0
 70
   128
 71
    12
 72
    13
 73
    -4
  0
VERTEX
  5
76B
  8
0
 10
0.0
 20
0.0
 30
0.0
 70
   128
 71
   -12
 72
     4
 73
     6
  0
VERTEX
  5
76C
  8
0
 10
0.0
 20
0.0
 30
0.0
 70
   128
 71
    13
 72
    10
 73
    -2
  0
VERTEX
  5
76D
  8
0
 10
0.0
 20
0.0
 30
0.0
 70
   128
 71
   -13
 72
     2
 73
     4
  0
VERTEX
  5
76E
  8
0
 10
0.0
 20
0.0
 30
0.0
 70
   128
 71
    14
 72
    15
 73
    -9
  0
VERTEX
  5
76F
  8
0
 10
0.0
 20
0.0
 30
0.0
 70
   128
 71
   -14
 72
     9
 73
     8
  0
VERTEX
  5
770
  8
0
 10
0.0
 20
0.0
 30
0.0
 70
   128
 71
    15
 72
    12
 73
    -6
  0
VERTEX
  5
771
  8
0
 10
0.0
 20
0.0
 30
0.0
 70
   128
 71
   -15
 72
     6
 73
     9
  0
VERTEX
  5
772
  8
0
 10
0.0
 20
0.0
 30
0.0
 70
   128
 71
    16
 72
    17
 73
    18
  0
VERTEX
  5
773
  8
0
 10
0.0
 20
0.0
 30
0.0
 70
   128
 71
    17
 72
    14
 73
    -8
  0
VERTEX
  5
774
  8
0
 10
0.0
 20
0.0
 30
0.0
 70
   128
 71
   -17
 72
     8
 73
    18
  0
VERTEX
  5
775
  8
0
 10
0.0
 20
0.0
 30
0.0
 70
   128
 71
    19
 72
    20
 73
   -11
  0
VERTEX
  5
776
  8
0
 10
0.0
 20
0.0
 30
0.0
 70
   128
 71
   -19
 72
    11
 73
    10
  0
VERTEX
  5
777
  8
0
 10
0.0
 20
0.0
 30
0.0
 70
   128
 71
    21
 72
    11
 73
    20
  0
VERTEX
  5
778
  8
0
 10
0.0
 20
0.0
 30
0.0
 70
   128
 71
    22
 72
    23
 73
   -13
  0
VERTEX
  5
779
  8
0
 10
0.0
 20
0.0
 30
0.0
 70
   128
 71
   -22
 72
    13
 73
    12
  0
VERTEX
  5
77A
  8
0
 10
0.0
 20
0.0
 30
0.0
 70
   128
 71
    23
 72
    19
 73
   -10
  0
VERTEX
  5
77B
  8
0
 10
0.0
 20
0.0
 30
0.0
 70
   128
 71
   -23
 72
    10
 73
    13
  0
VERTEX
  5
77C
  8
0
 10
0.0
 20
0.0
 30
0.0
 70
   128
 71
    24
 72
    25
 73
   -15
  0
VERTEX
  5
77D
  8
0
 10
0.0
 20
0.0
 30
0.0
 70
   128
 71
   -24
 72
    15
 73
    14
  0
VERTEX
  5
77E
  8
0
 10
0.0
 20
0.0
 30
0.0
 70
   128
 71
    25
 72
    22
 73
   -12
  0
VERTEX
  5
77F
  8
0
 10
0.0
 20
0.0
 30
0.0
 70
   128
 71
   -25
 72
    12
 73
    15
  0
VERTEX
  5
780
  8
0
 10
0.0
 20
0.0
 30
0.0
 70
   128
 71
    26
 72
    24
 73
   -14
  0
VERTEX
  5
781
  8
0
 10
0.0
 20
0.0
 30
0.0
 70
   128
 71
   -26
 72
    14
 73
    17
  0
VERTEX
  5
782
  8
0
 10
0.0
 20
0.0
 30
0.0
 70
   128
 71
    27
 72
    19
 73
    23
  0
VERTEX
  5
783
  8
0
 10
0.0
 20
0.0
 30
0.0
 70
   128
 71
    25
 72
    28
 73
    22
  0
VERTEX
  5
784
  8
0
 10
0.0
 20
0.0
 30
0.0
 70
   128
 71
    29
 72
    24
 73
    26
  0
VERTEX
  5
785
  8
0
 10
0.0
 20
0.0
 30
0.0
 70
   128
 71
     3
 72
    11
 73
    21
  0
VERTEX
  5
786
  8
0
 10
0.0
 20
0.0
 30
0.0
 70
   128
 71
     3
 72
    21
 73
    30
  0
VERTEX
  5
787
  8
0
 10
0.0
 20
0.0
 30
0.0
 70
   128
 71
    31
 72
    26
 73
    17
  0
VERTEX
  5
788
  8
0
 10
0.0
 20
0.0
 30
0.0
 70
   128
 71
    31
 72
    17
 73
    16
  0
VERTEX
  5
789
  8
0
 10
0.0
 20
0.0
 30
0.0
 70
   128
 71
    20
 72
    32
 73
    21
  0
VERTEX
  5
78A
  8
0
 10
0.0
 20
0.0
 30
0.0
 70
   128
 71
    33
 72
    26
 73
    31
  0
VERTEX
  5
78B
  8
0
 10
0.0
 20
0.0
 30
0.0
 70
   128
 71
    34
 72
     4
 73
     2
  0
VERTEX
  5
78C
  8
0
 10
0.0
 20
0.0
 30
0.0
 70
   128
 71
    34
 72
     2
 73
     1
  0
VERTEX
  5
78D
  8
0
 10
0.0
 20
0.0
 30
0.0
 70
   128
 71
     1
 72
     3
 73
    30
  0
VERTEX
  5
78E
  8
0
 10
0.0
 20
0.0
 30
0.0
 70
   128
 71
     1
 72
    30
 73
    35
  0
VERTEX
  5
78F
  8
0
 10
0.0
 20
0.0
 30
0.0
 70
   128
 71
     5
 72
     4
 73
    34
  0
VERTEX
  5
790
  8
0
 10
0.0
 20
0.0
 30
0.0
 70
   128
 71
    36
 72
    18
 73
     8
  0
VERTEX
  5
791
  8
0
 10
0.0
 20
0.0
 30
0.0
 70
   128
 71
    36
 72
     8
 73
     7
  0
VERTEX
  5
792
  8
0
 10
0.0
 20
0.0
 30
0.0
 70
   128
 71
     7
 72
     9
 73
     6
  0
VERTEX
  5
793
  8
0
 10
0.0
 20
0.0
 30
0.0
 70
   128
 71
     7
 72
     6
 73
     5
  0
VERTEX
  5
794
  8
0
 10
0.0
 20
0.0
 30
0.0
 70
   128
 71
    37
 72
    16
 73
    18
  0
VERTEX
  5
795
  8
0
 10
0.0
 20
0.0
 30
0.0
 70
   128
 71
    37
 72
    18
 73
    36
  0
VERTEX
  5
796
  8
0
 10
0.0
 20
0.0
 30
0.0
 70
   128
 71
    27
 72
    38
 73
    20
  0
VERTEX
  5
797
  8
0
 10
0.0
 20
0.0
 30
0.0
 70
   128
 71
    27
 72
    20
 73
    19
  0
VERTEX
  5
798
  8
0
 10
0.0
 20
0.0
 30
0.0
 70
   128
 71
    38
 72
    32
 73
    20
  0
VERTEX
  5
799
  8
0
 10
0.0
 20
0.0
 30
0.0
 70
   128
 71
    22
 72
    28
 73
    27
  0
VERTEX
  5
79A
  8
0
 10
0.0
 20
0.0
 30
0.0
 70
   128
 71
    22
 72
    27
 73
    23
  0
VERTEX
  5
79B
  8
0
 10
0.0
 20
0.0
 30
0.0
 70
   128
 71
    29
 72
    39
 73
    25
  0
VERTEX
  5
79C
  8
0
 10
0.0
 20
0.0
 30
0.0
 70
   128
 71
    29
 72
    25
 73
    24
  0
VERTEX
  5
79D
  8
0
 10
0.0
 20
0.0
 30
0.0
 70
   128
 71
    39
 72
    28
 73
    25
  0
VERTEX
  5
79E
  8
0
 10
0.0
 20
0.0
 30
0.0
 70
   128
 71
    33
 72
    29
 73
    26
  0
SEQEND
  5
C8F
  8
0
  0
POLYLINE
  5
79F
  8
0
 66
     1
 10
0.0
 20
0.0
 30
0.0
 70
    64
 71
    27
 72
    34
  0
VERTEX
  5
7A0
  8
0
 10
71.01065352488439
 20
-2.58248069711986
 30
-58.31852800361196
 70
   192
  0
VERTEX
  5
7A1
  8
0
 10
86.637056007224
 20
-2.58248069711986
 30
0.0000000000000453
 70
   192
  0
VERTEX
  5
7A2
  8
0
 10
86.9714088754627
 20
-1.5685237192212
 30
0.0000000000000072
 70
   192
  0
VERTEX
  5
7A3
  8
0
 10
52.71127642078399
 20
-1.5685237192212
 30
-82.71127642078397
 70
   192
  0
VERTEX
  5
7A4
  8
0
 10
-30.0
 20
-2.582480697119842
 30
-116.6370560072239
 70
   192
  0
VERTEX
  5
7A5
  8
0
 10
28.31852800361207
 20
-2.58248069711986
 30
-101.0106535248843
 70
   192
  0
VERTEX
  5
7A6
  8
0
 10
52.71127642078399
 20
-1.5685237192212
 30
82.71127642078399
 70
   192
  0
VERTEX
  5
7A7
  8
0
 10
71.01065352488435
 20
-2.58248069711986
 30
58.31852800361204
 70
   192
  0
VERTEX
  5
7A8
  8
0
 10
87.63968312647707
 20
-0.7358712593316952
 30
0.0000000000000072
 70
   192
  0
VERTEX
  5
7A9
  8
0
 10
53.18381767536862
 20
-0.7358712593316952
 30
-83.1838176753686
 70
   192
  0
VERTEX
  5
7AA
  8
0
 10
-30.0
 20
-1.265002991496061
 30
117.1604564093161
 70
   192
  0
VERTEX
  5
7AB
  8
0
 10
53.18381767536862
 20
-0.7358712593316952
 30
83.18381767536862
 70
   192
  0
VERTEX
  5
7AC
  8
0
 10
88.55723806967019
 20
-0.1899834322548091
 30
0.0000000000000073
 70
   192
  0
VERTEX
  5
7AD
  8
0
 10
53.83262699781172
 20
-0.1899834322548091
 30
-83.8326269978117
 70
   192
  0
VERTEX
  5
7AE
  8
0
 10
-30.0
 20
-0.3349492476209912
 30
-118.2303608532876
 70
   192
  0
VERTEX
  5
7AF
  8
0
 10
53.83262699781172
 20
-0.1899834322548091
 30
83.83262699781172
 70
   192
  0
VERTEX
  5
7B0
  8
0
 10
89.6078602134486
 20
0.0
 30
-0.0000000000000465
 70
   192
  0
VERTEX
  5
7B1
  8
0
 10
73.58344543714452
 20
0.0
 30
-59.80393010672434
 70
   192
  0
VERTEX
  5
7B2
  8
0
 10
-30.0
 20
0.0000000000000027
 30
119.6078602134486
 70
   192
  0
VERTEX
  5
7B3
  8
0
 10
29.80393010672437
 20
0.0
 30
103.5834454371445
 70
   192
  0
VERTEX
  5
7B4
  8
0
 10
73.58344543714455
 20
0.0
 30
59.80393010672425
 70
   192
  0
VERTEX
  5
7B5
  8
0
 10
-30.0
 20
-1.265002991496061
 30
-117.1604564093161
 70
   192
  0
VERTEX
  5
7B6
  8
0
 10
-30.0
 20
-0.3349492476209912
 30
118.2303608532876
 70
   192
  0
VERTEX
  5
7B7
  8
0
 10
29.80393010672428
 20
0.0
 30
-103.5834454371445
 70
   192
  0
VERTEX
  5
7B8
  8
0
 10
-30.00000000000001
 20
0.0
 30
-119.6078602134486
 70
   192
  0
VERTEX
  5
7B9
  8
0
 10
28.31852800361198
 20
-2.58248069711986
 30
101.0106535248844
 70
   192
  0
VERTEX
  5
7BA
  8
0
 10
-30.00000000000001
 20
-2.58248069711986
 30
116.637056007224
 70
   192
  0
VERTEX
  5
7BB
  8
0
 10
0.0
 20
0.0
 30
0.0
 70
   128
 71
     1
 72
     2
 73
     3
  0
VERTEX
  5
7BC
  8
0
 10
0.0
 20
0.0
 30
0.0
 70
   128
 71
     1
 72
     3
 73
     4
  0
VERTEX
  5
7BD
  8
0
 10
0.0
 20
0.0
 30
0.0
 70
   128
 71
     4
 72
     5
 73
     6
  0
VERTEX
  5
7BE
  8
0
 10
0.0
 20
0.0
 30
0.0
 70
   128
 71
     7
 72
     3
 73
     2
  0
VERTEX
  5
7BF
  8
0
 10
0.0
 20
0.0
 30
0.0
 70
   128
 71
     7
 72
     2
 73
     8
  0
VERTEX
  5
7C0
  8
0
 10
0.0
 20
0.0
 30
0.0
 70
   128
 71
     9
 72
    10
 73
    -4
  0
VERTEX
  5
7C1
  8
0
 10
0.0
 20
0.0
 30
0.0
 70
   128
 71
    -9
 72
     4
 73
     3
  0
VERTEX
  5
7C2
  8
0
 10
0.0
 20
0.0
 30
0.0
 70
   128
 71
    11
 72
    12
 73
     7
  0
VERTEX
  5
7C3
  8
0
 10
0.0
 20
0.0
 30
0.0
 70
   128
 71
    12
 72
     9
 73
    -3
  0
VERTEX
  5
7C4
  8
0
 10
0.0
 20
0.0
 30
0.0
 70
   128
 71
   -12
 72
     3
 73
     7
  0
VERTEX
  5
7C5
  8
0
 10
0.0
 20
0.0
 30
0.0
 70
   128
 71
    13
 72
    14
 73
   -10
  0
VERTEX
  5
7C6
  8
0
 10
0.0
 20
0.0
 30
0.0
 70
   128
 71
   -13
 72
    10
 73
     9
  0
VERTEX
  5
7C7
  8
0
 10
0.0
 20
0.0
 30
0.0
 70
   128
 71
    15
 72
    10
 73
    14
  0
VERTEX
  5
7C8
  8
0
 10
0.0
 20
0.0
 30
0.0
 70
   128
 71
    16
 72
    13
 73
    -9
  0
VERTEX
  5
7C9
  8
0
 10
0.0
 20
0.0
 30
0.0
 70
   128
 71
   -16
 72
     9
 73
    12
  0
VERTEX
  5
7CA
  8
0
 10
0.0
 20
0.0
 30
0.0
 70
   128
 71
    14
 72
    13
 73
    17
  0
VERTEX
  5
7CB
  8
0
 10
0.0
 20
0.0
 30
0.0
 70
   128
 71
    14
 72
    17
 73
    18
  0
VERTEX
  5
7CC
  8
0
 10
0.0
 20
0.0
 30
0.0
 70
   128
 71
    16
 72
    19
 73
    20
  0
VERTEX
  5
7CD
  8
0
 10
0.0
 20
0.0
 30
0.0
 70
   128
 71
    21
 72
    17
 73
    13
  0
VERTEX
  5
7CE
  8
0
 10
0.0
 20
0.0
 30
0.0
 70
   128
 71
    21
 72
    13
 73
    16
  0
VERTEX
  5
7CF
  8
0
 10
0.0
 20
0.0
 30
0.0
 70
   128
 71
     4
 72
    10
 73
    15
  0
VERTEX
  5
7D0
  8
0
 10
0.0
 20
0.0
 30
0.0
 70
   128
 71
     4
 72
    15
 73
    22
  0
VERTEX
  5
7D1
  8
0
 10
0.0
 20
0.0
 30
0.0
 70
   128
 71
    23
 72
    16
 73
    12
  0
VERTEX
  5
7D2
  8
0
 10
0.0
 20
0.0
 30
0.0
 70
   128
 71
    23
 72
    12
 73
    11
  0
VERTEX
  5
7D3
  8
0
 10
0.0
 20
0.0
 30
0.0
 70
   128
 71
    14
 72
    24
 73
    25
  0
VERTEX
  5
7D4
  8
0
 10
0.0
 20
0.0
 30
0.0
 70
   128
 71
    14
 72
    25
 73
    15
  0
VERTEX
  5
7D5
  8
0
 10
0.0
 20
0.0
 30
0.0
 70
   128
 71
    19
 72
    16
 73
    23
  0
VERTEX
  5
7D6
  8
0
 10
0.0
 20
0.0
 30
0.0
 70
   128
 71
     4
 72
    22
 73
     5
  0
VERTEX
  5
7D7
  8
0
 10
0.0
 20
0.0
 30
0.0
 70
   128
 71
    11
 72
     7
 73
    26
  0
VERTEX
  5
7D8
  8
0
 10
0.0
 20
0.0
 30
0.0
 70
   128
 71
    11
 72
    26
 73
    27
  0
VERTEX
  5
7D9
  8
0
 10
0.0
 20
0.0
 30
0.0
 70
   128
 71
     1
 72
     4
 73
     6
  0
VERTEX
  5
7DA
  8
0
 10
0.0
 20
0.0
 30
0.0
 70
   128
 71
    26
 72
     7
 73
     8
  0
VERTEX
  5
7DB
  8
0
 10
0.0
 20
0.0
 30
0.0
 70
   128
 71
    18
 72
    24
 73
    14
  0
VERTEX
  5
7DC
  8
0
 10
0.0
 20
0.0
 30
0.0
 70
   128
 71
    20
 72
    21
 73
    16
  0
SEQEND
  5
C90
  8
0
  0
POLYLINE
  5
7DD
  8
0
 66
     1
 10
0.0
 20
0.0
 30
0.0
 70
    64
 71
    23
 72
    30
  0
VERTEX
  5
7DE
  8
0
 10
26.28420222422749
 20
-80.01943531145669
 30
26.28420222422749
 70
   192
  0
VERTEX
  5
7DF
  8
0
 10
26.84932803042215
 20
-79.9124431699972
 30
26.84932803042215
 70
   192
  0
VERTEX
  5
7E0
  8
0
 10
37.97068384122711
 20
-79.9124431699972
 30
0.0
 70
   192
  0
VERTEX
  5
7E1
  8
0
 10
37.17147526165959
 20
-80.01943531145669
 30
-0.0000000000000023
 70
   192
  0
VERTEX
  5
7E2
  8
0
 10
26.84932803042215
 20
-79.9124431699972
 30
-26.84932803042215
 70
   192
  0
VERTEX
  5
7E3
  8
0
 10
26.28420222422749
 20
-80.01943531145669
 30
-26.28420222422749
 70
   192
  0
VERTEX
  5
7E4
  8
0
 10
36.39985748882032
 20
-80.25350300385996
 30
-0.0000000000000022
 70
   192
  0
VERTEX
  5
7E5
  8
0
 10
25.73858606456879
 20
-80.25350300385996
 30
25.73858606456878
 70
   192
  0
VERTEX
  5
7E6
  8
0
 10
0.0
 20
-80.0835721431954
 30
-36.9101928122558
 70
   192
  0
VERTEX
  5
7E7
  8
0
 10
25.73858606456879
 20
-80.25350300385996
 30
-25.73858606456879
 70
   192
  0
VERTEX
  5
7E8
  8
0
 10
35.67589819205654
 20
-80.60855878626282
 30
-0.0000000000000022
 70
   192
  0
VERTEX
  5
7E9
  8
0
 10
25.22666953652407
 20
-80.60855878626282
 30
25.22666953652406
 70
   192
  0
VERTEX
  5
7EA
  8
0
 10
0.0000000000000044
 20
-80.47727129355854
 30
35.91072929266151
 70
   192
  0
VERTEX
  5
7EB
  8
0
 10
25.22666953652407
 20
-80.60855878626282
 30
-25.22666953652407
 70
   192
  0
VERTEX
  5
7EC
  8
0
 10
35.01842557400909
 20
-81.0753686281752
 30
0.0000000000000039
 70
   192
  0
VERTEX
  5
7ED
  8
0
 10
24.76176618985825
 20
-81.0753686281752
 30
24.76176618985825
 70
   192
  0
VERTEX
  5
7EE
  8
0
 10
0.0
 20
-81.07536862817518
 30
-35.01842557400909
 70
   192
  0
VERTEX
  5
7EF
  8
0
 10
24.76176618985825
 20
-81.0753686281752
 30
-24.76176618985825
 70
   192
  0
VERTEX
  5
7F0
  8
0
 10
0.0000000000000045
 20
-80.0835721431954
 30
36.9101928122558
 70
   192
  0
VERTEX
  5
7F1
  8
0
 10
0.0
 20
-80.47727129355854
 30
-35.91072929266151
 70
   192
  0
VERTEX
  5
7F2
  8
0
 10
-0.0000000000000043
 20
-81.0753686281752
 30
35.01842557400909
 70
   192
  0
VERTEX
  5
7F3
  8
0
 10
0.0000000000000047
 20
-79.91244316999723
 30
37.9706838412271
 70
   192
  0
VERTEX
  5
7F4
  8
0
 10
0.0
 20
-79.9124431699972
 30
-37.9706838412271
 70
   192
  0
VERTEX
  5
7F5
  8
0
 10
0.0
 20
0.0
 30
0.0
 70
   128
 71
     1
 72
     2
 73
    -3
  0
VERTEX
  5
7F6
  8
0
 10
0.0
 20
0.0
 30
0.0
 70
   128
 71
    -1
 72
     3
 73
     4
  0
VERTEX
  5
7F7
  8
0
 10
0.0
 20
0.0
 30
0.0
 70
   128
 71
     4
 72
     3
 73
    -5
  0
VERTEX
  5
7F8
  8
0
 10
0.0
 20
0.0
 30
0.0
 70
   128
 71
    -4
 72
     5
 73
     6
  0
VERTEX
  5
7F9
  8
0
 10
0.0
 20
0.0
 30
0.0
 70
   128
 71
     7
 72
     8
 73
    -1
  0
VERTEX
  5
7FA
  8
0
 10
0.0
 20
0.0
 30
0.0
 70
   128
 71
    -7
 72
     1
 73
     4
  0
VERTEX
  5
7FB
  8
0
 10
0.0
 20
0.0
 30
0.0
 70
   128
 71
     9
 72
    10
 73
     6
  0
VERTEX
  5
7FC
  8
0
 10
0.0
 20
0.0
 30
0.0
 70
   128
 71
    10
 72
     7
 73
    -4
  0
VERTEX
  5
7FD
  8
0
 10
0.0
 20
0.0
 30
0.0
 70
   128
 71
   -10
 72
     4
 73
     6
  0
VERTEX
  5
7FE
  8
0
 10
0.0
 20
0.0
 30
0.0
 70
   128
 71
    11
 72
    12
 73
    -8
  0
VERTEX
  5
7FF
  8
0
 10
0.0
 20
0.0
 30
0.0
 70
   128
 71
   -11
 72
     8
 73
     7
  0
VERTEX
  5
800
  8
0
 10
0.0
 20
0.0
 30
0.0
 70
   128
 71
    13
 72
     8
 73
    12
  0
VERTEX
  5
801
  8
0
 10
0.0
 20
0.0
 30
0.0
 70
   128
 71
    14
 72
    11
 73
    -7
  0
VERTEX
  5
802
  8
0
 10
0.0
 20
0.0
 30
0.0
 70
   128
 71
   -14
 72
     7
 73
    10
  0
VERTEX
  5
803
  8
0
 10
0.0
 20
0.0
 30
0.0
 70
   128
 71
    11
 72
    15
 73
   -16
  0
VERTEX
  5
804
  8
0
 10
0.0
 20
0.0
 30
0.0
 70
   128
 71
   -11
 72
    16
 73
    12
  0
VERTEX
  5
805
  8
0
 10
0.0
 20
0.0
 30
0.0
 70
   128
 71
    14
 72
    17
 73
    18
  0
VERTEX
  5
806
  8
0
 10
0.0
 20
0.0
 30
0.0
 70
   128
 71
    14
 72
    18
 73
   -15
  0
VERTEX
  5
807
  8
0
 10
0.0
 20
0.0
 30
0.0
 70
   128
 71
   -14
 72
    15
 73
    11
  0
VERTEX
  5
808
  8
0
 10
0.0
 20
0.0
 30
0.0
 70
   128
 71
     1
 72
     8
 73
    13
  0
VERTEX
  5
809
  8
0
 10
0.0
 20
0.0
 30
0.0
 70
   128
 71
     1
 72
    13
 73
    19
  0
VERTEX
  5
80A
  8
0
 10
0.0
 20
0.0
 30
0.0
 70
   128
 71
    20
 72
    14
 73
    10
  0
VERTEX
  5
80B
  8
0
 10
0.0
 20
0.0
 30
0.0
 70
   128
 71
    20
 72
    10
 73
     9
  0
VERTEX
  5
80C
  8
0
 10
0.0
 20
0.0
 30
0.0
 70
   128
 71
    12
 72
    16
 73
    21
  0
VERTEX
  5
80D
  8
0
 10
0.0
 20
0.0
 30
0.0
 70
   128
 71
    12
 72
    21
 73
    13
  0
VERTEX
  5
80E
  8
0
 10
0.0
 20
0.0
 30
0.0
 70
   128
 71
    17
 72
    14
 73
    20
  0
VERTEX
  5
80F
  8
0
 10
0.0
 20
0.0
 30
0.0
 70
   128
 71
     2
 72
     1
 73
    19
  0
VERTEX
  5
810
  8
0
 10
0.0
 20
0.0
 30
0.0
 70
   128
 71
     2
 72
    19
 73
    22
  0
VERTEX
  5
811
  8
0
 10
0.0
 20
0.0
 30
0.0
 70
   128
 71
     9
 72
     6
 73
     5
  0
VERTEX
  5
812
  8
0
 10
0.0
 20
0.0
 30
0.0
 70
   128
 71
     9
 72
     5
 73
    23
  0
SEQEND
  5
C91
  8
0
  0
POLYLINE
  5
813
  8
0
 66
     1
 10
0.0
 20
0.0
 30
0.0
 70
    64
 71
    10
 72
     8
  0
VERTEX
  5
814
  8
0
 10
0.0000000000000027
 20
-91.999124725835
 30
-22.0
 70
   192
  0
VERTEX
  5
815
  8
0
 10
-0.0000000000000024
 20
-91.999124725835
 30
22.0
 70
   192
  0
VERTEX
  5
816
  8
0
 10
0.0
 20
-81.0753686281752
 30
35.0184255740091
 70
   192
  0
VERTEX
  5
817
  8
0
 10
0.0000000000000043
 20
-81.0753686281752
 30
-35.01842557400909
 70
   192
  0
VERTEX
  5
818
  8
0
 10
-35.0184255740091
 20
-81.0753686281752
 30
0.0
 70
   192
  0
VERTEX
  5
819
  8
0
 10
-22.0
 20
-91.999124725835
 30
-0.0000000000000024
 70
   192
  0
VERTEX
  5
81A
  8
0
 10
-24.76176618985825
 20
-81.0753686281752
 30
-24.76176618985825
 70
   192
  0
VERTEX
  5
81B
  8
0
 10
-15.55634918610404
 20
-91.999124725835
 30
-15.55634918610405
 70
   192
  0
VERTEX
  5
81C
  8
0
 10
-24.76176618985825
 20
-81.0753686281752
 30
24.76176618985825
 70
   192
  0
VERTEX
  5
81D
  8
0
 10
-15.55634918610405
 20
-91.999124725835
 30
15.55634918610404
 70
   192
  0
VERTEX
  5
81E
  8
0
 10
0.0
 20
0.0
 30
0.0
 70
   128
 71
     8
 72
     1
 73
    -4
  0
VERTEX
  5
81F
  8
0
 10
0.0
 20
0.0
 30
0.0
 70
   128
 71
     7
 72
    -8
 73
     4
  0
VERTEX
  5
820
  8
0
 10
0.0
 20
0.0
 30
0.0
 70
   128
 71
     6
 72
     8
 73
    -7
  0
VERTEX
  5
821
  8
0
 10
0.0
 20
0.0
 30
0.0
 70
   128
 71
     5
 72
    -6
 73
     7
  0
VERTEX
  5
822
  8
0
 10
0.0
 20
0.0
 30
0.0
 70
   128
 71
    10
 72
     6
 73
    -5
  0
VERTEX
  5
823
  8
0
 10
0.0
 20
0.0
 30
0.0
 70
   128
 71
     9
 72
   -10
 73
     5
  0
VERTEX
  5
824
  8
0
 10
0.0
 20
0.0
 30
0.0
 70
   128
 71
     2
 72
    10
 73
    -9
  0
VERTEX
  5
825
  8
0
 10
0.0
 20
0.0
 30
0.0
 70
   128
 71
     3
 72
    -2
 73
     9
  0
SEQEND
  5
C92
  8
0
  0
POLYLINE
  5
826
  8
0
 66
     1
 10
0.0
 20
0.0
 30
0.0
 70
    64
 71
    10
 72
     8
  0
VERTEX
  5
827
  8
0
 10
0.0000000000000027
 20
-102.0
 30
-22.0
 70
   192
  0
VERTEX
  5
828
  8
0
 10
-0.0000000000000024
 20
-102.0
 30
22.0
 70
   192
  0
VERTEX
  5
829
  8
0
 10
-0.0000000000000024
 20
-91.999124725835
 30
22.0
 70
   192
  0
VERTEX
  5
82A
  8
0
 10
0.0000000000000027
 20
-91.999124725835
 30
-22.0
 70
   192
  0
VERTEX
  5
82B
  8
0
 10
-22.0
 20
-91.999124725835
 30
-0.0000000000000024
 70
   192
  0
VERTEX
  5
82C
  8
0
 10
-22.0
 20
-102.0
 30
-0.0000000000000024
 70
   192
  0
VERTEX
  5
82D
  8
0
 10
-15.55634918610404
 20
-91.999124725835
 30
-15.55634918610405
 70
   192
  0
VERTEX
  5
82E
  8
0
 10
-15.55634918610404
 20
-102.0
 30
-15.55634918610405
 70
   192
  0
VERTEX
  5
82F
  8
0
 10
-15.55634918610405
 20
-91.999124725835
 30
15.55634918610404
 70
   192
  0
VERTEX
  5
830
  8
0
 10
-15.55634918610405
 20
-102.0
 30
15.55634918610404
 70
   192
  0
VERTEX
  5
831
  8
0
 10
0.0
 20
0.0
 30
0.0
 70
   128
 71
     8
 72
     1
 73
    -4
  0
VERTEX
  5
832
  8
0
 10
0.0
 20
0.0
 30
0.0
 70
   128
 71
     7
 72
    -8
 73
     4
  0
VERTEX
  5
833
  8
0
 10
0.0
 20
0.0
 30
0.0
 70
   128
 71
     6
 72
     8
 73
    -7
  0
VERTEX
  5
834
  8
0
 10
0.0
 20
0.0
 30
0.0
 70
   128
 71
     5
 72
    -6
 73
     7
  0
VERTEX
  5
835
  8
0
 10
0.0
 20
0.0
 30
0.0
 70
   128
 71
    10
 72
     6
 73
    -5
  0
VERTEX
  5
836
  8
0
 10
0.0
 20
0.0
 30
0.0
 70
   128
 71
     9
 72
   -10
 73
     5
  0
VERTEX
  5
837
  8
0
 10
0.0
 20
0.0
 30
0.0
 70
   128
 71
     2
 72
    10
 73
    -9
  0
VERTEX
  5
838
  8
0
 10
0.0
 20
0.0
 30
0.0
 70
   128
 71
     3
 72
    -2
 73
     9
  0
SEQEND
  5
C93
  8
0
  0
POLYLINE
  5
839
  8
0
 66
     1
 10
0.0
 20
0.0
 30
0.0
 70
    64
 71
    21
 72
    19
  0
VERTEX
  5
83A
  8
0
 10
21.61547872718359
 20
-98.01472581079507
 30
56.72380582344754
 70
   192
  0
VERTEX
  5
83B
  8
0
 10
0.0000000000314395
 20
-98.68035565835731
 30
60.5853428637878
 70
   192
  0
VERTEX
  5
83C
  8
0
 10
0.0
 20
-102.0
 30
60.0
 70
   192
  0
VERTEX
  5
83D
  8
0
 10
39.85513015666263
 20
-96.72301335692276
 30
46.08790379198522
 70
   192
  0
VERTEX
  5
83E
  8
0
 10
42.42640687119285
 20
-102.0
 30
42.42640687119285
 70
   192
  0
VERTEX
  5
83F
  8
0
 10
55.95896379872956
 20
-95.17953139837473
 30
24.78622793522417
 70
   192
  0
VERTEX
  5
840
  8
0
 10
54.26213734933049
 20
-95.18870235539289
 30
28.30520719647675
 70
   192
  0
VERTEX
  5
841
  8
0
 10
58.4800156447456
 20
-96.1141084828793
 30
17.48444630884485
 70
   192
  0
VERTEX
  5
842
  8
0
 10
57.37406205931215
 20
-95.45584094997517
 30
21.16643617032569
 70
   192
  0
VERTEX
  5
843
  8
0
 10
60.00000000000001
 20
-102.0
 30
0.0
 70
   192
  0
VERTEX
  5
844
  8
0
 10
60.22975858247105
 20
-99.09083354250436
 30
5.851119324568414
 70
   192
  0
VERTEX
  5
845
  8
0
 10
58.48001505777321
 20
-96.1141074871429
 30
-17.48444888501345
 70
   192
  0
VERTEX
  5
846
  8
0
 10
60.22975838805252
 20
-99.09083321059224
 30
-5.851121931106803
 70
   192
  0
VERTEX
  5
847
  8
0
 10
55.94854513767338
 20
-95.17853974645402
 30
-24.81015849177979
 70
   192
  0
VERTEX
  5
848
  8
0
 10
57.38772382423168
 20
-95.4602683528997
 30
-21.12710599166714
 70
   192
  0
VERTEX
  5
849
  8
0
 10
42.42640687119286
 20
-102.0
 30
-42.42640687119286
 70
   192
  0
VERTEX
  5
84A
  8
0
 10
54.2621412835015
 20
-95.18870786993
 30
-28.30519755209905
 70
   192
  0
VERTEX
  5
84B
  8
0
 10
0.0
 20
-102.0
 30
-60.00000000000001
 70
   192
  0
VERTEX
  5
84C
  8
0
 10
21.60182043929255
 20
-98.01542852918536
 30
-56.72887688227315
 70
   192
  0
VERTEX
  5
84D
  8
0
 10
39.84547507368584
 20
-96.72391363787588
 30
-46.09659844141915
 70
   192
  0
VERTEX
  5
84E
  8
0
 10
0.0000000000000074
 20
-98.6803558960271
 30
-60.5853428218802
 70
   192
  0
VERTEX
  5
84F
  8
0
 10
0.0
 20
0.0
 30
0.0
 70
   128
 71
     1
 72
     2
 73
     3
  0
VERTEX
  5
850
  8
0
 10
0.0
 20
0.0
 30
0.0
 70
   128
 71
     4
 72
     1
 73
     3
  0
VERTEX
  5
851
  8
0
 10
0.0
 20
0.0
 30
0.0
 70
   128
 71
     4
 72
     3
 73
     5
  0
VERTEX
  5
852
  8
0
 10
0.0
 20
0.0
 30
0.0
 70
   128
 71
     5
 72
     6
 73
     7
  0
VERTEX
  5
853
  8
0
 10
0.0
 20
0.0
 30
0.0
 70
   128
 71
     8
 72
     9
 73
     6
  0
VERTEX
  5
854
  8
0
 10
0.0
 20
0.0
 30
0.0
 70
   128
 71
     8
 72
     6
 73
     5
  0
VERTEX
  5
855
  8
0
 10
0.0
 20
0.0
 30
0.0
 70
   128
 71
     8
 72
     5
 73
    10
  0
VERTEX
  5
856
  8
0
 10
0.0
 20
0.0
 30
0.0
 70
   128
 71
    10
 72
    11
 73
     8
  0
VERTEX
  5
857
  8
0
 10
0.0
 20
0.0
 30
0.0
 70
   128
 71
    10
 72
    12
 73
    13
  0
VERTEX
  5
858
  8
0
 10
0.0
 20
0.0
 30
0.0
 70
   128
 71
    14
 72
    15
 73
    12
  0
VERTEX
  5
859
  8
0
 10
0.0
 20
0.0
 30
0.0
 70
   128
 71
    14
 72
    12
 73
    10
  0
VERTEX
  5
85A
  8
0
 10
0.0
 20
0.0
 30
0.0
 70
   128
 71
    14
 72
    10
 73
    16
  0
VERTEX
  5
85B
  8
0
 10
0.0
 20
0.0
 30
0.0
 70
   128
 71
    16
 72
    17
 73
    14
  0
VERTEX
  5
85C
  8
0
 10
0.0
 20
0.0
 30
0.0
 70
   128
 71
    16
 72
    18
 73
    19
  0
VERTEX
  5
85D
  8
0
 10
0.0
 20
0.0
 30
0.0
 70
   128
 71
    16
 72
    19
 73
    20
  0
VERTEX
  5
85E
  8
0
 10
0.0
 20
0.0
 30
0.0
 70
   128
 71
    18
 72
    21
 73
    19
  0
VERTEX
  5
85F
  8
0
 10
0.0
 20
0.0
 30
0.0
 70
   128
 71
     4
 72
     5
 73
     7
  0
VERTEX
  5
860
  8
0
 10
0.0
 20
0.0
 30
0.0
 70
   128
 71
    11
 72
    10
 73
    13
  0
VERTEX
  5
861
  8
0
 10
0.0
 20
0.0
 30
0.0
 70
   128
 71
    17
 72
    16
 73
    20
  0
SEQEND
  5
C94
  8
0
  0
POLYLINE
  5
862
  8
0
 66
     1
 10
0.0
 20
0.0
 30
0.0
 70
    64
 71
    19
 72
    17
  0
VERTEX
  5
863
  8
0
 10
-29.9999999999691
 20
-95.22728532641081
 30
-107.8376216807222
 70
   192
  0
VERTEX
  5
864
  8
0
 10
-30.0
 20
-102.0
 30
-108.430157435957
 70
   192
  0
VERTEX
  5
865
  8
0
 10
24.21507871797855
 20
-102.0
 30
-93.9032708758849
 70
   192
  0
VERTEX
  5
866
  8
0
 10
6.18494993511725
 20
-95.71190493333012
 30
-101.630449178512
 70
   192
  0
VERTEX
  5
867
  8
0
 10
63.90327087588493
 20
-102.0
 30
-54.21507871797847
 70
   192
  0
VERTEX
  5
868
  8
0
 10
78.430157435957
 20
-102.0
 30
0.0000000000000301
 70
   192
  0
VERTEX
  5
869
  8
0
 10
77.98771351121289
 20
-99.85789415389266
 30
-7.426039995310293
 70
   192
  0
VERTEX
  5
86A
  8
0
 10
75.7523847713362
 20
-96.89253940141661
 30
-21.8364122746554
 70
   192
  0
VERTEX
  5
86B
  8
0
 10
62.30631448671286
 20
-96.62591808525136
 30
-55.99020382496566
 70
   192
  0
VERTEX
  5
86C
  8
0
 10
62.31439306915331
 20
-96.62607050974393
 30
55.97690890123928
 70
   192
  0
VERTEX
  5
86D
  8
0
 10
75.7523855233175
 20
-96.8925403971527
 30
21.83640906365215
 70
   192
  0
VERTEX
  5
86E
  8
0
 10
77.99142034238594
 20
-99.86282804297012
 30
7.378235674816308
 70
   192
  0
VERTEX
  5
86F
  8
0
 10
63.90327087588491
 20
-102.0
 30
54.21507871797852
 70
   192
  0
VERTEX
  5
870
  8
0
 10
-30.0
 20
-102.0
 30
108.430157435957
 70
   192
  0
VERTEX
  5
871
  8
0
 10
-30.0
 20
-95.22728761726108
 30
107.8376218811457
 70
   192
  0
VERTEX
  5
872
  8
0
 10
6.230001168196795
 20
-95.71254701405749
 30
101.6144573260247
 70
   192
  0
VERTEX
  5
873
  8
0
 10
24.21507871797849
 20
-102.0
 30
93.90327087588491
 70
   192
  0
VERTEX
  5
874
  8
0
 10
38.20970097920073
 20
-96.20156666501563
 30
83.63480410392899
 70
   192
  0
VERTEX
  5
875
  8
0
 10
38.18498255085537
 20
-96.20116078636626
 30
-83.65491172119654
 70
   192
  0
VERTEX
  5
876
  8
0
 10
0.0
 20
0.0
 30
0.0
 70
   128
 71
     1
 72
     2
 73
     3
  0
VERTEX
  5
877
  8
0
 10
0.0
 20
0.0
 30
0.0
 70
   128
 71
     4
 72
     1
 73
     3
  0
VERTEX
  5
878
  8
0
 10
0.0
 20
0.0
 30
0.0
 70
   128
 71
     5
 72
     6
 73
     7
  0
VERTEX
  5
879
  8
0
 10
0.0
 20
0.0
 30
0.0
 70
   128
 71
     8
 72
     9
 73
     5
  0
VERTEX
  5
87A
  8
0
 10
0.0
 20
0.0
 30
0.0
 70
   128
 71
     7
 72
     8
 73
     5
  0
VERTEX
  5
87B
  8
0
 10
0.0
 20
0.0
 30
0.0
 70
   128
 71
    10
 72
    11
 73
    12
  0
VERTEX
  5
87C
  8
0
 10
0.0
 20
0.0
 30
0.0
 70
   128
 71
    13
 72
    10
 73
    12
  0
VERTEX
  5
87D
  8
0
 10
0.0
 20
0.0
 30
0.0
 70
   128
 71
    12
 72
     6
 73
    13
  0
VERTEX
  5
87E
  8
0
 10
0.0
 20
0.0
 30
0.0
 70
   128
 71
    14
 72
    15
 73
    16
  0
VERTEX
  5
87F
  8
0
 10
0.0
 20
0.0
 30
0.0
 70
   128
 71
    17
 72
    14
 73
    16
  0
VERTEX
  5
880
  8
0
 10
0.0
 20
0.0
 30
0.0
 70
   128
 71
    16
 72
    18
 73
    17
  0
VERTEX
  5
881
  8
0
 10
0.0
 20
0.0
 30
0.0
 70
   128
 71
     3
 72
     5
 73
    19
  0
VERTEX
  5
882
  8
0
 10
0.0
 20
0.0
 30
0.0
 70
   128
 71
    19
 72
     4
 73
     3
  0
VERTEX
  5
883
  8
0
 10
0.0
 20
0.0
 30
0.0
 70
   128
 71
     5
 72
     9
 73
    19
  0
VERTEX
  5
884
  8
0
 10
0.0
 20
0.0
 30
0.0
 70
   128
 71
     6
 72
    12
 73
     7
  0
VERTEX
  5
885
  8
0
 10
0.0
 20
0.0
 30
0.0
 70
   128
 71
    18
 72
    10
 73
    13
  0
VERTEX
  5
886
  8
0
 10
0.0
 20
0.0
 30
0.0
 70
   128
 71
    17
 72
    18
 73
    13
  0
SEQEND
  5
C95
  8
0
  0
POLYLINE
  5
887
  8
0
 66
     1
 10
0.0
 20
0.0
 30
0.0
 70
    64
 71
    19
 72
    17
  0
VERTEX
  5
888
  8
0
 10
-88.31852800361199
 20
-2.58248069711986
 30
-101.0106535248844
 70
   192
  0
VERTEX
  5
889
  8
0
 10
-72.32971912133189
 20
-38.74594693521185
 30
-103.2115613642436
 70
   192
  0
VERTEX
  5
88A
  8
0
 10
-59.21210363519381
 20
-38.89860325577153
 30
-107.6394881450379
 70
   192
  0
VERTEX
  5
88B
  8
0
 10
-45.03782021203894
 20
-39.06995514066449
 30
-110.4901527677791
 70
   192
  0
VERTEX
  5
88C
  8
0
 10
-30.0
 20
-2.582480697119854
 30
-116.637056007224
 70
   192
  0
VERTEX
  5
88D
  8
0
 10
-29.99999999835935
 20
-39.26000281710555
 30
-111.4823682883972
 70
   192
  0
VERTEX
  5
88E
  8
0
 10
-128.3779630575311
 20
-38.14657941533108
 30
-52.77318203780263
 70
   192
  0
VERTEX
  5
88F
  8
0
 10
-131.0106535248843
 20
-2.58248069711986
 30
-58.31852800361203
 70
   192
  0
VERTEX
  5
890
  8
0
 10
-146.637056007224
 20
-2.58248069711986
 30
-0.0000000000000324
 70
   192
  0
VERTEX
  5
891
  8
0
 10
-140.4419773692151
 20
-38.02705086490076
 30
-16.4180704362451
 70
   192
  0
VERTEX
  5
892
  8
0
 10
-126.0645205492971
 20
-38.17017075863428
 30
56.86914781019977
 70
   192
  0
VERTEX
  5
893
  8
0
 10
-139.5391086794403
 20
-38.03566546474925
 30
21.63092022053019
 70
   192
  0
VERTEX
  5
894
  8
0
 10
-131.0106535248844
 20
-2.58248069711986
 30
58.31852800361197
 70
   192
  0
VERTEX
  5
895
  8
0
 10
-30.00000000000006
 20
-2.58248069711986
 30
116.637056007224
 70
   192
  0
VERTEX
  5
896
  8
0
 10
-29.999994445042
 20
-39.26000296482295
 30
111.4823669399812
 70
   192
  0
VERTEX
  5
897
  8
0
 10
-67.6512364722572
 20
-38.79974537732726
 30
105.000614606745
 70
   192
  0
VERTEX
  5
898
  8
0
 10
-88.31852800361204
 20
-2.58248069711986
 30
101.0106535248843
 70
   192
  0
VERTEX
  5
899
  8
0
 10
-100.8922936034009
 20
-38.43090412280367
 30
86.18929548935392
 70
   192
  0
VERTEX
  5
89A
  8
0
 10
-105.3622550525943
 20
-38.38389770435488
 30
-82.31838811930311
 70
   192
  0
VERTEX
  5
89B
  8
0
 10
0.0
 20
0.0
 30
0.0
 70
   128
 71
     1
 72
     2
 73
     3
  0
VERTEX
  5
89C
  8
0
 10
0.0
 20
0.0
 30
0.0
 70
   128
 71
     4
 72
     5
 73
     1
  0
VERTEX
  5
89D
  8
0
 10
0.0
 20
0.0
 30
0.0
 70
   128
 71
     3
 72
     4
 73
     1
  0
VERTEX
  5
89E
  8
0
 10
0.0
 20
0.0
 30
0.0
 70
   128
 71
     4
 72
     6
 73
     5
  0
VERTEX
  5
89F
  8
0
 10
0.0
 20
0.0
 30
0.0
 70
   128
 71
     7
 72
     8
 73
     9
  0
VERTEX
  5
8A0
  8
0
 10
0.0
 20
0.0
 30
0.0
 70
   128
 71
    10
 72
     7
 73
     9
  0
VERTEX
  5
8A1
  8
0
 10
0.0
 20
0.0
 30
0.0
 70
   128
 71
    11
 72
    12
 73
    13
  0
VERTEX
  5
8A2
  8
0
 10
0.0
 20
0.0
 30
0.0
 70
   128
 71
    14
 72
    15
 73
    16
  0
VERTEX
  5
8A3
  8
0
 10
0.0
 20
0.0
 30
0.0
 70
   128
 71
    17
 72
    14
 73
    16
  0
VERTEX
  5
8A4
  8
0
 10
0.0
 20
0.0
 30
0.0
 70
   128
 71
    16
 72
    18
 73
    17
  0
VERTEX
  5
8A5
  8
0
 10
0.0
 20
0.0
 30
0.0
 70
   128
 71
     1
 72
     8
 73
    19
  0
VERTEX
  5
8A6
  8
0
 10
0.0
 20
0.0
 30
0.0
 70
   128
 71
    19
 72
     2
 73
     1
  0
VERTEX
  5
8A7
  8
0
 10
0.0
 20
0.0
 30
0.0
 70
   128
 71
    11
 72
    13
 73
    17
  0
VERTEX
  5
8A8
  8
0
 10
0.0
 20
0.0
 30
0.0
 70
   128
 71
     8
 72
     7
 73
    19
  0
VERTEX
  5
8A9
  8
0
 10
0.0
 20
0.0
 30
0.0
 70
   128
 71
    12
 72
    10
 73
     9
  0
VERTEX
  5
8AA
  8
0
 10
0.0
 20
0.0
 30
0.0
 70
   128
 71
    13
 72
    12
 73
     9
  0
VERTEX
  5
8AB
  8
0
 10
0.0
 20
0.0
 30
0.0
 70
   128
 71
    17
 72
    18
 73
    11
  0
SEQEND
  5
C96
  8
0
  0
POLYLINE
  5
8AC
  8
0
 66
     1
 10
0.0
 20
0.0
 30
0.0
 70
    64
 71
    22
 72
    20
  0
VERTEX
  5
8AD
  8
0
 10
-0.0000000000000042
 20
-79.9124431699972
 30
-37.9706838412271
 70
   192
  0
VERTEX
  5
8AE
  8
0
 10
0.0000000000000076
 20
-78.64985775450162
 30
-62.06224873423412
 70
   192
  0
VERTEX
  5
8AF
  8
0
 10
-0.0001124410298121
 20
-78.64985786127369
 30
-62.0622487398298
 70
   192
  0
VERTEX
  5
8B0
  8
0
 10
-18.31125026718277
 20
-78.21096670157985
 30
-68.0149954355124
 70
   192
  0
VERTEX
  5
8B1
  8
0
 10
-26.84932803042215
 20
-79.9124431699972
 30
-26.84932803042214
 70
   192
  0
VERTEX
  5
8B2
  8
0
 10
-38.48081986795835
 20
-77.7805175926672
 30
-68.59363959163473
 70
   192
  0
VERTEX
  5
8B3
  8
0
 10
-56.9903098266898
 20
-77.42148645596481
 30
-63.73790357091951
 70
   192
  0
VERTEX
  5
8B4
  8
0
 10
-5.17550301229808
 20
-78.52018334677061
 30
64.3287246990804
 70
   192
  0
VERTEX
  5
8B5
  8
0
 10
0.0000000000000047
 20
-79.9124431699972
 30
37.9706838412271
 70
   192
  0
VERTEX
  5
8B6
  8
0
 10
-26.84932803042214
 20
-79.9124431699972
 30
26.84932803042215
 70
   192
  0
VERTEX
  5
8B7
  8
0
 10
-31.57038103456723
 20
-77.92280288541626
 30
69.06140821395047
 70
   192
  0
VERTEX
  5
8B8
  8
0
 10
-3.37084968511348
 20
-78.56484812368305
 30
63.59505915584406
 70
   192
  0
VERTEX
  5
8B9
  8
0
 10
-1.646420665084609
 20
-78.60807860187019
 30
62.83788029439867
 70
   192
  0
VERTEX
  5
8BA
  8
0
 10
-0.0000209371150888
 20
-78.6498749498086
 30
62.0619242547257
 70
   192
  0
VERTEX
  5
8BB
  8
0
 10
0.0
 20
-78.64987476027265
 30
62.06192424479255
 70
   192
  0
VERTEX
  5
8BC
  8
0
 10
-37.9706838412271
 20
-79.9124431699972
 30
0.0000000000000042
 70
   192
  0
VERTEX
  5
8BD
  8
0
 10
-94.12961668572304
 20
-76.77631142126617
 30
-26.58444382419993
 70
   192
  0
VERTEX
  5
8BE
  8
0
 10
-99.44930935886663
 20
-76.69044483753845
 30
-0.3900926544379595
 70
   192
  0
VERTEX
  5
8BF
  8
0
 10
-79.26837586379905
 20
-77.02421514823185
 30
-48.79204549714095
 70
   192
  0
VERTEX
  5
8C0
  8
0
 10
-94.41772374931173
 20
-76.7716240870335
 30
25.88272229488156
 70
   192
  0
VERTEX
  5
8C1
  8
0
 10
-79.77228094172888
 20
-77.01560298814634
 30
48.2818951155196
 70
   192
  0
VERTEX
  5
8C2
  8
0
 10
-57.72649497626218
 20
-77.40779781817143
 30
63.42555146060977
 70
   192
  0
VERTEX
  5
8C3
  8
0
 10
0.0
 20
0.0
 30
0.0
 70
   128
 71
     1
 72
     2
 73
     3
  0
VERTEX
  5
8C4
  8
0
 10
0.0
 20
0.0
 30
0.0
 70
   128
 71
     4
 72
     5
 73
     1
  0
VERTEX
  5
8C5
  8
0
 10
0.0
 20
0.0
 30
0.0
 70
   128
 71
     3
 72
     4
 73
     1
  0
VERTEX
  5
8C6
  8
0
 10
0.0
 20
0.0
 30
0.0
 70
   128
 71
     4
 72
     6
 73
     5
  0
VERTEX
  5
8C7
  8
0
 10
0.0
 20
0.0
 30
0.0
 70
   128
 71
     6
 72
     7
 73
     5
  0
VERTEX
  5
8C8
  8
0
 10
0.0
 20
0.0
 30
0.0
 70
   128
 71
     8
 72
     9
 73
    10
  0
VERTEX
  5
8C9
  8
0
 10
0.0
 20
0.0
 30
0.0
 70
   128
 71
    11
 72
     8
 73
    10
  0
VERTEX
  5
8CA
  8
0
 10
0.0
 20
0.0
 30
0.0
 70
   128
 71
     8
 72
    12
 73
     9
  0
VERTEX
  5
8CB
  8
0
 10
0.0
 20
0.0
 30
0.0
 70
   128
 71
    12
 72
    13
 73
     9
  0
VERTEX
  5
8CC
  8
0
 10
0.0
 20
0.0
 30
0.0
 70
   128
 71
    13
 72
    14
 73
     9
  0
VERTEX
  5
8CD
  8
0
 10
0.0
 20
0.0
 30
0.0
 70
   128
 71
    14
 72
    15
 73
     9
  0
VERTEX
  5
8CE
  8
0
 10
0.0
 20
0.0
 30
0.0
 70
   128
 71
    16
 72
     5
 73
     7
  0
VERTEX
  5
8CF
  8
0
 10
0.0
 20
0.0
 30
0.0
 70
   128
 71
    17
 72
    18
 73
     7
  0
VERTEX
  5
8D0
  8
0
 10
0.0
 20
0.0
 30
0.0
 70
   128
 71
    19
 72
    17
 73
     7
  0
VERTEX
  5
8D1
  8
0
 10
0.0
 20
0.0
 30
0.0
 70
   128
 71
    16
 72
     7
 73
    18
  0
VERTEX
  5
8D2
  8
0
 10
0.0
 20
0.0
 30
0.0
 70
   128
 71
    10
 72
    16
 73
    18
  0
VERTEX
  5
8D3
  8
0
 10
0.0
 20
0.0
 30
0.0
 70
   128
 71
    20
 72
    21
 73
    18
  0
VERTEX
  5
8D4
  8
0
 10
0.0
 20
0.0
 30
0.0
 70
   128
 71
    18
 72
    21
 73
    22
  0
VERTEX
  5
8D5
  8
0
 10
0.0
 20
0.0
 30
0.0
 70
   128
 71
    11
 72
    10
 73
    18
  0
VERTEX
  5
8D6
  8
0
 10
0.0
 20
0.0
 30
0.0
 70
   128
 71
    22
 72
    11
 73
    18
  0
SEQEND
  5
C97
  8
0
  0
POLYLINE
  5
8D7
  8
0
 66
     1
 10
0.0
 20
0.0
 30
0.0
 70
    64
 71
    14
 72
    12
  0
VERTEX
  5
8D8
  8
0
 10
32.48193025661427
 20
-1.034899496702502
 30
108.2218777594309
 70
   192
  0
VERTEX
  5
8D9
  8
0
 10
30.71904075592079
 20
-102.0
 30
105.1684635761002
 70
   192
  0
VERTEX
  5
8DA
  8
0
 10
75.1684635761002
 20
-102.0
 30
60.71904075592083
 70
   192
  0
VERTEX
  5
8DB
  8
0
 10
78.22187775943092
 20
-1.034899496702502
 30
62.48193025661415
 70
   192
  0
VERTEX
  5
8DC
  8
0
 10
78.22187775943088
 20
-1.034899496702502
 30
-62.48193025661424
 70
   192
  0
VERTEX
  5
8DD
  8
0
 10
75.16846357610022
 20
-102.0
 30
-60.71904075592077
 70
   192
  0
VERTEX
  5
8DE
  8
0
 10
30.71904075592086
 20
-102.0
 30
-105.1684635761002
 70
   192
  0
VERTEX
  5
8DF
  8
0
 10
32.48193025661418
 20
-1.034899496702502
 30
-108.2218777594309
 70
   192
  0
VERTEX
  5
8E0
  8
0
 10
-29.99999999999993
 20
-102.0
 30
-121.4380815118416
 70
   192
  0
VERTEX
  5
8E1
  8
0
 10
-30.0
 20
-1.034899496702506
 30
-124.9638605132285
 70
   192
  0
VERTEX
  5
8E2
  8
0
 10
94.9638605132284
 20
-1.034899496702502
 30
-0.0000000000000486
 70
   192
  0
VERTEX
  5
8E3
  8
0
 10
91.4380815118416
 20
-102.0
 30
0.0000000000000337
 70
   192
  0
VERTEX
  5
8E4
  8
0
 10
-29.99999999999991
 20
-1.034899496702502
 30
124.9638605132284
 70
   192
  0
VERTEX
  5
8E5
  8
0
 10
-30.0
 20
-102.0
 30
121.4380815118417
 70
   192
  0
VERTEX
  5
8E6
  8
0
 10
0.0
 20
0.0
 30
0.0
 70
   128
 71
     1
 72
     2
 73
    -3
  0
VERTEX
  5
8E7
  8
0
 10
0.0
 20
0.0
 30
0.0
 70
   128
 71
    -1
 72
     3
 73
     4
  0
VERTEX
  5
8E8
  8
0
 10
0.0
 20
0.0
 30
0.0
 70
   128
 71
     5
 72
     6
 73
    -7
  0
VERTEX
  5
8E9
  8
0
 10
0.0
 20
0.0
 30
0.0
 70
   128
 71
    -5
 72
     7
 73
     8
  0
VERTEX
  5
8EA
  8
0
 10
0.0
 20
0.0
 30
0.0
 70
   128
 71
     8
 72
     7
 73
    -9
  0
VERTEX
  5
8EB
  8
0
 10
0.0
 20
0.0
 30
0.0
 70
   128
 71
    -8
 72
     9
 73
    10
  0
VERTEX
  5
8EC
  8
0
 10
0.0
 20
0.0
 30
0.0
 70
   128
 71
    11
 72
    12
 73
    -6
  0
VERTEX
  5
8ED
  8
0
 10
0.0
 20
0.0
 30
0.0
 70
   128
 71
   -11
 72
     6
 73
     5
  0
VERTEX
  5
8EE
  8
0
 10
0.0
 20
0.0
 30
0.0
 70
   128
 71
     4
 72
     3
 73
   -12
  0
VERTEX
  5
8EF
  8
0
 10
0.0
 20
0.0
 30
0.0
 70
   128
 71
    -4
 72
    12
 73
    11
  0
VERTEX
  5
8F0
  8
0
 10
0.0
 20
0.0
 30
0.0
 70
   128
 71
    13
 72
    14
 73
    -2
  0
VERTEX
  5
8F1
  8
0
 10
0.0
 20
0.0
 30
0.0
 70
   128
 71
   -13
 72
     2
 73
     1
  0
SEQEND
  5
C98
  8
0
  0
POLYLINE
  5
8F2
  8
0
 66
     1
 10
0.0
 20
0.0
 30
0.0
 70
    64
 71
    30
 72
    31
  0
VERTEX
  5
8F3
  8
0
 10
9.101974109803411
 20
-60.89216012426572
 30
98.26909811911766
 70
   192
  0
VERTEX
  5
8F4
  8
0
 10
11.69017908069798
 20
-39.8446438260177
 30
103.3050513734664
 70
   192
  0
VERTEX
  5
8F5
  8
0
 10
44.61521957590716
 20
-40.39427242184145
 30
82.6157937095432
 70
   192
  0
VERTEX
  5
8F6
  8
0
 10
68.41903954268045
 20
-40.87456787036166
 30
51.87936704967703
 70
   192
  0
VERTEX
  5
8F7
  8
0
 10
3.014459274724342
 20
-74.85501622609134
 30
84.20115148594444
 70
   192
  0
VERTEX
  5
8F8
  8
0
 10
61.26567311156749
 20
-70.37903575463004
 30
39.13522912297417
 70
   192
  0
VERTEX
  5
8F9
  8
0
 10
28.28775939047877
 20
-79.4716029153186
 30
36.7577376243657
 70
   192
  0
VERTEX
  5
8FA
  8
0
 10
-0.0000209371150888
 20
-78.6498749498086
 30
62.0619242547257
 70
   192
  0
VERTEX
  5
8FB
  8
0
 10
-1.646420665084609
 20
-78.60807860187019
 30
62.83788029439867
 70
   192
  0
VERTEX
  5
8FC
  8
0
 10
-3.37084968511348
 20
-78.56484812368305
 30
63.59505915584406
 70
   192
  0
VERTEX
  5
8FD
  8
0
 10
-5.17550301229808
 20
-78.52018334677061
 30
64.3287246990804
 70
   192
  0
VERTEX
  5
8FE
  8
0
 10
79.1700761136774
 20
-41.13032285799208
 30
-21.25262117655412
 70
   192
  0
VERTEX
  5
8FF
  8
0
 10
61.74011824392242
 20
-70.38920234899709
 30
-38.00882760574564
 70
   192
  0
VERTEX
  5
900
  8
0
 10
79.93529857251512
 20
-41.14974241681682
 30
16.83456180200544
 70
   192
  0
VERTEX
  5
901
  8
0
 10
40.88664512798593
 20
-40.32684789537037
 30
-85.84866781215558
 70
   192
  0
VERTEX
  5
902
  8
0
 10
7.687962236275209
 20
-69.34146509084978
 30
-91.99255078834823
 70
   192
  0
VERTEX
  5
903
  8
0
 10
66.4444145496764
 20
-40.83056480264056
 30
-55.47636495439316
 70
   192
  0
VERTEX
  5
904
  8
0
 10
28.12925289962045
 20
-79.46627602618206
 30
-37.00693143855647
 70
   192
  0
VERTEX
  5
905
  8
0
 10
-0.0001124410298121
 20
-78.64985786127369
 30
-62.0622487398298
 70
   192
  0
VERTEX
  5
906
  8
0
 10
6.588721136343759
 20
-39.76769966738735
 30
-105.2315522633188
 70
   192
  0
VERTEX
  5
907
  8
0
 10
-29.99999999835935
 20
-39.26000281710555
 30
-111.4823682883972
 70
   192
  0
VERTEX
  5
908
  8
0
 10
-70.55188594728118
 20
-59.75088930552063
 30
-97.86480250571032
 70
   192
  0
VERTEX
  5
909
  8
0
 10
-45.03782021203894
 20
-39.06995514066449
 30
-110.4901527677791
 70
   192
  0
VERTEX
  5
90A
  8
0
 10
-59.21210363519381
 20
-38.89860325577153
 30
-107.6394881450379
 70
   192
  0
VERTEX
  5
90B
  8
0
 10
-72.32971912133189
 20
-38.74594693521185
 30
-103.2115613642436
 70
   192
  0
VERTEX
  5
90C
  8
0
 10
-65.01355303883943
 20
-73.71628244626088
 30
-83.61266789256591
 70
   192
  0
VERTEX
  5
90D
  8
0
 10
-56.9903098266898
 20
-77.42148645596481
 30
-63.73790357091951
 70
   192
  0
VERTEX
  5
90E
  8
0
 10
-38.48081986795835
 20
-77.7805175926672
 30
-68.59363959163473
 70
   192
  0
VERTEX
  5
90F
  8
0
 10
-18.31125026718277
 20
-78.21096670157985
 30
-68.0149954355124
 70
   192
  0
VERTEX
  5
910
  8
0
 10
39.00457570530565
 20
-79.85822897299744
 30
-0.212093079213465
 70
   192
  0
VERTEX
  5
911
  8
0
 10
0.0
 20
0.0
 30
0.0
 70
   128
 71
     1
 72
     2
 73
     3
  0
VERTEX
  5
912
  8
0
 10
0.0
 20
0.0
 30
0.0
 70
   128
 71
     3
 72
     4
 73
     1
  0
VERTEX
  5
913
  8
0
 10
0.0
 20
0.0
 30
0.0
 70
   128
 71
     5
 72
     6
 73
     7
  0
VERTEX
  5
914
  8
0
 10
0.0
 20
0.0
 30
0.0
 70
   128
 71
     7
 72
     8
 73
     5
  0
VERTEX
  5
915
  8
0
 10
0.0
 20
0.0
 30
0.0
 70
   128
 71
     8
 72
     9
 73
     5
  0
VERTEX
  5
916
  8
0
 10
0.0
 20
0.0
 30
0.0
 70
   128
 71
     9
 72
    10
 73
     5
  0
VERTEX
  5
917
  8
0
 10
0.0
 20
0.0
 30
0.0
 70
   128
 71
    10
 72
    11
 73
     5
  0
VERTEX
  5
918
  8
0
 10
0.0
 20
0.0
 30
0.0
 70
   128
 71
    12
 72
    13
 73
     6
  0
VERTEX
  5
919
  8
0
 10
0.0
 20
0.0
 30
0.0
 70
   128
 71
    14
 72
    12
 73
     6
  0
VERTEX
  5
91A
  8
0
 10
0.0
 20
0.0
 30
0.0
 70
   128
 71
    15
 72
    16
 73
    13
  0
VERTEX
  5
91B
  8
0
 10
0.0
 20
0.0
 30
0.0
 70
   128
 71
    17
 72
    15
 73
    13
  0
VERTEX
  5
91C
  8
0
 10
0.0
 20
0.0
 30
0.0
 70
   128
 71
    18
 72
    13
 73
    16
  0
VERTEX
  5
91D
  8
0
 10
0.0
 20
0.0
 30
0.0
 70
   128
 71
    19
 72
    18
 73
    16
  0
VERTEX
  5
91E
  8
0
 10
0.0
 20
0.0
 30
0.0
 70
   128
 71
    20
 72
    21
 73
    16
  0
VERTEX
  5
91F
  8
0
 10
0.0
 20
0.0
 30
0.0
 70
   128
 71
    22
 72
    21
 73
    23
  0
VERTEX
  5
920
  8
0
 10
0.0
 20
0.0
 30
0.0
 70
   128
 71
    23
 72
    24
 73
    22
  0
VERTEX
  5
921
  8
0
 10
0.0
 20
0.0
 30
0.0
 70
   128
 71
    24
 72
    25
 73
    22
  0
VERTEX
  5
922
  8
0
 10
0.0
 20
0.0
 30
0.0
 70
   128
 71
    26
 72
    27
 73
    28
  0
VERTEX
  5
923
  8
0
 10
0.0
 20
0.0
 30
0.0
 70
   128
 71
    28
 72
    29
 73
    26
  0
VERTEX
  5
924
  8
0
 10
0.0
 20
0.0
 30
0.0
 70
   128
 71
    13
 72
    12
 73
    17
  0
VERTEX
  5
925
  8
0
 10
0.0
 20
0.0
 30
0.0
 70
   128
 71
     1
 72
     4
 73
    14
  0
VERTEX
  5
926
  8
0
 10
0.0
 20
0.0
 30
0.0
 70
   128
 71
     6
 72
     1
 73
    14
  0
VERTEX
  5
927
  8
0
 10
0.0
 20
0.0
 30
0.0
 70
   128
 71
     1
 72
     6
 73
     5
  0
VERTEX
  5
928
  8
0
 10
0.0
 20
0.0
 30
0.0
 70
   128
 71
    16
 72
    21
 73
    22
  0
VERTEX
  5
929
  8
0
 10
0.0
 20
0.0
 30
0.0
 70
   128
 71
    22
 72
    26
 73
    16
  0
VERTEX
  5
92A
  8
0
 10
0.0
 20
0.0
 30
0.0
 70
   128
 71
     6
 72
    13
 73
    30
  0
VERTEX
  5
92B
  8
0
 10
0.0
 20
0.0
 30
0.0
 70
   128
 71
     7
 72
     6
 73
    30
  0
VERTEX
  5
92C
  8
0
 10
0.0
 20
0.0
 30
0.0
 70
   128
 71
    30
 72
    13
 73
    18
  0
VERTEX
  5
92D
  8
0
 10
0.0
 20
0.0
 30
0.0
 70
   128
 71
    16
 72
    15
 73
    20
  0
VERTEX
  5
92E
  8
0
 10
0.0
 20
0.0
 30
0.0
 70
   128
 71
    16
 72
    26
 73
    29
  0
VERTEX
  5
92F
  8
0
 10
0.0
 20
0.0
 30
0.0
 70
   128
 71
    19
 72
    16
 73
    29
  0
SEQEND
  5
C99
  8
0
  0
POLYLINE
  5
930
  8
0
 66
     1
 10
0.0
 20
0.0
 30
0.0
 70
    64
 71
    20
 72
    18
  0
VERTEX
  5
931
  8
0
 10
28.31852800361198
 20
-2.58248069711986
 30
101.0106535248844
 70
   192
  0
VERTEX
  5
932
  8
0
 10
11.69017908069798
 20
-39.8446438260177
 30
103.3050513734664
 70
   192
  0
VERTEX
  5
933
  8
0
 10
-2.835082227204387
 20
-39.62930555523554
 30
108.0685670928391
 70
   192
  0
VERTEX
  5
934
  8
0
 10
-30.0
 20
-2.582480697119854
 30
116.637056007224
 70
   192
  0
VERTEX
  5
935
  8
0
 10
-16.83343891755213
 20
-39.43442524395699
 30
110.6774361904068
 70
   192
  0
VERTEX
  5
936
  8
0
 10
-29.999994445042
 20
-39.26000296482295
 30
111.4823669399812
 70
   192
  0
VERTEX
  5
937
  8
0
 10
-30.0
 20
-39.26000289218207
 30
111.4823664231144
 70
   192
  0
VERTEX
  5
938
  8
0
 10
68.41903954268045
 20
-40.87456787036166
 30
51.87936704967703
 70
   192
  0
VERTEX
  5
939
  8
0
 10
71.01065352488435
 20
-2.58248069711986
 30
58.31852800361204
 70
   192
  0
VERTEX
  5
93A
  8
0
 10
86.637056007224
 20
-2.58248069711986
 30
0.0000000000000453
 70
   192
  0
VERTEX
  5
93B
  8
0
 10
79.93529857251512
 20
-41.14974241681682
 30
16.83456180200544
 70
   192
  0
VERTEX
  5
93C
  8
0
 10
79.1700761136774
 20
-41.13032285799208
 30
-21.25262117655412
 70
   192
  0
VERTEX
  5
93D
  8
0
 10
71.01065352488439
 20
-2.58248069711986
 30
-58.31852800361196
 70
   192
  0
VERTEX
  5
93E
  8
0
 10
66.4444145496764
 20
-40.83056480264056
 30
-55.47636495439316
 70
   192
  0
VERTEX
  5
93F
  8
0
 10
-30.0
 20
-2.582480697119854
 30
-116.637056007224
 70
   192
  0
VERTEX
  5
940
  8
0
 10
-30.0
 20
-39.26000256148891
 30
-111.4823664695903
 70
   192
  0
VERTEX
  5
941
  8
0
 10
6.588721136343759
 20
-39.76769966738735
 30
-105.2315522633188
 70
   192
  0
VERTEX
  5
942
  8
0
 10
28.31852800361207
 20
-2.58248069711986
 30
-101.0106535248843
 70
   192
  0
VERTEX
  5
943
  8
0
 10
40.88664512798593
 20
-40.32684789537037
 30
-85.84866781215558
 70
   192
  0
VERTEX
  5
944
  8
0
 10
44.61521957590716
 20
-40.39427242184145
 30
82.6157937095432
 70
   192
  0
VERTEX
  5
945
  8
0
 10
0.0
 20
0.0
 30
0.0
 70
   128
 71
     1
 72
     2
 73
     3
  0
VERTEX
  5
946
  8
0
 10
0.0
 20
0.0
 30
0.0
 70
   128
 71
     4
 72
     1
 73
     3
  0
VERTEX
  5
947
  8
0
 10
0.0
 20
0.0
 30
0.0
 70
   128
 71
     3
 72
     5
 73
     4
  0
VERTEX
  5
948
  8
0
 10
0.0
 20
0.0
 30
0.0
 70
   128
 71
     5
 72
     6
 73
     4
  0
VERTEX
  5
949
  8
0
 10
0.0
 20
0.0
 30
0.0
 70
   128
 71
     6
 72
     7
 73
     4
  0
VERTEX
  5
94A
  8
0
 10
0.0
 20
0.0
 30
0.0
 70
   128
 71
     8
 72
     9
 73
    10
  0
VERTEX
  5
94B
  8
0
 10
0.0
 20
0.0
 30
0.0
 70
   128
 71
    11
 72
     8
 73
    10
  0
VERTEX
  5
94C
  8
0
 10
0.0
 20
0.0
 30
0.0
 70
   128
 71
    12
 72
    10
 73
    13
  0
VERTEX
  5
94D
  8
0
 10
0.0
 20
0.0
 30
0.0
 70
   128
 71
    14
 72
    12
 73
    13
  0
VERTEX
  5
94E
  8
0
 10
0.0
 20
0.0
 30
0.0
 70
   128
 71
    15
 72
    16
 73
    17
  0
VERTEX
  5
94F
  8
0
 10
0.0
 20
0.0
 30
0.0
 70
   128
 71
    18
 72
    15
 73
    17
  0
VERTEX
  5
950
  8
0
 10
0.0
 20
0.0
 30
0.0
 70
   128
 71
    18
 72
    17
 73
    19
  0
VERTEX
  5
951
  8
0
 10
0.0
 20
0.0
 30
0.0
 70
   128
 71
     1
 72
     9
 73
    20
  0
VERTEX
  5
952
  8
0
 10
0.0
 20
0.0
 30
0.0
 70
   128
 71
    20
 72
     2
 73
     1
  0
VERTEX
  5
953
  8
0
 10
0.0
 20
0.0
 30
0.0
 70
   128
 71
    14
 72
    13
 73
    18
  0
VERTEX
  5
954
  8
0
 10
0.0
 20
0.0
 30
0.0
 70
   128
 71
     9
 72
     8
 73
    20
  0
VERTEX
  5
955
  8
0
 10
0.0
 20
0.0
 30
0.0
 70
   128
 71
    10
 72
    12
 73
    11
  0
VERTEX
  5
956
  8
0
 10
0.0
 20
0.0
 30
0.0
 70
   128
 71
    18
 72
    19
 73
    14
  0
SEQEND
  5
C9A
  8
0
  0
POLYLINE
  5
957
  8
0
 66
     1
 10
0.0
 20
0.0
 30
0.0
 70
    64
 71
    10
 72
     8
  0
VERTEX
  5
958
  8
0
 10
0.0
 20
-79.9124431699972
 30
37.97068384122711
 70
   192
  0
VERTEX
  5
959
  8
0
 10
0.0
 20
-78.64987476027265
 30
62.06192424479255
 70
   192
  0
VERTEX
  5
95A
  8
0
 10
28.28775939047877
 20
-79.4716029153186
 30
36.7577376243657
 70
   192
  0
VERTEX
  5
95B
  8
0
 10
26.84932803042215
 20
-79.9124431699972
 30
26.84932803042215
 70
   192
  0
VERTEX
  5
95C
  8
0
 10
0.0000000000000076
 20
-78.64985775450162
 30
-62.06224873423412
 70
   192
  0
VERTEX
  5
95D
  8
0
 10
0.0000000000000047
 20
-79.91244316999723
 30
-37.9706838412271
 70
   192
  0
VERTEX
  5
95E
  8
0
 10
26.84932803042215
 20
-79.9124431699972
 30
-26.84932803042215
 70
   192
  0
VERTEX
  5
95F
  8
0
 10
28.12925289962045
 20
-79.46627602618206
 30
-37.00693143855647
 70
   192
  0
VERTEX
  5
960
  8
0
 10
37.97068384122711
 20
-79.9124431699972
 30
0.0
 70
   192
  0
VERTEX
  5
961
  8
0
 10
39.00457570530565
 20
-79.85822897299744
 30
-0.212093079213465
 70
   192
  0
VERTEX
  5
962
  8
0
 10
0.0
 20
0.0
 30
0.0
 70
   128
 71
     1
 72
     2
 73
     3
  0
VERTEX
  5
963
  8
0
 10
0.0
 20
0.0
 30
0.0
 70
   128
 71
     4
 72
     1
 73
     3
  0
VERTEX
  5
964
  8
0
 10
0.0
 20
0.0
 30
0.0
 70
   128
 71
     5
 72
     6
 73
     7
  0
VERTEX
  5
965
  8
0
 10
0.0
 20
0.0
 30
0.0
 70
   128
 71
     8
 72
     5
 73
     7
  0
VERTEX
  5
966
  8
0
 10
0.0
 20
0.0
 30
0.0
 70
   128
 71
     9
 72
     4
 73
     3
  0
VERTEX
  5
967
  8
0
 10
0.0
 20
0.0
 30
0.0
 70
   128
 71
    10
 72
     9
 73
     3
  0
VERTEX
  5
968
  8
0
 10
0.0
 20
0.0
 30
0.0
 70
   128
 71
     7
 72
     9
 73
    10
  0
VERTEX
  5
969
  8
0
 10
0.0
 20
0.0
 30
0.0
 70
   128
 71
     8
 72
     7
 73
    10
  0
SEQEND
  5
C9B
  8
0
  0
POLYLINE
  5
96A
  8
0
 66
     1
 10
0.0
 20
0.0
 30
0.0
 70
    64
 71
    24
 72
    24
  0
VERTEX
  5
96B
  8
0
 10
-30.0
 20
0.0
 30
123.9644696862094
 70
   192
  0
VERTEX
  5
96C
  8
0
 10
31.98223484310469
 20
0.0
 30
107.3563799149233
 70
   192
  0
VERTEX
  5
96D
  8
0
 10
77.3563799149233
 20
0.0
 30
61.98223484310473
 70
   192
  0
VERTEX
  5
96E
  8
0
 10
93.9644696862094
 20
0.0
 30
0.0000000000000344
 70
   192
  0
VERTEX
  5
96F
  8
0
 10
77.35637991492332
 20
0.0
 30
-61.98223484310466
 70
   192
  0
VERTEX
  5
970
  8
0
 10
31.98223484310476
 20
0.0
 30
-107.3563799149233
 70
   192
  0
VERTEX
  5
971
  8
0
 10
-29.99999999999993
 20
0.0
 30
-123.9644696862094
 70
   192
  0
VERTEX
  5
972
  8
0
 10
-91.98223484310468
 20
0.0
 30
-107.3563799149233
 70
   192
  0
VERTEX
  5
973
  8
0
 10
-137.3563799149233
 20
0.0
 30
-61.98223484310474
 70
   192
  0
VERTEX
  5
974
  8
0
 10
-153.9644696862094
 20
0.0
 30
-0.0000000000000482
 70
   192
  0
VERTEX
  5
975
  8
0
 10
-137.3563799149233
 20
0.0
 30
61.98223484310465
 70
   192
  0
VERTEX
  5
976
  8
0
 10
-91.98223484310478
 20
0.0
 30
107.3563799149233
 70
   192
  0
VERTEX
  5
977
  8
0
 10
-30.0
 20
0.0
 30
119.6078602134486
 70
   192
  0
VERTEX
  5
978
  8
0
 10
-89.8039301067243
 20
0.0
 30
103.5834454371445
 70
   192
  0
VERTEX
  5
979
  8
0
 10
-133.5834454371445
 20
0.0
 30
59.80393010672433
 70
   192
  0
VERTEX
  5
97A
  8
0
 10
-149.6078602134486
 20
0.0
 30
0.0000000000000332
 70
   192
  0
VERTEX
  5
97B
  8
0
 10
-133.5834454371445
 20
0.0
 30
-59.80393010672427
 70
   192
  0
VERTEX
  5
97C
  8
0
 10
-89.80393010672435
 20
0.0
 30
-103.5834454371445
 70
   192
  0
VERTEX
  5
97D
  8
0
 10
-30.00000000000007
 20
0.0
 30
-119.6078602134486
 70
   192
  0
VERTEX
  5
97E
  8
0
 10
29.80393010672428
 20
0.0
 30
-103.5834454371445
 70
   192
  0
VERTEX
  5
97F
  8
0
 10
73.58344543714452
 20
0.0
 30
-59.80393010672434
 70
   192
  0
VERTEX
  5
980
  8
0
 10
89.6078602134486
 20
0.0
 30
-0.0000000000000465
 70
   192
  0
VERTEX
  5
981
  8
0
 10
73.58344543714455
 20
0.0
 30
59.80393010672425
 70
   192
  0
VERTEX
  5
982
  8
0
 10
29.80393010672437
 20
0.0
 30
103.5834454371445
 70
   192
  0
VERTEX
  5
983
  8
0
 10
0.0
 20
0.0
 30
0.0
 70
   128
 71
    -1
 72
    13
 73
   -14
  0
VERTEX
  5
984
  8
0
 10
0.0
 20
0.0
 30
0.0
 70
   128
 71
    12
 72
    -1
 73
   -14
  0
VERTEX
  5
985
  8
0
 10
0.0
 20
0.0
 30
0.0
 70
   128
 71
   -15
 72
    11
 73
   -12
  0
VERTEX
  5
986
  8
0
 10
0.0
 20
0.0
 30
0.0
 70
   128
 71
    14
 72
   -15
 73
   -12
  0
VERTEX
  5
987
  8
0
 10
0.0
 20
0.0
 30
0.0
 70
   128
 71
   -16
 72
    10
 73
   -11
  0
VERTEX
  5
988
  8
0
 10
0.0
 20
0.0
 30
0.0
 70
   128
 71
    15
 72
   -16
 73
   -11
  0
VERTEX
  5
989
  8
0
 10
0.0
 20
0.0
 30
0.0
 70
   128
 71
   -17
 72
     9
 73
   -10
  0
VERTEX
  5
98A
  8
0
 10
0.0
 20
0.0
 30
0.0
 70
   128
 71
    16
 72
   -17
 73
   -10
  0
VERTEX
  5
98B
  8
0
 10
0.0
 20
0.0
 30
0.0
 70
   128
 71
   -18
 72
     8
 73
    -9
  0
VERTEX
  5
98C
  8
0
 10
0.0
 20
0.0
 30
0.0
 70
   128
 71
    17
 72
   -18
 73
    -9
  0
VERTEX
  5
98D
  8
0
 10
0.0
 20
0.0
 30
0.0
 70
   128
 71
   -19
 72
     7
 73
    -8
  0
VERTEX
  5
98E
  8
0
 10
0.0
 20
0.0
 30
0.0
 70
   128
 71
    18
 72
   -19
 73
    -8
  0
VERTEX
  5
98F
  8
0
 10
0.0
 20
0.0
 30
0.0
 70
   128
 71
   -20
 72
     6
 73
    -7
  0
VERTEX
  5
990
  8
0
 10
0.0
 20
0.0
 30
0.0
 70
   128
 71
    19
 72
   -20
 73
    -7
  0
VERTEX
  5
991
  8
0
 10
0.0
 20
0.0
 30
0.0
 70
   128
 71
   -21
 72
     5
 73
    -6
  0
VERTEX
  5
992
  8
0
 10
0.0
 20
0.0
 30
0.0
 70
   128
 71
    20
 72
   -21
 73
    -6
  0
VERTEX
  5
993
  8
0
 10
0.0
 20
0.0
 30
0.0
 70
   128
 71
   -22
 72
     4
 73
    -5
  0
VERTEX
  5
994
  8
0
 10
0.0
 20
0.0
 30
0.0
 70
   128
 71
    21
 72
   -22
 73
    -5
  0
VERTEX
  5
995
  8
0
 10
0.0
 20
0.0
 30
0.0
 70
   128
 71
   -23
 72
     3
 73
    -4
  0
VERTEX
  5
996
  8
0
 10
0.0
 20
0.0
 30
0.0
 70
   128
 71
    22
 72
   -23
 73
    -4
  0
VERTEX
  5
997
  8
0
 10
0.0
 20
0.0
 30
0.0
 70
   128
 71
   -24
 72
     2
 73
    -3
  0
VERTEX
  5
998
  8
0
 10
0.0
 20
0.0
 30
0.0
 70
   128
 71
    23
 72
   -24
 73
    -3
  0
VERTEX
  5
999
  8
0
 10
0.0
 20
0.0
 30
0.0
 70
   128
 71
   -13
 72
     1
 73
    -2
  0
VERTEX
  5
99A
  8
0
 10
0.0
 20
0.0
 30
0.0
 70
   128
 71
    24
 72
   -13
 73
    -2
  0
SEQEND
  5
C9C
  8
0
  0
POLYLINE
  5
99B
  8
0
 66
     1
 10
0.0
 20
0.0
 30
0.0
 70
    64
 71
    14
 72
    12
  0
VERTEX
  5
99C
  8
0
 10
-92.48193025661425
 20
-1.034899496702502
 30
-108.2218777594309
 70
   192
  0
VERTEX
  5
99D
  8
0
 10
-90.71904075592079
 20
-102.0
 30
-105.1684635761002
 70
   192
  0
VERTEX
  5
99E
  8
0
 10
-135.1684635761002
 20
-102.0
 30
-60.71904075592084
 70
   192
  0
VERTEX
  5
99F
  8
0
 10
-138.2218777594309
 20
-1.034899496702502
 30
-62.48193025661416
 70
   192
  0
VERTEX
  5
9A0
  8
0
 10
-138.2218777594309
 20
-1.034899496702502
 30
62.48193025661423
 70
   192
  0
VERTEX
  5
9A1
  8
0
 10
-135.1684635761002
 20
-102.0
 30
60.71904075592075
 70
   192
  0
VERTEX
  5
9A2
  8
0
 10
-90.71904075592087
 20
-102.0
 30
105.1684635761002
 70
   192
  0
VERTEX
  5
9A3
  8
0
 10
-92.48193025661419
 20
-1.034899496702502
 30
108.2218777594309
 70
   192
  0
VERTEX
  5
9A4
  8
0
 10
-30.00000000000009
 20
-102.0
 30
121.4380815118416
 70
   192
  0
VERTEX
  5
9A5
  8
0
 10
-30.0
 20
-1.034899496702506
 30
124.9638605132285
 70
   192
  0
VERTEX
  5
9A6
  8
0
 10
-154.9638605132284
 20
-1.034899496702502
 30
0.0000000000000347
 70
   192
  0
VERTEX
  5
9A7
  8
0
 10
-151.4380815118416
 20
-102.0
 30
-0.0000000000000472
 70
   192
  0
VERTEX
  5
9A8
  8
0
 10
-30.00000000000007
 20
-1.034899496702502
 30
-124.9638605132284
 70
   192
  0
VERTEX
  5
9A9
  8
0
 10
-30.0
 20
-102.0
 30
-121.4380815118417
 70
   192
  0
VERTEX
  5
9AA
  8
0
 10
0.0
 20
0.0
 30
0.0
 70
   128
 71
     1
 72
     2
 73
    -3
  0
VERTEX
  5
9AB
  8
0
 10
0.0
 20
0.0
 30
0.0
 70
   128
 71
    -1
 72
     3
 73
     4
  0
VERTEX
  5
9AC
  8
0
 10
0.0
 20
0.0
 30
0.0
 70
   128
 71
     5
 72
     6
 73
    -7
  0
VERTEX
  5
9AD
  8
0
 10
0.0
 20
0.0
 30
0.0
 70
   128
 71
    -5
 72
     7
 73
     8
  0
VERTEX
  5
9AE
  8
0
 10
0.0
 20
0.0
 30
0.0
 70
   128
 71
     8
 72
     7
 73
    -9
  0
VERTEX
  5
9AF
  8
0
 10
0.0
 20
0.0
 30
0.0
 70
   128
 71
    -8
 72
     9
 73
    10
  0
VERTEX
  5
9B0
  8
0
 10
0.0
 20
0.0
 30
0.0
 70
   128
 71
    11
 72
    12
 73
    -6
  0
VERTEX
  5
9B1
  8
0
 10
0.0
 20
0.0
 30
0.0
 70
   128
 71
   -11
 72
     6
 73
     5
  0
VERTEX
  5
9B2
  8
0
 10
0.0
 20
0.0
 30
0.0
 70
   128
 71
     4
 72
     3
 73
   -12
  0
VERTEX
  5
9B3
  8
0
 10
0.0
 20
0.0
 30
0.0
 70
   128
 71
    -4
 72
    12
 73
    11
  0
VERTEX
  5
9B4
  8
0
 10
0.0
 20
0.0
 30
0.0
 70
   128
 71
    13
 72
    14
 73
    -2
  0
VERTEX
  5
9B5
  8
0
 10
0.0
 20
0.0
 30
0.0
 70
   128
 71
   -13
 72
     2
 73
     1
  0
SEQEND
  5
C9D
  8
0
  0
POLYLINE
  5
9B6
  8
0
 66
     1
 10
0.0
 20
0.0
 30
0.0
 70
    64
 71
    24
 72
    24
  0
VERTEX
  5
9B7
  8
0
 10
-29.99999999999999
 20
-102.0
 30
-121.4380815118416
 70
   192
  0
VERTEX
  5
9B8
  8
0
 10
-90.71904075592079
 20
-102.0
 30
-105.1684635761002
 70
   192
  0
VERTEX
  5
9B9
  8
0
 10
-135.1684635761002
 20
-102.0
 30
-60.71904075592084
 70
   192
  0
VERTEX
  5
9BA
  8
0
 10
-151.4380815118416
 20
-102.0
 30
-0.0000000000000472
 70
   192
  0
VERTEX
  5
9BB
  8
0
 10
-135.1684635761002
 20
-102.0
 30
60.71904075592075
 70
   192
  0
VERTEX
  5
9BC
  8
0
 10
-90.71904075592087
 20
-102.0
 30
105.1684635761002
 70
   192
  0
VERTEX
  5
9BD
  8
0
 10
-30.0
 20
-102.0
 30
121.4380815118416
 70
   192
  0
VERTEX
  5
9BE
  8
0
 10
30.71904075592079
 20
-102.0
 30
105.1684635761002
 70
   192
  0
VERTEX
  5
9BF
  8
0
 10
75.1684635761002
 20
-102.0
 30
60.71904075592083
 70
   192
  0
VERTEX
  5
9C0
  8
0
 10
91.4380815118416
 20
-102.0
 30
0.0000000000000337
 70
   192
  0
VERTEX
  5
9C1
  8
0
 10
75.16846357610022
 20
-102.0
 30
-60.71904075592077
 70
   192
  0
VERTEX
  5
9C2
  8
0
 10
30.71904075592086
 20
-102.0
 30
-105.1684635761002
 70
   192
  0
VERTEX
  5
9C3
  8
0
 10
-30.00000000000008
 20
-102.0
 30
108.430157435957
 70
   192
  0
VERTEX
  5
9C4
  8
0
 10
-84.21507871797856
 20
-102.0
 30
93.90327087588489
 70
   192
  0
VERTEX
  5
9C5
  8
0
 10
-123.9032708758849
 20
-102.0
 30
54.21507871797846
 70
   192
  0
VERTEX
  5
9C6
  8
0
 10
-138.430157435957
 20
-102.0
 30
-0.0000000000000421
 70
   192
  0
VERTEX
  5
9C7
  8
0
 10
-123.9032708758849
 20
-102.0
 30
-54.21507871797854
 70
   192
  0
VERTEX
  5
9C8
  8
0
 10
-84.21507871797849
 20
-102.0
 30
-93.90327087588493
 70
   192
  0
VERTEX
  5
9C9
  8
0
 10
-29.99999999999994
 20
-102.0
 30
-108.430157435957
 70
   192
  0
VERTEX
  5
9CA
  8
0
 10
24.21507871797855
 20
-102.0
 30
-93.9032708758849
 70
   192
  0
VERTEX
  5
9CB
  8
0
 10
63.90327087588493
 20
-102.0
 30
-54.21507871797847
 70
   192
  0
VERTEX
  5
9CC
  8
0
 10
78.430157435957
 20
-102.0
 30
0.0000000000000301
 70
   192
  0
VERTEX
  5
9CD
  8
0
 10
63.90327087588491
 20
-102.0
 30
54.21507871797852
 70
   192
  0
VERTEX
  5
9CE
  8
0
 10
24.21507871797849
 20
-102.0
 30
93.90327087588491
 70
   192
  0
VERTEX
  5
9CF
  8
0
 10
0.0
 20
0.0
 30
0.0
 70
   128
 71
    14
 72
   -13
 73
    -7
  0
VERTEX
  5
9D0
  8
0
 10
0.0
 20
0.0
 30
0.0
 70
   128
 71
   -14
 72
     7
 73
    -6
  0
VERTEX
  5
9D1
  8
0
 10
0.0
 20
0.0
 30
0.0
 70
   128
 71
     6
 72
    -5
 73
   -15
  0
VERTEX
  5
9D2
  8
0
 10
0.0
 20
0.0
 30
0.0
 70
   128
 71
    -6
 72
    15
 73
   -14
  0
VERTEX
  5
9D3
  8
0
 10
0.0
 20
0.0
 30
0.0
 70
   128
 71
     5
 72
    -4
 73
   -16
  0
VERTEX
  5
9D4
  8
0
 10
0.0
 20
0.0
 30
0.0
 70
   128
 71
    -5
 72
    16
 73
   -15
  0
VERTEX
  5
9D5
  8
0
 10
0.0
 20
0.0
 30
0.0
 70
   128
 71
     4
 72
    -3
 73
   -17
  0
VERTEX
  5
9D6
  8
0
 10
0.0
 20
0.0
 30
0.0
 70
   128
 71
    -4
 72
    17
 73
   -16
  0
VERTEX
  5
9D7
  8
0
 10
0.0
 20
0.0
 30
0.0
 70
   128
 71
     3
 72
    -2
 73
   -18
  0
VERTEX
  5
9D8
  8
0
 10
0.0
 20
0.0
 30
0.0
 70
   128
 71
    -3
 72
    18
 73
   -17
  0
VERTEX
  5
9D9
  8
0
 10
0.0
 20
0.0
 30
0.0
 70
   128
 71
     2
 72
    -1
 73
   -19
  0
VERTEX
  5
9DA
  8
0
 10
0.0
 20
0.0
 30
0.0
 70
   128
 71
    -2
 72
    19
 73
   -18
  0
VERTEX
  5
9DB
  8
0
 10
0.0
 20
0.0
 30
0.0
 70
   128
 71
     1
 72
   -12
 73
   -20
  0
VERTEX
  5
9DC
  8
0
 10
0.0
 20
0.0
 30
0.0
 70
   128
 71
    -1
 72
    20
 73
   -19
  0
VERTEX
  5
9DD
  8
0
 10
0.0
 20
0.0
 30
0.0
 70
   128
 71
    12
 72
   -11
 73
   -21
  0
VERTEX
  5
9DE
  8
0
 10
0.0
 20
0.0
 30
0.0
 70
   128
 71
   -12
 72
    21
 73
   -20
  0
VERTEX
  5
9DF
  8
0
 10
0.0
 20
0.0
 30
0.0
 70
   128
 71
    11
 72
   -10
 73
   -22
  0
VERTEX
  5
9E0
  8
0
 10
0.0
 20
0.0
 30
0.0
 70
   128
 71
   -11
 72
    22
 73
   -21
  0
VERTEX
  5
9E1
  8
0
 10
0.0
 20
0.0
 30
0.0
 70
   128
 71
    10
 72
    -9
 73
   -23
  0
VERTEX
  5
9E2
  8
0
 10
0.0
 20
0.0
 30
0.0
 70
   128
 71
   -10
 72
    23
 73
   -22
  0
VERTEX
  5
9E3
  8
0
 10
0.0
 20
0.0
 30
0.0
 70
   128
 71
     9
 72
    -8
 73
   -24
  0
VERTEX
  5
9E4
  8
0
 10
0.0
 20
0.0
 30
0.0
 70
   128
 71
    -9
 72
    24
 73
   -23
  0
VERTEX
  5
9E5
  8
0
 10
0.0
 20
0.0
 30
0.0
 70
   128
 71
     8
 72
    -7
 73
   -13
  0
VERTEX
  5
9E6
  8
0
 10
0.0
 20
0.0
 30
0.0
 70
   128
 71
    -8
 72
    13
 73
   -24
  0
SEQEND
  5
C9E
  8
0
  0
POLYLINE
  5
9E7
  8
0
 66
     1
 10
0.0
 20
0.0
 30
0.0
 70
    64
 71
    13
 72
    11
  0
VERTEX
  5
9E8
  8
0
 10
-63.34153269954215
 20
-88.71966888183437
 30
-78.84460633950536
 70
   192
  0
VERTEX
  5
9E9
  8
0
 10
-66.58678788360291
 20
-86.24182363801171
 30
-86.9221569554747
 70
   192
  0
VERTEX
  5
9EA
  8
0
 10
-29.02160913911883
 20
-86.76058046345857
 30
-94.32901990395675
 70
   192
  0
VERTEX
  5
9EB
  8
0
 10
39.38098495647111
 20
-87.92685032412352
 30
-63.9970327034524
 70
   192
  0
VERTEX
  5
9EC
  8
0
 10
41.00032539174238
 20
-89.81290240355747
 30
-53.59204378035215
 70
   192
  0
VERTEX
  5
9ED
  8
0
 10
15.291285790264
 20
-91.00086532072444
 30
-66.60734036390784
 70
   192
  0
VERTEX
  5
9EE
  8
0
 10
8.295881475127198
 20
-87.3495305251386
 30
-86.24232923830421
 70
   192
  0
VERTEX
  5
9EF
  8
0
 10
59.0793073098306
 20
-88.3577524870902
 30
-31.26626109185695
 70
   192
  0
VERTEX
  5
9F0
  8
0
 10
-13.5315610070201
 20
-91.3057444490695
 30
-67.62827204033469
 70
   192
  0
VERTEX
  5
9F1
  8
0
 10
-28.29658582466545
 20
-90.97964860067215
 30
-69.66344932442213
 70
   192
  0
VERTEX
  5
9F2
  8
0
 10
-60.22531610761928
 20
-89.92117675492585
 30
-71.12820259152846
 70
   192
  0
VERTEX
  5
9F3
  8
0
 10
-43.18661267031208
 20
-90.67571774519466
 30
-68.5154215867948
 70
   192
  0
VERTEX
  5
9F4
  8
0
 10
-57.4438058829268
 20
-90.40367040739089
 30
-64.2450930604696
 70
   192
  0
VERTEX
  5
9F5
  8
0
 10
0.0
 20
0.0
 30
0.0
 70
   128
 71
     1
 72
     2
 73
     3
  0
VERTEX
  5
9F6
  8
0
 10
0.0
 20
0.0
 30
0.0
 70
   128
 71
     4
 72
     5
 73
     6
  0
VERTEX
  5
9F7
  8
0
 10
0.0
 20
0.0
 30
0.0
 70
   128
 71
     7
 72
     4
 73
     6
  0
VERTEX
  5
9F8
  8
0
 10
0.0
 20
0.0
 30
0.0
 70
   128
 71
     4
 72
     8
 73
     5
  0
VERTEX
  5
9F9
  8
0
 10
0.0
 20
0.0
 30
0.0
 70
   128
 71
     6
 72
     9
 73
    10
  0
VERTEX
  5
9FA
  8
0
 10
0.0
 20
0.0
 30
0.0
 70
   128
 71
    11
 72
     6
 73
    10
  0
VERTEX
  5
9FB
  8
0
 10
0.0
 20
0.0
 30
0.0
 70
   128
 71
    10
 72
    12
 73
    11
  0
VERTEX
  5
9FC
  8
0
 10
0.0
 20
0.0
 30
0.0
 70
   128
 71
    12
 72
    13
 73
    11
  0
VERTEX
  5
9FD
  8
0
 10
0.0
 20
0.0
 30
0.0
 70
   128
 71
     3
 72
     7
 73
     6
  0
VERTEX
  5
9FE
  8
0
 10
0.0
 20
0.0
 30
0.0
 70
   128
 71
     1
 72
     3
 73
     6
  0
VERTEX
  5
9FF
  8
0
 10
0.0
 20
0.0
 30
0.0
 70
   128
 71
    11
 72
     1
 73
     6
  0
SEQEND
  5
C9F
  8
0
  0
POLYLINE
  5
A00
  8
0
 66
     1
 10
0.0
 20
0.0
 30
0.0
 70
    64
 71
    16
 72
    14
  0
VERTEX
  5
A01
  8
0
 10
-28.29658582466545
 20
-90.97964860067215
 30
-69.66344932442213
 70
   192
  0
VERTEX
  5
A02
  8
0
 10
-13.5315610070201
 20
-91.3057444490695
 30
-67.62827204033469
 70
   192
  0
VERTEX
  5
A03
  8
0
 10
-13.53156086702109
 20
-91.3057447143477
 30
-67.62827134064533
 70
   192
  0
VERTEX
  5
A04
  8
0
 10
-53.33827446783319
 20
-91.3057447143477
 30
-43.72315977620944
 70
   192
  0
VERTEX
  5
A05
  8
0
 10
-43.18661267031208
 20
-90.67571774519466
 30
-68.5154215867948
 70
   192
  0
VERTEX
  5
A06
  8
0
 10
-57.4438058829268
 20
-90.40367040739089
 30
-64.2450930604696
 70
   192
  0
VERTEX
  5
A07
  8
0
 10
-93.92244738806102
 20
-89.77247561778603
 30
-28.75375178144798
 70
   192
  0
VERTEX
  5
A08
  8
0
 10
-68.96873366983608
 20
-91.3057447143477
 30
0.000032601975031
 70
   192
  0
VERTEX
  5
A09
  8
0
 10
-84.01233780786839
 20
-89.93603833563466
 30
44.57300657067557
 70
   192
  0
VERTEX
  5
A0A
  8
0
 10
-53.33823313135768
 20
-91.3057447143477
 30
43.72321020289777
 70
   192
  0
VERTEX
  5
A0B
  8
0
 10
-13.53149693035575
 20
-91.3057447143477
 30
67.62828413353112
 70
   192
  0
VERTEX
  5
A0C
  8
0
 10
-39.43576702921341
 20
-90.75021542884005
 30
69.10878974321363
 70
   192
  0
VERTEX
  5
A0D
  8
0
 10
-79.07909099146566
 20
-90.01949659770607
 30
-49.90948740373887
 70
   192
  0
VERTEX
  5
A0E
  8
0
 10
-100.0354445736111
 20
-89.67413008918417
 30
-3.645000637160261
 70
   192
  0
VERTEX
  5
A0F
  8
0
 10
-96.5771332545054
 20
-89.72953766202576
 30
21.97023914450389
 70
   192
  0
VERTEX
  5
A10
  8
0
 10
-64.05140470951264
 20
-90.28297080091852
 30
61.04842883068763
 70
   192
  0
VERTEX
  5
A11
  8
0
 10
0.0
 20
0.0
 30
0.0
 70
   128
 71
     1
 72
     2
 73
     3
  0
VERTEX
  5
A12
  8
0
 10
0.0
 20
0.0
 30
0.0
 70
   128
 71
     1
 72
     3
 73
     4
  0
VERTEX
  5
A13
  8
0
 10
0.0
 20
0.0
 30
0.0
 70
   128
 71
     4
 72
     5
 73
     1
  0
VERTEX
  5
A14
  8
0
 10
0.0
 20
0.0
 30
0.0
 70
   128
 71
     4
 72
     6
 73
     5
  0
VERTEX
  5
A15
  8
0
 10
0.0
 20
0.0
 30
0.0
 70
   128
 71
     7
 72
     4
 73
     8
  0
VERTEX
  5
A16
  8
0
 10
0.0
 20
0.0
 30
0.0
 70
   128
 71
     9
 72
     8
 73
    10
  0
VERTEX
  5
A17
  8
0
 10
0.0
 20
0.0
 30
0.0
 70
   128
 71
    10
 72
    11
 73
    12
  0
VERTEX
  5
A18
  8
0
 10
0.0
 20
0.0
 30
0.0
 70
   128
 71
     6
 72
     4
 73
     7
  0
VERTEX
  5
A19
  8
0
 10
0.0
 20
0.0
 30
0.0
 70
   128
 71
     6
 72
     7
 73
    13
  0
VERTEX
  5
A1A
  8
0
 10
0.0
 20
0.0
 30
0.0
 70
   128
 71
    14
 72
     7
 73
     8
  0
VERTEX
  5
A1B
  8
0
 10
0.0
 20
0.0
 30
0.0
 70
   128
 71
    14
 72
     8
 73
     9
  0
VERTEX
  5
A1C
  8
0
 10
0.0
 20
0.0
 30
0.0
 70
   128
 71
    14
 72
     9
 73
    15
  0
VERTEX
  5
A1D
  8
0
 10
0.0
 20
0.0
 30
0.0
 70
   128
 71
     9
 72
    10
 73
    12
  0
VERTEX
  5
A1E
  8
0
 10
0.0
 20
0.0
 30
0.0
 70
   128
 71
     9
 72
    12
 73
    16
  0
SEQEND
  5
CA0
  8
0
  0
POLYLINE
  5
A1F
  8
0
 66
     1
 10
0.0
 20
0.0
 30
0.0
 70
    64
 71
    16
 72
    14
  0
VERTEX
  5
A20
  8
0
 10
-30.0000000000225
 20
-95.2272876172611
 30
107.8376218811456
 70
   192
  0
VERTEX
  5
A21
  8
0
 10
-30.0
 20
-102.0
 30
108.430157435957
 70
   192
  0
VERTEX
  5
A22
  8
0
 10
-84.21507871797856
 20
-102.0
 30
93.90327087588489
 70
   192
  0
VERTEX
  5
A23
  8
0
 10
-73.36084371280671
 20
-94.71362726272105
 30
98.68687661744531
 70
   192
  0
VERTEX
  5
A24
  8
0
 10
-129.7064767159952
 20
-94.11758017789762
 30
40.82451954374667
 70
   192
  0
VERTEX
  5
A25
  8
0
 10
-123.9032708758849
 20
-102.0
 30
54.21507871797846
 70
   192
  0
VERTEX
  5
A26
  8
0
 10
-138.430157435957
 20
-102.0
 30
-0.0000000000000421
 70
   192
  0
VERTEX
  5
A27
  8
0
 10
-137.7335165475398
 20
-94.0376398991426
 30
0.0728705490066479
 70
   192
  0
VERTEX
  5
A28
  8
0
 10
-30.0
 20
-102.0
 30
-108.430157435957
 70
   192
  0
VERTEX
  5
A29
  8
0
 10
-30.0
 20
-95.22728532641081
 30
-107.8376216807223
 70
   192
  0
VERTEX
  5
A2A
  8
0
 10
-73.40748462331146
 20
-94.71314675099534
 30
-98.66632454697023
 70
   192
  0
VERTEX
  5
A2B
  8
0
 10
-84.21507871797849
 20
-102.0
 30
-93.90327087588493
 70
   192
  0
VERTEX
  5
A2C
  8
0
 10
-106.1914190871275
 20
-94.35692565796727
 30
76.20631973899643
 70
   192
  0
VERTEX
  5
A2D
  8
0
 10
-123.9032708758849
 20
-102.0
 30
-54.21507871797854
 70
   192
  0
VERTEX
  5
A2E
  8
0
 10
-106.2698877810078
 20
-94.35611245808823
 30
-76.1276848131062
 70
   192
  0
VERTEX
  5
A2F
  8
0
 10
-129.7494818388376
 20
-94.11713906554519
 30
-40.71922705631009
 70
   192
  0
VERTEX
  5
A30
  8
0
 10
0.0
 20
0.0
 30
0.0
 70
   128
 71
     1
 72
     2
 73
     3
  0
VERTEX
  5
A31
  8
0
 10
0.0
 20
0.0
 30
0.0
 70
   128
 71
     4
 72
     1
 73
     3
  0
VERTEX
  5
A32
  8
0
 10
0.0
 20
0.0
 30
0.0
 70
   128
 71
     5
 72
     6
 73
     7
  0
VERTEX
  5
A33
  8
0
 10
0.0
 20
0.0
 30
0.0
 70
   128
 71
     8
 72
     5
 73
     7
  0
VERTEX
  5
A34
  8
0
 10
0.0
 20
0.0
 30
0.0
 70
   128
 71
     9
 72
    10
 73
    11
  0
VERTEX
  5
A35
  8
0
 10
0.0
 20
0.0
 30
0.0
 70
   128
 71
    12
 72
     9
 73
    11
  0
VERTEX
  5
A36
  8
0
 10
0.0
 20
0.0
 30
0.0
 70
   128
 71
     3
 72
     6
 73
    13
  0
VERTEX
  5
A37
  8
0
 10
0.0
 20
0.0
 30
0.0
 70
   128
 71
    13
 72
     4
 73
     3
  0
VERTEX
  5
A38
  8
0
 10
0.0
 20
0.0
 30
0.0
 70
   128
 71
    14
 72
    12
 73
    15
  0
VERTEX
  5
A39
  8
0
 10
0.0
 20
0.0
 30
0.0
 70
   128
 71
    15
 72
    16
 73
    14
  0
VERTEX
  5
A3A
  8
0
 10
0.0
 20
0.0
 30
0.0
 70
   128
 71
     6
 72
     5
 73
    13
  0
VERTEX
  5
A3B
  8
0
 10
0.0
 20
0.0
 30
0.0
 70
   128
 71
    14
 72
    16
 73
     8
  0
VERTEX
  5
A3C
  8
0
 10
0.0
 20
0.0
 30
0.0
 70
   128
 71
     7
 72
    14
 73
     8
  0
VERTEX
  5
A3D
  8
0
 10
0.0
 20
0.0
 30
0.0
 70
   128
 71
    12
 72
    11
 73
    15
  0
SEQEND
  5
CA1
  8
0
  0
POLYLINE
  5
A3E
  8
0
 66
     1
 10
0.0
 20
0.0
 30
0.0
 70
    64
 71
    16
 72
    14
  0
VERTEX
  5
A3F
  8
0
 10
-3.901690419095236
 20
-98.7136300431686
 30
-60.45374678962152
 70
   192
  0
VERTEX
  5
A40
  8
0
 10
-0.0000000000125179
 20
-98.6803558960271
 30
-60.5853428218802
 70
   192
  0
VERTEX
  5
A41
  8
0
 10
0.0000000000000073
 20
-102.0
 30
-60.0
 70
   192
  0
VERTEX
  5
A42
  8
0
 10
-7.560985962229302
 20
-98.72734016097765
 30
-60.10334499706035
 70
   192
  0
VERTEX
  5
A43
  8
0
 10
-11.88506235681894
 20
-98.7305769281364
 30
-59.39912567101784
 70
   192
  0
VERTEX
  5
A44
  8
0
 10
-60.0
 20
-102.0
 30
-0.0000000000000067
 70
   192
  0
VERTEX
  5
A45
  8
0
 10
-42.42640687119286
 20
-102.0
 30
42.42640687119285
 70
   192
  0
VERTEX
  5
A46
  8
0
 10
-46.84795977547277
 20
-98.7305769281364
 30
38.40285800018708
 70
   192
  0
VERTEX
  5
A47
  8
0
 10
-60.57648749891711
 20
-98.7305769281364
 30
0.0000196340690751
 70
   192
  0
VERTEX
  5
A48
  8
0
 10
-11.88502385189204
 20
-98.7305769281364
 30
59.3991333753853
 70
   192
  0
VERTEX
  5
A49
  8
0
 10
-0.0000000000000067
 20
-102.0
 30
60.0
 70
   192
  0
VERTEX
  5
A4A
  8
0
 10
-7.545527098540352
 20
-98.7273080485075
 30
60.10536955315148
 70
   192
  0
VERTEX
  5
A4B
  8
0
 10
-3.887740245235306
 20
-98.71354901521995
 30
60.45461192998537
 70
   192
  0
VERTEX
  5
A4C
  8
0
 10
0.0
 20
-98.68035565835731
 30
60.58534286378779
 70
   192
  0
VERTEX
  5
A4D
  8
0
 10
-42.42640687119285
 20
-102.0
 30
-42.42640687119286
 70
   192
  0
VERTEX
  5
A4E
  8
0
 10
-46.84798466975434
 20
-98.7305769281364
 30
-38.4028276314298
 70
   192
  0
VERTEX
  5
A4F
  8
0
 10
0.0
 20
0.0
 30
0.0
 70
   128
 71
     1
 72
     2
 73
     3
  0
VERTEX
  5
A50
  8
0
 10
0.0
 20
0.0
 30
0.0
 70
   128
 71
     3
 72
     4
 73
     1
  0
VERTEX
  5
A51
  8
0
 10
0.0
 20
0.0
 30
0.0
 70
   128
 71
     5
 72
     4
 73
     3
  0
VERTEX
  5
A52
  8
0
 10
0.0
 20
0.0
 30
0.0
 70
   128
 71
     6
 72
     7
 73
     8
  0
VERTEX
  5
A53
  8
0
 10
0.0
 20
0.0
 30
0.0
 70
   128
 71
     6
 72
     8
 73
     9
  0
VERTEX
  5
A54
  8
0
 10
0.0
 20
0.0
 30
0.0
 70
   128
 71
    10
 72
     7
 73
    11
  0
VERTEX
  5
A55
  8
0
 10
0.0
 20
0.0
 30
0.0
 70
   128
 71
    11
 72
    12
 73
    10
  0
VERTEX
  5
A56
  8
0
 10
0.0
 20
0.0
 30
0.0
 70
   128
 71
    13
 72
    12
 73
    11
  0
VERTEX
  5
A57
  8
0
 10
0.0
 20
0.0
 30
0.0
 70
   128
 71
    11
 72
    14
 73
    13
  0
VERTEX
  5
A58
  8
0
 10
0.0
 20
0.0
 30
0.0
 70
   128
 71
     5
 72
     3
 73
    15
  0
VERTEX
  5
A59
  8
0
 10
0.0
 20
0.0
 30
0.0
 70
   128
 71
     5
 72
    15
 73
    16
  0
VERTEX
  5
A5A
  8
0
 10
0.0
 20
0.0
 30
0.0
 70
   128
 71
    16
 72
    15
 73
     6
  0
VERTEX
  5
A5B
  8
0
 10
0.0
 20
0.0
 30
0.0
 70
   128
 71
    16
 72
     6
 73
     9
  0
VERTEX
  5
A5C
  8
0
 10
0.0
 20
0.0
 30
0.0
 70
   128
 71
     8
 72
     7
 73
    10
  0
SEQEND
  5
CA2
  8
0
  0
POLYLINE
  5
A5D
  8
0
 66
     1
 10
0.0
 20
0.0
 30
0.0
 70
    64
 71
    16
 72
    16
  0
VERTEX
  5
A5E
  8
0
 10
0.0000000000000073
 20
-102.0
 30
-60.0
 70
   192
  0
VERTEX
  5
A5F
  8
0
 10
-42.42640687119285
 20
-102.0
 30
-42.42640687119286
 70
   192
  0
VERTEX
  5
A60
  8
0
 10
-60.0
 20
-102.0
 30
-0.0000000000000067
 70
   192
  0
VERTEX
  5
A61
  8
0
 10
-42.42640687119286
 20
-102.0
 30
42.42640687119285
 70
   192
  0
VERTEX
  5
A62
  8
0
 10
0.0
 20
-102.0
 30
60.0
 70
   192
  0
VERTEX
  5
A63
  8
0
 10
42.42640687119285
 20
-102.0
 30
42.42640687119285
 70
   192
  0
VERTEX
  5
A64
  8
0
 10
60.00000000000001
 20
-102.0
 30
0.0
 70
   192
  0
VERTEX
  5
A65
  8
0
 10
42.42640687119286
 20
-102.0
 30
-42.42640687119286
 70
   192
  0
VERTEX
  5
A66
  8
0
 10
-0.0000000000000024
 20
-102.0
 30
22.0
 70
   192
  0
VERTEX
  5
A67
  8
0
 10
-15.55634918610405
 20
-102.0
 30
15.55634918610404
 70
   192
  0
VERTEX
  5
A68
  8
0
 10
-22.0
 20
-102.0
 30
-0.0000000000000024
 70
   192
  0
VERTEX
  5
A69
  8
0
 10
-15.55634918610404
 20
-102.0
 30
-15.55634918610405
 70
   192
  0
VERTEX
  5
A6A
  8
0
 10
0.0
 20
-102.0
 30
-22.0
 70
   192
  0
VERTEX
  5
A6B
  8
0
 10
15.55634918610405
 20
-102.0
 30
-15.55634918610405
 70
   192
  0
VERTEX
  5
A6C
  8
0
 10
22.0
 20
-102.0
 30
0.0
 70
   192
  0
VERTEX
  5
A6D
  8
0
 10
15.55634918610405
 20
-102.0
 30
15.55634918610405
 70
   192
  0
VERTEX
  5
A6E
  8
0
 10
0.0
 20
0.0
 30
0.0
 70
   128
 71
    10
 72
    -9
 73
    -5
  0
VERTEX
  5
A6F
  8
0
 10
0.0
 20
0.0
 30
0.0
 70
   128
 71
   -10
 72
     5
 73
    -4
  0
VERTEX
  5
A70
  8
0
 10
0.0
 20
0.0
 30
0.0
 70
   128
 71
     4
 72
    -3
 73
   -11
  0
VERTEX
  5
A71
  8
0
 10
0.0
 20
0.0
 30
0.0
 70
   128
 71
    -4
 72
    11
 73
   -10
  0
VERTEX
  5
A72
  8
0
 10
0.0
 20
0.0
 30
0.0
 70
   128
 71
     3
 72
    -2
 73
   -12
  0
VERTEX
  5
A73
  8
0
 10
0.0
 20
0.0
 30
0.0
 70
   128
 71
    -3
 72
    12
 73
   -11
  0
VERTEX
  5
A74
  8
0
 10
0.0
 20
0.0
 30
0.0
 70
   128
 71
     2
 72
    -1
 73
   -13
  0
VERTEX
  5
A75
  8
0
 10
0.0
 20
0.0
 30
0.0
 70
   128
 71
    -2
 72
    13
 73
   -12
  0
VERTEX
  5
A76
  8
0
 10
0.0
 20
0.0
 30
0.0
 70
   128
 71
     1
 72
    -8
 73
   -14
  0
VERTEX
  5
A77
  8
0
 10
0.0
 20
0.0
 30
0.0
 70
   128
 71
    -1
 72
    14
 73
   -13
  0
VERTEX
  5
A78
  8
0
 10
0.0
 20
0.0
 30
0.0
 70
   128
 71
     8
 72
    -7
 73
   -15
  0
VERTEX
  5
A79
  8
0
 10
0.0
 20
0.0
 30
0.0
 70
   128
 71
    -8
 72
    15
 73
   -14
  0
VERTEX
  5
A7A
  8
0
 10
0.0
 20
0.0
 30
0.0
 70
   128
 71
     7
 72
    -6
 73
   -16
  0
VERTEX
  5
A7B
  8
0
 10
0.0
 20
0.0
 30
0.0
 70
   128
 71
    -7
 72
    16
 73
   -15
  0
VERTEX
  5
A7C
  8
0
 10
0.0
 20
0.0
 30
0.0
 70
   128
 71
     6
 72
    -5
 73
    -9
  0
VERTEX
  5
A7D
  8
0
 10
0.0
 20
0.0
 30
0.0
 70
   128
 71
    -6
 72
     9
 73
   -16
  0
SEQEND
  5
CA3
  8
0
  0
POLYLINE
  5
A7E
  8
0
 66
     1
 10
0.0
 20
0.0
 30
0.0
 70
    64
 71
    38
 72
    36
  0
VERTEX
  5
A7F
  8
0
 10
-29.9999999999691
 20
-95.22728532641081
 30
-107.8376216807222
 70
   192
  0
VERTEX
  5
A80
  8
0
 10
6.18494993511725
 20
-95.71190493333012
 30
-101.630449178512
 70
   192
  0
VERTEX
  5
A81
  8
0
 10
8.295881475127198
 20
-87.3495305251386
 30
-86.24232923830421
 70
   192
  0
VERTEX
  5
A82
  8
0
 10
-29.02160913911883
 20
-86.76058046345857
 30
-94.32901990395675
 70
   192
  0
VERTEX
  5
A83
  8
0
 10
66.22371419042383
 20
-88.01874644821987
 30
-28.86364910754838
 70
   192
  0
VERTEX
  5
A84
  8
0
 10
59.0793073098306
 20
-88.3577524870902
 30
-31.26626109185695
 70
   192
  0
VERTEX
  5
A85
  8
0
 10
39.38098495647111
 20
-87.92685032412352
 30
-63.9970327034524
 70
   192
  0
VERTEX
  5
A86
  8
0
 10
72.40808973295943
 20
-91.07370620244085
 30
-25.22455787374106
 70
   192
  0
VERTEX
  5
A87
  8
0
 10
62.30631448671286
 20
-96.62591808525136
 30
-55.99020382496566
 70
   192
  0
VERTEX
  5
A88
  8
0
 10
75.7523847713362
 20
-96.89253940141661
 30
-21.8364122746554
 70
   192
  0
VERTEX
  5
A89
  8
0
 10
38.18498255085537
 20
-96.20116078636626
 30
-83.65491172119654
 70
   192
  0
VERTEX
  5
A8A
  8
0
 10
-106.2698877810078
 20
-94.35611245808823
 30
-76.1276848131062
 70
   192
  0
VERTEX
  5
A8B
  8
0
 10
-73.40748462331146
 20
-94.71314675099534
 30
-98.66632454697023
 70
   192
  0
VERTEX
  5
A8C
  8
0
 10
-66.58678788360291
 20
-86.24182363801171
 30
-86.9221569554747
 70
   192
  0
VERTEX
  5
A8D
  8
0
 10
-98.21822783189796
 20
-85.84560659847475
 30
-65.08955451815504
 70
   192
  0
VERTEX
  5
A8E
  8
0
 10
-73.36084371280671
 20
-94.71362726272105
 30
98.68687661744531
 70
   192
  0
VERTEX
  5
A8F
  8
0
 10
-67.39536400773768
 20
-86.23128602021605
 30
86.57679518283344
 70
   192
  0
VERTEX
  5
A90
  8
0
 10
-55.04260374179104
 20
-86.394671917816
 30
90.93134350775364
 70
   192
  0
VERTEX
  5
A91
  8
0
 10
-98.77885141631378
 20
-85.83860475781489
 30
64.49735576035539
 70
   192
  0
VERTEX
  5
A92
  8
0
 10
-106.1914190871275
 20
-94.35692565796727
 30
76.20631973899643
 70
   192
  0
VERTEX
  5
A93
  8
0
 10
27.80815961790238
 20
-87.69991249121561
 30
74.60322730281378
 70
   192
  0
VERTEX
  5
A94
  8
0
 10
46.49651218621108
 20
-88.0752238514726
 30
55.30679675000992
 70
   192
  0
VERTEX
  5
A95
  8
0
 10
62.31439306915331
 20
-96.62607050974393
 30
55.97690890123928
 70
   192
  0
VERTEX
  5
A96
  8
0
 10
38.20970097920073
 20
-96.20156666501563
 30
83.63480410392899
 70
   192
  0
VERTEX
  5
A97
  8
0
 10
72.40514196950335
 20
-91.07110404843371
 30
25.22672669586844
 70
   192
  0
VERTEX
  5
A98
  8
0
 10
75.7523855233175
 20
-96.8925403971527
 30
21.83640906365215
 70
   192
  0
VERTEX
  5
A99
  8
0
 10
66.2004951688716
 20
-88.01381834210022
 30
28.87406236260905
 70
   192
  0
VERTEX
  5
A9A
  8
0
 10
59.0792957981971
 20
-88.35774767487499
 30
31.26628527961975
 70
   192
  0
VERTEX
  5
A9B
  8
0
 10
6.230001168196795
 20
-95.71254701405749
 30
101.6144573260247
 70
   192
  0
VERTEX
  5
A9C
  8
0
 10
-30.0000000000225
 20
-95.2272876172611
 30
107.8376218811456
 70
   192
  0
VERTEX
  5
A9D
  8
0
 10
-31.72709412909888
 20
-86.7210860830173
 30
94.31633569862281
 70
   192
  0
VERTEX
  5
A9E
  8
0
 10
4.239409634349995
 20
-87.28090292784991
 30
87.9281426064758
 70
   192
  0
VERTEX
  5
A9F
  8
0
 10
-137.7335165475398
 20
-94.0376398991426
 30
0.0728705490066479
 70
   192
  0
VERTEX
  5
AA0
  8
0
 10
-129.7494818388376
 20
-94.11713906554519
 30
-40.71922705631009
 70
   192
  0
VERTEX
  5
AA1
  8
0
 10
-117.0728677221259
 20
-85.62365491679341
 30
-36.14522452943515
 70
   192
  0
VERTEX
  5
AA2
  8
0
 10
-124.272705902218
 20
-85.54125240597298
 30
-0.1297716523151815
 70
   192
  0
VERTEX
  5
AA3
  8
0
 10
-117.3835770784973
 20
-85.62006955532208
 30
35.38696686485547
 70
   192
  0
VERTEX
  5
AA4
  8
0
 10
-129.7064767159952
 20
-94.11758017789762
 30
40.82451954374667
 70
   192
  0
VERTEX
  5
AA5
  8
0
 10
0.0
 20
0.0
 30
0.0
 70
   128
 71
     1
 72
     2
 73
     3
  0
VERTEX
  5
AA6
  8
0
 10
0.0
 20
0.0
 30
0.0
 70
   128
 71
     1
 72
     3
 73
     4
  0
VERTEX
  5
AA7
  8
0
 10
0.0
 20
0.0
 30
0.0
 70
   128
 71
     5
 72
     6
 73
     7
  0
VERTEX
  5
AA8
  8
0
 10
0.0
 20
0.0
 30
0.0
 70
   128
 71
     7
 72
     8
 73
     5
  0
VERTEX
  5
AA9
  8
0
 10
0.0
 20
0.0
 30
0.0
 70
   128
 71
     7
 72
     9
 73
     8
  0
VERTEX
  5
AAA
  8
0
 10
0.0
 20
0.0
 30
0.0
 70
   128
 71
     9
 72
    10
 73
     8
  0
VERTEX
  5
AAB
  8
0
 10
0.0
 20
0.0
 30
0.0
 70
   128
 71
     7
 72
    11
 73
     9
  0
VERTEX
  5
AAC
  8
0
 10
0.0
 20
0.0
 30
0.0
 70
   128
 71
    12
 72
    13
 73
    14
  0
VERTEX
  5
AAD
  8
0
 10
0.0
 20
0.0
 30
0.0
 70
   128
 71
    12
 72
    14
 73
    15
  0
VERTEX
  5
AAE
  8
0
 10
0.0
 20
0.0
 30
0.0
 70
   128
 71
    16
 72
    17
 73
    18
  0
VERTEX
  5
AAF
  8
0
 10
0.0
 20
0.0
 30
0.0
 70
   128
 71
    19
 72
    17
 73
    16
  0
VERTEX
  5
AB0
  8
0
 10
0.0
 20
0.0
 30
0.0
 70
   128
 71
    19
 72
    16
 73
    20
  0
VERTEX
  5
AB1
  8
0
 10
0.0
 20
0.0
 30
0.0
 70
   128
 71
    21
 72
    22
 73
    23
  0
VERTEX
  5
AB2
  8
0
 10
0.0
 20
0.0
 30
0.0
 70
   128
 71
    21
 72
    23
 73
    24
  0
VERTEX
  5
AB3
  8
0
 10
0.0
 20
0.0
 30
0.0
 70
   128
 71
    25
 72
    26
 73
    23
  0
VERTEX
  5
AB4
  8
0
 10
0.0
 20
0.0
 30
0.0
 70
   128
 71
    23
 72
    27
 73
    25
  0
VERTEX
  5
AB5
  8
0
 10
0.0
 20
0.0
 30
0.0
 70
   128
 71
    23
 72
    22
 73
    27
  0
VERTEX
  5
AB6
  8
0
 10
0.0
 20
0.0
 30
0.0
 70
   128
 71
    22
 72
    28
 73
    27
  0
VERTEX
  5
AB7
  8
0
 10
0.0
 20
0.0
 30
0.0
 70
   128
 71
    29
 72
    30
 73
    31
  0
VERTEX
  5
AB8
  8
0
 10
0.0
 20
0.0
 30
0.0
 70
   128
 71
    29
 72
    31
 73
    32
  0
VERTEX
  5
AB9
  8
0
 10
0.0
 20
0.0
 30
0.0
 70
   128
 71
    33
 72
    34
 73
    35
  0
VERTEX
  5
ABA
  8
0
 10
0.0
 20
0.0
 30
0.0
 70
   128
 71
    33
 72
    35
 73
    36
  0
VERTEX
  5
ABB
  8
0
 10
0.0
 20
0.0
 30
0.0
 70
   128
 71
    37
 72
    38
 73
    33
  0
VERTEX
  5
ABC
  8
0
 10
0.0
 20
0.0
 30
0.0
 70
   128
 71
    37
 72
    33
 73
    36
  0
VERTEX
  5
ABD
  8
0
 10
0.0
 20
0.0
 30
0.0
 70
   128
 71
    18
 72
    30
 73
    16
  0
VERTEX
  5
ABE
  8
0
 10
0.0
 20
0.0
 30
0.0
 70
   128
 71
     7
 72
     3
 73
     2
  0
VERTEX
  5
ABF
  8
0
 10
0.0
 20
0.0
 30
0.0
 70
   128
 71
     7
 72
     2
 73
    11
  0
VERTEX
  5
AC0
  8
0
 10
0.0
 20
0.0
 30
0.0
 70
   128
 71
     1
 72
     4
 73
    14
  0
VERTEX
  5
AC1
  8
0
 10
0.0
 20
0.0
 30
0.0
 70
   128
 71
     1
 72
    14
 73
    13
  0
VERTEX
  5
AC2
  8
0
 10
0.0
 20
0.0
 30
0.0
 70
   128
 71
    12
 72
    15
 73
    35
  0
VERTEX
  5
AC3
  8
0
 10
0.0
 20
0.0
 30
0.0
 70
   128
 71
    12
 72
    35
 73
    34
  0
VERTEX
  5
AC4
  8
0
 10
0.0
 20
0.0
 30
0.0
 70
   128
 71
    37
 72
    19
 73
    20
  0
VERTEX
  5
AC5
  8
0
 10
0.0
 20
0.0
 30
0.0
 70
   128
 71
    37
 72
    20
 73
    38
  0
VERTEX
  5
AC6
  8
0
 10
0.0
 20
0.0
 30
0.0
 70
   128
 71
    31
 72
    30
 73
    18
  0
VERTEX
  5
AC7
  8
0
 10
0.0
 20
0.0
 30
0.0
 70
   128
 71
    32
 72
    21
 73
    24
  0
VERTEX
  5
AC8
  8
0
 10
0.0
 20
0.0
 30
0.0
 70
   128
 71
    32
 72
    24
 73
    29
  0
SEQEND
  5
CA4
  8
0
  0
POLYLINE
  5
AC9
  8
0
 66
     1
 10
0.0
 20
0.0
 30
0.0
 70
    64
 71
    13
 72
    11
  0
VERTEX
  5
ACA
  8
0
 10
58.4800156447456
 20
-96.1141084828793
 30
17.48444630884485
 70
   192
  0
VERTEX
  5
ACB
  8
0
 10
57.37406205931215
 20
-95.45584094997517
 30
21.16643617032569
 70
   192
  0
VERTEX
  5
ACC
  8
0
 10
55.95896379872956
 20
-95.17953139837473
 30
24.78622793522417
 70
   192
  0
VERTEX
  5
ACD
  8
0
 10
54.26213734933039
 20
-95.18870235539292
 30
28.30520719647703
 70
   192
  0
VERTEX
  5
ACE
  8
0
 10
55.11474969196973
 20
-92.29958287299176
 30
28.92599308027662
 70
   192
  0
VERTEX
  5
ACF
  8
0
 10
56.78550725873117
 20
-89.93037095234904
 30
29.95299762365966
 70
   192
  0
VERTEX
  5
AD0
  8
0
 10
59.0792957981971
 20
-88.35774767487499
 30
31.26628527961975
 70
   192
  0
VERTEX
  5
AD1
  8
0
 10
66.2004951688716
 20
-88.01381834210022
 30
28.87406236260905
 70
   192
  0
VERTEX
  5
AD2
  8
0
 10
72.40514196950335
 20
-91.07110404843371
 30
25.22672669586844
 70
   192
  0
VERTEX
  5
AD3
  8
0
 10
75.7523855233175
 20
-96.8925403971527
 30
21.83640906365216
 70
   192
  0
VERTEX
  5
AD4
  8
0
 10
73.489773707401
 20
-91.49505486799417
 30
19.47459349245755
 70
   192
  0
VERTEX
  5
AD5
  8
0
 10
68.02208609858783
 20
-89.1374120205257
 30
17.38262134265496
 70
   192
  0
VERTEX
  5
AD6
  8
0
 10
62.03796931697158
 20
-90.97894445140416
 30
16.5891859581784
 70
   192
  0
VERTEX
  5
AD7
  8
0
 10
0.0
 20
0.0
 30
0.0
 70
   128
 71
     8
 72
     7
 73
     6
  0
VERTEX
  5
AD8
  8
0
 10
0.0
 20
0.0
 30
0.0
 70
   128
 71
     8
 72
     6
 73
    11
  0
VERTEX
  5
AD9
  8
0
 10
0.0
 20
0.0
 30
0.0
 70
   128
 71
    11
 72
     9
 73
     8
  0
VERTEX
  5
ADA
  8
0
 10
0.0
 20
0.0
 30
0.0
 70
   128
 71
    11
 72
    10
 73
     9
  0
VERTEX
  5
ADB
  8
0
 10
0.0
 20
0.0
 30
0.0
 70
   128
 71
     6
 72
    12
 73
    11
  0
VERTEX
  5
ADC
  8
0
 10
0.0
 20
0.0
 30
0.0
 70
   128
 71
    12
 72
     6
 73
     5
  0
VERTEX
  5
ADD
  8
0
 10
0.0
 20
0.0
 30
0.0
 70
   128
 71
     5
 72
    13
 73
    12
  0
VERTEX
  5
ADE
  8
0
 10
0.0
 20
0.0
 30
0.0
 70
   128
 71
     2
 72
     1
 73
    13
  0
VERTEX
  5
ADF
  8
0
 10
0.0
 20
0.0
 30
0.0
 70
   128
 71
    13
 72
     3
 73
     2
  0
VERTEX
  5
AE0
  8
0
 10
0.0
 20
0.0
 30
0.0
 70
   128
 71
    13
 72
     5
 73
     4
  0
VERTEX
  5
AE1
  8
0
 10
0.0
 20
0.0
 30
0.0
 70
   128
 71
    13
 72
     4
 73
     3
  0
SEQEND
  5
CA5
  8
0
  0
POLYLINE
  5
AE2
  8
0
 66
     1
 10
0.0
 20
0.0
 30
0.0
 70
    64
 71
    18
 72
    16
  0
VERTEX
  5
AE3
  8
0
 10
21.47217300114602
 20
-90.80406988568191
 30
64.66913478518872
 70
   192
  0
VERTEX
  5
AE4
  8
0
 10
-3.682950067033665
 20
-91.2914529143424
 30
68.7565001794934
 70
   192
  0
VERTEX
  5
AE5
  8
0
 10
0.0000000000314395
 20
-98.68035565835731
 30
60.5853428637878
 70
   192
  0
VERTEX
  5
AE6
  8
0
 10
21.61547872718359
 20
-98.01472581079507
 30
56.72380582344754
 70
   192
  0
VERTEX
  5
AE7
  8
0
 10
-12.18943295765024
 20
-95.04593842581546
 30
60.92062902318609
 70
   192
  0
VERTEX
  5
AE8
  8
0
 10
-11.88502385189204
 20
-98.7305769281364
 30
59.3991333753853
 70
   192
  0
VERTEX
  5
AE9
  8
0
 10
-7.545527098540352
 20
-98.7273080485075
 30
60.10536955315148
 70
   192
  0
VERTEX
  5
AEA
  8
0
 10
-12.77689099232382
 20
-92.39678344569478
 30
63.8567615960992
 70
   192
  0
VERTEX
  5
AEB
  8
0
 10
-10.27023889158218
 20
-91.30565712140476
 30
68.18442699961463
 70
   192
  0
VERTEX
  5
AEC
  8
0
 10
-13.53149685494172
 20
-91.30574493482591
 30
67.6282837566237
 70
   192
  0
VERTEX
  5
AED
  8
0
 10
-7.032567264444269
 20
-91.30222994346684
 30
68.55452363325269
 70
   192
  0
VERTEX
  5
AEE
  8
0
 10
-3.887740245235306
 20
-98.71354901521995
 30
60.45461192998537
 70
   192
  0
VERTEX
  5
AEF
  8
0
 10
56.78550725873117
 20
-89.93037095234904
 30
29.95299762365966
 70
   192
  0
VERTEX
  5
AF0
  8
0
 10
59.07929579819711
 20
-88.35774767487496
 30
31.26628527961971
 70
   192
  0
VERTEX
  5
AF1
  8
0
 10
43.46389041593123
 20
-89.64612455233326
 30
51.50172827416112
 70
   192
  0
VERTEX
  5
AF2
  8
0
 10
55.11474969196973
 20
-92.29958287299176
 30
28.92599308027662
 70
   192
  0
VERTEX
  5
AF3
  8
0
 10
39.85513015666263
 20
-96.72301335692276
 30
46.08790379198522
 70
   192
  0
VERTEX
  5
AF4
  8
0
 10
54.26213734933049
 20
-95.18870235539289
 30
28.30520719647675
 70
   192
  0
VERTEX
  5
AF5
  8
0
 10
0.0
 20
0.0
 30
0.0
 70
   128
 71
     1
 72
     2
 73
     3
  0
VERTEX
  5
AF6
  8
0
 10
0.0
 20
0.0
 30
0.0
 70
   128
 71
     1
 72
     3
 73
     4
  0
VERTEX
  5
AF7
  8
0
 10
0.0
 20
0.0
 30
0.0
 70
   128
 71
     5
 72
     6
 73
     7
  0
VERTEX
  5
AF8
  8
0
 10
0.0
 20
0.0
 30
0.0
 70
   128
 71
     7
 72
     8
 73
     5
  0
VERTEX
  5
AF9
  8
0
 10
0.0
 20
0.0
 30
0.0
 70
   128
 71
     7
 72
     9
 73
     8
  0
VERTEX
  5
AFA
  8
0
 10
0.0
 20
0.0
 30
0.0
 70
   128
 71
     9
 72
    10
 73
     8
  0
VERTEX
  5
AFB
  8
0
 10
0.0
 20
0.0
 30
0.0
 70
   128
 71
     7
 72
    11
 73
     9
  0
VERTEX
  5
AFC
  8
0
 10
0.0
 20
0.0
 30
0.0
 70
   128
 71
    12
 72
     3
 73
     2
  0
VERTEX
  5
AFD
  8
0
 10
0.0
 20
0.0
 30
0.0
 70
   128
 71
     2
 72
    11
 73
     7
  0
VERTEX
  5
AFE
  8
0
 10
0.0
 20
0.0
 30
0.0
 70
   128
 71
     2
 72
     7
 73
    12
  0
VERTEX
  5
AFF
  8
0
 10
0.0
 20
0.0
 30
0.0
 70
   128
 71
    13
 72
    14
 73
    15
  0
VERTEX
  5
B00
  8
0
 10
0.0
 20
0.0
 30
0.0
 70
   128
 71
    15
 72
    16
 73
    13
  0
VERTEX
  5
B01
  8
0
 10
0.0
 20
0.0
 30
0.0
 70
   128
 71
    15
 72
    17
 73
    16
  0
VERTEX
  5
B02
  8
0
 10
0.0
 20
0.0
 30
0.0
 70
   128
 71
    17
 72
    18
 73
    16
  0
VERTEX
  5
B03
  8
0
 10
0.0
 20
0.0
 30
0.0
 70
   128
 71
    15
 72
     4
 73
    17
  0
VERTEX
  5
B04
  8
0
 10
0.0
 20
0.0
 30
0.0
 70
   128
 71
    15
 72
     1
 73
     4
  0
SEQEND
  5
CA6
  8
0
  0
POLYLINE
  5
B05
  8
0
 66
     1
 10
0.0
 20
0.0
 30
0.0
 70
    64
 71
    14
 72
    12
  0
VERTEX
  5
B06
  8
0
 10
75.7523855233175
 20
-96.8925403971527
 30
21.83640906365215
 70
   192
  0
VERTEX
  5
B07
  8
0
 10
77.99142034238594
 20
-99.86282804297012
 30
7.378235674816308
 70
   192
  0
VERTEX
  5
B08
  8
0
 10
77.98771351121289
 20
-99.85789415389266
 30
-7.426039995310293
 70
   192
  0
VERTEX
  5
B09
  8
0
 10
75.75238477133247
 20
-96.89253940141134
 30
-21.83641227467098
 70
   192
  0
VERTEX
  5
B0A
  8
0
 10
73.48977308950859
 20
-91.4950539583765
 30
-19.47459640049645
 70
   192
  0
VERTEX
  5
B0B
  8
0
 10
68.02208558454532
 20
-89.13741114664512
 30
-17.38262396416717
 70
   192
  0
VERTEX
  5
B0C
  8
0
 10
62.0379688183593
 20
-90.9789435422349
 30
-16.5891884477915
 70
   192
  0
VERTEX
  5
B0D
  8
0
 10
58.48001505777321
 20
-96.1141074871429
 30
-17.48444888501345
 70
   192
  0
VERTEX
  5
B0E
  8
0
 10
60.22975838805252
 20
-99.09083321059224
 30
-5.851121931106803
 70
   192
  0
VERTEX
  5
B0F
  8
0
 10
60.22975858247105
 20
-99.09083354250436
 30
5.851119324568414
 70
   192
  0
VERTEX
  5
B10
  8
0
 10
58.48001564474556
 20
-96.11410848287929
 30
17.48444630884484
 70
   192
  0
VERTEX
  5
B11
  8
0
 10
62.03796931697158
 20
-90.97894445140416
 30
16.5891859581784
 70
   192
  0
VERTEX
  5
B12
  8
0
 10
68.02208609858783
 20
-89.1374120205257
 30
17.38262134265496
 70
   192
  0
VERTEX
  5
B13
  8
0
 10
73.489773707401
 20
-91.49505486799417
 30
19.47459349245755
 70
   192
  0
VERTEX
  5
B14
  8
0
 10
0.0
 20
0.0
 30
0.0
 70
   128
 71
     9
 72
     8
 73
     7
  0
VERTEX
  5
B15
  8
0
 10
0.0
 20
0.0
 30
0.0
 70
   128
 71
     7
 72
    12
 73
   -10
  0
VERTEX
  5
B16
  8
0
 10
0.0
 20
0.0
 30
0.0
 70
   128
 71
    -7
 72
    10
 73
     9
  0
VERTEX
  5
B17
  8
0
 10
0.0
 20
0.0
 30
0.0
 70
   128
 71
    12
 72
    11
 73
    10
  0
VERTEX
  5
B18
  8
0
 10
0.0
 20
0.0
 30
0.0
 70
   128
 71
     7
 72
     6
 73
    13
  0
VERTEX
  5
B19
  8
0
 10
0.0
 20
0.0
 30
0.0
 70
   128
 71
     7
 72
    13
 73
    12
  0
VERTEX
  5
B1A
  8
0
 10
0.0
 20
0.0
 30
0.0
 70
   128
 71
     6
 72
     5
 73
    14
  0
VERTEX
  5
B1B
  8
0
 10
0.0
 20
0.0
 30
0.0
 70
   128
 71
     6
 72
    14
 73
    13
  0
VERTEX
  5
B1C
  8
0
 10
0.0
 20
0.0
 30
0.0
 70
   128
 71
     2
 72
     1
 73
    14
  0
VERTEX
  5
B1D
  8
0
 10
0.0
 20
0.0
 30
0.0
 70
   128
 71
    14
 72
     5
 73
     3
  0
VERTEX
  5
B1E
  8
0
 10
0.0
 20
0.0
 30
0.0
 70
   128
 71
    14
 72
     3
 73
     2
  0
VERTEX
  5
B1F
  8
0
 10
0.0
 20
0.0
 30
0.0
 70
   128
 71
     5
 72
     4
 73
     3
  0
SEQEND
  5
CA7
  8
0
  0
POLYLINE
  5
B20
  8
0
 66
     1
 10
0.0
 20
0.0
 30
0.0
 70
    64
 71
    24
 72
    31
  0
VERTEX
  5
B21
  8
0
 10
-68.96873366983608
 20
-91.3057447143477
 30
0.000032601975031
 70
   192
  0
VERTEX
  5
B22
  8
0
 10
-53.33827446783319
 20
-91.3057447143477
 30
-43.72315977620944
 70
   192
  0
VERTEX
  5
B23
  8
0
 10
-51.06703386081913
 20
-91.96354599098049
 30
-41.86134821703389
 70
   192
  0
VERTEX
  5
B24
  8
0
 10
-66.03191971985093
 20
-91.96354599098049
 30
0.0000312137237067
 70
   192
  0
VERTEX
  5
B25
  8
0
 10
-53.33823313135768
 20
-91.3057447143477
 30
43.72321020289777
 70
   192
  0
VERTEX
  5
B26
  8
0
 10
-51.06699428452584
 20
-91.96354599098049
 30
41.86139649646221
 70
   192
  0
VERTEX
  5
B27
  8
0
 10
-13.53149685494172
 20
-91.30574493482591
 30
67.6282837566237
 70
   192
  0
VERTEX
  5
B28
  8
0
 10
-13.53149693035575
 20
-91.3057447143477
 30
67.62828413353112
 70
   192
  0
VERTEX
  5
B29
  8
0
 10
-49.09050177402949
 20
-93.5528090400376
 30
-40.2411190458479
 70
   192
  0
VERTEX
  5
B2A
  8
0
 10
-63.47617684208143
 20
-93.5528090400376
 30
0.000030005607202
 70
   192
  0
VERTEX
  5
B2B
  8
0
 10
-49.0904637295231
 20
-93.5528090400376
 30
40.24116545663745
 70
   192
  0
VERTEX
  5
B2C
  8
0
 10
-12.77689099232382
 20
-92.39678344569478
 30
63.8567615960992
 70
   192
  0
VERTEX
  5
B2D
  8
0
 10
-47.62969789785928
 20
-95.8958193536661
 30
-39.04364946294988
 70
   192
  0
VERTEX
  5
B2E
  8
0
 10
-61.58729321236808
 20
-95.8958193536661
 30
0.0000291127194595
 70
   192
  0
VERTEX
  5
B2F
  8
0
 10
-12.18147390324322
 20
-95.10286132158384
 30
-60.88060540545127
 70
   192
  0
VERTEX
  5
B30
  8
0
 10
-47.62966098545708
 20
-95.8958193536661
 30
39.04369449267672
 70
   192
  0
VERTEX
  5
B31
  8
0
 10
-60.57648749891711
 20
-98.7305769281364
 30
0.0000196340690751
 70
   192
  0
VERTEX
  5
B32
  8
0
 10
-46.84798466975434
 20
-98.7305769281364
 30
-38.4028276314298
 70
   192
  0
VERTEX
  5
B33
  8
0
 10
-46.84795977547277
 20
-98.7305769281364
 30
38.40285800018708
 70
   192
  0
VERTEX
  5
B34
  8
0
 10
-11.88502385189204
 20
-98.7305769281364
 30
59.3991333753853
 70
   192
  0
VERTEX
  5
B35
  8
0
 10
-12.78900566570007
 20
-92.3632164628387
 30
-63.91702927172999
 70
   192
  0
VERTEX
  5
B36
  8
0
 10
-13.53156086702109
 20
-91.3057447143477
 30
-67.62827134064533
 70
   192
  0
VERTEX
  5
B37
  8
0
 10
-12.18943295765024
 20
-95.04593842581546
 30
60.92062902318609
 70
   192
  0
VERTEX
  5
B38
  8
0
 10
-11.88506235681896
 20
-98.7305769281364
 30
-59.3991256710179
 70
   192
  0
VERTEX
  5
B39
  8
0
 10
0.0
 20
0.0
 30
0.0
 70
   128
 71
     1
 72
     2
 73
    -3
  0
VERTEX
  5
B3A
  8
0
 10
0.0
 20
0.0
 30
0.0
 70
   128
 71
     4
 72
    -1
 73
     3
  0
VERTEX
  5
B3B
  8
0
 10
0.0
 20
0.0
 30
0.0
 70
   128
 71
     5
 72
     6
 73
     7
  0
VERTEX
  5
B3C
  8
0
 10
0.0
 20
0.0
 30
0.0
 70
   128
 71
     7
 72
     8
 73
     5
  0
VERTEX
  5
B3D
  8
0
 10
0.0
 20
0.0
 30
0.0
 70
   128
 71
     5
 72
     1
 73
    -4
  0
VERTEX
  5
B3E
  8
0
 10
0.0
 20
0.0
 30
0.0
 70
   128
 71
     6
 72
    -5
 73
     4
  0
VERTEX
  5
B3F
  8
0
 10
0.0
 20
0.0
 30
0.0
 70
   128
 71
     3
 72
     9
 73
   -10
  0
VERTEX
  5
B40
  8
0
 10
0.0
 20
0.0
 30
0.0
 70
   128
 71
     4
 72
    -3
 73
    10
  0
VERTEX
  5
B41
  8
0
 10
0.0
 20
0.0
 30
0.0
 70
   128
 71
     6
 72
    11
 73
    12
  0
VERTEX
  5
B42
  8
0
 10
0.0
 20
0.0
 30
0.0
 70
   128
 71
     4
 72
    10
 73
   -11
  0
VERTEX
  5
B43
  8
0
 10
0.0
 20
0.0
 30
0.0
 70
   128
 71
     6
 72
    -4
 73
    11
  0
VERTEX
  5
B44
  8
0
 10
0.0
 20
0.0
 30
0.0
 70
   128
 71
     9
 72
    13
 73
   -14
  0
VERTEX
  5
B45
  8
0
 10
0.0
 20
0.0
 30
0.0
 70
   128
 71
    10
 72
    -9
 73
    14
  0
VERTEX
  5
B46
  8
0
 10
0.0
 20
0.0
 30
0.0
 70
   128
 71
    13
 72
     9
 73
    15
  0
VERTEX
  5
B47
  8
0
 10
0.0
 20
0.0
 30
0.0
 70
   128
 71
    10
 72
    14
 73
   -16
  0
VERTEX
  5
B48
  8
0
 10
0.0
 20
0.0
 30
0.0
 70
   128
 71
    11
 72
   -10
 73
    16
  0
VERTEX
  5
B49
  8
0
 10
0.0
 20
0.0
 30
0.0
 70
   128
 71
    17
 72
    14
 73
    13
  0
VERTEX
  5
B4A
  8
0
 10
0.0
 20
0.0
 30
0.0
 70
   128
 71
    18
 72
    17
 73
    13
  0
VERTEX
  5
B4B
  8
0
 10
0.0
 20
0.0
 30
0.0
 70
   128
 71
    16
 72
    14
 73
    19
  0
VERTEX
  5
B4C
  8
0
 10
0.0
 20
0.0
 30
0.0
 70
   128
 71
    14
 72
    17
 73
    19
  0
VERTEX
  5
B4D
  8
0
 10
0.0
 20
0.0
 30
0.0
 70
   128
 71
    16
 72
    19
 73
    20
  0
VERTEX
  5
B4E
  8
0
 10
0.0
 20
0.0
 30
0.0
 70
   128
 71
    21
 72
     3
 73
     2
  0
VERTEX
  5
B4F
  8
0
 10
0.0
 20
0.0
 30
0.0
 70
   128
 71
    22
 72
    21
 73
     2
  0
VERTEX
  5
B50
  8
0
 10
0.0
 20
0.0
 30
0.0
 70
   128
 71
     6
 72
    12
 73
     7
  0
VERTEX
  5
B51
  8
0
 10
0.0
 20
0.0
 30
0.0
 70
   128
 71
    15
 72
     9
 73
     3
  0
VERTEX
  5
B52
  8
0
 10
0.0
 20
0.0
 30
0.0
 70
   128
 71
    21
 72
    15
 73
     3
  0
VERTEX
  5
B53
  8
0
 10
0.0
 20
0.0
 30
0.0
 70
   128
 71
    16
 72
    23
 73
    12
  0
VERTEX
  5
B54
  8
0
 10
0.0
 20
0.0
 30
0.0
 70
   128
 71
    11
 72
    16
 73
    12
  0
VERTEX
  5
B55
  8
0
 10
0.0
 20
0.0
 30
0.0
 70
   128
 71
    24
 72
    18
 73
    13
  0
VERTEX
  5
B56
  8
0
 10
0.0
 20
0.0
 30
0.0
 70
   128
 71
    15
 72
    24
 73
    13
  0
VERTEX
  5
B57
  8
0
 10
0.0
 20
0.0
 30
0.0
 70
   128
 71
    16
 72
    20
 73
    23
  0
SEQEND
  5
CA8
  8
0
  0
POLYLINE
  5
B58
  8
0
 66
     1
 10
0.0
 20
0.0
 30
0.0
 70
    64
 71
    13
 72
    11
  0
VERTEX
  5
B59
  8
0
 10
75.7523847713362
 20
-96.89253940141661
 30
-21.8364122746554
 70
   192
  0
VERTEX
  5
B5A
  8
0
 10
72.40808973295943
 20
-91.07370620244085
 30
-25.22455787374106
 70
   192
  0
VERTEX
  5
B5B
  8
0
 10
66.22371419042383
 20
-88.01874644821987
 30
-28.86364910754838
 70
   192
  0
VERTEX
  5
B5C
  8
0
 10
59.07930730985646
 20
-88.35775248708741
 30
-31.26626109180845
 70
   192
  0
VERTEX
  5
B5D
  8
0
 10
56.78551674302103
 20
-89.93037598623671
 30
-29.95297741818869
 70
   192
  0
VERTEX
  5
B5E
  8
0
 10
55.11475655142743
 20
-92.29958814578323
 30
-28.92597792100329
 70
   192
  0
VERTEX
  5
B5F
  8
0
 10
54.2621412835015
 20
-95.18870786993
 30
-28.30519755209905
 70
   192
  0
VERTEX
  5
B60
  8
0
 10
55.94854513767338
 20
-95.17853974645402
 30
-24.81015849177979
 70
   192
  0
VERTEX
  5
B61
  8
0
 10
57.38772382423168
 20
-95.4602683528997
 30
-21.12710599166714
 70
   192
  0
VERTEX
  5
B62
  8
0
 10
58.48001505777427
 20
-96.11410748714307
 30
-17.48444888501383
 70
   192
  0
VERTEX
  5
B63
  8
0
 10
62.0379688183593
 20
-90.9789435422349
 30
-16.5891884477915
 70
   192
  0
VERTEX
  5
B64
  8
0
 10
68.02208558454532
 20
-89.13741114664512
 30
-17.38262396416717
 70
   192
  0
VERTEX
  5
B65
  8
0
 10
73.48977308950859
 20
-91.4950539583765
 30
-19.47459640049645
 70
   192
  0
VERTEX
  5
B66
  8
0
 10
0.0
 20
0.0
 30
0.0
 70
   128
 71
     8
 72
     7
 73
     6
  0
VERTEX
  5
B67
  8
0
 10
0.0
 20
0.0
 30
0.0
 70
   128
 71
     8
 72
     6
 73
    11
  0
VERTEX
  5
B68
  8
0
 10
0.0
 20
0.0
 30
0.0
 70
   128
 71
    11
 72
     9
 73
     8
  0
VERTEX
  5
B69
  8
0
 10
0.0
 20
0.0
 30
0.0
 70
   128
 71
    11
 72
    10
 73
     9
  0
VERTEX
  5
B6A
  8
0
 10
0.0
 20
0.0
 30
0.0
 70
   128
 71
     6
 72
    12
 73
    11
  0
VERTEX
  5
B6B
  8
0
 10
0.0
 20
0.0
 30
0.0
 70
   128
 71
     6
 72
     5
 73
    12
  0
VERTEX
  5
B6C
  8
0
 10
0.0
 20
0.0
 30
0.0
 70
   128
 71
     5
 72
    13
 73
    12
  0
VERTEX
  5
B6D
  8
0
 10
0.0
 20
0.0
 30
0.0
 70
   128
 71
     2
 72
     1
 73
    13
  0
VERTEX
  5
B6E
  8
0
 10
0.0
 20
0.0
 30
0.0
 70
   128
 71
    13
 72
     3
 73
     2
  0
VERTEX
  5
B6F
  8
0
 10
0.0
 20
0.0
 30
0.0
 70
   128
 71
    13
 72
     5
 73
     4
  0
VERTEX
  5
B70
  8
0
 10
0.0
 20
0.0
 30
0.0
 70
   128
 71
    13
 72
     4
 73
     3
  0
SEQEND
  5
CA9
  8
0
  0
POLYLINE
  5
B71
  8
0
 66
     1
 10
0.0
 20
0.0
 30
0.0
 70
    64
 71
    15
 72
    13
  0
VERTEX
  5
B72
  8
0
 10
55.11475655142743
 20
-92.29958814578323
 30
-28.92597792100329
 70
   192
  0
VERTEX
  5
B73
  8
0
 10
54.26214128349749
 20
-95.1887078699292
 30
-28.30519755209692
 70
   192
  0
VERTEX
  5
B74
  8
0
 10
39.84547507368584
 20
-96.72391363787588
 30
-46.09659844141915
 70
   192
  0
VERTEX
  5
B75
  8
0
 10
56.78551674302103
 20
-89.93037598623671
 30
-29.95297741818869
 70
   192
  0
VERTEX
  5
B76
  8
0
 10
41.00032539174238
 20
-89.81290240355747
 30
-53.59204378035215
 70
   192
  0
VERTEX
  5
B77
  8
0
 10
59.0793073098306
 20
-88.3577524870902
 30
-31.26626109185695
 70
   192
  0
VERTEX
  5
B78
  8
0
 10
-12.18147390324322
 20
-95.10286132158384
 30
-60.88060540545127
 70
   192
  0
VERTEX
  5
B79
  8
0
 10
-12.78900566570007
 20
-92.3632164628387
 30
-63.91702927172999
 70
   192
  0
VERTEX
  5
B7A
  8
0
 10
-13.5315610070201
 20
-91.3057444490695
 30
-67.62827204033469
 70
   192
  0
VERTEX
  5
B7B
  8
0
 10
-7.560985962229302
 20
-98.72734016097765
 30
-60.10334499706035
 70
   192
  0
VERTEX
  5
B7C
  8
0
 10
-11.88506235681896
 20
-98.7305769281364
 30
-59.3991256710179
 70
   192
  0
VERTEX
  5
B7D
  8
0
 10
-3.901690419095236
 20
-98.7136300431686
 30
-60.45374678962152
 70
   192
  0
VERTEX
  5
B7E
  8
0
 10
-0.0000000000125179
 20
-98.6803558960271
 30
-60.5853428218802
 70
   192
  0
VERTEX
  5
B7F
  8
0
 10
15.291285790264
 20
-91.00086532072444
 30
-66.60734036390784
 70
   192
  0
VERTEX
  5
B80
  8
0
 10
21.60182043929255
 20
-98.01542852918536
 30
-56.72887688227315
 70
   192
  0
VERTEX
  5
B81
  8
0
 10
0.0
 20
0.0
 30
0.0
 70
   128
 71
     1
 72
     2
 73
     3
  0
VERTEX
  5
B82
  8
0
 10
0.0
 20
0.0
 30
0.0
 70
   128
 71
     3
 72
     4
 73
     1
  0
VERTEX
  5
B83
  8
0
 10
0.0
 20
0.0
 30
0.0
 70
   128
 71
     3
 72
     5
 73
     4
  0
VERTEX
  5
B84
  8
0
 10
0.0
 20
0.0
 30
0.0
 70
   128
 71
     5
 72
     6
 73
     4
  0
VERTEX
  5
B85
  8
0
 10
0.0
 20
0.0
 30
0.0
 70
   128
 71
     7
 72
     8
 73
     9
  0
VERTEX
  5
B86
  8
0
 10
0.0
 20
0.0
 30
0.0
 70
   128
 71
     9
 72
    10
 73
     7
  0
VERTEX
  5
B87
  8
0
 10
0.0
 20
0.0
 30
0.0
 70
   128
 71
    10
 72
    11
 73
     7
  0
VERTEX
  5
B88
  8
0
 10
0.0
 20
0.0
 30
0.0
 70
   128
 71
     9
 72
    12
 73
    10
  0
VERTEX
  5
B89
  8
0
 10
0.0
 20
0.0
 30
0.0
 70
   128
 71
    13
 72
    12
 73
     9
  0
VERTEX
  5
B8A
  8
0
 10
0.0
 20
0.0
 30
0.0
 70
   128
 71
     9
 72
    14
 73
    15
  0
VERTEX
  5
B8B
  8
0
 10
0.0
 20
0.0
 30
0.0
 70
   128
 71
     9
 72
    15
 73
    13
  0
VERTEX
  5
B8C
  8
0
 10
0.0
 20
0.0
 30
0.0
 70
   128
 71
    14
 72
     5
 73
     3
  0
VERTEX
  5
B8D
  8
0
 10
0.0
 20
0.0
 30
0.0
 70
   128
 71
    14
 72
     3
 73
    15
  0
SEQEND
  5
CAA
  8
0
  0
POLYLINE
  5
B8E
  8
0
 66
     1
 10
0.0
 20
0.0
 30
0.0
 70
    64
 71
    10
 72
     8
  0
VERTEX
  5
B8F
  8
0
 10
0.0
 20
-102.0
 30
22.0
 70
   192
  0
VERTEX
  5
B90
  8
0
 10
0.0000000000000027
 20
-102.0
 30
-22.0
 70
   192
  0
VERTEX
  5
B91
  8
0
 10
0.0000000000000027
 20
-91.999124725835
 30
-22.0
 70
   192
  0
VERTEX
  5
B92
  8
0
 10
0.0
 20
-91.999124725835
 30
22.0
 70
   192
  0
VERTEX
  5
B93
  8
0
 10
22.0
 20
-91.999124725835
 30
0.0
 70
   192
  0
VERTEX
  5
B94
  8
0
 10
22.0
 20
-102.0
 30
0.0
 70
   192
  0
VERTEX
  5
B95
  8
0
 10
15.55634918610405
 20
-91.999124725835
 30
15.55634918610405
 70
   192
  0
VERTEX
  5
B96
  8
0
 10
15.55634918610405
 20
-102.0
 30
15.55634918610405
 70
   192
  0
VERTEX
  5
B97
  8
0
 10
15.55634918610405
 20
-91.999124725835
 30
-15.55634918610405
 70
   192
  0
VERTEX
  5
B98
  8
0
 10
15.55634918610405
 20
-102.0
 30
-15.55634918610405
 70
   192
  0
VERTEX
  5
B99
  8
0
 10
0.0
 20
0.0
 30
0.0
 70
   128
 71
     8
 72
     1
 73
    -4
  0
VERTEX
  5
B9A
  8
0
 10
0.0
 20
0.0
 30
0.0
 70
   128
 71
     7
 72
    -8
 73
     4
  0
VERTEX
  5
B9B
  8
0
 10
0.0
 20
0.0
 30
0.0
 70
   128
 71
     6
 72
     8
 73
    -7
  0
VERTEX
  5
B9C
  8
0
 10
0.0
 20
0.0
 30
0.0
 70
   128
 71
     5
 72
    -6
 73
     7
  0
VERTEX
  5
B9D
  8
0
 10
0.0
 20
0.0
 30
0.0
 70
   128
 71
    10
 72
     6
 73
    -5
  0
VERTEX
  5
B9E
  8
0
 10
0.0
 20
0.0
 30
0.0
 70
   128
 71
     9
 72
   -10
 73
     5
  0
VERTEX
  5
B9F
  8
0
 10
0.0
 20
0.0
 30
0.0
 70
   128
 71
     3
 72
     2
 73
   -10
  0
VERTEX
  5
BA0
  8
0
 10
0.0
 20
0.0
 30
0.0
 70
   128
 71
     9
 72
    -3
 73
    10
  0
SEQEND
  5
CAB
  8
0
  0
POLYLINE
  5
BA1
  8
0
 66
     1
 10
0.0
 20
0.0
 30
0.0
 70
    64
 71
    10
 72
     8
  0
VERTEX
  5
BA2
  8
0
 10
0.0
 20
-91.999124725835
 30
22.0
 70
   192
  0
VERTEX
  5
BA3
  8
0
 10
0.0000000000000027
 20
-91.99912472583503
 30
-22.00000000000003
 70
   192
  0
VERTEX
  5
BA4
  8
0
 10
0.0000000000000043
 20
-81.0753686281752
 30
-35.01842557400909
 70
   192
  0
VERTEX
  5
BA5
  8
0
 10
0.0
 20
-81.0753686281752
 30
35.01842557400909
 70
   192
  0
VERTEX
  5
BA6
  8
0
 10
35.01842557400909
 20
-81.0753686281752
 30
0.0000000000000039
 70
   192
  0
VERTEX
  5
BA7
  8
0
 10
22.0
 20
-91.999124725835
 30
0.0
 70
   192
  0
VERTEX
  5
BA8
  8
0
 10
24.76176618985825
 20
-81.0753686281752
 30
24.76176618985825
 70
   192
  0
VERTEX
  5
BA9
  8
0
 10
15.55634918610405
 20
-91.999124725835
 30
15.55634918610405
 70
   192
  0
VERTEX
  5
BAA
  8
0
 10
24.76176618985825
 20
-81.0753686281752
 30
-24.76176618985825
 70
   192
  0
VERTEX
  5
BAB
  8
0
 10
15.55634918610405
 20
-91.999124725835
 30
-15.55634918610405
 70
   192
  0
VERTEX
  5
BAC
  8
0
 10
0.0
 20
0.0
 30
0.0
 70
   128
 71
     8
 72
     1
 73
    -4
  0
VERTEX
  5
BAD
  8
0
 10
0.0
 20
0.0
 30
0.0
 70
   128
 71
     7
 72
    -8
 73
     4
  0
VERTEX
  5
BAE
  8
0
 10
0.0
 20
0.0
 30
0.0
 70
   128
 71
     6
 72
     8
 73
    -7
  0
VERTEX
  5
BAF
  8
0
 10
0.0
 20
0.0
 30
0.0
 70
   128
 71
     5
 72
    -6
 73
     7
  0
VERTEX
  5
BB0
  8
0
 10
0.0
 20
0.0
 30
0.0
 70
   128
 71
    10
 72
     6
 73
    -5
  0
VERTEX
  5
BB1
  8
0
 10
0.0
 20
0.0
 30
0.0
 70
   128
 71
     9
 72
   -10
 73
     5
  0
VERTEX
  5
BB2
  8
0
 10
0.0
 20
0.0
 30
0.0
 70
   128
 71
     3
 72
     2
 73
   -10
  0
VERTEX
  5
BB3
  8
0
 10
0.0
 20
0.0
 30
0.0
 70
   128
 71
     9
 72
    -3
 73
    10
  0
SEQEND
  5
CAC
  8
0
  0
POLYLINE
  5
BB4
  8
0
 66
     1
 10
0.0
 20
0.0
 30
0.0
 70
    64
 71
    23
 72
    30
  0
VERTEX
  5
BB5
  8
0
 10
-26.28420222422749
 20
-80.01943531145669
 30
-26.28420222422748
 70
   192
  0
VERTEX
  5
BB6
  8
0
 10
-26.84932803042215
 20
-79.9124431699972
 30
-26.84932803042214
 70
   192
  0
VERTEX
  5
BB7
  8
0
 10
-37.9706838412271
 20
-79.9124431699972
 30
0.0000000000000042
 70
   192
  0
VERTEX
  5
BB8
  8
0
 10
-37.17147526165958
 20
-80.01943531145669
 30
0.0000000000000068
 70
   192
  0
VERTEX
  5
BB9
  8
0
 10
-26.28420222422748
 20
-80.01943531145669
 30
26.28420222422749
 70
   192
  0
VERTEX
  5
BBA
  8
0
 10
-26.84932803042214
 20
-79.9124431699972
 30
26.84932803042215
 70
   192
  0
VERTEX
  5
BBB
  8
0
 10
0.0000000000000047
 20
-79.9124431699972
 30
37.9706838412271
 70
   192
  0
VERTEX
  5
BBC
  8
0
 10
-36.39985748882032
 20
-80.25350300385996
 30
0.0000000000000067
 70
   192
  0
VERTEX
  5
BBD
  8
0
 10
-25.73858606456879
 20
-80.25350300385996
 30
-25.73858606456877
 70
   192
  0
VERTEX
  5
BBE
  8
0
 10
0.0000000000000045
 20
-80.0835721431954
 30
36.9101928122558
 70
   192
  0
VERTEX
  5
BBF
  8
0
 10
-25.73858606456877
 20
-80.25350300385996
 30
25.73858606456879
 70
   192
  0
VERTEX
  5
BC0
  8
0
 10
-35.67589819205653
 20
-80.60855878626282
 30
0.0000000000000066
 70
   192
  0
VERTEX
  5
BC1
  8
0
 10
-25.22666953652407
 20
-80.60855878626282
 30
-25.22666953652406
 70
   192
  0
VERTEX
  5
BC2
  8
0
 10
0.0
 20
-80.47727129355854
 30
-35.91072929266151
 70
   192
  0
VERTEX
  5
BC3
  8
0
 10
-25.22666953652406
 20
-80.60855878626282
 30
25.22666953652407
 70
   192
  0
VERTEX
  5
BC4
  8
0
 10
-35.0184255740091
 20
-81.0753686281752
 30
0.0
 70
   192
  0
VERTEX
  5
BC5
  8
0
 10
-24.76176618985825
 20
-81.0753686281752
 30
-24.76176618985825
 70
   192
  0
VERTEX
  5
BC6
  8
0
 10
-24.76176618985825
 20
-81.0753686281752
 30
24.76176618985825
 70
   192
  0
VERTEX
  5
BC7
  8
0
 10
0.0
 20
-80.0835721431954
 30
-36.9101928122558
 70
   192
  0
VERTEX
  5
BC8
  8
0
 10
0.0000000000000044
 20
-80.47727129355854
 30
35.91072929266151
 70
   192
  0
VERTEX
  5
BC9
  8
0
 10
0.0
 20
-81.0753686281752
 30
-35.01842557400909
 70
   192
  0
VERTEX
  5
BCA
  8
0
 10
0.0000000000000043
 20
-81.07536862817518
 30
35.01842557400909
 70
   192
  0
VERTEX
  5
BCB
  8
0
 10
0.0
 20
-79.91244316999723
 30
-37.9706838412271
 70
   192
  0
VERTEX
  5
BCC
  8
0
 10
0.0
 20
0.0
 30
0.0
 70
   128
 71
     1
 72
     2
 73
    -3
  0
VERTEX
  5
BCD
  8
0
 10
0.0
 20
0.0
 30
0.0
 70
   128
 71
    -1
 72
     3
 73
     4
  0
VERTEX
  5
BCE
  8
0
 10
0.0
 20
0.0
 30
0.0
 70
   128
 71
     5
 72
     6
 73
     7
  0
VERTEX
  5
BCF
  8
0
 10
0.0
 20
0.0
 30
0.0
 70
   128
 71
     4
 72
     3
 73
    -6
  0
VERTEX
  5
BD0
  8
0
 10
0.0
 20
0.0
 30
0.0
 70
   128
 71
    -4
 72
     6
 73
     5
  0
VERTEX
  5
BD1
  8
0
 10
0.0
 20
0.0
 30
0.0
 70
   128
 71
     8
 72
     9
 73
    -1
  0
VERTEX
  5
BD2
  8
0
 10
0.0
 20
0.0
 30
0.0
 70
   128
 71
    -8
 72
     1
 73
     4
  0
VERTEX
  5
BD3
  8
0
 10
0.0
 20
0.0
 30
0.0
 70
   128
 71
    10
 72
    11
 73
     5
  0
VERTEX
  5
BD4
  8
0
 10
0.0
 20
0.0
 30
0.0
 70
   128
 71
    11
 72
     8
 73
    -4
  0
VERTEX
  5
BD5
  8
0
 10
0.0
 20
0.0
 30
0.0
 70
   128
 71
   -11
 72
     4
 73
     5
  0
VERTEX
  5
BD6
  8
0
 10
0.0
 20
0.0
 30
0.0
 70
   128
 71
    12
 72
    13
 73
    -9
  0
VERTEX
  5
BD7
  8
0
 10
0.0
 20
0.0
 30
0.0
 70
   128
 71
   -12
 72
     9
 73
     8
  0
VERTEX
  5
BD8
  8
0
 10
0.0
 20
0.0
 30
0.0
 70
   128
 71
    14
 72
     9
 73
    13
  0
VERTEX
  5
BD9
  8
0
 10
0.0
 20
0.0
 30
0.0
 70
   128
 71
    15
 72
    12
 73
    -8
  0
VERTEX
  5
BDA
  8
0
 10
0.0
 20
0.0
 30
0.0
 70
   128
 71
   -15
 72
     8
 73
    11
  0
VERTEX
  5
BDB
  8
0
 10
0.0
 20
0.0
 30
0.0
 70
   128
 71
    12
 72
    16
 73
   -17
  0
VERTEX
  5
BDC
  8
0
 10
0.0
 20
0.0
 30
0.0
 70
   128
 71
   -12
 72
    17
 73
    13
  0
VERTEX
  5
BDD
  8
0
 10
0.0
 20
0.0
 30
0.0
 70
   128
 71
    15
 72
    18
 73
   -16
  0
VERTEX
  5
BDE
  8
0
 10
0.0
 20
0.0
 30
0.0
 70
   128
 71
   -15
 72
    16
 73
    12
  0
VERTEX
  5
BDF
  8
0
 10
0.0
 20
0.0
 30
0.0
 70
   128
 71
     1
 72
     9
 73
    14
  0
VERTEX
  5
BE0
  8
0
 10
0.0
 20
0.0
 30
0.0
 70
   128
 71
     1
 72
    14
 73
    19
  0
VERTEX
  5
BE1
  8
0
 10
0.0
 20
0.0
 30
0.0
 70
   128
 71
    20
 72
    15
 73
    11
  0
VERTEX
  5
BE2
  8
0
 10
0.0
 20
0.0
 30
0.0
 70
   128
 71
    20
 72
    11
 73
    10
  0
VERTEX
  5
BE3
  8
0
 10
0.0
 20
0.0
 30
0.0
 70
   128
 71
    13
 72
    17
 73
    21
  0
VERTEX
  5
BE4
  8
0
 10
0.0
 20
0.0
 30
0.0
 70
   128
 71
    13
 72
    21
 73
    14
  0
VERTEX
  5
BE5
  8
0
 10
0.0
 20
0.0
 30
0.0
 70
   128
 71
    22
 72
    18
 73
    15
  0
VERTEX
  5
BE6
  8
0
 10
0.0
 20
0.0
 30
0.0
 70
   128
 71
    22
 72
    15
 73
    20
  0
VERTEX
  5
BE7
  8
0
 10
0.0
 20
0.0
 30
0.0
 70
   128
 71
     2
 72
     1
 73
    19
  0
VERTEX
  5
BE8
  8
0
 10
0.0
 20
0.0
 30
0.0
 70
   128
 71
     2
 72
    19
 73
    23
  0
VERTEX
  5
BE9
  8
0
 10
0.0
 20
0.0
 30
0.0
 70
   128
 71
    10
 72
     5
 73
     7
  0
SEQEND
  5
CAD
  8
0
  0
POLYLINE
  5
BEA
  8
0
 66
     1
 10
0.0
 20
0.0
 30
0.0
 70
    64
 71
    27
 72
    34
  0
VERTEX
  5
BEB
  8
0
 10
-131.0106535248844
 20
-2.58248069711986
 30
58.31852800361197
 70
   192
  0
VERTEX
  5
BEC
  8
0
 10
-146.637056007224
 20
-2.58248069711986
 30
-0.0000000000000324
 70
   192
  0
VERTEX
  5
BED
  8
0
 10
-146.9714088754627
 20
-1.568523719221201
 30
-0.0000000000000215
 70
   192
  0
VERTEX
  5
BEE
  8
0
 10
-112.711276420784
 20
-1.568523719221201
 30
82.71127642078396
 70
   192
  0
VERTEX
  5
BEF
  8
0
 10
-30.0
 20
-2.582480697119842
 30
116.6370560072239
 70
   192
  0
VERTEX
  5
BF0
  8
0
 10
-88.31852800361204
 20
-2.58248069711986
 30
101.0106535248843
 70
   192
  0
VERTEX
  5
BF1
  8
0
 10
-112.711276420784
 20
-1.568523719221201
 30
-82.711276420784
 70
   192
  0
VERTEX
  5
BF2
  8
0
 10
-131.0106535248843
 20
-2.58248069711986
 30
-58.31852800361203
 70
   192
  0
VERTEX
  5
BF3
  8
0
 10
-147.6396831264771
 20
-0.7358712593316952
 30
-0.0000000000000216
 70
   192
  0
VERTEX
  5
BF4
  8
0
 10
-113.1838176753686
 20
-0.7358712593316952
 30
83.18381767536859
 70
   192
  0
VERTEX
  5
BF5
  8
0
 10
-30.0
 20
-1.265002991496061
 30
-117.1604564093161
 70
   192
  0
VERTEX
  5
BF6
  8
0
 10
-113.1838176753686
 20
-0.7358712593316952
 30
-83.18381767536863
 70
   192
  0
VERTEX
  5
BF7
  8
0
 10
-148.5572380696702
 20
-0.1899834322548082
 30
-0.0000000000000218
 70
   192
  0
VERTEX
  5
BF8
  8
0
 10
-113.8326269978117
 20
-0.1899834322548082
 30
83.83262699781169
 70
   192
  0
VERTEX
  5
BF9
  8
0
 10
-30.0
 20
-0.3349492476209912
 30
118.2303608532876
 70
   192
  0
VERTEX
  5
BFA
  8
0
 10
-113.8326269978117
 20
-0.1899834322548082
 30
-83.83262699781173
 70
   192
  0
VERTEX
  5
BFB
  8
0
 10
-149.6078602134486
 20
0.0
 30
0.0000000000000332
 70
   192
  0
VERTEX
  5
BFC
  8
0
 10
-133.5834454371445
 20
0.0
 30
59.80393010672433
 70
   192
  0
VERTEX
  5
BFD
  8
0
 10
-30.0
 20
0.0000000000000027
 30
-119.6078602134486
 70
   192
  0
VERTEX
  5
BFE
  8
0
 10
-89.80393010672435
 20
0.0
 30
-103.5834454371445
 70
   192
  0
VERTEX
  5
BFF
  8
0
 10
-133.5834454371445
 20
0.0
 30
-59.80393010672427
 70
   192
  0
VERTEX
  5
C00
  8
0
 10
-30.0
 20
-1.265002991496061
 30
117.1604564093161
 70
   192
  0
VERTEX
  5
C01
  8
0
 10
-30.0
 20
-0.3349492476209912
 30
-118.2303608532876
 70
   192
  0
VERTEX
  5
C02
  8
0
 10
-89.8039301067243
 20
0.0
 30
103.5834454371445
 70
   192
  0
VERTEX
  5
C03
  8
0
 10
-30.0
 20
0.0
 30
119.6078602134486
 70
   192
  0
VERTEX
  5
C04
  8
0
 10
-88.31852800361199
 20
-2.58248069711986
 30
-101.0106535248844
 70
   192
  0
VERTEX
  5
C05
  8
0
 10
-30.0
 20
-2.58248069711986
 30
-116.637056007224
 70
   192
  0
VERTEX
  5
C06
  8
0
 10
0.0
 20
0.0
 30
0.0
 70
   128
 71
     1
 72
     2
 73
     3
  0
VERTEX
  5
C07
  8
0
 10
0.0
 20
0.0
 30
0.0
 70
   128
 71
     1
 72
     3
 73
     4
  0
VERTEX
  5
C08
  8
0
 10
0.0
 20
0.0
 30
0.0
 70
   128
 71
     4
 72
     5
 73
     6
  0
VERTEX
  5
C09
  8
0
 10
0.0
 20
0.0
 30
0.0
 70
   128
 71
     7
 72
     3
 73
     2
  0
VERTEX
  5
C0A
  8
0
 10
0.0
 20
0.0
 30
0.0
 70
   128
 71
     7
 72
     2
 73
     8
  0
VERTEX
  5
C0B
  8
0
 10
0.0
 20
0.0
 30
0.0
 70
   128
 71
     9
 72
    10
 73
    -4
  0
VERTEX
  5
C0C
  8
0
 10
0.0
 20
0.0
 30
0.0
 70
   128
 71
    -9
 72
     4
 73
     3
  0
VERTEX
  5
C0D
  8
0
 10
0.0
 20
0.0
 30
0.0
 70
   128
 71
    11
 72
    12
 73
     7
  0
VERTEX
  5
C0E
  8
0
 10
0.0
 20
0.0
 30
0.0
 70
   128
 71
    12
 72
     9
 73
    -3
  0
VERTEX
  5
C0F
  8
0
 10
0.0
 20
0.0
 30
0.0
 70
   128
 71
   -12
 72
     3
 73
     7
  0
VERTEX
  5
C10
  8
0
 10
0.0
 20
0.0
 30
0.0
 70
   128
 71
    13
 72
    14
 73
   -10
  0
VERTEX
  5
C11
  8
0
 10
0.0
 20
0.0
 30
0.0
 70
   128
 71
   -13
 72
    10
 73
     9
  0
VERTEX
  5
C12
  8
0
 10
0.0
 20
0.0
 30
0.0
 70
   128
 71
    15
 72
    10
 73
    14
  0
VERTEX
  5
C13
  8
0
 10
0.0
 20
0.0
 30
0.0
 70
   128
 71
    16
 72
    13
 73
    -9
  0
VERTEX
  5
C14
  8
0
 10
0.0
 20
0.0
 30
0.0
 70
   128
 71
   -16
 72
     9
 73
    12
  0
VERTEX
  5
C15
  8
0
 10
0.0
 20
0.0
 30
0.0
 70
   128
 71
    14
 72
    13
 73
    17
  0
VERTEX
  5
C16
  8
0
 10
0.0
 20
0.0
 30
0.0
 70
   128
 71
    14
 72
    17
 73
    18
  0
VERTEX
  5
C17
  8
0
 10
0.0
 20
0.0
 30
0.0
 70
   128
 71
    16
 72
    19
 73
    20
  0
VERTEX
  5
C18
  8
0
 10
0.0
 20
0.0
 30
0.0
 70
   128
 71
    21
 72
    17
 73
    13
  0
VERTEX
  5
C19
  8
0
 10
0.0
 20
0.0
 30
0.0
 70
   128
 71
    21
 72
    13
 73
    16
  0
VERTEX
  5
C1A
  8
0
 10
0.0
 20
0.0
 30
0.0
 70
   128
 71
     4
 72
    10
 73
    15
  0
VERTEX
  5
C1B
  8
0
 10
0.0
 20
0.0
 30
0.0
 70
   128
 71
     4
 72
    15
 73
    22
  0
VERTEX
  5
C1C
  8
0
 10
0.0
 20
0.0
 30
0.0
 70
   128
 71
    23
 72
    16
 73
    12
  0
VERTEX
  5
C1D
  8
0
 10
0.0
 20
0.0
 30
0.0
 70
   128
 71
    23
 72
    12
 73
    11
  0
VERTEX
  5
C1E
  8
0
 10
0.0
 20
0.0
 30
0.0
 70
   128
 71
    14
 72
    24
 73
    25
  0
VERTEX
  5
C1F
  8
0
 10
0.0
 20
0.0
 30
0.0
 70
   128
 71
    14
 72
    25
 73
    15
  0
VERTEX
  5
C20
  8
0
 10
0.0
 20
0.0
 30
0.0
 70
   128
 71
    19
 72
    16
 73
    23
  0
VERTEX
  5
C21
  8
0
 10
0.0
 20
0.0
 30
0.0
 70
   128
 71
     4
 72
    22
 73
     5
  0
VERTEX
  5
C22
  8
0
 10
0.0
 20
0.0
 30
0.0
 70
   128
 71
    11
 72
     7
 73
    26
  0
VERTEX
  5
C23
  8
0
 10
0.0
 20
0.0
 30
0.0
 70
   128
 71
    11
 72
    26
 73
    27
  0
VERTEX
  5
C24
  8
0
 10
0.0
 20
0.0
 30
0.0
 70
   128
 71
     1
 72
     4
 73
     6
  0
VERTEX
  5
C25
  8
0
 10
0.0
 20
0.0
 30
0.0
 70
   128
 71
    26
 72
     7
 73
     8
  0
VERTEX
  5
C26
  8
0
 10
0.0
 20
0.0
 30
0.0
 70
   128
 71
    18
 72
    24
 73
    14
  0
VERTEX
  5
C27
  8
0
 10
0.0
 20
0.0
 30
0.0
 70
   128
 71
    20
 72
    21
 73
    16
  0
SEQEND
  5
CAE
  8
0
  0
POLYLINE
  5
C28
  8
0
 66
     1
 10
0.0
 20
0.0
 30
0.0
 70
    64
 71
    39
 72
    58
  0
VERTEX
  5
C29
  8
0
 10
-91.98223484310478
 20
0.0
 30
107.3563799149233
 70
   192
  0
VERTEX
  5
C2A
  8
0
 10
-117.9324057718883
 20
-0.0794951465475602
 30
87.93240577188828
 70
   192
  0
VERTEX
  5
C2B
  8
0
 10
-77.58867508021898
 20
-0.0794951465475602
 30
114.889224794031
 70
   192
  0
VERTEX
  5
C2C
  8
0
 10
-144.889224794031
 20
-0.0794951465475602
 30
47.58867508021893
 70
   192
  0
VERTEX
  5
C2D
  8
0
 10
-153.9644696862094
 20
0.0
 30
-0.0000000000000482
 70
   192
  0
VERTEX
  5
C2E
  8
0
 10
-154.3552008146987
 20
-0.0794951465475602
 30
-0.0000000000000228
 70
   192
  0
VERTEX
  5
C2F
  8
0
 10
-137.3563799149233
 20
0.0
 30
-61.98223484310474
 70
   192
  0
VERTEX
  5
C30
  8
0
 10
-117.9324057718883
 20
-0.0794951465475602
 30
-87.93240577188833
 70
   192
  0
VERTEX
  5
C31
  8
0
 10
-144.889224794031
 20
-0.0794951465475602
 30
-47.58867508021897
 70
   192
  0
VERTEX
  5
C32
  8
0
 10
-118.1647671921097
 20
-0.3053416295410045
 30
88.1647671921097
 70
   192
  0
VERTEX
  5
C33
  8
0
 10
-77.71442817466723
 20
-0.3053416295410045
 30
115.1928196201583
 70
   192
  0
VERTEX
  5
C34
  8
0
 10
-154.6838094865481
 20
-0.3053416295410045
 30
-0.0000000000000229
 70
   192
  0
VERTEX
  5
C35
  8
0
 10
-145.1928196201583
 20
-0.3053416295410045
 30
47.71442817466718
 70
   192
  0
VERTEX
  5
C36
  8
0
 10
-118.1647671921097
 20
-0.3053416295410045
 30
-88.16476719210974
 70
   192
  0
VERTEX
  5
C37
  8
0
 10
-145.1928196201583
 20
-0.3053416295410045
 30
-47.71442817466722
 70
   192
  0
VERTEX
  5
C38
  8
0
 10
-30.0
 20
-0.1398508521046345
 30
-124.4745122759751
 70
   192
  0
VERTEX
  5
C39
  8
0
 10
-77.71442817466713
 20
-0.3053416295410045
 30
-115.1928196201584
 70
   192
  0
VERTEX
  5
C3A
  8
0
 10
-77.58867508021888
 20
-0.0794951465475602
 30
-114.889224794031
 70
   192
  0
VERTEX
  5
C3B
  8
0
 10
-118.3162581916721
 20
-0.6416320504547032
 30
88.31625819167205
 70
   192
  0
VERTEX
  5
C3C
  8
0
 10
-77.79641451283763
 20
-0.6416320504547032
 30
115.3907521496986
 70
   192
  0
VERTEX
  5
C3D
  8
0
 10
-30.0
 20
-0.5202868867497558
 30
124.841895084164
 70
   192
  0
VERTEX
  5
C3E
  8
0
 10
-154.8980501127066
 20
-0.6416320504547032
 30
-0.0000000000000229
 70
   192
  0
VERTEX
  5
C3F
  8
0
 10
-145.3907521496986
 20
-0.6416320504547032
 30
47.79641451283758
 70
   192
  0
VERTEX
  5
C40
  8
0
 10
-118.3162581916721
 20
-0.6416320504547032
 30
-88.31625819167209
 70
   192
  0
VERTEX
  5
C41
  8
0
 10
-145.3907521496986
 20
-0.6416320504547032
 30
-47.79641451283762
 70
   192
  0
VERTEX
  5
C42
  8
0
 10
-77.79641451283754
 20
-0.6416320504547032
 30
-115.3907521496986
 70
   192
  0
VERTEX
  5
C43
  8
0
 10
-138.2218777594309
 20
-1.034899496702502
 30
62.48193025661423
 70
   192
  0
VERTEX
  5
C44
  8
0
 10
-154.9638605132284
 20
-1.034899496702502
 30
0.0000000000000347
 70
   192
  0
VERTEX
  5
C45
  8
0
 10
-92.48193025661425
 20
-1.034899496702502
 30
-108.2218777594309
 70
   192
  0
VERTEX
  5
C46
  8
0
 10
-30.0
 20
-0.1398508521046345
 30
124.4745122759751
 70
   192
  0
VERTEX
  5
C47
  8
0
 10
-30.0
 20
-0.5202868867497558
 30
-124.841895084164
 70
   192
  0
VERTEX
  5
C48
  8
0
 10
-30.0
 20
-1.034899496702502
 30
124.9638605132284
 70
   192
  0
VERTEX
  5
C49
  8
0
 10
-30.0
 20
-1.034899496702505
 30
-124.9638605132285
 70
   192
  0
VERTEX
  5
C4A
  8
0
 10
-29.99999999999999
 20
0.0
 30
-123.9644696862094
 70
   192
  0
VERTEX
  5
C4B
  8
0
 10
-137.3563799149233
 20
0.0
 30
61.98223484310465
 70
   192
  0
VERTEX
  5
C4C
  8
0
 10
-30.0
 20
0.0000000000000009
 30
123.9644696862094
 70
   192
  0
VERTEX
  5
C4D
  8
0
 10
-91.98223484310468
 20
0.0
 30
-107.3563799149233
 70
   192
  0
VERTEX
  5
C4E
  8
0
 10
-92.48193025661419
 20
-1.034899496702502
 30
108.2218777594309
 70
   192
  0
VERTEX
  5
C4F
  8
0
 10
-138.2218777594309
 20
-1.034899496702502
 30
-62.48193025661416
 70
   192
  0
VERTEX
  5
C50
  8
0
 10
0.0
 20
0.0
 30
0.0
 70
   128
 71
     1
 72
     2
 73
     3
  0
VERTEX
  5
C51
  8
0
 10
0.0
 20
0.0
 30
0.0
 70
   128
 71
     4
 72
     5
 73
     6
  0
VERTEX
  5
C52
  8
0
 10
0.0
 20
0.0
 30
0.0
 70
   128
 71
     7
 72
     8
 73
     9
  0
VERTEX
  5
C53
  8
0
 10
0.0
 20
0.0
 30
0.0
 70
   128
 71
    10
 72
    11
 73
    -3
  0
VERTEX
  5
C54
  8
0
 10
0.0
 20
0.0
 30
0.0
 70
   128
 71
   -10
 72
     3
 73
     2
  0
VERTEX
  5
C55
  8
0
 10
0.0
 20
0.0
 30
0.0
 70
   128
 71
    12
 72
    13
 73
    -4
  0
VERTEX
  5
C56
  8
0
 10
0.0
 20
0.0
 30
0.0
 70
   128
 71
   -12
 72
     4
 73
     6
  0
VERTEX
  5
C57
  8
0
 10
0.0
 20
0.0
 30
0.0
 70
   128
 71
    13
 72
    10
 73
    -2
  0
VERTEX
  5
C58
  8
0
 10
0.0
 20
0.0
 30
0.0
 70
   128
 71
   -13
 72
     2
 73
     4
  0
VERTEX
  5
C59
  8
0
 10
0.0
 20
0.0
 30
0.0
 70
   128
 71
    14
 72
    15
 73
    -9
  0
VERTEX
  5
C5A
  8
0
 10
0.0
 20
0.0
 30
0.0
 70
   128
 71
   -14
 72
     9
 73
     8
  0
VERTEX
  5
C5B
  8
0
 10
0.0
 20
0.0
 30
0.0
 70
   128
 71
    15
 72
    12
 73
    -6
  0
VERTEX
  5
C5C
  8
0
 10
0.0
 20
0.0
 30
0.0
 70
   128
 71
   -15
 72
     6
 73
     9
  0
VERTEX
  5
C5D
  8
0
 10
0.0
 20
0.0
 30
0.0
 70
   128
 71
    16
 72
    17
 73
    18
  0
VERTEX
  5
C5E
  8
0
 10
0.0
 20
0.0
 30
0.0
 70
   128
 71
    17
 72
    14
 73
    -8
  0
VERTEX
  5
C5F
  8
0
 10
0.0
 20
0.0
 30
0.0
 70
   128
 71
   -17
 72
     8
 73
    18
  0
VERTEX
  5
C60
  8
0
 10
0.0
 20
0.0
 30
0.0
 70
   128
 71
    19
 72
    20
 73
   -11
  0
VERTEX
  5
C61
  8
0
 10
0.0
 20
0.0
 30
0.0
 70
   128
 71
   -19
 72
    11
 73
    10
  0
VERTEX
  5
C62
  8
0
 10
0.0
 20
0.0
 30
0.0
 70
   128
 71
    21
 72
    11
 73
    20
  0
VERTEX
  5
C63
  8
0
 10
0.0
 20
0.0
 30
0.0
 70
   128
 71
    22
 72
    23
 73
   -13
  0
VERTEX
  5
C64
  8
0
 10
0.0
 20
0.0
 30
0.0
 70
   128
 71
   -22
 72
    13
 73
    12
  0
VERTEX
  5
C65
  8
0
 10
0.0
 20
0.0
 30
0.0
 70
   128
 71
    23
 72
    19
 73
   -10
  0
VERTEX
  5
C66
  8
0
 10
0.0
 20
0.0
 30
0.0
 70
   128
 71
   -23
 72
    10
 73
    13
  0
VERTEX
  5
C67
  8
0
 10
0.0
 20
0.0
 30
0.0
 70
   128
 71
    24
 72
    25
 73
   -15
  0
VERTEX
  5
C68
  8
0
 10
0.0
 20
0.0
 30
0.0
 70
   128
 71
   -24
 72
    15
 73
    14
  0
VERTEX
  5
C69
  8
0
 10
0.0
 20
0.0
 30
0.0
 70
   128
 71
    25
 72
    22
 73
   -12
  0
VERTEX
  5
C6A
  8
0
 10
0.0
 20
0.0
 30
0.0
 70
   128
 71
   -25
 72
    12
 73
    15
  0
VERTEX
  5
C6B
  8
0
 10
0.0
 20
0.0
 30
0.0
 70
   128
 71
    26
 72
    24
 73
   -14
  0
VERTEX
  5
C6C
  8
0
 10
0.0
 20
0.0
 30
0.0
 70
   128
 71
   -26
 72
    14
 73
    17
  0
VERTEX
  5
C6D
  8
0
 10
0.0
 20
0.0
 30
0.0
 70
   128
 71
    27
 72
    19
 73
    23
  0
VERTEX
  5
C6E
  8
0
 10
0.0
 20
0.0
 30
0.0
 70
   128
 71
    25
 72
    28
 73
    22
  0
VERTEX
  5
C6F
  8
0
 10
0.0
 20
0.0
 30
0.0
 70
   128
 71
    29
 72
    24
 73
    26
  0
VERTEX
  5
C70
  8
0
 10
0.0
 20
0.0
 30
0.0
 70
   128
 71
     3
 72
    11
 73
    21
  0
VERTEX
  5
C71
  8
0
 10
0.0
 20
0.0
 30
0.0
 70
   128
 71
     3
 72
    21
 73
    30
  0
VERTEX
  5
C72
  8
0
 10
0.0
 20
0.0
 30
0.0
 70
   128
 71
    31
 72
    26
 73
    17
  0
VERTEX
  5
C73
  8
0
 10
0.0
 20
0.0
 30
0.0
 70
   128
 71
    31
 72
    17
 73
    16
  0
VERTEX
  5
C74
  8
0
 10
0.0
 20
0.0
 30
0.0
 70
   128
 71
    20
 72
    32
 73
    21
  0
VERTEX
  5
C75
  8
0
 10
0.0
 20
0.0
 30
0.0
 70
   128
 71
    33
 72
    26
 73
    31
  0
VERTEX
  5
C76
  8
0
 10
0.0
 20
0.0
 30
0.0
 70
   128
 71
    16
 72
    18
 73
    34
  0
VERTEX
  5
C77
  8
0
 10
0.0
 20
0.0
 30
0.0
 70
   128
 71
    35
 72
     4
 73
     2
  0
VERTEX
  5
C78
  8
0
 10
0.0
 20
0.0
 30
0.0
 70
   128
 71
    35
 72
     2
 73
     1
  0
VERTEX
  5
C79
  8
0
 10
0.0
 20
0.0
 30
0.0
 70
   128
 71
     1
 72
     3
 73
    30
  0
VERTEX
  5
C7A
  8
0
 10
0.0
 20
0.0
 30
0.0
 70
   128
 71
     1
 72
    30
 73
    36
  0
VERTEX
  5
C7B
  8
0
 10
0.0
 20
0.0
 30
0.0
 70
   128
 71
     5
 72
     4
 73
    35
  0
VERTEX
  5
C7C
  8
0
 10
0.0
 20
0.0
 30
0.0
 70
   128
 71
    37
 72
    18
 73
     8
  0
VERTEX
  5
C7D
  8
0
 10
0.0
 20
0.0
 30
0.0
 70
   128
 71
    37
 72
     8
 73
     7
  0
VERTEX
  5
C7E
  8
0
 10
0.0
 20
0.0
 30
0.0
 70
   128
 71
     7
 72
     9
 73
     6
  0
VERTEX
  5
C7F
  8
0
 10
0.0
 20
0.0
 30
0.0
 70
   128
 71
     7
 72
     6
 73
     5
  0
VERTEX
  5
C80
  8
0
 10
0.0
 20
0.0
 30
0.0
 70
   128
 71
    34
 72
    18
 73
    37
  0
VERTEX
  5
C81
  8
0
 10
0.0
 20
0.0
 30
0.0
 70
   128
 71
    27
 72
    38
 73
    20
  0
VERTEX
  5
C82
  8
0
 10
0.0
 20
0.0
 30
0.0
 70
   128
 71
    27
 72
    20
 73
    19
  0
VERTEX
  5
C83
  8
0
 10
0.0
 20
0.0
 30
0.0
 70
   128
 71
    38
 72
    32
 73
    20
  0
VERTEX
  5
C84
  8
0
 10
0.0
 20
0.0
 30
0.0
 70
   128
 71
    22
 72
    28
 73
    27
  0
VERTEX
  5
C85
  8
0
 10
0.0
 20
0.0
 30
0.0
 70
   128
 71
    22
 72
    27
 73
    23
  0
VERTEX
  5
C86
  8
0
 10
0.0
 20
0.0
 30
0.0
 70
   128
 71
    29
 72
    39
 73
    25
  0
VERTEX
  5
C87
  8
0
 10
0.0
 20
0.0
 30
0.0
 70
   128
 71
    29
 72
    25
 73
    24
  0
VERTEX
  5
C88
  8
0
 10
0.0
 20
0.0
 30
0.0
 70
   128
 71
    39
 72
    28
 73
    25
  0
VERTEX
  5
C89
  8
0
 10
0.0
 20
0.0
 30
0.0
 70
   128
 71
    33
 72
    29
 73
    26
  0
SEQEND
  5
CAF
  8
0
  0
ENDBLK
  5
C8B
  8
0
  0
ENDSEC
  0
SECTION
  2
ENTITIES
  0
INSERT
  5
BE
  8
0
  2
*X1
 10
0.0
 20
0.0
 30
0.0
  0
ENDSEC
  0
EOF
