  0
SECTION
  2
HEADER
  9
$ACADVER
  1
AC1009
  9
$DWGCODEPAGE
  3
ansi_1250
  9
$INSBASE
 10
0.0
 20
0.0
 30
0.0
  9
$EXTMIN
 10
-42.0
 20
-18.5
 30
-26.0
  9
$EXTMAX
 10
32.5
 20
33.50000000000003
 30
26.0
  9
$LIMMIN
 10
0.0
 20
0.0
  9
$LIMMAX
 10
420.0
 20
297.0
  9
$ORTHOMODE
 70
     0
  9
$REGENMODE
 70
     1
  9
$FILLMODE
 70
     1
  9
$QTEXTMODE
 70
     0
  9
$MIRRTEXT
 70
     0
  9
$DRAGMODE
 70
     2
  9
$LTSCALE
 40
1.0
  9
$OSMODE
 70
   511
  9
$ATTMODE
 70
     1
  9
$TEXTSIZE
 40
2.5
  9
$TRACEWID
 40
1.0
  9
$TEXTSTYLE
  7
STANDARD
  9
$CLAYER
  8
0
  9
$CELTYPE
  6
BYLAYER
  9
$CECOLOR
 62
   256
  9
$DIMSCALE
 40
1.0
  9
$DIMASZ
 40
2.5
  9
$DIMEXO
 40
0.625
  9
$DIMDLI
 40
3.75
  9
$DIMRND
 40
0.0
  9
$DIMDLE
 40
0.0
  9
$DIMEXE
 40
1.25
  9
$DIMTP
 40
0.0
  9
$DIMTM
 40
0.0
  9
$DIMTXT
 40
2.5
  9
$DIMCEN
 40
-2.5
  9
$DIMTSZ
 40
0.0
  9
$DIMTOL
 70
     0
  9
$DIMLIM
 70
     0
  9
$DIMTIH
 70
     0
  9
$DIMTOH
 70
     0
  9
$DIMSE1
 70
     0
  9
$DIMSE2
 70
     0
  9
$DIMTAD
 70
     1
  9
$DIMZIN
 70
     8
  9
$DIMBLK
  1

  9
$DIMASO
 70
     1
  9
$DIMSHO
 70
     1
  9
$DIMPOST
  1

  9
$DIMAPOST
  1

  9
$DIMALT
 70
     0
  9
$DIMALTD
 70
     3
  9
$DIMALTF
 40
0.03937007874016
  9
$DIMLFAC
 40
1.0
  9
$DIMTOFL
 70
     1
  9
$DIMTVP
 40
0.0
  9
$DIMTIX
 70
     0
  9
$DIMSOXD
 70
     0
  9
$DIMSAH
 70
     0
  9
$DIMBLK1
  1

  9
$DIMBLK2
  1

  9
$DIMSTYLE
  2
ISO-25
  9
$DIMCLRD
 70
     0
  9
$DIMCLRE
 70
     0
  9
$DIMCLRT
 70
     0
  9
$DIMTFAC
 40
1.0
  9
$DIMGAP
 40
0.625
  9
$LUNITS
 70
     2
  9
$LUPREC
 70
     3
  9
$SKETCHINC
 40
1.0
  9
$FILLETRAD
 40
10.0
  9
$AUNITS
 70
     0
  9
$AUPREC
 70
     0
  9
$MENU
  1
.
  9
$ELEVATION
 40
0.0
  9
$PELEVATION
 40
0.0
  9
$THICKNESS
 40
0.0
  9
$LIMCHECK
 70
     0
  9
$CHAMFERA
 40
10.0
  9
$CHAMFERB
 40
10.0
  9
$SKPOLY
 70
     0
  9
$TDCREATE
 40
2455022.720692848
  9
$TDUPDATE
 40
2460528.53517757
  9
$TDINDWG
 40
0.0702669213
  9
$TDUSRTIMER
 40
0.1448234722
  9
$USRTIMER
 70
     1
  9
$ANGBASE
 50
0.0
  9
$ANGDIR
 70
     0
  9
$PDMODE
 70
     0
  9
$PDSIZE
 40
0.0
  9
$PLINEWID
 40
0.0
  9
$COORDS
 70
     1
  9
$SPLFRAME
 70
     0
  9
$SPLINETYPE
 70
     6
  9
$SPLINESEGS
 70
     8
  9
$ATTDIA
 70
     0
  9
$ATTREQ
 70
     1
  9
$HANDLING
 70
     1
  9
$HANDSEED
  5
135E6C
  9
$SURFTAB1
 70
     6
  9
$SURFTAB2
 70
     6
  9
$SURFTYPE
 70
     6
  9
$SURFU
 70
     6
  9
$SURFV
 70
     6
  9
$UCSNAME
  2

  9
$UCSORG
 10
0.0
 20
0.0
 30
0.0
  9
$UCSXDIR
 10
1.0
 20
0.0
 30
0.0
  9
$UCSYDIR
 10
0.0
 20
1.0
 30
0.0
  9
$PUCSNAME
  2

  9
$PUCSORG
 10
0.0
 20
0.0
 30
0.0
  9
$PUCSXDIR
 10
1.0
 20
0.0
 30
0.0
  9
$PUCSYDIR
 10
0.0
 20
1.0
 30
0.0
  9
$USERI1
 70
     0
  9
$USERI2
 70
     0
  9
$USERI3
 70
     0
  9
$USERI4
 70
     0
  9
$USERI5
 70
     0
  9
$USERR1
 40
0.0
  9
$USERR2
 40
0.0
  9
$USERR3
 40
0.0
  9
$USERR4
 40
0.0
  9
$USERR5
 40
0.0
  9
$WORLDVIEW
 70
     1
  9
$SHADEDGE
 70
     3
  9
$SHADEDIF
 70
    70
  9
$TILEMODE
 70
     1
  9
$MAXACTVP
 70
    64
  9
$PLIMCHECK
 70
     0
  9
$PEXTMIN
 10
1.000000000000000E+20
 20
1.000000000000000E+20
 30
1.000000000000000E+20
  9
$PEXTMAX
 10
-1.000000000000000E+20
 20
-1.000000000000000E+20
 30
-1.000000000000000E+20
  9
$PLIMMIN
 10
0.0
 20
0.0
  9
$PLIMMAX
 10
0.0
 20
0.0
  9
$UNITMODE
 70
     0
  9
$VISRETAIN
 70
     1
  9
$PLINEGEN
 70
     0
  9
$PSLTSCALE
 70
     1
  0
ENDSEC
  0
SECTION
  2
TABLES
  0
TABLE
  2
VPORT
 70
     1
  0
VPORT
  2
*ACTIVE
 70
     0
 10
0.0
 20
0.0
 11
1.0
 21
1.0
 12
-85.89425341467185
 22
-56.09838625010897
 13
0.0
 23
0.0
 14
10.0
 24
10.0
 15
10.0
 25
10.0
 16
0.5773502691896226
 26
0.5773502691896226
 36
0.5773502691896226
 17
-134.0401322861792
 27
-0.3173141772386998
 37
0.1524876214564728
 40
95.98325557095885
 41
1.89041095890411
 42
50.0
 43
0.0
 44
0.0
 50
0.0
 51
0.0
 71
    16
 72
  1000
 73
     1
 74
     3
 75
     0
 76
     0
 77
     0
 78
     0
  0
ENDTAB
  0
TABLE
  2
LTYPE
 70
     1
  0
LTYPE
  2
CONTINUOUS
 70
     0
  3
Solid line
 72
    65
 73
     0
 40
0.0
  0
ENDTAB
  0
TABLE
  2
LAYER
 70
     1
  0
LAYER
  2
0
 70
     0
 62
     7
  6
CONTINUOUS
  0
ENDTAB
  0
TABLE
  2
STYLE
 70
     2
  0
STYLE
  2
STANDARD
 70
     0
 40
0.0
 41
1.0
 50
0.0
 71
     0
 42
2.5
  3
arial.ttf
  4

  0
STYLE
  2
ANNOTATIVE
 70
     0
 40
0.0
 41
1.0
 50
0.0
 71
     0
 42
2.5
  3
arial.ttf
  4

  0
ENDTAB
  0
TABLE
  2
VIEW
 70
     0
  0
ENDTAB
  0
TABLE
  2
UCS
 70
     0
  0
ENDTAB
  0
TABLE
  2
APPID
 70
     2
  0
APPID
  2
ACAD
 70
     0
  0
APPID
  2
ACADANNOTATIVE
 70
     0
  0
ENDTAB
  0
TABLE
  2
DIMSTYLE
 70
     2
  0
DIMSTYLE
  2
ISO-25
 70
     0
  3

  4

  5

  6

  7

 40
1.0
 41
2.5
 42
0.625
 43
3.75
 44
1.25
 45
0.0
 46
0.0
 47
0.0
 48
0.0
140
2.5
141
-2.5
142
0.0
143
0.03937007874016
144
1.0
145
0.0
146
1.0
147
0.625
 71
     0
 72
     0
 73
     0
 74
     0
 75
     0
 76
     0
 77
     1
 78
     8
170
     0
171
     3
172
     1
173
     0
174
     0
175
     0
176
     0
177
     0
178
     0
  0
DIMSTYLE
  2
ANNOTATIVE
 70
     0
  3

  4

  5

  6

  7

 40
0.0
 41
2.5
 42
0.625
 43
3.75
 44
1.25
 45
0.0
 46
0.0
 47
0.0
 48
0.0
140
2.5
141
-2.5
142
0.0
143
0.03937007874016
144
1.0
145
0.0
146
1.0
147
0.625
 71
     0
 72
     0
 73
     0
 74
     0
 75
     0
 76
     0
 77
     1
 78
     8
170
     0
171
     3
172
     1
173
     0
174
     0
175
     0
176
     0
177
     0
178
     0
  0
ENDTAB
  0
ENDSEC
  0
SECTION
  2
BLOCKS
  0
BLOCK
  8
0
  2
$MODEL_SPACE
 70
     0
 10
0.0
 20
0.0
 30
0.0
  3
$MODEL_SPACE
  1

  0
ENDBLK
  5
21
  8
0
  0
BLOCK
 67
     1
  8
0
  2
$PAPER_SPACE
 70
     0
 10
0.0
 20
0.0
 30
0.0
  3
$PAPER_SPACE
  1

  0
ENDBLK
  5
1D
 67
     1
  8
0
  0
BLOCK
  8
0
  2
*X1
 70
     1
 10
0.0
 20
0.0
 30
0.0
  3
*X1
  1

  0
POLYLINE
  5
135265
  8
0
 66
     1
 10
0.0
 20
0.0
 30
0.0
 70
    64
 71
    15
 72
    13
  0
VERTEX
  5
135266
  8
0
 10
-6.000000000000001
 20
1.2
 30
-10.7
 70
   192
  0
VERTEX
  5
135267
  8
0
 10
-5.999999999999998
 20
5.000000000000001
 30
-10.7
 70
   192
  0
VERTEX
  5
135268
  8
0
 10
-10.66612821797909
 20
5.000000000000001
 30
-9.628979564490686
 70
   192
  0
VERTEX
  5
135269
  8
0
 10
-13.56604255869606
 20
1.2
 30
-7.566042558696059
 70
   192
  0
VERTEX
  5
13526A
  8
0
 10
-16.66727696794906
 20
4.204411866328642
 30
-0.8358747626508349
 70
   192
  0
VERTEX
  5
13526B
  8
0
 10
-16.7
 20
1.2
 30
0.0
 70
   192
  0
VERTEX
  5
13526C
  8
0
 10
-16.44892338951722
 20
5.000000000000001
 30
-2.304343724360586
 70
   192
  0
VERTEX
  5
13526D
  8
0
 10
-14.39814079555402
 20
5.000000000000001
 30
-6.630326626799861
 70
   192
  0
VERTEX
  5
13526E
  8
0
 10
-14.39814079555403
 20
5.000000000000001
 30
6.630326626799858
 70
   192
  0
VERTEX
  5
13526F
  8
0
 10
-13.56604255869606
 20
1.2
 30
7.56604255869606
 70
   192
  0
VERTEX
  5
135270
  8
0
 10
-16.44892338951722
 20
5.000000000000001
 30
2.304343724360584
 70
   192
  0
VERTEX
  5
135271
  8
0
 10
-16.66689588192056
 20
4.205637867203346
 30
0.8410427612995324
 70
   192
  0
VERTEX
  5
135272
  8
0
 10
-6.000000000000003
 20
5.000000000000001
 30
10.7
 70
   192
  0
VERTEX
  5
135273
  8
0
 10
-6.0
 20
1.2
 30
10.7
 70
   192
  0
VERTEX
  5
135274
  8
0
 10
-10.6661282179791
 20
5.000000000000001
 30
9.628979564490683
 70
   192
  0
VERTEX
  5
135275
  8
0
 10
0.0
 20
0.0
 30
0.0
 70
   128
 71
     1
 72
     2
 73
     3
  0
VERTEX
  5
135276
  8
0
 10
0.0
 20
0.0
 30
0.0
 70
   128
 71
     4
 72
     1
 73
     3
  0
VERTEX
  5
135277
  8
0
 10
0.0
 20
0.0
 30
0.0
 70
   128
 71
     5
 72
     6
 73
     4
  0
VERTEX
  5
135278
  8
0
 10
0.0
 20
0.0
 30
0.0
 70
   128
 71
     7
 72
     5
 73
     4
  0
VERTEX
  5
135279
  8
0
 10
0.0
 20
0.0
 30
0.0
 70
   128
 71
     8
 72
     7
 73
     4
  0
VERTEX
  5
13527A
  8
0
 10
0.0
 20
0.0
 30
0.0
 70
   128
 71
     9
 72
    10
 73
     6
  0
VERTEX
  5
13527B
  8
0
 10
0.0
 20
0.0
 30
0.0
 70
   128
 71
    11
 72
     9
 73
     6
  0
VERTEX
  5
13527C
  8
0
 10
0.0
 20
0.0
 30
0.0
 70
   128
 71
    12
 72
    11
 73
     6
  0
VERTEX
  5
13527D
  8
0
 10
0.0
 20
0.0
 30
0.0
 70
   128
 71
    13
 72
    14
 73
    10
  0
VERTEX
  5
13527E
  8
0
 10
0.0
 20
0.0
 30
0.0
 70
   128
 71
    15
 72
    13
 73
    10
  0
VERTEX
  5
13527F
  8
0
 10
0.0
 20
0.0
 30
0.0
 70
   128
 71
     8
 72
     4
 73
     3
  0
VERTEX
  5
135280
  8
0
 10
0.0
 20
0.0
 30
0.0
 70
   128
 71
    15
 72
    10
 73
     9
  0
VERTEX
  5
135281
  8
0
 10
0.0
 20
0.0
 30
0.0
 70
   128
 71
    12
 72
     6
 73
     5
  0
SEQEND
  5
135DEC
  8
0
  0
POLYLINE
  5
135282
  8
0
 66
     1
 10
0.0
 20
0.0
 30
0.0
 70
    64
 71
    29
 72
    31
  0
VERTEX
  5
135283
  8
0
 10
32.0
 20
0.0
 30
17.0
 70
   192
  0
VERTEX
  5
135284
  8
0
 10
32.0
 20
0.0
 30
8.25
 70
   192
  0
VERTEX
  5
135285
  8
0
 10
27.392024376048
 20
0.0
 30
8.24999999999759
 70
   192
  0
VERTEX
  5
135286
  8
0
 10
19.8593695976759
 20
0.0
 30
10.73089430977764
 70
   192
  0
VERTEX
  5
135287
  8
0
 10
12.67538253890377
 20
0.0
 30
7.371421951530656
 70
   192
  0
VERTEX
  5
135288
  8
0
 10
9.749999999999996
 20
0.0
 30
0.0000000000000053
 70
   192
  0
VERTEX
  5
135289
  8
0
 10
12.67538253890376
 20
0.0
 30
-7.371421951530648
 70
   192
  0
VERTEX
  5
13528A
  8
0
 10
19.85936959767589
 20
0.0
 30
-10.73089430977764
 70
   192
  0
VERTEX
  5
13528B
  8
0
 10
27.39202437605
 20
0.0
 30
-8.25
 70
   192
  0
VERTEX
  5
13528C
  8
0
 10
32.0
 20
0.0
 30
-8.25
 70
   192
  0
VERTEX
  5
13528D
  8
0
 10
32.0
 20
0.0
 30
-17.0
 70
   192
  0
VERTEX
  5
13528E
  8
0
 10
-32.5
 20
0.0
 30
-17.0
 70
   192
  0
VERTEX
  5
13528F
  8
0
 10
-32.5
 20
0.0
 30
17.00000000000165
 70
   192
  0
VERTEX
  5
135290
  8
0
 10
-29.75
 20
0.0
 30
4.0
 70
   192
  0
VERTEX
  5
135291
  8
0
 10
-29.09099025766973
 20
0.0
 30
2.409009742330269
 70
   192
  0
VERTEX
  5
135292
  8
0
 10
-27.5
 20
0.0
 30
1.750000000000001
 70
   192
  0
VERTEX
  5
135293
  8
0
 10
-25.90900974233027
 20
0.0
 30
2.409009742330269
 70
   192
  0
VERTEX
  5
135294
  8
0
 10
-25.25
 20
0.0
 30
4.0
 70
   192
  0
VERTEX
  5
135295
  8
0
 10
-25.90900974233027
 20
0.0
 30
5.590990257669731
 70
   192
  0
VERTEX
  5
135296
  8
0
 10
-27.5
 20
0.0
 30
6.249999999999999
 70
   192
  0
VERTEX
  5
135297
  8
0
 10
-29.09099025766973
 20
0.0
 30
5.590990257669731
 70
   192
  0
VERTEX
  5
135298
  8
0
 10
5.15
 20
0.0
 30
0.0
 70
   192
  0
VERTEX
  5
135299
  8
0
 10
1.884240610230005
 20
0.0
 30
7.884240610230005
 70
   192
  0
VERTEX
  5
13529A
  8
0
 10
-6.0
 20
0.0
 30
11.15
 70
   192
  0
VERTEX
  5
13529B
  8
0
 10
-13.88424061023001
 20
0.0
 30
7.884240610230004
 70
   192
  0
VERTEX
  5
13529C
  8
0
 10
-17.15
 20
0.0
 30
0.0
 70
   192
  0
VERTEX
  5
13529D
  8
0
 10
-13.88424061023001
 20
0.0
 30
-7.884240610230007
 70
   192
  0
VERTEX
  5
13529E
  8
0
 10
-6.0
 20
0.0
 30
-11.15
 70
   192
  0
VERTEX
  5
13529F
  8
0
 10
1.884240610230005
 20
0.0
 30
-7.884240610230005
 70
   192
  0
VERTEX
  5
1352A0
  8
0
 10
0.0
 20
0.0
 30
0.0
 70
   128
 71
     4
 72
     3
 73
    -2
  0
VERTEX
  5
1352A1
  8
0
 10
0.0
 20
0.0
 30
0.0
 70
   128
 71
    -4
 72
     2
 73
    -1
  0
VERTEX
  5
1352A2
  8
0
 10
0.0
 20
0.0
 30
0.0
 70
   128
 71
    -1
 72
     5
 73
    -4
  0
VERTEX
  5
1352A3
  8
0
 10
0.0
 20
0.0
 30
0.0
 70
   128
 71
   -14
 72
    13
 73
   -12
  0
VERTEX
  5
1352A4
  8
0
 10
0.0
 20
0.0
 30
0.0
 70
   128
 71
   -12
 72
    15
 73
   -14
  0
VERTEX
  5
1352A5
  8
0
 10
0.0
 20
0.0
 30
0.0
 70
   128
 71
   -12
 72
    16
 73
   -15
  0
VERTEX
  5
1352A6
  8
0
 10
0.0
 20
0.0
 30
0.0
 70
   128
 71
   -12
 72
    17
 73
   -16
  0
VERTEX
  5
1352A7
  8
0
 10
0.0
 20
0.0
 30
0.0
 70
   128
 71
   -17
 72
   -12
 73
   -27
  0
VERTEX
  5
1352A8
  8
0
 10
0.0
 20
0.0
 30
0.0
 70
   128
 71
   -17
 72
    27
 73
   -26
  0
VERTEX
  5
1352A9
  8
0
 10
0.0
 20
0.0
 30
0.0
 70
   128
 71
   -26
 72
    18
 73
   -17
  0
VERTEX
  5
1352AA
  8
0
 10
0.0
 20
0.0
 30
0.0
 70
   128
 71
   -12
 72
    28
 73
   -27
  0
VERTEX
  5
1352AB
  8
0
 10
0.0
 20
0.0
 30
0.0
 70
   128
 71
   -12
 72
    -7
 73
   -28
  0
VERTEX
  5
1352AC
  8
0
 10
0.0
 20
0.0
 30
0.0
 70
   128
 71
    -7
 72
    29
 73
   -28
  0
VERTEX
  5
1352AD
  8
0
 10
0.0
 20
0.0
 30
0.0
 70
   128
 71
     7
 72
    -6
 73
   -22
  0
VERTEX
  5
1352AE
  8
0
 10
0.0
 20
0.0
 30
0.0
 70
   128
 71
    -7
 72
    22
 73
   -29
  0
VERTEX
  5
1352AF
  8
0
 10
0.0
 20
0.0
 30
0.0
 70
   128
 71
   -12
 72
     8
 73
    -7
  0
VERTEX
  5
1352B0
  8
0
 10
0.0
 20
0.0
 30
0.0
 70
   128
 71
    12
 72
   -11
 73
    -8
  0
VERTEX
  5
1352B1
  8
0
 10
0.0
 20
0.0
 30
0.0
 70
   128
 71
    11
 72
    10
 73
    -9
  0
VERTEX
  5
1352B2
  8
0
 10
0.0
 20
0.0
 30
0.0
 70
   128
 71
   -11
 72
     9
 73
    -8
  0
VERTEX
  5
1352B3
  8
0
 10
0.0
 20
0.0
 30
0.0
 70
   128
 71
    26
 72
   -25
 73
   -19
  0
VERTEX
  5
1352B4
  8
0
 10
0.0
 20
0.0
 30
0.0
 70
   128
 71
   -26
 72
    19
 73
   -18
  0
VERTEX
  5
1352B5
  8
0
 10
0.0
 20
0.0
 30
0.0
 70
   128
 71
    -5
 72
    -1
 73
   -23
  0
VERTEX
  5
1352B6
  8
0
 10
0.0
 20
0.0
 30
0.0
 70
   128
 71
    23
 72
   -22
 73
    -5
  0
VERTEX
  5
1352B7
  8
0
 10
0.0
 20
0.0
 30
0.0
 70
   128
 71
   -22
 72
     6
 73
    -5
  0
VERTEX
  5
1352B8
  8
0
 10
0.0
 20
0.0
 30
0.0
 70
   128
 71
    -1
 72
    24
 73
   -23
  0
VERTEX
  5
1352B9
  8
0
 10
0.0
 20
0.0
 30
0.0
 70
   128
 71
     1
 72
   -13
 73
   -24
  0
VERTEX
  5
1352BA
  8
0
 10
0.0
 20
0.0
 30
0.0
 70
   128
 71
   -13
 72
   -19
 73
   -25
  0
VERTEX
  5
1352BB
  8
0
 10
0.0
 20
0.0
 30
0.0
 70
   128
 71
   -13
 72
    25
 73
   -24
  0
VERTEX
  5
1352BC
  8
0
 10
0.0
 20
0.0
 30
0.0
 70
   128
 71
   -13
 72
    20
 73
   -19
  0
VERTEX
  5
1352BD
  8
0
 10
0.0
 20
0.0
 30
0.0
 70
   128
 71
   -13
 72
    21
 73
   -20
  0
VERTEX
  5
1352BE
  8
0
 10
0.0
 20
0.0
 30
0.0
 70
   128
 71
   -13
 72
    14
 73
   -21
  0
SEQEND
  5
135DED
  8
0
  0
POLYLINE
  5
1352BF
  8
0
 66
     1
 10
0.0
 20
0.0
 30
0.0
 70
    64
 71
    10
 72
     8
  0
VERTEX
  5
1352C0
  8
0
 10
-17.15
 20
0.0
 30
0.0
 70
   192
  0
VERTEX
  5
1352C1
  8
0
 10
5.15
 20
0.0
 30
0.0
 70
   192
  0
VERTEX
  5
1352C2
  8
0
 10
5.15
 20
1.2
 30
0.0
 70
   192
  0
VERTEX
  5
1352C3
  8
0
 10
-17.15
 20
1.2
 30
0.0
 70
   192
  0
VERTEX
  5
1352C4
  8
0
 10
-6.0
 20
1.2
 30
11.15
 70
   192
  0
VERTEX
  5
1352C5
  8
0
 10
-6.0
 20
0.0
 30
11.15
 70
   192
  0
VERTEX
  5
1352C6
  8
0
 10
-13.88424061023001
 20
1.2
 30
7.884240610230004
 70
   192
  0
VERTEX
  5
1352C7
  8
0
 10
-13.88424061023001
 20
0.0
 30
7.884240610230004
 70
   192
  0
VERTEX
  5
1352C8
  8
0
 10
1.884240610230005
 20
1.2
 30
7.884240610230005
 70
   192
  0
VERTEX
  5
1352C9
  8
0
 10
1.884240610230005
 20
0.0
 30
7.884240610230005
 70
   192
  0
VERTEX
  5
1352CA
  8
0
 10
0.0
 20
0.0
 30
0.0
 70
   128
 71
     1
 72
     4
 73
    -7
  0
VERTEX
  5
1352CB
  8
0
 10
0.0
 20
0.0
 30
0.0
 70
   128
 71
     8
 72
    -1
 73
     7
  0
VERTEX
  5
1352CC
  8
0
 10
0.0
 20
0.0
 30
0.0
 70
   128
 71
     7
 72
     5
 73
    -6
  0
VERTEX
  5
1352CD
  8
0
 10
0.0
 20
0.0
 30
0.0
 70
   128
 71
     8
 72
    -7
 73
     6
  0
VERTEX
  5
1352CE
  8
0
 10
0.0
 20
0.0
 30
0.0
 70
   128
 71
     5
 72
     9
 73
   -10
  0
VERTEX
  5
1352CF
  8
0
 10
0.0
 20
0.0
 30
0.0
 70
   128
 71
     6
 72
    -5
 73
    10
  0
VERTEX
  5
1352D0
  8
0
 10
0.0
 20
0.0
 30
0.0
 70
   128
 71
     9
 72
     3
 73
    -2
  0
VERTEX
  5
1352D1
  8
0
 10
0.0
 20
0.0
 30
0.0
 70
   128
 71
    10
 72
    -9
 73
     2
  0
SEQEND
  5
135DEE
  8
0
  0
POLYLINE
  5
1352D2
  8
0
 66
     1
 10
0.0
 20
0.0
 30
0.0
 70
    64
 71
    10
 72
     8
  0
VERTEX
  5
1352D3
  8
0
 10
5.15
 20
0.0
 30
0.0
 70
   192
  0
VERTEX
  5
1352D4
  8
0
 10
-17.15
 20
0.0
 30
0.0
 70
   192
  0
VERTEX
  5
1352D5
  8
0
 10
-17.15
 20
1.2
 30
0.0
 70
   192
  0
VERTEX
  5
1352D6
  8
0
 10
5.15
 20
1.2
 30
0.0
 70
   192
  0
VERTEX
  5
1352D7
  8
0
 10
-6.0
 20
1.2
 30
-11.15
 70
   192
  0
VERTEX
  5
1352D8
  8
0
 10
-6.0
 20
0.0
 30
-11.15
 70
   192
  0
VERTEX
  5
1352D9
  8
0
 10
1.884240610230005
 20
1.2
 30
-7.884240610230005
 70
   192
  0
VERTEX
  5
1352DA
  8
0
 10
1.884240610230005
 20
0.0
 30
-7.884240610230005
 70
   192
  0
VERTEX
  5
1352DB
  8
0
 10
-13.88424061023001
 20
1.2
 30
-7.884240610230004
 70
   192
  0
VERTEX
  5
1352DC
  8
0
 10
-13.88424061023001
 20
0.0
 30
-7.884240610230007
 70
   192
  0
VERTEX
  5
1352DD
  8
0
 10
0.0
 20
0.0
 30
0.0
 70
   128
 71
     1
 72
     4
 73
    -7
  0
VERTEX
  5
1352DE
  8
0
 10
0.0
 20
0.0
 30
0.0
 70
   128
 71
     8
 72
    -1
 73
     7
  0
VERTEX
  5
1352DF
  8
0
 10
0.0
 20
0.0
 30
0.0
 70
   128
 71
     7
 72
     5
 73
    -6
  0
VERTEX
  5
1352E0
  8
0
 10
0.0
 20
0.0
 30
0.0
 70
   128
 71
     8
 72
    -7
 73
     6
  0
VERTEX
  5
1352E1
  8
0
 10
0.0
 20
0.0
 30
0.0
 70
   128
 71
     5
 72
     9
 73
   -10
  0
VERTEX
  5
1352E2
  8
0
 10
0.0
 20
0.0
 30
0.0
 70
   128
 71
     6
 72
    -5
 73
    10
  0
VERTEX
  5
1352E3
  8
0
 10
0.0
 20
0.0
 30
0.0
 70
   128
 71
     9
 72
     3
 73
    -2
  0
VERTEX
  5
1352E4
  8
0
 10
0.0
 20
0.0
 30
0.0
 70
   128
 71
    10
 72
    -9
 73
     2
  0
SEQEND
  5
135DEF
  8
0
  0
POLYLINE
  5
1352E5
  8
0
 66
     1
 10
0.0
 20
0.0
 30
0.0
 70
    64
 71
    16
 72
    16
  0
VERTEX
  5
1352E6
  8
0
 10
-17.15
 20
1.2
 30
0.0
 70
   192
  0
VERTEX
  5
1352E7
  8
0
 10
-13.88424061023001
 20
1.2
 30
7.884240610230004
 70
   192
  0
VERTEX
  5
1352E8
  8
0
 10
-6.0
 20
1.2
 30
11.15
 70
   192
  0
VERTEX
  5
1352E9
  8
0
 10
1.884240610230005
 20
1.2
 30
7.884240610230005
 70
   192
  0
VERTEX
  5
1352EA
  8
0
 10
5.15
 20
1.2
 30
0.0
 70
   192
  0
VERTEX
  5
1352EB
  8
0
 10
1.884240610230005
 20
1.2
 30
-7.884240610230005
 70
   192
  0
VERTEX
  5
1352EC
  8
0
 10
-6.0
 20
1.2
 30
-11.15
 70
   192
  0
VERTEX
  5
1352ED
  8
0
 10
-13.88424061023001
 20
1.2
 30
-7.884240610230004
 70
   192
  0
VERTEX
  5
1352EE
  8
0
 10
-6.0
 20
1.2
 30
10.7
 70
   192
  0
VERTEX
  5
1352EF
  8
0
 10
-13.56604255869606
 20
1.2
 30
7.56604255869606
 70
   192
  0
VERTEX
  5
1352F0
  8
0
 10
-16.7
 20
1.2
 30
0.0
 70
   192
  0
VERTEX
  5
1352F1
  8
0
 10
-13.56604255869606
 20
1.2
 30
-7.566042558696059
 70
   192
  0
VERTEX
  5
1352F2
  8
0
 10
-6.0
 20
1.2
 30
-10.7
 70
   192
  0
VERTEX
  5
1352F3
  8
0
 10
1.56604255869606
 20
1.2
 30
-7.56604255869606
 70
   192
  0
VERTEX
  5
1352F4
  8
0
 10
4.700000000000001
 20
1.2
 30
0.0
 70
   192
  0
VERTEX
  5
1352F5
  8
0
 10
1.566042558696059
 20
1.2
 30
7.566042558696059
 70
   192
  0
VERTEX
  5
1352F6
  8
0
 10
0.0
 20
0.0
 30
0.0
 70
   128
 71
    10
 72
    -9
 73
    -3
  0
VERTEX
  5
1352F7
  8
0
 10
0.0
 20
0.0
 30
0.0
 70
   128
 71
   -10
 72
     3
 73
    -2
  0
VERTEX
  5
1352F8
  8
0
 10
0.0
 20
0.0
 30
0.0
 70
   128
 71
     2
 72
    -1
 73
   -11
  0
VERTEX
  5
1352F9
  8
0
 10
0.0
 20
0.0
 30
0.0
 70
   128
 71
    -2
 72
    11
 73
   -10
  0
VERTEX
  5
1352FA
  8
0
 10
0.0
 20
0.0
 30
0.0
 70
   128
 71
     1
 72
    -8
 73
   -12
  0
VERTEX
  5
1352FB
  8
0
 10
0.0
 20
0.0
 30
0.0
 70
   128
 71
    -1
 72
    12
 73
   -11
  0
VERTEX
  5
1352FC
  8
0
 10
0.0
 20
0.0
 30
0.0
 70
   128
 71
     8
 72
    -7
 73
   -13
  0
VERTEX
  5
1352FD
  8
0
 10
0.0
 20
0.0
 30
0.0
 70
   128
 71
    -8
 72
    13
 73
   -12
  0
VERTEX
  5
1352FE
  8
0
 10
0.0
 20
0.0
 30
0.0
 70
   128
 71
     7
 72
    -6
 73
   -14
  0
VERTEX
  5
1352FF
  8
0
 10
0.0
 20
0.0
 30
0.0
 70
   128
 71
    -7
 72
    14
 73
   -13
  0
VERTEX
  5
135300
  8
0
 10
0.0
 20
0.0
 30
0.0
 70
   128
 71
     6
 72
    -5
 73
   -15
  0
VERTEX
  5
135301
  8
0
 10
0.0
 20
0.0
 30
0.0
 70
   128
 71
    -6
 72
    15
 73
   -14
  0
VERTEX
  5
135302
  8
0
 10
0.0
 20
0.0
 30
0.0
 70
   128
 71
     5
 72
    -4
 73
   -16
  0
VERTEX
  5
135303
  8
0
 10
0.0
 20
0.0
 30
0.0
 70
   128
 71
    -5
 72
    16
 73
   -15
  0
VERTEX
  5
135304
  8
0
 10
0.0
 20
0.0
 30
0.0
 70
   128
 71
     4
 72
    -3
 73
    -9
  0
VERTEX
  5
135305
  8
0
 10
0.0
 20
0.0
 30
0.0
 70
   128
 71
    -4
 72
     9
 73
   -16
  0
SEQEND
  5
135DF0
  8
0
  0
POLYLINE
  5
135306
  8
0
 66
     1
 10
0.0
 20
0.0
 30
0.0
 70
    64
 71
    17
 72
    15
  0
VERTEX
  5
135307
  8
0
 10
-15.21626947773121
 20
5.000000000000001
 30
2.304425506246637
 70
   192
  0
VERTEX
  5
135308
  8
0
 10
-15.21620612986145
 20
5.000000100318625
 30
2.304409666817546
 70
   192
  0
VERTEX
  5
135309
  8
0
 10
-15.04740516547173
 20
5.71942202442738
 30
2.897351960763319
 70
   192
  0
VERTEX
  5
13530A
  8
0
 10
-15.03249723062637
 20
9.202324124153172
 30
2.943865667745429
 70
   192
  0
VERTEX
  5
13530B
  8
0
 10
-15.34572017912229
 20
10.44255465639406
 30
1.705144373712671
 70
   192
  0
VERTEX
  5
13530C
  8
0
 10
-12.7175144212722
 20
11.2
 30
6.717514421272202
 70
   192
  0
VERTEX
  5
13530D
  8
0
 10
-15.5
 20
11.2
 30
0.0
 70
   192
  0
VERTEX
  5
13530E
  8
0
 10
-15.5
 20
10.9
 30
0.0
 70
   192
  0
VERTEX
  5
13530F
  8
0
 10
-11.37692944515079
 20
5.000000000000001
 30
7.831898220857471
 70
   192
  0
VERTEX
  5
135310
  8
0
 10
-6.0
 20
11.2
 30
9.500000000000002
 70
   192
  0
VERTEX
  5
135311
  8
0
 10
3.5
 20
11.2
 30
0.0
 70
   192
  0
VERTEX
  5
135312
  8
0
 10
3.499999999499952
 20
5.000000000000001
 30
-0.0000000024403894
 70
   192
  0
VERTEX
  5
135313
  8
0
 10
1.116132291272434
 20
5.000000000000001
 30
6.293700121002725
 70
   192
  0
VERTEX
  5
135314
  8
0
 10
0.7175144212722033
 20
11.2
 30
6.717514421272203
 70
   192
  0
VERTEX
  5
135315
  8
0
 10
-4.839086573603097
 20
5.000000000000001
 30
9.428800560856686
 70
   192
  0
VERTEX
  5
135316
  8
0
 10
-14.91875688022663
 20
6.57460624638099
 30
3.271970954549532
 70
   192
  0
VERTEX
  5
135317
  8
0
 10
-14.87073841346
 20
7.5
 30
3.4
 70
   192
  0
VERTEX
  5
135318
  8
0
 10
0.0
 20
0.0
 30
0.0
 70
   128
 71
     1
 72
     2
 73
     3
  0
VERTEX
  5
135319
  8
0
 10
0.0
 20
0.0
 30
0.0
 70
   128
 71
     4
 72
     5
 73
     6
  0
VERTEX
  5
13531A
  8
0
 10
0.0
 20
0.0
 30
0.0
 70
   128
 71
     5
 72
     7
 73
     6
  0
VERTEX
  5
13531B
  8
0
 10
0.0
 20
0.0
 30
0.0
 70
   128
 71
     5
 72
     8
 73
     7
  0
VERTEX
  5
13531C
  8
0
 10
0.0
 20
0.0
 30
0.0
 70
   128
 71
     9
 72
     6
 73
    10
  0
VERTEX
  5
13531D
  8
0
 10
0.0
 20
0.0
 30
0.0
 70
   128
 71
    11
 72
    12
 73
    13
  0
VERTEX
  5
13531E
  8
0
 10
0.0
 20
0.0
 30
0.0
 70
   128
 71
    14
 72
    15
 73
    10
  0
VERTEX
  5
13531F
  8
0
 10
0.0
 20
0.0
 30
0.0
 70
   128
 71
    15
 72
     9
 73
    10
  0
VERTEX
  5
135320
  8
0
 10
0.0
 20
0.0
 30
0.0
 70
   128
 71
     9
 72
     1
 73
     3
  0
VERTEX
  5
135321
  8
0
 10
0.0
 20
0.0
 30
0.0
 70
   128
 71
     3
 72
    16
 73
     9
  0
VERTEX
  5
135322
  8
0
 10
0.0
 20
0.0
 30
0.0
 70
   128
 71
    16
 72
    17
 73
     9
  0
VERTEX
  5
135323
  8
0
 10
0.0
 20
0.0
 30
0.0
 70
   128
 71
     4
 72
     6
 73
     9
  0
VERTEX
  5
135324
  8
0
 10
0.0
 20
0.0
 30
0.0
 70
   128
 71
    17
 72
     4
 73
     9
  0
VERTEX
  5
135325
  8
0
 10
0.0
 20
0.0
 30
0.0
 70
   128
 71
    11
 72
    13
 73
    14
  0
VERTEX
  5
135326
  8
0
 10
0.0
 20
0.0
 30
0.0
 70
   128
 71
    13
 72
    15
 73
    14
  0
SEQEND
  5
135DF1
  8
0
  0
POLYLINE
  5
135327
  8
0
 66
     1
 10
0.0
 20
0.0
 30
0.0
 70
    64
 71
    12
 72
    10
  0
VERTEX
  5
135328
  8
0
 10
-14.87073841346
 20
7.5
 30
3.4
 70
   192
  0
VERTEX
  5
135329
  8
0
 10
-18.2
 20
7.5
 30
3.4
 70
   192
  0
VERTEX
  5
13532A
  8
0
 10
-18.2
 20
9.904163056034262
 30
2.404163056034262
 70
   192
  0
VERTEX
  5
13532B
  8
0
 10
-15.03249723062637
 20
9.202324124153172
 30
2.943865667745429
 70
   192
  0
VERTEX
  5
13532C
  8
0
 10
-18.2
 20
10.9
 30
0.0
 70
   192
  0
VERTEX
  5
13532D
  8
0
 10
-15.5
 20
10.9
 30
0.0
 70
   192
  0
VERTEX
  5
13532E
  8
0
 10
-15.34572017912229
 20
10.44255465639406
 30
1.705144373712671
 70
   192
  0
VERTEX
  5
13532F
  8
0
 10
-18.2
 20
9.904163056034262
 30
-2.404163056034262
 70
   192
  0
VERTEX
  5
135330
  8
0
 10
-15.34562607569379
 20
10.44205941305026
 30
-1.705801995772899
 70
   192
  0
VERTEX
  5
135331
  8
0
 10
-18.2
 20
7.5
 30
-3.4
 70
   192
  0
VERTEX
  5
135332
  8
0
 10
-14.87073841346
 20
7.5
 30
-3.4
 70
   192
  0
VERTEX
  5
135333
  8
0
 10
-15.03203076899265
 20
9.200581792352276
 30
-2.944898939235717
 70
   192
  0
VERTEX
  5
135334
  8
0
 10
0.0
 20
0.0
 30
0.0
 70
   128
 71
     1
 72
     2
 73
     3
  0
VERTEX
  5
135335
  8
0
 10
0.0
 20
0.0
 30
0.0
 70
   128
 71
     4
 72
     1
 73
     3
  0
VERTEX
  5
135336
  8
0
 10
0.0
 20
0.0
 30
0.0
 70
   128
 71
     5
 72
     6
 73
     7
  0
VERTEX
  5
135337
  8
0
 10
0.0
 20
0.0
 30
0.0
 70
   128
 71
     3
 72
     5
 73
     7
  0
VERTEX
  5
135338
  8
0
 10
0.0
 20
0.0
 30
0.0
 70
   128
 71
     6
 72
     5
 73
     8
  0
VERTEX
  5
135339
  8
0
 10
0.0
 20
0.0
 30
0.0
 70
   128
 71
     9
 72
     6
 73
     8
  0
VERTEX
  5
13533A
  8
0
 10
0.0
 20
0.0
 30
0.0
 70
   128
 71
    10
 72
    11
 73
    12
  0
VERTEX
  5
13533B
  8
0
 10
0.0
 20
0.0
 30
0.0
 70
   128
 71
     8
 72
    10
 73
    12
  0
VERTEX
  5
13533C
  8
0
 10
0.0
 20
0.0
 30
0.0
 70
   128
 71
     3
 72
     7
 73
     4
  0
VERTEX
  5
13533D
  8
0
 10
0.0
 20
0.0
 30
0.0
 70
   128
 71
     8
 72
    12
 73
     9
  0
SEQEND
  5
135DF2
  8
0
  0
POLYLINE
  5
13533E
  8
0
 66
     1
 10
0.0
 20
0.0
 30
0.0
 70
    64
 71
    16
 72
    16
  0
VERTEX
  5
13533F
  8
0
 10
-18.2
 20
7.5
 30
-5.5
 70
   192
  0
VERTEX
  5
135340
  8
0
 10
-18.2
 20
3.610912703473988
 30
-3.889087296526012
 70
   192
  0
VERTEX
  5
135341
  8
0
 10
-18.2
 20
1.999999999999999
 30
0.0
 70
   192
  0
VERTEX
  5
135342
  8
0
 10
-18.2
 20
3.610912703473988
 30
3.889087296526012
 70
   192
  0
VERTEX
  5
135343
  8
0
 10
-18.2
 20
7.5
 30
5.500000000000001
 70
   192
  0
VERTEX
  5
135344
  8
0
 10
-18.2
 20
11.38908729652601
 30
3.889087296526012
 70
   192
  0
VERTEX
  5
135345
  8
0
 10
-18.2
 20
13.0
 30
0.0
 70
   192
  0
VERTEX
  5
135346
  8
0
 10
-18.2
 20
11.38908729652601
 30
-3.889087296526012
 70
   192
  0
VERTEX
  5
135347
  8
0
 10
-18.2
 20
7.5
 30
3.400000000000001
 70
   192
  0
VERTEX
  5
135348
  8
0
 10
-18.2
 20
5.095836943965738
 30
2.404163056034262
 70
   192
  0
VERTEX
  5
135349
  8
0
 10
-18.2
 20
4.1
 30
0.0
 70
   192
  0
VERTEX
  5
13534A
  8
0
 10
-18.2
 20
5.095836943965738
 30
-2.404163056034262
 70
   192
  0
VERTEX
  5
13534B
  8
0
 10
-18.2
 20
7.5
 30
-3.4
 70
   192
  0
VERTEX
  5
13534C
  8
0
 10
-18.2
 20
9.904163056034262
 30
-2.404163056034262
 70
   192
  0
VERTEX
  5
13534D
  8
0
 10
-18.2
 20
10.9
 30
0.0
 70
   192
  0
VERTEX
  5
13534E
  8
0
 10
-18.2
 20
9.904163056034262
 30
2.404163056034262
 70
   192
  0
VERTEX
  5
13534F
  8
0
 10
0.0
 20
0.0
 30
0.0
 70
   128
 71
    -5
 72
     9
 73
   -10
  0
VERTEX
  5
135350
  8
0
 10
0.0
 20
0.0
 30
0.0
 70
   128
 71
     4
 72
    -5
 73
   -10
  0
VERTEX
  5
135351
  8
0
 10
0.0
 20
0.0
 30
0.0
 70
   128
 71
   -11
 72
     3
 73
    -4
  0
VERTEX
  5
135352
  8
0
 10
0.0
 20
0.0
 30
0.0
 70
   128
 71
    10
 72
   -11
 73
    -4
  0
VERTEX
  5
135353
  8
0
 10
0.0
 20
0.0
 30
0.0
 70
   128
 71
   -12
 72
     2
 73
    -3
  0
VERTEX
  5
135354
  8
0
 10
0.0
 20
0.0
 30
0.0
 70
   128
 71
    11
 72
   -12
 73
    -3
  0
VERTEX
  5
135355
  8
0
 10
0.0
 20
0.0
 30
0.0
 70
   128
 71
   -13
 72
     1
 73
    -2
  0
VERTEX
  5
135356
  8
0
 10
0.0
 20
0.0
 30
0.0
 70
   128
 71
    12
 72
   -13
 73
    -2
  0
VERTEX
  5
135357
  8
0
 10
0.0
 20
0.0
 30
0.0
 70
   128
 71
   -14
 72
     8
 73
    -1
  0
VERTEX
  5
135358
  8
0
 10
0.0
 20
0.0
 30
0.0
 70
   128
 71
    13
 72
   -14
 73
    -1
  0
VERTEX
  5
135359
  8
0
 10
0.0
 20
0.0
 30
0.0
 70
   128
 71
   -15
 72
     7
 73
    -8
  0
VERTEX
  5
13535A
  8
0
 10
0.0
 20
0.0
 30
0.0
 70
   128
 71
    14
 72
   -15
 73
    -8
  0
VERTEX
  5
13535B
  8
0
 10
0.0
 20
0.0
 30
0.0
 70
   128
 71
   -16
 72
     6
 73
    -7
  0
VERTEX
  5
13535C
  8
0
 10
0.0
 20
0.0
 30
0.0
 70
   128
 71
    15
 72
   -16
 73
    -7
  0
VERTEX
  5
13535D
  8
0
 10
0.0
 20
0.0
 30
0.0
 70
   128
 71
    -9
 72
     5
 73
    -6
  0
VERTEX
  5
13535E
  8
0
 10
0.0
 20
0.0
 30
0.0
 70
   128
 71
    16
 72
    -9
 73
    -6
  0
SEQEND
  5
135DF3
  8
0
  0
POLYLINE
  5
13535F
  8
0
 66
     1
 10
0.0
 20
0.0
 30
0.0
 70
    64
 71
    10
 72
     8
  0
VERTEX
  5
135360
  8
0
 10
-18.2
 20
7.5
 30
5.5
 70
   192
  0
VERTEX
  5
135361
  8
0
 10
-18.2
 20
7.5
 30
-5.5
 70
   192
  0
VERTEX
  5
135362
  8
0
 10
-32.5
 20
7.5
 30
-5.5
 70
   192
  0
VERTEX
  5
135363
  8
0
 10
-32.5
 20
7.5
 30
5.5
 70
   192
  0
VERTEX
  5
135364
  8
0
 10
-32.5
 20
13.0
 30
0.0
 70
   192
  0
VERTEX
  5
135365
  8
0
 10
-18.2
 20
13.0
 30
0.0
 70
   192
  0
VERTEX
  5
135366
  8
0
 10
-32.5
 20
11.38908729652601
 30
3.889087296526012
 70
   192
  0
VERTEX
  5
135367
  8
0
 10
-18.2
 20
11.38908729652601
 30
3.889087296526012
 70
   192
  0
VERTEX
  5
135368
  8
0
 10
-32.5
 20
11.38908729652601
 30
-3.889087296526012
 70
   192
  0
VERTEX
  5
135369
  8
0
 10
-18.2
 20
11.38908729652601
 30
-3.889087296526012
 70
   192
  0
VERTEX
  5
13536A
  8
0
 10
0.0
 20
0.0
 30
0.0
 70
   128
 71
     8
 72
     1
 73
    -4
  0
VERTEX
  5
13536B
  8
0
 10
0.0
 20
0.0
 30
0.0
 70
   128
 71
     7
 72
    -8
 73
     4
  0
VERTEX
  5
13536C
  8
0
 10
0.0
 20
0.0
 30
0.0
 70
   128
 71
     6
 72
     8
 73
    -7
  0
VERTEX
  5
13536D
  8
0
 10
0.0
 20
0.0
 30
0.0
 70
   128
 71
     5
 72
    -6
 73
     7
  0
VERTEX
  5
13536E
  8
0
 10
0.0
 20
0.0
 30
0.0
 70
   128
 71
    10
 72
     6
 73
    -5
  0
VERTEX
  5
13536F
  8
0
 10
0.0
 20
0.0
 30
0.0
 70
   128
 71
     9
 72
   -10
 73
     5
  0
VERTEX
  5
135370
  8
0
 10
0.0
 20
0.0
 30
0.0
 70
   128
 71
     3
 72
     2
 73
   -10
  0
VERTEX
  5
135371
  8
0
 10
0.0
 20
0.0
 30
0.0
 70
   128
 71
     9
 72
    -3
 73
    10
  0
SEQEND
  5
135DF4
  8
0
  0
POLYLINE
  5
135372
  8
0
 66
     1
 10
0.0
 20
0.0
 30
0.0
 70
    64
 71
    40
 72
    44
  0
VERTEX
  5
135373
  8
0
 10
-32.5
 20
15.0
 30
17.0
 70
   192
  0
VERTEX
  5
135374
  8
0
 10
-32.5
 20
15.0
 30
-17.0
 70
   192
  0
VERTEX
  5
135375
  8
0
 10
-32.5
 20
14.93301270189222
 30
-17.25
 70
   192
  0
VERTEX
  5
135376
  8
0
 10
-32.5
 20
14.75
 30
-17.43301270189222
 70
   192
  0
VERTEX
  5
135377
  8
0
 10
-32.5
 20
14.5
 30
-17.5
 70
   192
  0
VERTEX
  5
135378
  8
0
 10
-32.5
 20
0.5
 30
-17.5
 70
   192
  0
VERTEX
  5
135379
  8
0
 10
-32.5
 20
0.2499999999999998
 30
-17.43301270189222
 70
   192
  0
VERTEX
  5
13537A
  8
0
 10
-32.5
 20
0.0669872981077803
 30
-17.25
 70
   192
  0
VERTEX
  5
13537B
  8
0
 10
-32.5
 20
-0.0000000000000004
 30
-17.0
 70
   192
  0
VERTEX
  5
13537C
  8
0
 10
-32.5
 20
0.0
 30
17.0
 70
   192
  0
VERTEX
  5
13537D
  8
0
 10
-32.5
 20
0.0669872981077806
 30
17.25
 70
   192
  0
VERTEX
  5
13537E
  8
0
 10
-32.5
 20
0.2499999999999999
 30
17.43301270189222
 70
   192
  0
VERTEX
  5
13537F
  8
0
 10
-32.5
 20
0.4999999999999999
 30
17.5
 70
   192
  0
VERTEX
  5
135380
  8
0
 10
-32.5
 20
14.5
 30
17.5
 70
   192
  0
VERTEX
  5
135381
  8
0
 10
-32.5
 20
14.75
 30
17.43301270189222
 70
   192
  0
VERTEX
  5
135382
  8
0
 10
-32.5
 20
14.93301270189222
 30
17.25
 70
   192
  0
VERTEX
  5
135383
  8
0
 10
-32.5
 20
10.25
 30
-13.5
 70
   192
  0
VERTEX
  5
135384
  8
0
 10
-32.5
 20
9.444543648263005
 30
-11.55545635173699
 70
   192
  0
VERTEX
  5
135385
  8
0
 10
-32.5
 20
7.5
 30
-10.75
 70
   192
  0
VERTEX
  5
135386
  8
0
 10
-32.5
 20
5.555456351736995
 30
-11.55545635173699
 70
   192
  0
VERTEX
  5
135387
  8
0
 10
-32.5
 20
4.75
 30
-13.5
 70
   192
  0
VERTEX
  5
135388
  8
0
 10
-32.5
 20
5.555456351736995
 30
-15.44454364826301
 70
   192
  0
VERTEX
  5
135389
  8
0
 10
-32.5
 20
7.5
 30
-16.25
 70
   192
  0
VERTEX
  5
13538A
  8
0
 10
-32.5
 20
9.444543648263005
 30
-15.44454364826301
 70
   192
  0
VERTEX
  5
13538B
  8
0
 10
-32.5
 20
4.75
 30
13.5
 70
   192
  0
VERTEX
  5
13538C
  8
0
 10
-32.5
 20
5.555456351736995
 30
11.55545635173699
 70
   192
  0
VERTEX
  5
13538D
  8
0
 10
-32.5
 20
7.5
 30
10.75
 70
   192
  0
VERTEX
  5
13538E
  8
0
 10
-32.5
 20
9.444543648263005
 30
11.55545635173699
 70
   192
  0
VERTEX
  5
13538F
  8
0
 10
-32.5
 20
10.25
 30
13.5
 70
   192
  0
VERTEX
  5
135390
  8
0
 10
-32.5
 20
9.444543648263005
 30
15.44454364826301
 70
   192
  0
VERTEX
  5
135391
  8
0
 10
-32.5
 20
7.5
 30
16.25
 70
   192
  0
VERTEX
  5
135392
  8
0
 10
-32.5
 20
5.555456351736995
 30
15.44454364826301
 70
   192
  0
VERTEX
  5
135393
  8
0
 10
-32.5
 20
7.5
 30
5.500000000000001
 70
   192
  0
VERTEX
  5
135394
  8
0
 10
-32.5
 20
3.610912703473988
 30
3.889087296526012
 70
   192
  0
VERTEX
  5
135395
  8
0
 10
-32.5
 20
1.999999999999999
 30
0.0
 70
   192
  0
VERTEX
  5
135396
  8
0
 10
-32.5
 20
3.610912703473988
 30
-3.889087296526012
 70
   192
  0
VERTEX
  5
135397
  8
0
 10
-32.5
 20
7.5
 30
-5.5
 70
   192
  0
VERTEX
  5
135398
  8
0
 10
-32.5
 20
11.38908729652601
 30
-3.889087296526012
 70
   192
  0
VERTEX
  5
135399
  8
0
 10
-32.5
 20
13.0
 30
0.0
 70
   192
  0
VERTEX
  5
13539A
  8
0
 10
-32.5
 20
11.38908729652601
 30
3.889087296526012
 70
   192
  0
VERTEX
  5
13539B
  8
0
 10
0.0
 20
0.0
 30
0.0
 70
   128
 71
   -10
 72
    25
 73
   -26
  0
VERTEX
  5
13539C
  8
0
 10
0.0
 20
0.0
 30
0.0
 70
   128
 71
    -2
 72
    17
 73
   -18
  0
VERTEX
  5
13539D
  8
0
 10
0.0
 20
0.0
 30
0.0
 70
   128
 71
   -33
 72
    27
 73
   -28
  0
VERTEX
  5
13539E
  8
0
 10
0.0
 20
0.0
 30
0.0
 70
   128
 71
   -19
 72
    37
 73
   -38
  0
VERTEX
  5
13539F
  8
0
 10
0.0
 20
0.0
 30
0.0
 70
   128
 71
    18
 72
   -19
 73
   -38
  0
VERTEX
  5
1353A0
  8
0
 10
0.0
 20
0.0
 30
0.0
 70
   128
 71
    38
 72
   -39
 73
   -18
  0
VERTEX
  5
1353A1
  8
0
 10
0.0
 20
0.0
 30
0.0
 70
   128
 71
    -2
 72
   -18
 73
   -39
  0
VERTEX
  5
1353A2
  8
0
 10
0.0
 20
0.0
 30
0.0
 70
   128
 71
   -39
 72
     1
 73
    -2
  0
VERTEX
  5
1353A3
  8
0
 10
0.0
 20
0.0
 30
0.0
 70
   128
 71
    39
 72
   -40
 73
    -1
  0
VERTEX
  5
1353A4
  8
0
 10
0.0
 20
0.0
 30
0.0
 70
   128
 71
   -33
 72
   -28
 73
    -1
  0
VERTEX
  5
1353A5
  8
0
 10
0.0
 20
0.0
 30
0.0
 70
   128
 71
    40
 72
   -33
 73
    -1
  0
VERTEX
  5
1353A6
  8
0
 10
0.0
 20
0.0
 30
0.0
 70
   128
 71
    28
 72
   -29
 73
    -1
  0
VERTEX
  5
1353A7
  8
0
 10
0.0
 20
0.0
 30
0.0
 70
   128
 71
    29
 72
   -30
 73
    -1
  0
VERTEX
  5
1353A8
  8
0
 10
0.0
 20
0.0
 30
0.0
 70
   128
 71
    30
 72
   -31
 73
    -1
  0
VERTEX
  5
1353A9
  8
0
 10
0.0
 20
0.0
 30
0.0
 70
   128
 71
    15
 72
    16
 73
    -1
  0
VERTEX
  5
1353AA
  8
0
 10
0.0
 20
0.0
 30
0.0
 70
   128
 71
    14
 72
   -15
 73
    -1
  0
VERTEX
  5
1353AB
  8
0
 10
0.0
 20
0.0
 30
0.0
 70
   128
 71
    13
 72
   -14
 73
    -1
  0
VERTEX
  5
1353AC
  8
0
 10
0.0
 20
0.0
 30
0.0
 70
   128
 71
   -31
 72
   -13
 73
    -1
  0
VERTEX
  5
1353AD
  8
0
 10
0.0
 20
0.0
 30
0.0
 70
   128
 71
    31
 72
   -32
 73
   -13
  0
VERTEX
  5
1353AE
  8
0
 10
0.0
 20
0.0
 30
0.0
 70
   128
 71
    11
 72
    12
 73
   -13
  0
VERTEX
  5
1353AF
  8
0
 10
0.0
 20
0.0
 30
0.0
 70
   128
 71
    10
 72
   -11
 73
   -13
  0
VERTEX
  5
1353B0
  8
0
 10
0.0
 20
0.0
 30
0.0
 70
   128
 71
   -25
 72
   -10
 73
   -13
  0
VERTEX
  5
1353B1
  8
0
 10
0.0
 20
0.0
 30
0.0
 70
   128
 71
    32
 72
   -25
 73
   -13
  0
VERTEX
  5
1353B2
  8
0
 10
0.0
 20
0.0
 30
0.0
 70
   128
 71
    19
 72
   -20
 73
   -37
  0
VERTEX
  5
1353B3
  8
0
 10
0.0
 20
0.0
 30
0.0
 70
   128
 71
   -27
 72
    33
 73
   -34
  0
VERTEX
  5
1353B4
  8
0
 10
0.0
 20
0.0
 30
0.0
 70
   128
 71
    26
 72
   -27
 73
   -34
  0
VERTEX
  5
1353B5
  8
0
 10
0.0
 20
0.0
 30
0.0
 70
   128
 71
    34
 72
   -35
 73
   -26
  0
VERTEX
  5
1353B6
  8
0
 10
0.0
 20
0.0
 30
0.0
 70
   128
 71
   -10
 72
   -26
 73
   -35
  0
VERTEX
  5
1353B7
  8
0
 10
0.0
 20
0.0
 30
0.0
 70
   128
 71
   -35
 72
     9
 73
   -10
  0
VERTEX
  5
1353B8
  8
0
 10
0.0
 20
0.0
 30
0.0
 70
   128
 71
    35
 72
   -36
 73
    -9
  0
VERTEX
  5
1353B9
  8
0
 10
0.0
 20
0.0
 30
0.0
 70
   128
 71
   -37
 72
   -20
 73
    -9
  0
VERTEX
  5
1353BA
  8
0
 10
0.0
 20
0.0
 30
0.0
 70
   128
 71
    36
 72
   -37
 73
    -9
  0
VERTEX
  5
1353BB
  8
0
 10
0.0
 20
0.0
 30
0.0
 70
   128
 71
    20
 72
   -21
 73
    -9
  0
VERTEX
  5
1353BC
  8
0
 10
0.0
 20
0.0
 30
0.0
 70
   128
 71
     7
 72
     8
 73
    -9
  0
VERTEX
  5
1353BD
  8
0
 10
0.0
 20
0.0
 30
0.0
 70
   128
 71
     6
 72
    -7
 73
    -9
  0
VERTEX
  5
1353BE
  8
0
 10
0.0
 20
0.0
 30
0.0
 70
   128
 71
   -22
 72
    -6
 73
    -9
  0
VERTEX
  5
1353BF
  8
0
 10
0.0
 20
0.0
 30
0.0
 70
   128
 71
    21
 72
   -22
 73
    -9
  0
VERTEX
  5
1353C0
  8
0
 10
0.0
 20
0.0
 30
0.0
 70
   128
 71
    22
 72
   -23
 73
    -6
  0
VERTEX
  5
1353C1
  8
0
 10
0.0
 20
0.0
 30
0.0
 70
   128
 71
     5
 72
    -6
 73
   -23
  0
VERTEX
  5
1353C2
  8
0
 10
0.0
 20
0.0
 30
0.0
 70
   128
 71
    23
 72
   -24
 73
    -5
  0
VERTEX
  5
1353C3
  8
0
 10
0.0
 20
0.0
 30
0.0
 70
   128
 71
     3
 72
     4
 73
    -5
  0
VERTEX
  5
1353C4
  8
0
 10
0.0
 20
0.0
 30
0.0
 70
   128
 71
     2
 72
    -3
 73
    -5
  0
VERTEX
  5
1353C5
  8
0
 10
0.0
 20
0.0
 30
0.0
 70
   128
 71
   -17
 72
    -2
 73
    -5
  0
VERTEX
  5
1353C6
  8
0
 10
0.0
 20
0.0
 30
0.0
 70
   128
 71
    24
 72
   -17
 73
    -5
  0
SEQEND
  5
135DF5
  8
0
  0
POLYLINE
  5
1353C7
  8
0
 66
     1
 10
0.0
 20
0.0
 30
0.0
 70
    64
 71
    22
 72
    22
  0
VERTEX
  5
1353C8
  8
0
 10
-18.2
 20
3.610912703473988
 30
-3.889087296526012
 70
   192
  0
VERTEX
  5
1353C9
  8
0
 10
-18.2
 20
7.5
 30
-5.5
 70
   192
  0
VERTEX
  5
1353CA
  8
0
 10
-32.5
 20
7.5
 30
-5.5
 70
   192
  0
VERTEX
  5
1353CB
  8
0
 10
-32.5
 20
3.610912703473988
 30
-3.889087296526012
 70
   192
  0
VERTEX
  5
1353CC
  8
0
 10
-18.2
 20
1.999999999999999
 30
0.0
 70
   192
  0
VERTEX
  5
1353CD
  8
0
 10
-32.5
 20
1.999999999999999
 30
0.0
 70
   192
  0
VERTEX
  5
1353CE
  8
0
 10
-32.5
 20
3.610912703473988
 30
3.889087296526012
 70
   192
  0
VERTEX
  5
1353CF
  8
0
 10
-28.27470096497441
 20
2.623167364039274
 30
2.543092120492259
 70
   192
  0
VERTEX
  5
1353D0
  8
0
 10
-26.59150513735703
 20
2.665410983989674
 30
2.62236556000606
 70
   192
  0
VERTEX
  5
1353D1
  8
0
 10
-18.2
 20
3.610912703473988
 30
3.889087296526012
 70
   192
  0
VERTEX
  5
1353D2
  8
0
 10
-25.85
 20
3.725082782365
 30
4.0
 70
   192
  0
VERTEX
  5
1353D3
  8
0
 10
-25.88443430820075
 20
4.115092694773418
 30
4.335020515945656
 70
   192
  0
VERTEX
  5
1353D4
  8
0
 10
-25.97706264059082
 20
4.538861880328603
 30
4.634850886742071
 70
   192
  0
VERTEX
  5
1353D5
  8
0
 10
-26.11640472517
 20
5.0
 30
4.898979485566
 70
   192
  0
VERTEX
  5
1353D6
  8
0
 10
-27.04221725491948
 20
5.306570550766731
 30
5.043695816548228
 70
   192
  0
VERTEX
  5
1353D7
  8
0
 10
-18.2
 20
7.5
 30
5.5
 70
   192
  0
VERTEX
  5
1353D8
  8
0
 10
-32.5
 20
7.5
 30
5.5
 70
   192
  0
VERTEX
  5
1353D9
  8
0
 10
-28.1442705995428
 20
5.263761064710121
 30
5.024862009402226
 70
   192
  0
VERTEX
  5
1353DA
  8
0
 10
-28.88359527483
 20
5.0
 30
4.898979485566
 70
   192
  0
VERTEX
  5
1353DB
  8
0
 10
-29.02288829733303
 20
4.539000504691386
 30
4.634919909617087
 70
   192
  0
VERTEX
  5
1353DC
  8
0
 10
-29.11555532698297
 20
4.115230905286274
 30
4.335141826864986
 70
   192
  0
VERTEX
  5
1353DD
  8
0
 10
-29.15
 20
3.725082782365
 30
4.0
 70
   192
  0
VERTEX
  5
1353DE
  8
0
 10
0.0
 20
0.0
 30
0.0
 70
   128
 71
     1
 72
     2
 73
    -3
  0
VERTEX
  5
1353DF
  8
0
 10
0.0
 20
0.0
 30
0.0
 70
   128
 71
     4
 72
    -1
 73
     3
  0
VERTEX
  5
1353E0
  8
0
 10
0.0
 20
0.0
 30
0.0
 70
   128
 71
     5
 72
     1
 73
    -4
  0
VERTEX
  5
1353E1
  8
0
 10
0.0
 20
0.0
 30
0.0
 70
   128
 71
     6
 72
    -5
 73
     4
  0
VERTEX
  5
1353E2
  8
0
 10
0.0
 20
0.0
 30
0.0
 70
   128
 71
     6
 72
     7
 73
     8
  0
VERTEX
  5
1353E3
  8
0
 10
0.0
 20
0.0
 30
0.0
 70
   128
 71
     8
 72
     9
 73
     6
  0
VERTEX
  5
1353E4
  8
0
 10
0.0
 20
0.0
 30
0.0
 70
   128
 71
     5
 72
     6
 73
     9
  0
VERTEX
  5
1353E5
  8
0
 10
0.0
 20
0.0
 30
0.0
 70
   128
 71
    10
 72
     5
 73
     9
  0
VERTEX
  5
1353E6
  8
0
 10
0.0
 20
0.0
 30
0.0
 70
   128
 71
    11
 72
    12
 73
    10
  0
VERTEX
  5
1353E7
  8
0
 10
0.0
 20
0.0
 30
0.0
 70
   128
 71
    12
 72
    13
 73
    10
  0
VERTEX
  5
1353E8
  8
0
 10
0.0
 20
0.0
 30
0.0
 70
   128
 71
    13
 72
    14
 73
    10
  0
VERTEX
  5
1353E9
  8
0
 10
0.0
 20
0.0
 30
0.0
 70
   128
 71
    15
 72
    16
 73
    10
  0
VERTEX
  5
1353EA
  8
0
 10
0.0
 20
0.0
 30
0.0
 70
   128
 71
    14
 72
    15
 73
    10
  0
VERTEX
  5
1353EB
  8
0
 10
0.0
 20
0.0
 30
0.0
 70
   128
 71
    15
 72
    17
 73
    16
  0
VERTEX
  5
1353EC
  8
0
 10
0.0
 20
0.0
 30
0.0
 70
   128
 71
    15
 72
    18
 73
    17
  0
VERTEX
  5
1353ED
  8
0
 10
0.0
 20
0.0
 30
0.0
 70
   128
 71
    18
 72
    19
 73
    17
  0
VERTEX
  5
1353EE
  8
0
 10
0.0
 20
0.0
 30
0.0
 70
   128
 71
    19
 72
     7
 73
    17
  0
VERTEX
  5
1353EF
  8
0
 10
0.0
 20
0.0
 30
0.0
 70
   128
 71
    19
 72
    20
 73
     7
  0
VERTEX
  5
1353F0
  8
0
 10
0.0
 20
0.0
 30
0.0
 70
   128
 71
    20
 72
    21
 73
     7
  0
VERTEX
  5
1353F1
  8
0
 10
0.0
 20
0.0
 30
0.0
 70
   128
 71
    21
 72
    22
 73
     7
  0
VERTEX
  5
1353F2
  8
0
 10
0.0
 20
0.0
 30
0.0
 70
   128
 71
     7
 72
    22
 73
     8
  0
VERTEX
  5
1353F3
  8
0
 10
0.0
 20
0.0
 30
0.0
 70
   128
 71
    11
 72
    10
 73
     9
  0
SEQEND
  5
135DF6
  8
0
  0
POLYLINE
  5
1353F4
  8
0
 66
     1
 10
0.0
 20
0.0
 30
0.0
 70
    64
 71
     9
 72
     7
  0
VERTEX
  5
1353F5
  8
0
 10
-29.15
 20
3.725082782365
 30
4.0
 70
   192
  0
VERTEX
  5
1353F6
  8
0
 10
-29.15
 20
0.6000000000000005
 30
4.0
 70
   192
  0
VERTEX
  5
1353F7
  8
0
 10
-28.6667261889578
 20
0.6
 30
2.833273811042198
 70
   192
  0
VERTEX
  5
1353F8
  8
0
 10
-27.5
 20
0.6
 30
2.350000000000001
 70
   192
  0
VERTEX
  5
1353F9
  8
0
 10
-28.27470096497441
 20
2.623167364039274
 30
2.543092120492259
 70
   192
  0
VERTEX
  5
1353FA
  8
0
 10
-26.3332738110422
 20
0.6
 30
2.833273811042197
 70
   192
  0
VERTEX
  5
1353FB
  8
0
 10
-25.85
 20
0.6
 30
4.0
 70
   192
  0
VERTEX
  5
1353FC
  8
0
 10
-25.85
 20
3.725082782365
 30
4.0
 70
   192
  0
VERTEX
  5
1353FD
  8
0
 10
-26.59150513735703
 20
2.665410983989674
 30
2.62236556000606
 70
   192
  0
VERTEX
  5
1353FE
  8
0
 10
0.0
 20
0.0
 30
0.0
 70
   128
 71
     1
 72
     2
 73
     3
  0
VERTEX
  5
1353FF
  8
0
 10
0.0
 20
0.0
 30
0.0
 70
   128
 71
     3
 72
     4
 73
     5
  0
VERTEX
  5
135400
  8
0
 10
0.0
 20
0.0
 30
0.0
 70
   128
 71
     6
 72
     7
 73
     8
  0
VERTEX
  5
135401
  8
0
 10
0.0
 20
0.0
 30
0.0
 70
   128
 71
     3
 72
     5
 73
     1
  0
VERTEX
  5
135402
  8
0
 10
0.0
 20
0.0
 30
0.0
 70
   128
 71
     6
 72
     9
 73
     5
  0
VERTEX
  5
135403
  8
0
 10
0.0
 20
0.0
 30
0.0
 70
   128
 71
     4
 72
     6
 73
     5
  0
VERTEX
  5
135404
  8
0
 10
0.0
 20
0.0
 30
0.0
 70
   128
 71
     6
 72
     8
 73
     9
  0
SEQEND
  5
135DF7
  8
0
  0
POLYLINE
  5
135405
  8
0
 66
     1
 10
0.0
 20
0.0
 30
0.0
 70
    64
 71
    15
 72
    13
  0
VERTEX
  5
135406
  8
0
 10
-27.5
 20
0.6
 30
5.649999999999999
 70
   192
  0
VERTEX
  5
135407
  8
0
 10
-28.6667261889578
 20
0.6
 30
5.166726188957803
 70
   192
  0
VERTEX
  5
135408
  8
0
 10
-28.03706527947438
 20
5.0
 30
5.560147712744888
 70
   192
  0
VERTEX
  5
135409
  8
0
 10
-29.15
 20
0.6
 30
4.0
 70
   192
  0
VERTEX
  5
13540A
  8
0
 10
-29.15
 20
3.725082782365
 30
4.0
 70
   192
  0
VERTEX
  5
13540B
  8
0
 10
-29.11555532698297
 20
4.115230905286274
 30
4.335141826864986
 70
   192
  0
VERTEX
  5
13540C
  8
0
 10
-26.96293472052562
 20
5.0
 30
5.560147712744888
 70
   192
  0
VERTEX
  5
13540D
  8
0
 10
-26.11640472517011
 20
5.0
 30
4.898979485565933
 70
   192
  0
VERTEX
  5
13540E
  8
0
 10
-25.97706264059082
 20
4.538861880328603
 30
4.634850886742071
 70
   192
  0
VERTEX
  5
13540F
  8
0
 10
-25.88443430820075
 20
4.115092694773418
 30
4.335020515945656
 70
   192
  0
VERTEX
  5
135410
  8
0
 10
-25.85
 20
3.725082782365
 30
4.0
 70
   192
  0
VERTEX
  5
135411
  8
0
 10
-25.85
 20
0.6000000000000005
 30
4.0
 70
   192
  0
VERTEX
  5
135412
  8
0
 10
-26.3332738110422
 20
0.6
 30
5.166726188957803
 70
   192
  0
VERTEX
  5
135413
  8
0
 10
-29.02288829733303
 20
4.539000504691386
 30
4.634919909617087
 70
   192
  0
VERTEX
  5
135414
  8
0
 10
-28.88359527483
 20
5.0
 30
4.898979485566
 70
   192
  0
VERTEX
  5
135415
  8
0
 10
0.0
 20
0.0
 30
0.0
 70
   128
 71
     1
 72
     2
 73
     3
  0
VERTEX
  5
135416
  8
0
 10
0.0
 20
0.0
 30
0.0
 70
   128
 71
     4
 72
     5
 73
     6
  0
VERTEX
  5
135417
  8
0
 10
0.0
 20
0.0
 30
0.0
 70
   128
 71
     2
 72
     4
 73
     6
  0
VERTEX
  5
135418
  8
0
 10
0.0
 20
0.0
 30
0.0
 70
   128
 71
     1
 72
     3
 73
     7
  0
VERTEX
  5
135419
  8
0
 10
0.0
 20
0.0
 30
0.0
 70
   128
 71
     7
 72
     8
 73
     9
  0
VERTEX
  5
13541A
  8
0
 10
0.0
 20
0.0
 30
0.0
 70
   128
 71
     9
 72
    10
 73
     7
  0
VERTEX
  5
13541B
  8
0
 10
0.0
 20
0.0
 30
0.0
 70
   128
 71
    11
 72
    12
 73
    13
  0
VERTEX
  5
13541C
  8
0
 10
0.0
 20
0.0
 30
0.0
 70
   128
 71
    10
 72
    11
 73
    13
  0
VERTEX
  5
13541D
  8
0
 10
0.0
 20
0.0
 30
0.0
 70
   128
 71
     1
 72
     7
 73
    10
  0
VERTEX
  5
13541E
  8
0
 10
0.0
 20
0.0
 30
0.0
 70
   128
 71
    13
 72
     1
 73
    10
  0
VERTEX
  5
13541F
  8
0
 10
0.0
 20
0.0
 30
0.0
 70
   128
 71
     2
 72
     6
 73
    14
  0
VERTEX
  5
135420
  8
0
 10
0.0
 20
0.0
 30
0.0
 70
   128
 71
     3
 72
     2
 73
    14
  0
VERTEX
  5
135421
  8
0
 10
0.0
 20
0.0
 30
0.0
 70
   128
 71
    14
 72
    15
 73
     3
  0
SEQEND
  5
135DF8
  8
0
  0
POLYLINE
  5
135422
  8
0
 66
     1
 10
0.0
 20
0.0
 30
0.0
 70
    64
 71
     6
 72
     4
  0
VERTEX
  5
135423
  8
0
 10
-28.88359527482989
 20
5.0
 30
4.898979485565932
 70
   192
  0
VERTEX
  5
135424
  8
0
 10
-28.1442705995428
 20
5.263761064710121
 30
5.024862009402226
 70
   192
  0
VERTEX
  5
135425
  8
0
 10
-28.03706527947438
 20
5.0
 30
5.560147712744888
 70
   192
  0
VERTEX
  5
135426
  8
0
 10
-26.96293472052562
 20
5.0
 30
5.560147712744888
 70
   192
  0
VERTEX
  5
135427
  8
0
 10
-27.04221725491948
 20
5.306570550766731
 30
5.043695816548228
 70
   192
  0
VERTEX
  5
135428
  8
0
 10
-26.11640472517011
 20
5.0
 30
4.898979485565933
 70
   192
  0
VERTEX
  5
135429
  8
0
 10
0.0
 20
0.0
 30
0.0
 70
   128
 71
     1
 72
     2
 73
     3
  0
VERTEX
  5
13542A
  8
0
 10
0.0
 20
0.0
 30
0.0
 70
   128
 71
     4
 72
     5
 73
     6
  0
VERTEX
  5
13542B
  8
0
 10
0.0
 20
0.0
 30
0.0
 70
   128
 71
     5
 72
     4
 73
     3
  0
VERTEX
  5
13542C
  8
0
 10
0.0
 20
0.0
 30
0.0
 70
   128
 71
     2
 72
     5
 73
     3
  0
SEQEND
  5
135DF9
  8
0
  0
POLYLINE
  5
13542D
  8
0
 66
     1
 10
0.0
 20
0.0
 30
0.0
 70
    64
 71
    10
 72
     8
  0
VERTEX
  5
13542E
  8
0
 10
-25.85
 20
0.6
 30
4.0
 70
   192
  0
VERTEX
  5
13542F
  8
0
 10
-29.15
 20
0.6
 30
4.0
 70
   192
  0
VERTEX
  5
135430
  8
0
 10
-29.75
 20
-0.0000000000000007
 30
4.0
 70
   192
  0
VERTEX
  5
135431
  8
0
 10
-25.25
 20
-0.0000000000000007
 30
4.0
 70
   192
  0
VERTEX
  5
135432
  8
0
 10
-27.5
 20
0.0
 30
6.249999999999999
 70
   192
  0
VERTEX
  5
135433
  8
0
 10
-27.5
 20
0.6
 30
5.649999999999999
 70
   192
  0
VERTEX
  5
135434
  8
0
 10
-25.90900974233027
 20
0.0
 30
5.590990257669731
 70
   192
  0
VERTEX
  5
135435
  8
0
 10
-26.3332738110422
 20
0.6
 30
5.166726188957803
 70
   192
  0
VERTEX
  5
135436
  8
0
 10
-29.09099025766973
 20
0.0
 30
5.590990257669731
 70
   192
  0
VERTEX
  5
135437
  8
0
 10
-28.6667261889578
 20
0.6
 30
5.166726188957803
 70
   192
  0
VERTEX
  5
135438
  8
0
 10
0.0
 20
0.0
 30
0.0
 70
   128
 71
     8
 72
     1
 73
    -4
  0
VERTEX
  5
135439
  8
0
 10
0.0
 20
0.0
 30
0.0
 70
   128
 71
     7
 72
    -8
 73
     4
  0
VERTEX
  5
13543A
  8
0
 10
0.0
 20
0.0
 30
0.0
 70
   128
 71
     6
 72
     8
 73
    -7
  0
VERTEX
  5
13543B
  8
0
 10
0.0
 20
0.0
 30
0.0
 70
   128
 71
     5
 72
    -6
 73
     7
  0
VERTEX
  5
13543C
  8
0
 10
0.0
 20
0.0
 30
0.0
 70
   128
 71
    10
 72
     6
 73
    -5
  0
VERTEX
  5
13543D
  8
0
 10
0.0
 20
0.0
 30
0.0
 70
   128
 71
     9
 72
   -10
 73
     5
  0
VERTEX
  5
13543E
  8
0
 10
0.0
 20
0.0
 30
0.0
 70
   128
 71
     3
 72
     2
 73
   -10
  0
VERTEX
  5
13543F
  8
0
 10
0.0
 20
0.0
 30
0.0
 70
   128
 71
     9
 72
    -3
 73
    10
  0
SEQEND
  5
135DFA
  8
0
  0
POLYLINE
  5
135440
  8
0
 66
     1
 10
0.0
 20
0.0
 30
0.0
 70
    64
 71
    10
 72
     8
  0
VERTEX
  5
135441
  8
0
 10
-29.15
 20
0.6
 30
4.0
 70
   192
  0
VERTEX
  5
135442
  8
0
 10
-25.85
 20
0.6
 30
4.0
 70
   192
  0
VERTEX
  5
135443
  8
0
 10
-25.25
 20
-0.0000000000000007
 30
4.0
 70
   192
  0
VERTEX
  5
135444
  8
0
 10
-29.75
 20
-0.0000000000000007
 30
4.0
 70
   192
  0
VERTEX
  5
135445
  8
0
 10
-27.5
 20
0.0
 30
1.750000000000001
 70
   192
  0
VERTEX
  5
135446
  8
0
 10
-27.5
 20
0.6
 30
2.350000000000001
 70
   192
  0
VERTEX
  5
135447
  8
0
 10
-29.09099025766973
 20
0.0
 30
2.409009742330269
 70
   192
  0
VERTEX
  5
135448
  8
0
 10
-28.6667261889578
 20
0.6
 30
2.833273811042198
 70
   192
  0
VERTEX
  5
135449
  8
0
 10
-25.90900974233027
 20
0.0
 30
2.409009742330269
 70
   192
  0
VERTEX
  5
13544A
  8
0
 10
-26.3332738110422
 20
0.6
 30
2.833273811042197
 70
   192
  0
VERTEX
  5
13544B
  8
0
 10
0.0
 20
0.0
 30
0.0
 70
   128
 71
     8
 72
     1
 73
    -4
  0
VERTEX
  5
13544C
  8
0
 10
0.0
 20
0.0
 30
0.0
 70
   128
 71
     7
 72
    -8
 73
     4
  0
VERTEX
  5
13544D
  8
0
 10
0.0
 20
0.0
 30
0.0
 70
   128
 71
     6
 72
     8
 73
    -7
  0
VERTEX
  5
13544E
  8
0
 10
0.0
 20
0.0
 30
0.0
 70
   128
 71
     5
 72
    -6
 73
     7
  0
VERTEX
  5
13544F
  8
0
 10
0.0
 20
0.0
 30
0.0
 70
   128
 71
    10
 72
     6
 73
    -5
  0
VERTEX
  5
135450
  8
0
 10
0.0
 20
0.0
 30
0.0
 70
   128
 71
     9
 72
   -10
 73
     5
  0
VERTEX
  5
135451
  8
0
 10
0.0
 20
0.0
 30
0.0
 70
   128
 71
     3
 72
     2
 73
   -10
  0
VERTEX
  5
135452
  8
0
 10
0.0
 20
0.0
 30
0.0
 70
   128
 71
     9
 72
    -3
 73
    10
  0
SEQEND
  5
135DFB
  8
0
  0
POLYLINE
  5
135453
  8
0
 66
     1
 10
0.0
 20
0.0
 30
0.0
 70
    64
 71
    10
 72
     8
  0
VERTEX
  5
135454
  8
0
 10
-32.0
 20
9.75
 30
-13.5
 70
   192
  0
VERTEX
  5
135455
  8
0
 10
-32.0
 20
5.25
 30
-13.5
 70
   192
  0
VERTEX
  5
135456
  8
0
 10
-32.5
 20
4.75
 30
-13.5
 70
   192
  0
VERTEX
  5
135457
  8
0
 10
-32.5
 20
10.25
 30
-13.5
 70
   192
  0
VERTEX
  5
135458
  8
0
 10
-32.5
 20
7.5
 30
-16.25
 70
   192
  0
VERTEX
  5
135459
  8
0
 10
-32.0
 20
7.5
 30
-15.75
 70
   192
  0
VERTEX
  5
13545A
  8
0
 10
-32.5
 20
9.444543648263005
 30
-15.44454364826301
 70
   192
  0
VERTEX
  5
13545B
  8
0
 10
-32.0
 20
9.090990257669732
 30
-15.09099025766973
 70
   192
  0
VERTEX
  5
13545C
  8
0
 10
-32.5
 20
5.555456351736995
 30
-15.44454364826301
 70
   192
  0
VERTEX
  5
13545D
  8
0
 10
-32.0
 20
5.909009742330268
 30
-15.09099025766973
 70
   192
  0
VERTEX
  5
13545E
  8
0
 10
0.0
 20
0.0
 30
0.0
 70
   128
 71
     8
 72
     1
 73
    -4
  0
VERTEX
  5
13545F
  8
0
 10
0.0
 20
0.0
 30
0.0
 70
   128
 71
     7
 72
    -8
 73
     4
  0
VERTEX
  5
135460
  8
0
 10
0.0
 20
0.0
 30
0.0
 70
   128
 71
     6
 72
     8
 73
    -7
  0
VERTEX
  5
135461
  8
0
 10
0.0
 20
0.0
 30
0.0
 70
   128
 71
     5
 72
    -6
 73
     7
  0
VERTEX
  5
135462
  8
0
 10
0.0
 20
0.0
 30
0.0
 70
   128
 71
    10
 72
     6
 73
    -5
  0
VERTEX
  5
135463
  8
0
 10
0.0
 20
0.0
 30
0.0
 70
   128
 71
     9
 72
   -10
 73
     5
  0
VERTEX
  5
135464
  8
0
 10
0.0
 20
0.0
 30
0.0
 70
   128
 71
     3
 72
     2
 73
   -10
  0
VERTEX
  5
135465
  8
0
 10
0.0
 20
0.0
 30
0.0
 70
   128
 71
     9
 72
    -3
 73
    10
  0
SEQEND
  5
135DFC
  8
0
  0
POLYLINE
  5
135466
  8
0
 66
     1
 10
0.0
 20
0.0
 30
0.0
 70
    64
 71
    10
 72
     8
  0
VERTEX
  5
135467
  8
0
 10
-32.0
 20
5.249999999999999
 30
-13.5
 70
   192
  0
VERTEX
  5
135468
  8
0
 10
-32.0
 20
9.75
 30
-13.5
 70
   192
  0
VERTEX
  5
135469
  8
0
 10
-32.5
 20
10.25
 30
-13.5
 70
   192
  0
VERTEX
  5
13546A
  8
0
 10
-32.5
 20
4.75
 30
-13.5
 70
   192
  0
VERTEX
  5
13546B
  8
0
 10
-32.5
 20
7.5
 30
-10.75
 70
   192
  0
VERTEX
  5
13546C
  8
0
 10
-32.0
 20
7.5
 30
-11.25
 70
   192
  0
VERTEX
  5
13546D
  8
0
 10
-32.5
 20
5.555456351736995
 30
-11.55545635173699
 70
   192
  0
VERTEX
  5
13546E
  8
0
 10
-32.0
 20
5.909009742330268
 30
-11.90900974233027
 70
   192
  0
VERTEX
  5
13546F
  8
0
 10
-32.5
 20
9.444543648263005
 30
-11.55545635173699
 70
   192
  0
VERTEX
  5
135470
  8
0
 10
-32.0
 20
9.090990257669732
 30
-11.90900974233027
 70
   192
  0
VERTEX
  5
135471
  8
0
 10
0.0
 20
0.0
 30
0.0
 70
   128
 71
     8
 72
     1
 73
    -4
  0
VERTEX
  5
135472
  8
0
 10
0.0
 20
0.0
 30
0.0
 70
   128
 71
     7
 72
    -8
 73
     4
  0
VERTEX
  5
135473
  8
0
 10
0.0
 20
0.0
 30
0.0
 70
   128
 71
     6
 72
     8
 73
    -7
  0
VERTEX
  5
135474
  8
0
 10
0.0
 20
0.0
 30
0.0
 70
   128
 71
     5
 72
    -6
 73
     7
  0
VERTEX
  5
135475
  8
0
 10
0.0
 20
0.0
 30
0.0
 70
   128
 71
    10
 72
     6
 73
    -5
  0
VERTEX
  5
135476
  8
0
 10
0.0
 20
0.0
 30
0.0
 70
   128
 71
     9
 72
   -10
 73
     5
  0
VERTEX
  5
135477
  8
0
 10
0.0
 20
0.0
 30
0.0
 70
   128
 71
     3
 72
     2
 73
   -10
  0
VERTEX
  5
135478
  8
0
 10
0.0
 20
0.0
 30
0.0
 70
   128
 71
     9
 72
    -3
 73
    10
  0
SEQEND
  5
135DFD
  8
0
  0
POLYLINE
  5
135479
  8
0
 66
     1
 10
0.0
 20
0.0
 30
0.0
 70
    64
 71
    10
 72
     8
  0
VERTEX
  5
13547A
  8
0
 10
-13.0
 20
5.249999999999999
 30
-13.5
 70
   192
  0
VERTEX
  5
13547B
  8
0
 10
-13.0
 20
9.75
 30
-13.5
 70
   192
  0
VERTEX
  5
13547C
  8
0
 10
-32.0
 20
9.75
 30
-13.5
 70
   192
  0
VERTEX
  5
13547D
  8
0
 10
-32.0
 20
5.25
 30
-13.5
 70
   192
  0
VERTEX
  5
13547E
  8
0
 10
-32.0
 20
7.5
 30
-11.25
 70
   192
  0
VERTEX
  5
13547F
  8
0
 10
-13.0
 20
7.5
 30
-11.25
 70
   192
  0
VERTEX
  5
135480
  8
0
 10
-32.0
 20
5.909009742330268
 30
-11.90900974233027
 70
   192
  0
VERTEX
  5
135481
  8
0
 10
-13.0
 20
5.909009742330268
 30
-11.90900974233027
 70
   192
  0
VERTEX
  5
135482
  8
0
 10
-32.0
 20
9.090990257669732
 30
-11.90900974233027
 70
   192
  0
VERTEX
  5
135483
  8
0
 10
-13.0
 20
9.090990257669732
 30
-11.90900974233027
 70
   192
  0
VERTEX
  5
135484
  8
0
 10
0.0
 20
0.0
 30
0.0
 70
   128
 71
     8
 72
     1
 73
    -4
  0
VERTEX
  5
135485
  8
0
 10
0.0
 20
0.0
 30
0.0
 70
   128
 71
     7
 72
    -8
 73
     4
  0
VERTEX
  5
135486
  8
0
 10
0.0
 20
0.0
 30
0.0
 70
   128
 71
     6
 72
     8
 73
    -7
  0
VERTEX
  5
135487
  8
0
 10
0.0
 20
0.0
 30
0.0
 70
   128
 71
     5
 72
    -6
 73
     7
  0
VERTEX
  5
135488
  8
0
 10
0.0
 20
0.0
 30
0.0
 70
   128
 71
    10
 72
     6
 73
    -5
  0
VERTEX
  5
135489
  8
0
 10
0.0
 20
0.0
 30
0.0
 70
   128
 71
     9
 72
   -10
 73
     5
  0
VERTEX
  5
13548A
  8
0
 10
0.0
 20
0.0
 30
0.0
 70
   128
 71
     2
 72
    10
 73
    -9
  0
VERTEX
  5
13548B
  8
0
 10
0.0
 20
0.0
 30
0.0
 70
   128
 71
     3
 72
    -2
 73
     9
  0
SEQEND
  5
135DFE
  8
0
  0
POLYLINE
  5
13548C
  8
0
 66
     1
 10
0.0
 20
0.0
 30
0.0
 70
    64
 71
    10
 72
     8
  0
VERTEX
  5
13548D
  8
0
 10
-13.0
 20
9.75
 30
-13.5
 70
   192
  0
VERTEX
  5
13548E
  8
0
 10
-13.0
 20
5.25
 30
-13.5
 70
   192
  0
VERTEX
  5
13548F
  8
0
 10
-32.0
 20
5.249999999999999
 30
-13.5
 70
   192
  0
VERTEX
  5
135490
  8
0
 10
-32.0
 20
9.75
 30
-13.5
 70
   192
  0
VERTEX
  5
135491
  8
0
 10
-32.0
 20
7.5
 30
-15.75
 70
   192
  0
VERTEX
  5
135492
  8
0
 10
-13.0
 20
7.5
 30
-15.75
 70
   192
  0
VERTEX
  5
135493
  8
0
 10
-32.0
 20
9.090990257669732
 30
-15.09099025766973
 70
   192
  0
VERTEX
  5
135494
  8
0
 10
-13.0
 20
9.090990257669732
 30
-15.09099025766973
 70
   192
  0
VERTEX
  5
135495
  8
0
 10
-32.0
 20
5.909009742330268
 30
-15.09099025766973
 70
   192
  0
VERTEX
  5
135496
  8
0
 10
-13.0
 20
5.909009742330268
 30
-15.09099025766973
 70
   192
  0
VERTEX
  5
135497
  8
0
 10
0.0
 20
0.0
 30
0.0
 70
   128
 71
     4
 72
     7
 73
    -8
  0
VERTEX
  5
135498
  8
0
 10
0.0
 20
0.0
 30
0.0
 70
   128
 71
     1
 72
    -4
 73
     8
  0
VERTEX
  5
135499
  8
0
 10
0.0
 20
0.0
 30
0.0
 70
   128
 71
     7
 72
     5
 73
    -6
  0
VERTEX
  5
13549A
  8
0
 10
0.0
 20
0.0
 30
0.0
 70
   128
 71
     8
 72
    -7
 73
     6
  0
VERTEX
  5
13549B
  8
0
 10
0.0
 20
0.0
 30
0.0
 70
   128
 71
     5
 72
     9
 73
   -10
  0
VERTEX
  5
13549C
  8
0
 10
0.0
 20
0.0
 30
0.0
 70
   128
 71
     6
 72
    -5
 73
    10
  0
VERTEX
  5
13549D
  8
0
 10
0.0
 20
0.0
 30
0.0
 70
   128
 71
     9
 72
     3
 73
    -2
  0
VERTEX
  5
13549E
  8
0
 10
0.0
 20
0.0
 30
0.0
 70
   128
 71
    10
 72
    -9
 73
     2
  0
SEQEND
  5
135DFF
  8
0
  0
POLYLINE
  5
13549F
  8
0
 66
     1
 10
0.0
 20
0.0
 30
0.0
 70
    64
 71
    10
 72
     4
  0
VERTEX
  5
1354A0
  8
0
 10
-11.64806360719
 20
7.5
 30
-13.5
 70
   192
  0
VERTEX
  5
1354A1
  8
0
 10
-11.64806360719
 20
7.5
 30
-13.5
 70
   192
  0
VERTEX
  5
1354A2
  8
0
 10
-13.0
 20
5.249999999999999
 30
-13.5
 70
   192
  0
VERTEX
  5
1354A3
  8
0
 10
-13.0
 20
9.75
 30
-13.5
 70
   192
  0
VERTEX
  5
1354A4
  8
0
 10
-13.0
 20
7.5
 30
-15.75
 70
   192
  0
VERTEX
  5
1354A5
  8
0
 10
-11.64806360719
 20
7.5
 30
-13.5
 70
   192
  0
VERTEX
  5
1354A6
  8
0
 10
-13.0
 20
9.090990257669732
 30
-15.09099025766973
 70
   192
  0
VERTEX
  5
1354A7
  8
0
 10
-11.64806360719
 20
7.5
 30
-13.5
 70
   192
  0
VERTEX
  5
1354A8
  8
0
 10
-13.0
 20
5.909009742330268
 30
-15.09099025766973
 70
   192
  0
VERTEX
  5
1354A9
  8
0
 10
-11.64806360719
 20
7.5
 30
-13.5
 70
   192
  0
VERTEX
  5
1354AA
  8
0
 10
0.0
 20
0.0
 30
0.0
 70
   128
 71
     4
 72
     7
 73
     8
  0
VERTEX
  5
1354AB
  8
0
 10
0.0
 20
0.0
 30
0.0
 70
   128
 71
     7
 72
     5
 73
     6
  0
VERTEX
  5
1354AC
  8
0
 10
0.0
 20
0.0
 30
0.0
 70
   128
 71
     5
 72
     9
 73
    10
  0
VERTEX
  5
1354AD
  8
0
 10
0.0
 20
0.0
 30
0.0
 70
   128
 71
     9
 72
     3
 73
     2
  0
SEQEND
  5
135E00
  8
0
  0
POLYLINE
  5
1354AE
  8
0
 66
     1
 10
0.0
 20
0.0
 30
0.0
 70
    64
 71
    10
 72
     4
  0
VERTEX
  5
1354AF
  8
0
 10
-11.64806360719
 20
7.5
 30
-13.5
 70
   192
  0
VERTEX
  5
1354B0
  8
0
 10
-11.64806360719
 20
7.5
 30
-13.5
 70
   192
  0
VERTEX
  5
1354B1
  8
0
 10
-13.0
 20
9.75
 30
-13.5
 70
   192
  0
VERTEX
  5
1354B2
  8
0
 10
-13.00000000000158
 20
5.250000000000949
 30
-13.5
 70
   192
  0
VERTEX
  5
1354B3
  8
0
 10
-13.0
 20
7.5
 30
-11.25
 70
   192
  0
VERTEX
  5
1354B4
  8
0
 10
-11.64806360719
 20
7.5
 30
-13.5
 70
   192
  0
VERTEX
  5
1354B5
  8
0
 10
-13.0
 20
5.909009742330268
 30
-11.90900974233027
 70
   192
  0
VERTEX
  5
1354B6
  8
0
 10
-11.64806360719
 20
7.5
 30
-13.5
 70
   192
  0
VERTEX
  5
1354B7
  8
0
 10
-13.0
 20
9.090990257669732
 30
-11.90900974233027
 70
   192
  0
VERTEX
  5
1354B8
  8
0
 10
-11.64806360719
 20
7.5
 30
-13.5
 70
   192
  0
VERTEX
  5
1354B9
  8
0
 10
0.0
 20
0.0
 30
0.0
 70
   128
 71
     1
 72
     4
 73
     7
  0
VERTEX
  5
1354BA
  8
0
 10
0.0
 20
0.0
 30
0.0
 70
   128
 71
     7
 72
     5
 73
     6
  0
VERTEX
  5
1354BB
  8
0
 10
0.0
 20
0.0
 30
0.0
 70
   128
 71
     5
 72
     9
 73
    10
  0
VERTEX
  5
1354BC
  8
0
 10
0.0
 20
0.0
 30
0.0
 70
   128
 71
     9
 72
     3
 73
     2
  0
SEQEND
  5
135E01
  8
0
  0
POLYLINE
  5
1354BD
  8
0
 66
     1
 10
0.0
 20
0.0
 30
0.0
 70
    64
 71
    10
 72
     8
  0
VERTEX
  5
1354BE
  8
0
 10
-32.0
 20
5.249999999999999
 30
13.5
 70
   192
  0
VERTEX
  5
1354BF
  8
0
 10
-32.0
 20
9.75
 30
13.5
 70
   192
  0
VERTEX
  5
1354C0
  8
0
 10
-32.5
 20
10.25
 30
13.5
 70
   192
  0
VERTEX
  5
1354C1
  8
0
 10
-32.5
 20
4.75
 30
13.5
 70
   192
  0
VERTEX
  5
1354C2
  8
0
 10
-32.5
 20
7.5
 30
16.25
 70
   192
  0
VERTEX
  5
1354C3
  8
0
 10
-32.0
 20
7.5
 30
15.75
 70
   192
  0
VERTEX
  5
1354C4
  8
0
 10
-32.5
 20
5.555456351736995
 30
15.44454364826301
 70
   192
  0
VERTEX
  5
1354C5
  8
0
 10
-32.0
 20
5.909009742330268
 30
15.09099025766973
 70
   192
  0
VERTEX
  5
1354C6
  8
0
 10
-32.5
 20
9.444543648263005
 30
15.44454364826301
 70
   192
  0
VERTEX
  5
1354C7
  8
0
 10
-32.0
 20
9.090990257669732
 30
15.09099025766973
 70
   192
  0
VERTEX
  5
1354C8
  8
0
 10
0.0
 20
0.0
 30
0.0
 70
   128
 71
     8
 72
     1
 73
    -4
  0
VERTEX
  5
1354C9
  8
0
 10
0.0
 20
0.0
 30
0.0
 70
   128
 71
     7
 72
    -8
 73
     4
  0
VERTEX
  5
1354CA
  8
0
 10
0.0
 20
0.0
 30
0.0
 70
   128
 71
     6
 72
     8
 73
    -7
  0
VERTEX
  5
1354CB
  8
0
 10
0.0
 20
0.0
 30
0.0
 70
   128
 71
     5
 72
    -6
 73
     7
  0
VERTEX
  5
1354CC
  8
0
 10
0.0
 20
0.0
 30
0.0
 70
   128
 71
    10
 72
     6
 73
    -5
  0
VERTEX
  5
1354CD
  8
0
 10
0.0
 20
0.0
 30
0.0
 70
   128
 71
     9
 72
   -10
 73
     5
  0
VERTEX
  5
1354CE
  8
0
 10
0.0
 20
0.0
 30
0.0
 70
   128
 71
     2
 72
    10
 73
    -9
  0
VERTEX
  5
1354CF
  8
0
 10
0.0
 20
0.0
 30
0.0
 70
   128
 71
     3
 72
    -2
 73
     9
  0
SEQEND
  5
135E02
  8
0
  0
POLYLINE
  5
1354D0
  8
0
 66
     1
 10
0.0
 20
0.0
 30
0.0
 70
    64
 71
    10
 72
     8
  0
VERTEX
  5
1354D1
  8
0
 10
-32.0
 20
9.75
 30
13.5
 70
   192
  0
VERTEX
  5
1354D2
  8
0
 10
-32.0
 20
5.25
 30
13.5
 70
   192
  0
VERTEX
  5
1354D3
  8
0
 10
-32.5
 20
4.75
 30
13.5
 70
   192
  0
VERTEX
  5
1354D4
  8
0
 10
-32.5
 20
10.25
 30
13.5
 70
   192
  0
VERTEX
  5
1354D5
  8
0
 10
-32.5
 20
7.5
 30
10.75
 70
   192
  0
VERTEX
  5
1354D6
  8
0
 10
-32.0
 20
7.5
 30
11.25
 70
   192
  0
VERTEX
  5
1354D7
  8
0
 10
-32.5
 20
9.444543648263005
 30
11.55545635173699
 70
   192
  0
VERTEX
  5
1354D8
  8
0
 10
-32.0
 20
9.090990257669732
 30
11.90900974233027
 70
   192
  0
VERTEX
  5
1354D9
  8
0
 10
-32.5
 20
5.555456351736995
 30
11.55545635173699
 70
   192
  0
VERTEX
  5
1354DA
  8
0
 10
-32.0
 20
5.909009742330268
 30
11.90900974233027
 70
   192
  0
VERTEX
  5
1354DB
  8
0
 10
0.0
 20
0.0
 30
0.0
 70
   128
 71
     4
 72
     7
 73
    -8
  0
VERTEX
  5
1354DC
  8
0
 10
0.0
 20
0.0
 30
0.0
 70
   128
 71
     1
 72
    -4
 73
     8
  0
VERTEX
  5
1354DD
  8
0
 10
0.0
 20
0.0
 30
0.0
 70
   128
 71
     7
 72
     5
 73
    -6
  0
VERTEX
  5
1354DE
  8
0
 10
0.0
 20
0.0
 30
0.0
 70
   128
 71
     8
 72
    -7
 73
     6
  0
VERTEX
  5
1354DF
  8
0
 10
0.0
 20
0.0
 30
0.0
 70
   128
 71
     5
 72
     9
 73
   -10
  0
VERTEX
  5
1354E0
  8
0
 10
0.0
 20
0.0
 30
0.0
 70
   128
 71
     6
 72
    -5
 73
    10
  0
VERTEX
  5
1354E1
  8
0
 10
0.0
 20
0.0
 30
0.0
 70
   128
 71
     9
 72
     3
 73
    -2
  0
VERTEX
  5
1354E2
  8
0
 10
0.0
 20
0.0
 30
0.0
 70
   128
 71
    10
 72
    -9
 73
     2
  0
SEQEND
  5
135E03
  8
0
  0
POLYLINE
  5
1354E3
  8
0
 66
     1
 10
0.0
 20
0.0
 30
0.0
 70
    64
 71
    10
 72
     8
  0
VERTEX
  5
1354E4
  8
0
 10
-32.0
 20
5.249999999999999
 30
13.5
 70
   192
  0
VERTEX
  5
1354E5
  8
0
 10
-32.0
 20
9.75
 30
13.5
 70
   192
  0
VERTEX
  5
1354E6
  8
0
 10
-13.0
 20
9.75
 30
13.5
 70
   192
  0
VERTEX
  5
1354E7
  8
0
 10
-13.0
 20
5.25
 30
13.5
 70
   192
  0
VERTEX
  5
1354E8
  8
0
 10
-13.0
 20
7.5
 30
11.25
 70
   192
  0
VERTEX
  5
1354E9
  8
0
 10
-32.0
 20
7.5
 30
11.25
 70
   192
  0
VERTEX
  5
1354EA
  8
0
 10
-13.0
 20
5.909009742330268
 30
11.90900974233027
 70
   192
  0
VERTEX
  5
1354EB
  8
0
 10
-32.0
 20
5.909009742330268
 30
11.90900974233027
 70
   192
  0
VERTEX
  5
1354EC
  8
0
 10
-13.0
 20
9.090990257669732
 30
11.90900974233027
 70
   192
  0
VERTEX
  5
1354ED
  8
0
 10
-32.0
 20
9.090990257669732
 30
11.90900974233027
 70
   192
  0
VERTEX
  5
1354EE
  8
0
 10
0.0
 20
0.0
 30
0.0
 70
   128
 71
     8
 72
     1
 73
    -4
  0
VERTEX
  5
1354EF
  8
0
 10
0.0
 20
0.0
 30
0.0
 70
   128
 71
     7
 72
    -8
 73
     4
  0
VERTEX
  5
1354F0
  8
0
 10
0.0
 20
0.0
 30
0.0
 70
   128
 71
     6
 72
     8
 73
    -7
  0
VERTEX
  5
1354F1
  8
0
 10
0.0
 20
0.0
 30
0.0
 70
   128
 71
     5
 72
    -6
 73
     7
  0
VERTEX
  5
1354F2
  8
0
 10
0.0
 20
0.0
 30
0.0
 70
   128
 71
    10
 72
     6
 73
    -5
  0
VERTEX
  5
1354F3
  8
0
 10
0.0
 20
0.0
 30
0.0
 70
   128
 71
     9
 72
   -10
 73
     5
  0
VERTEX
  5
1354F4
  8
0
 10
0.0
 20
0.0
 30
0.0
 70
   128
 71
     2
 72
    10
 73
    -9
  0
VERTEX
  5
1354F5
  8
0
 10
0.0
 20
0.0
 30
0.0
 70
   128
 71
     3
 72
    -2
 73
     9
  0
SEQEND
  5
135E04
  8
0
  0
POLYLINE
  5
1354F6
  8
0
 66
     1
 10
0.0
 20
0.0
 30
0.0
 70
    64
 71
    10
 72
     8
  0
VERTEX
  5
1354F7
  8
0
 10
-32.0
 20
9.75
 30
13.5
 70
   192
  0
VERTEX
  5
1354F8
  8
0
 10
-32.0
 20
5.25
 30
13.5
 70
   192
  0
VERTEX
  5
1354F9
  8
0
 10
-13.0
 20
5.249999999999999
 30
13.5
 70
   192
  0
VERTEX
  5
1354FA
  8
0
 10
-13.0
 20
9.75
 30
13.5
 70
   192
  0
VERTEX
  5
1354FB
  8
0
 10
-13.0
 20
7.5
 30
15.75
 70
   192
  0
VERTEX
  5
1354FC
  8
0
 10
-32.0
 20
7.5
 30
15.75
 70
   192
  0
VERTEX
  5
1354FD
  8
0
 10
-13.0
 20
9.090990257669732
 30
15.09099025766973
 70
   192
  0
VERTEX
  5
1354FE
  8
0
 10
-32.0
 20
9.090990257669732
 30
15.09099025766973
 70
   192
  0
VERTEX
  5
1354FF
  8
0
 10
-13.0
 20
5.909009742330268
 30
15.09099025766973
 70
   192
  0
VERTEX
  5
135500
  8
0
 10
-32.0
 20
5.909009742330268
 30
15.09099025766973
 70
   192
  0
VERTEX
  5
135501
  8
0
 10
0.0
 20
0.0
 30
0.0
 70
   128
 71
     4
 72
     7
 73
    -8
  0
VERTEX
  5
135502
  8
0
 10
0.0
 20
0.0
 30
0.0
 70
   128
 71
     1
 72
    -4
 73
     8
  0
VERTEX
  5
135503
  8
0
 10
0.0
 20
0.0
 30
0.0
 70
   128
 71
     7
 72
     5
 73
    -6
  0
VERTEX
  5
135504
  8
0
 10
0.0
 20
0.0
 30
0.0
 70
   128
 71
     8
 72
    -7
 73
     6
  0
VERTEX
  5
135505
  8
0
 10
0.0
 20
0.0
 30
0.0
 70
   128
 71
     5
 72
     9
 73
   -10
  0
VERTEX
  5
135506
  8
0
 10
0.0
 20
0.0
 30
0.0
 70
   128
 71
     6
 72
    -5
 73
    10
  0
VERTEX
  5
135507
  8
0
 10
0.0
 20
0.0
 30
0.0
 70
   128
 71
     9
 72
     3
 73
    -2
  0
VERTEX
  5
135508
  8
0
 10
0.0
 20
0.0
 30
0.0
 70
   128
 71
    10
 72
    -9
 73
     2
  0
SEQEND
  5
135E05
  8
0
  0
POLYLINE
  5
135509
  8
0
 66
     1
 10
0.0
 20
0.0
 30
0.0
 70
    64
 71
    10
 72
     4
  0
VERTEX
  5
13550A
  8
0
 10
-11.64806360719
 20
7.5
 30
13.5
 70
   192
  0
VERTEX
  5
13550B
  8
0
 10
-11.64806360719
 20
7.5
 30
13.5
 70
   192
  0
VERTEX
  5
13550C
  8
0
 10
-13.0
 20
9.75
 30
13.5
 70
   192
  0
VERTEX
  5
13550D
  8
0
 10
-13.00000000000158
 20
5.250000000000949
 30
13.5
 70
   192
  0
VERTEX
  5
13550E
  8
0
 10
-13.0
 20
7.5
 30
15.75
 70
   192
  0
VERTEX
  5
13550F
  8
0
 10
-11.64806360719
 20
7.5
 30
13.5
 70
   192
  0
VERTEX
  5
135510
  8
0
 10
-13.0
 20
5.909009742330268
 30
15.09099025766973
 70
   192
  0
VERTEX
  5
135511
  8
0
 10
-11.64806360719
 20
7.5
 30
13.5
 70
   192
  0
VERTEX
  5
135512
  8
0
 10
-13.0
 20
9.090990257669732
 30
15.09099025766973
 70
   192
  0
VERTEX
  5
135513
  8
0
 10
-11.64806360719
 20
7.5
 30
13.5
 70
   192
  0
VERTEX
  5
135514
  8
0
 10
0.0
 20
0.0
 30
0.0
 70
   128
 71
     1
 72
     4
 73
     7
  0
VERTEX
  5
135515
  8
0
 10
0.0
 20
0.0
 30
0.0
 70
   128
 71
     7
 72
     5
 73
     6
  0
VERTEX
  5
135516
  8
0
 10
0.0
 20
0.0
 30
0.0
 70
   128
 71
     5
 72
     9
 73
    10
  0
VERTEX
  5
135517
  8
0
 10
0.0
 20
0.0
 30
0.0
 70
   128
 71
     9
 72
     3
 73
     2
  0
SEQEND
  5
135E06
  8
0
  0
POLYLINE
  5
135518
  8
0
 66
     1
 10
0.0
 20
0.0
 30
0.0
 70
    64
 71
    10
 72
     4
  0
VERTEX
  5
135519
  8
0
 10
-11.64806360719
 20
7.5
 30
13.5
 70
   192
  0
VERTEX
  5
13551A
  8
0
 10
-11.64806360719
 20
7.5
 30
13.5
 70
   192
  0
VERTEX
  5
13551B
  8
0
 10
-13.0
 20
5.249999999999999
 30
13.5
 70
   192
  0
VERTEX
  5
13551C
  8
0
 10
-13.0
 20
9.75
 30
13.5
 70
   192
  0
VERTEX
  5
13551D
  8
0
 10
-13.0
 20
7.5
 30
11.25
 70
   192
  0
VERTEX
  5
13551E
  8
0
 10
-11.64806360719
 20
7.5
 30
13.5
 70
   192
  0
VERTEX
  5
13551F
  8
0
 10
-13.0
 20
9.090990257669732
 30
11.90900974233027
 70
   192
  0
VERTEX
  5
135520
  8
0
 10
-11.64806360719
 20
7.5
 30
13.5
 70
   192
  0
VERTEX
  5
135521
  8
0
 10
-13.0
 20
5.909009742330268
 30
11.90900974233027
 70
   192
  0
VERTEX
  5
135522
  8
0
 10
-11.64806360719
 20
7.5
 30
13.5
 70
   192
  0
VERTEX
  5
135523
  8
0
 10
0.0
 20
0.0
 30
0.0
 70
   128
 71
     4
 72
     7
 73
     8
  0
VERTEX
  5
135524
  8
0
 10
0.0
 20
0.0
 30
0.0
 70
   128
 71
     7
 72
     5
 73
     6
  0
VERTEX
  5
135525
  8
0
 10
0.0
 20
0.0
 30
0.0
 70
   128
 71
     5
 72
     9
 73
    10
  0
VERTEX
  5
135526
  8
0
 10
0.0
 20
0.0
 30
0.0
 70
   128
 71
     9
 72
     3
 73
     2
  0
SEQEND
  5
135E07
  8
0
  0
POLYLINE
  5
135527
  8
0
 66
     1
 10
0.0
 20
0.0
 30
0.0
 70
    64
 71
     8
 72
     6
  0
VERTEX
  5
135528
  8
0
 10
32.0
 20
14.93301270189222
 30
17.25
 70
   192
  0
VERTEX
  5
135529
  8
0
 10
-32.5
 20
14.93301270189222
 30
17.25
 70
   192
  0
VERTEX
  5
13552A
  8
0
 10
-32.5
 20
14.75
 30
17.43301270189222
 70
   192
  0
VERTEX
  5
13552B
  8
0
 10
32.0
 20
14.75
 30
17.43301270189222
 70
   192
  0
VERTEX
  5
13552C
  8
0
 10
32.0
 20
15.0
 30
17.0
 70
   192
  0
VERTEX
  5
13552D
  8
0
 10
-32.5
 20
15.0
 30
17.0
 70
   192
  0
VERTEX
  5
13552E
  8
0
 10
-32.5
 20
14.5
 30
17.5
 70
   192
  0
VERTEX
  5
13552F
  8
0
 10
32.0
 20
14.5
 30
17.5
 70
   192
  0
VERTEX
  5
135530
  8
0
 10
0.0
 20
0.0
 30
0.0
 70
   128
 71
     1
 72
     2
 73
    -3
  0
VERTEX
  5
135531
  8
0
 10
0.0
 20
0.0
 30
0.0
 70
   128
 71
    -1
 72
     3
 73
     4
  0
VERTEX
  5
135532
  8
0
 10
0.0
 20
0.0
 30
0.0
 70
   128
 71
     5
 72
     6
 73
    -2
  0
VERTEX
  5
135533
  8
0
 10
0.0
 20
0.0
 30
0.0
 70
   128
 71
    -5
 72
     2
 73
     1
  0
VERTEX
  5
135534
  8
0
 10
0.0
 20
0.0
 30
0.0
 70
   128
 71
     4
 72
     3
 73
    -7
  0
VERTEX
  5
135535
  8
0
 10
0.0
 20
0.0
 30
0.0
 70
   128
 71
    -4
 72
     7
 73
     8
  0
SEQEND
  5
135E08
  8
0
  0
POLYLINE
  5
135536
  8
0
 66
     1
 10
0.0
 20
0.0
 30
0.0
 70
    64
 71
     9
 72
     7
  0
VERTEX
  5
135537
  8
0
 10
32.0
 20
14.93301270189222
 30
17.25
 70
   192
  0
VERTEX
  5
135538
  8
0
 10
32.0
 20
14.75
 30
17.43301270189222
 70
   192
  0
VERTEX
  5
135539
  8
0
 10
32.0
 20
14.5
 30
17.5
 70
   192
  0
VERTEX
  5
13553A
  8
0
 10
32.43301270189222
 20
14.75
 30
17.0
 70
   192
  0
VERTEX
  5
13553B
  8
0
 10
32.25
 20
14.93301270189222
 30
17.0
 70
   192
  0
VERTEX
  5
13553C
  8
0
 10
32.43301270189222
 20
14.5
 30
17.25
 70
   192
  0
VERTEX
  5
13553D
  8
0
 10
32.5
 20
14.5
 30
17.0
 70
   192
  0
VERTEX
  5
13553E
  8
0
 10
32.25
 20
14.5
 30
17.43301270189222
 70
   192
  0
VERTEX
  5
13553F
  8
0
 10
32.0
 20
15.0
 30
17.0
 70
   192
  0
VERTEX
  5
135540
  8
0
 10
0.0
 20
0.0
 30
0.0
 70
   128
 71
     1
 72
     2
 73
     3
  0
VERTEX
  5
135541
  8
0
 10
0.0
 20
0.0
 30
0.0
 70
   128
 71
     4
 72
     5
 73
     3
  0
VERTEX
  5
135542
  8
0
 10
0.0
 20
0.0
 30
0.0
 70
   128
 71
     6
 72
     7
 73
     4
  0
VERTEX
  5
135543
  8
0
 10
0.0
 20
0.0
 30
0.0
 70
   128
 71
     4
 72
     3
 73
     8
  0
VERTEX
  5
135544
  8
0
 10
0.0
 20
0.0
 30
0.0
 70
   128
 71
     4
 72
     8
 73
     6
  0
VERTEX
  5
135545
  8
0
 10
0.0
 20
0.0
 30
0.0
 70
   128
 71
     5
 72
     9
 73
     1
  0
VERTEX
  5
135546
  8
0
 10
0.0
 20
0.0
 30
0.0
 70
   128
 71
     5
 72
     1
 73
     3
  0
SEQEND
  5
135E09
  8
0
  0
POLYLINE
  5
135547
  8
0
 66
     1
 10
0.0
 20
0.0
 30
0.0
 70
    64
 71
     8
 72
     6
  0
VERTEX
  5
135548
  8
0
 10
32.25
 20
14.93301270189222
 30
8.25
 70
   192
  0
VERTEX
  5
135549
  8
0
 10
32.25
 20
14.93301270189222
 30
17.0
 70
   192
  0
VERTEX
  5
13554A
  8
0
 10
32.43301270189222
 20
14.75
 30
17.0
 70
   192
  0
VERTEX
  5
13554B
  8
0
 10
32.43301270189222
 20
14.75
 30
8.25
 70
   192
  0
VERTEX
  5
13554C
  8
0
 10
32.0
 20
15.0
 30
8.25
 70
   192
  0
VERTEX
  5
13554D
  8
0
 10
32.0
 20
15.0
 30
17.0
 70
   192
  0
VERTEX
  5
13554E
  8
0
 10
32.5
 20
14.5
 30
17.0
 70
   192
  0
VERTEX
  5
13554F
  8
0
 10
32.5
 20
14.5
 30
8.25
 70
   192
  0
VERTEX
  5
135550
  8
0
 10
0.0
 20
0.0
 30
0.0
 70
   128
 71
     1
 72
     2
 73
    -3
  0
VERTEX
  5
135551
  8
0
 10
0.0
 20
0.0
 30
0.0
 70
   128
 71
    -1
 72
     3
 73
     4
  0
VERTEX
  5
135552
  8
0
 10
0.0
 20
0.0
 30
0.0
 70
   128
 71
     5
 72
     6
 73
    -2
  0
VERTEX
  5
135553
  8
0
 10
0.0
 20
0.0
 30
0.0
 70
   128
 71
    -5
 72
     2
 73
     1
  0
VERTEX
  5
135554
  8
0
 10
0.0
 20
0.0
 30
0.0
 70
   128
 71
     4
 72
     3
 73
    -7
  0
VERTEX
  5
135555
  8
0
 10
0.0
 20
0.0
 30
0.0
 70
   128
 71
    -4
 72
     7
 73
     8
  0
SEQEND
  5
135E0A
  8
0
  0
POLYLINE
  5
135556
  8
0
 66
     1
 10
0.0
 20
0.0
 30
0.0
 70
    64
 71
    15
 72
    13
  0
VERTEX
  5
135557
  8
0
 10
28.84356805552
 20
15.0
 30
8.25
 70
   192
  0
VERTEX
  5
135558
  8
0
 10
28.47324010740782
 20
14.92691783753035
 30
8.25
 70
   192
  0
VERTEX
  5
135559
  8
0
 10
28.22033092655068
 20
14.74732232825143
 30
8.250000000000002
 70
   192
  0
VERTEX
  5
13555A
  8
0
 10
28.12481164614
 20
14.51665741512
 30
8.25
 70
   192
  0
VERTEX
  5
13555B
  8
0
 10
27.88065184344666
 20
9.588647006652794
 30
8.25
 70
   192
  0
VERTEX
  5
13555C
  8
0
 10
27.63646938203834
 20
4.749943799340707
 30
8.25
 70
   192
  0
VERTEX
  5
13555D
  8
0
 10
27.39202437605
 20
0.0
 30
8.25
 70
   192
  0
VERTEX
  5
13555E
  8
0
 10
32.0
 20
-0.0000000000000004
 30
8.25
 70
   192
  0
VERTEX
  5
13555F
  8
0
 10
32.25
 20
0.0669872981077803
 30
8.25
 70
   192
  0
VERTEX
  5
135560
  8
0
 10
32.43301270189222
 20
0.2499999999999998
 30
8.25
 70
   192
  0
VERTEX
  5
135561
  8
0
 10
32.5
 20
0.5
 30
8.25
 70
   192
  0
VERTEX
  5
135562
  8
0
 10
32.5
 20
14.5
 30
8.25
 70
   192
  0
VERTEX
  5
135563
  8
0
 10
32.43301270189222
 20
14.75
 30
8.25
 70
   192
  0
VERTEX
  5
135564
  8
0
 10
32.25
 20
14.93301270189222
 30
8.25
 70
   192
  0
VERTEX
  5
135565
  8
0
 10
32.0
 20
15.0
 30
8.25
 70
   192
  0
VERTEX
  5
135566
  8
0
 10
0.0
 20
0.0
 30
0.0
 70
   128
 71
     5
 72
     4
 73
    -3
  0
VERTEX
  5
135567
  8
0
 10
0.0
 20
0.0
 30
0.0
 70
   128
 71
    -5
 72
     3
 73
    -2
  0
VERTEX
  5
135568
  8
0
 10
0.0
 20
0.0
 30
0.0
 70
   128
 71
    -5
 72
     2
 73
    -1
  0
VERTEX
  5
135569
  8
0
 10
0.0
 20
0.0
 30
0.0
 70
   128
 71
    -5
 72
     1
 73
   -15
  0
VERTEX
  5
13556A
  8
0
 10
0.0
 20
0.0
 30
0.0
 70
   128
 71
    -5
 72
    15
 73
   -14
  0
VERTEX
  5
13556B
  8
0
 10
0.0
 20
0.0
 30
0.0
 70
   128
 71
    -5
 72
    14
 73
   -13
  0
VERTEX
  5
13556C
  8
0
 10
0.0
 20
0.0
 30
0.0
 70
   128
 71
    -5
 72
    13
 73
   -12
  0
VERTEX
  5
13556D
  8
0
 10
0.0
 20
0.0
 30
0.0
 70
   128
 71
    12
 72
   -11
 73
    -6
  0
VERTEX
  5
13556E
  8
0
 10
0.0
 20
0.0
 30
0.0
 70
   128
 71
   -12
 72
     6
 73
    -5
  0
VERTEX
  5
13556F
  8
0
 10
0.0
 20
0.0
 30
0.0
 70
   128
 71
    11
 72
    10
 73
    -9
  0
VERTEX
  5
135570
  8
0
 10
0.0
 20
0.0
 30
0.0
 70
   128
 71
   -11
 72
     9
 73
    -8
  0
VERTEX
  5
135571
  8
0
 10
0.0
 20
0.0
 30
0.0
 70
   128
 71
   -11
 72
     8
 73
    -7
  0
VERTEX
  5
135572
  8
0
 10
0.0
 20
0.0
 30
0.0
 70
   128
 71
   -11
 72
     7
 73
    -6
  0
SEQEND
  5
135E0B
  8
0
  0
POLYLINE
  5
135573
  8
0
 66
     1
 10
0.0
 20
0.0
 30
0.0
 70
    64
 71
    40
 72
    59
  0
VERTEX
  5
135574
  8
0
 10
20.20524109728801
 20
14.51665741512
 30
11.23002091842933
 70
   192
  0
VERTEX
  5
135575
  8
0
 10
16.21402323565346
 20
14.7028249874541
 30
10.43034219045894
 70
   192
  0
VERTEX
  5
135576
  8
0
 10
22.7467082198793
 20
14.7028249874541
 30
11.05051750866506
 70
   192
  0
VERTEX
  5
135577
  8
0
 10
11.13269337448613
 20
14.7028249874541
 30
6.278152723388484
 70
   192
  0
VERTEX
  5
135578
  8
0
 10
9.266111419499998
 20
14.51665741512
 30
0.0000000000000018
 70
   192
  0
VERTEX
  5
135579
  8
0
 10
9.22340321574872
 20
14.7028249874541
 30
0.0000000000000039
 70
   192
  0
VERTEX
  5
13557A
  8
0
 10
12.45290296721031
 20
14.51665741512
 30
-7.838653072049794
 70
   192
  0
VERTEX
  5
13557B
  8
0
 10
16.21402323565346
 20
14.7028249874541
 30
-10.43034219045894
 70
   192
  0
VERTEX
  5
13557C
  8
0
 10
11.13269337448612
 20
14.7028249874541
 30
-6.278152723388478
 70
   192
  0
VERTEX
  5
13557D
  8
0
 10
16.17244278431961
 20
14.859394426475
 30
10.53153227143503
 70
   192
  0
VERTEX
  5
13557E
  8
0
 10
22.76850468470738
 20
14.859394426475
 30
11.15772422740074
 70
   192
  0
VERTEX
  5
13557F
  8
0
 10
9.114003186401956
 20
14.859394426475
 30
0.000000000000004
 70
   192
  0
VERTEX
  5
135580
  8
0
 10
11.04181634488775
 20
14.859394426475
 30
6.339060291985898
 70
   192
  0
VERTEX
  5
135581
  8
0
 10
16.1724427843196
 20
14.859394426475
 30
-10.53153227143502
 70
   192
  0
VERTEX
  5
135582
  8
0
 10
11.04181634488775
 20
14.859394426475
 30
-6.339060291985893
 70
   192
  0
VERTEX
  5
135583
  8
0
 10
28.22109561912467
 20
14.74798306510698
 30
-8.25
 70
   192
  0
VERTEX
  5
135584
  8
0
 10
22.76850468470738
 20
14.859394426475
 30
-11.15772422740074
 70
   192
  0
VERTEX
  5
135585
  8
0
 10
22.7467082198793
 20
14.7028249874541
 30
-11.05051750866506
 70
   192
  0
VERTEX
  5
135586
  8
0
 10
16.11158210525898
 20
14.96351764434556
 30
10.67964266573925
 70
   192
  0
VERTEX
  5
135587
  8
0
 10
22.80040784131112
 20
14.96351764434556
 30
11.31464108358704
 70
   192
  0
VERTEX
  5
135588
  8
0
 10
28.47324010740782
 20
14.92691783753035
 30
8.25
 70
   192
  0
VERTEX
  5
135589
  8
0
 10
8.953876014576954
 20
14.96351764434556
 30
0.000000000000004
 70
   192
  0
VERTEX
  5
13558A
  8
0
 10
10.90880100823441
 20
14.96351764434556
 30
6.428209780888936
 70
   192
  0
VERTEX
  5
13558B
  8
0
 10
16.11158210525897
 20
14.96351764434556
 30
-10.67964266573924
 70
   192
  0
VERTEX
  5
13558C
  8
0
 10
10.90880100823441
 20
14.96351764434556
 30
-6.428209780888929
 70
   192
  0
VERTEX
  5
13558D
  8
0
 10
22.80040784131112
 20
14.96351764434556
 30
-11.31464108358704
 70
   192
  0
VERTEX
  5
13558E
  8
0
 10
14.2813700947168
 20
15.0
 30
-9.95018944533668
 70
   192
  0
VERTEX
  5
13558F
  8
0
 10
9.427965482121245
 20
15.0
 30
-3.884286231970214
 70
   192
  0
VERTEX
  5
135590
  8
0
 10
21.86069892815813
 20
15.0
 30
-11.65444663310452
 70
   192
  0
VERTEX
  5
135591
  8
0
 10
12.45290296721031
 20
14.51665741512
 30
7.838653072049796
 70
   192
  0
VERTEX
  5
135592
  8
0
 10
28.12481164614
 20
14.51665741512
 30
8.25
 70
   192
  0
VERTEX
  5
135593
  8
0
 10
20.20524109728801
 20
14.51665741512
 30
-11.23002091842933
 70
   192
  0
VERTEX
  5
135594
  8
0
 10
28.12481164613928
 20
14.51665741512
 30
-8.249999999999222
 70
   192
  0
VERTEX
  5
135595
  8
0
 10
9.427965482121245
 20
15.0
 30
3.884286231970214
 70
   192
  0
VERTEX
  5
135596
  8
0
 10
14.2813700947168
 20
15.0
 30
9.950189445336683
 70
   192
  0
VERTEX
  5
135597
  8
0
 10
21.86069892815813
 20
15.0
 30
11.65444663310452
 70
   192
  0
VERTEX
  5
135598
  8
0
 10
28.22033092655068
 20
14.74732232825143
 30
8.250000000000002
 70
   192
  0
VERTEX
  5
135599
  8
0
 10
28.47360439851067
 20
14.9270947113746
 30
-8.250000000000002
 70
   192
  0
VERTEX
  5
13559A
  8
0
 10
28.84356805551631
 20
15.0
 30
8.249999999996355
 70
   192
  0
VERTEX
  5
13559B
  8
0
 10
28.84356805552
 20
15.0
 30
-8.25
 70
   192
  0
VERTEX
  5
13559C
  8
0
 10
0.0
 20
0.0
 30
0.0
 70
   128
 71
     1
 72
     2
 73
     3
  0
VERTEX
  5
13559D
  8
0
 10
0.0
 20
0.0
 30
0.0
 70
   128
 71
     4
 72
     5
 73
     6
  0
VERTEX
  5
13559E
  8
0
 10
0.0
 20
0.0
 30
0.0
 70
   128
 71
     7
 72
     8
 73
     9
  0
VERTEX
  5
13559F
  8
0
 10
0.0
 20
0.0
 30
0.0
 70
   128
 71
    10
 72
    11
 73
    -3
  0
VERTEX
  5
1355A0
  8
0
 10
0.0
 20
0.0
 30
0.0
 70
   128
 71
   -10
 72
     3
 73
     2
  0
VERTEX
  5
1355A1
  8
0
 10
0.0
 20
0.0
 30
0.0
 70
   128
 71
    12
 72
    13
 73
    -4
  0
VERTEX
  5
1355A2
  8
0
 10
0.0
 20
0.0
 30
0.0
 70
   128
 71
   -12
 72
     4
 73
     6
  0
VERTEX
  5
1355A3
  8
0
 10
0.0
 20
0.0
 30
0.0
 70
   128
 71
    13
 72
    10
 73
    -2
  0
VERTEX
  5
1355A4
  8
0
 10
0.0
 20
0.0
 30
0.0
 70
   128
 71
   -13
 72
     2
 73
     4
  0
VERTEX
  5
1355A5
  8
0
 10
0.0
 20
0.0
 30
0.0
 70
   128
 71
    14
 72
    15
 73
    -9
  0
VERTEX
  5
1355A6
  8
0
 10
0.0
 20
0.0
 30
0.0
 70
   128
 71
   -14
 72
     9
 73
     8
  0
VERTEX
  5
1355A7
  8
0
 10
0.0
 20
0.0
 30
0.0
 70
   128
 71
    15
 72
    12
 73
    -6
  0
VERTEX
  5
1355A8
  8
0
 10
0.0
 20
0.0
 30
0.0
 70
   128
 71
   -15
 72
     6
 73
     9
  0
VERTEX
  5
1355A9
  8
0
 10
0.0
 20
0.0
 30
0.0
 70
   128
 71
    16
 72
    17
 73
    18
  0
VERTEX
  5
1355AA
  8
0
 10
0.0
 20
0.0
 30
0.0
 70
   128
 71
    17
 72
    14
 73
    -8
  0
VERTEX
  5
1355AB
  8
0
 10
0.0
 20
0.0
 30
0.0
 70
   128
 71
   -17
 72
     8
 73
    18
  0
VERTEX
  5
1355AC
  8
0
 10
0.0
 20
0.0
 30
0.0
 70
   128
 71
    19
 72
    20
 73
   -11
  0
VERTEX
  5
1355AD
  8
0
 10
0.0
 20
0.0
 30
0.0
 70
   128
 71
   -19
 72
    11
 73
    10
  0
VERTEX
  5
1355AE
  8
0
 10
0.0
 20
0.0
 30
0.0
 70
   128
 71
    21
 72
    11
 73
    20
  0
VERTEX
  5
1355AF
  8
0
 10
0.0
 20
0.0
 30
0.0
 70
   128
 71
    22
 72
    23
 73
   -13
  0
VERTEX
  5
1355B0
  8
0
 10
0.0
 20
0.0
 30
0.0
 70
   128
 71
   -22
 72
    13
 73
    12
  0
VERTEX
  5
1355B1
  8
0
 10
0.0
 20
0.0
 30
0.0
 70
   128
 71
    23
 72
    19
 73
   -10
  0
VERTEX
  5
1355B2
  8
0
 10
0.0
 20
0.0
 30
0.0
 70
   128
 71
   -23
 72
    10
 73
    13
  0
VERTEX
  5
1355B3
  8
0
 10
0.0
 20
0.0
 30
0.0
 70
   128
 71
    24
 72
    25
 73
   -15
  0
VERTEX
  5
1355B4
  8
0
 10
0.0
 20
0.0
 30
0.0
 70
   128
 71
   -24
 72
    15
 73
    14
  0
VERTEX
  5
1355B5
  8
0
 10
0.0
 20
0.0
 30
0.0
 70
   128
 71
    25
 72
    22
 73
   -12
  0
VERTEX
  5
1355B6
  8
0
 10
0.0
 20
0.0
 30
0.0
 70
   128
 71
   -25
 72
    12
 73
    15
  0
VERTEX
  5
1355B7
  8
0
 10
0.0
 20
0.0
 30
0.0
 70
   128
 71
    26
 72
    24
 73
   -14
  0
VERTEX
  5
1355B8
  8
0
 10
0.0
 20
0.0
 30
0.0
 70
   128
 71
   -26
 72
    14
 73
    17
  0
VERTEX
  5
1355B9
  8
0
 10
0.0
 20
0.0
 30
0.0
 70
   128
 71
    27
 72
    25
 73
    24
  0
VERTEX
  5
1355BA
  8
0
 10
0.0
 20
0.0
 30
0.0
 70
   128
 71
    28
 72
    22
 73
    25
  0
VERTEX
  5
1355BB
  8
0
 10
0.0
 20
0.0
 30
0.0
 70
   128
 71
    29
 72
    24
 73
    26
  0
VERTEX
  5
1355BC
  8
0
 10
0.0
 20
0.0
 30
0.0
 70
   128
 71
    30
 72
     4
 73
     2
  0
VERTEX
  5
1355BD
  8
0
 10
0.0
 20
0.0
 30
0.0
 70
   128
 71
    30
 72
     2
 73
     1
  0
VERTEX
  5
1355BE
  8
0
 10
0.0
 20
0.0
 30
0.0
 70
   128
 71
     1
 72
     3
 73
    31
  0
VERTEX
  5
1355BF
  8
0
 10
0.0
 20
0.0
 30
0.0
 70
   128
 71
     5
 72
     4
 73
    30
  0
VERTEX
  5
1355C0
  8
0
 10
0.0
 20
0.0
 30
0.0
 70
   128
 71
    32
 72
    18
 73
     8
  0
VERTEX
  5
1355C1
  8
0
 10
0.0
 20
0.0
 30
0.0
 70
   128
 71
    32
 72
     8
 73
     7
  0
VERTEX
  5
1355C2
  8
0
 10
0.0
 20
0.0
 30
0.0
 70
   128
 71
     7
 72
     9
 73
     6
  0
VERTEX
  5
1355C3
  8
0
 10
0.0
 20
0.0
 30
0.0
 70
   128
 71
     7
 72
     6
 73
     5
  0
VERTEX
  5
1355C4
  8
0
 10
0.0
 20
0.0
 30
0.0
 70
   128
 71
    33
 72
    18
 73
    32
  0
VERTEX
  5
1355C5
  8
0
 10
0.0
 20
0.0
 30
0.0
 70
   128
 71
    28
 72
    34
 73
    23
  0
VERTEX
  5
1355C6
  8
0
 10
0.0
 20
0.0
 30
0.0
 70
   128
 71
    28
 72
    23
 73
    22
  0
VERTEX
  5
1355C7
  8
0
 10
0.0
 20
0.0
 30
0.0
 70
   128
 71
    35
 72
    36
 73
    20
  0
VERTEX
  5
1355C8
  8
0
 10
0.0
 20
0.0
 30
0.0
 70
   128
 71
    35
 72
    20
 73
    19
  0
VERTEX
  5
1355C9
  8
0
 10
0.0
 20
0.0
 30
0.0
 70
   128
 71
    34
 72
    35
 73
    19
  0
VERTEX
  5
1355CA
  8
0
 10
0.0
 20
0.0
 30
0.0
 70
   128
 71
    34
 72
    19
 73
    23
  0
VERTEX
  5
1355CB
  8
0
 10
0.0
 20
0.0
 30
0.0
 70
   128
 71
    29
 72
    27
 73
    24
  0
VERTEX
  5
1355CC
  8
0
 10
0.0
 20
0.0
 30
0.0
 70
   128
 71
    27
 72
    28
 73
    25
  0
VERTEX
  5
1355CD
  8
0
 10
0.0
 20
0.0
 30
0.0
 70
   128
 71
    31
 72
     3
 73
    37
  0
VERTEX
  5
1355CE
  8
0
 10
0.0
 20
0.0
 30
0.0
 70
   128
 71
    16
 72
    18
 73
    33
  0
VERTEX
  5
1355CF
  8
0
 10
0.0
 20
0.0
 30
0.0
 70
   128
 71
    37
 72
     3
 73
    11
  0
VERTEX
  5
1355D0
  8
0
 10
0.0
 20
0.0
 30
0.0
 70
   128
 71
    37
 72
    11
 73
    21
  0
VERTEX
  5
1355D1
  8
0
 10
0.0
 20
0.0
 30
0.0
 70
   128
 71
    38
 72
    26
 73
    17
  0
VERTEX
  5
1355D2
  8
0
 10
0.0
 20
0.0
 30
0.0
 70
   128
 71
    38
 72
    17
 73
    16
  0
VERTEX
  5
1355D3
  8
0
 10
0.0
 20
0.0
 30
0.0
 70
   128
 71
    21
 72
    20
 73
    36
  0
VERTEX
  5
1355D4
  8
0
 10
0.0
 20
0.0
 30
0.0
 70
   128
 71
    21
 72
    36
 73
    39
  0
VERTEX
  5
1355D5
  8
0
 10
0.0
 20
0.0
 30
0.0
 70
   128
 71
    40
 72
    29
 73
    26
  0
VERTEX
  5
1355D6
  8
0
 10
0.0
 20
0.0
 30
0.0
 70
   128
 71
    40
 72
    26
 73
    38
  0
SEQEND
  5
135E0C
  8
0
  0
POLYLINE
  5
1355D7
  8
0
 66
     1
 10
0.0
 20
0.0
 30
0.0
 70
    64
 71
    14
 72
    12
  0
VERTEX
  5
1355D8
  8
0
 10
28.84356805552
 20
15.0
 30
-8.25
 70
   192
  0
VERTEX
  5
1355D9
  8
0
 10
32.0
 20
15.0
 30
-8.25
 70
   192
  0
VERTEX
  5
1355DA
  8
0
 10
32.0
 20
15.0
 30
-17.0
 70
   192
  0
VERTEX
  5
1355DB
  8
0
 10
-32.5
 20
15.0
 30
-17.00000000000165
 70
   192
  0
VERTEX
  5
1355DC
  8
0
 10
-32.5
 20
15.0
 30
17.0
 70
   192
  0
VERTEX
  5
1355DD
  8
0
 10
32.0
 20
15.0
 30
17.0
 70
   192
  0
VERTEX
  5
1355DE
  8
0
 10
32.0
 20
15.0
 30
8.25
 70
   192
  0
VERTEX
  5
1355DF
  8
0
 10
28.84356805552
 20
15.0
 30
8.25
 70
   192
  0
VERTEX
  5
1355E0
  8
0
 10
21.86069892815813
 20
15.0
 30
11.65444663310452
 70
   192
  0
VERTEX
  5
1355E1
  8
0
 10
14.2813700947168
 20
15.0
 30
9.950189445336683
 70
   192
  0
VERTEX
  5
1355E2
  8
0
 10
9.427965482121245
 20
15.0
 30
3.884286231970214
 70
   192
  0
VERTEX
  5
1355E3
  8
0
 10
9.427965482121245
 20
15.0
 30
-3.884286231970214
 70
   192
  0
VERTEX
  5
1355E4
  8
0
 10
14.2813700947168
 20
15.0
 30
-9.95018944533668
 70
   192
  0
VERTEX
  5
1355E5
  8
0
 10
21.86069892815813
 20
15.0
 30
-11.65444663310452
 70
   192
  0
VERTEX
  5
1355E6
  8
0
 10
0.0
 20
0.0
 30
0.0
 70
   128
 71
     7
 72
     8
 73
    -9
  0
VERTEX
  5
1355E7
  8
0
 10
0.0
 20
0.0
 30
0.0
 70
   128
 71
     6
 72
    -7
 73
    -9
  0
VERTEX
  5
1355E8
  8
0
 10
0.0
 20
0.0
 30
0.0
 70
   128
 71
     9
 72
   -10
 73
    -6
  0
VERTEX
  5
1355E9
  8
0
 10
0.0
 20
0.0
 30
0.0
 70
   128
 71
     5
 72
    -6
 73
   -10
  0
VERTEX
  5
1355EA
  8
0
 10
0.0
 20
0.0
 30
0.0
 70
   128
 71
    10
 72
   -11
 73
    -5
  0
VERTEX
  5
1355EB
  8
0
 10
0.0
 20
0.0
 30
0.0
 70
   128
 71
   -12
 72
     4
 73
    -5
  0
VERTEX
  5
1355EC
  8
0
 10
0.0
 20
0.0
 30
0.0
 70
   128
 71
    11
 72
   -12
 73
    -5
  0
VERTEX
  5
1355ED
  8
0
 10
0.0
 20
0.0
 30
0.0
 70
   128
 71
    12
 72
   -13
 73
    -4
  0
VERTEX
  5
1355EE
  8
0
 10
0.0
 20
0.0
 30
0.0
 70
   128
 71
   -13
 72
     3
 73
    -4
  0
VERTEX
  5
1355EF
  8
0
 10
0.0
 20
0.0
 30
0.0
 70
   128
 71
    13
 72
   -14
 73
    -3
  0
VERTEX
  5
1355F0
  8
0
 10
0.0
 20
0.0
 30
0.0
 70
   128
 71
     1
 72
     2
 73
    -3
  0
VERTEX
  5
1355F1
  8
0
 10
0.0
 20
0.0
 30
0.0
 70
   128
 71
    14
 72
    -1
 73
    -3
  0
SEQEND
  5
135E0D
  8
0
  0
POLYLINE
  5
1355F2
  8
0
 66
     1
 10
0.0
 20
0.0
 30
0.0
 70
    64
 71
     8
 72
     6
  0
VERTEX
  5
1355F3
  8
0
 10
-32.5
 20
14.93301270189222
 30
-17.25
 70
   192
  0
VERTEX
  5
1355F4
  8
0
 10
32.0
 20
14.93301270189222
 30
-17.25
 70
   192
  0
VERTEX
  5
1355F5
  8
0
 10
32.0
 20
14.75
 30
-17.43301270189222
 70
   192
  0
VERTEX
  5
1355F6
  8
0
 10
-32.5
 20
14.75
 30
-17.43301270189222
 70
   192
  0
VERTEX
  5
1355F7
  8
0
 10
-32.5
 20
15.0
 30
-17.0
 70
   192
  0
VERTEX
  5
1355F8
  8
0
 10
32.0
 20
15.0
 30
-17.0
 70
   192
  0
VERTEX
  5
1355F9
  8
0
 10
32.0
 20
14.5
 30
-17.5
 70
   192
  0
VERTEX
  5
1355FA
  8
0
 10
-32.5
 20
14.5
 30
-17.5
 70
   192
  0
VERTEX
  5
1355FB
  8
0
 10
0.0
 20
0.0
 30
0.0
 70
   128
 71
     1
 72
     2
 73
    -3
  0
VERTEX
  5
1355FC
  8
0
 10
0.0
 20
0.0
 30
0.0
 70
   128
 71
    -1
 72
     3
 73
     4
  0
VERTEX
  5
1355FD
  8
0
 10
0.0
 20
0.0
 30
0.0
 70
   128
 71
     5
 72
     6
 73
    -2
  0
VERTEX
  5
1355FE
  8
0
 10
0.0
 20
0.0
 30
0.0
 70
   128
 71
    -5
 72
     2
 73
     1
  0
VERTEX
  5
1355FF
  8
0
 10
0.0
 20
0.0
 30
0.0
 70
   128
 71
     4
 72
     3
 73
    -7
  0
VERTEX
  5
135600
  8
0
 10
0.0
 20
0.0
 30
0.0
 70
   128
 71
    -4
 72
     7
 73
     8
  0
SEQEND
  5
135E0E
  8
0
  0
POLYLINE
  5
135601
  8
0
 66
     1
 10
0.0
 20
0.0
 30
0.0
 70
    64
 71
     9
 72
     7
  0
VERTEX
  5
135602
  8
0
 10
32.43301270189222
 20
14.5
 30
-17.25
 70
   192
  0
VERTEX
  5
135603
  8
0
 10
32.25
 20
14.5
 30
-17.43301270189222
 70
   192
  0
VERTEX
  5
135604
  8
0
 10
32.0
 20
14.5
 30
-17.5
 70
   192
  0
VERTEX
  5
135605
  8
0
 10
32.43301270189222
 20
14.75
 30
-17.0
 70
   192
  0
VERTEX
  5
135606
  8
0
 10
32.25
 20
14.93301270189222
 30
-17.0
 70
   192
  0
VERTEX
  5
135607
  8
0
 10
32.5
 20
14.5
 30
-17.0
 70
   192
  0
VERTEX
  5
135608
  8
0
 10
32.0
 20
14.93301270189222
 30
-17.25
 70
   192
  0
VERTEX
  5
135609
  8
0
 10
32.0
 20
15.0
 30
-17.0
 70
   192
  0
VERTEX
  5
13560A
  8
0
 10
32.0
 20
14.75
 30
-17.43301270189222
 70
   192
  0
VERTEX
  5
13560B
  8
0
 10
0.0
 20
0.0
 30
0.0
 70
   128
 71
     1
 72
     2
 73
    -3
  0
VERTEX
  5
13560C
  8
0
 10
0.0
 20
0.0
 30
0.0
 70
   128
 71
     4
 72
     3
 73
     5
  0
VERTEX
  5
13560D
  8
0
 10
0.0
 20
0.0
 30
0.0
 70
   128
 71
     6
 72
    -1
 73
     3
  0
VERTEX
  5
13560E
  8
0
 10
0.0
 20
0.0
 30
0.0
 70
   128
 71
     6
 72
     3
 73
     4
  0
VERTEX
  5
13560F
  8
0
 10
0.0
 20
0.0
 30
0.0
 70
   128
 71
     7
 72
     8
 73
     5
  0
VERTEX
  5
135610
  8
0
 10
0.0
 20
0.0
 30
0.0
 70
   128
 71
     5
 72
     3
 73
     9
  0
VERTEX
  5
135611
  8
0
 10
0.0
 20
0.0
 30
0.0
 70
   128
 71
     5
 72
     9
 73
     7
  0
SEQEND
  5
135E0F
  8
0
  0
POLYLINE
  5
135612
  8
0
 66
     1
 10
0.0
 20
0.0
 30
0.0
 70
    64
 71
     8
 72
     6
  0
VERTEX
  5
135613
  8
0
 10
32.25
 20
0.5
 30
-17.43301270189222
 70
   192
  0
VERTEX
  5
135614
  8
0
 10
32.25
 20
14.5
 30
-17.43301270189222
 70
   192
  0
VERTEX
  5
135615
  8
0
 10
32.43301270189222
 20
14.5
 30
-17.25
 70
   192
  0
VERTEX
  5
135616
  8
0
 10
32.43301270189222
 20
0.5
 30
-17.25
 70
   192
  0
VERTEX
  5
135617
  8
0
 10
32.0
 20
0.5
 30
-17.5
 70
   192
  0
VERTEX
  5
135618
  8
0
 10
32.0
 20
14.5
 30
-17.5
 70
   192
  0
VERTEX
  5
135619
  8
0
 10
32.5
 20
14.5
 30
-17.0
 70
   192
  0
VERTEX
  5
13561A
  8
0
 10
32.5
 20
0.5
 30
-17.0
 70
   192
  0
VERTEX
  5
13561B
  8
0
 10
0.0
 20
0.0
 30
0.0
 70
   128
 71
     1
 72
     2
 73
    -3
  0
VERTEX
  5
13561C
  8
0
 10
0.0
 20
0.0
 30
0.0
 70
   128
 71
    -1
 72
     3
 73
     4
  0
VERTEX
  5
13561D
  8
0
 10
0.0
 20
0.0
 30
0.0
 70
   128
 71
     5
 72
     6
 73
    -2
  0
VERTEX
  5
13561E
  8
0
 10
0.0
 20
0.0
 30
0.0
 70
   128
 71
    -5
 72
     2
 73
     1
  0
VERTEX
  5
13561F
  8
0
 10
0.0
 20
0.0
 30
0.0
 70
   128
 71
     4
 72
     3
 73
    -7
  0
VERTEX
  5
135620
  8
0
 10
0.0
 20
0.0
 30
0.0
 70
   128
 71
    -4
 72
     7
 73
     8
  0
SEQEND
  5
135E10
  8
0
  0
POLYLINE
  5
135621
  8
0
 66
     1
 10
0.0
 20
0.0
 30
0.0
 70
    64
 71
     4
 72
     2
  0
VERTEX
  5
135622
  8
0
 10
32.0
 20
0.5
 30
-17.5
 70
   192
  0
VERTEX
  5
135623
  8
0
 10
-32.5
 20
0.5
 30
-17.5
 70
   192
  0
VERTEX
  5
135624
  8
0
 10
-32.5
 20
14.5
 30
-17.5
 70
   192
  0
VERTEX
  5
135625
  8
0
 10
32.0
 20
14.5
 30
-17.5
 70
   192
  0
VERTEX
  5
135626
  8
0
 10
0.0
 20
0.0
 30
0.0
 70
   128
 71
     3
 72
     4
 73
    -1
  0
VERTEX
  5
135627
  8
0
 10
0.0
 20
0.0
 30
0.0
 70
   128
 71
     2
 72
    -3
 73
     1
  0
SEQEND
  5
135E11
  8
0
  0
POLYLINE
  5
135628
  8
0
 66
     1
 10
0.0
 20
0.0
 30
0.0
 70
    64
 71
     8
 72
     6
  0
VERTEX
  5
135629
  8
0
 10
32.0
 20
0.0669872981077803
 30
-17.25
 70
   192
  0
VERTEX
  5
13562A
  8
0
 10
-32.5
 20
0.0669872981077803
 30
-17.25
 70
   192
  0
VERTEX
  5
13562B
  8
0
 10
-32.5
 20
0.2499999999999998
 30
-17.43301270189222
 70
   192
  0
VERTEX
  5
13562C
  8
0
 10
32.0
 20
0.2499999999999998
 30
-17.43301270189222
 70
   192
  0
VERTEX
  5
13562D
  8
0
 10
32.0
 20
-0.0000000000000004
 30
-17.0
 70
   192
  0
VERTEX
  5
13562E
  8
0
 10
-32.5
 20
0.0
 30
-17.0
 70
   192
  0
VERTEX
  5
13562F
  8
0
 10
-32.5
 20
0.5
 30
-17.5
 70
   192
  0
VERTEX
  5
135630
  8
0
 10
32.0
 20
0.5
 30
-17.5
 70
   192
  0
VERTEX
  5
135631
  8
0
 10
0.0
 20
0.0
 30
0.0
 70
   128
 71
     1
 72
     2
 73
    -3
  0
VERTEX
  5
135632
  8
0
 10
0.0
 20
0.0
 30
0.0
 70
   128
 71
    -1
 72
     3
 73
     4
  0
VERTEX
  5
135633
  8
0
 10
0.0
 20
0.0
 30
0.0
 70
   128
 71
     5
 72
     6
 73
    -2
  0
VERTEX
  5
135634
  8
0
 10
0.0
 20
0.0
 30
0.0
 70
   128
 71
    -5
 72
     2
 73
     1
  0
VERTEX
  5
135635
  8
0
 10
0.0
 20
0.0
 30
0.0
 70
   128
 71
     4
 72
     3
 73
    -7
  0
VERTEX
  5
135636
  8
0
 10
0.0
 20
0.0
 30
0.0
 70
   128
 71
    -4
 72
     7
 73
     8
  0
SEQEND
  5
135E12
  8
0
  0
POLYLINE
  5
135637
  8
0
 66
     1
 10
0.0
 20
0.0
 30
0.0
 70
    64
 71
     9
 72
     7
  0
VERTEX
  5
135638
  8
0
 10
32.0
 20
0.0669872981077803
 30
-17.25
 70
   192
  0
VERTEX
  5
135639
  8
0
 10
32.0
 20
0.2499999999999998
 30
-17.43301270189222
 70
   192
  0
VERTEX
  5
13563A
  8
0
 10
32.0
 20
0.5
 30
-17.5
 70
   192
  0
VERTEX
  5
13563B
  8
0
 10
32.25
 20
0.0669872981077806
 30
-17.0
 70
   192
  0
VERTEX
  5
13563C
  8
0
 10
32.43301270189222
 20
0.2499999999999999
 30
-17.0
 70
   192
  0
VERTEX
  5
13563D
  8
0
 10
32.0
 20
0.0
 30
-17.0
 70
   192
  0
VERTEX
  5
13563E
  8
0
 10
32.43301270189222
 20
0.5
 30
-17.25
 70
   192
  0
VERTEX
  5
13563F
  8
0
 10
32.5
 20
0.5
 30
-17.0
 70
   192
  0
VERTEX
  5
135640
  8
0
 10
32.25
 20
0.5
 30
-17.43301270189222
 70
   192
  0
VERTEX
  5
135641
  8
0
 10
0.0
 20
0.0
 30
0.0
 70
   128
 71
     1
 72
     2
 73
    -3
  0
VERTEX
  5
135642
  8
0
 10
0.0
 20
0.0
 30
0.0
 70
   128
 71
     4
 72
     3
 73
     5
  0
VERTEX
  5
135643
  8
0
 10
0.0
 20
0.0
 30
0.0
 70
   128
 71
     6
 72
    -1
 73
     3
  0
VERTEX
  5
135644
  8
0
 10
0.0
 20
0.0
 30
0.0
 70
   128
 71
     6
 72
     3
 73
     4
  0
VERTEX
  5
135645
  8
0
 10
0.0
 20
0.0
 30
0.0
 70
   128
 71
     7
 72
     8
 73
     5
  0
VERTEX
  5
135646
  8
0
 10
0.0
 20
0.0
 30
0.0
 70
   128
 71
     5
 72
     3
 73
     9
  0
VERTEX
  5
135647
  8
0
 10
0.0
 20
0.0
 30
0.0
 70
   128
 71
     5
 72
     9
 73
     7
  0
SEQEND
  5
135E13
  8
0
  0
POLYLINE
  5
135648
  8
0
 66
     1
 10
0.0
 20
0.0
 30
0.0
 70
    64
 71
     8
 72
     6
  0
VERTEX
  5
135649
  8
0
 10
32.25
 20
0.0669872981077806
 30
-8.25
 70
   192
  0
VERTEX
  5
13564A
  8
0
 10
32.25
 20
0.0669872981077806
 30
-17.0
 70
   192
  0
VERTEX
  5
13564B
  8
0
 10
32.43301270189222
 20
0.2499999999999999
 30
-17.0
 70
   192
  0
VERTEX
  5
13564C
  8
0
 10
32.43301270189222
 20
0.2499999999999999
 30
-8.25
 70
   192
  0
VERTEX
  5
13564D
  8
0
 10
32.0
 20
0.0
 30
-8.25
 70
   192
  0
VERTEX
  5
13564E
  8
0
 10
32.0
 20
0.0
 30
-17.0
 70
   192
  0
VERTEX
  5
13564F
  8
0
 10
32.5
 20
0.4999999999999999
 30
-17.0
 70
   192
  0
VERTEX
  5
135650
  8
0
 10
32.5
 20
0.5
 30
-8.25
 70
   192
  0
VERTEX
  5
135651
  8
0
 10
0.0
 20
0.0
 30
0.0
 70
   128
 71
     1
 72
     2
 73
    -3
  0
VERTEX
  5
135652
  8
0
 10
0.0
 20
0.0
 30
0.0
 70
   128
 71
    -1
 72
     3
 73
     4
  0
VERTEX
  5
135653
  8
0
 10
0.0
 20
0.0
 30
0.0
 70
   128
 71
     5
 72
     6
 73
    -2
  0
VERTEX
  5
135654
  8
0
 10
0.0
 20
0.0
 30
0.0
 70
   128
 71
    -5
 72
     2
 73
     1
  0
VERTEX
  5
135655
  8
0
 10
0.0
 20
0.0
 30
0.0
 70
   128
 71
     4
 72
     3
 73
    -7
  0
VERTEX
  5
135656
  8
0
 10
0.0
 20
0.0
 30
0.0
 70
   128
 71
    -4
 72
     7
 73
     8
  0
SEQEND
  5
135E14
  8
0
  0
POLYLINE
  5
135657
  8
0
 66
     1
 10
0.0
 20
0.0
 30
0.0
 70
    64
 71
    15
 72
    13
  0
VERTEX
  5
135658
  8
0
 10
28.12481164614
 20
14.51665741512
 30
-8.25
 70
   192
  0
VERTEX
  5
135659
  8
0
 10
28.22109561912467
 20
14.74798306510698
 30
-8.25
 70
   192
  0
VERTEX
  5
13565A
  8
0
 10
28.47360439851067
 20
14.9270947113746
 30
-8.250000000000002
 70
   192
  0
VERTEX
  5
13565B
  8
0
 10
28.84356805552
 20
15.0
 30
-8.25
 70
   192
  0
VERTEX
  5
13565C
  8
0
 10
32.0
 20
15.0
 30
-8.25
 70
   192
  0
VERTEX
  5
13565D
  8
0
 10
32.25
 20
14.93301270189222
 30
-8.25
 70
   192
  0
VERTEX
  5
13565E
  8
0
 10
32.43301270189222
 20
14.75
 30
-8.25
 70
   192
  0
VERTEX
  5
13565F
  8
0
 10
32.5
 20
14.5
 30
-8.25
 70
   192
  0
VERTEX
  5
135660
  8
0
 10
32.5
 20
0.4999999999999999
 30
-8.25
 70
   192
  0
VERTEX
  5
135661
  8
0
 10
32.43301270189222
 20
0.2499999999999999
 30
-8.25
 70
   192
  0
VERTEX
  5
135662
  8
0
 10
32.25
 20
0.0669872981077806
 30
-8.25
 70
   192
  0
VERTEX
  5
135663
  8
0
 10
32.0
 20
0.0
 30
-8.25
 70
   192
  0
VERTEX
  5
135664
  8
0
 10
27.39202437605
 20
0.0
 30
-8.25
 70
   192
  0
VERTEX
  5
135665
  8
0
 10
27.63650276494
 20
4.750598994954459
 30
-8.25
 70
   192
  0
VERTEX
  5
135666
  8
0
 10
27.880684911465
 20
9.589308448955794
 30
-8.25
 70
   192
  0
VERTEX
  5
135667
  8
0
 10
0.0
 20
0.0
 30
0.0
 70
   128
 71
    14
 72
    13
 73
   -12
  0
VERTEX
  5
135668
  8
0
 10
0.0
 20
0.0
 30
0.0
 70
   128
 71
   -14
 72
    12
 73
   -11
  0
VERTEX
  5
135669
  8
0
 10
0.0
 20
0.0
 30
0.0
 70
   128
 71
   -14
 72
    11
 73
   -10
  0
VERTEX
  5
13566A
  8
0
 10
0.0
 20
0.0
 30
0.0
 70
   128
 71
   -14
 72
    10
 73
    -9
  0
VERTEX
  5
13566B
  8
0
 10
0.0
 20
0.0
 30
0.0
 70
   128
 71
     9
 72
    -8
 73
   -15
  0
VERTEX
  5
13566C
  8
0
 10
0.0
 20
0.0
 30
0.0
 70
   128
 71
    -9
 72
    15
 73
   -14
  0
VERTEX
  5
13566D
  8
0
 10
0.0
 20
0.0
 30
0.0
 70
   128
 71
     8
 72
     7
 73
    -6
  0
VERTEX
  5
13566E
  8
0
 10
0.0
 20
0.0
 30
0.0
 70
   128
 71
    -8
 72
     6
 73
    -5
  0
VERTEX
  5
13566F
  8
0
 10
0.0
 20
0.0
 30
0.0
 70
   128
 71
    -8
 72
     5
 73
    -4
  0
VERTEX
  5
135670
  8
0
 10
0.0
 20
0.0
 30
0.0
 70
   128
 71
    -8
 72
     4
 73
    -3
  0
VERTEX
  5
135671
  8
0
 10
0.0
 20
0.0
 30
0.0
 70
   128
 71
    -8
 72
     3
 73
    -2
  0
VERTEX
  5
135672
  8
0
 10
0.0
 20
0.0
 30
0.0
 70
   128
 71
    -8
 72
     2
 73
    -1
  0
VERTEX
  5
135673
  8
0
 10
0.0
 20
0.0
 30
0.0
 70
   128
 71
    -8
 72
     1
 73
   -15
  0
SEQEND
  5
135E15
  8
0
  0
POLYLINE
  5
135674
  8
0
 66
     1
 10
0.0
 20
0.0
 30
0.0
 70
    64
 71
     8
 72
     6
  0
VERTEX
  5
135675
  8
0
 10
32.25
 20
14.93301270189222
 30
-17.0
 70
   192
  0
VERTEX
  5
135676
  8
0
 10
32.25
 20
14.93301270189222
 30
-8.25
 70
   192
  0
VERTEX
  5
135677
  8
0
 10
32.43301270189222
 20
14.75
 30
-8.25
 70
   192
  0
VERTEX
  5
135678
  8
0
 10
32.43301270189222
 20
14.75
 30
-17.0
 70
   192
  0
VERTEX
  5
135679
  8
0
 10
32.0
 20
15.0
 30
-17.0
 70
   192
  0
VERTEX
  5
13567A
  8
0
 10
32.0
 20
15.0
 30
-8.25
 70
   192
  0
VERTEX
  5
13567B
  8
0
 10
32.5
 20
14.5
 30
-8.25
 70
   192
  0
VERTEX
  5
13567C
  8
0
 10
32.5
 20
14.5
 30
-17.0
 70
   192
  0
VERTEX
  5
13567D
  8
0
 10
0.0
 20
0.0
 30
0.0
 70
   128
 71
     1
 72
     2
 73
    -3
  0
VERTEX
  5
13567E
  8
0
 10
0.0
 20
0.0
 30
0.0
 70
   128
 71
    -1
 72
     3
 73
     4
  0
VERTEX
  5
13567F
  8
0
 10
0.0
 20
0.0
 30
0.0
 70
   128
 71
     5
 72
     6
 73
    -2
  0
VERTEX
  5
135680
  8
0
 10
0.0
 20
0.0
 30
0.0
 70
   128
 71
    -5
 72
     2
 73
     1
  0
VERTEX
  5
135681
  8
0
 10
0.0
 20
0.0
 30
0.0
 70
   128
 71
     4
 72
     3
 73
    -7
  0
VERTEX
  5
135682
  8
0
 10
0.0
 20
0.0
 30
0.0
 70
   128
 71
    -4
 72
     7
 73
     8
  0
SEQEND
  5
135E16
  8
0
  0
POLYLINE
  5
135683
  8
0
 66
     1
 10
0.0
 20
0.0
 30
0.0
 70
    64
 71
     4
 72
     2
  0
VERTEX
  5
135684
  8
0
 10
32.5
 20
14.5
 30
17.0
 70
   192
  0
VERTEX
  5
135685
  8
0
 10
32.5
 20
0.5
 30
17.0
 70
   192
  0
VERTEX
  5
135686
  8
0
 10
32.5
 20
0.5
 30
8.25
 70
   192
  0
VERTEX
  5
135687
  8
0
 10
32.5
 20
14.5
 30
8.25
 70
   192
  0
VERTEX
  5
135688
  8
0
 10
0.0
 20
0.0
 30
0.0
 70
   128
 71
     3
 72
     4
 73
    -1
  0
VERTEX
  5
135689
  8
0
 10
0.0
 20
0.0
 30
0.0
 70
   128
 71
     2
 72
    -3
 73
     1
  0
SEQEND
  5
135E17
  8
0
  0
POLYLINE
  5
13568A
  8
0
 66
     1
 10
0.0
 20
0.0
 30
0.0
 70
    64
 71
     4
 72
     2
  0
VERTEX
  5
13568B
  8
0
 10
32.5
 20
0.5
 30
-17.0
 70
   192
  0
VERTEX
  5
13568C
  8
0
 10
32.5
 20
14.5
 30
-17.0
 70
   192
  0
VERTEX
  5
13568D
  8
0
 10
32.5
 20
14.5
 30
-8.25
 70
   192
  0
VERTEX
  5
13568E
  8
0
 10
32.5
 20
0.5
 30
-8.25
 70
   192
  0
VERTEX
  5
13568F
  8
0
 10
0.0
 20
0.0
 30
0.0
 70
   128
 71
     3
 72
     4
 73
    -1
  0
VERTEX
  5
135690
  8
0
 10
0.0
 20
0.0
 30
0.0
 70
   128
 71
     2
 72
    -3
 73
     1
  0
SEQEND
  5
135E18
  8
0
  0
POLYLINE
  5
135691
  8
0
 66
     1
 10
0.0
 20
0.0
 30
0.0
 70
    64
 71
     8
 72
     6
  0
VERTEX
  5
135692
  8
0
 10
32.25
 20
0.0669872981077806
 30
17.0
 70
   192
  0
VERTEX
  5
135693
  8
0
 10
32.25
 20
0.0669872981077803
 30
8.25
 70
   192
  0
VERTEX
  5
135694
  8
0
 10
32.43301270189222
 20
0.2499999999999998
 30
8.25
 70
   192
  0
VERTEX
  5
135695
  8
0
 10
32.43301270189222
 20
0.2499999999999999
 30
17.0
 70
   192
  0
VERTEX
  5
135696
  8
0
 10
32.0
 20
0.0
 30
17.0
 70
   192
  0
VERTEX
  5
135697
  8
0
 10
32.0
 20
0.0
 30
8.25
 70
   192
  0
VERTEX
  5
135698
  8
0
 10
32.5
 20
0.5
 30
8.25
 70
   192
  0
VERTEX
  5
135699
  8
0
 10
32.5
 20
0.5
 30
17.0
 70
   192
  0
VERTEX
  5
13569A
  8
0
 10
0.0
 20
0.0
 30
0.0
 70
   128
 71
     1
 72
     2
 73
    -3
  0
VERTEX
  5
13569B
  8
0
 10
0.0
 20
0.0
 30
0.0
 70
   128
 71
    -1
 72
     3
 73
     4
  0
VERTEX
  5
13569C
  8
0
 10
0.0
 20
0.0
 30
0.0
 70
   128
 71
     5
 72
     6
 73
    -2
  0
VERTEX
  5
13569D
  8
0
 10
0.0
 20
0.0
 30
0.0
 70
   128
 71
    -5
 72
     2
 73
     1
  0
VERTEX
  5
13569E
  8
0
 10
0.0
 20
0.0
 30
0.0
 70
   128
 71
     4
 72
     3
 73
    -7
  0
VERTEX
  5
13569F
  8
0
 10
0.0
 20
0.0
 30
0.0
 70
   128
 71
    -4
 72
     7
 73
     8
  0
SEQEND
  5
135E19
  8
0
  0
POLYLINE
  5
1356A0
  8
0
 66
     1
 10
0.0
 20
0.0
 30
0.0
 70
    64
 71
     9
 72
     7
  0
VERTEX
  5
1356A1
  8
0
 10
32.43301270189222
 20
0.5
 30
17.25
 70
   192
  0
VERTEX
  5
1356A2
  8
0
 10
32.25
 20
0.5
 30
17.43301270189222
 70
   192
  0
VERTEX
  5
1356A3
  8
0
 10
32.0
 20
0.5000000000000998
 30
17.5
 70
   192
  0
VERTEX
  5
1356A4
  8
0
 10
32.25
 20
0.0669872981077806
 30
17.0
 70
   192
  0
VERTEX
  5
1356A5
  8
0
 10
32.43301270189222
 20
0.2499999999999999
 30
17.0
 70
   192
  0
VERTEX
  5
1356A6
  8
0
 10
32.0
 20
0.0669872981077973
 30
17.25000000000003
 70
   192
  0
VERTEX
  5
1356A7
  8
0
 10
32.0
 20
0.0
 30
17.0
 70
   192
  0
VERTEX
  5
1356A8
  8
0
 10
32.0
 20
0.2500000000000576
 30
17.43301270189225
 70
   192
  0
VERTEX
  5
1356A9
  8
0
 10
32.5
 20
0.4999999999999999
 30
17.0
 70
   192
  0
VERTEX
  5
1356AA
  8
0
 10
0.0
 20
0.0
 30
0.0
 70
   128
 71
     1
 72
     2
 73
     3
  0
VERTEX
  5
1356AB
  8
0
 10
0.0
 20
0.0
 30
0.0
 70
   128
 71
     4
 72
     5
 73
     3
  0
VERTEX
  5
1356AC
  8
0
 10
0.0
 20
0.0
 30
0.0
 70
   128
 71
     6
 72
     7
 73
     4
  0
VERTEX
  5
1356AD
  8
0
 10
0.0
 20
0.0
 30
0.0
 70
   128
 71
     4
 72
     3
 73
     8
  0
VERTEX
  5
1356AE
  8
0
 10
0.0
 20
0.0
 30
0.0
 70
   128
 71
     4
 72
     8
 73
     6
  0
VERTEX
  5
1356AF
  8
0
 10
0.0
 20
0.0
 30
0.0
 70
   128
 71
     5
 72
     9
 73
     1
  0
VERTEX
  5
1356B0
  8
0
 10
0.0
 20
0.0
 30
0.0
 70
   128
 71
     5
 72
     1
 73
     3
  0
SEQEND
  5
135E1A
  8
0
  0
POLYLINE
  5
1356B1
  8
0
 66
     1
 10
0.0
 20
0.0
 30
0.0
 70
    64
 71
     8
 72
     6
  0
VERTEX
  5
1356B2
  8
0
 10
-32.5
 20
0.0669872981077806
 30
17.25
 70
   192
  0
VERTEX
  5
1356B3
  8
0
 10
32.0
 20
0.0669872981077973
 30
17.25000000000003
 70
   192
  0
VERTEX
  5
1356B4
  8
0
 10
32.0
 20
0.2500000000000576
 30
17.43301270189225
 70
   192
  0
VERTEX
  5
1356B5
  8
0
 10
-32.5
 20
0.2499999999999999
 30
17.43301270189222
 70
   192
  0
VERTEX
  5
1356B6
  8
0
 10
-32.5
 20
0.0
 30
17.0
 70
   192
  0
VERTEX
  5
1356B7
  8
0
 10
32.0
 20
0.0
 30
17.0
 70
   192
  0
VERTEX
  5
1356B8
  8
0
 10
32.0
 20
0.5000000000000998
 30
17.5
 70
   192
  0
VERTEX
  5
1356B9
  8
0
 10
-32.5
 20
0.5000000000000999
 30
17.5
 70
   192
  0
VERTEX
  5
1356BA
  8
0
 10
0.0
 20
0.0
 30
0.0
 70
   128
 71
     1
 72
     2
 73
    -3
  0
VERTEX
  5
1356BB
  8
0
 10
0.0
 20
0.0
 30
0.0
 70
   128
 71
    -1
 72
     3
 73
     4
  0
VERTEX
  5
1356BC
  8
0
 10
0.0
 20
0.0
 30
0.0
 70
   128
 71
     5
 72
     6
 73
    -2
  0
VERTEX
  5
1356BD
  8
0
 10
0.0
 20
0.0
 30
0.0
 70
   128
 71
    -5
 72
     2
 73
     1
  0
VERTEX
  5
1356BE
  8
0
 10
0.0
 20
0.0
 30
0.0
 70
   128
 71
     4
 72
     3
 73
    -7
  0
VERTEX
  5
1356BF
  8
0
 10
0.0
 20
0.0
 30
0.0
 70
   128
 71
    -4
 72
     7
 73
     8
  0
SEQEND
  5
135E1B
  8
0
  0
POLYLINE
  5
1356C0
  8
0
 66
     1
 10
0.0
 20
0.0
 30
0.0
 70
    64
 71
     4
 72
     2
  0
VERTEX
  5
1356C1
  8
0
 10
32.0
 20
14.5
 30
17.5
 70
   192
  0
VERTEX
  5
1356C2
  8
0
 10
-32.5
 20
14.5
 30
17.5
 70
   192
  0
VERTEX
  5
1356C3
  8
0
 10
-32.5
 20
0.5
 30
17.5
 70
   192
  0
VERTEX
  5
1356C4
  8
0
 10
32.0
 20
0.5000000000000999
 30
17.5
 70
   192
  0
VERTEX
  5
1356C5
  8
0
 10
0.0
 20
0.0
 30
0.0
 70
   128
 71
     3
 72
     4
 73
    -1
  0
VERTEX
  5
1356C6
  8
0
 10
0.0
 20
0.0
 30
0.0
 70
   128
 71
     2
 72
    -3
 73
     1
  0
SEQEND
  5
135E1C
  8
0
  0
POLYLINE
  5
1356C7
  8
0
 66
     1
 10
0.0
 20
0.0
 30
0.0
 70
    64
 71
     8
 72
     6
  0
VERTEX
  5
1356C8
  8
0
 10
32.25
 20
14.5
 30
17.43301270189222
 70
   192
  0
VERTEX
  5
1356C9
  8
0
 10
32.25
 20
0.5
 30
17.43301270189222
 70
   192
  0
VERTEX
  5
1356CA
  8
0
 10
32.43301270189222
 20
0.5
 30
17.25
 70
   192
  0
VERTEX
  5
1356CB
  8
0
 10
32.43301270189222
 20
14.5
 30
17.25
 70
   192
  0
VERTEX
  5
1356CC
  8
0
 10
32.0
 20
14.5
 30
17.5
 70
   192
  0
VERTEX
  5
1356CD
  8
0
 10
32.0
 20
0.5000000000000999
 30
17.5
 70
   192
  0
VERTEX
  5
1356CE
  8
0
 10
32.5
 20
0.5
 30
17.0
 70
   192
  0
VERTEX
  5
1356CF
  8
0
 10
32.5
 20
14.5
 30
17.0
 70
   192
  0
VERTEX
  5
1356D0
  8
0
 10
0.0
 20
0.0
 30
0.0
 70
   128
 71
     1
 72
     2
 73
    -3
  0
VERTEX
  5
1356D1
  8
0
 10
0.0
 20
0.0
 30
0.0
 70
   128
 71
    -1
 72
     3
 73
     4
  0
VERTEX
  5
1356D2
  8
0
 10
0.0
 20
0.0
 30
0.0
 70
   128
 71
     5
 72
     6
 73
    -2
  0
VERTEX
  5
1356D3
  8
0
 10
0.0
 20
0.0
 30
0.0
 70
   128
 71
    -5
 72
     2
 73
     1
  0
VERTEX
  5
1356D4
  8
0
 10
0.0
 20
0.0
 30
0.0
 70
   128
 71
     4
 72
     3
 73
    -7
  0
VERTEX
  5
1356D5
  8
0
 10
0.0
 20
0.0
 30
0.0
 70
   128
 71
    -4
 72
     7
 73
     8
  0
SEQEND
  5
135E1D
  8
0
  0
POLYLINE
  5
1356D6
  8
0
 66
     1
 10
0.0
 20
0.0
 30
0.0
 70
    64
 71
    18
 72
    16
  0
VERTEX
  5
1356D7
  8
0
 10
19.85936959767589
 20
0.0
 30
-10.73089430977764
 70
   192
  0
VERTEX
  5
1356D8
  8
0
 10
27.39202437604799
 20
0.0
 30
-8.249999999997597
 70
   192
  0
VERTEX
  5
1356D9
  8
0
 10
27.63650276494
 20
4.750598994954459
 30
-8.25
 70
   192
  0
VERTEX
  5
1356DA
  8
0
 10
27.880684911465
 20
9.589308448955794
 30
-8.25
 70
   192
  0
VERTEX
  5
1356DB
  8
0
 10
20.20524109728801
 20
14.51665741512
 30
-11.23002091842933
 70
   192
  0
VERTEX
  5
1356DC
  8
0
 10
28.12481164614
 20
14.51665741512
 30
-8.25
 70
   192
  0
VERTEX
  5
1356DD
  8
0
 10
9.266111419499998
 20
14.51665741512
 30
0.0000000000000018
 70
   192
  0
VERTEX
  5
1356DE
  8
0
 10
9.749999999999996
 20
0.0
 30
0.0000000000000053
 70
   192
  0
VERTEX
  5
1356DF
  8
0
 10
12.67538253890376
 20
0.0
 30
-7.371421951530648
 70
   192
  0
VERTEX
  5
1356E0
  8
0
 10
12.45290296721031
 20
14.51665741512
 30
-7.838653072049794
 70
   192
  0
VERTEX
  5
1356E1
  8
0
 10
12.45290296721031
 20
14.51665741512
 30
7.838653072049796
 70
   192
  0
VERTEX
  5
1356E2
  8
0
 10
12.67538253890377
 20
0.0
 30
7.371421951530656
 70
   192
  0
VERTEX
  5
1356E3
  8
0
 10
20.20524109728801
 20
14.51665741512
 30
11.23002091842933
 70
   192
  0
VERTEX
  5
1356E4
  8
0
 10
28.12481164614
 20
14.51665741512
 30
8.25
 70
   192
  0
VERTEX
  5
1356E5
  8
0
 10
27.88065184344666
 20
9.588647006652794
 30
8.25
 70
   192
  0
VERTEX
  5
1356E6
  8
0
 10
27.63646938203834
 20
4.749943799340707
 30
8.25
 70
   192
  0
VERTEX
  5
1356E7
  8
0
 10
27.39202437605
 20
0.0
 30
8.25
 70
   192
  0
VERTEX
  5
1356E8
  8
0
 10
19.8593695976759
 20
0.0
 30
10.73089430977764
 70
   192
  0
VERTEX
  5
1356E9
  8
0
 10
0.0
 20
0.0
 30
0.0
 70
   128
 71
     1
 72
     2
 73
     3
  0
VERTEX
  5
1356EA
  8
0
 10
0.0
 20
0.0
 30
0.0
 70
   128
 71
     4
 72
     5
 73
     1
  0
VERTEX
  5
1356EB
  8
0
 10
0.0
 20
0.0
 30
0.0
 70
   128
 71
     3
 72
     4
 73
     1
  0
VERTEX
  5
1356EC
  8
0
 10
0.0
 20
0.0
 30
0.0
 70
   128
 71
     4
 72
     6
 73
     5
  0
VERTEX
  5
1356ED
  8
0
 10
0.0
 20
0.0
 30
0.0
 70
   128
 71
     7
 72
     8
 73
     9
  0
VERTEX
  5
1356EE
  8
0
 10
0.0
 20
0.0
 30
0.0
 70
   128
 71
    10
 72
     7
 73
     9
  0
VERTEX
  5
1356EF
  8
0
 10
0.0
 20
0.0
 30
0.0
 70
   128
 71
     8
 72
     7
 73
    11
  0
VERTEX
  5
1356F0
  8
0
 10
0.0
 20
0.0
 30
0.0
 70
   128
 71
    12
 72
     8
 73
    11
  0
VERTEX
  5
1356F1
  8
0
 10
0.0
 20
0.0
 30
0.0
 70
   128
 71
    13
 72
    14
 73
    15
  0
VERTEX
  5
1356F2
  8
0
 10
0.0
 20
0.0
 30
0.0
 70
   128
 71
    16
 72
    17
 73
    18
  0
VERTEX
  5
1356F3
  8
0
 10
0.0
 20
0.0
 30
0.0
 70
   128
 71
     9
 72
     1
 73
     5
  0
VERTEX
  5
1356F4
  8
0
 10
0.0
 20
0.0
 30
0.0
 70
   128
 71
    10
 72
     9
 73
     5
  0
VERTEX
  5
1356F5
  8
0
 10
0.0
 20
0.0
 30
0.0
 70
   128
 71
    15
 72
    16
 73
    11
  0
VERTEX
  5
1356F6
  8
0
 10
0.0
 20
0.0
 30
0.0
 70
   128
 71
    13
 72
    15
 73
    11
  0
VERTEX
  5
1356F7
  8
0
 10
0.0
 20
0.0
 30
0.0
 70
   128
 71
    18
 72
    12
 73
    11
  0
VERTEX
  5
1356F8
  8
0
 10
0.0
 20
0.0
 30
0.0
 70
   128
 71
    16
 72
    18
 73
    11
  0
SEQEND
  5
135E1E
  8
0
  0
POLYLINE
  5
1356F9
  8
0
 66
     1
 10
0.0
 20
0.0
 30
0.0
 70
    64
 71
    19
 72
    17
  0
VERTEX
  5
1356FA
  8
0
 10
-14.91880316422853
 20
6.574232877225933
 30
-3.271844795799382
 70
   192
  0
VERTEX
  5
1356FB
  8
0
 10
-18.2
 20
7.5
 30
-3.4
 70
   192
  0
VERTEX
  5
1356FC
  8
0
 10
-18.2
 20
5.095836943965738
 30
-2.404163056034262
 70
   192
  0
VERTEX
  5
1356FD
  8
0
 10
-15.04747153032562
 20
5.719088649325705
 30
-2.897144830296544
 70
   192
  0
VERTEX
  5
1356FE
  8
0
 10
-14.87073841346
 20
7.5
 30
-3.4
 70
   192
  0
VERTEX
  5
1356FF
  8
0
 10
-16.44892338951722
 20
5.000000000000001
 30
-2.304343724360584
 70
   192
  0
VERTEX
  5
135700
  8
0
 10
-18.2
 20
4.1
 30
0.0
 70
   192
  0
VERTEX
  5
135701
  8
0
 10
-16.66727696794906
 20
4.204411866328642
 30
-0.8358747626508349
 70
   192
  0
VERTEX
  5
135702
  8
0
 10
-15.21622823279477
 20
5.000000000000001
 30
-2.304343724360584
 70
   192
  0
VERTEX
  5
135703
  8
0
 10
-15.21622823279477
 20
5.000000047725076
 30
-2.3044609231163
 70
   192
  0
VERTEX
  5
135704
  8
0
 10
-15.21620612986145
 20
5.000000100318625
 30
2.304409666817546
 70
   192
  0
VERTEX
  5
135705
  8
0
 10
-15.21620612986145
 20
5.000000000000001
 30
2.304343724360584
 70
   192
  0
VERTEX
  5
135706
  8
0
 10
-16.44892338951722
 20
5.000000000000001
 30
2.304343724360584
 70
   192
  0
VERTEX
  5
135707
  8
0
 10
-16.66689588192056
 20
4.205637867203346
 30
0.8410427612995324
 70
   192
  0
VERTEX
  5
135708
  8
0
 10
-18.2
 20
5.095836943965738
 30
2.404163056034262
 70
   192
  0
VERTEX
  5
135709
  8
0
 10
-18.2
 20
7.5
 30
3.400000000000001
 70
   192
  0
VERTEX
  5
13570A
  8
0
 10
-14.87073841346
 20
7.5
 30
3.4
 70
   192
  0
VERTEX
  5
13570B
  8
0
 10
-14.91875688022663
 20
6.57460624638099
 30
3.271970954549532
 70
   192
  0
VERTEX
  5
13570C
  8
0
 10
-15.04740516547173
 20
5.71942202442738
 30
2.897351960763319
 70
   192
  0
VERTEX
  5
13570D
  8
0
 10
0.0
 20
0.0
 30
0.0
 70
   128
 71
     1
 72
     2
 73
     3
  0
VERTEX
  5
13570E
  8
0
 10
0.0
 20
0.0
 30
0.0
 70
   128
 71
     4
 72
     1
 73
     3
  0
VERTEX
  5
13570F
  8
0
 10
0.0
 20
0.0
 30
0.0
 70
   128
 71
     1
 72
     5
 73
     2
  0
VERTEX
  5
135710
  8
0
 10
0.0
 20
0.0
 30
0.0
 70
   128
 71
     6
 72
     3
 73
     7
  0
VERTEX
  5
135711
  8
0
 10
0.0
 20
0.0
 30
0.0
 70
   128
 71
     8
 72
     6
 73
     7
  0
VERTEX
  5
135712
  8
0
 10
0.0
 20
0.0
 30
0.0
 70
   128
 71
     6
 72
     9
 73
    10
  0
VERTEX
  5
135713
  8
0
 10
0.0
 20
0.0
 30
0.0
 70
   128
 71
    11
 72
    12
 73
    13
  0
VERTEX
  5
135714
  8
0
 10
0.0
 20
0.0
 30
0.0
 70
   128
 71
    14
 72
     7
 73
    15
  0
VERTEX
  5
135715
  8
0
 10
0.0
 20
0.0
 30
0.0
 70
   128
 71
    13
 72
    14
 73
    15
  0
VERTEX
  5
135716
  8
0
 10
0.0
 20
0.0
 30
0.0
 70
   128
 71
    16
 72
    17
 73
    18
  0
VERTEX
  5
135717
  8
0
 10
0.0
 20
0.0
 30
0.0
 70
   128
 71
    19
 72
    15
 73
    16
  0
VERTEX
  5
135718
  8
0
 10
0.0
 20
0.0
 30
0.0
 70
   128
 71
    18
 72
    19
 73
    16
  0
VERTEX
  5
135719
  8
0
 10
0.0
 20
0.0
 30
0.0
 70
   128
 71
     4
 72
     3
 73
     6
  0
VERTEX
  5
13571A
  8
0
 10
0.0
 20
0.0
 30
0.0
 70
   128
 71
     6
 72
    10
 73
     4
  0
VERTEX
  5
13571B
  8
0
 10
0.0
 20
0.0
 30
0.0
 70
   128
 71
     7
 72
    14
 73
     8
  0
VERTEX
  5
13571C
  8
0
 10
0.0
 20
0.0
 30
0.0
 70
   128
 71
    19
 72
    11
 73
    13
  0
VERTEX
  5
13571D
  8
0
 10
0.0
 20
0.0
 30
0.0
 70
   128
 71
    13
 72
    15
 73
    19
  0
SEQEND
  5
135E1F
  8
0
  0
POLYLINE
  5
13571E
  8
0
 66
     1
 10
0.0
 20
0.0
 30
0.0
 70
    64
 71
    17
 72
    15
  0
VERTEX
  5
13571F
  8
0
 10
3.5
 20
5.000000000000001
 30
-0.0000000024403923
 70
   192
  0
VERTEX
  5
135720
  8
0
 10
3.5
 20
11.2
 30
0.0
 70
   192
  0
VERTEX
  5
135721
  8
0
 10
0.7175144212722033
 20
11.2
 30
-6.717514421272203
 70
   192
  0
VERTEX
  5
135722
  8
0
 10
1.116139636583807
 20
5.000000000000001
 30
-6.293691815829631
 70
   192
  0
VERTEX
  5
135723
  8
0
 10
-15.5
 20
11.2
 30
0.0
 70
   192
  0
VERTEX
  5
135724
  8
0
 10
-15.5
 20
10.9
 30
-0.000000000000004
 70
   192
  0
VERTEX
  5
135725
  8
0
 10
-15.34562607569379
 20
10.44205941305026
 30
-1.705801995772899
 70
   192
  0
VERTEX
  5
135726
  8
0
 10
-12.7175144212722
 20
11.2
 30
-6.717514421272202
 70
   192
  0
VERTEX
  5
135727
  8
0
 10
-15.03203076899265
 20
9.200581792352276
 30
-2.944898939235717
 70
   192
  0
VERTEX
  5
135728
  8
0
 10
-14.87073841346
 20
7.5
 30
-3.4
 70
   192
  0
VERTEX
  5
135729
  8
0
 10
-15.04747153032562
 20
5.719088649325705
 30
-2.897144830296544
 70
   192
  0
VERTEX
  5
13572A
  8
0
 10
-15.21622823279477
 20
5.000000047725076
 30
-2.3044609231163
 70
   192
  0
VERTEX
  5
13572B
  8
0
 10
-15.2162587161885
 20
5.000000000000001
 30
-2.304468545300545
 70
   192
  0
VERTEX
  5
13572C
  8
0
 10
-11.37690201547348
 20
5.000000000000001
 30
-7.831917052420645
 70
   192
  0
VERTEX
  5
13572D
  8
0
 10
-4.839064560239136
 20
5.000000000000001
 30
-9.428797850453009
 70
   192
  0
VERTEX
  5
13572E
  8
0
 10
-6.0
 20
11.2
 30
-9.500000000000002
 70
   192
  0
VERTEX
  5
13572F
  8
0
 10
-14.91880316422853
 20
6.574232877225933
 30
-3.271844795799382
 70
   192
  0
VERTEX
  5
135730
  8
0
 10
0.0
 20
0.0
 30
0.0
 70
   128
 71
     1
 72
     2
 73
     3
  0
VERTEX
  5
135731
  8
0
 10
0.0
 20
0.0
 30
0.0
 70
   128
 71
     4
 72
     1
 73
     3
  0
VERTEX
  5
135732
  8
0
 10
0.0
 20
0.0
 30
0.0
 70
   128
 71
     5
 72
     6
 73
     7
  0
VERTEX
  5
135733
  8
0
 10
0.0
 20
0.0
 30
0.0
 70
   128
 71
     8
 72
     5
 73
     7
  0
VERTEX
  5
135734
  8
0
 10
0.0
 20
0.0
 30
0.0
 70
   128
 71
     7
 72
     9
 73
     8
  0
VERTEX
  5
135735
  8
0
 10
0.0
 20
0.0
 30
0.0
 70
   128
 71
     9
 72
    10
 73
     8
  0
VERTEX
  5
135736
  8
0
 10
0.0
 20
0.0
 30
0.0
 70
   128
 71
    11
 72
    12
 73
    13
  0
VERTEX
  5
135737
  8
0
 10
0.0
 20
0.0
 30
0.0
 70
   128
 71
     8
 72
    14
 73
    15
  0
VERTEX
  5
135738
  8
0
 10
0.0
 20
0.0
 30
0.0
 70
   128
 71
    16
 72
     8
 73
    15
  0
VERTEX
  5
135739
  8
0
 10
0.0
 20
0.0
 30
0.0
 70
   128
 71
    16
 72
    15
 73
     4
  0
VERTEX
  5
13573A
  8
0
 10
0.0
 20
0.0
 30
0.0
 70
   128
 71
     3
 72
    16
 73
     4
  0
VERTEX
  5
13573B
  8
0
 10
0.0
 20
0.0
 30
0.0
 70
   128
 71
     8
 72
    10
 73
    17
  0
VERTEX
  5
13573C
  8
0
 10
0.0
 20
0.0
 30
0.0
 70
   128
 71
    14
 72
     8
 73
    17
  0
VERTEX
  5
13573D
  8
0
 10
0.0
 20
0.0
 30
0.0
 70
   128
 71
    17
 72
    11
 73
    14
  0
VERTEX
  5
13573E
  8
0
 10
0.0
 20
0.0
 30
0.0
 70
   128
 71
    11
 72
    13
 73
    14
  0
SEQEND
  5
135E20
  8
0
  0
POLYLINE
  5
13573F
  8
0
 66
     1
 10
0.0
 20
0.0
 30
0.0
 70
    64
 71
     8
 72
     6
  0
VERTEX
  5
135740
  8
0
 10
-15.5
 20
11.2
 30
0.0
 70
   192
  0
VERTEX
  5
135741
  8
0
 10
-12.7175144212722
 20
11.2
 30
6.717514421272202
 70
   192
  0
VERTEX
  5
135742
  8
0
 10
-6.0
 20
11.2
 30
9.500000000000002
 70
   192
  0
VERTEX
  5
135743
  8
0
 10
0.7175144212722033
 20
11.2
 30
6.717514421272203
 70
   192
  0
VERTEX
  5
135744
  8
0
 10
3.500000000000002
 20
11.2
 30
0.0
 70
   192
  0
VERTEX
  5
135745
  8
0
 10
0.7175144212722033
 20
11.2
 30
-6.717514421272203
 70
   192
  0
VERTEX
  5
135746
  8
0
 10
-6.0
 20
11.2
 30
-9.500000000000002
 70
   192
  0
VERTEX
  5
135747
  8
0
 10
-12.7175144212722
 20
11.2
 30
-6.717514421272202
 70
   192
  0
VERTEX
  5
135748
  8
0
 10
0.0
 20
0.0
 30
0.0
 70
   128
 71
     1
 72
     8
 73
    -7
  0
VERTEX
  5
135749
  8
0
 10
0.0
 20
0.0
 30
0.0
 70
   128
 71
    -1
 72
     7
 73
    -6
  0
VERTEX
  5
13574A
  8
0
 10
0.0
 20
0.0
 30
0.0
 70
   128
 71
    -1
 72
     6
 73
    -5
  0
VERTEX
  5
13574B
  8
0
 10
0.0
 20
0.0
 30
0.0
 70
   128
 71
    -1
 72
     5
 73
    -4
  0
VERTEX
  5
13574C
  8
0
 10
0.0
 20
0.0
 30
0.0
 70
   128
 71
    -1
 72
     4
 73
    -3
  0
VERTEX
  5
13574D
  8
0
 10
0.0
 20
0.0
 30
0.0
 70
   128
 71
    -1
 72
     3
 73
     2
  0
SEQEND
  5
135E21
  8
0
  0
POLYLINE
  5
13574E
  8
0
 66
     1
 10
0.0
 20
0.0
 30
0.0
 70
    64
 71
    10
 72
     8
  0
VERTEX
  5
13574F
  8
0
 10
-6.000000000000001
 20
1.2
 30
10.7
 70
   192
  0
VERTEX
  5
135750
  8
0
 10
-5.999999999999998
 20
1.2
 30
-10.7
 70
   192
  0
VERTEX
  5
135751
  8
0
 10
-5.999999999999998
 20
5.000000000000001
 30
-10.7
 70
   192
  0
VERTEX
  5
135752
  8
0
 10
-6.0
 20
5.000000000000001
 30
10.7
 70
   192
  0
VERTEX
  5
135753
  8
0
 10
4.700000000000001
 20
5.000000000000001
 30
0.0
 70
   192
  0
VERTEX
  5
135754
  8
0
 10
4.700000000000001
 20
1.2
 30
0.0
 70
   192
  0
VERTEX
  5
135755
  8
0
 10
1.566042558696059
 20
5.000000000000001
 30
7.566042558696059
 70
   192
  0
VERTEX
  5
135756
  8
0
 10
1.566042558696059
 20
1.2
 30
7.566042558696059
 70
   192
  0
VERTEX
  5
135757
  8
0
 10
1.56604255869606
 20
5.000000000000001
 30
-7.56604255869606
 70
   192
  0
VERTEX
  5
135758
  8
0
 10
1.56604255869606
 20
1.2
 30
-7.56604255869606
 70
   192
  0
VERTEX
  5
135759
  8
0
 10
0.0
 20
0.0
 30
0.0
 70
   128
 71
     8
 72
     1
 73
    -4
  0
VERTEX
  5
13575A
  8
0
 10
0.0
 20
0.0
 30
0.0
 70
   128
 71
     7
 72
    -8
 73
     4
  0
VERTEX
  5
13575B
  8
0
 10
0.0
 20
0.0
 30
0.0
 70
   128
 71
     6
 72
     8
 73
    -7
  0
VERTEX
  5
13575C
  8
0
 10
0.0
 20
0.0
 30
0.0
 70
   128
 71
     5
 72
    -6
 73
     7
  0
VERTEX
  5
13575D
  8
0
 10
0.0
 20
0.0
 30
0.0
 70
   128
 71
    10
 72
     6
 73
    -5
  0
VERTEX
  5
13575E
  8
0
 10
0.0
 20
0.0
 30
0.0
 70
   128
 71
     9
 72
   -10
 73
     5
  0
VERTEX
  5
13575F
  8
0
 10
0.0
 20
0.0
 30
0.0
 70
   128
 71
     3
 72
     2
 73
   -10
  0
VERTEX
  5
135760
  8
0
 10
0.0
 20
0.0
 30
0.0
 70
   128
 71
     9
 72
    -3
 73
    10
  0
SEQEND
  5
135E22
  8
0
  0
POLYLINE
  5
135761
  8
0
 66
     1
 10
0.0
 20
0.0
 30
0.0
 70
    64
 71
    22
 72
    20
  0
VERTEX
  5
135762
  8
0
 10
-15.21626947773121
 20
5.000000000000001
 30
2.304425506246637
 70
   192
  0
VERTEX
  5
135763
  8
0
 10
-15.21620612986145
 20
5.000000000000001
 30
2.304343724360584
 70
   192
  0
VERTEX
  5
135764
  8
0
 10
-16.44892338951722
 20
5.000000000000001
 30
2.304343724360582
 70
   192
  0
VERTEX
  5
135765
  8
0
 10
-14.39814079555403
 20
5.000000000000001
 30
6.630326626799858
 70
   192
  0
VERTEX
  5
135766
  8
0
 10
-10.6661282179791
 20
5.000000000000001
 30
9.628979564490683
 70
   192
  0
VERTEX
  5
135767
  8
0
 10
-6.0
 20
5.000000000000001
 30
10.7
 70
   192
  0
VERTEX
  5
135768
  8
0
 10
1.566042558696059
 20
5.000000000000001
 30
7.566042558696059
 70
   192
  0
VERTEX
  5
135769
  8
0
 10
4.700000000000001
 20
5.000000000000001
 30
0.0
 70
   192
  0
VERTEX
  5
13576A
  8
0
 10
1.56604255869606
 20
5.000000000000001
 30
-7.56604255869606
 70
   192
  0
VERTEX
  5
13576B
  8
0
 10
-5.999999999999999
 20
5.000000000000001
 30
-10.7
 70
   192
  0
VERTEX
  5
13576C
  8
0
 10
-10.66612821797909
 20
5.000000000000001
 30
-9.628979564490686
 70
   192
  0
VERTEX
  5
13576D
  8
0
 10
-14.39814079555402
 20
5.000000000000001
 30
-6.630326626799861
 70
   192
  0
VERTEX
  5
13576E
  8
0
 10
-16.44892338951722
 20
5.000000000000001
 30
-2.304343724360584
 70
   192
  0
VERTEX
  5
13576F
  8
0
 10
-15.21622823279477
 20
5.000000000000001
 30
-2.304343724360584
 70
   192
  0
VERTEX
  5
135770
  8
0
 10
-15.2162587161885
 20
5.000000000000001
 30
-2.304468545300545
 70
   192
  0
VERTEX
  5
135771
  8
0
 10
-11.37690201547348
 20
5.000000000000001
 30
-7.831917052420645
 70
   192
  0
VERTEX
  5
135772
  8
0
 10
-4.839064560239136
 20
5.000000000000001
 30
-9.428797850453009
 70
   192
  0
VERTEX
  5
135773
  8
0
 10
1.116139636583807
 20
5.000000000000001
 30
-6.293691815829631
 70
   192
  0
VERTEX
  5
135774
  8
0
 10
3.5
 20
5.000000000000001
 30
-0.0000000024403918
 70
   192
  0
VERTEX
  5
135775
  8
0
 10
1.116132291272434
 20
5.000000000000001
 30
6.293700121002725
 70
   192
  0
VERTEX
  5
135776
  8
0
 10
-4.839086573603097
 20
5.000000000000001
 30
9.428800560856686
 70
   192
  0
VERTEX
  5
135777
  8
0
 10
-11.37692944515079
 20
5.000000000000001
 30
7.831898220857471
 70
   192
  0
VERTEX
  5
135778
  8
0
 10
0.0
 20
0.0
 30
0.0
 70
   128
 71
    15
 72
    14
 73
   -13
  0
VERTEX
  5
135779
  8
0
 10
0.0
 20
0.0
 30
0.0
 70
   128
 71
    13
 72
    12
 73
   -11
  0
VERTEX
  5
13577A
  8
0
 10
0.0
 20
0.0
 30
0.0
 70
   128
 71
   -13
 72
   -11
 73
   -16
  0
VERTEX
  5
13577B
  8
0
 10
0.0
 20
0.0
 30
0.0
 70
   128
 71
   -13
 72
    16
 73
   -15
  0
VERTEX
  5
13577C
  8
0
 10
0.0
 20
0.0
 30
0.0
 70
   128
 71
    11
 72
   -10
 73
   -17
  0
VERTEX
  5
13577D
  8
0
 10
0.0
 20
0.0
 30
0.0
 70
   128
 71
   -11
 72
    17
 73
   -16
  0
VERTEX
  5
13577E
  8
0
 10
0.0
 20
0.0
 30
0.0
 70
   128
 71
    10
 72
    -9
 73
   -18
  0
VERTEX
  5
13577F
  8
0
 10
0.0
 20
0.0
 30
0.0
 70
   128
 71
   -10
 72
    18
 73
   -17
  0
VERTEX
  5
135780
  8
0
 10
0.0
 20
0.0
 30
0.0
 70
   128
 71
     9
 72
    -8
 73
   -19
  0
VERTEX
  5
135781
  8
0
 10
0.0
 20
0.0
 30
0.0
 70
   128
 71
    -9
 72
    19
 73
   -18
  0
VERTEX
  5
135782
  8
0
 10
0.0
 20
0.0
 30
0.0
 70
   128
 71
     8
 72
    -7
 73
   -20
  0
VERTEX
  5
135783
  8
0
 10
0.0
 20
0.0
 30
0.0
 70
   128
 71
    -8
 72
    20
 73
   -19
  0
VERTEX
  5
135784
  8
0
 10
0.0
 20
0.0
 30
0.0
 70
   128
 71
     7
 72
    -6
 73
   -21
  0
VERTEX
  5
135785
  8
0
 10
0.0
 20
0.0
 30
0.0
 70
   128
 71
    -7
 72
    21
 73
   -20
  0
VERTEX
  5
135786
  8
0
 10
0.0
 20
0.0
 30
0.0
 70
   128
 71
     6
 72
    -5
 73
   -22
  0
VERTEX
  5
135787
  8
0
 10
0.0
 20
0.0
 30
0.0
 70
   128
 71
    -6
 72
    22
 73
   -21
  0
VERTEX
  5
135788
  8
0
 10
0.0
 20
0.0
 30
0.0
 70
   128
 71
     5
 72
     4
 73
    -3
  0
VERTEX
  5
135789
  8
0
 10
0.0
 20
0.0
 30
0.0
 70
   128
 71
    -5
 72
    -3
 73
    -1
  0
VERTEX
  5
13578A
  8
0
 10
0.0
 20
0.0
 30
0.0
 70
   128
 71
    -5
 72
     1
 73
   -22
  0
VERTEX
  5
13578B
  8
0
 10
0.0
 20
0.0
 30
0.0
 70
   128
 71
     3
 72
     2
 73
    -1
  0
SEQEND
  5
135E23
  8
0
  0
ENDBLK
  5
135DEB
  8
0
  0
BLOCK
  8
0
  2
*X2
 70
     1
 10
0.0
 20
0.0
 30
0.0
  3
*X2
  1

  0
POLYLINE
  5
13578D
  8
0
 66
     1
 10
0.0
 20
0.0
 30
0.0
 70
    64
 71
    18
 72
    16
  0
VERTEX
  5
13578E
  8
0
 10
-22.5
 20
10.0
 30
-13.5
 70
   192
  0
VERTEX
  5
13578F
  8
0
 10
-22.5
 20
5.0
 30
-13.5
 70
   192
  0
VERTEX
  5
135790
  8
0
 10
-32.25
 20
5.0
 30
-13.5
 70
   192
  0
VERTEX
  5
135791
  8
0
 10
-32.25
 20
10.0
 30
-13.5
 70
   192
  0
VERTEX
  5
135792
  8
0
 10
-32.25
 20
7.499999999999995
 30
-16.0
 70
   192
  0
VERTEX
  5
135793
  8
0
 10
-22.49999999999999
 20
7.500000000000002
 30
-16.0
 70
   192
  0
VERTEX
  5
135794
  8
0
 10
-32.25
 20
9.267766952966369
 30
-15.26776695296637
 70
   192
  0
VERTEX
  5
135795
  8
0
 10
-22.5
 20
9.267766952966369
 30
-15.26776695296637
 70
   192
  0
VERTEX
  5
135796
  8
0
 10
-32.25
 20
5.732233047033626
 30
-15.26776695296636
 70
   192
  0
VERTEX
  5
135797
  8
0
 10
-22.5
 20
5.732233047033633
 30
-15.26776695296637
 70
   192
  0
VERTEX
  5
135798
  8
0
 10
-32.25
 20
9.809698831278219
 30
-14.45670858091273
 70
   192
  0
VERTEX
  5
135799
  8
0
 10
-22.5
 20
9.809698831278215
 30
-14.45670858091272
 70
   192
  0
VERTEX
  5
13579A
  8
0
 10
-32.25
 20
8.456708580912725
 30
-15.80969883127822
 70
   192
  0
VERTEX
  5
13579B
  8
0
 10
-22.5
 20
8.456708580912725
 30
-15.80969883127821
 70
   192
  0
VERTEX
  5
13579C
  8
0
 10
-32.25
 20
6.54329141908727
 30
-15.80969883127822
 70
   192
  0
VERTEX
  5
13579D
  8
0
 10
-22.5
 20
6.54329141908728
 30
-15.80969883127822
 70
   192
  0
VERTEX
  5
13579E
  8
0
 10
-22.5
 20
5.190301168721786
 30
-14.45670858091273
 70
   192
  0
VERTEX
  5
13579F
  8
0
 10
-32.25
 20
5.190301168721779
 30
-14.45670858091272
 70
   192
  0
VERTEX
  5
1357A0
  8
0
 10
0.0
 20
0.0
 30
0.0
 70
   128
 71
     7
 72
     8
 73
   -12
  0
VERTEX
  5
1357A1
  8
0
 10
0.0
 20
0.0
 30
0.0
 70
   128
 71
    11
 72
    -7
 73
    12
  0
VERTEX
  5
1357A2
  8
0
 10
0.0
 20
0.0
 30
0.0
 70
   128
 71
     1
 72
     4
 73
   -11
  0
VERTEX
  5
1357A3
  8
0
 10
0.0
 20
0.0
 30
0.0
 70
   128
 71
    12
 72
    -1
 73
    11
  0
VERTEX
  5
1357A4
  8
0
 10
0.0
 20
0.0
 30
0.0
 70
   128
 71
     5
 72
     6
 73
   -14
  0
VERTEX
  5
1357A5
  8
0
 10
0.0
 20
0.0
 30
0.0
 70
   128
 71
    13
 72
    -5
 73
    14
  0
VERTEX
  5
1357A6
  8
0
 10
0.0
 20
0.0
 30
0.0
 70
   128
 71
     8
 72
     7
 73
   -13
  0
VERTEX
  5
1357A7
  8
0
 10
0.0
 20
0.0
 30
0.0
 70
   128
 71
    14
 72
    -8
 73
    13
  0
VERTEX
  5
1357A8
  8
0
 10
0.0
 20
0.0
 30
0.0
 70
   128
 71
     9
 72
    10
 73
   -16
  0
VERTEX
  5
1357A9
  8
0
 10
0.0
 20
0.0
 30
0.0
 70
   128
 71
    15
 72
    -9
 73
    16
  0
VERTEX
  5
1357AA
  8
0
 10
0.0
 20
0.0
 30
0.0
 70
   128
 71
     6
 72
     5
 73
   -15
  0
VERTEX
  5
1357AB
  8
0
 10
0.0
 20
0.0
 30
0.0
 70
   128
 71
    16
 72
    -6
 73
    15
  0
VERTEX
  5
1357AC
  8
0
 10
0.0
 20
0.0
 30
0.0
 70
   128
 71
     3
 72
     2
 73
   -17
  0
VERTEX
  5
1357AD
  8
0
 10
0.0
 20
0.0
 30
0.0
 70
   128
 71
    18
 72
    -3
 73
    17
  0
VERTEX
  5
1357AE
  8
0
 10
0.0
 20
0.0
 30
0.0
 70
   128
 71
    10
 72
     9
 73
   -18
  0
VERTEX
  5
1357AF
  8
0
 10
0.0
 20
0.0
 30
0.0
 70
   128
 71
    17
 72
   -10
 73
    18
  0
SEQEND
  5
135E26
  8
0
  0
POLYLINE
  5
1357B0
  8
0
 66
     1
 10
0.0
 20
0.0
 30
0.0
 70
    64
 71
    18
 72
    16
  0
VERTEX
  5
1357B1
  8
0
 10
-22.5
 20
5.0
 30
-13.5
 70
   192
  0
VERTEX
  5
1357B2
  8
0
 10
-22.5
 20
10.0
 30
-13.5
 70
   192
  0
VERTEX
  5
1357B3
  8
0
 10
-32.25
 20
10.0
 30
-13.5
 70
   192
  0
VERTEX
  5
1357B4
  8
0
 10
-32.25
 20
5.0
 30
-13.5
 70
   192
  0
VERTEX
  5
1357B5
  8
0
 10
-32.25
 20
7.499999999999998
 30
-11.0
 70
   192
  0
VERTEX
  5
1357B6
  8
0
 10
-22.5
 20
7.499999999999998
 30
-11.0
 70
   192
  0
VERTEX
  5
1357B7
  8
0
 10
-32.25
 20
5.732233047033632
 30
-11.73223304703363
 70
   192
  0
VERTEX
  5
1357B8
  8
0
 10
-22.5
 20
5.732233047033631
 30
-11.73223304703363
 70
   192
  0
VERTEX
  5
1357B9
  8
0
 10
-32.25
 20
9.267766952966372
 30
-11.73223304703364
 70
   192
  0
VERTEX
  5
1357BA
  8
0
 10
-22.5
 20
9.26776695296637
 30
-11.73223304703363
 70
   192
  0
VERTEX
  5
1357BB
  8
0
 10
-32.25
 20
5.190301168721783
 30
-12.54329141908727
 70
   192
  0
VERTEX
  5
1357BC
  8
0
 10
-22.5
 20
5.190301168721784
 30
-12.54329141908728
 70
   192
  0
VERTEX
  5
1357BD
  8
0
 10
-22.5
 20
6.543291419087274
 30
-11.19030116872178
 70
   192
  0
VERTEX
  5
1357BE
  8
0
 10
-32.25
 20
6.543291419087275
 30
-11.19030116872178
 70
   192
  0
VERTEX
  5
1357BF
  8
0
 10
-22.5
 20
8.456708580912725
 30
-11.19030116872178
 70
   192
  0
VERTEX
  5
1357C0
  8
0
 10
-32.25
 20
8.456708580912727
 30
-11.19030116872178
 70
   192
  0
VERTEX
  5
1357C1
  8
0
 10
-22.5
 20
9.809698831278215
 30
-12.54329141908728
 70
   192
  0
VERTEX
  5
1357C2
  8
0
 10
-32.25
 20
9.809698831278215
 30
-12.54329141908728
 70
   192
  0
VERTEX
  5
1357C3
  8
0
 10
0.0
 20
0.0
 30
0.0
 70
   128
 71
     1
 72
     4
 73
   -11
  0
VERTEX
  5
1357C4
  8
0
 10
0.0
 20
0.0
 30
0.0
 70
   128
 71
    12
 72
    -1
 73
    11
  0
VERTEX
  5
1357C5
  8
0
 10
0.0
 20
0.0
 30
0.0
 70
   128
 71
     7
 72
     8
 73
   -12
  0
VERTEX
  5
1357C6
  8
0
 10
0.0
 20
0.0
 30
0.0
 70
   128
 71
    11
 72
    -7
 73
    12
  0
VERTEX
  5
1357C7
  8
0
 10
0.0
 20
0.0
 30
0.0
 70
   128
 71
     8
 72
     7
 73
   -14
  0
VERTEX
  5
1357C8
  8
0
 10
0.0
 20
0.0
 30
0.0
 70
   128
 71
    13
 72
    -8
 73
    14
  0
VERTEX
  5
1357C9
  8
0
 10
0.0
 20
0.0
 30
0.0
 70
   128
 71
     5
 72
     6
 73
   -13
  0
VERTEX
  5
1357CA
  8
0
 10
0.0
 20
0.0
 30
0.0
 70
   128
 71
    14
 72
    -5
 73
    13
  0
VERTEX
  5
1357CB
  8
0
 10
0.0
 20
0.0
 30
0.0
 70
   128
 71
     6
 72
     5
 73
   -16
  0
VERTEX
  5
1357CC
  8
0
 10
0.0
 20
0.0
 30
0.0
 70
   128
 71
    15
 72
    -6
 73
    16
  0
VERTEX
  5
1357CD
  8
0
 10
0.0
 20
0.0
 30
0.0
 70
   128
 71
     9
 72
    10
 73
   -15
  0
VERTEX
  5
1357CE
  8
0
 10
0.0
 20
0.0
 30
0.0
 70
   128
 71
    16
 72
    -9
 73
    15
  0
VERTEX
  5
1357CF
  8
0
 10
0.0
 20
0.0
 30
0.0
 70
   128
 71
    10
 72
     9
 73
   -18
  0
VERTEX
  5
1357D0
  8
0
 10
0.0
 20
0.0
 30
0.0
 70
   128
 71
    17
 72
   -10
 73
    18
  0
VERTEX
  5
1357D1
  8
0
 10
0.0
 20
0.0
 30
0.0
 70
   128
 71
     3
 72
     2
 73
   -17
  0
VERTEX
  5
1357D2
  8
0
 10
0.0
 20
0.0
 30
0.0
 70
   128
 71
    18
 72
    -3
 73
    17
  0
SEQEND
  5
135E27
  8
0
  0
POLYLINE
  5
1357D3
  8
0
 66
     1
 10
0.0
 20
0.0
 30
0.0
 70
    64
 71
    32
 72
    32
  0
VERTEX
  5
1357D4
  8
0
 10
-22.5
 20
10.0
 30
-13.5
 70
   192
  0
VERTEX
  5
1357D5
  8
0
 10
-22.5
 20
9.809698831278215
 30
-14.45670858091272
 70
   192
  0
VERTEX
  5
1357D6
  8
0
 10
-22.5
 20
9.267766952966369
 30
-15.26776695296637
 70
   192
  0
VERTEX
  5
1357D7
  8
0
 10
-22.5
 20
8.456708580912725
 30
-15.80969883127821
 70
   192
  0
VERTEX
  5
1357D8
  8
0
 10
-22.49999999999999
 20
7.500000000000002
 30
-16.0
 70
   192
  0
VERTEX
  5
1357D9
  8
0
 10
-22.5
 20
6.54329141908728
 30
-15.80969883127822
 70
   192
  0
VERTEX
  5
1357DA
  8
0
 10
-22.5
 20
5.732233047033633
 30
-15.26776695296637
 70
   192
  0
VERTEX
  5
1357DB
  8
0
 10
-22.5
 20
5.190301168721786
 30
-14.45670858091273
 70
   192
  0
VERTEX
  5
1357DC
  8
0
 10
-22.5
 20
5.0
 30
-13.5
 70
   192
  0
VERTEX
  5
1357DD
  8
0
 10
-22.5
 20
5.190301168721784
 30
-12.54329141908728
 70
   192
  0
VERTEX
  5
1357DE
  8
0
 10
-22.5
 20
5.732233047033631
 30
-11.73223304703363
 70
   192
  0
VERTEX
  5
1357DF
  8
0
 10
-22.5
 20
6.543291419087274
 30
-11.19030116872178
 70
   192
  0
VERTEX
  5
1357E0
  8
0
 10
-22.5
 20
7.499999999999998
 30
-11.0
 70
   192
  0
VERTEX
  5
1357E1
  8
0
 10
-22.5
 20
8.456708580912725
 30
-11.19030116872178
 70
   192
  0
VERTEX
  5
1357E2
  8
0
 10
-22.5
 20
9.26776695296637
 30
-11.73223304703363
 70
   192
  0
VERTEX
  5
1357E3
  8
0
 10
-22.5
 20
9.809698831278215
 30
-12.54329141908728
 70
   192
  0
VERTEX
  5
1357E4
  8
0
 10
-22.5
 20
9.75
 30
-13.5
 70
   192
  0
VERTEX
  5
1357E5
  8
0
 10
-22.5
 20
9.578728948150395
 30
-12.63896227717855
 70
   192
  0
VERTEX
  5
1357E6
  8
0
 10
-22.5
 20
9.090990257669736
 30
-11.90900974233027
 70
   192
  0
VERTEX
  5
1357E7
  8
0
 10
-22.5
 20
8.361037722821456
 30
-11.42127105184961
 70
   192
  0
VERTEX
  5
1357E8
  8
0
 10
-22.5
 20
7.5
 30
-11.25
 70
   192
  0
VERTEX
  5
1357E9
  8
0
 10
-22.5
 20
6.638962277178547
 30
-11.4212710518496
 70
   192
  0
VERTEX
  5
1357EA
  8
0
 10
-22.5
 20
5.909009742330269
 30
-11.90900974233027
 70
   192
  0
VERTEX
  5
1357EB
  8
0
 10
-22.5
 20
5.421271051849605
 30
-12.63896227717855
 70
   192
  0
VERTEX
  5
1357EC
  8
0
 10
-22.5
 20
5.25
 30
-13.5
 70
   192
  0
VERTEX
  5
1357ED
  8
0
 10
-22.5
 20
5.421271051849605
 30
-14.36103772282145
 70
   192
  0
VERTEX
  5
1357EE
  8
0
 10
-22.5
 20
5.909009742330266
 30
-15.09099025766973
 70
   192
  0
VERTEX
  5
1357EF
  8
0
 10
-22.5
 20
6.638962277178541
 30
-15.57872894815039
 70
   192
  0
VERTEX
  5
1357F0
  8
0
 10
-22.5
 20
7.499999999999994
 30
-15.75
 70
   192
  0
VERTEX
  5
1357F1
  8
0
 10
-22.5
 20
8.361037722821449
 30
-15.5787289481504
 70
   192
  0
VERTEX
  5
1357F2
  8
0
 10
-22.5
 20
9.090990257669727
 30
-15.09099025766974
 70
   192
  0
VERTEX
  5
1357F3
  8
0
 10
-22.5
 20
9.578728948150392
 30
-14.36103772282145
 70
   192
  0
VERTEX
  5
1357F4
  8
0
 10
0.0
 20
0.0
 30
0.0
 70
   128
 71
    -1
 72
    17
 73
   -18
  0
VERTEX
  5
1357F5
  8
0
 10
0.0
 20
0.0
 30
0.0
 70
   128
 71
    16
 72
    -1
 73
   -18
  0
VERTEX
  5
1357F6
  8
0
 10
0.0
 20
0.0
 30
0.0
 70
   128
 71
   -19
 72
    15
 73
   -16
  0
VERTEX
  5
1357F7
  8
0
 10
0.0
 20
0.0
 30
0.0
 70
   128
 71
    18
 72
   -19
 73
   -16
  0
VERTEX
  5
1357F8
  8
0
 10
0.0
 20
0.0
 30
0.0
 70
   128
 71
   -20
 72
    14
 73
   -15
  0
VERTEX
  5
1357F9
  8
0
 10
0.0
 20
0.0
 30
0.0
 70
   128
 71
    19
 72
   -20
 73
   -15
  0
VERTEX
  5
1357FA
  8
0
 10
0.0
 20
0.0
 30
0.0
 70
   128
 71
   -21
 72
    13
 73
   -14
  0
VERTEX
  5
1357FB
  8
0
 10
0.0
 20
0.0
 30
0.0
 70
   128
 71
    20
 72
   -21
 73
   -14
  0
VERTEX
  5
1357FC
  8
0
 10
0.0
 20
0.0
 30
0.0
 70
   128
 71
   -22
 72
    12
 73
   -13
  0
VERTEX
  5
1357FD
  8
0
 10
0.0
 20
0.0
 30
0.0
 70
   128
 71
    21
 72
   -22
 73
   -13
  0
VERTEX
  5
1357FE
  8
0
 10
0.0
 20
0.0
 30
0.0
 70
   128
 71
   -23
 72
    11
 73
   -12
  0
VERTEX
  5
1357FF
  8
0
 10
0.0
 20
0.0
 30
0.0
 70
   128
 71
    22
 72
   -23
 73
   -12
  0
VERTEX
  5
135800
  8
0
 10
0.0
 20
0.0
 30
0.0
 70
   128
 71
   -24
 72
    10
 73
   -11
  0
VERTEX
  5
135801
  8
0
 10
0.0
 20
0.0
 30
0.0
 70
   128
 71
    23
 72
   -24
 73
   -11
  0
VERTEX
  5
135802
  8
0
 10
0.0
 20
0.0
 30
0.0
 70
   128
 71
   -25
 72
     9
 73
   -10
  0
VERTEX
  5
135803
  8
0
 10
0.0
 20
0.0
 30
0.0
 70
   128
 71
    24
 72
   -25
 73
   -10
  0
VERTEX
  5
135804
  8
0
 10
0.0
 20
0.0
 30
0.0
 70
   128
 71
   -26
 72
     8
 73
    -9
  0
VERTEX
  5
135805
  8
0
 10
0.0
 20
0.0
 30
0.0
 70
   128
 71
    25
 72
   -26
 73
    -9
  0
VERTEX
  5
135806
  8
0
 10
0.0
 20
0.0
 30
0.0
 70
   128
 71
   -27
 72
     7
 73
    -8
  0
VERTEX
  5
135807
  8
0
 10
0.0
 20
0.0
 30
0.0
 70
   128
 71
    26
 72
   -27
 73
    -8
  0
VERTEX
  5
135808
  8
0
 10
0.0
 20
0.0
 30
0.0
 70
   128
 71
   -28
 72
     6
 73
    -7
  0
VERTEX
  5
135809
  8
0
 10
0.0
 20
0.0
 30
0.0
 70
   128
 71
    27
 72
   -28
 73
    -7
  0
VERTEX
  5
13580A
  8
0
 10
0.0
 20
0.0
 30
0.0
 70
   128
 71
   -29
 72
     5
 73
    -6
  0
VERTEX
  5
13580B
  8
0
 10
0.0
 20
0.0
 30
0.0
 70
   128
 71
    28
 72
   -29
 73
    -6
  0
VERTEX
  5
13580C
  8
0
 10
0.0
 20
0.0
 30
0.0
 70
   128
 71
   -30
 72
     4
 73
    -5
  0
VERTEX
  5
13580D
  8
0
 10
0.0
 20
0.0
 30
0.0
 70
   128
 71
    29
 72
   -30
 73
    -5
  0
VERTEX
  5
13580E
  8
0
 10
0.0
 20
0.0
 30
0.0
 70
   128
 71
   -31
 72
     3
 73
    -4
  0
VERTEX
  5
13580F
  8
0
 10
0.0
 20
0.0
 30
0.0
 70
   128
 71
    30
 72
   -31
 73
    -4
  0
VERTEX
  5
135810
  8
0
 10
0.0
 20
0.0
 30
0.0
 70
   128
 71
   -32
 72
     2
 73
    -3
  0
VERTEX
  5
135811
  8
0
 10
0.0
 20
0.0
 30
0.0
 70
   128
 71
    31
 72
   -32
 73
    -3
  0
VERTEX
  5
135812
  8
0
 10
0.0
 20
0.0
 30
0.0
 70
   128
 71
   -17
 72
     1
 73
    -2
  0
VERTEX
  5
135813
  8
0
 10
0.0
 20
0.0
 30
0.0
 70
   128
 71
    32
 72
   -17
 73
    -2
  0
SEQEND
  5
135E28
  8
0
  0
ENDBLK
  5
135E25
  8
0
  0
BLOCK
  8
0
  2
*X3
 70
     1
 10
0.0
 20
0.0
 30
0.0
  3
*X3
  1

  0
POLYLINE
  5
135815
  8
0
 66
     1
 10
0.0
 20
0.0
 30
0.0
 70
    64
 71
    18
 72
    16
  0
VERTEX
  5
135816
  8
0
 10
-16.0
 20
10.2
 30
0.000000000000001
 70
   192
  0
VERTEX
  5
135817
  8
0
 10
4.0
 20
10.2
 30
-0.000000000000001
 70
   192
  0
VERTEX
  5
135818
  8
0
 10
4.0
 20
1.2
 30
-0.0000000000000012
 70
   192
  0
VERTEX
  5
135819
  8
0
 10
-16.0
 20
1.2
 30
0.0000000000000012
 70
   192
  0
VERTEX
  5
13581A
  8
0
 10
-5.999999999999962
 20
1.2
 30
-10.0
 70
   192
  0
VERTEX
  5
13581B
  8
0
 10
-5.999999999999967
 20
10.2
 30
-10.0
 70
   192
  0
VERTEX
  5
13581C
  8
0
 10
-13.07106781186546
 20
1.2
 30
-7.071067811865495
 70
   192
  0
VERTEX
  5
13581D
  8
0
 10
-13.07106781186545
 20
10.2
 30
-7.071067811865495
 70
   192
  0
VERTEX
  5
13581E
  8
0
 10
1.071067811865507
 20
1.2
 30
-7.071067811865445
 70
   192
  0
VERTEX
  5
13581F
  8
0
 10
1.071067811865508
 20
10.2
 30
-7.071067811865444
 70
   192
  0
VERTEX
  5
135820
  8
0
 10
3.238795325112882
 20
1.2
 30
-3.826834323650862
 70
   192
  0
VERTEX
  5
135821
  8
0
 10
3.238795325112884
 20
10.2
 30
-3.82683432365086
 70
   192
  0
VERTEX
  5
135822
  8
0
 10
-2.173165676349064
 20
1.2
 30
-9.238795325112852
 70
   192
  0
VERTEX
  5
135823
  8
0
 10
-2.173165676349064
 20
10.2
 30
-9.238795325112852
 70
   192
  0
VERTEX
  5
135824
  8
0
 10
-9.826834323650868
 20
1.2
 30
-9.238795325112882
 70
   192
  0
VERTEX
  5
135825
  8
0
 10
-9.826834323650871
 20
10.2
 30
-9.23879532511288
 70
   192
  0
VERTEX
  5
135826
  8
0
 10
-15.23879532511286
 20
1.2
 30
-3.826834323650921
 70
   192
  0
VERTEX
  5
135827
  8
0
 10
-15.23879532511286
 20
10.2
 30
-3.826834323650918
 70
   192
  0
VERTEX
  5
135828
  8
0
 10
0.0
 20
0.0
 30
0.0
 70
   128
 71
     9
 72
    10
 73
   -12
  0
VERTEX
  5
135829
  8
0
 10
0.0
 20
0.0
 30
0.0
 70
   128
 71
    -9
 72
    12
 73
    11
  0
VERTEX
  5
13582A
  8
0
 10
0.0
 20
0.0
 30
0.0
 70
   128
 71
    11
 72
    12
 73
    -2
  0
VERTEX
  5
13582B
  8
0
 10
0.0
 20
0.0
 30
0.0
 70
   128
 71
   -11
 72
     2
 73
     3
  0
VERTEX
  5
13582C
  8
0
 10
0.0
 20
0.0
 30
0.0
 70
   128
 71
     5
 72
     6
 73
   -14
  0
VERTEX
  5
13582D
  8
0
 10
0.0
 20
0.0
 30
0.0
 70
   128
 71
    -5
 72
    14
 73
    13
  0
VERTEX
  5
13582E
  8
0
 10
0.0
 20
0.0
 30
0.0
 70
   128
 71
    13
 72
    14
 73
   -10
  0
VERTEX
  5
13582F
  8
0
 10
0.0
 20
0.0
 30
0.0
 70
   128
 71
   -13
 72
    10
 73
     9
  0
VERTEX
  5
135830
  8
0
 10
0.0
 20
0.0
 30
0.0
 70
   128
 71
     7
 72
     8
 73
   -16
  0
VERTEX
  5
135831
  8
0
 10
0.0
 20
0.0
 30
0.0
 70
   128
 71
    -7
 72
    16
 73
    15
  0
VERTEX
  5
135832
  8
0
 10
0.0
 20
0.0
 30
0.0
 70
   128
 71
    15
 72
    16
 73
    -6
  0
VERTEX
  5
135833
  8
0
 10
0.0
 20
0.0
 30
0.0
 70
   128
 71
   -15
 72
     6
 73
     5
  0
VERTEX
  5
135834
  8
0
 10
0.0
 20
0.0
 30
0.0
 70
   128
 71
     4
 72
     1
 73
   -18
  0
VERTEX
  5
135835
  8
0
 10
0.0
 20
0.0
 30
0.0
 70
   128
 71
    -4
 72
    18
 73
    17
  0
VERTEX
  5
135836
  8
0
 10
0.0
 20
0.0
 30
0.0
 70
   128
 71
    17
 72
    18
 73
    -8
  0
VERTEX
  5
135837
  8
0
 10
0.0
 20
0.0
 30
0.0
 70
   128
 71
   -17
 72
     8
 73
     7
  0
SEQEND
  5
135E2B
  8
0
  0
POLYLINE
  5
135838
  8
0
 66
     1
 10
0.0
 20
0.0
 30
0.0
 70
    64
 71
    18
 72
    16
  0
VERTEX
  5
135839
  8
0
 10
4.0
 20
10.2
 30
-0.000000000000001
 70
   192
  0
VERTEX
  5
13583A
  8
0
 10
-16.0
 20
10.2
 30
0.000000000000001
 70
   192
  0
VERTEX
  5
13583B
  8
0
 10
-16.0
 20
1.2
 30
0.0000000000000012
 70
   192
  0
VERTEX
  5
13583C
  8
0
 10
4.0
 20
1.2
 30
-0.0000000000000012
 70
   192
  0
VERTEX
  5
13583D
  8
0
 10
-6.000000000000011
 20
1.2
 30
10.0
 70
   192
  0
VERTEX
  5
13583E
  8
0
 10
-6.000000000000011
 20
10.2
 30
10.0
 70
   192
  0
VERTEX
  5
13583F
  8
0
 10
1.071067811865471
 20
1.2
 30
7.071067811865479
 70
   192
  0
VERTEX
  5
135840
  8
0
 10
1.071067811865471
 20
10.2
 30
7.071067811865479
 70
   192
  0
VERTEX
  5
135841
  8
0
 10
-13.07106781186549
 20
1.2
 30
7.071067811865465
 70
   192
  0
VERTEX
  5
135842
  8
0
 10
-13.07106781186549
 20
10.2
 30
7.071067811865465
 70
   192
  0
VERTEX
  5
135843
  8
0
 10
-15.23879532511288
 20
1.2
 30
3.826834323650882
 70
   192
  0
VERTEX
  5
135844
  8
0
 10
-15.23879532511287
 20
10.2
 30
3.826834323650883
 70
   192
  0
VERTEX
  5
135845
  8
0
 10
-9.826834323650907
 20
1.2
 30
9.23879532511286
 70
   192
  0
VERTEX
  5
135846
  8
0
 10
-9.826834323650914
 20
10.2
 30
9.238795325112864
 70
   192
  0
VERTEX
  5
135847
  8
0
 10
-2.17316567634911
 20
1.2
 30
9.238795325112871
 70
   192
  0
VERTEX
  5
135848
  8
0
 10
-2.173165676349109
 20
10.2
 30
9.238795325112871
 70
   192
  0
VERTEX
  5
135849
  8
0
 10
3.238795325112865
 20
1.2
 30
3.826834323650903
 70
   192
  0
VERTEX
  5
13584A
  8
0
 10
3.238795325112866
 20
10.2
 30
3.8268343236509
 70
   192
  0
VERTEX
  5
13584B
  8
0
 10
0.0
 20
0.0
 30
0.0
 70
   128
 71
     9
 72
    10
 73
   -12
  0
VERTEX
  5
13584C
  8
0
 10
0.0
 20
0.0
 30
0.0
 70
   128
 71
    -9
 72
    12
 73
    11
  0
VERTEX
  5
13584D
  8
0
 10
0.0
 20
0.0
 30
0.0
 70
   128
 71
    11
 72
    12
 73
    -2
  0
VERTEX
  5
13584E
  8
0
 10
0.0
 20
0.0
 30
0.0
 70
   128
 71
   -11
 72
     2
 73
     3
  0
VERTEX
  5
13584F
  8
0
 10
0.0
 20
0.0
 30
0.0
 70
   128
 71
     5
 72
     6
 73
   -14
  0
VERTEX
  5
135850
  8
0
 10
0.0
 20
0.0
 30
0.0
 70
   128
 71
    -5
 72
    14
 73
    13
  0
VERTEX
  5
135851
  8
0
 10
0.0
 20
0.0
 30
0.0
 70
   128
 71
    13
 72
    14
 73
   -10
  0
VERTEX
  5
135852
  8
0
 10
0.0
 20
0.0
 30
0.0
 70
   128
 71
   -13
 72
    10
 73
     9
  0
VERTEX
  5
135853
  8
0
 10
0.0
 20
0.0
 30
0.0
 70
   128
 71
     7
 72
     8
 73
   -16
  0
VERTEX
  5
135854
  8
0
 10
0.0
 20
0.0
 30
0.0
 70
   128
 71
    -7
 72
    16
 73
    15
  0
VERTEX
  5
135855
  8
0
 10
0.0
 20
0.0
 30
0.0
 70
   128
 71
    15
 72
    16
 73
    -6
  0
VERTEX
  5
135856
  8
0
 10
0.0
 20
0.0
 30
0.0
 70
   128
 71
   -15
 72
     6
 73
     5
  0
VERTEX
  5
135857
  8
0
 10
0.0
 20
0.0
 30
0.0
 70
   128
 71
     4
 72
     1
 73
   -18
  0
VERTEX
  5
135858
  8
0
 10
0.0
 20
0.0
 30
0.0
 70
   128
 71
    -4
 72
    18
 73
    17
  0
VERTEX
  5
135859
  8
0
 10
0.0
 20
0.0
 30
0.0
 70
   128
 71
    17
 72
    18
 73
    -8
  0
VERTEX
  5
13585A
  8
0
 10
0.0
 20
0.0
 30
0.0
 70
   128
 71
   -17
 72
     8
 73
     7
  0
SEQEND
  5
135E2C
  8
0
  0
POLYLINE
  5
13585B
  8
0
 66
     1
 10
0.0
 20
0.0
 30
0.0
 70
    64
 71
    32
 72
    32
  0
VERTEX
  5
13585C
  8
0
 10
-16.0
 20
10.2
 30
0.000000000000001
 70
   192
  0
VERTEX
  5
13585D
  8
0
 10
-15.23879532511286
 20
10.2
 30
-3.826834323650918
 70
   192
  0
VERTEX
  5
13585E
  8
0
 10
-13.07106781186545
 20
10.2
 30
-7.071067811865495
 70
   192
  0
VERTEX
  5
13585F
  8
0
 10
-9.826834323650871
 20
10.2
 30
-9.23879532511288
 70
   192
  0
VERTEX
  5
135860
  8
0
 10
-5.999999999999967
 20
10.2
 30
-10.0
 70
   192
  0
VERTEX
  5
135861
  8
0
 10
-2.173165676349064
 20
10.2
 30
-9.238795325112852
 70
   192
  0
VERTEX
  5
135862
  8
0
 10
1.071067811865508
 20
10.2
 30
-7.071067811865444
 70
   192
  0
VERTEX
  5
135863
  8
0
 10
3.238795325112884
 20
10.2
 30
-3.82683432365086
 70
   192
  0
VERTEX
  5
135864
  8
0
 10
4.0
 20
10.2
 30
-0.000000000000001
 70
   192
  0
VERTEX
  5
135865
  8
0
 10
3.238795325112866
 20
10.2
 30
3.8268343236509
 70
   192
  0
VERTEX
  5
135866
  8
0
 10
1.071067811865471
 20
10.2
 30
7.071067811865479
 70
   192
  0
VERTEX
  5
135867
  8
0
 10
-2.173165676349109
 20
10.2
 30
9.238795325112871
 70
   192
  0
VERTEX
  5
135868
  8
0
 10
-6.000000000000011
 20
10.2
 30
10.0
 70
   192
  0
VERTEX
  5
135869
  8
0
 10
-9.826834323650914
 20
10.2
 30
9.238795325112864
 70
   192
  0
VERTEX
  5
13586A
  8
0
 10
-13.07106781186549
 20
10.2
 30
7.071067811865465
 70
   192
  0
VERTEX
  5
13586B
  8
0
 10
-15.23879532511287
 20
10.2
 30
3.826834323650883
 70
   192
  0
VERTEX
  5
13586C
  8
0
 10
3.5
 20
10.2
 30
0.0000000000000006
 70
   192
  0
VERTEX
  5
13586D
  8
0
 10
2.77685555885722
 20
10.2
 30
-3.635492607468358
 70
   192
  0
VERTEX
  5
13586E
  8
0
 10
0.7175144212721958
 20
10.2
 30
-6.717514421272204
 70
   192
  0
VERTEX
  5
13586F
  8
0
 10
-2.364507392531655
 20
10.2
 30
-8.776855558857225
 70
   192
  0
VERTEX
  5
135870
  8
0
 10
-6.000000000000012
 20
10.2
 30
-9.5
 70
   192
  0
VERTEX
  5
135871
  8
0
 10
-9.635492607468365
 20
10.2
 30
-8.776855558857214
 70
   192
  0
VERTEX
  5
135872
  8
0
 10
-12.71751442127221
 20
10.2
 30
-6.717514421272194
 70
   192
  0
VERTEX
  5
135873
  8
0
 10
-14.77685555885723
 20
10.2
 30
-3.635492607468349
 70
   192
  0
VERTEX
  5
135874
  8
0
 10
-15.5
 20
10.2
 30
-0.0000000000000006
 70
   192
  0
VERTEX
  5
135875
  8
0
 10
-14.77685555885722
 20
10.2
 30
3.635492607468354
 70
   192
  0
VERTEX
  5
135876
  8
0
 10
-12.7175144212722
 20
10.2
 30
6.7175144212722
 70
   192
  0
VERTEX
  5
135877
  8
0
 10
-9.635492607468361
 20
10.2
 30
8.77685555885722
 70
   192
  0
VERTEX
  5
135878
  8
0
 10
-6.000000000000008
 20
10.2
 30
9.5
 70
   192
  0
VERTEX
  5
135879
  8
0
 10
-2.364507392531653
 20
10.2
 30
8.776855558857223
 70
   192
  0
VERTEX
  5
13587A
  8
0
 10
0.7175144212722002
 20
10.2
 30
6.717514421272201
 70
   192
  0
VERTEX
  5
13587B
  8
0
 10
2.776855558857219
 20
10.2
 30
3.635492607468358
 70
   192
  0
VERTEX
  5
13587C
  8
0
 10
0.0
 20
0.0
 30
0.0
 70
   128
 71
    18
 72
   -17
 73
    -9
  0
VERTEX
  5
13587D
  8
0
 10
0.0
 20
0.0
 30
0.0
 70
   128
 71
   -18
 72
     9
 73
    -8
  0
VERTEX
  5
13587E
  8
0
 10
0.0
 20
0.0
 30
0.0
 70
   128
 71
     8
 72
    -7
 73
   -19
  0
VERTEX
  5
13587F
  8
0
 10
0.0
 20
0.0
 30
0.0
 70
   128
 71
    -8
 72
    19
 73
   -18
  0
VERTEX
  5
135880
  8
0
 10
0.0
 20
0.0
 30
0.0
 70
   128
 71
     7
 72
    -6
 73
   -20
  0
VERTEX
  5
135881
  8
0
 10
0.0
 20
0.0
 30
0.0
 70
   128
 71
    -7
 72
    20
 73
   -19
  0
VERTEX
  5
135882
  8
0
 10
0.0
 20
0.0
 30
0.0
 70
   128
 71
     6
 72
    -5
 73
   -21
  0
VERTEX
  5
135883
  8
0
 10
0.0
 20
0.0
 30
0.0
 70
   128
 71
    -6
 72
    21
 73
   -20
  0
VERTEX
  5
135884
  8
0
 10
0.0
 20
0.0
 30
0.0
 70
   128
 71
     5
 72
    -4
 73
   -22
  0
VERTEX
  5
135885
  8
0
 10
0.0
 20
0.0
 30
0.0
 70
   128
 71
    -5
 72
    22
 73
   -21
  0
VERTEX
  5
135886
  8
0
 10
0.0
 20
0.0
 30
0.0
 70
   128
 71
     4
 72
    -3
 73
   -23
  0
VERTEX
  5
135887
  8
0
 10
0.0
 20
0.0
 30
0.0
 70
   128
 71
    -4
 72
    23
 73
   -22
  0
VERTEX
  5
135888
  8
0
 10
0.0
 20
0.0
 30
0.0
 70
   128
 71
     3
 72
    -2
 73
   -24
  0
VERTEX
  5
135889
  8
0
 10
0.0
 20
0.0
 30
0.0
 70
   128
 71
    -3
 72
    24
 73
   -23
  0
VERTEX
  5
13588A
  8
0
 10
0.0
 20
0.0
 30
0.0
 70
   128
 71
     2
 72
    -1
 73
   -25
  0
VERTEX
  5
13588B
  8
0
 10
0.0
 20
0.0
 30
0.0
 70
   128
 71
    -2
 72
    25
 73
   -24
  0
VERTEX
  5
13588C
  8
0
 10
0.0
 20
0.0
 30
0.0
 70
   128
 71
     1
 72
   -16
 73
   -26
  0
VERTEX
  5
13588D
  8
0
 10
0.0
 20
0.0
 30
0.0
 70
   128
 71
    -1
 72
    26
 73
   -25
  0
VERTEX
  5
13588E
  8
0
 10
0.0
 20
0.0
 30
0.0
 70
   128
 71
    16
 72
   -15
 73
   -27
  0
VERTEX
  5
13588F
  8
0
 10
0.0
 20
0.0
 30
0.0
 70
   128
 71
   -16
 72
    27
 73
   -26
  0
VERTEX
  5
135890
  8
0
 10
0.0
 20
0.0
 30
0.0
 70
   128
 71
    15
 72
   -14
 73
   -28
  0
VERTEX
  5
135891
  8
0
 10
0.0
 20
0.0
 30
0.0
 70
   128
 71
   -15
 72
    28
 73
   -27
  0
VERTEX
  5
135892
  8
0
 10
0.0
 20
0.0
 30
0.0
 70
   128
 71
    14
 72
   -13
 73
   -29
  0
VERTEX
  5
135893
  8
0
 10
0.0
 20
0.0
 30
0.0
 70
   128
 71
   -14
 72
    29
 73
   -28
  0
VERTEX
  5
135894
  8
0
 10
0.0
 20
0.0
 30
0.0
 70
   128
 71
    13
 72
   -12
 73
   -30
  0
VERTEX
  5
135895
  8
0
 10
0.0
 20
0.0
 30
0.0
 70
   128
 71
   -13
 72
    30
 73
   -29
  0
VERTEX
  5
135896
  8
0
 10
0.0
 20
0.0
 30
0.0
 70
   128
 71
    12
 72
   -11
 73
   -31
  0
VERTEX
  5
135897
  8
0
 10
0.0
 20
0.0
 30
0.0
 70
   128
 71
   -12
 72
    31
 73
   -30
  0
VERTEX
  5
135898
  8
0
 10
0.0
 20
0.0
 30
0.0
 70
   128
 71
    11
 72
   -10
 73
   -32
  0
VERTEX
  5
135899
  8
0
 10
0.0
 20
0.0
 30
0.0
 70
   128
 71
   -11
 72
    32
 73
   -31
  0
VERTEX
  5
13589A
  8
0
 10
0.0
 20
0.0
 30
0.0
 70
   128
 71
    10
 72
    -9
 73
   -17
  0
VERTEX
  5
13589B
  8
0
 10
0.0
 20
0.0
 30
0.0
 70
   128
 71
   -10
 72
    17
 73
   -32
  0
SEQEND
  5
135E2D
  8
0
  0
ENDBLK
  5
135E2A
  8
0
  0
BLOCK
  8
0
  2
*X4
 70
     1
 10
0.0
 20
0.0
 30
0.0
  3
*X4
  1

  0
POLYLINE
  5
13589D
  8
0
 66
     1
 10
0.0
 20
0.0
 30
0.0
 70
    64
 71
    18
 72
    16
  0
VERTEX
  5
13589E
  8
0
 10
-32.25
 20
10.0
 30
13.5
 70
   192
  0
VERTEX
  5
13589F
  8
0
 10
-32.25
 20
5.0
 30
13.5
 70
   192
  0
VERTEX
  5
1358A0
  8
0
 10
-22.5
 20
5.0
 30
13.5
 70
   192
  0
VERTEX
  5
1358A1
  8
0
 10
-22.5
 20
10.0
 30
13.5
 70
   192
  0
VERTEX
  5
1358A2
  8
0
 10
-22.50000000000001
 20
7.500000000000011
 30
16.00000000000001
 70
   192
  0
VERTEX
  5
1358A3
  8
0
 10
-32.25
 20
7.499999999999995
 30
16.0
 70
   192
  0
VERTEX
  5
1358A4
  8
0
 10
-22.5
 20
9.267766952966372
 30
15.26776695296637
 70
   192
  0
VERTEX
  5
1358A5
  8
0
 10
-32.25
 20
9.267766952966367
 30
15.26776695296637
 70
   192
  0
VERTEX
  5
1358A6
  8
0
 10
-22.5
 20
5.732233047033636
 30
15.26776695296638
 70
   192
  0
VERTEX
  5
1358A7
  8
0
 10
-32.25
 20
5.732233047033626
 30
15.26776695296636
 70
   192
  0
VERTEX
  5
1358A8
  8
0
 10
-22.50000000000001
 20
9.809698831278219
 30
14.45670858091272
 70
   192
  0
VERTEX
  5
1358A9
  8
0
 10
-32.25
 20
9.809698831278215
 30
14.45670858091273
 70
   192
  0
VERTEX
  5
1358AA
  8
0
 10
-22.5
 20
8.456708580912732
 30
15.80969883127821
 70
   192
  0
VERTEX
  5
1358AB
  8
0
 10
-32.25
 20
8.456708580912721
 30
15.80969883127822
 70
   192
  0
VERTEX
  5
1358AC
  8
0
 10
-22.5
 20
6.543291419087281
 30
15.80969883127822
 70
   192
  0
VERTEX
  5
1358AD
  8
0
 10
-32.25000000000001
 20
6.54329141908727
 30
15.80969883127822
 70
   192
  0
VERTEX
  5
1358AE
  8
0
 10
-32.25
 20
5.19030116872178
 30
14.45670858091272
 70
   192
  0
VERTEX
  5
1358AF
  8
0
 10
-22.5
 20
5.190301168721785
 30
14.45670858091273
 70
   192
  0
VERTEX
  5
1358B0
  8
0
 10
0.0
 20
0.0
 30
0.0
 70
   128
 71
     7
 72
     8
 73
   -12
  0
VERTEX
  5
1358B1
  8
0
 10
0.0
 20
0.0
 30
0.0
 70
   128
 71
    11
 72
    -7
 73
    12
  0
VERTEX
  5
1358B2
  8
0
 10
0.0
 20
0.0
 30
0.0
 70
   128
 71
     1
 72
     4
 73
   -11
  0
VERTEX
  5
1358B3
  8
0
 10
0.0
 20
0.0
 30
0.0
 70
   128
 71
    12
 72
    -1
 73
    11
  0
VERTEX
  5
1358B4
  8
0
 10
0.0
 20
0.0
 30
0.0
 70
   128
 71
     5
 72
     6
 73
   -14
  0
VERTEX
  5
1358B5
  8
0
 10
0.0
 20
0.0
 30
0.0
 70
   128
 71
    13
 72
    -5
 73
    14
  0
VERTEX
  5
1358B6
  8
0
 10
0.0
 20
0.0
 30
0.0
 70
   128
 71
     8
 72
     7
 73
   -13
  0
VERTEX
  5
1358B7
  8
0
 10
0.0
 20
0.0
 30
0.0
 70
   128
 71
    14
 72
    -8
 73
    13
  0
VERTEX
  5
1358B8
  8
0
 10
0.0
 20
0.0
 30
0.0
 70
   128
 71
     9
 72
    10
 73
   -16
  0
VERTEX
  5
1358B9
  8
0
 10
0.0
 20
0.0
 30
0.0
 70
   128
 71
    15
 72
    -9
 73
    16
  0
VERTEX
  5
1358BA
  8
0
 10
0.0
 20
0.0
 30
0.0
 70
   128
 71
     6
 72
     5
 73
   -15
  0
VERTEX
  5
1358BB
  8
0
 10
0.0
 20
0.0
 30
0.0
 70
   128
 71
    16
 72
    -6
 73
    15
  0
VERTEX
  5
1358BC
  8
0
 10
0.0
 20
0.0
 30
0.0
 70
   128
 71
     3
 72
     2
 73
   -17
  0
VERTEX
  5
1358BD
  8
0
 10
0.0
 20
0.0
 30
0.0
 70
   128
 71
    18
 72
    -3
 73
    17
  0
VERTEX
  5
1358BE
  8
0
 10
0.0
 20
0.0
 30
0.0
 70
   128
 71
    10
 72
     9
 73
   -18
  0
VERTEX
  5
1358BF
  8
0
 10
0.0
 20
0.0
 30
0.0
 70
   128
 71
    17
 72
   -10
 73
    18
  0
SEQEND
  5
135E30
  8
0
  0
POLYLINE
  5
1358C0
  8
0
 66
     1
 10
0.0
 20
0.0
 30
0.0
 70
    64
 71
    32
 72
    32
  0
VERTEX
  5
1358C1
  8
0
 10
-22.5
 20
10.0
 30
13.5
 70
   192
  0
VERTEX
  5
1358C2
  8
0
 10
-22.50000000000001
 20
9.809698831278219
 30
14.45670858091272
 70
   192
  0
VERTEX
  5
1358C3
  8
0
 10
-22.5
 20
9.267766952966372
 30
15.26776695296637
 70
   192
  0
VERTEX
  5
1358C4
  8
0
 10
-22.5
 20
8.456708580912732
 30
15.80969883127821
 70
   192
  0
VERTEX
  5
1358C5
  8
0
 10
-22.50000000000001
 20
7.500000000000011
 30
16.00000000000001
 70
   192
  0
VERTEX
  5
1358C6
  8
0
 10
-22.5
 20
6.543291419087281
 30
15.80969883127822
 70
   192
  0
VERTEX
  5
1358C7
  8
0
 10
-22.5
 20
5.732233047033636
 30
15.26776695296638
 70
   192
  0
VERTEX
  5
1358C8
  8
0
 10
-22.5
 20
5.190301168721785
 30
14.45670858091273
 70
   192
  0
VERTEX
  5
1358C9
  8
0
 10
-22.5
 20
5.0
 30
13.5
 70
   192
  0
VERTEX
  5
1358CA
  8
0
 10
-22.5
 20
5.190301168721783
 30
12.54329141908727
 70
   192
  0
VERTEX
  5
1358CB
  8
0
 10
-22.5
 20
5.732233047033635
 30
11.73223304703363
 70
   192
  0
VERTEX
  5
1358CC
  8
0
 10
-22.5
 20
6.543291419087283
 30
11.19030116872178
 70
   192
  0
VERTEX
  5
1358CD
  8
0
 10
-22.5
 20
7.500000000000009
 30
11.0
 70
   192
  0
VERTEX
  5
1358CE
  8
0
 10
-22.5
 20
8.456708580912734
 30
11.19030116872178
 70
   192
  0
VERTEX
  5
1358CF
  8
0
 10
-22.5
 20
9.267766952966376
 30
11.73223304703364
 70
   192
  0
VERTEX
  5
1358D0
  8
0
 10
-22.5
 20
9.809698831278219
 30
12.54329141908729
 70
   192
  0
VERTEX
  5
1358D1
  8
0
 10
-22.5
 20
9.75
 30
13.5
 70
   192
  0
VERTEX
  5
1358D2
  8
0
 10
-22.5
 20
9.578728948150394
 30
12.63896227717855
 70
   192
  0
VERTEX
  5
1358D3
  8
0
 10
-22.5
 20
9.09099025766973
 30
11.90900974233027
 70
   192
  0
VERTEX
  5
1358D4
  8
0
 10
-22.5
 20
8.361037722821452
 30
11.42127105184961
 70
   192
  0
VERTEX
  5
1358D5
  8
0
 10
-22.5
 20
7.5
 30
11.25
 70
   192
  0
VERTEX
  5
1358D6
  8
0
 10
-22.5
 20
6.638962277178547
 30
11.4212710518496
 70
   192
  0
VERTEX
  5
1358D7
  8
0
 10
-22.5
 20
5.909009742330269
 30
11.90900974233027
 70
   192
  0
VERTEX
  5
1358D8
  8
0
 10
-22.5
 20
5.421271051849605
 30
12.63896227717855
 70
   192
  0
VERTEX
  5
1358D9
  8
0
 10
-22.5
 20
5.25
 30
13.5
 70
   192
  0
VERTEX
  5
1358DA
  8
0
 10
-22.5
 20
5.421271051849605
 30
14.36103772282145
 70
   192
  0
VERTEX
  5
1358DB
  8
0
 10
-22.5
 20
5.909009742330269
 30
15.09099025766973
 70
   192
  0
VERTEX
  5
1358DC
  8
0
 10
-22.5
 20
6.638962277178545
 30
15.5787289481504
 70
   192
  0
VERTEX
  5
1358DD
  8
0
 10
-22.5
 20
7.499999999999996
 30
15.75
 70
   192
  0
VERTEX
  5
1358DE
  8
0
 10
-22.50000000000001
 20
8.36103772282145
 30
15.5787289481504
 70
   192
  0
VERTEX
  5
1358DF
  8
0
 10
-22.50000000000001
 20
9.090990257669729
 30
15.09099025766973
 70
   192
  0
VERTEX
  5
1358E0
  8
0
 10
-22.5
 20
9.578728948150395
 30
14.36103772282145
 70
   192
  0
VERTEX
  5
1358E1
  8
0
 10
0.0
 20
0.0
 30
0.0
 70
   128
 71
    18
 72
   -17
 73
    -1
  0
VERTEX
  5
1358E2
  8
0
 10
0.0
 20
0.0
 30
0.0
 70
   128
 71
   -18
 72
     1
 73
   -16
  0
VERTEX
  5
1358E3
  8
0
 10
0.0
 20
0.0
 30
0.0
 70
   128
 71
    16
 72
   -15
 73
   -19
  0
VERTEX
  5
1358E4
  8
0
 10
0.0
 20
0.0
 30
0.0
 70
   128
 71
   -16
 72
    19
 73
   -18
  0
VERTEX
  5
1358E5
  8
0
 10
0.0
 20
0.0
 30
0.0
 70
   128
 71
    15
 72
   -14
 73
   -20
  0
VERTEX
  5
1358E6
  8
0
 10
0.0
 20
0.0
 30
0.0
 70
   128
 71
   -15
 72
    20
 73
   -19
  0
VERTEX
  5
1358E7
  8
0
 10
0.0
 20
0.0
 30
0.0
 70
   128
 71
    14
 72
   -13
 73
   -21
  0
VERTEX
  5
1358E8
  8
0
 10
0.0
 20
0.0
 30
0.0
 70
   128
 71
   -14
 72
    21
 73
   -20
  0
VERTEX
  5
1358E9
  8
0
 10
0.0
 20
0.0
 30
0.0
 70
   128
 71
    13
 72
   -12
 73
   -22
  0
VERTEX
  5
1358EA
  8
0
 10
0.0
 20
0.0
 30
0.0
 70
   128
 71
   -13
 72
    22
 73
   -21
  0
VERTEX
  5
1358EB
  8
0
 10
0.0
 20
0.0
 30
0.0
 70
   128
 71
    12
 72
   -11
 73
   -23
  0
VERTEX
  5
1358EC
  8
0
 10
0.0
 20
0.0
 30
0.0
 70
   128
 71
   -12
 72
    23
 73
   -22
  0
VERTEX
  5
1358ED
  8
0
 10
0.0
 20
0.0
 30
0.0
 70
   128
 71
    11
 72
   -10
 73
   -24
  0
VERTEX
  5
1358EE
  8
0
 10
0.0
 20
0.0
 30
0.0
 70
   128
 71
   -11
 72
    24
 73
   -23
  0
VERTEX
  5
1358EF
  8
0
 10
0.0
 20
0.0
 30
0.0
 70
   128
 71
    10
 72
    -9
 73
   -25
  0
VERTEX
  5
1358F0
  8
0
 10
0.0
 20
0.0
 30
0.0
 70
   128
 71
   -10
 72
    25
 73
   -24
  0
VERTEX
  5
1358F1
  8
0
 10
0.0
 20
0.0
 30
0.0
 70
   128
 71
     9
 72
    -8
 73
   -26
  0
VERTEX
  5
1358F2
  8
0
 10
0.0
 20
0.0
 30
0.0
 70
   128
 71
    -9
 72
    26
 73
   -25
  0
VERTEX
  5
1358F3
  8
0
 10
0.0
 20
0.0
 30
0.0
 70
   128
 71
     8
 72
    -7
 73
   -27
  0
VERTEX
  5
1358F4
  8
0
 10
0.0
 20
0.0
 30
0.0
 70
   128
 71
    -8
 72
    27
 73
   -26
  0
VERTEX
  5
1358F5
  8
0
 10
0.0
 20
0.0
 30
0.0
 70
   128
 71
     7
 72
    -6
 73
   -28
  0
VERTEX
  5
1358F6
  8
0
 10
0.0
 20
0.0
 30
0.0
 70
   128
 71
    -7
 72
    28
 73
   -27
  0
VERTEX
  5
1358F7
  8
0
 10
0.0
 20
0.0
 30
0.0
 70
   128
 71
     6
 72
    -5
 73
   -29
  0
VERTEX
  5
1358F8
  8
0
 10
0.0
 20
0.0
 30
0.0
 70
   128
 71
    -6
 72
    29
 73
   -28
  0
VERTEX
  5
1358F9
  8
0
 10
0.0
 20
0.0
 30
0.0
 70
   128
 71
     5
 72
    -4
 73
   -30
  0
VERTEX
  5
1358FA
  8
0
 10
0.0
 20
0.0
 30
0.0
 70
   128
 71
    -5
 72
    30
 73
   -29
  0
VERTEX
  5
1358FB
  8
0
 10
0.0
 20
0.0
 30
0.0
 70
   128
 71
     4
 72
    -3
 73
   -31
  0
VERTEX
  5
1358FC
  8
0
 10
0.0
 20
0.0
 30
0.0
 70
   128
 71
    -4
 72
    31
 73
   -30
  0
VERTEX
  5
1358FD
  8
0
 10
0.0
 20
0.0
 30
0.0
 70
   128
 71
     3
 72
    -2
 73
   -32
  0
VERTEX
  5
1358FE
  8
0
 10
0.0
 20
0.0
 30
0.0
 70
   128
 71
    -3
 72
    32
 73
   -31
  0
VERTEX
  5
1358FF
  8
0
 10
0.0
 20
0.0
 30
0.0
 70
   128
 71
     2
 72
    -1
 73
   -17
  0
VERTEX
  5
135900
  8
0
 10
0.0
 20
0.0
 30
0.0
 70
   128
 71
    -2
 72
    17
 73
   -32
  0
SEQEND
  5
135E31
  8
0
  0
POLYLINE
  5
135901
  8
0
 66
     1
 10
0.0
 20
0.0
 30
0.0
 70
    64
 71
    18
 72
    16
  0
VERTEX
  5
135902
  8
0
 10
-32.25
 20
5.0
 30
13.5
 70
   192
  0
VERTEX
  5
135903
  8
0
 10
-32.25
 20
10.0
 30
13.5
 70
   192
  0
VERTEX
  5
135904
  8
0
 10
-22.5
 20
10.0
 30
13.5
 70
   192
  0
VERTEX
  5
135905
  8
0
 10
-22.5
 20
5.0
 30
13.5
 70
   192
  0
VERTEX
  5
135906
  8
0
 10
-22.5
 20
7.500000000000009
 30
11.0
 70
   192
  0
VERTEX
  5
135907
  8
0
 10
-32.25
 20
7.500000000000009
 30
11.0
 70
   192
  0
VERTEX
  5
135908
  8
0
 10
-22.5
 20
5.732233047033635
 30
11.73223304703363
 70
   192
  0
VERTEX
  5
135909
  8
0
 10
-32.25
 20
5.732233047033635
 30
11.73223304703363
 70
   192
  0
VERTEX
  5
13590A
  8
0
 10
-22.5
 20
9.267766952966376
 30
11.73223304703364
 70
   192
  0
VERTEX
  5
13590B
  8
0
 10
-32.25
 20
9.267766952966376
 30
11.73223304703364
 70
   192
  0
VERTEX
  5
13590C
  8
0
 10
-22.5
 20
5.190301168721783
 30
12.54329141908727
 70
   192
  0
VERTEX
  5
13590D
  8
0
 10
-32.25
 20
5.190301168721783
 30
12.54329141908727
 70
   192
  0
VERTEX
  5
13590E
  8
0
 10
-32.25
 20
6.543291419087283
 30
11.19030116872178
 70
   192
  0
VERTEX
  5
13590F
  8
0
 10
-22.5
 20
6.543291419087283
 30
11.19030116872178
 70
   192
  0
VERTEX
  5
135910
  8
0
 10
-32.25
 20
8.456708580912734
 30
11.19030116872178
 70
   192
  0
VERTEX
  5
135911
  8
0
 10
-22.5
 20
8.456708580912734
 30
11.19030116872178
 70
   192
  0
VERTEX
  5
135912
  8
0
 10
-32.25
 20
9.809698831278219
 30
12.54329141908729
 70
   192
  0
VERTEX
  5
135913
  8
0
 10
-22.5
 20
9.809698831278219
 30
12.54329141908729
 70
   192
  0
VERTEX
  5
135914
  8
0
 10
0.0
 20
0.0
 30
0.0
 70
   128
 71
     1
 72
     4
 73
   -11
  0
VERTEX
  5
135915
  8
0
 10
0.0
 20
0.0
 30
0.0
 70
   128
 71
    12
 72
    -1
 73
    11
  0
VERTEX
  5
135916
  8
0
 10
0.0
 20
0.0
 30
0.0
 70
   128
 71
     7
 72
     8
 73
   -12
  0
VERTEX
  5
135917
  8
0
 10
0.0
 20
0.0
 30
0.0
 70
   128
 71
    11
 72
    -7
 73
    12
  0
VERTEX
  5
135918
  8
0
 10
0.0
 20
0.0
 30
0.0
 70
   128
 71
     8
 72
     7
 73
   -14
  0
VERTEX
  5
135919
  8
0
 10
0.0
 20
0.0
 30
0.0
 70
   128
 71
    13
 72
    -8
 73
    14
  0
VERTEX
  5
13591A
  8
0
 10
0.0
 20
0.0
 30
0.0
 70
   128
 71
     5
 72
     6
 73
   -13
  0
VERTEX
  5
13591B
  8
0
 10
0.0
 20
0.0
 30
0.0
 70
   128
 71
    14
 72
    -5
 73
    13
  0
VERTEX
  5
13591C
  8
0
 10
0.0
 20
0.0
 30
0.0
 70
   128
 71
     6
 72
     5
 73
   -16
  0
VERTEX
  5
13591D
  8
0
 10
0.0
 20
0.0
 30
0.0
 70
   128
 71
    15
 72
    -6
 73
    16
  0
VERTEX
  5
13591E
  8
0
 10
0.0
 20
0.0
 30
0.0
 70
   128
 71
     9
 72
    10
 73
   -15
  0
VERTEX
  5
13591F
  8
0
 10
0.0
 20
0.0
 30
0.0
 70
   128
 71
    16
 72
    -9
 73
    15
  0
VERTEX
  5
135920
  8
0
 10
0.0
 20
0.0
 30
0.0
 70
   128
 71
    10
 72
     9
 73
   -18
  0
VERTEX
  5
135921
  8
0
 10
0.0
 20
0.0
 30
0.0
 70
   128
 71
    17
 72
   -10
 73
    18
  0
VERTEX
  5
135922
  8
0
 10
0.0
 20
0.0
 30
0.0
 70
   128
 71
     3
 72
     2
 73
   -17
  0
VERTEX
  5
135923
  8
0
 10
0.0
 20
0.0
 30
0.0
 70
   128
 71
    18
 72
    -3
 73
    17
  0
SEQEND
  5
135E32
  8
0
  0
ENDBLK
  5
135E2F
  8
0
  0
BLOCK
  8
0
  2
*X5
 70
     1
 10
0.0
 20
0.0
 30
0.0
  3
*X5
  1

  0
POLYLINE
  5
135925
  8
0
 66
     1
 10
0.0
 20
0.0
 30
0.0
 70
    64
 71
    18
 72
    16
  0
VERTEX
  5
135926
  8
0
 10
-29.34775906502258
 20
0.2500000000000002
 30
3.23463313526982
 70
   192
  0
VERTEX
  5
135927
  8
0
 10
-28.99989425764356
 20
2.695424476532488
 30
2.677004453564616
 70
   192
  0
VERTEX
  5
135928
  8
0
 10
-29.38120087060012
 20
3.116511829874109
 30
3.320968863413956
 70
   192
  0
VERTEX
  5
135929
  8
0
 10
-29.5
 20
0.25
 30
4.0
 70
   192
  0
VERTEX
  5
13592A
  8
0
 10
-29.5
 20
3.725082782365
 30
4.0
 70
   192
  0
VERTEX
  5
13592B
  8
0
 10
-28.91421356237309
 20
0.2500000000000002
 30
2.585786437626904
 70
   192
  0
VERTEX
  5
13592C
  8
0
 10
-28.36348657680439
 20
2.456643106068776
 30
2.196006947996019
 70
   192
  0
VERTEX
  5
13592D
  8
0
 10
-28.26536686473018
 20
0.2500000000000002
 30
2.152240934977426
 70
   192
  0
VERTEX
  5
13592E
  8
0
 10
-27.49999999999999
 20
0.2500000000000002
 30
2.0
 70
   192
  0
VERTEX
  5
13592F
  8
0
 10
-27.50484822506768
 20
2.376455008673671
 30
2.00000587633021
 70
   192
  0
VERTEX
  5
135930
  8
0
 10
-26.73463313526982
 20
0.2500000000000002
 30
2.152240934977428
 70
   192
  0
VERTEX
  5
135931
  8
0
 10
-26.0857864376269
 20
0.2500000000000002
 30
2.585786437626908
 70
   192
  0
VERTEX
  5
135932
  8
0
 10
-26.66012122827442
 20
2.452520177630424
 30
2.184895692031797
 70
   192
  0
VERTEX
  5
135933
  8
0
 10
-25.5
 20
0.25
 30
4.0
 70
   192
  0
VERTEX
  5
135934
  8
0
 10
-25.5
 20
3.725082782365
 30
4.0
 70
   192
  0
VERTEX
  5
135935
  8
0
 10
-25.62022379911563
 20
3.113555780599772
 30
3.317034821832978
 70
   192
  0
VERTEX
  5
135936
  8
0
 10
-26.00620409205693
 20
2.691591104603871
 30
2.670122642717556
 70
   192
  0
VERTEX
  5
135937
  8
0
 10
-25.65224093497742
 20
0.2500000000000002
 30
3.234633135269823
 70
   192
  0
VERTEX
  5
135938
  8
0
 10
0.0
 20
0.0
 30
0.0
 70
   128
 71
     1
 72
     2
 73
     3
  0
VERTEX
  5
135939
  8
0
 10
0.0
 20
0.0
 30
0.0
 70
   128
 71
     4
 72
     1
 73
     3
  0
VERTEX
  5
13593A
  8
0
 10
0.0
 20
0.0
 30
0.0
 70
   128
 71
     3
 72
     5
 73
     4
  0
VERTEX
  5
13593B
  8
0
 10
0.0
 20
0.0
 30
0.0
 70
   128
 71
     1
 72
     6
 73
     2
  0
VERTEX
  5
13593C
  8
0
 10
0.0
 20
0.0
 30
0.0
 70
   128
 71
     7
 72
     8
 73
     9
  0
VERTEX
  5
13593D
  8
0
 10
0.0
 20
0.0
 30
0.0
 70
   128
 71
    10
 72
     7
 73
     9
  0
VERTEX
  5
13593E
  8
0
 10
0.0
 20
0.0
 30
0.0
 70
   128
 71
    11
 72
    12
 73
    13
  0
VERTEX
  5
13593F
  8
0
 10
0.0
 20
0.0
 30
0.0
 70
   128
 71
    14
 72
    15
 73
    16
  0
VERTEX
  5
135940
  8
0
 10
0.0
 20
0.0
 30
0.0
 70
   128
 71
    17
 72
    18
 73
    14
  0
VERTEX
  5
135941
  8
0
 10
0.0
 20
0.0
 30
0.0
 70
   128
 71
    16
 72
    17
 73
    14
  0
VERTEX
  5
135942
  8
0
 10
0.0
 20
0.0
 30
0.0
 70
   128
 71
     8
 72
     7
 73
     2
  0
VERTEX
  5
135943
  8
0
 10
0.0
 20
0.0
 30
0.0
 70
   128
 71
     6
 72
     8
 73
     2
  0
VERTEX
  5
135944
  8
0
 10
0.0
 20
0.0
 30
0.0
 70
   128
 71
    11
 72
    13
 73
    10
  0
VERTEX
  5
135945
  8
0
 10
0.0
 20
0.0
 30
0.0
 70
   128
 71
     9
 72
    11
 73
    10
  0
VERTEX
  5
135946
  8
0
 10
0.0
 20
0.0
 30
0.0
 70
   128
 71
    18
 72
    17
 73
    13
  0
VERTEX
  5
135947
  8
0
 10
0.0
 20
0.0
 30
0.0
 70
   128
 71
    12
 72
    18
 73
    13
  0
SEQEND
  5
135E35
  8
0
  0
POLYLINE
  5
135948
  8
0
 66
     1
 10
0.0
 20
0.0
 30
0.0
 70
    64
 71
    20
 72
    18
  0
VERTEX
  5
135949
  8
0
 10
-25.65224093497743
 20
0.2500000000000002
 30
4.765366864730184
 70
   192
  0
VERTEX
  5
13594A
  8
0
 10
-25.60278018991357
 20
4.535215537025918
 30
4.632580962076008
 70
   192
  0
VERTEX
  5
13594B
  8
0
 10
-25.52767575995931
 20
4.110243131147585
 30
4.331304273386256
 70
   192
  0
VERTEX
  5
13594C
  8
0
 10
-25.5
 20
3.725082782365
 30
4.0
 70
   192
  0
VERTEX
  5
13594D
  8
0
 10
-25.5
 20
0.25
 30
4.0
 70
   192
  0
VERTEX
  5
13594E
  8
0
 10
-26.08578643762691
 20
0.2500000000000002
 30
5.414213562373099
 70
   192
  0
VERTEX
  5
13594F
  8
0
 10
-27.50000000000001
 20
0.2500000000000002
 30
6.0
 70
   192
  0
VERTEX
  5
135950
  8
0
 10
-27.50000000000081
 20
5.0
 30
6.0
 70
   192
  0
VERTEX
  5
135951
  8
0
 10
-26.45070475345046
 20
5.0
 30
5.70263897687341
 70
   192
  0
VERTEX
  5
135952
  8
0
 10
-26.73463313526983
 20
0.2500000000000002
 30
5.847759065022576
 70
   192
  0
VERTEX
  5
135953
  8
0
 10
-28.26536686473019
 20
0.2500000000000002
 30
5.84775906502257
 70
   192
  0
VERTEX
  5
135954
  8
0
 10
-28.54929524655093
 20
5.0
 30
5.702638976872559
 70
   192
  0
VERTEX
  5
135955
  8
0
 10
-28.9142135623731
 20
0.2500000000000002
 30
5.414213562373089
 70
   192
  0
VERTEX
  5
135956
  8
0
 10
-29.39721981008266
 20
4.535215537039251
 30
4.632580962087805
 70
   192
  0
VERTEX
  5
135957
  8
0
 10
-29.28657098502305
 20
5.0
 30
4.89897948556664
 70
   192
  0
VERTEX
  5
135958
  8
0
 10
-29.34775906502258
 20
0.2500000000000002
 30
4.765366864730172
 70
   192
  0
VERTEX
  5
135959
  8
0
 10
-29.5
 20
0.25
 30
4.0
 70
   192
  0
VERTEX
  5
13595A
  8
0
 10
-29.5
 20
3.725082782365
 30
4.0
 70
   192
  0
VERTEX
  5
13595B
  8
0
 10
-29.47232424003877
 20
4.110243131160918
 30
4.3313042733987
 70
   192
  0
VERTEX
  5
13595C
  8
0
 10
-25.7134290149773
 20
5.0
 30
4.89897948556736
 70
   192
  0
VERTEX
  5
13595D
  8
0
 10
0.0
 20
0.0
 30
0.0
 70
   128
 71
     1
 72
     2
 73
     3
  0
VERTEX
  5
13595E
  8
0
 10
0.0
 20
0.0
 30
0.0
 70
   128
 71
     4
 72
     5
 73
     1
  0
VERTEX
  5
13595F
  8
0
 10
0.0
 20
0.0
 30
0.0
 70
   128
 71
     3
 72
     4
 73
     1
  0
VERTEX
  5
135960
  8
0
 10
0.0
 20
0.0
 30
0.0
 70
   128
 71
     1
 72
     6
 73
     2
  0
VERTEX
  5
135961
  8
0
 10
0.0
 20
0.0
 30
0.0
 70
   128
 71
     7
 72
     8
 73
     9
  0
VERTEX
  5
135962
  8
0
 10
0.0
 20
0.0
 30
0.0
 70
   128
 71
    10
 72
     7
 73
     9
  0
VERTEX
  5
135963
  8
0
 10
0.0
 20
0.0
 30
0.0
 70
   128
 71
     8
 72
     7
 73
    11
  0
VERTEX
  5
135964
  8
0
 10
0.0
 20
0.0
 30
0.0
 70
   128
 71
    12
 72
     8
 73
    11
  0
VERTEX
  5
135965
  8
0
 10
0.0
 20
0.0
 30
0.0
 70
   128
 71
    11
 72
    13
 73
    12
  0
VERTEX
  5
135966
  8
0
 10
0.0
 20
0.0
 30
0.0
 70
   128
 71
    14
 72
    15
 73
    16
  0
VERTEX
  5
135967
  8
0
 10
0.0
 20
0.0
 30
0.0
 70
   128
 71
    17
 72
    18
 73
    19
  0
VERTEX
  5
135968
  8
0
 10
0.0
 20
0.0
 30
0.0
 70
   128
 71
    16
 72
    17
 73
    19
  0
VERTEX
  5
135969
  8
0
 10
0.0
 20
0.0
 30
0.0
 70
   128
 71
    19
 72
    14
 73
    16
  0
VERTEX
  5
13596A
  8
0
 10
0.0
 20
0.0
 30
0.0
 70
   128
 71
     9
 72
    20
 73
     2
  0
VERTEX
  5
13596B
  8
0
 10
0.0
 20
0.0
 30
0.0
 70
   128
 71
    10
 72
     9
 73
     2
  0
VERTEX
  5
13596C
  8
0
 10
0.0
 20
0.0
 30
0.0
 70
   128
 71
     6
 72
    10
 73
     2
  0
VERTEX
  5
13596D
  8
0
 10
0.0
 20
0.0
 30
0.0
 70
   128
 71
    16
 72
    15
 73
    12
  0
VERTEX
  5
13596E
  8
0
 10
0.0
 20
0.0
 30
0.0
 70
   128
 71
    13
 72
    16
 73
    12
  0
SEQEND
  5
135E36
  8
0
  0
POLYLINE
  5
13596F
  8
0
 66
     1
 10
0.0
 20
0.0
 30
0.0
 70
    64
 71
    10
 72
     8
  0
VERTEX
  5
135970
  8
0
 10
-28.88359527482995
 20
5.0
 30
4.89897948556597
 70
   192
  0
VERTEX
  5
135971
  8
0
 10
-28.28714161648862
 20
5.0
 30
5.450140708894034
 70
   192
  0
VERTEX
  5
135972
  8
0
 10
-27.50000000000028
 20
5.0
 30
5.650000000000002
 70
   192
  0
VERTEX
  5
135973
  8
0
 10
-26.71285838351187
 20
5.0
 30
5.450140708894297
 70
   192
  0
VERTEX
  5
135974
  8
0
 10
-26.1164047251702
 20
5.0
 30
4.89897948556619
 70
   192
  0
VERTEX
  5
135975
  8
0
 10
-25.7134290149773
 20
5.0
 30
4.89897948556736
 70
   192
  0
VERTEX
  5
135976
  8
0
 10
-26.45070475345046
 20
5.0
 30
5.70263897687341
 70
   192
  0
VERTEX
  5
135977
  8
0
 10
-27.50000000000081
 20
5.0
 30
6.0
 70
   192
  0
VERTEX
  5
135978
  8
0
 10
-28.54929524655093
 20
5.0
 30
5.702638976872559
 70
   192
  0
VERTEX
  5
135979
  8
0
 10
-29.28657098502305
 20
5.0
 30
4.89897948556664
 70
   192
  0
VERTEX
  5
13597A
  8
0
 10
0.0
 20
0.0
 30
0.0
 70
   128
 71
    10
 72
     1
 73
    -2
  0
VERTEX
  5
13597B
  8
0
 10
0.0
 20
0.0
 30
0.0
 70
   128
 71
     9
 72
   -10
 73
    -2
  0
VERTEX
  5
13597C
  8
0
 10
0.0
 20
0.0
 30
0.0
 70
   128
 71
    -3
 72
     8
 73
    -9
  0
VERTEX
  5
13597D
  8
0
 10
0.0
 20
0.0
 30
0.0
 70
   128
 71
     2
 72
    -3
 73
    -9
  0
VERTEX
  5
13597E
  8
0
 10
0.0
 20
0.0
 30
0.0
 70
   128
 71
    -4
 72
     7
 73
    -8
  0
VERTEX
  5
13597F
  8
0
 10
0.0
 20
0.0
 30
0.0
 70
   128
 71
     3
 72
    -4
 73
    -8
  0
VERTEX
  5
135980
  8
0
 10
0.0
 20
0.0
 30
0.0
 70
   128
 71
     5
 72
     6
 73
    -7
  0
VERTEX
  5
135981
  8
0
 10
0.0
 20
0.0
 30
0.0
 70
   128
 71
     4
 72
    -5
 73
    -7
  0
SEQEND
  5
135E37
  8
0
  0
ENDBLK
  5
135E34
  8
0
  0
BLOCK
  8
0
  2
*X6
 70
     1
 10
0.0
 20
0.0
 30
0.0
  3
*X6
  1

  0
POLYLINE
  5
135983
  8
0
 66
     1
 10
0.0
 20
0.0
 30
0.0
 70
    64
 71
    20
 72
    20
  0
VERTEX
  5
135984
  8
0
 10
-42.0
 20
33.5
 30
25.5
 70
   192
  0
VERTEX
  5
135985
  8
0
 10
-42.0
 20
33.43301270189222
 30
25.75
 70
   192
  0
VERTEX
  5
135986
  8
0
 10
-42.0
 20
33.25
 30
25.93301270189222
 70
   192
  0
VERTEX
  5
135987
  8
0
 10
-42.0
 20
33.0
 30
26.0
 70
   192
  0
VERTEX
  5
135988
  8
0
 10
-42.0
 20
-18.0
 30
26.0
 70
   192
  0
VERTEX
  5
135989
  8
0
 10
-42.0
 20
-18.25
 30
25.93301270189222
 70
   192
  0
VERTEX
  5
13598A
  8
0
 10
-42.0
 20
-18.43301270189222
 30
25.75
 70
   192
  0
VERTEX
  5
13598B
  8
0
 10
-42.0
 20
-18.5
 30
25.5
 70
   192
  0
VERTEX
  5
13598C
  8
0
 10
-42.0
 20
-18.5
 30
-25.5
 70
   192
  0
VERTEX
  5
13598D
  8
0
 10
-42.0
 20
-18.43301270189222
 30
-25.75
 70
   192
  0
VERTEX
  5
13598E
  8
0
 10
-42.0
 20
-18.25
 30
-25.93301270189222
 70
   192
  0
VERTEX
  5
13598F
  8
0
 10
-42.0
 20
-18.0
 30
-26.0
 70
   192
  0
VERTEX
  5
135990
  8
0
 10
-42.0
 20
33.0
 30
-26.0
 70
   192
  0
VERTEX
  5
135991
  8
0
 10
-42.0
 20
33.25
 30
-25.93301270189222
 70
   192
  0
VERTEX
  5
135992
  8
0
 10
-42.0
 20
33.43301270189222
 30
-25.75
 70
   192
  0
VERTEX
  5
135993
  8
0
 10
-42.0
 20
33.5
 30
-25.5
 70
   192
  0
VERTEX
  5
135994
  8
0
 10
-42.0
 20
-17.8
 30
25.3
 70
   192
  0
VERTEX
  5
135995
  8
0
 10
-42.0
 20
32.8
 30
25.3
 70
   192
  0
VERTEX
  5
135996
  8
0
 10
-42.0
 20
32.8
 30
-25.3
 70
   192
  0
VERTEX
  5
135997
  8
0
 10
-42.0
 20
-17.8
 30
-25.3
 70
   192
  0
VERTEX
  5
135998
  8
0
 10
0.0
 20
0.0
 30
0.0
 70
   128
 71
    18
 72
   -17
 73
    -6
  0
VERTEX
  5
135999
  8
0
 10
0.0
 20
0.0
 30
0.0
 70
   128
 71
   -18
 72
     6
 73
    -5
  0
VERTEX
  5
13599A
  8
0
 10
0.0
 20
0.0
 30
0.0
 70
   128
 71
   -18
 72
     5
 73
    -4
  0
VERTEX
  5
13599B
  8
0
 10
0.0
 20
0.0
 30
0.0
 70
   128
 71
   -18
 72
     4
 73
    -3
  0
VERTEX
  5
13599C
  8
0
 10
0.0
 20
0.0
 30
0.0
 70
   128
 71
   -18
 72
     3
 73
    -2
  0
VERTEX
  5
13599D
  8
0
 10
0.0
 20
0.0
 30
0.0
 70
   128
 71
     2
 72
     1
 73
   -16
  0
VERTEX
  5
13599E
  8
0
 10
0.0
 20
0.0
 30
0.0
 70
   128
 71
    -2
 72
    16
 73
   -15
  0
VERTEX
  5
13599F
  8
0
 10
0.0
 20
0.0
 30
0.0
 70
   128
 71
    -2
 72
   -15
 73
   -19
  0
VERTEX
  5
1359A0
  8
0
 10
0.0
 20
0.0
 30
0.0
 70
   128
 71
    -2
 72
    19
 73
   -18
  0
VERTEX
  5
1359A1
  8
0
 10
0.0
 20
0.0
 30
0.0
 70
   128
 71
    15
 72
    14
 73
   -13
  0
VERTEX
  5
1359A2
  8
0
 10
0.0
 20
0.0
 30
0.0
 70
   128
 71
   -15
 72
    13
 73
   -12
  0
VERTEX
  5
1359A3
  8
0
 10
0.0
 20
0.0
 30
0.0
 70
   128
 71
   -15
 72
    12
 73
   -11
  0
VERTEX
  5
1359A4
  8
0
 10
0.0
 20
0.0
 30
0.0
 70
   128
 71
   -15
 72
    11
 73
   -10
  0
VERTEX
  5
1359A5
  8
0
 10
0.0
 20
0.0
 30
0.0
 70
   128
 71
   -15
 72
   -10
 73
   -20
  0
VERTEX
  5
1359A6
  8
0
 10
0.0
 20
0.0
 30
0.0
 70
   128
 71
   -15
 72
    20
 73
   -19
  0
VERTEX
  5
1359A7
  8
0
 10
0.0
 20
0.0
 30
0.0
 70
   128
 71
    10
 72
     9
 73
    -8
  0
VERTEX
  5
1359A8
  8
0
 10
0.0
 20
0.0
 30
0.0
 70
   128
 71
   -10
 72
     8
 73
    -7
  0
VERTEX
  5
1359A9
  8
0
 10
0.0
 20
0.0
 30
0.0
 70
   128
 71
   -10
 72
     7
 73
    -6
  0
VERTEX
  5
1359AA
  8
0
 10
0.0
 20
0.0
 30
0.0
 70
   128
 71
   -10
 72
    -6
 73
   -17
  0
VERTEX
  5
1359AB
  8
0
 10
0.0
 20
0.0
 30
0.0
 70
   128
 71
   -10
 72
    17
 73
   -20
  0
SEQEND
  5
135E3A
  8
0
  0
POLYLINE
  5
1359AC
  8
0
 66
     1
 10
0.0
 20
0.0
 30
0.0
 70
    64
 71
     4
 72
     2
  0
VERTEX
  5
1359AD
  8
0
 10
-42.0
 20
32.8
 30
25.3
 70
   192
  0
VERTEX
  5
1359AE
  8
0
 10
-42.0
 20
-17.8
 30
25.3
 70
   192
  0
VERTEX
  5
1359AF
  8
0
 10
-33.2
 20
-17.8
 30
25.3
 70
   192
  0
VERTEX
  5
1359B0
  8
0
 10
-33.2
 20
32.8
 30
25.3
 70
   192
  0
VERTEX
  5
1359B1
  8
0
 10
0.0
 20
0.0
 30
0.0
 70
   128
 71
     1
 72
     4
 73
    -3
  0
VERTEX
  5
1359B2
  8
0
 10
0.0
 20
0.0
 30
0.0
 70
   128
 71
    -1
 72
     3
 73
     2
  0
SEQEND
  5
135E3B
  8
0
  0
POLYLINE
  5
1359B3
  8
0
 66
     1
 10
0.0
 20
0.0
 30
0.0
 70
    64
 71
     4
 72
     2
  0
VERTEX
  5
1359B4
  8
0
 10
-42.0
 20
-17.8
 30
25.3
 70
   192
  0
VERTEX
  5
1359B5
  8
0
 10
-42.0
 20
-17.8
 30
-25.3
 70
   192
  0
VERTEX
  5
1359B6
  8
0
 10
-33.2
 20
-17.8
 30
-25.3
 70
   192
  0
VERTEX
  5
1359B7
  8
0
 10
-33.2
 20
-17.8
 30
25.3
 70
   192
  0
VERTEX
  5
1359B8
  8
0
 10
0.0
 20
0.0
 30
0.0
 70
   128
 71
     1
 72
     4
 73
    -3
  0
VERTEX
  5
1359B9
  8
0
 10
0.0
 20
0.0
 30
0.0
 70
   128
 71
    -1
 72
     3
 73
     2
  0
SEQEND
  5
135E3C
  8
0
  0
POLYLINE
  5
1359BA
  8
0
 66
     1
 10
0.0
 20
0.0
 30
0.0
 70
    64
 71
     4
 72
     2
  0
VERTEX
  5
1359BB
  8
0
 10
-42.0
 20
-17.8
 30
-25.3
 70
   192
  0
VERTEX
  5
1359BC
  8
0
 10
-42.0
 20
32.8
 30
-25.3
 70
   192
  0
VERTEX
  5
1359BD
  8
0
 10
-33.2
 20
32.8
 30
-25.3
 70
   192
  0
VERTEX
  5
1359BE
  8
0
 10
-33.2
 20
-17.8
 30
-25.3
 70
   192
  0
VERTEX
  5
1359BF
  8
0
 10
0.0
 20
0.0
 30
0.0
 70
   128
 71
     1
 72
     4
 73
    -3
  0
VERTEX
  5
1359C0
  8
0
 10
0.0
 20
0.0
 30
0.0
 70
   128
 71
    -1
 72
     3
 73
     2
  0
SEQEND
  5
135E3D
  8
0
  0
POLYLINE
  5
1359C1
  8
0
 66
     1
 10
0.0
 20
0.0
 30
0.0
 70
    64
 71
     4
 72
     2
  0
VERTEX
  5
1359C2
  8
0
 10
-42.0
 20
32.8
 30
-25.3
 70
   192
  0
VERTEX
  5
1359C3
  8
0
 10
-42.0
 20
32.8
 30
25.3
 70
   192
  0
VERTEX
  5
1359C4
  8
0
 10
-33.2
 20
32.8
 30
25.3
 70
   192
  0
VERTEX
  5
1359C5
  8
0
 10
-33.2
 20
32.8
 30
-25.3
 70
   192
  0
VERTEX
  5
1359C6
  8
0
 10
0.0
 20
0.0
 30
0.0
 70
   128
 71
     1
 72
     4
 73
    -3
  0
VERTEX
  5
1359C7
  8
0
 10
0.0
 20
0.0
 30
0.0
 70
   128
 71
    -1
 72
     3
 73
     2
  0
SEQEND
  5
135E3E
  8
0
  0
POLYLINE
  5
1359C8
  8
0
 66
     1
 10
0.0
 20
0.0
 30
0.0
 70
    64
 71
    28
 72
    32
  0
VERTEX
  5
1359C9
  8
0
 10
-33.2
 20
32.8
 30
25.3
 70
   192
  0
VERTEX
  5
1359CA
  8
0
 10
-33.2
 20
-17.8
 30
25.3
 70
   192
  0
VERTEX
  5
1359CB
  8
0
 10
-33.2
 20
-17.8
 30
-25.3
 70
   192
  0
VERTEX
  5
1359CC
  8
0
 10
-33.2
 20
32.8
 30
-25.3
 70
   192
  0
VERTEX
  5
1359CD
  8
0
 10
-33.2
 20
7.5
 30
6.000000000000002
 70
   192
  0
VERTEX
  5
1359CE
  8
0
 10
-33.2
 20
11.74264068711929
 30
4.242640687119286
 70
   192
  0
VERTEX
  5
1359CF
  8
0
 10
-33.2
 20
13.5
 30
0.0
 70
   192
  0
VERTEX
  5
1359D0
  8
0
 10
-33.2
 20
11.74264068711929
 30
-4.242640687119286
 70
   192
  0
VERTEX
  5
1359D1
  8
0
 10
-33.2
 20
7.5
 30
-6.000000000000002
 70
   192
  0
VERTEX
  5
1359D2
  8
0
 10
-33.2
 20
3.257359312880714
 30
-4.242640687119286
 70
   192
  0
VERTEX
  5
1359D3
  8
0
 10
-33.2
 20
1.499999999999998
 30
0.0
 70
   192
  0
VERTEX
  5
1359D4
  8
0
 10
-33.2
 20
3.257359312880714
 30
4.242640687119286
 70
   192
  0
VERTEX
  5
1359D5
  8
0
 10
-33.2
 20
7.5
 30
-11.0
 70
   192
  0
VERTEX
  5
1359D6
  8
0
 10
-33.2
 20
9.267766952966369
 30
-11.73223304703363
 70
   192
  0
VERTEX
  5
1359D7
  8
0
 10
-33.2
 20
10.0
 30
-13.5
 70
   192
  0
VERTEX
  5
1359D8
  8
0
 10
-33.2
 20
9.267766952966369
 30
-15.26776695296637
 70
   192
  0
VERTEX
  5
1359D9
  8
0
 10
-33.2
 20
7.5
 30
-16.0
 70
   192
  0
VERTEX
  5
1359DA
  8
0
 10
-33.2
 20
5.73223304703363
 30
-15.26776695296637
 70
   192
  0
VERTEX
  5
1359DB
  8
0
 10
-33.2
 20
4.999999999999999
 30
-13.5
 70
   192
  0
VERTEX
  5
1359DC
  8
0
 10
-33.2
 20
5.732233047033631
 30
-11.73223304703363
 70
   192
  0
VERTEX
  5
1359DD
  8
0
 10
-33.2
 20
7.5
 30
16.0
 70
   192
  0
VERTEX
  5
1359DE
  8
0
 10
-33.2
 20
9.267766952966369
 30
15.26776695296637
 70
   192
  0
VERTEX
  5
1359DF
  8
0
 10
-33.2
 20
10.0
 30
13.5
 70
   192
  0
VERTEX
  5
1359E0
  8
0
 10
-33.2
 20
9.267766952966369
 30
11.73223304703363
 70
   192
  0
VERTEX
  5
1359E1
  8
0
 10
-33.2
 20
7.5
 30
11.0
 70
   192
  0
VERTEX
  5
1359E2
  8
0
 10
-33.2
 20
5.73223304703363
 30
11.73223304703363
 70
   192
  0
VERTEX
  5
1359E3
  8
0
 10
-33.2
 20
4.999999999999999
 30
13.5
 70
   192
  0
VERTEX
  5
1359E4
  8
0
 10
-33.2
 20
5.732233047033631
 30
15.26776695296637
 70
   192
  0
VERTEX
  5
1359E5
  8
0
 10
0.0
 20
0.0
 30
0.0
 70
   128
 71
    26
 72
   -25
 73
    -5
  0
VERTEX
  5
1359E6
  8
0
 10
0.0
 20
0.0
 30
0.0
 70
   128
 71
   -26
 72
     5
 73
   -12
  0
VERTEX
  5
1359E7
  8
0
 10
0.0
 20
0.0
 30
0.0
 70
   128
 71
   -12
 72
    27
 73
   -26
  0
VERTEX
  5
1359E8
  8
0
 10
0.0
 20
0.0
 30
0.0
 70
   128
 71
   -27
 72
   -12
 73
    -2
  0
VERTEX
  5
1359E9
  8
0
 10
0.0
 20
0.0
 30
0.0
 70
   128
 71
    -2
 72
    28
 73
   -27
  0
VERTEX
  5
1359EA
  8
0
 10
0.0
 20
0.0
 30
0.0
 70
   128
 71
    -2
 72
    21
 73
   -28
  0
VERTEX
  5
1359EB
  8
0
 10
0.0
 20
0.0
 30
0.0
 70
   128
 71
     2
 72
    -1
 73
   -21
  0
VERTEX
  5
1359EC
  8
0
 10
0.0
 20
0.0
 30
0.0
 70
   128
 71
    -1
 72
    22
 73
   -21
  0
VERTEX
  5
1359ED
  8
0
 10
0.0
 20
0.0
 30
0.0
 70
   128
 71
    -1
 72
    23
 73
   -22
  0
VERTEX
  5
1359EE
  8
0
 10
0.0
 20
0.0
 30
0.0
 70
   128
 71
    -1
 72
    -6
 73
   -23
  0
VERTEX
  5
1359EF
  8
0
 10
0.0
 20
0.0
 30
0.0
 70
   128
 71
    -6
 72
    24
 73
   -23
  0
VERTEX
  5
1359F0
  8
0
 10
0.0
 20
0.0
 30
0.0
 70
   128
 71
     6
 72
    -5
 73
   -25
  0
VERTEX
  5
1359F1
  8
0
 10
0.0
 20
0.0
 30
0.0
 70
   128
 71
    -6
 72
    25
 73
   -24
  0
VERTEX
  5
1359F2
  8
0
 10
0.0
 20
0.0
 30
0.0
 70
   128
 71
     1
 72
    -4
 73
    -7
  0
VERTEX
  5
1359F3
  8
0
 10
0.0
 20
0.0
 30
0.0
 70
   128
 71
    -1
 72
     7
 73
    -6
  0
VERTEX
  5
1359F4
  8
0
 10
0.0
 20
0.0
 30
0.0
 70
   128
 71
    -4
 72
     8
 73
    -7
  0
VERTEX
  5
1359F5
  8
0
 10
0.0
 20
0.0
 30
0.0
 70
   128
 71
    14
 72
   -13
 73
    -9
  0
VERTEX
  5
1359F6
  8
0
 10
0.0
 20
0.0
 30
0.0
 70
   128
 71
   -14
 72
     9
 73
    -8
  0
VERTEX
  5
1359F7
  8
0
 10
0.0
 20
0.0
 30
0.0
 70
   128
 71
    -8
 72
    15
 73
   -14
  0
VERTEX
  5
1359F8
  8
0
 10
0.0
 20
0.0
 30
0.0
 70
   128
 71
   -15
 72
    -8
 73
    -4
  0
VERTEX
  5
1359F9
  8
0
 10
0.0
 20
0.0
 30
0.0
 70
   128
 71
    -4
 72
    16
 73
   -15
  0
VERTEX
  5
1359FA
  8
0
 10
0.0
 20
0.0
 30
0.0
 70
   128
 71
    -4
 72
    17
 73
   -16
  0
VERTEX
  5
1359FB
  8
0
 10
0.0
 20
0.0
 30
0.0
 70
   128
 71
   -17
 72
     4
 73
    -3
  0
VERTEX
  5
1359FC
  8
0
 10
0.0
 20
0.0
 30
0.0
 70
   128
 71
    -3
 72
    18
 73
   -17
  0
VERTEX
  5
1359FD
  8
0
 10
0.0
 20
0.0
 30
0.0
 70
   128
 71
    -3
 72
    19
 73
   -18
  0
VERTEX
  5
1359FE
  8
0
 10
0.0
 20
0.0
 30
0.0
 70
   128
 71
    -3
 72
   -10
 73
   -19
  0
VERTEX
  5
1359FF
  8
0
 10
0.0
 20
0.0
 30
0.0
 70
   128
 71
   -10
 72
    20
 73
   -19
  0
VERTEX
  5
135A00
  8
0
 10
0.0
 20
0.0
 30
0.0
 70
   128
 71
    10
 72
    -9
 73
   -13
  0
VERTEX
  5
135A01
  8
0
 10
0.0
 20
0.0
 30
0.0
 70
   128
 71
   -10
 72
    13
 73
   -20
  0
VERTEX
  5
135A02
  8
0
 10
0.0
 20
0.0
 30
0.0
 70
   128
 71
     3
 72
    -2
 73
   -11
  0
VERTEX
  5
135A03
  8
0
 10
0.0
 20
0.0
 30
0.0
 70
   128
 71
    -3
 72
    11
 73
   -10
  0
VERTEX
  5
135A04
  8
0
 10
0.0
 20
0.0
 30
0.0
 70
   128
 71
    -2
 72
    12
 73
   -11
  0
SEQEND
  5
135E3F
  8
0
  0
POLYLINE
  5
135A05
  8
0
 66
     1
 10
0.0
 20
0.0
 30
0.0
 70
    64
 71
    10
 72
     8
  0
VERTEX
  5
135A06
  8
0
 10
-33.2
 20
7.5
 30
-6.0
 70
   192
  0
VERTEX
  5
135A07
  8
0
 10
-33.2
 20
7.5
 30
6.0
 70
   192
  0
VERTEX
  5
135A08
  8
0
 10
-32.5
 20
7.5
 30
6.0
 70
   192
  0
VERTEX
  5
135A09
  8
0
 10
-32.5
 20
7.5
 30
-6.0
 70
   192
  0
VERTEX
  5
135A0A
  8
0
 10
-32.5
 20
13.5
 30
0.0
 70
   192
  0
VERTEX
  5
135A0B
  8
0
 10
-33.2
 20
13.5
 30
0.0
 70
   192
  0
VERTEX
  5
135A0C
  8
0
 10
-32.5
 20
11.74264068711929
 30
-4.242640687119286
 70
   192
  0
VERTEX
  5
135A0D
  8
0
 10
-33.2
 20
11.74264068711929
 30
-4.242640687119286
 70
   192
  0
VERTEX
  5
135A0E
  8
0
 10
-32.5
 20
11.74264068711929
 30
4.242640687119286
 70
   192
  0
VERTEX
  5
135A0F
  8
0
 10
-33.2
 20
11.74264068711929
 30
4.242640687119286
 70
   192
  0
VERTEX
  5
135A10
  8
0
 10
0.0
 20
0.0
 30
0.0
 70
   128
 71
     8
 72
     1
 73
    -4
  0
VERTEX
  5
135A11
  8
0
 10
0.0
 20
0.0
 30
0.0
 70
   128
 71
     7
 72
    -8
 73
     4
  0
VERTEX
  5
135A12
  8
0
 10
0.0
 20
0.0
 30
0.0
 70
   128
 71
     6
 72
     8
 73
    -7
  0
VERTEX
  5
135A13
  8
0
 10
0.0
 20
0.0
 30
0.0
 70
   128
 71
     5
 72
    -6
 73
     7
  0
VERTEX
  5
135A14
  8
0
 10
0.0
 20
0.0
 30
0.0
 70
   128
 71
    10
 72
     6
 73
    -5
  0
VERTEX
  5
135A15
  8
0
 10
0.0
 20
0.0
 30
0.0
 70
   128
 71
     9
 72
   -10
 73
     5
  0
VERTEX
  5
135A16
  8
0
 10
0.0
 20
0.0
 30
0.0
 70
   128
 71
     3
 72
     2
 73
   -10
  0
VERTEX
  5
135A17
  8
0
 10
0.0
 20
0.0
 30
0.0
 70
   128
 71
     9
 72
    -3
 73
    10
  0
SEQEND
  5
135E40
  8
0
  0
POLYLINE
  5
135A18
  8
0
 66
     1
 10
0.0
 20
0.0
 30
0.0
 70
    64
 71
    28
 72
    32
  0
VERTEX
  5
135A19
  8
0
 10
-32.5
 20
-18.0
 30
-25.5
 70
   192
  0
VERTEX
  5
135A1A
  8
0
 10
-32.5
 20
33.0
 30
-25.5
 70
   192
  0
VERTEX
  5
135A1B
  8
0
 10
-32.5
 20
33.0
 30
25.5
 70
   192
  0
VERTEX
  5
135A1C
  8
0
 10
-32.5
 20
-18.0
 30
25.5
 70
   192
  0
VERTEX
  5
135A1D
  8
0
 10
-32.5
 20
7.5
 30
-16.0
 70
   192
  0
VERTEX
  5
135A1E
  8
0
 10
-32.5
 20
5.73223304703363
 30
-15.26776695296637
 70
   192
  0
VERTEX
  5
135A1F
  8
0
 10
-32.5
 20
4.999999999999999
 30
-13.5
 70
   192
  0
VERTEX
  5
135A20
  8
0
 10
-32.5
 20
5.732233047033631
 30
-11.73223304703363
 70
   192
  0
VERTEX
  5
135A21
  8
0
 10
-32.5
 20
7.5
 30
-11.0
 70
   192
  0
VERTEX
  5
135A22
  8
0
 10
-32.5
 20
9.267766952966369
 30
-11.73223304703363
 70
   192
  0
VERTEX
  5
135A23
  8
0
 10
-32.5
 20
10.0
 30
-13.5
 70
   192
  0
VERTEX
  5
135A24
  8
0
 10
-32.5
 20
9.267766952966369
 30
-15.26776695296637
 70
   192
  0
VERTEX
  5
135A25
  8
0
 10
-32.5
 20
7.5
 30
11.0
 70
   192
  0
VERTEX
  5
135A26
  8
0
 10
-32.5
 20
5.73223304703363
 30
11.73223304703363
 70
   192
  0
VERTEX
  5
135A27
  8
0
 10
-32.5
 20
4.999999999999999
 30
13.5
 70
   192
  0
VERTEX
  5
135A28
  8
0
 10
-32.5
 20
5.732233047033631
 30
15.26776695296637
 70
   192
  0
VERTEX
  5
135A29
  8
0
 10
-32.5
 20
7.5
 30
16.0
 70
   192
  0
VERTEX
  5
135A2A
  8
0
 10
-32.5
 20
9.267766952966369
 30
15.26776695296637
 70
   192
  0
VERTEX
  5
135A2B
  8
0
 10
-32.5
 20
10.0
 30
13.5
 70
   192
  0
VERTEX
  5
135A2C
  8
0
 10
-32.5
 20
9.267766952966369
 30
11.73223304703363
 70
   192
  0
VERTEX
  5
135A2D
  8
0
 10
-32.5
 20
7.5
 30
-6.000000000000002
 70
   192
  0
VERTEX
  5
135A2E
  8
0
 10
-32.5
 20
3.257359312880714
 30
-4.242640687119286
 70
   192
  0
VERTEX
  5
135A2F
  8
0
 10
-32.5
 20
1.499999999999998
 30
0.0
 70
   192
  0
VERTEX
  5
135A30
  8
0
 10
-32.5
 20
3.257359312880714
 30
4.242640687119286
 70
   192
  0
VERTEX
  5
135A31
  8
0
 10
-32.5
 20
7.5
 30
6.0
 70
   192
  0
VERTEX
  5
135A32
  8
0
 10
-32.5
 20
11.74264068711929
 30
4.242640687119286
 70
   192
  0
VERTEX
  5
135A33
  8
0
 10
-32.5
 20
13.5
 30
0.0
 70
   192
  0
VERTEX
  5
135A34
  8
0
 10
-32.5
 20
11.74264068711929
 30
-4.242640687119286
 70
   192
  0
VERTEX
  5
135A35
  8
0
 10
0.0
 20
0.0
 30
0.0
 70
   128
 71
    -1
 72
     5
 73
    -6
  0
VERTEX
  5
135A36
  8
0
 10
0.0
 20
0.0
 30
0.0
 70
   128
 71
     6
 72
    -7
 73
    -1
  0
VERTEX
  5
135A37
  8
0
 10
0.0
 20
0.0
 30
0.0
 70
   128
 71
     7
 72
    -8
 73
    -1
  0
VERTEX
  5
135A38
  8
0
 10
0.0
 20
0.0
 30
0.0
 70
   128
 71
   -25
 72
    13
 73
   -14
  0
VERTEX
  5
135A39
  8
0
 10
0.0
 20
0.0
 30
0.0
 70
   128
 71
   -22
 72
    -1
 73
    -8
  0
VERTEX
  5
135A3A
  8
0
 10
0.0
 20
0.0
 30
0.0
 70
   128
 71
    -9
 72
    21
 73
   -22
  0
VERTEX
  5
135A3B
  8
0
 10
0.0
 20
0.0
 30
0.0
 70
   128
 71
     8
 72
    -9
 73
   -22
  0
VERTEX
  5
135A3C
  8
0
 10
0.0
 20
0.0
 30
0.0
 70
   128
 71
   -23
 72
     4
 73
    -1
  0
VERTEX
  5
135A3D
  8
0
 10
0.0
 20
0.0
 30
0.0
 70
   128
 71
    22
 72
   -23
 73
    -1
  0
VERTEX
  5
135A3E
  8
0
 10
0.0
 20
0.0
 30
0.0
 70
   128
 71
    23
 72
   -24
 73
    -4
  0
VERTEX
  5
135A3F
  8
0
 10
0.0
 20
0.0
 30
0.0
 70
   128
 71
   -24
 72
   -14
 73
    -4
  0
VERTEX
  5
135A40
  8
0
 10
0.0
 20
0.0
 30
0.0
 70
   128
 71
    24
 72
   -25
 73
   -14
  0
VERTEX
  5
135A41
  8
0
 10
0.0
 20
0.0
 30
0.0
 70
   128
 71
    14
 72
   -15
 73
    -4
  0
VERTEX
  5
135A42
  8
0
 10
0.0
 20
0.0
 30
0.0
 70
   128
 71
    15
 72
   -16
 73
    -4
  0
VERTEX
  5
135A43
  8
0
 10
0.0
 20
0.0
 30
0.0
 70
   128
 71
    16
 72
   -17
 73
    -4
  0
VERTEX
  5
135A44
  8
0
 10
0.0
 20
0.0
 30
0.0
 70
   128
 71
   -17
 72
     3
 73
    -4
  0
VERTEX
  5
135A45
  8
0
 10
0.0
 20
0.0
 30
0.0
 70
   128
 71
    17
 72
   -18
 73
    -3
  0
VERTEX
  5
135A46
  8
0
 10
0.0
 20
0.0
 30
0.0
 70
   128
 71
    18
 72
   -19
 73
    -3
  0
VERTEX
  5
135A47
  8
0
 10
0.0
 20
0.0
 30
0.0
 70
   128
 71
    19
 72
   -20
 73
    -3
  0
VERTEX
  5
135A48
  8
0
 10
0.0
 20
0.0
 30
0.0
 70
   128
 71
     9
 72
   -10
 73
   -21
  0
VERTEX
  5
135A49
  8
0
 10
0.0
 20
0.0
 30
0.0
 70
   128
 71
   -26
 72
    -3
 73
   -20
  0
VERTEX
  5
135A4A
  8
0
 10
0.0
 20
0.0
 30
0.0
 70
   128
 71
   -13
 72
    25
 73
   -26
  0
VERTEX
  5
135A4B
  8
0
 10
0.0
 20
0.0
 30
0.0
 70
   128
 71
    20
 72
   -13
 73
   -26
  0
VERTEX
  5
135A4C
  8
0
 10
0.0
 20
0.0
 30
0.0
 70
   128
 71
   -27
 72
     2
 73
    -3
  0
VERTEX
  5
135A4D
  8
0
 10
0.0
 20
0.0
 30
0.0
 70
   128
 71
    26
 72
   -27
 73
    -3
  0
VERTEX
  5
135A4E
  8
0
 10
0.0
 20
0.0
 30
0.0
 70
   128
 71
    27
 72
   -28
 73
    -2
  0
VERTEX
  5
135A4F
  8
0
 10
0.0
 20
0.0
 30
0.0
 70
   128
 71
   -28
 72
   -10
 73
    -2
  0
VERTEX
  5
135A50
  8
0
 10
0.0
 20
0.0
 30
0.0
 70
   128
 71
    28
 72
   -21
 73
   -10
  0
VERTEX
  5
135A51
  8
0
 10
0.0
 20
0.0
 30
0.0
 70
   128
 71
    10
 72
   -11
 73
    -2
  0
VERTEX
  5
135A52
  8
0
 10
0.0
 20
0.0
 30
0.0
 70
   128
 71
    11
 72
   -12
 73
    -2
  0
VERTEX
  5
135A53
  8
0
 10
0.0
 20
0.0
 30
0.0
 70
   128
 71
    12
 72
    -5
 73
    -2
  0
VERTEX
  5
135A54
  8
0
 10
0.0
 20
0.0
 30
0.0
 70
   128
 71
    -5
 72
     1
 73
    -2
  0
SEQEND
  5
135E41
  8
0
  0
POLYLINE
  5
135A55
  8
0
 66
     1
 10
0.0
 20
0.0
 30
0.0
 70
    64
 71
    10
 72
     8
  0
VERTEX
  5
135A56
  8
0
 10
-33.2
 20
7.5
 30
6.0
 70
   192
  0
VERTEX
  5
135A57
  8
0
 10
-33.2
 20
7.5
 30
-6.0
 70
   192
  0
VERTEX
  5
135A58
  8
0
 10
-32.5
 20
7.5
 30
-6.0
 70
   192
  0
VERTEX
  5
135A59
  8
0
 10
-32.5
 20
7.5
 30
6.0
 70
   192
  0
VERTEX
  5
135A5A
  8
0
 10
-32.5
 20
1.499999999999998
 30
0.0
 70
   192
  0
VERTEX
  5
135A5B
  8
0
 10
-33.2
 20
1.499999999999998
 30
0.0
 70
   192
  0
VERTEX
  5
135A5C
  8
0
 10
-32.5
 20
3.257359312880714
 30
4.242640687119286
 70
   192
  0
VERTEX
  5
135A5D
  8
0
 10
-33.2
 20
3.257359312880714
 30
4.242640687119286
 70
   192
  0
VERTEX
  5
135A5E
  8
0
 10
-32.5
 20
3.257359312880714
 30
-4.242640687119286
 70
   192
  0
VERTEX
  5
135A5F
  8
0
 10
-33.2
 20
3.257359312880714
 30
-4.242640687119286
 70
   192
  0
VERTEX
  5
135A60
  8
0
 10
0.0
 20
0.0
 30
0.0
 70
   128
 71
     8
 72
     1
 73
    -4
  0
VERTEX
  5
135A61
  8
0
 10
0.0
 20
0.0
 30
0.0
 70
   128
 71
     7
 72
    -8
 73
     4
  0
VERTEX
  5
135A62
  8
0
 10
0.0
 20
0.0
 30
0.0
 70
   128
 71
     6
 72
     8
 73
    -7
  0
VERTEX
  5
135A63
  8
0
 10
0.0
 20
0.0
 30
0.0
 70
   128
 71
     5
 72
    -6
 73
     7
  0
VERTEX
  5
135A64
  8
0
 10
0.0
 20
0.0
 30
0.0
 70
   128
 71
    10
 72
     6
 73
    -5
  0
VERTEX
  5
135A65
  8
0
 10
0.0
 20
0.0
 30
0.0
 70
   128
 71
     9
 72
   -10
 73
     5
  0
VERTEX
  5
135A66
  8
0
 10
0.0
 20
0.0
 30
0.0
 70
   128
 71
     3
 72
     2
 73
   -10
  0
VERTEX
  5
135A67
  8
0
 10
0.0
 20
0.0
 30
0.0
 70
   128
 71
     9
 72
    -3
 73
    10
  0
SEQEND
  5
135E42
  8
0
  0
POLYLINE
  5
135A68
  8
0
 66
     1
 10
0.0
 20
0.0
 30
0.0
 70
    64
 71
    10
 72
     8
  0
VERTEX
  5
135A69
  8
0
 10
-33.2
 20
7.5
 30
-16.0
 70
   192
  0
VERTEX
  5
135A6A
  8
0
 10
-33.2
 20
7.5
 30
-11.0
 70
   192
  0
VERTEX
  5
135A6B
  8
0
 10
-32.5
 20
7.5
 30
-11.0
 70
   192
  0
VERTEX
  5
135A6C
  8
0
 10
-32.5
 20
7.5
 30
-16.0
 70
   192
  0
VERTEX
  5
135A6D
  8
0
 10
-32.5
 20
10.0
 30
-13.5
 70
   192
  0
VERTEX
  5
135A6E
  8
0
 10
-33.2
 20
10.0
 30
-13.5
 70
   192
  0
VERTEX
  5
135A6F
  8
0
 10
-32.5
 20
9.267766952966369
 30
-15.26776695296637
 70
   192
  0
VERTEX
  5
135A70
  8
0
 10
-33.2
 20
9.267766952966369
 30
-15.26776695296637
 70
   192
  0
VERTEX
  5
135A71
  8
0
 10
-32.5
 20
9.267766952966369
 30
-11.73223304703363
 70
   192
  0
VERTEX
  5
135A72
  8
0
 10
-33.2
 20
9.267766952966369
 30
-11.73223304703363
 70
   192
  0
VERTEX
  5
135A73
  8
0
 10
0.0
 20
0.0
 30
0.0
 70
   128
 71
     8
 72
     1
 73
    -4
  0
VERTEX
  5
135A74
  8
0
 10
0.0
 20
0.0
 30
0.0
 70
   128
 71
     7
 72
    -8
 73
     4
  0
VERTEX
  5
135A75
  8
0
 10
0.0
 20
0.0
 30
0.0
 70
   128
 71
     6
 72
     8
 73
    -7
  0
VERTEX
  5
135A76
  8
0
 10
0.0
 20
0.0
 30
0.0
 70
   128
 71
     5
 72
    -6
 73
     7
  0
VERTEX
  5
135A77
  8
0
 10
0.0
 20
0.0
 30
0.0
 70
   128
 71
    10
 72
     6
 73
    -5
  0
VERTEX
  5
135A78
  8
0
 10
0.0
 20
0.0
 30
0.0
 70
   128
 71
     9
 72
   -10
 73
     5
  0
VERTEX
  5
135A79
  8
0
 10
0.0
 20
0.0
 30
0.0
 70
   128
 71
     3
 72
     2
 73
   -10
  0
VERTEX
  5
135A7A
  8
0
 10
0.0
 20
0.0
 30
0.0
 70
   128
 71
     9
 72
    -3
 73
    10
  0
SEQEND
  5
135E43
  8
0
  0
POLYLINE
  5
135A7B
  8
0
 66
     1
 10
0.0
 20
0.0
 30
0.0
 70
    64
 71
    10
 72
     8
  0
VERTEX
  5
135A7C
  8
0
 10
-33.2
 20
7.5
 30
-11.0
 70
   192
  0
VERTEX
  5
135A7D
  8
0
 10
-33.2
 20
7.5
 30
-16.0
 70
   192
  0
VERTEX
  5
135A7E
  8
0
 10
-32.5
 20
7.5
 30
-16.0
 70
   192
  0
VERTEX
  5
135A7F
  8
0
 10
-32.5
 20
7.5
 30
-11.0
 70
   192
  0
VERTEX
  5
135A80
  8
0
 10
-32.5
 20
4.999999999999999
 30
-13.5
 70
   192
  0
VERTEX
  5
135A81
  8
0
 10
-33.2
 20
4.999999999999999
 30
-13.5
 70
   192
  0
VERTEX
  5
135A82
  8
0
 10
-32.5
 20
5.732233047033631
 30
-11.73223304703363
 70
   192
  0
VERTEX
  5
135A83
  8
0
 10
-33.2
 20
5.732233047033631
 30
-11.73223304703363
 70
   192
  0
VERTEX
  5
135A84
  8
0
 10
-32.5
 20
5.73223304703363
 30
-15.26776695296637
 70
   192
  0
VERTEX
  5
135A85
  8
0
 10
-33.2
 20
5.73223304703363
 30
-15.26776695296637
 70
   192
  0
VERTEX
  5
135A86
  8
0
 10
0.0
 20
0.0
 30
0.0
 70
   128
 71
     8
 72
     1
 73
    -4
  0
VERTEX
  5
135A87
  8
0
 10
0.0
 20
0.0
 30
0.0
 70
   128
 71
     7
 72
    -8
 73
     4
  0
VERTEX
  5
135A88
  8
0
 10
0.0
 20
0.0
 30
0.0
 70
   128
 71
     6
 72
     8
 73
    -7
  0
VERTEX
  5
135A89
  8
0
 10
0.0
 20
0.0
 30
0.0
 70
   128
 71
     5
 72
    -6
 73
     7
  0
VERTEX
  5
135A8A
  8
0
 10
0.0
 20
0.0
 30
0.0
 70
   128
 71
    10
 72
     6
 73
    -5
  0
VERTEX
  5
135A8B
  8
0
 10
0.0
 20
0.0
 30
0.0
 70
   128
 71
     9
 72
   -10
 73
     5
  0
VERTEX
  5
135A8C
  8
0
 10
0.0
 20
0.0
 30
0.0
 70
   128
 71
     3
 72
     2
 73
   -10
  0
VERTEX
  5
135A8D
  8
0
 10
0.0
 20
0.0
 30
0.0
 70
   128
 71
     9
 72
    -3
 73
    10
  0
SEQEND
  5
135E44
  8
0
  0
POLYLINE
  5
135A8E
  8
0
 66
     1
 10
0.0
 20
0.0
 30
0.0
 70
    64
 71
    10
 72
     8
  0
VERTEX
  5
135A8F
  8
0
 10
-33.2
 20
7.5
 30
11.0
 70
   192
  0
VERTEX
  5
135A90
  8
0
 10
-33.2
 20
7.5
 30
16.0
 70
   192
  0
VERTEX
  5
135A91
  8
0
 10
-32.5
 20
7.5
 30
16.0
 70
   192
  0
VERTEX
  5
135A92
  8
0
 10
-32.5
 20
7.5
 30
11.0
 70
   192
  0
VERTEX
  5
135A93
  8
0
 10
-32.5
 20
10.0
 30
13.5
 70
   192
  0
VERTEX
  5
135A94
  8
0
 10
-33.2
 20
10.0
 30
13.5
 70
   192
  0
VERTEX
  5
135A95
  8
0
 10
-32.5
 20
9.267766952966369
 30
11.73223304703363
 70
   192
  0
VERTEX
  5
135A96
  8
0
 10
-33.2
 20
9.267766952966369
 30
11.73223304703363
 70
   192
  0
VERTEX
  5
135A97
  8
0
 10
-32.5
 20
9.267766952966369
 30
15.26776695296637
 70
   192
  0
VERTEX
  5
135A98
  8
0
 10
-33.2
 20
9.267766952966369
 30
15.26776695296637
 70
   192
  0
VERTEX
  5
135A99
  8
0
 10
0.0
 20
0.0
 30
0.0
 70
   128
 71
     8
 72
     1
 73
    -4
  0
VERTEX
  5
135A9A
  8
0
 10
0.0
 20
0.0
 30
0.0
 70
   128
 71
     7
 72
    -8
 73
     4
  0
VERTEX
  5
135A9B
  8
0
 10
0.0
 20
0.0
 30
0.0
 70
   128
 71
     6
 72
     8
 73
    -7
  0
VERTEX
  5
135A9C
  8
0
 10
0.0
 20
0.0
 30
0.0
 70
   128
 71
     5
 72
    -6
 73
     7
  0
VERTEX
  5
135A9D
  8
0
 10
0.0
 20
0.0
 30
0.0
 70
   128
 71
    10
 72
     6
 73
    -5
  0
VERTEX
  5
135A9E
  8
0
 10
0.0
 20
0.0
 30
0.0
 70
   128
 71
     9
 72
   -10
 73
     5
  0
VERTEX
  5
135A9F
  8
0
 10
0.0
 20
0.0
 30
0.0
 70
   128
 71
     3
 72
     2
 73
   -10
  0
VERTEX
  5
135AA0
  8
0
 10
0.0
 20
0.0
 30
0.0
 70
   128
 71
     9
 72
    -3
 73
    10
  0
SEQEND
  5
135E45
  8
0
  0
POLYLINE
  5
135AA1
  8
0
 66
     1
 10
0.0
 20
0.0
 30
0.0
 70
    64
 71
    10
 72
     8
  0
VERTEX
  5
135AA2
  8
0
 10
-33.2
 20
7.5
 30
16.0
 70
   192
  0
VERTEX
  5
135AA3
  8
0
 10
-33.2
 20
7.5
 30
11.0
 70
   192
  0
VERTEX
  5
135AA4
  8
0
 10
-32.5
 20
7.5
 30
11.0
 70
   192
  0
VERTEX
  5
135AA5
  8
0
 10
-32.5
 20
7.5
 30
16.0
 70
   192
  0
VERTEX
  5
135AA6
  8
0
 10
-32.5
 20
4.999999999999999
 30
13.5
 70
   192
  0
VERTEX
  5
135AA7
  8
0
 10
-33.2
 20
4.999999999999999
 30
13.5
 70
   192
  0
VERTEX
  5
135AA8
  8
0
 10
-32.5
 20
5.732233047033631
 30
15.26776695296637
 70
   192
  0
VERTEX
  5
135AA9
  8
0
 10
-33.2
 20
5.732233047033631
 30
15.26776695296637
 70
   192
  0
VERTEX
  5
135AAA
  8
0
 10
-32.5
 20
5.73223304703363
 30
11.73223304703363
 70
   192
  0
VERTEX
  5
135AAB
  8
0
 10
-33.2
 20
5.73223304703363
 30
11.73223304703363
 70
   192
  0
VERTEX
  5
135AAC
  8
0
 10
0.0
 20
0.0
 30
0.0
 70
   128
 71
     8
 72
     1
 73
    -4
  0
VERTEX
  5
135AAD
  8
0
 10
0.0
 20
0.0
 30
0.0
 70
   128
 71
     7
 72
    -8
 73
     4
  0
VERTEX
  5
135AAE
  8
0
 10
0.0
 20
0.0
 30
0.0
 70
   128
 71
     6
 72
     8
 73
    -7
  0
VERTEX
  5
135AAF
  8
0
 10
0.0
 20
0.0
 30
0.0
 70
   128
 71
     5
 72
    -6
 73
     7
  0
VERTEX
  5
135AB0
  8
0
 10
0.0
 20
0.0
 30
0.0
 70
   128
 71
    10
 72
     6
 73
    -5
  0
VERTEX
  5
135AB1
  8
0
 10
0.0
 20
0.0
 30
0.0
 70
   128
 71
     9
 72
   -10
 73
     5
  0
VERTEX
  5
135AB2
  8
0
 10
0.0
 20
0.0
 30
0.0
 70
   128
 71
     3
 72
     2
 73
   -10
  0
VERTEX
  5
135AB3
  8
0
 10
0.0
 20
0.0
 30
0.0
 70
   128
 71
     9
 72
    -3
 73
    10
  0
SEQEND
  5
135E46
  8
0
  0
POLYLINE
  5
135AB4
  8
0
 66
     1
 10
0.0
 20
0.0
 30
0.0
 70
    64
 71
     8
 72
     6
  0
VERTEX
  5
135AB5
  8
0
 10
-32.56698729810778
 20
-18.25
 30
25.5
 70
   192
  0
VERTEX
  5
135AB6
  8
0
 10
-32.75
 20
-18.43301270189222
 30
25.5
 70
   192
  0
VERTEX
  5
135AB7
  8
0
 10
-32.75
 20
-18.43301270189222
 30
-25.5
 70
   192
  0
VERTEX
  5
135AB8
  8
0
 10
-32.5
 20
-18.0
 30
25.5
 70
   192
  0
VERTEX
  5
135AB9
  8
0
 10
-32.56698729810778
 20
-18.25
 30
-25.5
 70
   192
  0
VERTEX
  5
135ABA
  8
0
 10
-32.5
 20
-18.0
 30
-25.5
 70
   192
  0
VERTEX
  5
135ABB
  8
0
 10
-33.0
 20
-18.5
 30
25.5
 70
   192
  0
VERTEX
  5
135ABC
  8
0
 10
-33.0
 20
-18.5
 30
-25.50000000039
 70
   192
  0
VERTEX
  5
135ABD
  8
0
 10
0.0
 20
0.0
 30
0.0
 70
   128
 71
     1
 72
     2
 73
    -3
  0
VERTEX
  5
135ABE
  8
0
 10
0.0
 20
0.0
 30
0.0
 70
   128
 71
     4
 72
     1
 73
    -5
  0
VERTEX
  5
135ABF
  8
0
 10
0.0
 20
0.0
 30
0.0
 70
   128
 71
     6
 72
    -4
 73
     5
  0
VERTEX
  5
135AC0
  8
0
 10
0.0
 20
0.0
 30
0.0
 70
   128
 71
     5
 72
    -1
 73
     3
  0
VERTEX
  5
135AC1
  8
0
 10
0.0
 20
0.0
 30
0.0
 70
   128
 71
     3
 72
     2
 73
    -7
  0
VERTEX
  5
135AC2
  8
0
 10
0.0
 20
0.0
 30
0.0
 70
   128
 71
    -3
 72
     7
 73
     8
  0
SEQEND
  5
135E47
  8
0
  0
POLYLINE
  5
135AC3
  8
0
 66
     1
 10
0.0
 20
0.0
 30
0.0
 70
    64
 71
    11
 72
     9
  0
VERTEX
  5
135AC4
  8
0
 10
-32.75
 20
-18.0
 30
-25.93301270189222
 70
   192
  0
VERTEX
  5
135AC5
  8
0
 10
-33.0
 20
-18.5
 30
-25.500000000195
 70
   192
  0
VERTEX
  5
135AC6
  8
0
 10
-33.0
 20
-18.5
 30
-25.50000000039
 70
   192
  0
VERTEX
  5
135AC7
  8
0
 10
-32.56698729810778
 20
-18.25
 30
-25.5
 70
   192
  0
VERTEX
  5
135AC8
  8
0
 10
-32.75
 20
-18.43301270189222
 30
-25.5
 70
   192
  0
VERTEX
  5
135AC9
  8
0
 10
-33.0
 20
-18.5
 30
-25.5
 70
   192
  0
VERTEX
  5
135ACA
  8
0
 10
-32.56698729810778
 20
-18.0
 30
-25.75
 70
   192
  0
VERTEX
  5
135ACB
  8
0
 10
-33.0
 20
-18.24999999988742
 30
-25.93301270195722
 70
   192
  0
VERTEX
  5
135ACC
  8
0
 10
-33.0
 20
-18.0
 30
-26.0
 70
   192
  0
VERTEX
  5
135ACD
  8
0
 10
-33.0
 20
-18.43301270176222
 30
-25.75000000022517
 70
   192
  0
VERTEX
  5
135ACE
  8
0
 10
-32.5
 20
-18.0
 30
-25.5
 70
   192
  0
VERTEX
  5
135ACF
  8
0
 10
0.0
 20
0.0
 30
0.0
 70
   128
 71
    -1
 72
     2
 73
     3
  0
VERTEX
  5
135AD0
  8
0
 10
0.0
 20
0.0
 30
0.0
 70
   128
 71
     4
 72
     5
 73
     6
  0
VERTEX
  5
135AD1
  8
0
 10
0.0
 20
0.0
 30
0.0
 70
   128
 71
     1
 72
     7
 73
     6
  0
VERTEX
  5
135AD2
  8
0
 10
0.0
 20
0.0
 30
0.0
 70
   128
 71
     1
 72
     6
 73
    -2
  0
VERTEX
  5
135AD3
  8
0
 10
0.0
 20
0.0
 30
0.0
 70
   128
 71
     8
 72
     9
 73
     1
  0
VERTEX
  5
135AD4
  8
0
 10
0.0
 20
0.0
 30
0.0
 70
   128
 71
     1
 72
     3
 73
    10
  0
VERTEX
  5
135AD5
  8
0
 10
0.0
 20
0.0
 30
0.0
 70
   128
 71
     1
 72
    10
 73
     8
  0
VERTEX
  5
135AD6
  8
0
 10
0.0
 20
0.0
 30
0.0
 70
   128
 71
     7
 72
    11
 73
     4
  0
VERTEX
  5
135AD7
  8
0
 10
0.0
 20
0.0
 30
0.0
 70
   128
 71
     7
 72
     4
 73
     6
  0
SEQEND
  5
135E48
  8
0
  0
POLYLINE
  5
135AD8
  8
0
 66
     1
 10
0.0
 20
0.0
 30
0.0
 70
    64
 71
     8
 72
     6
  0
VERTEX
  5
135AD9
  8
0
 10
-42.0
 20
-18.25
 30
-25.93301270189222
 70
   192
  0
VERTEX
  5
135ADA
  8
0
 10
-33.0
 20
-18.24999999988742
 30
-25.93301270195722
 70
   192
  0
VERTEX
  5
135ADB
  8
0
 10
-33.0
 20
-18.43301270176222
 30
-25.75000000022517
 70
   192
  0
VERTEX
  5
135ADC
  8
0
 10
-42.0
 20
-18.43301270189222
 30
-25.75
 70
   192
  0
VERTEX
  5
135ADD
  8
0
 10
-42.0
 20
-18.0
 30
-26.0
 70
   192
  0
VERTEX
  5
135ADE
  8
0
 10
-33.0
 20
-18.00000000409
 30
-26.0
 70
   192
  0
VERTEX
  5
135ADF
  8
0
 10
-33.0
 20
-18.5
 30
-25.50000000039
 70
   192
  0
VERTEX
  5
135AE0
  8
0
 10
-42.0
 20
-18.5
 30
-25.50000000000492
 70
   192
  0
VERTEX
  5
135AE1
  8
0
 10
0.0
 20
0.0
 30
0.0
 70
   128
 71
     1
 72
     2
 73
    -3
  0
VERTEX
  5
135AE2
  8
0
 10
0.0
 20
0.0
 30
0.0
 70
   128
 71
    -1
 72
     3
 73
     4
  0
VERTEX
  5
135AE3
  8
0
 10
0.0
 20
0.0
 30
0.0
 70
   128
 71
     5
 72
     6
 73
    -2
  0
VERTEX
  5
135AE4
  8
0
 10
0.0
 20
0.0
 30
0.0
 70
   128
 71
    -5
 72
     2
 73
     1
  0
VERTEX
  5
135AE5
  8
0
 10
0.0
 20
0.0
 30
0.0
 70
   128
 71
     4
 72
     3
 73
    -7
  0
VERTEX
  5
135AE6
  8
0
 10
0.0
 20
0.0
 30
0.0
 70
   128
 71
    -4
 72
     7
 73
     8
  0
SEQEND
  5
135E49
  8
0
  0
POLYLINE
  5
135AE7
  8
0
 66
     1
 10
0.0
 20
0.0
 30
0.0
 70
    64
 71
     4
 72
     2
  0
VERTEX
  5
135AE8
  8
0
 10
-33.0
 20
-18.00000000409
 30
-26.0
 70
   192
  0
VERTEX
  5
135AE9
  8
0
 10
-42.0
 20
-18.00000000000406
 30
-26.0
 70
   192
  0
VERTEX
  5
135AEA
  8
0
 10
-42.0
 20
33.0
 30
-26.0
 70
   192
  0
VERTEX
  5
135AEB
  8
0
 10
-33.0
 20
33.00000000039
 30
-26.0
 70
   192
  0
VERTEX
  5
135AEC
  8
0
 10
0.0
 20
0.0
 30
0.0
 70
   128
 71
     3
 72
     4
 73
    -1
  0
VERTEX
  5
135AED
  8
0
 10
0.0
 20
0.0
 30
0.0
 70
   128
 71
     2
 72
    -3
 73
     1
  0
SEQEND
  5
135E4A
  8
0
  0
POLYLINE
  5
135AEE
  8
0
 66
     1
 10
0.0
 20
0.0
 30
0.0
 70
    64
 71
     8
 72
     6
  0
VERTEX
  5
135AEF
  8
0
 10
-32.56698729810778
 20
-18.0
 30
-25.75
 70
   192
  0
VERTEX
  5
135AF0
  8
0
 10
-32.75
 20
-18.0
 30
-25.93301270189222
 70
   192
  0
VERTEX
  5
135AF1
  8
0
 10
-32.75
 20
33.0
 30
-25.93301270189222
 70
   192
  0
VERTEX
  5
135AF2
  8
0
 10
-32.5
 20
-18.0
 30
-25.5
 70
   192
  0
VERTEX
  5
135AF3
  8
0
 10
-32.56698729810778
 20
33.0
 30
-25.75
 70
   192
  0
VERTEX
  5
135AF4
  8
0
 10
-32.5
 20
33.0
 30
-25.5
 70
   192
  0
VERTEX
  5
135AF5
  8
0
 10
-33.0
 20
-18.0
 30
-26.0
 70
   192
  0
VERTEX
  5
135AF6
  8
0
 10
-33.0
 20
33.00000000039
 30
-26.0
 70
   192
  0
VERTEX
  5
135AF7
  8
0
 10
0.0
 20
0.0
 30
0.0
 70
   128
 71
     1
 72
     2
 73
    -3
  0
VERTEX
  5
135AF8
  8
0
 10
0.0
 20
0.0
 30
0.0
 70
   128
 71
     4
 72
     1
 73
    -5
  0
VERTEX
  5
135AF9
  8
0
 10
0.0
 20
0.0
 30
0.0
 70
   128
 71
     6
 72
    -4
 73
     5
  0
VERTEX
  5
135AFA
  8
0
 10
0.0
 20
0.0
 30
0.0
 70
   128
 71
     5
 72
    -1
 73
     3
  0
VERTEX
  5
135AFB
  8
0
 10
0.0
 20
0.0
 30
0.0
 70
   128
 71
     3
 72
     2
 73
    -7
  0
VERTEX
  5
135AFC
  8
0
 10
0.0
 20
0.0
 30
0.0
 70
   128
 71
    -3
 72
     7
 73
     8
  0
SEQEND
  5
135E4B
  8
0
  0
POLYLINE
  5
135AFD
  8
0
 66
     1
 10
0.0
 20
0.0
 30
0.0
 70
    64
 71
     9
 72
     7
  0
VERTEX
  5
135AFE
  8
0
 10
-33.0
 20
33.25000000022517
 30
-25.93301270176222
 70
   192
  0
VERTEX
  5
135AFF
  8
0
 10
-33.0
 20
33.43301270195722
 30
-25.74999999988741
 70
   192
  0
VERTEX
  5
135B00
  8
0
 10
-33.0
 20
33.5
 30
-25.5
 70
   192
  0
VERTEX
  5
135B01
  8
0
 10
-32.75
 20
33.0
 30
-25.93301270189222
 70
   192
  0
VERTEX
  5
135B02
  8
0
 10
-32.56698729810778
 20
33.0
 30
-25.75
 70
   192
  0
VERTEX
  5
135B03
  8
0
 10
-33.0
 20
33.0
 30
-26.0
 70
   192
  0
VERTEX
  5
135B04
  8
0
 10
-32.56698729810778
 20
33.25
 30
-25.5
 70
   192
  0
VERTEX
  5
135B05
  8
0
 10
-32.5
 20
33.0
 30
-25.5
 70
   192
  0
VERTEX
  5
135B06
  8
0
 10
-32.75
 20
33.43301270189222
 30
-25.5
 70
   192
  0
VERTEX
  5
135B07
  8
0
 10
0.0
 20
0.0
 30
0.0
 70
   128
 71
     1
 72
     2
 73
    -3
  0
VERTEX
  5
135B08
  8
0
 10
0.0
 20
0.0
 30
0.0
 70
   128
 71
     4
 72
     3
 73
     5
  0
VERTEX
  5
135B09
  8
0
 10
0.0
 20
0.0
 30
0.0
 70
   128
 71
     6
 72
    -1
 73
     3
  0
VERTEX
  5
135B0A
  8
0
 10
0.0
 20
0.0
 30
0.0
 70
   128
 71
     6
 72
     3
 73
     4
  0
VERTEX
  5
135B0B
  8
0
 10
0.0
 20
0.0
 30
0.0
 70
   128
 71
     7
 72
     8
 73
     5
  0
VERTEX
  5
135B0C
  8
0
 10
0.0
 20
0.0
 30
0.0
 70
   128
 71
     5
 72
     3
 73
     9
  0
VERTEX
  5
135B0D
  8
0
 10
0.0
 20
0.0
 30
0.0
 70
   128
 71
     5
 72
     9
 73
     7
  0
SEQEND
  5
135E4C
  8
0
  0
POLYLINE
  5
135B0E
  8
0
 66
     1
 10
0.0
 20
0.0
 30
0.0
 70
    64
 71
     8
 72
     6
  0
VERTEX
  5
135B0F
  8
0
 10
-42.0
 20
33.43301270189222
 30
-25.75
 70
   192
  0
VERTEX
  5
135B10
  8
0
 10
-33.0
 20
33.43301270195722
 30
-25.74999999988741
 70
   192
  0
VERTEX
  5
135B11
  8
0
 10
-33.0
 20
33.25000000022517
 30
-25.93301270176222
 70
   192
  0
VERTEX
  5
135B12
  8
0
 10
-42.0
 20
33.25
 30
-25.93301270189222
 70
   192
  0
VERTEX
  5
135B13
  8
0
 10
-42.0
 20
33.5
 30
-25.5
 70
   192
  0
VERTEX
  5
135B14
  8
0
 10
-33.0
 20
33.5
 30
-25.50000000409
 70
   192
  0
VERTEX
  5
135B15
  8
0
 10
-33.0
 20
33.00000000039
 30
-26.0
 70
   192
  0
VERTEX
  5
135B16
  8
0
 10
-42.0
 20
33.00000000000492
 30
-26.0
 70
   192
  0
VERTEX
  5
135B17
  8
0
 10
0.0
 20
0.0
 30
0.0
 70
   128
 71
     1
 72
     2
 73
    -3
  0
VERTEX
  5
135B18
  8
0
 10
0.0
 20
0.0
 30
0.0
 70
   128
 71
    -1
 72
     3
 73
     4
  0
VERTEX
  5
135B19
  8
0
 10
0.0
 20
0.0
 30
0.0
 70
   128
 71
     5
 72
     6
 73
    -2
  0
VERTEX
  5
135B1A
  8
0
 10
0.0
 20
0.0
 30
0.0
 70
   128
 71
    -5
 72
     2
 73
     1
  0
VERTEX
  5
135B1B
  8
0
 10
0.0
 20
0.0
 30
0.0
 70
   128
 71
     4
 72
     3
 73
    -7
  0
VERTEX
  5
135B1C
  8
0
 10
0.0
 20
0.0
 30
0.0
 70
   128
 71
    -4
 72
     7
 73
     8
  0
SEQEND
  5
135E4D
  8
0
  0
POLYLINE
  5
135B1D
  8
0
 66
     1
 10
0.0
 20
0.0
 30
0.0
 70
    64
 71
     4
 72
     2
  0
VERTEX
  5
135B1E
  8
0
 10
-33.0
 20
33.5
 30
-25.50000000409
 70
   192
  0
VERTEX
  5
135B1F
  8
0
 10
-42.0
 20
33.5
 30
-25.50000000000406
 70
   192
  0
VERTEX
  5
135B20
  8
0
 10
-42.0
 20
33.5
 30
25.5
 70
   192
  0
VERTEX
  5
135B21
  8
0
 10
-33.0
 20
33.5
 30
25.50000000039
 70
   192
  0
VERTEX
  5
135B22
  8
0
 10
0.0
 20
0.0
 30
0.0
 70
   128
 71
     3
 72
     4
 73
    -1
  0
VERTEX
  5
135B23
  8
0
 10
0.0
 20
0.0
 30
0.0
 70
   128
 71
     2
 72
    -3
 73
     1
  0
SEQEND
  5
135E4E
  8
0
  0
POLYLINE
  5
135B24
  8
0
 66
     1
 10
0.0
 20
0.0
 30
0.0
 70
    64
 71
     8
 72
     6
  0
VERTEX
  5
135B25
  8
0
 10
-32.56698729810778
 20
33.25
 30
-25.5
 70
   192
  0
VERTEX
  5
135B26
  8
0
 10
-32.75
 20
33.43301270189222
 30
-25.5
 70
   192
  0
VERTEX
  5
135B27
  8
0
 10
-32.75
 20
33.43301270189222
 30
25.5
 70
   192
  0
VERTEX
  5
135B28
  8
0
 10
-32.5
 20
33.0
 30
-25.5
 70
   192
  0
VERTEX
  5
135B29
  8
0
 10
-32.56698729810778
 20
33.25
 30
25.5
 70
   192
  0
VERTEX
  5
135B2A
  8
0
 10
-32.5
 20
33.0
 30
25.5
 70
   192
  0
VERTEX
  5
135B2B
  8
0
 10
-33.0
 20
33.5
 30
-25.5
 70
   192
  0
VERTEX
  5
135B2C
  8
0
 10
-33.0
 20
33.5
 30
25.50000000039
 70
   192
  0
VERTEX
  5
135B2D
  8
0
 10
0.0
 20
0.0
 30
0.0
 70
   128
 71
     1
 72
     2
 73
    -3
  0
VERTEX
  5
135B2E
  8
0
 10
0.0
 20
0.0
 30
0.0
 70
   128
 71
     4
 72
     1
 73
    -5
  0
VERTEX
  5
135B2F
  8
0
 10
0.0
 20
0.0
 30
0.0
 70
   128
 71
     6
 72
    -4
 73
     5
  0
VERTEX
  5
135B30
  8
0
 10
0.0
 20
0.0
 30
0.0
 70
   128
 71
     5
 72
    -1
 73
     3
  0
VERTEX
  5
135B31
  8
0
 10
0.0
 20
0.0
 30
0.0
 70
   128
 71
     3
 72
     2
 73
    -7
  0
VERTEX
  5
135B32
  8
0
 10
0.0
 20
0.0
 30
0.0
 70
   128
 71
    -3
 72
     7
 73
     8
  0
SEQEND
  5
135E4F
  8
0
  0
POLYLINE
  5
135B33
  8
0
 66
     1
 10
0.0
 20
0.0
 30
0.0
 70
    64
 71
    11
 72
     9
  0
VERTEX
  5
135B34
  8
0
 10
-32.75
 20
33.43301270189222
 30
25.5
 70
   192
  0
VERTEX
  5
135B35
  8
0
 10
-33.0
 20
33.5
 30
25.5
 70
   192
  0
VERTEX
  5
135B36
  8
0
 10
-33.0
 20
33.5
 30
25.500000000195
 70
   192
  0
VERTEX
  5
135B37
  8
0
 10
-32.56698729810778
 20
33.25
 30
25.5
 70
   192
  0
VERTEX
  5
135B38
  8
0
 10
-32.75
 20
33.0
 30
25.93301270189222
 70
   192
  0
VERTEX
  5
135B39
  8
0
 10
-33.0
 20
33.5
 30
25.50000000039
 70
   192
  0
VERTEX
  5
135B3A
  8
0
 10
-32.56698729810778
 20
33.0
 30
25.75
 70
   192
  0
VERTEX
  5
135B3B
  8
0
 10
-32.5
 20
33.0
 30
25.5
 70
   192
  0
VERTEX
  5
135B3C
  8
0
 10
-33.0
 20
33.24999999988741
 30
25.93301270195722
 70
   192
  0
VERTEX
  5
135B3D
  8
0
 10
-33.0
 20
33.0
 30
26.0
 70
   192
  0
VERTEX
  5
135B3E
  8
0
 10
-33.0
 20
33.43301270176222
 30
25.75000000022517
 70
   192
  0
VERTEX
  5
135B3F
  8
0
 10
0.0
 20
0.0
 30
0.0
 70
   128
 71
     1
 72
     2
 73
     3
  0
VERTEX
  5
135B40
  8
0
 10
0.0
 20
0.0
 30
0.0
 70
   128
 71
     4
 72
     1
 73
    -3
  0
VERTEX
  5
135B41
  8
0
 10
0.0
 20
0.0
 30
0.0
 70
   128
 71
     5
 72
     3
 73
     6
  0
VERTEX
  5
135B42
  8
0
 10
0.0
 20
0.0
 30
0.0
 70
   128
 71
     7
 72
     3
 73
     5
  0
VERTEX
  5
135B43
  8
0
 10
0.0
 20
0.0
 30
0.0
 70
   128
 71
     8
 72
    -4
 73
     3
  0
VERTEX
  5
135B44
  8
0
 10
0.0
 20
0.0
 30
0.0
 70
   128
 71
     8
 72
     3
 73
     7
  0
VERTEX
  5
135B45
  8
0
 10
0.0
 20
0.0
 30
0.0
 70
   128
 71
     9
 72
    10
 73
     5
  0
VERTEX
  5
135B46
  8
0
 10
0.0
 20
0.0
 30
0.0
 70
   128
 71
     5
 72
     6
 73
    11
  0
VERTEX
  5
135B47
  8
0
 10
0.0
 20
0.0
 30
0.0
 70
   128
 71
     5
 72
    11
 73
     9
  0
SEQEND
  5
135E50
  8
0
  0
POLYLINE
  5
135B48
  8
0
 66
     1
 10
0.0
 20
0.0
 30
0.0
 70
    64
 71
     8
 72
     6
  0
VERTEX
  5
135B49
  8
0
 10
-42.0
 20
33.25
 30
25.93301270189222
 70
   192
  0
VERTEX
  5
135B4A
  8
0
 10
-33.0
 20
33.24999999988741
 30
25.93301270195722
 70
   192
  0
VERTEX
  5
135B4B
  8
0
 10
-33.0
 20
33.43301270176222
 30
25.75000000022517
 70
   192
  0
VERTEX
  5
135B4C
  8
0
 10
-42.0
 20
33.43301270189222
 30
25.75
 70
   192
  0
VERTEX
  5
135B4D
  8
0
 10
-42.0
 20
33.0
 30
26.0
 70
   192
  0
VERTEX
  5
135B4E
  8
0
 10
-33.0
 20
33.00000000409
 30
26.0
 70
   192
  0
VERTEX
  5
135B4F
  8
0
 10
-33.0
 20
33.5
 30
25.50000000039
 70
   192
  0
VERTEX
  5
135B50
  8
0
 10
-42.0
 20
33.5
 30
25.50000000000492
 70
   192
  0
VERTEX
  5
135B51
  8
0
 10
0.0
 20
0.0
 30
0.0
 70
   128
 71
     1
 72
     2
 73
    -3
  0
VERTEX
  5
135B52
  8
0
 10
0.0
 20
0.0
 30
0.0
 70
   128
 71
    -1
 72
     3
 73
     4
  0
VERTEX
  5
135B53
  8
0
 10
0.0
 20
0.0
 30
0.0
 70
   128
 71
     5
 72
     6
 73
    -2
  0
VERTEX
  5
135B54
  8
0
 10
0.0
 20
0.0
 30
0.0
 70
   128
 71
    -5
 72
     2
 73
     1
  0
VERTEX
  5
135B55
  8
0
 10
0.0
 20
0.0
 30
0.0
 70
   128
 71
     4
 72
     3
 73
    -7
  0
VERTEX
  5
135B56
  8
0
 10
0.0
 20
0.0
 30
0.0
 70
   128
 71
    -4
 72
     7
 73
     8
  0
SEQEND
  5
135E51
  8
0
  0
POLYLINE
  5
135B57
  8
0
 66
     1
 10
0.0
 20
0.0
 30
0.0
 70
    64
 71
     4
 72
     2
  0
VERTEX
  5
135B58
  8
0
 10
-33.0
 20
33.00000000409
 30
26.0
 70
   192
  0
VERTEX
  5
135B59
  8
0
 10
-42.0
 20
33.00000000000406
 30
26.0
 70
   192
  0
VERTEX
  5
135B5A
  8
0
 10
-42.0
 20
-18.0
 30
26.0
 70
   192
  0
VERTEX
  5
135B5B
  8
0
 10
-33.0
 20
-18.00000000039
 30
26.0
 70
   192
  0
VERTEX
  5
135B5C
  8
0
 10
0.0
 20
0.0
 30
0.0
 70
   128
 71
     3
 72
     4
 73
    -1
  0
VERTEX
  5
135B5D
  8
0
 10
0.0
 20
0.0
 30
0.0
 70
   128
 71
     2
 72
    -3
 73
     1
  0
SEQEND
  5
135E52
  8
0
  0
POLYLINE
  5
135B5E
  8
0
 66
     1
 10
0.0
 20
0.0
 30
0.0
 70
    64
 71
     8
 72
     6
  0
VERTEX
  5
135B5F
  8
0
 10
-32.56698729810778
 20
-18.0
 30
25.75
 70
   192
  0
VERTEX
  5
135B60
  8
0
 10
-32.56698729810778
 20
33.0
 30
25.75
 70
   192
  0
VERTEX
  5
135B61
  8
0
 10
-32.75
 20
33.0
 30
25.93301270189222
 70
   192
  0
VERTEX
  5
135B62
  8
0
 10
-32.75
 20
-18.0
 30
25.93301270189222
 70
   192
  0
VERTEX
  5
135B63
  8
0
 10
-32.5
 20
-18.0
 30
25.5
 70
   192
  0
VERTEX
  5
135B64
  8
0
 10
-32.5
 20
33.0
 30
25.5
 70
   192
  0
VERTEX
  5
135B65
  8
0
 10
-33.0
 20
33.0
 30
26.0
 70
   192
  0
VERTEX
  5
135B66
  8
0
 10
-33.0
 20
-18.0
 30
26.0
 70
   192
  0
VERTEX
  5
135B67
  8
0
 10
0.0
 20
0.0
 30
0.0
 70
   128
 71
     1
 72
     2
 73
    -3
  0
VERTEX
  5
135B68
  8
0
 10
0.0
 20
0.0
 30
0.0
 70
   128
 71
    -1
 72
     3
 73
     4
  0
VERTEX
  5
135B69
  8
0
 10
0.0
 20
0.0
 30
0.0
 70
   128
 71
     5
 72
     6
 73
    -2
  0
VERTEX
  5
135B6A
  8
0
 10
0.0
 20
0.0
 30
0.0
 70
   128
 71
    -5
 72
     2
 73
     1
  0
VERTEX
  5
135B6B
  8
0
 10
0.0
 20
0.0
 30
0.0
 70
   128
 71
     4
 72
     3
 73
    -7
  0
VERTEX
  5
135B6C
  8
0
 10
0.0
 20
0.0
 30
0.0
 70
   128
 71
    -4
 72
     7
 73
     8
  0
SEQEND
  5
135E53
  8
0
  0
POLYLINE
  5
135B6D
  8
0
 66
     1
 10
0.0
 20
0.0
 30
0.0
 70
    64
 71
     9
 72
     7
  0
VERTEX
  5
135B6E
  8
0
 10
-33.0
 20
-18.25
 30
25.93301270189222
 70
   192
  0
VERTEX
  5
135B6F
  8
0
 10
-33.0
 20
-18.43301270189222
 30
25.75
 70
   192
  0
VERTEX
  5
135B70
  8
0
 10
-33.0
 20
-18.5
 30
25.5
 70
   192
  0
VERTEX
  5
135B71
  8
0
 10
-32.56698729810778
 20
-18.0
 30
25.75
 70
   192
  0
VERTEX
  5
135B72
  8
0
 10
-32.75
 20
-18.0
 30
25.93301270189222
 70
   192
  0
VERTEX
  5
135B73
  8
0
 10
-32.56698729810778
 20
-18.25
 30
25.5
 70
   192
  0
VERTEX
  5
135B74
  8
0
 10
-32.5
 20
-18.0
 30
25.5
 70
   192
  0
VERTEX
  5
135B75
  8
0
 10
-32.75
 20
-18.43301270189222
 30
25.5
 70
   192
  0
VERTEX
  5
135B76
  8
0
 10
-33.0
 20
-18.0
 30
26.0
 70
   192
  0
VERTEX
  5
135B77
  8
0
 10
0.0
 20
0.0
 30
0.0
 70
   128
 71
     1
 72
     2
 73
     3
  0
VERTEX
  5
135B78
  8
0
 10
0.0
 20
0.0
 30
0.0
 70
   128
 71
     4
 72
     5
 73
     3
  0
VERTEX
  5
135B79
  8
0
 10
0.0
 20
0.0
 30
0.0
 70
   128
 71
     6
 72
     7
 73
     4
  0
VERTEX
  5
135B7A
  8
0
 10
0.0
 20
0.0
 30
0.0
 70
   128
 71
     4
 72
     3
 73
     8
  0
VERTEX
  5
135B7B
  8
0
 10
0.0
 20
0.0
 30
0.0
 70
   128
 71
     4
 72
     8
 73
     6
  0
VERTEX
  5
135B7C
  8
0
 10
0.0
 20
0.0
 30
0.0
 70
   128
 71
     5
 72
     9
 73
     1
  0
VERTEX
  5
135B7D
  8
0
 10
0.0
 20
0.0
 30
0.0
 70
   128
 71
     5
 72
     1
 73
     3
  0
SEQEND
  5
135E54
  8
0
  0
POLYLINE
  5
135B7E
  8
0
 66
     1
 10
0.0
 20
0.0
 30
0.0
 70
    64
 71
     8
 72
     6
  0
VERTEX
  5
135B7F
  8
0
 10
-42.0
 20
-18.43301270189222
 30
25.75
 70
   192
  0
VERTEX
  5
135B80
  8
0
 10
-33.0
 20
-18.43301270189222
 30
25.75
 70
   192
  0
VERTEX
  5
135B81
  8
0
 10
-33.0
 20
-18.25
 30
25.93301270189222
 70
   192
  0
VERTEX
  5
135B82
  8
0
 10
-42.0
 20
-18.25
 30
25.93301270189222
 70
   192
  0
VERTEX
  5
135B83
  8
0
 10
-42.0
 20
-18.5
 30
25.5
 70
   192
  0
VERTEX
  5
135B84
  8
0
 10
-33.0
 20
-18.5
 30
25.50000000409
 70
   192
  0
VERTEX
  5
135B85
  8
0
 10
-33.0
 20
-18.00000000039
 30
26.0
 70
   192
  0
VERTEX
  5
135B86
  8
0
 10
-42.0
 20
-18.00000000000491
 30
26.0
 70
   192
  0
VERTEX
  5
135B87
  8
0
 10
0.0
 20
0.0
 30
0.0
 70
   128
 71
     1
 72
     2
 73
    -3
  0
VERTEX
  5
135B88
  8
0
 10
0.0
 20
0.0
 30
0.0
 70
   128
 71
    -1
 72
     3
 73
     4
  0
VERTEX
  5
135B89
  8
0
 10
0.0
 20
0.0
 30
0.0
 70
   128
 71
     5
 72
     6
 73
    -2
  0
VERTEX
  5
135B8A
  8
0
 10
0.0
 20
0.0
 30
0.0
 70
   128
 71
    -5
 72
     2
 73
     1
  0
VERTEX
  5
135B8B
  8
0
 10
0.0
 20
0.0
 30
0.0
 70
   128
 71
     4
 72
     3
 73
    -7
  0
VERTEX
  5
135B8C
  8
0
 10
0.0
 20
0.0
 30
0.0
 70
   128
 71
    -4
 72
     7
 73
     8
  0
SEQEND
  5
135E55
  8
0
  0
POLYLINE
  5
135B8D
  8
0
 66
     1
 10
0.0
 20
0.0
 30
0.0
 70
    64
 71
     4
 72
     2
  0
VERTEX
  5
135B8E
  8
0
 10
-33.0
 20
-18.5
 30
25.50000000409
 70
   192
  0
VERTEX
  5
135B8F
  8
0
 10
-42.0
 20
-18.5
 30
25.50000000000406
 70
   192
  0
VERTEX
  5
135B90
  8
0
 10
-42.0
 20
-18.5
 30
-25.5
 70
   192
  0
VERTEX
  5
135B91
  8
0
 10
-33.0
 20
-18.5
 30
-25.50000000039
 70
   192
  0
VERTEX
  5
135B92
  8
0
 10
0.0
 20
0.0
 30
0.0
 70
   128
 71
     3
 72
     4
 73
    -1
  0
VERTEX
  5
135B93
  8
0
 10
0.0
 20
0.0
 30
0.0
 70
   128
 71
     2
 72
    -3
 73
     1
  0
SEQEND
  5
135E56
  8
0
  0
ENDBLK
  5
135E39
  8
0
  0
BLOCK
  8
0
  2
*X7
 70
     1
 10
0.0
 20
0.0
 30
0.0
  3
*X7
  1

  0
POLYLINE
  5
135B95
  8
0
 66
     1
 10
0.0
 20
0.0
 30
0.0
 70
    64
 71
    12
 72
    10
  0
VERTEX
  5
135B96
  8
0
 10
-0.5923756789092476
 20
5.0
 30
7.442956348249516
 70
   192
  0
VERTEX
  5
135B97
  8
0
 10
-6.0
 20
5.0
 30
9.2
 70
   192
  0
VERTEX
  5
135B98
  8
0
 10
-6.0
 20
2.0
 30
9.2
 70
   192
  0
VERTEX
  5
135B99
  8
0
 10
-0.5923756789092458
 20
2.0
 30
7.442956348249516
 70
   192
  0
VERTEX
  5
135B9A
  8
0
 10
-0.5923756789092485
 20
2.0
 30
-7.442956348249517
 70
   192
  0
VERTEX
  5
135B9B
  8
0
 10
-6.000000000000001
 20
2.0
 30
-9.2
 70
   192
  0
VERTEX
  5
135B9C
  8
0
 10
-5.999999999999999
 20
5.0
 30
-9.2
 70
   192
  0
VERTEX
  5
135B9D
  8
0
 10
-0.5923756789092476
 20
5.0
 30
-7.442956348249516
 70
   192
  0
VERTEX
  5
135B9E
  8
0
 10
2.749719949915413
 20
5.0
 30
2.842956348249516
 70
   192
  0
VERTEX
  5
135B9F
  8
0
 10
2.749719949915415
 20
2.0
 30
2.842956348249515
 70
   192
  0
VERTEX
  5
135BA0
  8
0
 10
2.749719949915413
 20
2.0
 30
-2.842956348249518
 70
   192
  0
VERTEX
  5
135BA1
  8
0
 10
2.749719949915413
 20
5.0
 30
-2.842956348249516
 70
   192
  0
VERTEX
  5
135BA2
  8
0
 10
0.0
 20
0.0
 30
0.0
 70
   128
 71
     1
 72
     2
 73
    -3
  0
VERTEX
  5
135BA3
  8
0
 10
0.0
 20
0.0
 30
0.0
 70
   128
 71
    -1
 72
     3
 73
     4
  0
VERTEX
  5
135BA4
  8
0
 10
0.0
 20
0.0
 30
0.0
 70
   128
 71
     5
 72
     6
 73
    -7
  0
VERTEX
  5
135BA5
  8
0
 10
0.0
 20
0.0
 30
0.0
 70
   128
 71
    -5
 72
     7
 73
     8
  0
VERTEX
  5
135BA6
  8
0
 10
0.0
 20
0.0
 30
0.0
 70
   128
 71
     9
 72
    10
 73
   -11
  0
VERTEX
  5
135BA7
  8
0
 10
0.0
 20
0.0
 30
0.0
 70
   128
 71
    -9
 72
    11
 73
    12
  0
VERTEX
  5
135BA8
  8
0
 10
0.0
 20
0.0
 30
0.0
 70
   128
 71
     1
 72
     4
 73
   -10
  0
VERTEX
  5
135BA9
  8
0
 10
0.0
 20
0.0
 30
0.0
 70
   128
 71
    -1
 72
    10
 73
     9
  0
VERTEX
  5
135BAA
  8
0
 10
0.0
 20
0.0
 30
0.0
 70
   128
 71
    12
 72
    11
 73
    -5
  0
VERTEX
  5
135BAB
  8
0
 10
0.0
 20
0.0
 30
0.0
 70
   128
 71
   -12
 72
     5
 73
     8
  0
SEQEND
  5
135E59
  8
0
  0
POLYLINE
  5
135BAC
  8
0
 66
     1
 10
0.0
 20
0.0
 30
0.0
 70
    64
 71
    10
 72
     8
  0
VERTEX
  5
135BAD
  8
0
 10
-12.07331512444905
 20
-5.0
 30
6.573989914742909
 70
   192
  0
VERTEX
  5
135BAE
  8
0
 10
-6.000000000000004
 20
-5.0
 30
-8.950000000000173
 70
   192
  0
VERTEX
  5
135BAF
  8
0
 10
-6.0
 20
-15.0
 30
-8.950000000000061
 70
   192
  0
VERTEX
  5
135BB0
  8
0
 10
-12.07331512444897
 20
-15.0
 30
6.57398991474283
 70
   192
  0
VERTEX
  5
135BB1
  8
0
 10
-14.33485781933171
 20
-15.0
 30
-3.260773701366928
 70
   192
  0
VERTEX
  5
135BB2
  8
0
 10
-14.33485781933181
 20
-5.0
 30
-3.260773701366968
 70
   192
  0
VERTEX
  5
135BB3
  8
0
 10
-14.72235666208752
 20
-15.0
 30
2.005740326996146
 70
   192
  0
VERTEX
  5
135BB4
  8
0
 10
-14.72235666208763
 20
-5.0
 30
2.00574032699617
 70
   192
  0
VERTEX
  5
135BB5
  8
0
 10
-11.04571973918325
 20
-15.0
 30
-7.392104728263638
 70
   192
  0
VERTEX
  5
135BB6
  8
0
 10
-11.04571973918331
 20
-5.0
 30
-7.39210472826373
 70
   192
  0
VERTEX
  5
135BB7
  8
0
 10
0.0
 20
0.0
 30
0.0
 70
   128
 71
     7
 72
     4
 73
    -1
  0
VERTEX
  5
135BB8
  8
0
 10
0.0
 20
0.0
 30
0.0
 70
   128
 71
    -7
 72
     1
 73
     8
  0
VERTEX
  5
135BB9
  8
0
 10
0.0
 20
0.0
 30
0.0
 70
   128
 71
     6
 72
     5
 73
    -7
  0
VERTEX
  5
135BBA
  8
0
 10
0.0
 20
0.0
 30
0.0
 70
   128
 71
    -6
 72
     7
 73
     8
  0
VERTEX
  5
135BBB
  8
0
 10
0.0
 20
0.0
 30
0.0
 70
   128
 71
    10
 72
     9
 73
    -5
  0
VERTEX
  5
135BBC
  8
0
 10
0.0
 20
0.0
 30
0.0
 70
   128
 71
   -10
 72
     5
 73
     6
  0
VERTEX
  5
135BBD
  8
0
 10
0.0
 20
0.0
 30
0.0
 70
   128
 71
     2
 72
     3
 73
    -9
  0
VERTEX
  5
135BBE
  8
0
 10
0.0
 20
0.0
 30
0.0
 70
   128
 71
    -2
 72
     9
 73
    10
  0
SEQEND
  5
135E5A
  8
0
  0
POLYLINE
  5
135BBF
  8
0
 66
     1
 10
0.0
 20
0.0
 30
0.0
 70
    64
 71
    12
 72
    10
  0
VERTEX
  5
135BC0
  8
0
 10
-13.5
 20
-15.0
 30
0.0
 70
   192
  0
VERTEX
  5
135BC1
  8
0
 10
-13.5
 20
5.0
 30
-0.0000000000000009
 70
   192
  0
VERTEX
  5
135BC2
  8
0
 10
-12.06762745781211
 20
5.0
 30
4.408389392193548
 70
   192
  0
VERTEX
  5
135BC3
  8
0
 10
-12.06762745781211
 20
-15.0
 30
4.408389392193548
 70
   192
  0
VERTEX
  5
135BC4
  8
0
 10
1.5
 20
5.0
 30
0.0
 70
   192
  0
VERTEX
  5
135BC5
  8
0
 10
1.5
 20
-15.0
 30
0.0
 70
   192
  0
VERTEX
  5
135BC6
  8
0
 10
0.0676274578121063
 20
-15.0
 30
4.408389392193548
 70
   192
  0
VERTEX
  5
135BC7
  8
0
 10
0.0676274578121063
 20
5.0
 30
4.408389392193548
 70
   192
  0
VERTEX
  5
135BC8
  8
0
 10
-3.682372542187895
 20
-15.0
 30
7.132923872213652
 70
   192
  0
VERTEX
  5
135BC9
  8
0
 10
-8.317627457812106
 20
-15.0
 30
7.132923872213652
 70
   192
  0
VERTEX
  5
135BCA
  8
0
 10
-8.317627457812106
 20
5.0
 30
7.132923872213652
 70
   192
  0
VERTEX
  5
135BCB
  8
0
 10
-3.682372542187895
 20
5.0
 30
7.132923872213652
 70
   192
  0
VERTEX
  5
135BCC
  8
0
 10
0.0
 20
0.0
 30
0.0
 70
   128
 71
     1
 72
     2
 73
    -3
  0
VERTEX
  5
135BCD
  8
0
 10
0.0
 20
0.0
 30
0.0
 70
   128
 71
     4
 72
    -1
 73
     3
  0
VERTEX
  5
135BCE
  8
0
 10
0.0
 20
0.0
 30
0.0
 70
   128
 71
     5
 72
     6
 73
    -7
  0
VERTEX
  5
135BCF
  8
0
 10
0.0
 20
0.0
 30
0.0
 70
   128
 71
     8
 72
    -5
 73
     7
  0
VERTEX
  5
135BD0
  8
0
 10
0.0
 20
0.0
 30
0.0
 70
   128
 71
     9
 72
    10
 73
   -11
  0
VERTEX
  5
135BD1
  8
0
 10
0.0
 20
0.0
 30
0.0
 70
   128
 71
    12
 72
    -9
 73
    11
  0
VERTEX
  5
135BD2
  8
0
 10
0.0
 20
0.0
 30
0.0
 70
   128
 71
    10
 72
     4
 73
    -3
  0
VERTEX
  5
135BD3
  8
0
 10
0.0
 20
0.0
 30
0.0
 70
   128
 71
    11
 72
   -10
 73
     3
  0
VERTEX
  5
135BD4
  8
0
 10
0.0
 20
0.0
 30
0.0
 70
   128
 71
     7
 72
     9
 73
   -12
  0
VERTEX
  5
135BD5
  8
0
 10
0.0
 20
0.0
 30
0.0
 70
   128
 71
     8
 72
    -7
 73
    12
  0
SEQEND
  5
135E5B
  8
0
  0
POLYLINE
  5
135BD6
  8
0
 66
     1
 10
0.0
 20
0.0
 30
0.0
 70
    64
 71
    20
 72
    20
  0
VERTEX
  5
135BD7
  8
0
 10
-6.0
 20
5.0
 30
9.2
 70
   192
  0
VERTEX
  5
135BD8
  8
0
 10
-0.5923756789092476
 20
5.0
 30
7.442956348249516
 70
   192
  0
VERTEX
  5
135BD9
  8
0
 10
2.749719949915413
 20
5.0
 30
2.842956348249516
 70
   192
  0
VERTEX
  5
135BDA
  8
0
 10
2.749719949915413
 20
5.0
 30
-2.842956348249516
 70
   192
  0
VERTEX
  5
135BDB
  8
0
 10
-0.5923756789092476
 20
5.0
 30
-7.442956348249516
 70
   192
  0
VERTEX
  5
135BDC
  8
0
 10
-6.0
 20
5.0
 30
-9.2
 70
   192
  0
VERTEX
  5
135BDD
  8
0
 10
-11.40762432109075
 20
5.0
 30
-7.442956348249517
 70
   192
  0
VERTEX
  5
135BDE
  8
0
 10
-14.74971994991541
 20
5.0
 30
-2.842956348249518
 70
   192
  0
VERTEX
  5
135BDF
  8
0
 10
-14.74971994991541
 20
5.0
 30
2.842956348249515
 70
   192
  0
VERTEX
  5
135BE0
  8
0
 10
-11.40762432109075
 20
5.0
 30
7.442956348249516
 70
   192
  0
VERTEX
  5
135BE1
  8
0
 10
-13.5
 20
5.0
 30
0.0
 70
   192
  0
VERTEX
  5
135BE2
  8
0
 10
-12.06762745781211
 20
5.0
 30
-4.408389392193548
 70
   192
  0
VERTEX
  5
135BE3
  8
0
 10
-8.317627457812105
 20
5.0
 30
-7.132923872213652
 70
   192
  0
VERTEX
  5
135BE4
  8
0
 10
-3.682372542187894
 20
5.0
 30
-7.132923872213652
 70
   192
  0
VERTEX
  5
135BE5
  8
0
 10
0.0676274578121063
 20
5.0
 30
-4.408389392193548
 70
   192
  0
VERTEX
  5
135BE6
  8
0
 10
1.5
 20
5.0
 30
0.0000000000000005
 70
   192
  0
VERTEX
  5
135BE7
  8
0
 10
0.0676274578121063
 20
5.0
 30
4.408389392193548
 70
   192
  0
VERTEX
  5
135BE8
  8
0
 10
-3.682372542187895
 20
5.0
 30
7.132923872213652
 70
   192
  0
VERTEX
  5
135BE9
  8
0
 10
-8.317627457812106
 20
5.0
 30
7.132923872213652
 70
   192
  0
VERTEX
  5
135BEA
  8
0
 10
-12.06762745781211
 20
5.0
 30
4.408389392193548
 70
   192
  0
VERTEX
  5
135BEB
  8
0
 10
0.0
 20
0.0
 30
0.0
 70
   128
 71
     8
 72
    -9
 73
   -11
  0
VERTEX
  5
135BEC
  8
0
 10
0.0
 20
0.0
 30
0.0
 70
   128
 71
    11
 72
   -12
 73
    -8
  0
VERTEX
  5
135BED
  8
0
 10
0.0
 20
0.0
 30
0.0
 70
   128
 71
     7
 72
    -8
 73
   -12
  0
VERTEX
  5
135BEE
  8
0
 10
0.0
 20
0.0
 30
0.0
 70
   128
 71
    12
 72
   -13
 73
    -7
  0
VERTEX
  5
135BEF
  8
0
 10
0.0
 20
0.0
 30
0.0
 70
   128
 71
     6
 72
    -7
 73
   -13
  0
VERTEX
  5
135BF0
  8
0
 10
0.0
 20
0.0
 30
0.0
 70
   128
 71
    13
 72
   -14
 73
    -6
  0
VERTEX
  5
135BF1
  8
0
 10
0.0
 20
0.0
 30
0.0
 70
   128
 71
   -14
 72
     5
 73
    -6
  0
VERTEX
  5
135BF2
  8
0
 10
0.0
 20
0.0
 30
0.0
 70
   128
 71
    14
 72
   -15
 73
    -5
  0
VERTEX
  5
135BF3
  8
0
 10
0.0
 20
0.0
 30
0.0
 70
   128
 71
   -15
 72
     4
 73
    -5
  0
VERTEX
  5
135BF4
  8
0
 10
0.0
 20
0.0
 30
0.0
 70
   128
 71
    15
 72
   -16
 73
    -4
  0
VERTEX
  5
135BF5
  8
0
 10
0.0
 20
0.0
 30
0.0
 70
   128
 71
   -16
 72
     3
 73
    -4
  0
VERTEX
  5
135BF6
  8
0
 10
0.0
 20
0.0
 30
0.0
 70
   128
 71
    16
 72
   -17
 73
    -3
  0
VERTEX
  5
135BF7
  8
0
 10
0.0
 20
0.0
 30
0.0
 70
   128
 71
     2
 72
    -3
 73
   -17
  0
VERTEX
  5
135BF8
  8
0
 10
0.0
 20
0.0
 30
0.0
 70
   128
 71
    17
 72
   -18
 73
    -2
  0
VERTEX
  5
135BF9
  8
0
 10
0.0
 20
0.0
 30
0.0
 70
   128
 71
   -18
 72
     1
 73
    -2
  0
VERTEX
  5
135BFA
  8
0
 10
0.0
 20
0.0
 30
0.0
 70
   128
 71
    18
 72
   -19
 73
    -1
  0
VERTEX
  5
135BFB
  8
0
 10
0.0
 20
0.0
 30
0.0
 70
   128
 71
    10
 72
    -1
 73
   -19
  0
VERTEX
  5
135BFC
  8
0
 10
0.0
 20
0.0
 30
0.0
 70
   128
 71
    19
 72
   -20
 73
   -10
  0
VERTEX
  5
135BFD
  8
0
 10
0.0
 20
0.0
 30
0.0
 70
   128
 71
     9
 72
   -10
 73
   -20
  0
VERTEX
  5
135BFE
  8
0
 10
0.0
 20
0.0
 30
0.0
 70
   128
 71
    20
 72
   -11
 73
    -9
  0
SEQEND
  5
135E5C
  8
0
  0
POLYLINE
  5
135BFF
  8
0
 66
     1
 10
0.0
 20
0.0
 30
0.0
 70
    64
 71
    40
 72
    20
  0
VERTEX
  5
135C00
  8
0
 10
-4.028770306111253
 20
2.0
 30
-8.559508646656383
 70
   192
  0
VERTEX
  5
135C01
  8
0
 10
-3.218847050625473
 20
2.0
 30
-8.559508646656383
 70
   192
  0
VERTEX
  5
135C02
  8
0
 10
-2.563605372797995
 20
2.0
 30
-8.083447701593133
 70
   192
  0
VERTEX
  5
135C03
  8
0
 10
-7.971229693888747
 20
2.0
 30
-8.559508646656383
 70
   192
  0
VERTEX
  5
135C04
  8
0
 10
-6.0
 20
2.0
 30
-9.2
 70
   192
  0
VERTEX
  5
135C05
  8
0
 10
-9.436394627202006
 20
2.0
 30
-8.083447701593133
 70
   192
  0
VERTEX
  5
135C06
  8
0
 10
-8.781152949374526
 20
2.0
 30
-8.559508646656383
 70
   192
  0
VERTEX
  5
135C07
  8
0
 10
-0.5923756789092485
 20
2.0
 30
-7.442956348249517
 70
   192
  0
VERTEX
  5
135C08
  8
0
 10
0.6259112715470483
 20
2.0
 30
-5.766128215695509
 70
   192
  0
VERTEX
  5
135C09
  8
0
 10
-12.62591127154705
 20
2.0
 30
-5.766128215695509
 70
   192
  0
VERTEX
  5
135C0A
  8
0
 10
-11.40762432109075
 20
2.0
 30
-7.442956348249516
 70
   192
  0
VERTEX
  5
135C0B
  8
0
 10
1.281152949374527
 20
2.0
 30
-5.290067270632258
 70
   192
  0
VERTEX
  5
135C0C
  8
0
 10
1.531432999459115
 20
2.0
 30
-4.519784480803525
 70
   192
  0
VERTEX
  5
135C0D
  8
0
 10
-13.53143299945912
 20
2.0
 30
-4.519784480803523
 70
   192
  0
VERTEX
  5
135C0E
  8
0
 10
-13.28115294937453
 20
2.0
 30
-5.290067270632258
 70
   192
  0
VERTEX
  5
135C0F
  8
0
 10
-14.74971994991541
 20
2.0
 30
-0.7702827898287337
 70
   192
  0
VERTEX
  5
135C10
  8
0
 10
-14.74971994991541
 20
2.0
 30
-2.842956348249516
 70
   192
  0
VERTEX
  5
135C11
  8
0
 10
2.749719949915413
 20
2.0
 30
-2.842956348249518
 70
   192
  0
VERTEX
  5
135C12
  8
0
 10
2.749719949915413
 20
2.0
 30
-0.7702827898287313
 70
   192
  0
VERTEX
  5
135C13
  8
0
 10
3.0
 20
2.0
 30
0.0
 70
   192
  0
VERTEX
  5
135C14
  8
0
 10
2.749719949915413
 20
2.0
 30
0.7702827898287296
 70
   192
  0
VERTEX
  5
135C15
  8
0
 10
-14.74971994991541
 20
2.0
 30
0.7702827898287347
 70
   192
  0
VERTEX
  5
135C16
  8
0
 10
-15.0
 20
2.0
 30
0.0
 70
   192
  0
VERTEX
  5
135C17
  8
0
 10
2.749719949915415
 20
2.0
 30
2.842956348249515
 70
   192
  0
VERTEX
  5
135C18
  8
0
 10
1.531432999459115
 20
2.0
 30
4.519784480803524
 70
   192
  0
VERTEX
  5
135C19
  8
0
 10
-13.53143299945911
 20
2.0
 30
4.519784480803524
 70
   192
  0
VERTEX
  5
135C1A
  8
0
 10
-14.74971994991541
 20
2.0
 30
2.842956348249516
 70
   192
  0
VERTEX
  5
135C1B
  8
0
 10
1.281152949374527
 20
2.0
 30
5.290067270632258
 70
   192
  0
VERTEX
  5
135C1C
  8
0
 10
0.6259112715470501
 20
2.0
 30
5.766128215695509
 70
   192
  0
VERTEX
  5
135C1D
  8
0
 10
-12.62591127154705
 20
2.0
 30
5.766128215695509
 70
   192
  0
VERTEX
  5
135C1E
  8
0
 10
-13.28115294937453
 20
2.0
 30
5.290067270632258
 70
   192
  0
VERTEX
  5
135C1F
  8
0
 10
-9.436394627202002
 20
2.0
 30
8.083447701593133
 70
   192
  0
VERTEX
  5
135C20
  8
0
 10
-11.40762432109075
 20
2.0
 30
7.442956348249516
 70
   192
  0
VERTEX
  5
135C21
  8
0
 10
-0.5923756789092458
 20
2.0
 30
7.442956348249516
 70
   192
  0
VERTEX
  5
135C22
  8
0
 10
-2.563605372797997
 20
2.0
 30
8.083447701593135
 70
   192
  0
VERTEX
  5
135C23
  8
0
 10
-3.218847050625473
 20
2.0
 30
8.559508646656383
 70
   192
  0
VERTEX
  5
135C24
  8
0
 10
-4.028770306111249
 20
2.0
 30
8.559508646656383
 70
   192
  0
VERTEX
  5
135C25
  8
0
 10
-7.971229693888748
 20
2.0
 30
8.559508646656383
 70
   192
  0
VERTEX
  5
135C26
  8
0
 10
-5.999999999999998
 20
2.0
 30
9.200000000000001
 70
   192
  0
VERTEX
  5
135C27
  8
0
 10
-8.781152949374526
 20
2.0
 30
8.559508646656383
 70
   192
  0
VERTEX
  5
135C28
  8
0
 10
0.0
 20
0.0
 30
0.0
 70
   128
 71
     5
 72
     1
 73
     4
  0
VERTEX
  5
135C29
  8
0
 10
0.0
 20
0.0
 30
0.0
 70
   128
 71
     1
 72
     2
 73
     3
  0
VERTEX
  5
135C2A
  8
0
 10
0.0
 20
0.0
 30
0.0
 70
   128
 71
     6
 72
     7
 73
     4
  0
VERTEX
  5
135C2B
  8
0
 10
0.0
 20
0.0
 30
0.0
 70
   128
 71
     8
 72
     9
 73
     3
  0
VERTEX
  5
135C2C
  8
0
 10
0.0
 20
0.0
 30
0.0
 70
   128
 71
    10
 72
    11
 73
     6
  0
VERTEX
  5
135C2D
  8
0
 10
0.0
 20
0.0
 30
0.0
 70
   128
 71
    12
 72
    13
 73
     9
  0
VERTEX
  5
135C2E
  8
0
 10
0.0
 20
0.0
 30
0.0
 70
   128
 71
    14
 72
    15
 73
    10
  0
VERTEX
  5
135C2F
  8
0
 10
0.0
 20
0.0
 30
0.0
 70
   128
 71
    16
 72
    17
 73
    14
  0
VERTEX
  5
135C30
  8
0
 10
0.0
 20
0.0
 30
0.0
 70
   128
 71
    18
 72
    19
 73
    13
  0
VERTEX
  5
135C31
  8
0
 10
0.0
 20
0.0
 30
0.0
 70
   128
 71
    20
 72
    21
 73
    19
  0
VERTEX
  5
135C32
  8
0
 10
0.0
 20
0.0
 30
0.0
 70
   128
 71
    22
 72
    23
 73
    16
  0
VERTEX
  5
135C33
  8
0
 10
0.0
 20
0.0
 30
0.0
 70
   128
 71
    24
 72
    25
 73
    21
  0
VERTEX
  5
135C34
  8
0
 10
0.0
 20
0.0
 30
0.0
 70
   128
 71
    26
 72
    27
 73
    22
  0
VERTEX
  5
135C35
  8
0
 10
0.0
 20
0.0
 30
0.0
 70
   128
 71
    28
 72
    29
 73
    25
  0
VERTEX
  5
135C36
  8
0
 10
0.0
 20
0.0
 30
0.0
 70
   128
 71
    30
 72
    31
 73
    26
  0
VERTEX
  5
135C37
  8
0
 10
0.0
 20
0.0
 30
0.0
 70
   128
 71
    32
 72
    33
 73
    30
  0
VERTEX
  5
135C38
  8
0
 10
0.0
 20
0.0
 30
0.0
 70
   128
 71
    34
 72
    35
 73
    29
  0
VERTEX
  5
135C39
  8
0
 10
0.0
 20
0.0
 30
0.0
 70
   128
 71
    36
 72
    37
 73
    35
  0
VERTEX
  5
135C3A
  8
0
 10
0.0
 20
0.0
 30
0.0
 70
   128
 71
    32
 72
    38
 73
    40
  0
VERTEX
  5
135C3B
  8
0
 10
0.0
 20
0.0
 30
0.0
 70
   128
 71
    38
 72
    37
 73
    39
  0
SEQEND
  5
135E5D
  8
0
  0
POLYLINE
  5
135C3C
  8
0
 66
     1
 10
0.0
 20
0.0
 30
0.0
 70
    64
 71
    22
 72
    22
  0
VERTEX
  5
135C3D
  8
0
 10
-0.5646282105531792
 20
-15.0
 30
7.110501635643351
 70
   192
  0
VERTEX
  5
135C3E
  8
0
 10
2.561031121956097
 20
-15.0
 30
2.60983641803471
 70
   192
  0
VERTEX
  5
135C3F
  8
0
 10
2.477661518337753
 20
-15.0
 30
-2.869103549977996
 70
   192
  0
VERTEX
  5
135C40
  8
0
 10
-0.7834866420329245
 20
-15.0
 30
-7.272584711514344
 70
   192
  0
VERTEX
  5
135C41
  8
0
 10
-6.000000000000004
 20
-15.0
 30
-8.950000000000061
 70
   192
  0
VERTEX
  5
135C42
  8
0
 10
-11.04571973918325
 20
-15.0
 30
-7.392104728263638
 70
   192
  0
VERTEX
  5
135C43
  8
0
 10
-14.33485781933171
 20
-15.0
 30
-3.260773701366928
 70
   192
  0
VERTEX
  5
135C44
  8
0
 10
-14.72235666208752
 20
-15.0
 30
2.005740326996146
 70
   192
  0
VERTEX
  5
135C45
  8
0
 10
-12.07331512444898
 20
-15.0
 30
6.573989914742829
 70
   192
  0
VERTEX
  5
135C46
  8
0
 10
-9.453302221060802
 20
-15.0
 30
8.257047939465123
 70
   192
  0
VERTEX
  5
135C47
  8
0
 10
-6.416985601842235
 20
-15.0
 30
8.94028093116838
 70
   192
  0
VERTEX
  5
135C48
  8
0
 10
-3.328417346186177
 20
-15.0
 30
8.542070281740113
 70
   192
  0
VERTEX
  5
135C49
  8
0
 10
1.5
 20
-15.0
 30
0.0
 70
   192
  0
VERTEX
  5
135C4A
  8
0
 10
0.0676274578121063
 20
-15.0
 30
4.408389392193548
 70
   192
  0
VERTEX
  5
135C4B
  8
0
 10
-3.682372542187895
 20
-15.0
 30
7.132923872213652
 70
   192
  0
VERTEX
  5
135C4C
  8
0
 10
-8.317627457812106
 20
-15.0
 30
7.132923872213652
 70
   192
  0
VERTEX
  5
135C4D
  8
0
 10
-12.06762745781211
 20
-15.0
 30
4.408389392193548
 70
   192
  0
VERTEX
  5
135C4E
  8
0
 10
-13.5
 20
-15.0
 30
-0.0000000000000012
 70
   192
  0
VERTEX
  5
135C4F
  8
0
 10
-12.06762745781211
 20
-15.0
 30
-4.40838939219355
 70
   192
  0
VERTEX
  5
135C50
  8
0
 10
-8.317627457812105
 20
-15.0
 30
-7.132923872213653
 70
   192
  0
VERTEX
  5
135C51
  8
0
 10
-3.682372542187893
 20
-15.0
 30
-7.132923872213652
 70
   192
  0
VERTEX
  5
135C52
  8
0
 10
0.0676274578121063
 20
-15.0
 30
-4.408389392193548
 70
   192
  0
VERTEX
  5
135C53
  8
0
 10
0.0
 20
0.0
 30
0.0
 70
   128
 71
    14
 72
   -13
 73
    -2
  0
VERTEX
  5
135C54
  8
0
 10
0.0
 20
0.0
 30
0.0
 70
   128
 71
     2
 72
    -1
 73
   -14
  0
VERTEX
  5
135C55
  8
0
 10
0.0
 20
0.0
 30
0.0
 70
   128
 71
     1
 72
   -12
 73
   -15
  0
VERTEX
  5
135C56
  8
0
 10
0.0
 20
0.0
 30
0.0
 70
   128
 71
    -1
 72
    15
 73
   -14
  0
VERTEX
  5
135C57
  8
0
 10
0.0
 20
0.0
 30
0.0
 70
   128
 71
    12
 72
    11
 73
   -10
  0
VERTEX
  5
135C58
  8
0
 10
0.0
 20
0.0
 30
0.0
 70
   128
 71
   -12
 72
   -10
 73
   -16
  0
VERTEX
  5
135C59
  8
0
 10
0.0
 20
0.0
 30
0.0
 70
   128
 71
   -12
 72
    16
 73
   -15
  0
VERTEX
  5
135C5A
  8
0
 10
0.0
 20
0.0
 30
0.0
 70
   128
 71
    10
 72
    -9
 73
   -17
  0
VERTEX
  5
135C5B
  8
0
 10
0.0
 20
0.0
 30
0.0
 70
   128
 71
   -10
 72
    17
 73
   -16
  0
VERTEX
  5
135C5C
  8
0
 10
0.0
 20
0.0
 30
0.0
 70
   128
 71
     9
 72
    -8
 73
   -18
  0
VERTEX
  5
135C5D
  8
0
 10
0.0
 20
0.0
 30
0.0
 70
   128
 71
    -9
 72
    18
 73
   -17
  0
VERTEX
  5
135C5E
  8
0
 10
0.0
 20
0.0
 30
0.0
 70
   128
 71
     8
 72
    -7
 73
   -19
  0
VERTEX
  5
135C5F
  8
0
 10
0.0
 20
0.0
 30
0.0
 70
   128
 71
    -8
 72
    19
 73
   -18
  0
VERTEX
  5
135C60
  8
0
 10
0.0
 20
0.0
 30
0.0
 70
   128
 71
     7
 72
    -6
 73
   -20
  0
VERTEX
  5
135C61
  8
0
 10
0.0
 20
0.0
 30
0.0
 70
   128
 71
    -7
 72
    20
 73
   -19
  0
VERTEX
  5
135C62
  8
0
 10
0.0
 20
0.0
 30
0.0
 70
   128
 71
   -20
 72
     6
 73
    -5
  0
VERTEX
  5
135C63
  8
0
 10
0.0
 20
0.0
 30
0.0
 70
   128
 71
    -5
 72
    21
 73
   -20
  0
VERTEX
  5
135C64
  8
0
 10
0.0
 20
0.0
 30
0.0
 70
   128
 71
     5
 72
    -4
 73
   -21
  0
VERTEX
  5
135C65
  8
0
 10
0.0
 20
0.0
 30
0.0
 70
   128
 71
    -4
 72
    22
 73
   -21
  0
VERTEX
  5
135C66
  8
0
 10
0.0
 20
0.0
 30
0.0
 70
   128
 71
     4
 72
    -3
 73
   -22
  0
VERTEX
  5
135C67
  8
0
 10
0.0
 20
0.0
 30
0.0
 70
   128
 71
    -3
 72
    13
 73
   -22
  0
VERTEX
  5
135C68
  8
0
 10
0.0
 20
0.0
 30
0.0
 70
   128
 71
     3
 72
    -2
 73
   -13
  0
SEQEND
  5
135E5E
  8
0
  0
POLYLINE
  5
135C69
  8
0
 66
     1
 10
0.0
 20
0.0
 30
0.0
 70
    64
 71
    12
 72
    10
  0
VERTEX
  5
135C6A
  8
0
 10
1.5
 20
-15.0
 30
0.0000000000000009
 70
   192
  0
VERTEX
  5
135C6B
  8
0
 10
1.5
 20
5.0
 30
0.0
 70
   192
  0
VERTEX
  5
135C6C
  8
0
 10
0.0676274578121063
 20
5.0
 30
-4.408389392193548
 70
   192
  0
VERTEX
  5
135C6D
  8
0
 10
0.0676274578121063
 20
-15.0
 30
-4.408389392193548
 70
   192
  0
VERTEX
  5
135C6E
  8
0
 10
-13.5
 20
5.0
 30
-0.0000000000000009
 70
   192
  0
VERTEX
  5
135C6F
  8
0
 10
-13.5
 20
-15.0
 30
-0.0000000000000009
 70
   192
  0
VERTEX
  5
135C70
  8
0
 10
-12.06762745781211
 20
-15.0
 30
-4.40838939219355
 70
   192
  0
VERTEX
  5
135C71
  8
0
 10
-12.06762745781211
 20
5.0
 30
-4.408389392193548
 70
   192
  0
VERTEX
  5
135C72
  8
0
 10
-8.317627457812105
 20
-15.0
 30
-7.132923872213653
 70
   192
  0
VERTEX
  5
135C73
  8
0
 10
-3.682372542187893
 20
-15.0
 30
-7.132923872213652
 70
   192
  0
VERTEX
  5
135C74
  8
0
 10
-3.682372542187894
 20
5.0
 30
-7.132923872213652
 70
   192
  0
VERTEX
  5
135C75
  8
0
 10
-8.317627457812105
 20
5.0
 30
-7.132923872213652
 70
   192
  0
VERTEX
  5
135C76
  8
0
 10
0.0
 20
0.0
 30
0.0
 70
   128
 71
     1
 72
     2
 73
    -3
  0
VERTEX
  5
135C77
  8
0
 10
0.0
 20
0.0
 30
0.0
 70
   128
 71
     4
 72
    -1
 73
     3
  0
VERTEX
  5
135C78
  8
0
 10
0.0
 20
0.0
 30
0.0
 70
   128
 71
     5
 72
     6
 73
    -7
  0
VERTEX
  5
135C79
  8
0
 10
0.0
 20
0.0
 30
0.0
 70
   128
 71
     8
 72
    -5
 73
     7
  0
VERTEX
  5
135C7A
  8
0
 10
0.0
 20
0.0
 30
0.0
 70
   128
 71
     9
 72
    10
 73
   -11
  0
VERTEX
  5
135C7B
  8
0
 10
0.0
 20
0.0
 30
0.0
 70
   128
 71
    12
 72
    -9
 73
    11
  0
VERTEX
  5
135C7C
  8
0
 10
0.0
 20
0.0
 30
0.0
 70
   128
 71
    10
 72
     4
 73
    -3
  0
VERTEX
  5
135C7D
  8
0
 10
0.0
 20
0.0
 30
0.0
 70
   128
 71
    11
 72
   -10
 73
     3
  0
VERTEX
  5
135C7E
  8
0
 10
0.0
 20
0.0
 30
0.0
 70
   128
 71
     7
 72
     9
 73
   -12
  0
VERTEX
  5
135C7F
  8
0
 10
0.0
 20
0.0
 30
0.0
 70
   128
 71
     8
 72
    -7
 73
    12
  0
SEQEND
  5
135E5F
  8
0
  0
POLYLINE
  5
135C80
  8
0
 66
     1
 10
0.0
 20
0.0
 30
0.0
 70
    64
 71
    12
 72
    10
  0
VERTEX
  5
135C81
  8
0
 10
-13.28115294937453
 20
2.0
 30
5.290067270632258
 70
   192
  0
VERTEX
  5
135C82
  8
0
 10
-15.0
 20
2.0
 30
0.0
 70
   192
  0
VERTEX
  5
135C83
  8
0
 10
-15.0
 20
0.0
 30
0.0
 70
   192
  0
VERTEX
  5
135C84
  8
0
 10
-13.28115294937453
 20
0.0
 30
5.290067270632258
 70
   192
  0
VERTEX
  5
135C85
  8
0
 10
1.281152949374527
 20
0.0
 30
5.290067270632258
 70
   192
  0
VERTEX
  5
135C86
  8
0
 10
3.0
 20
0.0
 30
0.0
 70
   192
  0
VERTEX
  5
135C87
  8
0
 10
3.0
 20
2.0
 30
0.0
 70
   192
  0
VERTEX
  5
135C88
  8
0
 10
1.281152949374527
 20
2.0
 30
5.290067270632258
 70
   192
  0
VERTEX
  5
135C89
  8
0
 10
-8.781152949374526
 20
2.0
 30
8.559508646656383
 70
   192
  0
VERTEX
  5
135C8A
  8
0
 10
-8.781152949374526
 20
0.0
 30
8.559508646656383
 70
   192
  0
VERTEX
  5
135C8B
  8
0
 10
-3.218847050625473
 20
0.0
 30
8.559508646656383
 70
   192
  0
VERTEX
  5
135C8C
  8
0
 10
-3.218847050625473
 20
2.0
 30
8.559508646656383
 70
   192
  0
VERTEX
  5
135C8D
  8
0
 10
0.0
 20
0.0
 30
0.0
 70
   128
 71
     1
 72
     2
 73
    -3
  0
VERTEX
  5
135C8E
  8
0
 10
0.0
 20
0.0
 30
0.0
 70
   128
 71
    -1
 72
     3
 73
     4
  0
VERTEX
  5
135C8F
  8
0
 10
0.0
 20
0.0
 30
0.0
 70
   128
 71
     5
 72
     6
 73
    -7
  0
VERTEX
  5
135C90
  8
0
 10
0.0
 20
0.0
 30
0.0
 70
   128
 71
    -5
 72
     7
 73
     8
  0
VERTEX
  5
135C91
  8
0
 10
0.0
 20
0.0
 30
0.0
 70
   128
 71
     9
 72
    10
 73
   -11
  0
VERTEX
  5
135C92
  8
0
 10
0.0
 20
0.0
 30
0.0
 70
   128
 71
    -9
 72
    11
 73
    12
  0
VERTEX
  5
135C93
  8
0
 10
0.0
 20
0.0
 30
0.0
 70
   128
 71
     1
 72
     4
 73
   -10
  0
VERTEX
  5
135C94
  8
0
 10
0.0
 20
0.0
 30
0.0
 70
   128
 71
    -1
 72
    10
 73
     9
  0
VERTEX
  5
135C95
  8
0
 10
0.0
 20
0.0
 30
0.0
 70
   128
 71
    12
 72
    11
 73
    -5
  0
VERTEX
  5
135C96
  8
0
 10
0.0
 20
0.0
 30
0.0
 70
   128
 71
   -12
 72
     5
 73
     8
  0
SEQEND
  5
135E60
  8
0
  0
POLYLINE
  5
135C97
  8
0
 66
     1
 10
0.0
 20
0.0
 30
0.0
 70
    64
 71
    12
 72
    10
  0
VERTEX
  5
135C98
  8
0
 10
1.281152949374527
 20
2.0
 30
-5.290067270632258
 70
   192
  0
VERTEX
  5
135C99
  8
0
 10
3.0
 20
2.0
 30
0.0
 70
   192
  0
VERTEX
  5
135C9A
  8
0
 10
3.0
 20
0.0
 30
0.0
 70
   192
  0
VERTEX
  5
135C9B
  8
0
 10
1.281152949374527
 20
0.0
 30
-5.290067270632258
 70
   192
  0
VERTEX
  5
135C9C
  8
0
 10
-13.28115294937453
 20
0.0
 30
-5.290067270632258
 70
   192
  0
VERTEX
  5
135C9D
  8
0
 10
-15.0
 20
0.0
 30
0.0
 70
   192
  0
VERTEX
  5
135C9E
  8
0
 10
-15.0
 20
2.0
 30
0.0
 70
   192
  0
VERTEX
  5
135C9F
  8
0
 10
-13.28115294937453
 20
2.0
 30
-5.290067270632258
 70
   192
  0
VERTEX
  5
135CA0
  8
0
 10
-3.218847050625473
 20
2.0
 30
-8.559508646656383
 70
   192
  0
VERTEX
  5
135CA1
  8
0
 10
-3.218847050625473
 20
0.0
 30
-8.559508646656383
 70
   192
  0
VERTEX
  5
135CA2
  8
0
 10
-8.781152949374526
 20
0.0
 30
-8.559508646656383
 70
   192
  0
VERTEX
  5
135CA3
  8
0
 10
-8.781152949374526
 20
2.0
 30
-8.559508646656383
 70
   192
  0
VERTEX
  5
135CA4
  8
0
 10
0.0
 20
0.0
 30
0.0
 70
   128
 71
     1
 72
     2
 73
    -3
  0
VERTEX
  5
135CA5
  8
0
 10
0.0
 20
0.0
 30
0.0
 70
   128
 71
    -1
 72
     3
 73
     4
  0
VERTEX
  5
135CA6
  8
0
 10
0.0
 20
0.0
 30
0.0
 70
   128
 71
     5
 72
     6
 73
    -7
  0
VERTEX
  5
135CA7
  8
0
 10
0.0
 20
0.0
 30
0.0
 70
   128
 71
    -5
 72
     7
 73
     8
  0
VERTEX
  5
135CA8
  8
0
 10
0.0
 20
0.0
 30
0.0
 70
   128
 71
     9
 72
    10
 73
   -11
  0
VERTEX
  5
135CA9
  8
0
 10
0.0
 20
0.0
 30
0.0
 70
   128
 71
    -9
 72
    11
 73
    12
  0
VERTEX
  5
135CAA
  8
0
 10
0.0
 20
0.0
 30
0.0
 70
   128
 71
     1
 72
     4
 73
   -10
  0
VERTEX
  5
135CAB
  8
0
 10
0.0
 20
0.0
 30
0.0
 70
   128
 71
    -1
 72
    10
 73
     9
  0
VERTEX
  5
135CAC
  8
0
 10
0.0
 20
0.0
 30
0.0
 70
   128
 71
    12
 72
    11
 73
    -5
  0
VERTEX
  5
135CAD
  8
0
 10
0.0
 20
0.0
 30
0.0
 70
   128
 71
   -12
 72
     5
 73
     8
  0
SEQEND
  5
135E61
  8
0
  0
POLYLINE
  5
135CAE
  8
0
 66
     1
 10
0.0
 20
0.0
 30
0.0
 70
    64
 71
    22
 72
    22
  0
VERTEX
  5
135CAF
  8
0
 10
5.0
 20
0.0
 30
-0.0000000000000061
 70
   192
  0
VERTEX
  5
135CB0
  8
0
 10
3.526279441628823
 20
0.0
 30
-5.500000000000005
 70
   192
  0
VERTEX
  5
135CB1
  8
0
 10
-0.5000000000000027
 20
0.0
 30
-9.526279441628827
 70
   192
  0
VERTEX
  5
135CB2
  8
0
 10
-6.000000000000003
 20
0.0
 30
-11.0
 70
   192
  0
VERTEX
  5
135CB3
  8
0
 10
-11.5
 20
0.0
 30
-9.526279441628825
 70
   192
  0
VERTEX
  5
135CB4
  8
0
 10
-15.52627944162883
 20
0.0
 30
-5.499999999999999
 70
   192
  0
VERTEX
  5
135CB5
  8
0
 10
-17.0
 20
0.0
 30
0.0
 70
   192
  0
VERTEX
  5
135CB6
  8
0
 10
-15.52627944162883
 20
0.0
 30
5.499999999999999
 70
   192
  0
VERTEX
  5
135CB7
  8
0
 10
-11.5
 20
0.0
 30
9.526279441628825
 70
   192
  0
VERTEX
  5
135CB8
  8
0
 10
-6.000000000000003
 20
0.0
 30
11.0
 70
   192
  0
VERTEX
  5
135CB9
  8
0
 10
-0.5000000000000027
 20
0.0
 30
9.526279441628827
 70
   192
  0
VERTEX
  5
135CBA
  8
0
 10
3.526279441628823
 20
0.0
 30
5.500000000000005
 70
   192
  0
VERTEX
  5
135CBB
  8
0
 10
3.0
 20
0.0
 30
0.0
 70
   192
  0
VERTEX
  5
135CBC
  8
0
 10
1.281152949374527
 20
0.0
 30
5.290067270632258
 70
   192
  0
VERTEX
  5
135CBD
  8
0
 10
-3.218847050625473
 20
0.0
 30
8.559508646656383
 70
   192
  0
VERTEX
  5
135CBE
  8
0
 10
-8.781152949374526
 20
0.0
 30
8.559508646656383
 70
   192
  0
VERTEX
  5
135CBF
  8
0
 10
-13.28115294937453
 20
0.0
 30
5.290067270632258
 70
   192
  0
VERTEX
  5
135CC0
  8
0
 10
-15.0
 20
0.0
 30
0.0
 70
   192
  0
VERTEX
  5
135CC1
  8
0
 10
-13.28115294937453
 20
0.0
 30
-5.290067270632258
 70
   192
  0
VERTEX
  5
135CC2
  8
0
 10
-8.781152949374526
 20
0.0
 30
-8.559508646656383
 70
   192
  0
VERTEX
  5
135CC3
  8
0
 10
-3.218847050625473
 20
0.0
 30
-8.559508646656383
 70
   192
  0
VERTEX
  5
135CC4
  8
0
 10
1.281152949374527
 20
0.0
 30
-5.290067270632258
 70
   192
  0
VERTEX
  5
135CC5
  8
0
 10
0.0
 20
0.0
 30
0.0
 70
   128
 71
    -1
 72
    13
 73
   -14
  0
VERTEX
  5
135CC6
  8
0
 10
0.0
 20
0.0
 30
0.0
 70
   128
 71
    12
 72
    -1
 73
   -14
  0
VERTEX
  5
135CC7
  8
0
 10
0.0
 20
0.0
 30
0.0
 70
   128
 71
   -15
 72
    11
 73
   -12
  0
VERTEX
  5
135CC8
  8
0
 10
0.0
 20
0.0
 30
0.0
 70
   128
 71
    14
 72
   -15
 73
   -12
  0
VERTEX
  5
135CC9
  8
0
 10
0.0
 20
0.0
 30
0.0
 70
   128
 71
     9
 72
    10
 73
   -11
  0
VERTEX
  5
135CCA
  8
0
 10
0.0
 20
0.0
 30
0.0
 70
   128
 71
   -16
 72
    -9
 73
   -11
  0
VERTEX
  5
135CCB
  8
0
 10
0.0
 20
0.0
 30
0.0
 70
   128
 71
    15
 72
   -16
 73
   -11
  0
VERTEX
  5
135CCC
  8
0
 10
0.0
 20
0.0
 30
0.0
 70
   128
 71
   -17
 72
     8
 73
    -9
  0
VERTEX
  5
135CCD
  8
0
 10
0.0
 20
0.0
 30
0.0
 70
   128
 71
    16
 72
   -17
 73
    -9
  0
VERTEX
  5
135CCE
  8
0
 10
0.0
 20
0.0
 30
0.0
 70
   128
 71
   -18
 72
     7
 73
    -8
  0
VERTEX
  5
135CCF
  8
0
 10
0.0
 20
0.0
 30
0.0
 70
   128
 71
    17
 72
   -18
 73
    -8
  0
VERTEX
  5
135CD0
  8
0
 10
0.0
 20
0.0
 30
0.0
 70
   128
 71
   -19
 72
     6
 73
    -7
  0
VERTEX
  5
135CD1
  8
0
 10
0.0
 20
0.0
 30
0.0
 70
   128
 71
    18
 72
   -19
 73
    -7
  0
VERTEX
  5
135CD2
  8
0
 10
0.0
 20
0.0
 30
0.0
 70
   128
 71
   -20
 72
     5
 73
    -6
  0
VERTEX
  5
135CD3
  8
0
 10
0.0
 20
0.0
 30
0.0
 70
   128
 71
    19
 72
   -20
 73
    -6
  0
VERTEX
  5
135CD4
  8
0
 10
0.0
 20
0.0
 30
0.0
 70
   128
 71
     3
 72
     4
 73
    -5
  0
VERTEX
  5
135CD5
  8
0
 10
0.0
 20
0.0
 30
0.0
 70
   128
 71
   -21
 72
    -3
 73
    -5
  0
VERTEX
  5
135CD6
  8
0
 10
0.0
 20
0.0
 30
0.0
 70
   128
 71
    20
 72
   -21
 73
    -5
  0
VERTEX
  5
135CD7
  8
0
 10
0.0
 20
0.0
 30
0.0
 70
   128
 71
   -22
 72
     2
 73
    -3
  0
VERTEX
  5
135CD8
  8
0
 10
0.0
 20
0.0
 30
0.0
 70
   128
 71
    21
 72
   -22
 73
    -3
  0
VERTEX
  5
135CD9
  8
0
 10
0.0
 20
0.0
 30
0.0
 70
   128
 71
   -13
 72
     1
 73
    -2
  0
VERTEX
  5
135CDA
  8
0
 10
0.0
 20
0.0
 30
0.0
 70
   128
 71
    22
 72
   -13
 73
    -2
  0
SEQEND
  5
135E62
  8
0
  0
POLYLINE
  5
135CDB
  8
0
 66
     1
 10
0.0
 20
0.0
 30
0.0
 70
    64
 71
    14
 72
    12
  0
VERTEX
  5
135CDC
  8
0
 10
-15.52627944162883
 20
0.0
 30
5.499999999999999
 70
   192
  0
VERTEX
  5
135CDD
  8
0
 10
-17.0
 20
0.0
 30
0.0
 70
   192
  0
VERTEX
  5
135CDE
  8
0
 10
-17.0
 20
-3.0
 30
0.0
 70
   192
  0
VERTEX
  5
135CDF
  8
0
 10
-15.52627944162883
 20
-3.0
 30
5.499999999999999
 70
   192
  0
VERTEX
  5
135CE0
  8
0
 10
-11.5
 20
-3.0
 30
9.526279441628825
 70
   192
  0
VERTEX
  5
135CE1
  8
0
 10
-6.000000000000003
 20
-3.0
 30
11.0
 70
   192
  0
VERTEX
  5
135CE2
  8
0
 10
-6.000000000000003
 20
0.0
 30
11.0
 70
   192
  0
VERTEX
  5
135CE3
  8
0
 10
-11.5
 20
0.0
 30
9.526279441628825
 70
   192
  0
VERTEX
  5
135CE4
  8
0
 10
-0.5000000000000027
 20
0.0
 30
9.526279441628827
 70
   192
  0
VERTEX
  5
135CE5
  8
0
 10
-0.5000000000000027
 20
-3.0
 30
9.526279441628827
 70
   192
  0
VERTEX
  5
135CE6
  8
0
 10
3.526279441628823
 20
-3.0
 30
5.500000000000005
 70
   192
  0
VERTEX
  5
135CE7
  8
0
 10
5.0
 20
-3.0
 30
0.0000000000000061
 70
   192
  0
VERTEX
  5
135CE8
  8
0
 10
5.0
 20
0.0
 30
0.0
 70
   192
  0
VERTEX
  5
135CE9
  8
0
 10
3.526279441628823
 20
0.0
 30
5.500000000000005
 70
   192
  0
VERTEX
  5
135CEA
  8
0
 10
0.0
 20
0.0
 30
0.0
 70
   128
 71
     1
 72
     2
 73
    -3
  0
VERTEX
  5
135CEB
  8
0
 10
0.0
 20
0.0
 30
0.0
 70
   128
 71
    -1
 72
     3
 73
     4
  0
VERTEX
  5
135CEC
  8
0
 10
0.0
 20
0.0
 30
0.0
 70
   128
 71
     5
 72
     6
 73
    -7
  0
VERTEX
  5
135CED
  8
0
 10
0.0
 20
0.0
 30
0.0
 70
   128
 71
    -5
 72
     7
 73
     8
  0
VERTEX
  5
135CEE
  8
0
 10
0.0
 20
0.0
 30
0.0
 70
   128
 71
     9
 72
     7
 73
    -6
  0
VERTEX
  5
135CEF
  8
0
 10
0.0
 20
0.0
 30
0.0
 70
   128
 71
    -9
 72
     6
 73
    10
  0
VERTEX
  5
135CF0
  8
0
 10
0.0
 20
0.0
 30
0.0
 70
   128
 71
    11
 72
    12
 73
   -13
  0
VERTEX
  5
135CF1
  8
0
 10
0.0
 20
0.0
 30
0.0
 70
   128
 71
   -11
 72
    13
 73
    14
  0
VERTEX
  5
135CF2
  8
0
 10
0.0
 20
0.0
 30
0.0
 70
   128
 71
     1
 72
     4
 73
    -5
  0
VERTEX
  5
135CF3
  8
0
 10
0.0
 20
0.0
 30
0.0
 70
   128
 71
    -1
 72
     5
 73
     8
  0
VERTEX
  5
135CF4
  8
0
 10
0.0
 20
0.0
 30
0.0
 70
   128
 71
     9
 72
    10
 73
   -11
  0
VERTEX
  5
135CF5
  8
0
 10
0.0
 20
0.0
 30
0.0
 70
   128
 71
    -9
 72
    11
 73
    14
  0
SEQEND
  5
135E63
  8
0
  0
POLYLINE
  5
135CF6
  8
0
 66
     1
 10
0.0
 20
0.0
 30
0.0
 70
    64
 71
    14
 72
    12
  0
VERTEX
  5
135CF7
  8
0
 10
3.526279441628823
 20
0.0
 30
-5.500000000000005
 70
   192
  0
VERTEX
  5
135CF8
  8
0
 10
5.0
 20
0.0
 30
-0.0000000000000061
 70
   192
  0
VERTEX
  5
135CF9
  8
0
 10
5.0
 20
-3.0
 30
0.0
 70
   192
  0
VERTEX
  5
135CFA
  8
0
 10
3.526279441628823
 20
-3.0
 30
-5.500000000000005
 70
   192
  0
VERTEX
  5
135CFB
  8
0
 10
-0.5000000000000027
 20
-3.0
 30
-9.526279441628827
 70
   192
  0
VERTEX
  5
135CFC
  8
0
 10
-6.000000000000003
 20
-3.0
 30
-11.0
 70
   192
  0
VERTEX
  5
135CFD
  8
0
 10
-6.000000000000003
 20
0.0
 30
-11.0
 70
   192
  0
VERTEX
  5
135CFE
  8
0
 10
-0.5000000000000027
 20
0.0
 30
-9.526279441628827
 70
   192
  0
VERTEX
  5
135CFF
  8
0
 10
-11.5
 20
0.0
 30
-9.526279441628825
 70
   192
  0
VERTEX
  5
135D00
  8
0
 10
-11.5
 20
-3.0
 30
-9.526279441628825
 70
   192
  0
VERTEX
  5
135D01
  8
0
 10
-15.52627944162883
 20
-3.0
 30
-5.499999999999999
 70
   192
  0
VERTEX
  5
135D02
  8
0
 10
-17.0
 20
-3.0
 30
0.0
 70
   192
  0
VERTEX
  5
135D03
  8
0
 10
-17.0
 20
0.0
 30
0.0
 70
   192
  0
VERTEX
  5
135D04
  8
0
 10
-15.52627944162883
 20
0.0
 30
-5.499999999999999
 70
   192
  0
VERTEX
  5
135D05
  8
0
 10
0.0
 20
0.0
 30
0.0
 70
   128
 71
     1
 72
     2
 73
    -3
  0
VERTEX
  5
135D06
  8
0
 10
0.0
 20
0.0
 30
0.0
 70
   128
 71
    -1
 72
     3
 73
     4
  0
VERTEX
  5
135D07
  8
0
 10
0.0
 20
0.0
 30
0.0
 70
   128
 71
     5
 72
     6
 73
    -7
  0
VERTEX
  5
135D08
  8
0
 10
0.0
 20
0.0
 30
0.0
 70
   128
 71
    -5
 72
     7
 73
     8
  0
VERTEX
  5
135D09
  8
0
 10
0.0
 20
0.0
 30
0.0
 70
   128
 71
     9
 72
     7
 73
    -6
  0
VERTEX
  5
135D0A
  8
0
 10
0.0
 20
0.0
 30
0.0
 70
   128
 71
    -9
 72
     6
 73
    10
  0
VERTEX
  5
135D0B
  8
0
 10
0.0
 20
0.0
 30
0.0
 70
   128
 71
    11
 72
    12
 73
   -13
  0
VERTEX
  5
135D0C
  8
0
 10
0.0
 20
0.0
 30
0.0
 70
   128
 71
   -11
 72
    13
 73
    14
  0
VERTEX
  5
135D0D
  8
0
 10
0.0
 20
0.0
 30
0.0
 70
   128
 71
     1
 72
     4
 73
    -5
  0
VERTEX
  5
135D0E
  8
0
 10
0.0
 20
0.0
 30
0.0
 70
   128
 71
    -1
 72
     5
 73
     8
  0
VERTEX
  5
135D0F
  8
0
 10
0.0
 20
0.0
 30
0.0
 70
   128
 71
     9
 72
    10
 73
   -11
  0
VERTEX
  5
135D10
  8
0
 10
0.0
 20
0.0
 30
0.0
 70
   128
 71
    -9
 72
    11
 73
    14
  0
SEQEND
  5
135E64
  8
0
  0
POLYLINE
  5
135D11
  8
0
 66
     1
 10
0.0
 20
0.0
 30
0.0
 70
    64
 71
    22
 72
    22
  0
VERTEX
  5
135D12
  8
0
 10
5.0
 20
-3.0
 30
-0.0000000000000061
 70
   192
  0
VERTEX
  5
135D13
  8
0
 10
3.526279441628823
 20
-3.0
 30
-5.500000000000005
 70
   192
  0
VERTEX
  5
135D14
  8
0
 10
-0.5000000000000027
 20
-3.0
 30
-9.526279441628827
 70
   192
  0
VERTEX
  5
135D15
  8
0
 10
-6.000000000000003
 20
-3.0
 30
-11.0
 70
   192
  0
VERTEX
  5
135D16
  8
0
 10
-11.5
 20
-3.0
 30
-9.526279441628825
 70
   192
  0
VERTEX
  5
135D17
  8
0
 10
-15.52627944162883
 20
-3.0
 30
-5.499999999999999
 70
   192
  0
VERTEX
  5
135D18
  8
0
 10
-17.0
 20
-3.0
 30
0.0
 70
   192
  0
VERTEX
  5
135D19
  8
0
 10
-15.52627944162883
 20
-3.0
 30
5.499999999999999
 70
   192
  0
VERTEX
  5
135D1A
  8
0
 10
-11.5
 20
-3.0
 30
9.526279441628825
 70
   192
  0
VERTEX
  5
135D1B
  8
0
 10
-6.000000000000003
 20
-3.0
 30
11.0
 70
   192
  0
VERTEX
  5
135D1C
  8
0
 10
-0.5000000000000027
 20
-3.0
 30
9.526279441628827
 70
   192
  0
VERTEX
  5
135D1D
  8
0
 10
3.526279441628823
 20
-3.0
 30
5.500000000000005
 70
   192
  0
VERTEX
  5
135D1E
  8
0
 10
3.0
 20
-3.0
 30
0.0
 70
   192
  0
VERTEX
  5
135D1F
  8
0
 10
1.281152949374527
 20
-3.0
 30
5.290067270632258
 70
   192
  0
VERTEX
  5
135D20
  8
0
 10
-3.218847050625473
 20
-3.0
 30
8.559508646656383
 70
   192
  0
VERTEX
  5
135D21
  8
0
 10
-8.781152949374526
 20
-3.0
 30
8.559508646656383
 70
   192
  0
VERTEX
  5
135D22
  8
0
 10
-13.28115294937453
 20
-3.0
 30
5.290067270632258
 70
   192
  0
VERTEX
  5
135D23
  8
0
 10
-15.0
 20
-3.0
 30
0.0
 70
   192
  0
VERTEX
  5
135D24
  8
0
 10
-13.28115294937453
 20
-3.0
 30
-5.290067270632258
 70
   192
  0
VERTEX
  5
135D25
  8
0
 10
-8.781152949374526
 20
-3.0
 30
-8.559508646656383
 70
   192
  0
VERTEX
  5
135D26
  8
0
 10
-3.218847050625473
 20
-3.0
 30
-8.559508646656383
 70
   192
  0
VERTEX
  5
135D27
  8
0
 10
1.281152949374527
 20
-3.0
 30
-5.290067270632258
 70
   192
  0
VERTEX
  5
135D28
  8
0
 10
0.0
 20
0.0
 30
0.0
 70
   128
 71
    14
 72
   -13
 73
    -1
  0
VERTEX
  5
135D29
  8
0
 10
0.0
 20
0.0
 30
0.0
 70
   128
 71
   -14
 72
     1
 73
   -12
  0
VERTEX
  5
135D2A
  8
0
 10
0.0
 20
0.0
 30
0.0
 70
   128
 71
    12
 72
   -11
 73
   -15
  0
VERTEX
  5
135D2B
  8
0
 10
0.0
 20
0.0
 30
0.0
 70
   128
 71
   -12
 72
    15
 73
   -14
  0
VERTEX
  5
135D2C
  8
0
 10
0.0
 20
0.0
 30
0.0
 70
   128
 71
    11
 72
    10
 73
    -9
  0
VERTEX
  5
135D2D
  8
0
 10
0.0
 20
0.0
 30
0.0
 70
   128
 71
   -11
 72
    -9
 73
   -16
  0
VERTEX
  5
135D2E
  8
0
 10
0.0
 20
0.0
 30
0.0
 70
   128
 71
   -11
 72
    16
 73
   -15
  0
VERTEX
  5
135D2F
  8
0
 10
0.0
 20
0.0
 30
0.0
 70
   128
 71
     9
 72
    -8
 73
   -17
  0
VERTEX
  5
135D30
  8
0
 10
0.0
 20
0.0
 30
0.0
 70
   128
 71
    -9
 72
    17
 73
   -16
  0
VERTEX
  5
135D31
  8
0
 10
0.0
 20
0.0
 30
0.0
 70
   128
 71
     8
 72
    -7
 73
   -18
  0
VERTEX
  5
135D32
  8
0
 10
0.0
 20
0.0
 30
0.0
 70
   128
 71
    -8
 72
    18
 73
   -17
  0
VERTEX
  5
135D33
  8
0
 10
0.0
 20
0.0
 30
0.0
 70
   128
 71
     7
 72
    -6
 73
   -19
  0
VERTEX
  5
135D34
  8
0
 10
0.0
 20
0.0
 30
0.0
 70
   128
 71
    -7
 72
    19
 73
   -18
  0
VERTEX
  5
135D35
  8
0
 10
0.0
 20
0.0
 30
0.0
 70
   128
 71
     6
 72
    -5
 73
   -20
  0
VERTEX
  5
135D36
  8
0
 10
0.0
 20
0.0
 30
0.0
 70
   128
 71
    -6
 72
    20
 73
   -19
  0
VERTEX
  5
135D37
  8
0
 10
0.0
 20
0.0
 30
0.0
 70
   128
 71
     5
 72
     4
 73
    -3
  0
VERTEX
  5
135D38
  8
0
 10
0.0
 20
0.0
 30
0.0
 70
   128
 71
    -5
 72
    -3
 73
   -21
  0
VERTEX
  5
135D39
  8
0
 10
0.0
 20
0.0
 30
0.0
 70
   128
 71
    -5
 72
    21
 73
   -20
  0
VERTEX
  5
135D3A
  8
0
 10
0.0
 20
0.0
 30
0.0
 70
   128
 71
     3
 72
    -2
 73
   -22
  0
VERTEX
  5
135D3B
  8
0
 10
0.0
 20
0.0
 30
0.0
 70
   128
 71
    -3
 72
    22
 73
   -21
  0
VERTEX
  5
135D3C
  8
0
 10
0.0
 20
0.0
 30
0.0
 70
   128
 71
     2
 72
    -1
 73
   -13
  0
VERTEX
  5
135D3D
  8
0
 10
0.0
 20
0.0
 30
0.0
 70
   128
 71
    -2
 72
    13
 73
   -22
  0
SEQEND
  5
135E65
  8
0
  0
POLYLINE
  5
135D3E
  8
0
 66
     1
 10
0.0
 20
0.0
 30
0.0
 70
    64
 71
    12
 72
    10
  0
VERTEX
  5
135D3F
  8
0
 10
-13.28115294937453
 20
-3.0
 30
5.290067270632258
 70
   192
  0
VERTEX
  5
135D40
  8
0
 10
-15.0
 20
-3.0
 30
0.0
 70
   192
  0
VERTEX
  5
135D41
  8
0
 10
-15.0
 20
-5.0
 30
0.0
 70
   192
  0
VERTEX
  5
135D42
  8
0
 10
-13.28115294937453
 20
-5.0
 30
5.290067270632258
 70
   192
  0
VERTEX
  5
135D43
  8
0
 10
1.281152949374527
 20
-5.0
 30
5.290067270632258
 70
   192
  0
VERTEX
  5
135D44
  8
0
 10
3.0
 20
-5.0
 30
0.0
 70
   192
  0
VERTEX
  5
135D45
  8
0
 10
3.0
 20
-3.0
 30
0.0
 70
   192
  0
VERTEX
  5
135D46
  8
0
 10
1.281152949374527
 20
-3.0
 30
5.290067270632258
 70
   192
  0
VERTEX
  5
135D47
  8
0
 10
-8.781152949374526
 20
-3.0
 30
8.559508646656383
 70
   192
  0
VERTEX
  5
135D48
  8
0
 10
-8.781152949374526
 20
-5.0
 30
8.559508646656383
 70
   192
  0
VERTEX
  5
135D49
  8
0
 10
-3.218847050625473
 20
-5.0
 30
8.559508646656383
 70
   192
  0
VERTEX
  5
135D4A
  8
0
 10
-3.218847050625473
 20
-3.0
 30
8.559508646656383
 70
   192
  0
VERTEX
  5
135D4B
  8
0
 10
0.0
 20
0.0
 30
0.0
 70
   128
 71
     1
 72
     2
 73
    -3
  0
VERTEX
  5
135D4C
  8
0
 10
0.0
 20
0.0
 30
0.0
 70
   128
 71
    -1
 72
     3
 73
     4
  0
VERTEX
  5
135D4D
  8
0
 10
0.0
 20
0.0
 30
0.0
 70
   128
 71
     5
 72
     6
 73
    -7
  0
VERTEX
  5
135D4E
  8
0
 10
0.0
 20
0.0
 30
0.0
 70
   128
 71
    -5
 72
     7
 73
     8
  0
VERTEX
  5
135D4F
  8
0
 10
0.0
 20
0.0
 30
0.0
 70
   128
 71
     9
 72
    10
 73
   -11
  0
VERTEX
  5
135D50
  8
0
 10
0.0
 20
0.0
 30
0.0
 70
   128
 71
    -9
 72
    11
 73
    12
  0
VERTEX
  5
135D51
  8
0
 10
0.0
 20
0.0
 30
0.0
 70
   128
 71
     1
 72
     4
 73
   -10
  0
VERTEX
  5
135D52
  8
0
 10
0.0
 20
0.0
 30
0.0
 70
   128
 71
    -1
 72
    10
 73
     9
  0
VERTEX
  5
135D53
  8
0
 10
0.0
 20
0.0
 30
0.0
 70
   128
 71
    12
 72
    11
 73
    -5
  0
VERTEX
  5
135D54
  8
0
 10
0.0
 20
0.0
 30
0.0
 70
   128
 71
   -12
 72
     5
 73
     8
  0
SEQEND
  5
135E66
  8
0
  0
POLYLINE
  5
135D55
  8
0
 66
     1
 10
0.0
 20
0.0
 30
0.0
 70
    64
 71
    12
 72
    10
  0
VERTEX
  5
135D56
  8
0
 10
1.281152949374527
 20
-3.0
 30
-5.290067270632258
 70
   192
  0
VERTEX
  5
135D57
  8
0
 10
3.0
 20
-3.0
 30
0.0
 70
   192
  0
VERTEX
  5
135D58
  8
0
 10
3.0
 20
-5.000000000000002
 30
0.0
 70
   192
  0
VERTEX
  5
135D59
  8
0
 10
1.281152949374527
 20
-5.0
 30
-5.290067270632258
 70
   192
  0
VERTEX
  5
135D5A
  8
0
 10
-13.28115294937453
 20
-5.0
 30
-5.290067270632258
 70
   192
  0
VERTEX
  5
135D5B
  8
0
 10
-15.0
 20
-5.0
 30
0.0
 70
   192
  0
VERTEX
  5
135D5C
  8
0
 10
-15.0
 20
-3.0
 30
0.0
 70
   192
  0
VERTEX
  5
135D5D
  8
0
 10
-13.28115294937453
 20
-3.0
 30
-5.290067270632258
 70
   192
  0
VERTEX
  5
135D5E
  8
0
 10
-3.218847050625473
 20
-3.0
 30
-8.559508646656383
 70
   192
  0
VERTEX
  5
135D5F
  8
0
 10
-3.218847050625473
 20
-5.0
 30
-8.559508646656383
 70
   192
  0
VERTEX
  5
135D60
  8
0
 10
-8.781152949374526
 20
-5.0
 30
-8.559508646656383
 70
   192
  0
VERTEX
  5
135D61
  8
0
 10
-8.781152949374526
 20
-3.0
 30
-8.559508646656383
 70
   192
  0
VERTEX
  5
135D62
  8
0
 10
0.0
 20
0.0
 30
0.0
 70
   128
 71
     1
 72
     2
 73
    -3
  0
VERTEX
  5
135D63
  8
0
 10
0.0
 20
0.0
 30
0.0
 70
   128
 71
    -1
 72
     3
 73
     4
  0
VERTEX
  5
135D64
  8
0
 10
0.0
 20
0.0
 30
0.0
 70
   128
 71
     5
 72
     6
 73
    -7
  0
VERTEX
  5
135D65
  8
0
 10
0.0
 20
0.0
 30
0.0
 70
   128
 71
    -5
 72
     7
 73
     8
  0
VERTEX
  5
135D66
  8
0
 10
0.0
 20
0.0
 30
0.0
 70
   128
 71
     9
 72
    10
 73
   -11
  0
VERTEX
  5
135D67
  8
0
 10
0.0
 20
0.0
 30
0.0
 70
   128
 71
    -9
 72
    11
 73
    12
  0
VERTEX
  5
135D68
  8
0
 10
0.0
 20
0.0
 30
0.0
 70
   128
 71
     1
 72
     4
 73
   -10
  0
VERTEX
  5
135D69
  8
0
 10
0.0
 20
0.0
 30
0.0
 70
   128
 71
    -1
 72
    10
 73
     9
  0
VERTEX
  5
135D6A
  8
0
 10
0.0
 20
0.0
 30
0.0
 70
   128
 71
    12
 72
    11
 73
    -5
  0
VERTEX
  5
135D6B
  8
0
 10
0.0
 20
0.0
 30
0.0
 70
   128
 71
   -12
 72
     5
 73
     8
  0
SEQEND
  5
135E67
  8
0
  0
POLYLINE
  5
135D6C
  8
0
 66
     1
 10
0.0
 20
0.0
 30
0.0
 70
    64
 71
    42
 72
    22
  0
VERTEX
  5
135D6D
  8
0
 10
2.542733218734141
 20
-5.0
 30
1.407322444799046
 70
   192
  0
VERTEX
  5
135D6E
  8
0
 10
2.561031121956203
 20
-5.0
 30
2.609836418034743
 70
   192
  0
VERTEX
  5
135D6F
  8
0
 10
1.792409341151276
 20
-5.0
 30
3.716581890385334
 70
   192
  0
VERTEX
  5
135D70
  8
0
 10
2.49780026382446
 20
-5.0
 30
-1.545611860401211
 70
   192
  0
VERTEX
  5
135D71
  8
0
 10
3.0
 20
-5.0
 30
0.0
 70
   192
  0
VERTEX
  5
135D72
  8
0
 10
1.747366012310919
 20
-5.0
 30
-3.855211002016871
 70
   192
  0
VERTEX
  5
135D73
  8
0
 10
2.477661518337857
 20
-5.0
 30
-2.869103549978032
 70
   192
  0
VERTEX
  5
135D74
  8
0
 10
1.281152949374527
 20
-5.0
 30
5.290067270632258
 70
   192
  0
VERTEX
  5
135D75
  8
0
 10
0.107390769573791
 20
-5.0
 30
6.142855412021768
 70
   192
  0
VERTEX
  5
135D76
  8
0
 10
-0.0099806087915635
 20
-5.0
 30
-6.228130709974808
 70
   192
  0
VERTEX
  5
135D77
  8
0
 10
1.281152949374527
 20
-5.0
 30
-5.290067270632258
 70
   192
  0
VERTEX
  5
135D78
  8
0
 10
-1.97481564643101
 20
-5.0
 30
-7.655666925334875
 70
   192
  0
VERTEX
  5
135D79
  8
0
 10
-0.7834866420328597
 20
-5.0
 30
-7.272584711514434
 70
   192
  0
VERTEX
  5
135D7A
  8
0
 10
-0.5646282105531775
 20
-5.0
 30
7.11050163564335
 70
   192
  0
VERTEX
  5
135D7B
  8
0
 10
-2.863124410525576
 20
-5.0
 30
8.301061020449461
 70
   192
  0
VERTEX
  5
135D7C
  8
0
 10
-3.218847050625473
 20
-5.0
 30
8.559508646656383
 70
   192
  0
VERTEX
  5
135D7D
  8
0
 10
-3.463671338986888
 20
-5.0
 30
8.559508646656383
 70
   192
  0
VERTEX
  5
135D7E
  8
0
 10
-3.328417346186177
 20
-5.0
 30
8.542070281740113
 70
   192
  0
VERTEX
  5
135D7F
  8
0
 10
-4.785629667935465
 20
-5.0
 30
-8.559508646656381
 70
   192
  0
VERTEX
  5
135D80
  8
0
 10
-3.218847050625473
 20
-5.0
 30
-8.559508646656383
 70
   192
  0
VERTEX
  5
135D81
  8
0
 10
-7.264725534054063
 20
-5.0
 30
-8.559508646656381
 70
   192
  0
VERTEX
  5
135D82
  8
0
 10
-6.0
 20
-5.0
 30
-8.950000000000173
 70
   192
  0
VERTEX
  5
135D83
  8
0
 10
-6.416985601842235
 20
-5.000000000000001
 30
8.94028093116838
 70
   192
  0
VERTEX
  5
135D84
  8
0
 10
-8.109153909931983
 20
-5.0
 30
8.559508646656383
 70
   192
  0
VERTEX
  5
135D85
  8
0
 10
-8.781152949374526
 20
-5.0
 30
8.559508646656383
 70
   192
  0
VERTEX
  5
135D86
  8
0
 10
-9.082661943256163
 20
-5.0
 30
8.340449540025265
 70
   192
  0
VERTEX
  5
135D87
  8
0
 10
-9.901834262969404
 20
-5.0
 30
-7.745286011988794
 70
   192
  0
VERTEX
  5
135D88
  8
0
 10
-8.781152949374526
 20
-5.0
 30
-8.559508646656383
 70
   192
  0
VERTEX
  5
135D89
  8
0
 10
-11.94825214680269
 20
-5.0
 30
-6.258476389313179
 70
   192
  0
VERTEX
  5
135D8A
  8
0
 10
-11.04571973918331
 20
-5.0
 30
-7.39210472826373
 70
   192
  0
VERTEX
  5
135D8B
  8
0
 10
-9.453302221060802
 20
-5.0
 30
8.257047939465123
 70
   192
  0
VERTEX
  5
135D8C
  8
0
 10
-12.07331512444905
 20
-5.0
 30
6.573989914742909
 70
   192
  0
VERTEX
  5
135D8D
  8
0
 10
-12.48052742981965
 20
-5.0
 30
5.871755759595261
 70
   192
  0
VERTEX
  5
135D8E
  8
0
 10
-13.66859954675863
 20
-5.0
 30
-4.097629256328641
 70
   192
  0
VERTEX
  5
135D8F
  8
0
 10
-13.28115294937453
 20
-5.0
 30
-5.290067270632258
 70
   192
  0
VERTEX
  5
135D90
  8
0
 10
-13.28115294937453
 20
-5.0
 30
5.290067270632258
 70
   192
  0
VERTEX
  5
135D91
  8
0
 10
-13.87159641788001
 20
-5.0
 30
3.472869127980267
 70
   192
  0
VERTEX
  5
135D92
  8
0
 10
-14.45029916701603
 20
-5.0
 30
-1.691805204046274
 70
   192
  0
VERTEX
  5
135D93
  8
0
 10
-14.33485781933181
 20
-5.0
 30
-3.260773701366968
 70
   192
  0
VERTEX
  5
135D94
  8
0
 10
-14.72235666208763
 20
-5.0
 30
2.00574032699617
 70
   192
  0
VERTEX
  5
135D95
  8
0
 10
-14.65329068465653
 20
-5.0
 30
1.067061552017918
 70
   192
  0
VERTEX
  5
135D96
  8
0
 10
-15.0
 20
-5.0
 30
0.0
 70
   192
  0
VERTEX
  5
135D97
  8
0
 10
0.0
 20
0.0
 30
0.0
 70
   128
 71
     4
 72
     1
 73
     5
  0
VERTEX
  5
135D98
  8
0
 10
0.0
 20
0.0
 30
0.0
 70
   128
 71
     3
 72
     2
 73
     1
  0
VERTEX
  5
135D99
  8
0
 10
0.0
 20
0.0
 30
0.0
 70
   128
 71
     4
 72
     7
 73
     6
  0
VERTEX
  5
135D9A
  8
0
 10
0.0
 20
0.0
 30
0.0
 70
   128
 71
     3
 72
     9
 73
     8
  0
VERTEX
  5
135D9B
  8
0
 10
0.0
 20
0.0
 30
0.0
 70
   128
 71
     6
 72
    11
 73
    10
  0
VERTEX
  5
135D9C
  8
0
 10
0.0
 20
0.0
 30
0.0
 70
   128
 71
    10
 72
    13
 73
    12
  0
VERTEX
  5
135D9D
  8
0
 10
0.0
 20
0.0
 30
0.0
 70
   128
 71
     9
 72
    15
 73
    14
  0
VERTEX
  5
135D9E
  8
0
 10
0.0
 20
0.0
 30
0.0
 70
   128
 71
    16
 72
    15
 73
   -18
  0
VERTEX
  5
135D9F
  8
0
 10
0.0
 20
0.0
 30
0.0
 70
   128
 71
    18
 72
    17
 73
   -16
  0
VERTEX
  5
135DA0
  8
0
 10
0.0
 20
0.0
 30
0.0
 70
   128
 71
    12
 72
    20
 73
    19
  0
VERTEX
  5
135DA1
  8
0
 10
0.0
 20
0.0
 30
0.0
 70
   128
 71
    19
 72
    22
 73
    21
  0
VERTEX
  5
135DA2
  8
0
 10
0.0
 20
0.0
 30
0.0
 70
   128
 71
    17
 72
    24
 73
    23
  0
VERTEX
  5
135DA3
  8
0
 10
0.0
 20
0.0
 30
0.0
 70
   128
 71
    24
 72
    26
 73
    25
  0
VERTEX
  5
135DA4
  8
0
 10
0.0
 20
0.0
 30
0.0
 70
   128
 71
    21
 72
    28
 73
    27
  0
VERTEX
  5
135DA5
  8
0
 10
0.0
 20
0.0
 30
0.0
 70
   128
 71
    27
 72
    30
 73
    29
  0
VERTEX
  5
135DA6
  8
0
 10
0.0
 20
0.0
 30
0.0
 70
   128
 71
    33
 72
    32
 73
   -31
  0
VERTEX
  5
135DA7
  8
0
 10
0.0
 20
0.0
 30
0.0
 70
   128
 71
    26
 72
   -33
 73
    31
  0
VERTEX
  5
135DA8
  8
0
 10
0.0
 20
0.0
 30
0.0
 70
   128
 71
    29
 72
    35
 73
    34
  0
VERTEX
  5
135DA9
  8
0
 10
0.0
 20
0.0
 30
0.0
 70
   128
 71
    33
 72
    37
 73
    36
  0
VERTEX
  5
135DAA
  8
0
 10
0.0
 20
0.0
 30
0.0
 70
   128
 71
    34
 72
    39
 73
    38
  0
VERTEX
  5
135DAB
  8
0
 10
0.0
 20
0.0
 30
0.0
 70
   128
 71
    37
 72
    41
 73
    40
  0
VERTEX
  5
135DAC
  8
0
 10
0.0
 20
0.0
 30
0.0
 70
   128
 71
    38
 72
    42
 73
    41
  0
SEQEND
  5
135E68
  8
0
  0
POLYLINE
  5
135DAD
  8
0
 66
     1
 10
0.0
 20
0.0
 30
0.0
 70
    64
 71
    10
 72
     8
  0
VERTEX
  5
135DAE
  8
0
 10
-0.5646282105531775
 20
-5.0
 30
7.11050163564335
 70
   192
  0
VERTEX
  5
135DAF
  8
0
 10
-0.5646282105531775
 20
-15.0
 30
7.11050163564335
 70
   192
  0
VERTEX
  5
135DB0
  8
0
 10
-12.07331512444898
 20
-15.0
 30
6.573989914742829
 70
   192
  0
VERTEX
  5
135DB1
  8
0
 10
-12.07331512444905
 20
-5.0
 30
6.573989914742909
 70
   192
  0
VERTEX
  5
135DB2
  8
0
 10
-6.416985601842235
 20
-15.0
 30
8.94028093116838
 70
   192
  0
VERTEX
  5
135DB3
  8
0
 10
-6.416985601842235
 20
-5.000000000000001
 30
8.94028093116838
 70
   192
  0
VERTEX
  5
135DB4
  8
0
 10
-3.328417346186177
 20
-5.0
 30
8.542070281740113
 70
   192
  0
VERTEX
  5
135DB5
  8
0
 10
-3.328417346186177
 20
-15.0
 30
8.542070281740113
 70
   192
  0
VERTEX
  5
135DB6
  8
0
 10
-9.453302221060802
 20
-5.0
 30
8.257047939465123
 70
   192
  0
VERTEX
  5
135DB7
  8
0
 10
-9.453302221060802
 20
-15.0
 30
8.257047939465123
 70
   192
  0
VERTEX
  5
135DB8
  8
0
 10
0.0
 20
0.0
 30
0.0
 70
   128
 71
     6
 72
     5
 73
    -8
  0
VERTEX
  5
135DB9
  8
0
 10
0.0
 20
0.0
 30
0.0
 70
   128
 71
     7
 72
    -6
 73
     8
  0
VERTEX
  5
135DBA
  8
0
 10
0.0
 20
0.0
 30
0.0
 70
   128
 71
     2
 72
     1
 73
    -7
  0
VERTEX
  5
135DBB
  8
0
 10
0.0
 20
0.0
 30
0.0
 70
   128
 71
     8
 72
    -2
 73
     7
  0
VERTEX
  5
135DBC
  8
0
 10
0.0
 20
0.0
 30
0.0
 70
   128
 71
     4
 72
     3
 73
   -10
  0
VERTEX
  5
135DBD
  8
0
 10
0.0
 20
0.0
 30
0.0
 70
   128
 71
     9
 72
    -4
 73
    10
  0
VERTEX
  5
135DBE
  8
0
 10
0.0
 20
0.0
 30
0.0
 70
   128
 71
     5
 72
     6
 73
    -9
  0
VERTEX
  5
135DBF
  8
0
 10
0.0
 20
0.0
 30
0.0
 70
   128
 71
    10
 72
    -5
 73
     9
  0
SEQEND
  5
135E69
  8
0
  0
POLYLINE
  5
135DC0
  8
0
 66
     1
 10
0.0
 20
0.0
 30
0.0
 70
    64
 71
    10
 72
     8
  0
VERTEX
  5
135DC1
  8
0
 10
-6.0
 20
-5.0
 30
-8.950000000000061
 70
   192
  0
VERTEX
  5
135DC2
  8
0
 10
-0.5646282105531109
 20
-5.0
 30
7.110501635643439
 70
   192
  0
VERTEX
  5
135DC3
  8
0
 10
-0.5646282105531775
 20
-15.0
 30
7.11050163564335
 70
   192
  0
VERTEX
  5
135DC4
  8
0
 10
-6.0
 20
-15.0
 30
-8.950000000000061
 70
   192
  0
VERTEX
  5
135DC5
  8
0
 10
2.477661518337753
 20
-15.0
 30
-2.869103549977996
 70
   192
  0
VERTEX
  5
135DC6
  8
0
 10
2.477661518337857
 20
-5.0
 30
-2.869103549978032
 70
   192
  0
VERTEX
  5
135DC7
  8
0
 10
-0.7834866420329245
 20
-15.0
 30
-7.272584711514344
 70
   192
  0
VERTEX
  5
135DC8
  8
0
 10
-0.7834866420328597
 20
-5.0
 30
-7.272584711514434
 70
   192
  0
VERTEX
  5
135DC9
  8
0
 10
2.561031121956097
 20
-15.0
 30
2.60983641803471
 70
   192
  0
VERTEX
  5
135DCA
  8
0
 10
2.561031121956203
 20
-5.0
 30
2.609836418034743
 70
   192
  0
VERTEX
  5
135DCB
  8
0
 10
0.0
 20
0.0
 30
0.0
 70
   128
 71
     8
 72
     7
 73
    -4
  0
VERTEX
  5
135DCC
  8
0
 10
0.0
 20
0.0
 30
0.0
 70
   128
 71
    -8
 72
     4
 73
     1
  0
VERTEX
  5
135DCD
  8
0
 10
0.0
 20
0.0
 30
0.0
 70
   128
 71
     6
 72
     5
 73
    -7
  0
VERTEX
  5
135DCE
  8
0
 10
0.0
 20
0.0
 30
0.0
 70
   128
 71
    -6
 72
     7
 73
     8
  0
VERTEX
  5
135DCF
  8
0
 10
0.0
 20
0.0
 30
0.0
 70
   128
 71
    10
 72
     9
 73
    -5
  0
VERTEX
  5
135DD0
  8
0
 10
0.0
 20
0.0
 30
0.0
 70
   128
 71
   -10
 72
     5
 73
     6
  0
VERTEX
  5
135DD1
  8
0
 10
0.0
 20
0.0
 30
0.0
 70
   128
 71
     2
 72
     3
 73
    -9
  0
VERTEX
  5
135DD2
  8
0
 10
0.0
 20
0.0
 30
0.0
 70
   128
 71
    -2
 72
     9
 73
    10
  0
SEQEND
  5
135E6A
  8
0
  0
POLYLINE
  5
135DD3
  8
0
 66
     1
 10
0.0
 20
0.0
 30
0.0
 70
    64
 71
    12
 72
    10
  0
VERTEX
  5
135DD4
  8
0
 10
-11.40762432109075
 20
5.0
 30
-7.442956348249517
 70
   192
  0
VERTEX
  5
135DD5
  8
0
 10
-5.999999999999999
 20
5.0
 30
-9.2
 70
   192
  0
VERTEX
  5
135DD6
  8
0
 10
-5.999999999999999
 20
2.0
 30
-9.2
 70
   192
  0
VERTEX
  5
135DD7
  8
0
 10
-11.40762432109075
 20
2.0
 30
-7.442956348249516
 70
   192
  0
VERTEX
  5
135DD8
  8
0
 10
-11.40762432109075
 20
2.0
 30
7.442956348249516
 70
   192
  0
VERTEX
  5
135DD9
  8
0
 10
-6.0
 20
2.0
 30
9.2
 70
   192
  0
VERTEX
  5
135DDA
  8
0
 10
-6.0
 20
5.0
 30
9.2
 70
   192
  0
VERTEX
  5
135DDB
  8
0
 10
-11.40762432109075
 20
5.0
 30
7.442956348249516
 70
   192
  0
VERTEX
  5
135DDC
  8
0
 10
-14.74971994991541
 20
5.0
 30
-2.842956348249518
 70
   192
  0
VERTEX
  5
135DDD
  8
0
 10
-14.74971994991541
 20
2.0
 30
-2.842956348249516
 70
   192
  0
VERTEX
  5
135DDE
  8
0
 10
-14.74971994991541
 20
2.0
 30
2.842956348249516
 70
   192
  0
VERTEX
  5
135DDF
  8
0
 10
-14.74971994991541
 20
5.0
 30
2.842956348249515
 70
   192
  0
VERTEX
  5
135DE0
  8
0
 10
0.0
 20
0.0
 30
0.0
 70
   128
 71
     1
 72
     2
 73
    -3
  0
VERTEX
  5
135DE1
  8
0
 10
0.0
 20
0.0
 30
0.0
 70
   128
 71
    -1
 72
     3
 73
     4
  0
VERTEX
  5
135DE2
  8
0
 10
0.0
 20
0.0
 30
0.0
 70
   128
 71
     5
 72
     6
 73
    -7
  0
VERTEX
  5
135DE3
  8
0
 10
0.0
 20
0.0
 30
0.0
 70
   128
 71
    -5
 72
     7
 73
     8
  0
VERTEX
  5
135DE4
  8
0
 10
0.0
 20
0.0
 30
0.0
 70
   128
 71
     9
 72
    10
 73
   -11
  0
VERTEX
  5
135DE5
  8
0
 10
0.0
 20
0.0
 30
0.0
 70
   128
 71
    -9
 72
    11
 73
    12
  0
VERTEX
  5
135DE6
  8
0
 10
0.0
 20
0.0
 30
0.0
 70
   128
 71
     1
 72
     4
 73
   -10
  0
VERTEX
  5
135DE7
  8
0
 10
0.0
 20
0.0
 30
0.0
 70
   128
 71
    -1
 72
    10
 73
     9
  0
VERTEX
  5
135DE8
  8
0
 10
0.0
 20
0.0
 30
0.0
 70
   128
 71
    12
 72
    11
 73
    -5
  0
VERTEX
  5
135DE9
  8
0
 10
0.0
 20
0.0
 30
0.0
 70
   128
 71
   -12
 72
     5
 73
     8
  0
SEQEND
  5
135E6B
  8
0
  0
ENDBLK
  5
135E58
  8
0
  0
ENDSEC
  0
SECTION
  2
ENTITIES
  0
INSERT
  5
13464E
  8
0
  2
*X1
 10
0.0
 20
0.0
 30
0.0
  0
INSERT
  5
13464F
  8
0
  2
*X2
 10
0.0
 20
0.0
 30
0.0
  0
INSERT
  5
134650
  8
0
  2
*X3
 10
0.0
 20
0.0
 30
0.0
  0
INSERT
  5
134651
  8
0
  2
*X4
 10
0.0
 20
0.0
 30
0.0
  0
INSERT
  5
134652
  8
0
  2
*X5
 10
0.0
 20
0.0
 30
0.0
  0
INSERT
  5
134653
  8
0
  2
*X6
 10
0.0
 20
0.0
 30
0.0
  0
INSERT
  5
134654
  8
0
  2
*X7
 10
0.0
 20
0.0
 30
0.0
  0
ENDSEC
  0
EOF
