  0
SECTION
  2
HEADER
  9
$ACADVER
  1
AC1009
  9
$DWGCODEPAGE
  3
ansi_1250
  9
$INSBASE
 10
0.0
 20
0.0
 30
0.0
  9
$EXTMIN
 10
-8.0
 20
-29.5
 30
-26.0
  9
$EXTMAX
 10
65.0
 20
26.0
 30
26.0
  9
$LIMMIN
 10
0.0
 20
0.0
  9
$LIMMAX
 10
420.0
 20
297.0
  9
$ORTHOMODE
 70
     0
  9
$REGENMODE
 70
     1
  9
$FILLMODE
 70
     1
  9
$QTEXTMODE
 70
     0
  9
$MIRRTEXT
 70
     0
  9
$DRAGMODE
 70
     2
  9
$LTSCALE
 40
1.0
  9
$OSMODE
 70
   511
  9
$ATTMODE
 70
     1
  9
$TEXTSIZE
 40
2.5
  9
$TRACEWID
 40
1.0
  9
$TEXTSTYLE
  7
STANDARD
  9
$CLAYER
  8
0
  9
$CELTYPE
  6
BYLAYER
  9
$CECOLOR
 62
   256
  9
$DIMSCALE
 40
1.0
  9
$DIMASZ
 40
2.5
  9
$DIMEXO
 40
0.625
  9
$DIMDLI
 40
3.75
  9
$DIMRND
 40
0.0
  9
$DIMDLE
 40
0.0
  9
$DIMEXE
 40
1.25
  9
$DIMTP
 40
0.0
  9
$DIMTM
 40
0.0
  9
$DIMTXT
 40
2.5
  9
$DIMCEN
 40
-2.5
  9
$DIMTSZ
 40
0.0
  9
$DIMTOL
 70
     0
  9
$DIMLIM
 70
     0
  9
$DIMTIH
 70
     0
  9
$DIMTOH
 70
     0
  9
$DIMSE1
 70
     0
  9
$DIMSE2
 70
     0
  9
$DIMTAD
 70
     1
  9
$DIMZIN
 70
     8
  9
$DIMBLK
  1

  9
$DIMASO
 70
     1
  9
$DIMSHO
 70
     1
  9
$DIMPOST
  1

  9
$DIMAPOST
  1

  9
$DIMALT
 70
     0
  9
$DIMALTD
 70
     3
  9
$DIMALTF
 40
0.03937007874016
  9
$DIMLFAC
 40
1.0
  9
$DIMTOFL
 70
     1
  9
$DIMTVP
 40
0.0
  9
$DIMTIX
 70
     0
  9
$DIMSOXD
 70
     0
  9
$DIMSAH
 70
     0
  9
$DIMBLK1
  1

  9
$DIMBLK2
  1

  9
$DIMSTYLE
  2
ISO-25
  9
$DIMCLRD
 70
     0
  9
$DIMCLRE
 70
     0
  9
$DIMCLRT
 70
     0
  9
$DIMTFAC
 40
1.0
  9
$DIMGAP
 40
0.625
  9
$LUNITS
 70
     2
  9
$LUPREC
 70
     3
  9
$SKETCHINC
 40
1.0
  9
$FILLETRAD
 40
10.0
  9
$AUNITS
 70
     0
  9
$AUPREC
 70
     0
  9
$MENU
  1
.
  9
$ELEVATION
 40
0.0
  9
$PELEVATION
 40
0.0
  9
$THICKNESS
 40
0.0
  9
$LIMCHECK
 70
     0
  9
$CHAMFERA
 40
10.0
  9
$CHAMFERB
 40
10.0
  9
$SKPOLY
 70
     0
  9
$TDCREATE
 40
2455022.720692848
  9
$TDUPDATE
 40
2460462.500220857
  9
$TDINDWG
 40
0.0001668287
  9
$TDUSRTIMER
 40
0.0001668403
  9
$USRTIMER
 70
     1
  9
$ANGBASE
 50
0.0
  9
$ANGDIR
 70
     0
  9
$PDMODE
 70
     0
  9
$PDSIZE
 40
0.0
  9
$PLINEWID
 40
0.0
  9
$COORDS
 70
     1
  9
$SPLFRAME
 70
     0
  9
$SPLINETYPE
 70
     6
  9
$SPLINESEGS
 70
     8
  9
$ATTDIA
 70
     0
  9
$ATTREQ
 70
     1
  9
$HANDLING
 70
     1
  9
$HANDSEED
  5
1758
  9
$SURFTAB1
 70
     6
  9
$SURFTAB2
 70
     6
  9
$SURFTYPE
 70
     6
  9
$SURFU
 70
     6
  9
$SURFV
 70
     6
  9
$UCSNAME
  2

  9
$UCSORG
 10
0.0
 20
0.0
 30
0.0
  9
$UCSXDIR
 10
1.0
 20
0.0
 30
0.0
  9
$UCSYDIR
 10
0.0
 20
1.0
 30
0.0
  9
$PUCSNAME
  2

  9
$PUCSORG
 10
0.0
 20
0.0
 30
0.0
  9
$PUCSXDIR
 10
1.0
 20
0.0
 30
0.0
  9
$PUCSYDIR
 10
0.0
 20
1.0
 30
0.0
  9
$USERI1
 70
     0
  9
$USERI2
 70
     0
  9
$USERI3
 70
     0
  9
$USERI4
 70
     0
  9
$USERI5
 70
     0
  9
$USERR1
 40
0.0
  9
$USERR2
 40
0.0
  9
$USERR3
 40
0.0
  9
$USERR4
 40
0.0
  9
$USERR5
 40
0.0
  9
$WORLDVIEW
 70
     1
  9
$SHADEDGE
 70
     3
  9
$SHADEDIF
 70
    70
  9
$TILEMODE
 70
     1
  9
$MAXACTVP
 70
    64
  9
$PLIMCHECK
 70
     0
  9
$PEXTMIN
 10
1.000000000000000E+20
 20
1.000000000000000E+20
 30
1.000000000000000E+20
  9
$PEXTMAX
 10
-1.000000000000000E+20
 20
-1.000000000000000E+20
 30
-1.000000000000000E+20
  9
$PLIMMIN
 10
0.0
 20
0.0
  9
$PLIMMAX
 10
0.0
 20
0.0
  9
$UNITMODE
 70
     0
  9
$VISRETAIN
 70
     1
  9
$PLINEGEN
 70
     0
  9
$PSLTSCALE
 70
     1
  0
ENDSEC
  0
SECTION
  2
TABLES
  0
TABLE
  2
VPORT
 70
     1
  0
VPORT
  2
*ACTIVE
 70
     0
 10
0.0
 20
0.0
 11
1.0
 21
1.0
 12
-116.2744583017009
 22
-65.70222078374147
 13
0.0
 23
0.0
 14
10.0
 24
10.0
 15
10.0
 25
10.0
 16
0.5773502691896262
 26
0.5773502691896226
 36
0.5773502691896226
 17
-134.1869158878502
 27
0.0000000000001279
 37
0.0000000000001634
 40
96.81608208350511
 41
1.89041095890411
 42
50.0
 43
0.0
 44
0.0
 50
0.0
 51
359.9999999999999
 71
    16
 72
  1000
 73
     1
 74
     3
 75
     0
 76
     0
 77
     0
 78
     0
  0
ENDTAB
  0
TABLE
  2
LTYPE
 70
     1
  0
LTYPE
  2
CONTINUOUS
 70
     0
  3
Solid line
 72
    65
 73
     0
 40
0.0
  0
ENDTAB
  0
TABLE
  2
LAYER
 70
     1
  0
LAYER
  2
0
 70
     0
 62
     7
  6
CONTINUOUS
  0
ENDTAB
  0
TABLE
  2
STYLE
 70
     2
  0
STYLE
  2
STANDARD
 70
     0
 40
0.0
 41
1.0
 50
0.0
 71
     0
 42
2.5
  3
arial.ttf
  4

  0
STYLE
  2
ANNOTATIVE
 70
     0
 40
0.0
 41
1.0
 50
0.0
 71
     0
 42
2.5
  3
arial.ttf
  4

  0
ENDTAB
  0
TABLE
  2
VIEW
 70
     0
  0
ENDTAB
  0
TABLE
  2
UCS
 70
     0
  0
ENDTAB
  0
TABLE
  2
APPID
 70
     2
  0
APPID
  2
ACAD
 70
     0
  0
APPID
  2
ACADANNOTATIVE
 70
     0
  0
ENDTAB
  0
TABLE
  2
DIMSTYLE
 70
     2
  0
DIMSTYLE
  2
ISO-25
 70
     0
  3

  4

  5

  6

  7

 40
1.0
 41
2.5
 42
0.625
 43
3.75
 44
1.25
 45
0.0
 46
0.0
 47
0.0
 48
0.0
140
2.5
141
-2.5
142
0.0
143
0.03937007874016
144
1.0
145
0.0
146
1.0
147
0.625
 71
     0
 72
     0
 73
     0
 74
     0
 75
     0
 76
     0
 77
     1
 78
     8
170
     0
171
     3
172
     1
173
     0
174
     0
175
     0
176
     0
177
     0
178
     0
  0
DIMSTYLE
  2
ANNOTATIVE
 70
     0
  3

  4

  5

  6

  7

 40
0.0
 41
2.5
 42
0.625
 43
3.75
 44
1.25
 45
0.0
 46
0.0
 47
0.0
 48
0.0
140
2.5
141
-2.5
142
0.0
143
0.03937007874016
144
1.0
145
0.0
146
1.0
147
0.625
 71
     0
 72
     0
 73
     0
 74
     0
 75
     0
 76
     0
 77
     1
 78
     8
170
     0
171
     3
172
     1
173
     0
174
     0
175
     0
176
     0
177
     0
178
     0
  0
ENDTAB
  0
ENDSEC
  0
SECTION
  2
BLOCKS
  0
BLOCK
  8
0
  2
$MODEL_SPACE
 70
     0
 10
0.0
 20
0.0
 30
0.0
  3
$MODEL_SPACE
  1

  0
ENDBLK
  5
21
  8
0
  0
BLOCK
 67
     1
  8
0
  2
$PAPER_SPACE
 70
     0
 10
0.0
 20
0.0
 30
0.0
  3
$PAPER_SPACE
  1

  0
ENDBLK
  5
1D
 67
     1
  8
0
  0
BLOCK
  8
0
  2
*X1
 70
     1
 10
0.0
 20
0.0
 30
0.0
  3
*X1
  1

  0
POLYLINE
  5
FD8
  8
0
 66
     1
 10
0.0
 20
0.0
 30
0.0
 70
    64
 71
     5
 72
     3
  0
VERTEX
  5
FD9
  8
0
 10
16.29339137361147
 20
-14.73967064222078
 30
-6.224315975177902
 70
   192
  0
VERTEX
  5
FDA
  8
0
 10
22.5225880526349
 20
-13.36923371850849
 30
-8.789970977193024
 70
   192
  0
VERTEX
  5
FDB
  8
0
 10
28.73325912664344
 20
-14.75091249177008
 30
-6.197627018475821
 70
   192
  0
VERTEX
  5
FDC
  8
0
 10
31.29
 20
-16.0
 30
0.0000000000000278
 70
   192
  0
VERTEX
  5
FDD
  8
0
 10
13.71
 20
-16.0
 30
0.0
 70
   192
  0
VERTEX
  5
FDE
  8
0
 10
0.0
 20
0.0
 30
0.0
 70
   128
 71
     1
 72
     2
 73
     3
  0
VERTEX
  5
FDF
  8
0
 10
0.0
 20
0.0
 30
0.0
 70
   128
 71
     1
 72
     3
 73
     4
  0
VERTEX
  5
FE0
  8
0
 10
0.0
 20
0.0
 30
0.0
 70
   128
 71
     1
 72
     4
 73
     5
  0
SEQEND
  5
171B
  8
0
  0
POLYLINE
  5
FE1
  8
0
 66
     1
 10
0.0
 20
0.0
 30
0.0
 70
    64
 71
    10
 72
     8
  0
VERTEX
  5
FE2
  8
0
 10
22.5
 20
-18.0
 30
-9.250000000000004
 70
   192
  0
VERTEX
  5
FE3
  8
0
 10
22.5
 20
-18.0
 30
9.250000000000005
 70
   192
  0
VERTEX
  5
FE4
  8
0
 10
22.5
 20
-29.5
 30
9.250000000000004
 70
   192
  0
VERTEX
  5
FE5
  8
0
 10
22.5
 20
-29.5
 30
-9.250000000000004
 70
   192
  0
VERTEX
  5
FE6
  8
0
 10
31.75000000000001
 20
-29.5
 30
0.0
 70
   192
  0
VERTEX
  5
FE7
  8
0
 10
31.75000000000001
 20
-18.0
 30
0.0
 70
   192
  0
VERTEX
  5
FE8
  8
0
 10
29.04073772597557
 20
-29.5
 30
-6.540737725975568
 70
   192
  0
VERTEX
  5
FE9
  8
0
 10
29.04073772597557
 20
-18.0
 30
-6.540737725975568
 70
   192
  0
VERTEX
  5
FEA
  8
0
 10
29.04073772597557
 20
-29.5
 30
6.540737725975569
 70
   192
  0
VERTEX
  5
FEB
  8
0
 10
29.04073772597557
 20
-18.0
 30
6.540737725975569
 70
   192
  0
VERTEX
  5
FEC
  8
0
 10
0.0
 20
0.0
 30
0.0
 70
   128
 71
     7
 72
     4
 73
    -1
  0
VERTEX
  5
FED
  8
0
 10
0.0
 20
0.0
 30
0.0
 70
   128
 71
    -7
 72
     1
 73
     8
  0
VERTEX
  5
FEE
  8
0
 10
0.0
 20
0.0
 30
0.0
 70
   128
 71
     6
 72
     5
 73
    -7
  0
VERTEX
  5
FEF
  8
0
 10
0.0
 20
0.0
 30
0.0
 70
   128
 71
    -6
 72
     7
 73
     8
  0
VERTEX
  5
FF0
  8
0
 10
0.0
 20
0.0
 30
0.0
 70
   128
 71
    10
 72
     9
 73
    -5
  0
VERTEX
  5
FF1
  8
0
 10
0.0
 20
0.0
 30
0.0
 70
   128
 71
   -10
 72
     5
 73
     6
  0
VERTEX
  5
FF2
  8
0
 10
0.0
 20
0.0
 30
0.0
 70
   128
 71
     2
 72
     3
 73
    -9
  0
VERTEX
  5
FF3
  8
0
 10
0.0
 20
0.0
 30
0.0
 70
   128
 71
    -2
 72
     9
 73
    10
  0
SEQEND
  5
171C
  8
0
  0
POLYLINE
  5
FF4
  8
0
 66
     1
 10
0.0
 20
0.0
 30
0.0
 70
    64
 71
     8
 72
     6
  0
VERTEX
  5
FF5
  8
0
 10
2.2
 20
-9.093266739736606
 30
-5.249999999999999
 70
   192
  0
VERTEX
  5
FF6
  8
0
 10
2.2
 20
-5.250000000000001
 30
-9.093266739736606
 70
   192
  0
VERTEX
  5
FF7
  8
0
 10
2.0
 20
-5.350000000000001
 30
-9.266471820493493
 70
   192
  0
VERTEX
  5
FF8
  8
0
 10
2.0
 20
-9.266471820493493
 30
-5.349999999999999
 70
   192
  0
VERTEX
  5
FF9
  8
0
 10
2.2
 20
-0.0000000000000006
 30
-10.5
 70
   192
  0
VERTEX
  5
FFA
  8
0
 10
1.999999999999999
 20
0.0
 30
-10.69999999999797
 70
   192
  0
VERTEX
  5
FFB
  8
0
 10
2.199999999999014
 20
-10.49999999999901
 30
-0.0000000065413827
 70
   192
  0
VERTEX
  5
FFC
  8
0
 10
2.0
 20
-10.7
 30
0.0
 70
   192
  0
VERTEX
  5
FFD
  8
0
 10
0.0
 20
0.0
 30
0.0
 70
   128
 71
     1
 72
     2
 73
    -3
  0
VERTEX
  5
FFE
  8
0
 10
0.0
 20
0.0
 30
0.0
 70
   128
 71
     4
 72
    -1
 73
     3
  0
VERTEX
  5
FFF
  8
0
 10
0.0
 20
0.0
 30
0.0
 70
   128
 71
     2
 72
     5
 73
    -6
  0
VERTEX
  5
1000
  8
0
 10
0.0
 20
0.0
 30
0.0
 70
   128
 71
     3
 72
    -2
 73
     6
  0
VERTEX
  5
1001
  8
0
 10
0.0
 20
0.0
 30
0.0
 70
   128
 71
     7
 72
     1
 73
    -4
  0
VERTEX
  5
1002
  8
0
 10
0.0
 20
0.0
 30
0.0
 70
   128
 71
     8
 72
    -7
 73
     4
  0
SEQEND
  5
171D
  8
0
  0
POLYLINE
  5
1003
  8
0
 66
     1
 10
0.0
 20
0.0
 30
0.0
 70
    64
 71
    12
 72
    10
  0
VERTEX
  5
1004
  8
0
 10
15.07537879756596
 20
-18.0
 30
-7.424621202483456
 70
   192
  0
VERTEX
  5
1005
  8
0
 10
12.0
 20
-18.0
 30
-0.0000000000944058
 70
   192
  0
VERTEX
  5
1006
  8
0
 10
12.00000274554
 20
-17.00000000002
 30
-0.0000000001805073
 70
   192
  0
VERTEX
  5
1007
  8
0
 10
14.29101855061723
 20
-15.41376140328935
 30
-6.546955289574656
 70
   192
  0
VERTEX
  5
1008
  8
0
 10
22.52325294270145
 20
-12.52001235110165
 30
-10.49997425238061
 70
   192
  0
VERTEX
  5
1009
  8
0
 10
29.92462120239936
 20
-18.0
 30
-7.424621202518137
 70
   192
  0
VERTEX
  5
100A
  8
0
 10
22.49999999997548
 20
-18.0
 30
-10.5
 70
   192
  0
VERTEX
  5
100B
  8
0
 10
30.73912059432624
 20
-15.43303630682562
 30
-6.508985468730828
 70
   192
  0
VERTEX
  5
100C
  8
0
 10
32.99999714096
 20
-17.00000000002
 30
-0.0000000004667264
 70
   192
  0
VERTEX
  5
100D
  8
0
 10
32.99999912127799
 20
-18.0
 30
-0.000000000143446
 70
   192
  0
VERTEX
  5
100E
  8
0
 10
17.49198526360449
 20
-13.66871593382068
 30
-9.22874793241453
 70
   192
  0
VERTEX
  5
100F
  8
0
 10
27.5474334274669
 20
-13.68612538497572
 30
-9.207248003355284
 70
   192
  0
VERTEX
  5
1010
  8
0
 10
0.0
 20
0.0
 30
0.0
 70
   128
 71
     1
 72
     2
 73
     3
  0
VERTEX
  5
1011
  8
0
 10
0.0
 20
0.0
 30
0.0
 70
   128
 71
     1
 72
     3
 73
     4
  0
VERTEX
  5
1012
  8
0
 10
0.0
 20
0.0
 30
0.0
 70
   128
 71
     5
 72
     6
 73
     7
  0
VERTEX
  5
1013
  8
0
 10
0.0
 20
0.0
 30
0.0
 70
   128
 71
     8
 72
     9
 73
    10
  0
VERTEX
  5
1014
  8
0
 10
0.0
 20
0.0
 30
0.0
 70
   128
 71
     8
 72
    10
 73
     6
  0
VERTEX
  5
1015
  8
0
 10
0.0
 20
0.0
 30
0.0
 70
   128
 71
     4
 72
     7
 73
     1
  0
VERTEX
  5
1016
  8
0
 10
0.0
 20
0.0
 30
0.0
 70
   128
 71
     4
 72
    11
 73
     5
  0
VERTEX
  5
1017
  8
0
 10
0.0
 20
0.0
 30
0.0
 70
   128
 71
     4
 72
     5
 73
     7
  0
VERTEX
  5
1018
  8
0
 10
0.0
 20
0.0
 30
0.0
 70
   128
 71
     5
 72
    12
 73
     8
  0
VERTEX
  5
1019
  8
0
 10
0.0
 20
0.0
 30
0.0
 70
   128
 71
     5
 72
     8
 73
     6
  0
SEQEND
  5
171E
  8
0
  0
POLYLINE
  5
101A
  8
0
 66
     1
 10
0.0
 20
0.0
 30
0.0
 70
    64
 71
    13
 72
    11
  0
VERTEX
  5
101B
  8
0
 10
30.9946784409933
 20
-18.0
 30
6.171745148993406
 70
   192
  0
VERTEX
  5
101C
  8
0
 10
33.0
 20
-18.0
 30
-0.000000000143443
 70
   192
  0
VERTEX
  5
101D
  8
0
 10
32.99999714096
 20
-17.00000000002
 30
-0.0000000004667264
 70
   192
  0
VERTEX
  5
101E
  8
0
 10
31.80942790401207
 20
-16.1465431401617
 30
4.856392910381283
 70
   192
  0
VERTEX
  5
101F
  8
0
 10
13.19552703008062
 20
-16.14312819184986
 30
4.865879442818086
 70
   192
  0
VERTEX
  5
1020
  8
0
 10
12.00000274554
 20
-17.00000000002
 30
-0.0000000001805073
 70
   192
  0
VERTEX
  5
1021
  8
0
 10
12.00000143574511
 20
-18.00000000000188
 30
-0.0000000000944096
 70
   192
  0
VERTEX
  5
1022
  8
0
 10
14.00532155903552
 20
-18.0
 30
6.171745149033076
 70
   192
  0
VERTEX
  5
1023
  8
0
 10
29.70311751637538
 20
-14.79825471910054
 30
7.639705363774591
 70
   192
  0
VERTEX
  5
1024
  8
0
 10
25.74467844098289
 20
-18.0
 30
9.986093421084187
 70
   192
  0
VERTEX
  5
1025
  8
0
 10
22.59749594919452
 20
-12.52043937352485
 30
10.49954734928562
 70
   192
  0
VERTEX
  5
1026
  8
0
 10
15.33933827065503
 20
-14.77351782198826
 30
7.679513239645752
 70
   192
  0
VERTEX
  5
1027
  8
0
 10
19.25532155906375
 20
-18.0
 30
9.986093421099339
 70
   192
  0
VERTEX
  5
1028
  8
0
 10
0.0
 20
0.0
 30
0.0
 70
   128
 71
     1
 72
     2
 73
     3
  0
VERTEX
  5
1029
  8
0
 10
0.0
 20
0.0
 30
0.0
 70
   128
 71
     1
 72
     3
 73
     4
  0
VERTEX
  5
102A
  8
0
 10
0.0
 20
0.0
 30
0.0
 70
   128
 71
     5
 72
     6
 73
     7
  0
VERTEX
  5
102B
  8
0
 10
0.0
 20
0.0
 30
0.0
 70
   128
 71
     5
 72
     7
 73
     8
  0
VERTEX
  5
102C
  8
0
 10
0.0
 20
0.0
 30
0.0
 70
   128
 71
     1
 72
     4
 73
     9
  0
VERTEX
  5
102D
  8
0
 10
0.0
 20
0.0
 30
0.0
 70
   128
 71
     1
 72
     9
 73
    10
  0
VERTEX
  5
102E
  8
0
 10
0.0
 20
0.0
 30
0.0
 70
   128
 71
    10
 72
     9
 73
    11
  0
VERTEX
  5
102F
  8
0
 10
0.0
 20
0.0
 30
0.0
 70
   128
 71
    10
 72
    11
 73
    12
  0
VERTEX
  5
1030
  8
0
 10
0.0
 20
0.0
 30
0.0
 70
   128
 71
    10
 72
    12
 73
    13
  0
VERTEX
  5
1031
  8
0
 10
0.0
 20
0.0
 30
0.0
 70
   128
 71
    13
 72
    12
 73
     5
  0
VERTEX
  5
1032
  8
0
 10
0.0
 20
0.0
 30
0.0
 70
   128
 71
    13
 72
     5
 73
     8
  0
SEQEND
  5
171F
  8
0
  0
POLYLINE
  5
1033
  8
0
 66
     1
 10
0.0
 20
0.0
 30
0.0
 70
    64
 71
    18
 72
    18
  0
VERTEX
  5
1034
  8
0
 10
0.0
 20
16.0
 30
0.0
 70
   192
  0
VERTEX
  5
1035
  8
0
 10
0.0
 20
12.94427190999916
 30
-9.40456403667957
 70
   192
  0
VERTEX
  5
1036
  8
0
 10
0.0
 20
4.944271909999159
 30
-15.21690426072246
 70
   192
  0
VERTEX
  5
1037
  8
0
 10
0.0
 20
-4.944271909999158
 30
-15.21690426072246
 70
   192
  0
VERTEX
  5
1038
  8
0
 10
0.0
 20
-12.94427190999916
 30
-9.40456403667957
 70
   192
  0
VERTEX
  5
1039
  8
0
 10
0.0
 20
-16.0
 30
0.0
 70
   192
  0
VERTEX
  5
103A
  8
0
 10
0.0
 20
-12.94427190999916
 30
9.40456403667957
 70
   192
  0
VERTEX
  5
103B
  8
0
 10
0.0
 20
-4.944271909999159
 30
15.21690426072246
 70
   192
  0
VERTEX
  5
103C
  8
0
 10
0.0
 20
4.944271909999158
 30
15.21690426072246
 70
   192
  0
VERTEX
  5
103D
  8
0
 10
0.0
 20
12.94427190999916
 30
9.40456403667957
 70
   192
  0
VERTEX
  5
103E
  8
0
 10
0.0
 20
-10.75
 30
0.0
 70
   192
  0
VERTEX
  5
103F
  8
0
 10
0.0
 20
-7.601397897755386
 30
-7.601397897755386
 70
   192
  0
VERTEX
  5
1040
  8
0
 10
0.0
 20
0.0
 30
-10.75
 70
   192
  0
VERTEX
  5
1041
  8
0
 10
0.0
 20
7.601397897755388
 30
-7.601397897755388
 70
   192
  0
VERTEX
  5
1042
  8
0
 10
0.0
 20
10.75
 30
0.0
 70
   192
  0
VERTEX
  5
1043
  8
0
 10
0.0
 20
7.601397897755386
 30
7.601397897755386
 70
   192
  0
VERTEX
  5
1044
  8
0
 10
0.0
 20
0.0
 30
10.75
 70
   192
  0
VERTEX
  5
1045
  8
0
 10
0.0
 20
-7.601397897755388
 30
7.601397897755388
 70
   192
  0
VERTEX
  5
1046
  8
0
 10
0.0
 20
0.0
 30
0.0
 70
   128
 71
    -6
 72
    11
 73
   -12
  0
VERTEX
  5
1047
  8
0
 10
0.0
 20
0.0
 30
0.0
 70
   128
 71
     5
 72
    -6
 73
   -12
  0
VERTEX
  5
1048
  8
0
 10
0.0
 20
0.0
 30
0.0
 70
   128
 71
   -13
 72
     4
 73
    -5
  0
VERTEX
  5
1049
  8
0
 10
0.0
 20
0.0
 30
0.0
 70
   128
 71
    12
 72
   -13
 73
    -5
  0
VERTEX
  5
104A
  8
0
 10
0.0
 20
0.0
 30
0.0
 70
   128
 71
     2
 72
     3
 73
    -4
  0
VERTEX
  5
104B
  8
0
 10
0.0
 20
0.0
 30
0.0
 70
   128
 71
   -14
 72
    -2
 73
    -4
  0
VERTEX
  5
104C
  8
0
 10
0.0
 20
0.0
 30
0.0
 70
   128
 71
    13
 72
   -14
 73
    -4
  0
VERTEX
  5
104D
  8
0
 10
0.0
 20
0.0
 30
0.0
 70
   128
 71
   -15
 72
     1
 73
    -2
  0
VERTEX
  5
104E
  8
0
 10
0.0
 20
0.0
 30
0.0
 70
   128
 71
    14
 72
   -15
 73
    -2
  0
VERTEX
  5
104F
  8
0
 10
0.0
 20
0.0
 30
0.0
 70
   128
 71
   -16
 72
    10
 73
    -1
  0
VERTEX
  5
1050
  8
0
 10
0.0
 20
0.0
 30
0.0
 70
   128
 71
    15
 72
   -16
 73
    -1
  0
VERTEX
  5
1051
  8
0
 10
0.0
 20
0.0
 30
0.0
 70
   128
 71
   -17
 72
     9
 73
   -10
  0
VERTEX
  5
1052
  8
0
 10
0.0
 20
0.0
 30
0.0
 70
   128
 71
    16
 72
   -17
 73
   -10
  0
VERTEX
  5
1053
  8
0
 10
0.0
 20
0.0
 30
0.0
 70
   128
 71
     7
 72
     8
 73
    -9
  0
VERTEX
  5
1054
  8
0
 10
0.0
 20
0.0
 30
0.0
 70
   128
 71
   -18
 72
    -7
 73
    -9
  0
VERTEX
  5
1055
  8
0
 10
0.0
 20
0.0
 30
0.0
 70
   128
 71
    17
 72
   -18
 73
    -9
  0
VERTEX
  5
1056
  8
0
 10
0.0
 20
0.0
 30
0.0
 70
   128
 71
   -11
 72
     6
 73
    -7
  0
VERTEX
  5
1057
  8
0
 10
0.0
 20
0.0
 30
0.0
 70
   128
 71
    18
 72
   -11
 73
    -7
  0
SEQEND
  5
1720
  8
0
  0
POLYLINE
  5
1058
  8
0
 66
     1
 10
0.0
 20
0.0
 30
0.0
 70
    64
 71
    29
 72
    27
  0
VERTEX
  5
1059
  8
0
 10
32.69629674665962
 20
-15.19680171548748
 30
5.0057086226732
 70
   192
  0
VERTEX
  5
105A
  8
0
 10
34.00000000002
 20
-15.99999815968
 30
-0.0000000001832523
 70
   192
  0
VERTEX
  5
105B
  8
0
 10
42.5
 20
-15.99999999999928
 30
0.0000000000000036
 70
   192
  0
VERTEX
  5
105C
  8
0
 10
44.74142060400685
 20
-14.37424853776819
 30
7.027160093129297
 70
   192
  0
VERTEX
  5
105D
  8
0
 10
30.38927175857025
 20
-13.92784085506183
 30
7.874975984589274
 70
   192
  0
VERTEX
  5
105E
  8
0
 10
12.30911044112031
 20
-15.19357912017826
 30
5.015481431142952
 70
   192
  0
VERTEX
  5
105F
  8
0
 10
14.65721862427286
 20
-13.90456316665143
 30
7.91600409119917
 70
   192
  0
VERTEX
  5
1060
  8
0
 10
0.0
 20
-12.94427190999916
 30
9.40456403667957
 70
   192
  0
VERTEX
  5
1061
  8
0
 10
0.0
 20
-16.0
 30
0.0
 70
   192
  0
VERTEX
  5
1062
  8
0
 10
10.99999999998
 20
-15.99999822307087
 30
-0.0000000000721801
 70
   192
  0
VERTEX
  5
1063
  8
0
 10
22.60677402971754
 20
-11.78394287860262
 30
10.82306288124008
 70
   192
  0
VERTEX
  5
1064
  8
0
 10
48.85880109413665
 20
-11.92863429213406
 30
10.66338051110075
 70
   192
  0
VERTEX
  5
1065
  8
0
 10
65.0
 20
5.362977055233735
 30
15.07443123653548
 70
   192
  0
VERTEX
  5
1066
  8
0
 10
55.11665373517464
 20
8.916534752250335
 30
13.28515743271083
 70
   192
  0
VERTEX
  5
1067
  8
0
 10
50.93866048056407
 20
9.608398751945698
 30
12.79369662855925
 70
   192
  0
VERTEX
  5
1068
  8
0
 10
58.94212703482015
 20
9.983746446249008
 30
12.50299191781752
 70
   192
  0
VERTEX
  5
1069
  8
0
 10
42.59350938130923
 20
15.08560161940892
 30
5.331474822268855
 70
   192
  0
VERTEX
  5
106A
  8
0
 10
41.5077514686
 20
15.99999717457
 30
0.0000000002585501
 70
   192
  0
VERTEX
  5
106B
  8
0
 10
0.0
 20
16.0
 30
0.0
 70
   192
  0
VERTEX
  5
106C
  8
0
 10
0.0
 20
12.94427190999916
 30
9.40456403667957
 70
   192
  0
VERTEX
  5
106D
  8
0
 10
44.89542668177
 20
13.25068332173
 30
8.967685961675201
 70
   192
  0
VERTEX
  5
106E
  8
0
 10
0.0
 20
-4.944271909999159
 30
15.21690426072246
 70
   192
  0
VERTEX
  5
106F
  8
0
 10
65.0
 20
-5.362977055233737
 30
15.07443123653547
 70
   192
  0
VERTEX
  5
1070
  8
0
 10
0.0
 20
4.944271909999158
 30
15.21690426072246
 70
   192
  0
VERTEX
  5
1071
  8
0
 10
56.56218624710028
 20
-10.68908286700441
 30
11.90560823571449
 70
   192
  0
VERTEX
  5
1072
  8
0
 10
63.21675166002999
 20
-13.67881573821
 30
8.3
 70
   192
  0
VERTEX
  5
1073
  8
0
 10
65.0
 20
-13.67881573821
 30
8.3
 70
   192
  0
VERTEX
  5
1074
  8
0
 10
65.0
 20
13.67881573821263
 30
8.300000000001598
 70
   192
  0
VERTEX
  5
1075
  8
0
 10
64.66046937495999
 20
13.6788157422368
 30
8.30000000075452
 70
   192
  0
VERTEX
  5
1076
  8
0
 10
0.0
 20
0.0
 30
0.0
 70
   128
 71
     1
 72
     2
 73
     3
  0
VERTEX
  5
1077
  8
0
 10
0.0
 20
0.0
 30
0.0
 70
   128
 71
     1
 72
     3
 73
     4
  0
VERTEX
  5
1078
  8
0
 10
0.0
 20
0.0
 30
0.0
 70
   128
 71
     4
 72
     5
 73
     1
  0
VERTEX
  5
1079
  8
0
 10
0.0
 20
0.0
 30
0.0
 70
   128
 71
     6
 72
     7
 73
     8
  0
VERTEX
  5
107A
  8
0
 10
0.0
 20
0.0
 30
0.0
 70
   128
 71
     8
 72
     9
 73
    10
  0
VERTEX
  5
107B
  8
0
 10
0.0
 20
0.0
 30
0.0
 70
   128
 71
     8
 72
    10
 73
     6
  0
VERTEX
  5
107C
  8
0
 10
0.0
 20
0.0
 30
0.0
 70
   128
 71
    11
 72
     5
 73
     4
  0
VERTEX
  5
107D
  8
0
 10
0.0
 20
0.0
 30
0.0
 70
   128
 71
    11
 72
     4
 73
    12
  0
VERTEX
  5
107E
  8
0
 10
0.0
 20
0.0
 30
0.0
 70
   128
 71
    13
 72
    14
 73
    15
  0
VERTEX
  5
107F
  8
0
 10
0.0
 20
0.0
 30
0.0
 70
   128
 71
    13
 72
    16
 73
    14
  0
VERTEX
  5
1080
  8
0
 10
0.0
 20
0.0
 30
0.0
 70
   128
 71
    17
 72
    18
 73
    19
  0
VERTEX
  5
1081
  8
0
 10
0.0
 20
0.0
 30
0.0
 70
   128
 71
    17
 72
    19
 73
    20
  0
VERTEX
  5
1082
  8
0
 10
0.0
 20
0.0
 30
0.0
 70
   128
 71
    20
 72
    21
 73
    17
  0
VERTEX
  5
1083
  8
0
 10
0.0
 20
0.0
 30
0.0
 70
   128
 71
    22
 72
    23
 73
   -13
  0
VERTEX
  5
1084
  8
0
 10
0.0
 20
0.0
 30
0.0
 70
   128
 71
   -22
 72
    13
 73
    24
  0
VERTEX
  5
1085
  8
0
 10
0.0
 20
0.0
 30
0.0
 70
   128
 71
    11
 72
    23
 73
    22
  0
VERTEX
  5
1086
  8
0
 10
0.0
 20
0.0
 30
0.0
 70
   128
 71
    22
 72
     8
 73
    11
  0
VERTEX
  5
1087
  8
0
 10
0.0
 20
0.0
 30
0.0
 70
   128
 71
     8
 72
     7
 73
    11
  0
VERTEX
  5
1088
  8
0
 10
0.0
 20
0.0
 30
0.0
 70
   128
 71
    20
 72
    24
 73
    13
  0
VERTEX
  5
1089
  8
0
 10
0.0
 20
0.0
 30
0.0
 70
   128
 71
    20
 72
    13
 73
    15
  0
VERTEX
  5
108A
  8
0
 10
0.0
 20
0.0
 30
0.0
 70
   128
 71
    11
 72
    12
 73
    25
  0
VERTEX
  5
108B
  8
0
 10
0.0
 20
0.0
 30
0.0
 70
   128
 71
    11
 72
    25
 73
    23
  0
VERTEX
  5
108C
  8
0
 10
0.0
 20
0.0
 30
0.0
 70
   128
 71
    26
 72
    27
 73
    23
  0
VERTEX
  5
108D
  8
0
 10
0.0
 20
0.0
 30
0.0
 70
   128
 71
    26
 72
    23
 73
    25
  0
VERTEX
  5
108E
  8
0
 10
0.0
 20
0.0
 30
0.0
 70
   128
 71
    15
 72
    21
 73
    20
  0
VERTEX
  5
108F
  8
0
 10
0.0
 20
0.0
 30
0.0
 70
   128
 71
    16
 72
    13
 73
    28
  0
VERTEX
  5
1090
  8
0
 10
0.0
 20
0.0
 30
0.0
 70
   128
 71
    16
 72
    28
 73
    29
  0
SEQEND
  5
1721
  8
0
  0
POLYLINE
  5
1091
  8
0
 66
     1
 10
0.0
 20
0.0
 30
0.0
 70
    64
 71
    19
 72
    17
  0
VERTEX
  5
1092
  8
0
 10
11.86602724575685
 20
-16.49999892270702
 30
-0.0000000234406303
 70
   192
  0
VERTEX
  5
1093
  8
0
 10
12.00000160461763
 20
-17.00000000001826
 30
-0.0000000153429436
 70
   192
  0
VERTEX
  5
1094
  8
0
 10
13.19552703008062
 20
-16.14312819184986
 30
4.865879442818086
 70
   192
  0
VERTEX
  5
1095
  8
0
 10
33.49999388982606
 20
-16.1339652076645
 30
0.0000004209316103
 70
   192
  0
VERTEX
  5
1096
  8
0
 10
34.00000000007451
 20
-15.99999264498034
 30
0.0000002201035409
 70
   192
  0
VERTEX
  5
1097
  8
0
 10
32.69629674665962
 20
-15.19680171548748
 30
5.0057086226732
 70
   192
  0
VERTEX
  5
1098
  8
0
 10
31.80942790401207
 20
-16.1465431401617
 30
4.856392910381283
 70
   192
  0
VERTEX
  5
1099
  8
0
 10
33.13396438294718
 20
-16.4999941108019
 30
0.0000004456451497
 70
   192
  0
VERTEX
  5
109A
  8
0
 10
32.99999714096
 20
-17.00000000002
 30
-0.0000000004667264
 70
   192
  0
VERTEX
  5
109B
  8
0
 10
29.70311751637538
 20
-14.79825471910054
 30
7.639705363774591
 70
   192
  0
VERTEX
  5
109C
  8
0
 10
30.38927175857025
 20
-13.92784085506183
 30
7.874975984589274
 70
   192
  0
VERTEX
  5
109D
  8
0
 10
22.60677402971754
 20
-11.78394287860262
 30
10.82306288124008
 70
   192
  0
VERTEX
  5
109E
  8
0
 10
22.59749594919452
 20
-12.52043937352485
 30
10.49954734928562
 70
   192
  0
VERTEX
  5
109F
  8
0
 10
14.65721862427286
 20
-13.90456316665143
 30
7.91600409119917
 70
   192
  0
VERTEX
  5
10A0
  8
0
 10
15.33933827065503
 20
-14.77351782198826
 30
7.679513239645752
 70
   192
  0
VERTEX
  5
10A1
  8
0
 10
11.50000110785028
 20
-16.13397286828774
 30
-0.0000000219996522
 70
   192
  0
VERTEX
  5
10A2
  8
0
 10
12.30911044112031
 20
-15.19357912017826
 30
5.015481431142952
 70
   192
  0
VERTEX
  5
10A3
  8
0
 10
10.99999999998
 20
-15.99999822307
 30
-0.0000000000721821
 70
   192
  0
VERTEX
  5
10A4
  8
0
 10
10.9999999999807
 20
-15.99999862347275
 30
-0.0000000114061199
 70
   192
  0
VERTEX
  5
10A5
  8
0
 10
0.0
 20
0.0
 30
0.0
 70
   128
 71
     1
 72
     2
 73
     3
  0
VERTEX
  5
10A6
  8
0
 10
0.0
 20
0.0
 30
0.0
 70
   128
 71
     4
 72
     5
 73
     6
  0
VERTEX
  5
10A7
  8
0
 10
0.0
 20
0.0
 30
0.0
 70
   128
 71
     6
 72
     7
 73
     8
  0
VERTEX
  5
10A8
  8
0
 10
0.0
 20
0.0
 30
0.0
 70
   128
 71
     6
 72
     8
 73
     4
  0
VERTEX
  5
10A9
  8
0
 10
0.0
 20
0.0
 30
0.0
 70
   128
 71
     7
 72
     9
 73
     8
  0
VERTEX
  5
10AA
  8
0
 10
0.0
 20
0.0
 30
0.0
 70
   128
 71
    10
 72
    11
 73
    12
  0
VERTEX
  5
10AB
  8
0
 10
0.0
 20
0.0
 30
0.0
 70
   128
 71
    12
 72
    13
 73
    10
  0
VERTEX
  5
10AC
  8
0
 10
0.0
 20
0.0
 30
0.0
 70
   128
 71
    12
 72
    14
 73
    15
  0
VERTEX
  5
10AD
  8
0
 10
0.0
 20
0.0
 30
0.0
 70
   128
 71
    13
 72
    12
 73
    15
  0
VERTEX
  5
10AE
  8
0
 10
0.0
 20
0.0
 30
0.0
 70
   128
 71
    15
 72
    16
 73
     1
  0
VERTEX
  5
10AF
  8
0
 10
0.0
 20
0.0
 30
0.0
 70
   128
 71
    15
 72
     1
 73
     3
  0
VERTEX
  5
10B0
  8
0
 10
0.0
 20
0.0
 30
0.0
 70
   128
 71
    15
 72
    14
 73
    17
  0
VERTEX
  5
10B1
  8
0
 10
0.0
 20
0.0
 30
0.0
 70
   128
 71
    15
 72
    17
 73
    18
  0
VERTEX
  5
10B2
  8
0
 10
0.0
 20
0.0
 30
0.0
 70
   128
 71
    15
 72
    18
 73
    19
  0
VERTEX
  5
10B3
  8
0
 10
0.0
 20
0.0
 30
0.0
 70
   128
 71
    15
 72
    19
 73
    16
  0
VERTEX
  5
10B4
  8
0
 10
0.0
 20
0.0
 30
0.0
 70
   128
 71
     7
 72
     6
 73
    11
  0
VERTEX
  5
10B5
  8
0
 10
0.0
 20
0.0
 30
0.0
 70
   128
 71
     7
 72
    11
 73
    10
  0
SEQEND
  5
1722
  8
0
  0
POLYLINE
  5
10B6
  8
0
 66
     1
 10
0.0
 20
0.0
 30
0.0
 70
    64
 71
    20
 72
    18
  0
VERTEX
  5
10B7
  8
0
 10
22.52565969541397
 20
-11.78354214304726
 30
-10.82350056881312
 70
   192
  0
VERTEX
  5
10B8
  8
0
 10
27.5474334274669
 20
-13.68612538497572
 30
-9.207248003355284
 70
   192
  0
VERTEX
  5
10B9
  8
0
 10
22.52325294270145
 20
-12.52001235110165
 30
-10.49997425238061
 70
   192
  0
VERTEX
  5
10BA
  8
0
 10
33.13396438294718
 20
-16.4999941108019
 30
0.0000004456451497
 70
   192
  0
VERTEX
  5
10BB
  8
0
 10
32.99999714096
 20
-17.00000000002
 30
-0.0000000004667264
 70
   192
  0
VERTEX
  5
10BC
  8
0
 10
30.73912059432624
 20
-15.43303630682562
 30
-6.508985468730828
 70
   192
  0
VERTEX
  5
10BD
  8
0
 10
32.99999099553546
 20
-17.0000000000706
 30
0.0000002876220373
 70
   192
  0
VERTEX
  5
10BE
  8
0
 10
11.50000110785028
 20
-16.13397286828774
 30
-0.0000000219996522
 70
   192
  0
VERTEX
  5
10BF
  8
0
 10
10.9999999999807
 20
-15.99999862347275
 30
-0.0000000114061199
 70
   192
  0
VERTEX
  5
10C0
  8
0
 10
13.50912328590884
 20
-14.50710754364172
 30
-6.748613667745012
 70
   192
  0
VERTEX
  5
10C1
  8
0
 10
14.29101855061723
 20
-15.41376140328935
 30
-6.546955289574656
 70
   192
  0
VERTEX
  5
10C2
  8
0
 10
11.86602724575685
 20
-16.49999892270702
 30
-0.0000000234406303
 70
   192
  0
VERTEX
  5
10C3
  8
0
 10
12.00000274554
 20
-17.00000000002
 30
-0.0000000001805073
 70
   192
  0
VERTEX
  5
10C4
  8
0
 10
17.49198526360449
 20
-13.66871593382068
 30
-9.22874793241453
 70
   192
  0
VERTEX
  5
10C5
  8
0
 10
17.01490263161058
 20
-12.86463646166017
 30
-9.513206831752719
 70
   192
  0
VERTEX
  5
10C6
  8
0
 10
33.49999388982606
 20
-16.1339652076645
 30
0.0000004209316103
 70
   192
  0
VERTEX
  5
10C7
  8
0
 10
28.02831148947671
 20
-12.88106258363049
 30
-9.490954246015082
 70
   192
  0
VERTEX
  5
10C8
  8
0
 10
31.52390336680243
 20
-14.52527328336773
 30
-6.7094258169005
 70
   192
  0
VERTEX
  5
10C9
  8
0
 10
34.00000000002
 20
-15.99999815968
 30
-0.0000000001832523
 70
   192
  0
VERTEX
  5
10CA
  8
0
 10
34.00000000007451
 20
-15.99999264498034
 30
0.0000002201035409
 70
   192
  0
VERTEX
  5
10CB
  8
0
 10
0.0
 20
0.0
 30
0.0
 70
   128
 71
     1
 72
     2
 73
     3
  0
VERTEX
  5
10CC
  8
0
 10
0.0
 20
0.0
 30
0.0
 70
   128
 71
     4
 72
     5
 73
     6
  0
VERTEX
  5
10CD
  8
0
 10
0.0
 20
0.0
 30
0.0
 70
   128
 71
     4
 72
     7
 73
     5
  0
VERTEX
  5
10CE
  8
0
 10
0.0
 20
0.0
 30
0.0
 70
   128
 71
     8
 72
     9
 73
    10
  0
VERTEX
  5
10CF
  8
0
 10
0.0
 20
0.0
 30
0.0
 70
   128
 71
    10
 72
    11
 73
    12
  0
VERTEX
  5
10D0
  8
0
 10
0.0
 20
0.0
 30
0.0
 70
   128
 71
    10
 72
    12
 73
     8
  0
VERTEX
  5
10D1
  8
0
 10
0.0
 20
0.0
 30
0.0
 70
   128
 71
    11
 72
    13
 73
    12
  0
VERTEX
  5
10D2
  8
0
 10
0.0
 20
0.0
 30
0.0
 70
   128
 71
    14
 72
    15
 73
     1
  0
VERTEX
  5
10D3
  8
0
 10
0.0
 20
0.0
 30
0.0
 70
   128
 71
    14
 72
     1
 73
     3
  0
VERTEX
  5
10D4
  8
0
 10
0.0
 20
0.0
 30
0.0
 70
   128
 71
    16
 72
     4
 73
     6
  0
VERTEX
  5
10D5
  8
0
 10
0.0
 20
0.0
 30
0.0
 70
   128
 71
    16
 72
     6
 73
     2
  0
VERTEX
  5
10D6
  8
0
 10
0.0
 20
0.0
 30
0.0
 70
   128
 71
    16
 72
     2
 73
     1
  0
VERTEX
  5
10D7
  8
0
 10
0.0
 20
0.0
 30
0.0
 70
   128
 71
    16
 72
     1
 73
    17
  0
VERTEX
  5
10D8
  8
0
 10
0.0
 20
0.0
 30
0.0
 70
   128
 71
    17
 72
    18
 73
    19
  0
VERTEX
  5
10D9
  8
0
 10
0.0
 20
0.0
 30
0.0
 70
   128
 71
    17
 72
    19
 73
    20
  0
VERTEX
  5
10DA
  8
0
 10
0.0
 20
0.0
 30
0.0
 70
   128
 71
    17
 72
    20
 73
    16
  0
VERTEX
  5
10DB
  8
0
 10
0.0
 20
0.0
 30
0.0
 70
   128
 71
    11
 72
    10
 73
    15
  0
VERTEX
  5
10DC
  8
0
 10
0.0
 20
0.0
 30
0.0
 70
   128
 71
    11
 72
    15
 73
    14
  0
SEQEND
  5
1723
  8
0
  0
POLYLINE
  5
10DD
  8
0
 66
     1
 10
0.0
 20
0.0
 30
0.0
 70
    64
 71
    29
 72
    27
  0
VERTEX
  5
10DE
  8
0
 10
0.0
 20
12.94427190999916
 30
-9.40456403667957
 70
   192
  0
VERTEX
  5
10DF
  8
0
 10
0.0
 20
16.0
 30
0.0
 70
   192
  0
VERTEX
  5
10E0
  8
0
 10
41.5077514686
 20
15.999997174566
 30
0.0000000002585481
 70
   192
  0
VERTEX
  5
10E1
  8
0
 10
42.58152579476364
 20
15.09567288659255
 30
-5.302891673511215
 70
   192
  0
VERTEX
  5
10E2
  8
0
 10
65.0
 20
5.362977055233733
 30
-15.07443123653547
 70
   192
  0
VERTEX
  5
10E3
  8
0
 10
55.57867487871231
 20
8.96170771086069
 30
-13.25472726634163
 70
   192
  0
VERTEX
  5
10E4
  8
0
 10
58.9462882206714
 20
9.98564626446621
 30
-12.50147466025317
 70
   192
  0
VERTEX
  5
10E5
  8
0
 10
51.16695630665202
 20
9.522475931645484
 30
-12.85777788465925
 70
   192
  0
VERTEX
  5
10E6
  8
0
 10
0.0
 20
4.944271909999159
 30
-15.21690426072246
 70
   192
  0
VERTEX
  5
10E7
  8
0
 10
0.0
 20
-4.944271909999158
 30
-15.21690426072246
 70
   192
  0
VERTEX
  5
10E8
  8
0
 10
57.73572504052895
 20
-10.98093717721019
 30
-11.63696776270189
 70
   192
  0
VERTEX
  5
10E9
  8
0
 10
50.43609525075413
 20
-11.25750393082581
 30
-11.36963522930448
 70
   192
  0
VERTEX
  5
10EA
  8
0
 10
13.50912328590884
 20
-14.50710754364172
 30
-6.748613667745012
 70
   192
  0
VERTEX
  5
10EB
  8
0
 10
10.99999999998
 20
-15.99999822307
 30
-0.0000000000721821
 70
   192
  0
VERTEX
  5
10EC
  8
0
 10
0.0
 20
-16.0
 30
0.0
 70
   192
  0
VERTEX
  5
10ED
  8
0
 10
0.0
 20
-12.94427190999916
 30
-9.40456403667957
 70
   192
  0
VERTEX
  5
10EE
  8
0
 10
45.30772000417463
 20
-13.99090206354268
 30
-7.762387483780821
 70
   192
  0
VERTEX
  5
10EF
  8
0
 10
42.5
 20
-16.0
 30
0.0
 70
   192
  0
VERTEX
  5
10F0
  8
0
 10
34.00000000002
 20
-15.99999815968
 30
-0.0000000001832523
 70
   192
  0
VERTEX
  5
10F1
  8
0
 10
31.52390336680243
 20
-14.52527328336773
 30
-6.7094258169005
 70
   192
  0
VERTEX
  5
10F2
  8
0
 10
65.0
 20
-5.36297705523374
 30
-15.07443123653547
 70
   192
  0
VERTEX
  5
10F3
  8
0
 10
45.01362495767942
 20
13.16107839764492
 30
-9.098682070005756
 70
   192
  0
VERTEX
  5
10F4
  8
0
 10
17.01490263161058
 20
-12.86463646166017
 30
-9.513206831752719
 70
   192
  0
VERTEX
  5
10F5
  8
0
 10
22.52565969541397
 20
-11.78354214304726
 30
-10.82350056881312
 70
   192
  0
VERTEX
  5
10F6
  8
0
 10
65.0
 20
-13.67881573821263
 30
-8.300000000001587
 70
   192
  0
VERTEX
  5
10F7
  8
0
 10
64.66046883321
 20
13.6788154957
 30
-8.299999954533
 70
   192
  0
VERTEX
  5
10F8
  8
0
 10
65.0
 20
13.67881573821
 30
-8.3
 70
   192
  0
VERTEX
  5
10F9
  8
0
 10
63.21675166002999
 20
-13.67881573821
 30
-8.3
 70
   192
  0
VERTEX
  5
10FA
  8
0
 10
28.02831148947671
 20
-12.88106258363049
 30
-9.490954246015082
 70
   192
  0
VERTEX
  5
10FB
  8
0
 10
0.0
 20
0.0
 30
0.0
 70
   128
 71
     1
 72
     2
 73
     3
  0
VERTEX
  5
10FC
  8
0
 10
0.0
 20
0.0
 30
0.0
 70
   128
 71
     1
 72
     3
 73
     4
  0
VERTEX
  5
10FD
  8
0
 10
0.0
 20
0.0
 30
0.0
 70
   128
 71
     5
 72
     6
 73
     7
  0
VERTEX
  5
10FE
  8
0
 10
0.0
 20
0.0
 30
0.0
 70
   128
 71
     5
 72
     8
 73
     6
  0
VERTEX
  5
10FF
  8
0
 10
0.0
 20
0.0
 30
0.0
 70
   128
 71
     8
 72
     5
 73
     9
  0
VERTEX
  5
1100
  8
0
 10
0.0
 20
0.0
 30
0.0
 70
   128
 71
    10
 72
    11
 73
    12
  0
VERTEX
  5
1101
  8
0
 10
0.0
 20
0.0
 30
0.0
 70
   128
 71
    13
 72
    14
 73
    15
  0
VERTEX
  5
1102
  8
0
 10
0.0
 20
0.0
 30
0.0
 70
   128
 71
    13
 72
    15
 73
    16
  0
VERTEX
  5
1103
  8
0
 10
0.0
 20
0.0
 30
0.0
 70
   128
 71
    17
 72
    18
 73
    19
  0
VERTEX
  5
1104
  8
0
 10
0.0
 20
0.0
 30
0.0
 70
   128
 71
    17
 72
    19
 73
    20
  0
VERTEX
  5
1105
  8
0
 10
0.0
 20
0.0
 30
0.0
 70
   128
 71
     9
 72
     5
 73
    21
  0
VERTEX
  5
1106
  8
0
 10
0.0
 20
0.0
 30
0.0
 70
   128
 71
     9
 72
    21
 73
    11
  0
VERTEX
  5
1107
  8
0
 10
0.0
 20
0.0
 30
0.0
 70
   128
 71
     9
 72
    11
 73
    10
  0
VERTEX
  5
1108
  8
0
 10
0.0
 20
0.0
 30
0.0
 70
   128
 71
     9
 72
     1
 73
     4
  0
VERTEX
  5
1109
  8
0
 10
0.0
 20
0.0
 30
0.0
 70
   128
 71
     9
 72
     4
 73
    22
  0
VERTEX
  5
110A
  8
0
 10
0.0
 20
0.0
 30
0.0
 70
   128
 71
    23
 72
    13
 73
    16
  0
VERTEX
  5
110B
  8
0
 10
0.0
 20
0.0
 30
0.0
 70
   128
 71
    16
 72
    24
 73
    23
  0
VERTEX
  5
110C
  8
0
 10
0.0
 20
0.0
 30
0.0
 70
   128
 71
    24
 72
    16
 73
    10
  0
VERTEX
  5
110D
  8
0
 10
0.0
 20
0.0
 30
0.0
 70
   128
 71
    11
 72
    21
 73
    25
  0
VERTEX
  5
110E
  8
0
 10
0.0
 20
0.0
 30
0.0
 70
   128
 71
    26
 72
    27
 73
     5
  0
VERTEX
  5
110F
  8
0
 10
0.0
 20
0.0
 30
0.0
 70
   128
 71
    26
 72
     5
 73
     7
  0
VERTEX
  5
1110
  8
0
 10
0.0
 20
0.0
 30
0.0
 70
   128
 71
    22
 72
     8
 73
     9
  0
VERTEX
  5
1111
  8
0
 10
0.0
 20
0.0
 30
0.0
 70
   128
 71
    11
 72
    25
 73
    28
  0
VERTEX
  5
1112
  8
0
 10
0.0
 20
0.0
 30
0.0
 70
   128
 71
    24
 72
    10
 73
    12
  0
VERTEX
  5
1113
  8
0
 10
0.0
 20
0.0
 30
0.0
 70
   128
 71
    12
 72
    29
 73
    24
  0
VERTEX
  5
1114
  8
0
 10
0.0
 20
0.0
 30
0.0
 70
   128
 71
    12
 72
    17
 73
    20
  0
VERTEX
  5
1115
  8
0
 10
0.0
 20
0.0
 30
0.0
 70
   128
 71
    12
 72
    20
 73
    29
  0
SEQEND
  5
1724
  8
0
  0
POLYLINE
  5
1116
  8
0
 66
     1
 10
0.0
 20
0.0
 30
0.0
 70
    64
 71
    22
 72
    20
  0
VERTEX
  5
1117
  8
0
 10
57.68011370971852
 20
9.22402249292581
 30
11.979199574537
 70
   192
  0
VERTEX
  5
1118
  8
0
 10
63.78137862691998
 20
12.88091765358
 30
8.300000065752998
 70
   192
  0
VERTEX
  5
1119
  8
0
 10
63.59277090355251
 20
3.924174751430174
 30
8.299999999999836
 70
   192
  0
VERTEX
  5
111A
  8
0
 10
63.40458237891501
 20
-4.928898138046178
 30
8.299999999999917
 70
   192
  0
VERTEX
  5
111B
  8
0
 10
48.85880109413665
 20
-11.92863429213406
 30
10.66338051110075
 70
   192
  0
VERTEX
  5
111C
  8
0
 10
44.74142060400685
 20
-14.37424853776819
 30
7.027160093129297
 70
   192
  0
VERTEX
  5
111D
  8
0
 10
49.96717329481081
 20
9.805512529864574
 30
11.54526499298754
 70
   192
  0
VERTEX
  5
111E
  8
0
 10
57.73572504052895
 20
-10.98093717721019
 30
-11.63696776270189
 70
   192
  0
VERTEX
  5
111F
  8
0
 10
63.21675166002999
 20
-13.67881573821
 30
-8.3
 70
   192
  0
VERTEX
  5
1120
  8
0
 10
63.40458238322334
 20
-4.928897936349841
 30
-8.300000000000168
 70
   192
  0
VERTEX
  5
1121
  8
0
 10
63.59277089955417
 20
3.924174562229844
 30
-8.299999999999836
 70
   192
  0
VERTEX
  5
1122
  8
0
 10
57.67984942037493
 20
9.223929725637268
 30
-11.97926844475244
 70
   192
  0
VERTEX
  5
1123
  8
0
 10
63.78137927079
 20
12.88091902603
 30
-8.300000199812
 70
   192
  0
VERTEX
  5
1124
  8
0
 10
63.21675166002999
 20
-13.67881573821
 30
8.3
 70
   192
  0
VERTEX
  5
1125
  8
0
 10
56.56218624710028
 20
-10.68908286700441
 30
11.90560823571449
 70
   192
  0
VERTEX
  5
1126
  8
0
 10
42.5
 20
-16.0
 30
0.0
 70
   192
  0
VERTEX
  5
1127
  8
0
 10
42.00769389026
 20
15.50781160037
 30
0.0000000002919574
 70
   192
  0
VERTEX
  5
1128
  8
0
 10
44.3536555073992
 20
13.55831341677604
 30
7.235288571519826
 70
   192
  0
VERTEX
  5
1129
  8
0
 10
49.96733427787284
 20
9.80543936964651
 30
-11.54532640951174
 70
   192
  0
VERTEX
  5
112A
  8
0
 10
44.35354698856496
 20
13.55840477568836
 30
-7.235137517722276
 70
   192
  0
VERTEX
  5
112B
  8
0
 10
50.43609525075413
 20
-11.25750393082581
 30
-11.36963522930448
 70
   192
  0
VERTEX
  5
112C
  8
0
 10
45.30772000417463
 20
-13.99090206354268
 30
-7.762387483780821
 70
   192
  0
VERTEX
  5
112D
  8
0
 10
0.0
 20
0.0
 30
0.0
 70
   128
 71
     1
 72
     2
 73
     3
  0
VERTEX
  5
112E
  8
0
 10
0.0
 20
0.0
 30
0.0
 70
   128
 71
     3
 72
     4
 73
     1
  0
VERTEX
  5
112F
  8
0
 10
0.0
 20
0.0
 30
0.0
 70
   128
 71
     5
 72
     6
 73
     7
  0
VERTEX
  5
1130
  8
0
 10
0.0
 20
0.0
 30
0.0
 70
   128
 71
     8
 72
     9
 73
    10
  0
VERTEX
  5
1131
  8
0
 10
0.0
 20
0.0
 30
0.0
 70
   128
 71
    11
 72
    12
 73
     8
  0
VERTEX
  5
1132
  8
0
 10
0.0
 20
0.0
 30
0.0
 70
   128
 71
    10
 72
    11
 73
     8
  0
VERTEX
  5
1133
  8
0
 10
0.0
 20
0.0
 30
0.0
 70
   128
 71
    11
 72
    13
 73
    12
  0
VERTEX
  5
1134
  8
0
 10
0.0
 20
0.0
 30
0.0
 70
   128
 71
     4
 72
    14
 73
    15
  0
VERTEX
  5
1135
  8
0
 10
0.0
 20
0.0
 30
0.0
 70
   128
 71
     1
 72
     4
 73
    15
  0
VERTEX
  5
1136
  8
0
 10
0.0
 20
0.0
 30
0.0
 70
   128
 71
    15
 72
     5
 73
     7
  0
VERTEX
  5
1137
  8
0
 10
0.0
 20
0.0
 30
0.0
 70
   128
 71
     1
 72
    15
 73
     7
  0
VERTEX
  5
1138
  8
0
 10
0.0
 20
0.0
 30
0.0
 70
   128
 71
     6
 72
    16
 73
    17
  0
VERTEX
  5
1139
  8
0
 10
0.0
 20
0.0
 30
0.0
 70
   128
 71
     7
 72
     6
 73
    17
  0
VERTEX
  5
113A
  8
0
 10
0.0
 20
0.0
 30
0.0
 70
   128
 71
    18
 72
     7
 73
    17
  0
VERTEX
  5
113B
  8
0
 10
0.0
 20
0.0
 30
0.0
 70
   128
 71
    19
 72
    20
 73
    21
  0
VERTEX
  5
113C
  8
0
 10
0.0
 20
0.0
 30
0.0
 70
   128
 71
    17
 72
    16
 73
    20
  0
VERTEX
  5
113D
  8
0
 10
0.0
 20
0.0
 30
0.0
 70
   128
 71
    22
 72
    21
 73
    20
  0
VERTEX
  5
113E
  8
0
 10
0.0
 20
0.0
 30
0.0
 70
   128
 71
    16
 72
    22
 73
    20
  0
VERTEX
  5
113F
  8
0
 10
0.0
 20
0.0
 30
0.0
 70
   128
 71
    21
 72
     8
 73
    12
  0
VERTEX
  5
1140
  8
0
 10
0.0
 20
0.0
 30
0.0
 70
   128
 71
    19
 72
    21
 73
    12
  0
SEQEND
  5
1725
  8
0
  0
POLYLINE
  5
1141
  8
0
 66
     1
 10
0.0
 20
0.0
 30
0.0
 70
    64
 71
    17
 72
    15
  0
VERTEX
  5
1142
  8
0
 10
55.57867487871231
 20
8.96170771086069
 30
-13.25472726634163
 70
   192
  0
VERTEX
  5
1143
  8
0
 10
51.16695630665202
 20
9.522475931645484
 30
-12.85777788465925
 70
   192
  0
VERTEX
  5
1144
  8
0
 10
57.67984942037493
 20
9.223929725637268
 30
-11.97926844475244
 70
   192
  0
VERTEX
  5
1145
  8
0
 10
42.58152579476364
 20
15.09567288659255
 30
-5.302891673511215
 70
   192
  0
VERTEX
  5
1146
  8
0
 10
41.5077514686
 20
15.99999717457
 30
0.0000000002585501
 70
   192
  0
VERTEX
  5
1147
  8
0
 10
41.75549368120218
 20
15.93430638180089
 30
-0.0000000090450019
 70
   192
  0
VERTEX
  5
1148
  8
0
 10
41.93813926861397
 20
15.7544959443933
 30
-0.0000000726984122
 70
   192
  0
VERTEX
  5
1149
  8
0
 10
44.35354698856496
 20
13.55840477568836
 30
-7.235137517722276
 70
   192
  0
VERTEX
  5
114A
  8
0
 10
42.00769535926709
 20
15.50781162333749
 30
-0.000000127138585
 70
   192
  0
VERTEX
  5
114B
  8
0
 10
41.50775146862212
 20
15.99999504221991
 30
0.0000000470957561
 70
   192
  0
VERTEX
  5
114C
  8
0
 10
45.01362495767942
 20
13.16107839764492
 30
-9.098682070005756
 70
   192
  0
VERTEX
  5
114D
  8
0
 10
49.96733427787284
 20
9.80543936964651
 30
-11.54532640951174
 70
   192
  0
VERTEX
  5
114E
  8
0
 10
63.78137927079
 20
12.88091902603
 30
-8.300000199812
 70
   192
  0
VERTEX
  5
114F
  8
0
 10
63.91225442883875
 20
13.24748235287949
 30
-8.300000000000002
 70
   192
  0
VERTEX
  5
1150
  8
0
 10
64.24724407303391
 20
13.55741423589261
 30
-8.3
 70
   192
  0
VERTEX
  5
1151
  8
0
 10
58.9462882206714
 20
9.98564626446621
 30
-12.50147466025317
 70
   192
  0
VERTEX
  5
1152
  8
0
 10
64.66046883321
 20
13.6788154957
 30
-8.299999954533
 70
   192
  0
VERTEX
  5
1153
  8
0
 10
0.0
 20
0.0
 30
0.0
 70
   128
 71
     1
 72
     2
 73
     3
  0
VERTEX
  5
1154
  8
0
 10
0.0
 20
0.0
 30
0.0
 70
   128
 71
     4
 72
     5
 73
     6
  0
VERTEX
  5
1155
  8
0
 10
0.0
 20
0.0
 30
0.0
 70
   128
 71
     7
 72
     8
 73
     4
  0
VERTEX
  5
1156
  8
0
 10
0.0
 20
0.0
 30
0.0
 70
   128
 71
     6
 72
     7
 73
     4
  0
VERTEX
  5
1157
  8
0
 10
0.0
 20
0.0
 30
0.0
 70
   128
 71
     7
 72
     9
 73
     8
  0
VERTEX
  5
1158
  8
0
 10
0.0
 20
0.0
 30
0.0
 70
   128
 71
     5
 72
    10
 73
     6
  0
VERTEX
  5
1159
  8
0
 10
0.0
 20
0.0
 30
0.0
 70
   128
 71
     3
 72
     2
 73
    11
  0
VERTEX
  5
115A
  8
0
 10
0.0
 20
0.0
 30
0.0
 70
   128
 71
     3
 72
    11
 73
    12
  0
VERTEX
  5
115B
  8
0
 10
0.0
 20
0.0
 30
0.0
 70
   128
 71
     3
 72
    13
 73
    14
  0
VERTEX
  5
115C
  8
0
 10
0.0
 20
0.0
 30
0.0
 70
   128
 71
    14
 72
    15
 73
     3
  0
VERTEX
  5
115D
  8
0
 10
0.0
 20
0.0
 30
0.0
 70
   128
 71
    16
 72
     1
 73
     3
  0
VERTEX
  5
115E
  8
0
 10
0.0
 20
0.0
 30
0.0
 70
   128
 71
    17
 72
    16
 73
     3
  0
VERTEX
  5
115F
  8
0
 10
0.0
 20
0.0
 30
0.0
 70
   128
 71
    15
 72
    17
 73
     3
  0
VERTEX
  5
1160
  8
0
 10
0.0
 20
0.0
 30
0.0
 70
   128
 71
    11
 72
     4
 73
     8
  0
VERTEX
  5
1161
  8
0
 10
0.0
 20
0.0
 30
0.0
 70
   128
 71
    12
 72
    11
 73
     8
  0
SEQEND
  5
1726
  8
0
  0
POLYLINE
  5
1162
  8
0
 66
     1
 10
0.0
 20
0.0
 30
0.0
 70
    64
 71
     9
 72
     7
  0
VERTEX
  5
1163
  8
0
 10
63.78137927079
 20
12.88091902603
 30
-8.300000199812
 70
   192
  0
VERTEX
  5
1164
  8
0
 10
63.59277089955417
 20
3.924174562229844
 30
-8.299999999999836
 70
   192
  0
VERTEX
  5
1165
  8
0
 10
63.40458238322334
 20
-4.928897936349841
 30
-8.300000000000168
 70
   192
  0
VERTEX
  5
1166
  8
0
 10
63.21675166002999
 20
-13.67881573821
 30
-8.3
 70
   192
  0
VERTEX
  5
1167
  8
0
 10
65.0
 20
-13.67881573821
 30
-8.3
 70
   192
  0
VERTEX
  5
1168
  8
0
 10
65.0
 20
13.67881573821
 30
-8.3
 70
   192
  0
VERTEX
  5
1169
  8
0
 10
64.66046883321
 20
13.67881549569958
 30
-8.299999954532666
 70
   192
  0
VERTEX
  5
116A
  8
0
 10
64.24724407303391
 20
13.55741423589261
 30
-8.3
 70
   192
  0
VERTEX
  5
116B
  8
0
 10
63.91225442883875
 20
13.24748235287949
 30
-8.300000000000002
 70
   192
  0
VERTEX
  5
116C
  8
0
 10
0.0
 20
0.0
 30
0.0
 70
   128
 71
     9
 72
     1
 73
    -2
  0
VERTEX
  5
116D
  8
0
 10
0.0
 20
0.0
 30
0.0
 70
   128
 71
     8
 72
    -9
 73
    -2
  0
VERTEX
  5
116E
  8
0
 10
0.0
 20
0.0
 30
0.0
 70
   128
 71
     7
 72
    -8
 73
    -2
  0
VERTEX
  5
116F
  8
0
 10
0.0
 20
0.0
 30
0.0
 70
   128
 71
     6
 72
    -7
 73
    -2
  0
VERTEX
  5
1170
  8
0
 10
0.0
 20
0.0
 30
0.0
 70
   128
 71
    -3
 72
     5
 73
    -6
  0
VERTEX
  5
1171
  8
0
 10
0.0
 20
0.0
 30
0.0
 70
   128
 71
     2
 72
    -3
 73
    -6
  0
VERTEX
  5
1172
  8
0
 10
0.0
 20
0.0
 30
0.0
 70
   128
 71
     3
 72
     4
 73
    -5
  0
SEQEND
  5
1727
  8
0
  0
POLYLINE
  5
1173
  8
0
 66
     1
 10
0.0
 20
0.0
 30
0.0
 70
    64
 71
     4
 72
     2
  0
VERTEX
  5
1174
  8
0
 10
65.0
 20
-13.67881573821
 30
-8.3
 70
   192
  0
VERTEX
  5
1175
  8
0
 10
65.0
 20
13.67881573821262
 30
-8.300000000001592
 70
   192
  0
VERTEX
  5
1176
  8
0
 10
65.0
 20
5.362977055233733
 30
-15.07443123653547
 70
   192
  0
VERTEX
  5
1177
  8
0
 10
65.0
 20
-5.36297705523374
 30
-15.07443123653547
 70
   192
  0
VERTEX
  5
1178
  8
0
 10
0.0
 20
0.0
 30
0.0
 70
   128
 71
     1
 72
     4
 73
    -3
  0
VERTEX
  5
1179
  8
0
 10
0.0
 20
0.0
 30
0.0
 70
   128
 71
    -1
 72
     3
 73
     2
  0
SEQEND
  5
1728
  8
0
  0
POLYLINE
  5
117A
  8
0
 66
     1
 10
0.0
 20
0.0
 30
0.0
 70
    64
 71
     4
 72
     2
  0
VERTEX
  5
117B
  8
0
 10
65.0
 20
13.67881573821
 30
8.3
 70
   192
  0
VERTEX
  5
117C
  8
0
 10
65.0
 20
-13.67881573821263
 30
8.300000000001594
 70
   192
  0
VERTEX
  5
117D
  8
0
 10
65.0
 20
-5.362977055233737
 30
15.07443123653547
 70
   192
  0
VERTEX
  5
117E
  8
0
 10
65.0
 20
5.362977055233735
 30
15.07443123653548
 70
   192
  0
VERTEX
  5
117F
  8
0
 10
0.0
 20
0.0
 30
0.0
 70
   128
 71
     1
 72
     4
 73
    -3
  0
VERTEX
  5
1180
  8
0
 10
0.0
 20
0.0
 30
0.0
 70
   128
 71
    -1
 72
     3
 73
     2
  0
SEQEND
  5
1729
  8
0
  0
POLYLINE
  5
1181
  8
0
 66
     1
 10
0.0
 20
0.0
 30
0.0
 70
    64
 71
     9
 72
     7
  0
VERTEX
  5
1182
  8
0
 10
64.66046937495999
 20
13.67881574224
 30
8.300000000755
 70
   192
  0
VERTEX
  5
1183
  8
0
 10
64.2411225083035
 20
13.5538172539603
 30
8.3
 70
   192
  0
VERTEX
  5
1184
  8
0
 10
63.90375290328569
 20
13.23502479630453
 30
8.300000000000002
 70
   192
  0
VERTEX
  5
1185
  8
0
 10
63.78137862691999
 20
12.88091765358
 30
8.300000065753
 70
   192
  0
VERTEX
  5
1186
  8
0
 10
63.59277090355251
 20
3.924174751430174
 30
8.299999999999836
 70
   192
  0
VERTEX
  5
1187
  8
0
 10
63.40458237891501
 20
-4.928898138046178
 30
8.299999999999917
 70
   192
  0
VERTEX
  5
1188
  8
0
 10
63.21675166002999
 20
-13.67881573821
 30
8.3
 70
   192
  0
VERTEX
  5
1189
  8
0
 10
65.0
 20
-13.67881573821
 30
8.3
 70
   192
  0
VERTEX
  5
118A
  8
0
 10
65.0
 20
13.67881573821
 30
8.3
 70
   192
  0
VERTEX
  5
118B
  8
0
 10
0.0
 20
0.0
 30
0.0
 70
   128
 71
     5
 72
     4
 73
    -3
  0
VERTEX
  5
118C
  8
0
 10
0.0
 20
0.0
 30
0.0
 70
   128
 71
    -5
 72
     3
 73
    -2
  0
VERTEX
  5
118D
  8
0
 10
0.0
 20
0.0
 30
0.0
 70
   128
 71
    -5
 72
     2
 73
    -1
  0
VERTEX
  5
118E
  8
0
 10
0.0
 20
0.0
 30
0.0
 70
   128
 71
    -5
 72
     1
 73
    -9
  0
VERTEX
  5
118F
  8
0
 10
0.0
 20
0.0
 30
0.0
 70
   128
 71
     9
 72
    -8
 73
    -6
  0
VERTEX
  5
1190
  8
0
 10
0.0
 20
0.0
 30
0.0
 70
   128
 71
    -9
 72
     6
 73
    -5
  0
VERTEX
  5
1191
  8
0
 10
0.0
 20
0.0
 30
0.0
 70
   128
 71
     8
 72
     7
 73
    -6
  0
SEQEND
  5
172A
  8
0
  0
POLYLINE
  5
1192
  8
0
 66
     1
 10
0.0
 20
0.0
 30
0.0
 70
    64
 71
    18
 72
    16
  0
VERTEX
  5
1193
  8
0
 10
44.3536555073992
 20
13.55831341677604
 30
7.235288571519826
 70
   192
  0
VERTEX
  5
1194
  8
0
 10
42.00769389026
 20
15.50781160037
 30
0.0000000002919574
 70
   192
  0
VERTEX
  5
1195
  8
0
 10
41.93813926861397
 20
15.7544959443933
 30
-0.0000000726984122
 70
   192
  0
VERTEX
  5
1196
  8
0
 10
41.75549368120218
 20
15.93430638180089
 30
-0.0000000090450019
 70
   192
  0
VERTEX
  5
1197
  8
0
 10
42.59350938130923
 20
15.08560161940892
 30
5.331474822268855
 70
   192
  0
VERTEX
  5
1198
  8
0
 10
41.50775146862212
 20
15.99999504221991
 30
0.0000000470957561
 70
   192
  0
VERTEX
  5
1199
  8
0
 10
41.5077514686
 20
15.99999717457
 30
0.0000000002585501
 70
   192
  0
VERTEX
  5
119A
  8
0
 10
42.00769535926709
 20
15.50781162333749
 30
-0.000000127138585
 70
   192
  0
VERTEX
  5
119B
  8
0
 10
58.94212703482015
 20
9.983746446249008
 30
12.50299191781752
 70
   192
  0
VERTEX
  5
119C
  8
0
 10
64.66046937495999
 20
13.67881574224
 30
8.300000000755
 70
   192
  0
VERTEX
  5
119D
  8
0
 10
64.2411225083035
 20
13.5538172539603
 30
8.3
 70
   192
  0
VERTEX
  5
119E
  8
0
 10
44.89542668177
 20
13.25068332173
 30
8.967685961675201
 70
   192
  0
VERTEX
  5
119F
  8
0
 10
49.96717329481081
 20
9.805512529864574
 30
11.54526499298754
 70
   192
  0
VERTEX
  5
11A0
  8
0
 10
63.90375290328569
 20
13.23502479630453
 30
8.300000000000002
 70
   192
  0
VERTEX
  5
11A1
  8
0
 10
57.68011370971852
 20
9.22402249292581
 30
11.979199574537
 70
   192
  0
VERTEX
  5
11A2
  8
0
 10
50.93866048056407
 20
9.608398751945698
 30
12.79369662855925
 70
   192
  0
VERTEX
  5
11A3
  8
0
 10
55.11665373517464
 20
8.916534752250335
 30
13.28515743271083
 70
   192
  0
VERTEX
  5
11A4
  8
0
 10
63.78137862691998
 20
12.88091765358
 30
8.300000065752998
 70
   192
  0
VERTEX
  5
11A5
  8
0
 10
0.0
 20
0.0
 30
0.0
 70
   128
 71
     1
 72
     2
 73
     3
  0
VERTEX
  5
11A6
  8
0
 10
0.0
 20
0.0
 30
0.0
 70
   128
 71
     4
 72
     5
 73
     1
  0
VERTEX
  5
11A7
  8
0
 10
0.0
 20
0.0
 30
0.0
 70
   128
 71
     3
 72
     4
 73
     1
  0
VERTEX
  5
11A8
  8
0
 10
0.0
 20
0.0
 30
0.0
 70
   128
 71
     4
 72
     6
 73
     5
  0
VERTEX
  5
11A9
  8
0
 10
0.0
 20
0.0
 30
0.0
 70
   128
 71
     6
 72
     7
 73
     5
  0
VERTEX
  5
11AA
  8
0
 10
0.0
 20
0.0
 30
0.0
 70
   128
 71
     2
 72
     8
 73
     3
  0
VERTEX
  5
11AB
  8
0
 10
0.0
 20
0.0
 30
0.0
 70
   128
 71
     9
 72
    10
 73
    11
  0
VERTEX
  5
11AC
  8
0
 10
0.0
 20
0.0
 30
0.0
 70
   128
 71
     5
 72
    12
 73
    13
  0
VERTEX
  5
11AD
  8
0
 10
0.0
 20
0.0
 30
0.0
 70
   128
 71
     1
 72
     5
 73
    13
  0
VERTEX
  5
11AE
  8
0
 10
0.0
 20
0.0
 30
0.0
 70
   128
 71
    11
 72
    14
 73
    15
  0
VERTEX
  5
11AF
  8
0
 10
0.0
 20
0.0
 30
0.0
 70
   128
 71
     9
 72
    11
 73
    15
  0
VERTEX
  5
11B0
  8
0
 10
0.0
 20
0.0
 30
0.0
 70
   128
 71
    16
 72
    17
 73
     9
  0
VERTEX
  5
11B1
  8
0
 10
0.0
 20
0.0
 30
0.0
 70
   128
 71
    12
 72
    16
 73
     9
  0
VERTEX
  5
11B2
  8
0
 10
0.0
 20
0.0
 30
0.0
 70
   128
 71
    13
 72
    12
 73
     9
  0
VERTEX
  5
11B3
  8
0
 10
0.0
 20
0.0
 30
0.0
 70
   128
 71
    15
 72
    13
 73
     9
  0
VERTEX
  5
11B4
  8
0
 10
0.0
 20
0.0
 30
0.0
 70
   128
 71
    15
 72
    14
 73
    18
  0
SEQEND
  5
172B
  8
0
  0
POLYLINE
  5
11B5
  8
0
 66
     1
 10
0.0
 20
0.0
 30
0.0
 70
    64
 71
    10
 72
     8
  0
VERTEX
  5
11B6
  8
0
 10
0.0
 20
10.75
 30
0.0
 70
   192
  0
VERTEX
  5
11B7
  8
0
 10
0.0
 20
-10.75
 30
0.0
 70
   192
  0
VERTEX
  5
11B8
  8
0
 10
2.0
 20
-10.75
 30
0.0
 70
   192
  0
VERTEX
  5
11B9
  8
0
 10
2.0
 20
10.75
 30
0.0
 70
   192
  0
VERTEX
  5
11BA
  8
0
 10
2.0
 20
0.0
 30
10.75
 70
   192
  0
VERTEX
  5
11BB
  8
0
 10
0.0
 20
0.0
 30
10.75
 70
   192
  0
VERTEX
  5
11BC
  8
0
 10
2.0
 20
7.601397897755386
 30
7.601397897755386
 70
   192
  0
VERTEX
  5
11BD
  8
0
 10
0.0
 20
7.601397897755386
 30
7.601397897755386
 70
   192
  0
VERTEX
  5
11BE
  8
0
 10
2.0
 20
-7.601397897755388
 30
7.601397897755388
 70
   192
  0
VERTEX
  5
11BF
  8
0
 10
0.0
 20
-7.601397897755388
 30
7.601397897755388
 70
   192
  0
VERTEX
  5
11C0
  8
0
 10
0.0
 20
0.0
 30
0.0
 70
   128
 71
     1
 72
     4
 73
    -7
  0
VERTEX
  5
11C1
  8
0
 10
0.0
 20
0.0
 30
0.0
 70
   128
 71
     8
 72
    -1
 73
     7
  0
VERTEX
  5
11C2
  8
0
 10
0.0
 20
0.0
 30
0.0
 70
   128
 71
     7
 72
     5
 73
    -6
  0
VERTEX
  5
11C3
  8
0
 10
0.0
 20
0.0
 30
0.0
 70
   128
 71
     8
 72
    -7
 73
     6
  0
VERTEX
  5
11C4
  8
0
 10
0.0
 20
0.0
 30
0.0
 70
   128
 71
     5
 72
     9
 73
   -10
  0
VERTEX
  5
11C5
  8
0
 10
0.0
 20
0.0
 30
0.0
 70
   128
 71
     6
 72
    -5
 73
    10
  0
VERTEX
  5
11C6
  8
0
 10
0.0
 20
0.0
 30
0.0
 70
   128
 71
     9
 72
     3
 73
    -2
  0
VERTEX
  5
11C7
  8
0
 10
0.0
 20
0.0
 30
0.0
 70
   128
 71
    10
 72
    -9
 73
     2
  0
SEQEND
  5
172C
  8
0
  0
POLYLINE
  5
11C8
  8
0
 66
     1
 10
0.0
 20
0.0
 30
0.0
 70
    64
 71
    10
 72
     8
  0
VERTEX
  5
11C9
  8
0
 10
0.0
 20
-10.75
 30
0.0
 70
   192
  0
VERTEX
  5
11CA
  8
0
 10
0.0
 20
10.75
 30
0.0
 70
   192
  0
VERTEX
  5
11CB
  8
0
 10
2.0
 20
10.75
 30
0.0
 70
   192
  0
VERTEX
  5
11CC
  8
0
 10
2.0
 20
-10.75
 30
0.0
 70
   192
  0
VERTEX
  5
11CD
  8
0
 10
2.0
 20
0.0
 30
-10.75
 70
   192
  0
VERTEX
  5
11CE
  8
0
 10
0.0
 20
0.0
 30
-10.75
 70
   192
  0
VERTEX
  5
11CF
  8
0
 10
2.0
 20
-7.601397897755388
 30
-7.601397897755388
 70
   192
  0
VERTEX
  5
11D0
  8
0
 10
0.0
 20
-7.601397897755386
 30
-7.601397897755386
 70
   192
  0
VERTEX
  5
11D1
  8
0
 10
2.0
 20
7.601397897755386
 30
-7.601397897755386
 70
   192
  0
VERTEX
  5
11D2
  8
0
 10
0.0
 20
7.601397897755388
 30
-7.601397897755388
 70
   192
  0
VERTEX
  5
11D3
  8
0
 10
0.0
 20
0.0
 30
0.0
 70
   128
 71
     1
 72
     4
 73
    -7
  0
VERTEX
  5
11D4
  8
0
 10
0.0
 20
0.0
 30
0.0
 70
   128
 71
     8
 72
    -1
 73
     7
  0
VERTEX
  5
11D5
  8
0
 10
0.0
 20
0.0
 30
0.0
 70
   128
 71
     7
 72
     5
 73
    -6
  0
VERTEX
  5
11D6
  8
0
 10
0.0
 20
0.0
 30
0.0
 70
   128
 71
     8
 72
    -7
 73
     6
  0
VERTEX
  5
11D7
  8
0
 10
0.0
 20
0.0
 30
0.0
 70
   128
 71
     5
 72
     9
 73
   -10
  0
VERTEX
  5
11D8
  8
0
 10
0.0
 20
0.0
 30
0.0
 70
   128
 71
     6
 72
    -5
 73
    10
  0
VERTEX
  5
11D9
  8
0
 10
0.0
 20
0.0
 30
0.0
 70
   128
 71
     9
 72
     3
 73
    -2
  0
VERTEX
  5
11DA
  8
0
 10
0.0
 20
0.0
 30
0.0
 70
   128
 71
    10
 72
    -9
 73
     2
  0
SEQEND
  5
172D
  8
0
  0
POLYLINE
  5
11DB
  8
0
 66
     1
 10
0.0
 20
0.0
 30
0.0
 70
    64
 71
    26
 72
    18
  0
VERTEX
  5
11DC
  8
0
 10
2.0
 20
7.601397897755386
 30
7.601397897755386
 70
   192
  0
VERTEX
  5
11DD
  8
0
 10
2.0
 20
10.75
 30
0.0
 70
   192
  0
VERTEX
  5
11DE
  8
0
 10
2.0
 20
10.60840243849633
 30
-0.3418467533811316
 70
   192
  0
VERTEX
  5
11DF
  8
0
 10
2.0
 20
10.7
 30
-0.0000000000000013
 70
   192
  0
VERTEX
  5
11E0
  8
0
 10
2.0
 20
7.566042558696059
 30
7.566042558696059
 70
   192
  0
VERTEX
  5
11E1
  8
0
 10
2.0
 20
0.0
 30
10.7
 70
   192
  0
VERTEX
  5
11E2
  8
0
 10
2.0
 20
-7.56604255869606
 30
7.56604255869606
 70
   192
  0
VERTEX
  5
11E3
  8
0
 10
2.0
 20
-10.7
 30
0.0
 70
   192
  0
VERTEX
  5
11E4
  8
0
 10
2.0
 20
-10.60840243849632
 30
-0.341846753381155
 70
   192
  0
VERTEX
  5
11E5
  8
0
 10
2.0
 20
-10.75
 30
0.0
 70
   192
  0
VERTEX
  5
11E6
  8
0
 10
2.0
 20
-7.601397897755388
 30
7.601397897755388
 70
   192
  0
VERTEX
  5
11E7
  8
0
 10
2.0
 20
0.0
 30
10.75
 70
   192
  0
VERTEX
  5
11E8
  8
0
 10
2.0
 20
-8.01599155646236
 30
-6.600480264031131
 70
   192
  0
VERTEX
  5
11E9
  8
0
 10
2.0
 20
-9.266471820493493
 30
-5.349999999999999
 70
   192
  0
VERTEX
  5
11EA
  8
0
 10
2.0
 20
9.266471820493491
 30
-5.350000000000003
 70
   192
  0
VERTEX
  5
11EB
  8
0
 10
2.0
 20
8.015991556462355
 30
-6.600480264031138
 70
   192
  0
VERTEX
  5
11EC
  8
0
 10
2.0
 20
7.601397897755386
 30
-7.601397897755386
 70
   192
  0
VERTEX
  5
11ED
  8
0
 10
2.0
 20
6.600480264031134
 30
-8.015991556462357
 70
   192
  0
VERTEX
  5
11EE
  8
0
 10
2.0
 20
-6.600480264031132
 30
-8.01599155646236
 70
   192
  0
VERTEX
  5
11EF
  8
0
 10
2.0
 20
-7.601397897755388
 30
-7.601397897755388
 70
   192
  0
VERTEX
  5
11F0
  8
0
 10
2.0
 20
5.349999999999997
 30
-9.266471820493493
 70
   192
  0
VERTEX
  5
11F1
  8
0
 10
2.0
 20
0.3418467533811539
 30
-10.60840243849632
 70
   192
  0
VERTEX
  5
11F2
  8
0
 10
2.0
 20
-0.3418467533811521
 30
-10.60840243849632
 70
   192
  0
VERTEX
  5
11F3
  8
0
 10
2.0
 20
-5.350000000000001
 30
-9.266471820493493
 70
   192
  0
VERTEX
  5
11F4
  8
0
 10
2.0
 20
0.0
 30
-10.75
 70
   192
  0
VERTEX
  5
11F5
  8
0
 10
2.0
 20
-0.0000000000000007
 30
-10.7
 70
   192
  0
VERTEX
  5
11F6
  8
0
 10
0.0
 20
0.0
 30
0.0
 70
   128
 71
    10
 72
     9
 73
    -8
  0
VERTEX
  5
11F7
  8
0
 10
0.0
 20
0.0
 30
0.0
 70
   128
 71
    -7
 72
    11
 73
   -10
  0
VERTEX
  5
11F8
  8
0
 10
0.0
 20
0.0
 30
0.0
 70
   128
 71
     8
 72
    -7
 73
   -10
  0
VERTEX
  5
11F9
  8
0
 10
0.0
 20
0.0
 30
0.0
 70
   128
 71
    -6
 72
    12
 73
   -11
  0
VERTEX
  5
11FA
  8
0
 10
0.0
 20
0.0
 30
0.0
 70
   128
 71
     7
 72
    -6
 73
   -11
  0
VERTEX
  5
11FB
  8
0
 10
0.0
 20
0.0
 30
0.0
 70
   128
 71
    -5
 72
     1
 73
   -12
  0
VERTEX
  5
11FC
  8
0
 10
0.0
 20
0.0
 30
0.0
 70
   128
 71
     6
 72
    -5
 73
   -12
  0
VERTEX
  5
11FD
  8
0
 10
0.0
 20
0.0
 30
0.0
 70
   128
 71
    -4
 72
     2
 73
    -1
  0
VERTEX
  5
11FE
  8
0
 10
0.0
 20
0.0
 30
0.0
 70
   128
 71
     5
 72
    -4
 73
    -1
  0
VERTEX
  5
11FF
  8
0
 10
0.0
 20
0.0
 30
0.0
 70
   128
 71
     4
 72
     3
 73
    -2
  0
VERTEX
  5
1200
  8
0
 10
0.0
 20
0.0
 30
0.0
 70
   128
 71
     9
 72
    14
 73
    13
  0
VERTEX
  5
1201
  8
0
 10
0.0
 20
0.0
 30
0.0
 70
   128
 71
     3
 72
    16
 73
    15
  0
VERTEX
  5
1202
  8
0
 10
0.0
 20
0.0
 30
0.0
 70
   128
 71
    16
 72
    18
 73
    17
  0
VERTEX
  5
1203
  8
0
 10
0.0
 20
0.0
 30
0.0
 70
   128
 71
    13
 72
    20
 73
    19
  0
VERTEX
  5
1204
  8
0
 10
0.0
 20
0.0
 30
0.0
 70
   128
 71
    18
 72
    22
 73
    21
  0
VERTEX
  5
1205
  8
0
 10
0.0
 20
0.0
 30
0.0
 70
   128
 71
    19
 72
    24
 73
    23
  0
VERTEX
  5
1206
  8
0
 10
0.0
 20
0.0
 30
0.0
 70
   128
 71
    25
 72
    22
 73
   -26
  0
VERTEX
  5
1207
  8
0
 10
0.0
 20
0.0
 30
0.0
 70
   128
 71
    26
 72
    23
 73
   -25
  0
SEQEND
  5
172E
  8
0
  0
POLYLINE
  5
1208
  8
0
 66
     1
 10
0.0
 20
0.0
 30
0.0
 70
    64
 71
    10
 72
     8
  0
VERTEX
  5
1209
  8
0
 10
1.999999999998985
 20
10.69999999999898
 30
0.0000000088879757
 70
   192
  0
VERTEX
  5
120A
  8
0
 10
2.200000000000514
 20
10.50000000000051
 30
0.0000000065413853
 70
   192
  0
VERTEX
  5
120B
  8
0
 10
2.2
 20
7.424621202458749
 30
7.424621202458749
 70
   192
  0
VERTEX
  5
120C
  8
0
 10
2.0
 20
7.566042558696059
 30
7.566042558696059
 70
   192
  0
VERTEX
  5
120D
  8
0
 10
2.2
 20
0.0
 30
10.5
 70
   192
  0
VERTEX
  5
120E
  8
0
 10
2.2
 20
-7.42462120245875
 30
7.42462120245875
 70
   192
  0
VERTEX
  5
120F
  8
0
 10
2.0
 20
-7.56604255869606
 30
7.56604255869606
 70
   192
  0
VERTEX
  5
1210
  8
0
 10
2.0
 20
0.0
 30
10.7
 70
   192
  0
VERTEX
  5
1211
  8
0
 10
2.2
 20
-10.5
 30
0.0
 70
   192
  0
VERTEX
  5
1212
  8
0
 10
2.0000000000005
 20
-10.7000000000005
 30
-0.0000000088879736
 70
   192
  0
VERTEX
  5
1213
  8
0
 10
0.0
 20
0.0
 30
0.0
 70
   128
 71
     1
 72
     2
 73
    -3
  0
VERTEX
  5
1214
  8
0
 10
0.0
 20
0.0
 30
0.0
 70
   128
 71
     4
 72
    -1
 73
     3
  0
VERTEX
  5
1215
  8
0
 10
0.0
 20
0.0
 30
0.0
 70
   128
 71
     5
 72
     6
 73
    -7
  0
VERTEX
  5
1216
  8
0
 10
0.0
 20
0.0
 30
0.0
 70
   128
 71
     8
 72
    -5
 73
     7
  0
VERTEX
  5
1217
  8
0
 10
0.0
 20
0.0
 30
0.0
 70
   128
 71
     6
 72
     9
 73
   -10
  0
VERTEX
  5
1218
  8
0
 10
0.0
 20
0.0
 30
0.0
 70
   128
 71
     7
 72
    -6
 73
    10
  0
VERTEX
  5
1219
  8
0
 10
0.0
 20
0.0
 30
0.0
 70
   128
 71
     5
 72
     8
 73
    -4
  0
VERTEX
  5
121A
  8
0
 10
0.0
 20
0.0
 30
0.0
 70
   128
 71
     4
 72
     3
 73
    -5
  0
SEQEND
  5
172F
  8
0
  0
POLYLINE
  5
121B
  8
0
 66
     1
 10
0.0
 20
0.0
 30
0.0
 70
    64
 71
     8
 72
     6
  0
VERTEX
  5
121C
  8
0
 10
2.2
 20
5.249999999999997
 30
-9.093266739736606
 70
   192
  0
VERTEX
  5
121D
  8
0
 10
2.2
 20
9.093266739736604
 30
-5.250000000000004
 70
   192
  0
VERTEX
  5
121E
  8
0
 10
2.0
 20
9.266471820493491
 30
-5.350000000000003
 70
   192
  0
VERTEX
  5
121F
  8
0
 10
2.0
 20
5.349999999999997
 30
-9.266471820493493
 70
   192
  0
VERTEX
  5
1220
  8
0
 10
2.2
 20
10.5
 30
-0.0000000000000013
 70
   192
  0
VERTEX
  5
1221
  8
0
 10
2.0000000000005
 20
10.7000000000005
 30
0.0000000088879747
 70
   192
  0
VERTEX
  5
1222
  8
0
 10
2.199999999999014
 20
0.0
 30
-10.49999999999901
 70
   192
  0
VERTEX
  5
1223
  8
0
 10
1.999999999999999
 20
0.0
 30
-10.69999999999797
 70
   192
  0
VERTEX
  5
1224
  8
0
 10
0.0
 20
0.0
 30
0.0
 70
   128
 71
     1
 72
     2
 73
    -3
  0
VERTEX
  5
1225
  8
0
 10
0.0
 20
0.0
 30
0.0
 70
   128
 71
     4
 72
    -1
 73
     3
  0
VERTEX
  5
1226
  8
0
 10
0.0
 20
0.0
 30
0.0
 70
   128
 71
     2
 72
     5
 73
    -6
  0
VERTEX
  5
1227
  8
0
 10
0.0
 20
0.0
 30
0.0
 70
   128
 71
     3
 72
    -2
 73
     6
  0
VERTEX
  5
1228
  8
0
 10
0.0
 20
0.0
 30
0.0
 70
   128
 71
     7
 72
     1
 73
    -4
  0
VERTEX
  5
1229
  8
0
 10
0.0
 20
0.0
 30
0.0
 70
   128
 71
     8
 72
    -7
 73
     4
  0
SEQEND
  5
1730
  8
0
  0
POLYLINE
  5
122A
  8
0
 66
     1
 10
0.0
 20
0.0
 30
0.0
 70
    64
 71
    12
 72
    10
  0
VERTEX
  5
122B
  8
0
 10
2.2
 20
-10.5
 30
-0.0000000065413825
 70
   192
  0
VERTEX
  5
122C
  8
0
 10
13.51938161387
 20
-10.5
 30
0.0
 70
   192
  0
VERTEX
  5
122D
  8
0
 10
13.51938161387
 20
-7.42462120245875
 30
-7.42462120245875
 70
   192
  0
VERTEX
  5
122E
  8
0
 10
2.2
 20
-9.093266739736606
 30
-5.249999999999999
 70
   192
  0
VERTEX
  5
122F
  8
0
 10
2.2
 20
-0.0000000000000006
 30
-10.5
 70
   192
  0
VERTEX
  5
1230
  8
0
 10
2.2
 20
-5.250000000000001
 30
-9.093266739736606
 70
   192
  0
VERTEX
  5
1231
  8
0
 10
13.51938161387
 20
0.0
 30
-10.5
 70
   192
  0
VERTEX
  5
1232
  8
0
 10
13.51938161387
 20
10.5
 30
0.0
 70
   192
  0
VERTEX
  5
1233
  8
0
 10
2.200000000000001
 20
10.49999999902018
 30
0.0000000065413845
 70
   192
  0
VERTEX
  5
1234
  8
0
 10
2.2
 20
9.093266739736604
 30
-5.250000000000004
 70
   192
  0
VERTEX
  5
1235
  8
0
 10
2.2
 20
5.249999999999997
 30
-9.093266739736606
 70
   192
  0
VERTEX
  5
1236
  8
0
 10
13.51938161387
 20
7.424621202458749
 30
-7.424621202458749
 70
   192
  0
VERTEX
  5
1237
  8
0
 10
0.0
 20
0.0
 30
0.0
 70
   128
 71
     1
 72
     2
 73
     3
  0
VERTEX
  5
1238
  8
0
 10
0.0
 20
0.0
 30
0.0
 70
   128
 71
     4
 72
     1
 73
     3
  0
VERTEX
  5
1239
  8
0
 10
0.0
 20
0.0
 30
0.0
 70
   128
 71
     5
 72
     6
 73
     7
  0
VERTEX
  5
123A
  8
0
 10
0.0
 20
0.0
 30
0.0
 70
   128
 71
     8
 72
     9
 73
    10
  0
VERTEX
  5
123B
  8
0
 10
0.0
 20
0.0
 30
0.0
 70
   128
 71
    11
 72
     5
 73
     7
  0
VERTEX
  5
123C
  8
0
 10
0.0
 20
0.0
 30
0.0
 70
   128
 71
    12
 72
    11
 73
     7
  0
VERTEX
  5
123D
  8
0
 10
0.0
 20
0.0
 30
0.0
 70
   128
 71
     7
 72
     6
 73
     3
  0
VERTEX
  5
123E
  8
0
 10
0.0
 20
0.0
 30
0.0
 70
   128
 71
     6
 72
     4
 73
     3
  0
VERTEX
  5
123F
  8
0
 10
0.0
 20
0.0
 30
0.0
 70
   128
 71
     8
 72
    10
 73
    12
  0
VERTEX
  5
1240
  8
0
 10
0.0
 20
0.0
 30
0.0
 70
   128
 71
    10
 72
    11
 73
    12
  0
SEQEND
  5
1731
  8
0
  0
POLYLINE
  5
1241
  8
0
 66
     1
 10
0.0
 20
0.0
 30
0.0
 70
    64
 71
    10
 72
     8
  0
VERTEX
  5
1242
  8
0
 10
2.2
 20
10.5
 30
0.0000000065413834
 70
   192
  0
VERTEX
  5
1243
  8
0
 10
13.51938161387
 20
10.5
 30
0.0
 70
   192
  0
VERTEX
  5
1244
  8
0
 10
13.51938161387
 20
7.424621202458749
 30
7.424621202458749
 70
   192
  0
VERTEX
  5
1245
  8
0
 10
2.2
 20
7.424621202458749
 30
7.424621202458749
 70
   192
  0
VERTEX
  5
1246
  8
0
 10
2.2
 20
-7.42462120245875
 30
7.42462120245875
 70
   192
  0
VERTEX
  5
1247
  8
0
 10
2.2
 20
0.0
 30
10.5
 70
   192
  0
VERTEX
  5
1248
  8
0
 10
13.51938161387
 20
0.0
 30
10.5
 70
   192
  0
VERTEX
  5
1249
  8
0
 10
13.51938161387
 20
-7.42462120245875
 30
7.42462120245875
 70
   192
  0
VERTEX
  5
124A
  8
0
 10
13.51938161387
 20
-10.5
 30
0.0
 70
   192
  0
VERTEX
  5
124B
  8
0
 10
2.200000000000001
 20
-10.49999999902018
 30
-0.0000000065413825
 70
   192
  0
VERTEX
  5
124C
  8
0
 10
0.0
 20
0.0
 30
0.0
 70
   128
 71
     1
 72
     2
 73
    -3
  0
VERTEX
  5
124D
  8
0
 10
0.0
 20
0.0
 30
0.0
 70
   128
 71
     4
 72
    -1
 73
     3
  0
VERTEX
  5
124E
  8
0
 10
0.0
 20
0.0
 30
0.0
 70
   128
 71
     5
 72
     6
 73
    -7
  0
VERTEX
  5
124F
  8
0
 10
0.0
 20
0.0
 30
0.0
 70
   128
 71
     8
 72
    -5
 73
     7
  0
VERTEX
  5
1250
  8
0
 10
0.0
 20
0.0
 30
0.0
 70
   128
 71
     6
 72
     4
 73
    -3
  0
VERTEX
  5
1251
  8
0
 10
0.0
 20
0.0
 30
0.0
 70
   128
 71
     7
 72
    -6
 73
     3
  0
VERTEX
  5
1252
  8
0
 10
0.0
 20
0.0
 30
0.0
 70
   128
 71
     9
 72
   -10
 73
     8
  0
VERTEX
  5
1253
  8
0
 10
0.0
 20
0.0
 30
0.0
 70
   128
 71
    10
 72
     5
 73
    -8
  0
SEQEND
  5
1732
  8
0
  0
POLYLINE
  5
1254
  8
0
 66
     1
 10
0.0
 20
0.0
 30
0.0
 70
    64
 71
     8
 72
     6
  0
VERTEX
  5
1255
  8
0
 10
13.51938161387
 20
-10.5
 30
0.0
 70
   192
  0
VERTEX
  5
1256
  8
0
 10
13.51938161387
 20
-7.42462120245875
 30
-7.42462120245875
 70
   192
  0
VERTEX
  5
1257
  8
0
 10
13.51938161387
 20
0.0
 30
-10.5
 70
   192
  0
VERTEX
  5
1258
  8
0
 10
13.51938161387
 20
7.424621202458749
 30
-7.424621202458749
 70
   192
  0
VERTEX
  5
1259
  8
0
 10
13.51938161387
 20
10.5
 30
0.0
 70
   192
  0
VERTEX
  5
125A
  8
0
 10
13.51938161387
 20
7.424621202458749
 30
7.424621202458749
 70
   192
  0
VERTEX
  5
125B
  8
0
 10
13.51938161387
 20
0.0
 30
10.5
 70
   192
  0
VERTEX
  5
125C
  8
0
 10
13.51938161387
 20
-7.42462120245875
 30
7.42462120245875
 70
   192
  0
VERTEX
  5
125D
  8
0
 10
0.0
 20
0.0
 30
0.0
 70
   128
 71
     1
 72
     8
 73
    -7
  0
VERTEX
  5
125E
  8
0
 10
0.0
 20
0.0
 30
0.0
 70
   128
 71
    -1
 72
     7
 73
    -6
  0
VERTEX
  5
125F
  8
0
 10
0.0
 20
0.0
 30
0.0
 70
   128
 71
    -1
 72
     6
 73
    -5
  0
VERTEX
  5
1260
  8
0
 10
0.0
 20
0.0
 30
0.0
 70
   128
 71
    -1
 72
     5
 73
    -4
  0
VERTEX
  5
1261
  8
0
 10
0.0
 20
0.0
 30
0.0
 70
   128
 71
    -1
 72
     4
 73
    -3
  0
VERTEX
  5
1262
  8
0
 10
0.0
 20
0.0
 30
0.0
 70
   128
 71
    -1
 72
     3
 73
     2
  0
SEQEND
  5
1733
  8
0
  0
POLYLINE
  5
1263
  8
0
 66
     1
 10
0.0
 20
0.0
 30
0.0
 70
    64
 71
    17
 72
    17
  0
VERTEX
  5
1264
  8
0
 10
33.0
 20
-18.0
 30
-0.000000000143443
 70
   192
  0
VERTEX
  5
1265
  8
0
 10
30.9946784409933
 20
-18.0
 30
6.171745148993406
 70
   192
  0
VERTEX
  5
1266
  8
0
 10
25.74467844098289
 20
-18.0
 30
9.986093421084187
 70
   192
  0
VERTEX
  5
1267
  8
0
 10
19.25532155906375
 20
-18.0
 30
9.986093421099339
 70
   192
  0
VERTEX
  5
1268
  8
0
 10
14.00532155903552
 20
-18.0
 30
6.171745149033076
 70
   192
  0
VERTEX
  5
1269
  8
0
 10
12.0
 20
-18.0
 30
-0.0000000000944088
 70
   192
  0
VERTEX
  5
126A
  8
0
 10
15.07537879756596
 20
-18.0
 30
-7.424621202483456
 70
   192
  0
VERTEX
  5
126B
  8
0
 10
22.49999999997548
 20
-18.0
 30
-10.5
 70
   192
  0
VERTEX
  5
126C
  8
0
 10
29.92462120239936
 20
-18.0
 30
-7.424621202518137
 70
   192
  0
VERTEX
  5
126D
  8
0
 10
22.5
 20
-18.0
 30
9.250000000000005
 70
   192
  0
VERTEX
  5
126E
  8
0
 10
29.04073772597557
 20
-18.0
 30
6.540737725975569
 70
   192
  0
VERTEX
  5
126F
  8
0
 10
31.75000000000001
 20
-18.0
 30
0.0
 70
   192
  0
VERTEX
  5
1270
  8
0
 10
29.04073772597557
 20
-18.0
 30
-6.540737725975568
 70
   192
  0
VERTEX
  5
1271
  8
0
 10
22.5
 20
-18.0
 30
-9.250000000000004
 70
   192
  0
VERTEX
  5
1272
  8
0
 10
15.95926227402443
 20
-18.0
 30
-6.540737725975567
 70
   192
  0
VERTEX
  5
1273
  8
0
 10
13.25
 20
-18.0
 30
0.000000000000001
 70
   192
  0
VERTEX
  5
1274
  8
0
 10
15.95926227402443
 20
-18.0
 30
6.540737725975569
 70
   192
  0
VERTEX
  5
1275
  8
0
 10
0.0
 20
0.0
 30
0.0
 70
   128
 71
     3
 72
    -4
 73
   -10
  0
VERTEX
  5
1276
  8
0
 10
0.0
 20
0.0
 30
0.0
 70
   128
 71
   -11
 72
     2
 73
    -3
  0
VERTEX
  5
1277
  8
0
 10
0.0
 20
0.0
 30
0.0
 70
   128
 71
    10
 72
   -11
 73
    -3
  0
VERTEX
  5
1278
  8
0
 10
0.0
 20
0.0
 30
0.0
 70
   128
 71
   -12
 72
     1
 73
    -2
  0
VERTEX
  5
1279
  8
0
 10
0.0
 20
0.0
 30
0.0
 70
   128
 71
    11
 72
   -12
 73
    -2
  0
VERTEX
  5
127A
  8
0
 10
0.0
 20
0.0
 30
0.0
 70
   128
 71
   -13
 72
     9
 73
    -1
  0
VERTEX
  5
127B
  8
0
 10
0.0
 20
0.0
 30
0.0
 70
   128
 71
    12
 72
   -13
 73
    -1
  0
VERTEX
  5
127C
  8
0
 10
0.0
 20
0.0
 30
0.0
 70
   128
 71
   -14
 72
     8
 73
    -9
  0
VERTEX
  5
127D
  8
0
 10
0.0
 20
0.0
 30
0.0
 70
   128
 71
    13
 72
   -14
 73
    -9
  0
VERTEX
  5
127E
  8
0
 10
0.0
 20
0.0
 30
0.0
 70
   128
 71
   -15
 72
     7
 73
    -8
  0
VERTEX
  5
127F
  8
0
 10
0.0
 20
0.0
 30
0.0
 70
   128
 71
    14
 72
   -15
 73
    -8
  0
VERTEX
  5
1280
  8
0
 10
0.0
 20
0.0
 30
0.0
 70
   128
 71
   -16
 72
     6
 73
    -7
  0
VERTEX
  5
1281
  8
0
 10
0.0
 20
0.0
 30
0.0
 70
   128
 71
    15
 72
   -16
 73
    -7
  0
VERTEX
  5
1282
  8
0
 10
0.0
 20
0.0
 30
0.0
 70
   128
 71
   -17
 72
     5
 73
    -6
  0
VERTEX
  5
1283
  8
0
 10
0.0
 20
0.0
 30
0.0
 70
   128
 71
    16
 72
   -17
 73
    -6
  0
VERTEX
  5
1284
  8
0
 10
0.0
 20
0.0
 30
0.0
 70
   128
 71
   -10
 72
     4
 73
    -5
  0
VERTEX
  5
1285
  8
0
 10
0.0
 20
0.0
 30
0.0
 70
   128
 71
    17
 72
   -10
 73
    -5
  0
SEQEND
  5
1734
  8
0
  0
POLYLINE
  5
1286
  8
0
 66
     1
 10
0.0
 20
0.0
 30
0.0
 70
    64
 71
    10
 72
     8
  0
VERTEX
  5
1287
  8
0
 10
22.5
 20
-18.0
 30
9.250000000000004
 70
   192
  0
VERTEX
  5
1288
  8
0
 10
22.5
 20
-18.0
 30
-9.250000000000004
 70
   192
  0
VERTEX
  5
1289
  8
0
 10
22.5
 20
-29.5
 30
-9.250000000000004
 70
   192
  0
VERTEX
  5
128A
  8
0
 10
22.5
 20
-29.5
 30
9.250000000000004
 70
   192
  0
VERTEX
  5
128B
  8
0
 10
13.25
 20
-29.5
 30
0.000000000000001
 70
   192
  0
VERTEX
  5
128C
  8
0
 10
13.25
 20
-18.0
 30
0.000000000000001
 70
   192
  0
VERTEX
  5
128D
  8
0
 10
15.95926227402443
 20
-29.5
 30
6.540737725975569
 70
   192
  0
VERTEX
  5
128E
  8
0
 10
15.95926227402443
 20
-18.0
 30
6.540737725975569
 70
   192
  0
VERTEX
  5
128F
  8
0
 10
15.95926227402443
 20
-29.5
 30
-6.540737725975567
 70
   192
  0
VERTEX
  5
1290
  8
0
 10
15.95926227402443
 20
-18.0
 30
-6.540737725975567
 70
   192
  0
VERTEX
  5
1291
  8
0
 10
0.0
 20
0.0
 30
0.0
 70
   128
 71
     8
 72
     7
 73
    -4
  0
VERTEX
  5
1292
  8
0
 10
0.0
 20
0.0
 30
0.0
 70
   128
 71
    -8
 72
     4
 73
     1
  0
VERTEX
  5
1293
  8
0
 10
0.0
 20
0.0
 30
0.0
 70
   128
 71
     6
 72
     5
 73
    -7
  0
VERTEX
  5
1294
  8
0
 10
0.0
 20
0.0
 30
0.0
 70
   128
 71
    -6
 72
     7
 73
     8
  0
VERTEX
  5
1295
  8
0
 10
0.0
 20
0.0
 30
0.0
 70
   128
 71
    10
 72
     9
 73
    -5
  0
VERTEX
  5
1296
  8
0
 10
0.0
 20
0.0
 30
0.0
 70
   128
 71
   -10
 72
     5
 73
     6
  0
VERTEX
  5
1297
  8
0
 10
0.0
 20
0.0
 30
0.0
 70
   128
 71
     2
 72
     3
 73
    -9
  0
VERTEX
  5
1298
  8
0
 10
0.0
 20
0.0
 30
0.0
 70
   128
 71
    -2
 72
     9
 73
    10
  0
SEQEND
  5
1735
  8
0
  0
POLYLINE
  5
1299
  8
0
 66
     1
 10
0.0
 20
0.0
 30
0.0
 70
    64
 71
     5
 72
     3
  0
VERTEX
  5
129A
  8
0
 10
13.71
 20
-16.0
 30
0.000000000000026
 70
   192
  0
VERTEX
  5
129B
  8
0
 10
31.29
 20
-16.0
 30
0.0
 70
   192
  0
VERTEX
  5
129C
  8
0
 10
28.70793183286854
 20
-14.74022786939057
 30
6.222996252484962
 70
   192
  0
VERTEX
  5
129D
  8
0
 10
16.26991346721519
 20
-14.74957213637001
 30
6.200816219984072
 70
   192
  0
VERTEX
  5
129E
  8
0
 10
22.48089563405547
 20
-13.36922828650951
 30
8.789979239065012
 70
   192
  0
VERTEX
  5
129F
  8
0
 10
0.0
 20
0.0
 30
0.0
 70
   128
 71
     1
 72
     2
 73
     3
  0
VERTEX
  5
12A0
  8
0
 10
0.0
 20
0.0
 30
0.0
 70
   128
 71
     4
 72
     1
 73
     3
  0
VERTEX
  5
12A1
  8
0
 10
0.0
 20
0.0
 30
0.0
 70
   128
 71
     4
 72
     3
 73
     5
  0
SEQEND
  5
1736
  8
0
  0
POLYLINE
  5
12A2
  8
0
 66
     1
 10
0.0
 20
0.0
 30
0.0
 70
    64
 71
    10
 72
     8
  0
VERTEX
  5
12A3
  8
0
 10
13.71
 20
-16.0
 30
0.0
 70
   192
  0
VERTEX
  5
12A4
  8
0
 10
13.71
 20
-27.5
 30
0.0
 70
   192
  0
VERTEX
  5
12A5
  8
0
 10
16.28453139337025
 20
-27.5
 30
-6.215468606629752
 70
   192
  0
VERTEX
  5
12A6
  8
0
 10
22.5
 20
-27.5
 30
-8.790000000000001
 70
   192
  0
VERTEX
  5
12A7
  8
0
 10
16.29339137361147
 20
-14.73967064222078
 30
-6.224315975177902
 70
   192
  0
VERTEX
  5
12A8
  8
0
 10
31.29
 20
-27.5
 30
0.0
 70
   192
  0
VERTEX
  5
12A9
  8
0
 10
31.29
 20
-16.0
 30
0.0
 70
   192
  0
VERTEX
  5
12AA
  8
0
 10
28.73325912664344
 20
-14.75091249177008
 30
-6.197627018475821
 70
   192
  0
VERTEX
  5
12AB
  8
0
 10
28.71546860662976
 20
-27.5
 30
-6.215468606629754
 70
   192
  0
VERTEX
  5
12AC
  8
0
 10
22.5225880526349
 20
-13.36923371850849
 30
-8.789970977193024
 70
   192
  0
VERTEX
  5
12AD
  8
0
 10
0.0
 20
0.0
 30
0.0
 70
   128
 71
     1
 72
     2
 73
     3
  0
VERTEX
  5
12AE
  8
0
 10
0.0
 20
0.0
 30
0.0
 70
   128
 71
     3
 72
     4
 73
     5
  0
VERTEX
  5
12AF
  8
0
 10
0.0
 20
0.0
 30
0.0
 70
   128
 71
     6
 72
     7
 73
     8
  0
VERTEX
  5
12B0
  8
0
 10
0.0
 20
0.0
 30
0.0
 70
   128
 71
     9
 72
     6
 73
     8
  0
VERTEX
  5
12B1
  8
0
 10
0.0
 20
0.0
 30
0.0
 70
   128
 71
     3
 72
     5
 73
     1
  0
VERTEX
  5
12B2
  8
0
 10
0.0
 20
0.0
 30
0.0
 70
   128
 71
    10
 72
     5
 73
     4
  0
VERTEX
  5
12B3
  8
0
 10
0.0
 20
0.0
 30
0.0
 70
   128
 71
     8
 72
    10
 73
     4
  0
VERTEX
  5
12B4
  8
0
 10
0.0
 20
0.0
 30
0.0
 70
   128
 71
     9
 72
     8
 73
     4
  0
SEQEND
  5
1737
  8
0
  0
POLYLINE
  5
12B5
  8
0
 66
     1
 10
0.0
 20
0.0
 30
0.0
 70
    64
 71
    10
 72
     8
  0
VERTEX
  5
12B6
  8
0
 10
31.29
 20
-16.0
 30
0.0
 70
   192
  0
VERTEX
  5
12B7
  8
0
 10
31.29
 20
-27.5
 30
0.0
 70
   192
  0
VERTEX
  5
12B8
  8
0
 10
28.71546860662976
 20
-27.5
 30
6.215468606629754
 70
   192
  0
VERTEX
  5
12B9
  8
0
 10
22.5
 20
-27.5
 30
8.790000000000001
 70
   192
  0
VERTEX
  5
12BA
  8
0
 10
28.70793183286854
 20
-14.74022786939057
 30
6.222996252484962
 70
   192
  0
VERTEX
  5
12BB
  8
0
 10
13.71
 20
-27.5
 30
0.0
 70
   192
  0
VERTEX
  5
12BC
  8
0
 10
13.71
 20
-16.0
 30
0.0
 70
   192
  0
VERTEX
  5
12BD
  8
0
 10
16.26991346721519
 20
-14.74957213637001
 30
6.200816219984072
 70
   192
  0
VERTEX
  5
12BE
  8
0
 10
16.28453139337025
 20
-27.5
 30
6.215468606629752
 70
   192
  0
VERTEX
  5
12BF
  8
0
 10
22.48089563405547
 20
-13.36922828650951
 30
8.789979239065012
 70
   192
  0
VERTEX
  5
12C0
  8
0
 10
0.0
 20
0.0
 30
0.0
 70
   128
 71
     1
 72
     2
 73
     3
  0
VERTEX
  5
12C1
  8
0
 10
0.0
 20
0.0
 30
0.0
 70
   128
 71
     3
 72
     4
 73
     5
  0
VERTEX
  5
12C2
  8
0
 10
0.0
 20
0.0
 30
0.0
 70
   128
 71
     6
 72
     7
 73
     8
  0
VERTEX
  5
12C3
  8
0
 10
0.0
 20
0.0
 30
0.0
 70
   128
 71
     9
 72
     6
 73
     8
  0
VERTEX
  5
12C4
  8
0
 10
0.0
 20
0.0
 30
0.0
 70
   128
 71
     3
 72
     5
 73
     1
  0
VERTEX
  5
12C5
  8
0
 10
0.0
 20
0.0
 30
0.0
 70
   128
 71
    10
 72
     5
 73
     4
  0
VERTEX
  5
12C6
  8
0
 10
0.0
 20
0.0
 30
0.0
 70
   128
 71
     8
 72
    10
 73
     4
  0
VERTEX
  5
12C7
  8
0
 10
0.0
 20
0.0
 30
0.0
 70
   128
 71
     9
 72
     8
 73
     4
  0
SEQEND
  5
1738
  8
0
  0
POLYLINE
  5
12C8
  8
0
 66
     1
 10
0.0
 20
0.0
 30
0.0
 70
    64
 71
    16
 72
    16
  0
VERTEX
  5
12C9
  8
0
 10
13.71
 20
-27.5
 30
0.0
 70
   192
  0
VERTEX
  5
12CA
  8
0
 10
16.28453139337025
 20
-27.5
 30
-6.215468606629752
 70
   192
  0
VERTEX
  5
12CB
  8
0
 10
22.5
 20
-27.5
 30
-8.790000000000001
 70
   192
  0
VERTEX
  5
12CC
  8
0
 10
28.71546860662976
 20
-27.5
 30
-6.215468606629754
 70
   192
  0
VERTEX
  5
12CD
  8
0
 10
31.29
 20
-27.5
 30
0.0
 70
   192
  0
VERTEX
  5
12CE
  8
0
 10
28.71546860662976
 20
-27.5
 30
6.215468606629754
 70
   192
  0
VERTEX
  5
12CF
  8
0
 10
22.5
 20
-27.5
 30
8.790000000000001
 70
   192
  0
VERTEX
  5
12D0
  8
0
 10
16.28453139337025
 20
-27.5
 30
6.215468606629752
 70
   192
  0
VERTEX
  5
12D1
  8
0
 10
15.0
 20
-27.5
 30
0.0
 70
   192
  0
VERTEX
  5
12D2
  8
0
 10
17.19669914110089
 20
-27.5
 30
5.303300858899107
 70
   192
  0
VERTEX
  5
12D3
  8
0
 10
22.5
 20
-27.5
 30
7.500000000000002
 70
   192
  0
VERTEX
  5
12D4
  8
0
 10
27.80330085889911
 20
-27.5
 30
5.303300858899108
 70
   192
  0
VERTEX
  5
12D5
  8
0
 10
30.0
 20
-27.5
 30
0.0
 70
   192
  0
VERTEX
  5
12D6
  8
0
 10
27.80330085889911
 20
-27.5
 30
-5.303300858899108
 70
   192
  0
VERTEX
  5
12D7
  8
0
 10
22.5
 20
-27.5
 30
-7.500000000000002
 70
   192
  0
VERTEX
  5
12D8
  8
0
 10
17.19669914110089
 20
-27.5
 30
-5.303300858899107
 70
   192
  0
VERTEX
  5
12D9
  8
0
 10
0.0
 20
0.0
 30
0.0
 70
   128
 71
    10
 72
    -9
 73
    -1
  0
VERTEX
  5
12DA
  8
0
 10
0.0
 20
0.0
 30
0.0
 70
   128
 71
   -10
 72
     1
 73
    -8
  0
VERTEX
  5
12DB
  8
0
 10
0.0
 20
0.0
 30
0.0
 70
   128
 71
     8
 72
    -7
 73
   -11
  0
VERTEX
  5
12DC
  8
0
 10
0.0
 20
0.0
 30
0.0
 70
   128
 71
    -8
 72
    11
 73
   -10
  0
VERTEX
  5
12DD
  8
0
 10
0.0
 20
0.0
 30
0.0
 70
   128
 71
     7
 72
    -6
 73
   -12
  0
VERTEX
  5
12DE
  8
0
 10
0.0
 20
0.0
 30
0.0
 70
   128
 71
    -7
 72
    12
 73
   -11
  0
VERTEX
  5
12DF
  8
0
 10
0.0
 20
0.0
 30
0.0
 70
   128
 71
     6
 72
    -5
 73
   -13
  0
VERTEX
  5
12E0
  8
0
 10
0.0
 20
0.0
 30
0.0
 70
   128
 71
    -6
 72
    13
 73
   -12
  0
VERTEX
  5
12E1
  8
0
 10
0.0
 20
0.0
 30
0.0
 70
   128
 71
     5
 72
    -4
 73
   -14
  0
VERTEX
  5
12E2
  8
0
 10
0.0
 20
0.0
 30
0.0
 70
   128
 71
    -5
 72
    14
 73
   -13
  0
VERTEX
  5
12E3
  8
0
 10
0.0
 20
0.0
 30
0.0
 70
   128
 71
     4
 72
    -3
 73
   -15
  0
VERTEX
  5
12E4
  8
0
 10
0.0
 20
0.0
 30
0.0
 70
   128
 71
    -4
 72
    15
 73
   -14
  0
VERTEX
  5
12E5
  8
0
 10
0.0
 20
0.0
 30
0.0
 70
   128
 71
     3
 72
    -2
 73
   -16
  0
VERTEX
  5
12E6
  8
0
 10
0.0
 20
0.0
 30
0.0
 70
   128
 71
    -3
 72
    16
 73
   -15
  0
VERTEX
  5
12E7
  8
0
 10
0.0
 20
0.0
 30
0.0
 70
   128
 71
     2
 72
    -1
 73
    -9
  0
VERTEX
  5
12E8
  8
0
 10
0.0
 20
0.0
 30
0.0
 70
   128
 71
    -2
 72
     9
 73
   -16
  0
SEQEND
  5
1739
  8
0
  0
POLYLINE
  5
12E9
  8
0
 66
     1
 10
0.0
 20
0.0
 30
0.0
 70
    64
 71
    10
 72
     8
  0
VERTEX
  5
12EA
  8
0
 10
15.0
 20
-27.5
 30
0.0
 70
   192
  0
VERTEX
  5
12EB
  8
0
 10
30.0
 20
-27.5
 30
0.0
 70
   192
  0
VERTEX
  5
12EC
  8
0
 10
30.0
 20
-29.5
 30
0.0
 70
   192
  0
VERTEX
  5
12ED
  8
0
 10
15.0
 20
-29.5
 30
0.0
 70
   192
  0
VERTEX
  5
12EE
  8
0
 10
22.5
 20
-29.5
 30
-7.500000000000002
 70
   192
  0
VERTEX
  5
12EF
  8
0
 10
22.5
 20
-27.5
 30
-7.500000000000002
 70
   192
  0
VERTEX
  5
12F0
  8
0
 10
17.19669914110089
 20
-29.5
 30
-5.303300858899107
 70
   192
  0
VERTEX
  5
12F1
  8
0
 10
17.19669914110089
 20
-27.5
 30
-5.303300858899107
 70
   192
  0
VERTEX
  5
12F2
  8
0
 10
27.80330085889911
 20
-29.5
 30
-5.303300858899108
 70
   192
  0
VERTEX
  5
12F3
  8
0
 10
27.80330085889911
 20
-27.5
 30
-5.303300858899108
 70
   192
  0
VERTEX
  5
12F4
  8
0
 10
0.0
 20
0.0
 30
0.0
 70
   128
 71
     8
 72
     1
 73
    -4
  0
VERTEX
  5
12F5
  8
0
 10
0.0
 20
0.0
 30
0.0
 70
   128
 71
     7
 72
    -8
 73
     4
  0
VERTEX
  5
12F6
  8
0
 10
0.0
 20
0.0
 30
0.0
 70
   128
 71
     6
 72
     8
 73
    -7
  0
VERTEX
  5
12F7
  8
0
 10
0.0
 20
0.0
 30
0.0
 70
   128
 71
     5
 72
    -6
 73
     7
  0
VERTEX
  5
12F8
  8
0
 10
0.0
 20
0.0
 30
0.0
 70
   128
 71
    10
 72
     6
 73
    -5
  0
VERTEX
  5
12F9
  8
0
 10
0.0
 20
0.0
 30
0.0
 70
   128
 71
     9
 72
   -10
 73
     5
  0
VERTEX
  5
12FA
  8
0
 10
0.0
 20
0.0
 30
0.0
 70
   128
 71
     2
 72
    10
 73
    -9
  0
VERTEX
  5
12FB
  8
0
 10
0.0
 20
0.0
 30
0.0
 70
   128
 71
     3
 72
    -2
 73
     9
  0
SEQEND
  5
173A
  8
0
  0
POLYLINE
  5
12FC
  8
0
 66
     1
 10
0.0
 20
0.0
 30
0.0
 70
    64
 71
    10
 72
     8
  0
VERTEX
  5
12FD
  8
0
 10
30.0
 20
-27.5
 30
0.0
 70
   192
  0
VERTEX
  5
12FE
  8
0
 10
15.0
 20
-27.5
 30
0.0
 70
   192
  0
VERTEX
  5
12FF
  8
0
 10
15.0
 20
-29.5
 30
0.0
 70
   192
  0
VERTEX
  5
1300
  8
0
 10
30.0
 20
-29.5
 30
0.0
 70
   192
  0
VERTEX
  5
1301
  8
0
 10
22.5
 20
-29.5
 30
7.500000000000002
 70
   192
  0
VERTEX
  5
1302
  8
0
 10
22.5
 20
-27.5
 30
7.500000000000002
 70
   192
  0
VERTEX
  5
1303
  8
0
 10
27.80330085889911
 20
-29.5
 30
5.303300858899108
 70
   192
  0
VERTEX
  5
1304
  8
0
 10
27.80330085889911
 20
-27.5
 30
5.303300858899108
 70
   192
  0
VERTEX
  5
1305
  8
0
 10
17.19669914110089
 20
-29.5
 30
5.303300858899107
 70
   192
  0
VERTEX
  5
1306
  8
0
 10
17.19669914110089
 20
-27.5
 30
5.303300858899107
 70
   192
  0
VERTEX
  5
1307
  8
0
 10
0.0
 20
0.0
 30
0.0
 70
   128
 71
     4
 72
     7
 73
    -8
  0
VERTEX
  5
1308
  8
0
 10
0.0
 20
0.0
 30
0.0
 70
   128
 71
     1
 72
    -4
 73
     8
  0
VERTEX
  5
1309
  8
0
 10
0.0
 20
0.0
 30
0.0
 70
   128
 71
     7
 72
     5
 73
    -6
  0
VERTEX
  5
130A
  8
0
 10
0.0
 20
0.0
 30
0.0
 70
   128
 71
     8
 72
    -7
 73
     6
  0
VERTEX
  5
130B
  8
0
 10
0.0
 20
0.0
 30
0.0
 70
   128
 71
     5
 72
     9
 73
   -10
  0
VERTEX
  5
130C
  8
0
 10
0.0
 20
0.0
 30
0.0
 70
   128
 71
     6
 72
    -5
 73
    10
  0
VERTEX
  5
130D
  8
0
 10
0.0
 20
0.0
 30
0.0
 70
   128
 71
     9
 72
     3
 73
    -2
  0
VERTEX
  5
130E
  8
0
 10
0.0
 20
0.0
 30
0.0
 70
   128
 71
    10
 72
    -9
 73
     2
  0
SEQEND
  5
173B
  8
0
  0
POLYLINE
  5
130F
  8
0
 66
     1
 10
0.0
 20
0.0
 30
0.0
 70
    64
 71
    16
 72
    16
  0
VERTEX
  5
1310
  8
0
 10
22.5
 20
-29.5
 30
-9.250000000000004
 70
   192
  0
VERTEX
  5
1311
  8
0
 10
29.04073772597557
 20
-29.5
 30
-6.540737725975568
 70
   192
  0
VERTEX
  5
1312
  8
0
 10
31.75000000000001
 20
-29.5
 30
0.0
 70
   192
  0
VERTEX
  5
1313
  8
0
 10
29.04073772597557
 20
-29.5
 30
6.540737725975569
 70
   192
  0
VERTEX
  5
1314
  8
0
 10
22.5
 20
-29.5
 30
9.250000000000005
 70
   192
  0
VERTEX
  5
1315
  8
0
 10
15.95926227402443
 20
-29.5
 30
6.540737725975569
 70
   192
  0
VERTEX
  5
1316
  8
0
 10
13.25
 20
-29.5
 30
0.000000000000001
 70
   192
  0
VERTEX
  5
1317
  8
0
 10
15.95926227402443
 20
-29.5
 30
-6.540737725975567
 70
   192
  0
VERTEX
  5
1318
  8
0
 10
15.0
 20
-29.5
 30
0.0
 70
   192
  0
VERTEX
  5
1319
  8
0
 10
17.19669914110089
 20
-29.5
 30
5.303300858899107
 70
   192
  0
VERTEX
  5
131A
  8
0
 10
22.5
 20
-29.5
 30
7.500000000000002
 70
   192
  0
VERTEX
  5
131B
  8
0
 10
27.80330085889911
 20
-29.5
 30
5.303300858899108
 70
   192
  0
VERTEX
  5
131C
  8
0
 10
30.0
 20
-29.5
 30
0.0
 70
   192
  0
VERTEX
  5
131D
  8
0
 10
27.80330085889911
 20
-29.5
 30
-5.303300858899108
 70
   192
  0
VERTEX
  5
131E
  8
0
 10
22.5
 20
-29.5
 30
-7.500000000000002
 70
   192
  0
VERTEX
  5
131F
  8
0
 10
17.19669914110089
 20
-29.5
 30
-5.303300858899107
 70
   192
  0
VERTEX
  5
1320
  8
0
 10
0.0
 20
0.0
 30
0.0
 70
   128
 71
    -7
 72
     9
 73
   -10
  0
VERTEX
  5
1321
  8
0
 10
0.0
 20
0.0
 30
0.0
 70
   128
 71
     6
 72
    -7
 73
   -10
  0
VERTEX
  5
1322
  8
0
 10
0.0
 20
0.0
 30
0.0
 70
   128
 71
   -11
 72
     5
 73
    -6
  0
VERTEX
  5
1323
  8
0
 10
0.0
 20
0.0
 30
0.0
 70
   128
 71
    10
 72
   -11
 73
    -6
  0
VERTEX
  5
1324
  8
0
 10
0.0
 20
0.0
 30
0.0
 70
   128
 71
   -12
 72
     4
 73
    -5
  0
VERTEX
  5
1325
  8
0
 10
0.0
 20
0.0
 30
0.0
 70
   128
 71
    11
 72
   -12
 73
    -5
  0
VERTEX
  5
1326
  8
0
 10
0.0
 20
0.0
 30
0.0
 70
   128
 71
   -13
 72
     3
 73
    -4
  0
VERTEX
  5
1327
  8
0
 10
0.0
 20
0.0
 30
0.0
 70
   128
 71
    12
 72
   -13
 73
    -4
  0
VERTEX
  5
1328
  8
0
 10
0.0
 20
0.0
 30
0.0
 70
   128
 71
   -14
 72
     2
 73
    -3
  0
VERTEX
  5
1329
  8
0
 10
0.0
 20
0.0
 30
0.0
 70
   128
 71
    13
 72
   -14
 73
    -3
  0
VERTEX
  5
132A
  8
0
 10
0.0
 20
0.0
 30
0.0
 70
   128
 71
   -15
 72
     1
 73
    -2
  0
VERTEX
  5
132B
  8
0
 10
0.0
 20
0.0
 30
0.0
 70
   128
 71
    14
 72
   -15
 73
    -2
  0
VERTEX
  5
132C
  8
0
 10
0.0
 20
0.0
 30
0.0
 70
   128
 71
   -16
 72
     8
 73
    -1
  0
VERTEX
  5
132D
  8
0
 10
0.0
 20
0.0
 30
0.0
 70
   128
 71
    15
 72
   -16
 73
    -1
  0
VERTEX
  5
132E
  8
0
 10
0.0
 20
0.0
 30
0.0
 70
   128
 71
    -9
 72
     7
 73
    -8
  0
VERTEX
  5
132F
  8
0
 10
0.0
 20
0.0
 30
0.0
 70
   128
 71
    16
 72
    -9
 73
    -8
  0
SEQEND
  5
173C
  8
0
  0
ENDBLK
  5
171A
  8
0
  0
BLOCK
  8
0
  2
*X2
 70
     1
 10
0.0
 20
0.0
 30
0.0
  3
*X2
  1

  0
POLYLINE
  5
1331
  8
0
 66
     1
 10
0.0
 20
0.0
 30
0.0
 70
    64
 71
    10
 72
     8
  0
VERTEX
  5
1332
  8
0
 10
-1.5
 20
10.3
 30
0.0000000000069703
 70
   192
  0
VERTEX
  5
1333
  8
0
 10
-1.5
 20
-10.3
 30
-0.000000000005752
 70
   192
  0
VERTEX
  5
1334
  8
0
 10
-1.0
 20
-10.3
 30
0.0
 70
   192
  0
VERTEX
  5
1335
  8
0
 10
-1.0
 20
10.3
 30
0.0000000000076667
 70
   192
  0
VERTEX
  5
1336
  8
0
 10
-1.0
 20
0.0
 30
10.3
 70
   192
  0
VERTEX
  5
1337
  8
0
 10
-1.5
 20
-0.0000000000063609
 30
10.3
 70
   192
  0
VERTEX
  5
1338
  8
0
 10
-1.0
 20
7.283199846221442
 30
7.283199846221442
 70
   192
  0
VERTEX
  5
1339
  8
0
 10
-1.5
 20
7.283199846216727
 30
7.283199846226154
 70
   192
  0
VERTEX
  5
133A
  8
0
 10
-1.0
 20
-7.28319984622144
 30
7.28319984622144
 70
   192
  0
VERTEX
  5
133B
  8
0
 10
-1.5
 20
-7.283199846225722
 30
7.283199846217157
 70
   192
  0
VERTEX
  5
133C
  8
0
 10
0.0
 20
0.0
 30
0.0
 70
   128
 71
     8
 72
     1
 73
    -4
  0
VERTEX
  5
133D
  8
0
 10
0.0
 20
0.0
 30
0.0
 70
   128
 71
     7
 72
    -8
 73
     4
  0
VERTEX
  5
133E
  8
0
 10
0.0
 20
0.0
 30
0.0
 70
   128
 71
     6
 72
     8
 73
    -7
  0
VERTEX
  5
133F
  8
0
 10
0.0
 20
0.0
 30
0.0
 70
   128
 71
     5
 72
    -6
 73
     7
  0
VERTEX
  5
1340
  8
0
 10
0.0
 20
0.0
 30
0.0
 70
   128
 71
    10
 72
     6
 73
    -5
  0
VERTEX
  5
1341
  8
0
 10
0.0
 20
0.0
 30
0.0
 70
   128
 71
     9
 72
   -10
 73
     5
  0
VERTEX
  5
1342
  8
0
 10
0.0
 20
0.0
 30
0.0
 70
   128
 71
     2
 72
    10
 73
    -9
  0
VERTEX
  5
1343
  8
0
 10
0.0
 20
0.0
 30
0.0
 70
   128
 71
     3
 72
    -2
 73
     9
  0
SEQEND
  5
173F
  8
0
  0
POLYLINE
  5
1344
  8
0
 66
     1
 10
0.0
 20
0.0
 30
0.0
 70
    64
 71
    11
 72
     9
  0
VERTEX
  5
1345
  8
0
 10
-1.5
 20
-10.3
 30
-0.0000000000057457
 70
   192
  0
VERTEX
  5
1346
  8
0
 10
-1.0
 20
-10.3
 30
-0.0000000000076664
 70
   192
  0
VERTEX
  5
1347
  8
0
 10
-1.0
 20
-7.283199846221442
 30
-7.283199846221442
 70
   192
  0
VERTEX
  5
1348
  8
0
 10
-1.5
 20
-8.332875042058438
 30
-6.05418809861732
 70
   192
  0
VERTEX
  5
1349
  8
0
 10
-1.0
 20
0.0
 30
-10.3
 70
   192
  0
VERTEX
  5
134A
  8
0
 10
-1.0
 20
7.28319984622144
 30
-7.28319984622144
 70
   192
  0
VERTEX
  5
134B
  8
0
 10
-1.5
 20
3.182875042068122
 30
-9.79588211783808
 70
   192
  0
VERTEX
  5
134C
  8
0
 10
-1.0
 20
10.3
 30
0.0
 70
   192
  0
VERTEX
  5
134D
  8
0
 10
-1.5
 20
10.3
 30
0.0000000000069692
 70
   192
  0
VERTEX
  5
134E
  8
0
 10
-1.5
 20
8.332875042065911
 30
-6.054188098607033
 70
   192
  0
VERTEX
  5
134F
  8
0
 10
-1.5
 20
-3.182875042056029
 30
-9.795882117842009
 70
   192
  0
VERTEX
  5
1350
  8
0
 10
0.0
 20
0.0
 30
0.0
 70
   128
 71
     1
 72
     2
 73
     3
  0
VERTEX
  5
1351
  8
0
 10
0.0
 20
0.0
 30
0.0
 70
   128
 71
     4
 72
     1
 73
     3
  0
VERTEX
  5
1352
  8
0
 10
0.0
 20
0.0
 30
0.0
 70
   128
 71
     5
 72
     6
 73
     7
  0
VERTEX
  5
1353
  8
0
 10
0.0
 20
0.0
 30
0.0
 70
   128
 71
     8
 72
     9
 73
    10
  0
VERTEX
  5
1354
  8
0
 10
0.0
 20
0.0
 30
0.0
 70
   128
 71
     6
 72
     8
 73
    10
  0
VERTEX
  5
1355
  8
0
 10
0.0
 20
0.0
 30
0.0
 70
   128
 71
     5
 72
     7
 73
    11
  0
VERTEX
  5
1356
  8
0
 10
0.0
 20
0.0
 30
0.0
 70
   128
 71
     5
 72
    11
 73
     4
  0
VERTEX
  5
1357
  8
0
 10
0.0
 20
0.0
 30
0.0
 70
   128
 71
     3
 72
     5
 73
     4
  0
VERTEX
  5
1358
  8
0
 10
0.0
 20
0.0
 30
0.0
 70
   128
 71
     6
 72
    10
 73
     7
  0
SEQEND
  5
1740
  8
0
  0
POLYLINE
  5
1359
  8
0
 66
     1
 10
0.0
 20
0.0
 30
0.0
 70
    64
 71
    24
 72
    24
  0
VERTEX
  5
135A
  8
0
 10
-8.0
 20
-26.0
 30
0.0
 70
   192
  0
VERTEX
  5
135B
  8
0
 10
-8.0
 20
-22.51666049839541
 30
-13.0
 70
   192
  0
VERTEX
  5
135C
  8
0
 10
-8.0
 20
-13.00000000000001
 30
-22.5166604983954
 70
   192
  0
VERTEX
  5
135D
  8
0
 10
-8.0
 20
-0.0000000000000072
 30
-26.0
 70
   192
  0
VERTEX
  5
135E
  8
0
 10
-8.0
 20
12.99999999999999
 30
-22.51666049839541
 70
   192
  0
VERTEX
  5
135F
  8
0
 10
-8.0
 20
22.5166604983954
 30
-13.00000000000001
 70
   192
  0
VERTEX
  5
1360
  8
0
 10
-8.0
 20
26.0
 30
0.0
 70
   192
  0
VERTEX
  5
1361
  8
0
 10
-8.0
 20
22.51666049839541
 30
13.0
 70
   192
  0
VERTEX
  5
1362
  8
0
 10
-8.0
 20
13.00000000000001
 30
22.5166604983954
 70
   192
  0
VERTEX
  5
1363
  8
0
 10
-8.0
 20
0.0000000000000072
 30
26.0
 70
   192
  0
VERTEX
  5
1364
  8
0
 10
-8.0
 20
-12.99999999999999
 30
22.51666049839541
 70
   192
  0
VERTEX
  5
1365
  8
0
 10
-8.0
 20
-22.5166604983954
 30
13.00000000000001
 70
   192
  0
VERTEX
  5
1366
  8
0
 10
-8.0
 20
-0.0000000000000142
 30
-25.5
 70
   192
  0
VERTEX
  5
1367
  8
0
 10
-8.0
 20
-12.75000000000001
 30
-22.08364779650318
 70
   192
  0
VERTEX
  5
1368
  8
0
 10
-8.0
 20
-22.08364779650319
 30
-12.74999999999999
 70
   192
  0
VERTEX
  5
1369
  8
0
 10
-8.0
 20
-25.5
 30
0.0000000000000071
 70
   192
  0
VERTEX
  5
136A
  8
0
 10
-8.0
 20
-22.08364779650318
 30
12.75000000000001
 70
   192
  0
VERTEX
  5
136B
  8
0
 10
-8.0
 20
-12.75
 30
22.08364779650319
 70
   192
  0
VERTEX
  5
136C
  8
0
 10
-8.0
 20
0.0000000000000142
 30
25.5
 70
   192
  0
VERTEX
  5
136D
  8
0
 10
-8.0
 20
12.75000000000001
 30
22.08364779650318
 70
   192
  0
VERTEX
  5
136E
  8
0
 10
-8.0
 20
22.08364779650319
 30
12.74999999999999
 70
   192
  0
VERTEX
  5
136F
  8
0
 10
-8.0
 20
25.5
 30
-0.0000000000000071
 70
   192
  0
VERTEX
  5
1370
  8
0
 10
-8.0
 20
22.08364779650318
 30
-12.75000000000001
 70
   192
  0
VERTEX
  5
1371
  8
0
 10
-8.0
 20
12.75
 30
-22.08364779650319
 70
   192
  0
VERTEX
  5
1372
  8
0
 10
0.0
 20
0.0
 30
0.0
 70
   128
 71
    14
 72
   -13
 73
    -4
  0
VERTEX
  5
1373
  8
0
 10
0.0
 20
0.0
 30
0.0
 70
   128
 71
   -14
 72
     4
 73
    -3
  0
VERTEX
  5
1374
  8
0
 10
0.0
 20
0.0
 30
0.0
 70
   128
 71
     3
 72
    -2
 73
   -15
  0
VERTEX
  5
1375
  8
0
 10
0.0
 20
0.0
 30
0.0
 70
   128
 71
    -3
 72
    15
 73
   -14
  0
VERTEX
  5
1376
  8
0
 10
0.0
 20
0.0
 30
0.0
 70
   128
 71
     2
 72
    -1
 73
   -16
  0
VERTEX
  5
1377
  8
0
 10
0.0
 20
0.0
 30
0.0
 70
   128
 71
    -2
 72
    16
 73
   -15
  0
VERTEX
  5
1378
  8
0
 10
0.0
 20
0.0
 30
0.0
 70
   128
 71
     1
 72
   -12
 73
   -17
  0
VERTEX
  5
1379
  8
0
 10
0.0
 20
0.0
 30
0.0
 70
   128
 71
    -1
 72
    17
 73
   -16
  0
VERTEX
  5
137A
  8
0
 10
0.0
 20
0.0
 30
0.0
 70
   128
 71
    12
 72
   -11
 73
   -18
  0
VERTEX
  5
137B
  8
0
 10
0.0
 20
0.0
 30
0.0
 70
   128
 71
   -12
 72
    18
 73
   -17
  0
VERTEX
  5
137C
  8
0
 10
0.0
 20
0.0
 30
0.0
 70
   128
 71
    11
 72
   -10
 73
   -19
  0
VERTEX
  5
137D
  8
0
 10
0.0
 20
0.0
 30
0.0
 70
   128
 71
   -11
 72
    19
 73
   -18
  0
VERTEX
  5
137E
  8
0
 10
0.0
 20
0.0
 30
0.0
 70
   128
 71
    10
 72
    -9
 73
   -20
  0
VERTEX
  5
137F
  8
0
 10
0.0
 20
0.0
 30
0.0
 70
   128
 71
   -10
 72
    20
 73
   -19
  0
VERTEX
  5
1380
  8
0
 10
0.0
 20
0.0
 30
0.0
 70
   128
 71
     9
 72
    -8
 73
   -21
  0
VERTEX
  5
1381
  8
0
 10
0.0
 20
0.0
 30
0.0
 70
   128
 71
    -9
 72
    21
 73
   -20
  0
VERTEX
  5
1382
  8
0
 10
0.0
 20
0.0
 30
0.0
 70
   128
 71
     8
 72
    -7
 73
   -22
  0
VERTEX
  5
1383
  8
0
 10
0.0
 20
0.0
 30
0.0
 70
   128
 71
    -8
 72
    22
 73
   -21
  0
VERTEX
  5
1384
  8
0
 10
0.0
 20
0.0
 30
0.0
 70
   128
 71
     7
 72
    -6
 73
   -23
  0
VERTEX
  5
1385
  8
0
 10
0.0
 20
0.0
 30
0.0
 70
   128
 71
    -7
 72
    23
 73
   -22
  0
VERTEX
  5
1386
  8
0
 10
0.0
 20
0.0
 30
0.0
 70
   128
 71
     6
 72
    -5
 73
   -24
  0
VERTEX
  5
1387
  8
0
 10
0.0
 20
0.0
 30
0.0
 70
   128
 71
    -6
 72
    24
 73
   -23
  0
VERTEX
  5
1388
  8
0
 10
0.0
 20
0.0
 30
0.0
 70
   128
 71
     5
 72
    -4
 73
   -13
  0
VERTEX
  5
1389
  8
0
 10
0.0
 20
0.0
 30
0.0
 70
   128
 71
    -5
 72
    13
 73
   -24
  0
SEQEND
  5
1741
  8
0
  0
POLYLINE
  5
138A
  8
0
 66
     1
 10
0.0
 20
0.0
 30
0.0
 70
    64
 71
    14
 72
    12
  0
VERTEX
  5
138B
  8
0
 10
-0.5
 20
-22.51666049839541
 30
-13.0
 70
   192
  0
VERTEX
  5
138C
  8
0
 10
-8.0
 20
-22.51666049839541
 30
-13.0
 70
   192
  0
VERTEX
  5
138D
  8
0
 10
-8.0
 20
-13.00000000000001
 30
-22.5166604983954
 70
   192
  0
VERTEX
  5
138E
  8
0
 10
-0.5
 20
-13.00000000000001
 30
-22.5166604983954
 70
   192
  0
VERTEX
  5
138F
  8
0
 10
-0.5
 20
12.99999999999999
 30
-22.51666049839541
 70
   192
  0
VERTEX
  5
1390
  8
0
 10
-8.0
 20
12.99999999999999
 30
-22.51666049839541
 70
   192
  0
VERTEX
  5
1391
  8
0
 10
-8.0
 20
22.5166604983954
 30
-13.00000000000001
 70
   192
  0
VERTEX
  5
1392
  8
0
 10
-0.5
 20
22.5166604983954
 30
-13.00000000000001
 70
   192
  0
VERTEX
  5
1393
  8
0
 10
-8.0
 20
26.0
 30
-0.0000000000000144
 70
   192
  0
VERTEX
  5
1394
  8
0
 10
-0.5
 20
26.0
 30
-0.000000000000081
 70
   192
  0
VERTEX
  5
1395
  8
0
 10
-0.5
 20
-0.0000000000000072
 30
-26.0
 70
   192
  0
VERTEX
  5
1396
  8
0
 10
-8.0
 20
-0.0000000000000072
 30
-26.0
 70
   192
  0
VERTEX
  5
1397
  8
0
 10
-0.5
 20
-26.0
 30
0.0
 70
   192
  0
VERTEX
  5
1398
  8
0
 10
-8.0
 20
-26.0
 30
0.0
 70
   192
  0
VERTEX
  5
1399
  8
0
 10
0.0
 20
0.0
 30
0.0
 70
   128
 71
     1
 72
     2
 73
    -3
  0
VERTEX
  5
139A
  8
0
 10
0.0
 20
0.0
 30
0.0
 70
   128
 71
    -1
 72
     3
 73
     4
  0
VERTEX
  5
139B
  8
0
 10
0.0
 20
0.0
 30
0.0
 70
   128
 71
     5
 72
     6
 73
    -7
  0
VERTEX
  5
139C
  8
0
 10
0.0
 20
0.0
 30
0.0
 70
   128
 71
    -5
 72
     7
 73
     8
  0
VERTEX
  5
139D
  8
0
 10
0.0
 20
0.0
 30
0.0
 70
   128
 71
     8
 72
     7
 73
    -9
  0
VERTEX
  5
139E
  8
0
 10
0.0
 20
0.0
 30
0.0
 70
   128
 71
    -8
 72
     9
 73
    10
  0
VERTEX
  5
139F
  8
0
 10
0.0
 20
0.0
 30
0.0
 70
   128
 71
    11
 72
    12
 73
    -6
  0
VERTEX
  5
13A0
  8
0
 10
0.0
 20
0.0
 30
0.0
 70
   128
 71
   -11
 72
     6
 73
     5
  0
VERTEX
  5
13A1
  8
0
 10
0.0
 20
0.0
 30
0.0
 70
   128
 71
     4
 72
     3
 73
   -12
  0
VERTEX
  5
13A2
  8
0
 10
0.0
 20
0.0
 30
0.0
 70
   128
 71
    -4
 72
    12
 73
    11
  0
VERTEX
  5
13A3
  8
0
 10
0.0
 20
0.0
 30
0.0
 70
   128
 71
    13
 72
    14
 73
    -2
  0
VERTEX
  5
13A4
  8
0
 10
0.0
 20
0.0
 30
0.0
 70
   128
 71
   -13
 72
     2
 73
     1
  0
SEQEND
  5
1742
  8
0
  0
POLYLINE
  5
13A5
  8
0
 66
     1
 10
0.0
 20
0.0
 30
0.0
 70
    64
 71
    39
 72
    58
  0
VERTEX
  5
13A6
  8
0
 10
0.0
 20
22.08364779650318
 30
-12.75000000000001
 70
   192
  0
VERTEX
  5
13A7
  8
0
 10
-0.0380602337443566
 20
18.16652194529351
 30
-18.16652194529351
 70
   192
  0
VERTEX
  5
13A8
  8
0
 10
-0.0380602337443566
 20
23.73570477433445
 30
-9.831650830013155
 70
   192
  0
VERTEX
  5
13A9
  8
0
 10
-0.0380602337443566
 20
9.831650830013151
 30
-23.73570477433445
 70
   192
  0
VERTEX
  5
13AA
  8
0
 10
0.0
 20
-0.0000000000000071
 30
-25.5
 70
   192
  0
VERTEX
  5
13AB
  8
0
 10
-0.0380602337443566
 20
-0.0000000000000017
 30
-25.69134171618255
 70
   192
  0
VERTEX
  5
13AC
  8
0
 10
0.0
 20
-12.75000000000001
 30
-22.08364779650318
 70
   192
  0
VERTEX
  5
13AD
  8
0
 10
-0.0380602337443566
 20
-18.16652194529351
 30
-18.16652194529351
 70
   192
  0
VERTEX
  5
13AE
  8
0
 10
-0.0380602337443566
 20
-9.831650830013153
 30
-23.73570477433445
 70
   192
  0
VERTEX
  5
13AF
  8
0
 10
-0.1464466094067262
 20
18.28122292025696
 30
-18.28122292025697
 70
   192
  0
VERTEX
  5
13B0
  8
0
 10
-0.1464466094067262
 20
23.88556882025691
 30
-9.89372655034634
 70
   192
  0
VERTEX
  5
13B1
  8
0
 10
-0.1464466094067262
 20
-0.0000000000000017
 30
-25.85355339059327
 70
   192
  0
VERTEX
  5
13B2
  8
0
 10
-0.1464466094067262
 20
9.893726550346337
 30
-23.88556882025691
 70
   192
  0
VERTEX
  5
13B3
  8
0
 10
-0.1464466094067262
 20
-18.28122292025697
 30
-18.28122292025696
 70
   192
  0
VERTEX
  5
13B4
  8
0
 10
-0.1464466094067262
 20
-9.893726550346338
 30
-23.88556882025691
 70
   192
  0
VERTEX
  5
13B5
  8
0
 10
-0.0669872981077803
 20
-25.75
 30
0.0
 70
   192
  0
VERTEX
  5
13B6
  8
0
 10
-0.1464466094067262
 20
-23.88556882025691
 30
-9.893726550346338
 70
   192
  0
VERTEX
  5
13B7
  8
0
 10
-0.0380602337443566
 20
-23.73570477433445
 30
-9.831650830013153
 70
   192
  0
VERTEX
  5
13B8
  8
0
 10
-0.3086582838174551
 20
18.35786366147606
 30
-18.35786366147606
 70
   192
  0
VERTEX
  5
13B9
  8
0
 10
-0.3086582838174551
 20
23.98570477433445
 30
-9.935204220606428
 70
   192
  0
VERTEX
  5
13BA
  8
0
 10
-0.2499999999999997
 20
25.93301270189222
 30
0.0
 70
   192
  0
VERTEX
  5
13BB
  8
0
 10
-0.3086582838174551
 20
-0.0000000000000017
 30
-25.96193976625564
 70
   192
  0
VERTEX
  5
13BC
  8
0
 10
-0.3086582838174551
 20
9.935204220606424
 30
-23.98570477433445
 70
   192
  0
VERTEX
  5
13BD
  8
0
 10
-0.3086582838174551
 20
-18.35786366147606
 30
-18.35786366147606
 70
   192
  0
VERTEX
  5
13BE
  8
0
 10
-0.3086582838174551
 20
-9.935204220606426
 30
-23.98570477433445
 70
   192
  0
VERTEX
  5
13BF
  8
0
 10
-0.3086582838174551
 20
-23.98570477433445
 30
-9.935204220606426
 70
   192
  0
VERTEX
  5
13C0
  8
0
 10
-0.5
 20
12.99999999999999
 30
-22.51666049839541
 70
   192
  0
VERTEX
  5
13C1
  8
0
 10
-0.5
 20
-0.0000000000000072
 30
-26.0
 70
   192
  0
VERTEX
  5
13C2
  8
0
 10
-0.5
 20
-22.51666049839541
 30
-13.0
 70
   192
  0
VERTEX
  5
13C3
  8
0
 10
-0.0669872981077803
 20
25.75
 30
0.0
 70
   192
  0
VERTEX
  5
13C4
  8
0
 10
-0.2499999999999997
 20
-25.93301270189222
 30
0.0
 70
   192
  0
VERTEX
  5
13C5
  8
0
 10
-0.5
 20
26.0
 30
-0.0000000000000144
 70
   192
  0
VERTEX
  5
13C6
  8
0
 10
-0.4999999999999999
 20
-26.0
 30
0.0
 70
   192
  0
VERTEX
  5
13C7
  8
0
 10
0.0
 20
-25.5
 30
0.0
 70
   192
  0
VERTEX
  5
13C8
  8
0
 10
0.0
 20
12.74999999999999
 30
-22.08364779650319
 70
   192
  0
VERTEX
  5
13C9
  8
0
 10
0.0000000000000004
 20
25.5
 30
0.0
 70
   192
  0
VERTEX
  5
13CA
  8
0
 10
0.0
 20
-22.08364779650319
 30
-12.75
 70
   192
  0
VERTEX
  5
13CB
  8
0
 10
-0.5
 20
22.5166604983954
 30
-13.00000000000001
 70
   192
  0
VERTEX
  5
13CC
  8
0
 10
-0.5
 20
-13.00000000000001
 30
-22.5166604983954
 70
   192
  0
VERTEX
  5
13CD
  8
0
 10
0.0
 20
0.0
 30
0.0
 70
   128
 71
     1
 72
     2
 73
     3
  0
VERTEX
  5
13CE
  8
0
 10
0.0
 20
0.0
 30
0.0
 70
   128
 71
     4
 72
     5
 73
     6
  0
VERTEX
  5
13CF
  8
0
 10
0.0
 20
0.0
 30
0.0
 70
   128
 71
     7
 72
     8
 73
     9
  0
VERTEX
  5
13D0
  8
0
 10
0.0
 20
0.0
 30
0.0
 70
   128
 71
    10
 72
    11
 73
    -3
  0
VERTEX
  5
13D1
  8
0
 10
0.0
 20
0.0
 30
0.0
 70
   128
 71
   -10
 72
     3
 73
     2
  0
VERTEX
  5
13D2
  8
0
 10
0.0
 20
0.0
 30
0.0
 70
   128
 71
    12
 72
    13
 73
    -4
  0
VERTEX
  5
13D3
  8
0
 10
0.0
 20
0.0
 30
0.0
 70
   128
 71
   -12
 72
     4
 73
     6
  0
VERTEX
  5
13D4
  8
0
 10
0.0
 20
0.0
 30
0.0
 70
   128
 71
    13
 72
    10
 73
    -2
  0
VERTEX
  5
13D5
  8
0
 10
0.0
 20
0.0
 30
0.0
 70
   128
 71
   -13
 72
     2
 73
     4
  0
VERTEX
  5
13D6
  8
0
 10
0.0
 20
0.0
 30
0.0
 70
   128
 71
    14
 72
    15
 73
    -9
  0
VERTEX
  5
13D7
  8
0
 10
0.0
 20
0.0
 30
0.0
 70
   128
 71
   -14
 72
     9
 73
     8
  0
VERTEX
  5
13D8
  8
0
 10
0.0
 20
0.0
 30
0.0
 70
   128
 71
    15
 72
    12
 73
    -6
  0
VERTEX
  5
13D9
  8
0
 10
0.0
 20
0.0
 30
0.0
 70
   128
 71
   -15
 72
     6
 73
     9
  0
VERTEX
  5
13DA
  8
0
 10
0.0
 20
0.0
 30
0.0
 70
   128
 71
    16
 72
    17
 73
    18
  0
VERTEX
  5
13DB
  8
0
 10
0.0
 20
0.0
 30
0.0
 70
   128
 71
    17
 72
    14
 73
    -8
  0
VERTEX
  5
13DC
  8
0
 10
0.0
 20
0.0
 30
0.0
 70
   128
 71
   -17
 72
     8
 73
    18
  0
VERTEX
  5
13DD
  8
0
 10
0.0
 20
0.0
 30
0.0
 70
   128
 71
    19
 72
    20
 73
   -11
  0
VERTEX
  5
13DE
  8
0
 10
0.0
 20
0.0
 30
0.0
 70
   128
 71
   -19
 72
    11
 73
    10
  0
VERTEX
  5
13DF
  8
0
 10
0.0
 20
0.0
 30
0.0
 70
   128
 71
    21
 72
    11
 73
    20
  0
VERTEX
  5
13E0
  8
0
 10
0.0
 20
0.0
 30
0.0
 70
   128
 71
    22
 72
    23
 73
   -13
  0
VERTEX
  5
13E1
  8
0
 10
0.0
 20
0.0
 30
0.0
 70
   128
 71
   -22
 72
    13
 73
    12
  0
VERTEX
  5
13E2
  8
0
 10
0.0
 20
0.0
 30
0.0
 70
   128
 71
    23
 72
    19
 73
   -10
  0
VERTEX
  5
13E3
  8
0
 10
0.0
 20
0.0
 30
0.0
 70
   128
 71
   -23
 72
    10
 73
    13
  0
VERTEX
  5
13E4
  8
0
 10
0.0
 20
0.0
 30
0.0
 70
   128
 71
    24
 72
    25
 73
   -15
  0
VERTEX
  5
13E5
  8
0
 10
0.0
 20
0.0
 30
0.0
 70
   128
 71
   -24
 72
    15
 73
    14
  0
VERTEX
  5
13E6
  8
0
 10
0.0
 20
0.0
 30
0.0
 70
   128
 71
    25
 72
    22
 73
   -12
  0
VERTEX
  5
13E7
  8
0
 10
0.0
 20
0.0
 30
0.0
 70
   128
 71
   -25
 72
    12
 73
    15
  0
VERTEX
  5
13E8
  8
0
 10
0.0
 20
0.0
 30
0.0
 70
   128
 71
    26
 72
    24
 73
   -14
  0
VERTEX
  5
13E9
  8
0
 10
0.0
 20
0.0
 30
0.0
 70
   128
 71
   -26
 72
    14
 73
    17
  0
VERTEX
  5
13EA
  8
0
 10
0.0
 20
0.0
 30
0.0
 70
   128
 71
    27
 72
    19
 73
    23
  0
VERTEX
  5
13EB
  8
0
 10
0.0
 20
0.0
 30
0.0
 70
   128
 71
    25
 72
    28
 73
    22
  0
VERTEX
  5
13EC
  8
0
 10
0.0
 20
0.0
 30
0.0
 70
   128
 71
    29
 72
    24
 73
    26
  0
VERTEX
  5
13ED
  8
0
 10
0.0
 20
0.0
 30
0.0
 70
   128
 71
     3
 72
    11
 73
    21
  0
VERTEX
  5
13EE
  8
0
 10
0.0
 20
0.0
 30
0.0
 70
   128
 71
     3
 72
    21
 73
    30
  0
VERTEX
  5
13EF
  8
0
 10
0.0
 20
0.0
 30
0.0
 70
   128
 71
    31
 72
    26
 73
    17
  0
VERTEX
  5
13F0
  8
0
 10
0.0
 20
0.0
 30
0.0
 70
   128
 71
    31
 72
    17
 73
    16
  0
VERTEX
  5
13F1
  8
0
 10
0.0
 20
0.0
 30
0.0
 70
   128
 71
    20
 72
    32
 73
    21
  0
VERTEX
  5
13F2
  8
0
 10
0.0
 20
0.0
 30
0.0
 70
   128
 71
    33
 72
    26
 73
    31
  0
VERTEX
  5
13F3
  8
0
 10
0.0
 20
0.0
 30
0.0
 70
   128
 71
    16
 72
    18
 73
    34
  0
VERTEX
  5
13F4
  8
0
 10
0.0
 20
0.0
 30
0.0
 70
   128
 71
    35
 72
     4
 73
     2
  0
VERTEX
  5
13F5
  8
0
 10
0.0
 20
0.0
 30
0.0
 70
   128
 71
    35
 72
     2
 73
     1
  0
VERTEX
  5
13F6
  8
0
 10
0.0
 20
0.0
 30
0.0
 70
   128
 71
     1
 72
     3
 73
    30
  0
VERTEX
  5
13F7
  8
0
 10
0.0
 20
0.0
 30
0.0
 70
   128
 71
     1
 72
    30
 73
    36
  0
VERTEX
  5
13F8
  8
0
 10
0.0
 20
0.0
 30
0.0
 70
   128
 71
     5
 72
     4
 73
    35
  0
VERTEX
  5
13F9
  8
0
 10
0.0
 20
0.0
 30
0.0
 70
   128
 71
    37
 72
    18
 73
     8
  0
VERTEX
  5
13FA
  8
0
 10
0.0
 20
0.0
 30
0.0
 70
   128
 71
    37
 72
     8
 73
     7
  0
VERTEX
  5
13FB
  8
0
 10
0.0
 20
0.0
 30
0.0
 70
   128
 71
     7
 72
     9
 73
     6
  0
VERTEX
  5
13FC
  8
0
 10
0.0
 20
0.0
 30
0.0
 70
   128
 71
     7
 72
     6
 73
     5
  0
VERTEX
  5
13FD
  8
0
 10
0.0
 20
0.0
 30
0.0
 70
   128
 71
    34
 72
    18
 73
    37
  0
VERTEX
  5
13FE
  8
0
 10
0.0
 20
0.0
 30
0.0
 70
   128
 71
    27
 72
    38
 73
    20
  0
VERTEX
  5
13FF
  8
0
 10
0.0
 20
0.0
 30
0.0
 70
   128
 71
    27
 72
    20
 73
    19
  0
VERTEX
  5
1400
  8
0
 10
0.0
 20
0.0
 30
0.0
 70
   128
 71
    38
 72
    32
 73
    20
  0
VERTEX
  5
1401
  8
0
 10
0.0
 20
0.0
 30
0.0
 70
   128
 71
    22
 72
    28
 73
    27
  0
VERTEX
  5
1402
  8
0
 10
0.0
 20
0.0
 30
0.0
 70
   128
 71
    22
 72
    27
 73
    23
  0
VERTEX
  5
1403
  8
0
 10
0.0
 20
0.0
 30
0.0
 70
   128
 71
    29
 72
    39
 73
    25
  0
VERTEX
  5
1404
  8
0
 10
0.0
 20
0.0
 30
0.0
 70
   128
 71
    29
 72
    25
 73
    24
  0
VERTEX
  5
1405
  8
0
 10
0.0
 20
0.0
 30
0.0
 70
   128
 71
    39
 72
    28
 73
    25
  0
VERTEX
  5
1406
  8
0
 10
0.0
 20
0.0
 30
0.0
 70
   128
 71
    33
 72
    29
 73
    26
  0
SEQEND
  5
1743
  8
0
  0
POLYLINE
  5
1407
  8
0
 66
     1
 10
0.0
 20
0.0
 30
0.0
 70
    64
 71
    20
 72
    20
  0
VERTEX
  5
1408
  8
0
 10
0.0
 20
25.5
 30
0.0
 70
   192
  0
VERTEX
  5
1409
  8
0
 10
0.0
 20
22.08364779650319
 30
12.75
 70
   192
  0
VERTEX
  5
140A
  8
0
 10
0.0
 20
12.75000000000001
 30
22.08364779650318
 70
   192
  0
VERTEX
  5
140B
  8
0
 10
0.0
 20
0.0000000000000071
 30
25.5
 70
   192
  0
VERTEX
  5
140C
  8
0
 10
0.0
 20
-12.74999999999999
 30
22.08364779650319
 70
   192
  0
VERTEX
  5
140D
  8
0
 10
0.0
 20
-22.08364779650318
 30
12.75000000000001
 70
   192
  0
VERTEX
  5
140E
  8
0
 10
0.0
 20
-25.5
 30
0.0000000000000142
 70
   192
  0
VERTEX
  5
140F
  8
0
 10
0.0
 20
-22.08364779650319
 30
-12.75
 70
   192
  0
VERTEX
  5
1410
  8
0
 10
0.0
 20
-12.75000000000001
 30
-22.08364779650318
 70
   192
  0
VERTEX
  5
1411
  8
0
 10
0.0
 20
-0.0000000000000071
 30
-25.5
 70
   192
  0
VERTEX
  5
1412
  8
0
 10
0.0
 20
12.74999999999999
 30
-22.08364779650319
 70
   192
  0
VERTEX
  5
1413
  8
0
 10
0.0
 20
22.08364779650318
 30
-12.75000000000001
 70
   192
  0
VERTEX
  5
1414
  8
0
 10
0.0
 20
-11.3
 30
0.0
 70
   192
  0
VERTEX
  5
1415
  8
0
 10
0.0
 20
-7.990306627407987
 30
7.990306627407987
 70
   192
  0
VERTEX
  5
1416
  8
0
 10
0.0
 20
0.0
 30
11.3
 70
   192
  0
VERTEX
  5
1417
  8
0
 10
0.0
 20
7.990306627407988
 30
7.990306627407988
 70
   192
  0
VERTEX
  5
1418
  8
0
 10
0.0
 20
11.3
 30
0.0
 70
   192
  0
VERTEX
  5
1419
  8
0
 10
0.0
 20
7.990306627407987
 30
-7.990306627407987
 70
   192
  0
VERTEX
  5
141A
  8
0
 10
0.0
 20
0.0
 30
-11.3
 70
   192
  0
VERTEX
  5
141B
  8
0
 10
0.0
 20
-7.990306627407988
 30
-7.990306627407988
 70
   192
  0
VERTEX
  5
141C
  8
0
 10
0.0
 20
0.0
 30
0.0
 70
   128
 71
    -7
 72
    13
 73
   -14
  0
VERTEX
  5
141D
  8
0
 10
0.0
 20
0.0
 30
0.0
 70
   128
 71
     6
 72
    -7
 73
   -14
  0
VERTEX
  5
141E
  8
0
 10
0.0
 20
0.0
 30
0.0
 70
   128
 71
     5
 72
    -6
 73
   -14
  0
VERTEX
  5
141F
  8
0
 10
0.0
 20
0.0
 30
0.0
 70
   128
 71
   -15
 72
     4
 73
    -5
  0
VERTEX
  5
1420
  8
0
 10
0.0
 20
0.0
 30
0.0
 70
   128
 71
    14
 72
   -15
 73
    -5
  0
VERTEX
  5
1421
  8
0
 10
0.0
 20
0.0
 30
0.0
 70
   128
 71
   -16
 72
     3
 73
    -4
  0
VERTEX
  5
1422
  8
0
 10
0.0
 20
0.0
 30
0.0
 70
   128
 71
    15
 72
   -16
 73
    -4
  0
VERTEX
  5
1423
  8
0
 10
0.0
 20
0.0
 30
0.0
 70
   128
 71
     1
 72
     2
 73
    -3
  0
VERTEX
  5
1424
  8
0
 10
0.0
 20
0.0
 30
0.0
 70
   128
 71
   -17
 72
    -1
 73
    -3
  0
VERTEX
  5
1425
  8
0
 10
0.0
 20
0.0
 30
0.0
 70
   128
 71
    16
 72
   -17
 73
    -3
  0
VERTEX
  5
1426
  8
0
 10
0.0
 20
0.0
 30
0.0
 70
   128
 71
    11
 72
    12
 73
    -1
  0
VERTEX
  5
1427
  8
0
 10
0.0
 20
0.0
 30
0.0
 70
   128
 71
   -18
 72
   -11
 73
    -1
  0
VERTEX
  5
1428
  8
0
 10
0.0
 20
0.0
 30
0.0
 70
   128
 71
    17
 72
   -18
 73
    -1
  0
VERTEX
  5
1429
  8
0
 10
0.0
 20
0.0
 30
0.0
 70
   128
 71
   -19
 72
    10
 73
   -11
  0
VERTEX
  5
142A
  8
0
 10
0.0
 20
0.0
 30
0.0
 70
   128
 71
    18
 72
   -19
 73
   -11
  0
VERTEX
  5
142B
  8
0
 10
0.0
 20
0.0
 30
0.0
 70
   128
 71
   -20
 72
     9
 73
   -10
  0
VERTEX
  5
142C
  8
0
 10
0.0
 20
0.0
 30
0.0
 70
   128
 71
    19
 72
   -20
 73
   -10
  0
VERTEX
  5
142D
  8
0
 10
0.0
 20
0.0
 30
0.0
 70
   128
 71
     7
 72
     8
 73
    -9
  0
VERTEX
  5
142E
  8
0
 10
0.0
 20
0.0
 30
0.0
 70
   128
 71
   -13
 72
    -7
 73
    -9
  0
VERTEX
  5
142F
  8
0
 10
0.0
 20
0.0
 30
0.0
 70
   128
 71
    20
 72
   -13
 73
    -9
  0
SEQEND
  5
1744
  8
0
  0
POLYLINE
  5
1430
  8
0
 66
     1
 10
0.0
 20
0.0
 30
0.0
 70
    64
 71
    23
 72
    30
  0
VERTEX
  5
1431
  8
0
 10
-0.6173165676349097
 20
7.337025144969947
 30
-7.337025144969648
 70
   192
  0
VERTEX
  5
1432
  8
0
 10
-1.0
 20
7.28319984622144
 30
-7.28319984622144
 70
   192
  0
VERTEX
  5
1433
  8
0
 10
-1.0
 20
0.0
 30
-10.3
 70
   192
  0
VERTEX
  5
1434
  8
0
 10
-0.6173165676349097
 20
0.0000000000001412
 30
-10.37612046748871
 70
   192
  0
VERTEX
  5
1435
  8
0
 10
-1.0
 20
-7.283199846221442
 30
-7.283199846221442
 70
   192
  0
VERTEX
  5
1436
  8
0
 10
-0.6173165676349097
 20
-7.337025144969748
 30
-7.337025144969846
 70
   192
  0
VERTEX
  5
1437
  8
0
 10
-0.2928932188134515
 20
0.0000000000001442
 30
-10.59289321881345
 70
   192
  0
VERTEX
  5
1438
  8
0
 10
-0.2928932188134515
 20
7.490306627408138
 30
-7.490306627407834
 70
   192
  0
VERTEX
  5
1439
  8
0
 10
-0.5000000000000002
 20
-10.43397459621556
 30
-0.0000000000002847
 70
   192
  0
VERTEX
  5
143A
  8
0
 10
-0.2928932188134515
 20
-7.490306627407936
 30
-7.490306627408036
 70
   192
  0
VERTEX
  5
143B
  8
0
 10
-0.0761204674887125
 20
0.0000000000001486
 30
-10.91731656763491
 70
   192
  0
VERTEX
  5
143C
  8
0
 10
-0.0761204674887125
 20
7.719708577335045
 30
-7.719708577334732
 70
   192
  0
VERTEX
  5
143D
  8
0
 10
-0.1339745962155615
 20
10.8
 30
0.0000000000002961
 70
   192
  0
VERTEX
  5
143E
  8
0
 10
-0.0761204674887125
 20
-7.719708577334836
 30
-7.71970857733494
 70
   192
  0
VERTEX
  5
143F
  8
0
 10
0.0
 20
0.0
 30
-11.3
 70
   192
  0
VERTEX
  5
1440
  8
0
 10
0.0
 20
7.990306627407987
 30
-7.990306627407987
 70
   192
  0
VERTEX
  5
1441
  8
0
 10
0.0
 20
11.3
 30
0.0
 70
   192
  0
VERTEX
  5
1442
  8
0
 10
0.0
 20
-7.990306627407988
 30
-7.990306627407988
 70
   192
  0
VERTEX
  5
1443
  8
0
 10
-0.5000000000000003
 20
10.43397459621556
 30
0.0000000000002861
 70
   192
  0
VERTEX
  5
1444
  8
0
 10
-0.1339745962155615
 20
-10.8
 30
-0.0000000000002947
 70
   192
  0
VERTEX
  5
1445
  8
0
 10
0.0
 20
-11.3
 30
-0.0000000000003083
 70
   192
  0
VERTEX
  5
1446
  8
0
 10
-1.0
 20
10.3
 30
0.0000000000002824
 70
   192
  0
VERTEX
  5
1447
  8
0
 10
-1.0
 20
-10.3
 30
0.0
 70
   192
  0
VERTEX
  5
1448
  8
0
 10
0.0
 20
0.0
 30
0.0
 70
   128
 71
     1
 72
     2
 73
    -3
  0
VERTEX
  5
1449
  8
0
 10
0.0
 20
0.0
 30
0.0
 70
   128
 71
    -1
 72
     3
 73
     4
  0
VERTEX
  5
144A
  8
0
 10
0.0
 20
0.0
 30
0.0
 70
   128
 71
     4
 72
     3
 73
    -5
  0
VERTEX
  5
144B
  8
0
 10
0.0
 20
0.0
 30
0.0
 70
   128
 71
    -4
 72
     5
 73
     6
  0
VERTEX
  5
144C
  8
0
 10
0.0
 20
0.0
 30
0.0
 70
   128
 71
     7
 72
     8
 73
    -1
  0
VERTEX
  5
144D
  8
0
 10
0.0
 20
0.0
 30
0.0
 70
   128
 71
    -7
 72
     1
 73
     4
  0
VERTEX
  5
144E
  8
0
 10
0.0
 20
0.0
 30
0.0
 70
   128
 71
     9
 72
    10
 73
     6
  0
VERTEX
  5
144F
  8
0
 10
0.0
 20
0.0
 30
0.0
 70
   128
 71
    10
 72
     7
 73
    -4
  0
VERTEX
  5
1450
  8
0
 10
0.0
 20
0.0
 30
0.0
 70
   128
 71
   -10
 72
     4
 73
     6
  0
VERTEX
  5
1451
  8
0
 10
0.0
 20
0.0
 30
0.0
 70
   128
 71
    11
 72
    12
 73
    -8
  0
VERTEX
  5
1452
  8
0
 10
0.0
 20
0.0
 30
0.0
 70
   128
 71
   -11
 72
     8
 73
     7
  0
VERTEX
  5
1453
  8
0
 10
0.0
 20
0.0
 30
0.0
 70
   128
 71
    13
 72
     8
 73
    12
  0
VERTEX
  5
1454
  8
0
 10
0.0
 20
0.0
 30
0.0
 70
   128
 71
    14
 72
    11
 73
    -7
  0
VERTEX
  5
1455
  8
0
 10
0.0
 20
0.0
 30
0.0
 70
   128
 71
   -14
 72
     7
 73
    10
  0
VERTEX
  5
1456
  8
0
 10
0.0
 20
0.0
 30
0.0
 70
   128
 71
    11
 72
    15
 73
   -16
  0
VERTEX
  5
1457
  8
0
 10
0.0
 20
0.0
 30
0.0
 70
   128
 71
   -11
 72
    16
 73
    12
  0
VERTEX
  5
1458
  8
0
 10
0.0
 20
0.0
 30
0.0
 70
   128
 71
    12
 72
    16
 73
    17
  0
VERTEX
  5
1459
  8
0
 10
0.0
 20
0.0
 30
0.0
 70
   128
 71
    14
 72
    18
 73
   -15
  0
VERTEX
  5
145A
  8
0
 10
0.0
 20
0.0
 30
0.0
 70
   128
 71
   -14
 72
    15
 73
    11
  0
VERTEX
  5
145B
  8
0
 10
0.0
 20
0.0
 30
0.0
 70
   128
 71
     1
 72
     8
 73
    13
  0
VERTEX
  5
145C
  8
0
 10
0.0
 20
0.0
 30
0.0
 70
   128
 71
     1
 72
    13
 73
    19
  0
VERTEX
  5
145D
  8
0
 10
0.0
 20
0.0
 30
0.0
 70
   128
 71
    20
 72
    14
 73
    10
  0
VERTEX
  5
145E
  8
0
 10
0.0
 20
0.0
 30
0.0
 70
   128
 71
    20
 72
    10
 73
     9
  0
VERTEX
  5
145F
  8
0
 10
0.0
 20
0.0
 30
0.0
 70
   128
 71
    12
 72
    17
 73
    13
  0
VERTEX
  5
1460
  8
0
 10
0.0
 20
0.0
 30
0.0
 70
   128
 71
    21
 72
    18
 73
    14
  0
VERTEX
  5
1461
  8
0
 10
0.0
 20
0.0
 30
0.0
 70
   128
 71
    21
 72
    14
 73
    20
  0
VERTEX
  5
1462
  8
0
 10
0.0
 20
0.0
 30
0.0
 70
   128
 71
     2
 72
     1
 73
    19
  0
VERTEX
  5
1463
  8
0
 10
0.0
 20
0.0
 30
0.0
 70
   128
 71
     2
 72
    19
 73
    22
  0
VERTEX
  5
1464
  8
0
 10
0.0
 20
0.0
 30
0.0
 70
   128
 71
    23
 72
     9
 73
     6
  0
VERTEX
  5
1465
  8
0
 10
0.0
 20
0.0
 30
0.0
 70
   128
 71
    23
 72
     6
 73
     5
  0
SEQEND
  5
1745
  8
0
  0
POLYLINE
  5
1466
  8
0
 66
     1
 10
0.0
 20
0.0
 30
0.0
 70
    64
 71
    23
 72
    30
  0
VERTEX
  5
1467
  8
0
 10
-0.6173165676349097
 20
-7.337025144969947
 30
7.337025144969648
 70
   192
  0
VERTEX
  5
1468
  8
0
 10
-1.0
 20
-7.28319984622144
 30
7.28319984622144
 70
   192
  0
VERTEX
  5
1469
  8
0
 10
-1.0
 20
0.0
 30
10.3
 70
   192
  0
VERTEX
  5
146A
  8
0
 10
-0.6173165676349097
 20
-0.0000000000001412
 30
10.37612046748871
 70
   192
  0
VERTEX
  5
146B
  8
0
 10
-1.0
 20
7.283199846221442
 30
7.283199846221442
 70
   192
  0
VERTEX
  5
146C
  8
0
 10
-0.6173165676349097
 20
7.337025144969748
 30
7.337025144969846
 70
   192
  0
VERTEX
  5
146D
  8
0
 10
-0.2928932188134515
 20
-0.0000000000001442
 30
10.59289321881345
 70
   192
  0
VERTEX
  5
146E
  8
0
 10
-0.2928932188134515
 20
-7.490306627408138
 30
7.490306627407834
 70
   192
  0
VERTEX
  5
146F
  8
0
 10
-0.5000000000000003
 20
10.43397459621556
 30
0.0000000000002861
 70
   192
  0
VERTEX
  5
1470
  8
0
 10
-0.2928932188134515
 20
7.490306627407936
 30
7.490306627408036
 70
   192
  0
VERTEX
  5
1471
  8
0
 10
-0.0761204674887125
 20
-0.0000000000001486
 30
10.91731656763491
 70
   192
  0
VERTEX
  5
1472
  8
0
 10
-0.0761204674887125
 20
-7.719708577335045
 30
7.719708577334732
 70
   192
  0
VERTEX
  5
1473
  8
0
 10
-0.1339745962155615
 20
-10.8
 30
-0.0000000000002947
 70
   192
  0
VERTEX
  5
1474
  8
0
 10
-0.0761204674887125
 20
7.719708577334836
 30
7.71970857733494
 70
   192
  0
VERTEX
  5
1475
  8
0
 10
0.0
 20
0.0
 30
11.3
 70
   192
  0
VERTEX
  5
1476
  8
0
 10
0.0
 20
-7.990306627407987
 30
7.990306627407987
 70
   192
  0
VERTEX
  5
1477
  8
0
 10
0.0
 20
-11.3
 30
0.0
 70
   192
  0
VERTEX
  5
1478
  8
0
 10
0.0
 20
7.990306627407988
 30
7.990306627407988
 70
   192
  0
VERTEX
  5
1479
  8
0
 10
-0.5000000000000002
 20
-10.43397459621556
 30
-0.0000000000002847
 70
   192
  0
VERTEX
  5
147A
  8
0
 10
-0.1339745962155615
 20
10.8
 30
0.0000000000002961
 70
   192
  0
VERTEX
  5
147B
  8
0
 10
0.0
 20
11.3
 30
0.0000000000003098
 70
   192
  0
VERTEX
  5
147C
  8
0
 10
-1.0
 20
-10.3
 30
-0.000000000000281
 70
   192
  0
VERTEX
  5
147D
  8
0
 10
-1.0
 20
10.3
 30
0.0
 70
   192
  0
VERTEX
  5
147E
  8
0
 10
0.0
 20
0.0
 30
0.0
 70
   128
 71
     1
 72
     2
 73
    -3
  0
VERTEX
  5
147F
  8
0
 10
0.0
 20
0.0
 30
0.0
 70
   128
 71
    -1
 72
     3
 73
     4
  0
VERTEX
  5
1480
  8
0
 10
0.0
 20
0.0
 30
0.0
 70
   128
 71
     4
 72
     3
 73
    -5
  0
VERTEX
  5
1481
  8
0
 10
0.0
 20
0.0
 30
0.0
 70
   128
 71
    -4
 72
     5
 73
     6
  0
VERTEX
  5
1482
  8
0
 10
0.0
 20
0.0
 30
0.0
 70
   128
 71
     7
 72
     8
 73
    -1
  0
VERTEX
  5
1483
  8
0
 10
0.0
 20
0.0
 30
0.0
 70
   128
 71
    -7
 72
     1
 73
     4
  0
VERTEX
  5
1484
  8
0
 10
0.0
 20
0.0
 30
0.0
 70
   128
 71
     9
 72
    10
 73
     6
  0
VERTEX
  5
1485
  8
0
 10
0.0
 20
0.0
 30
0.0
 70
   128
 71
    10
 72
     7
 73
    -4
  0
VERTEX
  5
1486
  8
0
 10
0.0
 20
0.0
 30
0.0
 70
   128
 71
   -10
 72
     4
 73
     6
  0
VERTEX
  5
1487
  8
0
 10
0.0
 20
0.0
 30
0.0
 70
   128
 71
    11
 72
    12
 73
    -8
  0
VERTEX
  5
1488
  8
0
 10
0.0
 20
0.0
 30
0.0
 70
   128
 71
   -11
 72
     8
 73
     7
  0
VERTEX
  5
1489
  8
0
 10
0.0
 20
0.0
 30
0.0
 70
   128
 71
    13
 72
     8
 73
    12
  0
VERTEX
  5
148A
  8
0
 10
0.0
 20
0.0
 30
0.0
 70
   128
 71
    14
 72
    11
 73
    -7
  0
VERTEX
  5
148B
  8
0
 10
0.0
 20
0.0
 30
0.0
 70
   128
 71
   -14
 72
     7
 73
    10
  0
VERTEX
  5
148C
  8
0
 10
0.0
 20
0.0
 30
0.0
 70
   128
 71
    11
 72
    15
 73
   -16
  0
VERTEX
  5
148D
  8
0
 10
0.0
 20
0.0
 30
0.0
 70
   128
 71
   -11
 72
    16
 73
    12
  0
VERTEX
  5
148E
  8
0
 10
0.0
 20
0.0
 30
0.0
 70
   128
 71
    12
 72
    16
 73
    17
  0
VERTEX
  5
148F
  8
0
 10
0.0
 20
0.0
 30
0.0
 70
   128
 71
    14
 72
    18
 73
   -15
  0
VERTEX
  5
1490
  8
0
 10
0.0
 20
0.0
 30
0.0
 70
   128
 71
   -14
 72
    15
 73
    11
  0
VERTEX
  5
1491
  8
0
 10
0.0
 20
0.0
 30
0.0
 70
   128
 71
     1
 72
     8
 73
    13
  0
VERTEX
  5
1492
  8
0
 10
0.0
 20
0.0
 30
0.0
 70
   128
 71
     1
 72
    13
 73
    19
  0
VERTEX
  5
1493
  8
0
 10
0.0
 20
0.0
 30
0.0
 70
   128
 71
    20
 72
    14
 73
    10
  0
VERTEX
  5
1494
  8
0
 10
0.0
 20
0.0
 30
0.0
 70
   128
 71
    20
 72
    10
 73
     9
  0
VERTEX
  5
1495
  8
0
 10
0.0
 20
0.0
 30
0.0
 70
   128
 71
    12
 72
    17
 73
    13
  0
VERTEX
  5
1496
  8
0
 10
0.0
 20
0.0
 30
0.0
 70
   128
 71
    21
 72
    18
 73
    14
  0
VERTEX
  5
1497
  8
0
 10
0.0
 20
0.0
 30
0.0
 70
   128
 71
    21
 72
    14
 73
    20
  0
VERTEX
  5
1498
  8
0
 10
0.0
 20
0.0
 30
0.0
 70
   128
 71
     2
 72
     1
 73
    19
  0
VERTEX
  5
1499
  8
0
 10
0.0
 20
0.0
 30
0.0
 70
   128
 71
     2
 72
    19
 73
    22
  0
VERTEX
  5
149A
  8
0
 10
0.0
 20
0.0
 30
0.0
 70
   128
 71
    23
 72
     9
 73
     6
  0
VERTEX
  5
149B
  8
0
 10
0.0
 20
0.0
 30
0.0
 70
   128
 71
    23
 72
     6
 73
     5
  0
SEQEND
  5
1746
  8
0
  0
POLYLINE
  5
149C
  8
0
 66
     1
 10
0.0
 20
0.0
 30
0.0
 70
    64
 71
    21
 72
    21
  0
VERTEX
  5
149D
  8
0
 10
-1.5
 20
0.0000000000000142
 30
-25.5
 70
   192
  0
VERTEX
  5
149E
  8
0
 10
-1.5
 20
12.75000000000001
 30
-22.08364779650318
 70
   192
  0
VERTEX
  5
149F
  8
0
 10
-1.5
 20
22.08364779650319
 30
-12.74999999999999
 70
   192
  0
VERTEX
  5
14A0
  8
0
 10
-1.5
 20
25.5
 30
0.0000000000000071
 70
   192
  0
VERTEX
  5
14A1
  8
0
 10
-1.5
 20
22.08364779650318
 30
12.75000000000001
 70
   192
  0
VERTEX
  5
14A2
  8
0
 10
-1.5
 20
12.75
 30
22.08364779650319
 70
   192
  0
VERTEX
  5
14A3
  8
0
 10
-1.5
 20
0.0
 30
25.5
 70
   192
  0
VERTEX
  5
14A4
  8
0
 10
-1.5
 20
-12.75
 30
22.08364779650319
 70
   192
  0
VERTEX
  5
14A5
  8
0
 10
-1.5
 20
-22.08364779650318
 30
12.75000000000001
 70
   192
  0
VERTEX
  5
14A6
  8
0
 10
-1.5
 20
-25.5
 30
0.0000000000000071
 70
   192
  0
VERTEX
  5
14A7
  8
0
 10
-1.5
 20
-22.08364779650319
 30
-12.74999999999999
 70
   192
  0
VERTEX
  5
14A8
  8
0
 10
-1.5
 20
-12.75000000000001
 30
-22.08364779650318
 70
   192
  0
VERTEX
  5
14A9
  8
0
 10
-1.5
 20
10.3
 30
0.0000000000069692
 70
   192
  0
VERTEX
  5
14AA
  8
0
 10
-1.5
 20
8.332875042065911
 30
-6.054188098607033
 70
   192
  0
VERTEX
  5
14AB
  8
0
 10
-1.5
 20
3.182875042068122
 30
-9.79588211783808
 70
   192
  0
VERTEX
  5
14AC
  8
0
 10
-1.5
 20
-3.182875042056029
 30
-9.795882117842009
 70
   192
  0
VERTEX
  5
14AD
  8
0
 10
-1.5
 20
-8.332875042058438
 30
-6.05418809861732
 70
   192
  0
VERTEX
  5
14AE
  8
0
 10
-1.5
 20
-10.3
 30
-0.000000000005752
 70
   192
  0
VERTEX
  5
14AF
  8
0
 10
-1.5
 20
-7.283199846225722
 30
7.283199846217157
 70
   192
  0
VERTEX
  5
14B0
  8
0
 10
-1.5
 20
-0.0000000000063609
 30
10.3
 70
   192
  0
VERTEX
  5
14B1
  8
0
 10
-1.5
 20
7.283199846216727
 30
7.283199846226154
 70
   192
  0
VERTEX
  5
14B2
  8
0
 10
0.0
 20
0.0
 30
0.0
 70
   128
 71
    14
 72
   -13
 73
    -4
  0
VERTEX
  5
14B3
  8
0
 10
0.0
 20
0.0
 30
0.0
 70
   128
 71
   -14
 72
     4
 73
    -3
  0
VERTEX
  5
14B4
  8
0
 10
0.0
 20
0.0
 30
0.0
 70
   128
 71
     3
 72
    -2
 73
   -15
  0
VERTEX
  5
14B5
  8
0
 10
0.0
 20
0.0
 30
0.0
 70
   128
 71
    -3
 72
    15
 73
   -14
  0
VERTEX
  5
14B6
  8
0
 10
0.0
 20
0.0
 30
0.0
 70
   128
 71
     2
 72
     1
 73
   -12
  0
VERTEX
  5
14B7
  8
0
 10
0.0
 20
0.0
 30
0.0
 70
   128
 71
    -2
 72
   -12
 73
   -16
  0
VERTEX
  5
14B8
  8
0
 10
0.0
 20
0.0
 30
0.0
 70
   128
 71
    -2
 72
    16
 73
   -15
  0
VERTEX
  5
14B9
  8
0
 10
0.0
 20
0.0
 30
0.0
 70
   128
 71
    12
 72
   -11
 73
   -17
  0
VERTEX
  5
14BA
  8
0
 10
0.0
 20
0.0
 30
0.0
 70
   128
 71
   -12
 72
    17
 73
   -16
  0
VERTEX
  5
14BB
  8
0
 10
0.0
 20
0.0
 30
0.0
 70
   128
 71
    11
 72
   -10
 73
   -18
  0
VERTEX
  5
14BC
  8
0
 10
0.0
 20
0.0
 30
0.0
 70
   128
 71
   -11
 72
    18
 73
   -17
  0
VERTEX
  5
14BD
  8
0
 10
0.0
 20
0.0
 30
0.0
 70
   128
 71
    10
 72
    -9
 73
   -19
  0
VERTEX
  5
14BE
  8
0
 10
0.0
 20
0.0
 30
0.0
 70
   128
 71
   -10
 72
    19
 73
   -18
  0
VERTEX
  5
14BF
  8
0
 10
0.0
 20
0.0
 30
0.0
 70
   128
 71
     9
 72
     8
 73
    -7
  0
VERTEX
  5
14C0
  8
0
 10
0.0
 20
0.0
 30
0.0
 70
   128
 71
    -9
 72
    -7
 73
   -20
  0
VERTEX
  5
14C1
  8
0
 10
0.0
 20
0.0
 30
0.0
 70
   128
 71
    -9
 72
    20
 73
   -19
  0
VERTEX
  5
14C2
  8
0
 10
0.0
 20
0.0
 30
0.0
 70
   128
 71
     7
 72
    -6
 73
   -21
  0
VERTEX
  5
14C3
  8
0
 10
0.0
 20
0.0
 30
0.0
 70
   128
 71
    -7
 72
    21
 73
   -20
  0
VERTEX
  5
14C4
  8
0
 10
0.0
 20
0.0
 30
0.0
 70
   128
 71
     6
 72
     5
 73
    -4
  0
VERTEX
  5
14C5
  8
0
 10
0.0
 20
0.0
 30
0.0
 70
   128
 71
    -6
 72
    -4
 73
   -13
  0
VERTEX
  5
14C6
  8
0
 10
0.0
 20
0.0
 30
0.0
 70
   128
 71
    -6
 72
    13
 73
   -21
  0
SEQEND
  5
1747
  8
0
  0
POLYLINE
  5
14C7
  8
0
 66
     1
 10
0.0
 20
0.0
 30
0.0
 70
    64
 71
    14
 72
    12
  0
VERTEX
  5
14C8
  8
0
 10
-8.0
 20
22.08364779650318
 30
-12.75000000000001
 70
   192
  0
VERTEX
  5
14C9
  8
0
 10
-8.0
 20
12.75
 30
-22.08364779650319
 70
   192
  0
VERTEX
  5
14CA
  8
0
 10
-1.5
 20
12.75000000000001
 30
-22.08364779650318
 70
   192
  0
VERTEX
  5
14CB
  8
0
 10
-1.5
 20
22.08364779650319
 30
-12.74999999999999
 70
   192
  0
VERTEX
  5
14CC
  8
0
 10
-8.0
 20
12.75000000000001
 30
22.08364779650318
 70
   192
  0
VERTEX
  5
14CD
  8
0
 10
-8.0
 20
22.08364779650319
 30
12.74999999999999
 70
   192
  0
VERTEX
  5
14CE
  8
0
 10
-1.5
 20
22.08364779650318
 30
12.75000000000001
 70
   192
  0
VERTEX
  5
14CF
  8
0
 10
-1.5
 20
12.75
 30
22.08364779650319
 70
   192
  0
VERTEX
  5
14D0
  8
0
 10
-8.0
 20
0.0
 30
25.5
 70
   192
  0
VERTEX
  5
14D1
  8
0
 10
-1.5
 20
0.0
 30
25.5
 70
   192
  0
VERTEX
  5
14D2
  8
0
 10
-8.0
 20
25.5
 30
-0.0000000000000071
 70
   192
  0
VERTEX
  5
14D3
  8
0
 10
-1.5
 20
25.5
 30
0.0000000000000071
 70
   192
  0
VERTEX
  5
14D4
  8
0
 10
-8.0
 20
0.0
 30
-25.5
 70
   192
  0
VERTEX
  5
14D5
  8
0
 10
-1.5
 20
0.0
 30
-25.5
 70
   192
  0
VERTEX
  5
14D6
  8
0
 10
0.0
 20
0.0
 30
0.0
 70
   128
 71
     1
 72
     2
 73
    -3
  0
VERTEX
  5
14D7
  8
0
 10
0.0
 20
0.0
 30
0.0
 70
   128
 71
     4
 72
    -1
 73
     3
  0
VERTEX
  5
14D8
  8
0
 10
0.0
 20
0.0
 30
0.0
 70
   128
 71
     5
 72
     6
 73
    -7
  0
VERTEX
  5
14D9
  8
0
 10
0.0
 20
0.0
 30
0.0
 70
   128
 71
     8
 72
    -5
 73
     7
  0
VERTEX
  5
14DA
  8
0
 10
0.0
 20
0.0
 30
0.0
 70
   128
 71
     9
 72
     5
 73
    -8
  0
VERTEX
  5
14DB
  8
0
 10
0.0
 20
0.0
 30
0.0
 70
   128
 71
    10
 72
    -9
 73
     8
  0
VERTEX
  5
14DC
  8
0
 10
0.0
 20
0.0
 30
0.0
 70
   128
 71
     6
 72
    11
 73
   -12
  0
VERTEX
  5
14DD
  8
0
 10
0.0
 20
0.0
 30
0.0
 70
   128
 71
     7
 72
    -6
 73
    12
  0
VERTEX
  5
14DE
  8
0
 10
0.0
 20
0.0
 30
0.0
 70
   128
 71
    11
 72
     1
 73
    -4
  0
VERTEX
  5
14DF
  8
0
 10
0.0
 20
0.0
 30
0.0
 70
   128
 71
    12
 72
   -11
 73
     4
  0
VERTEX
  5
14E0
  8
0
 10
0.0
 20
0.0
 30
0.0
 70
   128
 71
     2
 72
    13
 73
   -14
  0
VERTEX
  5
14E1
  8
0
 10
0.0
 20
0.0
 30
0.0
 70
   128
 71
     3
 72
    -2
 73
    14
  0
SEQEND
  5
1748
  8
0
  0
POLYLINE
  5
14E2
  8
0
 66
     1
 10
0.0
 20
0.0
 30
0.0
 70
    64
 71
    14
 72
    12
  0
VERTEX
  5
14E3
  8
0
 10
-8.0
 20
-22.08364779650318
 30
12.75000000000001
 70
   192
  0
VERTEX
  5
14E4
  8
0
 10
-8.0
 20
-12.75
 30
22.08364779650319
 70
   192
  0
VERTEX
  5
14E5
  8
0
 10
-1.5
 20
-12.75
 30
22.08364779650319
 70
   192
  0
VERTEX
  5
14E6
  8
0
 10
-1.5
 20
-22.08364779650318
 30
12.75000000000001
 70
   192
  0
VERTEX
  5
14E7
  8
0
 10
-8.0
 20
-12.75000000000001
 30
-22.08364779650318
 70
   192
  0
VERTEX
  5
14E8
  8
0
 10
-8.0
 20
-22.08364779650319
 30
-12.74999999999999
 70
   192
  0
VERTEX
  5
14E9
  8
0
 10
-1.5
 20
-22.08364779650319
 30
-12.74999999999999
 70
   192
  0
VERTEX
  5
14EA
  8
0
 10
-1.5
 20
-12.75000000000001
 30
-22.08364779650318
 70
   192
  0
VERTEX
  5
14EB
  8
0
 10
-8.0
 20
0.0
 30
-25.5
 70
   192
  0
VERTEX
  5
14EC
  8
0
 10
-1.5
 20
-0.0000000000000142
 30
-25.5
 70
   192
  0
VERTEX
  5
14ED
  8
0
 10
-8.0
 20
-25.5
 30
0.0000000000000071
 70
   192
  0
VERTEX
  5
14EE
  8
0
 10
-1.5
 20
-25.5
 30
0.0000000000000071
 70
   192
  0
VERTEX
  5
14EF
  8
0
 10
-8.0
 20
0.0
 30
25.5
 70
   192
  0
VERTEX
  5
14F0
  8
0
 10
-1.5
 20
0.0
 30
25.5
 70
   192
  0
VERTEX
  5
14F1
  8
0
 10
0.0
 20
0.0
 30
0.0
 70
   128
 71
     1
 72
     2
 73
    -3
  0
VERTEX
  5
14F2
  8
0
 10
0.0
 20
0.0
 30
0.0
 70
   128
 71
     4
 72
    -1
 73
     3
  0
VERTEX
  5
14F3
  8
0
 10
0.0
 20
0.0
 30
0.0
 70
   128
 71
     5
 72
     6
 73
    -7
  0
VERTEX
  5
14F4
  8
0
 10
0.0
 20
0.0
 30
0.0
 70
   128
 71
     8
 72
    -5
 73
     7
  0
VERTEX
  5
14F5
  8
0
 10
0.0
 20
0.0
 30
0.0
 70
   128
 71
     9
 72
     5
 73
    -8
  0
VERTEX
  5
14F6
  8
0
 10
0.0
 20
0.0
 30
0.0
 70
   128
 71
    10
 72
    -9
 73
     8
  0
VERTEX
  5
14F7
  8
0
 10
0.0
 20
0.0
 30
0.0
 70
   128
 71
     6
 72
    11
 73
   -12
  0
VERTEX
  5
14F8
  8
0
 10
0.0
 20
0.0
 30
0.0
 70
   128
 71
     7
 72
    -6
 73
    12
  0
VERTEX
  5
14F9
  8
0
 10
0.0
 20
0.0
 30
0.0
 70
   128
 71
    11
 72
     1
 73
    -4
  0
VERTEX
  5
14FA
  8
0
 10
0.0
 20
0.0
 30
0.0
 70
   128
 71
    12
 72
   -11
 73
     4
  0
VERTEX
  5
14FB
  8
0
 10
0.0
 20
0.0
 30
0.0
 70
   128
 71
     2
 72
    13
 73
   -14
  0
VERTEX
  5
14FC
  8
0
 10
0.0
 20
0.0
 30
0.0
 70
   128
 71
     3
 72
    -2
 73
    14
  0
SEQEND
  5
1749
  8
0
  0
POLYLINE
  5
14FD
  8
0
 66
     1
 10
0.0
 20
0.0
 30
0.0
 70
    64
 71
    39
 72
    58
  0
VERTEX
  5
14FE
  8
0
 10
0.0
 20
-22.08364779650318
 30
12.75000000000001
 70
   192
  0
VERTEX
  5
14FF
  8
0
 10
-0.0380602337443566
 20
-18.16652194529351
 30
18.16652194529351
 70
   192
  0
VERTEX
  5
1500
  8
0
 10
-0.0380602337443566
 20
-23.73570477433445
 30
9.831650830013155
 70
   192
  0
VERTEX
  5
1501
  8
0
 10
-0.0380602337443566
 20
-9.831650830013151
 30
23.73570477433445
 70
   192
  0
VERTEX
  5
1502
  8
0
 10
0.0
 20
0.0000000000000071
 30
25.5
 70
   192
  0
VERTEX
  5
1503
  8
0
 10
-0.0380602337443566
 20
0.0000000000000017
 30
25.69134171618255
 70
   192
  0
VERTEX
  5
1504
  8
0
 10
0.0
 20
12.75000000000001
 30
22.08364779650318
 70
   192
  0
VERTEX
  5
1505
  8
0
 10
-0.0380602337443566
 20
18.16652194529351
 30
18.16652194529351
 70
   192
  0
VERTEX
  5
1506
  8
0
 10
-0.0380602337443566
 20
9.831650830013153
 30
23.73570477433445
 70
   192
  0
VERTEX
  5
1507
  8
0
 10
-0.1464466094067262
 20
-18.28122292025696
 30
18.28122292025697
 70
   192
  0
VERTEX
  5
1508
  8
0
 10
-0.1464466094067262
 20
-23.88556882025691
 30
9.89372655034634
 70
   192
  0
VERTEX
  5
1509
  8
0
 10
-0.1464466094067262
 20
0.0000000000000017
 30
25.85355339059327
 70
   192
  0
VERTEX
  5
150A
  8
0
 10
-0.1464466094067262
 20
-9.893726550346337
 30
23.88556882025691
 70
   192
  0
VERTEX
  5
150B
  8
0
 10
-0.1464466094067262
 20
18.28122292025697
 30
18.28122292025696
 70
   192
  0
VERTEX
  5
150C
  8
0
 10
-0.1464466094067262
 20
9.893726550346338
 30
23.88556882025691
 70
   192
  0
VERTEX
  5
150D
  8
0
 10
-0.0669872981077803
 20
25.75
 30
0.0
 70
   192
  0
VERTEX
  5
150E
  8
0
 10
-0.1464466094067262
 20
23.88556882025691
 30
9.893726550346338
 70
   192
  0
VERTEX
  5
150F
  8
0
 10
-0.0380602337443566
 20
23.73570477433445
 30
9.831650830013153
 70
   192
  0
VERTEX
  5
1510
  8
0
 10
-0.3086582838174551
 20
-18.35786366147606
 30
18.35786366147606
 70
   192
  0
VERTEX
  5
1511
  8
0
 10
-0.3086582838174551
 20
-23.98570477433445
 30
9.935204220606428
 70
   192
  0
VERTEX
  5
1512
  8
0
 10
-0.2499999999999997
 20
-25.93301270189222
 30
0.0
 70
   192
  0
VERTEX
  5
1513
  8
0
 10
-0.3086582838174551
 20
0.0000000000000017
 30
25.96193976625564
 70
   192
  0
VERTEX
  5
1514
  8
0
 10
-0.3086582838174551
 20
-9.935204220606424
 30
23.98570477433445
 70
   192
  0
VERTEX
  5
1515
  8
0
 10
-0.3086582838174551
 20
18.35786366147606
 30
18.35786366147606
 70
   192
  0
VERTEX
  5
1516
  8
0
 10
-0.3086582838174551
 20
9.935204220606426
 30
23.98570477433445
 70
   192
  0
VERTEX
  5
1517
  8
0
 10
-0.3086582838174551
 20
23.98570477433445
 30
9.935204220606426
 70
   192
  0
VERTEX
  5
1518
  8
0
 10
-0.5
 20
-12.99999999999999
 30
22.51666049839541
 70
   192
  0
VERTEX
  5
1519
  8
0
 10
-0.5
 20
0.0000000000000072
 30
26.0
 70
   192
  0
VERTEX
  5
151A
  8
0
 10
-0.5
 20
22.51666049839541
 30
13.0
 70
   192
  0
VERTEX
  5
151B
  8
0
 10
-0.0669872981077803
 20
-25.75
 30
0.0
 70
   192
  0
VERTEX
  5
151C
  8
0
 10
-0.2499999999999997
 20
25.93301270189222
 30
0.0
 70
   192
  0
VERTEX
  5
151D
  8
0
 10
-0.5
 20
-26.0
 30
0.0000000000000144
 70
   192
  0
VERTEX
  5
151E
  8
0
 10
-0.4999999999999999
 20
26.0
 30
0.0
 70
   192
  0
VERTEX
  5
151F
  8
0
 10
0.0
 20
25.5
 30
0.0
 70
   192
  0
VERTEX
  5
1520
  8
0
 10
0.0
 20
-12.74999999999999
 30
22.08364779650319
 70
   192
  0
VERTEX
  5
1521
  8
0
 10
0.0000000000000004
 20
-25.5
 30
0.0
 70
   192
  0
VERTEX
  5
1522
  8
0
 10
0.0
 20
22.08364779650319
 30
12.75
 70
   192
  0
VERTEX
  5
1523
  8
0
 10
-0.5
 20
-22.5166604983954
 30
13.00000000000001
 70
   192
  0
VERTEX
  5
1524
  8
0
 10
-0.5
 20
13.00000000000001
 30
22.5166604983954
 70
   192
  0
VERTEX
  5
1525
  8
0
 10
0.0
 20
0.0
 30
0.0
 70
   128
 71
     1
 72
     2
 73
     3
  0
VERTEX
  5
1526
  8
0
 10
0.0
 20
0.0
 30
0.0
 70
   128
 71
     4
 72
     5
 73
     6
  0
VERTEX
  5
1527
  8
0
 10
0.0
 20
0.0
 30
0.0
 70
   128
 71
     7
 72
     8
 73
     9
  0
VERTEX
  5
1528
  8
0
 10
0.0
 20
0.0
 30
0.0
 70
   128
 71
    10
 72
    11
 73
    -3
  0
VERTEX
  5
1529
  8
0
 10
0.0
 20
0.0
 30
0.0
 70
   128
 71
   -10
 72
     3
 73
     2
  0
VERTEX
  5
152A
  8
0
 10
0.0
 20
0.0
 30
0.0
 70
   128
 71
    12
 72
    13
 73
    -4
  0
VERTEX
  5
152B
  8
0
 10
0.0
 20
0.0
 30
0.0
 70
   128
 71
   -12
 72
     4
 73
     6
  0
VERTEX
  5
152C
  8
0
 10
0.0
 20
0.0
 30
0.0
 70
   128
 71
    13
 72
    10
 73
    -2
  0
VERTEX
  5
152D
  8
0
 10
0.0
 20
0.0
 30
0.0
 70
   128
 71
   -13
 72
     2
 73
     4
  0
VERTEX
  5
152E
  8
0
 10
0.0
 20
0.0
 30
0.0
 70
   128
 71
    14
 72
    15
 73
    -9
  0
VERTEX
  5
152F
  8
0
 10
0.0
 20
0.0
 30
0.0
 70
   128
 71
   -14
 72
     9
 73
     8
  0
VERTEX
  5
1530
  8
0
 10
0.0
 20
0.0
 30
0.0
 70
   128
 71
    15
 72
    12
 73
    -6
  0
VERTEX
  5
1531
  8
0
 10
0.0
 20
0.0
 30
0.0
 70
   128
 71
   -15
 72
     6
 73
     9
  0
VERTEX
  5
1532
  8
0
 10
0.0
 20
0.0
 30
0.0
 70
   128
 71
    16
 72
    17
 73
    18
  0
VERTEX
  5
1533
  8
0
 10
0.0
 20
0.0
 30
0.0
 70
   128
 71
    17
 72
    14
 73
    -8
  0
VERTEX
  5
1534
  8
0
 10
0.0
 20
0.0
 30
0.0
 70
   128
 71
   -17
 72
     8
 73
    18
  0
VERTEX
  5
1535
  8
0
 10
0.0
 20
0.0
 30
0.0
 70
   128
 71
    19
 72
    20
 73
   -11
  0
VERTEX
  5
1536
  8
0
 10
0.0
 20
0.0
 30
0.0
 70
   128
 71
   -19
 72
    11
 73
    10
  0
VERTEX
  5
1537
  8
0
 10
0.0
 20
0.0
 30
0.0
 70
   128
 71
    21
 72
    11
 73
    20
  0
VERTEX
  5
1538
  8
0
 10
0.0
 20
0.0
 30
0.0
 70
   128
 71
    22
 72
    23
 73
   -13
  0
VERTEX
  5
1539
  8
0
 10
0.0
 20
0.0
 30
0.0
 70
   128
 71
   -22
 72
    13
 73
    12
  0
VERTEX
  5
153A
  8
0
 10
0.0
 20
0.0
 30
0.0
 70
   128
 71
    23
 72
    19
 73
   -10
  0
VERTEX
  5
153B
  8
0
 10
0.0
 20
0.0
 30
0.0
 70
   128
 71
   -23
 72
    10
 73
    13
  0
VERTEX
  5
153C
  8
0
 10
0.0
 20
0.0
 30
0.0
 70
   128
 71
    24
 72
    25
 73
   -15
  0
VERTEX
  5
153D
  8
0
 10
0.0
 20
0.0
 30
0.0
 70
   128
 71
   -24
 72
    15
 73
    14
  0
VERTEX
  5
153E
  8
0
 10
0.0
 20
0.0
 30
0.0
 70
   128
 71
    25
 72
    22
 73
   -12
  0
VERTEX
  5
153F
  8
0
 10
0.0
 20
0.0
 30
0.0
 70
   128
 71
   -25
 72
    12
 73
    15
  0
VERTEX
  5
1540
  8
0
 10
0.0
 20
0.0
 30
0.0
 70
   128
 71
    26
 72
    24
 73
   -14
  0
VERTEX
  5
1541
  8
0
 10
0.0
 20
0.0
 30
0.0
 70
   128
 71
   -26
 72
    14
 73
    17
  0
VERTEX
  5
1542
  8
0
 10
0.0
 20
0.0
 30
0.0
 70
   128
 71
    27
 72
    19
 73
    23
  0
VERTEX
  5
1543
  8
0
 10
0.0
 20
0.0
 30
0.0
 70
   128
 71
    25
 72
    28
 73
    22
  0
VERTEX
  5
1544
  8
0
 10
0.0
 20
0.0
 30
0.0
 70
   128
 71
    29
 72
    24
 73
    26
  0
VERTEX
  5
1545
  8
0
 10
0.0
 20
0.0
 30
0.0
 70
   128
 71
     3
 72
    11
 73
    21
  0
VERTEX
  5
1546
  8
0
 10
0.0
 20
0.0
 30
0.0
 70
   128
 71
     3
 72
    21
 73
    30
  0
VERTEX
  5
1547
  8
0
 10
0.0
 20
0.0
 30
0.0
 70
   128
 71
    31
 72
    26
 73
    17
  0
VERTEX
  5
1548
  8
0
 10
0.0
 20
0.0
 30
0.0
 70
   128
 71
    31
 72
    17
 73
    16
  0
VERTEX
  5
1549
  8
0
 10
0.0
 20
0.0
 30
0.0
 70
   128
 71
    20
 72
    32
 73
    21
  0
VERTEX
  5
154A
  8
0
 10
0.0
 20
0.0
 30
0.0
 70
   128
 71
    33
 72
    26
 73
    31
  0
VERTEX
  5
154B
  8
0
 10
0.0
 20
0.0
 30
0.0
 70
   128
 71
    16
 72
    18
 73
    34
  0
VERTEX
  5
154C
  8
0
 10
0.0
 20
0.0
 30
0.0
 70
   128
 71
    35
 72
     4
 73
     2
  0
VERTEX
  5
154D
  8
0
 10
0.0
 20
0.0
 30
0.0
 70
   128
 71
    35
 72
     2
 73
     1
  0
VERTEX
  5
154E
  8
0
 10
0.0
 20
0.0
 30
0.0
 70
   128
 71
     1
 72
     3
 73
    30
  0
VERTEX
  5
154F
  8
0
 10
0.0
 20
0.0
 30
0.0
 70
   128
 71
     1
 72
    30
 73
    36
  0
VERTEX
  5
1550
  8
0
 10
0.0
 20
0.0
 30
0.0
 70
   128
 71
     5
 72
     4
 73
    35
  0
VERTEX
  5
1551
  8
0
 10
0.0
 20
0.0
 30
0.0
 70
   128
 71
    37
 72
    18
 73
     8
  0
VERTEX
  5
1552
  8
0
 10
0.0
 20
0.0
 30
0.0
 70
   128
 71
    37
 72
     8
 73
     7
  0
VERTEX
  5
1553
  8
0
 10
0.0
 20
0.0
 30
0.0
 70
   128
 71
     7
 72
     9
 73
     6
  0
VERTEX
  5
1554
  8
0
 10
0.0
 20
0.0
 30
0.0
 70
   128
 71
     7
 72
     6
 73
     5
  0
VERTEX
  5
1555
  8
0
 10
0.0
 20
0.0
 30
0.0
 70
   128
 71
    34
 72
    18
 73
    37
  0
VERTEX
  5
1556
  8
0
 10
0.0
 20
0.0
 30
0.0
 70
   128
 71
    27
 72
    38
 73
    20
  0
VERTEX
  5
1557
  8
0
 10
0.0
 20
0.0
 30
0.0
 70
   128
 71
    27
 72
    20
 73
    19
  0
VERTEX
  5
1558
  8
0
 10
0.0
 20
0.0
 30
0.0
 70
   128
 71
    38
 72
    32
 73
    20
  0
VERTEX
  5
1559
  8
0
 10
0.0
 20
0.0
 30
0.0
 70
   128
 71
    22
 72
    28
 73
    27
  0
VERTEX
  5
155A
  8
0
 10
0.0
 20
0.0
 30
0.0
 70
   128
 71
    22
 72
    27
 73
    23
  0
VERTEX
  5
155B
  8
0
 10
0.0
 20
0.0
 30
0.0
 70
   128
 71
    29
 72
    39
 73
    25
  0
VERTEX
  5
155C
  8
0
 10
0.0
 20
0.0
 30
0.0
 70
   128
 71
    29
 72
    25
 73
    24
  0
VERTEX
  5
155D
  8
0
 10
0.0
 20
0.0
 30
0.0
 70
   128
 71
    39
 72
    28
 73
    25
  0
VERTEX
  5
155E
  8
0
 10
0.0
 20
0.0
 30
0.0
 70
   128
 71
    33
 72
    29
 73
    26
  0
SEQEND
  5
174A
  8
0
  0
POLYLINE
  5
155F
  8
0
 66
     1
 10
0.0
 20
0.0
 30
0.0
 70
    64
 71
    14
 72
    12
  0
VERTEX
  5
1560
  8
0
 10
-0.5
 20
22.51666049839541
 30
13.0
 70
   192
  0
VERTEX
  5
1561
  8
0
 10
-8.0
 20
22.51666049839541
 30
13.0
 70
   192
  0
VERTEX
  5
1562
  8
0
 10
-8.0
 20
13.00000000000001
 30
22.5166604983954
 70
   192
  0
VERTEX
  5
1563
  8
0
 10
-0.5
 20
13.00000000000001
 30
22.5166604983954
 70
   192
  0
VERTEX
  5
1564
  8
0
 10
-0.5
 20
-12.99999999999999
 30
22.51666049839541
 70
   192
  0
VERTEX
  5
1565
  8
0
 10
-8.0
 20
-12.99999999999999
 30
22.51666049839541
 70
   192
  0
VERTEX
  5
1566
  8
0
 10
-8.0
 20
-22.5166604983954
 30
13.00000000000001
 70
   192
  0
VERTEX
  5
1567
  8
0
 10
-0.5
 20
-22.5166604983954
 30
13.00000000000001
 70
   192
  0
VERTEX
  5
1568
  8
0
 10
-8.0
 20
-26.0
 30
0.0000000000000144
 70
   192
  0
VERTEX
  5
1569
  8
0
 10
-0.5
 20
-26.0
 30
0.0000000000000816
 70
   192
  0
VERTEX
  5
156A
  8
0
 10
-0.5
 20
0.0000000000000072
 30
26.0
 70
   192
  0
VERTEX
  5
156B
  8
0
 10
-8.0
 20
0.0000000000000072
 30
26.0
 70
   192
  0
VERTEX
  5
156C
  8
0
 10
-0.5
 20
26.0
 30
0.0
 70
   192
  0
VERTEX
  5
156D
  8
0
 10
-8.0
 20
26.0
 30
0.0
 70
   192
  0
VERTEX
  5
156E
  8
0
 10
0.0
 20
0.0
 30
0.0
 70
   128
 71
     1
 72
     2
 73
    -3
  0
VERTEX
  5
156F
  8
0
 10
0.0
 20
0.0
 30
0.0
 70
   128
 71
    -1
 72
     3
 73
     4
  0
VERTEX
  5
1570
  8
0
 10
0.0
 20
0.0
 30
0.0
 70
   128
 71
     5
 72
     6
 73
    -7
  0
VERTEX
  5
1571
  8
0
 10
0.0
 20
0.0
 30
0.0
 70
   128
 71
    -5
 72
     7
 73
     8
  0
VERTEX
  5
1572
  8
0
 10
0.0
 20
0.0
 30
0.0
 70
   128
 71
     8
 72
     7
 73
    -9
  0
VERTEX
  5
1573
  8
0
 10
0.0
 20
0.0
 30
0.0
 70
   128
 71
    -8
 72
     9
 73
    10
  0
VERTEX
  5
1574
  8
0
 10
0.0
 20
0.0
 30
0.0
 70
   128
 71
    11
 72
    12
 73
    -6
  0
VERTEX
  5
1575
  8
0
 10
0.0
 20
0.0
 30
0.0
 70
   128
 71
   -11
 72
     6
 73
     5
  0
VERTEX
  5
1576
  8
0
 10
0.0
 20
0.0
 30
0.0
 70
   128
 71
     4
 72
     3
 73
   -12
  0
VERTEX
  5
1577
  8
0
 10
0.0
 20
0.0
 30
0.0
 70
   128
 71
    -4
 72
    12
 73
    11
  0
VERTEX
  5
1578
  8
0
 10
0.0
 20
0.0
 30
0.0
 70
   128
 71
    13
 72
    14
 73
    -2
  0
VERTEX
  5
1579
  8
0
 10
0.0
 20
0.0
 30
0.0
 70
   128
 71
   -13
 72
     2
 73
     1
  0
SEQEND
  5
174B
  8
0
  0
ENDBLK
  5
173E
  8
0
  0
BLOCK
  8
0
  2
*X3
 70
     1
 10
0.0
 20
0.0
 30
0.0
  3
*X3
  1

  0
POLYLINE
  5
157B
  8
0
 66
     1
 10
0.0
 20
0.0
 30
0.0
 70
    64
 71
    31
 72
    29
  0
VERTEX
  5
157C
  8
0
 10
53.74404413353263
 20
8.661764316703074
 30
12.31095998527156
 70
   192
  0
VERTEX
  5
157D
  8
0
 10
51.09310781408127
 20
-11.04325536328003
 30
11.52917559070286
 70
   192
  0
VERTEX
  5
157E
  8
0
 10
55.73125824587311
 20
-10.55549965817857
 30
11.97386608777511
 70
   192
  0
VERTEX
  5
157F
  8
0
 10
63.53843566466084
 20
3.876010041150257
 30
8.305
 70
   192
  0
VERTEX
  5
1580
  8
0
 10
63.72823281514002
 20
12.8544643823
 30
8.305
 70
   192
  0
VERTEX
  5
1581
  8
0
 10
57.67091034485982
 20
9.222687279418107
 30
11.93494550617283
 70
   192
  0
VERTEX
  5
1582
  8
0
 10
59.30819096144872
 20
-11.55144110478909
 30
11.02420764239735
 70
   192
  0
VERTEX
  5
1583
  8
0
 10
63.16242143669001
 20
-13.65383188976
 30
8.305
 70
   192
  0
VERTEX
  5
1584
  8
0
 10
63.34985442474917
 20
-4.959470315434762
 30
8.305
 70
   192
  0
VERTEX
  5
1585
  8
0
 10
43.14620598858527
 20
-15.56419777995321
 30
-3.690824124044905
 70
   192
  0
VERTEX
  5
1586
  8
0
 10
42.07679508712
 20
15.50859270115
 30
-0.0000000000013356
 70
   192
  0
VERTEX
  5
1587
  8
0
 10
42.71339067991505
 20
14.96408751685951
 30
-3.901864844709541
 70
   192
  0
VERTEX
  5
1588
  8
0
 10
63.53844712988334
 20
3.876549833210511
 30
-8.305
 70
   192
  0
VERTEX
  5
1589
  8
0
 10
63.34986592388668
 20
-4.958934209719258
 30
-8.305
 70
   192
  0
VERTEX
  5
158A
  8
0
 10
61.09519635885813
 20
-12.41936112284705
 30
-10.04478603066715
 70
   192
  0
VERTEX
  5
158B
  8
0
 10
57.92736236490738
 20
-11.03749816292881
 30
-11.53452949512606
 70
   192
  0
VERTEX
  5
158C
  8
0
 10
57.66576255682401
 20
9.220099290672731
 30
-11.93626193601485
 70
   192
  0
VERTEX
  5
158D
  8
0
 10
63.72823215698
 20
12.85443310122
 30
-8.305
 70
   192
  0
VERTEX
  5
158E
  8
0
 10
63.16242103593
 20
-13.65385038458
 30
-8.305
 70
   192
  0
VERTEX
  5
158F
  8
0
 10
50.0156923103305
 20
9.80071242609237
 30
11.50300151718729
 70
   192
  0
VERTEX
  5
1590
  8
0
 10
46.91173023571572
 20
-13.00819087598052
 30
9.276289902533797
 70
   192
  0
VERTEX
  5
1591
  8
0
 10
42.56910464253
 20
-15.99921884535
 30
-0.0000000000000834
 70
   192
  0
VERTEX
  5
1592
  8
0
 10
44.09402509627699
 20
-14.87097233238388
 30
5.877233670229116
 70
   192
  0
VERTEX
  5
1593
  8
0
 10
42.72049622914601
 20
14.9549336706586
 30
3.922845174346201
 70
   192
  0
VERTEX
  5
1594
  8
0
 10
44.44587563878564
 20
13.53410134335425
 30
7.250819183901492
 70
   192
  0
VERTEX
  5
1595
  8
0
 10
52.24935750199995
 20
-10.73285459296327
 30
-11.81627251332695
 70
   192
  0
VERTEX
  5
1596
  8
0
 10
48.26203463731147
 20
-12.24945631294383
 30
-10.24965267140551
 70
   192
  0
VERTEX
  5
1597
  8
0
 10
50.0072356351519
 20
9.803011350370227
 30
-11.49972573423005
 70
   192
  0
VERTEX
  5
1598
  8
0
 10
53.7381422252194
 20
8.662597531931882
 30
-12.31060004100448
 70
   192
  0
VERTEX
  5
1599
  8
0
 10
44.43084551078082
 20
13.5441880482323
 30
-7.230163286078979
 70
   192
  0
VERTEX
  5
159A
  8
0
 10
44.41982634575199
 20
-14.63955181549657
 30
-6.427698089452513
 70
   192
  0
VERTEX
  5
159B
  8
0
 10
0.0
 20
0.0
 30
0.0
 70
   128
 71
     1
 72
     2
 73
     3
  0
VERTEX
  5
159C
  8
0
 10
0.0
 20
0.0
 30
0.0
 70
   128
 71
     4
 72
     5
 73
     6
  0
VERTEX
  5
159D
  8
0
 10
0.0
 20
0.0
 30
0.0
 70
   128
 71
     7
 72
     8
 73
     9
  0
VERTEX
  5
159E
  8
0
 10
0.0
 20
0.0
 30
0.0
 70
   128
 71
    10
 72
    11
 73
    12
  0
VERTEX
  5
159F
  8
0
 10
0.0
 20
0.0
 30
0.0
 70
   128
 71
    13
 72
    14
 73
    15
  0
VERTEX
  5
15A0
  8
0
 10
0.0
 20
0.0
 30
0.0
 70
   128
 71
    13
 72
    15
 73
    16
  0
VERTEX
  5
15A1
  8
0
 10
0.0
 20
0.0
 30
0.0
 70
   128
 71
    13
 72
    16
 73
    17
  0
VERTEX
  5
15A2
  8
0
 10
0.0
 20
0.0
 30
0.0
 70
   128
 71
    17
 72
    18
 73
    13
  0
VERTEX
  5
15A3
  8
0
 10
0.0
 20
0.0
 30
0.0
 70
   128
 71
    14
 72
    19
 73
    15
  0
VERTEX
  5
15A4
  8
0
 10
0.0
 20
0.0
 30
0.0
 70
   128
 71
    20
 72
    21
 73
     2
  0
VERTEX
  5
15A5
  8
0
 10
0.0
 20
0.0
 30
0.0
 70
   128
 71
    20
 72
     2
 73
     1
  0
VERTEX
  5
15A6
  8
0
 10
0.0
 20
0.0
 30
0.0
 70
   128
 71
     1
 72
     9
 73
     4
  0
VERTEX
  5
15A7
  8
0
 10
0.0
 20
0.0
 30
0.0
 70
   128
 71
     1
 72
     4
 73
     6
  0
VERTEX
  5
15A8
  8
0
 10
0.0
 20
0.0
 30
0.0
 70
   128
 71
     1
 72
     3
 73
     7
  0
VERTEX
  5
15A9
  8
0
 10
0.0
 20
0.0
 30
0.0
 70
   128
 71
     1
 72
     7
 73
     9
  0
VERTEX
  5
15AA
  8
0
 10
0.0
 20
0.0
 30
0.0
 70
   128
 71
    10
 72
    22
 73
    23
  0
VERTEX
  5
15AB
  8
0
 10
0.0
 20
0.0
 30
0.0
 70
   128
 71
    11
 72
    10
 73
    24
  0
VERTEX
  5
15AC
  8
0
 10
0.0
 20
0.0
 30
0.0
 70
   128
 71
    24
 72
    21
 73
    20
  0
VERTEX
  5
15AD
  8
0
 10
0.0
 20
0.0
 30
0.0
 70
   128
 71
    24
 72
    20
 73
    25
  0
VERTEX
  5
15AE
  8
0
 10
0.0
 20
0.0
 30
0.0
 70
   128
 71
    24
 72
    10
 73
    23
  0
VERTEX
  5
15AF
  8
0
 10
0.0
 20
0.0
 30
0.0
 70
   128
 71
    24
 72
    23
 73
    21
  0
VERTEX
  5
15B0
  8
0
 10
0.0
 20
0.0
 30
0.0
 70
   128
 71
    26
 72
    27
 73
    28
  0
VERTEX
  5
15B1
  8
0
 10
0.0
 20
0.0
 30
0.0
 70
   128
 71
    29
 72
    26
 73
    28
  0
VERTEX
  5
15B2
  8
0
 10
0.0
 20
0.0
 30
0.0
 70
   128
 71
    30
 72
    28
 73
    27
  0
VERTEX
  5
15B3
  8
0
 10
0.0
 20
0.0
 30
0.0
 70
   128
 71
    30
 72
    10
 73
    12
  0
VERTEX
  5
15B4
  8
0
 10
0.0
 20
0.0
 30
0.0
 70
   128
 71
    30
 72
    27
 73
    31
  0
VERTEX
  5
15B5
  8
0
 10
0.0
 20
0.0
 30
0.0
 70
   128
 71
    30
 72
    31
 73
    10
  0
VERTEX
  5
15B6
  8
0
 10
0.0
 20
0.0
 30
0.0
 70
   128
 71
    17
 72
    16
 73
    26
  0
VERTEX
  5
15B7
  8
0
 10
0.0
 20
0.0
 30
0.0
 70
   128
 71
    17
 72
    26
 73
    29
  0
SEQEND
  5
174E
  8
0
  0
POLYLINE
  5
15B8
  8
0
 66
     1
 10
0.0
 20
0.0
 30
0.0
 70
    64
 71
    15
 72
    13
  0
VERTEX
  5
15B9
  8
0
 10
62.60888820397
 20
12.44051173459
 30
8.305002935252999
 70
   192
  0
VERTEX
  5
15BA
  8
0
 10
62.51755437820029
 20
12.33232243845291
 30
8.305000199213481
 70
   192
  0
VERTEX
  5
15BB
  8
0
 10
62.41859824345696
 20
12.21454692919624
 30
8.304994744784187
 70
   192
  0
VERTEX
  5
15BC
  8
0
 10
62.31201979974
 20
12.08718520682
 30
8.30498189674
 70
   192
  0
VERTEX
  5
15BD
  8
0
 10
62.11306443307334
 20
3.433598978386599
 30
8.304994636071111
 70
   192
  0
VERTEX
  5
15BE
  8
0
 10
61.91694490211334
 20
-4.977172787616735
 30
8.30499932950889
 70
   192
  0
VERTEX
  5
15BF
  8
0
 10
61.72366120686001
 20
-13.14513009119
 30
8.305
 70
   192
  0
VERTEX
  5
15C0
  8
0
 10
62.18612642053336
 20
-13.31950136501084
 30
8.305
 70
   192
  0
VERTEX
  5
15C1
  8
0
 10
62.66573393143418
 20
-13.48925288947917
 30
8.305
 70
   192
  0
VERTEX
  5
15C2
  8
0
 10
63.16242143669001
 20
-13.65383188976
 30
8.305
 70
   192
  0
VERTEX
  5
15C3
  8
0
 10
63.34985442474917
 20
-4.959470315434762
 30
8.305
 70
   192
  0
VERTEX
  5
15C4
  8
0
 10
63.53843566466084
 20
3.876010041150257
 30
8.305
 70
   192
  0
VERTEX
  5
15C5
  8
0
 10
63.72823281514002
 20
12.8544643823
 30
8.305
 70
   192
  0
VERTEX
  5
15C6
  8
0
 10
63.34769234180668
 20
12.72135997335417
 30
8.304999999999916
 70
   192
  0
VERTEX
  5
15C7
  8
0
 10
62.97453909852334
 20
12.58340072802584
 30
8.304999999999833
 70
   192
  0
VERTEX
  5
15C8
  8
0
 10
0.0
 20
0.0
 30
0.0
 70
   128
 71
    15
 72
    14
 73
   -13
  0
VERTEX
  5
15C9
  8
0
 10
0.0
 20
0.0
 30
0.0
 70
   128
 71
     8
 72
     7
 73
    -6
  0
VERTEX
  5
15CA
  8
0
 10
0.0
 20
0.0
 30
0.0
 70
   128
 71
    -8
 72
    -6
 73
   -11
  0
VERTEX
  5
15CB
  8
0
 10
0.0
 20
0.0
 30
0.0
 70
   128
 71
   -11
 72
     9
 73
    -8
  0
VERTEX
  5
15CC
  8
0
 10
0.0
 20
0.0
 30
0.0
 70
   128
 71
    11
 72
    10
 73
    -9
  0
VERTEX
  5
15CD
  8
0
 10
0.0
 20
0.0
 30
0.0
 70
   128
 71
     6
 72
    -5
 73
   -12
  0
VERTEX
  5
15CE
  8
0
 10
0.0
 20
0.0
 30
0.0
 70
   128
 71
    -6
 72
    12
 73
   -11
  0
VERTEX
  5
15CF
  8
0
 10
0.0
 20
0.0
 30
0.0
 70
   128
 71
   -15
 72
   -13
 73
    -2
  0
VERTEX
  5
15D0
  8
0
 10
0.0
 20
0.0
 30
0.0
 70
   128
 71
     2
 72
     1
 73
   -15
  0
VERTEX
  5
15D1
  8
0
 10
0.0
 20
0.0
 30
0.0
 70
   128
 71
   -13
 72
     3
 73
    -2
  0
VERTEX
  5
15D2
  8
0
 10
0.0
 20
0.0
 30
0.0
 70
   128
 71
    13
 72
   -12
 73
    -5
  0
VERTEX
  5
15D3
  8
0
 10
0.0
 20
0.0
 30
0.0
 70
   128
 71
   -13
 72
     5
 73
    -4
  0
VERTEX
  5
15D4
  8
0
 10
0.0
 20
0.0
 30
0.0
 70
   128
 71
   -13
 72
     4
 73
    -3
  0
SEQEND
  5
174F
  8
0
  0
POLYLINE
  5
15D5
  8
0
 66
     1
 10
0.0
 20
0.0
 30
0.0
 70
    64
 71
    22
 72
    20
  0
VERTEX
  5
15D6
  8
0
 10
56.15419171283387
 20
8.6363629881326
 30
11.21626236504138
 70
   192
  0
VERTEX
  5
15D7
  8
0
 10
53.64017717245752
 20
8.49534294296173
 30
11.29847603504506
 70
   192
  0
VERTEX
  5
15D8
  8
0
 10
53.76488306152315
 20
8.677321364351403
 30
11.51069511206403
 70
   192
  0
VERTEX
  5
15D9
  8
0
 10
56.29122931037993
 20
8.864120533323664
 30
11.40122490581436
 70
   192
  0
VERTEX
  5
15DA
  8
0
 10
51.01627332191379
 20
9.466101738437949
 30
11.00327457192476
 70
   192
  0
VERTEX
  5
15DB
  8
0
 10
62.41859824345696
 20
12.21454692919624
 30
8.304994744784187
 70
   192
  0
VERTEX
  5
15DC
  8
0
 10
62.31201979974
 20
12.08718520682
 30
8.30498189674
 70
   192
  0
VERTEX
  5
15DD
  8
0
 10
59.10795735287203
 20
9.837677493285565
 30
10.38491172482701
 70
   192
  0
VERTEX
  5
15DE
  8
0
 10
59.31235806941553
 20
10.12998577185013
 30
10.51708243137996
 70
   192
  0
VERTEX
  5
15DF
  8
0
 10
62.60888820397
 20
12.44051173459
 30
8.305002935252999
 70
   192
  0
VERTEX
  5
15E0
  8
0
 10
62.51755437820029
 20
12.33232243845291
 30
8.305000199213481
 70
   192
  0
VERTEX
  5
15E1
  8
0
 10
45.00775101810616
 20
13.54876336843185
 30
6.305394103947123
 70
   192
  0
VERTEX
  5
15E2
  8
0
 10
43.53009066261745
 20
14.89366565450275
 30
3.153640062001807
 70
   192
  0
VERTEX
  5
15E3
  8
0
 10
43.3578561986434
 20
15.07621250150027
 30
3.287104861105932
 70
   192
  0
VERTEX
  5
15E4
  8
0
 10
44.92882818588204
 20
13.68981162573658
 30
6.549648210926904
 70
   192
  0
VERTEX
  5
15E5
  8
0
 10
42.9444466580537
 20
15.45551712409584
 30
-0.0002646410933526
 70
   192
  0
VERTEX
  5
15E6
  8
0
 10
42.87671030448001
 20
15.52110439073
 30
0.0000004055068497
 70
   192
  0
VERTEX
  5
15E7
  8
0
 10
43.01214939043084
 20
15.38989518138044
 30
-0.0005330669038206
 70
   192
  0
VERTEX
  5
15E8
  8
0
 10
43.07981659614001
 20
15.32423659673
 30
-0.000804882589273
 70
   192
  0
VERTEX
  5
15E9
  8
0
 10
50.89432553114943
 20
9.336796944158012
 30
10.75114812173013
 70
   192
  0
VERTEX
  5
15EA
  8
0
 10
47.79910183830347
 20
11.25536060081317
 30
9.178718266986268
 70
   192
  0
VERTEX
  5
15EB
  8
0
 10
47.8530392183994
 20
11.35854687172705
 30
9.465321341257582
 70
   192
  0
VERTEX
  5
15EC
  8
0
 10
0.0
 20
0.0
 30
0.0
 70
   128
 71
     1
 72
     2
 73
     3
  0
VERTEX
  5
15ED
  8
0
 10
0.0
 20
0.0
 30
0.0
 70
   128
 71
     1
 72
     3
 73
     4
  0
VERTEX
  5
15EE
  8
0
 10
0.0
 20
0.0
 30
0.0
 70
   128
 71
     2
 72
     5
 73
     3
  0
VERTEX
  5
15EF
  8
0
 10
0.0
 20
0.0
 30
0.0
 70
   128
 71
     6
 72
     7
 73
     8
  0
VERTEX
  5
15F0
  8
0
 10
0.0
 20
0.0
 30
0.0
 70
   128
 71
     9
 72
    10
 73
    11
  0
VERTEX
  5
15F1
  8
0
 10
0.0
 20
0.0
 30
0.0
 70
   128
 71
    11
 72
     4
 73
     9
  0
VERTEX
  5
15F2
  8
0
 10
0.0
 20
0.0
 30
0.0
 70
   128
 71
    12
 72
    13
 73
    14
  0
VERTEX
  5
15F3
  8
0
 10
0.0
 20
0.0
 30
0.0
 70
   128
 71
    12
 72
    14
 73
    15
  0
VERTEX
  5
15F4
  8
0
 10
0.0
 20
0.0
 30
0.0
 70
   128
 71
    16
 72
    17
 73
    14
  0
VERTEX
  5
15F5
  8
0
 10
0.0
 20
0.0
 30
0.0
 70
   128
 71
    14
 72
    13
 73
    18
  0
VERTEX
  5
15F6
  8
0
 10
0.0
 20
0.0
 30
0.0
 70
   128
 71
    14
 72
    18
 73
    16
  0
VERTEX
  5
15F7
  8
0
 10
0.0
 20
0.0
 30
0.0
 70
   128
 71
    13
 72
    19
 73
    18
  0
VERTEX
  5
15F8
  8
0
 10
0.0
 20
0.0
 30
0.0
 70
   128
 71
    20
 72
    21
 73
    22
  0
VERTEX
  5
15F9
  8
0
 10
0.0
 20
0.0
 30
0.0
 70
   128
 71
    20
 72
    22
 73
     5
  0
VERTEX
  5
15FA
  8
0
 10
0.0
 20
0.0
 30
0.0
 70
   128
 71
    21
 72
    15
 73
    22
  0
VERTEX
  5
15FB
  8
0
 10
0.0
 20
0.0
 30
0.0
 70
   128
 71
     2
 72
    20
 73
     5
  0
VERTEX
  5
15FC
  8
0
 10
0.0
 20
0.0
 30
0.0
 70
   128
 71
     8
 72
     1
 73
     4
  0
VERTEX
  5
15FD
  8
0
 10
0.0
 20
0.0
 30
0.0
 70
   128
 71
     8
 72
     4
 73
    11
  0
VERTEX
  5
15FE
  8
0
 10
0.0
 20
0.0
 30
0.0
 70
   128
 71
     8
 72
    11
 73
     6
  0
VERTEX
  5
15FF
  8
0
 10
0.0
 20
0.0
 30
0.0
 70
   128
 71
    21
 72
    12
 73
    15
  0
SEQEND
  5
1750
  8
0
  0
POLYLINE
  5
1600
  8
0
 66
     1
 10
0.0
 20
0.0
 30
0.0
 70
    64
 71
    20
 72
    18
  0
VERTEX
  5
1601
  8
0
 10
47.8530392183994
 20
11.35854687172705
 30
9.465321341257582
 70
   192
  0
VERTEX
  5
1602
  8
0
 10
44.44587563878564
 20
13.53410134335425
 30
7.250819183901492
 70
   192
  0
VERTEX
  5
1603
  8
0
 10
50.0156923103305
 20
9.80071242609237
 30
11.50300151718729
 70
   192
  0
VERTEX
  5
1604
  8
0
 10
42.34343355313178
 20
15.51275940993009
 30
0.0000001766614869
 70
   192
  0
VERTEX
  5
1605
  8
0
 10
42.07679508712
 20
15.50859270115
 30
-0.0000000000013356
 70
   192
  0
VERTEX
  5
1606
  8
0
 10
42.72049622914601
 20
14.9549336706586
 30
3.922845174346201
 70
   192
  0
VERTEX
  5
1607
  8
0
 10
43.3578561986434
 20
15.07621250150027
 30
3.287104861105932
 70
   192
  0
VERTEX
  5
1608
  8
0
 10
42.61007197397777
 20
15.51692900933531
 30
0.000000280604612
 70
   192
  0
VERTEX
  5
1609
  8
0
 10
42.87671030448001
 20
15.52110439073
 30
0.0000004055068497
 70
   192
  0
VERTEX
  5
160A
  8
0
 10
44.92882818588204
 20
13.68981162573658
 30
6.549648210926904
 70
   192
  0
VERTEX
  5
160B
  8
0
 10
62.97453909852334
 20
12.58340072802584
 30
8.304999999999833
 70
   192
  0
VERTEX
  5
160C
  8
0
 10
62.60888820397
 20
12.44051173459
 30
8.305002935252999
 70
   192
  0
VERTEX
  5
160D
  8
0
 10
59.31235806941553
 20
10.12998577185013
 30
10.51708243137996
 70
   192
  0
VERTEX
  5
160E
  8
0
 10
57.67091034485982
 20
9.222687279418107
 30
11.93494550617283
 70
   192
  0
VERTEX
  5
160F
  8
0
 10
63.34769234180668
 20
12.72135997335417
 30
8.304999999999916
 70
   192
  0
VERTEX
  5
1610
  8
0
 10
63.72823281514002
 20
12.8544643823
 30
8.305
 70
   192
  0
VERTEX
  5
1611
  8
0
 10
53.74404413353263
 20
8.661764316703074
 30
12.31095998527156
 70
   192
  0
VERTEX
  5
1612
  8
0
 10
53.76488306152315
 20
8.677321364351403
 30
11.51069511206403
 70
   192
  0
VERTEX
  5
1613
  8
0
 10
51.01627332191379
 20
9.466101738437949
 30
11.00327457192476
 70
   192
  0
VERTEX
  5
1614
  8
0
 10
56.29122931037993
 20
8.864120533323664
 30
11.40122490581436
 70
   192
  0
VERTEX
  5
1615
  8
0
 10
0.0
 20
0.0
 30
0.0
 70
   128
 71
     1
 72
     2
 73
     3
  0
VERTEX
  5
1616
  8
0
 10
0.0
 20
0.0
 30
0.0
 70
   128
 71
     4
 72
     5
 73
     6
  0
VERTEX
  5
1617
  8
0
 10
0.0
 20
0.0
 30
0.0
 70
   128
 71
     6
 72
     7
 73
     8
  0
VERTEX
  5
1618
  8
0
 10
0.0
 20
0.0
 30
0.0
 70
   128
 71
     6
 72
     8
 73
     4
  0
VERTEX
  5
1619
  8
0
 10
0.0
 20
0.0
 30
0.0
 70
   128
 71
     7
 72
     9
 73
     8
  0
VERTEX
  5
161A
  8
0
 10
0.0
 20
0.0
 30
0.0
 70
   128
 71
     6
 72
     2
 73
    10
  0
VERTEX
  5
161B
  8
0
 10
0.0
 20
0.0
 30
0.0
 70
   128
 71
     6
 72
    10
 73
     7
  0
VERTEX
  5
161C
  8
0
 10
0.0
 20
0.0
 30
0.0
 70
   128
 71
    11
 72
    12
 73
    13
  0
VERTEX
  5
161D
  8
0
 10
0.0
 20
0.0
 30
0.0
 70
   128
 71
    13
 72
    14
 73
    15
  0
VERTEX
  5
161E
  8
0
 10
0.0
 20
0.0
 30
0.0
 70
   128
 71
    13
 72
    15
 73
    11
  0
VERTEX
  5
161F
  8
0
 10
0.0
 20
0.0
 30
0.0
 70
   128
 71
    14
 72
    16
 73
    15
  0
VERTEX
  5
1620
  8
0
 10
0.0
 20
0.0
 30
0.0
 70
   128
 71
     3
 72
    17
 73
    18
  0
VERTEX
  5
1621
  8
0
 10
0.0
 20
0.0
 30
0.0
 70
   128
 71
     3
 72
    18
 73
    19
  0
VERTEX
  5
1622
  8
0
 10
0.0
 20
0.0
 30
0.0
 70
   128
 71
    20
 72
    18
 73
    17
  0
VERTEX
  5
1623
  8
0
 10
0.0
 20
0.0
 30
0.0
 70
   128
 71
    20
 72
    17
 73
    14
  0
VERTEX
  5
1624
  8
0
 10
0.0
 20
0.0
 30
0.0
 70
   128
 71
     1
 72
     3
 73
    19
  0
VERTEX
  5
1625
  8
0
 10
0.0
 20
0.0
 30
0.0
 70
   128
 71
     2
 72
     1
 73
    10
  0
VERTEX
  5
1626
  8
0
 10
0.0
 20
0.0
 30
0.0
 70
   128
 71
    20
 72
    14
 73
    13
  0
SEQEND
  5
1751
  8
0
  0
POLYLINE
  5
1627
  8
0
 66
     1
 10
0.0
 20
0.0
 30
0.0
 70
    64
 71
    20
 72
    18
  0
VERTEX
  5
1628
  8
0
 10
51.02566958522533
 20
9.461422897348601
 30
-11.00627160307953
 70
   192
  0
VERTEX
  5
1629
  8
0
 10
53.769705460688
 20
8.67715136679777
 30
-11.51108091763796
 70
   192
  0
VERTEX
  5
162A
  8
0
 10
53.7381422252194
 20
8.662597531931882
 30
-12.31060004100448
 70
   192
  0
VERTEX
  5
162B
  8
0
 10
50.0072356351519
 20
9.803011350370227
 30
-11.49972573423005
 70
   192
  0
VERTEX
  5
162C
  8
0
 10
63.3476890963325
 20
12.72118851279833
 30
-8.304999999999835
 70
   192
  0
VERTEX
  5
162D
  8
0
 10
63.72823215698
 20
12.85443310122
 30
-8.305
 70
   192
  0
VERTEX
  5
162E
  8
0
 10
57.66576255682401
 20
9.220099290672731
 30
-11.93626193601485
 70
   192
  0
VERTEX
  5
162F
  8
0
 10
59.31529608096994
 20
10.13201482287177
 30
-10.51580150664022
 70
   192
  0
VERTEX
  5
1630
  8
0
 10
62.97453113473252
 20
12.58311557029667
 30
-8.305000000000168
 70
   192
  0
VERTEX
  5
1631
  8
0
 10
62.60887848501
 20
12.44014770326
 30
-8.305002617398001
 70
   192
  0
VERTEX
  5
1632
  8
0
 10
42.61007197397777
 20
15.51692900933531
 30
0.000000280604612
 70
   192
  0
VERTEX
  5
1633
  8
0
 10
42.87671030448001
 20
15.52110439073
 30
0.0000004055068497
 70
   192
  0
VERTEX
  5
1634
  8
0
 10
43.35798524656472
 20
15.08113048616376
 30
-3.288937990041761
 70
   192
  0
VERTEX
  5
1635
  8
0
 10
42.71339067991505
 20
14.96408751685951
 30
-3.901864844709541
 70
   192
  0
VERTEX
  5
1636
  8
0
 10
42.34343355313178
 20
15.51275940993009
 30
0.0000001766614869
 70
   192
  0
VERTEX
  5
1637
  8
0
 10
42.07679508712
 20
15.50859270115
 30
-0.0000000000013356
 70
   192
  0
VERTEX
  5
1638
  8
0
 10
56.29978571732107
 20
8.864526664736388
 30
-11.39995209052316
 70
   192
  0
VERTEX
  5
1639
  8
0
 10
47.87171157655695
 20
11.34553658763622
 30
-9.478332151345931
 70
   192
  0
VERTEX
  5
163A
  8
0
 10
44.43084551078082
 20
13.5441880482323
 30
-7.230163286078979
 70
   192
  0
VERTEX
  5
163B
  8
0
 10
44.94452561751456
 20
13.67391071397285
 30
-6.572500307135325
 70
   192
  0
VERTEX
  5
163C
  8
0
 10
0.0
 20
0.0
 30
0.0
 70
   128
 71
     1
 72
     2
 73
     3
  0
VERTEX
  5
163D
  8
0
 10
0.0
 20
0.0
 30
0.0
 70
   128
 71
     1
 72
     3
 73
     4
  0
VERTEX
  5
163E
  8
0
 10
0.0
 20
0.0
 30
0.0
 70
   128
 71
     5
 72
     6
 73
     7
  0
VERTEX
  5
163F
  8
0
 10
0.0
 20
0.0
 30
0.0
 70
   128
 71
     7
 72
     8
 73
     9
  0
VERTEX
  5
1640
  8
0
 10
0.0
 20
0.0
 30
0.0
 70
   128
 71
     7
 72
     9
 73
     5
  0
VERTEX
  5
1641
  8
0
 10
0.0
 20
0.0
 30
0.0
 70
   128
 71
     8
 72
    10
 73
     9
  0
VERTEX
  5
1642
  8
0
 10
0.0
 20
0.0
 30
0.0
 70
   128
 71
    11
 72
    12
 73
    13
  0
VERTEX
  5
1643
  8
0
 10
0.0
 20
0.0
 30
0.0
 70
   128
 71
    13
 72
    14
 73
    15
  0
VERTEX
  5
1644
  8
0
 10
0.0
 20
0.0
 30
0.0
 70
   128
 71
    13
 72
    15
 73
    11
  0
VERTEX
  5
1645
  8
0
 10
0.0
 20
0.0
 30
0.0
 70
   128
 71
    14
 72
    16
 73
    15
  0
VERTEX
  5
1646
  8
0
 10
0.0
 20
0.0
 30
0.0
 70
   128
 71
     7
 72
     3
 73
     2
  0
VERTEX
  5
1647
  8
0
 10
0.0
 20
0.0
 30
0.0
 70
   128
 71
     7
 72
     2
 73
    17
  0
VERTEX
  5
1648
  8
0
 10
0.0
 20
0.0
 30
0.0
 70
   128
 71
     4
 72
    18
 73
     1
  0
VERTEX
  5
1649
  8
0
 10
0.0
 20
0.0
 30
0.0
 70
   128
 71
    19
 72
    18
 73
     4
  0
VERTEX
  5
164A
  8
0
 10
0.0
 20
0.0
 30
0.0
 70
   128
 71
     7
 72
    17
 73
     8
  0
VERTEX
  5
164B
  8
0
 10
0.0
 20
0.0
 30
0.0
 70
   128
 71
    19
 72
    14
 73
    13
  0
VERTEX
  5
164C
  8
0
 10
0.0
 20
0.0
 30
0.0
 70
   128
 71
    19
 72
    13
 73
    20
  0
VERTEX
  5
164D
  8
0
 10
0.0
 20
0.0
 30
0.0
 70
   128
 71
    19
 72
    20
 73
    18
  0
SEQEND
  5
1752
  8
0
  0
POLYLINE
  5
164E
  8
0
 66
     1
 10
0.0
 20
0.0
 30
0.0
 70
    64
 71
    22
 72
    20
  0
VERTEX
  5
164F
  8
0
 10
51.02566958522533
 20
9.461422897348601
 30
-11.00627160307953
 70
   192
  0
VERTEX
  5
1650
  8
0
 10
47.87171157655695
 20
11.34553658763622
 30
-9.478332151345931
 70
   192
  0
VERTEX
  5
1651
  8
0
 10
47.81880355943156
 20
11.24120898602292
 30
-9.192836429308345
 70
   192
  0
VERTEX
  5
1652
  8
0
 10
50.90512868284642
 20
9.330927688784334
 30
-10.75468765102286
 70
   192
  0
VERTEX
  5
1653
  8
0
 10
44.94452561751456
 20
13.67391071397285
 30
-6.572500307135325
 70
   192
  0
VERTEX
  5
1654
  8
0
 10
43.35798524656472
 20
15.08113048616376
 30
-3.288937990041761
 70
   192
  0
VERTEX
  5
1655
  8
0
 10
43.53087045886458
 20
14.89819879836032
 30
-3.156612579871432
 70
   192
  0
VERTEX
  5
1656
  8
0
 10
45.02385144942642
 20
13.5319444532715
 30
-6.329139895678888
 70
   192
  0
VERTEX
  5
1657
  8
0
 10
43.01214939043084
 20
15.38989518138044
 30
-0.0005330669038206
 70
   192
  0
VERTEX
  5
1658
  8
0
 10
43.07981659614001
 20
15.32423659673
 30
-0.000804882589273
 70
   192
  0
VERTEX
  5
1659
  8
0
 10
42.9444466580537
 20
15.45551712409584
 30
-0.0002646410933526
 70
   192
  0
VERTEX
  5
165A
  8
0
 10
42.87671030448001
 20
15.52110439073
 30
0.0000004055068497
 70
   192
  0
VERTEX
  5
165B
  8
0
 10
59.31529608096994
 20
10.13201482287177
 30
-10.51580150664022
 70
   192
  0
VERTEX
  5
165C
  8
0
 10
56.29978571732107
 20
8.864526664736388
 30
-11.39995209052316
 70
   192
  0
VERTEX
  5
165D
  8
0
 10
62.51735128808777
 20
12.331707618551
 30
-8.305000120516334
 70
   192
  0
VERTEX
  5
165E
  8
0
 10
62.60887848501
 20
12.44014770326
 30
-8.305002617398001
 70
   192
  0
VERTEX
  5
165F
  8
0
 10
62.41839565413777
 20
12.21391615764767
 30
-8.304994856868666
 70
   192
  0
VERTEX
  5
1660
  8
0
 10
59.11158626814684
 20
9.840048211034743
 30
-10.38334793904566
 70
   192
  0
VERTEX
  5
1661
  8
0
 10
62.31201158316001
 20
12.08677332055
 30
-8.304982314757
 70
   192
  0
VERTEX
  5
1662
  8
0
 10
53.769705460688
 20
8.67715136679777
 30
-11.51108091763796
 70
   192
  0
VERTEX
  5
1663
  8
0
 10
53.64527940958101
 20
8.494995368873285
 30
-11.29886634337187
 70
   192
  0
VERTEX
  5
1664
  8
0
 10
56.16354400226282
 20
8.636733865395561
 30
-11.21490088430535
 70
   192
  0
VERTEX
  5
1665
  8
0
 10
0.0
 20
0.0
 30
0.0
 70
   128
 71
     1
 72
     2
 73
     3
  0
VERTEX
  5
1666
  8
0
 10
0.0
 20
0.0
 30
0.0
 70
   128
 71
     1
 72
     3
 73
     4
  0
VERTEX
  5
1667
  8
0
 10
0.0
 20
0.0
 30
0.0
 70
   128
 71
     5
 72
     6
 73
     7
  0
VERTEX
  5
1668
  8
0
 10
0.0
 20
0.0
 30
0.0
 70
   128
 71
     5
 72
     7
 73
     8
  0
VERTEX
  5
1669
  8
0
 10
0.0
 20
0.0
 30
0.0
 70
   128
 71
     9
 72
    10
 73
     7
  0
VERTEX
  5
166A
  8
0
 10
0.0
 20
0.0
 30
0.0
 70
   128
 71
     7
 72
     6
 73
    11
  0
VERTEX
  5
166B
  8
0
 10
0.0
 20
0.0
 30
0.0
 70
   128
 71
     7
 72
    11
 73
     9
  0
VERTEX
  5
166C
  8
0
 10
0.0
 20
0.0
 30
0.0
 70
   128
 71
     6
 72
    12
 73
    11
  0
VERTEX
  5
166D
  8
0
 10
0.0
 20
0.0
 30
0.0
 70
   128
 71
    13
 72
    14
 73
    15
  0
VERTEX
  5
166E
  8
0
 10
0.0
 20
0.0
 30
0.0
 70
   128
 71
    15
 72
    16
 73
    13
  0
VERTEX
  5
166F
  8
0
 10
0.0
 20
0.0
 30
0.0
 70
   128
 71
    14
 72
    17
 73
    15
  0
VERTEX
  5
1670
  8
0
 10
0.0
 20
0.0
 30
0.0
 70
   128
 71
    18
 72
    19
 73
    17
  0
VERTEX
  5
1671
  8
0
 10
0.0
 20
0.0
 30
0.0
 70
   128
 71
    14
 72
    20
 73
    21
  0
VERTEX
  5
1672
  8
0
 10
0.0
 20
0.0
 30
0.0
 70
   128
 71
    14
 72
    21
 73
    22
  0
VERTEX
  5
1673
  8
0
 10
0.0
 20
0.0
 30
0.0
 70
   128
 71
     3
 72
     2
 73
     5
  0
VERTEX
  5
1674
  8
0
 10
0.0
 20
0.0
 30
0.0
 70
   128
 71
     3
 72
     5
 73
     8
  0
VERTEX
  5
1675
  8
0
 10
0.0
 20
0.0
 30
0.0
 70
   128
 71
    21
 72
    20
 73
     1
  0
VERTEX
  5
1676
  8
0
 10
0.0
 20
0.0
 30
0.0
 70
   128
 71
    21
 72
     1
 73
     4
  0
VERTEX
  5
1677
  8
0
 10
0.0
 20
0.0
 30
0.0
 70
   128
 71
    18
 72
    17
 73
    14
  0
VERTEX
  5
1678
  8
0
 10
0.0
 20
0.0
 30
0.0
 70
   128
 71
    18
 72
    14
 73
    22
  0
SEQEND
  5
1753
  8
0
  0
POLYLINE
  5
1679
  8
0
 66
     1
 10
0.0
 20
0.0
 30
0.0
 70
    64
 71
    15
 72
    13
  0
VERTEX
  5
167A
  8
0
 10
62.31201158316001
 20
12.08677332055
 30
-8.304982314757
 70
   192
  0
VERTEX
  5
167B
  8
0
 10
62.41839565413777
 20
12.21391615764767
 30
-8.304994856868666
 70
   192
  0
VERTEX
  5
167C
  8
0
 10
62.51735128808777
 20
12.331707618551
 30
-8.305000120516334
 70
   192
  0
VERTEX
  5
167D
  8
0
 10
62.60887848501
 20
12.44014770326
 30
-8.305002617398001
 70
   192
  0
VERTEX
  5
167E
  8
0
 10
62.97453113473252
 20
12.58311557029667
 30
-8.305000000000168
 70
   192
  0
VERTEX
  5
167F
  8
0
 10
63.3476890963325
 20
12.72118851279833
 30
-8.304999999999835
 70
   192
  0
VERTEX
  5
1680
  8
0
 10
63.72823215698
 20
12.85443310122
 30
-8.305
 70
   192
  0
VERTEX
  5
1681
  8
0
 10
63.53844712988334
 20
3.876549833210511
 30
-8.305
 70
   192
  0
VERTEX
  5
1682
  8
0
 10
63.34986592388668
 20
-4.958934209719258
 30
-8.305
 70
   192
  0
VERTEX
  5
1683
  8
0
 10
63.16242103593
 20
-13.65385038458
 30
-8.305
 70
   192
  0
VERTEX
  5
1684
  8
0
 10
62.6651869313425
 20
-13.48913080667
 30
-8.305
 70
   192
  0
VERTEX
  5
1685
  8
0
 10
62.18559583450502
 20
-13.3193061206675
 30
-8.305
 70
   192
  0
VERTEX
  5
1686
  8
0
 10
61.72366161527
 20
-13.14511296303
 30
-8.305
 70
   192
  0
VERTEX
  5
1687
  8
0
 10
61.91695471944965
 20
-4.97676836806611
 30
-8.304999344991
 70
   192
  0
VERTEX
  5
1688
  8
0
 10
62.11307137541299
 20
3.433860393127224
 30
-8.304994759928002
 70
   192
  0
VERTEX
  5
1689
  8
0
 10
0.0
 20
0.0
 30
0.0
 70
   128
 71
    12
 72
    11
 73
   -10
  0
VERTEX
  5
168A
  8
0
 10
0.0
 20
0.0
 30
0.0
 70
   128
 71
   -12
 72
    10
 73
    -9
  0
VERTEX
  5
168B
  8
0
 10
0.0
 20
0.0
 30
0.0
 70
   128
 71
    -9
 72
    14
 73
   -13
  0
VERTEX
  5
168C
  8
0
 10
0.0
 20
0.0
 30
0.0
 70
   128
 71
    -9
 72
    13
 73
   -12
  0
VERTEX
  5
168D
  8
0
 10
0.0
 20
0.0
 30
0.0
 70
   128
 71
     9
 72
    -8
 73
   -15
  0
VERTEX
  5
168E
  8
0
 10
0.0
 20
0.0
 30
0.0
 70
   128
 71
    -9
 72
    15
 73
   -14
  0
VERTEX
  5
168F
  8
0
 10
0.0
 20
0.0
 30
0.0
 70
   128
 71
     2
 72
     1
 73
   -15
  0
VERTEX
  5
1690
  8
0
 10
0.0
 20
0.0
 30
0.0
 70
   128
 71
    -2
 72
   -15
 73
    -8
  0
VERTEX
  5
1691
  8
0
 10
0.0
 20
0.0
 30
0.0
 70
   128
 71
    -2
 72
    -8
 73
    -5
  0
VERTEX
  5
1692
  8
0
 10
0.0
 20
0.0
 30
0.0
 70
   128
 71
    -5
 72
     3
 73
    -2
  0
VERTEX
  5
1693
  8
0
 10
0.0
 20
0.0
 30
0.0
 70
   128
 71
     5
 72
     4
 73
    -3
  0
VERTEX
  5
1694
  8
0
 10
0.0
 20
0.0
 30
0.0
 70
   128
 71
    -8
 72
     6
 73
    -5
  0
VERTEX
  5
1695
  8
0
 10
0.0
 20
0.0
 30
0.0
 70
   128
 71
     8
 72
     7
 73
    -6
  0
SEQEND
  5
1754
  8
0
  0
POLYLINE
  5
1696
  8
0
 66
     1
 10
0.0
 20
0.0
 30
0.0
 70
    64
 71
    17
 72
    15
  0
VERTEX
  5
1697
  8
0
 10
48.32718747874074
 20
-12.50140307573832
 30
-9.097248491360874
 70
   192
  0
VERTEX
  5
1698
  8
0
 10
44.41982634575199
 20
-14.63955181549657
 30
-6.427698089452513
 70
   192
  0
VERTEX
  5
1699
  8
0
 10
48.26203463731147
 20
-12.24945631294383
 30
-10.24965267140551
 70
   192
  0
VERTEX
  5
169A
  8
0
 10
45.12768983479392
 20
-14.72872677198385
 30
-5.668889604726259
 70
   192
  0
VERTEX
  5
169B
  8
0
 10
43.56898259457
 20
-15.98359575235
 30
-0.0000000000000766
 70
   192
  0
VERTEX
  5
169C
  8
0
 10
43.14620598858527
 20
-15.56419777995321
 30
-3.690824124044905
 70
   192
  0
VERTEX
  5
169D
  8
0
 10
42.56910464253
 20
-15.99921884535
 30
-0.0000000000000834
 70
   192
  0
VERTEX
  5
169E
  8
0
 10
62.18559583450502
 20
-13.3193061206675
 30
-8.305
 70
   192
  0
VERTEX
  5
169F
  8
0
 10
61.72366161527
 20
-13.14511296303
 30
-8.305
 70
   192
  0
VERTEX
  5
16A0
  8
0
 10
59.75218550769058
 20
-11.95607913241051
 30
-9.69035951762492
 70
   192
  0
VERTEX
  5
16A1
  8
0
 10
61.09519635885813
 20
-12.41936112284705
 30
-10.04478603066715
 70
   192
  0
VERTEX
  5
16A2
  8
0
 10
63.16242103593
 20
-13.65385038458
 30
-8.305
 70
   192
  0
VERTEX
  5
16A3
  8
0
 10
62.6651869313425
 20
-13.48913080667
 30
-8.305
 70
   192
  0
VERTEX
  5
16A4
  8
0
 10
57.92736236490738
 20
-11.03749816292881
 30
-11.53452949512606
 70
   192
  0
VERTEX
  5
16A5
  8
0
 10
56.28262363070107
 20
-10.64770880623023
 30
-10.89165513091873
 70
   192
  0
VERTEX
  5
16A6
  8
0
 10
52.24935750199995
 20
-10.73285459296327
 30
-11.81627251332695
 70
   192
  0
VERTEX
  5
16A7
  8
0
 10
51.24270036450564
 20
-11.07548420979035
 30
-10.52877246514047
 70
   192
  0
VERTEX
  5
16A8
  8
0
 10
0.0
 20
0.0
 30
0.0
 70
   128
 71
     1
 72
     2
 73
     3
  0
VERTEX
  5
16A9
  8
0
 10
0.0
 20
0.0
 30
0.0
 70
   128
 71
     4
 72
     5
 73
     6
  0
VERTEX
  5
16AA
  8
0
 10
0.0
 20
0.0
 30
0.0
 70
   128
 71
     4
 72
     6
 73
     2
  0
VERTEX
  5
16AB
  8
0
 10
0.0
 20
0.0
 30
0.0
 70
   128
 71
     5
 72
     7
 73
     6
  0
VERTEX
  5
16AC
  8
0
 10
0.0
 20
0.0
 30
0.0
 70
   128
 71
     8
 72
     9
 73
    10
  0
VERTEX
  5
16AD
  8
0
 10
0.0
 20
0.0
 30
0.0
 70
   128
 71
    11
 72
    12
 73
    13
  0
VERTEX
  5
16AE
  8
0
 10
0.0
 20
0.0
 30
0.0
 70
   128
 71
    13
 72
    14
 73
    11
  0
VERTEX
  5
16AF
  8
0
 10
0.0
 20
0.0
 30
0.0
 70
   128
 71
    15
 72
    16
 73
    14
  0
VERTEX
  5
16B0
  8
0
 10
0.0
 20
0.0
 30
0.0
 70
   128
 71
    17
 72
     3
 73
    16
  0
VERTEX
  5
16B1
  8
0
 10
0.0
 20
0.0
 30
0.0
 70
   128
 71
     2
 72
     1
 73
     4
  0
VERTEX
  5
16B2
  8
0
 10
0.0
 20
0.0
 30
0.0
 70
   128
 71
     3
 72
    17
 73
     1
  0
VERTEX
  5
16B3
  8
0
 10
0.0
 20
0.0
 30
0.0
 70
   128
 71
    14
 72
    13
 73
     8
  0
VERTEX
  5
16B4
  8
0
 10
0.0
 20
0.0
 30
0.0
 70
   128
 71
    14
 72
     8
 73
    10
  0
VERTEX
  5
16B5
  8
0
 10
0.0
 20
0.0
 30
0.0
 70
   128
 71
    14
 72
    10
 73
    15
  0
VERTEX
  5
16B6
  8
0
 10
0.0
 20
0.0
 30
0.0
 70
   128
 71
    16
 72
    15
 73
    17
  0
SEQEND
  5
1755
  8
0
  0
POLYLINE
  5
16B7
  8
0
 66
     1
 10
0.0
 20
0.0
 30
0.0
 70
    64
 71
    16
 72
    14
  0
VERTEX
  5
16B8
  8
0
 10
59.30819096144872
 20
-11.55144110478909
 30
11.02420764239735
 70
   192
  0
VERTEX
  5
16B9
  8
0
 10
55.73125824587311
 20
-10.55549965817857
 30
11.97386608777511
 70
   192
  0
VERTEX
  5
16BA
  8
0
 10
54.41058063181317
 20
-10.46887011264243
 30
11.03571297578596
 70
   192
  0
VERTEX
  5
16BB
  8
0
 10
57.92354221854862
 20
-11.12243779399919
 30
10.48729261029455
 70
   192
  0
VERTEX
  5
16BC
  8
0
 10
62.66573393143418
 20
-13.48925288947917
 30
8.305
 70
   192
  0
VERTEX
  5
16BD
  8
0
 10
63.16242143669001
 20
-13.65383188976
 30
8.305
 70
   192
  0
VERTEX
  5
16BE
  8
0
 10
62.18612642053336
 20
-13.31950136501084
 30
8.305
 70
   192
  0
VERTEX
  5
16BF
  8
0
 10
44.09402509627699
 20
-14.87097233238388
 30
5.877233670229116
 70
   192
  0
VERTEX
  5
16C0
  8
0
 10
42.56910464253
 20
-15.99921884535
 30
-0.0000000000000834
 70
   192
  0
VERTEX
  5
16C1
  8
0
 10
43.56898259456999
 20
-15.98359575234931
 30
-0.0000000000000834
 70
   192
  0
VERTEX
  5
16C2
  8
0
 10
44.78152394588819
 20
-14.99948228998762
 30
5.042152733630866
 70
   192
  0
VERTEX
  5
16C3
  8
0
 10
51.09310781408127
 20
-11.04325536328003
 30
11.52917559070286
 70
   192
  0
VERTEX
  5
16C4
  8
0
 10
46.91173023571572
 20
-13.00819087598052
 30
9.276289902533797
 70
   192
  0
VERTEX
  5
16C5
  8
0
 10
46.9358818940854
 20
-13.40165484087591
 30
7.955303141333756
 70
   192
  0
VERTEX
  5
16C6
  8
0
 10
50.39646994141246
 20
-11.41465600720893
 30
10.22148710386961
 70
   192
  0
VERTEX
  5
16C7
  8
0
 10
61.72366120686001
 20
-13.14513009119
 30
8.305
 70
   192
  0
VERTEX
  5
16C8
  8
0
 10
0.0
 20
0.0
 30
0.0
 70
   128
 71
     1
 72
     2
 73
     3
  0
VERTEX
  5
16C9
  8
0
 10
0.0
 20
0.0
 30
0.0
 70
   128
 71
     1
 72
     3
 73
     4
  0
VERTEX
  5
16CA
  8
0
 10
0.0
 20
0.0
 30
0.0
 70
   128
 71
     5
 72
     6
 73
     1
  0
VERTEX
  5
16CB
  8
0
 10
0.0
 20
0.0
 30
0.0
 70
   128
 71
     1
 72
     7
 73
     5
  0
VERTEX
  5
16CC
  8
0
 10
0.0
 20
0.0
 30
0.0
 70
   128
 71
     8
 72
     9
 73
    10
  0
VERTEX
  5
16CD
  8
0
 10
0.0
 20
0.0
 30
0.0
 70
   128
 71
     8
 72
    10
 73
    11
  0
VERTEX
  5
16CE
  8
0
 10
0.0
 20
0.0
 30
0.0
 70
   128
 71
    12
 72
    13
 73
    14
  0
VERTEX
  5
16CF
  8
0
 10
0.0
 20
0.0
 30
0.0
 70
   128
 71
    12
 72
    14
 73
    15
  0
VERTEX
  5
16D0
  8
0
 10
0.0
 20
0.0
 30
0.0
 70
   128
 71
     3
 72
     2
 73
    12
  0
VERTEX
  5
16D1
  8
0
 10
0.0
 20
0.0
 30
0.0
 70
   128
 71
     3
 72
    12
 73
    15
  0
VERTEX
  5
16D2
  8
0
 10
0.0
 20
0.0
 30
0.0
 70
   128
 71
    16
 72
     7
 73
     1
  0
VERTEX
  5
16D3
  8
0
 10
0.0
 20
0.0
 30
0.0
 70
   128
 71
    16
 72
     1
 73
     4
  0
VERTEX
  5
16D4
  8
0
 10
0.0
 20
0.0
 30
0.0
 70
   128
 71
    14
 72
    13
 73
     8
  0
VERTEX
  5
16D5
  8
0
 10
0.0
 20
0.0
 30
0.0
 70
   128
 71
    14
 72
     8
 73
    11
  0
SEQEND
  5
1756
  8
0
  0
POLYLINE
  5
16D6
  8
0
 66
     1
 10
0.0
 20
0.0
 30
0.0
 70
    64
 71
    34
 72
    32
  0
VERTEX
  5
16D7
  8
0
 10
53.64017717245752
 20
8.49534294296173
 30
11.29847603504506
 70
   192
  0
VERTEX
  5
16D8
  8
0
 10
54.41058063181317
 20
-10.46887011264243
 30
11.03571297578596
 70
   192
  0
VERTEX
  5
16D9
  8
0
 10
50.39646994141246
 20
-11.41465600720893
 30
10.22148710386961
 70
   192
  0
VERTEX
  5
16DA
  8
0
 10
50.89432553114943
 20
9.336796944158012
 30
10.75114812173013
 70
   192
  0
VERTEX
  5
16DB
  8
0
 10
56.15419171283387
 20
8.6363629881326
 30
11.21626236504138
 70
   192
  0
VERTEX
  5
16DC
  8
0
 10
59.10795735287203
 20
9.837677493285565
 30
10.38491172482701
 70
   192
  0
VERTEX
  5
16DD
  8
0
 10
62.31201979974
 20
12.08718520682
 30
8.30498189674
 70
   192
  0
VERTEX
  5
16DE
  8
0
 10
62.11306443307334
 20
3.433598978386599
 30
8.304994636071111
 70
   192
  0
VERTEX
  5
16DF
  8
0
 10
61.91694490211334
 20
-4.977172787616735
 30
8.30499932950889
 70
   192
  0
VERTEX
  5
16E0
  8
0
 10
61.72366120686001
 20
-13.14513009119
 30
8.305
 70
   192
  0
VERTEX
  5
16E1
  8
0
 10
57.92354221854862
 20
-11.12243779399919
 30
10.48729261029455
 70
   192
  0
VERTEX
  5
16E2
  8
0
 10
43.53087045886458
 20
14.89819879836032
 30
-3.156612579871432
 70
   192
  0
VERTEX
  5
16E3
  8
0
 10
43.07981659614001
 20
15.32423659673
 30
-0.000804882589273
 70
   192
  0
VERTEX
  5
16E4
  8
0
 10
45.12768983479392
 20
-14.72872677198385
 30
-5.668889604726259
 70
   192
  0
VERTEX
  5
16E5
  8
0
 10
62.11307137541299
 20
3.433860393127224
 30
-8.304994759928002
 70
   192
  0
VERTEX
  5
16E6
  8
0
 10
62.31201158316001
 20
12.08677332055
 30
-8.304982314757
 70
   192
  0
VERTEX
  5
16E7
  8
0
 10
59.11158626814684
 20
9.840048211034743
 30
-10.38334793904566
 70
   192
  0
VERTEX
  5
16E8
  8
0
 10
59.75218550769058
 20
-11.95607913241051
 30
-9.69035951762492
 70
   192
  0
VERTEX
  5
16E9
  8
0
 10
61.91695471944965
 20
-4.97676836806611
 30
-8.304999344991
 70
   192
  0
VERTEX
  5
16EA
  8
0
 10
61.72366161527
 20
-13.14511296303
 30
-8.305
 70
   192
  0
VERTEX
  5
16EB
  8
0
 10
56.16354400226282
 20
8.636733865395561
 30
-11.21490088430535
 70
   192
  0
VERTEX
  5
16EC
  8
0
 10
53.64527940958101
 20
8.494995368873285
 30
-11.29886634337187
 70
   192
  0
VERTEX
  5
16ED
  8
0
 10
56.28262363070107
 20
-10.64770880623023
 30
-10.89165513091873
 70
   192
  0
VERTEX
  5
16EE
  8
0
 10
50.90512868284642
 20
9.330927688784334
 30
-10.75468765102286
 70
   192
  0
VERTEX
  5
16EF
  8
0
 10
51.24270036450564
 20
-11.07548420979035
 30
-10.52877246514047
 70
   192
  0
VERTEX
  5
16F0
  8
0
 10
46.9358818940854
 20
-13.40165484087591
 30
7.955303141333756
 70
   192
  0
VERTEX
  5
16F1
  8
0
 10
47.79910183830347
 20
11.25536060081317
 30
9.178718266986268
 70
   192
  0
VERTEX
  5
16F2
  8
0
 10
44.78152394588819
 20
-14.99948228998762
 30
5.042152733630866
 70
   192
  0
VERTEX
  5
16F3
  8
0
 10
43.56898259457
 20
-15.98359575235
 30
-0.0000000000000765
 70
   192
  0
VERTEX
  5
16F4
  8
0
 10
43.53009066261745
 20
14.89366565450275
 30
3.153640062001807
 70
   192
  0
VERTEX
  5
16F5
  8
0
 10
45.00775101810616
 20
13.54876336843185
 30
6.305394103947123
 70
   192
  0
VERTEX
  5
16F6
  8
0
 10
47.81880355943156
 20
11.24120898602292
 30
-9.192836429308345
 70
   192
  0
VERTEX
  5
16F7
  8
0
 10
48.32718747874074
 20
-12.50140307573832
 30
-9.097248491360874
 70
   192
  0
VERTEX
  5
16F8
  8
0
 10
45.02385144942642
 20
13.5319444532715
 30
-6.329139895678888
 70
   192
  0
VERTEX
  5
16F9
  8
0
 10
0.0
 20
0.0
 30
0.0
 70
   128
 71
     1
 72
     2
 73
     3
  0
VERTEX
  5
16FA
  8
0
 10
0.0
 20
0.0
 30
0.0
 70
   128
 71
     4
 72
     1
 73
     3
  0
VERTEX
  5
16FB
  8
0
 10
0.0
 20
0.0
 30
0.0
 70
   128
 71
     1
 72
     5
 73
     2
  0
VERTEX
  5
16FC
  8
0
 10
0.0
 20
0.0
 30
0.0
 70
   128
 71
     6
 72
     7
 73
     8
  0
VERTEX
  5
16FD
  8
0
 10
0.0
 20
0.0
 30
0.0
 70
   128
 71
     9
 72
    10
 73
    11
  0
VERTEX
  5
16FE
  8
0
 10
0.0
 20
0.0
 30
0.0
 70
   128
 71
    12
 72
    13
 73
    14
  0
VERTEX
  5
16FF
  8
0
 10
0.0
 20
0.0
 30
0.0
 70
   128
 71
    15
 72
    16
 73
    17
  0
VERTEX
  5
1700
  8
0
 10
0.0
 20
0.0
 30
0.0
 70
   128
 71
    18
 72
    19
 73
    15
  0
VERTEX
  5
1701
  8
0
 10
0.0
 20
0.0
 30
0.0
 70
   128
 71
    18
 72
    20
 73
    19
  0
VERTEX
  5
1702
  8
0
 10
0.0
 20
0.0
 30
0.0
 70
   128
 71
    21
 72
    22
 73
    23
  0
VERTEX
  5
1703
  8
0
 10
0.0
 20
0.0
 30
0.0
 70
   128
 71
    24
 72
    25
 73
    23
  0
VERTEX
  5
1704
  8
0
 10
0.0
 20
0.0
 30
0.0
 70
   128
 71
    22
 72
    24
 73
    23
  0
VERTEX
  5
1705
  8
0
 10
0.0
 20
0.0
 30
0.0
 70
   128
 71
     3
 72
    26
 73
    27
  0
VERTEX
  5
1706
  8
0
 10
0.0
 20
0.0
 30
0.0
 70
   128
 71
     4
 72
     3
 73
    27
  0
VERTEX
  5
1707
  8
0
 10
0.0
 20
0.0
 30
0.0
 70
   128
 71
     8
 72
     9
 73
     5
  0
VERTEX
  5
1708
  8
0
 10
0.0
 20
0.0
 30
0.0
 70
   128
 71
     6
 72
     8
 73
     5
  0
VERTEX
  5
1709
  8
0
 10
0.0
 20
0.0
 30
0.0
 70
   128
 71
    11
 72
     2
 73
     5
  0
VERTEX
  5
170A
  8
0
 10
0.0
 20
0.0
 30
0.0
 70
   128
 71
     9
 72
    11
 73
     5
  0
VERTEX
  5
170B
  8
0
 10
0.0
 20
0.0
 30
0.0
 70
   128
 71
    28
 72
    29
 73
    14
  0
VERTEX
  5
170C
  8
0
 10
0.0
 20
0.0
 30
0.0
 70
   128
 71
    30
 72
    14
 73
    13
  0
VERTEX
  5
170D
  8
0
 10
0.0
 20
0.0
 30
0.0
 70
   128
 71
    27
 72
    26
 73
    30
  0
VERTEX
  5
170E
  8
0
 10
0.0
 20
0.0
 30
0.0
 70
   128
 71
    31
 72
    27
 73
    30
  0
VERTEX
  5
170F
  8
0
 10
0.0
 20
0.0
 30
0.0
 70
   128
 71
    28
 72
    14
 73
    30
  0
VERTEX
  5
1710
  8
0
 10
0.0
 20
0.0
 30
0.0
 70
   128
 71
    26
 72
    28
 73
    30
  0
VERTEX
  5
1711
  8
0
 10
0.0
 20
0.0
 30
0.0
 70
   128
 71
    32
 72
    33
 73
    25
  0
VERTEX
  5
1712
  8
0
 10
0.0
 20
0.0
 30
0.0
 70
   128
 71
    32
 72
    25
 73
    24
  0
VERTEX
  5
1713
  8
0
 10
0.0
 20
0.0
 30
0.0
 70
   128
 71
    32
 72
    34
 73
    12
  0
VERTEX
  5
1714
  8
0
 10
0.0
 20
0.0
 30
0.0
 70
   128
 71
    33
 72
    32
 73
    12
  0
VERTEX
  5
1715
  8
0
 10
0.0
 20
0.0
 30
0.0
 70
   128
 71
    12
 72
    14
 73
    33
  0
VERTEX
  5
1716
  8
0
 10
0.0
 20
0.0
 30
0.0
 70
   128
 71
    21
 72
    23
 73
    17
  0
VERTEX
  5
1717
  8
0
 10
0.0
 20
0.0
 30
0.0
 70
   128
 71
    18
 72
    15
 73
    17
  0
VERTEX
  5
1718
  8
0
 10
0.0
 20
0.0
 30
0.0
 70
   128
 71
    23
 72
    18
 73
    17
  0
SEQEND
  5
1757
  8
0
  0
ENDBLK
  5
174D
  8
0
  0
ENDSEC
  0
SECTION
  2
ENTITIES
  0
INSERT
  5
BE
  8
0
  2
*X1
 10
0.0
 20
0.0
 30
0.0
  0
INSERT
  5
BF
  8
0
  2
*X2
 10
0.0
 20
0.0
 30
0.0
  0
INSERT
  5
C0
  8
0
  2
*X3
 10
0.0
 20
0.0
 30
0.0
  0
ENDSEC
  0
EOF
