  0
SECTION
  2
HEADER
  9
$ACADVER
  1
AC1009
  9
$DWGCODEPAGE
  3
ansi_1250
  9
$INSBASE
 10
0.0
 20
0.0
 30
0.0
  9
$EXTMIN
 10
19.99999999999997
 20
-52.63876559744403
 30
-53.01440371642285
  9
$EXTMAX
 10
429.1087960310628
 20
2.361234402556022
 30
52.63876559744402
  9
$LIMMIN
 10
0.0
 20
0.0
  9
$LIMMAX
 10
420.0
 20
297.0
  9
$ORTHOMODE
 70
     0
  9
$REGENMODE
 70
     1
  9
$FILLMODE
 70
     1
  9
$QTEXTMODE
 70
     0
  9
$MIRRTEXT
 70
     0
  9
$DRAGMODE
 70
     2
  9
$LTSCALE
 40
1.0
  9
$OSMODE
 70
   511
  9
$ATTMODE
 70
     1
  9
$TEXTSIZE
 40
2.5
  9
$TRACEWID
 40
1.0
  9
$TEXTSTYLE
  7
STANDARD
  9
$CLAYER
  8
0
  9
$CELTYPE
  6
BYLAYER
  9
$CECOLOR
 62
   256
  9
$DIMSCALE
 40
1.0
  9
$DIMASZ
 40
2.5
  9
$DIMEXO
 40
0.625
  9
$DIMDLI
 40
3.75
  9
$DIMRND
 40
0.0
  9
$DIMDLE
 40
0.0
  9
$DIMEXE
 40
1.25
  9
$DIMTP
 40
0.0
  9
$DIMTM
 40
0.0
  9
$DIMTXT
 40
2.5
  9
$DIMCEN
 40
-2.5
  9
$DIMTSZ
 40
0.0
  9
$DIMTOL
 70
     0
  9
$DIMLIM
 70
     0
  9
$DIMTIH
 70
     0
  9
$DIMTOH
 70
     0
  9
$DIMSE1
 70
     0
  9
$DIMSE2
 70
     0
  9
$DIMTAD
 70
     1
  9
$DIMZIN
 70
     8
  9
$DIMBLK
  1

  9
$DIMASO
 70
     1
  9
$DIMSHO
 70
     1
  9
$DIMPOST
  1

  9
$DIMAPOST
  1

  9
$DIMALT
 70
     0
  9
$DIMALTD
 70
     3
  9
$DIMALTF
 40
0.03937007874016
  9
$DIMLFAC
 40
1.0
  9
$DIMTOFL
 70
     1
  9
$DIMTVP
 40
0.0
  9
$DIMTIX
 70
     0
  9
$DIMSOXD
 70
     0
  9
$DIMSAH
 70
     0
  9
$DIMBLK1
  1

  9
$DIMBLK2
  1

  9
$DIMSTYLE
  2
ISO-25
  9
$DIMCLRD
 70
     0
  9
$DIMCLRE
 70
     0
  9
$DIMCLRT
 70
     0
  9
$DIMTFAC
 40
1.0
  9
$DIMGAP
 40
0.625
  9
$LUNITS
 70
     2
  9
$LUPREC
 70
     3
  9
$SKETCHINC
 40
1.0
  9
$FILLETRAD
 40
10.0
  9
$AUNITS
 70
     0
  9
$AUPREC
 70
     0
  9
$MENU
  1
.
  9
$ELEVATION
 40
0.0
  9
$PELEVATION
 40
0.0
  9
$THICKNESS
 40
0.0
  9
$LIMCHECK
 70
     0
  9
$CHAMFERA
 40
10.0
  9
$CHAMFERB
 40
10.0
  9
$SKPOLY
 70
     0
  9
$TDCREATE
 40
2455022.720692848
  9
$TDUPDATE
 40
2460462.501061517
  9
$TDINDWG
 40
0.0001625347
  9
$TDUSRTIMER
 40
0.0001625347
  9
$USRTIMER
 70
     1
  9
$ANGBASE
 50
0.0
  9
$ANGDIR
 70
     0
  9
$PDMODE
 70
     0
  9
$PDSIZE
 40
0.0
  9
$PLINEWID
 40
0.0
  9
$COORDS
 70
     1
  9
$SPLFRAME
 70
     0
  9
$SPLINETYPE
 70
     6
  9
$SPLINESEGS
 70
     8
  9
$ATTDIA
 70
     0
  9
$ATTREQ
 70
     1
  9
$HANDLING
 70
     1
  9
$HANDSEED
  5
C98
  9
$SURFTAB1
 70
     6
  9
$SURFTAB2
 70
     6
  9
$SURFTYPE
 70
     6
  9
$SURFU
 70
     6
  9
$SURFV
 70
     6
  9
$UCSNAME
  2

  9
$UCSORG
 10
0.0
 20
0.0
 30
0.0
  9
$UCSXDIR
 10
1.0
 20
0.0
 30
0.0
  9
$UCSYDIR
 10
0.0
 20
1.0
 30
0.0
  9
$PUCSNAME
  2

  9
$PUCSORG
 10
0.0
 20
0.0
 30
0.0
  9
$PUCSXDIR
 10
1.0
 20
0.0
 30
0.0
  9
$PUCSYDIR
 10
0.0
 20
1.0
 30
0.0
  9
$USERI1
 70
     0
  9
$USERI2
 70
     0
  9
$USERI3
 70
     0
  9
$USERI4
 70
     0
  9
$USERI5
 70
     0
  9
$USERR1
 40
0.0
  9
$USERR2
 40
0.0
  9
$USERR3
 40
0.0
  9
$USERR4
 40
0.0
  9
$USERR5
 40
0.0
  9
$WORLDVIEW
 70
     1
  9
$SHADEDGE
 70
     3
  9
$SHADEDIF
 70
    70
  9
$TILEMODE
 70
     1
  9
$MAXACTVP
 70
    64
  9
$PLIMCHECK
 70
     0
  9
$PEXTMIN
 10
1.000000000000000E+20
 20
1.000000000000000E+20
 30
1.000000000000000E+20
  9
$PEXTMAX
 10
-1.000000000000000E+20
 20
-1.000000000000000E+20
 30
-1.000000000000000E+20
  9
$PLIMMIN
 10
0.0
 20
0.0
  9
$PLIMMAX
 10
0.0
 20
0.0
  9
$UNITMODE
 70
     0
  9
$VISRETAIN
 70
     1
  9
$PLINEGEN
 70
     0
  9
$PSLTSCALE
 70
     1
  0
ENDSEC
  0
SECTION
  2
TABLES
  0
TABLE
  2
VPORT
 70
     1
  0
VPORT
  2
*ACTIVE
 70
     0
 10
0.0
 20
0.0
 11
1.0
 21
1.0
 12
-271.4442073774649
 22
-136.3460236601936
 13
0.0
 23
0.0
 14
10.0
 24
10.0
 15
10.0
 25
10.0
 16
0.5773502691896226
 26
0.5773502691896226
 36
0.5773502691896226
 17
-134.1869158878504
 27
-0.0000000000000639
 37
0.0000000000000142
 40
281.251815559431
 41
1.89041095890411
 42
50.0
 43
0.0
 44
0.0
 50
0.0
 51
0.0
 71
    16
 72
  1000
 73
     1
 74
     3
 75
     0
 76
     0
 77
     0
 78
     0
  0
ENDTAB
  0
TABLE
  2
LTYPE
 70
     1
  0
LTYPE
  2
CONTINUOUS
 70
     0
  3
Solid line
 72
    65
 73
     0
 40
0.0
  0
ENDTAB
  0
TABLE
  2
LAYER
 70
     1
  0
LAYER
  2
0
 70
     0
 62
     7
  6
CONTINUOUS
  0
ENDTAB
  0
TABLE
  2
STYLE
 70
     2
  0
STYLE
  2
STANDARD
 70
     0
 40
0.0
 41
1.0
 50
0.0
 71
     0
 42
2.5
  3
arial.ttf
  4

  0
STYLE
  2
ANNOTATIVE
 70
     0
 40
0.0
 41
1.0
 50
0.0
 71
     0
 42
2.5
  3
arial.ttf
  4

  0
ENDTAB
  0
TABLE
  2
VIEW
 70
     0
  0
ENDTAB
  0
TABLE
  2
UCS
 70
     0
  0
ENDTAB
  0
TABLE
  2
APPID
 70
     2
  0
APPID
  2
ACAD
 70
     0
  0
APPID
  2
ACADANNOTATIVE
 70
     0
  0
ENDTAB
  0
TABLE
  2
DIMSTYLE
 70
     2
  0
DIMSTYLE
  2
ISO-25
 70
     0
  3

  4

  5

  6

  7

 40
1.0
 41
2.5
 42
0.625
 43
3.75
 44
1.25
 45
0.0
 46
0.0
 47
0.0
 48
0.0
140
2.5
141
-2.5
142
0.0
143
0.03937007874016
144
1.0
145
0.0
146
1.0
147
0.625
 71
     0
 72
     0
 73
     0
 74
     0
 75
     0
 76
     0
 77
     1
 78
     8
170
     0
171
     3
172
     1
173
     0
174
     0
175
     0
176
     0
177
     0
178
     0
  0
DIMSTYLE
  2
ANNOTATIVE
 70
     0
  3

  4

  5

  6

  7

 40
0.0
 41
2.5
 42
0.625
 43
3.75
 44
1.25
 45
0.0
 46
0.0
 47
0.0
 48
0.0
140
2.5
141
-2.5
142
0.0
143
0.03937007874016
144
1.0
145
0.0
146
1.0
147
0.625
 71
     0
 72
     0
 73
     0
 74
     0
 75
     0
 76
     0
 77
     1
 78
     8
170
     0
171
     3
172
     1
173
     0
174
     0
175
     0
176
     0
177
     0
178
     0
  0
ENDTAB
  0
ENDSEC
  0
SECTION
  2
BLOCKS
  0
BLOCK
  8
0
  2
$MODEL_SPACE
 70
     0
 10
0.0
 20
0.0
 30
0.0
  3
$MODEL_SPACE
  1

  0
ENDBLK
  5
21
  8
0
  0
BLOCK
 67
     1
  8
0
  2
$PAPER_SPACE
 70
     0
 10
0.0
 20
0.0
 30
0.0
  3
$PAPER_SPACE
  1

  0
ENDBLK
  5
1D
 67
     1
  8
0
  0
BLOCK
  8
0
  2
*X1
 70
     1
 10
0.0
 20
0.0
 30
0.0
  3
*X1
  1

  0
POLYLINE
  5
6B4
  8
0
 66
     1
 10
0.0
 20
0.0
 30
0.0
 70
    64
 71
    10
 72
     8
  0
VERTEX
  5
6B5
  8
0
 10
38.21166796448
 20
-25.138765597444
 30
36.544363655104
 70
   192
  0
VERTEX
  5
6B6
  8
0
 10
38.21166796448
 20
-25.138765597444
 30
13.733167539784
 70
   192
  0
VERTEX
  5
6B7
  8
0
 10
35.00000000000003
 20
-25.138765597444
 30
13.15671431538848
 70
   192
  0
VERTEX
  5
6B8
  8
0
 10
35.0
 20
-25.138765597444
 30
37.12081687949536
 70
   192
  0
VERTEX
  5
6B9
  8
0
 10
35.0
 20
-13.15671431538848
 30
25.138765597444
 70
   192
  0
VERTEX
  5
6BA
  8
0
 10
38.21166796448001
 20
-13.733167539784
 30
25.13876559744396
 70
   192
  0
VERTEX
  5
6BB
  8
0
 10
35.00000000000001
 20
-16.66617588337757
 30
16.66617588337758
 70
   192
  0
VERTEX
  5
6BC
  8
0
 10
38.21166796448
 20
-17.07378986738452
 30
17.07378986738448
 70
   192
  0
VERTEX
  5
6BD
  8
0
 10
35.0
 20
-16.66617588337758
 30
33.61135531151042
 70
   192
  0
VERTEX
  5
6BE
  8
0
 10
38.21166796448
 20
-17.07378986738448
 30
33.20374132750349
 70
   192
  0
VERTEX
  5
6BF
  8
0
 10
0.0
 20
0.0
 30
0.0
 70
   128
 71
     5
 72
     7
 73
    -8
  0
VERTEX
  5
6C0
  8
0
 10
0.0
 20
0.0
 30
0.0
 70
   128
 71
     6
 72
    -5
 73
     8
  0
VERTEX
  5
6C1
  8
0
 10
0.0
 20
0.0
 30
0.0
 70
   128
 71
     7
 72
     3
 73
    -2
  0
VERTEX
  5
6C2
  8
0
 10
0.0
 20
0.0
 30
0.0
 70
   128
 71
     8
 72
    -7
 73
     2
  0
VERTEX
  5
6C3
  8
0
 10
0.0
 20
0.0
 30
0.0
 70
   128
 71
     1
 72
     4
 73
    -9
  0
VERTEX
  5
6C4
  8
0
 10
0.0
 20
0.0
 30
0.0
 70
   128
 71
    10
 72
    -1
 73
     9
  0
VERTEX
  5
6C5
  8
0
 10
0.0
 20
0.0
 30
0.0
 70
   128
 71
     9
 72
     5
 73
    -6
  0
VERTEX
  5
6C6
  8
0
 10
0.0
 20
0.0
 30
0.0
 70
   128
 71
    10
 72
    -9
 73
     6
  0
SEQEND
  5
C65
  8
0
  0
POLYLINE
  5
6C7
  8
0
 66
     1
 10
0.0
 20
0.0
 30
0.0
 70
    64
 71
    10
 72
     8
  0
VERTEX
  5
6C8
  8
0
 10
38.21166796448
 20
-25.138765597444
 30
13.733167539784
 70
   192
  0
VERTEX
  5
6C9
  8
0
 10
38.21166796448
 20
-25.138765597444
 30
36.544363655104
 70
   192
  0
VERTEX
  5
6CA
  8
0
 10
35.0
 20
-25.13876559744401
 30
37.12081687949963
 70
   192
  0
VERTEX
  5
6CB
  8
0
 10
35.0
 20
-25.138765597444
 30
13.15671431538841
 70
   192
  0
VERTEX
  5
6CC
  8
0
 10
35.0
 20
-37.12081687949959
 30
25.13876559744401
 70
   192
  0
VERTEX
  5
6CD
  8
0
 10
38.21166796448001
 20
-36.544363655104
 30
25.13876559744405
 70
   192
  0
VERTEX
  5
6CE
  8
0
 10
35.0
 20
-33.61135531151048
 30
33.61135531151049
 70
   192
  0
VERTEX
  5
6CF
  8
0
 10
38.21166796448
 20
-33.20374132750349
 30
33.20374132750353
 70
   192
  0
VERTEX
  5
6D0
  8
0
 10
35.0
 20
-33.61135531151047
 30
16.66617588337753
 70
   192
  0
VERTEX
  5
6D1
  8
0
 10
38.21166796448
 20
-33.20374132750353
 30
17.07378986738452
 70
   192
  0
VERTEX
  5
6D2
  8
0
 10
0.0
 20
0.0
 30
0.0
 70
   128
 71
     5
 72
     7
 73
    -8
  0
VERTEX
  5
6D3
  8
0
 10
0.0
 20
0.0
 30
0.0
 70
   128
 71
     6
 72
    -5
 73
     8
  0
VERTEX
  5
6D4
  8
0
 10
0.0
 20
0.0
 30
0.0
 70
   128
 71
     7
 72
     3
 73
    -2
  0
VERTEX
  5
6D5
  8
0
 10
0.0
 20
0.0
 30
0.0
 70
   128
 71
     8
 72
    -7
 73
     2
  0
VERTEX
  5
6D6
  8
0
 10
0.0
 20
0.0
 30
0.0
 70
   128
 71
     1
 72
     4
 73
    -9
  0
VERTEX
  5
6D7
  8
0
 10
0.0
 20
0.0
 30
0.0
 70
   128
 71
    10
 72
    -1
 73
     9
  0
VERTEX
  5
6D8
  8
0
 10
0.0
 20
0.0
 30
0.0
 70
   128
 71
     9
 72
     5
 73
    -6
  0
VERTEX
  5
6D9
  8
0
 10
0.0
 20
0.0
 30
0.0
 70
   128
 71
    10
 72
    -9
 73
     6
  0
SEQEND
  5
C66
  8
0
  0
POLYLINE
  5
6DA
  8
0
 66
     1
 10
0.0
 20
0.0
 30
0.0
 70
    64
 71
    10
 72
     8
  0
VERTEX
  5
6DB
  8
0
 10
38.06466719138
 20
-25.138765597444
 30
37.078738479914
 70
   192
  0
VERTEX
  5
6DC
  8
0
 10
35.00000000000001
 20
-25.138765597444
 30
37.62880695016703
 70
   192
  0
VERTEX
  5
6DD
  8
0
 10
35.00000000000001
 20
-25.138765597444
 30
12.64872424471839
 70
   192
  0
VERTEX
  5
6DE
  8
0
 10
38.06466719138
 20
-25.138765597444
 30
13.198792714974
 70
   192
  0
VERTEX
  5
6DF
  8
0
 10
35.00000000000001
 20
-12.64872424472105
 30
25.13876559744394
 70
   192
  0
VERTEX
  5
6E0
  8
0
 10
38.06466719138001
 20
-13.198792714974
 30
25.13876559744405
 70
   192
  0
VERTEX
  5
6E1
  8
0
 10
35.00000000000002
 20
-16.30697265963323
 30
16.3069726596324
 70
   192
  0
VERTEX
  5
6E2
  8
0
 10
38.06466719138
 20
-16.69592980506595
 30
16.69592980506599
 70
   192
  0
VERTEX
  5
6E3
  8
0
 10
35.00000000000002
 20
-16.30697265963319
 30
33.9705585352548
 70
   192
  0
VERTEX
  5
6E4
  8
0
 10
38.06466719138
 20
-16.69592980506599
 30
33.58160138982204
 70
   192
  0
VERTEX
  5
6E5
  8
0
 10
0.0
 20
0.0
 30
0.0
 70
   128
 71
     7
 72
     5
 73
    -6
  0
VERTEX
  5
6E6
  8
0
 10
0.0
 20
0.0
 30
0.0
 70
   128
 71
     8
 72
    -7
 73
     6
  0
VERTEX
  5
6E7
  8
0
 10
0.0
 20
0.0
 30
0.0
 70
   128
 71
     4
 72
     3
 73
    -7
  0
VERTEX
  5
6E8
  8
0
 10
0.0
 20
0.0
 30
0.0
 70
   128
 71
     8
 72
    -4
 73
     7
  0
VERTEX
  5
6E9
  8
0
 10
0.0
 20
0.0
 30
0.0
 70
   128
 71
     9
 72
     2
 73
    -1
  0
VERTEX
  5
6EA
  8
0
 10
0.0
 20
0.0
 30
0.0
 70
   128
 71
    10
 72
    -9
 73
     1
  0
VERTEX
  5
6EB
  8
0
 10
0.0
 20
0.0
 30
0.0
 70
   128
 71
     5
 72
     9
 73
   -10
  0
VERTEX
  5
6EC
  8
0
 10
0.0
 20
0.0
 30
0.0
 70
   128
 71
     6
 72
    -5
 73
    10
  0
SEQEND
  5
C67
  8
0
  0
POLYLINE
  5
6ED
  8
0
 66
     1
 10
0.0
 20
0.0
 30
0.0
 70
    64
 71
    10
 72
     8
  0
VERTEX
  5
6EE
  8
0
 10
38.06466719138
 20
-25.138765597444
 30
13.198792714974
 70
   192
  0
VERTEX
  5
6EF
  8
0
 10
35.0
 20
-25.138765597444
 30
12.64872424472097
 70
   192
  0
VERTEX
  5
6F0
  8
0
 10
35.00000000000001
 20
-25.138765597444
 30
37.62880695016703
 70
   192
  0
VERTEX
  5
6F1
  8
0
 10
38.06466719138
 20
-25.138765597444
 30
37.078738479914
 70
   192
  0
VERTEX
  5
6F2
  8
0
 10
35.00000000000001
 20
-37.62880695016703
 30
25.138765597444
 70
   192
  0
VERTEX
  5
6F3
  8
0
 10
38.06466719138001
 20
-37.078738479914
 30
25.13876559744396
 70
   192
  0
VERTEX
  5
6F4
  8
0
 10
35.0
 20
-33.97055853525485
 30
33.97055853525485
 70
   192
  0
VERTEX
  5
6F5
  8
0
 10
38.06466719138
 20
-33.58160138982205
 30
33.581601389822
 70
   192
  0
VERTEX
  5
6F6
  8
0
 10
35.0
 20
-33.97055853525485
 30
16.30697265963315
 70
   192
  0
VERTEX
  5
6F7
  8
0
 10
38.06466719138
 20
-33.581601389822
 30
16.69592980506595
 70
   192
  0
VERTEX
  5
6F8
  8
0
 10
0.0
 20
0.0
 30
0.0
 70
   128
 71
     7
 72
     5
 73
    -6
  0
VERTEX
  5
6F9
  8
0
 10
0.0
 20
0.0
 30
0.0
 70
   128
 71
     8
 72
    -7
 73
     6
  0
VERTEX
  5
6FA
  8
0
 10
0.0
 20
0.0
 30
0.0
 70
   128
 71
     4
 72
     3
 73
    -7
  0
VERTEX
  5
6FB
  8
0
 10
0.0
 20
0.0
 30
0.0
 70
   128
 71
     8
 72
    -4
 73
     7
  0
VERTEX
  5
6FC
  8
0
 10
0.0
 20
0.0
 30
0.0
 70
   128
 71
     9
 72
     2
 73
    -1
  0
VERTEX
  5
6FD
  8
0
 10
0.0
 20
0.0
 30
0.0
 70
   128
 71
    10
 72
    -9
 73
     1
  0
VERTEX
  5
6FE
  8
0
 10
0.0
 20
0.0
 30
0.0
 70
   128
 71
     5
 72
     9
 73
   -10
  0
VERTEX
  5
6FF
  8
0
 10
0.0
 20
0.0
 30
0.0
 70
   128
 71
     6
 72
    -5
 73
    10
  0
SEQEND
  5
C68
  8
0
  0
POLYLINE
  5
700
  8
0
 66
     1
 10
0.0
 20
0.0
 30
0.0
 70
    64
 71
    14
 72
    12
  0
VERTEX
  5
701
  8
0
 10
38.21166796448
 20
-25.138765597444
 30
36.544363655104
 70
   192
  0
VERTEX
  5
702
  8
0
 10
38.8
 20
-25.138765597444
 30
37.036499281554
 70
   192
  0
VERTEX
  5
703
  8
0
 10
38.8
 20
-25.138765597444
 30
13.241031913334
 70
   192
  0
VERTEX
  5
704
  8
0
 10
38.21166796448
 20
-25.138765597444
 30
13.733167539784
 70
   192
  0
VERTEX
  5
705
  8
0
 10
38.8
 20
-13.241031913334
 30
25.138765597444
 70
   192
  0
VERTEX
  5
706
  8
0
 10
38.21166796448001
 20
-13.733167539784
 30
25.13876559744396
 70
   192
  0
VERTEX
  5
707
  8
0
 10
38.8
 20
-16.72579742865821
 30
16.72579742865821
 70
   192
  0
VERTEX
  5
708
  8
0
 10
38.21166796448
 20
-17.07378986738452
 30
17.07378986738448
 70
   192
  0
VERTEX
  5
709
  8
0
 10
38.8
 20
-16.72579742865822
 30
33.55173376622979
 70
   192
  0
VERTEX
  5
70A
  8
0
 10
38.21166796448
 20
-17.07378986738448
 30
33.20374132750349
 70
   192
  0
VERTEX
  5
70B
  8
0
 10
38.49806427971127
 20
-25.1387655974618
 30
13.70012946599597
 70
   192
  0
VERTEX
  5
70C
  8
0
 10
38.71688564938634
 20
-25.1387655974618
 30
13.51708692310516
 70
   192
  0
VERTEX
  5
70D
  8
0
 10
38.49806427971126
 20
-25.1387655974262
 30
36.57740172889203
 70
   192
  0
VERTEX
  5
70E
  8
0
 10
38.71688564938635
 20
-25.1387655974262
 30
36.76044427178283
 70
   192
  0
VERTEX
  5
70F
  8
0
 10
0.0
 20
0.0
 30
0.0
 70
   128
 71
     6
 72
     8
 73
    -7
  0
VERTEX
  5
710
  8
0
 10
0.0
 20
0.0
 30
0.0
 70
   128
 71
     5
 72
    -6
 73
     7
  0
VERTEX
  5
711
  8
0
 10
0.0
 20
0.0
 30
0.0
 70
   128
 71
     8
 72
     4
 73
    11
  0
VERTEX
  5
712
  8
0
 10
0.0
 20
0.0
 30
0.0
 70
   128
 71
     8
 72
    11
 73
    12
  0
VERTEX
  5
713
  8
0
 10
0.0
 20
0.0
 30
0.0
 70
   128
 71
     7
 72
     8
 73
    12
  0
VERTEX
  5
714
  8
0
 10
0.0
 20
0.0
 30
0.0
 70
   128
 71
    12
 72
     3
 73
     7
  0
VERTEX
  5
715
  8
0
 10
0.0
 20
0.0
 30
0.0
 70
   128
 71
     9
 72
     2
 73
    14
  0
VERTEX
  5
716
  8
0
 10
0.0
 20
0.0
 30
0.0
 70
   128
 71
    13
 72
    10
 73
     9
  0
VERTEX
  5
717
  8
0
 10
0.0
 20
0.0
 30
0.0
 70
   128
 71
    14
 72
    13
 73
     9
  0
VERTEX
  5
718
  8
0
 10
0.0
 20
0.0
 30
0.0
 70
   128
 71
    13
 72
     1
 73
    10
  0
VERTEX
  5
719
  8
0
 10
0.0
 20
0.0
 30
0.0
 70
   128
 71
    10
 72
     6
 73
    -5
  0
VERTEX
  5
71A
  8
0
 10
0.0
 20
0.0
 30
0.0
 70
   128
 71
     9
 72
   -10
 73
     5
  0
SEQEND
  5
C69
  8
0
  0
POLYLINE
  5
71B
  8
0
 66
     1
 10
0.0
 20
0.0
 30
0.0
 70
    64
 71
    14
 72
    12
  0
VERTEX
  5
71C
  8
0
 10
38.21166796448
 20
-25.138765597444
 30
13.733167539784
 70
   192
  0
VERTEX
  5
71D
  8
0
 10
38.8
 20
-25.138765597444
 30
13.241031913334
 70
   192
  0
VERTEX
  5
71E
  8
0
 10
38.8
 20
-25.138765597444
 30
37.036499281554
 70
   192
  0
VERTEX
  5
71F
  8
0
 10
38.21166796448
 20
-25.138765597444
 30
36.544363655104
 70
   192
  0
VERTEX
  5
720
  8
0
 10
38.8
 20
-37.036499281554
 30
25.138765597444
 70
   192
  0
VERTEX
  5
721
  8
0
 10
38.21166796448001
 20
-36.544363655104
 30
25.13876559744405
 70
   192
  0
VERTEX
  5
722
  8
0
 10
38.8
 20
-33.55173376622978
 30
33.55173376622979
 70
   192
  0
VERTEX
  5
723
  8
0
 10
38.21166796448
 20
-33.20374132750349
 30
33.20374132750353
 70
   192
  0
VERTEX
  5
724
  8
0
 10
38.8
 20
-33.55173376622979
 30
16.72579742865821
 70
   192
  0
VERTEX
  5
725
  8
0
 10
38.21166796448
 20
-33.20374132750353
 30
17.07378986738452
 70
   192
  0
VERTEX
  5
726
  8
0
 10
38.49806427971126
 20
-25.1387655974262
 30
36.57740172889203
 70
   192
  0
VERTEX
  5
727
  8
0
 10
38.71688564938635
 20
-25.1387655974262
 30
36.76044427178283
 70
   192
  0
VERTEX
  5
728
  8
0
 10
38.49806427971127
 20
-25.1387655974618
 30
13.70012946599597
 70
   192
  0
VERTEX
  5
729
  8
0
 10
38.71688564938634
 20
-25.1387655974618
 30
13.51708692310516
 70
   192
  0
VERTEX
  5
72A
  8
0
 10
0.0
 20
0.0
 30
0.0
 70
   128
 71
     6
 72
     8
 73
    -7
  0
VERTEX
  5
72B
  8
0
 10
0.0
 20
0.0
 30
0.0
 70
   128
 71
     5
 72
    -6
 73
     7
  0
VERTEX
  5
72C
  8
0
 10
0.0
 20
0.0
 30
0.0
 70
   128
 71
     8
 72
     4
 73
    11
  0
VERTEX
  5
72D
  8
0
 10
0.0
 20
0.0
 30
0.0
 70
   128
 71
     8
 72
    11
 73
    12
  0
VERTEX
  5
72E
  8
0
 10
0.0
 20
0.0
 30
0.0
 70
   128
 71
     7
 72
     8
 73
    12
  0
VERTEX
  5
72F
  8
0
 10
0.0
 20
0.0
 30
0.0
 70
   128
 71
    12
 72
     3
 73
     7
  0
VERTEX
  5
730
  8
0
 10
0.0
 20
0.0
 30
0.0
 70
   128
 71
     9
 72
     2
 73
    14
  0
VERTEX
  5
731
  8
0
 10
0.0
 20
0.0
 30
0.0
 70
   128
 71
    13
 72
    10
 73
     9
  0
VERTEX
  5
732
  8
0
 10
0.0
 20
0.0
 30
0.0
 70
   128
 71
    14
 72
    13
 73
     9
  0
VERTEX
  5
733
  8
0
 10
0.0
 20
0.0
 30
0.0
 70
   128
 71
    13
 72
     1
 73
    10
  0
VERTEX
  5
734
  8
0
 10
0.0
 20
0.0
 30
0.0
 70
   128
 71
    10
 72
     6
 73
    -5
  0
VERTEX
  5
735
  8
0
 10
0.0
 20
0.0
 30
0.0
 70
   128
 71
     9
 72
   -10
 73
     5
  0
SEQEND
  5
C6A
  8
0
  0
POLYLINE
  5
736
  8
0
 66
     1
 10
0.0
 20
0.0
 30
0.0
 70
    64
 71
    14
 72
    12
  0
VERTEX
  5
737
  8
0
 10
38.06466719138
 20
-25.138765597444
 30
37.078738479914
 70
   192
  0
VERTEX
  5
738
  8
0
 10
38.3
 20
-25.138765597444
 30
37.275592704914
 70
   192
  0
VERTEX
  5
739
  8
0
 10
38.3
 20
-13.001938489974
 30
25.138765597444
 70
   192
  0
VERTEX
  5
73A
  8
0
 10
38.06466719138001
 20
-13.198792714974
 30
25.13876559744405
 70
   192
  0
VERTEX
  5
73B
  8
0
 10
38.29999999999999
 20
-16.55673284766326
 30
16.55673284766326
 70
   192
  0
VERTEX
  5
73C
  8
0
 10
38.06466719138
 20
-16.69592980506595
 30
16.69592980506599
 70
   192
  0
VERTEX
  5
73D
  8
0
 10
38.29999999999998
 20
-16.55673284766325
 30
33.72079834722475
 70
   192
  0
VERTEX
  5
73E
  8
0
 10
38.06466719138
 20
-16.69592980506599
 30
33.58160138982204
 70
   192
  0
VERTEX
  5
73F
  8
0
 10
38.3
 20
-25.138765597444
 30
13.001938489974
 70
   192
  0
VERTEX
  5
740
  8
0
 10
38.26675425107737
 20
-25.13876559754302
 30
13.11236048039807
 70
   192
  0
VERTEX
  5
741
  8
0
 10
38.17922570711454
 20
-25.13876559754302
 30
13.18557748651049
 70
   192
  0
VERTEX
  5
742
  8
0
 10
38.06466719138001
 20
-25.138765597444
 30
13.198792714974
 70
   192
  0
VERTEX
  5
743
  8
0
 10
38.17922570711455
 20
-25.13876559734498
 30
37.09195370837751
 70
   192
  0
VERTEX
  5
744
  8
0
 10
38.26675425107737
 20
-25.13876559734498
 30
37.16517071448994
 70
   192
  0
VERTEX
  5
745
  8
0
 10
0.0
 20
0.0
 30
0.0
 70
   128
 71
     6
 72
     4
 73
    -3
  0
VERTEX
  5
746
  8
0
 10
0.0
 20
0.0
 30
0.0
 70
   128
 71
     5
 72
    -6
 73
     3
  0
VERTEX
  5
747
  8
0
 10
0.0
 20
0.0
 30
0.0
 70
   128
 71
     5
 72
     9
 73
    10
  0
VERTEX
  5
748
  8
0
 10
0.0
 20
0.0
 30
0.0
 70
   128
 71
    11
 72
     6
 73
     5
  0
VERTEX
  5
749
  8
0
 10
0.0
 20
0.0
 30
0.0
 70
   128
 71
    10
 72
    11
 73
     5
  0
VERTEX
  5
74A
  8
0
 10
0.0
 20
0.0
 30
0.0
 70
   128
 71
    11
 72
    12
 73
     6
  0
VERTEX
  5
74B
  8
0
 10
0.0
 20
0.0
 30
0.0
 70
   128
 71
     8
 72
     1
 73
    13
  0
VERTEX
  5
74C
  8
0
 10
0.0
 20
0.0
 30
0.0
 70
   128
 71
     8
 72
    13
 73
    14
  0
VERTEX
  5
74D
  8
0
 10
0.0
 20
0.0
 30
0.0
 70
   128
 71
     7
 72
     8
 73
    14
  0
VERTEX
  5
74E
  8
0
 10
0.0
 20
0.0
 30
0.0
 70
   128
 71
    14
 72
     2
 73
     7
  0
VERTEX
  5
74F
  8
0
 10
0.0
 20
0.0
 30
0.0
 70
   128
 71
     4
 72
     8
 73
    -7
  0
VERTEX
  5
750
  8
0
 10
0.0
 20
0.0
 30
0.0
 70
   128
 71
     3
 72
    -4
 73
     7
  0
SEQEND
  5
C6B
  8
0
  0
POLYLINE
  5
751
  8
0
 66
     1
 10
0.0
 20
0.0
 30
0.0
 70
    64
 71
    14
 72
    12
  0
VERTEX
  5
752
  8
0
 10
38.06466719138
 20
-25.138765597444
 30
13.198792714974
 70
   192
  0
VERTEX
  5
753
  8
0
 10
38.3
 20
-25.138765597444
 30
13.001938489974
 70
   192
  0
VERTEX
  5
754
  8
0
 10
38.3
 20
-37.275592704914
 30
25.138765597444
 70
   192
  0
VERTEX
  5
755
  8
0
 10
38.06466719138001
 20
-37.078738479914
 30
25.13876559744396
 70
   192
  0
VERTEX
  5
756
  8
0
 10
38.29999999999999
 20
-33.72079834722476
 30
33.72079834722476
 70
   192
  0
VERTEX
  5
757
  8
0
 10
38.06466719138
 20
-33.58160138982205
 30
33.581601389822
 70
   192
  0
VERTEX
  5
758
  8
0
 10
38.29999999999998
 20
-33.72079834722474
 30
16.55673284766325
 70
   192
  0
VERTEX
  5
759
  8
0
 10
38.06466719138
 20
-33.581601389822
 30
16.69592980506595
 70
   192
  0
VERTEX
  5
75A
  8
0
 10
38.3
 20
-25.138765597444
 30
37.275592704914
 70
   192
  0
VERTEX
  5
75B
  8
0
 10
38.26675425107737
 20
-25.13876559734498
 30
37.16517071448994
 70
   192
  0
VERTEX
  5
75C
  8
0
 10
38.17922570711455
 20
-25.13876559734498
 30
37.09195370837751
 70
   192
  0
VERTEX
  5
75D
  8
0
 10
38.06466719138001
 20
-25.13876559744401
 30
37.07873847991401
 70
   192
  0
VERTEX
  5
75E
  8
0
 10
38.17922570711454
 20
-25.13876559754302
 30
13.18557748651049
 70
   192
  0
VERTEX
  5
75F
  8
0
 10
38.26675425107737
 20
-25.13876559754302
 30
13.11236048039807
 70
   192
  0
VERTEX
  5
760
  8
0
 10
0.0
 20
0.0
 30
0.0
 70
   128
 71
     6
 72
     4
 73
    -3
  0
VERTEX
  5
761
  8
0
 10
0.0
 20
0.0
 30
0.0
 70
   128
 71
     5
 72
    -6
 73
     3
  0
VERTEX
  5
762
  8
0
 10
0.0
 20
0.0
 30
0.0
 70
   128
 71
     5
 72
     9
 73
    10
  0
VERTEX
  5
763
  8
0
 10
0.0
 20
0.0
 30
0.0
 70
   128
 71
    11
 72
     6
 73
     5
  0
VERTEX
  5
764
  8
0
 10
0.0
 20
0.0
 30
0.0
 70
   128
 71
    10
 72
    11
 73
     5
  0
VERTEX
  5
765
  8
0
 10
0.0
 20
0.0
 30
0.0
 70
   128
 71
    11
 72
    12
 73
     6
  0
VERTEX
  5
766
  8
0
 10
0.0
 20
0.0
 30
0.0
 70
   128
 71
     8
 72
     1
 73
    13
  0
VERTEX
  5
767
  8
0
 10
0.0
 20
0.0
 30
0.0
 70
   128
 71
     8
 72
    13
 73
    14
  0
VERTEX
  5
768
  8
0
 10
0.0
 20
0.0
 30
0.0
 70
   128
 71
     7
 72
     8
 73
    14
  0
VERTEX
  5
769
  8
0
 10
0.0
 20
0.0
 30
0.0
 70
   128
 71
    14
 72
     2
 73
     7
  0
VERTEX
  5
76A
  8
0
 10
0.0
 20
0.0
 30
0.0
 70
   128
 71
     4
 72
     8
 73
    -7
  0
VERTEX
  5
76B
  8
0
 10
0.0
 20
0.0
 30
0.0
 70
   128
 71
     3
 72
    -4
 73
     7
  0
SEQEND
  5
C6C
  8
0
  0
POLYLINE
  5
76C
  8
0
 66
     1
 10
0.0
 20
0.0
 30
0.0
 70
    64
 71
    24
 72
    24
  0
VERTEX
  5
76D
  8
0
 10
38.3
 20
-25.138765597444
 30
51.938765618744
 70
   192
  0
VERTEX
  5
76E
  8
0
 10
38.29999999999999
 20
-15.27382737334538
 30
50.05709208572161
 70
   192
  0
VERTEX
  5
76F
  8
0
 10
38.29999999999999
 20
-6.188303846583134
 30
44.08922734830483
 70
   192
  0
VERTEX
  5
770
  8
0
 10
38.29999999999999
 20
-0.2204391091663639
 30
35.00370382154257
 70
   192
  0
VERTEX
  5
771
  8
0
 10
38.3
 20
1.661234423856002
 30
25.13876559744395
 70
   192
  0
VERTEX
  5
772
  8
0
 10
38.3
 20
-0.2204391091663971
 30
15.27382737334534
 70
   192
  0
VERTEX
  5
773
  8
0
 10
38.29999999999999
 20
-6.188303846583175
 30
6.188303846583133
 70
   192
  0
VERTEX
  5
774
  8
0
 10
38.29999999999999
 20
-15.2738273733454
 30
0.2204391091663757
 70
   192
  0
VERTEX
  5
775
  8
0
 10
38.3
 20
-25.138765597444
 30
-1.661234423856001
 70
   192
  0
VERTEX
  5
776
  8
0
 10
38.29999999999999
 20
-35.00370382154262
 30
0.220439109166385
 70
   192
  0
VERTEX
  5
777
  8
0
 10
38.29999999999999
 20
-44.08922734830487
 30
6.188303846583178
 70
   192
  0
VERTEX
  5
778
  8
0
 10
38.29999999999999
 20
-50.05709208572164
 30
15.27382737334544
 70
   192
  0
VERTEX
  5
779
  8
0
 10
38.3
 20
-51.93876561874401
 30
25.13876559744406
 70
   192
  0
VERTEX
  5
77A
  8
0
 10
38.3
 20
-50.05709208572161
 30
35.00370382154265
 70
   192
  0
VERTEX
  5
77B
  8
0
 10
38.29999999999999
 20
-44.08922734830483
 30
44.08922734830487
 70
   192
  0
VERTEX
  5
77C
  8
0
 10
38.29999999999999
 20
-35.0037038215426
 30
50.05709208572163
 70
   192
  0
VERTEX
  5
77D
  8
0
 10
38.3
 20
-25.138765597444
 30
37.275592704914
 70
   192
  0
VERTEX
  5
77E
  8
0
 10
38.29999999999999
 20
-33.72079834722476
 30
33.72079834722476
 70
   192
  0
VERTEX
  5
77F
  8
0
 10
38.3
 20
-37.275592704914
 30
25.138765597444
 70
   192
  0
VERTEX
  5
780
  8
0
 10
38.29999999999998
 20
-33.72079834722474
 30
16.55673284766325
 70
   192
  0
VERTEX
  5
781
  8
0
 10
38.3
 20
-25.138765597444
 30
13.001938489974
 70
   192
  0
VERTEX
  5
782
  8
0
 10
38.29999999999999
 20
-16.55673284766326
 30
16.55673284766326
 70
   192
  0
VERTEX
  5
783
  8
0
 10
38.3
 20
-13.001938489974
 30
25.138765597444
 70
   192
  0
VERTEX
  5
784
  8
0
 10
38.29999999999998
 20
-16.55673284766325
 30
33.72079834722475
 70
   192
  0
VERTEX
  5
785
  8
0
 10
0.0
 20
0.0
 30
0.0
 70
   128
 71
    -1
 72
    17
 73
   -18
  0
VERTEX
  5
786
  8
0
 10
0.0
 20
0.0
 30
0.0
 70
   128
 71
    16
 72
    -1
 73
   -18
  0
VERTEX
  5
787
  8
0
 10
0.0
 20
0.0
 30
0.0
 70
   128
 71
    15
 72
   -16
 73
   -18
  0
VERTEX
  5
788
  8
0
 10
0.0
 20
0.0
 30
0.0
 70
   128
 71
    13
 72
    14
 73
   -15
  0
VERTEX
  5
789
  8
0
 10
0.0
 20
0.0
 30
0.0
 70
   128
 71
   -19
 72
   -13
 73
   -15
  0
VERTEX
  5
78A
  8
0
 10
0.0
 20
0.0
 30
0.0
 70
   128
 71
    18
 72
   -19
 73
   -15
  0
VERTEX
  5
78B
  8
0
 10
0.0
 20
0.0
 30
0.0
 70
   128
 71
    11
 72
    12
 73
   -13
  0
VERTEX
  5
78C
  8
0
 10
0.0
 20
0.0
 30
0.0
 70
   128
 71
   -20
 72
   -11
 73
   -13
  0
VERTEX
  5
78D
  8
0
 10
0.0
 20
0.0
 30
0.0
 70
   128
 71
    19
 72
   -20
 73
   -13
  0
VERTEX
  5
78E
  8
0
 10
0.0
 20
0.0
 30
0.0
 70
   128
 71
     9
 72
    10
 73
   -11
  0
VERTEX
  5
78F
  8
0
 10
0.0
 20
0.0
 30
0.0
 70
   128
 71
   -21
 72
    -9
 73
   -11
  0
VERTEX
  5
790
  8
0
 10
0.0
 20
0.0
 30
0.0
 70
   128
 71
    20
 72
   -21
 73
   -11
  0
VERTEX
  5
791
  8
0
 10
0.0
 20
0.0
 30
0.0
 70
   128
 71
     7
 72
     8
 73
    -9
  0
VERTEX
  5
792
  8
0
 10
0.0
 20
0.0
 30
0.0
 70
   128
 71
   -22
 72
    -7
 73
    -9
  0
VERTEX
  5
793
  8
0
 10
0.0
 20
0.0
 30
0.0
 70
   128
 71
    21
 72
   -22
 73
    -9
  0
VERTEX
  5
794
  8
0
 10
0.0
 20
0.0
 30
0.0
 70
   128
 71
     5
 72
     6
 73
    -7
  0
VERTEX
  5
795
  8
0
 10
0.0
 20
0.0
 30
0.0
 70
   128
 71
   -23
 72
    -5
 73
    -7
  0
VERTEX
  5
796
  8
0
 10
0.0
 20
0.0
 30
0.0
 70
   128
 71
    22
 72
   -23
 73
    -7
  0
VERTEX
  5
797
  8
0
 10
0.0
 20
0.0
 30
0.0
 70
   128
 71
     3
 72
     4
 73
    -5
  0
VERTEX
  5
798
  8
0
 10
0.0
 20
0.0
 30
0.0
 70
   128
 71
   -24
 72
    -3
 73
    -5
  0
VERTEX
  5
799
  8
0
 10
0.0
 20
0.0
 30
0.0
 70
   128
 71
    23
 72
   -24
 73
    -5
  0
VERTEX
  5
79A
  8
0
 10
0.0
 20
0.0
 30
0.0
 70
   128
 71
     1
 72
     2
 73
    -3
  0
VERTEX
  5
79B
  8
0
 10
0.0
 20
0.0
 30
0.0
 70
   128
 71
   -17
 72
    -1
 73
    -3
  0
VERTEX
  5
79C
  8
0
 10
0.0
 20
0.0
 30
0.0
 70
   128
 71
    24
 72
   -17
 73
    -3
  0
SEQEND
  5
C6D
  8
0
  0
POLYLINE
  5
79D
  8
0
 66
     1
 10
0.0
 20
0.0
 30
0.0
 70
    64
 71
    22
 72
    20
  0
VERTEX
  5
79E
  8
0
 10
38.3
 20
-25.138765597444
 30
51.938765618744
 70
   192
  0
VERTEX
  5
79F
  8
0
 10
38.3
 20
-25.138765597444
 30
-1.661234423856001
 70
   192
  0
VERTEX
  5
7A0
  8
0
 10
38.1
 20
-25.138765597444
 30
-1.861234402556001
 70
   192
  0
VERTEX
  5
7A1
  8
0
 10
38.1
 20
-25.138765597444
 30
52.138765597444
 70
   192
  0
VERTEX
  5
7A2
  8
0
 10
38.1
 20
1.861234402556001
 30
25.138765597444
 70
   192
  0
VERTEX
  5
7A3
  8
0
 10
38.3
 20
1.661234423856002
 30
25.13876559744395
 70
   192
  0
VERTEX
  5
7A4
  8
0
 10
38.1
 20
-6.046882505407212
 30
6.046882505407212
 70
   192
  0
VERTEX
  5
7A5
  8
0
 10
38.29999999999999
 20
-6.188303846583175
 30
6.188303846583133
 70
   192
  0
VERTEX
  5
7A6
  8
0
 10
38.10000000000001
 20
-15.20020843927343
 30
0.0344814687583786
 70
   192
  0
VERTEX
  5
7A7
  8
0
 10
38.29999999999999
 20
-15.2738273733454
 30
0.2204391091663757
 70
   192
  0
VERTEX
  5
7A8
  8
0
 10
38.1
 20
-0.0344814687583786
 30
15.20020843927343
 70
   192
  0
VERTEX
  5
7A9
  8
0
 10
38.3
 20
-0.2204391091663971
 30
15.27382737334534
 70
   192
  0
VERTEX
  5
7AA
  8
0
 10
38.1
 20
-6.04688250540721
 30
44.23064868948079
 70
   192
  0
VERTEX
  5
7AB
  8
0
 10
38.29999999999999
 20
-6.188303846583134
 30
44.08922734830483
 70
   192
  0
VERTEX
  5
7AC
  8
0
 10
38.10000000000001
 20
-0.0344814687583794
 30
35.07732275561458
 70
   192
  0
VERTEX
  5
7AD
  8
0
 10
38.29999999999999
 20
-0.2204391091663639
 30
35.00370382154257
 70
   192
  0
VERTEX
  5
7AE
  8
0
 10
38.10000000000001
 20
-15.20020843927344
 30
50.24304972612963
 70
   192
  0
VERTEX
  5
7AF
  8
0
 10
38.29999999999999
 20
-15.27382737334538
 30
50.05709208572161
 70
   192
  0
VERTEX
  5
7B0
  8
0
 10
38.19780832955255
 20
-25.138765597444
 30
-1.835686489588922
 70
   192
  0
VERTEX
  5
7B1
  8
0
 10
38.27445207661633
 20
-25.138765597444
 30
-1.759042750687686
 70
   192
  0
VERTEX
  5
7B2
  8
0
 10
38.27445207661633
 20
-25.138765597444
 30
52.03657394557568
 70
   192
  0
VERTEX
  5
7B3
  8
0
 10
38.19780832955255
 20
-25.138765597444
 30
52.11321768447693
 70
   192
  0
VERTEX
  5
7B4
  8
0
 10
0.0
 20
0.0
 30
0.0
 70
   128
 71
    10
 72
     8
 73
    -7
  0
VERTEX
  5
7B5
  8
0
 10
0.0
 20
0.0
 30
0.0
 70
   128
 71
     9
 72
   -10
 73
     7
  0
VERTEX
  5
7B6
  8
0
 10
0.0
 20
0.0
 30
0.0
 70
   128
 71
     9
 72
     3
 73
    19
  0
VERTEX
  5
7B7
  8
0
 10
0.0
 20
0.0
 30
0.0
 70
   128
 71
    20
 72
    10
 73
     9
  0
VERTEX
  5
7B8
  8
0
 10
0.0
 20
0.0
 30
0.0
 70
   128
 71
    19
 72
    20
 73
     9
  0
VERTEX
  5
7B9
  8
0
 10
0.0
 20
0.0
 30
0.0
 70
   128
 71
    20
 72
     2
 73
    10
  0
VERTEX
  5
7BA
  8
0
 10
0.0
 20
0.0
 30
0.0
 70
   128
 71
    12
 72
     6
 73
    -5
  0
VERTEX
  5
7BB
  8
0
 10
0.0
 20
0.0
 30
0.0
 70
   128
 71
    11
 72
   -12
 73
     5
  0
VERTEX
  5
7BC
  8
0
 10
0.0
 20
0.0
 30
0.0
 70
   128
 71
     8
 72
    12
 73
   -11
  0
VERTEX
  5
7BD
  8
0
 10
0.0
 20
0.0
 30
0.0
 70
   128
 71
     7
 72
    -8
 73
    11
  0
VERTEX
  5
7BE
  8
0
 10
0.0
 20
0.0
 30
0.0
 70
   128
 71
    16
 72
    14
 73
   -13
  0
VERTEX
  5
7BF
  8
0
 10
0.0
 20
0.0
 30
0.0
 70
   128
 71
    15
 72
   -16
 73
    13
  0
VERTEX
  5
7C0
  8
0
 10
0.0
 20
0.0
 30
0.0
 70
   128
 71
     6
 72
    16
 73
   -15
  0
VERTEX
  5
7C1
  8
0
 10
0.0
 20
0.0
 30
0.0
 70
   128
 71
     5
 72
    -6
 73
    15
  0
VERTEX
  5
7C2
  8
0
 10
0.0
 20
0.0
 30
0.0
 70
   128
 71
    18
 72
     1
 73
    21
  0
VERTEX
  5
7C3
  8
0
 10
0.0
 20
0.0
 30
0.0
 70
   128
 71
    18
 72
    21
 73
    22
  0
VERTEX
  5
7C4
  8
0
 10
0.0
 20
0.0
 30
0.0
 70
   128
 71
    17
 72
    18
 73
    22
  0
VERTEX
  5
7C5
  8
0
 10
0.0
 20
0.0
 30
0.0
 70
   128
 71
    22
 72
     4
 73
    17
  0
VERTEX
  5
7C6
  8
0
 10
0.0
 20
0.0
 30
0.0
 70
   128
 71
    14
 72
    18
 73
   -17
  0
VERTEX
  5
7C7
  8
0
 10
0.0
 20
0.0
 30
0.0
 70
   128
 71
    13
 72
   -14
 73
    17
  0
SEQEND
  5
C6E
  8
0
  0
POLYLINE
  5
7C8
  8
0
 66
     1
 10
0.0
 20
0.0
 30
0.0
 70
    64
 71
    22
 72
    20
  0
VERTEX
  5
7C9
  8
0
 10
38.3
 20
-25.138765597444
 30
-1.661234423856001
 70
   192
  0
VERTEX
  5
7CA
  8
0
 10
38.3
 20
-25.138765597444
 30
51.938765618744
 70
   192
  0
VERTEX
  5
7CB
  8
0
 10
38.1
 20
-25.138765597444
 30
52.138765597444
 70
   192
  0
VERTEX
  5
7CC
  8
0
 10
38.1
 20
-25.138765597444
 30
-1.861234402556001
 70
   192
  0
VERTEX
  5
7CD
  8
0
 10
38.1
 20
-52.138765597444
 30
25.138765597444
 70
   192
  0
VERTEX
  5
7CE
  8
0
 10
38.3
 20
-51.93876561874401
 30
25.13876559744406
 70
   192
  0
VERTEX
  5
7CF
  8
0
 10
38.1
 20
-44.23064868948079
 30
44.23064868948079
 70
   192
  0
VERTEX
  5
7D0
  8
0
 10
38.29999999999999
 20
-44.08922734830483
 30
44.08922734830487
 70
   192
  0
VERTEX
  5
7D1
  8
0
 10
38.10000000000001
 20
-35.07732275561457
 30
50.24304972612962
 70
   192
  0
VERTEX
  5
7D2
  8
0
 10
38.29999999999999
 20
-35.0037038215426
 30
50.05709208572163
 70
   192
  0
VERTEX
  5
7D3
  8
0
 10
38.1
 20
-50.24304972612962
 30
35.07732275561457
 70
   192
  0
VERTEX
  5
7D4
  8
0
 10
38.3
 20
-50.05709208572161
 30
35.00370382154265
 70
   192
  0
VERTEX
  5
7D5
  8
0
 10
38.1
 20
-44.23064868948079
 30
6.046882505407212
 70
   192
  0
VERTEX
  5
7D6
  8
0
 10
38.29999999999999
 20
-44.08922734830487
 30
6.188303846583178
 70
   192
  0
VERTEX
  5
7D7
  8
0
 10
38.10000000000001
 20
-50.24304972612963
 30
15.20020843927343
 70
   192
  0
VERTEX
  5
7D8
  8
0
 10
38.29999999999999
 20
-50.05709208572164
 30
15.27382737334544
 70
   192
  0
VERTEX
  5
7D9
  8
0
 10
38.10000000000001
 20
-35.07732275561457
 30
0.0344814687583769
 70
   192
  0
VERTEX
  5
7DA
  8
0
 10
38.29999999999999
 20
-35.00370382154262
 30
0.220439109166385
 70
   192
  0
VERTEX
  5
7DB
  8
0
 10
38.19780832955255
 20
-25.138765597444
 30
52.11321768447693
 70
   192
  0
VERTEX
  5
7DC
  8
0
 10
38.27445207661633
 20
-25.138765597444
 30
52.03657394557568
 70
   192
  0
VERTEX
  5
7DD
  8
0
 10
38.27445207661633
 20
-25.138765597444
 30
-1.759042750687686
 70
   192
  0
VERTEX
  5
7DE
  8
0
 10
38.19780832955255
 20
-25.138765597444
 30
-1.835686489588922
 70
   192
  0
VERTEX
  5
7DF
  8
0
 10
0.0
 20
0.0
 30
0.0
 70
   128
 71
    10
 72
     8
 73
    -7
  0
VERTEX
  5
7E0
  8
0
 10
0.0
 20
0.0
 30
0.0
 70
   128
 71
     9
 72
   -10
 73
     7
  0
VERTEX
  5
7E1
  8
0
 10
0.0
 20
0.0
 30
0.0
 70
   128
 71
     9
 72
     3
 73
    19
  0
VERTEX
  5
7E2
  8
0
 10
0.0
 20
0.0
 30
0.0
 70
   128
 71
    20
 72
    10
 73
     9
  0
VERTEX
  5
7E3
  8
0
 10
0.0
 20
0.0
 30
0.0
 70
   128
 71
    19
 72
    20
 73
     9
  0
VERTEX
  5
7E4
  8
0
 10
0.0
 20
0.0
 30
0.0
 70
   128
 71
    20
 72
     2
 73
    10
  0
VERTEX
  5
7E5
  8
0
 10
0.0
 20
0.0
 30
0.0
 70
   128
 71
    12
 72
     6
 73
    -5
  0
VERTEX
  5
7E6
  8
0
 10
0.0
 20
0.0
 30
0.0
 70
   128
 71
    11
 72
   -12
 73
     5
  0
VERTEX
  5
7E7
  8
0
 10
0.0
 20
0.0
 30
0.0
 70
   128
 71
     8
 72
    12
 73
   -11
  0
VERTEX
  5
7E8
  8
0
 10
0.0
 20
0.0
 30
0.0
 70
   128
 71
     7
 72
    -8
 73
    11
  0
VERTEX
  5
7E9
  8
0
 10
0.0
 20
0.0
 30
0.0
 70
   128
 71
    16
 72
    14
 73
   -13
  0
VERTEX
  5
7EA
  8
0
 10
0.0
 20
0.0
 30
0.0
 70
   128
 71
    15
 72
   -16
 73
    13
  0
VERTEX
  5
7EB
  8
0
 10
0.0
 20
0.0
 30
0.0
 70
   128
 71
     6
 72
    16
 73
   -15
  0
VERTEX
  5
7EC
  8
0
 10
0.0
 20
0.0
 30
0.0
 70
   128
 71
     5
 72
    -6
 73
    15
  0
VERTEX
  5
7ED
  8
0
 10
0.0
 20
0.0
 30
0.0
 70
   128
 71
    18
 72
     1
 73
    21
  0
VERTEX
  5
7EE
  8
0
 10
0.0
 20
0.0
 30
0.0
 70
   128
 71
    18
 72
    21
 73
    22
  0
VERTEX
  5
7EF
  8
0
 10
0.0
 20
0.0
 30
0.0
 70
   128
 71
    17
 72
    18
 73
    22
  0
VERTEX
  5
7F0
  8
0
 10
0.0
 20
0.0
 30
0.0
 70
   128
 71
    22
 72
     4
 73
    17
  0
VERTEX
  5
7F1
  8
0
 10
0.0
 20
0.0
 30
0.0
 70
   128
 71
    14
 72
    18
 73
   -17
  0
VERTEX
  5
7F2
  8
0
 10
0.0
 20
0.0
 30
0.0
 70
   128
 71
    13
 72
   -14
 73
    17
  0
SEQEND
  5
C6F
  8
0
  0
POLYLINE
  5
7F3
  8
0
 66
     1
 10
0.0
 20
0.0
 30
0.0
 70
    64
 71
    18
 72
    16
  0
VERTEX
  5
7F4
  8
0
 10
38.1
 20
-25.138765597444
 30
-1.861234402556001
 70
   192
  0
VERTEX
  5
7F5
  8
0
 10
38.1
 20
-25.138765597444
 30
52.138765597444
 70
   192
  0
VERTEX
  5
7F6
  8
0
 10
20.0
 20
-25.138765597444
 30
52.138765597444
 70
   192
  0
VERTEX
  5
7F7
  8
0
 10
20.0
 20
-25.13876559744398
 30
-1.861234402556001
 70
   192
  0
VERTEX
  5
7F8
  8
0
 10
20.0
 20
-52.138765597444
 30
25.13876559744399
 70
   192
  0
VERTEX
  5
7F9
  8
0
 10
38.1
 20
-52.138765597444
 30
25.138765597444
 70
   192
  0
VERTEX
  5
7FA
  8
0
 10
20.0
 20
-44.23064868948076
 30
44.23064868948076
 70
   192
  0
VERTEX
  5
7FB
  8
0
 10
38.1
 20
-44.23064868948079
 30
44.23064868948079
 70
   192
  0
VERTEX
  5
7FC
  8
0
 10
20.0
 20
-35.07732275561455
 30
50.24304972612961
 70
   192
  0
VERTEX
  5
7FD
  8
0
 10
38.10000000000001
 20
-35.07732275561457
 30
50.24304972612962
 70
   192
  0
VERTEX
  5
7FE
  8
0
 10
20.0
 20
-50.24304972612961
 30
35.07732275561455
 70
   192
  0
VERTEX
  5
7FF
  8
0
 10
38.1
 20
-50.24304972612962
 30
35.07732275561457
 70
   192
  0
VERTEX
  5
800
  8
0
 10
20.0
 20
-44.23064868948075
 30
6.046882505407226
 70
   192
  0
VERTEX
  5
801
  8
0
 10
38.1
 20
-44.23064868948079
 30
6.046882505407212
 70
   192
  0
VERTEX
  5
802
  8
0
 10
20.0
 20
-50.24304972612961
 30
15.20020843927344
 70
   192
  0
VERTEX
  5
803
  8
0
 10
38.10000000000001
 20
-50.24304972612963
 30
15.20020843927343
 70
   192
  0
VERTEX
  5
804
  8
0
 10
20.0
 20
-35.07732275561454
 30
0.0344814687583874
 70
   192
  0
VERTEX
  5
805
  8
0
 10
38.10000000000001
 20
-35.07732275561457
 30
0.0344814687583769
 70
   192
  0
VERTEX
  5
806
  8
0
 10
0.0
 20
0.0
 30
0.0
 70
   128
 71
     7
 72
     9
 73
   -10
  0
VERTEX
  5
807
  8
0
 10
0.0
 20
0.0
 30
0.0
 70
   128
 71
     8
 72
    -7
 73
    10
  0
VERTEX
  5
808
  8
0
 10
0.0
 20
0.0
 30
0.0
 70
   128
 71
     9
 72
     3
 73
    -2
  0
VERTEX
  5
809
  8
0
 10
0.0
 20
0.0
 30
0.0
 70
   128
 71
    10
 72
    -9
 73
     2
  0
VERTEX
  5
80A
  8
0
 10
0.0
 20
0.0
 30
0.0
 70
   128
 71
     5
 72
    11
 73
   -12
  0
VERTEX
  5
80B
  8
0
 10
0.0
 20
0.0
 30
0.0
 70
   128
 71
     6
 72
    -5
 73
    12
  0
VERTEX
  5
80C
  8
0
 10
0.0
 20
0.0
 30
0.0
 70
   128
 71
    11
 72
     7
 73
    -8
  0
VERTEX
  5
80D
  8
0
 10
0.0
 20
0.0
 30
0.0
 70
   128
 71
    12
 72
   -11
 73
     8
  0
VERTEX
  5
80E
  8
0
 10
0.0
 20
0.0
 30
0.0
 70
   128
 71
    13
 72
    15
 73
   -16
  0
VERTEX
  5
80F
  8
0
 10
0.0
 20
0.0
 30
0.0
 70
   128
 71
    14
 72
   -13
 73
    16
  0
VERTEX
  5
810
  8
0
 10
0.0
 20
0.0
 30
0.0
 70
   128
 71
    15
 72
     5
 73
    -6
  0
VERTEX
  5
811
  8
0
 10
0.0
 20
0.0
 30
0.0
 70
   128
 71
    16
 72
   -15
 73
     6
  0
VERTEX
  5
812
  8
0
 10
0.0
 20
0.0
 30
0.0
 70
   128
 71
     1
 72
     4
 73
   -17
  0
VERTEX
  5
813
  8
0
 10
0.0
 20
0.0
 30
0.0
 70
   128
 71
    18
 72
    -1
 73
    17
  0
VERTEX
  5
814
  8
0
 10
0.0
 20
0.0
 30
0.0
 70
   128
 71
    17
 72
    13
 73
   -14
  0
VERTEX
  5
815
  8
0
 10
0.0
 20
0.0
 30
0.0
 70
   128
 71
    18
 72
   -17
 73
    14
  0
SEQEND
  5
C70
  8
0
  0
POLYLINE
  5
816
  8
0
 66
     1
 10
0.0
 20
0.0
 30
0.0
 70
    64
 71
    18
 72
    16
  0
VERTEX
  5
817
  8
0
 10
38.1
 20
-25.138765597444
 30
52.138765597444
 70
   192
  0
VERTEX
  5
818
  8
0
 10
38.1
 20
-25.138765597444
 30
-1.861234402556001
 70
   192
  0
VERTEX
  5
819
  8
0
 10
20.0
 20
-25.13876559744398
 30
-1.861234402556001
 70
   192
  0
VERTEX
  5
81A
  8
0
 10
20.0
 20
-25.138765597444
 30
52.138765597444
 70
   192
  0
VERTEX
  5
81B
  8
0
 10
20.0
 20
1.861234402556001
 30
25.13876559744401
 70
   192
  0
VERTEX
  5
81C
  8
0
 10
38.1
 20
1.861234402556001
 30
25.138765597444
 70
   192
  0
VERTEX
  5
81D
  8
0
 10
20.0
 20
-6.046882505407206
 30
6.046882505407214
 70
   192
  0
VERTEX
  5
81E
  8
0
 10
38.1
 20
-6.046882505407212
 30
6.046882505407212
 70
   192
  0
VERTEX
  5
81F
  8
0
 10
20.0
 20
-15.20020843927342
 30
0.0344814687583791
 70
   192
  0
VERTEX
  5
820
  8
0
 10
38.10000000000001
 20
-15.20020843927343
 30
0.0344814687583786
 70
   192
  0
VERTEX
  5
821
  8
0
 10
20.0
 20
-0.0344814687583771
 30
15.20020843927343
 70
   192
  0
VERTEX
  5
822
  8
0
 10
38.1
 20
-0.0344814687583786
 30
15.20020843927343
 70
   192
  0
VERTEX
  5
823
  8
0
 10
20.0
 20
-6.046882505407209
 30
44.23064868948079
 70
   192
  0
VERTEX
  5
824
  8
0
 10
38.1
 20
-6.04688250540721
 30
44.23064868948079
 70
   192
  0
VERTEX
  5
825
  8
0
 10
20.0
 20
-0.0344814687583791
 30
35.07732275561458
 70
   192
  0
VERTEX
  5
826
  8
0
 10
38.10000000000001
 20
-0.0344814687583794
 30
35.07732275561458
 70
   192
  0
VERTEX
  5
827
  8
0
 10
20.0
 20
-15.20020843927343
 30
50.24304972612963
 70
   192
  0
VERTEX
  5
828
  8
0
 10
38.10000000000001
 20
-15.20020843927344
 30
50.24304972612963
 70
   192
  0
VERTEX
  5
829
  8
0
 10
0.0
 20
0.0
 30
0.0
 70
   128
 71
     7
 72
     9
 73
   -10
  0
VERTEX
  5
82A
  8
0
 10
0.0
 20
0.0
 30
0.0
 70
   128
 71
     8
 72
    -7
 73
    10
  0
VERTEX
  5
82B
  8
0
 10
0.0
 20
0.0
 30
0.0
 70
   128
 71
     9
 72
     3
 73
    -2
  0
VERTEX
  5
82C
  8
0
 10
0.0
 20
0.0
 30
0.0
 70
   128
 71
    10
 72
    -9
 73
     2
  0
VERTEX
  5
82D
  8
0
 10
0.0
 20
0.0
 30
0.0
 70
   128
 71
     5
 72
    11
 73
   -12
  0
VERTEX
  5
82E
  8
0
 10
0.0
 20
0.0
 30
0.0
 70
   128
 71
     6
 72
    -5
 73
    12
  0
VERTEX
  5
82F
  8
0
 10
0.0
 20
0.0
 30
0.0
 70
   128
 71
    11
 72
     7
 73
    -8
  0
VERTEX
  5
830
  8
0
 10
0.0
 20
0.0
 30
0.0
 70
   128
 71
    12
 72
   -11
 73
     8
  0
VERTEX
  5
831
  8
0
 10
0.0
 20
0.0
 30
0.0
 70
   128
 71
    13
 72
    15
 73
   -16
  0
VERTEX
  5
832
  8
0
 10
0.0
 20
0.0
 30
0.0
 70
   128
 71
    14
 72
   -13
 73
    16
  0
VERTEX
  5
833
  8
0
 10
0.0
 20
0.0
 30
0.0
 70
   128
 71
    15
 72
     5
 73
    -6
  0
VERTEX
  5
834
  8
0
 10
0.0
 20
0.0
 30
0.0
 70
   128
 71
    16
 72
   -15
 73
     6
  0
VERTEX
  5
835
  8
0
 10
0.0
 20
0.0
 30
0.0
 70
   128
 71
     1
 72
     4
 73
   -17
  0
VERTEX
  5
836
  8
0
 10
0.0
 20
0.0
 30
0.0
 70
   128
 71
    18
 72
    -1
 73
    17
  0
VERTEX
  5
837
  8
0
 10
0.0
 20
0.0
 30
0.0
 70
   128
 71
    17
 72
    13
 73
   -14
  0
VERTEX
  5
838
  8
0
 10
0.0
 20
0.0
 30
0.0
 70
   128
 71
    18
 72
   -17
 73
    14
  0
SEQEND
  5
C71
  8
0
  0
POLYLINE
  5
839
  8
0
 66
     1
 10
0.0
 20
0.0
 30
0.0
 70
    64
 71
    32
 72
    32
  0
VERTEX
  5
83A
  8
0
 10
20.0
 20
-25.138765597444
 30
52.638765597444
 70
   192
  0
VERTEX
  5
83B
  8
0
 10
20.0
 20
-15.0161610844925
 30
50.70794387666082
 70
   192
  0
VERTEX
  5
83C
  8
0
 10
20.0
 20
-5.693329114813936
 30
44.58420208007403
 70
   192
  0
VERTEX
  5
83D
  8
0
 10
20.0
 20
0.4304126817728383
 30
35.26137011039548
 70
   192
  0
VERTEX
  5
83E
  8
0
 10
20.0
 20
2.361234402556001
 30
25.13876559744397
 70
   192
  0
VERTEX
  5
83F
  8
0
 10
20.0
 20
0.4304126817728141
 30
15.01616108449248
 70
   192
  0
VERTEX
  5
840
  8
0
 10
20.0
 20
-5.69332911481396
 30
5.693329114813939
 70
   192
  0
VERTEX
  5
841
  8
0
 10
20.0
 20
-15.0161610844925
 30
-0.4304126817728303
 70
   192
  0
VERTEX
  5
842
  8
0
 10
20.0
 20
-25.13876559744397
 30
-2.361234402556001
 70
   192
  0
VERTEX
  5
843
  8
0
 10
20.0
 20
-35.26137011039546
 30
-0.4304126817728428
 70
   192
  0
VERTEX
  5
844
  8
0
 10
20.0
 20
-44.58420208007403
 30
5.693329114813916
 70
   192
  0
VERTEX
  5
845
  8
0
 10
20.0
 20
-50.70794387666082
 30
15.01616108449245
 70
   192
  0
VERTEX
  5
846
  8
0
 10
20.0
 20
-52.63876559744399
 30
25.13876559744393
 70
   192
  0
VERTEX
  5
847
  8
0
 10
20.0
 20
-50.70794387666083
 30
35.26137011039545
 70
   192
  0
VERTEX
  5
848
  8
0
 10
20.0
 20
-44.58420208007408
 30
44.58420208007403
 70
   192
  0
VERTEX
  5
849
  8
0
 10
20.0
 20
-35.26137011039552
 30
50.70794387666083
 70
   192
  0
VERTEX
  5
84A
  8
0
 10
20.0
 20
-25.138765597444
 30
52.138765597444
 70
   192
  0
VERTEX
  5
84B
  8
0
 10
20.0
 20
-35.07732275561455
 30
50.24304972612961
 70
   192
  0
VERTEX
  5
84C
  8
0
 10
20.0
 20
-44.23064868948076
 30
44.23064868948076
 70
   192
  0
VERTEX
  5
84D
  8
0
 10
20.0
 20
-50.24304972612961
 30
35.07732275561455
 70
   192
  0
VERTEX
  5
84E
  8
0
 10
20.0
 20
-52.138765597444
 30
25.13876559744399
 70
   192
  0
VERTEX
  5
84F
  8
0
 10
20.0
 20
-50.24304972612961
 30
15.20020843927344
 70
   192
  0
VERTEX
  5
850
  8
0
 10
20.0
 20
-44.23064868948075
 30
6.046882505407226
 70
   192
  0
VERTEX
  5
851
  8
0
 10
20.0
 20
-35.07732275561454
 30
0.0344814687583874
 70
   192
  0
VERTEX
  5
852
  8
0
 10
20.0
 20
-25.13876559744398
 30
-1.861234402556001
 70
   192
  0
VERTEX
  5
853
  8
0
 10
20.0
 20
-15.20020843927342
 30
0.0344814687583791
 70
   192
  0
VERTEX
  5
854
  8
0
 10
20.0
 20
-6.046882505407206
 30
6.046882505407214
 70
   192
  0
VERTEX
  5
855
  8
0
 10
20.0
 20
-0.0344814687583771
 30
15.20020843927343
 70
   192
  0
VERTEX
  5
856
  8
0
 10
20.0
 20
1.861234402556001
 30
25.13876559744401
 70
   192
  0
VERTEX
  5
857
  8
0
 10
20.0
 20
-0.0344814687583791
 30
35.07732275561458
 70
   192
  0
VERTEX
  5
858
  8
0
 10
20.0
 20
-6.046882505407209
 30
44.23064868948079
 70
   192
  0
VERTEX
  5
859
  8
0
 10
20.0
 20
-15.20020843927343
 30
50.24304972612963
 70
   192
  0
VERTEX
  5
85A
  8
0
 10
0.0
 20
0.0
 30
0.0
 70
   128
 71
    -1
 72
    17
 73
   -18
  0
VERTEX
  5
85B
  8
0
 10
0.0
 20
0.0
 30
0.0
 70
   128
 71
    16
 72
    -1
 73
   -18
  0
VERTEX
  5
85C
  8
0
 10
0.0
 20
0.0
 30
0.0
 70
   128
 71
   -19
 72
    15
 73
   -16
  0
VERTEX
  5
85D
  8
0
 10
0.0
 20
0.0
 30
0.0
 70
   128
 71
    18
 72
   -19
 73
   -16
  0
VERTEX
  5
85E
  8
0
 10
0.0
 20
0.0
 30
0.0
 70
   128
 71
   -20
 72
    14
 73
   -15
  0
VERTEX
  5
85F
  8
0
 10
0.0
 20
0.0
 30
0.0
 70
   128
 71
    19
 72
   -20
 73
   -15
  0
VERTEX
  5
860
  8
0
 10
0.0
 20
0.0
 30
0.0
 70
   128
 71
   -21
 72
    13
 73
   -14
  0
VERTEX
  5
861
  8
0
 10
0.0
 20
0.0
 30
0.0
 70
   128
 71
    20
 72
   -21
 73
   -14
  0
VERTEX
  5
862
  8
0
 10
0.0
 20
0.0
 30
0.0
 70
   128
 71
   -22
 72
    12
 73
   -13
  0
VERTEX
  5
863
  8
0
 10
0.0
 20
0.0
 30
0.0
 70
   128
 71
    21
 72
   -22
 73
   -13
  0
VERTEX
  5
864
  8
0
 10
0.0
 20
0.0
 30
0.0
 70
   128
 71
   -23
 72
    11
 73
   -12
  0
VERTEX
  5
865
  8
0
 10
0.0
 20
0.0
 30
0.0
 70
   128
 71
    22
 72
   -23
 73
   -12
  0
VERTEX
  5
866
  8
0
 10
0.0
 20
0.0
 30
0.0
 70
   128
 71
   -24
 72
    10
 73
   -11
  0
VERTEX
  5
867
  8
0
 10
0.0
 20
0.0
 30
0.0
 70
   128
 71
    23
 72
   -24
 73
   -11
  0
VERTEX
  5
868
  8
0
 10
0.0
 20
0.0
 30
0.0
 70
   128
 71
   -25
 72
     9
 73
   -10
  0
VERTEX
  5
869
  8
0
 10
0.0
 20
0.0
 30
0.0
 70
   128
 71
    24
 72
   -25
 73
   -10
  0
VERTEX
  5
86A
  8
0
 10
0.0
 20
0.0
 30
0.0
 70
   128
 71
   -26
 72
     8
 73
    -9
  0
VERTEX
  5
86B
  8
0
 10
0.0
 20
0.0
 30
0.0
 70
   128
 71
    25
 72
   -26
 73
    -9
  0
VERTEX
  5
86C
  8
0
 10
0.0
 20
0.0
 30
0.0
 70
   128
 71
   -27
 72
     7
 73
    -8
  0
VERTEX
  5
86D
  8
0
 10
0.0
 20
0.0
 30
0.0
 70
   128
 71
    26
 72
   -27
 73
    -8
  0
VERTEX
  5
86E
  8
0
 10
0.0
 20
0.0
 30
0.0
 70
   128
 71
   -28
 72
     6
 73
    -7
  0
VERTEX
  5
86F
  8
0
 10
0.0
 20
0.0
 30
0.0
 70
   128
 71
    27
 72
   -28
 73
    -7
  0
VERTEX
  5
870
  8
0
 10
0.0
 20
0.0
 30
0.0
 70
   128
 71
   -29
 72
     5
 73
    -6
  0
VERTEX
  5
871
  8
0
 10
0.0
 20
0.0
 30
0.0
 70
   128
 71
    28
 72
   -29
 73
    -6
  0
VERTEX
  5
872
  8
0
 10
0.0
 20
0.0
 30
0.0
 70
   128
 71
   -30
 72
     4
 73
    -5
  0
VERTEX
  5
873
  8
0
 10
0.0
 20
0.0
 30
0.0
 70
   128
 71
    29
 72
   -30
 73
    -5
  0
VERTEX
  5
874
  8
0
 10
0.0
 20
0.0
 30
0.0
 70
   128
 71
   -31
 72
     3
 73
    -4
  0
VERTEX
  5
875
  8
0
 10
0.0
 20
0.0
 30
0.0
 70
   128
 71
    30
 72
   -31
 73
    -4
  0
VERTEX
  5
876
  8
0
 10
0.0
 20
0.0
 30
0.0
 70
   128
 71
   -32
 72
     2
 73
    -3
  0
VERTEX
  5
877
  8
0
 10
0.0
 20
0.0
 30
0.0
 70
   128
 71
    31
 72
   -32
 73
    -3
  0
VERTEX
  5
878
  8
0
 10
0.0
 20
0.0
 30
0.0
 70
   128
 71
   -17
 72
     1
 73
    -2
  0
VERTEX
  5
879
  8
0
 10
0.0
 20
0.0
 30
0.0
 70
   128
 71
    32
 72
   -17
 73
    -2
  0
SEQEND
  5
C72
  8
0
  0
POLYLINE
  5
87A
  8
0
 66
     1
 10
0.0
 20
0.0
 30
0.0
 70
    64
 71
    18
 72
    16
  0
VERTEX
  5
87B
  8
0
 10
38.3
 20
-25.138765597444
 30
52.638765597444
 70
   192
  0
VERTEX
  5
87C
  8
0
 10
20.0
 20
-25.138765597444
 30
52.638765597444
 70
   192
  0
VERTEX
  5
87D
  8
0
 10
20.0
 20
-25.13876559744397
 30
-2.361234402556001
 70
   192
  0
VERTEX
  5
87E
  8
0
 10
38.3
 20
-25.138765597444
 30
-2.361234402556001
 70
   192
  0
VERTEX
  5
87F
  8
0
 10
20.0
 20
2.361234402556001
 30
25.13876559744397
 70
   192
  0
VERTEX
  5
880
  8
0
 10
38.3
 20
2.361234402556001
 30
25.13876559744396
 70
   192
  0
VERTEX
  5
881
  8
0
 10
20.0
 20
-5.69332911481396
 30
5.693329114813939
 70
   192
  0
VERTEX
  5
882
  8
0
 10
38.29999999999998
 20
-5.693329114813969
 30
5.693329114813933
 70
   192
  0
VERTEX
  5
883
  8
0
 10
20.0
 20
-15.0161610844925
 30
-0.4304126817728303
 70
   192
  0
VERTEX
  5
884
  8
0
 10
38.3
 20
-15.01616108449252
 30
-0.4304126817728315
 70
   192
  0
VERTEX
  5
885
  8
0
 10
20.0
 20
0.4304126817728141
 30
15.01616108449248
 70
   192
  0
VERTEX
  5
886
  8
0
 10
38.3
 20
0.4304126817728118
 30
15.01616108449247
 70
   192
  0
VERTEX
  5
887
  8
0
 10
20.0
 20
-5.693329114813936
 30
44.58420208007403
 70
   192
  0
VERTEX
  5
888
  8
0
 10
38.29999999999998
 20
-5.693329114813933
 30
44.58420208007403
 70
   192
  0
VERTEX
  5
889
  8
0
 10
20.0
 20
0.4304126817728383
 30
35.26137011039548
 70
   192
  0
VERTEX
  5
88A
  8
0
 10
38.29999999999999
 20
0.4304126817728386
 30
35.26137011039546
 70
   192
  0
VERTEX
  5
88B
  8
0
 10
20.0
 20
-15.0161610844925
 30
50.70794387666082
 70
   192
  0
VERTEX
  5
88C
  8
0
 10
38.29999999999999
 20
-15.01616108449249
 30
50.70794387666082
 70
   192
  0
VERTEX
  5
88D
  8
0
 10
0.0
 20
0.0
 30
0.0
 70
   128
 71
     8
 72
    10
 73
    -9
  0
VERTEX
  5
88E
  8
0
 10
0.0
 20
0.0
 30
0.0
 70
   128
 71
     7
 72
    -8
 73
     9
  0
VERTEX
  5
88F
  8
0
 10
0.0
 20
0.0
 30
0.0
 70
   128
 71
    10
 72
     4
 73
    -3
  0
VERTEX
  5
890
  8
0
 10
0.0
 20
0.0
 30
0.0
 70
   128
 71
     9
 72
   -10
 73
     3
  0
VERTEX
  5
891
  8
0
 10
0.0
 20
0.0
 30
0.0
 70
   128
 71
     6
 72
    12
 73
   -11
  0
VERTEX
  5
892
  8
0
 10
0.0
 20
0.0
 30
0.0
 70
   128
 71
     5
 72
    -6
 73
    11
  0
VERTEX
  5
893
  8
0
 10
0.0
 20
0.0
 30
0.0
 70
   128
 71
    12
 72
     8
 73
    -7
  0
VERTEX
  5
894
  8
0
 10
0.0
 20
0.0
 30
0.0
 70
   128
 71
    11
 72
   -12
 73
     7
  0
VERTEX
  5
895
  8
0
 10
0.0
 20
0.0
 30
0.0
 70
   128
 71
    14
 72
    16
 73
   -15
  0
VERTEX
  5
896
  8
0
 10
0.0
 20
0.0
 30
0.0
 70
   128
 71
    13
 72
   -14
 73
    15
  0
VERTEX
  5
897
  8
0
 10
0.0
 20
0.0
 30
0.0
 70
   128
 71
    16
 72
     6
 73
    -5
  0
VERTEX
  5
898
  8
0
 10
0.0
 20
0.0
 30
0.0
 70
   128
 71
    15
 72
   -16
 73
     5
  0
VERTEX
  5
899
  8
0
 10
0.0
 20
0.0
 30
0.0
 70
   128
 71
     1
 72
    18
 73
   -17
  0
VERTEX
  5
89A
  8
0
 10
0.0
 20
0.0
 30
0.0
 70
   128
 71
     2
 72
    -1
 73
    17
  0
VERTEX
  5
89B
  8
0
 10
0.0
 20
0.0
 30
0.0
 70
   128
 71
    18
 72
    14
 73
   -13
  0
VERTEX
  5
89C
  8
0
 10
0.0
 20
0.0
 30
0.0
 70
   128
 71
    17
 72
   -18
 73
    13
  0
SEQEND
  5
C73
  8
0
  0
POLYLINE
  5
89D
  8
0
 66
     1
 10
0.0
 20
0.0
 30
0.0
 70
    64
 71
    22
 72
    20
  0
VERTEX
  5
89E
  8
0
 10
38.8
 20
-25.138765597444
 30
52.138765476564
 70
   192
  0
VERTEX
  5
89F
  8
0
 10
38.3
 20
-25.138765597444
 30
52.638765597444
 70
   192
  0
VERTEX
  5
8A0
  8
0
 10
38.3
 20
-25.138765597444
 30
-2.361234402556001
 70
   192
  0
VERTEX
  5
8A1
  8
0
 10
38.8
 20
-25.138765597444
 30
-1.861234281676001
 70
   192
  0
VERTEX
  5
8A2
  8
0
 10
38.3
 20
2.361234402556001
 30
25.13876559744396
 70
   192
  0
VERTEX
  5
8A3
  8
0
 10
38.8
 20
1.861234281676001
 30
25.13876559744427
 70
   192
  0
VERTEX
  5
8A4
  8
0
 10
38.29999999999998
 20
-5.693329114813969
 30
5.693329114813933
 70
   192
  0
VERTEX
  5
8A5
  8
0
 10
38.80000000000001
 20
-6.046882590882158
 30
6.04688259088238
 70
   192
  0
VERTEX
  5
8A6
  8
0
 10
38.3
 20
-15.01616108449252
 30
-0.4304126817728315
 70
   192
  0
VERTEX
  5
8A7
  8
0
 10
38.8
 20
-15.20020848376863
 30
0.0344815811512135
 70
   192
  0
VERTEX
  5
8A8
  8
0
 10
38.3
 20
0.4304126817728118
 30
15.01616108449247
 70
   192
  0
VERTEX
  5
8A9
  8
0
 10
38.8
 20
-0.0344815811511026
 30
15.20020848376891
 70
   192
  0
VERTEX
  5
8AA
  8
0
 10
38.29999999999998
 20
-5.693329114813933
 30
44.58420208007403
 70
   192
  0
VERTEX
  5
8AB
  8
0
 10
38.8
 20
-6.046882590882373
 30
44.23064860400584
 70
   192
  0
VERTEX
  5
8AC
  8
0
 10
38.29999999999999
 20
0.4304126817728386
 30
35.26137011039546
 70
   192
  0
VERTEX
  5
8AD
  8
0
 10
38.8
 20
-0.0344815811512627
 30
35.0773227111195
 70
   192
  0
VERTEX
  5
8AE
  8
0
 10
38.29999999999999
 20
-15.01616108449249
 30
50.70794387666082
 70
   192
  0
VERTEX
  5
8AF
  8
0
 10
38.8
 20
-15.20020848376878
 30
50.24304961373685
 70
   192
  0
VERTEX
  5
8B0
  8
0
 10
38.73263356143778
 20
-25.138765597444
 30
-2.111889946116601
 70
   192
  0
VERTEX
  5
8B1
  8
0
 10
38.55065564815408
 20
-25.138765597444
 30
-2.293867903395282
 70
   192
  0
VERTEX
  5
8B2
  8
0
 10
38.73263356143777
 20
-25.138765597444
 30
52.3894211410046
 70
   192
  0
VERTEX
  5
8B3
  8
0
 10
38.55065564815409
 20
-25.138765597444
 30
52.57139909828328
 70
   192
  0
VERTEX
  5
8B4
  8
0
 10
0.0
 20
0.0
 30
0.0
 70
   128
 71
     8
 72
    10
 73
    -9
  0
VERTEX
  5
8B5
  8
0
 10
0.0
 20
0.0
 30
0.0
 70
   128
 71
     7
 72
    -8
 73
     9
  0
VERTEX
  5
8B6
  8
0
 10
0.0
 20
0.0
 30
0.0
 70
   128
 71
    10
 72
     4
 73
    19
  0
VERTEX
  5
8B7
  8
0
 10
0.0
 20
0.0
 30
0.0
 70
   128
 71
    10
 72
    19
 73
    20
  0
VERTEX
  5
8B8
  8
0
 10
0.0
 20
0.0
 30
0.0
 70
   128
 71
     9
 72
    10
 73
    20
  0
VERTEX
  5
8B9
  8
0
 10
0.0
 20
0.0
 30
0.0
 70
   128
 71
    20
 72
     3
 73
     9
  0
VERTEX
  5
8BA
  8
0
 10
0.0
 20
0.0
 30
0.0
 70
   128
 71
     6
 72
    12
 73
   -11
  0
VERTEX
  5
8BB
  8
0
 10
0.0
 20
0.0
 30
0.0
 70
   128
 71
     5
 72
    -6
 73
    11
  0
VERTEX
  5
8BC
  8
0
 10
0.0
 20
0.0
 30
0.0
 70
   128
 71
    12
 72
     8
 73
    -7
  0
VERTEX
  5
8BD
  8
0
 10
0.0
 20
0.0
 30
0.0
 70
   128
 71
    11
 72
   -12
 73
     7
  0
VERTEX
  5
8BE
  8
0
 10
0.0
 20
0.0
 30
0.0
 70
   128
 71
    14
 72
    16
 73
   -15
  0
VERTEX
  5
8BF
  8
0
 10
0.0
 20
0.0
 30
0.0
 70
   128
 71
    13
 72
   -14
 73
    15
  0
VERTEX
  5
8C0
  8
0
 10
0.0
 20
0.0
 30
0.0
 70
   128
 71
    16
 72
     6
 73
    -5
  0
VERTEX
  5
8C1
  8
0
 10
0.0
 20
0.0
 30
0.0
 70
   128
 71
    15
 72
   -16
 73
     5
  0
VERTEX
  5
8C2
  8
0
 10
0.0
 20
0.0
 30
0.0
 70
   128
 71
    17
 72
     2
 73
    22
  0
VERTEX
  5
8C3
  8
0
 10
0.0
 20
0.0
 30
0.0
 70
   128
 71
    21
 72
    18
 73
    17
  0
VERTEX
  5
8C4
  8
0
 10
0.0
 20
0.0
 30
0.0
 70
   128
 71
    22
 72
    21
 73
    17
  0
VERTEX
  5
8C5
  8
0
 10
0.0
 20
0.0
 30
0.0
 70
   128
 71
    21
 72
     1
 73
    18
  0
VERTEX
  5
8C6
  8
0
 10
0.0
 20
0.0
 30
0.0
 70
   128
 71
    18
 72
    14
 73
   -13
  0
VERTEX
  5
8C7
  8
0
 10
0.0
 20
0.0
 30
0.0
 70
   128
 71
    17
 72
   -18
 73
    13
  0
SEQEND
  5
C74
  8
0
  0
POLYLINE
  5
8C8
  8
0
 66
     1
 10
0.0
 20
0.0
 30
0.0
 70
    64
 71
    24
 72
    24
  0
VERTEX
  5
8C9
  8
0
 10
38.8
 20
-25.138765597444
 30
52.138765476564
 70
   192
  0
VERTEX
  5
8CA
  8
0
 10
38.8
 20
-35.07732271111937
 30
50.24304961373679
 70
   192
  0
VERTEX
  5
8CB
  8
0
 10
38.80000000000001
 20
-44.23064860400585
 30
44.23064860400563
 70
   192
  0
VERTEX
  5
8CC
  8
0
 10
38.8
 20
-50.2430496137369
 30
35.07732271111909
 70
   192
  0
VERTEX
  5
8CD
  8
0
 10
38.8
 20
-52.138765476564
 30
25.13876559744373
 70
   192
  0
VERTEX
  5
8CE
  8
0
 10
38.8
 20
-50.24304961373674
 30
15.2002084837685
 70
   192
  0
VERTEX
  5
8CF
  8
0
 10
38.8
 20
-44.23064860400564
 30
6.046882590882164
 70
   192
  0
VERTEX
  5
8D0
  8
0
 10
38.8
 20
-35.07732271111922
 30
0.0344815811511518
 70
   192
  0
VERTEX
  5
8D1
  8
0
 10
38.8
 20
-25.138765597444
 30
-1.861234281676001
 70
   192
  0
VERTEX
  5
8D2
  8
0
 10
38.8
 20
-15.20020848376863
 30
0.0344815811512135
 70
   192
  0
VERTEX
  5
8D3
  8
0
 10
38.80000000000001
 20
-6.046882590882158
 30
6.04688259088238
 70
   192
  0
VERTEX
  5
8D4
  8
0
 10
38.8
 20
-0.0344815811511026
 30
15.20020848376891
 70
   192
  0
VERTEX
  5
8D5
  8
0
 10
38.8
 20
1.861234281676001
 30
25.13876559744427
 70
   192
  0
VERTEX
  5
8D6
  8
0
 10
38.8
 20
-0.0344815811512627
 30
35.0773227111195
 70
   192
  0
VERTEX
  5
8D7
  8
0
 10
38.8
 20
-6.046882590882373
 30
44.23064860400584
 70
   192
  0
VERTEX
  5
8D8
  8
0
 10
38.8
 20
-15.20020848376878
 30
50.24304961373685
 70
   192
  0
VERTEX
  5
8D9
  8
0
 10
38.8
 20
-25.138765597444
 30
37.036499281554
 70
   192
  0
VERTEX
  5
8DA
  8
0
 10
38.8
 20
-16.72579742865822
 30
33.55173376622979
 70
   192
  0
VERTEX
  5
8DB
  8
0
 10
38.8
 20
-13.241031913334
 30
25.138765597444
 70
   192
  0
VERTEX
  5
8DC
  8
0
 10
38.8
 20
-16.72579742865821
 30
16.72579742865821
 70
   192
  0
VERTEX
  5
8DD
  8
0
 10
38.8
 20
-25.138765597444
 30
13.241031913334
 70
   192
  0
VERTEX
  5
8DE
  8
0
 10
38.8
 20
-33.55173376622979
 30
16.72579742865821
 70
   192
  0
VERTEX
  5
8DF
  8
0
 10
38.8
 20
-37.036499281554
 30
25.138765597444
 70
   192
  0
VERTEX
  5
8E0
  8
0
 10
38.8
 20
-33.55173376622978
 30
33.55173376622979
 70
   192
  0
VERTEX
  5
8E1
  8
0
 10
0.0
 20
0.0
 30
0.0
 70
   128
 71
    -1
 72
    17
 73
   -18
  0
VERTEX
  5
8E2
  8
0
 10
0.0
 20
0.0
 30
0.0
 70
   128
 71
    16
 72
    -1
 73
   -18
  0
VERTEX
  5
8E3
  8
0
 10
0.0
 20
0.0
 30
0.0
 70
   128
 71
    15
 72
   -16
 73
   -18
  0
VERTEX
  5
8E4
  8
0
 10
0.0
 20
0.0
 30
0.0
 70
   128
 71
    13
 72
    14
 73
   -15
  0
VERTEX
  5
8E5
  8
0
 10
0.0
 20
0.0
 30
0.0
 70
   128
 71
   -19
 72
   -13
 73
   -15
  0
VERTEX
  5
8E6
  8
0
 10
0.0
 20
0.0
 30
0.0
 70
   128
 71
    18
 72
   -19
 73
   -15
  0
VERTEX
  5
8E7
  8
0
 10
0.0
 20
0.0
 30
0.0
 70
   128
 71
    11
 72
    12
 73
   -13
  0
VERTEX
  5
8E8
  8
0
 10
0.0
 20
0.0
 30
0.0
 70
   128
 71
   -20
 72
   -11
 73
   -13
  0
VERTEX
  5
8E9
  8
0
 10
0.0
 20
0.0
 30
0.0
 70
   128
 71
    19
 72
   -20
 73
   -13
  0
VERTEX
  5
8EA
  8
0
 10
0.0
 20
0.0
 30
0.0
 70
   128
 71
     9
 72
    10
 73
   -11
  0
VERTEX
  5
8EB
  8
0
 10
0.0
 20
0.0
 30
0.0
 70
   128
 71
   -21
 72
    -9
 73
   -11
  0
VERTEX
  5
8EC
  8
0
 10
0.0
 20
0.0
 30
0.0
 70
   128
 71
    20
 72
   -21
 73
   -11
  0
VERTEX
  5
8ED
  8
0
 10
0.0
 20
0.0
 30
0.0
 70
   128
 71
     7
 72
     8
 73
    -9
  0
VERTEX
  5
8EE
  8
0
 10
0.0
 20
0.0
 30
0.0
 70
   128
 71
   -22
 72
    -7
 73
    -9
  0
VERTEX
  5
8EF
  8
0
 10
0.0
 20
0.0
 30
0.0
 70
   128
 71
    21
 72
   -22
 73
    -9
  0
VERTEX
  5
8F0
  8
0
 10
0.0
 20
0.0
 30
0.0
 70
   128
 71
     5
 72
     6
 73
    -7
  0
VERTEX
  5
8F1
  8
0
 10
0.0
 20
0.0
 30
0.0
 70
   128
 71
   -23
 72
    -5
 73
    -7
  0
VERTEX
  5
8F2
  8
0
 10
0.0
 20
0.0
 30
0.0
 70
   128
 71
    22
 72
   -23
 73
    -7
  0
VERTEX
  5
8F3
  8
0
 10
0.0
 20
0.0
 30
0.0
 70
   128
 71
     3
 72
     4
 73
    -5
  0
VERTEX
  5
8F4
  8
0
 10
0.0
 20
0.0
 30
0.0
 70
   128
 71
   -24
 72
    -3
 73
    -5
  0
VERTEX
  5
8F5
  8
0
 10
0.0
 20
0.0
 30
0.0
 70
   128
 71
    23
 72
   -24
 73
    -5
  0
VERTEX
  5
8F6
  8
0
 10
0.0
 20
0.0
 30
0.0
 70
   128
 71
     1
 72
     2
 73
    -3
  0
VERTEX
  5
8F7
  8
0
 10
0.0
 20
0.0
 30
0.0
 70
   128
 71
   -17
 72
    -1
 73
    -3
  0
VERTEX
  5
8F8
  8
0
 10
0.0
 20
0.0
 30
0.0
 70
   128
 71
    24
 72
   -17
 73
    -3
  0
SEQEND
  5
C75
  8
0
  0
POLYLINE
  5
8F9
  8
0
 66
     1
 10
0.0
 20
0.0
 30
0.0
 70
    64
 71
    22
 72
    20
  0
VERTEX
  5
8FA
  8
0
 10
38.8
 20
-25.138765597444
 30
-1.861234281676001
 70
   192
  0
VERTEX
  5
8FB
  8
0
 10
38.3
 20
-25.138765597444
 30
-2.361234402556001
 70
   192
  0
VERTEX
  5
8FC
  8
0
 10
38.3
 20
-25.138765597444
 30
52.638765597444
 70
   192
  0
VERTEX
  5
8FD
  8
0
 10
38.8
 20
-25.138765597444
 30
52.138765476564
 70
   192
  0
VERTEX
  5
8FE
  8
0
 10
38.3
 20
-52.63876559744401
 30
25.13876559744396
 70
   192
  0
VERTEX
  5
8FF
  8
0
 10
38.8
 20
-52.138765476564
 30
25.13876559744373
 70
   192
  0
VERTEX
  5
900
  8
0
 10
38.29999999999998
 20
-44.58420208007406
 30
44.58420208007403
 70
   192
  0
VERTEX
  5
901
  8
0
 10
38.80000000000001
 20
-44.23064860400585
 30
44.23064860400563
 70
   192
  0
VERTEX
  5
902
  8
0
 10
38.29999999999999
 20
-35.2613701103955
 30
50.70794387666082
 70
   192
  0
VERTEX
  5
903
  8
0
 10
38.8
 20
-35.07732271111937
 30
50.24304961373679
 70
   192
  0
VERTEX
  5
904
  8
0
 10
38.29999999999999
 20
-50.70794387666083
 30
35.26137011039546
 70
   192
  0
VERTEX
  5
905
  8
0
 10
38.8
 20
-50.2430496137369
 30
35.07732271111909
 70
   192
  0
VERTEX
  5
906
  8
0
 10
38.29999999999998
 20
-44.58420208007403
 30
5.693329114813933
 70
   192
  0
VERTEX
  5
907
  8
0
 10
38.8
 20
-44.23064860400564
 30
6.046882590882164
 70
   192
  0
VERTEX
  5
908
  8
0
 10
38.3
 20
-50.70794387666081
 30
15.01616108449247
 70
   192
  0
VERTEX
  5
909
  8
0
 10
38.8
 20
-50.24304961373674
 30
15.2002084837685
 70
   192
  0
VERTEX
  5
90A
  8
0
 10
38.3
 20
-35.26137011039548
 30
-0.4304126817728315
 70
   192
  0
VERTEX
  5
90B
  8
0
 10
38.8
 20
-35.07732271111922
 30
0.0344815811511518
 70
   192
  0
VERTEX
  5
90C
  8
0
 10
38.73263356143777
 20
-25.138765597444
 30
52.3894211410046
 70
   192
  0
VERTEX
  5
90D
  8
0
 10
38.55065564815409
 20
-25.138765597444
 30
52.57139909828328
 70
   192
  0
VERTEX
  5
90E
  8
0
 10
38.73263356143778
 20
-25.138765597444
 30
-2.111889946116601
 70
   192
  0
VERTEX
  5
90F
  8
0
 10
38.55065564815408
 20
-25.138765597444
 30
-2.293867903395282
 70
   192
  0
VERTEX
  5
910
  8
0
 10
0.0
 20
0.0
 30
0.0
 70
   128
 71
     8
 72
    10
 73
    -9
  0
VERTEX
  5
911
  8
0
 10
0.0
 20
0.0
 30
0.0
 70
   128
 71
     7
 72
    -8
 73
     9
  0
VERTEX
  5
912
  8
0
 10
0.0
 20
0.0
 30
0.0
 70
   128
 71
    10
 72
     4
 73
    19
  0
VERTEX
  5
913
  8
0
 10
0.0
 20
0.0
 30
0.0
 70
   128
 71
    10
 72
    19
 73
    20
  0
VERTEX
  5
914
  8
0
 10
0.0
 20
0.0
 30
0.0
 70
   128
 71
     9
 72
    10
 73
    20
  0
VERTEX
  5
915
  8
0
 10
0.0
 20
0.0
 30
0.0
 70
   128
 71
    20
 72
     3
 73
     9
  0
VERTEX
  5
916
  8
0
 10
0.0
 20
0.0
 30
0.0
 70
   128
 71
     6
 72
    12
 73
   -11
  0
VERTEX
  5
917
  8
0
 10
0.0
 20
0.0
 30
0.0
 70
   128
 71
     5
 72
    -6
 73
    11
  0
VERTEX
  5
918
  8
0
 10
0.0
 20
0.0
 30
0.0
 70
   128
 71
    12
 72
     8
 73
    -7
  0
VERTEX
  5
919
  8
0
 10
0.0
 20
0.0
 30
0.0
 70
   128
 71
    11
 72
   -12
 73
     7
  0
VERTEX
  5
91A
  8
0
 10
0.0
 20
0.0
 30
0.0
 70
   128
 71
    14
 72
    16
 73
   -15
  0
VERTEX
  5
91B
  8
0
 10
0.0
 20
0.0
 30
0.0
 70
   128
 71
    13
 72
   -14
 73
    15
  0
VERTEX
  5
91C
  8
0
 10
0.0
 20
0.0
 30
0.0
 70
   128
 71
    16
 72
     6
 73
    -5
  0
VERTEX
  5
91D
  8
0
 10
0.0
 20
0.0
 30
0.0
 70
   128
 71
    15
 72
   -16
 73
     5
  0
VERTEX
  5
91E
  8
0
 10
0.0
 20
0.0
 30
0.0
 70
   128
 71
    17
 72
     2
 73
    22
  0
VERTEX
  5
91F
  8
0
 10
0.0
 20
0.0
 30
0.0
 70
   128
 71
    21
 72
    18
 73
    17
  0
VERTEX
  5
920
  8
0
 10
0.0
 20
0.0
 30
0.0
 70
   128
 71
    22
 72
    21
 73
    17
  0
VERTEX
  5
921
  8
0
 10
0.0
 20
0.0
 30
0.0
 70
   128
 71
    21
 72
     1
 73
    18
  0
VERTEX
  5
922
  8
0
 10
0.0
 20
0.0
 30
0.0
 70
   128
 71
    18
 72
    14
 73
   -13
  0
VERTEX
  5
923
  8
0
 10
0.0
 20
0.0
 30
0.0
 70
   128
 71
    17
 72
   -18
 73
    13
  0
SEQEND
  5
C76
  8
0
  0
POLYLINE
  5
924
  8
0
 66
     1
 10
0.0
 20
0.0
 30
0.0
 70
    64
 71
    18
 72
    16
  0
VERTEX
  5
925
  8
0
 10
38.3
 20
-25.138765597444
 30
-2.361234402556001
 70
   192
  0
VERTEX
  5
926
  8
0
 10
20.0
 20
-25.13876559744397
 30
-2.361234402556001
 70
   192
  0
VERTEX
  5
927
  8
0
 10
20.0
 20
-25.138765597444
 30
52.638765597444
 70
   192
  0
VERTEX
  5
928
  8
0
 10
38.3
 20
-25.138765597444
 30
52.638765597444
 70
   192
  0
VERTEX
  5
929
  8
0
 10
20.0
 20
-52.63876559744399
 30
25.13876559744393
 70
   192
  0
VERTEX
  5
92A
  8
0
 10
38.3
 20
-52.63876559744401
 30
25.13876559744396
 70
   192
  0
VERTEX
  5
92B
  8
0
 10
20.0
 20
-44.58420208007408
 30
44.58420208007403
 70
   192
  0
VERTEX
  5
92C
  8
0
 10
38.29999999999998
 20
-44.58420208007406
 30
44.58420208007403
 70
   192
  0
VERTEX
  5
92D
  8
0
 10
20.0
 20
-35.26137011039552
 30
50.70794387666083
 70
   192
  0
VERTEX
  5
92E
  8
0
 10
38.29999999999999
 20
-35.2613701103955
 30
50.70794387666082
 70
   192
  0
VERTEX
  5
92F
  8
0
 10
20.0
 20
-50.70794387666083
 30
35.26137011039545
 70
   192
  0
VERTEX
  5
930
  8
0
 10
38.29999999999999
 20
-50.70794387666083
 30
35.26137011039546
 70
   192
  0
VERTEX
  5
931
  8
0
 10
20.0
 20
-44.58420208007403
 30
5.693329114813916
 70
   192
  0
VERTEX
  5
932
  8
0
 10
38.29999999999998
 20
-44.58420208007403
 30
5.693329114813933
 70
   192
  0
VERTEX
  5
933
  8
0
 10
20.0
 20
-50.70794387666082
 30
15.01616108449245
 70
   192
  0
VERTEX
  5
934
  8
0
 10
38.3
 20
-50.70794387666081
 30
15.01616108449247
 70
   192
  0
VERTEX
  5
935
  8
0
 10
20.0
 20
-35.26137011039546
 30
-0.4304126817728428
 70
   192
  0
VERTEX
  5
936
  8
0
 10
38.3
 20
-35.26137011039548
 30
-0.4304126817728315
 70
   192
  0
VERTEX
  5
937
  8
0
 10
0.0
 20
0.0
 30
0.0
 70
   128
 71
     8
 72
    10
 73
    -9
  0
VERTEX
  5
938
  8
0
 10
0.0
 20
0.0
 30
0.0
 70
   128
 71
     7
 72
    -8
 73
     9
  0
VERTEX
  5
939
  8
0
 10
0.0
 20
0.0
 30
0.0
 70
   128
 71
    10
 72
     4
 73
    -3
  0
VERTEX
  5
93A
  8
0
 10
0.0
 20
0.0
 30
0.0
 70
   128
 71
     9
 72
   -10
 73
     3
  0
VERTEX
  5
93B
  8
0
 10
0.0
 20
0.0
 30
0.0
 70
   128
 71
     6
 72
    12
 73
   -11
  0
VERTEX
  5
93C
  8
0
 10
0.0
 20
0.0
 30
0.0
 70
   128
 71
     5
 72
    -6
 73
    11
  0
VERTEX
  5
93D
  8
0
 10
0.0
 20
0.0
 30
0.0
 70
   128
 71
    12
 72
     8
 73
    -7
  0
VERTEX
  5
93E
  8
0
 10
0.0
 20
0.0
 30
0.0
 70
   128
 71
    11
 72
   -12
 73
     7
  0
VERTEX
  5
93F
  8
0
 10
0.0
 20
0.0
 30
0.0
 70
   128
 71
    14
 72
    16
 73
   -15
  0
VERTEX
  5
940
  8
0
 10
0.0
 20
0.0
 30
0.0
 70
   128
 71
    13
 72
   -14
 73
    15
  0
VERTEX
  5
941
  8
0
 10
0.0
 20
0.0
 30
0.0
 70
   128
 71
    16
 72
     6
 73
    -5
  0
VERTEX
  5
942
  8
0
 10
0.0
 20
0.0
 30
0.0
 70
   128
 71
    15
 72
   -16
 73
     5
  0
VERTEX
  5
943
  8
0
 10
0.0
 20
0.0
 30
0.0
 70
   128
 71
     1
 72
    18
 73
   -17
  0
VERTEX
  5
944
  8
0
 10
0.0
 20
0.0
 30
0.0
 70
   128
 71
     2
 72
    -1
 73
    17
  0
VERTEX
  5
945
  8
0
 10
0.0
 20
0.0
 30
0.0
 70
   128
 71
    18
 72
    14
 73
   -13
  0
VERTEX
  5
946
  8
0
 10
0.0
 20
0.0
 30
0.0
 70
   128
 71
    17
 72
   -18
 73
    13
  0
SEQEND
  5
C77
  8
0
  0
POLYLINE
  5
947
  8
0
 66
     1
 10
0.0
 20
0.0
 30
0.0
 70
    64
 71
    16
 72
    16
  0
VERTEX
  5
948
  8
0
 10
35.0
 20
-25.138765597444
 30
12.64872424472097
 70
   192
  0
VERTEX
  5
949
  8
0
 10
35.0
 20
-33.97055853525485
 30
16.30697265963315
 70
   192
  0
VERTEX
  5
94A
  8
0
 10
35.00000000000001
 20
-37.62880695016703
 30
25.138765597444
 70
   192
  0
VERTEX
  5
94B
  8
0
 10
35.0
 20
-33.97055853525485
 30
33.97055853525485
 70
   192
  0
VERTEX
  5
94C
  8
0
 10
35.0
 20
-25.138765597444
 30
37.62880695016702
 70
   192
  0
VERTEX
  5
94D
  8
0
 10
35.00000000000002
 20
-16.30697265963319
 30
33.9705585352548
 70
   192
  0
VERTEX
  5
94E
  8
0
 10
35.00000000000001
 20
-12.64872424472105
 30
25.13876559744394
 70
   192
  0
VERTEX
  5
94F
  8
0
 10
35.00000000000002
 20
-16.30697265963323
 30
16.3069726596324
 70
   192
  0
VERTEX
  5
950
  8
0
 10
35.0
 20
-25.13876559744401
 30
37.12081687949963
 70
   192
  0
VERTEX
  5
951
  8
0
 10
35.0
 20
-33.61135531151048
 30
33.61135531151049
 70
   192
  0
VERTEX
  5
952
  8
0
 10
35.0
 20
-37.12081687949959
 30
25.13876559744401
 70
   192
  0
VERTEX
  5
953
  8
0
 10
35.0
 20
-33.61135531151047
 30
16.66617588337753
 70
   192
  0
VERTEX
  5
954
  8
0
 10
35.0
 20
-25.138765597444
 30
13.15671431538841
 70
   192
  0
VERTEX
  5
955
  8
0
 10
35.00000000000001
 20
-16.66617588337757
 30
16.66617588337758
 70
   192
  0
VERTEX
  5
956
  8
0
 10
35.0
 20
-13.15671431538848
 30
25.138765597444
 70
   192
  0
VERTEX
  5
957
  8
0
 10
35.0
 20
-16.66617588337758
 30
33.61135531151042
 70
   192
  0
VERTEX
  5
958
  8
0
 10
0.0
 20
0.0
 30
0.0
 70
   128
 71
    -5
 72
     9
 73
   -10
  0
VERTEX
  5
959
  8
0
 10
0.0
 20
0.0
 30
0.0
 70
   128
 71
     4
 72
    -5
 73
   -10
  0
VERTEX
  5
95A
  8
0
 10
0.0
 20
0.0
 30
0.0
 70
   128
 71
   -11
 72
     3
 73
    -4
  0
VERTEX
  5
95B
  8
0
 10
0.0
 20
0.0
 30
0.0
 70
   128
 71
    10
 72
   -11
 73
    -4
  0
VERTEX
  5
95C
  8
0
 10
0.0
 20
0.0
 30
0.0
 70
   128
 71
   -12
 72
     2
 73
    -3
  0
VERTEX
  5
95D
  8
0
 10
0.0
 20
0.0
 30
0.0
 70
   128
 71
    11
 72
   -12
 73
    -3
  0
VERTEX
  5
95E
  8
0
 10
0.0
 20
0.0
 30
0.0
 70
   128
 71
   -13
 72
     1
 73
    -2
  0
VERTEX
  5
95F
  8
0
 10
0.0
 20
0.0
 30
0.0
 70
   128
 71
    12
 72
   -13
 73
    -2
  0
VERTEX
  5
960
  8
0
 10
0.0
 20
0.0
 30
0.0
 70
   128
 71
   -14
 72
     8
 73
    -1
  0
VERTEX
  5
961
  8
0
 10
0.0
 20
0.0
 30
0.0
 70
   128
 71
    13
 72
   -14
 73
    -1
  0
VERTEX
  5
962
  8
0
 10
0.0
 20
0.0
 30
0.0
 70
   128
 71
   -15
 72
     7
 73
    -8
  0
VERTEX
  5
963
  8
0
 10
0.0
 20
0.0
 30
0.0
 70
   128
 71
    14
 72
   -15
 73
    -8
  0
VERTEX
  5
964
  8
0
 10
0.0
 20
0.0
 30
0.0
 70
   128
 71
   -16
 72
     6
 73
    -7
  0
VERTEX
  5
965
  8
0
 10
0.0
 20
0.0
 30
0.0
 70
   128
 71
    15
 72
   -16
 73
    -7
  0
VERTEX
  5
966
  8
0
 10
0.0
 20
0.0
 30
0.0
 70
   128
 71
    -9
 72
     5
 73
    -6
  0
VERTEX
  5
967
  8
0
 10
0.0
 20
0.0
 30
0.0
 70
   128
 71
    16
 72
    -9
 73
    -6
  0
SEQEND
  5
C78
  8
0
  0
ENDBLK
  5
C64
  8
0
  0
BLOCK
  8
0
  2
*X2
 70
     1
 10
0.0
 20
0.0
 30
0.0
  3
*X2
  1

  0
POLYLINE
  5
969
  8
0
 66
     1
 10
0.0
 20
0.0
 30
0.0
 70
    64
 71
     8
 72
     6
  0
VERTEX
  5
96A
  8
0
 10
360.0721451392
 20
-25.1387655974438
 30
35.13876559744381
 70
   192
  0
VERTEX
  5
96B
  8
0
 10
35.0
 20
-25.1387655974438
 30
35.13876559744381
 70
   192
  0
VERTEX
  5
96C
  8
0
 10
35.00000000000001
 20
-16.48746041268995
 30
30.13616207833402
 70
   192
  0
VERTEX
  5
96D
  8
0
 10
35.00000000000002
 20
-16.48746041268996
 30
20.14136911655356
 70
   192
  0
VERTEX
  5
96E
  8
0
 10
35.0
 20
-25.13876559744379
 30
15.13876559744388
 70
   192
  0
VERTEX
  5
96F
  8
0
 10
360.0721451392
 20
-25.1387655974438
 30
15.1387655974438
 70
   192
  0
VERTEX
  5
970
  8
0
 10
360.0721451377991
 20
-16.48746041268995
 30
20.1413260848931
 70
   192
  0
VERTEX
  5
971
  8
0
 10
360.0721451374808
 20
-16.48746041268998
 30
30.13610948961513
 70
   192
  0
VERTEX
  5
972
  8
0
 10
0.0
 20
0.0
 30
0.0
 70
   128
 71
     5
 72
     6
 73
     7
  0
VERTEX
  5
973
  8
0
 10
0.0
 20
0.0
 30
0.0
 70
   128
 71
     4
 72
     5
 73
     7
  0
VERTEX
  5
974
  8
0
 10
0.0
 20
0.0
 30
0.0
 70
   128
 71
     8
 72
     3
 73
    -4
  0
VERTEX
  5
975
  8
0
 10
0.0
 20
0.0
 30
0.0
 70
   128
 71
     7
 72
    -8
 73
     4
  0
VERTEX
  5
976
  8
0
 10
0.0
 20
0.0
 30
0.0
 70
   128
 71
     1
 72
     2
 73
     3
  0
VERTEX
  5
977
  8
0
 10
0.0
 20
0.0
 30
0.0
 70
   128
 71
     8
 72
     1
 73
     3
  0
SEQEND
  5
C7B
  8
0
  0
POLYLINE
  5
978
  8
0
 66
     1
 10
0.0
 20
0.0
 30
0.0
 70
    64
 71
     8
 72
     6
  0
VERTEX
  5
979
  8
0
 10
35.0
 20
-25.1387655974438
 30
14.13876559744022
 70
   192
  0
VERTEX
  5
97A
  8
0
 10
360.0721451392
 20
-25.1387655974438
 30
14.1387655974438
 70
   192
  0
VERTEX
  5
97B
  8
0
 10
360.0721451392001
 20
-34.65520130067515
 30
19.64162946846366
 70
   192
  0
VERTEX
  5
97C
  8
0
 10
34.99999999999999
 20
-34.65520130067516
 30
19.6416294684642
 70
   192
  0
VERTEX
  5
97D
  8
0
 10
360.0721451392
 20
-25.1387655974438
 30
36.13876559744381
 70
   192
  0
VERTEX
  5
97E
  8
0
 10
35.0
 20
-25.1387655974438
 30
36.13876559744381
 70
   192
  0
VERTEX
  5
97F
  8
0
 10
34.99999999999998
 20
-34.65520130067517
 30
30.63590172642337
 70
   192
  0
VERTEX
  5
980
  8
0
 10
360.0721451392001
 20
-34.65520130067517
 30
30.63590172642336
 70
   192
  0
VERTEX
  5
981
  8
0
 10
0.0
 20
0.0
 30
0.0
 70
   128
 71
     1
 72
     2
 73
    -3
  0
VERTEX
  5
982
  8
0
 10
0.0
 20
0.0
 30
0.0
 70
   128
 71
     4
 72
    -1
 73
     3
  0
VERTEX
  5
983
  8
0
 10
0.0
 20
0.0
 30
0.0
 70
   128
 71
     5
 72
     6
 73
    -7
  0
VERTEX
  5
984
  8
0
 10
0.0
 20
0.0
 30
0.0
 70
   128
 71
     8
 72
    -5
 73
     7
  0
VERTEX
  5
985
  8
0
 10
0.0
 20
0.0
 30
0.0
 70
   128
 71
     7
 72
    -4
 73
     8
  0
VERTEX
  5
986
  8
0
 10
0.0
 20
0.0
 30
0.0
 70
   128
 71
    -8
 72
     4
 73
     3
  0
SEQEND
  5
C7C
  8
0
  0
POLYLINE
  5
987
  8
0
 66
     1
 10
0.0
 20
0.0
 30
0.0
 70
    64
 71
     8
 72
     6
  0
VERTEX
  5
988
  8
0
 10
35.0
 20
-25.1387655974438
 30
36.13876559744381
 70
   192
  0
VERTEX
  5
989
  8
0
 10
360.0721451392
 20
-25.1387655974438
 30
36.13876559744381
 70
   192
  0
VERTEX
  5
98A
  8
0
 10
360.0721451392001
 20
-15.62232989421246
 30
30.63590172642341
 70
   192
  0
VERTEX
  5
98B
  8
0
 10
34.99999999999998
 20
-15.62232989421245
 30
30.6359017264234
 70
   192
  0
VERTEX
  5
98C
  8
0
 10
360.0721451392
 20
-25.1387655974438
 30
14.1387655974438
 70
   192
  0
VERTEX
  5
98D
  8
0
 10
35.0
 20
-25.1387655974438
 30
14.13876559744022
 70
   192
  0
VERTEX
  5
98E
  8
0
 10
34.99999999999998
 20
-15.62232989421243
 30
19.64162946846423
 70
   192
  0
VERTEX
  5
98F
  8
0
 10
360.0721451392001
 20
-15.62232989421243
 30
19.6416294684637
 70
   192
  0
VERTEX
  5
990
  8
0
 10
0.0
 20
0.0
 30
0.0
 70
   128
 71
     1
 72
     2
 73
    -3
  0
VERTEX
  5
991
  8
0
 10
0.0
 20
0.0
 30
0.0
 70
   128
 71
     4
 72
    -1
 73
     3
  0
VERTEX
  5
992
  8
0
 10
0.0
 20
0.0
 30
0.0
 70
   128
 71
     5
 72
     6
 73
    -7
  0
VERTEX
  5
993
  8
0
 10
0.0
 20
0.0
 30
0.0
 70
   128
 71
     8
 72
    -5
 73
     7
  0
VERTEX
  5
994
  8
0
 10
0.0
 20
0.0
 30
0.0
 70
   128
 71
     7
 72
    -4
 73
     8
  0
VERTEX
  5
995
  8
0
 10
0.0
 20
0.0
 30
0.0
 70
   128
 71
    -8
 72
     4
 73
     3
  0
SEQEND
  5
C7D
  8
0
  0
POLYLINE
  5
996
  8
0
 66
     1
 10
0.0
 20
0.0
 30
0.0
 70
    64
 71
     8
 72
     6
  0
VERTEX
  5
997
  8
0
 10
360.0721451392
 20
-25.1387655974438
 30
15.1387655974438
 70
   192
  0
VERTEX
  5
998
  8
0
 10
35.0
 20
-25.13876559744379
 30
15.13876559744388
 70
   192
  0
VERTEX
  5
999
  8
0
 10
35.00000000000001
 20
-33.79007078219765
 30
20.14136911655358
 70
   192
  0
VERTEX
  5
99A
  8
0
 10
35.00000000000001
 20
-33.79007078219765
 30
30.13616207833403
 70
   192
  0
VERTEX
  5
99B
  8
0
 10
35.0
 20
-25.1387655974438
 30
35.13876559744381
 70
   192
  0
VERTEX
  5
99C
  8
0
 10
360.0721451392
 20
-25.1387655974438
 30
35.13876559744381
 70
   192
  0
VERTEX
  5
99D
  8
0
 10
360.0721451374949
 20
-33.79007078219765
 30
30.13610948961525
 70
   192
  0
VERTEX
  5
99E
  8
0
 10
360.0721451377973
 20
-33.79007078219763
 30
20.14132608489305
 70
   192
  0
VERTEX
  5
99F
  8
0
 10
0.0
 20
0.0
 30
0.0
 70
   128
 71
     5
 72
     6
 73
     7
  0
VERTEX
  5
9A0
  8
0
 10
0.0
 20
0.0
 30
0.0
 70
   128
 71
     4
 72
     5
 73
     7
  0
VERTEX
  5
9A1
  8
0
 10
0.0
 20
0.0
 30
0.0
 70
   128
 71
     8
 72
     3
 73
    -4
  0
VERTEX
  5
9A2
  8
0
 10
0.0
 20
0.0
 30
0.0
 70
   128
 71
     7
 72
    -8
 73
     4
  0
VERTEX
  5
9A3
  8
0
 10
0.0
 20
0.0
 30
0.0
 70
   128
 71
     1
 72
     2
 73
     3
  0
VERTEX
  5
9A4
  8
0
 10
0.0
 20
0.0
 30
0.0
 70
   128
 71
     8
 72
     1
 73
     3
  0
SEQEND
  5
C7E
  8
0
  0
POLYLINE
  5
9A5
  8
0
 66
     1
 10
0.0
 20
0.0
 30
0.0
 70
    64
 71
    12
 72
    12
  0
VERTEX
  5
9A6
  8
0
 10
406.0513768695001
 20
-25.1387655974438
 30
-38.44038011033619
 70
   192
  0
VERTEX
  5
9A7
  8
0
 10
410.8353904070389
 20
-33.79007078219765
 30
-36.97776039139977
 70
   192
  0
VERTEX
  5
9A8
  8
0
 10
420.3934584512981
 20
-33.79007078219765
 30
-34.05556573481336
 70
   192
  0
VERTEX
  5
9A9
  8
0
 10
425.1774719887999
 20
-25.1387655974438
 30
-32.5929460158862
 70
   192
  0
VERTEX
  5
9AA
  8
0
 10
420.3934584512981
 20
-16.48746041268994
 30
-34.05556573481336
 70
   192
  0
VERTEX
  5
9AB
  8
0
 10
410.8353904070389
 20
-16.48746041268996
 30
-36.97776039139979
 70
   192
  0
VERTEX
  5
9AC
  8
0
 10
422.7867100989
 20
-25.1387655974438
 30
-33.3238752776862
 70
   192
  0
VERTEX
  5
9AD
  8
0
 10
419.1219710367822
 20
-31.68071874073667
 30
-34.44429844851111
 70
   192
  0
VERTEX
  5
9AE
  8
0
 10
412.106877821518
 20
-31.68071874073667
 30
-36.58902767770127
 70
   192
  0
VERTEX
  5
9AF
  8
0
 10
408.4421387594001
 20
-25.1387655974438
 30
-37.70945084852621
 70
   192
  0
VERTEX
  5
9B0
  8
0
 10
412.106877821518
 20
-18.59681245415084
 30
-36.58902767770127
 70
   192
  0
VERTEX
  5
9B1
  8
0
 10
419.1219710367822
 20
-18.59681245415084
 30
-34.44429844851111
 70
   192
  0
VERTEX
  5
9B2
  8
0
 10
0.0
 20
0.0
 30
0.0
 70
   128
 71
    -4
 72
     7
 73
    -8
  0
VERTEX
  5
9B3
  8
0
 10
0.0
 20
0.0
 30
0.0
 70
   128
 71
     3
 72
    -4
 73
    -8
  0
VERTEX
  5
9B4
  8
0
 10
0.0
 20
0.0
 30
0.0
 70
   128
 71
    -9
 72
     2
 73
    -3
  0
VERTEX
  5
9B5
  8
0
 10
0.0
 20
0.0
 30
0.0
 70
   128
 71
     8
 72
    -9
 73
    -3
  0
VERTEX
  5
9B6
  8
0
 10
0.0
 20
0.0
 30
0.0
 70
   128
 71
   -10
 72
     1
 73
    -2
  0
VERTEX
  5
9B7
  8
0
 10
0.0
 20
0.0
 30
0.0
 70
   128
 71
     9
 72
   -10
 73
    -2
  0
VERTEX
  5
9B8
  8
0
 10
0.0
 20
0.0
 30
0.0
 70
   128
 71
   -11
 72
     6
 73
    -1
  0
VERTEX
  5
9B9
  8
0
 10
0.0
 20
0.0
 30
0.0
 70
   128
 71
    10
 72
   -11
 73
    -1
  0
VERTEX
  5
9BA
  8
0
 10
0.0
 20
0.0
 30
0.0
 70
   128
 71
   -12
 72
     5
 73
    -6
  0
VERTEX
  5
9BB
  8
0
 10
0.0
 20
0.0
 30
0.0
 70
   128
 71
    11
 72
   -12
 73
    -6
  0
VERTEX
  5
9BC
  8
0
 10
0.0
 20
0.0
 30
0.0
 70
   128
 71
    -7
 72
     4
 73
    -5
  0
VERTEX
  5
9BD
  8
0
 10
0.0
 20
0.0
 30
0.0
 70
   128
 71
    12
 72
    -7
 73
    -5
  0
SEQEND
  5
C7F
  8
0
  0
POLYLINE
  5
9BE
  8
0
 66
     1
 10
0.0
 20
0.0
 30
0.0
 70
    64
 71
     8
 72
     6
  0
VERTEX
  5
9BF
  8
0
 10
406.0513768695001
 20
-25.1387655974438
 30
-38.44038011033619
 70
   192
  0
VERTEX
  5
9C0
  8
0
 10
410.8353904070389
 20
-16.48746041268996
 30
-36.97776039139979
 70
   192
  0
VERTEX
  5
9C1
  8
0
 10
420.3934584512981
 20
-16.48746041268994
 30
-34.05556573481336
 70
   192
  0
VERTEX
  5
9C2
  8
0
 10
425.1774719887999
 20
-25.1387655974438
 30
-32.5929460158862
 70
   192
  0
VERTEX
  5
9C3
  8
0
 10
417.450430497
 20
-25.1387655974438
 30
-7.318932119196229
 70
   192
  0
VERTEX
  5
9C4
  8
0
 10
412.6664169594516
 20
-16.48746041268997
 30
-8.78155183813075
 70
   192
  0
VERTEX
  5
9C5
  8
0
 10
403.1083489151924
 20
-16.48746041268995
 30
-11.70374649471785
 70
   192
  0
VERTEX
  5
9C6
  8
0
 10
398.3243353777
 20
-25.1387655974438
 30
-13.1663662136462
 70
   192
  0
VERTEX
  5
9C7
  8
0
 10
0.0
 20
0.0
 30
0.0
 70
   128
 71
     4
 72
     5
 73
    -6
  0
VERTEX
  5
9C8
  8
0
 10
0.0
 20
0.0
 30
0.0
 70
   128
 71
     3
 72
    -4
 73
     6
  0
VERTEX
  5
9C9
  8
0
 10
0.0
 20
0.0
 30
0.0
 70
   128
 71
     7
 72
     2
 73
    -3
  0
VERTEX
  5
9CA
  8
0
 10
0.0
 20
0.0
 30
0.0
 70
   128
 71
     6
 72
    -7
 73
     3
  0
VERTEX
  5
9CB
  8
0
 10
0.0
 20
0.0
 30
0.0
 70
   128
 71
     8
 72
     1
 73
    -2
  0
VERTEX
  5
9CC
  8
0
 10
0.0
 20
0.0
 30
0.0
 70
   128
 71
     7
 72
    -8
 73
     2
  0
SEQEND
  5
C80
  8
0
  0
POLYLINE
  5
9CD
  8
0
 66
     1
 10
0.0
 20
0.0
 30
0.0
 70
    64
 71
     8
 72
     6
  0
VERTEX
  5
9CE
  8
0
 10
425.1774719887999
 20
-25.1387655974438
 30
-32.5929460158862
 70
   192
  0
VERTEX
  5
9CF
  8
0
 10
420.3934584512981
 20
-33.79007078219765
 30
-34.05556573481336
 70
   192
  0
VERTEX
  5
9D0
  8
0
 10
410.8353904070389
 20
-33.79007078219765
 30
-36.97776039139977
 70
   192
  0
VERTEX
  5
9D1
  8
0
 10
406.0513768695001
 20
-25.1387655974438
 30
-38.44038011033619
 70
   192
  0
VERTEX
  5
9D2
  8
0
 10
398.3243353777
 20
-25.1387655974438
 30
-13.1663662136462
 70
   192
  0
VERTEX
  5
9D3
  8
0
 10
403.1083489151924
 20
-33.79007078219763
 30
-11.70374649471782
 70
   192
  0
VERTEX
  5
9D4
  8
0
 10
412.6664169594517
 20
-33.79007078219765
 30
-8.781551838130714
 70
   192
  0
VERTEX
  5
9D5
  8
0
 10
417.450430497
 20
-25.1387655974438
 30
-7.318932119196229
 70
   192
  0
VERTEX
  5
9D6
  8
0
 10
0.0
 20
0.0
 30
0.0
 70
   128
 71
     4
 72
     5
 73
    -6
  0
VERTEX
  5
9D7
  8
0
 10
0.0
 20
0.0
 30
0.0
 70
   128
 71
     3
 72
    -4
 73
     6
  0
VERTEX
  5
9D8
  8
0
 10
0.0
 20
0.0
 30
0.0
 70
   128
 71
     7
 72
     2
 73
    -3
  0
VERTEX
  5
9D9
  8
0
 10
0.0
 20
0.0
 30
0.0
 70
   128
 71
     6
 72
    -7
 73
     3
  0
VERTEX
  5
9DA
  8
0
 10
0.0
 20
0.0
 30
0.0
 70
   128
 71
     8
 72
     1
 73
    -2
  0
VERTEX
  5
9DB
  8
0
 10
0.0
 20
0.0
 30
0.0
 70
   128
 71
     7
 72
    -8
 73
     2
  0
SEQEND
  5
C81
  8
0
  0
POLYLINE
  5
9DC
  8
0
 66
     1
 10
0.0
 20
0.0
 30
0.0
 70
    64
 71
    12
 72
    10
  0
VERTEX
  5
9DD
  8
0
 10
417.450430497
 20
-25.1387655974438
 30
-7.318932119196229
 70
   192
  0
VERTEX
  5
9DE
  8
0
 10
412.6664169594517
 20
-33.79007078219765
 30
-8.781551838130714
 70
   192
  0
VERTEX
  5
9DF
  8
0
 10
403.1083489151924
 20
-33.79007078219763
 30
-11.70374649471782
 70
   192
  0
VERTEX
  5
9E0
  8
0
 10
398.3243353777
 20
-25.1387655974438
 30
-13.1663662136462
 70
   192
  0
VERTEX
  5
9E1
  8
0
 10
390.107274561035
 20
-25.13876559744376
 30
1.55624449390394
 70
   192
  0
VERTEX
  5
9E2
  8
0
 10
376.5538838578095
 20
-25.13876559744376
 30
11.58522604897239
 70
   192
  0
VERTEX
  5
9E3
  8
0
 10
360.0721451392
 20
-25.1387655974438
 30
15.1387655974438
 70
   192
  0
VERTEX
  5
9E4
  8
0
 10
360.0721451377973
 20
-33.79007078219763
 30
20.14132608489305
 70
   192
  0
VERTEX
  5
9E5
  8
0
 10
360.0721451374949
 20
-33.79007078219765
 30
30.13610948961525
 70
   192
  0
VERTEX
  5
9E6
  8
0
 10
360.0721451392
 20
-25.1387655974438
 30
35.13876559744381
 70
   192
  0
VERTEX
  5
9E7
  8
0
 10
384.7947532170795
 20
-25.1387655974438
 30
29.80845627473043
 70
   192
  0
VERTEX
  5
9E8
  8
0
 10
405.1248392720074
 20
-25.1387655974438
 30
14.76498394211688
 70
   192
  0
VERTEX
  5
9E9
  8
0
 10
0.0
 20
0.0
 30
0.0
 70
   128
 71
     6
 72
     7
 73
     8
  0
VERTEX
  5
9EA
  8
0
 10
0.0
 20
0.0
 30
0.0
 70
   128
 71
     9
 72
    11
 73
     6
  0
VERTEX
  5
9EB
  8
0
 10
0.0
 20
0.0
 30
0.0
 70
   128
 71
     8
 72
     9
 73
     6
  0
VERTEX
  5
9EC
  8
0
 10
0.0
 20
0.0
 30
0.0
 70
   128
 71
     9
 72
    10
 73
    11
  0
VERTEX
  5
9ED
  8
0
 10
0.0
 20
0.0
 30
0.0
 70
   128
 71
    12
 72
     5
 73
    -6
  0
VERTEX
  5
9EE
  8
0
 10
0.0
 20
0.0
 30
0.0
 70
   128
 71
    11
 72
   -12
 73
     6
  0
VERTEX
  5
9EF
  8
0
 10
0.0
 20
0.0
 30
0.0
 70
   128
 71
    12
 72
     1
 73
     2
  0
VERTEX
  5
9F0
  8
0
 10
0.0
 20
0.0
 30
0.0
 70
   128
 71
     3
 72
     5
 73
    12
  0
VERTEX
  5
9F1
  8
0
 10
0.0
 20
0.0
 30
0.0
 70
   128
 71
     2
 72
     3
 73
    12
  0
VERTEX
  5
9F2
  8
0
 10
0.0
 20
0.0
 30
0.0
 70
   128
 71
     3
 72
     4
 73
     5
  0
SEQEND
  5
C82
  8
0
  0
POLYLINE
  5
9F3
  8
0
 66
     1
 10
0.0
 20
0.0
 30
0.0
 70
    64
 71
    12
 72
    10
  0
VERTEX
  5
9F4
  8
0
 10
398.3243353777
 20
-25.1387655974438
 30
-13.1663662136462
 70
   192
  0
VERTEX
  5
9F5
  8
0
 10
403.1083489151924
 20
-16.48746041268995
 30
-11.70374649471785
 70
   192
  0
VERTEX
  5
9F6
  8
0
 10
412.6664169594516
 20
-16.48746041268997
 30
-8.78155183813075
 70
   192
  0
VERTEX
  5
9F7
  8
0
 10
417.450430497
 20
-25.1387655974438
 30
-7.318932119196229
 70
   192
  0
VERTEX
  5
9F8
  8
0
 10
405.1248392720074
 20
-25.1387655974438
 30
14.76498394211688
 70
   192
  0
VERTEX
  5
9F9
  8
0
 10
384.7947532170795
 20
-25.1387655974438
 30
29.80845627473043
 70
   192
  0
VERTEX
  5
9FA
  8
0
 10
360.0721451392
 20
-25.1387655974438
 30
35.13876559744381
 70
   192
  0
VERTEX
  5
9FB
  8
0
 10
360.0721451374808
 20
-16.48746041268998
 30
30.13610948961513
 70
   192
  0
VERTEX
  5
9FC
  8
0
 10
360.0721451377991
 20
-16.48746041268995
 30
20.1413260848931
 70
   192
  0
VERTEX
  5
9FD
  8
0
 10
360.0721451392
 20
-25.1387655974438
 30
15.1387655974438
 70
   192
  0
VERTEX
  5
9FE
  8
0
 10
376.5538838578095
 20
-25.13876559744376
 30
11.58522604897239
 70
   192
  0
VERTEX
  5
9FF
  8
0
 10
390.107274561035
 20
-25.13876559744376
 30
1.55624449390394
 70
   192
  0
VERTEX
  5
A00
  8
0
 10
0.0
 20
0.0
 30
0.0
 70
   128
 71
     6
 72
     7
 73
     8
  0
VERTEX
  5
A01
  8
0
 10
0.0
 20
0.0
 30
0.0
 70
   128
 71
     9
 72
    11
 73
     6
  0
VERTEX
  5
A02
  8
0
 10
0.0
 20
0.0
 30
0.0
 70
   128
 71
     8
 72
     9
 73
     6
  0
VERTEX
  5
A03
  8
0
 10
0.0
 20
0.0
 30
0.0
 70
   128
 71
     9
 72
    10
 73
    11
  0
VERTEX
  5
A04
  8
0
 10
0.0
 20
0.0
 30
0.0
 70
   128
 71
    12
 72
     5
 73
    -6
  0
VERTEX
  5
A05
  8
0
 10
0.0
 20
0.0
 30
0.0
 70
   128
 71
    11
 72
   -12
 73
     6
  0
VERTEX
  5
A06
  8
0
 10
0.0
 20
0.0
 30
0.0
 70
   128
 71
    12
 72
     1
 73
     2
  0
VERTEX
  5
A07
  8
0
 10
0.0
 20
0.0
 30
0.0
 70
   128
 71
     3
 72
     5
 73
    12
  0
VERTEX
  5
A08
  8
0
 10
0.0
 20
0.0
 30
0.0
 70
   128
 71
     2
 72
     3
 73
    12
  0
VERTEX
  5
A09
  8
0
 10
0.0
 20
0.0
 30
0.0
 70
   128
 71
     3
 72
     4
 73
     5
  0
SEQEND
  5
C83
  8
0
  0
POLYLINE
  5
A0A
  8
0
 66
     1
 10
0.0
 20
0.0
 30
0.0
 70
    64
 71
    13
 72
    12
  0
VERTEX
  5
A0B
  8
0
 10
402.630404819009
 20
-15.62232989421245
 30
-11.84986867039443
 70
   192
  0
VERTEX
  5
A0C
  8
0
 10
397.3680306217
 20
-25.1387655974438
 30
-13.4587379183662
 70
   192
  0
VERTEX
  5
A0D
  8
0
 10
389.35639632551
 20
-25.13876559744379
 30
0.8958075214925559
 70
   192
  0
VERTEX
  5
A0E
  8
0
 10
376.1418403898161
 20
-25.13876559744379
 30
10.67406453768107
 70
   192
  0
VERTEX
  5
A0F
  8
0
 10
360.0721451392001
 20
-15.62232989421243
 30
19.6416294684637
 70
   192
  0
VERTEX
  5
A10
  8
0
 10
360.0721451392
 20
-25.1387655974438
 30
14.1387655974438
 70
   192
  0
VERTEX
  5
A11
  8
0
 10
418.4067352529
 20
-25.1387655974438
 30
-7.026560414466231
 70
   192
  0
VERTEX
  5
A12
  8
0
 10
413.1442696143432
 20
-15.62232989421243
 30
-8.635457622111332
 70
   192
  0
VERTEX
  5
A13
  8
0
 10
389.8132008502748
 20
-14.1387655974428
 30
15.33149561360668
 70
   192
  0
VERTEX
  5
A14
  8
0
 10
405.875717507517
 20
-25.1387655974438
 30
15.42542091454225
 70
   192
  0
VERTEX
  5
A15
  8
0
 10
360.0721451392001
 20
-15.62232989421246
 30
30.63590172642341
 70
   192
  0
VERTEX
  5
A16
  8
0
 10
360.0721451392
 20
-25.1387655974438
 30
36.13876559744381
 70
   192
  0
VERTEX
  5
A17
  8
0
 10
385.2067966850753
 20
-25.1387655974438
 30
30.7196177860248
 70
   192
  0
VERTEX
  5
A18
  8
0
 10
0.0
 20
0.0
 30
0.0
 70
   128
 71
     1
 72
     2
 73
     3
  0
VERTEX
  5
A19
  8
0
 10
0.0
 20
0.0
 30
0.0
 70
   128
 71
     4
 72
     5
 73
     1
  0
VERTEX
  5
A1A
  8
0
 10
0.0
 20
0.0
 30
0.0
 70
   128
 71
     3
 72
     4
 73
     1
  0
VERTEX
  5
A1B
  8
0
 10
0.0
 20
0.0
 30
0.0
 70
   128
 71
     4
 72
     6
 73
     5
  0
VERTEX
  5
A1C
  8
0
 10
0.0
 20
0.0
 30
0.0
 70
   128
 71
     7
 72
     8
 73
     9
  0
VERTEX
  5
A1D
  8
0
 10
0.0
 20
0.0
 30
0.0
 70
   128
 71
    10
 72
     7
 73
     9
  0
VERTEX
  5
A1E
  8
0
 10
0.0
 20
0.0
 30
0.0
 70
   128
 71
    11
 72
    12
 73
    13
  0
VERTEX
  5
A1F
  8
0
 10
0.0
 20
0.0
 30
0.0
 70
   128
 71
     9
 72
    11
 73
    13
  0
VERTEX
  5
A20
  8
0
 10
0.0
 20
0.0
 30
0.0
 70
   128
 71
    11
 72
     9
 73
     5
  0
VERTEX
  5
A21
  8
0
 10
0.0
 20
0.0
 30
0.0
 70
   128
 71
     1
 72
     5
 73
     9
  0
VERTEX
  5
A22
  8
0
 10
0.0
 20
0.0
 30
0.0
 70
   128
 71
     9
 72
     8
 73
     1
  0
VERTEX
  5
A23
  8
0
 10
0.0
 20
0.0
 30
0.0
 70
   128
 71
     9
 72
    13
 73
    10
  0
SEQEND
  5
C84
  8
0
  0
POLYLINE
  5
A24
  8
0
 66
     1
 10
0.0
 20
0.0
 30
0.0
 70
    64
 71
     8
 72
     6
  0
VERTEX
  5
A25
  8
0
 10
418.4067352529
 20
-25.1387655974438
 30
-7.026560414466231
 70
   192
  0
VERTEX
  5
A26
  8
0
 10
427.3032635636
 20
-25.1387655974438
 30
-36.1257933350162
 70
   192
  0
VERTEX
  5
A27
  8
0
 10
422.0408486723611
 20
-15.62232989421244
 30
-37.73467502584348
 70
   192
  0
VERTEX
  5
A28
  8
0
 10
413.1442696143432
 20
-15.62232989421243
 30
-8.635457622111332
 70
   192
  0
VERTEX
  5
A29
  8
0
 10
406.2645589325
 20
-25.1387655974438
 30
-42.55797083891619
 70
   192
  0
VERTEX
  5
A2A
  8
0
 10
397.3680306217
 20
-25.1387655974438
 30
-13.4587379183662
 70
   192
  0
VERTEX
  5
A2B
  8
0
 10
402.630404819009
 20
-15.62232989421245
 30
-11.84986867039443
 70
   192
  0
VERTEX
  5
A2C
  8
0
 10
411.526973823702
 20
-15.62232989421243
 30
-40.94908914808892
 70
   192
  0
VERTEX
  5
A2D
  8
0
 10
0.0
 20
0.0
 30
0.0
 70
   128
 71
     1
 72
     2
 73
     3
  0
VERTEX
  5
A2E
  8
0
 10
0.0
 20
0.0
 30
0.0
 70
   128
 71
     4
 72
     1
 73
     3
  0
VERTEX
  5
A2F
  8
0
 10
0.0
 20
0.0
 30
0.0
 70
   128
 71
     5
 72
     6
 73
     7
  0
VERTEX
  5
A30
  8
0
 10
0.0
 20
0.0
 30
0.0
 70
   128
 71
     8
 72
     5
 73
     7
  0
VERTEX
  5
A31
  8
0
 10
0.0
 20
0.0
 30
0.0
 70
   128
 71
     7
 72
    -4
 73
     8
  0
VERTEX
  5
A32
  8
0
 10
0.0
 20
0.0
 30
0.0
 70
   128
 71
     4
 72
     3
 73
    -8
  0
SEQEND
  5
C85
  8
0
  0
POLYLINE
  5
A33
  8
0
 66
     1
 10
0.0
 20
0.0
 30
0.0
 70
    64
 71
     8
 72
     6
  0
VERTEX
  5
A34
  8
0
 10
397.3680306217
 20
-25.1387655974438
 30
-13.4587379183662
 70
   192
  0
VERTEX
  5
A35
  8
0
 10
406.2645589325
 20
-25.1387655974438
 30
-42.55797083891619
 70
   192
  0
VERTEX
  5
A36
  8
0
 10
411.5269738237019
 20
-34.65520130067517
 30
-40.94908914808892
 70
   192
  0
VERTEX
  5
A37
  8
0
 10
402.6304455129992
 20
-34.65520130067515
 30
-11.84985622754237
 70
   192
  0
VERTEX
  5
A38
  8
0
 10
427.3032635636
 20
-25.1387655974438
 30
-36.1257933350162
 70
   192
  0
VERTEX
  5
A39
  8
0
 10
418.4067352529
 20
-25.1387655974438
 30
-7.026560414466231
 70
   192
  0
VERTEX
  5
A3A
  8
0
 10
413.1443203616142
 20
-34.65520130067517
 30
-8.635442105296908
 70
   192
  0
VERTEX
  5
A3B
  8
0
 10
422.0408486723611
 20
-34.65520130067518
 30
-37.73467502584349
 70
   192
  0
VERTEX
  5
A3C
  8
0
 10
0.0
 20
0.0
 30
0.0
 70
   128
 71
     1
 72
     2
 73
    -3
  0
VERTEX
  5
A3D
  8
0
 10
0.0
 20
0.0
 30
0.0
 70
   128
 71
     4
 72
    -1
 73
     3
  0
VERTEX
  5
A3E
  8
0
 10
0.0
 20
0.0
 30
0.0
 70
   128
 71
     5
 72
     6
 73
    -7
  0
VERTEX
  5
A3F
  8
0
 10
0.0
 20
0.0
 30
0.0
 70
   128
 71
     8
 72
    -5
 73
     7
  0
VERTEX
  5
A40
  8
0
 10
0.0
 20
0.0
 30
0.0
 70
   128
 71
     7
 72
     4
 73
    -3
  0
VERTEX
  5
A41
  8
0
 10
0.0
 20
0.0
 30
0.0
 70
   128
 71
     8
 72
    -7
 73
     3
  0
SEQEND
  5
C86
  8
0
  0
POLYLINE
  5
A42
  8
0
 66
     1
 10
0.0
 20
0.0
 30
0.0
 70
    64
 71
    13
 72
    12
  0
VERTEX
  5
A43
  8
0
 10
360.0721451392001
 20
-34.65520130067515
 30
19.64162946846366
 70
   192
  0
VERTEX
  5
A44
  8
0
 10
360.0721451392
 20
-25.1387655974438
 30
14.1387655974438
 70
   192
  0
VERTEX
  5
A45
  8
0
 10
376.1418403898161
 20
-25.13876559744379
 30
10.67406453768107
 70
   192
  0
VERTEX
  5
A46
  8
0
 10
389.35639632551
 20
-25.13876559744379
 30
0.8958075214925559
 70
   192
  0
VERTEX
  5
A47
  8
0
 10
402.6304455129992
 20
-34.65520130067515
 30
-11.84985622754237
 70
   192
  0
VERTEX
  5
A48
  8
0
 10
397.3680306217
 20
-25.1387655974438
 30
-13.4587379183662
 70
   192
  0
VERTEX
  5
A49
  8
0
 10
389.8132008502749
 20
-36.1387655974448
 30
15.33149561360669
 70
   192
  0
VERTEX
  5
A4A
  8
0
 10
413.1443203616142
 20
-34.65520130067517
 30
-8.635442105296908
 70
   192
  0
VERTEX
  5
A4B
  8
0
 10
418.4067352529
 20
-25.1387655974438
 30
-7.026560414466231
 70
   192
  0
VERTEX
  5
A4C
  8
0
 10
405.875717507517
 20
-25.1387655974438
 30
15.42542091454225
 70
   192
  0
VERTEX
  5
A4D
  8
0
 10
385.2067966850753
 20
-25.1387655974438
 30
30.7196177860248
 70
   192
  0
VERTEX
  5
A4E
  8
0
 10
360.0721451392
 20
-25.1387655974438
 30
36.13876559744381
 70
   192
  0
VERTEX
  5
A4F
  8
0
 10
360.0721451392001
 20
-34.65520130067517
 30
30.63590172642336
 70
   192
  0
VERTEX
  5
A50
  8
0
 10
0.0
 20
0.0
 30
0.0
 70
   128
 71
     1
 72
     2
 73
     3
  0
VERTEX
  5
A51
  8
0
 10
0.0
 20
0.0
 30
0.0
 70
   128
 71
     4
 72
     5
 73
    -1
  0
VERTEX
  5
A52
  8
0
 10
0.0
 20
0.0
 30
0.0
 70
   128
 71
     3
 72
    -4
 73
     1
  0
VERTEX
  5
A53
  8
0
 10
0.0
 20
0.0
 30
0.0
 70
   128
 71
     4
 72
     6
 73
     5
  0
VERTEX
  5
A54
  8
0
 10
0.0
 20
0.0
 30
0.0
 70
   128
 71
     1
 72
     5
 73
     7
  0
VERTEX
  5
A55
  8
0
 10
0.0
 20
0.0
 30
0.0
 70
   128
 71
     8
 72
     9
 73
    10
  0
VERTEX
  5
A56
  8
0
 10
0.0
 20
0.0
 30
0.0
 70
   128
 71
     7
 72
     8
 73
    10
  0
VERTEX
  5
A57
  8
0
 10
0.0
 20
0.0
 30
0.0
 70
   128
 71
    11
 72
    12
 73
    13
  0
VERTEX
  5
A58
  8
0
 10
0.0
 20
0.0
 30
0.0
 70
   128
 71
     1
 72
     7
 73
    11
  0
VERTEX
  5
A59
  8
0
 10
0.0
 20
0.0
 30
0.0
 70
   128
 71
    13
 72
     1
 73
    11
  0
VERTEX
  5
A5A
  8
0
 10
0.0
 20
0.0
 30
0.0
 70
   128
 71
     7
 72
     5
 73
     8
  0
VERTEX
  5
A5B
  8
0
 10
0.0
 20
0.0
 30
0.0
 70
   128
 71
    11
 72
     7
 73
    10
  0
SEQEND
  5
C87
  8
0
  0
POLYLINE
  5
A5C
  8
0
 66
     1
 10
0.0
 20
0.0
 30
0.0
 70
    64
 71
     8
 72
     6
  0
VERTEX
  5
A5D
  8
0
 10
409.611625578311
 20
-25.1387655974438
 30
-41.5346698723924
 70
   192
  0
VERTEX
  5
A5E
  8
0
 10
413.2763646404203
 20
-18.59681245416191
 30
-40.41424670156272
 70
   192
  0
VERTEX
  5
A5F
  8
0
 10
420.2914578556683
 20
-18.59681245416191
 30
-38.26951747236329
 70
   192
  0
VERTEX
  5
A60
  8
0
 10
423.956196917778
 20
-25.1387655974438
 30
-37.1490943015335
 70
   192
  0
VERTEX
  5
A61
  8
0
 10
422.7867100989
 20
-25.1387655974438
 30
-33.3238752776862
 70
   192
  0
VERTEX
  5
A62
  8
0
 10
419.1219710367822
 20
-18.59681245415084
 30
-34.44429844851111
 70
   192
  0
VERTEX
  5
A63
  8
0
 10
412.106877821518
 20
-18.59681245415084
 30
-36.58902767770127
 70
   192
  0
VERTEX
  5
A64
  8
0
 10
408.4421387594
 20
-25.1387655974438
 30
-37.7094508485262
 70
   192
  0
VERTEX
  5
A65
  8
0
 10
0.0
 20
0.0
 30
0.0
 70
   128
 71
     4
 72
     5
 73
    -6
  0
VERTEX
  5
A66
  8
0
 10
0.0
 20
0.0
 30
0.0
 70
   128
 71
     3
 72
    -4
 73
     6
  0
VERTEX
  5
A67
  8
0
 10
0.0
 20
0.0
 30
0.0
 70
   128
 71
     7
 72
     2
 73
    -3
  0
VERTEX
  5
A68
  8
0
 10
0.0
 20
0.0
 30
0.0
 70
   128
 71
     6
 72
    -7
 73
     3
  0
VERTEX
  5
A69
  8
0
 10
0.0
 20
0.0
 30
0.0
 70
   128
 71
     8
 72
     1
 73
    -2
  0
VERTEX
  5
A6A
  8
0
 10
0.0
 20
0.0
 30
0.0
 70
   128
 71
     7
 72
    -8
 73
     2
  0
SEQEND
  5
C88
  8
0
  0
POLYLINE
  5
A6B
  8
0
 66
     1
 10
0.0
 20
0.0
 30
0.0
 70
    64
 71
     8
 72
     6
  0
VERTEX
  5
A6C
  8
0
 10
423.956196917778
 20
-25.1387655974438
 30
-37.1490943015335
 70
   192
  0
VERTEX
  5
A6D
  8
0
 10
420.2914578556683
 20
-31.6807187407256
 30
-38.2695174723633
 70
   192
  0
VERTEX
  5
A6E
  8
0
 10
413.2763646404202
 20
-31.68071874072561
 30
-40.41424670156271
 70
   192
  0
VERTEX
  5
A6F
  8
0
 10
409.611625578311
 20
-25.1387655974438
 30
-41.5346698723924
 70
   192
  0
VERTEX
  5
A70
  8
0
 10
408.4421387594
 20
-25.1387655974438
 30
-37.7094508485262
 70
   192
  0
VERTEX
  5
A71
  8
0
 10
412.106877821518
 20
-31.68071874073667
 30
-36.58902767770127
 70
   192
  0
VERTEX
  5
A72
  8
0
 10
419.1219710367822
 20
-31.68071874073667
 30
-34.44429844851111
 70
   192
  0
VERTEX
  5
A73
  8
0
 10
422.7867100989
 20
-25.1387655974438
 30
-33.3238752776862
 70
   192
  0
VERTEX
  5
A74
  8
0
 10
0.0
 20
0.0
 30
0.0
 70
   128
 71
     4
 72
     5
 73
    -6
  0
VERTEX
  5
A75
  8
0
 10
0.0
 20
0.0
 30
0.0
 70
   128
 71
     3
 72
    -4
 73
     6
  0
VERTEX
  5
A76
  8
0
 10
0.0
 20
0.0
 30
0.0
 70
   128
 71
     7
 72
     2
 73
    -3
  0
VERTEX
  5
A77
  8
0
 10
0.0
 20
0.0
 30
0.0
 70
   128
 71
     6
 72
    -7
 73
     3
  0
VERTEX
  5
A78
  8
0
 10
0.0
 20
0.0
 30
0.0
 70
   128
 71
     8
 72
     1
 73
    -2
  0
VERTEX
  5
A79
  8
0
 10
0.0
 20
0.0
 30
0.0
 70
   128
 71
     7
 72
    -8
 73
     2
  0
SEQEND
  5
C89
  8
0
  0
POLYLINE
  5
A7A
  8
0
 66
     1
 10
0.0
 20
0.0
 30
0.0
 70
    64
 71
    12
 72
    12
  0
VERTEX
  5
A7B
  8
0
 10
408.1771684444
 20
-25.1387655974438
 30
-41.9732274294662
 70
   192
  0
VERTEX
  5
A7C
  8
0
 10
412.5748553189158
 20
-17.28842182553365
 30
-40.62871962447579
 70
   192
  0
VERTEX
  5
A7D
  8
0
 10
420.9929671771843
 20
-17.28842182553365
 30
-38.05504454944667
 70
   192
  0
VERTEX
  5
A7E
  8
0
 10
425.3906540517
 20
-25.1387655974438
 30
-36.7105367444562
 70
   192
  0
VERTEX
  5
A7F
  8
0
 10
420.9929671771843
 20
-32.98910936935388
 30
-38.05504454944662
 70
   192
  0
VERTEX
  5
A80
  8
0
 10
412.5748553189158
 20
-32.98910936935388
 30
-40.62871962447579
 70
   192
  0
VERTEX
  5
A81
  8
0
 10
409.611625578311
 20
-25.1387655974438
 30
-41.5346698723924
 70
   192
  0
VERTEX
  5
A82
  8
0
 10
413.2763646404202
 20
-31.68071874072561
 30
-40.41424670156271
 70
   192
  0
VERTEX
  5
A83
  8
0
 10
420.2914578556683
 20
-31.6807187407256
 30
-38.2695174723633
 70
   192
  0
VERTEX
  5
A84
  8
0
 10
423.956196917778
 20
-25.1387655974438
 30
-37.1490943015335
 70
   192
  0
VERTEX
  5
A85
  8
0
 10
420.2914578556683
 20
-18.59681245416191
 30
-38.26951747236329
 70
   192
  0
VERTEX
  5
A86
  8
0
 10
413.2763646404203
 20
-18.59681245416191
 30
-40.41424670156272
 70
   192
  0
VERTEX
  5
A87
  8
0
 10
0.0
 20
0.0
 30
0.0
 70
   128
 71
    -1
 72
     7
 73
    -8
  0
VERTEX
  5
A88
  8
0
 10
0.0
 20
0.0
 30
0.0
 70
   128
 71
     6
 72
    -1
 73
    -8
  0
VERTEX
  5
A89
  8
0
 10
0.0
 20
0.0
 30
0.0
 70
   128
 71
    -9
 72
     5
 73
    -6
  0
VERTEX
  5
A8A
  8
0
 10
0.0
 20
0.0
 30
0.0
 70
   128
 71
     8
 72
    -9
 73
    -6
  0
VERTEX
  5
A8B
  8
0
 10
0.0
 20
0.0
 30
0.0
 70
   128
 71
   -10
 72
     4
 73
    -5
  0
VERTEX
  5
A8C
  8
0
 10
0.0
 20
0.0
 30
0.0
 70
   128
 71
     9
 72
   -10
 73
    -5
  0
VERTEX
  5
A8D
  8
0
 10
0.0
 20
0.0
 30
0.0
 70
   128
 71
   -11
 72
     3
 73
    -4
  0
VERTEX
  5
A8E
  8
0
 10
0.0
 20
0.0
 30
0.0
 70
   128
 71
    10
 72
   -11
 73
    -4
  0
VERTEX
  5
A8F
  8
0
 10
0.0
 20
0.0
 30
0.0
 70
   128
 71
   -12
 72
     2
 73
    -3
  0
VERTEX
  5
A90
  8
0
 10
0.0
 20
0.0
 30
0.0
 70
   128
 71
    11
 72
   -12
 73
    -3
  0
VERTEX
  5
A91
  8
0
 10
0.0
 20
0.0
 30
0.0
 70
   128
 71
    -7
 72
     1
 73
    -2
  0
VERTEX
  5
A92
  8
0
 10
0.0
 20
0.0
 30
0.0
 70
   128
 71
    12
 72
    -7
 73
    -2
  0
SEQEND
  5
C8A
  8
0
  0
POLYLINE
  5
A93
  8
0
 66
     1
 10
0.0
 20
0.0
 30
0.0
 70
    64
 71
    12
 72
    12
  0
VERTEX
  5
A94
  8
0
 10
406.2645589325
 20
-25.1387655974438
 30
-42.55797083891619
 70
   192
  0
VERTEX
  5
A95
  8
0
 10
411.526973823702
 20
-15.62232989421243
 30
-40.94908914808892
 70
   192
  0
VERTEX
  5
A96
  8
0
 10
422.0408486723611
 20
-15.62232989421244
 30
-37.73467502584348
 70
   192
  0
VERTEX
  5
A97
  8
0
 10
427.3032635636
 20
-25.1387655974438
 30
-36.1257933350162
 70
   192
  0
VERTEX
  5
A98
  8
0
 10
422.0408486723611
 20
-34.65520130067518
 30
-37.73467502584349
 70
   192
  0
VERTEX
  5
A99
  8
0
 10
411.5269738237019
 20
-34.65520130067517
 30
-40.94908914808892
 70
   192
  0
VERTEX
  5
A9A
  8
0
 10
408.1771684444
 20
-25.13876559744381
 30
-41.97322742946621
 70
   192
  0
VERTEX
  5
A9B
  8
0
 10
412.5748553189158
 20
-32.98910936935388
 30
-40.62871962447579
 70
   192
  0
VERTEX
  5
A9C
  8
0
 10
420.9929671771843
 20
-32.98910936935388
 30
-38.05504454944662
 70
   192
  0
VERTEX
  5
A9D
  8
0
 10
425.3906540517
 20
-25.1387655974438
 30
-36.7105367444562
 70
   192
  0
VERTEX
  5
A9E
  8
0
 10
420.9929671771843
 20
-17.28842182553365
 30
-38.05504454944667
 70
   192
  0
VERTEX
  5
A9F
  8
0
 10
412.5748553189158
 20
-17.28842182553365
 30
-40.62871962447579
 70
   192
  0
VERTEX
  5
AA0
  8
0
 10
0.0
 20
0.0
 30
0.0
 70
   128
 71
    -1
 72
     7
 73
    -8
  0
VERTEX
  5
AA1
  8
0
 10
0.0
 20
0.0
 30
0.0
 70
   128
 71
     6
 72
    -1
 73
    -8
  0
VERTEX
  5
AA2
  8
0
 10
0.0
 20
0.0
 30
0.0
 70
   128
 71
    -9
 72
     5
 73
    -6
  0
VERTEX
  5
AA3
  8
0
 10
0.0
 20
0.0
 30
0.0
 70
   128
 71
     8
 72
    -9
 73
    -6
  0
VERTEX
  5
AA4
  8
0
 10
0.0
 20
0.0
 30
0.0
 70
   128
 71
   -10
 72
     4
 73
    -5
  0
VERTEX
  5
AA5
  8
0
 10
0.0
 20
0.0
 30
0.0
 70
   128
 71
     9
 72
   -10
 73
    -5
  0
VERTEX
  5
AA6
  8
0
 10
0.0
 20
0.0
 30
0.0
 70
   128
 71
   -11
 72
     3
 73
    -4
  0
VERTEX
  5
AA7
  8
0
 10
0.0
 20
0.0
 30
0.0
 70
   128
 71
    10
 72
   -11
 73
    -4
  0
VERTEX
  5
AA8
  8
0
 10
0.0
 20
0.0
 30
0.0
 70
   128
 71
   -12
 72
     2
 73
    -3
  0
VERTEX
  5
AA9
  8
0
 10
0.0
 20
0.0
 30
0.0
 70
   128
 71
    11
 72
   -12
 73
    -3
  0
VERTEX
  5
AAA
  8
0
 10
0.0
 20
0.0
 30
0.0
 70
   128
 71
    -7
 72
     1
 73
    -2
  0
VERTEX
  5
AAB
  8
0
 10
0.0
 20
0.0
 30
0.0
 70
   128
 71
    12
 72
    -7
 73
    -2
  0
SEQEND
  5
C8B
  8
0
  0
POLYLINE
  5
AAC
  8
0
 66
     1
 10
0.0
 20
0.0
 30
0.0
 70
    64
 71
    12
 72
    12
  0
VERTEX
  5
AAD
  8
0
 10
35.0
 20
-25.1387655974438
 30
36.13876559744381
 70
   192
  0
VERTEX
  5
AAE
  8
0
 10
34.99999999999998
 20
-15.62232989421245
 30
30.6359017264234
 70
   192
  0
VERTEX
  5
AAF
  8
0
 10
34.99999999999998
 20
-15.62232989421243
 30
19.64162946846423
 70
   192
  0
VERTEX
  5
AB0
  8
0
 10
35.0
 20
-25.1387655974438
 30
14.13876559744022
 70
   192
  0
VERTEX
  5
AB1
  8
0
 10
34.99999999999999
 20
-34.65520130067516
 30
19.6416294684642
 70
   192
  0
VERTEX
  5
AB2
  8
0
 10
34.99999999999998
 20
-34.65520130067517
 30
30.63590172642337
 70
   192
  0
VERTEX
  5
AB3
  8
0
 10
35.0
 20
-25.1387655974438
 30
35.13876559744381
 70
   192
  0
VERTEX
  5
AB4
  8
0
 10
35.00000000000001
 20
-33.79007078219765
 30
30.13616207833403
 70
   192
  0
VERTEX
  5
AB5
  8
0
 10
35.00000000000001
 20
-33.79007078219765
 30
20.14136911655358
 70
   192
  0
VERTEX
  5
AB6
  8
0
 10
35.0
 20
-25.13876559744379
 30
15.13876559744388
 70
   192
  0
VERTEX
  5
AB7
  8
0
 10
35.00000000000002
 20
-16.48746041268996
 30
20.14136911655356
 70
   192
  0
VERTEX
  5
AB8
  8
0
 10
35.00000000000001
 20
-16.48746041268995
 30
30.13616207833402
 70
   192
  0
VERTEX
  5
AB9
  8
0
 10
0.0
 20
0.0
 30
0.0
 70
   128
 71
    -1
 72
     7
 73
    -8
  0
VERTEX
  5
ABA
  8
0
 10
0.0
 20
0.0
 30
0.0
 70
   128
 71
     6
 72
    -1
 73
    -8
  0
VERTEX
  5
ABB
  8
0
 10
0.0
 20
0.0
 30
0.0
 70
   128
 71
    -9
 72
     5
 73
    -6
  0
VERTEX
  5
ABC
  8
0
 10
0.0
 20
0.0
 30
0.0
 70
   128
 71
     8
 72
    -9
 73
    -6
  0
VERTEX
  5
ABD
  8
0
 10
0.0
 20
0.0
 30
0.0
 70
   128
 71
   -10
 72
     4
 73
    -5
  0
VERTEX
  5
ABE
  8
0
 10
0.0
 20
0.0
 30
0.0
 70
   128
 71
     9
 72
   -10
 73
    -5
  0
VERTEX
  5
ABF
  8
0
 10
0.0
 20
0.0
 30
0.0
 70
   128
 71
   -11
 72
     3
 73
    -4
  0
VERTEX
  5
AC0
  8
0
 10
0.0
 20
0.0
 30
0.0
 70
   128
 71
    10
 72
   -11
 73
    -4
  0
VERTEX
  5
AC1
  8
0
 10
0.0
 20
0.0
 30
0.0
 70
   128
 71
   -12
 72
     2
 73
    -3
  0
VERTEX
  5
AC2
  8
0
 10
0.0
 20
0.0
 30
0.0
 70
   128
 71
    11
 72
   -12
 73
    -3
  0
VERTEX
  5
AC3
  8
0
 10
0.0
 20
0.0
 30
0.0
 70
   128
 71
    -7
 72
     1
 73
    -2
  0
VERTEX
  5
AC4
  8
0
 10
0.0
 20
0.0
 30
0.0
 70
   128
 71
    12
 72
    -7
 73
    -2
  0
SEQEND
  5
C8C
  8
0
  0
ENDBLK
  5
C7A
  8
0
  0
BLOCK
  8
0
  2
*X3
 70
     1
 10
0.0
 20
0.0
 30
0.0
  3
*X3
  1

  0
POLYLINE
  5
AC6
  8
0
 66
     1
 10
0.0
 20
0.0
 30
0.0
 70
    64
 71
    16
 72
    14
  0
VERTEX
  5
AC7
  8
0
 10
411.7619827173647
 20
-21.67878186211794
 30
-52.82154680864714
 70
   192
  0
VERTEX
  5
AC8
  8
0
 10
411.1308201694689
 20
-25.13876559744374
 30
-53.01440371642285
 70
   192
  0
VERTEX
  5
AC9
  8
0
 10
408.6456911128602
 20
-25.13876559744369
 30
-44.88591283437635
 70
   192
  0
VERTEX
  5
ACA
  8
0
 10
409.8499871412752
 20
-20.43891030824368
 30
-44.51772258892953
 70
   192
  0
VERTEX
  5
ACB
  8
0
 10
413.7636642119442
 20
-18.49216650626064
 30
-52.20957136124358
 70
   192
  0
VERTEX
  5
ACC
  8
0
 10
413.1401850782586
 20
-16.99837744832795
 30
-43.51180813151758
 70
   192
  0
VERTEX
  5
ACD
  8
0
 10
417.634679043657
 20
-15.73905501904367
 30
-42.13770342865882
 70
   192
  0
VERTEX
  5
ACE
  8
0
 10
420.1198385338181
 20
-15.7390550190437
 30
-50.26629385433908
 70
   192
  0
VERTEX
  5
ACF
  8
0
 10
416.8110396321763
 20
-16.39902466827101
 30
-51.27789519735185
 70
   192
  0
VERTEX
  5
AD0
  8
0
 10
423.4286374354566
 20
-16.39902466827676
 30
-49.25469251132728
 70
   192
  0
VERTEX
  5
AD1
  8
0
 10
422.1291730090554
 20
-16.99837744832795
 30
-40.76359872580005
 70
   192
  0
VERTEX
  5
AD2
  8
0
 10
426.4760128556817
 20
-18.49216650626812
 30
-48.3230163474376
 70
   192
  0
VERTEX
  5
AD3
  8
0
 10
425.4193709460388
 20
-20.43891030824368
 30
-39.7576842683881
 70
   192
  0
VERTEX
  5
AD4
  8
0
 10
426.6236669744538
 20
-25.13876559744369
 30
-39.38949402294129
 70
   192
  0
VERTEX
  5
AD5
  8
0
 10
429.1087960310626
 20
-25.13876559744369
 30
-47.51798490498778
 70
   192
  0
VERTEX
  5
AD6
  8
0
 10
428.4776943502562
 20
-21.6787818621227
 30
-47.71104090003568
 70
   192
  0
VERTEX
  5
AD7
  8
0
 10
0.0
 20
0.0
 30
0.0
 70
   128
 71
     1
 72
     2
 73
     3
  0
VERTEX
  5
AD8
  8
0
 10
0.0
 20
0.0
 30
0.0
 70
   128
 71
     1
 72
     3
 73
     4
  0
VERTEX
  5
AD9
  8
0
 10
0.0
 20
0.0
 30
0.0
 70
   128
 71
     4
 72
     5
 73
     1
  0
VERTEX
  5
ADA
  8
0
 10
0.0
 20
0.0
 30
0.0
 70
   128
 71
     6
 72
     7
 73
     8
  0
VERTEX
  5
ADB
  8
0
 10
0.0
 20
0.0
 30
0.0
 70
   128
 71
     6
 72
     8
 73
     9
  0
VERTEX
  5
ADC
  8
0
 10
0.0
 20
0.0
 30
0.0
 70
   128
 71
    10
 72
     8
 73
     7
  0
VERTEX
  5
ADD
  8
0
 10
0.0
 20
0.0
 30
0.0
 70
   128
 71
    10
 72
     7
 73
    11
  0
VERTEX
  5
ADE
  8
0
 10
0.0
 20
0.0
 30
0.0
 70
   128
 71
    11
 72
    12
 73
    10
  0
VERTEX
  5
ADF
  8
0
 10
0.0
 20
0.0
 30
0.0
 70
   128
 71
    13
 72
    14
 73
    15
  0
VERTEX
  5
AE0
  8
0
 10
0.0
 20
0.0
 30
0.0
 70
   128
 71
    13
 72
    15
 73
    16
  0
VERTEX
  5
AE1
  8
0
 10
0.0
 20
0.0
 30
0.0
 70
   128
 71
     4
 72
     6
 73
     9
  0
VERTEX
  5
AE2
  8
0
 10
0.0
 20
0.0
 30
0.0
 70
   128
 71
     4
 72
     9
 73
     5
  0
VERTEX
  5
AE3
  8
0
 10
0.0
 20
0.0
 30
0.0
 70
   128
 71
    11
 72
    13
 73
    16
  0
VERTEX
  5
AE4
  8
0
 10
0.0
 20
0.0
 30
0.0
 70
   128
 71
    11
 72
    16
 73
    12
  0
SEQEND
  5
C8F
  8
0
  0
POLYLINE
  5
AE5
  8
0
 66
     1
 10
0.0
 20
0.0
 30
0.0
 70
    64
 71
    52
 72
    28
  0
VERTEX
  5
AE6
  8
0
 10
409.1425720402352
 20
-23.1996506294243
 30
-44.73400108984554
 70
   192
  0
VERTEX
  5
AE7
  8
0
 10
408.788860051002
 20
-25.1387655974438
 30
-44.8421416973543
 70
   192
  0
VERTEX
  5
AE8
  8
0
 10
409.142572040235
 20
-27.07788056546251
 30
-44.73400108984559
 70
   192
  0
VERTEX
  5
AE9
  8
0
 10
408.6456911128602
 20
-25.13876559744369
 30
-44.88591283437634
 70
   192
  0
VERTEX
  5
AEA
  8
0
 10
409.4099400309706
 20
-21.73388953399648
 30
-44.65225849183741
 70
   192
  0
VERTEX
  5
AEB
  8
0
 10
409.5927222136058
 20
-21.44290592269741
 30
-44.59637637058163
 70
   192
  0
VERTEX
  5
AEC
  8
0
 10
409.5927222136059
 20
-28.83462527219038
 30
-44.5963763705816
 70
   192
  0
VERTEX
  5
AED
  8
0
 10
409.4099400309706
 20
-28.54364166089113
 30
-44.65225849183742
 70
   192
  0
VERTEX
  5
AEE
  8
0
 10
410.9381479916419
 20
-30.97650171760461
 30
-44.18503843060891
 70
   192
  0
VERTEX
  5
AEF
  8
0
 10
409.8499871412752
 20
-29.83862088664371
 30
-44.51772258892953
 70
   192
  0
VERTEX
  5
AF0
  8
0
 10
409.8499871412752
 20
-20.43891030824368
 30
-44.51772258892953
 70
   192
  0
VERTEX
  5
AF1
  8
0
 10
410.9381479916424
 20
-19.30102947728222
 30
-44.18503843060874
 70
   192
  0
VERTEX
  5
AF2
  8
0
 10
411.3797404488021
 20
-18.59802787146823
 30
-44.0500300677538
 70
   192
  0
VERTEX
  5
AF3
  8
0
 10
412.0520242278914
 20
-18.1362582792894
 30
-43.84449228983835
 70
   192
  0
VERTEX
  5
AF4
  8
0
 10
412.052024227892
 20
-32.14127291559873
 30
-43.84449228983813
 70
   192
  0
VERTEX
  5
AF5
  8
0
 10
411.3797404488021
 20
-31.67950332341938
 30
-44.0500300677538
 70
   192
  0
VERTEX
  5
AF6
  8
0
 10
414.100310859326
 20
-33.54817356065661
 30
-43.21826822218458
 70
   192
  0
VERTEX
  5
AF7
  8
0
 10
413.1401850782586
 20
-33.27915374655944
 30
-43.51180813151758
 70
   192
  0
VERTEX
  5
AF8
  8
0
 10
413.1401850782586
 20
-16.99837744832795
 30
-43.51180813151758
 70
   192
  0
VERTEX
  5
AF9
  8
0
 10
414.1003108593266
 20
-16.72935763423062
 30
-43.21826822218441
 70
   192
  0
VERTEX
  5
AFA
  8
0
 10
414.3785798707189
 20
-16.53822381261632
 30
-43.13319284770229
 70
   192
  0
VERTEX
  5
AFB
  8
0
 10
415.7802941773801
 20
-16.25863930875597
 30
-42.70464577751459
 70
   192
  0
VERTEX
  5
AFC
  8
0
 10
415.7802941773829
 20
-34.01889188613218
 30
-42.70464577751375
 70
   192
  0
VERTEX
  5
AFD
  8
0
 10
414.3785798707189
 20
-33.73930738227129
 30
-43.13319284770229
 70
   192
  0
VERTEX
  5
AFE
  8
0
 10
417.6346790436571
 20
-34.38876559744381
 30
-42.1377034286588
 70
   192
  0
VERTEX
  5
AFF
  8
0
 10
419.4890639099307
 20
-34.01889188613229
 30
-41.57076107980397
 70
   192
  0
VERTEX
  5
B00
  8
0
 10
417.634679043657
 20
-34.53847617584372
 30
-42.13770342865882
 70
   192
  0
VERTEX
  5
B01
  8
0
 10
417.634679043657
 20
-15.73905501904367
 30
-42.13770342865882
 70
   192
  0
VERTEX
  5
B02
  8
0
 10
419.4890639099335
 20
-16.25863930875586
 30
-41.57076107980314
 70
   192
  0
VERTEX
  5
B03
  8
0
 10
417.6346790436571
 20
-15.8887655974438
 30
-42.1377034286588
 70
   192
  0
VERTEX
  5
B04
  8
0
 10
420.8907782165953
 20
-16.53822381261632
 30
-41.14221400961531
 70
   192
  0
VERTEX
  5
B05
  8
0
 10
421.1690472279877
 20
-16.72935763423072
 30
-41.05713863513311
 70
   192
  0
VERTEX
  5
B06
  8
0
 10
421.1690472279882
 20
-33.54817356065652
 30
-41.05713863513294
 70
   192
  0
VERTEX
  5
B07
  8
0
 10
420.8907782165953
 20
-33.73930738227129
 30
-41.14221400961531
 70
   192
  0
VERTEX
  5
B08
  8
0
 10
423.2173338594215
 20
-32.14127291559915
 30
-40.4309145674796
 70
   192
  0
VERTEX
  5
B09
  8
0
 10
422.1291730090554
 20
-33.27915374655944
 30
-40.76359872580006
 70
   192
  0
VERTEX
  5
B0A
  8
0
 10
422.1291730090554
 20
-16.99837744832795
 30
-40.76359872580005
 70
   192
  0
VERTEX
  5
B0B
  8
0
 10
423.2173338594221
 20
-18.13625827928883
 30
-40.43091456747943
 70
   192
  0
VERTEX
  5
B0C
  8
0
 10
423.8896176385122
 20
-18.59802787146824
 30
-40.22537678956381
 70
   192
  0
VERTEX
  5
B0D
  8
0
 10
424.3312100956723
 20
-19.30102947728301
 30
-40.09036842670864
 70
   192
  0
VERTEX
  5
B0E
  8
0
 10
424.3312100956726
 20
-30.97650171760407
 30
-40.09036842670855
 70
   192
  0
VERTEX
  5
B0F
  8
0
 10
423.8896176385122
 20
-31.67950332341939
 30
-40.22537678956381
 70
   192
  0
VERTEX
  5
B10
  8
0
 10
425.6766358737081
 20
-28.83462527219056
 30
-39.67903048673602
 70
   192
  0
VERTEX
  5
B11
  8
0
 10
425.4193709460388
 20
-29.83862088664371
 30
-39.7576842683881
 70
   192
  0
VERTEX
  5
B12
  8
0
 10
425.4193709460388
 20
-20.43891030824368
 30
-39.7576842683881
 70
   192
  0
VERTEX
  5
B13
  8
0
 10
425.6766358737081
 20
-21.44290592269718
 30
-39.679030486736
 70
   192
  0
VERTEX
  5
B14
  8
0
 10
425.8594180563435
 20
-21.73388953399648
 30
-39.62314836548019
 70
   192
  0
VERTEX
  5
B15
  8
0
 10
426.1267860470789
 20
-23.19965062942456
 30
-39.54140576747205
 70
   192
  0
VERTEX
  5
B16
  8
0
 10
426.1267860470791
 20
-27.07788056546233
 30
-39.54140576747201
 70
   192
  0
VERTEX
  5
B17
  8
0
 10
425.8594180563435
 20
-28.54364166089113
 30
-39.62314836548019
 70
   192
  0
VERTEX
  5
B18
  8
0
 10
426.6236669744538
 20
-25.1387655974437
 30
-39.38949402294129
 70
   192
  0
VERTEX
  5
B19
  8
0
 10
426.480498036312
 20
-25.1387655974438
 30
-39.4332651599633
 70
   192
  0
VERTEX
  5
B1A
  8
0
 10
0.0
 20
0.0
 30
0.0
 70
   128
 71
     4
 72
     3
 73
    -2
  0
VERTEX
  5
B1B
  8
0
 10
0.0
 20
0.0
 30
0.0
 70
   128
 71
     2
 72
     1
 73
    -4
  0
VERTEX
  5
B1C
  8
0
 10
0.0
 20
0.0
 30
0.0
 70
   128
 71
     1
 72
     6
 73
     5
  0
VERTEX
  5
B1D
  8
0
 10
0.0
 20
0.0
 30
0.0
 70
   128
 71
     3
 72
     8
 73
     7
  0
VERTEX
  5
B1E
  8
0
 10
0.0
 20
0.0
 30
0.0
 70
   128
 71
     7
 72
    10
 73
     9
  0
VERTEX
  5
B1F
  8
0
 10
0.0
 20
0.0
 30
0.0
 70
   128
 71
     6
 72
    12
 73
    11
  0
VERTEX
  5
B20
  8
0
 10
0.0
 20
0.0
 30
0.0
 70
   128
 71
    12
 72
    14
 73
    13
  0
VERTEX
  5
B21
  8
0
 10
0.0
 20
0.0
 30
0.0
 70
   128
 71
     9
 72
    16
 73
    15
  0
VERTEX
  5
B22
  8
0
 10
0.0
 20
0.0
 30
0.0
 70
   128
 71
    15
 72
    18
 73
    17
  0
VERTEX
  5
B23
  8
0
 10
0.0
 20
0.0
 30
0.0
 70
   128
 71
    14
 72
    20
 73
    19
  0
VERTEX
  5
B24
  8
0
 10
0.0
 20
0.0
 30
0.0
 70
   128
 71
    20
 72
    22
 73
    21
  0
VERTEX
  5
B25
  8
0
 10
0.0
 20
0.0
 30
0.0
 70
   128
 71
    17
 72
    24
 73
    23
  0
VERTEX
  5
B26
  8
0
 10
0.0
 20
0.0
 30
0.0
 70
   128
 71
    27
 72
    26
 73
   -25
  0
VERTEX
  5
B27
  8
0
 10
0.0
 20
0.0
 30
0.0
 70
   128
 71
    25
 72
    23
 73
   -27
  0
VERTEX
  5
B28
  8
0
 10
0.0
 20
0.0
 30
0.0
 70
   128
 71
    28
 72
    22
 73
   -30
  0
VERTEX
  5
B29
  8
0
 10
0.0
 20
0.0
 30
0.0
 70
   128
 71
    30
 72
    29
 73
   -28
  0
VERTEX
  5
B2A
  8
0
 10
0.0
 20
0.0
 30
0.0
 70
   128
 71
    29
 72
    32
 73
    31
  0
VERTEX
  5
B2B
  8
0
 10
0.0
 20
0.0
 30
0.0
 70
   128
 71
    26
 72
    34
 73
    33
  0
VERTEX
  5
B2C
  8
0
 10
0.0
 20
0.0
 30
0.0
 70
   128
 71
    33
 72
    36
 73
    35
  0
VERTEX
  5
B2D
  8
0
 10
0.0
 20
0.0
 30
0.0
 70
   128
 71
    32
 72
    38
 73
    37
  0
VERTEX
  5
B2E
  8
0
 10
0.0
 20
0.0
 30
0.0
 70
   128
 71
    38
 72
    40
 73
    39
  0
VERTEX
  5
B2F
  8
0
 10
0.0
 20
0.0
 30
0.0
 70
   128
 71
    35
 72
    42
 73
    41
  0
VERTEX
  5
B30
  8
0
 10
0.0
 20
0.0
 30
0.0
 70
   128
 71
    41
 72
    44
 73
    43
  0
VERTEX
  5
B31
  8
0
 10
0.0
 20
0.0
 30
0.0
 70
   128
 71
    40
 72
    46
 73
    45
  0
VERTEX
  5
B32
  8
0
 10
0.0
 20
0.0
 30
0.0
 70
   128
 71
    46
 72
    48
 73
    47
  0
VERTEX
  5
B33
  8
0
 10
0.0
 20
0.0
 30
0.0
 70
   128
 71
    43
 72
    50
 73
    49
  0
VERTEX
  5
B34
  8
0
 10
0.0
 20
0.0
 30
0.0
 70
   128
 71
    51
 72
    48
 73
   -52
  0
VERTEX
  5
B35
  8
0
 10
0.0
 20
0.0
 30
0.0
 70
   128
 71
    52
 72
    49
 73
   -51
  0
SEQEND
  5
C90
  8
0
  0
POLYLINE
  5
B36
  8
0
 66
     1
 10
0.0
 20
0.0
 30
0.0
 70
    64
 71
    18
 72
    16
  0
VERTEX
  5
B37
  8
0
 10
426.480498036312
 20
-25.1387655974438
 30
-39.4332651599633
 70
   192
  0
VERTEX
  5
B38
  8
0
 10
425.603382922141
 20
-25.1387655974438
 30
-36.5643508920752
 70
   192
  0
VERTEX
  5
B39
  8
0
 10
407.911744936831
 20
-25.1387655974438
 30
-41.9732274294662
 70
   192
  0
VERTEX
  5
B3A
  8
0
 10
408.788860051002
 20
-25.1387655974438
 30
-44.8421416973543
 70
   192
  0
VERTEX
  5
B3B
  8
0
 10
416.757563929486
 20
-15.8887655974438
 30
-39.2687891607707
 70
   192
  0
VERTEX
  5
B3C
  8
0
 10
417.6346790436571
 20
-15.8887655974438
 30
-42.1377034286588
 70
   192
  0
VERTEX
  5
B3D
  8
0
 10
410.5026253346311
 20
-18.59802787146824
 30
-41.18111579986572
 70
   192
  0
VERTEX
  5
B3E
  8
0
 10
411.3797404488021
 20
-18.59802787146823
 30
-44.0500300677538
 70
   192
  0
VERTEX
  5
B3F
  8
0
 10
423.0125025243411
 20
-18.59802787146823
 30
-37.35646252167572
 70
   192
  0
VERTEX
  5
B40
  8
0
 10
423.8896176385122
 20
-18.59802787146824
 30
-40.22537678956381
 70
   192
  0
VERTEX
  5
B41
  8
0
 10
413.5014647565479
 20
-16.53822381261632
 30
-40.2642785798142
 70
   192
  0
VERTEX
  5
B42
  8
0
 10
414.3785798707189
 20
-16.53822381261632
 30
-43.13319284770229
 70
   192
  0
VERTEX
  5
B43
  8
0
 10
408.5328249167997
 20
-21.73388953399648
 30
-41.78334422394931
 70
   192
  0
VERTEX
  5
B44
  8
0
 10
409.4099400309706
 20
-21.73388953399648
 30
-44.65225849183741
 70
   192
  0
VERTEX
  5
B45
  8
0
 10
425.8594180563435
 20
-21.73388953399648
 30
-39.62314836548019
 70
   192
  0
VERTEX
  5
B46
  8
0
 10
424.9823029421725
 20
-21.73388953399648
 30
-36.7542340975921
 70
   192
  0
VERTEX
  5
B47
  8
0
 10
420.0136631024242
 20
-16.53822381261632
 30
-38.27329974172723
 70
   192
  0
VERTEX
  5
B48
  8
0
 10
420.8907782165953
 20
-16.53822381261632
 30
-41.14221400961531
 70
   192
  0
VERTEX
  5
B49
  8
0
 10
0.0
 20
0.0
 30
0.0
 70
   128
 71
     5
 72
     6
 73
   -12
  0
VERTEX
  5
B4A
  8
0
 10
0.0
 20
0.0
 30
0.0
 70
   128
 71
    11
 72
    -5
 73
    12
  0
VERTEX
  5
B4B
  8
0
 10
0.0
 20
0.0
 30
0.0
 70
   128
 71
     8
 72
     7
 73
   -11
  0
VERTEX
  5
B4C
  8
0
 10
0.0
 20
0.0
 30
0.0
 70
   128
 71
    12
 72
    -8
 73
    11
  0
VERTEX
  5
B4D
  8
0
 10
0.0
 20
0.0
 30
0.0
 70
   128
 71
     7
 72
     8
 73
   -14
  0
VERTEX
  5
B4E
  8
0
 10
0.0
 20
0.0
 30
0.0
 70
   128
 71
    13
 72
    -7
 73
    14
  0
VERTEX
  5
B4F
  8
0
 10
0.0
 20
0.0
 30
0.0
 70
   128
 71
     4
 72
     3
 73
   -13
  0
VERTEX
  5
B50
  8
0
 10
0.0
 20
0.0
 30
0.0
 70
   128
 71
    14
 72
    -4
 73
    13
  0
VERTEX
  5
B51
  8
0
 10
0.0
 20
0.0
 30
0.0
 70
   128
 71
     2
 72
     1
 73
   -15
  0
VERTEX
  5
B52
  8
0
 10
0.0
 20
0.0
 30
0.0
 70
   128
 71
    16
 72
    -2
 73
    15
  0
VERTEX
  5
B53
  8
0
 10
0.0
 20
0.0
 30
0.0
 70
   128
 71
    10
 72
     9
 73
   -16
  0
VERTEX
  5
B54
  8
0
 10
0.0
 20
0.0
 30
0.0
 70
   128
 71
    15
 72
   -10
 73
    16
  0
VERTEX
  5
B55
  8
0
 10
0.0
 20
0.0
 30
0.0
 70
   128
 71
     9
 72
    10
 73
   -18
  0
VERTEX
  5
B56
  8
0
 10
0.0
 20
0.0
 30
0.0
 70
   128
 71
    17
 72
    -9
 73
    18
  0
VERTEX
  5
B57
  8
0
 10
0.0
 20
0.0
 30
0.0
 70
   128
 71
     6
 72
     5
 73
   -17
  0
VERTEX
  5
B58
  8
0
 10
0.0
 20
0.0
 30
0.0
 70
   128
 71
    18
 72
    -6
 73
    17
  0
SEQEND
  5
C91
  8
0
  0
POLYLINE
  5
B59
  8
0
 66
     1
 10
0.0
 20
0.0
 30
0.0
 70
    64
 71
    18
 72
    16
  0
VERTEX
  5
B5A
  8
0
 10
408.788860051002
 20
-25.1387655974438
 30
-44.8421416973543
 70
   192
  0
VERTEX
  5
B5B
  8
0
 10
407.911744936831
 20
-25.1387655974438
 30
-41.9732274294662
 70
   192
  0
VERTEX
  5
B5C
  8
0
 10
425.603382922141
 20
-25.1387655974438
 30
-36.5643508920752
 70
   192
  0
VERTEX
  5
B5D
  8
0
 10
426.480498036312
 20
-25.1387655974438
 30
-39.4332651599633
 70
   192
  0
VERTEX
  5
B5E
  8
0
 10
416.757563929486
 20
-34.38876559744381
 30
-39.2687891607707
 70
   192
  0
VERTEX
  5
B5F
  8
0
 10
417.6346790436571
 20
-34.38876559744381
 30
-42.1377034286588
 70
   192
  0
VERTEX
  5
B60
  8
0
 10
423.0125025243411
 20
-31.67950332341938
 30
-37.35646252167572
 70
   192
  0
VERTEX
  5
B61
  8
0
 10
423.8896176385122
 20
-31.67950332341939
 30
-40.22537678956381
 70
   192
  0
VERTEX
  5
B62
  8
0
 10
410.5026253346311
 20
-31.67950332341939
 30
-41.18111579986572
 70
   192
  0
VERTEX
  5
B63
  8
0
 10
411.3797404488021
 20
-31.67950332341938
 30
-44.0500300677538
 70
   192
  0
VERTEX
  5
B64
  8
0
 10
420.8907782165953
 20
-33.73930738227129
 30
-41.14221400961531
 70
   192
  0
VERTEX
  5
B65
  8
0
 10
420.0136631024242
 20
-33.73930738227129
 30
-38.27329974172723
 70
   192
  0
VERTEX
  5
B66
  8
0
 10
424.9823029421725
 20
-28.54364166089113
 30
-36.7542340975921
 70
   192
  0
VERTEX
  5
B67
  8
0
 10
425.8594180563435
 20
-28.54364166089113
 30
-39.62314836548019
 70
   192
  0
VERTEX
  5
B68
  8
0
 10
409.4099400309706
 20
-28.54364166089113
 30
-44.65225849183742
 70
   192
  0
VERTEX
  5
B69
  8
0
 10
408.5328249167997
 20
-28.54364166089113
 30
-41.78334422394931
 70
   192
  0
VERTEX
  5
B6A
  8
0
 10
414.3785798707189
 20
-33.73930738227129
 30
-43.13319284770229
 70
   192
  0
VERTEX
  5
B6B
  8
0
 10
413.5014647565479
 20
-33.73930738227129
 30
-40.2642785798142
 70
   192
  0
VERTEX
  5
B6C
  8
0
 10
0.0
 20
0.0
 30
0.0
 70
   128
 71
     8
 72
     7
 73
   -12
  0
VERTEX
  5
B6D
  8
0
 10
0.0
 20
0.0
 30
0.0
 70
   128
 71
    11
 72
    -8
 73
    12
  0
VERTEX
  5
B6E
  8
0
 10
0.0
 20
0.0
 30
0.0
 70
   128
 71
     5
 72
     6
 73
   -11
  0
VERTEX
  5
B6F
  8
0
 10
0.0
 20
0.0
 30
0.0
 70
   128
 71
    12
 72
    -5
 73
    11
  0
VERTEX
  5
B70
  8
0
 10
0.0
 20
0.0
 30
0.0
 70
   128
 71
     4
 72
     3
 73
   -13
  0
VERTEX
  5
B71
  8
0
 10
0.0
 20
0.0
 30
0.0
 70
   128
 71
    14
 72
    -4
 73
    13
  0
VERTEX
  5
B72
  8
0
 10
0.0
 20
0.0
 30
0.0
 70
   128
 71
     7
 72
     8
 73
   -14
  0
VERTEX
  5
B73
  8
0
 10
0.0
 20
0.0
 30
0.0
 70
   128
 71
    13
 72
    -7
 73
    14
  0
VERTEX
  5
B74
  8
0
 10
0.0
 20
0.0
 30
0.0
 70
   128
 71
    10
 72
     9
 73
   -16
  0
VERTEX
  5
B75
  8
0
 10
0.0
 20
0.0
 30
0.0
 70
   128
 71
    15
 72
   -10
 73
    16
  0
VERTEX
  5
B76
  8
0
 10
0.0
 20
0.0
 30
0.0
 70
   128
 71
     2
 72
     1
 73
   -15
  0
VERTEX
  5
B77
  8
0
 10
0.0
 20
0.0
 30
0.0
 70
   128
 71
    16
 72
    -2
 73
    15
  0
VERTEX
  5
B78
  8
0
 10
0.0
 20
0.0
 30
0.0
 70
   128
 71
     6
 72
     5
 73
   -18
  0
VERTEX
  5
B79
  8
0
 10
0.0
 20
0.0
 30
0.0
 70
   128
 71
    17
 72
    -6
 73
    18
  0
VERTEX
  5
B7A
  8
0
 10
0.0
 20
0.0
 30
0.0
 70
   128
 71
     9
 72
    10
 73
   -17
  0
VERTEX
  5
B7B
  8
0
 10
0.0
 20
0.0
 30
0.0
 70
   128
 71
    18
 72
    -9
 73
    17
  0
SEQEND
  5
C92
  8
0
  0
POLYLINE
  5
B7C
  8
0
 66
     1
 10
0.0
 20
0.0
 30
0.0
 70
    64
 71
    32
 72
    32
  0
VERTEX
  5
B7D
  8
0
 10
429.1087960310627
 20
-25.1387655974439
 30
-47.51798490498778
 70
   192
  0
VERTEX
  5
B7E
  8
0
 10
428.477694350257
 20
-28.59874933276276
 30
-47.71104090003544
 70
   192
  0
VERTEX
  5
B7F
  8
0
 10
426.4760128556857
 20
-31.78536468861563
 30
-48.32301634743644
 70
   192
  0
VERTEX
  5
B80
  8
0
 10
423.4286374354627
 20
-33.87850652660828
 30
-49.25469251132546
 70
   192
  0
VERTEX
  5
B81
  8
0
 10
420.1198385338223
 20
-34.5384761758438
 30
-50.26629385433777
 70
   192
  0
VERTEX
  5
B82
  8
0
 10
416.8110396321784
 20
-33.87850652661736
 30
-51.27789519735118
 70
   192
  0
VERTEX
  5
B83
  8
0
 10
413.7636642119453
 20
-31.78536468862789
 30
-52.2095713612433
 70
   192
  0
VERTEX
  5
B84
  8
0
 10
411.7619827173646
 20
-28.59874933276975
 30
-52.82154680864711
 70
   192
  0
VERTEX
  5
B85
  8
0
 10
411.1308201694689
 20
-25.13876559744374
 30
-53.01440371642285
 70
   192
  0
VERTEX
  5
B86
  8
0
 10
411.7619827173647
 20
-21.67878186211794
 30
-52.82154680864714
 70
   192
  0
VERTEX
  5
B87
  8
0
 10
413.7636642119442
 20
-18.49216650626064
 30
-52.20957136124358
 70
   192
  0
VERTEX
  5
B88
  8
0
 10
416.8110396321763
 20
-16.39902466827101
 30
-51.27789519735185
 70
   192
  0
VERTEX
  5
B89
  8
0
 10
420.1198385338181
 20
-15.7390550190437
 30
-50.26629385433908
 70
   192
  0
VERTEX
  5
B8A
  8
0
 10
423.4286374354566
 20
-16.39902466827676
 30
-49.25469251132728
 70
   192
  0
VERTEX
  5
B8B
  8
0
 10
426.4760128556817
 20
-18.49216650626812
 30
-48.3230163474376
 70
   192
  0
VERTEX
  5
B8C
  8
0
 10
428.4776943502562
 20
-21.6787818621227
 30
-47.71104090003568
 70
   192
  0
VERTEX
  5
B8D
  8
0
 10
427.29212420353
 20
-25.1387655974438
 30
-48.07350606891291
 70
   192
  0
VERTEX
  5
B8E
  8
0
 10
426.7885458413935
 20
-22.37805527572975
 30
-48.22746542473742
 70
   192
  0
VERTEX
  5
B8F
  8
0
 10
425.1914103674763
 20
-19.83546473854469
 30
-48.71575874156198
 70
   192
  0
VERTEX
  5
B90
  8
0
 10
422.7599189443005
 20
-18.16535333947557
 30
-49.45914027133347
 70
   192
  0
VERTEX
  5
B91
  8
0
 10
420.11983853381
 20
-17.6387655974438
 30
-50.2662938543417
 70
   192
  0
VERTEX
  5
B92
  8
0
 10
417.4797581233196
 20
-18.16535333947557
 30
-51.07344743734993
 70
   192
  0
VERTEX
  5
B93
  8
0
 10
415.0482667001438
 20
-19.83546473854469
 30
-51.81682896712142
 70
   192
  0
VERTEX
  5
B94
  8
0
 10
413.4511312262267
 20
-22.37805527572975
 30
-52.30512228394598
 70
   192
  0
VERTEX
  5
B95
  8
0
 10
412.94755286409
 20
-25.1387655974438
 30
-52.4590816397705
 70
   192
  0
VERTEX
  5
B96
  8
0
 10
413.4511312262267
 20
-27.89947591915786
 30
-52.30512228394598
 70
   192
  0
VERTEX
  5
B97
  8
0
 10
415.0482667001439
 20
-30.44206645634293
 30
-51.81682896712143
 70
   192
  0
VERTEX
  5
B98
  8
0
 10
417.4797581233195
 20
-32.11217785541204
 30
-51.07344743734993
 70
   192
  0
VERTEX
  5
B99
  8
0
 10
420.11983853381
 20
-32.6387655974438
 30
-50.2662938543417
 70
   192
  0
VERTEX
  5
B9A
  8
0
 10
422.7599189443005
 20
-32.11217785541204
 30
-49.45914027133347
 70
   192
  0
VERTEX
  5
B9B
  8
0
 10
425.1914103674763
 20
-30.44206645634292
 30
-48.71575874156197
 70
   192
  0
VERTEX
  5
B9C
  8
0
 10
426.7885458413935
 20
-27.89947591915785
 30
-48.22746542473742
 70
   192
  0
VERTEX
  5
B9D
  8
0
 10
0.0
 20
0.0
 30
0.0
 70
   128
 71
    -1
 72
    17
 73
   -18
  0
VERTEX
  5
B9E
  8
0
 10
0.0
 20
0.0
 30
0.0
 70
   128
 71
    16
 72
    -1
 73
   -18
  0
VERTEX
  5
B9F
  8
0
 10
0.0
 20
0.0
 30
0.0
 70
   128
 71
   -19
 72
    15
 73
   -16
  0
VERTEX
  5
BA0
  8
0
 10
0.0
 20
0.0
 30
0.0
 70
   128
 71
    18
 72
   -19
 73
   -16
  0
VERTEX
  5
BA1
  8
0
 10
0.0
 20
0.0
 30
0.0
 70
   128
 71
   -20
 72
    14
 73
   -15
  0
VERTEX
  5
BA2
  8
0
 10
0.0
 20
0.0
 30
0.0
 70
   128
 71
    19
 72
   -20
 73
   -15
  0
VERTEX
  5
BA3
  8
0
 10
0.0
 20
0.0
 30
0.0
 70
   128
 71
   -21
 72
    13
 73
   -14
  0
VERTEX
  5
BA4
  8
0
 10
0.0
 20
0.0
 30
0.0
 70
   128
 71
    20
 72
   -21
 73
   -14
  0
VERTEX
  5
BA5
  8
0
 10
0.0
 20
0.0
 30
0.0
 70
   128
 71
   -22
 72
    12
 73
   -13
  0
VERTEX
  5
BA6
  8
0
 10
0.0
 20
0.0
 30
0.0
 70
   128
 71
    21
 72
   -22
 73
   -13
  0
VERTEX
  5
BA7
  8
0
 10
0.0
 20
0.0
 30
0.0
 70
   128
 71
   -23
 72
    11
 73
   -12
  0
VERTEX
  5
BA8
  8
0
 10
0.0
 20
0.0
 30
0.0
 70
   128
 71
    22
 72
   -23
 73
   -12
  0
VERTEX
  5
BA9
  8
0
 10
0.0
 20
0.0
 30
0.0
 70
   128
 71
   -24
 72
    10
 73
   -11
  0
VERTEX
  5
BAA
  8
0
 10
0.0
 20
0.0
 30
0.0
 70
   128
 71
    23
 72
   -24
 73
   -11
  0
VERTEX
  5
BAB
  8
0
 10
0.0
 20
0.0
 30
0.0
 70
   128
 71
   -25
 72
     9
 73
   -10
  0
VERTEX
  5
BAC
  8
0
 10
0.0
 20
0.0
 30
0.0
 70
   128
 71
    24
 72
   -25
 73
   -10
  0
VERTEX
  5
BAD
  8
0
 10
0.0
 20
0.0
 30
0.0
 70
   128
 71
   -26
 72
     8
 73
    -9
  0
VERTEX
  5
BAE
  8
0
 10
0.0
 20
0.0
 30
0.0
 70
   128
 71
    25
 72
   -26
 73
    -9
  0
VERTEX
  5
BAF
  8
0
 10
0.0
 20
0.0
 30
0.0
 70
   128
 71
   -27
 72
     7
 73
    -8
  0
VERTEX
  5
BB0
  8
0
 10
0.0
 20
0.0
 30
0.0
 70
   128
 71
    26
 72
   -27
 73
    -8
  0
VERTEX
  5
BB1
  8
0
 10
0.0
 20
0.0
 30
0.0
 70
   128
 71
   -28
 72
     6
 73
    -7
  0
VERTEX
  5
BB2
  8
0
 10
0.0
 20
0.0
 30
0.0
 70
   128
 71
    27
 72
   -28
 73
    -7
  0
VERTEX
  5
BB3
  8
0
 10
0.0
 20
0.0
 30
0.0
 70
   128
 71
   -29
 72
     5
 73
    -6
  0
VERTEX
  5
BB4
  8
0
 10
0.0
 20
0.0
 30
0.0
 70
   128
 71
    28
 72
   -29
 73
    -6
  0
VERTEX
  5
BB5
  8
0
 10
0.0
 20
0.0
 30
0.0
 70
   128
 71
   -30
 72
     4
 73
    -5
  0
VERTEX
  5
BB6
  8
0
 10
0.0
 20
0.0
 30
0.0
 70
   128
 71
    29
 72
   -30
 73
    -5
  0
VERTEX
  5
BB7
  8
0
 10
0.0
 20
0.0
 30
0.0
 70
   128
 71
   -31
 72
     3
 73
    -4
  0
VERTEX
  5
BB8
  8
0
 10
0.0
 20
0.0
 30
0.0
 70
   128
 71
    30
 72
   -31
 73
    -4
  0
VERTEX
  5
BB9
  8
0
 10
0.0
 20
0.0
 30
0.0
 70
   128
 71
   -32
 72
     2
 73
    -3
  0
VERTEX
  5
BBA
  8
0
 10
0.0
 20
0.0
 30
0.0
 70
   128
 71
    31
 72
   -32
 73
    -3
  0
VERTEX
  5
BBB
  8
0
 10
0.0
 20
0.0
 30
0.0
 70
   128
 71
   -17
 72
     1
 73
    -2
  0
VERTEX
  5
BBC
  8
0
 10
0.0
 20
0.0
 30
0.0
 70
   128
 71
    32
 72
   -17
 73
    -2
  0
SEQEND
  5
C93
  8
0
  0
POLYLINE
  5
BBD
  8
0
 66
     1
 10
0.0
 20
0.0
 30
0.0
 70
    64
 71
    18
 72
    16
  0
VERTEX
  5
BBE
  8
0
 10
427.29212420353
 20
-25.1387655974438
 30
-48.07350606891291
 70
   192
  0
VERTEX
  5
BBF
  8
0
 10
412.94755286409
 20
-25.1387655974438
 30
-52.4590816397705
 70
   192
  0
VERTEX
  5
BC0
  8
0
 10
409.585278259766
 20
-25.1387655974438
 30
-41.4615769461995
 70
   192
  0
VERTEX
  5
BC1
  8
0
 10
423.929849599206
 20
-25.1387655974438
 30
-37.0760013753419
 70
   192
  0
VERTEX
  5
BC2
  8
0
 10
416.757563929486
 20
-17.6387655974438
 30
-39.26878916077071
 70
   192
  0
VERTEX
  5
BC3
  8
0
 10
420.11983853381
 20
-17.6387655974438
 30
-50.2662938543417
 70
   192
  0
VERTEX
  5
BC4
  8
0
 10
411.6859920958201
 20
-19.83546473854471
 30
-40.81932427355044
 70
   192
  0
VERTEX
  5
BC5
  8
0
 10
415.0482667001438
 20
-19.83546473854469
 30
-51.81682896712142
 70
   192
  0
VERTEX
  5
BC6
  8
0
 10
421.8291357631521
 20
-19.83546473854468
 30
-37.71825404799099
 70
   192
  0
VERTEX
  5
BC7
  8
0
 10
425.1914103674763
 20
-19.83546473854469
 30
-48.71575874156198
 70
   192
  0
VERTEX
  5
BC8
  8
0
 10
414.1174835189958
 20
-18.16535333947558
 30
-40.07594274377894
 70
   192
  0
VERTEX
  5
BC9
  8
0
 10
417.4797581233196
 20
-18.16535333947557
 30
-51.07344743734993
 70
   192
  0
VERTEX
  5
BCA
  8
0
 10
413.4511312262267
 20
-22.37805527572975
 30
-52.30512228394598
 70
   192
  0
VERTEX
  5
BCB
  8
0
 10
410.0888566219027
 20
-22.37805527572976
 30
-41.30761759037498
 70
   192
  0
VERTEX
  5
BCC
  8
0
 10
423.4262712370694
 20
-22.37805527572974
 30
-37.22996073116642
 70
   192
  0
VERTEX
  5
BCD
  8
0
 10
426.7885458413935
 20
-22.37805527572975
 30
-48.22746542473742
 70
   192
  0
VERTEX
  5
BCE
  8
0
 10
419.3976443399762
 20
-18.16535333947556
 30
-38.46163557776247
 70
   192
  0
VERTEX
  5
BCF
  8
0
 10
422.7599189443005
 20
-18.16535333947557
 30
-49.45914027133347
 70
   192
  0
VERTEX
  5
BD0
  8
0
 10
0.0
 20
0.0
 30
0.0
 70
   128
 71
     7
 72
     8
 73
   -12
  0
VERTEX
  5
BD1
  8
0
 10
0.0
 20
0.0
 30
0.0
 70
   128
 71
    11
 72
    -7
 73
    12
  0
VERTEX
  5
BD2
  8
0
 10
0.0
 20
0.0
 30
0.0
 70
   128
 71
     6
 72
     5
 73
   -11
  0
VERTEX
  5
BD3
  8
0
 10
0.0
 20
0.0
 30
0.0
 70
   128
 71
    12
 72
    -6
 73
    11
  0
VERTEX
  5
BD4
  8
0
 10
0.0
 20
0.0
 30
0.0
 70
   128
 71
     3
 72
     2
 73
   -13
  0
VERTEX
  5
BD5
  8
0
 10
0.0
 20
0.0
 30
0.0
 70
   128
 71
    14
 72
    -3
 73
    13
  0
VERTEX
  5
BD6
  8
0
 10
0.0
 20
0.0
 30
0.0
 70
   128
 71
     8
 72
     7
 73
   -14
  0
VERTEX
  5
BD7
  8
0
 10
0.0
 20
0.0
 30
0.0
 70
   128
 71
    13
 72
    -8
 73
    14
  0
VERTEX
  5
BD8
  8
0
 10
0.0
 20
0.0
 30
0.0
 70
   128
 71
     9
 72
    10
 73
   -16
  0
VERTEX
  5
BD9
  8
0
 10
0.0
 20
0.0
 30
0.0
 70
   128
 71
    15
 72
    -9
 73
    16
  0
VERTEX
  5
BDA
  8
0
 10
0.0
 20
0.0
 30
0.0
 70
   128
 71
     1
 72
     4
 73
   -15
  0
VERTEX
  5
BDB
  8
0
 10
0.0
 20
0.0
 30
0.0
 70
   128
 71
    16
 72
    -1
 73
    15
  0
VERTEX
  5
BDC
  8
0
 10
0.0
 20
0.0
 30
0.0
 70
   128
 71
     5
 72
     6
 73
   -18
  0
VERTEX
  5
BDD
  8
0
 10
0.0
 20
0.0
 30
0.0
 70
   128
 71
    17
 72
    -5
 73
    18
  0
VERTEX
  5
BDE
  8
0
 10
0.0
 20
0.0
 30
0.0
 70
   128
 71
    10
 72
     9
 73
   -17
  0
VERTEX
  5
BDF
  8
0
 10
0.0
 20
0.0
 30
0.0
 70
   128
 71
    18
 72
   -10
 73
    17
  0
SEQEND
  5
C94
  8
0
  0
POLYLINE
  5
BE0
  8
0
 66
     1
 10
0.0
 20
0.0
 30
0.0
 70
    64
 71
    18
 72
    16
  0
VERTEX
  5
BE1
  8
0
 10
412.94755286409
 20
-25.1387655974438
 30
-52.4590816397705
 70
   192
  0
VERTEX
  5
BE2
  8
0
 10
427.29212420353
 20
-25.1387655974438
 30
-48.07350606891291
 70
   192
  0
VERTEX
  5
BE3
  8
0
 10
423.929849599206
 20
-25.1387655974438
 30
-37.0760013753419
 70
   192
  0
VERTEX
  5
BE4
  8
0
 10
409.585278259766
 20
-25.1387655974438
 30
-41.4615769461995
 70
   192
  0
VERTEX
  5
BE5
  8
0
 10
416.757563929486
 20
-32.63876559744371
 30
-39.26878916077069
 70
   192
  0
VERTEX
  5
BE6
  8
0
 10
420.11983853381
 20
-32.6387655974438
 30
-50.2662938543417
 70
   192
  0
VERTEX
  5
BE7
  8
0
 10
421.8291357631522
 20
-30.44206645634282
 30
-37.71825404799097
 70
   192
  0
VERTEX
  5
BE8
  8
0
 10
425.1914103674763
 20
-30.44206645634292
 30
-48.71575874156197
 70
   192
  0
VERTEX
  5
BE9
  8
0
 10
411.6859920958201
 20
-30.44206645634285
 30
-40.81932427355044
 70
   192
  0
VERTEX
  5
BEA
  8
0
 10
415.0482667001439
 20
-30.44206645634293
 30
-51.81682896712143
 70
   192
  0
VERTEX
  5
BEB
  8
0
 10
419.3976443399764
 20
-32.11217785541193
 30
-38.46163557776247
 70
   192
  0
VERTEX
  5
BEC
  8
0
 10
422.7599189443005
 20
-32.11217785541204
 30
-49.45914027133347
 70
   192
  0
VERTEX
  5
BED
  8
0
 10
426.7885458413935
 20
-27.89947591915785
 30
-48.22746542473742
 70
   192
  0
VERTEX
  5
BEE
  8
0
 10
423.4262712370694
 20
-27.8994759191578
 30
-37.22996073116641
 70
   192
  0
VERTEX
  5
BEF
  8
0
 10
410.0888566219027
 20
-27.89947591915782
 30
-41.30761759037498
 70
   192
  0
VERTEX
  5
BF0
  8
0
 10
413.4511312262267
 20
-27.89947591915786
 30
-52.30512228394598
 70
   192
  0
VERTEX
  5
BF1
  8
0
 10
414.1174835189957
 20
-32.11217785541194
 30
-40.07594274377892
 70
   192
  0
VERTEX
  5
BF2
  8
0
 10
417.4797581233195
 20
-32.11217785541204
 30
-51.07344743734993
 70
   192
  0
VERTEX
  5
BF3
  8
0
 10
0.0
 20
0.0
 30
0.0
 70
   128
 71
     7
 72
     8
 73
   -12
  0
VERTEX
  5
BF4
  8
0
 10
0.0
 20
0.0
 30
0.0
 70
   128
 71
    11
 72
    -7
 73
    12
  0
VERTEX
  5
BF5
  8
0
 10
0.0
 20
0.0
 30
0.0
 70
   128
 71
     6
 72
     5
 73
   -11
  0
VERTEX
  5
BF6
  8
0
 10
0.0
 20
0.0
 30
0.0
 70
   128
 71
    12
 72
    -6
 73
    11
  0
VERTEX
  5
BF7
  8
0
 10
0.0
 20
0.0
 30
0.0
 70
   128
 71
     3
 72
     2
 73
   -13
  0
VERTEX
  5
BF8
  8
0
 10
0.0
 20
0.0
 30
0.0
 70
   128
 71
    14
 72
    -3
 73
    13
  0
VERTEX
  5
BF9
  8
0
 10
0.0
 20
0.0
 30
0.0
 70
   128
 71
     8
 72
     7
 73
   -14
  0
VERTEX
  5
BFA
  8
0
 10
0.0
 20
0.0
 30
0.0
 70
   128
 71
    13
 72
    -8
 73
    14
  0
VERTEX
  5
BFB
  8
0
 10
0.0
 20
0.0
 30
0.0
 70
   128
 71
     9
 72
    10
 73
   -16
  0
VERTEX
  5
BFC
  8
0
 10
0.0
 20
0.0
 30
0.0
 70
   128
 71
    15
 72
    -9
 73
    16
  0
VERTEX
  5
BFD
  8
0
 10
0.0
 20
0.0
 30
0.0
 70
   128
 71
     1
 72
     4
 73
   -15
  0
VERTEX
  5
BFE
  8
0
 10
0.0
 20
0.0
 30
0.0
 70
   128
 71
    16
 72
    -1
 73
    15
  0
VERTEX
  5
BFF
  8
0
 10
0.0
 20
0.0
 30
0.0
 70
   128
 71
     5
 72
     6
 73
   -18
  0
VERTEX
  5
C00
  8
0
 10
0.0
 20
0.0
 30
0.0
 70
   128
 71
    17
 72
    -5
 73
    18
  0
VERTEX
  5
C01
  8
0
 10
0.0
 20
0.0
 30
0.0
 70
   128
 71
    10
 72
     9
 73
   -17
  0
VERTEX
  5
C02
  8
0
 10
0.0
 20
0.0
 30
0.0
 70
   128
 71
    18
 72
   -10
 73
    17
  0
SEQEND
  5
C95
  8
0
  0
POLYLINE
  5
C03
  8
0
 66
     1
 10
0.0
 20
0.0
 30
0.0
 70
    64
 71
    32
 72
    32
  0
VERTEX
  5
C04
  8
0
 10
425.603382922141
 20
-25.1387655974438
 30
-36.5643508920752
 70
   192
  0
VERTEX
  5
C05
  8
0
 10
424.9823029421725
 20
-21.73388953399648
 30
-36.7542340975921
 70
   192
  0
VERTEX
  5
C06
  8
0
 10
423.0125025243411
 20
-18.59802787146823
 30
-37.35646252167572
 70
   192
  0
VERTEX
  5
C07
  8
0
 10
420.0136631024242
 20
-16.53822381261632
 30
-38.27329974172723
 70
   192
  0
VERTEX
  5
C08
  8
0
 10
416.757563929486
 20
-15.8887655974438
 30
-39.2687891607707
 70
   192
  0
VERTEX
  5
C09
  8
0
 10
413.5014647565479
 20
-16.53822381261632
 30
-40.2642785798142
 70
   192
  0
VERTEX
  5
C0A
  8
0
 10
410.5026253346311
 20
-18.59802787146824
 30
-41.18111579986572
 70
   192
  0
VERTEX
  5
C0B
  8
0
 10
408.5328249167997
 20
-21.73388953399648
 30
-41.78334422394931
 70
   192
  0
VERTEX
  5
C0C
  8
0
 10
407.911744936831
 20
-25.1387655974438
 30
-41.9732274294662
 70
   192
  0
VERTEX
  5
C0D
  8
0
 10
408.5328249167997
 20
-28.54364166089113
 30
-41.78334422394931
 70
   192
  0
VERTEX
  5
C0E
  8
0
 10
410.5026253346311
 20
-31.67950332341939
 30
-41.18111579986572
 70
   192
  0
VERTEX
  5
C0F
  8
0
 10
413.5014647565479
 20
-33.73930738227129
 30
-40.2642785798142
 70
   192
  0
VERTEX
  5
C10
  8
0
 10
416.757563929486
 20
-34.38876559744381
 30
-39.2687891607707
 70
   192
  0
VERTEX
  5
C11
  8
0
 10
420.0136631024242
 20
-33.73930738227129
 30
-38.27329974172723
 70
   192
  0
VERTEX
  5
C12
  8
0
 10
423.0125025243411
 20
-31.67950332341938
 30
-37.35646252167572
 70
   192
  0
VERTEX
  5
C13
  8
0
 10
424.9823029421725
 20
-28.54364166089113
 30
-36.7542340975921
 70
   192
  0
VERTEX
  5
C14
  8
0
 10
423.929849599206
 20
-25.1387655974438
 30
-37.0760013753419
 70
   192
  0
VERTEX
  5
C15
  8
0
 10
423.4262712370694
 20
-27.8994759191578
 30
-37.22996073116641
 70
   192
  0
VERTEX
  5
C16
  8
0
 10
421.8291357631522
 20
-30.44206645634282
 30
-37.71825404799097
 70
   192
  0
VERTEX
  5
C17
  8
0
 10
419.3976443399764
 20
-32.11217785541193
 30
-38.46163557776247
 70
   192
  0
VERTEX
  5
C18
  8
0
 10
416.757563929486
 20
-32.63876559744371
 30
-39.26878916077069
 70
   192
  0
VERTEX
  5
C19
  8
0
 10
414.1174835189957
 20
-32.11217785541194
 30
-40.07594274377892
 70
   192
  0
VERTEX
  5
C1A
  8
0
 10
411.6859920958201
 20
-30.44206645634285
 30
-40.81932427355044
 70
   192
  0
VERTEX
  5
C1B
  8
0
 10
410.0888566219027
 20
-27.89947591915782
 30
-41.30761759037498
 70
   192
  0
VERTEX
  5
C1C
  8
0
 10
409.585278259766
 20
-25.1387655974438
 30
-41.4615769461995
 70
   192
  0
VERTEX
  5
C1D
  8
0
 10
410.0888566219027
 20
-22.37805527572976
 30
-41.30761759037498
 70
   192
  0
VERTEX
  5
C1E
  8
0
 10
411.6859920958201
 20
-19.83546473854471
 30
-40.81932427355044
 70
   192
  0
VERTEX
  5
C1F
  8
0
 10
414.1174835189958
 20
-18.16535333947558
 30
-40.07594274377894
 70
   192
  0
VERTEX
  5
C20
  8
0
 10
416.757563929486
 20
-17.6387655974438
 30
-39.26878916077071
 70
   192
  0
VERTEX
  5
C21
  8
0
 10
419.3976443399762
 20
-18.16535333947556
 30
-38.46163557776247
 70
   192
  0
VERTEX
  5
C22
  8
0
 10
421.8291357631521
 20
-19.83546473854468
 30
-37.71825404799099
 70
   192
  0
VERTEX
  5
C23
  8
0
 10
423.4262712370694
 20
-22.37805527572974
 30
-37.22996073116642
 70
   192
  0
VERTEX
  5
C24
  8
0
 10
0.0
 20
0.0
 30
0.0
 70
   128
 71
    -1
 72
    17
 73
   -18
  0
VERTEX
  5
C25
  8
0
 10
0.0
 20
0.0
 30
0.0
 70
   128
 71
    16
 72
    -1
 73
   -18
  0
VERTEX
  5
C26
  8
0
 10
0.0
 20
0.0
 30
0.0
 70
   128
 71
   -19
 72
    15
 73
   -16
  0
VERTEX
  5
C27
  8
0
 10
0.0
 20
0.0
 30
0.0
 70
   128
 71
    18
 72
   -19
 73
   -16
  0
VERTEX
  5
C28
  8
0
 10
0.0
 20
0.0
 30
0.0
 70
   128
 71
   -20
 72
    14
 73
   -15
  0
VERTEX
  5
C29
  8
0
 10
0.0
 20
0.0
 30
0.0
 70
   128
 71
    19
 72
   -20
 73
   -15
  0
VERTEX
  5
C2A
  8
0
 10
0.0
 20
0.0
 30
0.0
 70
   128
 71
   -21
 72
    13
 73
   -14
  0
VERTEX
  5
C2B
  8
0
 10
0.0
 20
0.0
 30
0.0
 70
   128
 71
    20
 72
   -21
 73
   -14
  0
VERTEX
  5
C2C
  8
0
 10
0.0
 20
0.0
 30
0.0
 70
   128
 71
   -22
 72
    12
 73
   -13
  0
VERTEX
  5
C2D
  8
0
 10
0.0
 20
0.0
 30
0.0
 70
   128
 71
    21
 72
   -22
 73
   -13
  0
VERTEX
  5
C2E
  8
0
 10
0.0
 20
0.0
 30
0.0
 70
   128
 71
   -23
 72
    11
 73
   -12
  0
VERTEX
  5
C2F
  8
0
 10
0.0
 20
0.0
 30
0.0
 70
   128
 71
    22
 72
   -23
 73
   -12
  0
VERTEX
  5
C30
  8
0
 10
0.0
 20
0.0
 30
0.0
 70
   128
 71
   -24
 72
    10
 73
   -11
  0
VERTEX
  5
C31
  8
0
 10
0.0
 20
0.0
 30
0.0
 70
   128
 71
    23
 72
   -24
 73
   -11
  0
VERTEX
  5
C32
  8
0
 10
0.0
 20
0.0
 30
0.0
 70
   128
 71
   -25
 72
     9
 73
   -10
  0
VERTEX
  5
C33
  8
0
 10
0.0
 20
0.0
 30
0.0
 70
   128
 71
    24
 72
   -25
 73
   -10
  0
VERTEX
  5
C34
  8
0
 10
0.0
 20
0.0
 30
0.0
 70
   128
 71
   -26
 72
     8
 73
    -9
  0
VERTEX
  5
C35
  8
0
 10
0.0
 20
0.0
 30
0.0
 70
   128
 71
    25
 72
   -26
 73
    -9
  0
VERTEX
  5
C36
  8
0
 10
0.0
 20
0.0
 30
0.0
 70
   128
 71
   -27
 72
     7
 73
    -8
  0
VERTEX
  5
C37
  8
0
 10
0.0
 20
0.0
 30
0.0
 70
   128
 71
    26
 72
   -27
 73
    -8
  0
VERTEX
  5
C38
  8
0
 10
0.0
 20
0.0
 30
0.0
 70
   128
 71
   -28
 72
     6
 73
    -7
  0
VERTEX
  5
C39
  8
0
 10
0.0
 20
0.0
 30
0.0
 70
   128
 71
    27
 72
   -28
 73
    -7
  0
VERTEX
  5
C3A
  8
0
 10
0.0
 20
0.0
 30
0.0
 70
   128
 71
   -29
 72
     5
 73
    -6
  0
VERTEX
  5
C3B
  8
0
 10
0.0
 20
0.0
 30
0.0
 70
   128
 71
    28
 72
   -29
 73
    -6
  0
VERTEX
  5
C3C
  8
0
 10
0.0
 20
0.0
 30
0.0
 70
   128
 71
   -30
 72
     4
 73
    -5
  0
VERTEX
  5
C3D
  8
0
 10
0.0
 20
0.0
 30
0.0
 70
   128
 71
    29
 72
   -30
 73
    -5
  0
VERTEX
  5
C3E
  8
0
 10
0.0
 20
0.0
 30
0.0
 70
   128
 71
   -31
 72
     3
 73
    -4
  0
VERTEX
  5
C3F
  8
0
 10
0.0
 20
0.0
 30
0.0
 70
   128
 71
    30
 72
   -31
 73
    -4
  0
VERTEX
  5
C40
  8
0
 10
0.0
 20
0.0
 30
0.0
 70
   128
 71
   -32
 72
     2
 73
    -3
  0
VERTEX
  5
C41
  8
0
 10
0.0
 20
0.0
 30
0.0
 70
   128
 71
    31
 72
   -32
 73
    -3
  0
VERTEX
  5
C42
  8
0
 10
0.0
 20
0.0
 30
0.0
 70
   128
 71
   -17
 72
     1
 73
    -2
  0
VERTEX
  5
C43
  8
0
 10
0.0
 20
0.0
 30
0.0
 70
   128
 71
    32
 72
   -17
 73
    -2
  0
SEQEND
  5
C96
  8
0
  0
POLYLINE
  5
C44
  8
0
 66
     1
 10
0.0
 20
0.0
 30
0.0
 70
    64
 71
    16
 72
    14
  0
VERTEX
  5
C45
  8
0
 10
428.477694350257
 20
-28.59874933276276
 30
-47.71104090003544
 70
   192
  0
VERTEX
  5
C46
  8
0
 10
429.1087960310627
 20
-25.1387655974439
 30
-47.51798490498778
 70
   192
  0
VERTEX
  5
C47
  8
0
 10
426.6236669744538
 20
-25.13876559744369
 30
-39.38949402294127
 70
   192
  0
VERTEX
  5
C48
  8
0
 10
425.4193709460388
 20
-29.83862088664371
 30
-39.7576842683881
 70
   192
  0
VERTEX
  5
C49
  8
0
 10
426.4760128556857
 20
-31.78536468861563
 30
-48.32301634743644
 70
   192
  0
VERTEX
  5
C4A
  8
0
 10
422.1291730090554
 20
-33.27915374655944
 30
-40.76359872580006
 70
   192
  0
VERTEX
  5
C4B
  8
0
 10
417.634679043657
 20
-34.53847617584372
 30
-42.13770342865882
 70
   192
  0
VERTEX
  5
C4C
  8
0
 10
420.1198385338223
 20
-34.5384761758438
 30
-50.26629385433777
 70
   192
  0
VERTEX
  5
C4D
  8
0
 10
423.4286374354627
 20
-33.87850652660828
 30
-49.25469251132546
 70
   192
  0
VERTEX
  5
C4E
  8
0
 10
416.8110396321784
 20
-33.87850652661736
 30
-51.27789519735118
 70
   192
  0
VERTEX
  5
C4F
  8
0
 10
413.1401850782586
 20
-33.27915374655944
 30
-43.51180813151758
 70
   192
  0
VERTEX
  5
C50
  8
0
 10
413.7636642119453
 20
-31.78536468862789
 30
-52.2095713612433
 70
   192
  0
VERTEX
  5
C51
  8
0
 10
409.8499871412752
 20
-29.83862088664371
 30
-44.51772258892953
 70
   192
  0
VERTEX
  5
C52
  8
0
 10
408.6456911128602
 20
-25.13876559744369
 30
-44.88591283437634
 70
   192
  0
VERTEX
  5
C53
  8
0
 10
411.130820169469
 20
-25.13876559744369
 30
-53.01440371642283
 70
   192
  0
VERTEX
  5
C54
  8
0
 10
411.7619827173646
 20
-28.59874933276975
 30
-52.82154680864711
 70
   192
  0
VERTEX
  5
C55
  8
0
 10
0.0
 20
0.0
 30
0.0
 70
   128
 71
     1
 72
     2
 73
     3
  0
VERTEX
  5
C56
  8
0
 10
0.0
 20
0.0
 30
0.0
 70
   128
 71
     1
 72
     3
 73
     4
  0
VERTEX
  5
C57
  8
0
 10
0.0
 20
0.0
 30
0.0
 70
   128
 71
     4
 72
     5
 73
     1
  0
VERTEX
  5
C58
  8
0
 10
0.0
 20
0.0
 30
0.0
 70
   128
 71
     6
 72
     7
 73
     8
  0
VERTEX
  5
C59
  8
0
 10
0.0
 20
0.0
 30
0.0
 70
   128
 71
     6
 72
     8
 73
     9
  0
VERTEX
  5
C5A
  8
0
 10
0.0
 20
0.0
 30
0.0
 70
   128
 71
    10
 72
     8
 73
     7
  0
VERTEX
  5
C5B
  8
0
 10
0.0
 20
0.0
 30
0.0
 70
   128
 71
    10
 72
     7
 73
    11
  0
VERTEX
  5
C5C
  8
0
 10
0.0
 20
0.0
 30
0.0
 70
   128
 71
    11
 72
    12
 73
    10
  0
VERTEX
  5
C5D
  8
0
 10
0.0
 20
0.0
 30
0.0
 70
   128
 71
    13
 72
    14
 73
    15
  0
VERTEX
  5
C5E
  8
0
 10
0.0
 20
0.0
 30
0.0
 70
   128
 71
    13
 72
    15
 73
    16
  0
VERTEX
  5
C5F
  8
0
 10
0.0
 20
0.0
 30
0.0
 70
   128
 71
     4
 72
     6
 73
     9
  0
VERTEX
  5
C60
  8
0
 10
0.0
 20
0.0
 30
0.0
 70
   128
 71
     4
 72
     9
 73
     5
  0
VERTEX
  5
C61
  8
0
 10
0.0
 20
0.0
 30
0.0
 70
   128
 71
    11
 72
    13
 73
    16
  0
VERTEX
  5
C62
  8
0
 10
0.0
 20
0.0
 30
0.0
 70
   128
 71
    11
 72
    16
 73
    12
  0
SEQEND
  5
C97
  8
0
  0
ENDBLK
  5
C8E
  8
0
  0
ENDSEC
  0
SECTION
  2
ENTITIES
  0
INSERT
  5
BE
  8
0
  2
*X1
 10
0.0
 20
0.0
 30
0.0
  0
INSERT
  5
BF
  8
0
  2
*X2
 10
0.0
 20
0.0
 30
0.0
  0
INSERT
  5
C0
  8
0
  2
*X3
 10
0.0
 20
0.0
 30
0.0
  0
ENDSEC
  0
EOF
