  0
SECTION
  2
HEADER
  9
$ACADVER
  1
AC1009
  9
$DWGCODEPAGE
  3
ansi_1250
  9
$INSBASE
 10
0.0
 20
0.0
 30
0.0
  9
$EXTMIN
 10
-400.0000000000003
 20
-30.0
 30
-600.0000000000005
  9
$EXTMAX
 10
400.0000000000002
 20
0.0
 30
600.0
  9
$LIMMIN
 10
0.0
 20
0.0
  9
$LIMMAX
 10
420.0
 20
297.0
  9
$ORTHOMODE
 70
     0
  9
$REGENMODE
 70
     1
  9
$FILLMODE
 70
     1
  9
$QTEXTMODE
 70
     0
  9
$MIRRTEXT
 70
     0
  9
$DRAGMODE
 70
     2
  9
$LTSCALE
 40
1.0
  9
$OSMODE
 70
   511
  9
$ATTMODE
 70
     1
  9
$TEXTSIZE
 40
2.5
  9
$TRACEWID
 40
1.0
  9
$TEXTSTYLE
  7
STANDARD
  9
$CLAYER
  8
0
  9
$CELTYPE
  6
BYLAYER
  9
$CECOLOR
 62
   256
  9
$DIMSCALE
 40
1.0
  9
$DIMASZ
 40
2.5
  9
$DIMEXO
 40
0.625
  9
$DIMDLI
 40
3.75
  9
$DIMRND
 40
0.0
  9
$DIMDLE
 40
0.0
  9
$DIMEXE
 40
1.25
  9
$DIMTP
 40
0.0
  9
$DIMTM
 40
0.0
  9
$DIMTXT
 40
2.5
  9
$DIMCEN
 40
-2.5
  9
$DIMTSZ
 40
0.0
  9
$DIMTOL
 70
     0
  9
$DIMLIM
 70
     0
  9
$DIMTIH
 70
     0
  9
$DIMTOH
 70
     0
  9
$DIMSE1
 70
     0
  9
$DIMSE2
 70
     0
  9
$DIMTAD
 70
     1
  9
$DIMZIN
 70
     8
  9
$DIMBLK
  1

  9
$DIMASO
 70
     1
  9
$DIMSHO
 70
     1
  9
$DIMPOST
  1

  9
$DIMAPOST
  1

  9
$DIMALT
 70
     0
  9
$DIMALTD
 70
     3
  9
$DIMALTF
 40
0.03937007874016
  9
$DIMLFAC
 40
1.0
  9
$DIMTOFL
 70
     1
  9
$DIMTVP
 40
0.0
  9
$DIMTIX
 70
     0
  9
$DIMSOXD
 70
     0
  9
$DIMSAH
 70
     0
  9
$DIMBLK1
  1

  9
$DIMBLK2
  1

  9
$DIMSTYLE
  2
ISO-25
  9
$DIMCLRD
 70
     0
  9
$DIMCLRE
 70
     0
  9
$DIMCLRT
 70
     0
  9
$DIMTFAC
 40
1.0
  9
$DIMGAP
 40
0.625
  9
$LUNITS
 70
     2
  9
$LUPREC
 70
     3
  9
$SKETCHINC
 40
1.0
  9
$FILLETRAD
 40
10.0
  9
$AUNITS
 70
     0
  9
$AUPREC
 70
     0
  9
$MENU
  1
.
  9
$ELEVATION
 40
0.0
  9
$PELEVATION
 40
0.0
  9
$THICKNESS
 40
0.0
  9
$LIMCHECK
 70
     0
  9
$CHAMFERA
 40
10.0
  9
$CHAMFERB
 40
10.0
  9
$SKPOLY
 70
     0
  9
$TDCREATE
 40
2455022.720692848
  9
$TDUPDATE
 40
2460461.590593577
  9
$TDINDWG
 40
0.0004472222
  9
$TDUSRTIMER
 40
0.0004472222
  9
$USRTIMER
 70
     1
  9
$ANGBASE
 50
0.0
  9
$ANGDIR
 70
     0
  9
$PDMODE
 70
     0
  9
$PDSIZE
 40
0.0
  9
$PLINEWID
 40
0.0
  9
$COORDS
 70
     1
  9
$SPLFRAME
 70
     0
  9
$SPLINETYPE
 70
     6
  9
$SPLINESEGS
 70
     8
  9
$ATTDIA
 70
     0
  9
$ATTREQ
 70
     1
  9
$HANDLING
 70
     1
  9
$HANDSEED
  5
13EA
  9
$SURFTAB1
 70
     6
  9
$SURFTAB2
 70
     6
  9
$SURFTYPE
 70
     6
  9
$SURFU
 70
     6
  9
$SURFV
 70
     6
  9
$UCSNAME
  2

  9
$UCSORG
 10
0.0
 20
0.0
 30
0.0
  9
$UCSXDIR
 10
1.0
 20
0.0
 30
0.0
  9
$UCSYDIR
 10
0.0
 20
1.0
 30
0.0
  9
$PUCSNAME
  2

  9
$PUCSORG
 10
0.0
 20
0.0
 30
0.0
  9
$PUCSXDIR
 10
1.0
 20
0.0
 30
0.0
  9
$PUCSYDIR
 10
0.0
 20
1.0
 30
0.0
  9
$USERI1
 70
     0
  9
$USERI2
 70
     0
  9
$USERI3
 70
     0
  9
$USERI4
 70
     0
  9
$USERI5
 70
     0
  9
$USERR1
 40
0.0
  9
$USERR2
 40
0.0
  9
$USERR3
 40
0.0
  9
$USERR4
 40
0.0
  9
$USERR5
 40
0.0
  9
$WORLDVIEW
 70
     1
  9
$SHADEDGE
 70
     3
  9
$SHADEDIF
 70
    70
  9
$TILEMODE
 70
     1
  9
$MAXACTVP
 70
    64
  9
$PLIMCHECK
 70
     0
  9
$PEXTMIN
 10
1.000000000000000E+20
 20
1.000000000000000E+20
 30
1.000000000000000E+20
  9
$PEXTMAX
 10
-1.000000000000000E+20
 20
-1.000000000000000E+20
 30
-1.000000000000000E+20
  9
$PLIMMIN
 10
0.0
 20
0.0
  9
$PLIMMAX
 10
0.0
 20
0.0
  9
$UNITMODE
 70
     0
  9
$VISRETAIN
 70
     1
  9
$PLINEGEN
 70
     0
  9
$PSLTSCALE
 70
     1
  0
ENDSEC
  0
SECTION
  2
TABLES
  0
TABLE
  2
VPORT
 70
     1
  0
VPORT
  2
*ACTIVE
 70
     0
 10
0.0
 20
0.0
 11
1.0
 21
1.0
 12
-105.4910798886061
 22
-48.65785465687535
 13
0.0
 23
0.0
 14
10.0
 24
10.0
 15
10.0
 25
10.0
 16
0.5773502691896226
 26
0.5773502691896226
 36
0.5773502691896226
 17
-134.1869158878504
 27
-0.0000000000000036
 37
0.0000000000000071
 40
1345.014817762244
 41
1.89041095890411
 42
50.0
 43
0.0
 44
0.0
 50
0.0
 51
0.0
 71
    16
 72
  1000
 73
     1
 74
     3
 75
     0
 76
     0
 77
     0
 78
     0
  0
ENDTAB
  0
TABLE
  2
LTYPE
 70
     1
  0
LTYPE
  2
CONTINUOUS
 70
     0
  3
Solid line
 72
    65
 73
     0
 40
0.0
  0
ENDTAB
  0
TABLE
  2
LAYER
 70
     3
  0
LAYER
  2
0
 70
     0
 62
     7
  6
CONTINUOUS
  0
LAYER
  2
VANA
 70
     0
 62
     7
  6
CONTINUOUS
  0
LAYER
  2
ODPAD
 70
     0
 62
     7
  6
CONTINUOUS
  0
ENDTAB
  0
TABLE
  2
STYLE
 70
     2
  0
STYLE
  2
STANDARD
 70
     0
 40
0.0
 41
1.0
 50
0.0
 71
     0
 42
2.5
  3
arial.ttf
  4

  0
STYLE
  2
ANNOTATIVE
 70
     0
 40
0.0
 41
1.0
 50
0.0
 71
     0
 42
2.5
  3
arial.ttf
  4

  0
ENDTAB
  0
TABLE
  2
VIEW
 70
     0
  0
ENDTAB
  0
TABLE
  2
UCS
 70
     0
  0
ENDTAB
  0
TABLE
  2
APPID
 70
     3
  0
APPID
  2
ACAD
 70
     0
  0
APPID
  2
ACADANNOTATIVE
 70
     0
  0
APPID
  2
ACAECLAYERSTANDARD
 70
     0
  0
ENDTAB
  0
TABLE
  2
DIMSTYLE
 70
     2
  0
DIMSTYLE
  2
ISO-25
 70
     0
  3

  4

  5

  6

  7

 40
1.0
 41
2.5
 42
0.625
 43
3.75
 44
1.25
 45
0.0
 46
0.0
 47
0.0
 48
0.0
140
2.5
141
-2.5
142
0.0
143
0.03937007874016
144
1.0
145
0.0
146
1.0
147
0.625
 71
     0
 72
     0
 73
     0
 74
     0
 75
     0
 76
     0
 77
     1
 78
     8
170
     0
171
     3
172
     1
173
     0
174
     0
175
     0
176
     0
177
     0
178
     0
  0
DIMSTYLE
  2
ANNOTATIVE
 70
     0
  3

  4

  5

  6

  7

 40
0.0
 41
2.5
 42
0.625
 43
3.75
 44
1.25
 45
0.0
 46
0.0
 47
0.0
 48
0.0
140
2.5
141
-2.5
142
0.0
143
0.03937007874016
144
1.0
145
0.0
146
1.0
147
0.625
 71
     0
 72
     0
 73
     0
 74
     0
 75
     0
 76
     0
 77
     1
 78
     8
170
     0
171
     3
172
     1
173
     0
174
     0
175
     0
176
     0
177
     0
178
     0
  0
ENDTAB
  0
ENDSEC
  0
SECTION
  2
BLOCKS
  0
BLOCK
  8
0
  2
$MODEL_SPACE
 70
     0
 10
0.0
 20
0.0
 30
0.0
  3
$MODEL_SPACE
  1

  0
ENDBLK
  5
21
  8
0
  0
BLOCK
 67
     1
  8
0
  2
$PAPER_SPACE
 70
     0
 10
0.0
 20
0.0
 30
0.0
  3
$PAPER_SPACE
  1

  0
ENDBLK
  5
1D
 67
     1
  8
0
  0
BLOCK
  8
0
  2
*X1
 70
     1
 10
0.0
 20
0.0
 30
0.0
  3
*X1
  1

  0
POLYLINE
  5
D95
  8
VANA
 66
     1
 10
0.0
 20
0.0
 30
0.0
 70
    64
 71
    10
 72
     8
  0
VERTEX
  5
D96
  8
VANA
 10
0.0000000000000014
 20
-26.5
 30
-295.0000000000003
 70
   192
  0
VERTEX
  5
D97
  8
VANA
 10
-0.0000000000000091
 20
-26.5
 30
-205.0000000000003
 70
   192
  0
VERTEX
  5
D98
  8
VANA
 10
-0.0000000000000104
 20
-23.5
 30
-192.5000000000003
 70
   192
  0
VERTEX
  5
D99
  8
VANA
 10
0.000000000000003
 20
-23.50000000000002
 30
-307.5000000000003
 70
   192
  0
VERTEX
  5
D9A
  8
VANA
 10
-57.5
 20
-23.5
 30
-250.0000000000003
 70
   192
  0
VERTEX
  5
D9B
  8
VANA
 10
-45.00000000000002
 20
-26.5
 30
-250.0000000000003
 70
   192
  0
VERTEX
  5
D9C
  8
VANA
 10
-40.65863991822648
 20
-23.5
 30
-290.6586399182268
 70
   192
  0
VERTEX
  5
D9D
  8
VANA
 10
-31.81980515339465
 20
-26.5
 30
-281.819805153395
 70
   192
  0
VERTEX
  5
D9E
  8
VANA
 10
-40.65863991822649
 20
-23.5
 30
-209.3413600817738
 70
   192
  0
VERTEX
  5
D9F
  8
VANA
 10
-31.81980515339466
 20
-26.5
 30
-218.1801948466056
 70
   192
  0
VERTEX
  5
DA0
  8
VANA
 10
0.0
 20
0.0
 30
0.0
 70
   128
 71
     8
 72
     1
 73
    -4
  0
VERTEX
  5
DA1
  8
VANA
 10
0.0
 20
0.0
 30
0.0
 70
   128
 71
     7
 72
    -8
 73
     4
  0
VERTEX
  5
DA2
  8
VANA
 10
0.0
 20
0.0
 30
0.0
 70
   128
 71
     6
 72
     8
 73
    -7
  0
VERTEX
  5
DA3
  8
VANA
 10
0.0
 20
0.0
 30
0.0
 70
   128
 71
     5
 72
    -6
 73
     7
  0
VERTEX
  5
DA4
  8
VANA
 10
0.0
 20
0.0
 30
0.0
 70
   128
 71
    10
 72
     6
 73
    -5
  0
VERTEX
  5
DA5
  8
VANA
 10
0.0
 20
0.0
 30
0.0
 70
   128
 71
     9
 72
   -10
 73
     5
  0
VERTEX
  5
DA6
  8
VANA
 10
0.0
 20
0.0
 30
0.0
 70
   128
 71
     2
 72
    10
 73
    -9
  0
VERTEX
  5
DA7
  8
VANA
 10
0.0
 20
0.0
 30
0.0
 70
   128
 71
     3
 72
    -2
 73
     9
  0
SEQEND
  5
136A
  8
VANA
  0
POLYLINE
  5
DA8
  8
VANA
 66
     1
 10
0.0
 20
0.0
 30
0.0
 70
    64
 71
    10
 72
     8
  0
VERTEX
  5
DA9
  8
VANA
 10
-0.0000000000000041
 20
-30.0
 30
-295.0000000000003
 70
   192
  0
VERTEX
  5
DAA
  8
VANA
 10
-0.0000000000000041
 20
-30.0
 30
-205.0000000000003
 70
   192
  0
VERTEX
  5
DAB
  8
VANA
 10
-0.0000000000000091
 20
-26.5
 30
-205.0000000000003
 70
   192
  0
VERTEX
  5
DAC
  8
VANA
 10
0.0000000000000014
 20
-26.5
 30
-295.0000000000003
 70
   192
  0
VERTEX
  5
DAD
  8
VANA
 10
-45.00000000000002
 20
-26.5
 30
-250.0000000000003
 70
   192
  0
VERTEX
  5
DAE
  8
VANA
 10
-45.00000000000003
 20
-30.0
 30
-250.0000000000003
 70
   192
  0
VERTEX
  5
DAF
  8
VANA
 10
-31.81980515339465
 20
-26.5
 30
-281.819805153395
 70
   192
  0
VERTEX
  5
DB0
  8
VANA
 10
-31.81980515339466
 20
-30.0
 30
-281.819805153395
 70
   192
  0
VERTEX
  5
DB1
  8
VANA
 10
-31.81980515339466
 20
-26.5
 30
-218.1801948466056
 70
   192
  0
VERTEX
  5
DB2
  8
VANA
 10
-31.81980515339465
 20
-30.0
 30
-218.1801948466056
 70
   192
  0
VERTEX
  5
DB3
  8
VANA
 10
0.0
 20
0.0
 30
0.0
 70
   128
 71
     8
 72
     1
 73
    -4
  0
VERTEX
  5
DB4
  8
VANA
 10
0.0
 20
0.0
 30
0.0
 70
   128
 71
     7
 72
    -8
 73
     4
  0
VERTEX
  5
DB5
  8
VANA
 10
0.0
 20
0.0
 30
0.0
 70
   128
 71
     6
 72
     8
 73
    -7
  0
VERTEX
  5
DB6
  8
VANA
 10
0.0
 20
0.0
 30
0.0
 70
   128
 71
     5
 72
    -6
 73
     7
  0
VERTEX
  5
DB7
  8
VANA
 10
0.0
 20
0.0
 30
0.0
 70
   128
 71
    10
 72
     6
 73
    -5
  0
VERTEX
  5
DB8
  8
VANA
 10
0.0
 20
0.0
 30
0.0
 70
   128
 71
     9
 72
   -10
 73
     5
  0
VERTEX
  5
DB9
  8
VANA
 10
0.0
 20
0.0
 30
0.0
 70
   128
 71
     2
 72
    10
 73
    -9
  0
VERTEX
  5
DBA
  8
VANA
 10
0.0
 20
0.0
 30
0.0
 70
   128
 71
     3
 72
    -2
 73
     9
  0
SEQEND
  5
136B
  8
VANA
  0
POLYLINE
  5
DBB
  8
VANA
 66
     1
 10
0.0
 20
0.0
 30
0.0
 70
    64
 71
    10
 72
     8
  0
VERTEX
  5
DBC
  8
VANA
 10
0.000000000000003
 20
-23.5
 30
-307.5000000000003
 70
   192
  0
VERTEX
  5
DBD
  8
VANA
 10
-0.0000000000000104
 20
-23.5
 30
-192.5000000000003
 70
   192
  0
VERTEX
  5
DBE
  8
VANA
 10
-0.0000000000000104
 20
-21.0
 30
-192.5000000000003
 70
   192
  0
VERTEX
  5
DBF
  8
VANA
 10
0.000000000000003
 20
-21.0
 30
-307.5000000000003
 70
   192
  0
VERTEX
  5
DC0
  8
VANA
 10
-57.5
 20
-21.0
 30
-250.0000000000003
 70
   192
  0
VERTEX
  5
DC1
  8
VANA
 10
-57.5
 20
-23.5
 30
-250.0000000000003
 70
   192
  0
VERTEX
  5
DC2
  8
VANA
 10
-40.65863991822648
 20
-21.0
 30
-290.6586399182268
 70
   192
  0
VERTEX
  5
DC3
  8
VANA
 10
-40.65863991822648
 20
-23.5
 30
-290.6586399182268
 70
   192
  0
VERTEX
  5
DC4
  8
VANA
 10
-40.65863991822649
 20
-21.0
 30
-209.3413600817738
 70
   192
  0
VERTEX
  5
DC5
  8
VANA
 10
-40.65863991822649
 20
-23.5
 30
-209.3413600817738
 70
   192
  0
VERTEX
  5
DC6
  8
VANA
 10
0.0
 20
0.0
 30
0.0
 70
   128
 71
     8
 72
     1
 73
    -4
  0
VERTEX
  5
DC7
  8
VANA
 10
0.0
 20
0.0
 30
0.0
 70
   128
 71
     7
 72
    -8
 73
     4
  0
VERTEX
  5
DC8
  8
VANA
 10
0.0
 20
0.0
 30
0.0
 70
   128
 71
     6
 72
     8
 73
    -7
  0
VERTEX
  5
DC9
  8
VANA
 10
0.0
 20
0.0
 30
0.0
 70
   128
 71
     5
 72
    -6
 73
     7
  0
VERTEX
  5
DCA
  8
VANA
 10
0.0
 20
0.0
 30
0.0
 70
   128
 71
    10
 72
     6
 73
    -5
  0
VERTEX
  5
DCB
  8
VANA
 10
0.0
 20
0.0
 30
0.0
 70
   128
 71
     9
 72
   -10
 73
     5
  0
VERTEX
  5
DCC
  8
VANA
 10
0.0
 20
0.0
 30
0.0
 70
   128
 71
     2
 72
    10
 73
    -9
  0
VERTEX
  5
DCD
  8
VANA
 10
0.0
 20
0.0
 30
0.0
 70
   128
 71
     3
 72
    -2
 73
     9
  0
SEQEND
  5
136C
  8
VANA
  0
POLYLINE
  5
DCE
  8
VANA
 66
     1
 10
0.0
 20
0.0
 30
0.0
 70
    64
 71
     4
 72
     2
  0
VERTEX
  5
DCF
  8
VANA
 10
-400.0000000000002
 20
0.0000000000000056
 30
599.9999999999995
 70
   192
  0
VERTEX
  5
DD0
  8
VANA
 10
-400.0000000000002
 20
0.0000000000000013
 30
-600.0000000000003
 70
   192
  0
VERTEX
  5
DD1
  8
VANA
 10
-400.0000000000001
 20
-30.0
 30
-600.0000000000001
 70
   192
  0
VERTEX
  5
DD2
  8
VANA
 10
-400.0000000000001
 20
-30.0
 30
599.9999999999999
 70
   192
  0
VERTEX
  5
DD3
  8
VANA
 10
0.0
 20
0.0
 30
0.0
 70
   128
 71
     3
 72
     4
 73
    -1
  0
VERTEX
  5
DD4
  8
VANA
 10
0.0
 20
0.0
 30
0.0
 70
   128
 71
     2
 72
    -3
 73
     1
  0
SEQEND
  5
136D
  8
VANA
  0
POLYLINE
  5
DD5
  8
VANA
 66
     1
 10
0.0
 20
0.0
 30
0.0
 70
    64
 71
     4
 72
     2
  0
VERTEX
  5
DD6
  8
VANA
 10
-400.0000000000003
 20
0.0000000000000154
 30
-600.0000000000005
 70
   192
  0
VERTEX
  5
DD7
  8
VANA
 10
400.0000000000002
 20
-0.0000000000000015
 30
-600.0000000000005
 70
   192
  0
VERTEX
  5
DD8
  8
VANA
 10
399.9999999999999
 20
-30.0
 30
-600.0000000000003
 70
   192
  0
VERTEX
  5
DD9
  8
VANA
 10
-400.0000000000001
 20
-30.0
 30
-600.0000000000001
 70
   192
  0
VERTEX
  5
DDA
  8
VANA
 10
0.0
 20
0.0
 30
0.0
 70
   128
 71
     3
 72
     4
 73
    -1
  0
VERTEX
  5
DDB
  8
VANA
 10
0.0
 20
0.0
 30
0.0
 70
   128
 71
     2
 72
    -3
 73
     1
  0
SEQEND
  5
136E
  8
VANA
  0
POLYLINE
  5
DDC
  8
VANA
 66
     1
 10
0.0
 20
0.0
 30
0.0
 70
    64
 71
     4
 72
     2
  0
VERTEX
  5
DDD
  8
VANA
 10
400.0000000000001
 20
0.0000000000000082
 30
-600.0000000000005
 70
   192
  0
VERTEX
  5
DDE
  8
VANA
 10
400.0000000000001
 20
0.0000000000000126
 30
599.9999999999999
 70
   192
  0
VERTEX
  5
DDF
  8
VANA
 10
399.9999999999999
 20
-30.0
 30
599.9999999999998
 70
   192
  0
VERTEX
  5
DE0
  8
VANA
 10
399.9999999999999
 20
-30.0
 30
-600.0000000000002
 70
   192
  0
VERTEX
  5
DE1
  8
VANA
 10
0.0
 20
0.0
 30
0.0
 70
   128
 71
     3
 72
     4
 73
    -1
  0
VERTEX
  5
DE2
  8
VANA
 10
0.0
 20
0.0
 30
0.0
 70
   128
 71
     2
 72
    -3
 73
     1
  0
SEQEND
  5
136F
  8
VANA
  0
POLYLINE
  5
DE3
  8
VANA
 66
     1
 10
0.0
 20
0.0
 30
0.0
 70
    64
 71
     4
 72
     2
  0
VERTEX
  5
DE4
  8
VANA
 10
400.0
 20
0.0
 30
600.0
 70
   192
  0
VERTEX
  5
DE5
  8
VANA
 10
-400.0000000000001
 20
0.0
 30
600.0
 70
   192
  0
VERTEX
  5
DE6
  8
VANA
 10
-400.0000000000001
 20
-30.0
 30
599.9999999999999
 70
   192
  0
VERTEX
  5
DE7
  8
VANA
 10
399.9999999999999
 20
-30.0
 30
599.9999999999998
 70
   192
  0
VERTEX
  5
DE8
  8
VANA
 10
0.0
 20
0.0
 30
0.0
 70
   128
 71
     3
 72
     4
 73
    -1
  0
VERTEX
  5
DE9
  8
VANA
 10
0.0
 20
0.0
 30
0.0
 70
   128
 71
     2
 72
    -3
 73
     1
  0
SEQEND
  5
1370
  8
VANA
  0
POLYLINE
  5
DEA
  8
VANA
 66
     1
 10
0.0
 20
0.0
 30
0.0
 70
    64
 71
    12
 72
    12
  0
VERTEX
  5
DEB
  8
VANA
 10
-400.0000000000001
 20
-30.0
 30
599.9999999999999
 70
   192
  0
VERTEX
  5
DEC
  8
VANA
 10
399.9999999999999
 20
-30.0
 30
599.9999999999998
 70
   192
  0
VERTEX
  5
DED
  8
VANA
 10
399.9999999999999
 20
-30.0
 30
-600.0000000000003
 70
   192
  0
VERTEX
  5
DEE
  8
VANA
 10
-400.0000000000001
 20
-30.0
 30
-600.0000000000001
 70
   192
  0
VERTEX
  5
DEF
  8
VANA
 10
-0.0000000000000096
 20
-30.0
 30
-295.0000000000003
 70
   192
  0
VERTEX
  5
DF0
  8
VANA
 10
31.81980515339464
 20
-30.0
 30
-281.819805153395
 70
   192
  0
VERTEX
  5
DF1
  8
VANA
 10
45.00000000000001
 20
-30.0
 30
-250.0000000000003
 70
   192
  0
VERTEX
  5
DF2
  8
VANA
 10
31.81980515339465
 20
-30.0
 30
-218.1801948466056
 70
   192
  0
VERTEX
  5
DF3
  8
VANA
 10
-0.0000000000000041
 20
-30.0
 30
-205.0000000000003
 70
   192
  0
VERTEX
  5
DF4
  8
VANA
 10
-31.81980515339465
 20
-30.0
 30
-218.1801948466056
 70
   192
  0
VERTEX
  5
DF5
  8
VANA
 10
-45.00000000000003
 20
-30.0
 30
-250.0000000000003
 70
   192
  0
VERTEX
  5
DF6
  8
VANA
 10
-31.81980515339466
 20
-30.0
 30
-281.819805153395
 70
   192
  0
VERTEX
  5
DF7
  8
VANA
 10
0.0
 20
0.0
 30
0.0
 70
   128
 71
     6
 72
    -5
 73
    -3
  0
VERTEX
  5
DF8
  8
VANA
 10
0.0
 20
0.0
 30
0.0
 70
   128
 71
    -3
 72
     7
 73
    -6
  0
VERTEX
  5
DF9
  8
VANA
 10
0.0
 20
0.0
 30
0.0
 70
   128
 71
    -3
 72
     8
 73
    -7
  0
VERTEX
  5
DFA
  8
VANA
 10
0.0
 20
0.0
 30
0.0
 70
   128
 71
    -8
 72
     3
 73
    -2
  0
VERTEX
  5
DFB
  8
VANA
 10
0.0
 20
0.0
 30
0.0
 70
   128
 71
    -2
 72
     9
 73
    -8
  0
VERTEX
  5
DFC
  8
VANA
 10
0.0
 20
0.0
 30
0.0
 70
   128
 71
    -2
 72
    10
 73
    -9
  0
VERTEX
  5
DFD
  8
VANA
 10
0.0
 20
0.0
 30
0.0
 70
   128
 71
     2
 72
     1
 73
    -4
  0
VERTEX
  5
DFE
  8
VANA
 10
0.0
 20
0.0
 30
0.0
 70
   128
 71
    -2
 72
    -4
 73
   -10
  0
VERTEX
  5
DFF
  8
VANA
 10
0.0
 20
0.0
 30
0.0
 70
   128
 71
    -4
 72
    11
 73
   -10
  0
VERTEX
  5
E00
  8
VANA
 10
0.0
 20
0.0
 30
0.0
 70
   128
 71
    -4
 72
    12
 73
   -11
  0
VERTEX
  5
E01
  8
VANA
 10
0.0
 20
0.0
 30
0.0
 70
   128
 71
     4
 72
    -3
 73
    -5
  0
VERTEX
  5
E02
  8
VANA
 10
0.0
 20
0.0
 30
0.0
 70
   128
 71
    -4
 72
     5
 73
   -12
  0
SEQEND
  5
1371
  8
VANA
  0
POLYLINE
  5
E03
  8
VANA
 66
     1
 10
0.0
 20
0.0
 30
0.0
 70
    64
 71
     4
 72
     2
  0
VERTEX
  5
E04
  8
VANA
 10
-63.5
 20
-17.99999999999999
 30
-313.5000000000004
 70
   192
  0
VERTEX
  5
E05
  8
VANA
 10
-400.0000000000003
 20
0.0000000000000148
 30
-600.0000000000003
 70
   192
  0
VERTEX
  5
E06
  8
VANA
 10
-400.0000000000002
 20
0.0000000000000056
 30
599.9999999999995
 70
   192
  0
VERTEX
  5
E07
  8
VANA
 10
-63.5
 20
-18.0
 30
-186.5000000000002
 70
   192
  0
VERTEX
  5
E08
  8
VANA
 10
0.0
 20
0.0
 30
0.0
 70
   128
 71
     3
 72
     4
 73
    -1
  0
VERTEX
  5
E09
  8
VANA
 10
0.0
 20
0.0
 30
0.0
 70
   128
 71
     2
 72
    -3
 73
     1
  0
SEQEND
  5
1372
  8
VANA
  0
POLYLINE
  5
E0A
  8
VANA
 66
     1
 10
0.0
 20
0.0
 30
0.0
 70
    64
 71
     4
 72
     2
  0
VERTEX
  5
E0B
  8
VANA
 10
-63.5
 20
-18.0
 30
-186.5000000000003
 70
   192
  0
VERTEX
  5
E0C
  8
VANA
 10
63.49999999999994
 20
-18.0
 30
-186.5000000000002
 70
   192
  0
VERTEX
  5
E0D
  8
VANA
 10
400.0
 20
0.0
 30
600.0
 70
   192
  0
VERTEX
  5
E0E
  8
VANA
 10
-399.9999999999999
 20
-0.0000000000000061
 30
599.9999999999997
 70
   192
  0
VERTEX
  5
E0F
  8
VANA
 10
0.0
 20
0.0
 30
0.0
 70
   128
 71
     1
 72
     4
 73
    -3
  0
VERTEX
  5
E10
  8
VANA
 10
0.0
 20
0.0
 30
0.0
 70
   128
 71
    -1
 72
     3
 73
     2
  0
SEQEND
  5
1373
  8
VANA
  0
POLYLINE
  5
E11
  8
VANA
 66
     1
 10
0.0
 20
0.0
 30
0.0
 70
    64
 71
     4
 72
     2
  0
VERTEX
  5
E12
  8
VANA
 10
63.5
 20
-17.99999999999999
 30
-313.5000000000004
 70
   192
  0
VERTEX
  5
E13
  8
VANA
 10
400.0000000000002
 20
0.0000000000000118
 30
-600.0000000000006
 70
   192
  0
VERTEX
  5
E14
  8
VANA
 10
-400.0000000000003
 20
0.0000000000000154
 30
-600.0000000000005
 70
   192
  0
VERTEX
  5
E15
  8
VANA
 10
-63.5
 20
-17.99999999999999
 30
-313.5000000000004
 70
   192
  0
VERTEX
  5
E16
  8
VANA
 10
0.0
 20
0.0
 30
0.0
 70
   128
 71
     3
 72
     4
 73
    -1
  0
VERTEX
  5
E17
  8
VANA
 10
0.0
 20
0.0
 30
0.0
 70
   128
 71
     2
 72
    -3
 73
     1
  0
SEQEND
  5
1374
  8
VANA
  0
POLYLINE
  5
E18
  8
VANA
 66
     1
 10
0.0
 20
0.0
 30
0.0
 70
    64
 71
     4
 72
     2
  0
VERTEX
  5
E19
  8
VANA
 10
63.49999999999994
 20
-18.0
 30
-186.5000000000002
 70
   192
  0
VERTEX
  5
E1A
  8
VANA
 10
400.0
 20
0.0000000000000027
 30
599.9999999999999
 70
   192
  0
VERTEX
  5
E1B
  8
VANA
 10
400.0000000000001
 20
0.0000000000000082
 30
-600.0000000000005
 70
   192
  0
VERTEX
  5
E1C
  8
VANA
 10
63.5
 20
-17.99999999999999
 30
-313.5000000000004
 70
   192
  0
VERTEX
  5
E1D
  8
VANA
 10
0.0
 20
0.0
 30
0.0
 70
   128
 71
     3
 72
     4
 73
    -1
  0
VERTEX
  5
E1E
  8
VANA
 10
0.0
 20
0.0
 30
0.0
 70
   128
 71
     2
 72
    -3
 73
     1
  0
SEQEND
  5
1375
  8
VANA
  0
POLYLINE
  5
E1F
  8
VANA
 66
     1
 10
0.0
 20
0.0
 30
0.0
 70
    64
 71
     4
 72
     2
  0
VERTEX
  5
E20
  8
VANA
 10
-63.5
 20
-18.0
 30
-186.5000000000003
 70
   192
  0
VERTEX
  5
E21
  8
VANA
 10
-63.5
 20
-21.0
 30
-186.5000000000003
 70
   192
  0
VERTEX
  5
E22
  8
VANA
 10
63.5
 20
-21.0
 30
-186.5000000000003
 70
   192
  0
VERTEX
  5
E23
  8
VANA
 10
63.5
 20
-18.0
 30
-186.5000000000003
 70
   192
  0
VERTEX
  5
E24
  8
VANA
 10
0.0
 20
0.0
 30
0.0
 70
   128
 71
     1
 72
     4
 73
    -3
  0
VERTEX
  5
E25
  8
VANA
 10
0.0
 20
0.0
 30
0.0
 70
   128
 71
    -1
 72
     3
 73
     2
  0
SEQEND
  5
1376
  8
VANA
  0
POLYLINE
  5
E26
  8
VANA
 66
     1
 10
0.0
 20
0.0
 30
0.0
 70
    64
 71
     4
 72
     2
  0
VERTEX
  5
E27
  8
VANA
 10
-63.5
 20
-18.0
 30
-313.5000000000003
 70
   192
  0
VERTEX
  5
E28
  8
VANA
 10
-63.5
 20
-21.0
 30
-313.5000000000003
 70
   192
  0
VERTEX
  5
E29
  8
VANA
 10
-63.5
 20
-21.0
 30
-186.5000000000003
 70
   192
  0
VERTEX
  5
E2A
  8
VANA
 10
-63.5
 20
-18.0
 30
-186.5000000000003
 70
   192
  0
VERTEX
  5
E2B
  8
VANA
 10
0.0
 20
0.0
 30
0.0
 70
   128
 71
     1
 72
     4
 73
    -3
  0
VERTEX
  5
E2C
  8
VANA
 10
0.0
 20
0.0
 30
0.0
 70
   128
 71
    -1
 72
     3
 73
     2
  0
SEQEND
  5
1377
  8
VANA
  0
POLYLINE
  5
E2D
  8
VANA
 66
     1
 10
0.0
 20
0.0
 30
0.0
 70
    64
 71
     4
 72
     2
  0
VERTEX
  5
E2E
  8
VANA
 10
63.5
 20
-18.0
 30
-313.5000000000003
 70
   192
  0
VERTEX
  5
E2F
  8
VANA
 10
63.5
 20
-21.0
 30
-313.5000000000003
 70
   192
  0
VERTEX
  5
E30
  8
VANA
 10
-63.5
 20
-21.0
 30
-313.5000000000003
 70
   192
  0
VERTEX
  5
E31
  8
VANA
 10
-63.5
 20
-18.0
 30
-313.5000000000003
 70
   192
  0
VERTEX
  5
E32
  8
VANA
 10
0.0
 20
0.0
 30
0.0
 70
   128
 71
     1
 72
     4
 73
    -3
  0
VERTEX
  5
E33
  8
VANA
 10
0.0
 20
0.0
 30
0.0
 70
   128
 71
    -1
 72
     3
 73
     2
  0
SEQEND
  5
1378
  8
VANA
  0
POLYLINE
  5
E34
  8
VANA
 66
     1
 10
0.0
 20
0.0
 30
0.0
 70
    64
 71
     4
 72
     2
  0
VERTEX
  5
E35
  8
VANA
 10
63.5
 20
-18.0
 30
-186.5000000000003
 70
   192
  0
VERTEX
  5
E36
  8
VANA
 10
63.5
 20
-21.0
 30
-186.5000000000003
 70
   192
  0
VERTEX
  5
E37
  8
VANA
 10
63.5
 20
-21.0
 30
-313.5000000000003
 70
   192
  0
VERTEX
  5
E38
  8
VANA
 10
63.5
 20
-18.0
 30
-313.5000000000003
 70
   192
  0
VERTEX
  5
E39
  8
VANA
 10
0.0
 20
0.0
 30
0.0
 70
   128
 71
     1
 72
     4
 73
    -3
  0
VERTEX
  5
E3A
  8
VANA
 10
0.0
 20
0.0
 30
0.0
 70
   128
 71
    -1
 72
     3
 73
     2
  0
SEQEND
  5
1379
  8
VANA
  0
POLYLINE
  5
E3B
  8
VANA
 66
     1
 10
0.0
 20
0.0
 30
0.0
 70
    64
 71
    12
 72
    12
  0
VERTEX
  5
E3C
  8
VANA
 10
-63.5
 20
-21.0
 30
-186.5000000000003
 70
   192
  0
VERTEX
  5
E3D
  8
VANA
 10
63.5
 20
-21.0
 30
-186.5000000000003
 70
   192
  0
VERTEX
  5
E3E
  8
VANA
 10
63.5
 20
-21.0
 30
-313.5000000000003
 70
   192
  0
VERTEX
  5
E3F
  8
VANA
 10
-63.5
 20
-21.0
 30
-313.5000000000003
 70
   192
  0
VERTEX
  5
E40
  8
VANA
 10
-0.0000000000000041
 20
-21.0
 30
-307.5000000000003
 70
   192
  0
VERTEX
  5
E41
  8
VANA
 10
40.65863991822648
 20
-21.0
 30
-290.6586399182268
 70
   192
  0
VERTEX
  5
E42
  8
VANA
 10
57.5
 20
-21.0
 30
-250.0000000000003
 70
   192
  0
VERTEX
  5
E43
  8
VANA
 10
40.65863991822647
 20
-21.0
 30
-209.3413600817738
 70
   192
  0
VERTEX
  5
E44
  8
VANA
 10
-0.0000000000000041
 20
-21.0
 30
-192.5000000000003
 70
   192
  0
VERTEX
  5
E45
  8
VANA
 10
-40.65863991822649
 20
-21.0
 30
-209.3413600817738
 70
   192
  0
VERTEX
  5
E46
  8
VANA
 10
-57.5
 20
-21.0
 30
-250.0000000000003
 70
   192
  0
VERTEX
  5
E47
  8
VANA
 10
-40.65863991822648
 20
-21.0
 30
-290.6586399182268
 70
   192
  0
VERTEX
  5
E48
  8
VANA
 10
0.0
 20
0.0
 30
0.0
 70
   128
 71
    -3
 72
     5
 73
    -6
  0
VERTEX
  5
E49
  8
VANA
 10
0.0
 20
0.0
 30
0.0
 70
   128
 71
     6
 72
    -7
 73
    -3
  0
VERTEX
  5
E4A
  8
VANA
 10
0.0
 20
0.0
 30
0.0
 70
   128
 71
    -7
 72
     2
 73
    -3
  0
VERTEX
  5
E4B
  8
VANA
 10
0.0
 20
0.0
 30
0.0
 70
   128
 71
     7
 72
    -8
 73
    -2
  0
VERTEX
  5
E4C
  8
VANA
 10
0.0
 20
0.0
 30
0.0
 70
   128
 71
     8
 72
    -9
 73
    -2
  0
VERTEX
  5
E4D
  8
VANA
 10
0.0
 20
0.0
 30
0.0
 70
   128
 71
    -9
 72
     1
 73
    -2
  0
VERTEX
  5
E4E
  8
VANA
 10
0.0
 20
0.0
 30
0.0
 70
   128
 71
     9
 72
   -10
 73
    -1
  0
VERTEX
  5
E4F
  8
VANA
 10
0.0
 20
0.0
 30
0.0
 70
   128
 71
    10
 72
   -11
 73
    -1
  0
VERTEX
  5
E50
  8
VANA
 10
0.0
 20
0.0
 30
0.0
 70
   128
 71
     4
 72
    -1
 73
   -11
  0
VERTEX
  5
E51
  8
VANA
 10
0.0
 20
0.0
 30
0.0
 70
   128
 71
    11
 72
   -12
 73
    -4
  0
VERTEX
  5
E52
  8
VANA
 10
0.0
 20
0.0
 30
0.0
 70
   128
 71
    12
 72
    -5
 73
    -4
  0
VERTEX
  5
E53
  8
VANA
 10
0.0
 20
0.0
 30
0.0
 70
   128
 71
    -5
 72
     3
 73
    -4
  0
SEQEND
  5
137A
  8
VANA
  0
POLYLINE
  5
E54
  8
VANA
 66
     1
 10
0.0
 20
0.0
 30
0.0
 70
    64
 71
    10
 72
     8
  0
VERTEX
  5
E55
  8
VANA
 10
-0.0000000000000041
 20
-23.5
 30
-192.5000000000003
 70
   192
  0
VERTEX
  5
E56
  8
VANA
 10
0.000000000000003
 20
-23.5
 30
-307.5000000000003
 70
   192
  0
VERTEX
  5
E57
  8
VANA
 10
0.000000000000003
 20
-21.0
 30
-307.5000000000003
 70
   192
  0
VERTEX
  5
E58
  8
VANA
 10
-0.0000000000000041
 20
-21.0
 30
-192.5000000000003
 70
   192
  0
VERTEX
  5
E59
  8
VANA
 10
57.5
 20
-21.0
 30
-250.0000000000003
 70
   192
  0
VERTEX
  5
E5A
  8
VANA
 10
57.5
 20
-23.5
 30
-250.0000000000003
 70
   192
  0
VERTEX
  5
E5B
  8
VANA
 10
40.65863991822647
 20
-21.0
 30
-209.3413600817738
 70
   192
  0
VERTEX
  5
E5C
  8
VANA
 10
40.65863991822647
 20
-23.5
 30
-209.3413600817738
 70
   192
  0
VERTEX
  5
E5D
  8
VANA
 10
40.65863991822648
 20
-21.0
 30
-290.6586399182268
 70
   192
  0
VERTEX
  5
E5E
  8
VANA
 10
40.65863991822648
 20
-23.5
 30
-290.6586399182268
 70
   192
  0
VERTEX
  5
E5F
  8
VANA
 10
0.0
 20
0.0
 30
0.0
 70
   128
 71
     8
 72
     1
 73
    -4
  0
VERTEX
  5
E60
  8
VANA
 10
0.0
 20
0.0
 30
0.0
 70
   128
 71
     7
 72
    -8
 73
     4
  0
VERTEX
  5
E61
  8
VANA
 10
0.0
 20
0.0
 30
0.0
 70
   128
 71
     6
 72
     8
 73
    -7
  0
VERTEX
  5
E62
  8
VANA
 10
0.0
 20
0.0
 30
0.0
 70
   128
 71
     5
 72
    -6
 73
     7
  0
VERTEX
  5
E63
  8
VANA
 10
0.0
 20
0.0
 30
0.0
 70
   128
 71
    10
 72
     6
 73
    -5
  0
VERTEX
  5
E64
  8
VANA
 10
0.0
 20
0.0
 30
0.0
 70
   128
 71
     9
 72
   -10
 73
     5
  0
VERTEX
  5
E65
  8
VANA
 10
0.0
 20
0.0
 30
0.0
 70
   128
 71
     3
 72
     2
 73
   -10
  0
VERTEX
  5
E66
  8
VANA
 10
0.0
 20
0.0
 30
0.0
 70
   128
 71
     9
 72
    -3
 73
    10
  0
SEQEND
  5
137B
  8
VANA
  0
POLYLINE
  5
E67
  8
VANA
 66
     1
 10
0.0
 20
0.0
 30
0.0
 70
    64
 71
    10
 72
     8
  0
VERTEX
  5
E68
  8
VANA
 10
0.0000000000000009
 20
-30.0
 30
-205.0000000000003
 70
   192
  0
VERTEX
  5
E69
  8
VANA
 10
0.0000000000000014
 20
-30.00000000000001
 30
-295.0000000000003
 70
   192
  0
VERTEX
  5
E6A
  8
VANA
 10
0.0000000000000014
 20
-26.5
 30
-295.0000000000003
 70
   192
  0
VERTEX
  5
E6B
  8
VANA
 10
-0.0000000000000041
 20
-26.5
 30
-205.0000000000003
 70
   192
  0
VERTEX
  5
E6C
  8
VANA
 10
45.00000000000001
 20
-26.5
 30
-250.0000000000003
 70
   192
  0
VERTEX
  5
E6D
  8
VANA
 10
45.00000000000001
 20
-30.0
 30
-250.0000000000003
 70
   192
  0
VERTEX
  5
E6E
  8
VANA
 10
31.81980515339465
 20
-26.5
 30
-218.1801948466056
 70
   192
  0
VERTEX
  5
E6F
  8
VANA
 10
31.81980515339465
 20
-30.0
 30
-218.1801948466056
 70
   192
  0
VERTEX
  5
E70
  8
VANA
 10
31.81980515339465
 20
-26.5
 30
-281.819805153395
 70
   192
  0
VERTEX
  5
E71
  8
VANA
 10
31.81980515339464
 20
-30.0
 30
-281.819805153395
 70
   192
  0
VERTEX
  5
E72
  8
VANA
 10
0.0
 20
0.0
 30
0.0
 70
   128
 71
     8
 72
     1
 73
    -4
  0
VERTEX
  5
E73
  8
VANA
 10
0.0
 20
0.0
 30
0.0
 70
   128
 71
     7
 72
    -8
 73
     4
  0
VERTEX
  5
E74
  8
VANA
 10
0.0
 20
0.0
 30
0.0
 70
   128
 71
     6
 72
     8
 73
    -7
  0
VERTEX
  5
E75
  8
VANA
 10
0.0
 20
0.0
 30
0.0
 70
   128
 71
     5
 72
    -6
 73
     7
  0
VERTEX
  5
E76
  8
VANA
 10
0.0
 20
0.0
 30
0.0
 70
   128
 71
    10
 72
     6
 73
    -5
  0
VERTEX
  5
E77
  8
VANA
 10
0.0
 20
0.0
 30
0.0
 70
   128
 71
     9
 72
   -10
 73
     5
  0
VERTEX
  5
E78
  8
VANA
 10
0.0
 20
0.0
 30
0.0
 70
   128
 71
     3
 72
     2
 73
   -10
  0
VERTEX
  5
E79
  8
VANA
 10
0.0
 20
0.0
 30
0.0
 70
   128
 71
     9
 72
    -3
 73
    10
  0
SEQEND
  5
137C
  8
VANA
  0
POLYLINE
  5
E7A
  8
VANA
 66
     1
 10
0.0
 20
0.0
 30
0.0
 70
    64
 71
    10
 72
     8
  0
VERTEX
  5
E7B
  8
VANA
 10
-0.0000000000000041
 20
-26.5
 30
-205.0000000000003
 70
   192
  0
VERTEX
  5
E7C
  8
VANA
 10
0.0000000000000014
 20
-26.5
 30
-295.0000000000003
 70
   192
  0
VERTEX
  5
E7D
  8
VANA
 10
0.000000000000003
 20
-23.50000000000002
 30
-307.5000000000003
 70
   192
  0
VERTEX
  5
E7E
  8
VANA
 10
-0.0000000000000041
 20
-23.50000000000002
 30
-192.5000000000003
 70
   192
  0
VERTEX
  5
E7F
  8
VANA
 10
57.5
 20
-23.5
 30
-250.0000000000003
 70
   192
  0
VERTEX
  5
E80
  8
VANA
 10
45.00000000000001
 20
-26.5
 30
-250.0000000000003
 70
   192
  0
VERTEX
  5
E81
  8
VANA
 10
40.65863991822647
 20
-23.5
 30
-209.3413600817738
 70
   192
  0
VERTEX
  5
E82
  8
VANA
 10
31.81980515339465
 20
-26.5
 30
-218.1801948466056
 70
   192
  0
VERTEX
  5
E83
  8
VANA
 10
40.65863991822648
 20
-23.5
 30
-290.6586399182268
 70
   192
  0
VERTEX
  5
E84
  8
VANA
 10
31.81980515339465
 20
-26.5
 30
-281.819805153395
 70
   192
  0
VERTEX
  5
E85
  8
VANA
 10
0.0
 20
0.0
 30
0.0
 70
   128
 71
     8
 72
     1
 73
    -4
  0
VERTEX
  5
E86
  8
VANA
 10
0.0
 20
0.0
 30
0.0
 70
   128
 71
     7
 72
    -8
 73
     4
  0
VERTEX
  5
E87
  8
VANA
 10
0.0
 20
0.0
 30
0.0
 70
   128
 71
     6
 72
     8
 73
    -7
  0
VERTEX
  5
E88
  8
VANA
 10
0.0
 20
0.0
 30
0.0
 70
   128
 71
     5
 72
    -6
 73
     7
  0
VERTEX
  5
E89
  8
VANA
 10
0.0
 20
0.0
 30
0.0
 70
   128
 71
    10
 72
     6
 73
    -5
  0
VERTEX
  5
E8A
  8
VANA
 10
0.0
 20
0.0
 30
0.0
 70
   128
 71
     9
 72
   -10
 73
     5
  0
VERTEX
  5
E8B
  8
VANA
 10
0.0
 20
0.0
 30
0.0
 70
   128
 71
     3
 72
     2
 73
   -10
  0
VERTEX
  5
E8C
  8
VANA
 10
0.0
 20
0.0
 30
0.0
 70
   128
 71
     9
 72
    -3
 73
    10
  0
SEQEND
  5
137D
  8
VANA
  0
ENDBLK
  5
1369
  8
0
  0
BLOCK
  8
0
  2
*X2
 70
     1
 10
0.0
 20
0.0
 30
0.0
  3
*X2
  1

  0
POLYLINE
  5
E8E
  8
ODPAD
 66
     1
 10
0.0
 20
0.0
 30
0.0
 70
    64
 71
     4
 72
     2
  0
VERTEX
  5
E8F
  8
ODPAD
 10
-62.0
 20
-20.99999999999999
 30
-312.0000000000003
 70
   192
  0
VERTEX
  5
E90
  8
ODPAD
 10
-62.0
 20
-19.99999999999999
 30
-312.0000000000003
 70
   192
  0
VERTEX
  5
E91
  8
ODPAD
 10
-62.0
 20
-19.99999999999999
 30
-188.0000000000003
 70
   192
  0
VERTEX
  5
E92
  8
ODPAD
 10
-62.0
 20
-20.99999999999999
 30
-188.0000000000003
 70
   192
  0
VERTEX
  5
E93
  8
ODPAD
 10
0.0
 20
0.0
 30
0.0
 70
   128
 71
     1
 72
     4
 73
    -3
  0
VERTEX
  5
E94
  8
ODPAD
 10
0.0
 20
0.0
 30
0.0
 70
   128
 71
    -1
 72
     3
 73
     2
  0
SEQEND
  5
1380
  8
ODPAD
  0
POLYLINE
  5
E95
  8
ODPAD
 66
     1
 10
0.0
 20
0.0
 30
0.0
 70
    64
 71
     4
 72
     2
  0
VERTEX
  5
E96
  8
ODPAD
 10
-62.0
 20
-20.99999999999999
 30
-188.0000000000003
 70
   192
  0
VERTEX
  5
E97
  8
ODPAD
 10
-62.0
 20
-19.99999999999999
 30
-188.0000000000003
 70
   192
  0
VERTEX
  5
E98
  8
ODPAD
 10
62.0
 20
-19.99999999999999
 30
-188.0000000000003
 70
   192
  0
VERTEX
  5
E99
  8
ODPAD
 10
62.0
 20
-20.99999999999999
 30
-188.0000000000003
 70
   192
  0
VERTEX
  5
E9A
  8
ODPAD
 10
0.0
 20
0.0
 30
0.0
 70
   128
 71
     1
 72
     4
 73
    -3
  0
VERTEX
  5
E9B
  8
ODPAD
 10
0.0
 20
0.0
 30
0.0
 70
   128
 71
    -1
 72
     3
 73
     2
  0
SEQEND
  5
1381
  8
ODPAD
  0
POLYLINE
  5
E9C
  8
ODPAD
 66
     1
 10
0.0
 20
0.0
 30
0.0
 70
    64
 71
     4
 72
     2
  0
VERTEX
  5
E9D
  8
ODPAD
 10
62.0
 20
-20.99999999999999
 30
-188.0000000000003
 70
   192
  0
VERTEX
  5
E9E
  8
ODPAD
 10
62.0
 20
-19.99999999999999
 30
-188.0000000000003
 70
   192
  0
VERTEX
  5
E9F
  8
ODPAD
 10
62.0
 20
-19.99999999999999
 30
-312.0000000000003
 70
   192
  0
VERTEX
  5
EA0
  8
ODPAD
 10
62.0
 20
-20.99999999999999
 30
-312.0000000000003
 70
   192
  0
VERTEX
  5
EA1
  8
ODPAD
 10
0.0
 20
0.0
 30
0.0
 70
   128
 71
     1
 72
     4
 73
    -3
  0
VERTEX
  5
EA2
  8
ODPAD
 10
0.0
 20
0.0
 30
0.0
 70
   128
 71
    -1
 72
     3
 73
     2
  0
SEQEND
  5
1382
  8
ODPAD
  0
POLYLINE
  5
EA3
  8
ODPAD
 66
     1
 10
0.0
 20
0.0
 30
0.0
 70
    64
 71
     4
 72
     2
  0
VERTEX
  5
EA4
  8
ODPAD
 10
62.0
 20
-20.99999999999999
 30
-312.0000000000003
 70
   192
  0
VERTEX
  5
EA5
  8
ODPAD
 10
62.0
 20
-19.99999999999999
 30
-312.0000000000003
 70
   192
  0
VERTEX
  5
EA6
  8
ODPAD
 10
-62.0
 20
-19.99999999999999
 30
-312.0000000000003
 70
   192
  0
VERTEX
  5
EA7
  8
ODPAD
 10
-62.0
 20
-20.99999999999999
 30
-312.0000000000003
 70
   192
  0
VERTEX
  5
EA8
  8
ODPAD
 10
0.0
 20
0.0
 30
0.0
 70
   128
 71
     1
 72
     4
 73
    -3
  0
VERTEX
  5
EA9
  8
ODPAD
 10
0.0
 20
0.0
 30
0.0
 70
   128
 71
    -1
 72
     3
 73
     2
  0
SEQEND
  5
1383
  8
ODPAD
  0
POLYLINE
  5
EAA
  8
ODPAD
 66
     1
 10
0.0
 20
0.0
 30
0.0
 70
    64
 71
   104
 72
   152
  0
VERTEX
  5
EAB
  8
ODPAD
 10
-62.0
 20
-19.99999999999999
 30
-312.0000000000003
 70
   192
  0
VERTEX
  5
EAC
  8
ODPAD
 10
-62.0
 20
-19.99999999999999
 30
-188.0000000000003
 70
   192
  0
VERTEX
  5
EAD
  8
ODPAD
 10
62.0
 20
-19.99999999999999
 30
-188.0000000000003
 70
   192
  0
VERTEX
  5
EAE
  8
ODPAD
 10
62.0
 20
-19.99999999999999
 30
-312.0000000000003
 70
   192
  0
VERTEX
  5
EAF
  8
ODPAD
 10
-4.500000000000338
 20
-19.99999999999999
 30
-278.5000000000003
 70
   192
  0
VERTEX
  5
EB0
  8
ODPAD
 10
-4.500000000000338
 20
-19.99999999999999
 30
-287.5000000000003
 70
   192
  0
VERTEX
  5
EB1
  8
ODPAD
 10
4.499999999999657
 20
-19.99999999999999
 30
-287.5000000000003
 70
   192
  0
VERTEX
  5
EB2
  8
ODPAD
 10
4.499999999999657
 20
-19.99999999999999
 30
-278.5000000000003
 70
   192
  0
VERTEX
  5
EB3
  8
ODPAD
 10
11.99999999999965
 20
-19.99999999999999
 30
-278.5000000000003
 70
   192
  0
VERTEX
  5
EB4
  8
ODPAD
 10
11.99999999999965
 20
-19.99999999999999
 30
-287.5000000000003
 70
   192
  0
VERTEX
  5
EB5
  8
ODPAD
 10
20.99999999999966
 20
-19.99999999999999
 30
-287.5000000000003
 70
   192
  0
VERTEX
  5
EB6
  8
ODPAD
 10
20.99999999999966
 20
-19.99999999999999
 30
-278.5000000000003
 70
   192
  0
VERTEX
  5
EB7
  8
ODPAD
 10
28.49999999999967
 20
-19.99999999999999
 30
-278.5000000000003
 70
   192
  0
VERTEX
  5
EB8
  8
ODPAD
 10
28.49999999999967
 20
-19.99999999999999
 30
-287.5000000000003
 70
   192
  0
VERTEX
  5
EB9
  8
ODPAD
 10
37.49999999999966
 20
-19.99999999999999
 30
-287.5000000000003
 70
   192
  0
VERTEX
  5
EBA
  8
ODPAD
 10
37.49999999999966
 20
-19.99999999999999
 30
-278.5000000000003
 70
   192
  0
VERTEX
  5
EBB
  8
ODPAD
 10
-21.00000000000017
 20
-19.99999999999999
 30
-262.0000000000003
 70
   192
  0
VERTEX
  5
EBC
  8
ODPAD
 10
-21.00000000000017
 20
-19.99999999999999
 30
-271.0000000000002
 70
   192
  0
VERTEX
  5
EBD
  8
ODPAD
 10
-12.00000000000018
 20
-19.99999999999999
 30
-271.0000000000002
 70
   192
  0
VERTEX
  5
EBE
  8
ODPAD
 10
-12.00000000000018
 20
-19.99999999999999
 30
-262.0000000000003
 70
   192
  0
VERTEX
  5
EBF
  8
ODPAD
 10
-4.500000000000171
 20
-19.99999999999999
 30
-262.0000000000003
 70
   192
  0
VERTEX
  5
EC0
  8
ODPAD
 10
-4.500000000000171
 20
-19.99999999999999
 30
-271.0000000000002
 70
   192
  0
VERTEX
  5
EC1
  8
ODPAD
 10
4.499999999999823
 20
-19.99999999999999
 30
-271.0000000000002
 70
   192
  0
VERTEX
  5
EC2
  8
ODPAD
 10
4.499999999999823
 20
-19.99999999999999
 30
-262.0000000000003
 70
   192
  0
VERTEX
  5
EC3
  8
ODPAD
 10
11.99999999999983
 20
-19.99999999999999
 30
-262.0000000000003
 70
   192
  0
VERTEX
  5
EC4
  8
ODPAD
 10
11.99999999999983
 20
-19.99999999999999
 30
-271.0000000000002
 70
   192
  0
VERTEX
  5
EC5
  8
ODPAD
 10
20.99999999999983
 20
-19.99999999999999
 30
-271.0000000000002
 70
   192
  0
VERTEX
  5
EC6
  8
ODPAD
 10
20.99999999999983
 20
-19.99999999999999
 30
-262.0000000000003
 70
   192
  0
VERTEX
  5
EC7
  8
ODPAD
 10
28.49999999999983
 20
-19.99999999999999
 30
-262.0000000000003
 70
   192
  0
VERTEX
  5
EC8
  8
ODPAD
 10
28.49999999999983
 20
-19.99999999999999
 30
-271.0000000000002
 70
   192
  0
VERTEX
  5
EC9
  8
ODPAD
 10
37.49999999999982
 20
-19.99999999999999
 30
-271.0000000000002
 70
   192
  0
VERTEX
  5
ECA
  8
ODPAD
 10
37.49999999999982
 20
-19.99999999999999
 30
-262.0000000000003
 70
   192
  0
VERTEX
  5
ECB
  8
ODPAD
 10
-21.0
 20
-19.99999999999999
 30
-245.5000000000003
 70
   192
  0
VERTEX
  5
ECC
  8
ODPAD
 10
-21.0
 20
-19.99999999999999
 30
-254.5000000000003
 70
   192
  0
VERTEX
  5
ECD
  8
ODPAD
 10
-12.0
 20
-19.99999999999999
 30
-254.5000000000003
 70
   192
  0
VERTEX
  5
ECE
  8
ODPAD
 10
-12.0
 20
-19.99999999999999
 30
-245.5000000000003
 70
   192
  0
VERTEX
  5
ECF
  8
ODPAD
 10
-4.500000000000004
 20
-19.99999999999999
 30
-245.5000000000003
 70
   192
  0
VERTEX
  5
ED0
  8
ODPAD
 10
-4.500000000000006
 20
-19.99999999999999
 30
-254.5000000000003
 70
   192
  0
VERTEX
  5
ED1
  8
ODPAD
 10
4.500000000000004
 20
-19.99999999999999
 30
-254.5000000000003
 70
   192
  0
VERTEX
  5
ED2
  8
ODPAD
 10
4.500000000000004
 20
-19.99999999999999
 30
-245.5000000000003
 70
   192
  0
VERTEX
  5
ED3
  8
ODPAD
 10
12.00000000000001
 20
-19.99999999999999
 30
-245.5000000000003
 70
   192
  0
VERTEX
  5
ED4
  8
ODPAD
 10
12.00000000000001
 20
-19.99999999999999
 30
-254.5000000000003
 70
   192
  0
VERTEX
  5
ED5
  8
ODPAD
 10
21.0
 20
-19.99999999999999
 30
-254.5000000000003
 70
   192
  0
VERTEX
  5
ED6
  8
ODPAD
 10
21.0
 20
-19.99999999999999
 30
-245.5000000000003
 70
   192
  0
VERTEX
  5
ED7
  8
ODPAD
 10
28.5
 20
-19.99999999999999
 30
-245.5000000000003
 70
   192
  0
VERTEX
  5
ED8
  8
ODPAD
 10
28.5
 20
-19.99999999999999
 30
-254.5000000000003
 70
   192
  0
VERTEX
  5
ED9
  8
ODPAD
 10
37.50000000000001
 20
-19.99999999999999
 30
-254.5000000000003
 70
   192
  0
VERTEX
  5
EDA
  8
ODPAD
 10
37.50000000000001
 20
-19.99999999999999
 30
-245.5000000000003
 70
   192
  0
VERTEX
  5
EDB
  8
ODPAD
 10
-20.99999999999983
 20
-19.99999999999999
 30
-229.0000000000003
 70
   192
  0
VERTEX
  5
EDC
  8
ODPAD
 10
-20.99999999999983
 20
-19.99999999999999
 30
-238.0000000000003
 70
   192
  0
VERTEX
  5
EDD
  8
ODPAD
 10
-11.99999999999983
 20
-19.99999999999999
 30
-238.0000000000003
 70
   192
  0
VERTEX
  5
EDE
  8
ODPAD
 10
-11.99999999999983
 20
-19.99999999999999
 30
-229.0000000000003
 70
   192
  0
VERTEX
  5
EDF
  8
ODPAD
 10
-4.499999999999823
 20
-19.99999999999999
 30
-229.0000000000003
 70
   192
  0
VERTEX
  5
EE0
  8
ODPAD
 10
-4.499999999999823
 20
-19.99999999999999
 30
-238.0000000000003
 70
   192
  0
VERTEX
  5
EE1
  8
ODPAD
 10
4.500000000000171
 20
-19.99999999999999
 30
-238.0000000000003
 70
   192
  0
VERTEX
  5
EE2
  8
ODPAD
 10
4.500000000000171
 20
-19.99999999999999
 30
-229.0000000000003
 70
   192
  0
VERTEX
  5
EE3
  8
ODPAD
 10
12.00000000000018
 20
-19.99999999999999
 30
-229.0000000000003
 70
   192
  0
VERTEX
  5
EE4
  8
ODPAD
 10
12.00000000000018
 20
-19.99999999999999
 30
-238.0000000000003
 70
   192
  0
VERTEX
  5
EE5
  8
ODPAD
 10
21.00000000000017
 20
-19.99999999999999
 30
-238.0000000000003
 70
   192
  0
VERTEX
  5
EE6
  8
ODPAD
 10
21.00000000000017
 20
-19.99999999999999
 30
-229.0000000000003
 70
   192
  0
VERTEX
  5
EE7
  8
ODPAD
 10
28.50000000000016
 20
-19.99999999999999
 30
-229.0000000000003
 70
   192
  0
VERTEX
  5
EE8
  8
ODPAD
 10
28.50000000000016
 20
-19.99999999999999
 30
-238.0000000000003
 70
   192
  0
VERTEX
  5
EE9
  8
ODPAD
 10
37.50000000000017
 20
-19.99999999999999
 30
-238.0000000000003
 70
   192
  0
VERTEX
  5
EEA
  8
ODPAD
 10
37.50000000000017
 20
-19.99999999999999
 30
-229.0000000000003
 70
   192
  0
VERTEX
  5
EEB
  8
ODPAD
 10
-20.99999999999966
 20
-19.99999999999999
 30
-212.5000000000003
 70
   192
  0
VERTEX
  5
EEC
  8
ODPAD
 10
-20.99999999999966
 20
-19.99999999999999
 30
-221.5000000000003
 70
   192
  0
VERTEX
  5
EED
  8
ODPAD
 10
-11.99999999999965
 20
-19.99999999999999
 30
-221.5000000000003
 70
   192
  0
VERTEX
  5
EEE
  8
ODPAD
 10
-11.99999999999965
 20
-19.99999999999999
 30
-212.5000000000003
 70
   192
  0
VERTEX
  5
EEF
  8
ODPAD
 10
-4.499999999999643
 20
-19.99999999999999
 30
-212.5000000000003
 70
   192
  0
VERTEX
  5
EF0
  8
ODPAD
 10
-4.499999999999643
 20
-19.99999999999999
 30
-221.5000000000003
 70
   192
  0
VERTEX
  5
EF1
  8
ODPAD
 10
4.500000000000351
 20
-19.99999999999999
 30
-221.5000000000003
 70
   192
  0
VERTEX
  5
EF2
  8
ODPAD
 10
4.500000000000351
 20
-19.99999999999999
 30
-212.5000000000003
 70
   192
  0
VERTEX
  5
EF3
  8
ODPAD
 10
12.00000000000034
 20
-19.99999999999999
 30
-212.5000000000003
 70
   192
  0
VERTEX
  5
EF4
  8
ODPAD
 10
12.00000000000034
 20
-19.99999999999999
 30
-221.5000000000003
 70
   192
  0
VERTEX
  5
EF5
  8
ODPAD
 10
21.00000000000035
 20
-19.99999999999999
 30
-221.5000000000003
 70
   192
  0
VERTEX
  5
EF6
  8
ODPAD
 10
21.00000000000035
 20
-19.99999999999999
 30
-212.5000000000003
 70
   192
  0
VERTEX
  5
EF7
  8
ODPAD
 10
28.50000000000036
 20
-19.99999999999999
 30
-212.5000000000003
 70
   192
  0
VERTEX
  5
EF8
  8
ODPAD
 10
28.50000000000036
 20
-19.99999999999999
 30
-221.5000000000003
 70
   192
  0
VERTEX
  5
EF9
  8
ODPAD
 10
37.50000000000036
 20
-19.99999999999999
 30
-221.5000000000003
 70
   192
  0
VERTEX
  5
EFA
  8
ODPAD
 10
37.50000000000036
 20
-19.99999999999999
 30
-212.5000000000003
 70
   192
  0
VERTEX
  5
EFB
  8
ODPAD
 10
-37.50000000000017
 20
-19.99999999999999
 30
-262.0000000000003
 70
   192
  0
VERTEX
  5
EFC
  8
ODPAD
 10
-37.50000000000017
 20
-19.99999999999999
 30
-271.0000000000002
 70
   192
  0
VERTEX
  5
EFD
  8
ODPAD
 10
-28.50000000000018
 20
-19.99999999999999
 30
-271.0000000000002
 70
   192
  0
VERTEX
  5
EFE
  8
ODPAD
 10
-28.50000000000018
 20
-19.99999999999999
 30
-262.0000000000003
 70
   192
  0
VERTEX
  5
EFF
  8
ODPAD
 10
-37.5
 20
-19.99999999999999
 30
-245.5000000000003
 70
   192
  0
VERTEX
  5
F00
  8
ODPAD
 10
-37.5
 20
-19.99999999999999
 30
-254.5000000000003
 70
   192
  0
VERTEX
  5
F01
  8
ODPAD
 10
-28.5
 20
-19.99999999999999
 30
-254.5000000000003
 70
   192
  0
VERTEX
  5
F02
  8
ODPAD
 10
-28.5
 20
-19.99999999999999
 30
-245.5000000000003
 70
   192
  0
VERTEX
  5
F03
  8
ODPAD
 10
-37.49999999999982
 20
-19.99999999999999
 30
-229.0000000000003
 70
   192
  0
VERTEX
  5
F04
  8
ODPAD
 10
-37.49999999999982
 20
-19.99999999999999
 30
-238.0000000000003
 70
   192
  0
VERTEX
  5
F05
  8
ODPAD
 10
-28.49999999999983
 20
-19.99999999999999
 30
-238.0000000000003
 70
   192
  0
VERTEX
  5
F06
  8
ODPAD
 10
-28.49999999999983
 20
-19.99999999999999
 30
-229.0000000000003
 70
   192
  0
VERTEX
  5
F07
  8
ODPAD
 10
-37.49999999999965
 20
-19.99999999999999
 30
-212.5000000000003
 70
   192
  0
VERTEX
  5
F08
  8
ODPAD
 10
-37.49999999999965
 20
-19.99999999999999
 30
-221.5000000000003
 70
   192
  0
VERTEX
  5
F09
  8
ODPAD
 10
-28.49999999999966
 20
-19.99999999999999
 30
-221.5000000000003
 70
   192
  0
VERTEX
  5
F0A
  8
ODPAD
 10
-28.49999999999966
 20
-19.99999999999999
 30
-212.5000000000003
 70
   192
  0
VERTEX
  5
F0B
  8
ODPAD
 10
-37.50000000000035
 20
-19.99999999999999
 30
-278.5000000000003
 70
   192
  0
VERTEX
  5
F0C
  8
ODPAD
 10
-37.50000000000035
 20
-19.99999999999999
 30
-287.5000000000003
 70
   192
  0
VERTEX
  5
F0D
  8
ODPAD
 10
-28.50000000000034
 20
-19.99999999999999
 30
-287.5000000000003
 70
   192
  0
VERTEX
  5
F0E
  8
ODPAD
 10
-28.50000000000034
 20
-19.99999999999999
 30
-278.5000000000003
 70
   192
  0
VERTEX
  5
F0F
  8
ODPAD
 10
-21.00000000000034
 20
-19.99999999999999
 30
-278.5000000000003
 70
   192
  0
VERTEX
  5
F10
  8
ODPAD
 10
-21.00000000000034
 20
-19.99999999999999
 30
-287.5000000000003
 70
   192
  0
VERTEX
  5
F11
  8
ODPAD
 10
-12.00000000000034
 20
-19.99999999999999
 30
-287.5000000000003
 70
   192
  0
VERTEX
  5
F12
  8
ODPAD
 10
-12.00000000000034
 20
-19.99999999999999
 30
-278.5000000000003
 70
   192
  0
VERTEX
  5
F13
  8
ODPAD
 10
0.0
 20
0.0
 30
0.0
 70
   128
 71
   -97
 72
    81
 73
   -82
  0
VERTEX
  5
F14
  8
ODPAD
 10
0.0
 20
0.0
 30
0.0
 70
   128
 71
    -1
 72
   -81
 73
   -97
  0
VERTEX
  5
F15
  8
ODPAD
 10
0.0
 20
0.0
 30
0.0
 70
   128
 71
    97
 72
   -98
 73
    -1
  0
VERTEX
  5
F16
  8
ODPAD
 10
0.0
 20
0.0
 30
0.0
 70
   128
 71
    98
 72
   -99
 73
    -1
  0
VERTEX
  5
F17
  8
ODPAD
 10
0.0
 20
0.0
 30
0.0
 70
   128
 71
   -20
 72
    21
 73
   -22
  0
VERTEX
  5
F18
  8
ODPAD
 10
0.0
 20
0.0
 30
0.0
 70
   128
 71
    19
 72
   -20
 73
   -22
  0
VERTEX
  5
F19
  8
ODPAD
 10
0.0
 20
0.0
 30
0.0
 70
   128
 71
    -5
 72
   -19
 73
   -22
  0
VERTEX
  5
F1A
  8
ODPAD
 10
0.0
 20
0.0
 30
0.0
 70
   128
 71
   -23
 72
     8
 73
    -5
  0
VERTEX
  5
F1B
  8
ODPAD
 10
0.0
 20
0.0
 30
0.0
 70
   128
 71
    22
 72
   -23
 73
    -5
  0
VERTEX
  5
F1C
  8
ODPAD
 10
0.0
 20
0.0
 30
0.0
 70
   128
 71
   -23
 72
   -26
 73
    -8
  0
VERTEX
  5
F1D
  8
ODPAD
 10
0.0
 20
0.0
 30
0.0
 70
   128
 71
   -20
 72
   -35
 73
   -21
  0
VERTEX
  5
F1E
  8
ODPAD
 10
0.0
 20
0.0
 30
0.0
 70
   128
 71
   -36
 72
    37
 73
   -38
  0
VERTEX
  5
F1F
  8
ODPAD
 10
0.0
 20
0.0
 30
0.0
 70
   128
 71
    35
 72
   -36
 73
   -38
  0
VERTEX
  5
F20
  8
ODPAD
 10
0.0
 20
0.0
 30
0.0
 70
   128
 71
   -21
 72
   -35
 73
   -38
  0
VERTEX
  5
F21
  8
ODPAD
 10
0.0
 20
0.0
 30
0.0
 70
   128
 71
   -39
 72
    24
 73
   -21
  0
VERTEX
  5
F22
  8
ODPAD
 10
0.0
 20
0.0
 30
0.0
 70
   128
 71
    38
 72
   -39
 73
   -21
  0
VERTEX
  5
F23
  8
ODPAD
 10
0.0
 20
0.0
 30
0.0
 70
   128
 71
   -52
 72
    53
 73
   -54
  0
VERTEX
  5
F24
  8
ODPAD
 10
0.0
 20
0.0
 30
0.0
 70
   128
 71
    51
 72
   -52
 73
   -54
  0
VERTEX
  5
F25
  8
ODPAD
 10
0.0
 20
0.0
 30
0.0
 70
   128
 71
   -37
 72
   -51
 73
   -54
  0
VERTEX
  5
F26
  8
ODPAD
 10
0.0
 20
0.0
 30
0.0
 70
   128
 71
   -55
 72
    40
 73
   -37
  0
VERTEX
  5
F27
  8
ODPAD
 10
0.0
 20
0.0
 30
0.0
 70
   128
 71
    54
 72
   -55
 73
   -37
  0
VERTEX
  5
F28
  8
ODPAD
 10
0.0
 20
0.0
 30
0.0
 70
   128
 71
   -55
 72
   -58
 73
   -40
  0
VERTEX
  5
F29
  8
ODPAD
 10
0.0
 20
0.0
 30
0.0
 70
   128
 71
   -52
 72
   -67
 73
   -53
  0
VERTEX
  5
F2A
  8
ODPAD
 10
0.0
 20
0.0
 30
0.0
 70
   128
 71
   -62
 72
    59
 73
   -60
  0
VERTEX
  5
F2B
  8
ODPAD
 10
0.0
 20
0.0
 30
0.0
 70
   128
 71
    61
 72
   -62
 73
   -60
  0
VERTEX
  5
F2C
  8
ODPAD
 10
0.0
 20
0.0
 30
0.0
 70
   128
 71
   -60
 72
   -75
 73
   -61
  0
VERTEX
  5
F2D
  8
ODPAD
 10
0.0
 20
0.0
 30
0.0
 70
   128
 71
   -57
 72
    74
 73
   -75
  0
VERTEX
  5
F2E
  8
ODPAD
 10
0.0
 20
0.0
 30
0.0
 70
   128
 71
    60
 72
   -57
 73
   -75
  0
VERTEX
  5
F2F
  8
ODPAD
 10
0.0
 20
0.0
 30
0.0
 70
   128
 71
   -56
 72
   -74
 73
   -57
  0
VERTEX
  5
F30
  8
ODPAD
 10
0.0
 20
0.0
 30
0.0
 70
   128
 71
   -58
 72
    55
 73
   -56
  0
VERTEX
  5
F31
  8
ODPAD
 10
0.0
 20
0.0
 30
0.0
 70
   128
 71
    57
 72
   -58
 73
   -56
  0
VERTEX
  5
F32
  8
ODPAD
 10
0.0
 20
0.0
 30
0.0
 70
   128
 71
   -45
 72
   -59
 73
   -62
  0
VERTEX
  5
F33
  8
ODPAD
 10
0.0
 20
0.0
 30
0.0
 70
   128
 71
   -63
 72
    48
 73
   -45
  0
VERTEX
  5
F34
  8
ODPAD
 10
0.0
 20
0.0
 30
0.0
 70
   128
 71
    62
 72
   -63
 73
   -45
  0
VERTEX
  5
F35
  8
ODPAD
 10
0.0
 20
0.0
 30
0.0
 70
   128
 71
   -42
 72
   -24
 73
   -39
  0
VERTEX
  5
F36
  8
ODPAD
 10
0.0
 20
0.0
 30
0.0
 70
   128
 71
   -46
 72
    43
 73
   -44
  0
VERTEX
  5
F37
  8
ODPAD
 10
0.0
 20
0.0
 30
0.0
 70
   128
 71
    45
 72
   -46
 73
   -44
  0
VERTEX
  5
F38
  8
ODPAD
 10
0.0
 20
0.0
 30
0.0
 70
   128
 71
   -59
 72
   -45
 73
   -44
  0
VERTEX
  5
F39
  8
ODPAD
 10
0.0
 20
0.0
 30
0.0
 70
   128
 71
   -41
 72
    58
 73
   -59
  0
VERTEX
  5
F3A
  8
ODPAD
 10
0.0
 20
0.0
 30
0.0
 70
   128
 71
    44
 72
   -41
 73
   -59
  0
VERTEX
  5
F3B
  8
ODPAD
 10
0.0
 20
0.0
 30
0.0
 70
   128
 71
   -41
 72
   -40
 73
   -58
  0
VERTEX
  5
F3C
  8
ODPAD
 10
0.0
 20
0.0
 30
0.0
 70
   128
 71
   -42
 72
    39
 73
   -40
  0
VERTEX
  5
F3D
  8
ODPAD
 10
0.0
 20
0.0
 30
0.0
 70
   128
 71
    41
 72
   -42
 73
   -40
  0
VERTEX
  5
F3E
  8
ODPAD
 10
0.0
 20
0.0
 30
0.0
 70
   128
 71
   -30
 72
    27
 73
   -28
  0
VERTEX
  5
F3F
  8
ODPAD
 10
0.0
 20
0.0
 30
0.0
 70
   128
 71
    29
 72
   -30
 73
   -28
  0
VERTEX
  5
F40
  8
ODPAD
 10
0.0
 20
0.0
 30
0.0
 70
   128
 71
   -28
 72
   -43
 73
   -29
  0
VERTEX
  5
F41
  8
ODPAD
 10
0.0
 20
0.0
 30
0.0
 70
   128
 71
   -25
 72
    42
 73
   -43
  0
VERTEX
  5
F42
  8
ODPAD
 10
0.0
 20
0.0
 30
0.0
 70
   128
 71
    28
 72
   -25
 73
   -43
  0
VERTEX
  5
F43
  8
ODPAD
 10
0.0
 20
0.0
 30
0.0
 70
   128
 71
   -24
 72
   -42
 73
   -25
  0
VERTEX
  5
F44
  8
ODPAD
 10
0.0
 20
0.0
 30
0.0
 70
   128
 71
   -26
 72
    23
 73
   -24
  0
VERTEX
  5
F45
  8
ODPAD
 10
0.0
 20
0.0
 30
0.0
 70
   128
 71
    25
 72
   -26
 73
   -24
  0
VERTEX
  5
F46
  8
ODPAD
 10
0.0
 20
0.0
 30
0.0
 70
   128
 71
   -14
 72
    11
 73
   -12
  0
VERTEX
  5
F47
  8
ODPAD
 10
0.0
 20
0.0
 30
0.0
 70
   128
 71
    13
 72
   -14
 73
   -12
  0
VERTEX
  5
F48
  8
ODPAD
 10
0.0
 20
0.0
 30
0.0
 70
   128
 71
   -27
 72
   -13
 73
   -12
  0
VERTEX
  5
F49
  8
ODPAD
 10
0.0
 20
0.0
 30
0.0
 70
   128
 71
    -9
 72
    26
 73
   -27
  0
VERTEX
  5
F4A
  8
ODPAD
 10
0.0
 20
0.0
 30
0.0
 70
   128
 71
    12
 72
    -9
 73
   -27
  0
VERTEX
  5
F4B
  8
ODPAD
 10
0.0
 20
0.0
 30
0.0
 70
   128
 71
    -9
 72
    -8
 73
   -26
  0
VERTEX
  5
F4C
  8
ODPAD
 10
0.0
 20
0.0
 30
0.0
 70
   128
 71
    -8
 72
     9
 73
   -10
  0
VERTEX
  5
F4D
  8
ODPAD
 10
0.0
 20
0.0
 30
0.0
 70
   128
 71
     7
 72
    -8
 73
   -10
  0
VERTEX
  5
F4E
  8
ODPAD
 10
0.0
 20
0.0
 30
0.0
 70
   128
 71
    -4
 72
    -7
 73
   -10
  0
VERTEX
  5
F4F
  8
ODPAD
 10
0.0
 20
0.0
 30
0.0
 70
   128
 71
    10
 72
   -11
 73
    -4
  0
VERTEX
  5
F50
  8
ODPAD
 10
0.0
 20
0.0
 30
0.0
 70
   128
 71
    -4
 72
   -11
 73
   -14
  0
VERTEX
  5
F51
  8
ODPAD
 10
0.0
 20
0.0
 30
0.0
 70
   128
 71
    14
 72
   -15
 73
    -4
  0
VERTEX
  5
F52
  8
ODPAD
 10
0.0
 20
0.0
 30
0.0
 70
   128
 71
    15
 72
   -16
 73
    -4
  0
VERTEX
  5
F53
  8
ODPAD
 10
0.0
 20
0.0
 30
0.0
 70
   128
 71
   -16
 72
   -31
 73
    -4
  0
VERTEX
  5
F54
  8
ODPAD
 10
0.0
 20
0.0
 30
0.0
 70
   128
 71
   -13
 72
   -27
 73
   -30
  0
VERTEX
  5
F55
  8
ODPAD
 10
0.0
 20
0.0
 30
0.0
 70
   128
 71
   -31
 72
    16
 73
   -13
  0
VERTEX
  5
F56
  8
ODPAD
 10
0.0
 20
0.0
 30
0.0
 70
   128
 71
    30
 72
   -31
 73
   -13
  0
VERTEX
  5
F57
  8
ODPAD
 10
0.0
 20
0.0
 30
0.0
 70
   128
 71
    31
 72
   -32
 73
    -4
  0
VERTEX
  5
F58
  8
ODPAD
 10
0.0
 20
0.0
 30
0.0
 70
   128
 71
   -32
 72
   -47
 73
    -4
  0
VERTEX
  5
F59
  8
ODPAD
 10
0.0
 20
0.0
 30
0.0
 70
   128
 71
   -29
 72
   -43
 73
   -46
  0
VERTEX
  5
F5A
  8
ODPAD
 10
0.0
 20
0.0
 30
0.0
 70
   128
 71
   -47
 72
    32
 73
   -29
  0
VERTEX
  5
F5B
  8
ODPAD
 10
0.0
 20
0.0
 30
0.0
 70
   128
 71
    46
 72
   -47
 73
   -29
  0
VERTEX
  5
F5C
  8
ODPAD
 10
0.0
 20
0.0
 30
0.0
 70
   128
 71
   -48
 72
     3
 73
    -4
  0
VERTEX
  5
F5D
  8
ODPAD
 10
0.0
 20
0.0
 30
0.0
 70
   128
 71
    47
 72
   -48
 73
    -4
  0
VERTEX
  5
F5E
  8
ODPAD
 10
0.0
 20
0.0
 30
0.0
 70
   128
 71
   -48
 72
   -63
 73
    -3
  0
VERTEX
  5
F5F
  8
ODPAD
 10
0.0
 20
0.0
 30
0.0
 70
   128
 71
    63
 72
   -64
 73
    -3
  0
VERTEX
  5
F60
  8
ODPAD
 10
0.0
 20
0.0
 30
0.0
 70
   128
 71
   -76
 72
    -3
 73
   -77
  0
VERTEX
  5
F61
  8
ODPAD
 10
0.0
 20
0.0
 30
0.0
 70
   128
 71
   -78
 72
    75
 73
   -76
  0
VERTEX
  5
F62
  8
ODPAD
 10
0.0
 20
0.0
 30
0.0
 70
   128
 71
    77
 72
   -78
 73
   -76
  0
VERTEX
  5
F63
  8
ODPAD
 10
0.0
 20
0.0
 30
0.0
 70
   128
 71
   -78
 72
   -61
 73
   -75
  0
VERTEX
  5
F64
  8
ODPAD
 10
0.0
 20
0.0
 30
0.0
 70
   128
 71
   -79
 72
    64
 73
   -61
  0
VERTEX
  5
F65
  8
ODPAD
 10
0.0
 20
0.0
 30
0.0
 70
   128
 71
    78
 72
   -79
 73
   -61
  0
VERTEX
  5
F66
  8
ODPAD
 10
0.0
 20
0.0
 30
0.0
 70
   128
 71
    -3
 72
   -64
 73
   -79
  0
VERTEX
  5
F67
  8
ODPAD
 10
0.0
 20
0.0
 30
0.0
 70
   128
 71
    79
 72
   -80
 73
    -3
  0
VERTEX
  5
F68
  8
ODPAD
 10
0.0
 20
0.0
 30
0.0
 70
   128
 71
    80
 72
   -77
 73
    -3
  0
VERTEX
  5
F69
  8
ODPAD
 10
0.0
 20
0.0
 30
0.0
 70
   128
 71
    76
 72
   -73
 73
    -3
  0
VERTEX
  5
F6A
  8
ODPAD
 10
0.0
 20
0.0
 30
0.0
 70
   128
 71
   -68
 72
    69
 73
   -70
  0
VERTEX
  5
F6B
  8
ODPAD
 10
0.0
 20
0.0
 30
0.0
 70
   128
 71
    67
 72
   -68
 73
   -70
  0
VERTEX
  5
F6C
  8
ODPAD
 10
0.0
 20
0.0
 30
0.0
 70
   128
 71
   -70
 72
   -53
 73
   -67
  0
VERTEX
  5
F6D
  8
ODPAD
 10
0.0
 20
0.0
 30
0.0
 70
   128
 71
   -71
 72
    56
 73
   -53
  0
VERTEX
  5
F6E
  8
ODPAD
 10
0.0
 20
0.0
 30
0.0
 70
   128
 71
    70
 72
   -71
 73
   -53
  0
VERTEX
  5
F6F
  8
ODPAD
 10
0.0
 20
0.0
 30
0.0
 70
   128
 71
   -72
 72
    -3
 73
   -73
  0
VERTEX
  5
F70
  8
ODPAD
 10
0.0
 20
0.0
 30
0.0
 70
   128
 71
   -74
 72
   -56
 73
   -71
  0
VERTEX
  5
F71
  8
ODPAD
 10
0.0
 20
0.0
 30
0.0
 70
   128
 71
   -72
 72
    73
 73
   -74
  0
VERTEX
  5
F72
  8
ODPAD
 10
0.0
 20
0.0
 30
0.0
 70
   128
 71
    71
 72
   -72
 73
   -74
  0
VERTEX
  5
F73
  8
ODPAD
 10
0.0
 20
0.0
 30
0.0
 70
   128
 71
   -69
 72
     2
 73
    -3
  0
VERTEX
  5
F74
  8
ODPAD
 10
0.0
 20
0.0
 30
0.0
 70
   128
 71
    72
 72
   -69
 73
    -3
  0
VERTEX
  5
F75
  8
ODPAD
 10
0.0
 20
0.0
 30
0.0
 70
   128
 71
    -2
 72
   -69
 73
   -68
  0
VERTEX
  5
F76
  8
ODPAD
 10
0.0
 20
0.0
 30
0.0
 70
   128
 71
    68
 72
   -65
 73
    -2
  0
VERTEX
  5
F77
  8
ODPAD
 10
0.0
 20
0.0
 30
0.0
 70
   128
 71
   -66
 72
    95
 73
   -96
  0
VERTEX
  5
F78
  8
ODPAD
 10
0.0
 20
0.0
 30
0.0
 70
   128
 71
    65
 72
   -66
 73
   -96
  0
VERTEX
  5
F79
  8
ODPAD
 10
0.0
 20
0.0
 30
0.0
 70
   128
 71
    -2
 72
   -65
 73
   -96
  0
VERTEX
  5
F7A
  8
ODPAD
 10
0.0
 20
0.0
 30
0.0
 70
   128
 71
    96
 72
   -93
 73
    -2
  0
VERTEX
  5
F7B
  8
ODPAD
 10
0.0
 20
0.0
 30
0.0
 70
   128
 71
   -66
 72
   -49
 73
   -95
  0
VERTEX
  5
F7C
  8
ODPAD
 10
0.0
 20
0.0
 30
0.0
 70
   128
 71
   -67
 72
    52
 73
   -49
  0
VERTEX
  5
F7D
  8
ODPAD
 10
0.0
 20
0.0
 30
0.0
 70
   128
 71
    66
 72
   -67
 73
   -49
  0
VERTEX
  5
F7E
  8
ODPAD
 10
0.0
 20
0.0
 30
0.0
 70
   128
 71
    -2
 72
    93
 73
   -94
  0
VERTEX
  5
F7F
  8
ODPAD
 10
0.0
 20
0.0
 30
0.0
 70
   128
 71
   -50
 72
    91
 73
   -92
  0
VERTEX
  5
F80
  8
ODPAD
 10
0.0
 20
0.0
 30
0.0
 70
   128
 71
    49
 72
   -50
 73
   -92
  0
VERTEX
  5
F81
  8
ODPAD
 10
0.0
 20
0.0
 30
0.0
 70
   128
 71
   -92
 72
   -95
 73
   -49
  0
VERTEX
  5
F82
  8
ODPAD
 10
0.0
 20
0.0
 30
0.0
 70
   128
 71
   -89
 72
    94
 73
   -95
  0
VERTEX
  5
F83
  8
ODPAD
 10
0.0
 20
0.0
 30
0.0
 70
   128
 71
    92
 72
   -89
 73
   -95
  0
VERTEX
  5
F84
  8
ODPAD
 10
0.0
 20
0.0
 30
0.0
 70
   128
 71
    -2
 72
   -94
 73
   -89
  0
VERTEX
  5
F85
  8
ODPAD
 10
0.0
 20
0.0
 30
0.0
 70
   128
 71
   -89
 72
   -85
 73
    -2
  0
VERTEX
  5
F86
  8
ODPAD
 10
0.0
 20
0.0
 30
0.0
 70
   128
 71
   -51
 72
   -37
 73
   -36
  0
VERTEX
  5
F87
  8
ODPAD
 10
0.0
 20
0.0
 30
0.0
 70
   128
 71
   -33
 72
   -91
 73
   -50
  0
VERTEX
  5
F88
  8
ODPAD
 10
0.0
 20
0.0
 30
0.0
 70
   128
 71
   -51
 72
    36
 73
   -33
  0
VERTEX
  5
F89
  8
ODPAD
 10
0.0
 20
0.0
 30
0.0
 70
   128
 71
    50
 72
   -51
 73
   -33
  0
VERTEX
  5
F8A
  8
ODPAD
 10
0.0
 20
0.0
 30
0.0
 70
   128
 71
   -85
 72
    89
 73
   -90
  0
VERTEX
  5
F8B
  8
ODPAD
 10
0.0
 20
0.0
 30
0.0
 70
   128
 71
   -34
 72
    87
 73
   -88
  0
VERTEX
  5
F8C
  8
ODPAD
 10
0.0
 20
0.0
 30
0.0
 70
   128
 71
    33
 72
   -34
 73
   -88
  0
VERTEX
  5
F8D
  8
ODPAD
 10
0.0
 20
0.0
 30
0.0
 70
   128
 71
   -91
 72
   -33
 73
   -88
  0
VERTEX
  5
F8E
  8
ODPAD
 10
0.0
 20
0.0
 30
0.0
 70
   128
 71
   -85
 72
    90
 73
   -91
  0
VERTEX
  5
F8F
  8
ODPAD
 10
0.0
 20
0.0
 30
0.0
 70
   128
 71
    88
 72
   -85
 73
   -91
  0
VERTEX
  5
F90
  8
ODPAD
 10
0.0
 20
0.0
 30
0.0
 70
   128
 71
   -17
 72
   -87
 73
   -34
  0
VERTEX
  5
F91
  8
ODPAD
 10
0.0
 20
0.0
 30
0.0
 70
   128
 71
   -35
 72
    20
 73
   -17
  0
VERTEX
  5
F92
  8
ODPAD
 10
0.0
 20
0.0
 30
0.0
 70
   128
 71
    34
 72
   -35
 73
   -17
  0
VERTEX
  5
F93
  8
ODPAD
 10
0.0
 20
0.0
 30
0.0
 70
   128
 71
    -2
 72
    85
 73
   -86
  0
VERTEX
  5
F94
  8
ODPAD
 10
0.0
 20
0.0
 30
0.0
 70
   128
 71
     1
 72
    -2
 73
   -86
  0
VERTEX
  5
F95
  8
ODPAD
 10
0.0
 20
0.0
 30
0.0
 70
   128
 71
   -18
 72
    83
 73
   -84
  0
VERTEX
  5
F96
  8
ODPAD
 10
0.0
 20
0.0
 30
0.0
 70
   128
 71
    17
 72
   -18
 73
   -84
  0
VERTEX
  5
F97
  8
ODPAD
 10
0.0
 20
0.0
 30
0.0
 70
   128
 71
   -84
 72
   -87
 73
   -17
  0
VERTEX
  5
F98
  8
ODPAD
 10
0.0
 20
0.0
 30
0.0
 70
   128
 71
   -81
 72
    86
 73
   -87
  0
VERTEX
  5
F99
  8
ODPAD
 10
0.0
 20
0.0
 30
0.0
 70
   128
 71
    84
 72
   -81
 73
   -87
  0
VERTEX
  5
F9A
  8
ODPAD
 10
0.0
 20
0.0
 30
0.0
 70
   128
 71
   -81
 72
    -1
 73
   -86
  0
VERTEX
  5
F9B
  8
ODPAD
 10
0.0
 20
0.0
 30
0.0
 70
   128
 71
  -102
 72
    -1
 73
   -99
  0
VERTEX
  5
F9C
  8
ODPAD
 10
0.0
 20
0.0
 30
0.0
 70
   128
 71
  -100
 72
   101
 73
  -102
  0
VERTEX
  5
F9D
  8
ODPAD
 10
0.0
 20
0.0
 30
0.0
 70
   128
 71
    99
 72
  -100
 73
  -102
  0
VERTEX
  5
F9E
  8
ODPAD
 10
0.0
 20
0.0
 30
0.0
 70
   128
 71
   102
 72
  -103
 73
    -1
  0
VERTEX
  5
F9F
  8
ODPAD
 10
0.0
 20
0.0
 30
0.0
 70
   128
 71
  -103
 72
    -6
 73
    -1
  0
VERTEX
  5
FA0
  8
ODPAD
 10
0.0
 20
0.0
 30
0.0
 70
   128
 71
  -104
 72
     5
 73
    -6
  0
VERTEX
  5
FA1
  8
ODPAD
 10
0.0
 20
0.0
 30
0.0
 70
   128
 71
   103
 72
  -104
 73
    -6
  0
VERTEX
  5
FA2
  8
ODPAD
 10
0.0
 20
0.0
 30
0.0
 70
   128
 71
  -101
 72
   -83
 73
   -18
  0
VERTEX
  5
FA3
  8
ODPAD
 10
0.0
 20
0.0
 30
0.0
 70
   128
 71
   -19
 72
    -5
 73
  -104
  0
VERTEX
  5
FA4
  8
ODPAD
 10
0.0
 20
0.0
 30
0.0
 70
   128
 71
  -101
 72
    18
 73
   -19
  0
VERTEX
  5
FA5
  8
ODPAD
 10
0.0
 20
0.0
 30
0.0
 70
   128
 71
   104
 72
  -101
 73
   -19
  0
VERTEX
  5
FA6
  8
ODPAD
 10
0.0
 20
0.0
 30
0.0
 70
   128
 71
    -7
 72
     4
 73
    -1
  0
VERTEX
  5
FA7
  8
ODPAD
 10
0.0
 20
0.0
 30
0.0
 70
   128
 71
     6
 72
    -7
 73
    -1
  0
VERTEX
  5
FA8
  8
ODPAD
 10
0.0
 20
0.0
 30
0.0
 70
   128
 71
   -83
 72
  -101
 73
  -100
  0
VERTEX
  5
FA9
  8
ODPAD
 10
0.0
 20
0.0
 30
0.0
 70
   128
 71
   -97
 72
    82
 73
   -83
  0
VERTEX
  5
FAA
  8
ODPAD
 10
0.0
 20
0.0
 30
0.0
 70
   128
 71
   100
 72
   -97
 73
   -83
  0
SEQEND
  5
1384
  8
ODPAD
  0
POLYLINE
  5
FAB
  8
ODPAD
 66
     1
 10
0.0
 20
0.0
 30
0.0
 70
    64
 71
   104
 72
   152
  0
VERTEX
  5
FAC
  8
ODPAD
 10
-62.0
 20
-20.99999999999999
 30
-188.0000000000003
 70
   192
  0
VERTEX
  5
FAD
  8
ODPAD
 10
62.0
 20
-20.99999999999999
 30
-188.0000000000003
 70
   192
  0
VERTEX
  5
FAE
  8
ODPAD
 10
62.0
 20
-20.99999999999999
 30
-312.0000000000003
 70
   192
  0
VERTEX
  5
FAF
  8
ODPAD
 10
-62.0
 20
-20.99999999999999
 30
-312.0000000000003
 70
   192
  0
VERTEX
  5
FB0
  8
ODPAD
 10
4.499999999999657
 20
-20.99999999999999
 30
-287.5000000000003
 70
   192
  0
VERTEX
  5
FB1
  8
ODPAD
 10
4.499999999999657
 20
-20.99999999999999
 30
-278.5000000000003
 70
   192
  0
VERTEX
  5
FB2
  8
ODPAD
 10
-4.500000000000338
 20
-20.99999999999999
 30
-278.5000000000003
 70
   192
  0
VERTEX
  5
FB3
  8
ODPAD
 10
-4.500000000000338
 20
-20.99999999999999
 30
-287.5000000000003
 70
   192
  0
VERTEX
  5
FB4
  8
ODPAD
 10
20.99999999999966
 20
-20.99999999999999
 30
-287.5000000000003
 70
   192
  0
VERTEX
  5
FB5
  8
ODPAD
 10
20.99999999999966
 20
-20.99999999999999
 30
-278.5000000000003
 70
   192
  0
VERTEX
  5
FB6
  8
ODPAD
 10
11.99999999999965
 20
-20.99999999999999
 30
-278.5000000000003
 70
   192
  0
VERTEX
  5
FB7
  8
ODPAD
 10
11.99999999999965
 20
-20.99999999999999
 30
-287.5000000000003
 70
   192
  0
VERTEX
  5
FB8
  8
ODPAD
 10
37.49999999999966
 20
-20.99999999999999
 30
-287.5000000000003
 70
   192
  0
VERTEX
  5
FB9
  8
ODPAD
 10
37.49999999999966
 20
-20.99999999999999
 30
-278.5000000000003
 70
   192
  0
VERTEX
  5
FBA
  8
ODPAD
 10
28.49999999999967
 20
-20.99999999999999
 30
-278.5000000000003
 70
   192
  0
VERTEX
  5
FBB
  8
ODPAD
 10
28.49999999999967
 20
-20.99999999999999
 30
-287.5000000000003
 70
   192
  0
VERTEX
  5
FBC
  8
ODPAD
 10
-12.00000000000018
 20
-20.99999999999999
 30
-271.0000000000002
 70
   192
  0
VERTEX
  5
FBD
  8
ODPAD
 10
-12.00000000000018
 20
-20.99999999999999
 30
-262.0000000000003
 70
   192
  0
VERTEX
  5
FBE
  8
ODPAD
 10
-21.00000000000017
 20
-20.99999999999999
 30
-262.0000000000003
 70
   192
  0
VERTEX
  5
FBF
  8
ODPAD
 10
-21.00000000000017
 20
-20.99999999999999
 30
-271.0000000000002
 70
   192
  0
VERTEX
  5
FC0
  8
ODPAD
 10
4.499999999999823
 20
-20.99999999999999
 30
-271.0000000000002
 70
   192
  0
VERTEX
  5
FC1
  8
ODPAD
 10
4.499999999999823
 20
-20.99999999999999
 30
-262.0000000000003
 70
   192
  0
VERTEX
  5
FC2
  8
ODPAD
 10
-4.500000000000171
 20
-20.99999999999999
 30
-262.0000000000003
 70
   192
  0
VERTEX
  5
FC3
  8
ODPAD
 10
-4.50000000000017
 20
-20.99999999999999
 30
-271.0000000000002
 70
   192
  0
VERTEX
  5
FC4
  8
ODPAD
 10
20.99999999999983
 20
-20.99999999999999
 30
-271.0000000000002
 70
   192
  0
VERTEX
  5
FC5
  8
ODPAD
 10
20.99999999999983
 20
-20.99999999999999
 30
-262.0000000000003
 70
   192
  0
VERTEX
  5
FC6
  8
ODPAD
 10
11.99999999999983
 20
-20.99999999999999
 30
-262.0000000000003
 70
   192
  0
VERTEX
  5
FC7
  8
ODPAD
 10
11.99999999999983
 20
-20.99999999999999
 30
-271.0000000000002
 70
   192
  0
VERTEX
  5
FC8
  8
ODPAD
 10
37.49999999999982
 20
-20.99999999999999
 30
-271.0000000000002
 70
   192
  0
VERTEX
  5
FC9
  8
ODPAD
 10
37.49999999999982
 20
-20.99999999999999
 30
-262.0000000000003
 70
   192
  0
VERTEX
  5
FCA
  8
ODPAD
 10
28.49999999999983
 20
-20.99999999999999
 30
-262.0000000000003
 70
   192
  0
VERTEX
  5
FCB
  8
ODPAD
 10
28.49999999999983
 20
-20.99999999999999
 30
-271.0000000000002
 70
   192
  0
VERTEX
  5
FCC
  8
ODPAD
 10
-12.0
 20
-20.99999999999999
 30
-254.5000000000003
 70
   192
  0
VERTEX
  5
FCD
  8
ODPAD
 10
-12.0
 20
-20.99999999999999
 30
-245.5000000000003
 70
   192
  0
VERTEX
  5
FCE
  8
ODPAD
 10
-21.0
 20
-20.99999999999999
 30
-245.5000000000003
 70
   192
  0
VERTEX
  5
FCF
  8
ODPAD
 10
-21.0
 20
-20.99999999999999
 30
-254.5000000000003
 70
   192
  0
VERTEX
  5
FD0
  8
ODPAD
 10
4.500000000000004
 20
-20.99999999999999
 30
-254.5000000000003
 70
   192
  0
VERTEX
  5
FD1
  8
ODPAD
 10
4.500000000000004
 20
-20.99999999999999
 30
-245.5000000000003
 70
   192
  0
VERTEX
  5
FD2
  8
ODPAD
 10
-4.500000000000004
 20
-20.99999999999999
 30
-245.5000000000003
 70
   192
  0
VERTEX
  5
FD3
  8
ODPAD
 10
-4.500000000000004
 20
-20.99999999999999
 30
-254.5000000000003
 70
   192
  0
VERTEX
  5
FD4
  8
ODPAD
 10
21.0
 20
-20.99999999999999
 30
-254.5000000000003
 70
   192
  0
VERTEX
  5
FD5
  8
ODPAD
 10
21.0
 20
-20.99999999999999
 30
-245.5000000000003
 70
   192
  0
VERTEX
  5
FD6
  8
ODPAD
 10
12.00000000000001
 20
-20.99999999999999
 30
-245.5000000000003
 70
   192
  0
VERTEX
  5
FD7
  8
ODPAD
 10
12.00000000000001
 20
-20.99999999999999
 30
-254.5000000000003
 70
   192
  0
VERTEX
  5
FD8
  8
ODPAD
 10
37.50000000000001
 20
-20.99999999999999
 30
-254.5000000000003
 70
   192
  0
VERTEX
  5
FD9
  8
ODPAD
 10
37.50000000000001
 20
-20.99999999999999
 30
-245.5000000000003
 70
   192
  0
VERTEX
  5
FDA
  8
ODPAD
 10
28.5
 20
-20.99999999999999
 30
-245.5000000000003
 70
   192
  0
VERTEX
  5
FDB
  8
ODPAD
 10
28.5
 20
-20.99999999999999
 30
-254.5000000000003
 70
   192
  0
VERTEX
  5
FDC
  8
ODPAD
 10
-11.99999999999983
 20
-20.99999999999999
 30
-238.0000000000003
 70
   192
  0
VERTEX
  5
FDD
  8
ODPAD
 10
-11.99999999999983
 20
-20.99999999999999
 30
-229.0000000000003
 70
   192
  0
VERTEX
  5
FDE
  8
ODPAD
 10
-20.99999999999983
 20
-20.99999999999999
 30
-229.0000000000003
 70
   192
  0
VERTEX
  5
FDF
  8
ODPAD
 10
-20.99999999999983
 20
-20.99999999999999
 30
-238.0000000000003
 70
   192
  0
VERTEX
  5
FE0
  8
ODPAD
 10
4.500000000000171
 20
-20.99999999999999
 30
-238.0000000000003
 70
   192
  0
VERTEX
  5
FE1
  8
ODPAD
 10
4.500000000000171
 20
-20.99999999999999
 30
-229.0000000000003
 70
   192
  0
VERTEX
  5
FE2
  8
ODPAD
 10
-4.499999999999823
 20
-20.99999999999999
 30
-229.0000000000003
 70
   192
  0
VERTEX
  5
FE3
  8
ODPAD
 10
-4.499999999999822
 20
-20.99999999999999
 30
-238.0000000000003
 70
   192
  0
VERTEX
  5
FE4
  8
ODPAD
 10
21.00000000000017
 20
-20.99999999999999
 30
-238.0000000000003
 70
   192
  0
VERTEX
  5
FE5
  8
ODPAD
 10
21.00000000000017
 20
-20.99999999999999
 30
-229.0000000000003
 70
   192
  0
VERTEX
  5
FE6
  8
ODPAD
 10
12.00000000000018
 20
-20.99999999999999
 30
-229.0000000000003
 70
   192
  0
VERTEX
  5
FE7
  8
ODPAD
 10
12.00000000000018
 20
-20.99999999999999
 30
-238.0000000000003
 70
   192
  0
VERTEX
  5
FE8
  8
ODPAD
 10
37.50000000000017
 20
-20.99999999999999
 30
-238.0000000000003
 70
   192
  0
VERTEX
  5
FE9
  8
ODPAD
 10
37.50000000000017
 20
-20.99999999999999
 30
-229.0000000000003
 70
   192
  0
VERTEX
  5
FEA
  8
ODPAD
 10
28.50000000000016
 20
-20.99999999999999
 30
-229.0000000000003
 70
   192
  0
VERTEX
  5
FEB
  8
ODPAD
 10
28.50000000000016
 20
-20.99999999999999
 30
-238.0000000000003
 70
   192
  0
VERTEX
  5
FEC
  8
ODPAD
 10
-11.99999999999965
 20
-20.99999999999999
 30
-221.5000000000003
 70
   192
  0
VERTEX
  5
FED
  8
ODPAD
 10
-11.99999999999965
 20
-20.99999999999999
 30
-212.5000000000003
 70
   192
  0
VERTEX
  5
FEE
  8
ODPAD
 10
-20.99999999999966
 20
-20.99999999999999
 30
-212.5000000000003
 70
   192
  0
VERTEX
  5
FEF
  8
ODPAD
 10
-20.99999999999966
 20
-20.99999999999999
 30
-221.5000000000003
 70
   192
  0
VERTEX
  5
FF0
  8
ODPAD
 10
4.500000000000351
 20
-20.99999999999999
 30
-221.5000000000003
 70
   192
  0
VERTEX
  5
FF1
  8
ODPAD
 10
4.500000000000351
 20
-20.99999999999999
 30
-212.5000000000003
 70
   192
  0
VERTEX
  5
FF2
  8
ODPAD
 10
-4.499999999999643
 20
-20.99999999999999
 30
-212.5000000000003
 70
   192
  0
VERTEX
  5
FF3
  8
ODPAD
 10
-4.499999999999642
 20
-20.99999999999999
 30
-221.5000000000003
 70
   192
  0
VERTEX
  5
FF4
  8
ODPAD
 10
21.00000000000035
 20
-20.99999999999999
 30
-221.5000000000003
 70
   192
  0
VERTEX
  5
FF5
  8
ODPAD
 10
21.00000000000035
 20
-20.99999999999999
 30
-212.5000000000003
 70
   192
  0
VERTEX
  5
FF6
  8
ODPAD
 10
12.00000000000034
 20
-20.99999999999999
 30
-212.5000000000003
 70
   192
  0
VERTEX
  5
FF7
  8
ODPAD
 10
12.00000000000034
 20
-20.99999999999999
 30
-221.5000000000003
 70
   192
  0
VERTEX
  5
FF8
  8
ODPAD
 10
37.50000000000036
 20
-20.99999999999999
 30
-221.5000000000003
 70
   192
  0
VERTEX
  5
FF9
  8
ODPAD
 10
37.50000000000036
 20
-20.99999999999999
 30
-212.5000000000003
 70
   192
  0
VERTEX
  5
FFA
  8
ODPAD
 10
28.50000000000036
 20
-20.99999999999999
 30
-212.5000000000003
 70
   192
  0
VERTEX
  5
FFB
  8
ODPAD
 10
28.50000000000036
 20
-20.99999999999999
 30
-221.5000000000003
 70
   192
  0
VERTEX
  5
FFC
  8
ODPAD
 10
-28.50000000000018
 20
-20.99999999999999
 30
-271.0000000000002
 70
   192
  0
VERTEX
  5
FFD
  8
ODPAD
 10
-28.50000000000018
 20
-20.99999999999999
 30
-262.0000000000003
 70
   192
  0
VERTEX
  5
FFE
  8
ODPAD
 10
-37.50000000000017
 20
-20.99999999999999
 30
-262.0000000000003
 70
   192
  0
VERTEX
  5
FFF
  8
ODPAD
 10
-37.50000000000017
 20
-20.99999999999999
 30
-271.0000000000002
 70
   192
  0
VERTEX
  5
1000
  8
ODPAD
 10
-28.5
 20
-20.99999999999999
 30
-254.5000000000003
 70
   192
  0
VERTEX
  5
1001
  8
ODPAD
 10
-28.5
 20
-20.99999999999999
 30
-245.5000000000003
 70
   192
  0
VERTEX
  5
1002
  8
ODPAD
 10
-37.5
 20
-20.99999999999999
 30
-245.5000000000003
 70
   192
  0
VERTEX
  5
1003
  8
ODPAD
 10
-37.5
 20
-20.99999999999999
 30
-254.5000000000003
 70
   192
  0
VERTEX
  5
1004
  8
ODPAD
 10
-28.49999999999983
 20
-20.99999999999999
 30
-238.0000000000003
 70
   192
  0
VERTEX
  5
1005
  8
ODPAD
 10
-28.49999999999983
 20
-20.99999999999999
 30
-229.0000000000003
 70
   192
  0
VERTEX
  5
1006
  8
ODPAD
 10
-37.49999999999982
 20
-20.99999999999999
 30
-229.0000000000003
 70
   192
  0
VERTEX
  5
1007
  8
ODPAD
 10
-37.49999999999982
 20
-20.99999999999999
 30
-238.0000000000003
 70
   192
  0
VERTEX
  5
1008
  8
ODPAD
 10
-28.49999999999966
 20
-20.99999999999999
 30
-221.5000000000003
 70
   192
  0
VERTEX
  5
1009
  8
ODPAD
 10
-28.49999999999966
 20
-20.99999999999999
 30
-212.5000000000003
 70
   192
  0
VERTEX
  5
100A
  8
ODPAD
 10
-37.49999999999965
 20
-20.99999999999999
 30
-212.5000000000003
 70
   192
  0
VERTEX
  5
100B
  8
ODPAD
 10
-37.49999999999965
 20
-20.99999999999999
 30
-221.5000000000003
 70
   192
  0
VERTEX
  5
100C
  8
ODPAD
 10
-28.50000000000034
 20
-20.99999999999999
 30
-287.5000000000003
 70
   192
  0
VERTEX
  5
100D
  8
ODPAD
 10
-28.50000000000034
 20
-20.99999999999999
 30
-278.5000000000003
 70
   192
  0
VERTEX
  5
100E
  8
ODPAD
 10
-37.50000000000035
 20
-20.99999999999999
 30
-278.5000000000003
 70
   192
  0
VERTEX
  5
100F
  8
ODPAD
 10
-37.50000000000035
 20
-20.99999999999999
 30
-287.5000000000003
 70
   192
  0
VERTEX
  5
1010
  8
ODPAD
 10
-12.00000000000034
 20
-20.99999999999999
 30
-287.5000000000003
 70
   192
  0
VERTEX
  5
1011
  8
ODPAD
 10
-12.00000000000034
 20
-20.99999999999999
 30
-278.5000000000003
 70
   192
  0
VERTEX
  5
1012
  8
ODPAD
 10
-21.00000000000034
 20
-20.99999999999999
 30
-278.5000000000003
 70
   192
  0
VERTEX
  5
1013
  8
ODPAD
 10
-21.00000000000034
 20
-20.99999999999999
 30
-287.5000000000003
 70
   192
  0
VERTEX
  5
1014
  8
ODPAD
 10
0.0
 20
0.0
 30
0.0
 70
   128
 71
    12
 72
   -11
 73
    -6
  0
VERTEX
  5
1015
  8
ODPAD
 10
0.0
 20
0.0
 30
0.0
 70
   128
 71
   -12
 72
     6
 73
    -5
  0
VERTEX
  5
1016
  8
ODPAD
 10
0.0
 20
0.0
 30
0.0
 70
   128
 71
   -12
 72
    -5
 73
    -3
  0
VERTEX
  5
1017
  8
ODPAD
 10
0.0
 20
0.0
 30
0.0
 70
   128
 71
    -3
 72
     9
 73
   -12
  0
VERTEX
  5
1018
  8
ODPAD
 10
0.0
 20
0.0
 30
0.0
 70
   128
 71
    24
 72
   -23
 73
   -18
  0
VERTEX
  5
1019
  8
ODPAD
 10
0.0
 20
0.0
 30
0.0
 70
   128
 71
   -24
 72
    18
 73
   -17
  0
VERTEX
  5
101A
  8
ODPAD
 10
0.0
 20
0.0
 30
0.0
 70
   128
 71
    -6
 72
   -11
 73
   -21
  0
VERTEX
  5
101B
  8
ODPAD
 10
0.0
 20
0.0
 30
0.0
 70
   128
 71
   -24
 72
   -17
 73
    -7
  0
VERTEX
  5
101C
  8
ODPAD
 10
0.0
 20
0.0
 30
0.0
 70
   128
 71
     7
 72
    -6
 73
   -21
  0
VERTEX
  5
101D
  8
ODPAD
 10
0.0
 20
0.0
 30
0.0
 70
   128
 71
    -7
 72
    21
 73
   -24
  0
VERTEX
  5
101E
  8
ODPAD
 10
0.0
 20
0.0
 30
0.0
 70
   128
 71
   -23
 72
   -33
 73
   -18
  0
VERTEX
  5
101F
  8
ODPAD
 10
0.0
 20
0.0
 30
0.0
 70
   128
 71
    36
 72
   -35
 73
   -86
  0
VERTEX
  5
1020
  8
ODPAD
 10
0.0
 20
0.0
 30
0.0
 70
   128
 71
   -36
 72
    86
 73
   -85
  0
VERTEX
  5
1021
  8
ODPAD
 10
0.0
 20
0.0
 30
0.0
 70
   128
 71
   -36
 72
   -85
 73
   -19
  0
VERTEX
  5
1022
  8
ODPAD
 10
0.0
 20
0.0
 30
0.0
 70
   128
 71
    19
 72
   -18
 73
   -33
  0
VERTEX
  5
1023
  8
ODPAD
 10
0.0
 20
0.0
 30
0.0
 70
   128
 71
   -19
 72
    33
 73
   -36
  0
VERTEX
  5
1024
  8
ODPAD
 10
0.0
 20
0.0
 30
0.0
 70
   128
 71
    16
 72
   -15
 73
   -10
  0
VERTEX
  5
1025
  8
ODPAD
 10
0.0
 20
0.0
 30
0.0
 70
   128
 71
   -16
 72
    10
 73
    -9
  0
VERTEX
  5
1026
  8
ODPAD
 10
0.0
 20
0.0
 30
0.0
 70
   128
 71
   -16
 72
    -9
 73
    -3
  0
VERTEX
  5
1027
  8
ODPAD
 10
0.0
 20
0.0
 30
0.0
 70
   128
 71
    -3
 72
    13
 73
   -16
  0
VERTEX
  5
1028
  8
ODPAD
 10
0.0
 20
0.0
 30
0.0
 70
   128
 71
    28
 72
   -27
 73
   -22
  0
VERTEX
  5
1029
  8
ODPAD
 10
0.0
 20
0.0
 30
0.0
 70
   128
 71
   -28
 72
    22
 73
   -21
  0
VERTEX
  5
102A
  8
ODPAD
 10
0.0
 20
0.0
 30
0.0
 70
   128
 71
   -10
 72
   -15
 73
   -25
  0
VERTEX
  5
102B
  8
ODPAD
 10
0.0
 20
0.0
 30
0.0
 70
   128
 71
   -28
 72
   -21
 73
   -11
  0
VERTEX
  5
102C
  8
ODPAD
 10
0.0
 20
0.0
 30
0.0
 70
   128
 71
    11
 72
   -10
 73
   -25
  0
VERTEX
  5
102D
  8
ODPAD
 10
0.0
 20
0.0
 30
0.0
 70
   128
 71
   -11
 72
    25
 73
   -28
  0
VERTEX
  5
102E
  8
ODPAD
 10
0.0
 20
0.0
 30
0.0
 70
   128
 71
   -27
 72
   -37
 73
   -22
  0
VERTEX
  5
102F
  8
ODPAD
 10
0.0
 20
0.0
 30
0.0
 70
   128
 71
    40
 72
   -39
 73
   -34
  0
VERTEX
  5
1030
  8
ODPAD
 10
0.0
 20
0.0
 30
0.0
 70
   128
 71
   -40
 72
    34
 73
   -33
  0
VERTEX
  5
1031
  8
ODPAD
 10
0.0
 20
0.0
 30
0.0
 70
   128
 71
   -40
 72
   -33
 73
   -23
  0
VERTEX
  5
1032
  8
ODPAD
 10
0.0
 20
0.0
 30
0.0
 70
   128
 71
    23
 72
   -22
 73
   -37
  0
VERTEX
  5
1033
  8
ODPAD
 10
0.0
 20
0.0
 30
0.0
 70
   128
 71
   -23
 72
    37
 73
   -40
  0
VERTEX
  5
1034
  8
ODPAD
 10
0.0
 20
0.0
 30
0.0
 70
   128
 71
    52
 72
   -51
 73
   -90
  0
VERTEX
  5
1035
  8
ODPAD
 10
0.0
 20
0.0
 30
0.0
 70
   128
 71
   -52
 72
    90
 73
   -89
  0
VERTEX
  5
1036
  8
ODPAD
 10
0.0
 20
0.0
 30
0.0
 70
   128
 71
   -34
 72
   -39
 73
   -49
  0
VERTEX
  5
1037
  8
ODPAD
 10
0.0
 20
0.0
 30
0.0
 70
   128
 71
   -52
 72
   -89
 73
   -35
  0
VERTEX
  5
1038
  8
ODPAD
 10
0.0
 20
0.0
 30
0.0
 70
   128
 71
    35
 72
   -34
 73
   -49
  0
VERTEX
  5
1039
  8
ODPAD
 10
0.0
 20
0.0
 30
0.0
 70
   128
 71
   -35
 72
    49
 73
   -52
  0
VERTEX
  5
103A
  8
ODPAD
 10
0.0
 20
0.0
 30
0.0
 70
   128
 71
   -51
 72
   -93
 73
   -90
  0
VERTEX
  5
103B
  8
ODPAD
 10
0.0
 20
0.0
 30
0.0
 70
   128
 71
    14
 72
   -13
 73
    -3
  0
VERTEX
  5
103C
  8
ODPAD
 10
0.0
 20
0.0
 30
0.0
 70
   128
 71
    -3
 72
   -29
 73
   -14
  0
VERTEX
  5
103D
  8
ODPAD
 10
0.0
 20
0.0
 30
0.0
 70
   128
 71
    32
 72
   -31
 73
   -26
  0
VERTEX
  5
103E
  8
ODPAD
 10
0.0
 20
0.0
 30
0.0
 70
   128
 71
   -32
 72
    26
 73
   -25
  0
VERTEX
  5
103F
  8
ODPAD
 10
0.0
 20
0.0
 30
0.0
 70
   128
 71
   -32
 72
   -25
 73
   -15
  0
VERTEX
  5
1040
  8
ODPAD
 10
0.0
 20
0.0
 30
0.0
 70
   128
 71
    15
 72
   -14
 73
   -29
  0
VERTEX
  5
1041
  8
ODPAD
 10
0.0
 20
0.0
 30
0.0
 70
   128
 71
   -15
 72
    29
 73
   -32
  0
VERTEX
  5
1042
  8
ODPAD
 10
0.0
 20
0.0
 30
0.0
 70
   128
 71
   -31
 72
   -41
 73
   -26
  0
VERTEX
  5
1043
  8
ODPAD
 10
0.0
 20
0.0
 30
0.0
 70
   128
 71
    44
 72
   -43
 73
   -38
  0
VERTEX
  5
1044
  8
ODPAD
 10
0.0
 20
0.0
 30
0.0
 70
   128
 71
   -44
 72
    38
 73
   -37
  0
VERTEX
  5
1045
  8
ODPAD
 10
0.0
 20
0.0
 30
0.0
 70
   128
 71
   -37
 72
   -27
 73
   -44
  0
VERTEX
  5
1046
  8
ODPAD
 10
0.0
 20
0.0
 30
0.0
 70
   128
 71
    27
 72
   -26
 73
   -41
  0
VERTEX
  5
1047
  8
ODPAD
 10
0.0
 20
0.0
 30
0.0
 70
   128
 71
   -27
 72
    41
 73
   -44
  0
VERTEX
  5
1048
  8
ODPAD
 10
0.0
 20
0.0
 30
0.0
 70
   128
 71
    56
 72
   -55
 73
   -50
  0
VERTEX
  5
1049
  8
ODPAD
 10
0.0
 20
0.0
 30
0.0
 70
   128
 71
   -56
 72
    50
 73
   -49
  0
VERTEX
  5
104A
  8
ODPAD
 10
0.0
 20
0.0
 30
0.0
 70
   128
 71
   -38
 72
   -43
 73
   -53
  0
VERTEX
  5
104B
  8
ODPAD
 10
0.0
 20
0.0
 30
0.0
 70
   128
 71
   -56
 72
   -49
 73
   -39
  0
VERTEX
  5
104C
  8
ODPAD
 10
0.0
 20
0.0
 30
0.0
 70
   128
 71
    39
 72
   -38
 73
   -53
  0
VERTEX
  5
104D
  8
ODPAD
 10
0.0
 20
0.0
 30
0.0
 70
   128
 71
   -39
 72
    53
 73
   -56
  0
VERTEX
  5
104E
  8
ODPAD
 10
0.0
 20
0.0
 30
0.0
 70
   128
 71
   -55
 72
   -65
 73
   -50
  0
VERTEX
  5
104F
  8
ODPAD
 10
0.0
 20
0.0
 30
0.0
 70
   128
 71
    68
 72
   -67
 73
   -94
  0
VERTEX
  5
1050
  8
ODPAD
 10
0.0
 20
0.0
 30
0.0
 70
   128
 71
   -68
 72
    94
 73
   -93
  0
VERTEX
  5
1051
  8
ODPAD
 10
0.0
 20
0.0
 30
0.0
 70
   128
 71
   -93
 72
   -51
 73
   -68
  0
VERTEX
  5
1052
  8
ODPAD
 10
0.0
 20
0.0
 30
0.0
 70
   128
 71
    51
 72
   -50
 73
   -65
  0
VERTEX
  5
1053
  8
ODPAD
 10
0.0
 20
0.0
 30
0.0
 70
   128
 71
   -51
 72
    65
 73
   -68
  0
VERTEX
  5
1054
  8
ODPAD
 10
0.0
 20
0.0
 30
0.0
 70
   128
 71
    30
 72
   -29
 73
    -3
  0
VERTEX
  5
1055
  8
ODPAD
 10
0.0
 20
0.0
 30
0.0
 70
   128
 71
    -3
 72
   -45
 73
   -30
  0
VERTEX
  5
1056
  8
ODPAD
 10
0.0
 20
0.0
 30
0.0
 70
   128
 71
    48
 72
   -47
 73
   -42
  0
VERTEX
  5
1057
  8
ODPAD
 10
0.0
 20
0.0
 30
0.0
 70
   128
 71
   -48
 72
    42
 73
   -41
  0
VERTEX
  5
1058
  8
ODPAD
 10
0.0
 20
0.0
 30
0.0
 70
   128
 71
   -48
 72
   -41
 73
   -31
  0
VERTEX
  5
1059
  8
ODPAD
 10
0.0
 20
0.0
 30
0.0
 70
   128
 71
    31
 72
   -30
 73
   -45
  0
VERTEX
  5
105A
  8
ODPAD
 10
0.0
 20
0.0
 30
0.0
 70
   128
 71
   -31
 72
    45
 73
   -48
  0
VERTEX
  5
105B
  8
ODPAD
 10
0.0
 20
0.0
 30
0.0
 70
   128
 71
    60
 72
   -59
 73
   -54
  0
VERTEX
  5
105C
  8
ODPAD
 10
0.0
 20
0.0
 30
0.0
 70
   128
 71
   -60
 72
    54
 73
   -53
  0
VERTEX
  5
105D
  8
ODPAD
 10
0.0
 20
0.0
 30
0.0
 70
   128
 71
   -42
 72
   -47
 73
   -57
  0
VERTEX
  5
105E
  8
ODPAD
 10
0.0
 20
0.0
 30
0.0
 70
   128
 71
   -60
 72
   -53
 73
   -43
  0
VERTEX
  5
105F
  8
ODPAD
 10
0.0
 20
0.0
 30
0.0
 70
   128
 71
    43
 72
   -42
 73
   -57
  0
VERTEX
  5
1060
  8
ODPAD
 10
0.0
 20
0.0
 30
0.0
 70
   128
 71
   -43
 72
    57
 73
   -60
  0
VERTEX
  5
1061
  8
ODPAD
 10
0.0
 20
0.0
 30
0.0
 70
   128
 71
   -59
 72
   -69
 73
   -54
  0
VERTEX
  5
1062
  8
ODPAD
 10
0.0
 20
0.0
 30
0.0
 70
   128
 71
    72
 72
   -71
 73
   -66
  0
VERTEX
  5
1063
  8
ODPAD
 10
0.0
 20
0.0
 30
0.0
 70
   128
 71
   -72
 72
    66
 73
   -65
  0
VERTEX
  5
1064
  8
ODPAD
 10
0.0
 20
0.0
 30
0.0
 70
   128
 71
   -65
 72
   -55
 73
   -72
  0
VERTEX
  5
1065
  8
ODPAD
 10
0.0
 20
0.0
 30
0.0
 70
   128
 71
    55
 72
   -54
 73
   -69
  0
VERTEX
  5
1066
  8
ODPAD
 10
0.0
 20
0.0
 30
0.0
 70
   128
 71
   -55
 72
    69
 73
   -72
  0
VERTEX
  5
1067
  8
ODPAD
 10
0.0
 20
0.0
 30
0.0
 70
   128
 71
    46
 72
   -45
 73
    -3
  0
VERTEX
  5
1068
  8
ODPAD
 10
0.0
 20
0.0
 30
0.0
 70
   128
 71
   -46
 72
     3
 73
    -2
  0
VERTEX
  5
1069
  8
ODPAD
 10
0.0
 20
0.0
 30
0.0
 70
   128
 71
    64
 72
   -63
 73
   -58
  0
VERTEX
  5
106A
  8
ODPAD
 10
0.0
 20
0.0
 30
0.0
 70
   128
 71
   -64
 72
    58
 73
   -57
  0
VERTEX
  5
106B
  8
ODPAD
 10
0.0
 20
0.0
 30
0.0
 70
   128
 71
   -64
 72
   -57
 73
   -47
  0
VERTEX
  5
106C
  8
ODPAD
 10
0.0
 20
0.0
 30
0.0
 70
   128
 71
    47
 72
   -46
 73
   -61
  0
VERTEX
  5
106D
  8
ODPAD
 10
0.0
 20
0.0
 30
0.0
 70
   128
 71
   -47
 72
    61
 73
   -64
  0
VERTEX
  5
106E
  8
ODPAD
 10
0.0
 20
0.0
 30
0.0
 70
   128
 71
   -46
 72
    -2
 73
   -61
  0
VERTEX
  5
106F
  8
ODPAD
 10
0.0
 20
0.0
 30
0.0
 70
   128
 71
   -63
 72
   -73
 73
   -58
  0
VERTEX
  5
1070
  8
ODPAD
 10
0.0
 20
0.0
 30
0.0
 70
   128
 71
    62
 72
   -61
 73
   -77
  0
VERTEX
  5
1071
  8
ODPAD
 10
0.0
 20
0.0
 30
0.0
 70
   128
 71
   -77
 72
   -61
 73
    -2
  0
VERTEX
  5
1072
  8
ODPAD
 10
0.0
 20
0.0
 30
0.0
 70
   128
 71
    -2
 72
    78
 73
   -77
  0
VERTEX
  5
1073
  8
ODPAD
 10
0.0
 20
0.0
 30
0.0
 70
   128
 71
    -2
 72
    79
 73
   -78
  0
VERTEX
  5
1074
  8
ODPAD
 10
0.0
 20
0.0
 30
0.0
 70
   128
 71
    -2
 72
   -74
 73
   -79
  0
VERTEX
  5
1075
  8
ODPAD
 10
0.0
 20
0.0
 30
0.0
 70
   128
 71
    74
 72
   -73
 73
   -80
  0
VERTEX
  5
1076
  8
ODPAD
 10
0.0
 20
0.0
 30
0.0
 70
   128
 71
   -74
 72
    80
 73
   -79
  0
VERTEX
  5
1077
  8
ODPAD
 10
0.0
 20
0.0
 30
0.0
 70
   128
 71
   -73
 72
   -63
 73
   -80
  0
VERTEX
  5
1078
  8
ODPAD
 10
0.0
 20
0.0
 30
0.0
 70
   128
 71
    63
 72
   -62
 73
   -77
  0
VERTEX
  5
1079
  8
ODPAD
 10
0.0
 20
0.0
 30
0.0
 70
   128
 71
   -63
 72
    77
 73
   -80
  0
VERTEX
  5
107A
  8
ODPAD
 10
0.0
 20
0.0
 30
0.0
 70
   128
 71
    -2
 72
    75
 73
   -74
  0
VERTEX
  5
107B
  8
ODPAD
 10
0.0
 20
0.0
 30
0.0
 70
   128
 71
    -2
 72
   -70
 73
   -75
  0
VERTEX
  5
107C
  8
ODPAD
 10
0.0
 20
0.0
 30
0.0
 70
   128
 71
    70
 72
   -69
 73
   -76
  0
VERTEX
  5
107D
  8
ODPAD
 10
0.0
 20
0.0
 30
0.0
 70
   128
 71
   -70
 72
    76
 73
   -75
  0
VERTEX
  5
107E
  8
ODPAD
 10
0.0
 20
0.0
 30
0.0
 70
   128
 71
   -69
 72
   -59
 73
   -76
  0
VERTEX
  5
107F
  8
ODPAD
 10
0.0
 20
0.0
 30
0.0
 70
   128
 71
    59
 72
   -58
 73
   -73
  0
VERTEX
  5
1080
  8
ODPAD
 10
0.0
 20
0.0
 30
0.0
 70
   128
 71
   -59
 72
    73
 73
   -76
  0
VERTEX
  5
1081
  8
ODPAD
 10
0.0
 20
0.0
 30
0.0
 70
   128
 71
     2
 72
    -1
 73
   -71
  0
VERTEX
  5
1082
  8
ODPAD
 10
0.0
 20
0.0
 30
0.0
 70
   128
 71
    -2
 72
    71
 73
   -70
  0
VERTEX
  5
1083
  8
ODPAD
 10
0.0
 20
0.0
 30
0.0
 70
   128
 71
    -1
 72
   -66
 73
   -71
  0
VERTEX
  5
1084
  8
ODPAD
 10
0.0
 20
0.0
 30
0.0
 70
   128
 71
    -1
 72
    67
 73
   -66
  0
VERTEX
  5
1085
  8
ODPAD
 10
0.0
 20
0.0
 30
0.0
 70
   128
 71
    -1
 72
   -94
 73
   -67
  0
VERTEX
  5
1086
  8
ODPAD
 10
0.0
 20
0.0
 30
0.0
 70
   128
 71
    -1
 72
    95
 73
   -94
  0
VERTEX
  5
1087
  8
ODPAD
 10
0.0
 20
0.0
 30
0.0
 70
   128
 71
    -1
 72
    96
 73
   -95
  0
VERTEX
  5
1088
  8
ODPAD
 10
0.0
 20
0.0
 30
0.0
 70
   128
 71
    -1
 72
   -91
 73
   -96
  0
VERTEX
  5
1089
  8
ODPAD
 10
0.0
 20
0.0
 30
0.0
 70
   128
 71
    91
 72
   -90
 73
   -93
  0
VERTEX
  5
108A
  8
ODPAD
 10
0.0
 20
0.0
 30
0.0
 70
   128
 71
   -91
 72
    93
 73
   -96
  0
VERTEX
  5
108B
  8
ODPAD
 10
0.0
 20
0.0
 30
0.0
 70
   128
 71
    -1
 72
    92
 73
   -91
  0
VERTEX
  5
108C
  8
ODPAD
 10
0.0
 20
0.0
 30
0.0
 70
   128
 71
    -1
 72
   -87
 73
   -92
  0
VERTEX
  5
108D
  8
ODPAD
 10
0.0
 20
0.0
 30
0.0
 70
   128
 71
   -86
 72
   -35
 73
   -89
  0
VERTEX
  5
108E
  8
ODPAD
 10
0.0
 20
0.0
 30
0.0
 70
   128
 71
    89
 72
   -92
 73
   -87
  0
VERTEX
  5
108F
  8
ODPAD
 10
0.0
 20
0.0
 30
0.0
 70
   128
 71
   -89
 72
    87
 73
   -86
  0
VERTEX
  5
1090
  8
ODPAD
 10
0.0
 20
0.0
 30
0.0
 70
   128
 71
     1
 72
    -4
 73
   -88
  0
VERTEX
  5
1091
  8
ODPAD
 10
0.0
 20
0.0
 30
0.0
 70
   128
 71
    -1
 72
    88
 73
   -87
  0
VERTEX
  5
1092
  8
ODPAD
 10
0.0
 20
0.0
 30
0.0
 70
   128
 71
    82
 72
   -81
 73
   -20
  0
VERTEX
  5
1093
  8
ODPAD
 10
0.0
 20
0.0
 30
0.0
 70
   128
 71
   -82
 72
    20
 73
   -19
  0
VERTEX
  5
1094
  8
ODPAD
 10
0.0
 20
0.0
 30
0.0
 70
   128
 71
   -19
 72
   -85
 73
   -82
  0
VERTEX
  5
1095
  8
ODPAD
 10
0.0
 20
0.0
 30
0.0
 70
   128
 71
    85
 72
   -88
 73
   -83
  0
VERTEX
  5
1096
  8
ODPAD
 10
0.0
 20
0.0
 30
0.0
 70
   128
 71
   -85
 72
    83
 73
   -82
  0
VERTEX
  5
1097
  8
ODPAD
 10
0.0
 20
0.0
 30
0.0
 70
   128
 71
   -83
 72
   -88
 73
    -4
  0
VERTEX
  5
1098
  8
ODPAD
 10
0.0
 20
0.0
 30
0.0
 70
   128
 71
    -4
 72
    84
 73
   -83
  0
VERTEX
  5
1099
  8
ODPAD
 10
0.0
 20
0.0
 30
0.0
 70
   128
 71
   -97
 72
    -4
 73
  -104
  0
VERTEX
  5
109A
  8
ODPAD
 10
0.0
 20
0.0
 30
0.0
 70
   128
 71
   104
 72
  -103
 73
   -98
  0
VERTEX
  5
109B
  8
ODPAD
 10
0.0
 20
0.0
 30
0.0
 70
   128
 71
  -104
 72
    98
 73
   -97
  0
VERTEX
  5
109C
  8
ODPAD
 10
0.0
 20
0.0
 30
0.0
 70
   128
 71
   -98
 72
  -103
 73
   -81
  0
VERTEX
  5
109D
  8
ODPAD
 10
0.0
 20
0.0
 30
0.0
 70
   128
 71
    81
 72
   -84
 73
   -99
  0
VERTEX
  5
109E
  8
ODPAD
 10
0.0
 20
0.0
 30
0.0
 70
   128
 71
   -81
 72
    99
 73
   -98
  0
VERTEX
  5
109F
  8
ODPAD
 10
0.0
 20
0.0
 30
0.0
 70
   128
 71
   -99
 72
   -84
 73
    -4
  0
VERTEX
  5
10A0
  8
ODPAD
 10
0.0
 20
0.0
 30
0.0
 70
   128
 71
    -4
 72
   100
 73
   -99
  0
VERTEX
  5
10A1
  8
ODPAD
 10
0.0
 20
0.0
 30
0.0
 70
   128
 71
    -4
 72
    97
 73
  -100
  0
VERTEX
  5
10A2
  8
ODPAD
 10
0.0
 20
0.0
 30
0.0
 70
   128
 71
    -4
 72
   101
 73
  -104
  0
VERTEX
  5
10A3
  8
ODPAD
 10
0.0
 20
0.0
 30
0.0
 70
   128
 71
    -4
 72
    -8
 73
  -101
  0
VERTEX
  5
10A4
  8
ODPAD
 10
0.0
 20
0.0
 30
0.0
 70
   128
 71
     8
 72
    -7
 73
  -102
  0
VERTEX
  5
10A5
  8
ODPAD
 10
0.0
 20
0.0
 30
0.0
 70
   128
 71
    -8
 72
   102
 73
  -101
  0
VERTEX
  5
10A6
  8
ODPAD
 10
0.0
 20
0.0
 30
0.0
 70
   128
 71
   -20
 72
   -81
 73
  -103
  0
VERTEX
  5
10A7
  8
ODPAD
 10
0.0
 20
0.0
 30
0.0
 70
   128
 71
  -102
 72
    -7
 73
   -17
  0
VERTEX
  5
10A8
  8
ODPAD
 10
0.0
 20
0.0
 30
0.0
 70
   128
 71
    17
 72
   -20
 73
  -103
  0
VERTEX
  5
10A9
  8
ODPAD
 10
0.0
 20
0.0
 30
0.0
 70
   128
 71
   -17
 72
   103
 73
  -102
  0
VERTEX
  5
10AA
  8
ODPAD
 10
0.0
 20
0.0
 30
0.0
 70
   128
 71
     4
 72
    -3
 73
    -5
  0
VERTEX
  5
10AB
  8
ODPAD
 10
0.0
 20
0.0
 30
0.0
 70
   128
 71
    -4
 72
     5
 73
    -8
  0
SEQEND
  5
1385
  8
ODPAD
  0
POLYLINE
  5
10AC
  8
ODPAD
 66
     1
 10
0.0
 20
0.0
 30
0.0
 70
    64
 71
     4
 72
     2
  0
VERTEX
  5
10AD
  8
ODPAD
 10
-37.50000000000035
 20
-20.99999999999999
 30
-278.5000000000003
 70
   192
  0
VERTEX
  5
10AE
  8
ODPAD
 10
-37.50000000000035
 20
-19.99999999999999
 30
-278.5000000000003
 70
   192
  0
VERTEX
  5
10AF
  8
ODPAD
 10
-37.50000000000035
 20
-19.99999999999999
 30
-287.5000000000003
 70
   192
  0
VERTEX
  5
10B0
  8
ODPAD
 10
-37.50000000000035
 20
-20.99999999999999
 30
-287.5000000000003
 70
   192
  0
VERTEX
  5
10B1
  8
ODPAD
 10
0.0
 20
0.0
 30
0.0
 70
   128
 71
     1
 72
     4
 73
    -3
  0
VERTEX
  5
10B2
  8
ODPAD
 10
0.0
 20
0.0
 30
0.0
 70
   128
 71
    -1
 72
     3
 73
     2
  0
SEQEND
  5
1386
  8
ODPAD
  0
POLYLINE
  5
10B3
  8
ODPAD
 66
     1
 10
0.0
 20
0.0
 30
0.0
 70
    64
 71
     4
 72
     2
  0
VERTEX
  5
10B4
  8
ODPAD
 10
-37.50000000000035
 20
-20.99999999999999
 30
-287.5000000000003
 70
   192
  0
VERTEX
  5
10B5
  8
ODPAD
 10
-37.50000000000035
 20
-19.99999999999999
 30
-287.5000000000003
 70
   192
  0
VERTEX
  5
10B6
  8
ODPAD
 10
-28.50000000000034
 20
-19.99999999999999
 30
-287.5000000000003
 70
   192
  0
VERTEX
  5
10B7
  8
ODPAD
 10
-28.50000000000034
 20
-20.99999999999999
 30
-287.5000000000003
 70
   192
  0
VERTEX
  5
10B8
  8
ODPAD
 10
0.0
 20
0.0
 30
0.0
 70
   128
 71
     1
 72
     4
 73
    -3
  0
VERTEX
  5
10B9
  8
ODPAD
 10
0.0
 20
0.0
 30
0.0
 70
   128
 71
    -1
 72
     3
 73
     2
  0
SEQEND
  5
1387
  8
ODPAD
  0
POLYLINE
  5
10BA
  8
ODPAD
 66
     1
 10
0.0
 20
0.0
 30
0.0
 70
    64
 71
     4
 72
     2
  0
VERTEX
  5
10BB
  8
ODPAD
 10
-28.50000000000034
 20
-20.99999999999999
 30
-287.5000000000003
 70
   192
  0
VERTEX
  5
10BC
  8
ODPAD
 10
-28.50000000000034
 20
-19.99999999999999
 30
-287.5000000000003
 70
   192
  0
VERTEX
  5
10BD
  8
ODPAD
 10
-28.50000000000034
 20
-19.99999999999999
 30
-278.5000000000003
 70
   192
  0
VERTEX
  5
10BE
  8
ODPAD
 10
-28.50000000000034
 20
-20.99999999999999
 30
-278.5000000000003
 70
   192
  0
VERTEX
  5
10BF
  8
ODPAD
 10
0.0
 20
0.0
 30
0.0
 70
   128
 71
     1
 72
     4
 73
    -3
  0
VERTEX
  5
10C0
  8
ODPAD
 10
0.0
 20
0.0
 30
0.0
 70
   128
 71
    -1
 72
     3
 73
     2
  0
SEQEND
  5
1388
  8
ODPAD
  0
POLYLINE
  5
10C1
  8
ODPAD
 66
     1
 10
0.0
 20
0.0
 30
0.0
 70
    64
 71
     4
 72
     2
  0
VERTEX
  5
10C2
  8
ODPAD
 10
-28.50000000000034
 20
-20.99999999999999
 30
-278.5000000000003
 70
   192
  0
VERTEX
  5
10C3
  8
ODPAD
 10
-28.50000000000034
 20
-19.99999999999999
 30
-278.5000000000003
 70
   192
  0
VERTEX
  5
10C4
  8
ODPAD
 10
-37.50000000000035
 20
-19.99999999999999
 30
-278.5000000000003
 70
   192
  0
VERTEX
  5
10C5
  8
ODPAD
 10
-37.50000000000035
 20
-20.99999999999999
 30
-278.5000000000003
 70
   192
  0
VERTEX
  5
10C6
  8
ODPAD
 10
0.0
 20
0.0
 30
0.0
 70
   128
 71
     1
 72
     4
 73
    -3
  0
VERTEX
  5
10C7
  8
ODPAD
 10
0.0
 20
0.0
 30
0.0
 70
   128
 71
    -1
 72
     3
 73
     2
  0
SEQEND
  5
1389
  8
ODPAD
  0
POLYLINE
  5
10C8
  8
ODPAD
 66
     1
 10
0.0
 20
0.0
 30
0.0
 70
    64
 71
     4
 72
     2
  0
VERTEX
  5
10C9
  8
ODPAD
 10
-37.49999999999965
 20
-20.99999999999999
 30
-212.5000000000003
 70
   192
  0
VERTEX
  5
10CA
  8
ODPAD
 10
-37.49999999999965
 20
-19.99999999999999
 30
-212.5000000000003
 70
   192
  0
VERTEX
  5
10CB
  8
ODPAD
 10
-37.49999999999965
 20
-19.99999999999999
 30
-221.5000000000003
 70
   192
  0
VERTEX
  5
10CC
  8
ODPAD
 10
-37.49999999999965
 20
-20.99999999999999
 30
-221.5000000000003
 70
   192
  0
VERTEX
  5
10CD
  8
ODPAD
 10
0.0
 20
0.0
 30
0.0
 70
   128
 71
     1
 72
     4
 73
    -3
  0
VERTEX
  5
10CE
  8
ODPAD
 10
0.0
 20
0.0
 30
0.0
 70
   128
 71
    -1
 72
     3
 73
     2
  0
SEQEND
  5
138A
  8
ODPAD
  0
POLYLINE
  5
10CF
  8
ODPAD
 66
     1
 10
0.0
 20
0.0
 30
0.0
 70
    64
 71
     4
 72
     2
  0
VERTEX
  5
10D0
  8
ODPAD
 10
-37.49999999999965
 20
-20.99999999999999
 30
-221.5000000000003
 70
   192
  0
VERTEX
  5
10D1
  8
ODPAD
 10
-37.49999999999965
 20
-19.99999999999999
 30
-221.5000000000003
 70
   192
  0
VERTEX
  5
10D2
  8
ODPAD
 10
-28.49999999999966
 20
-19.99999999999999
 30
-221.5000000000003
 70
   192
  0
VERTEX
  5
10D3
  8
ODPAD
 10
-28.49999999999966
 20
-20.99999999999999
 30
-221.5000000000003
 70
   192
  0
VERTEX
  5
10D4
  8
ODPAD
 10
0.0
 20
0.0
 30
0.0
 70
   128
 71
     1
 72
     4
 73
    -3
  0
VERTEX
  5
10D5
  8
ODPAD
 10
0.0
 20
0.0
 30
0.0
 70
   128
 71
    -1
 72
     3
 73
     2
  0
SEQEND
  5
138B
  8
ODPAD
  0
POLYLINE
  5
10D6
  8
ODPAD
 66
     1
 10
0.0
 20
0.0
 30
0.0
 70
    64
 71
     4
 72
     2
  0
VERTEX
  5
10D7
  8
ODPAD
 10
-28.49999999999966
 20
-20.99999999999999
 30
-221.5000000000003
 70
   192
  0
VERTEX
  5
10D8
  8
ODPAD
 10
-28.49999999999966
 20
-19.99999999999999
 30
-221.5000000000003
 70
   192
  0
VERTEX
  5
10D9
  8
ODPAD
 10
-28.49999999999966
 20
-19.99999999999999
 30
-212.5000000000003
 70
   192
  0
VERTEX
  5
10DA
  8
ODPAD
 10
-28.49999999999966
 20
-20.99999999999999
 30
-212.5000000000003
 70
   192
  0
VERTEX
  5
10DB
  8
ODPAD
 10
0.0
 20
0.0
 30
0.0
 70
   128
 71
     1
 72
     4
 73
    -3
  0
VERTEX
  5
10DC
  8
ODPAD
 10
0.0
 20
0.0
 30
0.0
 70
   128
 71
    -1
 72
     3
 73
     2
  0
SEQEND
  5
138C
  8
ODPAD
  0
POLYLINE
  5
10DD
  8
ODPAD
 66
     1
 10
0.0
 20
0.0
 30
0.0
 70
    64
 71
     4
 72
     2
  0
VERTEX
  5
10DE
  8
ODPAD
 10
-28.49999999999966
 20
-20.99999999999999
 30
-212.5000000000003
 70
   192
  0
VERTEX
  5
10DF
  8
ODPAD
 10
-28.49999999999966
 20
-19.99999999999999
 30
-212.5000000000003
 70
   192
  0
VERTEX
  5
10E0
  8
ODPAD
 10
-37.49999999999965
 20
-19.99999999999999
 30
-212.5000000000003
 70
   192
  0
VERTEX
  5
10E1
  8
ODPAD
 10
-37.49999999999965
 20
-20.99999999999999
 30
-212.5000000000003
 70
   192
  0
VERTEX
  5
10E2
  8
ODPAD
 10
0.0
 20
0.0
 30
0.0
 70
   128
 71
     1
 72
     4
 73
    -3
  0
VERTEX
  5
10E3
  8
ODPAD
 10
0.0
 20
0.0
 30
0.0
 70
   128
 71
    -1
 72
     3
 73
     2
  0
SEQEND
  5
138D
  8
ODPAD
  0
POLYLINE
  5
10E4
  8
ODPAD
 66
     1
 10
0.0
 20
0.0
 30
0.0
 70
    64
 71
     4
 72
     2
  0
VERTEX
  5
10E5
  8
ODPAD
 10
-37.49999999999982
 20
-20.99999999999999
 30
-229.0000000000003
 70
   192
  0
VERTEX
  5
10E6
  8
ODPAD
 10
-37.49999999999982
 20
-19.99999999999999
 30
-229.0000000000003
 70
   192
  0
VERTEX
  5
10E7
  8
ODPAD
 10
-37.49999999999982
 20
-19.99999999999999
 30
-238.0000000000003
 70
   192
  0
VERTEX
  5
10E8
  8
ODPAD
 10
-37.49999999999982
 20
-20.99999999999999
 30
-238.0000000000003
 70
   192
  0
VERTEX
  5
10E9
  8
ODPAD
 10
0.0
 20
0.0
 30
0.0
 70
   128
 71
     1
 72
     4
 73
    -3
  0
VERTEX
  5
10EA
  8
ODPAD
 10
0.0
 20
0.0
 30
0.0
 70
   128
 71
    -1
 72
     3
 73
     2
  0
SEQEND
  5
138E
  8
ODPAD
  0
POLYLINE
  5
10EB
  8
ODPAD
 66
     1
 10
0.0
 20
0.0
 30
0.0
 70
    64
 71
     4
 72
     2
  0
VERTEX
  5
10EC
  8
ODPAD
 10
-37.49999999999982
 20
-20.99999999999999
 30
-238.0000000000003
 70
   192
  0
VERTEX
  5
10ED
  8
ODPAD
 10
-37.49999999999982
 20
-19.99999999999999
 30
-238.0000000000003
 70
   192
  0
VERTEX
  5
10EE
  8
ODPAD
 10
-28.49999999999983
 20
-19.99999999999999
 30
-238.0000000000003
 70
   192
  0
VERTEX
  5
10EF
  8
ODPAD
 10
-28.49999999999983
 20
-20.99999999999999
 30
-238.0000000000003
 70
   192
  0
VERTEX
  5
10F0
  8
ODPAD
 10
0.0
 20
0.0
 30
0.0
 70
   128
 71
     1
 72
     4
 73
    -3
  0
VERTEX
  5
10F1
  8
ODPAD
 10
0.0
 20
0.0
 30
0.0
 70
   128
 71
    -1
 72
     3
 73
     2
  0
SEQEND
  5
138F
  8
ODPAD
  0
POLYLINE
  5
10F2
  8
ODPAD
 66
     1
 10
0.0
 20
0.0
 30
0.0
 70
    64
 71
     4
 72
     2
  0
VERTEX
  5
10F3
  8
ODPAD
 10
-28.49999999999983
 20
-20.99999999999999
 30
-238.0000000000003
 70
   192
  0
VERTEX
  5
10F4
  8
ODPAD
 10
-28.49999999999983
 20
-19.99999999999999
 30
-238.0000000000003
 70
   192
  0
VERTEX
  5
10F5
  8
ODPAD
 10
-28.49999999999983
 20
-19.99999999999999
 30
-229.0000000000003
 70
   192
  0
VERTEX
  5
10F6
  8
ODPAD
 10
-28.49999999999983
 20
-20.99999999999999
 30
-229.0000000000003
 70
   192
  0
VERTEX
  5
10F7
  8
ODPAD
 10
0.0
 20
0.0
 30
0.0
 70
   128
 71
     1
 72
     4
 73
    -3
  0
VERTEX
  5
10F8
  8
ODPAD
 10
0.0
 20
0.0
 30
0.0
 70
   128
 71
    -1
 72
     3
 73
     2
  0
SEQEND
  5
1390
  8
ODPAD
  0
POLYLINE
  5
10F9
  8
ODPAD
 66
     1
 10
0.0
 20
0.0
 30
0.0
 70
    64
 71
     4
 72
     2
  0
VERTEX
  5
10FA
  8
ODPAD
 10
-28.49999999999983
 20
-20.99999999999999
 30
-229.0000000000003
 70
   192
  0
VERTEX
  5
10FB
  8
ODPAD
 10
-28.49999999999983
 20
-19.99999999999999
 30
-229.0000000000003
 70
   192
  0
VERTEX
  5
10FC
  8
ODPAD
 10
-37.49999999999982
 20
-19.99999999999999
 30
-229.0000000000003
 70
   192
  0
VERTEX
  5
10FD
  8
ODPAD
 10
-37.49999999999982
 20
-20.99999999999999
 30
-229.0000000000003
 70
   192
  0
VERTEX
  5
10FE
  8
ODPAD
 10
0.0
 20
0.0
 30
0.0
 70
   128
 71
     1
 72
     4
 73
    -3
  0
VERTEX
  5
10FF
  8
ODPAD
 10
0.0
 20
0.0
 30
0.0
 70
   128
 71
    -1
 72
     3
 73
     2
  0
SEQEND
  5
1391
  8
ODPAD
  0
POLYLINE
  5
1100
  8
ODPAD
 66
     1
 10
0.0
 20
0.0
 30
0.0
 70
    64
 71
     4
 72
     2
  0
VERTEX
  5
1101
  8
ODPAD
 10
-37.5
 20
-20.99999999999999
 30
-245.5000000000003
 70
   192
  0
VERTEX
  5
1102
  8
ODPAD
 10
-37.5
 20
-19.99999999999999
 30
-245.5000000000003
 70
   192
  0
VERTEX
  5
1103
  8
ODPAD
 10
-37.5
 20
-19.99999999999999
 30
-254.5000000000003
 70
   192
  0
VERTEX
  5
1104
  8
ODPAD
 10
-37.5
 20
-20.99999999999999
 30
-254.5000000000003
 70
   192
  0
VERTEX
  5
1105
  8
ODPAD
 10
0.0
 20
0.0
 30
0.0
 70
   128
 71
     1
 72
     4
 73
    -3
  0
VERTEX
  5
1106
  8
ODPAD
 10
0.0
 20
0.0
 30
0.0
 70
   128
 71
    -1
 72
     3
 73
     2
  0
SEQEND
  5
1392
  8
ODPAD
  0
POLYLINE
  5
1107
  8
ODPAD
 66
     1
 10
0.0
 20
0.0
 30
0.0
 70
    64
 71
     4
 72
     2
  0
VERTEX
  5
1108
  8
ODPAD
 10
-37.5
 20
-20.99999999999999
 30
-254.5000000000003
 70
   192
  0
VERTEX
  5
1109
  8
ODPAD
 10
-37.5
 20
-19.99999999999999
 30
-254.5000000000003
 70
   192
  0
VERTEX
  5
110A
  8
ODPAD
 10
-28.5
 20
-19.99999999999999
 30
-254.5000000000003
 70
   192
  0
VERTEX
  5
110B
  8
ODPAD
 10
-28.5
 20
-20.99999999999999
 30
-254.5000000000003
 70
   192
  0
VERTEX
  5
110C
  8
ODPAD
 10
0.0
 20
0.0
 30
0.0
 70
   128
 71
     1
 72
     4
 73
    -3
  0
VERTEX
  5
110D
  8
ODPAD
 10
0.0
 20
0.0
 30
0.0
 70
   128
 71
    -1
 72
     3
 73
     2
  0
SEQEND
  5
1393
  8
ODPAD
  0
POLYLINE
  5
110E
  8
ODPAD
 66
     1
 10
0.0
 20
0.0
 30
0.0
 70
    64
 71
     4
 72
     2
  0
VERTEX
  5
110F
  8
ODPAD
 10
-28.5
 20
-20.99999999999999
 30
-254.5000000000003
 70
   192
  0
VERTEX
  5
1110
  8
ODPAD
 10
-28.5
 20
-19.99999999999999
 30
-254.5000000000003
 70
   192
  0
VERTEX
  5
1111
  8
ODPAD
 10
-28.5
 20
-19.99999999999999
 30
-245.5000000000003
 70
   192
  0
VERTEX
  5
1112
  8
ODPAD
 10
-28.5
 20
-20.99999999999999
 30
-245.5000000000003
 70
   192
  0
VERTEX
  5
1113
  8
ODPAD
 10
0.0
 20
0.0
 30
0.0
 70
   128
 71
     1
 72
     4
 73
    -3
  0
VERTEX
  5
1114
  8
ODPAD
 10
0.0
 20
0.0
 30
0.0
 70
   128
 71
    -1
 72
     3
 73
     2
  0
SEQEND
  5
1394
  8
ODPAD
  0
POLYLINE
  5
1115
  8
ODPAD
 66
     1
 10
0.0
 20
0.0
 30
0.0
 70
    64
 71
     4
 72
     2
  0
VERTEX
  5
1116
  8
ODPAD
 10
-28.5
 20
-20.99999999999999
 30
-245.5000000000003
 70
   192
  0
VERTEX
  5
1117
  8
ODPAD
 10
-28.5
 20
-19.99999999999999
 30
-245.5000000000003
 70
   192
  0
VERTEX
  5
1118
  8
ODPAD
 10
-37.5
 20
-19.99999999999999
 30
-245.5000000000003
 70
   192
  0
VERTEX
  5
1119
  8
ODPAD
 10
-37.5
 20
-20.99999999999999
 30
-245.5000000000003
 70
   192
  0
VERTEX
  5
111A
  8
ODPAD
 10
0.0
 20
0.0
 30
0.0
 70
   128
 71
     1
 72
     4
 73
    -3
  0
VERTEX
  5
111B
  8
ODPAD
 10
0.0
 20
0.0
 30
0.0
 70
   128
 71
    -1
 72
     3
 73
     2
  0
SEQEND
  5
1395
  8
ODPAD
  0
POLYLINE
  5
111C
  8
ODPAD
 66
     1
 10
0.0
 20
0.0
 30
0.0
 70
    64
 71
     4
 72
     2
  0
VERTEX
  5
111D
  8
ODPAD
 10
-37.50000000000017
 20
-20.99999999999999
 30
-262.0000000000003
 70
   192
  0
VERTEX
  5
111E
  8
ODPAD
 10
-37.50000000000017
 20
-19.99999999999999
 30
-262.0000000000003
 70
   192
  0
VERTEX
  5
111F
  8
ODPAD
 10
-37.50000000000017
 20
-19.99999999999999
 30
-271.0000000000002
 70
   192
  0
VERTEX
  5
1120
  8
ODPAD
 10
-37.50000000000017
 20
-20.99999999999999
 30
-271.0000000000002
 70
   192
  0
VERTEX
  5
1121
  8
ODPAD
 10
0.0
 20
0.0
 30
0.0
 70
   128
 71
     1
 72
     4
 73
    -3
  0
VERTEX
  5
1122
  8
ODPAD
 10
0.0
 20
0.0
 30
0.0
 70
   128
 71
    -1
 72
     3
 73
     2
  0
SEQEND
  5
1396
  8
ODPAD
  0
POLYLINE
  5
1123
  8
ODPAD
 66
     1
 10
0.0
 20
0.0
 30
0.0
 70
    64
 71
     4
 72
     2
  0
VERTEX
  5
1124
  8
ODPAD
 10
-37.50000000000017
 20
-20.99999999999999
 30
-271.0000000000002
 70
   192
  0
VERTEX
  5
1125
  8
ODPAD
 10
-37.50000000000017
 20
-19.99999999999999
 30
-271.0000000000002
 70
   192
  0
VERTEX
  5
1126
  8
ODPAD
 10
-28.50000000000018
 20
-19.99999999999999
 30
-271.0000000000002
 70
   192
  0
VERTEX
  5
1127
  8
ODPAD
 10
-28.50000000000018
 20
-20.99999999999999
 30
-271.0000000000002
 70
   192
  0
VERTEX
  5
1128
  8
ODPAD
 10
0.0
 20
0.0
 30
0.0
 70
   128
 71
     1
 72
     4
 73
    -3
  0
VERTEX
  5
1129
  8
ODPAD
 10
0.0
 20
0.0
 30
0.0
 70
   128
 71
    -1
 72
     3
 73
     2
  0
SEQEND
  5
1397
  8
ODPAD
  0
POLYLINE
  5
112A
  8
ODPAD
 66
     1
 10
0.0
 20
0.0
 30
0.0
 70
    64
 71
     4
 72
     2
  0
VERTEX
  5
112B
  8
ODPAD
 10
-28.50000000000018
 20
-20.99999999999999
 30
-271.0000000000002
 70
   192
  0
VERTEX
  5
112C
  8
ODPAD
 10
-28.50000000000018
 20
-19.99999999999999
 30
-271.0000000000002
 70
   192
  0
VERTEX
  5
112D
  8
ODPAD
 10
-28.50000000000018
 20
-19.99999999999999
 30
-262.0000000000003
 70
   192
  0
VERTEX
  5
112E
  8
ODPAD
 10
-28.50000000000018
 20
-20.99999999999999
 30
-262.0000000000003
 70
   192
  0
VERTEX
  5
112F
  8
ODPAD
 10
0.0
 20
0.0
 30
0.0
 70
   128
 71
     1
 72
     4
 73
    -3
  0
VERTEX
  5
1130
  8
ODPAD
 10
0.0
 20
0.0
 30
0.0
 70
   128
 71
    -1
 72
     3
 73
     2
  0
SEQEND
  5
1398
  8
ODPAD
  0
POLYLINE
  5
1131
  8
ODPAD
 66
     1
 10
0.0
 20
0.0
 30
0.0
 70
    64
 71
     4
 72
     2
  0
VERTEX
  5
1132
  8
ODPAD
 10
-28.50000000000018
 20
-20.99999999999999
 30
-262.0000000000003
 70
   192
  0
VERTEX
  5
1133
  8
ODPAD
 10
-28.50000000000018
 20
-19.99999999999999
 30
-262.0000000000003
 70
   192
  0
VERTEX
  5
1134
  8
ODPAD
 10
-37.50000000000017
 20
-19.99999999999999
 30
-262.0000000000003
 70
   192
  0
VERTEX
  5
1135
  8
ODPAD
 10
-37.50000000000017
 20
-20.99999999999999
 30
-262.0000000000003
 70
   192
  0
VERTEX
  5
1136
  8
ODPAD
 10
0.0
 20
0.0
 30
0.0
 70
   128
 71
     1
 72
     4
 73
    -3
  0
VERTEX
  5
1137
  8
ODPAD
 10
0.0
 20
0.0
 30
0.0
 70
   128
 71
    -1
 72
     3
 73
     2
  0
SEQEND
  5
1399
  8
ODPAD
  0
POLYLINE
  5
1138
  8
ODPAD
 66
     1
 10
0.0
 20
0.0
 30
0.0
 70
    64
 71
     4
 72
     2
  0
VERTEX
  5
1139
  8
ODPAD
 10
28.50000000000036
 20
-20.99999999999999
 30
-212.5000000000003
 70
   192
  0
VERTEX
  5
113A
  8
ODPAD
 10
28.50000000000036
 20
-19.99999999999999
 30
-212.5000000000003
 70
   192
  0
VERTEX
  5
113B
  8
ODPAD
 10
28.50000000000036
 20
-19.99999999999999
 30
-221.5000000000003
 70
   192
  0
VERTEX
  5
113C
  8
ODPAD
 10
28.50000000000036
 20
-20.99999999999999
 30
-221.5000000000003
 70
   192
  0
VERTEX
  5
113D
  8
ODPAD
 10
0.0
 20
0.0
 30
0.0
 70
   128
 71
     1
 72
     4
 73
    -3
  0
VERTEX
  5
113E
  8
ODPAD
 10
0.0
 20
0.0
 30
0.0
 70
   128
 71
    -1
 72
     3
 73
     2
  0
SEQEND
  5
139A
  8
ODPAD
  0
POLYLINE
  5
113F
  8
ODPAD
 66
     1
 10
0.0
 20
0.0
 30
0.0
 70
    64
 71
     4
 72
     2
  0
VERTEX
  5
1140
  8
ODPAD
 10
28.50000000000036
 20
-20.99999999999999
 30
-221.5000000000003
 70
   192
  0
VERTEX
  5
1141
  8
ODPAD
 10
28.50000000000036
 20
-19.99999999999999
 30
-221.5000000000003
 70
   192
  0
VERTEX
  5
1142
  8
ODPAD
 10
37.50000000000036
 20
-19.99999999999999
 30
-221.5000000000003
 70
   192
  0
VERTEX
  5
1143
  8
ODPAD
 10
37.50000000000036
 20
-20.99999999999999
 30
-221.5000000000003
 70
   192
  0
VERTEX
  5
1144
  8
ODPAD
 10
0.0
 20
0.0
 30
0.0
 70
   128
 71
     1
 72
     4
 73
    -3
  0
VERTEX
  5
1145
  8
ODPAD
 10
0.0
 20
0.0
 30
0.0
 70
   128
 71
    -1
 72
     3
 73
     2
  0
SEQEND
  5
139B
  8
ODPAD
  0
POLYLINE
  5
1146
  8
ODPAD
 66
     1
 10
0.0
 20
0.0
 30
0.0
 70
    64
 71
     4
 72
     2
  0
VERTEX
  5
1147
  8
ODPAD
 10
37.50000000000036
 20
-20.99999999999999
 30
-221.5000000000003
 70
   192
  0
VERTEX
  5
1148
  8
ODPAD
 10
37.50000000000036
 20
-19.99999999999999
 30
-221.5000000000003
 70
   192
  0
VERTEX
  5
1149
  8
ODPAD
 10
37.50000000000036
 20
-19.99999999999999
 30
-212.5000000000003
 70
   192
  0
VERTEX
  5
114A
  8
ODPAD
 10
37.50000000000036
 20
-20.99999999999999
 30
-212.5000000000003
 70
   192
  0
VERTEX
  5
114B
  8
ODPAD
 10
0.0
 20
0.0
 30
0.0
 70
   128
 71
     1
 72
     4
 73
    -3
  0
VERTEX
  5
114C
  8
ODPAD
 10
0.0
 20
0.0
 30
0.0
 70
   128
 71
    -1
 72
     3
 73
     2
  0
SEQEND
  5
139C
  8
ODPAD
  0
POLYLINE
  5
114D
  8
ODPAD
 66
     1
 10
0.0
 20
0.0
 30
0.0
 70
    64
 71
     4
 72
     2
  0
VERTEX
  5
114E
  8
ODPAD
 10
37.50000000000036
 20
-20.99999999999999
 30
-212.5000000000003
 70
   192
  0
VERTEX
  5
114F
  8
ODPAD
 10
37.50000000000036
 20
-19.99999999999999
 30
-212.5000000000003
 70
   192
  0
VERTEX
  5
1150
  8
ODPAD
 10
28.50000000000036
 20
-19.99999999999999
 30
-212.5000000000003
 70
   192
  0
VERTEX
  5
1151
  8
ODPAD
 10
28.50000000000036
 20
-20.99999999999999
 30
-212.5000000000003
 70
   192
  0
VERTEX
  5
1152
  8
ODPAD
 10
0.0
 20
0.0
 30
0.0
 70
   128
 71
     1
 72
     4
 73
    -3
  0
VERTEX
  5
1153
  8
ODPAD
 10
0.0
 20
0.0
 30
0.0
 70
   128
 71
    -1
 72
     3
 73
     2
  0
SEQEND
  5
139D
  8
ODPAD
  0
POLYLINE
  5
1154
  8
ODPAD
 66
     1
 10
0.0
 20
0.0
 30
0.0
 70
    64
 71
     4
 72
     2
  0
VERTEX
  5
1155
  8
ODPAD
 10
12.00000000000034
 20
-20.99999999999999
 30
-212.5000000000003
 70
   192
  0
VERTEX
  5
1156
  8
ODPAD
 10
12.00000000000034
 20
-19.99999999999999
 30
-212.5000000000003
 70
   192
  0
VERTEX
  5
1157
  8
ODPAD
 10
12.00000000000034
 20
-19.99999999999999
 30
-221.5000000000003
 70
   192
  0
VERTEX
  5
1158
  8
ODPAD
 10
12.00000000000034
 20
-20.99999999999999
 30
-221.5000000000003
 70
   192
  0
VERTEX
  5
1159
  8
ODPAD
 10
0.0
 20
0.0
 30
0.0
 70
   128
 71
     1
 72
     4
 73
    -3
  0
VERTEX
  5
115A
  8
ODPAD
 10
0.0
 20
0.0
 30
0.0
 70
   128
 71
    -1
 72
     3
 73
     2
  0
SEQEND
  5
139E
  8
ODPAD
  0
POLYLINE
  5
115B
  8
ODPAD
 66
     1
 10
0.0
 20
0.0
 30
0.0
 70
    64
 71
     4
 72
     2
  0
VERTEX
  5
115C
  8
ODPAD
 10
12.00000000000034
 20
-20.99999999999999
 30
-221.5000000000003
 70
   192
  0
VERTEX
  5
115D
  8
ODPAD
 10
12.00000000000034
 20
-19.99999999999999
 30
-221.5000000000003
 70
   192
  0
VERTEX
  5
115E
  8
ODPAD
 10
21.00000000000035
 20
-19.99999999999999
 30
-221.5000000000003
 70
   192
  0
VERTEX
  5
115F
  8
ODPAD
 10
21.00000000000035
 20
-20.99999999999999
 30
-221.5000000000003
 70
   192
  0
VERTEX
  5
1160
  8
ODPAD
 10
0.0
 20
0.0
 30
0.0
 70
   128
 71
     1
 72
     4
 73
    -3
  0
VERTEX
  5
1161
  8
ODPAD
 10
0.0
 20
0.0
 30
0.0
 70
   128
 71
    -1
 72
     3
 73
     2
  0
SEQEND
  5
139F
  8
ODPAD
  0
POLYLINE
  5
1162
  8
ODPAD
 66
     1
 10
0.0
 20
0.0
 30
0.0
 70
    64
 71
     4
 72
     2
  0
VERTEX
  5
1163
  8
ODPAD
 10
21.00000000000035
 20
-20.99999999999999
 30
-221.5000000000003
 70
   192
  0
VERTEX
  5
1164
  8
ODPAD
 10
21.00000000000035
 20
-19.99999999999999
 30
-221.5000000000003
 70
   192
  0
VERTEX
  5
1165
  8
ODPAD
 10
21.00000000000035
 20
-19.99999999999999
 30
-212.5000000000003
 70
   192
  0
VERTEX
  5
1166
  8
ODPAD
 10
21.00000000000035
 20
-20.99999999999999
 30
-212.5000000000003
 70
   192
  0
VERTEX
  5
1167
  8
ODPAD
 10
0.0
 20
0.0
 30
0.0
 70
   128
 71
     1
 72
     4
 73
    -3
  0
VERTEX
  5
1168
  8
ODPAD
 10
0.0
 20
0.0
 30
0.0
 70
   128
 71
    -1
 72
     3
 73
     2
  0
SEQEND
  5
13A0
  8
ODPAD
  0
POLYLINE
  5
1169
  8
ODPAD
 66
     1
 10
0.0
 20
0.0
 30
0.0
 70
    64
 71
     4
 72
     2
  0
VERTEX
  5
116A
  8
ODPAD
 10
21.00000000000035
 20
-20.99999999999999
 30
-212.5000000000003
 70
   192
  0
VERTEX
  5
116B
  8
ODPAD
 10
21.00000000000035
 20
-19.99999999999999
 30
-212.5000000000003
 70
   192
  0
VERTEX
  5
116C
  8
ODPAD
 10
12.00000000000034
 20
-19.99999999999999
 30
-212.5000000000003
 70
   192
  0
VERTEX
  5
116D
  8
ODPAD
 10
12.00000000000034
 20
-20.99999999999999
 30
-212.5000000000003
 70
   192
  0
VERTEX
  5
116E
  8
ODPAD
 10
0.0
 20
0.0
 30
0.0
 70
   128
 71
     1
 72
     4
 73
    -3
  0
VERTEX
  5
116F
  8
ODPAD
 10
0.0
 20
0.0
 30
0.0
 70
   128
 71
    -1
 72
     3
 73
     2
  0
SEQEND
  5
13A1
  8
ODPAD
  0
POLYLINE
  5
1170
  8
ODPAD
 66
     1
 10
0.0
 20
0.0
 30
0.0
 70
    64
 71
     4
 72
     2
  0
VERTEX
  5
1171
  8
ODPAD
 10
-4.499999999999643
 20
-20.99999999999999
 30
-212.5000000000003
 70
   192
  0
VERTEX
  5
1172
  8
ODPAD
 10
-4.499999999999643
 20
-19.99999999999999
 30
-212.5000000000003
 70
   192
  0
VERTEX
  5
1173
  8
ODPAD
 10
-4.499999999999643
 20
-19.99999999999999
 30
-221.5000000000003
 70
   192
  0
VERTEX
  5
1174
  8
ODPAD
 10
-4.499999999999643
 20
-20.99999999999999
 30
-221.5000000000003
 70
   192
  0
VERTEX
  5
1175
  8
ODPAD
 10
0.0
 20
0.0
 30
0.0
 70
   128
 71
     1
 72
     4
 73
    -3
  0
VERTEX
  5
1176
  8
ODPAD
 10
0.0
 20
0.0
 30
0.0
 70
   128
 71
    -1
 72
     3
 73
     2
  0
SEQEND
  5
13A2
  8
ODPAD
  0
POLYLINE
  5
1177
  8
ODPAD
 66
     1
 10
0.0
 20
0.0
 30
0.0
 70
    64
 71
     4
 72
     2
  0
VERTEX
  5
1178
  8
ODPAD
 10
-4.499999999999643
 20
-20.99999999999999
 30
-221.5000000000003
 70
   192
  0
VERTEX
  5
1179
  8
ODPAD
 10
-4.499999999999642
 20
-19.99999999999999
 30
-221.5000000000003
 70
   192
  0
VERTEX
  5
117A
  8
ODPAD
 10
4.500000000000351
 20
-19.99999999999999
 30
-221.5000000000003
 70
   192
  0
VERTEX
  5
117B
  8
ODPAD
 10
4.500000000000351
 20
-20.99999999999999
 30
-221.5000000000003
 70
   192
  0
VERTEX
  5
117C
  8
ODPAD
 10
0.0
 20
0.0
 30
0.0
 70
   128
 71
     1
 72
     4
 73
    -3
  0
VERTEX
  5
117D
  8
ODPAD
 10
0.0
 20
0.0
 30
0.0
 70
   128
 71
    -1
 72
     3
 73
     2
  0
SEQEND
  5
13A3
  8
ODPAD
  0
POLYLINE
  5
117E
  8
ODPAD
 66
     1
 10
0.0
 20
0.0
 30
0.0
 70
    64
 71
     4
 72
     2
  0
VERTEX
  5
117F
  8
ODPAD
 10
4.500000000000351
 20
-20.99999999999999
 30
-221.5000000000003
 70
   192
  0
VERTEX
  5
1180
  8
ODPAD
 10
4.500000000000351
 20
-19.99999999999999
 30
-221.5000000000003
 70
   192
  0
VERTEX
  5
1181
  8
ODPAD
 10
4.500000000000351
 20
-19.99999999999999
 30
-212.5000000000003
 70
   192
  0
VERTEX
  5
1182
  8
ODPAD
 10
4.500000000000351
 20
-20.99999999999999
 30
-212.5000000000003
 70
   192
  0
VERTEX
  5
1183
  8
ODPAD
 10
0.0
 20
0.0
 30
0.0
 70
   128
 71
     1
 72
     4
 73
    -3
  0
VERTEX
  5
1184
  8
ODPAD
 10
0.0
 20
0.0
 30
0.0
 70
   128
 71
    -1
 72
     3
 73
     2
  0
SEQEND
  5
13A4
  8
ODPAD
  0
POLYLINE
  5
1185
  8
ODPAD
 66
     1
 10
0.0
 20
0.0
 30
0.0
 70
    64
 71
     4
 72
     2
  0
VERTEX
  5
1186
  8
ODPAD
 10
4.500000000000351
 20
-20.99999999999999
 30
-212.5000000000003
 70
   192
  0
VERTEX
  5
1187
  8
ODPAD
 10
4.500000000000351
 20
-19.99999999999999
 30
-212.5000000000003
 70
   192
  0
VERTEX
  5
1188
  8
ODPAD
 10
-4.499999999999643
 20
-19.99999999999999
 30
-212.5000000000003
 70
   192
  0
VERTEX
  5
1189
  8
ODPAD
 10
-4.499999999999642
 20
-20.99999999999999
 30
-212.5000000000003
 70
   192
  0
VERTEX
  5
118A
  8
ODPAD
 10
0.0
 20
0.0
 30
0.0
 70
   128
 71
     1
 72
     4
 73
    -3
  0
VERTEX
  5
118B
  8
ODPAD
 10
0.0
 20
0.0
 30
0.0
 70
   128
 71
    -1
 72
     3
 73
     2
  0
SEQEND
  5
13A5
  8
ODPAD
  0
POLYLINE
  5
118C
  8
ODPAD
 66
     1
 10
0.0
 20
0.0
 30
0.0
 70
    64
 71
     4
 72
     2
  0
VERTEX
  5
118D
  8
ODPAD
 10
-20.99999999999966
 20
-20.99999999999999
 30
-212.5000000000003
 70
   192
  0
VERTEX
  5
118E
  8
ODPAD
 10
-20.99999999999966
 20
-19.99999999999999
 30
-212.5000000000003
 70
   192
  0
VERTEX
  5
118F
  8
ODPAD
 10
-20.99999999999966
 20
-19.99999999999999
 30
-221.5000000000003
 70
   192
  0
VERTEX
  5
1190
  8
ODPAD
 10
-20.99999999999966
 20
-20.99999999999999
 30
-221.5000000000003
 70
   192
  0
VERTEX
  5
1191
  8
ODPAD
 10
0.0
 20
0.0
 30
0.0
 70
   128
 71
     1
 72
     4
 73
    -3
  0
VERTEX
  5
1192
  8
ODPAD
 10
0.0
 20
0.0
 30
0.0
 70
   128
 71
    -1
 72
     3
 73
     2
  0
SEQEND
  5
13A6
  8
ODPAD
  0
POLYLINE
  5
1193
  8
ODPAD
 66
     1
 10
0.0
 20
0.0
 30
0.0
 70
    64
 71
     4
 72
     2
  0
VERTEX
  5
1194
  8
ODPAD
 10
-20.99999999999966
 20
-20.99999999999999
 30
-221.5000000000003
 70
   192
  0
VERTEX
  5
1195
  8
ODPAD
 10
-20.99999999999966
 20
-19.99999999999999
 30
-221.5000000000003
 70
   192
  0
VERTEX
  5
1196
  8
ODPAD
 10
-11.99999999999965
 20
-19.99999999999999
 30
-221.5000000000003
 70
   192
  0
VERTEX
  5
1197
  8
ODPAD
 10
-11.99999999999965
 20
-20.99999999999999
 30
-221.5000000000003
 70
   192
  0
VERTEX
  5
1198
  8
ODPAD
 10
0.0
 20
0.0
 30
0.0
 70
   128
 71
     1
 72
     4
 73
    -3
  0
VERTEX
  5
1199
  8
ODPAD
 10
0.0
 20
0.0
 30
0.0
 70
   128
 71
    -1
 72
     3
 73
     2
  0
SEQEND
  5
13A7
  8
ODPAD
  0
POLYLINE
  5
119A
  8
ODPAD
 66
     1
 10
0.0
 20
0.0
 30
0.0
 70
    64
 71
     4
 72
     2
  0
VERTEX
  5
119B
  8
ODPAD
 10
-11.99999999999965
 20
-20.99999999999999
 30
-221.5000000000003
 70
   192
  0
VERTEX
  5
119C
  8
ODPAD
 10
-11.99999999999965
 20
-19.99999999999999
 30
-221.5000000000003
 70
   192
  0
VERTEX
  5
119D
  8
ODPAD
 10
-11.99999999999965
 20
-19.99999999999999
 30
-212.5000000000003
 70
   192
  0
VERTEX
  5
119E
  8
ODPAD
 10
-11.99999999999965
 20
-20.99999999999999
 30
-212.5000000000003
 70
   192
  0
VERTEX
  5
119F
  8
ODPAD
 10
0.0
 20
0.0
 30
0.0
 70
   128
 71
     1
 72
     4
 73
    -3
  0
VERTEX
  5
11A0
  8
ODPAD
 10
0.0
 20
0.0
 30
0.0
 70
   128
 71
    -1
 72
     3
 73
     2
  0
SEQEND
  5
13A8
  8
ODPAD
  0
POLYLINE
  5
11A1
  8
ODPAD
 66
     1
 10
0.0
 20
0.0
 30
0.0
 70
    64
 71
     4
 72
     2
  0
VERTEX
  5
11A2
  8
ODPAD
 10
-11.99999999999965
 20
-20.99999999999999
 30
-212.5000000000003
 70
   192
  0
VERTEX
  5
11A3
  8
ODPAD
 10
-11.99999999999965
 20
-19.99999999999999
 30
-212.5000000000003
 70
   192
  0
VERTEX
  5
11A4
  8
ODPAD
 10
-20.99999999999966
 20
-19.99999999999999
 30
-212.5000000000003
 70
   192
  0
VERTEX
  5
11A5
  8
ODPAD
 10
-20.99999999999966
 20
-20.99999999999999
 30
-212.5000000000003
 70
   192
  0
VERTEX
  5
11A6
  8
ODPAD
 10
0.0
 20
0.0
 30
0.0
 70
   128
 71
     1
 72
     4
 73
    -3
  0
VERTEX
  5
11A7
  8
ODPAD
 10
0.0
 20
0.0
 30
0.0
 70
   128
 71
    -1
 72
     3
 73
     2
  0
SEQEND
  5
13A9
  8
ODPAD
  0
POLYLINE
  5
11A8
  8
ODPAD
 66
     1
 10
0.0
 20
0.0
 30
0.0
 70
    64
 71
     4
 72
     2
  0
VERTEX
  5
11A9
  8
ODPAD
 10
28.50000000000016
 20
-20.99999999999999
 30
-229.0000000000003
 70
   192
  0
VERTEX
  5
11AA
  8
ODPAD
 10
28.50000000000016
 20
-19.99999999999999
 30
-229.0000000000003
 70
   192
  0
VERTEX
  5
11AB
  8
ODPAD
 10
28.50000000000016
 20
-19.99999999999999
 30
-238.0000000000003
 70
   192
  0
VERTEX
  5
11AC
  8
ODPAD
 10
28.50000000000016
 20
-20.99999999999999
 30
-238.0000000000003
 70
   192
  0
VERTEX
  5
11AD
  8
ODPAD
 10
0.0
 20
0.0
 30
0.0
 70
   128
 71
     1
 72
     4
 73
    -3
  0
VERTEX
  5
11AE
  8
ODPAD
 10
0.0
 20
0.0
 30
0.0
 70
   128
 71
    -1
 72
     3
 73
     2
  0
SEQEND
  5
13AA
  8
ODPAD
  0
POLYLINE
  5
11AF
  8
ODPAD
 66
     1
 10
0.0
 20
0.0
 30
0.0
 70
    64
 71
     4
 72
     2
  0
VERTEX
  5
11B0
  8
ODPAD
 10
28.50000000000016
 20
-20.99999999999999
 30
-238.0000000000003
 70
   192
  0
VERTEX
  5
11B1
  8
ODPAD
 10
28.50000000000016
 20
-19.99999999999999
 30
-238.0000000000003
 70
   192
  0
VERTEX
  5
11B2
  8
ODPAD
 10
37.50000000000017
 20
-19.99999999999999
 30
-238.0000000000003
 70
   192
  0
VERTEX
  5
11B3
  8
ODPAD
 10
37.50000000000017
 20
-20.99999999999999
 30
-238.0000000000003
 70
   192
  0
VERTEX
  5
11B4
  8
ODPAD
 10
0.0
 20
0.0
 30
0.0
 70
   128
 71
     1
 72
     4
 73
    -3
  0
VERTEX
  5
11B5
  8
ODPAD
 10
0.0
 20
0.0
 30
0.0
 70
   128
 71
    -1
 72
     3
 73
     2
  0
SEQEND
  5
13AB
  8
ODPAD
  0
POLYLINE
  5
11B6
  8
ODPAD
 66
     1
 10
0.0
 20
0.0
 30
0.0
 70
    64
 71
     4
 72
     2
  0
VERTEX
  5
11B7
  8
ODPAD
 10
37.50000000000017
 20
-20.99999999999999
 30
-238.0000000000003
 70
   192
  0
VERTEX
  5
11B8
  8
ODPAD
 10
37.50000000000017
 20
-19.99999999999999
 30
-238.0000000000003
 70
   192
  0
VERTEX
  5
11B9
  8
ODPAD
 10
37.50000000000017
 20
-19.99999999999999
 30
-229.0000000000003
 70
   192
  0
VERTEX
  5
11BA
  8
ODPAD
 10
37.50000000000017
 20
-20.99999999999999
 30
-229.0000000000003
 70
   192
  0
VERTEX
  5
11BB
  8
ODPAD
 10
0.0
 20
0.0
 30
0.0
 70
   128
 71
     1
 72
     4
 73
    -3
  0
VERTEX
  5
11BC
  8
ODPAD
 10
0.0
 20
0.0
 30
0.0
 70
   128
 71
    -1
 72
     3
 73
     2
  0
SEQEND
  5
13AC
  8
ODPAD
  0
POLYLINE
  5
11BD
  8
ODPAD
 66
     1
 10
0.0
 20
0.0
 30
0.0
 70
    64
 71
     4
 72
     2
  0
VERTEX
  5
11BE
  8
ODPAD
 10
37.50000000000017
 20
-20.99999999999999
 30
-229.0000000000003
 70
   192
  0
VERTEX
  5
11BF
  8
ODPAD
 10
37.50000000000017
 20
-19.99999999999999
 30
-229.0000000000003
 70
   192
  0
VERTEX
  5
11C0
  8
ODPAD
 10
28.50000000000016
 20
-19.99999999999999
 30
-229.0000000000003
 70
   192
  0
VERTEX
  5
11C1
  8
ODPAD
 10
28.50000000000016
 20
-20.99999999999999
 30
-229.0000000000003
 70
   192
  0
VERTEX
  5
11C2
  8
ODPAD
 10
0.0
 20
0.0
 30
0.0
 70
   128
 71
     1
 72
     4
 73
    -3
  0
VERTEX
  5
11C3
  8
ODPAD
 10
0.0
 20
0.0
 30
0.0
 70
   128
 71
    -1
 72
     3
 73
     2
  0
SEQEND
  5
13AD
  8
ODPAD
  0
POLYLINE
  5
11C4
  8
ODPAD
 66
     1
 10
0.0
 20
0.0
 30
0.0
 70
    64
 71
     4
 72
     2
  0
VERTEX
  5
11C5
  8
ODPAD
 10
12.00000000000018
 20
-20.99999999999999
 30
-229.0000000000003
 70
   192
  0
VERTEX
  5
11C6
  8
ODPAD
 10
12.00000000000018
 20
-19.99999999999999
 30
-229.0000000000003
 70
   192
  0
VERTEX
  5
11C7
  8
ODPAD
 10
12.00000000000018
 20
-19.99999999999999
 30
-238.0000000000003
 70
   192
  0
VERTEX
  5
11C8
  8
ODPAD
 10
12.00000000000018
 20
-20.99999999999999
 30
-238.0000000000003
 70
   192
  0
VERTEX
  5
11C9
  8
ODPAD
 10
0.0
 20
0.0
 30
0.0
 70
   128
 71
     1
 72
     4
 73
    -3
  0
VERTEX
  5
11CA
  8
ODPAD
 10
0.0
 20
0.0
 30
0.0
 70
   128
 71
    -1
 72
     3
 73
     2
  0
SEQEND
  5
13AE
  8
ODPAD
  0
POLYLINE
  5
11CB
  8
ODPAD
 66
     1
 10
0.0
 20
0.0
 30
0.0
 70
    64
 71
     4
 72
     2
  0
VERTEX
  5
11CC
  8
ODPAD
 10
12.00000000000018
 20
-20.99999999999999
 30
-238.0000000000003
 70
   192
  0
VERTEX
  5
11CD
  8
ODPAD
 10
12.00000000000018
 20
-19.99999999999999
 30
-238.0000000000003
 70
   192
  0
VERTEX
  5
11CE
  8
ODPAD
 10
21.00000000000017
 20
-19.99999999999999
 30
-238.0000000000003
 70
   192
  0
VERTEX
  5
11CF
  8
ODPAD
 10
21.00000000000017
 20
-20.99999999999999
 30
-238.0000000000003
 70
   192
  0
VERTEX
  5
11D0
  8
ODPAD
 10
0.0
 20
0.0
 30
0.0
 70
   128
 71
     1
 72
     4
 73
    -3
  0
VERTEX
  5
11D1
  8
ODPAD
 10
0.0
 20
0.0
 30
0.0
 70
   128
 71
    -1
 72
     3
 73
     2
  0
SEQEND
  5
13AF
  8
ODPAD
  0
POLYLINE
  5
11D2
  8
ODPAD
 66
     1
 10
0.0
 20
0.0
 30
0.0
 70
    64
 71
     4
 72
     2
  0
VERTEX
  5
11D3
  8
ODPAD
 10
21.00000000000017
 20
-20.99999999999999
 30
-238.0000000000003
 70
   192
  0
VERTEX
  5
11D4
  8
ODPAD
 10
21.00000000000017
 20
-19.99999999999999
 30
-238.0000000000003
 70
   192
  0
VERTEX
  5
11D5
  8
ODPAD
 10
21.00000000000017
 20
-19.99999999999999
 30
-229.0000000000003
 70
   192
  0
VERTEX
  5
11D6
  8
ODPAD
 10
21.00000000000017
 20
-20.99999999999999
 30
-229.0000000000003
 70
   192
  0
VERTEX
  5
11D7
  8
ODPAD
 10
0.0
 20
0.0
 30
0.0
 70
   128
 71
     1
 72
     4
 73
    -3
  0
VERTEX
  5
11D8
  8
ODPAD
 10
0.0
 20
0.0
 30
0.0
 70
   128
 71
    -1
 72
     3
 73
     2
  0
SEQEND
  5
13B0
  8
ODPAD
  0
POLYLINE
  5
11D9
  8
ODPAD
 66
     1
 10
0.0
 20
0.0
 30
0.0
 70
    64
 71
     4
 72
     2
  0
VERTEX
  5
11DA
  8
ODPAD
 10
21.00000000000017
 20
-20.99999999999999
 30
-229.0000000000003
 70
   192
  0
VERTEX
  5
11DB
  8
ODPAD
 10
21.00000000000017
 20
-19.99999999999999
 30
-229.0000000000003
 70
   192
  0
VERTEX
  5
11DC
  8
ODPAD
 10
12.00000000000018
 20
-19.99999999999999
 30
-229.0000000000003
 70
   192
  0
VERTEX
  5
11DD
  8
ODPAD
 10
12.00000000000018
 20
-20.99999999999999
 30
-229.0000000000003
 70
   192
  0
VERTEX
  5
11DE
  8
ODPAD
 10
0.0
 20
0.0
 30
0.0
 70
   128
 71
     1
 72
     4
 73
    -3
  0
VERTEX
  5
11DF
  8
ODPAD
 10
0.0
 20
0.0
 30
0.0
 70
   128
 71
    -1
 72
     3
 73
     2
  0
SEQEND
  5
13B1
  8
ODPAD
  0
POLYLINE
  5
11E0
  8
ODPAD
 66
     1
 10
0.0
 20
0.0
 30
0.0
 70
    64
 71
     4
 72
     2
  0
VERTEX
  5
11E1
  8
ODPAD
 10
-4.499999999999823
 20
-20.99999999999999
 30
-229.0000000000003
 70
   192
  0
VERTEX
  5
11E2
  8
ODPAD
 10
-4.499999999999823
 20
-19.99999999999999
 30
-229.0000000000003
 70
   192
  0
VERTEX
  5
11E3
  8
ODPAD
 10
-4.499999999999823
 20
-19.99999999999999
 30
-238.0000000000003
 70
   192
  0
VERTEX
  5
11E4
  8
ODPAD
 10
-4.499999999999823
 20
-20.99999999999999
 30
-238.0000000000003
 70
   192
  0
VERTEX
  5
11E5
  8
ODPAD
 10
0.0
 20
0.0
 30
0.0
 70
   128
 71
     1
 72
     4
 73
    -3
  0
VERTEX
  5
11E6
  8
ODPAD
 10
0.0
 20
0.0
 30
0.0
 70
   128
 71
    -1
 72
     3
 73
     2
  0
SEQEND
  5
13B2
  8
ODPAD
  0
POLYLINE
  5
11E7
  8
ODPAD
 66
     1
 10
0.0
 20
0.0
 30
0.0
 70
    64
 71
     4
 72
     2
  0
VERTEX
  5
11E8
  8
ODPAD
 10
-4.499999999999823
 20
-20.99999999999999
 30
-238.0000000000003
 70
   192
  0
VERTEX
  5
11E9
  8
ODPAD
 10
-4.499999999999822
 20
-19.99999999999999
 30
-238.0000000000003
 70
   192
  0
VERTEX
  5
11EA
  8
ODPAD
 10
4.500000000000171
 20
-19.99999999999999
 30
-238.0000000000003
 70
   192
  0
VERTEX
  5
11EB
  8
ODPAD
 10
4.500000000000171
 20
-20.99999999999999
 30
-238.0000000000003
 70
   192
  0
VERTEX
  5
11EC
  8
ODPAD
 10
0.0
 20
0.0
 30
0.0
 70
   128
 71
     1
 72
     4
 73
    -3
  0
VERTEX
  5
11ED
  8
ODPAD
 10
0.0
 20
0.0
 30
0.0
 70
   128
 71
    -1
 72
     3
 73
     2
  0
SEQEND
  5
13B3
  8
ODPAD
  0
POLYLINE
  5
11EE
  8
ODPAD
 66
     1
 10
0.0
 20
0.0
 30
0.0
 70
    64
 71
     4
 72
     2
  0
VERTEX
  5
11EF
  8
ODPAD
 10
4.500000000000171
 20
-20.99999999999999
 30
-238.0000000000003
 70
   192
  0
VERTEX
  5
11F0
  8
ODPAD
 10
4.500000000000171
 20
-19.99999999999999
 30
-238.0000000000003
 70
   192
  0
VERTEX
  5
11F1
  8
ODPAD
 10
4.500000000000171
 20
-19.99999999999999
 30
-229.0000000000003
 70
   192
  0
VERTEX
  5
11F2
  8
ODPAD
 10
4.500000000000171
 20
-20.99999999999999
 30
-229.0000000000003
 70
   192
  0
VERTEX
  5
11F3
  8
ODPAD
 10
0.0
 20
0.0
 30
0.0
 70
   128
 71
     1
 72
     4
 73
    -3
  0
VERTEX
  5
11F4
  8
ODPAD
 10
0.0
 20
0.0
 30
0.0
 70
   128
 71
    -1
 72
     3
 73
     2
  0
SEQEND
  5
13B4
  8
ODPAD
  0
POLYLINE
  5
11F5
  8
ODPAD
 66
     1
 10
0.0
 20
0.0
 30
0.0
 70
    64
 71
     4
 72
     2
  0
VERTEX
  5
11F6
  8
ODPAD
 10
4.500000000000171
 20
-20.99999999999999
 30
-229.0000000000003
 70
   192
  0
VERTEX
  5
11F7
  8
ODPAD
 10
4.500000000000171
 20
-19.99999999999999
 30
-229.0000000000003
 70
   192
  0
VERTEX
  5
11F8
  8
ODPAD
 10
-4.499999999999823
 20
-19.99999999999999
 30
-229.0000000000003
 70
   192
  0
VERTEX
  5
11F9
  8
ODPAD
 10
-4.499999999999822
 20
-20.99999999999999
 30
-229.0000000000003
 70
   192
  0
VERTEX
  5
11FA
  8
ODPAD
 10
0.0
 20
0.0
 30
0.0
 70
   128
 71
     1
 72
     4
 73
    -3
  0
VERTEX
  5
11FB
  8
ODPAD
 10
0.0
 20
0.0
 30
0.0
 70
   128
 71
    -1
 72
     3
 73
     2
  0
SEQEND
  5
13B5
  8
ODPAD
  0
POLYLINE
  5
11FC
  8
ODPAD
 66
     1
 10
0.0
 20
0.0
 30
0.0
 70
    64
 71
     4
 72
     2
  0
VERTEX
  5
11FD
  8
ODPAD
 10
-20.99999999999983
 20
-20.99999999999999
 30
-229.0000000000003
 70
   192
  0
VERTEX
  5
11FE
  8
ODPAD
 10
-20.99999999999983
 20
-19.99999999999999
 30
-229.0000000000003
 70
   192
  0
VERTEX
  5
11FF
  8
ODPAD
 10
-20.99999999999983
 20
-19.99999999999999
 30
-238.0000000000003
 70
   192
  0
VERTEX
  5
1200
  8
ODPAD
 10
-20.99999999999983
 20
-20.99999999999999
 30
-238.0000000000003
 70
   192
  0
VERTEX
  5
1201
  8
ODPAD
 10
0.0
 20
0.0
 30
0.0
 70
   128
 71
     1
 72
     4
 73
    -3
  0
VERTEX
  5
1202
  8
ODPAD
 10
0.0
 20
0.0
 30
0.0
 70
   128
 71
    -1
 72
     3
 73
     2
  0
SEQEND
  5
13B6
  8
ODPAD
  0
POLYLINE
  5
1203
  8
ODPAD
 66
     1
 10
0.0
 20
0.0
 30
0.0
 70
    64
 71
     4
 72
     2
  0
VERTEX
  5
1204
  8
ODPAD
 10
-20.99999999999983
 20
-20.99999999999999
 30
-238.0000000000003
 70
   192
  0
VERTEX
  5
1205
  8
ODPAD
 10
-20.99999999999983
 20
-19.99999999999999
 30
-238.0000000000003
 70
   192
  0
VERTEX
  5
1206
  8
ODPAD
 10
-11.99999999999983
 20
-19.99999999999999
 30
-238.0000000000003
 70
   192
  0
VERTEX
  5
1207
  8
ODPAD
 10
-11.99999999999983
 20
-20.99999999999999
 30
-238.0000000000003
 70
   192
  0
VERTEX
  5
1208
  8
ODPAD
 10
0.0
 20
0.0
 30
0.0
 70
   128
 71
     1
 72
     4
 73
    -3
  0
VERTEX
  5
1209
  8
ODPAD
 10
0.0
 20
0.0
 30
0.0
 70
   128
 71
    -1
 72
     3
 73
     2
  0
SEQEND
  5
13B7
  8
ODPAD
  0
POLYLINE
  5
120A
  8
ODPAD
 66
     1
 10
0.0
 20
0.0
 30
0.0
 70
    64
 71
     4
 72
     2
  0
VERTEX
  5
120B
  8
ODPAD
 10
-11.99999999999983
 20
-20.99999999999999
 30
-238.0000000000003
 70
   192
  0
VERTEX
  5
120C
  8
ODPAD
 10
-11.99999999999983
 20
-19.99999999999999
 30
-238.0000000000003
 70
   192
  0
VERTEX
  5
120D
  8
ODPAD
 10
-11.99999999999983
 20
-19.99999999999999
 30
-229.0000000000003
 70
   192
  0
VERTEX
  5
120E
  8
ODPAD
 10
-11.99999999999983
 20
-20.99999999999999
 30
-229.0000000000003
 70
   192
  0
VERTEX
  5
120F
  8
ODPAD
 10
0.0
 20
0.0
 30
0.0
 70
   128
 71
     1
 72
     4
 73
    -3
  0
VERTEX
  5
1210
  8
ODPAD
 10
0.0
 20
0.0
 30
0.0
 70
   128
 71
    -1
 72
     3
 73
     2
  0
SEQEND
  5
13B8
  8
ODPAD
  0
POLYLINE
  5
1211
  8
ODPAD
 66
     1
 10
0.0
 20
0.0
 30
0.0
 70
    64
 71
     4
 72
     2
  0
VERTEX
  5
1212
  8
ODPAD
 10
-11.99999999999983
 20
-20.99999999999999
 30
-229.0000000000003
 70
   192
  0
VERTEX
  5
1213
  8
ODPAD
 10
-11.99999999999983
 20
-19.99999999999999
 30
-229.0000000000003
 70
   192
  0
VERTEX
  5
1214
  8
ODPAD
 10
-20.99999999999983
 20
-19.99999999999999
 30
-229.0000000000003
 70
   192
  0
VERTEX
  5
1215
  8
ODPAD
 10
-20.99999999999983
 20
-20.99999999999999
 30
-229.0000000000003
 70
   192
  0
VERTEX
  5
1216
  8
ODPAD
 10
0.0
 20
0.0
 30
0.0
 70
   128
 71
     1
 72
     4
 73
    -3
  0
VERTEX
  5
1217
  8
ODPAD
 10
0.0
 20
0.0
 30
0.0
 70
   128
 71
    -1
 72
     3
 73
     2
  0
SEQEND
  5
13B9
  8
ODPAD
  0
POLYLINE
  5
1218
  8
ODPAD
 66
     1
 10
0.0
 20
0.0
 30
0.0
 70
    64
 71
     4
 72
     2
  0
VERTEX
  5
1219
  8
ODPAD
 10
28.5
 20
-20.99999999999999
 30
-245.5000000000003
 70
   192
  0
VERTEX
  5
121A
  8
ODPAD
 10
28.5
 20
-19.99999999999999
 30
-245.5000000000003
 70
   192
  0
VERTEX
  5
121B
  8
ODPAD
 10
28.5
 20
-19.99999999999999
 30
-254.5000000000003
 70
   192
  0
VERTEX
  5
121C
  8
ODPAD
 10
28.5
 20
-20.99999999999999
 30
-254.5000000000003
 70
   192
  0
VERTEX
  5
121D
  8
ODPAD
 10
0.0
 20
0.0
 30
0.0
 70
   128
 71
     1
 72
     4
 73
    -3
  0
VERTEX
  5
121E
  8
ODPAD
 10
0.0
 20
0.0
 30
0.0
 70
   128
 71
    -1
 72
     3
 73
     2
  0
SEQEND
  5
13BA
  8
ODPAD
  0
POLYLINE
  5
121F
  8
ODPAD
 66
     1
 10
0.0
 20
0.0
 30
0.0
 70
    64
 71
     4
 72
     2
  0
VERTEX
  5
1220
  8
ODPAD
 10
28.5
 20
-20.99999999999999
 30
-254.5000000000003
 70
   192
  0
VERTEX
  5
1221
  8
ODPAD
 10
28.5
 20
-19.99999999999999
 30
-254.5000000000003
 70
   192
  0
VERTEX
  5
1222
  8
ODPAD
 10
37.50000000000001
 20
-19.99999999999999
 30
-254.5000000000003
 70
   192
  0
VERTEX
  5
1223
  8
ODPAD
 10
37.50000000000001
 20
-20.99999999999999
 30
-254.5000000000003
 70
   192
  0
VERTEX
  5
1224
  8
ODPAD
 10
0.0
 20
0.0
 30
0.0
 70
   128
 71
     1
 72
     4
 73
    -3
  0
VERTEX
  5
1225
  8
ODPAD
 10
0.0
 20
0.0
 30
0.0
 70
   128
 71
    -1
 72
     3
 73
     2
  0
SEQEND
  5
13BB
  8
ODPAD
  0
POLYLINE
  5
1226
  8
ODPAD
 66
     1
 10
0.0
 20
0.0
 30
0.0
 70
    64
 71
     4
 72
     2
  0
VERTEX
  5
1227
  8
ODPAD
 10
37.50000000000001
 20
-20.99999999999999
 30
-254.5000000000003
 70
   192
  0
VERTEX
  5
1228
  8
ODPAD
 10
37.50000000000001
 20
-19.99999999999999
 30
-254.5000000000003
 70
   192
  0
VERTEX
  5
1229
  8
ODPAD
 10
37.50000000000001
 20
-19.99999999999999
 30
-245.5000000000003
 70
   192
  0
VERTEX
  5
122A
  8
ODPAD
 10
37.50000000000001
 20
-20.99999999999999
 30
-245.5000000000003
 70
   192
  0
VERTEX
  5
122B
  8
ODPAD
 10
0.0
 20
0.0
 30
0.0
 70
   128
 71
     1
 72
     4
 73
    -3
  0
VERTEX
  5
122C
  8
ODPAD
 10
0.0
 20
0.0
 30
0.0
 70
   128
 71
    -1
 72
     3
 73
     2
  0
SEQEND
  5
13BC
  8
ODPAD
  0
POLYLINE
  5
122D
  8
ODPAD
 66
     1
 10
0.0
 20
0.0
 30
0.0
 70
    64
 71
     4
 72
     2
  0
VERTEX
  5
122E
  8
ODPAD
 10
37.50000000000001
 20
-20.99999999999999
 30
-245.5000000000003
 70
   192
  0
VERTEX
  5
122F
  8
ODPAD
 10
37.50000000000001
 20
-19.99999999999999
 30
-245.5000000000003
 70
   192
  0
VERTEX
  5
1230
  8
ODPAD
 10
28.5
 20
-19.99999999999999
 30
-245.5000000000003
 70
   192
  0
VERTEX
  5
1231
  8
ODPAD
 10
28.5
 20
-20.99999999999999
 30
-245.5000000000003
 70
   192
  0
VERTEX
  5
1232
  8
ODPAD
 10
0.0
 20
0.0
 30
0.0
 70
   128
 71
     1
 72
     4
 73
    -3
  0
VERTEX
  5
1233
  8
ODPAD
 10
0.0
 20
0.0
 30
0.0
 70
   128
 71
    -1
 72
     3
 73
     2
  0
SEQEND
  5
13BD
  8
ODPAD
  0
POLYLINE
  5
1234
  8
ODPAD
 66
     1
 10
0.0
 20
0.0
 30
0.0
 70
    64
 71
     4
 72
     2
  0
VERTEX
  5
1235
  8
ODPAD
 10
12.00000000000001
 20
-20.99999999999999
 30
-245.5000000000003
 70
   192
  0
VERTEX
  5
1236
  8
ODPAD
 10
12.00000000000001
 20
-19.99999999999999
 30
-245.5000000000003
 70
   192
  0
VERTEX
  5
1237
  8
ODPAD
 10
12.00000000000001
 20
-19.99999999999999
 30
-254.5000000000003
 70
   192
  0
VERTEX
  5
1238
  8
ODPAD
 10
12.00000000000001
 20
-20.99999999999999
 30
-254.5000000000003
 70
   192
  0
VERTEX
  5
1239
  8
ODPAD
 10
0.0
 20
0.0
 30
0.0
 70
   128
 71
     1
 72
     4
 73
    -3
  0
VERTEX
  5
123A
  8
ODPAD
 10
0.0
 20
0.0
 30
0.0
 70
   128
 71
    -1
 72
     3
 73
     2
  0
SEQEND
  5
13BE
  8
ODPAD
  0
POLYLINE
  5
123B
  8
ODPAD
 66
     1
 10
0.0
 20
0.0
 30
0.0
 70
    64
 71
     4
 72
     2
  0
VERTEX
  5
123C
  8
ODPAD
 10
12.00000000000001
 20
-20.99999999999999
 30
-254.5000000000003
 70
   192
  0
VERTEX
  5
123D
  8
ODPAD
 10
12.00000000000001
 20
-19.99999999999999
 30
-254.5000000000003
 70
   192
  0
VERTEX
  5
123E
  8
ODPAD
 10
21.0
 20
-19.99999999999999
 30
-254.5000000000003
 70
   192
  0
VERTEX
  5
123F
  8
ODPAD
 10
21.0
 20
-20.99999999999999
 30
-254.5000000000003
 70
   192
  0
VERTEX
  5
1240
  8
ODPAD
 10
0.0
 20
0.0
 30
0.0
 70
   128
 71
     1
 72
     4
 73
    -3
  0
VERTEX
  5
1241
  8
ODPAD
 10
0.0
 20
0.0
 30
0.0
 70
   128
 71
    -1
 72
     3
 73
     2
  0
SEQEND
  5
13BF
  8
ODPAD
  0
POLYLINE
  5
1242
  8
ODPAD
 66
     1
 10
0.0
 20
0.0
 30
0.0
 70
    64
 71
     4
 72
     2
  0
VERTEX
  5
1243
  8
ODPAD
 10
21.0
 20
-20.99999999999999
 30
-254.5000000000003
 70
   192
  0
VERTEX
  5
1244
  8
ODPAD
 10
21.0
 20
-19.99999999999999
 30
-254.5000000000003
 70
   192
  0
VERTEX
  5
1245
  8
ODPAD
 10
21.0
 20
-19.99999999999999
 30
-245.5000000000003
 70
   192
  0
VERTEX
  5
1246
  8
ODPAD
 10
21.0
 20
-20.99999999999999
 30
-245.5000000000003
 70
   192
  0
VERTEX
  5
1247
  8
ODPAD
 10
0.0
 20
0.0
 30
0.0
 70
   128
 71
     1
 72
     4
 73
    -3
  0
VERTEX
  5
1248
  8
ODPAD
 10
0.0
 20
0.0
 30
0.0
 70
   128
 71
    -1
 72
     3
 73
     2
  0
SEQEND
  5
13C0
  8
ODPAD
  0
POLYLINE
  5
1249
  8
ODPAD
 66
     1
 10
0.0
 20
0.0
 30
0.0
 70
    64
 71
     4
 72
     2
  0
VERTEX
  5
124A
  8
ODPAD
 10
21.0
 20
-20.99999999999999
 30
-245.5000000000003
 70
   192
  0
VERTEX
  5
124B
  8
ODPAD
 10
21.0
 20
-19.99999999999999
 30
-245.5000000000003
 70
   192
  0
VERTEX
  5
124C
  8
ODPAD
 10
12.00000000000001
 20
-19.99999999999999
 30
-245.5000000000003
 70
   192
  0
VERTEX
  5
124D
  8
ODPAD
 10
12.00000000000001
 20
-20.99999999999999
 30
-245.5000000000003
 70
   192
  0
VERTEX
  5
124E
  8
ODPAD
 10
0.0
 20
0.0
 30
0.0
 70
   128
 71
     1
 72
     4
 73
    -3
  0
VERTEX
  5
124F
  8
ODPAD
 10
0.0
 20
0.0
 30
0.0
 70
   128
 71
    -1
 72
     3
 73
     2
  0
SEQEND
  5
13C1
  8
ODPAD
  0
POLYLINE
  5
1250
  8
ODPAD
 66
     1
 10
0.0
 20
0.0
 30
0.0
 70
    64
 71
     4
 72
     2
  0
VERTEX
  5
1251
  8
ODPAD
 10
-4.500000000000004
 20
-20.99999999999999
 30
-245.5000000000003
 70
   192
  0
VERTEX
  5
1252
  8
ODPAD
 10
-4.500000000000004
 20
-19.99999999999999
 30
-245.5000000000003
 70
   192
  0
VERTEX
  5
1253
  8
ODPAD
 10
-4.500000000000004
 20
-19.99999999999999
 30
-254.5000000000003
 70
   192
  0
VERTEX
  5
1254
  8
ODPAD
 10
-4.500000000000006
 20
-20.99999999999999
 30
-254.5000000000003
 70
   192
  0
VERTEX
  5
1255
  8
ODPAD
 10
0.0
 20
0.0
 30
0.0
 70
   128
 71
     1
 72
     4
 73
    -3
  0
VERTEX
  5
1256
  8
ODPAD
 10
0.0
 20
0.0
 30
0.0
 70
   128
 71
    -1
 72
     3
 73
     2
  0
SEQEND
  5
13C2
  8
ODPAD
  0
POLYLINE
  5
1257
  8
ODPAD
 66
     1
 10
0.0
 20
0.0
 30
0.0
 70
    64
 71
     4
 72
     2
  0
VERTEX
  5
1258
  8
ODPAD
 10
-4.500000000000004
 20
-20.99999999999999
 30
-254.5000000000003
 70
   192
  0
VERTEX
  5
1259
  8
ODPAD
 10
-4.500000000000004
 20
-19.99999999999999
 30
-254.5000000000003
 70
   192
  0
VERTEX
  5
125A
  8
ODPAD
 10
4.500000000000004
 20
-19.99999999999999
 30
-254.5000000000003
 70
   192
  0
VERTEX
  5
125B
  8
ODPAD
 10
4.500000000000004
 20
-20.99999999999999
 30
-254.5000000000003
 70
   192
  0
VERTEX
  5
125C
  8
ODPAD
 10
0.0
 20
0.0
 30
0.0
 70
   128
 71
     1
 72
     4
 73
    -3
  0
VERTEX
  5
125D
  8
ODPAD
 10
0.0
 20
0.0
 30
0.0
 70
   128
 71
    -1
 72
     3
 73
     2
  0
SEQEND
  5
13C3
  8
ODPAD
  0
POLYLINE
  5
125E
  8
ODPAD
 66
     1
 10
0.0
 20
0.0
 30
0.0
 70
    64
 71
     4
 72
     2
  0
VERTEX
  5
125F
  8
ODPAD
 10
4.500000000000004
 20
-20.99999999999999
 30
-254.5000000000003
 70
   192
  0
VERTEX
  5
1260
  8
ODPAD
 10
4.500000000000004
 20
-19.99999999999999
 30
-254.5000000000003
 70
   192
  0
VERTEX
  5
1261
  8
ODPAD
 10
4.500000000000004
 20
-19.99999999999999
 30
-245.5000000000003
 70
   192
  0
VERTEX
  5
1262
  8
ODPAD
 10
4.500000000000004
 20
-20.99999999999999
 30
-245.5000000000003
 70
   192
  0
VERTEX
  5
1263
  8
ODPAD
 10
0.0
 20
0.0
 30
0.0
 70
   128
 71
     1
 72
     4
 73
    -3
  0
VERTEX
  5
1264
  8
ODPAD
 10
0.0
 20
0.0
 30
0.0
 70
   128
 71
    -1
 72
     3
 73
     2
  0
SEQEND
  5
13C4
  8
ODPAD
  0
POLYLINE
  5
1265
  8
ODPAD
 66
     1
 10
0.0
 20
0.0
 30
0.0
 70
    64
 71
     4
 72
     2
  0
VERTEX
  5
1266
  8
ODPAD
 10
4.500000000000004
 20
-20.99999999999999
 30
-245.5000000000003
 70
   192
  0
VERTEX
  5
1267
  8
ODPAD
 10
4.500000000000004
 20
-19.99999999999999
 30
-245.5000000000003
 70
   192
  0
VERTEX
  5
1268
  8
ODPAD
 10
-4.500000000000004
 20
-19.99999999999999
 30
-245.5000000000003
 70
   192
  0
VERTEX
  5
1269
  8
ODPAD
 10
-4.499999999999989
 20
-20.99999999999999
 30
-245.5000000000003
 70
   192
  0
VERTEX
  5
126A
  8
ODPAD
 10
0.0
 20
0.0
 30
0.0
 70
   128
 71
     1
 72
     4
 73
    -3
  0
VERTEX
  5
126B
  8
ODPAD
 10
0.0
 20
0.0
 30
0.0
 70
   128
 71
    -1
 72
     3
 73
     2
  0
SEQEND
  5
13C5
  8
ODPAD
  0
POLYLINE
  5
126C
  8
ODPAD
 66
     1
 10
0.0
 20
0.0
 30
0.0
 70
    64
 71
     4
 72
     2
  0
VERTEX
  5
126D
  8
ODPAD
 10
-21.0
 20
-20.99999999999999
 30
-245.5000000000003
 70
   192
  0
VERTEX
  5
126E
  8
ODPAD
 10
-21.0
 20
-19.99999999999999
 30
-245.5000000000003
 70
   192
  0
VERTEX
  5
126F
  8
ODPAD
 10
-21.0
 20
-19.99999999999999
 30
-254.5000000000003
 70
   192
  0
VERTEX
  5
1270
  8
ODPAD
 10
-21.0
 20
-20.99999999999999
 30
-254.5000000000003
 70
   192
  0
VERTEX
  5
1271
  8
ODPAD
 10
0.0
 20
0.0
 30
0.0
 70
   128
 71
     1
 72
     4
 73
    -3
  0
VERTEX
  5
1272
  8
ODPAD
 10
0.0
 20
0.0
 30
0.0
 70
   128
 71
    -1
 72
     3
 73
     2
  0
SEQEND
  5
13C6
  8
ODPAD
  0
POLYLINE
  5
1273
  8
ODPAD
 66
     1
 10
0.0
 20
0.0
 30
0.0
 70
    64
 71
     4
 72
     2
  0
VERTEX
  5
1274
  8
ODPAD
 10
-21.0
 20
-20.99999999999999
 30
-254.5000000000003
 70
   192
  0
VERTEX
  5
1275
  8
ODPAD
 10
-21.0
 20
-19.99999999999999
 30
-254.5000000000003
 70
   192
  0
VERTEX
  5
1276
  8
ODPAD
 10
-12.0
 20
-19.99999999999999
 30
-254.5000000000003
 70
   192
  0
VERTEX
  5
1277
  8
ODPAD
 10
-12.0
 20
-20.99999999999999
 30
-254.5000000000003
 70
   192
  0
VERTEX
  5
1278
  8
ODPAD
 10
0.0
 20
0.0
 30
0.0
 70
   128
 71
     1
 72
     4
 73
    -3
  0
VERTEX
  5
1279
  8
ODPAD
 10
0.0
 20
0.0
 30
0.0
 70
   128
 71
    -1
 72
     3
 73
     2
  0
SEQEND
  5
13C7
  8
ODPAD
  0
POLYLINE
  5
127A
  8
ODPAD
 66
     1
 10
0.0
 20
0.0
 30
0.0
 70
    64
 71
     4
 72
     2
  0
VERTEX
  5
127B
  8
ODPAD
 10
-12.0
 20
-20.99999999999999
 30
-254.5000000000003
 70
   192
  0
VERTEX
  5
127C
  8
ODPAD
 10
-12.0
 20
-19.99999999999999
 30
-254.5000000000003
 70
   192
  0
VERTEX
  5
127D
  8
ODPAD
 10
-12.0
 20
-19.99999999999999
 30
-245.5000000000003
 70
   192
  0
VERTEX
  5
127E
  8
ODPAD
 10
-12.0
 20
-20.99999999999999
 30
-245.5000000000003
 70
   192
  0
VERTEX
  5
127F
  8
ODPAD
 10
0.0
 20
0.0
 30
0.0
 70
   128
 71
     1
 72
     4
 73
    -3
  0
VERTEX
  5
1280
  8
ODPAD
 10
0.0
 20
0.0
 30
0.0
 70
   128
 71
    -1
 72
     3
 73
     2
  0
SEQEND
  5
13C8
  8
ODPAD
  0
POLYLINE
  5
1281
  8
ODPAD
 66
     1
 10
0.0
 20
0.0
 30
0.0
 70
    64
 71
     4
 72
     2
  0
VERTEX
  5
1282
  8
ODPAD
 10
-12.0
 20
-20.99999999999999
 30
-245.5000000000003
 70
   192
  0
VERTEX
  5
1283
  8
ODPAD
 10
-12.0
 20
-19.99999999999999
 30
-245.5000000000003
 70
   192
  0
VERTEX
  5
1284
  8
ODPAD
 10
-21.0
 20
-19.99999999999999
 30
-245.5000000000003
 70
   192
  0
VERTEX
  5
1285
  8
ODPAD
 10
-21.0
 20
-20.99999999999999
 30
-245.5000000000003
 70
   192
  0
VERTEX
  5
1286
  8
ODPAD
 10
0.0
 20
0.0
 30
0.0
 70
   128
 71
     1
 72
     4
 73
    -3
  0
VERTEX
  5
1287
  8
ODPAD
 10
0.0
 20
0.0
 30
0.0
 70
   128
 71
    -1
 72
     3
 73
     2
  0
SEQEND
  5
13C9
  8
ODPAD
  0
POLYLINE
  5
1288
  8
ODPAD
 66
     1
 10
0.0
 20
0.0
 30
0.0
 70
    64
 71
     4
 72
     2
  0
VERTEX
  5
1289
  8
ODPAD
 10
28.49999999999983
 20
-20.99999999999999
 30
-262.0000000000003
 70
   192
  0
VERTEX
  5
128A
  8
ODPAD
 10
28.49999999999983
 20
-19.99999999999999
 30
-262.0000000000003
 70
   192
  0
VERTEX
  5
128B
  8
ODPAD
 10
28.49999999999983
 20
-19.99999999999999
 30
-271.0000000000002
 70
   192
  0
VERTEX
  5
128C
  8
ODPAD
 10
28.49999999999983
 20
-20.99999999999999
 30
-271.0000000000002
 70
   192
  0
VERTEX
  5
128D
  8
ODPAD
 10
0.0
 20
0.0
 30
0.0
 70
   128
 71
     1
 72
     4
 73
    -3
  0
VERTEX
  5
128E
  8
ODPAD
 10
0.0
 20
0.0
 30
0.0
 70
   128
 71
    -1
 72
     3
 73
     2
  0
SEQEND
  5
13CA
  8
ODPAD
  0
POLYLINE
  5
128F
  8
ODPAD
 66
     1
 10
0.0
 20
0.0
 30
0.0
 70
    64
 71
     4
 72
     2
  0
VERTEX
  5
1290
  8
ODPAD
 10
28.49999999999983
 20
-20.99999999999999
 30
-271.0000000000002
 70
   192
  0
VERTEX
  5
1291
  8
ODPAD
 10
28.49999999999983
 20
-19.99999999999999
 30
-271.0000000000002
 70
   192
  0
VERTEX
  5
1292
  8
ODPAD
 10
37.49999999999982
 20
-19.99999999999999
 30
-271.0000000000002
 70
   192
  0
VERTEX
  5
1293
  8
ODPAD
 10
37.49999999999982
 20
-20.99999999999999
 30
-271.0000000000002
 70
   192
  0
VERTEX
  5
1294
  8
ODPAD
 10
0.0
 20
0.0
 30
0.0
 70
   128
 71
     1
 72
     4
 73
    -3
  0
VERTEX
  5
1295
  8
ODPAD
 10
0.0
 20
0.0
 30
0.0
 70
   128
 71
    -1
 72
     3
 73
     2
  0
SEQEND
  5
13CB
  8
ODPAD
  0
POLYLINE
  5
1296
  8
ODPAD
 66
     1
 10
0.0
 20
0.0
 30
0.0
 70
    64
 71
     4
 72
     2
  0
VERTEX
  5
1297
  8
ODPAD
 10
37.49999999999982
 20
-20.99999999999999
 30
-271.0000000000002
 70
   192
  0
VERTEX
  5
1298
  8
ODPAD
 10
37.49999999999982
 20
-19.99999999999999
 30
-271.0000000000002
 70
   192
  0
VERTEX
  5
1299
  8
ODPAD
 10
37.49999999999982
 20
-19.99999999999999
 30
-262.0000000000003
 70
   192
  0
VERTEX
  5
129A
  8
ODPAD
 10
37.49999999999982
 20
-20.99999999999999
 30
-262.0000000000003
 70
   192
  0
VERTEX
  5
129B
  8
ODPAD
 10
0.0
 20
0.0
 30
0.0
 70
   128
 71
     1
 72
     4
 73
    -3
  0
VERTEX
  5
129C
  8
ODPAD
 10
0.0
 20
0.0
 30
0.0
 70
   128
 71
    -1
 72
     3
 73
     2
  0
SEQEND
  5
13CC
  8
ODPAD
  0
POLYLINE
  5
129D
  8
ODPAD
 66
     1
 10
0.0
 20
0.0
 30
0.0
 70
    64
 71
     4
 72
     2
  0
VERTEX
  5
129E
  8
ODPAD
 10
37.49999999999982
 20
-20.99999999999999
 30
-262.0000000000003
 70
   192
  0
VERTEX
  5
129F
  8
ODPAD
 10
37.49999999999982
 20
-19.99999999999999
 30
-262.0000000000003
 70
   192
  0
VERTEX
  5
12A0
  8
ODPAD
 10
28.49999999999983
 20
-19.99999999999999
 30
-262.0000000000003
 70
   192
  0
VERTEX
  5
12A1
  8
ODPAD
 10
28.49999999999983
 20
-20.99999999999999
 30
-262.0000000000003
 70
   192
  0
VERTEX
  5
12A2
  8
ODPAD
 10
0.0
 20
0.0
 30
0.0
 70
   128
 71
     1
 72
     4
 73
    -3
  0
VERTEX
  5
12A3
  8
ODPAD
 10
0.0
 20
0.0
 30
0.0
 70
   128
 71
    -1
 72
     3
 73
     2
  0
SEQEND
  5
13CD
  8
ODPAD
  0
POLYLINE
  5
12A4
  8
ODPAD
 66
     1
 10
0.0
 20
0.0
 30
0.0
 70
    64
 71
     4
 72
     2
  0
VERTEX
  5
12A5
  8
ODPAD
 10
11.99999999999983
 20
-20.99999999999999
 30
-262.0000000000003
 70
   192
  0
VERTEX
  5
12A6
  8
ODPAD
 10
11.99999999999983
 20
-19.99999999999999
 30
-262.0000000000003
 70
   192
  0
VERTEX
  5
12A7
  8
ODPAD
 10
11.99999999999983
 20
-19.99999999999999
 30
-271.0000000000002
 70
   192
  0
VERTEX
  5
12A8
  8
ODPAD
 10
11.99999999999983
 20
-20.99999999999999
 30
-271.0000000000002
 70
   192
  0
VERTEX
  5
12A9
  8
ODPAD
 10
0.0
 20
0.0
 30
0.0
 70
   128
 71
     1
 72
     4
 73
    -3
  0
VERTEX
  5
12AA
  8
ODPAD
 10
0.0
 20
0.0
 30
0.0
 70
   128
 71
    -1
 72
     3
 73
     2
  0
SEQEND
  5
13CE
  8
ODPAD
  0
POLYLINE
  5
12AB
  8
ODPAD
 66
     1
 10
0.0
 20
0.0
 30
0.0
 70
    64
 71
     4
 72
     2
  0
VERTEX
  5
12AC
  8
ODPAD
 10
11.99999999999983
 20
-20.99999999999999
 30
-271.0000000000002
 70
   192
  0
VERTEX
  5
12AD
  8
ODPAD
 10
11.99999999999983
 20
-19.99999999999999
 30
-271.0000000000002
 70
   192
  0
VERTEX
  5
12AE
  8
ODPAD
 10
20.99999999999983
 20
-19.99999999999999
 30
-271.0000000000002
 70
   192
  0
VERTEX
  5
12AF
  8
ODPAD
 10
20.99999999999983
 20
-20.99999999999999
 30
-271.0000000000002
 70
   192
  0
VERTEX
  5
12B0
  8
ODPAD
 10
0.0
 20
0.0
 30
0.0
 70
   128
 71
     1
 72
     4
 73
    -3
  0
VERTEX
  5
12B1
  8
ODPAD
 10
0.0
 20
0.0
 30
0.0
 70
   128
 71
    -1
 72
     3
 73
     2
  0
SEQEND
  5
13CF
  8
ODPAD
  0
POLYLINE
  5
12B2
  8
ODPAD
 66
     1
 10
0.0
 20
0.0
 30
0.0
 70
    64
 71
     4
 72
     2
  0
VERTEX
  5
12B3
  8
ODPAD
 10
20.99999999999983
 20
-20.99999999999999
 30
-271.0000000000002
 70
   192
  0
VERTEX
  5
12B4
  8
ODPAD
 10
20.99999999999983
 20
-19.99999999999999
 30
-271.0000000000002
 70
   192
  0
VERTEX
  5
12B5
  8
ODPAD
 10
20.99999999999983
 20
-19.99999999999999
 30
-262.0000000000003
 70
   192
  0
VERTEX
  5
12B6
  8
ODPAD
 10
20.99999999999983
 20
-20.99999999999999
 30
-262.0000000000003
 70
   192
  0
VERTEX
  5
12B7
  8
ODPAD
 10
0.0
 20
0.0
 30
0.0
 70
   128
 71
     1
 72
     4
 73
    -3
  0
VERTEX
  5
12B8
  8
ODPAD
 10
0.0
 20
0.0
 30
0.0
 70
   128
 71
    -1
 72
     3
 73
     2
  0
SEQEND
  5
13D0
  8
ODPAD
  0
POLYLINE
  5
12B9
  8
ODPAD
 66
     1
 10
0.0
 20
0.0
 30
0.0
 70
    64
 71
     4
 72
     2
  0
VERTEX
  5
12BA
  8
ODPAD
 10
20.99999999999983
 20
-20.99999999999999
 30
-262.0000000000003
 70
   192
  0
VERTEX
  5
12BB
  8
ODPAD
 10
20.99999999999983
 20
-19.99999999999999
 30
-262.0000000000003
 70
   192
  0
VERTEX
  5
12BC
  8
ODPAD
 10
11.99999999999983
 20
-19.99999999999999
 30
-262.0000000000003
 70
   192
  0
VERTEX
  5
12BD
  8
ODPAD
 10
11.99999999999983
 20
-20.99999999999999
 30
-262.0000000000003
 70
   192
  0
VERTEX
  5
12BE
  8
ODPAD
 10
0.0
 20
0.0
 30
0.0
 70
   128
 71
     1
 72
     4
 73
    -3
  0
VERTEX
  5
12BF
  8
ODPAD
 10
0.0
 20
0.0
 30
0.0
 70
   128
 71
    -1
 72
     3
 73
     2
  0
SEQEND
  5
13D1
  8
ODPAD
  0
POLYLINE
  5
12C0
  8
ODPAD
 66
     1
 10
0.0
 20
0.0
 30
0.0
 70
    64
 71
     4
 72
     2
  0
VERTEX
  5
12C1
  8
ODPAD
 10
-4.500000000000171
 20
-20.99999999999999
 30
-262.0000000000003
 70
   192
  0
VERTEX
  5
12C2
  8
ODPAD
 10
-4.500000000000171
 20
-19.99999999999999
 30
-262.0000000000003
 70
   192
  0
VERTEX
  5
12C3
  8
ODPAD
 10
-4.500000000000171
 20
-19.99999999999999
 30
-271.0000000000002
 70
   192
  0
VERTEX
  5
12C4
  8
ODPAD
 10
-4.500000000000171
 20
-20.99999999999999
 30
-271.0000000000002
 70
   192
  0
VERTEX
  5
12C5
  8
ODPAD
 10
0.0
 20
0.0
 30
0.0
 70
   128
 71
     1
 72
     4
 73
    -3
  0
VERTEX
  5
12C6
  8
ODPAD
 10
0.0
 20
0.0
 30
0.0
 70
   128
 71
    -1
 72
     3
 73
     2
  0
SEQEND
  5
13D2
  8
ODPAD
  0
POLYLINE
  5
12C7
  8
ODPAD
 66
     1
 10
0.0
 20
0.0
 30
0.0
 70
    64
 71
     4
 72
     2
  0
VERTEX
  5
12C8
  8
ODPAD
 10
-4.500000000000171
 20
-20.99999999999999
 30
-271.0000000000002
 70
   192
  0
VERTEX
  5
12C9
  8
ODPAD
 10
-4.50000000000017
 20
-19.99999999999999
 30
-271.0000000000002
 70
   192
  0
VERTEX
  5
12CA
  8
ODPAD
 10
4.499999999999823
 20
-19.99999999999999
 30
-271.0000000000002
 70
   192
  0
VERTEX
  5
12CB
  8
ODPAD
 10
4.499999999999823
 20
-20.99999999999999
 30
-271.0000000000002
 70
   192
  0
VERTEX
  5
12CC
  8
ODPAD
 10
0.0
 20
0.0
 30
0.0
 70
   128
 71
     1
 72
     4
 73
    -3
  0
VERTEX
  5
12CD
  8
ODPAD
 10
0.0
 20
0.0
 30
0.0
 70
   128
 71
    -1
 72
     3
 73
     2
  0
SEQEND
  5
13D3
  8
ODPAD
  0
POLYLINE
  5
12CE
  8
ODPAD
 66
     1
 10
0.0
 20
0.0
 30
0.0
 70
    64
 71
     4
 72
     2
  0
VERTEX
  5
12CF
  8
ODPAD
 10
4.499999999999823
 20
-20.99999999999999
 30
-271.0000000000002
 70
   192
  0
VERTEX
  5
12D0
  8
ODPAD
 10
4.499999999999823
 20
-19.99999999999999
 30
-271.0000000000002
 70
   192
  0
VERTEX
  5
12D1
  8
ODPAD
 10
4.499999999999823
 20
-19.99999999999999
 30
-262.0000000000003
 70
   192
  0
VERTEX
  5
12D2
  8
ODPAD
 10
4.499999999999823
 20
-20.99999999999999
 30
-262.0000000000003
 70
   192
  0
VERTEX
  5
12D3
  8
ODPAD
 10
0.0
 20
0.0
 30
0.0
 70
   128
 71
     1
 72
     4
 73
    -3
  0
VERTEX
  5
12D4
  8
ODPAD
 10
0.0
 20
0.0
 30
0.0
 70
   128
 71
    -1
 72
     3
 73
     2
  0
SEQEND
  5
13D4
  8
ODPAD
  0
POLYLINE
  5
12D5
  8
ODPAD
 66
     1
 10
0.0
 20
0.0
 30
0.0
 70
    64
 71
     4
 72
     2
  0
VERTEX
  5
12D6
  8
ODPAD
 10
4.499999999999823
 20
-20.99999999999999
 30
-262.0000000000003
 70
   192
  0
VERTEX
  5
12D7
  8
ODPAD
 10
4.499999999999823
 20
-19.99999999999999
 30
-262.0000000000003
 70
   192
  0
VERTEX
  5
12D8
  8
ODPAD
 10
-4.500000000000171
 20
-19.99999999999999
 30
-262.0000000000003
 70
   192
  0
VERTEX
  5
12D9
  8
ODPAD
 10
-4.50000000000017
 20
-20.99999999999999
 30
-262.0000000000003
 70
   192
  0
VERTEX
  5
12DA
  8
ODPAD
 10
0.0
 20
0.0
 30
0.0
 70
   128
 71
     1
 72
     4
 73
    -3
  0
VERTEX
  5
12DB
  8
ODPAD
 10
0.0
 20
0.0
 30
0.0
 70
   128
 71
    -1
 72
     3
 73
     2
  0
SEQEND
  5
13D5
  8
ODPAD
  0
POLYLINE
  5
12DC
  8
ODPAD
 66
     1
 10
0.0
 20
0.0
 30
0.0
 70
    64
 71
     4
 72
     2
  0
VERTEX
  5
12DD
  8
ODPAD
 10
-21.00000000000017
 20
-20.99999999999999
 30
-262.0000000000003
 70
   192
  0
VERTEX
  5
12DE
  8
ODPAD
 10
-21.00000000000017
 20
-19.99999999999999
 30
-262.0000000000003
 70
   192
  0
VERTEX
  5
12DF
  8
ODPAD
 10
-21.00000000000017
 20
-19.99999999999999
 30
-271.0000000000002
 70
   192
  0
VERTEX
  5
12E0
  8
ODPAD
 10
-21.00000000000017
 20
-20.99999999999999
 30
-271.0000000000002
 70
   192
  0
VERTEX
  5
12E1
  8
ODPAD
 10
0.0
 20
0.0
 30
0.0
 70
   128
 71
     1
 72
     4
 73
    -3
  0
VERTEX
  5
12E2
  8
ODPAD
 10
0.0
 20
0.0
 30
0.0
 70
   128
 71
    -1
 72
     3
 73
     2
  0
SEQEND
  5
13D6
  8
ODPAD
  0
POLYLINE
  5
12E3
  8
ODPAD
 66
     1
 10
0.0
 20
0.0
 30
0.0
 70
    64
 71
     4
 72
     2
  0
VERTEX
  5
12E4
  8
ODPAD
 10
-21.00000000000017
 20
-20.99999999999999
 30
-271.0000000000002
 70
   192
  0
VERTEX
  5
12E5
  8
ODPAD
 10
-21.00000000000017
 20
-19.99999999999999
 30
-271.0000000000002
 70
   192
  0
VERTEX
  5
12E6
  8
ODPAD
 10
-12.00000000000018
 20
-19.99999999999999
 30
-271.0000000000002
 70
   192
  0
VERTEX
  5
12E7
  8
ODPAD
 10
-12.00000000000018
 20
-20.99999999999999
 30
-271.0000000000002
 70
   192
  0
VERTEX
  5
12E8
  8
ODPAD
 10
0.0
 20
0.0
 30
0.0
 70
   128
 71
     1
 72
     4
 73
    -3
  0
VERTEX
  5
12E9
  8
ODPAD
 10
0.0
 20
0.0
 30
0.0
 70
   128
 71
    -1
 72
     3
 73
     2
  0
SEQEND
  5
13D7
  8
ODPAD
  0
POLYLINE
  5
12EA
  8
ODPAD
 66
     1
 10
0.0
 20
0.0
 30
0.0
 70
    64
 71
     4
 72
     2
  0
VERTEX
  5
12EB
  8
ODPAD
 10
-12.00000000000018
 20
-20.99999999999999
 30
-271.0000000000002
 70
   192
  0
VERTEX
  5
12EC
  8
ODPAD
 10
-12.00000000000018
 20
-19.99999999999999
 30
-271.0000000000002
 70
   192
  0
VERTEX
  5
12ED
  8
ODPAD
 10
-12.00000000000018
 20
-19.99999999999999
 30
-262.0000000000003
 70
   192
  0
VERTEX
  5
12EE
  8
ODPAD
 10
-12.00000000000018
 20
-20.99999999999999
 30
-262.0000000000003
 70
   192
  0
VERTEX
  5
12EF
  8
ODPAD
 10
0.0
 20
0.0
 30
0.0
 70
   128
 71
     1
 72
     4
 73
    -3
  0
VERTEX
  5
12F0
  8
ODPAD
 10
0.0
 20
0.0
 30
0.0
 70
   128
 71
    -1
 72
     3
 73
     2
  0
SEQEND
  5
13D8
  8
ODPAD
  0
POLYLINE
  5
12F1
  8
ODPAD
 66
     1
 10
0.0
 20
0.0
 30
0.0
 70
    64
 71
     4
 72
     2
  0
VERTEX
  5
12F2
  8
ODPAD
 10
-12.00000000000018
 20
-20.99999999999999
 30
-262.0000000000003
 70
   192
  0
VERTEX
  5
12F3
  8
ODPAD
 10
-12.00000000000018
 20
-19.99999999999999
 30
-262.0000000000003
 70
   192
  0
VERTEX
  5
12F4
  8
ODPAD
 10
-21.00000000000017
 20
-19.99999999999999
 30
-262.0000000000003
 70
   192
  0
VERTEX
  5
12F5
  8
ODPAD
 10
-21.00000000000017
 20
-20.99999999999999
 30
-262.0000000000003
 70
   192
  0
VERTEX
  5
12F6
  8
ODPAD
 10
0.0
 20
0.0
 30
0.0
 70
   128
 71
     1
 72
     4
 73
    -3
  0
VERTEX
  5
12F7
  8
ODPAD
 10
0.0
 20
0.0
 30
0.0
 70
   128
 71
    -1
 72
     3
 73
     2
  0
SEQEND
  5
13D9
  8
ODPAD
  0
POLYLINE
  5
12F8
  8
ODPAD
 66
     1
 10
0.0
 20
0.0
 30
0.0
 70
    64
 71
     4
 72
     2
  0
VERTEX
  5
12F9
  8
ODPAD
 10
28.49999999999967
 20
-20.99999999999999
 30
-278.5000000000003
 70
   192
  0
VERTEX
  5
12FA
  8
ODPAD
 10
28.49999999999967
 20
-19.99999999999999
 30
-278.5000000000003
 70
   192
  0
VERTEX
  5
12FB
  8
ODPAD
 10
28.49999999999967
 20
-19.99999999999999
 30
-287.5000000000003
 70
   192
  0
VERTEX
  5
12FC
  8
ODPAD
 10
28.49999999999967
 20
-20.99999999999999
 30
-287.5000000000003
 70
   192
  0
VERTEX
  5
12FD
  8
ODPAD
 10
0.0
 20
0.0
 30
0.0
 70
   128
 71
     1
 72
     4
 73
    -3
  0
VERTEX
  5
12FE
  8
ODPAD
 10
0.0
 20
0.0
 30
0.0
 70
   128
 71
    -1
 72
     3
 73
     2
  0
SEQEND
  5
13DA
  8
ODPAD
  0
POLYLINE
  5
12FF
  8
ODPAD
 66
     1
 10
0.0
 20
0.0
 30
0.0
 70
    64
 71
     4
 72
     2
  0
VERTEX
  5
1300
  8
ODPAD
 10
28.49999999999967
 20
-20.99999999999999
 30
-287.5000000000003
 70
   192
  0
VERTEX
  5
1301
  8
ODPAD
 10
28.49999999999967
 20
-19.99999999999999
 30
-287.5000000000003
 70
   192
  0
VERTEX
  5
1302
  8
ODPAD
 10
37.49999999999966
 20
-19.99999999999999
 30
-287.5000000000003
 70
   192
  0
VERTEX
  5
1303
  8
ODPAD
 10
37.49999999999966
 20
-20.99999999999999
 30
-287.5000000000003
 70
   192
  0
VERTEX
  5
1304
  8
ODPAD
 10
0.0
 20
0.0
 30
0.0
 70
   128
 71
     1
 72
     4
 73
    -3
  0
VERTEX
  5
1305
  8
ODPAD
 10
0.0
 20
0.0
 30
0.0
 70
   128
 71
    -1
 72
     3
 73
     2
  0
SEQEND
  5
13DB
  8
ODPAD
  0
POLYLINE
  5
1306
  8
ODPAD
 66
     1
 10
0.0
 20
0.0
 30
0.0
 70
    64
 71
     4
 72
     2
  0
VERTEX
  5
1307
  8
ODPAD
 10
37.49999999999966
 20
-20.99999999999999
 30
-287.5000000000003
 70
   192
  0
VERTEX
  5
1308
  8
ODPAD
 10
37.49999999999966
 20
-19.99999999999999
 30
-287.5000000000003
 70
   192
  0
VERTEX
  5
1309
  8
ODPAD
 10
37.49999999999966
 20
-19.99999999999999
 30
-278.5000000000003
 70
   192
  0
VERTEX
  5
130A
  8
ODPAD
 10
37.49999999999966
 20
-20.99999999999999
 30
-278.5000000000003
 70
   192
  0
VERTEX
  5
130B
  8
ODPAD
 10
0.0
 20
0.0
 30
0.0
 70
   128
 71
     1
 72
     4
 73
    -3
  0
VERTEX
  5
130C
  8
ODPAD
 10
0.0
 20
0.0
 30
0.0
 70
   128
 71
    -1
 72
     3
 73
     2
  0
SEQEND
  5
13DC
  8
ODPAD
  0
POLYLINE
  5
130D
  8
ODPAD
 66
     1
 10
0.0
 20
0.0
 30
0.0
 70
    64
 71
     4
 72
     2
  0
VERTEX
  5
130E
  8
ODPAD
 10
37.49999999999966
 20
-20.99999999999999
 30
-278.5000000000003
 70
   192
  0
VERTEX
  5
130F
  8
ODPAD
 10
37.49999999999966
 20
-19.99999999999999
 30
-278.5000000000003
 70
   192
  0
VERTEX
  5
1310
  8
ODPAD
 10
28.49999999999967
 20
-19.99999999999999
 30
-278.5000000000003
 70
   192
  0
VERTEX
  5
1311
  8
ODPAD
 10
28.49999999999967
 20
-20.99999999999999
 30
-278.5000000000003
 70
   192
  0
VERTEX
  5
1312
  8
ODPAD
 10
0.0
 20
0.0
 30
0.0
 70
   128
 71
     1
 72
     4
 73
    -3
  0
VERTEX
  5
1313
  8
ODPAD
 10
0.0
 20
0.0
 30
0.0
 70
   128
 71
    -1
 72
     3
 73
     2
  0
SEQEND
  5
13DD
  8
ODPAD
  0
POLYLINE
  5
1314
  8
ODPAD
 66
     1
 10
0.0
 20
0.0
 30
0.0
 70
    64
 71
     4
 72
     2
  0
VERTEX
  5
1315
  8
ODPAD
 10
11.99999999999965
 20
-20.99999999999999
 30
-278.5000000000003
 70
   192
  0
VERTEX
  5
1316
  8
ODPAD
 10
11.99999999999965
 20
-19.99999999999999
 30
-278.5000000000003
 70
   192
  0
VERTEX
  5
1317
  8
ODPAD
 10
11.99999999999965
 20
-19.99999999999999
 30
-287.5000000000003
 70
   192
  0
VERTEX
  5
1318
  8
ODPAD
 10
11.99999999999965
 20
-20.99999999999999
 30
-287.5000000000003
 70
   192
  0
VERTEX
  5
1319
  8
ODPAD
 10
0.0
 20
0.0
 30
0.0
 70
   128
 71
     1
 72
     4
 73
    -3
  0
VERTEX
  5
131A
  8
ODPAD
 10
0.0
 20
0.0
 30
0.0
 70
   128
 71
    -1
 72
     3
 73
     2
  0
SEQEND
  5
13DE
  8
ODPAD
  0
POLYLINE
  5
131B
  8
ODPAD
 66
     1
 10
0.0
 20
0.0
 30
0.0
 70
    64
 71
     4
 72
     2
  0
VERTEX
  5
131C
  8
ODPAD
 10
11.99999999999965
 20
-20.99999999999999
 30
-287.5000000000003
 70
   192
  0
VERTEX
  5
131D
  8
ODPAD
 10
11.99999999999965
 20
-19.99999999999999
 30
-287.5000000000003
 70
   192
  0
VERTEX
  5
131E
  8
ODPAD
 10
20.99999999999966
 20
-19.99999999999999
 30
-287.5000000000003
 70
   192
  0
VERTEX
  5
131F
  8
ODPAD
 10
20.99999999999966
 20
-20.99999999999999
 30
-287.5000000000003
 70
   192
  0
VERTEX
  5
1320
  8
ODPAD
 10
0.0
 20
0.0
 30
0.0
 70
   128
 71
     1
 72
     4
 73
    -3
  0
VERTEX
  5
1321
  8
ODPAD
 10
0.0
 20
0.0
 30
0.0
 70
   128
 71
    -1
 72
     3
 73
     2
  0
SEQEND
  5
13DF
  8
ODPAD
  0
POLYLINE
  5
1322
  8
ODPAD
 66
     1
 10
0.0
 20
0.0
 30
0.0
 70
    64
 71
     4
 72
     2
  0
VERTEX
  5
1323
  8
ODPAD
 10
20.99999999999966
 20
-20.99999999999999
 30
-287.5000000000003
 70
   192
  0
VERTEX
  5
1324
  8
ODPAD
 10
20.99999999999966
 20
-19.99999999999999
 30
-287.5000000000003
 70
   192
  0
VERTEX
  5
1325
  8
ODPAD
 10
20.99999999999966
 20
-19.99999999999999
 30
-278.5000000000003
 70
   192
  0
VERTEX
  5
1326
  8
ODPAD
 10
20.99999999999966
 20
-20.99999999999999
 30
-278.5000000000003
 70
   192
  0
VERTEX
  5
1327
  8
ODPAD
 10
0.0
 20
0.0
 30
0.0
 70
   128
 71
     1
 72
     4
 73
    -3
  0
VERTEX
  5
1328
  8
ODPAD
 10
0.0
 20
0.0
 30
0.0
 70
   128
 71
    -1
 72
     3
 73
     2
  0
SEQEND
  5
13E0
  8
ODPAD
  0
POLYLINE
  5
1329
  8
ODPAD
 66
     1
 10
0.0
 20
0.0
 30
0.0
 70
    64
 71
     4
 72
     2
  0
VERTEX
  5
132A
  8
ODPAD
 10
20.99999999999966
 20
-20.99999999999999
 30
-278.5000000000003
 70
   192
  0
VERTEX
  5
132B
  8
ODPAD
 10
20.99999999999966
 20
-19.99999999999999
 30
-278.5000000000003
 70
   192
  0
VERTEX
  5
132C
  8
ODPAD
 10
11.99999999999965
 20
-19.99999999999999
 30
-278.5000000000003
 70
   192
  0
VERTEX
  5
132D
  8
ODPAD
 10
11.99999999999965
 20
-20.99999999999999
 30
-278.5000000000003
 70
   192
  0
VERTEX
  5
132E
  8
ODPAD
 10
0.0
 20
0.0
 30
0.0
 70
   128
 71
     1
 72
     4
 73
    -3
  0
VERTEX
  5
132F
  8
ODPAD
 10
0.0
 20
0.0
 30
0.0
 70
   128
 71
    -1
 72
     3
 73
     2
  0
SEQEND
  5
13E1
  8
ODPAD
  0
POLYLINE
  5
1330
  8
ODPAD
 66
     1
 10
0.0
 20
0.0
 30
0.0
 70
    64
 71
     4
 72
     2
  0
VERTEX
  5
1331
  8
ODPAD
 10
-4.500000000000338
 20
-20.99999999999999
 30
-278.5000000000003
 70
   192
  0
VERTEX
  5
1332
  8
ODPAD
 10
-4.500000000000338
 20
-19.99999999999999
 30
-278.5000000000003
 70
   192
  0
VERTEX
  5
1333
  8
ODPAD
 10
-4.500000000000338
 20
-19.99999999999999
 30
-287.5000000000003
 70
   192
  0
VERTEX
  5
1334
  8
ODPAD
 10
-4.500000000000338
 20
-20.99999999999999
 30
-287.5000000000003
 70
   192
  0
VERTEX
  5
1335
  8
ODPAD
 10
0.0
 20
0.0
 30
0.0
 70
   128
 71
     1
 72
     4
 73
    -3
  0
VERTEX
  5
1336
  8
ODPAD
 10
0.0
 20
0.0
 30
0.0
 70
   128
 71
    -1
 72
     3
 73
     2
  0
SEQEND
  5
13E2
  8
ODPAD
  0
POLYLINE
  5
1337
  8
ODPAD
 66
     1
 10
0.0
 20
0.0
 30
0.0
 70
    64
 71
     4
 72
     2
  0
VERTEX
  5
1338
  8
ODPAD
 10
-4.500000000000338
 20
-20.99999999999999
 30
-287.5000000000003
 70
   192
  0
VERTEX
  5
1339
  8
ODPAD
 10
-4.500000000000338
 20
-19.99999999999999
 30
-287.5000000000003
 70
   192
  0
VERTEX
  5
133A
  8
ODPAD
 10
4.499999999999657
 20
-19.99999999999999
 30
-287.5000000000003
 70
   192
  0
VERTEX
  5
133B
  8
ODPAD
 10
4.499999999999657
 20
-20.99999999999999
 30
-287.5000000000003
 70
   192
  0
VERTEX
  5
133C
  8
ODPAD
 10
0.0
 20
0.0
 30
0.0
 70
   128
 71
     1
 72
     4
 73
    -3
  0
VERTEX
  5
133D
  8
ODPAD
 10
0.0
 20
0.0
 30
0.0
 70
   128
 71
    -1
 72
     3
 73
     2
  0
SEQEND
  5
13E3
  8
ODPAD
  0
POLYLINE
  5
133E
  8
ODPAD
 66
     1
 10
0.0
 20
0.0
 30
0.0
 70
    64
 71
     4
 72
     2
  0
VERTEX
  5
133F
  8
ODPAD
 10
4.499999999999657
 20
-20.99999999999999
 30
-287.5000000000003
 70
   192
  0
VERTEX
  5
1340
  8
ODPAD
 10
4.499999999999657
 20
-19.99999999999999
 30
-287.5000000000003
 70
   192
  0
VERTEX
  5
1341
  8
ODPAD
 10
4.499999999999657
 20
-19.99999999999999
 30
-278.5000000000003
 70
   192
  0
VERTEX
  5
1342
  8
ODPAD
 10
4.499999999999657
 20
-20.99999999999999
 30
-278.5000000000003
 70
   192
  0
VERTEX
  5
1343
  8
ODPAD
 10
0.0
 20
0.0
 30
0.0
 70
   128
 71
     1
 72
     4
 73
    -3
  0
VERTEX
  5
1344
  8
ODPAD
 10
0.0
 20
0.0
 30
0.0
 70
   128
 71
    -1
 72
     3
 73
     2
  0
SEQEND
  5
13E4
  8
ODPAD
  0
POLYLINE
  5
1345
  8
ODPAD
 66
     1
 10
0.0
 20
0.0
 30
0.0
 70
    64
 71
     4
 72
     2
  0
VERTEX
  5
1346
  8
ODPAD
 10
4.499999999999657
 20
-20.99999999999999
 30
-278.5000000000003
 70
   192
  0
VERTEX
  5
1347
  8
ODPAD
 10
4.499999999999657
 20
-19.99999999999999
 30
-278.5000000000003
 70
   192
  0
VERTEX
  5
1348
  8
ODPAD
 10
-4.500000000000338
 20
-19.99999999999999
 30
-278.5000000000003
 70
   192
  0
VERTEX
  5
1349
  8
ODPAD
 10
-4.500000000000338
 20
-20.99999999999999
 30
-278.5000000000003
 70
   192
  0
VERTEX
  5
134A
  8
ODPAD
 10
0.0
 20
0.0
 30
0.0
 70
   128
 71
     1
 72
     4
 73
    -3
  0
VERTEX
  5
134B
  8
ODPAD
 10
0.0
 20
0.0
 30
0.0
 70
   128
 71
    -1
 72
     3
 73
     2
  0
SEQEND
  5
13E5
  8
ODPAD
  0
POLYLINE
  5
134C
  8
ODPAD
 66
     1
 10
0.0
 20
0.0
 30
0.0
 70
    64
 71
     4
 72
     2
  0
VERTEX
  5
134D
  8
ODPAD
 10
-21.00000000000034
 20
-20.99999999999999
 30
-278.5000000000003
 70
   192
  0
VERTEX
  5
134E
  8
ODPAD
 10
-21.00000000000034
 20
-19.99999999999999
 30
-278.5000000000003
 70
   192
  0
VERTEX
  5
134F
  8
ODPAD
 10
-21.00000000000034
 20
-19.99999999999999
 30
-287.5000000000003
 70
   192
  0
VERTEX
  5
1350
  8
ODPAD
 10
-21.00000000000034
 20
-20.99999999999999
 30
-287.5000000000003
 70
   192
  0
VERTEX
  5
1351
  8
ODPAD
 10
0.0
 20
0.0
 30
0.0
 70
   128
 71
     1
 72
     4
 73
    -3
  0
VERTEX
  5
1352
  8
ODPAD
 10
0.0
 20
0.0
 30
0.0
 70
   128
 71
    -1
 72
     3
 73
     2
  0
SEQEND
  5
13E6
  8
ODPAD
  0
POLYLINE
  5
1353
  8
ODPAD
 66
     1
 10
0.0
 20
0.0
 30
0.0
 70
    64
 71
     4
 72
     2
  0
VERTEX
  5
1354
  8
ODPAD
 10
-21.00000000000034
 20
-20.99999999999999
 30
-287.5000000000003
 70
   192
  0
VERTEX
  5
1355
  8
ODPAD
 10
-21.00000000000034
 20
-19.99999999999999
 30
-287.5000000000003
 70
   192
  0
VERTEX
  5
1356
  8
ODPAD
 10
-12.00000000000034
 20
-19.99999999999999
 30
-287.5000000000003
 70
   192
  0
VERTEX
  5
1357
  8
ODPAD
 10
-12.00000000000034
 20
-20.99999999999999
 30
-287.5000000000003
 70
   192
  0
VERTEX
  5
1358
  8
ODPAD
 10
0.0
 20
0.0
 30
0.0
 70
   128
 71
     1
 72
     4
 73
    -3
  0
VERTEX
  5
1359
  8
ODPAD
 10
0.0
 20
0.0
 30
0.0
 70
   128
 71
    -1
 72
     3
 73
     2
  0
SEQEND
  5
13E7
  8
ODPAD
  0
POLYLINE
  5
135A
  8
ODPAD
 66
     1
 10
0.0
 20
0.0
 30
0.0
 70
    64
 71
     4
 72
     2
  0
VERTEX
  5
135B
  8
ODPAD
 10
-12.00000000000034
 20
-20.99999999999999
 30
-287.5000000000003
 70
   192
  0
VERTEX
  5
135C
  8
ODPAD
 10
-12.00000000000034
 20
-19.99999999999999
 30
-287.5000000000003
 70
   192
  0
VERTEX
  5
135D
  8
ODPAD
 10
-12.00000000000034
 20
-19.99999999999999
 30
-278.5000000000003
 70
   192
  0
VERTEX
  5
135E
  8
ODPAD
 10
-12.00000000000034
 20
-20.99999999999999
 30
-278.5000000000003
 70
   192
  0
VERTEX
  5
135F
  8
ODPAD
 10
0.0
 20
0.0
 30
0.0
 70
   128
 71
     1
 72
     4
 73
    -3
  0
VERTEX
  5
1360
  8
ODPAD
 10
0.0
 20
0.0
 30
0.0
 70
   128
 71
    -1
 72
     3
 73
     2
  0
SEQEND
  5
13E8
  8
ODPAD
  0
POLYLINE
  5
1361
  8
ODPAD
 66
     1
 10
0.0
 20
0.0
 30
0.0
 70
    64
 71
     4
 72
     2
  0
VERTEX
  5
1362
  8
ODPAD
 10
-12.00000000000034
 20
-20.99999999999999
 30
-278.5000000000003
 70
   192
  0
VERTEX
  5
1363
  8
ODPAD
 10
-12.00000000000034
 20
-19.99999999999999
 30
-278.5000000000003
 70
   192
  0
VERTEX
  5
1364
  8
ODPAD
 10
-21.00000000000034
 20
-19.99999999999999
 30
-278.5000000000003
 70
   192
  0
VERTEX
  5
1365
  8
ODPAD
 10
-21.00000000000034
 20
-20.99999999999999
 30
-278.5000000000003
 70
   192
  0
VERTEX
  5
1366
  8
ODPAD
 10
0.0
 20
0.0
 30
0.0
 70
   128
 71
     1
 72
     4
 73
    -3
  0
VERTEX
  5
1367
  8
ODPAD
 10
0.0
 20
0.0
 30
0.0
 70
   128
 71
    -1
 72
     3
 73
     2
  0
SEQEND
  5
13E9
  8
ODPAD
  0
ENDBLK
  5
137F
  8
0
  0
ENDSEC
  0
SECTION
  2
ENTITIES
  0
INSERT
  5
BE
  8
VANA
  2
*X1
 10
0.0
 20
0.0
 30
0.0
  0
INSERT
  5
BF
  8
ODPAD
  2
*X2
 10
0.0
 20
0.0
 30
0.0
  0
ENDSEC
  0
EOF
